999
DXF file: YTH_assy_2.dxf
999
Pro/ENGINEER 2014200 by Parametric Technology Corporation
  0
SECTION
  2
HEADER
  9
$ACADVER
  1
AC1021
  9
$DWGCODEPAGE
  3
ANSI_1252
  9
$EXTMAX
 10
22.0
 20
17.0
 30
0.0
  9
$EXTMIN
 10
0.0
 20
0.0
 30
0.0
  9
$LIMMIN
 10
0.0
 20
0.0
  9
$LIMMAX
 10
22.0
 20
17.0
  9
$VIEWCTR
 10
11.0
 20
8.5
  9
$VIEWSIZE
 40
17.0
  9
$CLAYER
  8
0
  9
$LTSCALE
 40
1.21
  9
$CELTYPE
  6
BYLAYER
  9
$DIMSCALE
 40
1.0
  9
$DIMASZ
 40
0.1875
  9
$DIMEXO
 40
0.0625
  9
$DIMDLI
 40
0.836
  9
$DIMEXE
 40
0.125
  9
$DIMCEN
 40
0.198
  9
$DIMLFAC
 40
1.0
  9
$DIMBLK
  1
_FILLED
  9
$DIMTXT
 40
0.1
  9
$DIMTOL
 70
0
  9
$DIMLIM
 70
0
  9
$DIMTFAC
 40
1.0
  9
$DIMGAP
 40
0.09
  9
$DIMDSEP
 70
46
  9
$AUNITS
 70
0
  9
$PDMODE
 70
3
  9
$PDSIZE
 40
0.3125
  9
$HANDSEED
  5
3DC
  9
$TILEMODE
 70
1
  9
$MEASUREMENT
 70
0
  9
$INSUNITS
 70
1
  0
ENDSEC
  0
SECTION
  2
CLASSES
  0
CLASS
  1
ACDBDICTIONARYWDFLT
  2
AcDbDictionaryWithDefault
  3
AutoCAD 2000
 90
0
 91
1
280
0
281
0
  0
CLASS
  1
ACDBPLACEHOLDER
  2
AcDbPlaceHolder
  3
AutoCAD 2000
 90
0
 91
1
280
0
281
0
  0
CLASS
  1
LAYOUT
  2
AcDbLayout
  3
AutoCAD 2000
 90
0
 91
0
280
0
281
0
  0
CLASS
  1
RASTERVARIABLES
  2
AcDbRasterVariables
  3
ISM
 90
0
 91
1
280
0
281
0
  0
CLASS
  1
IMAGEDEF
  2
AcDbRasterImageDef
  3
ISM
 90
0
 91
1
280
0
281
0
  0
CLASS
  1
IMAGEDEF_REACTOR
  2
AcDbRasterImageDefReactor
  3
ISM
 90
0
 91
1
280
0
281
0
  0
CLASS
  1
IMAGE
  2
AcDbRasterImage
  3
ISM
 90
127
 91
1
280
0
281
1
  0
CLASS
  1
TABLESTYLE
  2
AcDbTableStyle
  3
ObjectDBX Classes
 90
2047
 91
1
280
0
281
0
  0
CLASS
  1
ACAD_TABLE
  2
AcDbTable
  3
ObjectDBX Classes
 90
1025
 91
2
280
0
281
1
  0
ENDSEC
  0
SECTION
  2
TABLES
  0
TABLE
  2
VPORT
  5
8
100
AcDbSymbolTable
 70
2
  0
VPORT
  5
1F4
100
AcDbSymbolTableRecord
100
AcDbViewportTableRecord
  2
*ACTIVE
 70
0
 10
0.0
 20
0.0
 11
1.0
 21
1.0
 12
11.0
 22
8.5
 13
0.0
 23
0.0
 14
1.0
 24
1.0
 15
0.0
 25
0.0
 16
0.0
 26
0.0
 36
1.0
 17
0.0
 27
0.0
 37
0.0
 40
17.0
 41
1.2941176471
 42
50.0
 43
0.0
 44
0.0
 50
0.0
 51
0.0
 71
0
 72
100
 73
1
 74
1
 75
0
 76
0
 77
0
 78
0
  0
ENDTAB
  0
TABLE
  2
LTYPE
  5
5
100
AcDbSymbolTable
 70
6
  0
LTYPE
  5
14
100
AcDbSymbolTableRecord
100
AcDbLinetypeTableRecord
  2
BYBLOCK
 70
0
  3

 72
65
 73
0
 40
0.0
  0
LTYPE
  5
15
100
AcDbSymbolTableRecord
100
AcDbLinetypeTableRecord
  2
BYLAYER
 70
0
  3

 72
65
 73
0
 40
0.0
  0
LTYPE
  5
16
100
AcDbSymbolTableRecord
100
AcDbLinetypeTableRecord
  2
CONTINUOUS
 70
64
  3
Solid line
 72
65
 73
0
 40
0.0
  0
LTYPE
  5
1F5
100
AcDbSymbolTableRecord
100
AcDbLinetypeTableRecord
  2
CENTER
 70
64
  3
____ _ ____ _ ____ _ ____ _ ____ _ ____ _ ____
 72
65
 73
4
 40
0.6
 49
0.375
 74
0
 49
-0.075
 74
0
 49
0.075
 74
0
 49
-0.075
 74
0
  0
LTYPE
  5
1F6
100
AcDbSymbolTableRecord
100
AcDbLinetypeTableRecord
  2
HIDDEN
 70
64
  3
- - - - - - - - - - - - - - - - - - - -
 72
65
 73
2
 40
0.2
 49
0.1
 74
0
 49
-0.1
 74
0
  0
LTYPE
  5
1F7
100
AcDbSymbolTableRecord
100
AcDbLinetypeTableRecord
  2
PHANTOM
 70
64
  3
_____ _ _ _____ _ _ _____ _ _ _____
 72
65
 73
6
 40
0.8
 49
0.45
 74
0
 49
-0.05
 74
0
 49
0.1
 74
0
 49
-0.05
 74
0
 49
0.1
 74
0
 49
-0.05
 74
0
  0
LTYPE
  5
1F8
100
AcDbSymbolTableRecord
100
AcDbLinetypeTableRecord
  2
DOT
 70
64
  3
. . . . . . . . . . . . . . . . . . . .
 72
65
 73
2
 40
0.2
 49
0.1
 74
0
 49
-0.1
 74
0
  0
LTYPE
  5
1F9
100
AcDbSymbolTableRecord
100
AcDbLinetypeTableRecord
  2
DASHED
 70
64
  3
- - - - - - - - - - - - - - - - - - - -
 72
65
 73
2
 40
0.2
 49
0.1
 74
0
 49
-0.1
 74
0
  0
ENDTAB
  0
TABLE
  2
LAYER
  5
2
100
AcDbSymbolTable
 70
36
  0
LAYER
  5
10
100
AcDbSymbolTableRecord
100
AcDbLayerTableRecord
  2
0
 70
0
 62
7
  6
CONTINUOUS
370
-3
390
F
  0
LAYER
  5
1FA
100
AcDbSymbolTableRecord
100
AcDbLayerTableRecord
  2
DEFAULT_1
 70
0
 62
7
  6
CENTER
370
-3
390
F
  0
LAYER
  5
1FB
100
AcDbSymbolTableRecord
100
AcDbLayerTableRecord
  2
DEFAULT_2
 70
0
 62
8
  6
HIDDEN
370
-3
390
F
  0
LAYER
  5
1FC
100
AcDbSymbolTableRecord
100
AcDbLayerTableRecord
  2
DEFAULT_3
 70
0
 62
7
  6
PHANTOM
370
-3
390
F
  0
LAYER
  5
1FD
100
AcDbSymbolTableRecord
100
AcDbLayerTableRecord
  2
01___PRT_ALL_DTM_PLN
 70
0
 62
7
  6
CONTINUOUS
370
-3
390
F
  0
LAYER
  5
1FE
100
AcDbSymbolTableRecord
100
AcDbLayerTableRecord
  2
01___PRT_DEF_DTM_PLN
 70
0
 62
7
  6
CONTINUOUS
370
-3
390
F
  0
LAYER
  5
1FF
100
AcDbSymbolTableRecord
100
AcDbLayerTableRecord
  2
02___PRT_ALL_AXES
 70
0
 62
7
  6
CONTINUOUS
370
-3
390
F
  0
LAYER
  5
200
100
AcDbSymbolTableRecord
100
AcDbLayerTableRecord
  2
03___PRT_ALL_CURVES
 70
0
 62
7
  6
CONTINUOUS
370
-3
390
F
  0
LAYER
  5
201
100
AcDbSymbolTableRecord
100
AcDbLayerTableRecord
  2
04___PRT_ALL_DTM_PNT
 70
0
 62
7
  6
CONTINUOUS
370
-3
390
F
  0
LAYER
  5
202
100
AcDbSymbolTableRecord
100
AcDbLayerTableRecord
  2
05___PRT_ALL_DTM_CSYS
 70
0
 62
7
  6
CONTINUOUS
370
-3
390
F
  0
LAYER
  5
203
100
AcDbSymbolTableRecord
100
AcDbLayerTableRecord
  2
05___PRT_DEF_DTM_CSYS
 70
0
 62
7
  6
CONTINUOUS
370
-3
390
F
  0
LAYER
  5
204
100
AcDbSymbolTableRecord
100
AcDbLayerTableRecord
  2
06___PRT_ALL_SURFS
 70
0
 62
7
  6
CONTINUOUS
370
-3
390
F
  0
LAYER
  5
205
100
AcDbSymbolTableRecord
100
AcDbLayerTableRecord
  2
DATUM_PLANES
 70
0
 62
7
  6
CONTINUOUS
370
-3
390
F
  0
LAYER
  5
206
100
AcDbSymbolTableRecord
100
AcDbLayerTableRecord
  2
DIMENSIONS
 70
0
 62
7
  6
CONTINUOUS
370
-3
390
F
  0
LAYER
  5
207
100
AcDbSymbolTableRecord
100
AcDbLayerTableRecord
  2
DTM_500001
 70
0
 62
7
  6
CONTINUOUS
370
-3
390
F
  0
LAYER
  5
208
100
AcDbSymbolTableRecord
100
AcDbLayerTableRecord
  2
PARAMETERDIMENSIONS
 70
0
 62
7
  6
CONTINUOUS
370
-3
390
F
  0
LAYER
  5
209
100
AcDbSymbolTableRecord
100
AcDbLayerTableRecord
  2
PORT_AREAS
 70
0
 62
7
  6
CONTINUOUS
370
-3
390
F
  0
LAYER
  5
20A
100
AcDbSymbolTableRecord
100
AcDbLayerTableRecord
  2
SUNNBOMCOSMETIC
 70
0
 62
7
  6
CONTINUOUS
370
-3
390
F
  0
LAYER
  5
20B
100
AcDbSymbolTableRecord
100
AcDbLayerTableRecord
  2
SUNNBOMSTAMPING
 70
0
 62
7
  6
CONTINUOUS
370
-3
390
F
  0
LAYER
  5
20C
100
AcDbSymbolTableRecord
100
AcDbLayerTableRecord
  2
THREADS
 70
0
 62
7
  6
CONTINUOUS
370
-3
390
F
  0
ENDTAB
  0
TABLE
  2
STYLE
  5
3
100
AcDbSymbolTable
 70
1
  0
STYLE
  5
11
100
AcDbSymbolTableRecord
100
AcDbTextStyleTableRecord
  2
STANDARD
 70
0
 40
0.0
 41
0.8
 50
0.0
 71
0
 42
0.2
  3
txt
  4

  0
STYLE
  5
20D
100
AcDbSymbolTableRecord
100
AcDbTextStyleTableRecord
  2
TEXTSTYLE_1
 70
0
 40
0.0
 41
0.8
 50
0.0
 71
0
 42
0.2
  3
gdt
  4

  0
ENDTAB
  0
TABLE
  2
VIEW
  5
6
100
AcDbSymbolTable
 70
0
  0
ENDTAB
  0
TABLE
  2
UCS
  5
7
100
AcDbSymbolTable
 70
0
  0
ENDTAB
  0
TABLE
  2
APPID
  5
9
100
AcDbSymbolTable
 70
1
  0
APPID
  5
20E
100
AcDbSymbolTableRecord
100
AcDbRegAppTableRecord
  2
ACAD
 70
0
  0
ENDTAB
  0
TABLE
  2
BLOCK_RECORD
  5
1
100
AcDbSymbolTable
 70
0
  0
BLOCK_RECORD
  5
20F
100
AcDbSymbolTableRecord
100
AcDbBlockTableRecord
  2
*Model_Space
  0
BLOCK_RECORD
  5
210
100
AcDbSymbolTableRecord
100
AcDbBlockTableRecord
  2
*Paper_Space
  0
BLOCK_RECORD
  5
211
100
AcDbSymbolTableRecord
100
AcDbBlockTableRecord
  2
SUN_FIRST_THIRD_ANGLE_BL0
  0
BLOCK_RECORD
  5
212
100
AcDbSymbolTableRecord
100
AcDbBlockTableRecord
  2
*T1
  0
BLOCK_RECORD
  5
213
100
AcDbSymbolTableRecord
100
AcDbBlockTableRecord
  2
*T2
  0
ENDTAB
  0
TABLE
  2
DIMSTYLE
  5
A
100
AcDbSymbolTable
 70
1
100
AcDbDimStyleTable
 71
0
  0
DIMSTYLE
105
214
100
AcDbSymbolTableRecord
100
AcDbDimStyleTableRecord
  2
STANDARD
 70
0
  3

  4

 40
1.0
 41
0.1875
 42
0.0625
 43
0.38
 44
0.125
 45
0.0
 46
0.0
 47
0.001
 48
0.001
140
0.1
141
0.09
142
0.0
143
25.4
144
1.0
145
0.0
146
1.0
147
0.09
 71
0.0
 72
0.0
 73
1
 74
1
 75
0
 76
0
 77
0
 78
4
170
0
171
2
172
0
173
0
174
0
175
0
176
0
177
0
178
0
270
2
271
3
272
3
273
2
274
2
275
0
280
0
281
0
282
0
283
1
284
4
285
0
286
0
287
3
288
0
340
11
278
46
  0
ENDTAB
  0
ENDSEC
  0
SECTION
  2
BLOCKS
  0
BLOCK
  5
20
100
AcDbEntity
  8
0
100
AcDbBlockBegin
  2
*Model_Space
 70
0
 10
0.0
 20
0.0
 30
0.0
  3
*Model_Space
  1

  0
ENDBLK
  5
21
100
AcDbEntity
  8
0
100
AcDbBlockEnd
  0
BLOCK
  5
1C
100
AcDbEntity
  8
0
100
AcDbBlockBegin
  2
*Paper_Space
 70
0
 10
0.0
 20
0.0
 30
0.0
  3
*Paper_Space
  1

  0
ENDBLK
  5
1D
100
AcDbEntity
  8
0
100
AcDbBlockEnd
  0
BLOCK
  5
215
100
AcDbEntity
  8
0
100
AcDbBlockBegin
 62
2
  6
CONTINUOUS
  2
SUN_FIRST_THIRD_ANGLE_BL0
 70
64
 10
20.4816717061
 20
1.2289683772
  3
SUN_FIRST_THIRD_ANGLE_BL0
  1

  0
TEXT
  5
216
100
AcDbEntity
  8
0
100
AcDbText
 62
2
  6
CONTINUOUS
 10
19.4750896608
 20
1.4136269581
  7
STANDARD
 40
0.08
  1
FIRST ANGLE
 41
0.8
 72
0
100
AcDbText
  0
TEXT
  5
217
100
AcDbEntity
  8
0
100
AcDbText
 62
2
  6
CONTINUOUS
 10
20.7842537513
 20
1.4047600029
  7
STANDARD
 40
0.08
  1
THIRD ANGLE
 41
0.8
 72
0
100
AcDbText
  0
LINE
  5
218
100
AcDbEntity
  8
0
100
AcDbLine
 62
7
  6
CONTINUOUS
 10
19.4767170086
 20
1.1727031207
 11
19.6334271527
 21
1.1717972817
  0
LINE
  5
219
100
AcDbEntity
  8
0
100
AcDbLine
 62
7
  6
CONTINUOUS
 10
19.6596964832
 20
1.1717972817
 11
19.6950230232
 21
1.171593082
  0
LINE
  5
21A
100
AcDbEntity
  8
0
100
AcDbLine
 62
7
  6
CONTINUOUS
 10
19.7194818561
 20
1.1708914427
 11
19.8852396156
 21
1.1699333054
  0
LINE
  5
21B
100
AcDbEntity
  8
0
100
AcDbLine
 62
7
  6
CONTINUOUS
 10
19.4758111696
 20
1.2723454088
 11
19.88525039
 21
1.3511534004
  0
LINE
  5
21C
100
AcDbEntity
  8
0
100
AcDbLine
 62
7
  6
CONTINUOUS
 10
19.88525039
 20
1.3511534004
 11
19.8831348489
 21
0.9851647912
  0
LINE
  5
21D
100
AcDbEntity
  8
0
100
AcDbLine
 62
7
  6
CONTINUOUS
 10
19.8831348489
 20
0.9851647912
 11
19.4767170086
 21
1.0658141206
  0
LINE
  5
21E
100
AcDbEntity
  8
0
100
AcDbLine
 62
7
  6
CONTINUOUS
 10
19.4767170086
 20
1.0658141206
 11
19.4779056764
 21
1.2714536432
  0
CIRCLE
  5
21F
100
AcDbEntity
  8
0
100
AcDbCircle
 62
7
  6
CONTINUOUS
 10
20.2068232291
 20
1.1717972817
 40
0.175742101
  0
CIRCLE
  5
220
100
AcDbEntity
  8
0
100
AcDbCircle
 62
7
  6
CONTINUOUS
 10
20.2068232291
 20
1.1717972817
 40
0.1005522074
  0
LINE
  5
221
100
AcDbEntity
  8
0
100
AcDbLine
 62
7
  6
CONTINUOUS
 10
20.2077290681
 20
1.3756110529
 11
20.2071171714
 21
1.2379342989
  0
LINE
  5
222
100
AcDbEntity
  8
0
100
AcDbLine
 62
7
  6
CONTINUOUS
 10
20.2077290681
 20
1.2016899681
 11
20.2074674401
 21
1.1428236749
  0
LINE
  5
223
100
AcDbEntity
  8
0
100
AcDbLine
 62
7
  6
CONTINUOUS
 10
20.208634907
 20
1.101141841
 11
20.2080230104
 21
0.963465087
  0
LINE
  5
224
100
AcDbEntity
  8
0
100
AcDbLine
 62
7
  6
CONTINUOUS
 10
20.0066328138
 20
1.1745147986
 11
20.1443095678
 21
1.1739029019
  0
LINE
  5
225
100
AcDbEntity
  8
0
100
AcDbLine
 62
7
  6
CONTINUOUS
 10
20.1832714155
 20
1.1727031207
 11
20.238153505
 21
1.172335442
  0
LINE
  5
226
100
AcDbEntity
  8
0
100
AcDbLine
 62
7
  6
CONTINUOUS
 10
20.2756669918
 20
1.1717972817
 11
20.407916871
 21
1.1712095044
  0
CIRCLE
  5
227
100
AcDbEntity
  8
0
100
AcDbCircle
 62
7
  6
CONTINUOUS
 10
20.7509457401
 20
1.1693297793
 40
0.1722024983
  0
CIRCLE
  5
228
100
AcDbEntity
  8
0
100
AcDbCircle
 62
7
  6
CONTINUOUS
 10
20.7509457401
 20
1.1693297793
 40
0.0985164967
  0
LINE
  5
229
100
AcDbEntity
  8
0
100
AcDbLine
 62
7
  6
CONTINUOUS
 10
20.7169767782
 20
1.170462078
 11
20.7825395137
 21
1.1682766535
  0
LINE
  5
22A
100
AcDbEntity
  8
0
100
AcDbLine
 62
7
  6
CONTINUOUS
 10
20.8177513651
 20
1.1693297793
 11
20.947965719
 21
1.1693297793
  0
LINE
  5
22B
100
AcDbEntity
  8
0
100
AcDbLine
 62
7
  6
CONTINUOUS
 10
20.6875370113
 20
1.170462078
 11
20.5573226574
 21
1.170462078
  0
LINE
  5
22C
100
AcDbEntity
  8
0
100
AcDbLine
 62
7
  6
CONTINUOUS
 10
20.7486811426
 20
1.1987695462
 11
20.7486811426
 21
1.1432869085
  0
LINE
  5
22D
100
AcDbEntity
  8
0
100
AcDbLine
 62
7
  6
CONTINUOUS
 10
20.7498134414
 20
1.1059210505
 11
20.7498134414
 21
0.9757066966
  0
LINE
  5
22E
100
AcDbEntity
  8
0
100
AcDbLine
 62
7
  6
CONTINUOUS
 10
20.7486811426
 20
1.2338708068
 11
20.7486811426
 21
1.3640851607
  0
LINE
  5
22F
100
AcDbEntity
  8
0
100
AcDbLine
 62
7
  6
CONTINUOUS
 10
21.0702539817
 20
1.2701043662
 11
21.4790138229
 21
1.3448360823
  0
LINE
  5
230
100
AcDbEntity
  8
0
100
AcDbLine
 62
7
  6
CONTINUOUS
 10
21.4790138229
 20
1.3448360823
 11
21.4790138229
 21
0.9779712941
  0
LINE
  5
231
100
AcDbEntity
  8
0
100
AcDbLine
 62
7
  6
CONTINUOUS
 10
21.4790138229
 20
0.9779712941
 11
21.069121683
 21
1.0617614
  0
LINE
  5
232
100
AcDbEntity
  8
0
100
AcDbLine
 62
7
  6
CONTINUOUS
 10
21.0702539817
 20
1.2701043662
 11
21.069121683
 21
1.0617614
  0
LINE
  5
233
100
AcDbEntity
  8
0
100
AcDbLine
 62
7
  6
CONTINUOUS
 10
21.4790138229
 20
1.1693297793
 11
21.3159628059
 21
1.1693297793
  0
LINE
  5
234
100
AcDbEntity
  8
0
100
AcDbLine
 62
7
  6
CONTINUOUS
 10
21.2876553377
 20
1.1693297793
 11
21.2502894796
 21
1.1693297793
  0
LINE
  5
235
100
AcDbEntity
  8
0
100
AcDbLine
 62
7
  6
CONTINUOUS
 10
21.2208497126
 20
1.1659328831
 11
21.0713862804
 21
1.1659328831
  0
LINE
  5
236
100
AcDbEntity
  8
0
100
AcDbLine
 62
7
  6
CONTINUOUS
 10
20.4796138713
 20
1.5284908897
 11
20.4766766948
 21
0.9294458646
  0
ENDBLK
  5
237
100
AcDbEntity
  8
0
  6
BYBLOCK
 62
0
100
AcDbBlockEnd
  0
BLOCK
  5
238
100
AcDbEntity
  8
0
100
AcDbBlockBegin
  2
*T1
 70
1
 10
0.0
 20
0.0
  3
*T1
  1

  0
LINE
  5
239
100
AcDbEntity
  8
0
100
AcDbLine
 62
2
  6
CONTINUOUS
 10
9.275
 20
0.0
 11
-0.0
 21
0.0
  0
LINE
  5
23A
100
AcDbEntity
  8
0
100
AcDbLine
 62
2
  6
CONTINUOUS
 10
9.275
 20
0.0
 11
9.275
 21
1.25
  0
LINE
  5
23B
100
AcDbEntity
  8
0
100
AcDbLine
 62
2
  6
CONTINUOUS
 10
9.275
 20
0.625
 11
-0.0
 21
0.625
  0
LINE
  5
23C
100
AcDbEntity
  8
0
100
AcDbLine
 62
2
  6
CONTINUOUS
 10
9.275
 20
1.25
 11
-0.0
 21
1.25
  0
LINE
  5
23D
100
AcDbEntity
  8
0
100
AcDbLine
 62
2
  6
CONTINUOUS
 10
6.8
 20
0.0
 11
6.8
 21
1.25
  0
LINE
  5
23E
100
AcDbEntity
  8
0
100
AcDbLine
 62
2
  6
CONTINUOUS
 10
6.4
 20
0.0
 11
6.4
 21
0.625
  0
LINE
  5
23F
100
AcDbEntity
  8
0
100
AcDbLine
 62
2
  6
CONTINUOUS
 10
5.9
 20
0.0
 11
5.9
 21
0.625
  0
LINE
  5
240
100
AcDbEntity
  8
0
100
AcDbLine
 62
2
  6
CONTINUOUS
 10
5.2
 20
0.0
 11
5.2
 21
0.625
  0
LINE
  5
241
100
AcDbEntity
  8
0
100
AcDbLine
 62
2
  6
CONTINUOUS
 10
4.1
 20
0.0
 11
4.1
 21
1.25
  0
LINE
  5
242
100
AcDbEntity
  8
0
100
AcDbLine
 62
2
  6
CONTINUOUS
 10
-0.0
 20
0.0
 11
-0.0
 21
1.25
  0
MTEXT
  5
243
100
AcDbEntity
  8
0
100
AcDbMText
 62
2
  6
CONTINUOUS
  7
STANDARD
 71
2
 72
1
 10
6.6
 20
0.325
 30
0.0
 11
1.0
 21
0.0
 31
0.0
 44
0.9
  1
2
 40
0.125
 41
0.2
  0
MTEXT
  5
244
100
AcDbEntity
  8
0
100
AcDbMText
 62
2
  6
CONTINUOUS
  7
STANDARD
 71
2
 72
1
 10
6.15
 20
0.325
 30
0.0
 11
1.0
 21
0.0
 31
0.0
 44
0.9
  1
C
 40
0.125
 41
0.2
  0
MTEXT
  5
245
100
AcDbEntity
  8
0
100
AcDbMText
 62
2
  6
CONTINUOUS
  7
STANDARD
 71
2
 72
1
 10
5.55
 20
0.325
 30
0.0
 11
1.0
 21
0.0
 31
0.0
 44
0.9
  1
1.000
 40
0.125
 41
1.0
  0
MTEXT
  5
246
100
AcDbEntity
  8
0
100
AcDbMText
 62
2
  6
CONTINUOUS
  7
STANDARD
 71
2
 72
1
 10
4.65
 20
0.325
 30
0.0
 11
1.0
 21
0.0
 31
0.0
 44
0.9
  1
May-20-21
 40
0.125
 41
1.8
  0
MTEXT
  5
247
100
AcDbEntity
  8
0
100
AcDbMText
 62
2
  6
CONTINUOUS
  7
STANDARD
 71
2
 72
1
 10
2.05
 20
0.4625
 30
0.0
 11
1.0
 21
0.0
 31
0.0
 44
0.9
  1
T-2A Motor mount Eaton/Char-Lynn 2000\PCross pilot with shuttle
 40
0.125
 41
7.4
  0
MTEXT
  5
248
100
AcDbEntity
  8
0
100
AcDbMText
 62
2
  6
CONTINUOUS
  7
STANDARD
 71
1
 72
1
 10
6.45
 20
0.5625
 30
0.0
 11
1.0
 21
0.0
 31
0.0
 44
0.9
  1
SHEET
 40
0.06
 41
0.48
  0
MTEXT
  5
249
100
AcDbEntity
  8
0
100
AcDbMText
 62
2
  6
CONTINUOUS
  7
STANDARD
 71
1
 72
1
 10
5.95
 20
0.5625
 30
0.0
 11
1.0
 21
0.0
 31
0.0
 44
0.9
  1
DWG SIZE
 40
0.06
 41
0.768
  0
MTEXT
  5
24A
100
AcDbEntity
  8
0
100
AcDbMText
 62
2
  6
CONTINUOUS
  7
STANDARD
 71
1
 72
1
 10
5.25
 20
0.5625
 30
0.0
 11
1.0
 21
0.0
 31
0.0
 44
0.9
  1
SCALE
 40
0.06
 41
0.48
  0
MTEXT
  5
24B
100
AcDbEntity
  8
0
100
AcDbMText
 62
2
  6
CONTINUOUS
  7
STANDARD
 71
1
 72
1
 10
4.15
 20
0.5625
 30
0.0
 11
1.0
 21
0.0
 31
0.0
 44
0.9
  1
DATE
 40
0.06
 41
0.384
  0
MTEXT
  5
24C
100
AcDbEntity
  8
0
100
AcDbMText
 62
2
  6
CONTINUOUS
  7
STANDARD
 71
1
 72
1
 10
0.05
 20
0.5625
 30
0.0
 11
1.0
 21
0.0
 31
0.0
 44
0.9
  1
DESCRIPTION
 40
0.06
 41
1.056
  0
MTEXT
  5
24D
100
AcDbEntity
  8
0
100
AcDbMText
 62
2
  6
CONTINUOUS
  7
STANDARD
 71
2
 72
1
 10
5.45
 20
1.0375
 30
0.0
 11
1.0
 21
0.0
 31
0.0
 44
0.9
  1
ALL DIMENSIONS IN INCH\PVIEWS ARE THIRD ANGLE
 40
0.12
 41
4.224
  0
MTEXT
  5
24E
100
AcDbEntity
  8
0
100
AcDbMText
 62
2
  6
CONTINUOUS
  7
STANDARD
 71
2
 72
1
 10
2.05
 20
0.95
 30
0.0
 11
1.0
 21
0.0
 31
0.0
 44
0.9
  1
YTH
 40
0.125
 41
0.6
  0
MTEXT
  5
24F
100
AcDbEntity
  8
0
100
AcDbMText
 62
2
  6
CONTINUOUS
  7
STANDARD
 71
1
 72
1
 10
0.05
 20
1.1875
 30
0.0
 11
1.0
 21
0.0
 31
0.0
 44
0.9
  1
MODEL
 40
0.06
 41
0.48
  0
ENDBLK
  5
250
100
AcDbEntity
  8
0
  6
BYBLOCK
 62
0
100
AcDbBlockEnd
  0
BLOCK
  5
251
100
AcDbEntity
  8
0
100
AcDbBlockBegin
  2
*T2
 70
1
 10
0.0
 20
0.0
  3
*T2
  1

  0
LINE
  5
252
100
AcDbEntity
  8
0
100
AcDbLine
 62
2
  6
CONTINUOUS
 10
0.0
 20
0.0
 11
9.055
 21
0.0
  0
LINE
  5
253
100
AcDbEntity
  8
0
100
AcDbLine
 62
2
  6
CONTINUOUS
 10
0.0
 20
0.0
 11
0.0
 21
-1.844
  0
LINE
  5
254
100
AcDbEntity
  8
0
100
AcDbLine
 62
2
  6
CONTINUOUS
 10
0.0
 20
-0.344
 11
9.055
 21
-0.344
  0
LINE
  5
255
100
AcDbEntity
  8
0
100
AcDbLine
 62
2
  6
CONTINUOUS
 10
0.0
 20
-0.594
 11
9.055
 21
-0.594
  0
LINE
  5
256
100
AcDbEntity
  8
0
100
AcDbLine
 62
2
  6
CONTINUOUS
 10
0.0
 20
-0.844
 11
9.055
 21
-0.844
  0
LINE
  5
257
100
AcDbEntity
  8
0
100
AcDbLine
 62
2
  6
CONTINUOUS
 10
0.0
 20
-1.094
 11
9.055
 21
-1.094
  0
LINE
  5
258
100
AcDbEntity
  8
0
100
AcDbLine
 62
2
  6
CONTINUOUS
 10
0.0
 20
-1.344
 11
9.055
 21
-1.344
  0
LINE
  5
259
100
AcDbEntity
  8
0
100
AcDbLine
 62
2
  6
CONTINUOUS
 10
0.0
 20
-1.594
 11
9.055
 21
-1.594
  0
LINE
  5
25A
100
AcDbEntity
  8
0
100
AcDbLine
 62
2
  6
CONTINUOUS
 10
0.0
 20
-1.844
 11
9.055
 21
-1.844
  0
LINE
  5
25B
100
AcDbEntity
  8
0
100
AcDbLine
 62
2
  6
CONTINUOUS
 10
3.055
 20
0.0
 11
3.055
 21
-1.844
  0
LINE
  5
25C
100
AcDbEntity
  8
0
100
AcDbLine
 62
2
  6
CONTINUOUS
 10
9.055
 20
0.0
 11
9.055
 21
-1.844
  0
MTEXT
  5
25D
100
AcDbEntity
  8
0
100
AcDbMText
 62
2
  6
CONTINUOUS
  7
STANDARD
 71
2
 72
1
 10
1.5275
 20
-0.0995
 30
0.0
 11
1.0
 21
0.0
 31
0.0
 44
0.9
  1
Technical Data
 40
0.145
 41
3.248
  0
MTEXT
  5
25E
100
AcDbEntity
  8
0
100
AcDbMText
 62
2
  6
CONTINUOUS
  7
STANDARD
 71
2
 72
1
 10
4.555
 20
-0.0995
 30
0.0
 11
1.0
 21
0.0
 31
0.0
 44
0.9
  1
U.S. Units
 40
0.145
 41
2.32
  0
MTEXT
  5
25F
100
AcDbEntity
  8
0
100
AcDbMText
 62
2
  6
CONTINUOUS
  7
STANDARD
 71
2
 72
1
 10
7.555
 20
-0.0995
 30
0.0
 11
1.0
 21
0.0
 31
0.0
 44
0.9
  1
Metric Units
 40
0.145
 41
2.784
  0
MTEXT
  5
260
100
AcDbEntity
  8
0
100
AcDbMText
 62
2
  6
CONTINUOUS
  7
STANDARD
 71
2
 72
1
 10
1.5275
 20
-0.4065
 30
0.0
 11
1.0
 21
0.0
 31
0.0
 44
0.9
  1
Cavity
 40
0.125
 41
1.2
  0
MTEXT
  5
261
100
AcDbEntity
  8
0
100
AcDbMText
 62
2
  6
CONTINUOUS
  7
STANDARD
 71
2
 72
1
 10
6.055
 20
-0.4065
 30
0.0
 11
1.0
 21
0.0
 31
0.0
 44
0.9
  1
T-2A
 40
0.125
 41
0.8
  0
MTEXT
  5
262
100
AcDbEntity
  8
0
100
AcDbMText
 62
2
  6
CONTINUOUS
  7
STANDARD
 71
2
 72
1
 10
1.5275
 20
-0.6565
 30
0.0
 11
1.0
 21
0.0
 31
0.0
 44
0.9
  1
Body Features
 40
0.125
 41
2.6
  0
MTEXT
  5
263
100
AcDbEntity
  8
0
100
AcDbMText
 62
2
  6
CONTINUOUS
  7
STANDARD
 71
2
 72
1
 10
6.055
 20
-0.6565
 30
0.0
 11
1.0
 21
0.0
 31
0.0
 44
0.9
  1
Cross pilot with shuttle
 40
0.125
 41
4.8
  0
MTEXT
  5
264
100
AcDbEntity
  8
0
100
AcDbMText
 62
2
  6
CONTINUOUS
  7
STANDARD
 71
2
 72
1
 10
1.5275
 20
-0.9065
 30
0.0
 11
1.0
 21
0.0
 31
0.0
 44
0.9
  1
Body Type
 40
0.125
 41
1.8
  0
MTEXT
  5
265
100
AcDbEntity
  8
0
100
AcDbMText
 62
2
  6
CONTINUOUS
  7
STANDARD
 71
2
 72
1
 10
6.055
 20
-0.9065
 30
0.0
 11
1.0
 21
0.0
 31
0.0
 44
0.9
  1
Motor mount
 40
0.125
 41
2.2
  0
MTEXT
  5
266
100
AcDbEntity
  8
0
100
AcDbMText
 62
2
  6
CONTINUOUS
  7
STANDARD
 71
2
 72
1
 10
1.5275
 20
-1.1565
 30
0.0
 11
1.0
 21
0.0
 31
0.0
 44
0.9
  1
Interface
 40
0.125
 41
1.8
  0
MTEXT
  5
267
100
AcDbEntity
  8
0
100
AcDbMText
 62
2
  6
CONTINUOUS
  7
STANDARD
 71
2
 72
1
 10
6.055
 20
-1.1565
 30
0.0
 11
1.0
 21
0.0
 31
0.0
 44
0.9
  1
Eaton/Char-Lynn 2000
 40
0.125
 41
4.0
  0
MTEXT
  5
268
100
AcDbEntity
  8
0
100
AcDbMText
 62
2
  6
CONTINUOUS
  7
STANDARD
 71
2
 72
1
 10
1.5275
 20
-1.4065
 30
0.0
 11
1.0
 21
0.0
 31
0.0
 44
0.9
  1
Open Cavity Quantity
 40
0.125
 41
4.0
  0
MTEXT
  5
269
100
AcDbEntity
  8
0
100
AcDbMText
 62
2
  6
CONTINUOUS
  7
STANDARD
 71
2
 72
1
 10
6.055
 20
-1.4065
 30
0.0
 11
1.0
 21
0.0
 31
0.0
 44
0.9
  1
2
 40
0.125
 41
0.2
  0
MTEXT
  5
26A
100
AcDbEntity
  8
0
100
AcDbMText
 62
2
  6
CONTINUOUS
  7
STANDARD
 71
2
 72
1
 10
1.5275
 20
-1.6565
 30
0.0
 11
1.0
 21
0.0
 31
0.0
 44
0.9
  1
Weight
 40
0.125
 41
1.2
  0
MTEXT
  5
26B
100
AcDbEntity
  8
0
100
AcDbMText
 62
2
  6
CONTINUOUS
  7
STANDARD
 71
2
 72
1
 10
4.555
 20
-1.6565
 30
0.0
 11
1.0
 21
0.0
 31
0.0
 44
0.9
  1
2.224 lb.
 40
0.125
 41
1.8
  0
MTEXT
  5
26C
100
AcDbEntity
  8
0
100
AcDbMText
 62
2
  6
CONTINUOUS
  7
STANDARD
 71
2
 72
1
 10
7.555
 20
-1.6565
 30
0.0
 11
1.0
 21
0.0
 31
0.0
 44
0.9
  1
1,009 kg.
 40
0.125
 41
1.8
  0
ENDBLK
  5
26D
100
AcDbEntity
  8
0
  6
BYBLOCK
 62
0
100
AcDbBlockEnd
  0
ENDSEC
  0
SECTION
  2
ENTITIES
  0
IMAGE
  5
26E
100
AcDbEntity
  8
0
100
AcDbRasterImage
 62
7
  6
CONTINUOUS
 10
19.2297077316
 20
0.3094318264
 30
0.0
 11
0.0066666667
 21
0.0
 31
0.0
 12
0.0
 22
0.0066666667
 32
0.0
 13
369.0
 23
92.0
340
       3D9
 70
9
280
0
281
50
282
50
283
0
360
       3D3
 71
1
 91
2
 14
-0.5
 24
-0.5
 14
368.5
 24
91.5
  0
INSERT
  5
26F
100
AcDbEntity
  8
0
100
AcDbBlockReference
 62
2
  6
CONTINUOUS
  2
SUN_FIRST_THIRD_ANGLE_BL0
 10
20.4816717061
 20
1.2289683772
  0
ACAD_TABLE
  5
270
100
AcDbEntity
  8
0
 62
2
  6
CONTINUOUS
100
AcDbBlockReference
  2
*T1
 10
12.42375
 20
0.30125
 30
0.0
100
AcDbTable
342
       3DB
343
212
 11
1.0
 21
0.0
 31
0.0
 90
6
 91
4
 92
6
 93
20
 94
0
 95
0
 96
0
 70
1
 41
0.0
141
0.525
141
0.1
141
0.525
141
0.1
142
4.1
142
1.1
142
0.7
142
0.5
142
0.4
142
2.475
171
1
172
0
173
0
174
0
175
1
176
1
 91
33
178
0
145
0.0
301
CELL_VALUE
 90
4
  1
T-2A Motor mount Eaton/Char-Lynn 2000\PCross pilot with shuttle
304
ACVALUE_END
170
2
140
0.125
171
1
172
0
173
0
174
0
175
1
176
1
 91
33
178
0
145
0.0
301
CELL_VALUE
 90
4
  1
May-20-21
304
ACVALUE_END
170
5
140
0.125
171
1
172
0
173
0
174
0
175
1
176
1
 91
33
178
0
145
0.0
301
CELL_VALUE
 90
4
  1
1.000
304
ACVALUE_END
170
5
140
0.125
171
1
172
0
173
0
174
0
175
1
176
1
 91
33
178
0
145
0.0
301
CELL_VALUE
 90
4
  1
C
304
ACVALUE_END
170
5
140
0.125
171
1
172
0
173
0
174
0
175
1
176
1
 91
33
178
0
145
0.0
301
CELL_VALUE
 90
4
  1
2
304
ACVALUE_END
170
5
140
0.125
171
1
172
0
173
0
174
0
175
1
176
1
 91
33
178
0
145
0.0
301
CELL_VALUE
 90
4
  1
 
304
ACVALUE_END
170
1
140
0.125
171
1
172
0
173
0
174
0
175
1
176
1
 91
33
178
0
145
0.0
301
CELL_VALUE
 90
4
  1
DESCRIPTION
304
ACVALUE_END
170
1
140
0.06
171
1
172
0
173
0
174
0
175
1
176
1
 91
33
178
0
145
0.0
301
CELL_VALUE
 90
4
  1
DATE
304
ACVALUE_END
170
1
140
0.06
171
1
172
0
173
0
174
0
175
1
176
1
 91
33
178
0
145
0.0
301
CELL_VALUE
 90
4
  1
SCALE
304
ACVALUE_END
170
1
140
0.06
171
1
172
0
173
0
174
0
175
1
176
1
 91
33
178
0
145
0.0
301
CELL_VALUE
 90
4
  1
DWG SIZE
304
ACVALUE_END
170
1
140
0.06
171
1
172
0
173
0
174
0
175
1
176
1
 91
33
178
0
145
0.0
301
CELL_VALUE
 90
4
  1
SHEET
304
ACVALUE_END
170
1
140
0.06
171
1
172
0
173
0
174
0
175
1
176
1
 91
33
178
0
145
0.0
301
CELL_VALUE
 90
4
  1
 
304
ACVALUE_END
170
1
140
0.125
171
1
172
0
173
0
174
0
175
1
176
1
 91
33
178
0
145
0.0
301
CELL_VALUE
 90
4
  1
YTH
304
ACVALUE_END
170
5
140
0.125
171
1
172
0
173
0
174
0
175
4
176
1
 91
33
178
0
145
0.0
301
CELL_VALUE
 90
4
  1
ALL DIMENSIONS IN INCH\PVIEWS ARE THIRD ANGLE
304
ACVALUE_END
170
5
140
0.12
171
1
172
0
173
1
174
0
175
1
176
1
 91
1
178
0
145
0.0
170
1
171
1
172
0
173
1
174
0
175
1
176
1
 91
1
178
0
145
0.0
170
1
171
1
172
0
173
1
174
0
175
1
176
1
 91
1
178
0
145
0.0
170
5
171
1
172
0
173
0
174
0
175
1
176
1
 91
33
178
0
145
0.0
301
CELL_VALUE
 90
4
  1
 
304
ACVALUE_END
170
1
140
0.125
171
1
172
0
173
0
174
0
175
1
176
1
 91
33
178
0
145
0.0
301
CELL_VALUE
 90
4
  1
MODEL
304
ACVALUE_END
170
1
140
0.06
171
1
172
0
173
0
174
0
175
1
176
1
 91
33
178
0
145
0.0
301
CELL_VALUE
 90
4
  1
 
304
ACVALUE_END
170
1
140
0.125
171
1
172
0
173
0
174
0
175
1
176
1
 91
33
178
0
145
0.0
301
CELL_VALUE
 90
4
  1
 
304
ACVALUE_END
170
1
140
0.125
171
1
172
0
173
0
174
0
175
1
176
1
 91
33
178
0
145
0.0
301
CELL_VALUE
 90
4
  1
 
304
ACVALUE_END
170
1
140
0.125
171
1
172
0
173
0
174
0
175
1
176
1
 91
33
178
0
145
0.0
301
CELL_VALUE
 90
4
  1
 
304
ACVALUE_END
170
1
140
0.125
171
1
172
0
173
0
174
0
175
1
176
1
 91
33
178
0
145
0.0
301
CELL_VALUE
 90
4
  1
 
304
ACVALUE_END
170
1
140
0.125
  0
ACAD_TABLE
  5
271
100
AcDbEntity
  8
0
 62
2
  6
CONTINUOUS
100
AcDbBlockReference
  2
*T2
 10
12.4237499994
 20
16.47875
 30
0.0
100
AcDbTable
342
       3DA
343
213
 11
1.0
 21
0.0
 31
0.0
 90
22
 91
7
 92
3
 93
16
 94
0
 95
0
 96
0
 41
0.028
141
0.344
141
0.25
141
0.25
141
0.25
141
0.25
141
0.25
141
0.25
142
3.055
142
3.0
142
3.0
171
1
172
0
173
0
174
0
175
1
176
1
 91
33
178
0
145
0.0
301
CELL_VALUE
 90
4
  1
Technical Data
304
ACVALUE_END
170
5
140
0.145
171
1
172
0
173
0
174
0
175
1
176
1
 91
33
178
0
145
0.0
301
CELL_VALUE
 90
4
  1
U.S. Units
304
ACVALUE_END
170
5
140
0.145
171
1
172
0
173
0
174
0
175
1
176
1
 91
33
178
0
145
0.0
301
CELL_VALUE
 90
4
  1
Metric Units
304
ACVALUE_END
170
5
140
0.145
171
1
172
0
173
0
174
0
175
1
176
1
 91
33
178
0
145
0.0
301
CELL_VALUE
 90
4
  1
Cavity
304
ACVALUE_END
170
5
140
0.125
171
1
172
0
173
0
174
0
175
2
176
1
 91
33
178
0
145
0.0
301
CELL_VALUE
 90
4
  1
T-2A
304
ACVALUE_END
170
5
140
0.125
171
1
172
0
173
1
174
0
175
1
176
1
 91
1
178
0
145
0.0
170
1
171
1
172
0
173
0
174
0
175
1
176
1
 91
33
178
0
145
0.0
301
CELL_VALUE
 90
4
  1
Body Features
304
ACVALUE_END
170
5
140
0.125
171
1
172
0
173
0
174
0
175
2
176
1
 91
33
178
0
145
0.0
301
CELL_VALUE
 90
4
  1
Cross pilot with shuttle
304
ACVALUE_END
170
5
140
0.125
171
1
172
0
173
1
174
0
175
1
176
1
 91
1
178
0
145
0.0
170
1
171
1
172
0
173
0
174
0
175
1
176
1
 91
33
178
0
145
0.0
301
CELL_VALUE
 90
4
  1
Body Type
304
ACVALUE_END
170
5
140
0.125
171
1
172
0
173
0
174
0
175
2
176
1
 91
33
178
0
145
0.0
301
CELL_VALUE
 90
4
  1
Motor mount
304
ACVALUE_END
170
5
140
0.125
171
1
172
0
173
1
174
0
175
1
176
1
 91
1
178
0
145
0.0
170
1
171
1
172
0
173
0
174
0
175
1
176
1
 91
33
178
0
145
0.0
301
CELL_VALUE
 90
4
  1
Interface
304
ACVALUE_END
170
5
140
0.125
171
1
172
0
173
0
174
0
175
2
176
1
 91
33
178
0
145
0.0
301
CELL_VALUE
 90
4
  1
Eaton/Char-Lynn 2000
304
ACVALUE_END
170
5
140
0.125
171
1
172
0
173
1
174
0
175
1
176
1
 91
1
178
0
145
0.0
170
1
171
1
172
0
173
0
174
0
175
1
176
1
 91
33
178
0
145
0.0
301
CELL_VALUE
 90
4
  1
Open Cavity Quantity
304
ACVALUE_END
170
5
140
0.125
171
1
172
0
173
0
174
0
175
2
176
1
 91
33
178
0
145
0.0
301
CELL_VALUE
 90
4
  1
2
304
ACVALUE_END
170
5
140
0.125
171
1
172
0
173
1
174
0
175
1
176
1
 91
1
178
0
145
0.0
170
1
171
1
172
0
173
0
174
0
175
1
176
1
 91
33
178
0
145
0.0
301
CELL_VALUE
 90
4
  1
Weight
304
ACVALUE_END
170
5
140
0.125
171
1
172
0
173
0
174
0
175
1
176
1
 91
33
178
0
145
0.0
301
CELL_VALUE
 90
4
  1
2.224 lb.
304
ACVALUE_END
170
5
140
0.125
171
1
172
0
173
0
174
0
175
1
176
1
 91
33
178
0
145
0.0
301
CELL_VALUE
 90
4
  1
1,009 kg.
304
ACVALUE_END
170
5
140
0.125
  0
MTEXT
  5
272
100
AcDbEntity
  8
0
100
AcDbMText
 62
2
  6
CONTINUOUS
  7
STANDARD
 71
1
 72
1
 10
0.52125
 20
5.75995
 30
0.0
 11
1.0
 21
0.0
 31
0.0
 44
0.6
  3
Notes\P \P1. Important: Carefully consider\P   the maximum system pressure. The\P   pressure rating of the manifold is\P   dependent on the manifold material,\P   with the port type/size a secondary\P   consideration. Manifolds\P   constructed of alu
  1
minum are not\P   rated for pressures higher than\P   3000 psi (210 bar), regardless of\P   the port type/size specified.
 40
0.1
 41
3.04
  0
LINE
  5
273
100
AcDbEntity
  8
0
100
AcDbLine
 62
7
  6
CONTINUOUS
 10
0.30125
 20
0.30125
 11
0.30125
 21
16.69875
  0
LINE
  5
274
100
AcDbEntity
  8
0
100
AcDbLine
 62
7
  6
CONTINUOUS
 10
0.30125
 20
0.30125
 11
21.69875
 21
0.30125
  0
LINE
  5
275
100
AcDbEntity
  8
0
100
AcDbLine
 62
7
  6
CONTINUOUS
 10
0.30125
 20
16.69875
 11
21.69875
 21
16.69875
  0
LINE
  5
276
100
AcDbEntity
  8
0
100
AcDbLine
 62
7
  6
CONTINUOUS
 10
21.69875
 20
0.30125
 11
21.69875
 21
16.69875
  0
LINE
  5
277
100
AcDbEntity
  8
0
100
AcDbLine
 62
7
  6
CONTINUOUS
 10
9.2437638123
 20
10.2354577758
 11
9.8584585371
 21
10.8292073209
  0
LINE
  5
278
100
AcDbEntity
  8
0
100
AcDbLine
 62
7
  6
CONTINUOUS
 10
12.1415414629
 20
6.1707926791
 11
9.2437638123
 21
6.3717542417
  0
LINE
  5
279
100
AcDbEntity
  8
0
100
AcDbLine
 62
4
  6
CONTINUOUS
 10
10.2555711716
 20
6.4223258984
 11
10.2410822836
 21
6.4233307062
  0
LINE
  5
27A
100
AcDbEntity
  8
0
100
AcDbLine
 62
4
  6
CONTINUOUS
 10
10.1396600681
 20
6.4303643608
 11
10.1251711802
 21
6.4313691685
  0
LINE
  5
27B
100
AcDbEntity
  8
0
100
AcDbLine
 62
4
  6
CONTINUOUS
 10
10.3352600552
 20
6.4167994556
 11
10.3932156069
 21
6.4127802244
  0
LINE
  5
27C
100
AcDbEntity
  8
0
100
AcDbLine
 62
4
  6
CONTINUOUS
 10
10.1251711802
 20
6.4313691685
 11
10.1106822923
 21
6.4420332352
  0
LINE
  5
27D
100
AcDbEntity
  8
0
100
AcDbLine
 62
4
  6
CONTINUOUS
 10
10.2410822836
 20
6.4233307062
 11
10.2265933957
 21
6.4339947729
  0
LINE
  5
27E
100
AcDbEntity
  8
0
100
AcDbLine
 62
4
  6
CONTINUOUS
 10
11.3639710689
 20
6.3840951401
 11
11.4074377327
 21
6.3810807167
  0
LINE
  5
27F
100
AcDbEntity
  8
0
100
AcDbLine
 62
4
  6
CONTINUOUS
 10
10.2555711716
 20
6.5382370019
 11
10.2410822836
 21
6.5392418097
  0
LINE
  5
280
100
AcDbEntity
  8
0
100
AcDbLine
 62
4
  6
CONTINUOUS
 10
10.1251711802
 20
6.547280272
 11
10.1396600681
 21
6.5462754642
  0
LINE
  5
281
100
AcDbEntity
  8
0
100
AcDbLine
 62
4
  6
CONTINUOUS
 10
10.3352600552
 20
6.532710559
 11
10.3932156069
 21
6.5286913279
  0
LINE
  5
282
100
AcDbEntity
  8
0
100
AcDbLine
 62
4
  6
CONTINUOUS
 10
10.1396600681
 20
6.5462754642
 11
10.1541489561
 21
6.5356114001
  0
LINE
  5
283
100
AcDbEntity
  8
0
100
AcDbLine
 62
4
  6
CONTINUOUS
 10
10.2265933957
 20
6.5016095853
 11
10.2700600595
 21
6.4696173826
  0
LINE
  5
284
100
AcDbEntity
  8
0
100
AcDbLine
 62
4
  6
CONTINUOUS
 10
10.2700600595
 20
6.5275729378
 11
10.2555711716
 21
6.5382370019
  0
LINE
  5
285
100
AcDbEntity
  8
0
100
AcDbLine
 62
4
  6
CONTINUOUS
 10
10.1106822923
 20
6.4420332352
 11
10.0961934044
 21
6.46235656
  0
LINE
  5
286
100
AcDbEntity
  8
0
100
AcDbLine
 62
7
  6
CONTINUOUS
 10
9.2437638123
 20
10.2354577758
 11
9.2437638123
 21
6.3717542417
  0
LINE
  5
287
100
AcDbEntity
  8
0
100
AcDbLine
 62
4
  6
CONTINUOUS
 10
10.2265933957
 20
6.4339947729
 11
10.2121045078
 21
6.4543180977
  0
LINE
  5
288
100
AcDbEntity
  8
0
100
AcDbLine
 62
4
  6
CONTINUOUS
 10
10.1541489561
 20
6.5356114001
 11
10.1613934
 21
6.525449733
  0
LINE
  5
289
100
AcDbEntity
  8
0
100
AcDbLine
 62
4
  6
CONTINUOUS
 10
10.2193489517
 20
6.5117712455
 11
10.2265933957
 21
6.5016095853
  0
LINE
  5
28A
100
AcDbEntity
  8
0
100
AcDbLine
 62
4
  6
CONTINUOUS
 10
10.2700600595
 20
6.4696173826
 11
10.2773045035
 21
6.4594557224
  0
LINE
  5
28B
100
AcDbEntity
  8
0
100
AcDbLine
 62
4
  6
CONTINUOUS
 10
9.3789934361
 20
7.7243316234
 11
9.3645045482
 21
7.7446549481
  0
LINE
  5
28C
100
AcDbEntity
  8
0
100
AcDbLine
 62
4
  6
CONTINUOUS
 10
10.2773045035
 20
6.5174112706
 11
10.2700600595
 21
6.5275729378
  0
LINE
  5
28D
100
AcDbEntity
  8
0
100
AcDbLine
 62
4
  6
CONTINUOUS
 10
9.3717489922
 20
7.8021080959
 11
9.3789934361
 21
7.7919464357
  0
LINE
  5
28E
100
AcDbEntity
  8
0
100
AcDbLine
 62
4
  6
CONTINUOUS
 10
9.3717489922
 20
7.8117673523
 11
9.3717489922
 21
7.8021080959
  0
LINE
  5
28F
100
AcDbEntity
  8
0
100
AcDbLine
 62
4
  6
CONTINUOUS
 10
9.4297045439
 20
7.7497925728
 11
9.4297045439
 21
7.730474055
  0
LINE
  5
290
100
AcDbEntity
  8
0
100
AcDbLine
 62
4
  6
CONTINUOUS
 10
11.4364155621
 20
6.8475452428
 11
11.4943711138
 21
6.8435260116
  0
LINE
  5
291
100
AcDbEntity
  8
0
100
AcDbLine
 62
4
  6
CONTINUOUS
 10
11.5595711095
 20
6.8776414122
 11
11.6030377733
 21
6.8746269888
  0
LINE
  5
292
100
AcDbEntity
  8
0
100
AcDbLine
 62
4
  6
CONTINUOUS
 10
11.3277489026
 20
6.9130368529
 11
11.3712155664
 21
6.9100224295
  0
LINE
  5
293
100
AcDbEntity
  8
0
100
AcDbLine
 62
4
  6
CONTINUOUS
 10
11.6754822129
 20
6.8889214659
 11
11.7189488767
 21
6.8859070426
  0
LINE
  5
294
100
AcDbEntity
  8
0
100
AcDbLine
 62
4
  6
CONTINUOUS
 10
9.3934823241
 20
7.7136675567
 11
9.3789934361
 21
7.7243316234
  0
LINE
  5
295
100
AcDbEntity
  8
0
100
AcDbLine
 62
4
  6
CONTINUOUS
 10
9.3789934361
 20
7.7919464357
 11
9.4224600999
 21
7.759954233
  0
LINE
  5
296
100
AcDbEntity
  8
0
100
AcDbLine
 62
4
  6
CONTINUOUS
 10
9.4224600999
 20
7.759954233
 11
9.4297045439
 21
7.7497925728
  0
LINE
  5
297
100
AcDbEntity
  8
0
100
AcDbLine
 62
4
  6
CONTINUOUS
 10
9.4297045439
 20
7.8077481211
 11
9.4224600999
 21
7.8179097882
  0
LINE
  5
298
100
AcDbEntity
  8
0
100
AcDbLine
 62
4
  6
CONTINUOUS
 10
9.5432008349
 20
8.060677117
 11
9.5432008349
 21
7.9447660136
  0
LINE
  5
299
100
AcDbEntity
  8
0
100
AcDbLine
 62
4
  6
CONTINUOUS
 10
11.1973489112
 20
6.9800356748
 11
11.2697933509
 21
6.9750116358
  0
LINE
  5
29A
100
AcDbEntity
  8
0
100
AcDbLine
 62
4
  6
CONTINUOUS
 10
11.458148894
 20
6.9619491345
 11
11.4726377819
 21
6.9609443267
  0
LINE
  5
29B
100
AcDbEntity
  8
0
100
AcDbLine
 62
4
  6
CONTINUOUS
 10
9.4224600999
 20
7.8179097882
 11
9.407971212
 21
7.8285738523
  0
LINE
  5
29C
100
AcDbEntity
  8
0
100
AcDbLine
 62
4
  6
CONTINUOUS
 10
10.4511711586
 20
6.5246720967
 11
10.5091267103
 21
6.4047417621
  0
LINE
  5
29D
100
AcDbEntity
  8
0
100
AcDbLine
 62
4
  6
CONTINUOUS
 10
10.0961934044
 20
6.46235656
 11
10.0889489604
 21
6.4918367397
  0
LINE
  5
29E
100
AcDbEntity
  8
0
100
AcDbLine
 62
4
  6
CONTINUOUS
 10
9.8040008176
 20
8.0232720572
 11
9.8040008176
 21
8.0039535446
  0
LINE
  5
29F
100
AcDbEntity
  8
0
100
AcDbLine
 62
4
  6
CONTINUOUS
 10
10.627452628
 20
9.9656319676
 11
10.6346970719
 21
9.974788827
  0
LINE
  5
2A0
100
AcDbEntity
  8
0
100
AcDbLine
 62
4
  6
CONTINUOUS
 10
10.627452628
 20
9.8980171596
 11
10.6419415159
 21
9.9163308696
  0
LINE
  5
2A1
100
AcDbEntity
  8
0
100
AcDbLine
 62
4
  6
CONTINUOUS
 10
9.7967563737
 20
8.0334337243
 11
9.8040008176
 21
8.0232720572
  0
LINE
  5
2A2
100
AcDbEntity
  8
0
100
AcDbLine
 62
4
  6
CONTINUOUS
 10
9.8909341452
 20
8.03656173
 11
9.927156365
 21
7.9181386071
  0
LINE
  5
2A3
100
AcDbEntity
  8
0
100
AcDbLine
 62
4
  6
CONTINUOUS
 10
9.7532897099
 20
7.9591740765
 11
9.7460452659
 21
7.9306987045
  0
LINE
  5
2A4
100
AcDbEntity
  8
0
100
AcDbLine
 62
4
  6
CONTINUOUS
 10
10.9230949331
 20
9.7981703843
 11
10.9396536629
 21
9.8135807606
  0
LINE
  5
2A5
100
AcDbEntity
  8
0
100
AcDbLine
 62
4
  6
CONTINUOUS
 10
11.4419351209
 20
9.7373505995
 11
11.4584938421
 21
9.7444816158
  0
LINE
  5
2A6
100
AcDbEntity
  8
0
100
AcDbLine
 62
4
  6
CONTINUOUS
 10
9.7822674857
 20
8.0440977884
 11
9.7967563737
 21
8.0334337243
  0
LINE
  5
2A7
100
AcDbEntity
  8
0
100
AcDbLine
 62
4
  6
CONTINUOUS
 10
11.4726377819
 20
6.9609443267
 11
11.4871266698
 21
6.9502802626
  0
LINE
  5
2A8
100
AcDbEntity
  8
0
100
AcDbLine
 62
4
  6
CONTINUOUS
 10
10.144489684
 20
8.0093183374
 11
10.1517341279
 21
7.9991566702
  0
LINE
  5
2A9
100
AcDbEntity
  8
0
100
AcDbLine
 62
4
  6
CONTINUOUS
 10
10.1517341279
 20
7.9991566702
 11
10.1517341279
 21
7.9798381576
  0
LINE
  5
2AA
100
AcDbEntity
  8
0
100
AcDbLine
 62
4
  6
CONTINUOUS
 10
10.2193489517
 20
6.5214305018
 11
10.2193489517
 21
6.5117712455
  0
LINE
  5
2AB
100
AcDbEntity
  8
0
100
AcDbLine
 62
4
  6
CONTINUOUS
 10
9.8547119254
 20
7.9231626461
 11
9.8909341452
 21
8.03656173
  0
LINE
  5
2AC
100
AcDbEntity
  8
0
100
AcDbLine
 62
4
  6
CONTINUOUS
 10
10.4970526366
 20
9.9070604297
 11
10.5332748564
 21
10.0204595137
  0
LINE
  5
2AD
100
AcDbEntity
  8
0
100
AcDbLine
 62
4
  6
CONTINUOUS
 10
9.3789934361
 20
7.8209242116
 11
9.3717489922
 21
7.8117673523
  0
LINE
  5
2AE
100
AcDbEntity
  8
0
100
AcDbLine
 62
4
  6
CONTINUOUS
 10
9.4297045439
 20
7.730474055
 11
9.4224600999
 21
7.7213172
  0
LINE
  5
2AF
100
AcDbEntity
  8
0
100
AcDbLine
 62
4
  6
CONTINUOUS
 10
10.9644917568
 20
9.6959471295
 11
10.9810504849
 21
9.7113575076
  0
LINE
  5
2B0
100
AcDbEntity
  8
0
100
AcDbLine
 62
4
  6
CONTINUOUS
 10
11.0555647716
 20
9.6896311944
 11
11.0721234927
 21
9.705041573
  0
LINE
  5
2B1
100
AcDbEntity
  8
0
100
AcDbLine
 62
4
  6
CONTINUOUS
 10
11.5992430549
 20
9.685044437
 11
11.6158017761
 21
9.6921754499
  0
LINE
  5
2B2
100
AcDbEntity
  8
0
100
AcDbLine
 62
4
  6
CONTINUOUS
 10
9.407971212
 20
7.7126627489
 11
9.3934823241
 21
7.7136675567
  0
LINE
  5
2B3
100
AcDbEntity
  8
0
100
AcDbLine
 62
4
  6
CONTINUOUS
 10
9.407971212
 20
7.8285738523
 11
9.3934823241
 21
7.8295786601
  0
LINE
  5
2B4
100
AcDbEntity
  8
0
100
AcDbLine
 62
4
  6
CONTINUOUS
 10
10.130000796
 20
8.0199824015
 11
10.144489684
 21
8.0093183374
  0
LINE
  5
2B5
100
AcDbEntity
  8
0
100
AcDbLine
 62
4
  6
CONTINUOUS
 10
10.2773045035
 20
6.4594557224
 11
10.2773045035
 21
6.4401372046
  0
LINE
  5
2B6
100
AcDbEntity
  8
0
100
AcDbLine
 62
4
  6
CONTINUOUS
 10
10.1010230202
 20
7.9350586895
 11
10.0937785762
 21
7.9065833175
  0
LINE
  5
2B7
100
AcDbEntity
  8
0
100
AcDbLine
 62
4
  6
CONTINUOUS
 10
9.7460452659
 20
8.0272912884
 11
9.7532897099
 21
8.0364481477
  0
LINE
  5
2B8
100
AcDbEntity
  8
0
100
AcDbLine
 62
4
  6
CONTINUOUS
 10
9.7677785978
 20
7.9774877848
 11
9.7532897099
 21
7.9591740765
  0
LINE
  5
2B9
100
AcDbEntity
  8
0
100
AcDbLine
 62
4
  6
CONTINUOUS
 10
9.8040008176
 20
8.0039535446
 11
9.7967563737
 21
7.9947966853
  0
LINE
  5
2BA
100
AcDbEntity
  8
0
100
AcDbLine
 62
4
  6
CONTINUOUS
 10
11.0279668939
 20
9.1721529815
 11
10.9838102823
 21
9.1531369454
  0
LINE
  5
2BB
100
AcDbEntity
  8
0
100
AcDbLine
 62
4
  6
CONTINUOUS
 10
9.7460452659
 20
7.9306987045
 11
9.8040008176
 21
7.9266794733
  0
LINE
  5
2BC
100
AcDbEntity
  8
0
100
AcDbLine
 62
4
  6
CONTINUOUS
 10
10.0937785762
 20
7.9065833175
 11
10.1517341279
 21
7.9025640864
  0
LINE
  5
2BD
100
AcDbEntity
  8
0
100
AcDbLine
 62
4
  6
CONTINUOUS
 10
9.8692008133
 20
7.9607948739
 11
9.9126674771
 21
7.9577804505
  0
LINE
  5
2BE
100
AcDbEntity
  8
0
100
AcDbLine
 62
4
  6
CONTINUOUS
 10
9.6373786064
 20
7.9961903146
 11
9.6808452702
 21
7.9931758913
  0
LINE
  5
2BF
100
AcDbEntity
  8
0
100
AcDbLine
 62
4
  6
CONTINUOUS
 10
9.9851119167
 20
7.9720749277
 11
10.0285785805
 21
7.9690605043
  0
LINE
  5
2C0
100
AcDbEntity
  8
0
100
AcDbLine
 62
4
  6
CONTINUOUS
 10
10.4511711586
 20
6.4087609933
 11
10.4511711586
 21
6.5246720967
  0
LINE
  5
2C1
100
AcDbEntity
  8
0
100
AcDbLine
 62
4
  6
CONTINUOUS
 10
10.5091267103
 20
6.4047417621
 11
10.5091267103
 21
6.5206528655
  0
LINE
  5
2C2
100
AcDbEntity
  8
0
100
AcDbLine
 62
4
  6
CONTINUOUS
 10
10.5767415202
 20
10.0174450903
 11
10.5767415202
 21
9.9015339869
  0
LINE
  5
2C3
100
AcDbEntity
  8
0
100
AcDbLine
 62
4
  6
CONTINUOUS
 10
10.6346970719
 20
9.974788827
 11
10.6346970719
 21
10.0037666028
  0
LINE
  5
2C4
100
AcDbEntity
  8
0
100
AcDbLine
 62
4
  6
CONTINUOUS
 10
10.0889489604
 20
6.4918367397
 11
10.0961934044
 21
6.5203121117
  0
LINE
  5
2C5
100
AcDbEntity
  8
0
100
AcDbLine
 62
4
  6
CONTINUOUS
 10
10.0937785762
 20
8.0031759014
 11
10.1010230202
 21
8.0123327607
  0
LINE
  5
2C6
100
AcDbEntity
  8
0
100
AcDbLine
 62
4
  6
CONTINUOUS
 10
11.1080007463
 20
9.1114068495
 11
11.0914420182
 21
9.0959964714
  0
LINE
  5
2C7
100
AcDbEntity
  8
0
100
AcDbLine
 62
4
  6
CONTINUOUS
 10
9.5069786151
 20
8.0631891365
 11
9.5794230547
 21
8.0581650975
  0
LINE
  5
2C8
100
AcDbEntity
  8
0
100
AcDbLine
 62
4
  6
CONTINUOUS
 10
9.7677785978
 20
8.0451025962
 11
9.7822674857
 21
8.0440977884
  0
LINE
  5
2C9
100
AcDbEntity
  8
0
100
AcDbLine
 62
4
  6
CONTINUOUS
 10
10.1155119081
 20
8.0209872093
 11
10.130000796
 21
8.0199824015
  0
LINE
  5
2CA
100
AcDbEntity
  8
0
100
AcDbLine
 62
4
  6
CONTINUOUS
 10
11.4871266698
 20
6.9502802626
 11
11.4943711138
 21
6.9401185955
  0
LINE
  5
2CB
100
AcDbEntity
  8
0
100
AcDbLine
 62
4
  6
CONTINUOUS
 10
11.2335710775
 20
6.470412478
 11
11.2697932974
 21
6.3519893551
  0
LINE
  5
2CC
100
AcDbEntity
  8
0
100
AcDbLine
 62
4
  6
CONTINUOUS
 10
10.6419415159
 20
9.9163308696
 11
10.6419415159
 21
9.9453086438
  0
LINE
  5
2CD
100
AcDbEntity
  8
0
100
AcDbLine
 62
4
  6
CONTINUOUS
 10
11.3701806039
 20
9.3979052316
 11
11.4032980635
 21
9.4452847122
  0
LINE
  5
2CE
100
AcDbEntity
  8
0
100
AcDbLine
 62
4
  6
CONTINUOUS
 10
10.1155119081
 20
7.9533723978
 11
10.1010230202
 21
7.9350586895
  0
LINE
  5
2CF
100
AcDbEntity
  8
0
100
AcDbLine
 62
4
  6
CONTINUOUS
 10
10.1517341279
 20
7.9798381576
 11
10.144489684
 21
7.9706812983
  0
LINE
  5
2D0
100
AcDbEntity
  8
0
100
AcDbLine
 62
7
  6
CONTINUOUS
 10
12.7562361877
 20
10.6282457583
 11
12.1415414629
 21
10.0344962131
  0
LINE
  5
2D1
100
AcDbEntity
  8
0
100
AcDbLine
 62
4
  6
CONTINUOUS
 10
11.8835012029
 20
9.7067278877
 11
11.8917805359
 21
9.7144330815
  0
LINE
  5
2D2
100
AcDbEntity
  8
0
100
AcDbLine
 62
4
  6
CONTINUOUS
 10
11.9580155311
 20
9.7015603015
 11
11.966294864
 21
9.7092654953
  0
LINE
  5
2D3
100
AcDbEntity
  8
0
100
AcDbLine
 62
4
  6
CONTINUOUS
 10
9.3934823241
 20
7.8295786601
 11
9.3789934361
 21
7.8209242116
  0
LINE
  5
2D4
100
AcDbEntity
  8
0
100
AcDbLine
 62
4
  6
CONTINUOUS
 10
9.7532897099
 20
8.0364481477
 11
9.7677785978
 21
8.0451025962
  0
LINE
  5
2D5
100
AcDbEntity
  8
0
100
AcDbLine
 62
4
  6
CONTINUOUS
 10
9.7967563737
 20
7.9947966853
 11
9.7677785978
 21
7.9774877848
  0
LINE
  5
2D6
100
AcDbEntity
  8
0
100
AcDbLine
 62
4
  6
CONTINUOUS
 10
11.3857044008
 20
6.4598619962
 11
11.4219266206
 21
6.3414388733
  0
LINE
  5
2D7
100
AcDbEntity
  8
0
100
AcDbLine
 62
4
  6
CONTINUOUS
 10
10.9230949331
 20
9.7816116562
 11
10.9230949331
 21
9.7981703843
  0
LINE
  5
2D8
100
AcDbEntity
  8
0
100
AcDbLine
 62
4
  6
CONTINUOUS
 10
10.9810504849
 20
9.7113575076
 11
10.9810504849
 21
9.7279162374
  0
LINE
  5
2D9
100
AcDbEntity
  8
0
100
AcDbLine
 62
4
  6
CONTINUOUS
 10
11.014167941
 20
9.8084131778
 11
11.014167941
 21
9.7090608042
  0
LINE
  5
2DA
100
AcDbEntity
  8
0
100
AcDbLine
 62
4
  6
CONTINUOUS
 10
11.154917146
 20
9.0915944564
 11
11.1880346021
 21
9.2052088564
  0
LINE
  5
2DB
100
AcDbEntity
  8
0
100
AcDbLine
 62
4
  6
CONTINUOUS
 10
11.9994123064
 20
9.6241751456
 11
12.0076916393
 21
9.6318803368
  0
LINE
  5
2DC
100
AcDbEntity
  8
0
100
AcDbLine
 62
4
  6
CONTINUOUS
 10
11.5274885795
 20
9.1651089151
 11
11.5440473006
 21
9.1805192919
  0
LINE
  5
2DD
100
AcDbEntity
  8
0
100
AcDbLine
 62
4
  6
CONTINUOUS
 10
11.6240811288
 20
9.158410199
 11
11.64063985
 21
9.1738205759
  0
LINE
  5
2DE
100
AcDbEntity
  8
0
100
AcDbLine
 62
4
  6
CONTINUOUS
 10
9.4224600999
 20
7.7213172
 11
9.407971212
 21
7.7126627489
  0
LINE
  5
2DF
100
AcDbEntity
  8
0
100
AcDbLine
 62
4
  6
CONTINUOUS
 10
10.1010230202
 20
8.0123327607
 11
10.1155119081
 21
8.0209872093
  0
LINE
  5
2E0
100
AcDbEntity
  8
0
100
AcDbLine
 62
4
  6
CONTINUOUS
 10
10.144489684
 20
7.9706812983
 11
10.1155119081
 21
7.9533723978
  0
LINE
  5
2E1
100
AcDbEntity
  8
0
100
AcDbLine
 62
4
  6
CONTINUOUS
 10
11.9469763297
 20
9.0863411531
 11
11.9028197215
 21
9.0673251185
  0
LINE
  5
2E2
100
AcDbEntity
  8
0
100
AcDbLine
 62
4
  6
CONTINUOUS
 10
10.4608304168
 20
10.0254835526
 11
10.4970526366
 21
9.9070604297
  0
LINE
  5
2E3
100
AcDbEntity
  8
0
100
AcDbLine
 62
4
  6
CONTINUOUS
 10
11.0500452015
 20
9.0988673504
 11
11.0500452015
 21
9.2147784539
  0
LINE
  5
2E4
100
AcDbEntity
  8
0
100
AcDbLine
 62
4
  6
CONTINUOUS
 10
11.0721234927
 20
9.705041573
 11
11.0721234927
 21
9.8043939467
  0
LINE
  5
2E5
100
AcDbEntity
  8
0
100
AcDbLine
 62
4
  6
CONTINUOUS
 10
11.1052409489
 20
9.6861861399
 11
11.1052409489
 21
9.8020972433
  0
LINE
  5
2E6
100
AcDbEntity
  8
0
100
AcDbLine
 62
4
  6
CONTINUOUS
 10
11.1080007463
 20
9.1942004951
 11
11.1080007463
 21
9.1114068495
  0
LINE
  5
2E7
100
AcDbEntity
  8
0
100
AcDbLine
 62
4
  6
CONTINUOUS
 10
11.1631965006
 20
9.6821669087
 11
11.1631965006
 21
9.7980780121
  0
LINE
  5
2E8
100
AcDbEntity
  8
0
100
AcDbLine
 62
4
  6
CONTINUOUS
 10
11.3867393469
 20
9.6390662778
 11
11.4198567892
 21
9.7471611045
  0
LINE
  5
2E9
100
AcDbEntity
  8
0
100
AcDbLine
 62
4
  6
CONTINUOUS
 10
11.6820366805
 20
9.0715973223
 11
11.6654779594
 21
9.0561869437
  0
LINE
  5
2EA
100
AcDbEntity
  8
0
100
AcDbLine
 62
4
  6
CONTINUOUS
 10
11.7731096746
 20
9.0652813887
 11
11.7565509534
 21
9.0498710101
  0
LINE
  5
2EB
100
AcDbEntity
  8
0
100
AcDbLine
 62
4
  6
CONTINUOUS
 10
11.5813044414
 20
6.9534082683
 11
11.6175266612
 21
6.8349851454
  0
LINE
  5
2EC
100
AcDbEntity
  8
0
100
AcDbLine
 62
4
  6
CONTINUOUS
 10
11.2335711311
 20
6.9775236553
 11
11.2335711311
 21
6.8616125518
  0
LINE
  5
2ED
100
AcDbEntity
  8
0
100
AcDbLine
 62
4
  6
CONTINUOUS
 10
11.2873869646
 20
9.6735542708
 11
11.2873869646
 21
9.7894653742
  0
LINE
  5
2EE
100
AcDbEntity
  8
0
100
AcDbLine
 62
4
  6
CONTINUOUS
 10
11.2873869844
 20
9.0824076419
 11
11.2873869844
 21
9.1983187453
  0
LINE
  5
2EF
100
AcDbEntity
  8
0
100
AcDbLine
 62
4
  6
CONTINUOUS
 10
11.3370631557
 20
9.744623495
 11
11.3370631557
 21
9.6701092152
  0
LINE
  5
2F0
100
AcDbEntity
  8
0
100
AcDbLine
 62
4
  6
CONTINUOUS
 10
11.3536218967
 20
9.0778142351
 11
11.3536218967
 21
9.1937253385
  0
LINE
  5
2F1
100
AcDbEntity
  8
0
100
AcDbLine
 62
4
  6
CONTINUOUS
 10
11.3701806039
 20
9.3979052316
 11
11.3701806039
 21
9.3316703124
  0
LINE
  5
2F2
100
AcDbEntity
  8
0
100
AcDbLine
 62
4
  6
CONTINUOUS
 10
11.8421043724
 20
9.7509955913
 11
11.8393445947
 21
9.742907615
  0
LINE
  5
2F3
100
AcDbEntity
  8
0
100
AcDbLine
 62
4
  6
CONTINUOUS
 10
10.3932156069
 20
6.5286913279
 11
10.3352600552
 21
6.4167994556
  0
LINE
  5
2F4
100
AcDbEntity
  8
0
100
AcDbLine
 62
4
  6
CONTINUOUS
 10
11.1880346021
 20
9.2052088564
 11
11.2211520721
 21
9.0870010487
  0
LINE
  5
2F5
100
AcDbEntity
  8
0
100
AcDbLine
 62
4
  6
CONTINUOUS
 10
11.4419351209
 20
9.6711156846
 11
11.4419351209
 21
9.7373505995
  0
LINE
  5
2F6
100
AcDbEntity
  8
0
100
AcDbLine
 62
4
  6
CONTINUOUS
 10
11.4695329827
 20
9.3247802015
 11
11.4695329827
 21
9.440691305
  0
LINE
  5
2F7
100
AcDbEntity
  8
0
100
AcDbLine
 62
4
  6
CONTINUOUS
 10
11.4916112844
 20
9.7753023695
 11
11.4916112844
 21
9.6593912661
  0
LINE
  5
2F8
100
AcDbEntity
  8
0
100
AcDbLine
 62
4
  6
CONTINUOUS
 10
11.4943711138
 20
6.9401185955
 11
11.4943711138
 21
6.9208000829
  0
LINE
  5
2F9
100
AcDbEntity
  8
0
100
AcDbLine
 62
4
  6
CONTINUOUS
 10
11.524728782
 20
9.6570945598
 11
11.524728782
 21
9.7398882071
  0
LINE
  5
2FA
100
AcDbEntity
  8
0
100
AcDbLine
 62
4
  6
CONTINUOUS
 10
11.5274885795
 20
9.0823152695
 11
11.5274885795
 21
9.1651089151
  0
LINE
  5
2FB
100
AcDbEntity
  8
0
100
AcDbLine
 62
4
  6
CONTINUOUS
 10
11.535767895
 20
9.3201867948
 11
11.535767895
 21
9.4360978982
  0
LINE
  5
2FC
100
AcDbEntity
  8
0
100
AcDbLine
 62
4
  6
CONTINUOUS
 10
11.5633657797
 20
9.7289293547
 11
11.5633657797
 21
9.7123706266
  0
LINE
  5
2FD
100
AcDbEntity
  8
0
100
AcDbLine
 62
4
  6
CONTINUOUS
 10
11.5937234329
 20
9.432078668
 11
11.5937234329
 21
9.3161675646
  0
LINE
  5
2FE
100
AcDbEntity
  8
0
100
AcDbLine
 62
4
  6
CONTINUOUS
 10
11.5992430549
 20
9.6602063423
 11
11.5992430549
 21
9.685044437
  0
LINE
  5
2FF
100
AcDbEntity
  8
0
100
AcDbLine
 62
4
  6
CONTINUOUS
 10
10.0961934044
 20
6.5203121117
 11
10.1106822923
 21
6.5386258235
  0
LINE
  5
300
100
AcDbEntity
  8
0
100
AcDbLine
 62
7
  6
CONTINUOUS
 10
11.1128271767
 20
7.7471661424
 11
11.1141361105
 21
7.7488175908
  0
LINE
  5
301
100
AcDbEntity
  8
0
100
AcDbLine
 62
4
  6
CONTINUOUS
 10
11.7565509534
 20
9.0498710101
 11
11.7151541229
 21
9.0527418901
  0
LINE
  5
302
100
AcDbEntity
  8
0
100
AcDbLine
 62
4
  6
CONTINUOUS
 10
11.6654779594
 20
9.0561869437
 11
11.64063985
 21
9.0579094724
  0
LINE
  5
303
100
AcDbEntity
  8
0
100
AcDbLine
 62
4
  6
CONTINUOUS
 10
11.577164743
 20
9.0623114861
 11
11.5440473006
 21
9.0646081885
  0
LINE
  5
304
100
AcDbEntity
  8
0
100
AcDbLine
 62
4
  6
CONTINUOUS
 10
11.0914420182
 20
9.0959964714
 11
11.0500452015
 21
9.0988673504
  0
LINE
  5
305
100
AcDbEntity
  8
0
100
AcDbLine
 62
4
  6
CONTINUOUS
 10
11.3536218967
 20
9.0778142351
 11
11.4032980878
 21
9.0743691796
  0
LINE
  5
306
100
AcDbEntity
  8
0
100
AcDbLine
 62
4
  6
CONTINUOUS
 10
11.8200261157
 20
9.0454689927
 11
11.8697022792
 21
9.042023939
  0
LINE
  5
307
100
AcDbEntity
  8
0
100
AcDbLine
 62
4
  6
CONTINUOUS
 10
10.9838102823
 20
9.1531369454
 11
11.0279668939
 21
9.1279963681
  0
LINE
  5
308
100
AcDbEntity
  8
0
100
AcDbLine
 62
4
  6
CONTINUOUS
 10
11.0914420182
 20
9.2119075749
 11
11.1080007463
 21
9.1942004951
  0
LINE
  5
309
100
AcDbEntity
  8
0
100
AcDbLine
 62
4
  6
CONTINUOUS
 10
10.6419415159
 20
9.9453086438
 11
10.627452628
 21
9.9656319676
  0
LINE
  5
30A
100
AcDbEntity
  8
0
100
AcDbLine
 62
4
  6
CONTINUOUS
 10
10.6346970719
 20
10.0037666028
 11
10.627452628
 21
10.013928263
  0
LINE
  5
30B
100
AcDbEntity
  8
0
100
AcDbLine
 62
4
  6
CONTINUOUS
 10
11.6240811288
 20
9.0756165535
 11
11.6240811288
 21
9.158410199
  0
LINE
  5
30C
100
AcDbEntity
  8
0
100
AcDbLine
 62
4
  6
CONTINUOUS
 10
11.6489192184
 20
9.6484819238
 11
11.6489192184
 21
9.714716843
  0
LINE
  5
30D
100
AcDbEntity
  8
0
100
AcDbLine
 62
4
  6
CONTINUOUS
 10
11.6820366607
 20
9.7289788687
 11
11.6820366607
 21
9.6544645863
  0
LINE
  5
30E
100
AcDbEntity
  8
0
100
AcDbLine
 62
4
  6
CONTINUOUS
 10
11.6820366805
 20
9.1543909679
 11
11.6820366805
 21
9.0715973223
  0
LINE
  5
30F
100
AcDbEntity
  8
0
100
AcDbLine
 62
4
  6
CONTINUOUS
 10
11.7151541229
 20
9.0527418901
 11
11.7151541229
 21
9.1686529935
  0
LINE
  5
310
100
AcDbEntity
  8
0
100
AcDbLine
 62
4
  6
CONTINUOUS
 10
11.7317128795
 20
9.6427401639
 11
11.7317128795
 21
9.7255338112
  0
LINE
  5
311
100
AcDbEntity
  8
0
100
AcDbLine
 62
4
  6
CONTINUOUS
 10
11.7648303218
 20
9.6487228264
 11
11.7648303218
 21
9.7563545649
  0
LINE
  5
312
100
AcDbEntity
  8
0
100
AcDbLine
 62
4
  6
CONTINUOUS
 10
11.7731096746
 20
9.1480750343
 11
11.7731096746
 21
9.0652813887
  0
LINE
  5
313
100
AcDbEntity
  8
0
100
AcDbLine
 62
4
  6
CONTINUOUS
 10
10.2265933957
 20
6.5305873611
 11
10.2193489517
 21
6.5214305018
  0
LINE
  5
314
100
AcDbEntity
  8
0
100
AcDbLine
 62
4
  6
CONTINUOUS
 10
10.1613934
 20
6.4481756669
 11
10.1541489561
 21
6.4390188119
  0
LINE
  5
315
100
AcDbEntity
  8
0
100
AcDbLine
 62
4
  6
CONTINUOUS
 10
10.2773045035
 20
6.4401372046
 11
10.2700600595
 21
6.4309803495
  0
LINE
  5
316
100
AcDbEntity
  8
0
100
AcDbLine
 62
7
  6
CONTINUOUS
 10
11.2136358617
 20
7.6722494751
 11
11.2123625589
 21
7.6706572917
  0
LINE
  5
317
100
AcDbEntity
  8
0
100
AcDbLine
 62
4
  6
CONTINUOUS
 10
11.165956298
 20
9.1239463482
 11
11.2101129062
 21
9.120884077
  0
LINE
  5
318
100
AcDbEntity
  8
0
100
AcDbLine
 62
4
  6
CONTINUOUS
 10
11.853143558
 20
9.1094072094
 11
11.8200261157
 21
9.1117039119
  0
LINE
  5
319
100
AcDbEntity
  8
0
100
AcDbLine
 62
4
  6
CONTINUOUS
 10
11.3867393667
 20
9.14175245
 11
11.3536218967
 21
9.1440491543
  0
LINE
  5
31A
100
AcDbEntity
  8
0
100
AcDbLine
 62
4
  6
CONTINUOUS
 10
11.0500452015
 20
9.2147784539
 11
11.0914420182
 21
9.2119075749
  0
LINE
  5
31B
100
AcDbEntity
  8
0
100
AcDbLine
 62
4
  6
CONTINUOUS
 10
11.2542695144
 20
9.2006154497
 11
11.3205044267
 21
9.1960220429
  0
LINE
  5
31C
100
AcDbEntity
  8
0
100
AcDbLine
 62
4
  6
CONTINUOUS
 10
11.3536218967
 20
9.1937253385
 11
11.4032980878
 21
9.190280283
  0
LINE
  5
31D
100
AcDbEntity
  8
0
100
AcDbLine
 62
4
  6
CONTINUOUS
 10
11.5440473006
 20
9.1805192919
 11
11.577164743
 21
9.1782225895
  0
LINE
  5
31E
100
AcDbEntity
  8
0
100
AcDbLine
 62
4
  6
CONTINUOUS
 10
11.64063985
 20
9.1738205759
 11
11.6654779594
 21
9.1720980471
  0
LINE
  5
31F
100
AcDbEntity
  8
0
100
AcDbLine
 62
4
  6
CONTINUOUS
 10
11.7151541229
 20
9.1686529935
 11
11.7565509534
 21
9.1657821136
  0
LINE
  5
320
100
AcDbEntity
  8
0
100
AcDbLine
 62
4
  6
CONTINUOUS
 10
11.8200261157
 20
9.1613800961
 11
11.8697022792
 21
9.1579350425
  0
LINE
  5
321
100
AcDbEntity
  8
0
100
AcDbLine
 62
4
  6
CONTINUOUS
 10
10.9230949331
 20
9.7070973738
 11
10.931374298
 21
9.698243833
  0
LINE
  5
322
100
AcDbEntity
  8
0
100
AcDbLine
 62
4
  6
CONTINUOUS
 10
11.5440473006
 20
9.0646081885
 11
11.5274885795
 21
9.0823152695
  0
LINE
  5
323
100
AcDbEntity
  8
0
100
AcDbLine
 62
4
  6
CONTINUOUS
 10
11.3370631443
 20
9.4498781195
 11
11.3701806039
 21
9.3979052316
  0
LINE
  5
324
100
AcDbEntity
  8
0
100
AcDbLine
 62
4
  6
CONTINUOUS
 10
11.1052409489
 20
9.8020972433
 11
11.1631965006
 21
9.6821669087
  0
LINE
  5
325
100
AcDbEntity
  8
0
100
AcDbLine
 62
4
  6
CONTINUOUS
 10
11.3701806257
 20
9.7506061581
 11
11.3950187351
 21
9.6660899821
  0
LINE
  5
326
100
AcDbEntity
  8
0
100
AcDbLine
 62
4
  6
CONTINUOUS
 10
11.8131266482
 20
6.9373313436
 11
11.8131266482
 21
6.8214202402
  0
LINE
  5
327
100
AcDbEntity
  8
0
100
AcDbLine
 62
4
  6
CONTINUOUS
 10
11.8200261157
 20
9.0454689927
 11
11.8200261157
 21
9.1613800961
  0
LINE
  5
328
100
AcDbEntity
  8
0
100
AcDbLine
 62
4
  6
CONTINUOUS
 10
11.8393445947
 20
9.6352758791
 11
11.8393445947
 21
9.7180695264
  0
LINE
  5
329
100
AcDbEntity
  8
0
100
AcDbLine
 62
4
  6
CONTINUOUS
 10
11.8393445947
 20
9.742907615
 11
11.8393445947
 21
9.7511869825
  0
LINE
  5
32A
100
AcDbEntity
  8
0
100
AcDbLine
 62
4
  6
CONTINUOUS
 10
11.8835012029
 20
9.6404929728
 11
11.8835012029
 21
9.7067278877
  0
LINE
  5
32B
100
AcDbEntity
  8
0
100
AcDbLine
 62
4
  6
CONTINUOUS
 10
11.9580155311
 20
9.6767222094
 11
11.9580155311
 21
9.7015603015
  0
LINE
  5
32C
100
AcDbEntity
  8
0
100
AcDbLine
 62
4
  6
CONTINUOUS
 10
11.443660006
 20
6.8760206147
 11
11.4364155621
 21
6.8475452428
  0
LINE
  5
32D
100
AcDbEntity
  8
0
100
AcDbLine
 62
4
  6
CONTINUOUS
 10
11.2697932974
 20
6.3519893551
 11
11.3060155172
 21
6.4653884391
  0
LINE
  5
32E
100
AcDbEntity
  8
0
100
AcDbLine
 62
4
  6
CONTINUOUS
 10
11.349482181
 20
6.3464629123
 11
11.3857044008
 21
6.4598619962
  0
LINE
  5
32F
100
AcDbEntity
  8
0
100
AcDbLine
 62
4
  6
CONTINUOUS
 10
11.535767895
 20
9.386421714
 11
11.5937234329
 21
9.3824024838
  0
LINE
  5
330
100
AcDbEntity
  8
0
100
AcDbLine
 62
4
  6
CONTINUOUS
 10
11.4364155196
 20
9.4429880088
 11
11.5026504388
 21
9.4383946016
  0
LINE
  5
331
100
AcDbEntity
  8
0
100
AcDbLine
 62
4
  6
CONTINUOUS
 10
11.9028197215
 20
9.1114817318
 11
11.9469763297
 21
9.0863411531
  0
LINE
  5
332
100
AcDbEntity
  8
0
100
AcDbLine
 62
4
  6
CONTINUOUS
 10
10.9810504849
 20
9.7279162374
 11
10.9230949331
 21
9.7816116562
  0
LINE
  5
333
100
AcDbEntity
  8
0
100
AcDbLine
 62
4
  6
CONTINUOUS
 10
11.014167941
 20
9.7090608042
 11
11.0307266691
 21
9.6913537227
  0
LINE
  5
334
100
AcDbEntity
  8
0
100
AcDbLine
 62
4
  6
CONTINUOUS
 10
11.64063985
 20
9.0579094724
 11
11.6240811288
 21
9.0756165535
  0
LINE
  5
335
100
AcDbEntity
  8
0
100
AcDbLine
 62
4
  6
CONTINUOUS
 10
10.9727711208
 20
9.8112840571
 11
10.9810504849
 21
9.8024305137
  0
LINE
  5
336
100
AcDbEntity
  8
0
100
AcDbLine
 62
4
  6
CONTINUOUS
 10
11.6654779594
 20
9.1720980471
 11
11.6820366805
 21
9.1543909679
  0
LINE
  5
337
100
AcDbEntity
  8
0
100
AcDbLine
 62
4
  6
CONTINUOUS
 10
12.0076916393
 20
9.6318803368
 11
12.0076916393
 21
9.6567184315
  0
LINE
  5
338
100
AcDbEntity
  8
0
100
AcDbLine
 62
7
  6
CONTINUOUS
 10
12.1415414629
 20
10.0344962131
 11
12.1415414629
 21
6.1707926791
  0
LINE
  5
339
100
AcDbEntity
  8
0
100
AcDbLine
 62
4
  6
CONTINUOUS
 10
11.5450822215
 20
6.8400091843
 11
11.5813044414
 21
6.9534082683
  0
LINE
  5
33A
100
AcDbEntity
  8
0
100
AcDbLine
 62
4
  6
CONTINUOUS
 10
11.3701806257
 20
9.640214629
 11
11.3867393469
 21
9.6390662778
  0
LINE
  5
33B
100
AcDbEntity
  8
0
100
AcDbLine
 62
4
  6
CONTINUOUS
 10
11.9248980887
 20
9.6293427241
 11
11.8917805359
 21
9.6316394342
  0
LINE
  5
33C
100
AcDbEntity
  8
0
100
AcDbLine
 62
4
  6
CONTINUOUS
 10
11.7896684312
 20
9.6387209327
 11
11.7731097101
 21
9.6398692839
  0
LINE
  5
33D
100
AcDbEntity
  8
0
100
AcDbLine
 62
4
  6
CONTINUOUS
 10
11.6489192184
 20
9.6484819238
 11
11.6158017761
 21
9.6507786262
  0
LINE
  5
33E
100
AcDbEntity
  8
0
100
AcDbLine
 62
4
  6
CONTINUOUS
 10
11.4916112844
 20
9.6593912661
 11
11.4584938421
 21
9.6616879685
  0
LINE
  5
33F
100
AcDbEntity
  8
0
100
AcDbLine
 62
4
  6
CONTINUOUS
 10
10.931374298
 20
9.698243833
 11
10.9644917568
 21
9.6959471295
  0
LINE
  5
340
100
AcDbEntity
  8
0
100
AcDbLine
 62
4
  6
CONTINUOUS
 10
11.0307266691
 20
9.6913537227
 11
11.0555647716
 21
9.6896311944
  0
LINE
  5
341
100
AcDbEntity
  8
0
100
AcDbLine
 62
4
  6
CONTINUOUS
 10
11.690316049
 20
9.6456110438
 11
11.7317128795
 21
9.6427401639
  0
LINE
  5
342
100
AcDbEntity
  8
0
100
AcDbLine
 62
4
  6
CONTINUOUS
 10
11.966294864
 20
9.626471848
 11
11.9994123064
 21
9.6241751456
  0
LINE
  5
343
100
AcDbEntity
  8
0
100
AcDbLine
 62
4
  6
CONTINUOUS
 10
11.7565509534
 20
9.1657821136
 11
11.7731096746
 21
9.1480750343
  0
LINE
  5
344
100
AcDbEntity
  8
0
100
AcDbLine
 62
4
  6
CONTINUOUS
 10
11.3287837952
 20
9.7534770381
 11
11.3370631557
 21
9.744623495
  0
LINE
  5
345
100
AcDbEntity
  8
0
100
AcDbLine
 62
4
  6
CONTINUOUS
 10
11.5578462244
 20
9.7375915047
 11
11.5633657797
 21
9.7289293547
  0
LINE
  5
346
100
AcDbEntity
  8
0
100
AcDbLine
 62
4
  6
CONTINUOUS
 10
11.6489192184
 20
9.714716843
 11
11.6406398855
 21
9.7318497448
  0
LINE
  5
347
100
AcDbEntity
  8
0
100
AcDbLine
 62
4
  6
CONTINUOUS
 10
11.4364155621
 20
6.9441378267
 11
11.443660006
 21
6.953294686
  0
LINE
  5
348
100
AcDbEntity
  8
0
100
AcDbLine
 62
4
  6
CONTINUOUS
 10
11.458148894
 20
6.894334323
 11
11.443660006
 21
6.8760206147
  0
LINE
  5
349
100
AcDbEntity
  8
0
100
AcDbLine
 62
4
  6
CONTINUOUS
 10
11.4943711138
 20
6.9208000829
 11
11.4871266698
 21
6.9116432235
  0
LINE
  5
34A
100
AcDbEntity
  8
0
100
AcDbLine
 62
4
  6
CONTINUOUS
 10
10.1106822923
 20
6.5386258235
 11
10.1251711802
 21
6.547280272
  0
LINE
  5
34B
100
AcDbEntity
  8
0
100
AcDbLine
 62
4
  6
CONTINUOUS
 10
10.2410822836
 20
6.5392418097
 11
10.2265933957
 21
6.5305873611
  0
LINE
  5
34C
100
AcDbEntity
  8
0
100
AcDbLine
 62
4
  6
CONTINUOUS
 10
10.1541489561
 20
6.4390188119
 11
10.1396600681
 21
6.4303643608
  0
LINE
  5
34D
100
AcDbEntity
  8
0
100
AcDbLine
 62
4
  6
CONTINUOUS
 10
11.6158017761
 20
9.6921754499
 11
11.6489192184
 21
9.6898787474
  0
LINE
  5
34E
100
AcDbEntity
  8
0
100
AcDbLine
 62
4
  6
CONTINUOUS
 10
11.6406398855
 20
9.7318497448
 11
11.5992430549
 21
9.7347206247
  0
LINE
  5
34F
100
AcDbEntity
  8
0
100
AcDbLine
 62
4
  6
CONTINUOUS
 10
11.2873869646
 20
9.756347918
 11
11.3287837952
 21
9.7534770381
  0
LINE
  5
350
100
AcDbEntity
  8
0
100
AcDbLine
 62
4
  6
CONTINUOUS
 10
11.4584938421
 20
9.7444816158
 11
11.4916112844
 21
9.7421849134
  0
LINE
  5
351
100
AcDbEntity
  8
0
100
AcDbLine
 62
4
  6
CONTINUOUS
 10
11.524728782
 20
9.7398882071
 11
11.5578462244
 21
9.7375915047
  0
LINE
  5
352
100
AcDbEntity
  8
0
100
AcDbLine
 62
4
  6
CONTINUOUS
 10
11.8917805359
 20
9.7144330815
 11
11.9248980887
 21
9.7121363714
  0
LINE
  5
353
100
AcDbEntity
  8
0
100
AcDbLine
 62
4
  6
CONTINUOUS
 10
11.966294864
 20
9.7092654953
 11
11.9994123064
 21
9.7069687929
  0
LINE
  5
354
100
AcDbEntity
  8
0
100
AcDbLine
 62
4
  6
CONTINUOUS
 10
10.9396536629
 20
9.8135807606
 11
10.9727711208
 21
9.8112840571
  0
LINE
  5
355
100
AcDbEntity
  8
0
100
AcDbLine
 62
4
  6
CONTINUOUS
 10
11.8393445947
 20
9.7511869825
 11
11.8421043724
 21
9.7509955913
  0
LINE
  5
356
100
AcDbEntity
  8
0
100
AcDbLine
 62
4
  6
CONTINUOUS
 10
10.5767415202
 20
9.9015339869
 11
10.627452628
 21
9.8980171596
  0
LINE
  5
357
100
AcDbEntity
  8
0
100
AcDbLine
 62
4
  6
CONTINUOUS
 10
11.9994123064
 20
9.6628121812
 11
11.966294864
 21
9.6706284597
  0
LINE
  5
358
100
AcDbEntity
  8
0
100
AcDbLine
 62
4
  6
CONTINUOUS
 10
11.4584938421
 20
9.6616879685
 11
11.4419351209
 21
9.6711156846
  0
LINE
  5
359
100
AcDbEntity
  8
0
100
AcDbLine
 62
4
  6
CONTINUOUS
 10
11.6158017761
 20
9.6507786262
 11
11.5992430549
 21
9.6602063423
  0
LINE
  5
35A
100
AcDbEntity
  8
0
100
AcDbLine
 62
4
  6
CONTINUOUS
 10
11.6820366607
 20
9.6544645863
 11
11.690316049
 21
9.6456110438
  0
LINE
  5
35B
100
AcDbEntity
  8
0
100
AcDbLine
 62
4
  6
CONTINUOUS
 10
11.7731097101
 20
9.6398692839
 11
11.7648303218
 21
9.6487228264
  0
LINE
  5
35C
100
AcDbEntity
  8
0
100
AcDbLine
 62
4
  6
CONTINUOUS
 10
10.2700600595
 20
6.4309803495
 11
10.2555711716
 21
6.4223258984
  0
LINE
  5
35D
100
AcDbEntity
  8
0
100
AcDbLine
 62
4
  6
CONTINUOUS
 10
11.443660006
 20
6.953294686
 11
11.458148894
 21
6.9619491345
  0
LINE
  5
35E
100
AcDbEntity
  8
0
100
AcDbLine
 62
4
  6
CONTINUOUS
 10
10.5767415202
 20
9.9691487949
 11
10.627452628
 21
9.9656319676
  0
LINE
  5
35F
100
AcDbEntity
  8
0
100
AcDbLine
 62
4
  6
CONTINUOUS
 10
10.627452628
 20
10.013928263
 11
10.5767415202
 21
10.0174450903
  0
LINE
  5
360
100
AcDbEntity
  8
0
100
AcDbLine
 62
4
  6
CONTINUOUS
 10
11.966294864
 20
9.6706284597
 11
11.9580155311
 21
9.6767222094
  0
LINE
  5
361
100
AcDbEntity
  8
0
100
AcDbLine
 62
4
  6
CONTINUOUS
 10
12.0076916393
 20
9.6567184315
 11
11.9994123064
 21
9.6628121812
  0
LINE
  5
362
100
AcDbEntity
  8
0
100
AcDbLine
 62
4
  6
CONTINUOUS
 10
11.8917805359
 20
9.6316394342
 11
11.8835012029
 21
9.6404929728
  0
LINE
  5
363
100
AcDbEntity
  8
0
100
AcDbLine
 62
4
  6
CONTINUOUS
 10
11.9580155311
 20
9.6353253866
 11
11.966294864
 21
9.626471848
  0
LINE
  5
364
100
AcDbEntity
  8
0
100
AcDbLine
 62
4
  6
CONTINUOUS
 10
11.9994123064
 20
9.7069687929
 11
12.0076916393
 21
9.6981152517
  0
LINE
  5
365
100
AcDbEntity
  8
0
100
AcDbLine
 62
7
  6
CONTINUOUS
 10
12.7562361877
 20
10.6282457583
 11
12.7562361877
 21
6.7645422242
  0
LINE
  5
366
100
AcDbEntity
  8
0
100
AcDbLine
 62
4
  6
CONTINUOUS
 10
11.4871266698
 20
6.9116432235
 11
11.458148894
 21
6.894334323
  0
LINE
  5
367
100
AcDbEntity
  8
0
100
AcDbLine
 62
7
  6
CONTINUOUS
 10
12.1415414629
 20
10.0344962131
 11
9.2437638123
 21
10.2354577758
  0
LINE
  5
368
100
AcDbEntity
  8
0
100
AcDbLine
 62
7
  6
CONTINUOUS
 10
9.8584585371
 20
10.8292073209
 11
12.7562361877
 21
10.6282457583
  0
LINE
  5
369
100
AcDbEntity
  8
0
100
AcDbLine
 62
7
  6
CONTINUOUS
 10
12.7562361877
 20
6.7645422242
 11
12.1415414629
 21
6.1707926791
  0
ARC
  5
36A
100
AcDbEntity
  8
0
100
AcDbCircle
 62
7
  6
CONTINUOUS
 10
10.6010234621
 20
9.1967403053
 40
0.4466833899
100
AcDbArc
 50
172.7776860624
 51
180.0156724171
  0
ARC
  5
36B
100
AcDbEntity
  8
0
100
AcDbCircle
 62
7
  6
CONTINUOUS
 10
11.5060959924
 20
8.1680474286
 40
0.4466833899
100
AcDbArc
 50
172.7776860624
 51
180.0156724171
  0
ARC
  5
36C
100
AcDbEntity
  8
0
100
AcDbCircle
 62
7
  6
CONTINUOUS
 10
10.6097464392
 20
9.202199664
 40
0.4186640188
100
AcDbArc
 50
173.552607865
 51
180.0124761097
  0
ARC
  5
36D
100
AcDbEntity
  8
0
100
AcDbCircle
 62
7
  6
CONTINUOUS
 10
11.5148189695
 20
8.1735067873
 40
0.4186640188
100
AcDbArc
 50
173.552607865
 51
180.0124761097
  0
ARC
  5
36E
100
AcDbEntity
  8
0
100
AcDbCircle
 62
7
  6
CONTINUOUS
 10
11.6880183017
 20
8.3066117711
 40
0.3685606866
100
AcDbArc
 50
218.2913980716
 51
229.7813236277
  0
ARC
  5
36F
100
AcDbEntity
  8
0
100
AcDbCircle
 62
7
  6
CONTINUOUS
 10
10.7829457715
 20
9.3353046478
 40
0.3685606866
100
AcDbArc
 50
218.2913980716
 51
229.7813236277
  0
ARC
  5
370
100
AcDbEntity
  8
0
100
AcDbCircle
 62
7
  6
CONTINUOUS
 10
11.0358644015
 20
8.1791841021
 40
0.0940714355
100
AcDbArc
 50
154.4193236259
 51
156.4282084579
  0
SPLINE
  5
371
100
AcDbEntity
  8
0
100
AcDbSpline
 62
7
  6
CONTINUOUS
 70
0
 71
3
 72
91
 73
87
 74
0
 42
0.0000001
 43
0.0000001
 44
0.0000000001
 40
0.0
 40
0.0
 40
0.0
 40
0.0
 40
0.0039801924
 40
0.0081241222
 40
0.0124359637
 40
0.0169193096
 40
0.0215771886
 40
0.0264119285
 40
0.0314251939
 40
0.0366181702
 40
0.0419915548
 40
0.047545678
 40
0.0532804444
 40
0.0591954462
 40
0.0652899498
 40
0.0715629346
 40
0.0780131383
 40
0.0846390212
 40
0.0984103321
 40
0.112860905
 40
0.1279714342
 40
0.1437200292
 40
0.1600824911
 40
0.1770325451
 40
0.1945420381
 40
0.2125811122
 40
0.2311183582
 40
0.250120955
 40
0.2695548022
 40
0.2893846422
 40
0.309574176
 40
0.3300861748
 40
0.3508825876
 40
0.371924647
 40
0.3931729723
 40
0.4145876715
 40
0.4361284441
 40
0.4577546814
 40
0.4794255667
 40
0.5011001742
 40
0.5227375691
 40
0.5442969066
 40
0.5657375322
 40
0.5870190822
 40
0.6081015838
 40
0.6289455566
 40
0.6495121139
 40
0.6697630662
 40
0.6896610263
 40
0.7091695166
 40
0.7282530813
 40
0.7468774025
 40
0.7650094193
 40
0.7826174564
 40
0.799671362
 40
0.8161426596
 40
0.8320047173
 40
0.8472329411
 40
0.8618050018
 40
0.8757011035
 40
0.8889043078
 40
0.8952418952
 40
0.9014014185
 40
0.9073817887
 40
0.9131821496
 40
0.9188019795
 40
0.9242410699
 40
0.9294995748
 40
0.9345780695
 40
0.9394775409
 40
0.9441995182
 40
0.9487460398
 40
0.953119811
 40
0.9573242085
 40
0.9613634143
 40
0.9652425019
 40
0.9689675247
 40
0.9725456818
 40
0.9759853712
 40
0.9824865179
 40
0.9855753633
 40
0.9885738259
 40
0.9914977396
 40
0.9943643376
 40
0.9971920097
 40
1.0
 40
1.0
 40
1.0
 40
1.0
 10
11.5296686403
 20
10.4619723802
 30
0.0
 10
11.5283426478
 20
10.4606915697
 30
0.0
 10
11.5255758983
 20
10.4581390101
 30
0.0
 10
11.521183154
 20
10.4544108091
 30
0.0
 10
11.5164678365
 20
10.4507093572
 30
0.0
 10
11.511432531
 20
10.4470366072
 30
0.0
 10
11.5060796851
 20
10.4433942826
 30
0.0
 10
11.5004119307
 20
10.4397841459
 30
0.0
 10
11.4944320977
 20
10.4362079442
 30
0.0
 10
11.488143158
 20
10.4326675216
 30
0.0
 10
11.4815482842
 20
10.429164579
 30
0.0
 10
11.4746507525
 20
10.4257009263
 30
0.0
 10
11.4674540367
 20
10.4222782497
 30
0.0
 10
11.4599617394
 20
10.418898305
 30
0.0
 10
11.4521776304
 20
10.4155627843
 30
0.0
 10
11.4441056304
 20
10.4122733646
 30
0.0
 10
11.4357497874
 20
10.4090317143
 30
0.0
 10
11.4240854879
 20
10.4047198682
 30
0.0
 10
11.4088187372
 20
10.3994722662
 30
0.0
 10
11.389664255
 20
10.3934693281
 30
0.0
 10
11.3694855314
 20
10.3876945247
 30
0.0
 10
11.3483233003
 20
10.3821596034
 30
0.0
 10
11.3262201289
 20
10.3768758379
 30
0.0
 10
11.3032205931
 20
10.3718539913
 30
0.0
 10
11.2793710991
 20
10.3671042943
 30
0.0
 10
11.2547198057
 20
10.3626364224
 30
0.0
 10
11.2293165154
 20
10.3584594752
 30
0.0
 10
11.2032125716
 20
10.3545819559
 30
0.0
 10
11.1764607494
 20
10.3510117571
 30
0.0
 10
11.1491151451
 20
10.3477561443
 30
0.0
 10
11.1212310651
 20
10.3448217414
 30
0.0
 10
11.0928649123
 20
10.3422145182
 30
0.0
 10
11.0640740704
 20
10.3399397782
 30
0.0
 10
11.034916788
 20
10.3380021483
 30
0.0
 10
11.0054520595
 20
10.3364055693
 30
0.0
 10
10.9757395047
 20
10.335153286
 30
0.0
 10
10.9458392472
 20
10.3342478436
 30
0.0
 10
10.9158117913
 20
10.3336910826
 30
0.0
 10
10.8857178997
 20
10.3334841346
 30
0.0
 10
10.8556184699
 20
10.3336274206
 30
0.0
 10
10.8255744111
 20
10.3341206497
 30
0.0
 10
10.7956465204
 20
10.3349628204
 30
0.0
 10
10.7658953588
 20
10.3361522212
 30
0.0
 10
10.7363811279
 20
10.3376864326
 30
0.0
 10
10.707163547
 20
10.3395623348
 30
0.0
 10
10.6783017325
 20
10.3417761132
 30
0.0
 10
10.6498540771
 20
10.3443232657
 30
0.0
 10
10.6218781315
 20
10.3471986119
 30
0.0
 10
10.594430487
 20
10.3503963032
 30
0.0
 10
10.5675666591
 20
10.3539098345
 30
0.0
 10
10.5413409727
 20
10.3577320558
 30
0.0
 10
10.5158064493
 20
10.3618551857
 30
0.0
 10
10.4910146982
 20
10.3662708292
 30
0.0
 10
10.4670158091
 20
10.3709699939
 30
0.0
 10
10.443858247
 20
10.3759431084
 30
0.0
 10
10.4215887504
 20
10.3811800422
 30
0.0
 10
10.4002522229
 20
10.3866701274
 30
0.0
 10
10.379891658
 20
10.3924021831
 30
0.0
 10
10.3605479489
 20
10.3983645433
 30
0.0
 10
10.3422601021
 20
10.4045450769
 30
0.0
 10
10.3277388561
 20
10.409937914
 30
0.0
 10
10.3166866843
 20
10.414361345
 30
0.0
 10
10.3087974367
 20
10.4176803289
 30
0.0
 10
10.3011985964
 20
10.4210443036
 30
0.0
 10
10.2938939849
 20
10.4244516458
 30
0.0
 10
10.2868872661
 20
10.4279006041
 30
0.0
 10
10.2801819549
 20
10.4313894553
 30
0.0
 10
10.2737814173
 20
10.434916468
 30
0.0
 10
10.2676888377
 20
10.4384798425
 30
0.0
 10
10.2619072831
 20
10.4420778652
 30
0.0
 10
10.2564396041
 20
10.4457086916
 30
0.0
 10
10.2512885538
 20
10.4493706053
 30
0.0
 10
10.2464566657
 20
10.4530617701
 30
0.0
 10
10.2419463581
 20
10.4567804442
 30
0.0
 10
10.2377598843
 20
10.4605248407
 30
0.0
 10
10.2338993009
 20
10.464293219
 30
0.0
 10
10.23036669
 20
10.4680837515
 30
0.0
 10
10.2271635263
 20
10.4718951042
 30
0.0
 10
10.2234059329
 20
10.476906612
 30
0.0
 10
10.22021511
 20
10.4820531857
 30
0.0
 10
10.2176817741
 20
10.4873096694
 30
0.0
 10
10.2161511154
 20
10.4911972158
 30
0.0
 10
10.2149591735
 20
10.4950942359
 30
0.0
 10
10.2141068584
 20
10.498998812
 30
0.0
 10
10.2135951589
 20
10.5029081756
 30
0.0
 10
10.2134812586
 20
10.5055199347
 30
0.0
 10
10.2134812624
 20
10.5068205534
 30
0.0
  0
SPLINE
  5
372
100
AcDbEntity
  8
0
100
AcDbSpline
 62
7
  6
CONTINUOUS
 70
0
 71
3
 72
23
 73
19
 74
0
 42
0.0000001
 43
0.0000001
 44
0.0000000001
 40
0.0
 40
0.0
 40
0.0
 40
0.0
 40
0.063776909
 40
0.1273449468
 40
0.1907019575
 40
0.2538561145
 40
0.3168131979
 40
0.3795820804
 40
0.4421733815
 40
0.5045993354
 40
0.5668738682
 40
0.6290123838
 40
0.6910316538
 40
0.75294965
 40
0.8147853622
 40
0.8765586114
 40
0.9382898593
 40
1.0
 40
1.0
 40
1.0
 40
1.0
 10
9.9836630504
 20
9.5804419121
 30
0.0
 10
9.9836630504
 20
9.575859609
 30
0.0
 10
9.9834437159
 20
9.5667084574
 30
0.0
 10
9.9824537939
 20
9.553037405
 30
0.0
 10
9.9808055456
 20
9.539474712
 30
0.0
 10
9.9785029322
 20
9.526052236
 30
0.0
 10
9.9755510869
 20
9.5128006546
 30
0.0
 10
9.971956837
 20
9.4997506013
 30
0.0
 10
9.96772845
 20
9.4869321394
 30
0.0
 10
9.9628756378
 20
9.4743748285
 30
0.0
 10
9.9574095473
 20
9.4621076381
 30
0.0
 10
9.9513427586
 20
9.4501588635
 30
0.0
 10
9.944689262
 20
9.4385560601
 30
0.0
 10
9.9374643774
 20
9.4273259865
 30
0.0
 10
9.9296847628
 20
9.4164945839
 30
0.0
 10
9.9213682549
 20
9.4060867622
 30
0.0
 10
9.9125343733
 20
9.3961268479
 30
0.0
 10
9.9063126235
 20
9.3897996456
 30
0.0
 10
9.9031235934
 20
9.3867192657
 30
0.0
  0
SPLINE
  5
373
100
AcDbEntity
  8
0
100
AcDbSpline
 62
7
  6
CONTINUOUS
 70
0
 71
3
 72
23
 73
19
 74
0
 42
0.0000001
 43
0.0000001
 44
0.0000000001
 40
0.0
 40
0.0
 40
0.0
 40
0.0
 40
0.063776909
 40
0.1273449468
 40
0.1907019575
 40
0.2538561145
 40
0.3168131979
 40
0.3795820804
 40
0.4421733815
 40
0.5045993354
 40
0.5668738682
 40
0.6290123838
 40
0.6910316538
 40
0.75294965
 40
0.8147853622
 40
0.8765586114
 40
0.9382898593
 40
1.0
 40
1.0
 40
1.0
 40
1.0
 10
11.4325518469
 20
8.6347759847
 30
0.0
 10
11.4325518469
 20
8.6301936816
 30
0.0
 10
11.4323325124
 20
8.62104253
 30
0.0
 10
11.4313425904
 20
8.6073714777
 30
0.0
 10
11.4296943421
 20
8.5938087846
 30
0.0
 10
11.4273917287
 20
8.5803863086
 30
0.0
 10
11.4244398834
 20
8.5671347272
 30
0.0
 10
11.4208456335
 20
8.5540846739
 30
0.0
 10
11.4166172465
 20
8.541266212
 30
0.0
 10
11.4117644343
 20
8.5287089011
 30
0.0
 10
11.4062983438
 20
8.5164417107
 30
0.0
 10
11.4002315551
 20
8.5044929361
 30
0.0
 10
11.3935780585
 20
8.4928901327
 30
0.0
 10
11.3863531739
 20
8.4816600591
 30
0.0
 10
11.3785735593
 20
8.4708286565
 30
0.0
 10
11.3702570514
 20
8.4604208348
 30
0.0
 10
11.3614231698
 20
8.4504609205
 30
0.0
 10
11.35520142
 20
8.4441337182
 30
0.0
 10
11.3520123899
 20
8.4410533383
 30
0.0
  0
SPLINE
  5
374
100
AcDbEntity
  8
0
100
AcDbSpline
 62
7
  6
CONTINUOUS
 70
0
 71
3
 72
23
 73
19
 74
0
 42
0.0000001
 43
0.0000001
 44
0.0000000001
 40
0.0
 40
0.0
 40
0.0
 40
0.0
 40
0.063776909
 40
0.1273449468
 40
0.1907019575
 40
0.2538561145
 40
0.3168131979
 40
0.3795820804
 40
0.4421733815
 40
0.5045993354
 40
0.5668738682
 40
0.6290123838
 40
0.6910316538
 40
0.75294965
 40
0.8147853622
 40
0.8765586114
 40
0.9382898593
 40
1.0
 40
1.0
 40
1.0
 40
1.0
 10
9.9836630504
 20
7.1047739077
 30
0.0
 10
9.9836630504
 20
7.1001916045
 30
0.0
 10
9.9834437159
 20
7.091040453
 30
0.0
 10
9.9824537939
 20
7.0773694006
 30
0.0
 10
9.9808055456
 20
7.0638067075
 30
0.0
 10
9.9785029322
 20
7.0503842315
 30
0.0
 10
9.9755510869
 20
7.0371326502
 30
0.0
 10
9.971956837
 20
7.0240825969
 30
0.0
 10
9.96772845
 20
7.011264135
 30
0.0
 10
9.9628756378
 20
6.9987068241
 30
0.0
 10
9.9574095473
 20
6.9864396336
 30
0.0
 10
9.9513427586
 20
6.9744908591
 30
0.0
 10
9.944689262
 20
6.9628880556
 30
0.0
 10
9.9374643774
 20
6.951657982
 30
0.0
 10
9.9296847628
 20
6.9408265794
 30
0.0
 10
9.9213682549
 20
6.9304187577
 30
0.0
 10
9.9125343733
 20
6.9204588434
 30
0.0
 10
9.9063126235
 20
6.9141316411
 30
0.0
 10
9.9031235934
 20
6.9110512612
 30
0.0
  0
SPLINE
  5
375
100
AcDbEntity
  8
0
100
AcDbSpline
 62
7
  6
CONTINUOUS
 70
0
 71
3
 72
15
 73
11
 74
0
 42
0.0000001
 43
0.0000001
 44
0.0000000001
 40
0.0
 40
0.0
 40
0.0
 40
0.0
 40
0.1259828651
 40
0.2515877929
 40
0.3768580849
 40
0.5018417848
 40
0.6265910612
 40
0.7511614616
 40
0.8756111356
 40
1.0
 40
1.0
 40
1.0
 40
1.0
 10
9.7278198357
 20
9.8832999151
 30
0.0
 10
9.7242923992
 20
9.8822832345
 30
0.0
 10
9.7173068926
 20
9.8800420011
 30
0.0
 10
9.7070653617
 20
9.8760620955
 30
0.0
 10
9.6971093144
 20
9.8714820562
 30
0.0
 10
9.6874721014
 20
9.8663171015
 30
0.0
 10
9.6781854407
 20
9.8605842306
 30
0.0
 10
9.6692799352
 20
9.8543022423
 30
0.0
 10
9.6607853679
 20
9.847492237
 30
0.0
 10
9.6554135741
 20
9.8426138763
 30
0.0
 10
9.6528065781
 20
9.8400957115
 30
0.0
  0
SPLINE
  5
376
100
AcDbEntity
  8
0
100
AcDbSpline
 62
7
  6
CONTINUOUS
 70
0
 71
3
 72
15
 73
11
 74
0
 42
0.0000001
 43
0.0000001
 44
0.0000000001
 40
0.0
 40
0.0
 40
0.0
 40
0.0
 40
0.1259828651
 40
0.2515877929
 40
0.3768580849
 40
0.5018417848
 40
0.6265910612
 40
0.7511614616
 40
0.8756111356
 40
1.0
 40
1.0
 40
1.0
 40
1.0
 10
11.1767086322
 20
8.9376339877
 30
0.0
 10
11.1731811957
 20
8.9366173071
 30
0.0
 10
11.1661956891
 20
8.9343760737
 30
0.0
 10
11.1559541582
 20
8.9303961681
 30
0.0
 10
11.1459981109
 20
8.9258161288
 30
0.0
 10
11.1363608979
 20
8.9206511741
 30
0.0
 10
11.1270742372
 20
8.9149183032
 30
0.0
 10
11.1181687317
 20
8.9086363149
 30
0.0
 10
11.1096741644
 20
8.9018263096
 30
0.0
 10
11.1043023706
 20
8.8969479489
 30
0.0
 10
11.1016953746
 20
8.8944297841
 30
0.0
  0
SPLINE
  5
377
100
AcDbEntity
  8
0
100
AcDbSpline
 62
7
  6
CONTINUOUS
 70
0
 71
3
 72
15
 73
11
 74
0
 42
0.0000001
 43
0.0000001
 44
0.0000000001
 40
0.0
 40
0.0
 40
0.0
 40
0.0
 40
0.1259828651
 40
0.2515877929
 40
0.3768580849
 40
0.5018417848
 40
0.6265910612
 40
0.7511614616
 40
0.8756111356
 40
1.0
 40
1.0
 40
1.0
 40
1.0
 10
9.7278198357
 20
7.4076319106
 30
0.0
 10
9.7242923992
 20
7.4066152301
 30
0.0
 10
9.7173068926
 20
7.4043739966
 30
0.0
 10
9.7070653617
 20
7.4003940911
 30
0.0
 10
9.6971093144
 20
7.3958140518
 30
0.0
 10
9.6874721014
 20
7.3906490971
 30
0.0
 10
9.6781854407
 20
7.3849162262
 30
0.0
 10
9.6692799352
 20
7.3786342378
 30
0.0
 10
9.6607853679
 20
7.3718242325
 30
0.0
 10
9.6554135741
 20
7.3669458718
 30
0.0
 10
9.6528065781
 20
7.364427707
 30
0.0
  0
SPLINE
  5
378
100
AcDbEntity
  8
0
100
AcDbSpline
 62
7
  6
CONTINUOUS
 70
0
 71
3
 72
22
 73
18
 74
0
 42
0.0000001
 43
0.0000001
 44
0.0000000001
 40
0.0
 40
0.0
 40
0.0
 40
0.0
 40
0.1611126909
 40
0.2423935764
 40
0.3235676852
 40
0.4039805627
 40
0.4827884757
 40
0.5589709972
 40
0.6314026022
 40
0.6989811194
 40
0.7607869884
 40
0.8162172251
 40
0.8650407463
 40
0.9073702467
 40
0.9435839622
 40
0.9742381395
 40
1.0
 40
1.0
 40
1.0
 40
1.0
 10
10.4773089737
 20
8.3409580681
 30
0.0
 10
10.4750048223
 20
8.3398614258
 30
0.0
 10
10.4715153383
 20
8.3382587212
 30
0.0
 10
10.4668077363
 20
8.3362326756
 30
0.0
 10
10.4632475881
 20
8.3347751788
 30
0.0
 10
10.4596958119
 20
8.3334024825
 30
0.0
 10
10.4561888848
 20
8.3321353872
 30
0.0
 10
10.4527714515
 20
8.3309956471
 30
0.0
 10
10.4494935464
 20
8.330003678
 30
0.0
 10
10.4464055024
 20
8.3291757077
 30
0.0
 10
10.4435516149
 20
8.3285212462
 30
0.0
 10
10.4409645988
 20
8.3280418186
 30
0.0
 10
10.4386626419
 20
8.3277314205
 30
0.0
 10
10.4366498149
 20
8.3275783524
 30
0.0
 10
10.4349185357
 20
8.3275677273
 30
0.0
 10
10.4334540676
 20
8.3276835434
 30
0.0
 10
10.4325731504
 20
8.3278480319
 30
0.0
 10
10.432178501
 20
8.3279516818
 30
0.0
  0
SPLINE
  5
379
100
AcDbEntity
  8
0
100
AcDbSpline
 62
7
  6
CONTINUOUS
 70
0
 71
3
 72
33
 73
29
 74
0
 42
0.0000001
 43
0.0000001
 44
0.0000000001
 40
0.0
 40
0.0
 40
0.0
 40
0.0
 40
0.0992076987
 40
0.1954557125
 40
0.2881823628
 40
0.3768525366
 40
0.4609408773
 40
0.5011131886
 40
0.5399573676
 40
0.6134363014
 40
0.6809746952
 40
0.7124097506
 40
0.7422386335
 40
0.7704317872
 40
0.7969680459
 40
0.8218341084
 40
0.8450273457
 40
0.8665580806
 40
0.8864519816
 40
0.904756346
 40
0.9215435385
 40
0.9369219241
 40
0.9441315379
 40
0.9510502123
 40
0.964120428
 40
0.9764087223
 40
0.9882446243
 40
1.0
 40
1.0
 40
1.0
 40
1.0
 10
10.6253236135
 20
8.6226554473
 30
0.0
 10
10.6237348565
 20
8.6223295738
 30
0.0
 10
10.6205959817
 20
8.6217292619
 30
0.0
 10
10.6159446754
 20
8.6209765863
 30
0.0
 10
10.6114433554
 20
8.6203878333
 30
0.0
 10
10.6071230633
 20
8.6199652836
 30
0.0
 10
10.6036479665
 20
8.6197486821
 30
0.0
 10
10.600982818
 20
8.6196612947
 30
0.0
 10
10.5984898894
 20
8.619630596
 30
0.0
 10
10.5955490696
 20
8.6196876385
 30
0.0
 10
10.5927349144
 20
8.6198793957
 30
0.0
 10
10.5906420891
 20
8.6201139276
 30
0.0
 10
10.5891942534
 20
8.620321876
 30
0.0
 10
10.5878331483
 20
8.6205649529
 30
0.0
 10
10.5865613995
 20
8.620841916
 30
0.0
 10
10.5853814499
 20
8.6211514836
 30
0.0
 10
10.5842955526
 20
8.6214923248
 30
0.0
 10
10.5833057372
 20
8.6218630342
 30
0.0
 10
10.5824138506
 20
8.6222622815
 30
0.0
 10
10.5816214517
 20
8.6226886789
 30
0.0
 10
10.5809300612
 20
8.6231409833
 30
0.0
 10
10.5804286495
 20
8.6235469815
 30
0.0
 10
10.5800830745
 20
8.6238839805
 30
0.0
 10
10.5797855861
 20
8.6242147689
 30
0.0
 10
10.579474182
 20
8.6246434115
 30
0.0
 10
10.5792003438
 20
8.625189718
 30
0.0
 10
10.5790356093
 20
8.6257560969
 30
0.0
 10
10.5789997978
 20
8.6261428165
 30
0.0
 10
10.5789997941
 20
8.6263349916
 30
0.0
  0
SPLINE
  5
37A
100
AcDbEntity
  8
0
100
AcDbSpline
 62
7
  6
CONTINUOUS
 70
0
 71
3
 72
36
 73
32
 74
0
 42
0.0000001
 43
0.0000001
 44
0.0000000001
 40
0.0
 40
0.0
 40
0.0
 40
0.0
 40
0.094188632
 40
0.1857050557
 40
0.2740362429
 40
0.3586709704
 40
0.4391310831
 40
0.4776714157
 40
0.5150185664
 40
0.5511337765
 40
0.5859842673
 40
0.6195436887
 40
0.6517917134
 40
0.6827138474
 40
0.712301777
 40
0.7405531019
 40
0.7674710955
 40
0.7930653167
 40
0.8173522018
 40
0.8403555422
 40
0.8621081467
 40
0.8826538718
 40
0.9020496527
 40
0.9203689199
 40
0.9377053663
 40
0.9541761979
 40
0.9699258188
 40
0.9775875027
 40
0.9851362206
 40
0.9925978723
 40
1.0
 40
1.0
 40
1.0
 40
1.0
 10
11.5752139731
 20
7.5701515877
 30
0.0
 10
11.568310966
 20
7.5666087869
 30
0.0
 10
11.5544706689
 20
7.560060069
 30
0.0
 10
11.5334347939
 20
7.5518196086
 30
0.0
 10
11.5126082676
 20
7.5453512797
 30
0.0
 10
11.4922378566
 20
7.5406887079
 30
0.0
 10
11.475617408
 20
7.5382656045
 30
0.0
 10
11.4627758929
 20
7.5372324485
 30
0.0
 10
11.4535524422
 20
7.5368941683
 30
0.0
 10
11.444627107
 20
7.5369674791
 30
0.0
 10
11.4360261428
 20
7.5374360699
 30
0.0
 10
11.4277740993
 20
7.5382813368
 30
0.0
 10
11.4198934659
 20
7.5394828792
 30
0.0
 10
11.412404702
 20
7.5410187934
 30
0.0
 10
11.4053261843
 20
7.5428658308
 30
0.0
 10
11.3986742878
 20
7.5449998476
 30
0.0
 10
11.3924635216
 20
7.5473961422
 30
0.0
 10
11.3867066052
 20
7.5500296071
 30
0.0
 10
11.3814146239
 20
7.5528750432
 30
0.0
 10
11.3765972291
 20
7.5559074535
 30
0.0
 10
11.3722627494
 20
7.5591021625
 30
0.0
 10
11.368418386
 20
7.5624350568
 30
0.0
 10
11.365070419
 20
7.565882796
 30
0.0
 10
11.3622243861
 20
7.5694228318
 30
0.0
 10
11.3598853058
 20
7.5730337612
 30
0.0
 10
11.3580580358
 20
7.5766943916
 30
0.0
 10
11.3569554344
 20
7.5797995228
 30
0.0
 10
11.3563433022
 20
7.5822770573
 30
0.0
 10
11.3560179688
 20
7.5841177177
 30
0.0
 10
11.355822614
 20
7.5859550617
 30
0.0
 10
11.3557789587
 20
7.587179942
 30
0.0
 10
11.3557789747
 20
7.5877897133
 30
0.0
  0
SPLINE
  5
37B
100
AcDbEntity
  8
0
100
AcDbSpline
 62
7
  6
CONTINUOUS
 70
0
 71
3
 72
53
 73
49
 74
0
 42
0.0000001
 43
0.0000001
 44
0.0000000001
 40
0.0
 40
0.0
 40
0.0
 40
0.0
 40
0.0076867883
 40
0.0157270374
 40
0.0242014603
 40
0.0331765785
 40
0.042704422
 40
0.0528223803
 40
0.0635567743
 40
0.0749239086
 40
0.086932416
 40
0.0995837571
 40
0.1128740509
 40
0.1267943248
 40
0.1413317913
 40
0.1564699635
 40
0.1884643284
 40
0.2225972783
 40
0.2586510028
 40
0.2963819523
 40
0.3355264944
 40
0.3758056101
 40
0.4169294384
 40
0.4586014579
 40
0.5005226823
 40
0.54239544
 40
0.5839268825
 40
0.6248317808
 40
0.6648348553
 40
0.7036723722
 40
0.7410935821
 40
0.7768620129
 40
0.8107576
 40
0.8425799947
 40
0.8576604031
 40
0.8721597374
 40
0.8860617917
 40
0.8993535399
 40
0.9120257259
 40
0.9240738113
 40
0.9354987881
 40
0.9463087726
 40
0.9565201176
 40
0.9661597158
 40
0.9752663257
 40
0.9838931664
 40
0.9921089112
 40
1.0
 40
1.0
 40
1.0
 40
1.0
 10
11.2123625589
 20
7.6706572917
 30
0.0
 10
11.2120999636
 20
7.6704036441
 30
0.0
 10
11.2115282258
 20
7.669919412
 30
0.0
 10
11.210567482
 20
7.6692841642
 30
0.0
 10
11.2094900081
 20
7.6687274668
 30
0.0
 10
11.2082989003
 20
7.6682504931
 30
0.0
 10
11.2069970111
 20
7.6678542476
 30
0.0
 10
11.2055874961
 20
7.6675397472
 30
0.0
 10
11.2040737664
 20
7.6673081312
 30
0.0
 10
11.2024595263
 20
7.6671603877
 30
0.0
 10
11.200748767
 20
7.6670975431
 30
0.0
 10
11.1989457552
 20
7.667120471
 30
0.0
 10
11.1970550431
 20
7.6672300008
 30
0.0
 10
11.1950814313
 20
7.66742679
 30
0.0
 10
11.1930299466
 20
7.6677113796
 30
0.0
 10
11.1901444392
 20
7.6682178549
 30
0.0
 10
11.186379139
 20
7.6690799277
 30
0.0
 10
11.1817196972
 20
7.6704467731
 30
0.0
 10
11.1768865288
 20
7.6721610257
 30
0.0
 10
11.1719293499
 20
7.6742153808
 30
0.0
 10
11.1668987647
 20
7.6765987156
 30
0.0
 10
11.1618458043
 20
7.6792957384
 30
0.0
 10
11.1568210561
 20
7.6822869532
 30
0.0
 10
11.1518739001
 20
7.6855487185
 30
0.0
 10
11.1470517508
 20
7.6890534454
 30
0.0
 10
11.1423993885
 20
7.6927699353
 30
0.0
 10
11.1379584145
 20
7.6966638072
 30
0.0
 10
11.1337668568
 20
7.700697995
 30
0.0
 10
11.1298589516
 20
7.7048332597
 30
0.0
 10
11.126265066
 20
7.7090286952
 30
0.0
 10
11.1230117904
 20
7.7132421704
 30
0.0
 10
11.1201220105
 20
7.7174308285
 30
0.0
 10
11.1176153551
 20
7.7215512213
 30
0.0
 10
11.1158281282
 20
7.7249508116
 30
0.0
 10
11.114610384
 20
7.7276014015
 30
0.0
 10
11.113818758
 20
7.7295094507
 30
0.0
 10
11.1131335704
 20
7.7313680057
 30
0.0
 10
11.1125558886
 20
7.7331718908
 30
0.0
 10
11.1120865858
 20
7.7349160107
 30
0.0
 10
11.1117263459
 20
7.7365954082
 30
0.0
 10
11.1114757018
 20
7.7382052991
 30
0.0
 10
11.1113349715
 20
7.7397410793
 30
0.0
 10
11.1113043808
 20
7.7411983775
 30
0.0
 10
11.1113839362
 20
7.7425730492
 30
0.0
 10
11.1115736482
 20
7.7438611497
 30
0.0
 10
11.1118732924
 20
7.7450590073
 30
0.0
 10
11.1122825326
 20
7.7461627875
 30
0.0
 10
11.1126339871
 20
7.7468449749
 30
0.0
 10
11.1128271669
 20
7.7471661516
 30
0.0
  0
SPLINE
  5
37C
100
AcDbEntity
  8
0
100
AcDbSpline
 62
7
  6
CONTINUOUS
 70
0
 71
3
 72
18
 73
14
 74
0
 42
0.0000001
 43
0.0000001
 44
0.0000000001
 40
0.0
 40
0.0
 40
0.0
 40
0.0
 40
0.0548620254
 40
0.1099280402
 40
0.1653994792
 40
0.2214730947
 40
0.2783387289
 40
0.3361775183
 40
0.4554063603
 40
0.5804419221
 40
0.7123344607
 40
0.8519575423
 40
1.0
 40
1.0
 40
1.0
 40
1.0
 10
11.5524812603
 20
10.5068200511
 30
0.0
 10
11.5524812575
 20
10.5058745355
 30
0.0
 10
11.5524212287
 20
10.5039794457
 30
0.0
 10
11.5521513683
 20
10.5011398954
 30
0.0
 10
11.5517017739
 20
10.4983019819
 30
0.0
 10
11.5510726002
 20
10.4954667387
 30
0.0
 10
11.5502640675
 20
10.4926348874
 30
0.0
 10
11.5489342234
 20
10.4888268062
 30
0.0
 10
11.5468038503
 20
10.4840639112
 30
0.0
 10
11.5435612878
 20
10.4784389197
 30
0.0
 10
11.5396120361
 20
10.4728503391
 30
0.0
 10
11.5349621002
 20
10.4673037706
 30
0.0
 10
11.531503766
 20
10.4637449755
 30
0.0
 10
11.5296686403
 20
10.4619723802
 30
0.0
  0
SPLINE
  5
37D
100
AcDbEntity
  8
0
100
AcDbSpline
 62
7
  6
CONTINUOUS
 70
0
 71
3
 72
15
 73
11
 74
0
 42
0.0000001
 43
0.0000001
 44
0.0000000001
 40
0.0
 40
0.0
 40
0.0
 40
0.0
 40
0.1101927796
 40
0.2234969389
 40
0.340554979
 40
0.4619431519
 40
0.5881711375
 40
0.7196843661
 40
0.8568582621
 40
1.0
 40
1.0
 40
1.0
 40
1.0
 10
11.3542617855
 20
10.4671302273
 30
0.0
 10
11.3539901191
 20
10.4661534462
 30
0.0
 10
11.3533529003
 20
10.4641953251
 30
0.0
 10
11.3521425574
 20
10.4613018241
 30
0.0
 10
11.3506673463
 20
10.4584178491
 30
0.0
 10
11.3489284398
 20
10.4555452585
 30
0.0
 10
11.3469270895
 20
10.4526853516
 30
0.0
 10
11.344664539
 20
10.4498395611
 30
0.0
 10
11.3421423592
 20
10.4470094584
 30
0.0
 10
11.3403285075
 20
10.4451742161
 30
0.0
 10
11.3393812413
 20
10.4442592271
 30
0.0
  0
SPLINE
  5
37E
100
AcDbEntity
  8
0
100
AcDbSpline
 62
7
  6
CONTINUOUS
 70
0
 71
3
 72
79
 73
75
 74
0
 42
0.0000001
 43
0.0000001
 44
0.0000000001
 40
0.0
 40
0.0
 40
0.0
 40
0.0
 40
0.002889145
 40
0.0058524843
 40
0.0089046075
 40
0.0120587347
 40
0.015326628
 40
0.0187186834
 40
0.0222439736
 40
0.0259103122
 40
0.029724435
 40
0.0336920172
 40
0.0378178348
 40
0.0421058723
 40
0.0465593338
 40
0.0511808281
 40
0.0559723586
 40
0.0609353993
 40
0.0660710098
 40
0.071379773
 40
0.0825168046
 40
0.0943451832
 40
0.1068583335
 40
0.1200458496
 40
0.1338940144
 40
0.1483862421
 40
0.1635034311
 40
0.1792242381
 40
0.1955252884
 40
0.2123813704
 40
0.2297656227
 40
0.2476496809
 40
0.2660038014
 40
0.2847969721
 40
0.3039970458
 40
0.3235708479
 40
0.3434842733
 40
0.363702374
 40
0.3841894662
 40
0.4258240481
 40
0.4680921322
 40
0.5106911029
 40
0.553315278
 40
0.595658743
 40
0.637418179
 40
0.6579859001
 40
0.6782965195
 40
0.6983141294
 40
0.7180035326
 40
0.7373303396
 40
0.7562610557
 40
0.7747631789
 40
0.7928053127
 40
0.8103572901
 40
0.827390277
 40
0.8438768955
 40
0.8597913706
 40
0.8751097134
 40
0.8898098892
 40
0.903872024
 40
0.9172786636
 40
0.9300151135
 40
0.9420698311
 40
0.9534349003
 40
0.9588578092
 40
0.9641073796
 40
0.969183944
 40
0.9740882594
 40
0.9788214816
 40
0.9833852598
 40
0.9877819025
 40
0.9920142586
 40
0.9960856547
 40
1.0
 40
1.0
 40
1.0
 40
1.0
 10
10.4117007481
 20
10.4671301726
 30
0.0
 10
10.4119515204
 20
10.4662285187
 30
0.0
 10
10.4125328571
 20
10.4644216935
 30
0.0
 10
10.4136222376
 20
10.4617482056
 30
0.0
 10
10.4149378485
 20
10.4590824585
 30
0.0
 10
10.4164788178
 20
10.4564259539
 30
0.0
 10
10.4182441497
 20
10.453779757
 30
0.0
 10
10.4202328809
 20
10.4511450495
 30
0.0
 10
10.4224439715
 20
10.4485229733
 30
0.0
 10
10.4248762569
 20
10.4459146156
 30
0.0
 10
10.4275285947
 20
10.4433211663
 30
0.0
 10
10.4303996703
 20
10.4407437355
 30
0.0
 10
10.4334881174
 20
10.4381834749
 30
0.0
 10
10.4367924961
 20
10.4356415835
 30
0.0
 10
10.4403112071
 20
10.4331191729
 30
0.0
 10
10.4440426129
 20
10.4306174539
 30
0.0
 10
10.4479849386
 20
10.4281375818
 30
0.0
 10
10.4521363026
 20
10.4256807032
 30
0.0
 10
10.4564947638
 20
10.4232480003
 30
0.0
 10
10.4626784916
 20
10.41998595
 30
0.0
 10
10.4709212879
 20
10.415986637
 30
0.0
 10
10.4814509539
 20
10.4113756845
 30
0.0
 10
10.492751466
 20
10.4068880699
 30
0.0
 10
10.5048012697
 20
10.4025324196
 30
0.0
 10
10.5175775456
 20
10.3983171005
 30
0.0
 10
10.5310559314
 20
10.3942502456
 30
0.0
 10
10.5452106926
 20
10.3903397167
 30
0.0
 10
10.5600147518
 20
10.3865930877
 30
0.0
 10
10.5754397468
 20
10.3830176122
 30
0.0
 10
10.5914560904
 20
10.3796202058
 30
0.0
 10
10.6080330427
 20
10.3764074461
 30
0.0
 10
10.6251387751
 20
10.373385556
 30
0.0
 10
10.6427404268
 20
10.3705603899
 30
0.0
 10
10.660804168
 20
10.3679374069
 30
0.0
 10
10.6792952723
 20
10.3655216808
 30
0.0
 10
10.698178192
 20
10.3633178838
 30
0.0
 10
10.7174166101
 20
10.3613302917
 30
0.0
 10
10.7369735563
 20
10.3595627174
 30
0.0
 10
10.7635659237
 20
10.3574929321
 30
0.0
 10
10.7973246999
 20
10.3554861832
 30
0.0
 10
10.8382791667
 20
10.3540103142
 30
0.0
 10
10.879577232
 20
10.3534656593
 30
0.0
 10
10.920901452
 20
10.3538564512
 30
0.0
 10
10.9619341828
 20
10.3551796563
 30
0.0
 10
10.9957913244
 20
10.3570599524
 30
0.0
 10
11.0224880819
 20
10.3590296151
 30
0.0
 10
11.0421416694
 20
10.3607239897
 30
0.0
 10
11.0614890455
 20
10.3626395579
 30
0.0
 10
11.0804930305
 20
10.36477264
 30
0.0
 10
11.0991170735
 20
10.3671190989
 30
0.0
 10
11.1173253677
 20
10.3696743976
 30
0.0
 10
11.1350829052
 20
10.3724335964
 30
0.0
 10
11.152355555
 20
10.375391361
 30
0.0
 10
11.1691101335
 20
10.3785419595
 30
0.0
 10
11.1853144644
 20
10.3818792922
 30
0.0
 10
11.2009374385
 20
10.3853968993
 30
0.0
 10
11.2159490816
 20
10.3890879783
 30
0.0
 10
11.2303206267
 20
10.3929453764
 30
0.0
 10
11.2440245672
 20
10.3969616251
 30
0.0
 10
11.2570347173
 20
10.4011289572
 30
0.0
 10
11.2693262465
 20
10.4054393317
 30
0.0
 10
11.2808758488
 20
10.4098844486
 30
0.0
 10
11.2916614726
 20
10.414455757
 30
0.0
 10
11.3001235436
 20
10.4184227009
 30
0.0
 10
11.3064863611
 20
10.4216602028
 30
0.0
 10
11.3109800283
 20
10.4240763641
 30
0.0
 10
11.3152679553
 20
10.4265174626
 30
0.0
 10
11.3193481171
 20
10.4289823257
 30
0.0
 10
11.3232185733
 20
10.4314697718
 30
0.0
 10
11.3268774879
 20
10.4339786872
 30
0.0
 10
11.3303231873
 20
10.436507889
 30
0.0
 10
11.3335540298
 20
10.4390562822
 30
0.0
 10
11.3365683281
 20
10.4416225104
 30
0.0
 10
11.3384692485
 20
10.4433783097
 30
0.0
 10
11.3393812413
 20
10.4442592271
 30
0.0
  0
SPLINE
  5
37F
100
AcDbEntity
  8
0
100
AcDbSpline
 62
7
  6
CONTINUOUS
 70
0
 71
3
 72
15
 73
11
 74
0
 42
0.0000001
 43
0.0000001
 44
0.0000000001
 40
0.0
 40
0.0
 40
0.0
 40
0.0
 40
0.1243889406
 40
0.248838683
 40
0.3734091361
 40
0.4981584423
 40
0.6231421432
 40
0.7484123992
 40
0.8740172584
 40
1.0
 40
1.0
 40
1.0
 40
1.0
 10
11.383762468
 20
8.6024124312
 30
0.0
 10
11.3863692946
 20
8.6049304323
 30
0.0
 10
11.3914305624
 20
8.6101295938
 30
0.0
 10
11.3985304383
 20
8.618382482
 30
0.0
 10
11.4051169247
 20
8.6270643075
 30
0.0
 10
11.4111679061
 20
8.6361460423
 30
0.0
 10
11.4166635378
 20
8.6455977593
 30
0.0
 10
11.4215857351
 20
8.6553883552
 30
0.0
 10
11.4259181346
 20
8.6654850335
 30
0.0
 10
11.4284001368
 20
8.6723881445
 30
0.0
 10
11.4295384812
 20
8.6758779618
 30
0.0
  0
SPLINE
  5
380
100
AcDbEntity
  8
0
100
AcDbSpline
 62
7
  6
CONTINUOUS
 70
0
 71
3
 72
15
 73
11
 74
0
 42
0.0000001
 43
0.0000001
 44
0.0000000001
 40
0.0
 40
0.0
 40
0.0
 40
0.0
 40
0.1243889406
 40
0.248838683
 40
0.3734091361
 40
0.4981584423
 40
0.6231421432
 40
0.7484123992
 40
0.8740172584
 40
1.0
 40
1.0
 40
1.0
 40
1.0
 10
9.9348736715
 20
9.5480783585
 30
0.0
 10
9.9374804981
 20
9.5505963597
 30
0.0
 10
9.9425417659
 20
9.5557955212
 30
0.0
 10
9.9496416418
 20
9.5640484094
 30
0.0
 10
9.9562281282
 20
9.5727302349
 30
0.0
 10
9.9622791096
 20
9.5818119696
 30
0.0
 10
9.9677747413
 20
9.5912636867
 30
0.0
 10
9.9726969386
 20
9.6010542826
 30
0.0
 10
9.9770293381
 20
9.6111509609
 30
0.0
 10
9.9795113403
 20
9.6180540719
 30
0.0
 10
9.9806496847
 20
9.6215438892
 30
0.0
  0
SPLINE
  5
381
100
AcDbEntity
  8
0
100
AcDbSpline
 62
7
  6
CONTINUOUS
 70
0
 71
3
 72
15
 73
11
 74
0
 42
0.0000001
 43
0.0000001
 44
0.0000000001
 40
0.0
 40
0.0
 40
0.0
 40
0.0
 40
0.1243889406
 40
0.248838683
 40
0.3734091361
 40
0.4981584423
 40
0.6231421432
 40
0.7484123992
 40
0.8740172584
 40
1.0
 40
1.0
 40
1.0
 40
1.0
 10
9.9348736715
 20
7.0724103541
 30
0.0
 10
9.9374804981
 20
7.0749283552
 30
0.0
 10
9.9425417659
 20
7.0801275167
 30
0.0
 10
9.9496416418
 20
7.0883804049
 30
0.0
 10
9.9562281282
 20
7.0970622305
 30
0.0
 10
9.9622791096
 20
7.1061439652
 30
0.0
 10
9.9677747413
 20
7.1155956822
 30
0.0
 10
9.9726969386
 20
7.1253862781
 30
0.0
 10
9.9770293381
 20
7.1354829564
 30
0.0
 10
9.9795113403
 20
7.1423860674
 30
0.0
 10
9.9806496847
 20
7.1458758847
 30
0.0
  0
SPLINE
  5
382
100
AcDbEntity
  8
0
100
AcDbSpline
 62
7
  6
CONTINUOUS
 70
0
 71
3
 72
39
 73
35
 74
0
 42
0.0000001
 43
0.0000001
 44
0.0000000001
 40
0.0
 40
0.0
 40
0.0
 40
0.0
 40
0.0299424725
 40
0.05990932
 40
0.0899243252
 40
0.1200101024
 40
0.1501875589
 40
0.1804754082
 40
0.2108897494
 40
0.2414437221
 40
0.272147242
 40
0.3030068208
 40
0.33402547
 40
0.3652026865
 40
0.3965345185
 40
0.428013701
 40
0.459629856
 40
0.4913697495
 40
0.5232175971
 40
0.5551554142
 40
0.587163399
 40
0.619220343
 40
0.6513040608
 40
0.6833918343
 40
0.715460865
 40
0.747488727
 40
0.7794538147
 40
0.8113357784
 40
0.8431159423
 40
0.8747777013
 40
0.90630686
 40
0.937692088
 40
0.9689246466
 40
1.0
 40
1.0
 40
1.0
 40
1.0
 10
9.4904425326
 20
9.813954948
 30
0.0
 10
9.4953696617
 20
9.8187142097
 30
0.0
 10
9.5056113243
 20
9.8278486732
 30
0.0
 10
9.5220200937
 20
9.8402927526
 30
0.0
 10
9.5393912384
 20
9.8514169688
 30
0.0
 10
9.5576277069
 20
9.8611589064
 30
0.0
 10
9.5766292392
 20
9.8694653333
 30
0.0
 10
9.5962909643
 20
9.8762905926
 30
0.0
 10
9.6165045308
 20
9.8815973492
 30
0.0
 10
9.6371585761
 20
9.8853566325
 30
0.0
 10
9.6581393837
 20
9.8875480208
 30
0.0
 10
9.6793315012
 20
9.888159725
 30
0.0
 10
9.7006183757
 20
9.8871886469
 30
0.0
 10
9.7218829936
 20
9.8846404016
 30
0.0
 10
9.7430085192
 20
9.8805292475
 30
0.0
 10
9.7638789274
 20
9.8748780008
 30
0.0
 10
9.7843796317
 20
9.8677179034
 30
0.0
 10
9.8043981009
 20
9.8590884432
 30
0.0
 10
9.8238244765
 20
9.8490371557
 30
0.0
 10
9.8425521672
 20
9.8376193525
 30
0.0
 10
9.8604784195
 20
9.8248978059
 30
0.0
 10
9.8775048752
 20
9.8109424097
 30
0.0
 10
9.8935381017
 20
9.7958297976
 30
0.0
 10
9.9084901005
 20
9.7796429296
 30
0.0
 10
9.9222788024
 20
9.7624706556
 30
0.0
 10
9.9348284962
 20
9.7444072127
 30
0.0
 10
9.9460702404
 20
9.7255517171
 30
0.0
 10
9.9559422382
 20
9.7060076243
 30
0.0
 10
9.9643901729
 20
9.6858821808
 30
0.0
 10
9.9713675136
 20
9.6652858055
 30
0.0
 10
9.9768358077
 20
9.6443316516
 30
0.0
 10
9.9807647698
 20
9.6231343922
 30
0.0
 10
9.983132696
 20
9.6018119257
 30
0.0
 10
9.9836630504
 20
9.5875514377
 30
0.0
 10
9.9836630504
 20
9.5804419121
 30
0.0
  0
SPLINE
  5
383
100
AcDbEntity
  8
0
100
AcDbSpline
 62
7
  6
CONTINUOUS
 70
0
 71
3
 72
39
 73
35
 74
0
 42
0.0000001
 43
0.0000001
 44
0.0000000001
 40
0.0
 40
0.0
 40
0.0
 40
0.0
 40
0.0299424725
 40
0.05990932
 40
0.0899243252
 40
0.1200101024
 40
0.1501875589
 40
0.1804754082
 40
0.2108897494
 40
0.2414437221
 40
0.272147242
 40
0.3030068208
 40
0.33402547
 40
0.3652026865
 40
0.3965345185
 40
0.428013701
 40
0.459629856
 40
0.4913697495
 40
0.5232175971
 40
0.5551554142
 40
0.587163399
 40
0.619220343
 40
0.6513040608
 40
0.6833918343
 40
0.715460865
 40
0.747488727
 40
0.7794538147
 40
0.8113357784
 40
0.8431159423
 40
0.8747777013
 40
0.90630686
 40
0.937692088
 40
0.9689246466
 40
1.0
 40
1.0
 40
1.0
 40
1.0
 10
10.9393313291
 20
8.8682890206
 30
0.0
 10
10.9442584582
 20
8.8730482823
 30
0.0
 10
10.9545001208
 20
8.8821827458
 30
0.0
 10
10.9709088902
 20
8.8946268252
 30
0.0
 10
10.9882800349
 20
8.9057510414
 30
0.0
 10
11.0065165034
 20
8.915492979
 30
0.0
 10
11.0255180357
 20
8.9237994059
 30
0.0
 10
11.0451797608
 20
8.9306246652
 30
0.0
 10
11.0653933273
 20
8.9359314218
 30
0.0
 10
11.0860473726
 20
8.9396907051
 30
0.0
 10
11.1070281802
 20
8.9418820934
 30
0.0
 10
11.1282202977
 20
8.9424937976
 30
0.0
 10
11.1495071722
 20
8.9415227195
 30
0.0
 10
11.1707717901
 20
8.9389744742
 30
0.0
 10
11.1918973157
 20
8.9348633201
 30
0.0
 10
11.2127677238
 20
8.9292120734
 30
0.0
 10
11.2332684282
 20
8.922051976
 30
0.0
 10
11.2532868974
 20
8.9134225158
 30
0.0
 10
11.272713273
 20
8.9033712283
 30
0.0
 10
11.2914409637
 20
8.8919534251
 30
0.0
 10
11.309367216
 20
8.8792318785
 30
0.0
 10
11.3263936717
 20
8.8652764823
 30
0.0
 10
11.3424268982
 20
8.8501638702
 30
0.0
 10
11.357378897
 20
8.8339770022
 30
0.0
 10
11.3711675989
 20
8.8168047282
 30
0.0
 10
11.3837172927
 20
8.7987412853
 30
0.0
 10
11.3949590369
 20
8.7798857897
 30
0.0
 10
11.4048310347
 20
8.7603416969
 30
0.0
 10
11.4132789694
 20
8.7402162534
 30
0.0
 10
11.4202563101
 20
8.7196198781
 30
0.0
 10
11.4257246042
 20
8.6986657242
 30
0.0
 10
11.4296535663
 20
8.6774684648
 30
0.0
 10
11.4320214925
 20
8.6561459983
 30
0.0
 10
11.4325518469
 20
8.6418855103
 30
0.0
 10
11.4325518469
 20
8.6347759847
 30
0.0
  0
SPLINE
  5
384
100
AcDbEntity
  8
0
100
AcDbSpline
 62
7
  6
CONTINUOUS
 70
0
 71
3
 72
39
 73
35
 74
0
 42
0.0000001
 43
0.0000001
 44
0.0000000001
 40
0.0
 40
0.0
 40
0.0
 40
0.0
 40
0.0299424725
 40
0.05990932
 40
0.0899243252
 40
0.1200101024
 40
0.1501875589
 40
0.1804754082
 40
0.2108897494
 40
0.2414437221
 40
0.272147242
 40
0.3030068208
 40
0.33402547
 40
0.3652026865
 40
0.3965345185
 40
0.428013701
 40
0.459629856
 40
0.4913697495
 40
0.5232175971
 40
0.5551554142
 40
0.587163399
 40
0.619220343
 40
0.6513040608
 40
0.6833918343
 40
0.715460865
 40
0.747488727
 40
0.7794538147
 40
0.8113357784
 40
0.8431159423
 40
0.8747777013
 40
0.90630686
 40
0.937692088
 40
0.9689246466
 40
1.0
 40
1.0
 40
1.0
 40
1.0
 10
9.4904425326
 20
7.3382869435
 30
0.0
 10
9.4953696617
 20
7.3430462053
 30
0.0
 10
9.5056113243
 20
7.3521806687
 30
0.0
 10
9.5220200937
 20
7.3646247482
 30
0.0
 10
9.5393912384
 20
7.3757489644
 30
0.0
 10
9.5576277069
 20
7.3854909019
 30
0.0
 10
9.5766292392
 20
7.3937973289
 30
0.0
 10
9.5962909643
 20
7.4006225882
 30
0.0
 10
9.6165045308
 20
7.4059293448
 30
0.0
 10
9.6371585761
 20
7.4096886281
 30
0.0
 10
9.6581393837
 20
7.4118800163
 30
0.0
 10
9.6793315012
 20
7.4124917205
 30
0.0
 10
9.7006183757
 20
7.4115206424
 30
0.0
 10
9.7218829936
 20
7.4089723972
 30
0.0
 10
9.7430085192
 20
7.4048612431
 30
0.0
 10
9.7638789274
 20
7.3992099963
 30
0.0
 10
9.7843796317
 20
7.3920498989
 30
0.0
 10
9.8043981009
 20
7.3834204387
 30
0.0
 10
9.8238244765
 20
7.3733691512
 30
0.0
 10
9.8425521672
 20
7.3619513481
 30
0.0
 10
9.8604784195
 20
7.3492298015
 30
0.0
 10
9.8775048752
 20
7.3352744052
 30
0.0
 10
9.8935381017
 20
7.3201617931
 30
0.0
 10
9.9084901005
 20
7.3039749251
 30
0.0
 10
9.9222788024
 20
7.2868026512
 30
0.0
 10
9.9348284962
 20
7.2687392083
 30
0.0
 10
9.9460702404
 20
7.2498837127
 30
0.0
 10
9.9559422382
 20
7.2303396198
 30
0.0
 10
9.9643901729
 20
7.2102141763
 30
0.0
 10
9.9713675136
 20
7.189617801
 30
0.0
 10
9.9768358077
 20
7.1686636471
 30
0.0
 10
9.9807647698
 20
7.1474663878
 30
0.0
 10
9.983132696
 20
7.1261439213
 30
0.0
 10
9.9836630504
 20
7.1118834332
 30
0.0
 10
9.9836630504
 20
7.1047739077
 30
0.0
  0
SPLINE
  5
385
100
AcDbEntity
  8
0
100
AcDbSpline
 62
7
  6
CONTINUOUS
 70
0
 71
3
 72
48
 73
44
 74
0
 42
0.0000001
 43
0.0000001
 44
0.0000000001
 40
0.0
 40
0.0
 40
0.0
 40
0.0
 40
0.0149718882
 40
0.029946835
 40
0.0449278818
 40
0.0599180314
 40
0.0749202306
 40
0.0899373551
 40
0.1049721887
 40
0.1200274071
 40
0.1351055656
 40
0.1502090814
 40
0.1653402183
 40
0.1805010792
 40
0.1956935911
 40
0.2109194931
 40
0.2261803325
 40
0.241477455
 40
0.2568119946
 40
0.2721848748
 40
0.3030428633
 40
0.3340599123
 40
0.3652355199
 40
0.3965657361
 40
0.4280432943
 40
0.4596578171
 40
0.4913960715
 40
0.523242273
 40
0.555178439
 40
0.5871847693
 40
0.6192400553
 40
0.6513221128
 40
0.6834082256
 40
0.7154755966
 40
0.7475018004
 40
0.7794652329
 40
0.8113455457
 40
0.8431240637
 40
0.8747841808
 40
0.9063117232
 40
0.9376952831
 40
0.9689262714
 40
1.0
 40
1.0
 40
1.0
 40
1.0
 10
9.7826625228
 20
9.1198824271
 30
0.0
 10
9.7871421563
 20
9.1242094279
 30
0.0
 10
9.7962754426
 20
9.132687146
 30
0.0
 10
9.8104713634
 20
9.1448506607
 30
0.0
 10
9.8251452739
 20
9.1564457855
 30
0.0
 10
9.8402767222
 20
9.167456263
 30
0.0
 10
9.8558449199
 20
9.1778670667
 30
0.0
 10
9.8718284286
 20
9.1876638482
 30
0.0
 10
9.8882052804
 20
9.1968330926
 30
0.0
 10
9.9049529026
 20
9.2053622426
 30
0.0
 10
9.9220482522
 20
9.2132395677
 30
0.0
 10
9.9394678237
 20
9.2204541878
 30
0.0
 10
9.9571876212
 20
9.2269962421
 30
0.0
 10
9.9751832634
 20
9.2328567432
 30
0.0
 10
9.993430007
 20
9.2380275854
 30
0.0
 10
10.0119027229
 20
9.2425017222
 30
0.0
 10
10.030576022
 20
9.2462730198
 30
0.0
 10
10.0494241345
 20
9.2493362475
 30
0.0
 10
10.0684214657
 20
9.2516872508
 30
0.0
 10
10.093943885
 20
9.2538706343
 30
0.0
 10
10.1260977154
 20
9.2547988516
 30
0.0
 10
10.1648001541
 20
9.2530330778
 30
0.0
 10
10.2034632746
 20
9.2483998647
 30
0.0
 10
10.2418731756
 20
9.2409249315
 30
0.0
 10
10.2798193102
 20
9.2306498738
 30
0.0
 10
10.3170932274
 20
9.2176314506
 30
0.0
 10
10.3534903502
 20
9.2019414607
 30
0.0
 10
10.3888109566
 20
9.1836663841
 30
0.0
 10
10.4228612191
 20
9.1629067248
 30
0.0
 10
10.4554543032
 20
9.1397766084
 30
0.0
 10
10.4864114118
 20
9.1144031625
 30
0.0
 10
10.5155626397
 20
9.0869256832
 30
0.0
 10
10.5427480077
 20
9.0574950285
 30
0.0
 10
10.5678183238
 20
9.0262727573
 30
0.0
 10
10.5906358732
 20
8.993430162
 30
0.0
 10
10.6110753261
 20
8.9591474732
 30
0.0
 10
10.6290243632
 20
8.9236128095
 30
0.0
 10
10.6443841809
 20
8.8870211415
 30
0.0
 10
10.6570702268
 20
8.8495732424
 30
0.0
 10
10.6670125596
 20
8.8114748569
 30
0.0
 10
10.6741561063
 20
8.7729344395
 30
0.0
 10
10.6784613793
 20
8.7341663851
 30
0.0
 10
10.6794256698
 20
8.7082382569
 30
0.0
 10
10.6794256698
 20
8.6953118753
 30
0.0
  0
SPLINE
  5
386
100
AcDbEntity
  8
0
100
AcDbSpline
 62
7
  6
CONTINUOUS
 70
0
 71
3
 72
24
 73
20
 74
0
 42
0.0000001
 43
0.0000001
 44
0.0000000001
 40
0.0
 40
0.0
 40
0.0
 40
0.0
 40
0.0617098313
 40
0.0925738984
 40
0.1234458675
 40
0.1852188018
 40
0.2470541946
 40
0.308971872
 40
0.3709908252
 40
0.4331290222
 40
0.4954032331
 40
0.5578288693
 40
0.620419838
 40
0.6831884364
 40
0.7461451583
 40
0.8092989319
 40
0.8726560363
 40
0.9362226977
 40
1.0
 40
1.0
 40
1.0
 40
1.0
 10
10.5329888626
 20
8.343087486
 30
0.0
 10
10.5387871369
 20
8.348688198
 30
0.0
 10
10.5472713215
 20
8.3573160849
 30
0.0
 10
10.5581272016
 20
8.3692430682
 30
0.0
 10
10.5686786416
 20
8.3814515458
 30
0.0
 10
10.5812824392
 20
8.397224656
 30
0.0
 10
10.5954272047
 20
8.4169180106
 30
0.0
 10
10.6085635378
 20
8.437336421
 30
0.0
 10
10.6206609166
 20
8.4584324897
 30
0.0
 10
10.6316915403
 20
8.4801576271
 30
0.0
 10
10.6416299894
 20
8.5024616983
 30
0.0
 10
10.6504533893
 20
8.5252932642
 30
0.0
 10
10.6581414476
 20
8.5485996673
 30
0.0
 10
10.6646764853
 20
8.572327155
 30
0.0
 10
10.6700435201
 20
8.596421049
 30
0.0
 10
10.6742301781
 20
8.6208257066
 30
0.0
 10
10.6772269773
 20
8.6454851865
 30
0.0
 10
10.6790269141
 20
8.6703417781
 30
0.0
 10
10.6794256698
 20
8.6869802786
 30
0.0
 10
10.6794256698
 20
8.6953118753
 30
0.0
  0
SPLINE
  5
387
100
AcDbEntity
  8
0
100
AcDbSpline
 62
7
  6
CONTINUOUS
 70
0
 71
3
 72
48
 73
44
 74
0
 42
0.0000001
 43
0.0000001
 44
0.0000000001
 40
0.0
 40
0.0
 40
0.0
 40
0.0
 40
0.0149718882
 40
0.029946835
 40
0.0449278818
 40
0.0599180314
 40
0.0749202306
 40
0.0899373551
 40
0.1049721887
 40
0.1200274071
 40
0.1351055656
 40
0.1502090814
 40
0.1653402183
 40
0.1805010792
 40
0.1956935911
 40
0.2109194931
 40
0.2261803325
 40
0.241477455
 40
0.2568119946
 40
0.2721848748
 40
0.3030428633
 40
0.3340599123
 40
0.3652355199
 40
0.3965657361
 40
0.4280432943
 40
0.4596578171
 40
0.4913960715
 40
0.523242273
 40
0.555178439
 40
0.5871847693
 40
0.6192400553
 40
0.6513221128
 40
0.6834082256
 40
0.7154755966
 40
0.7475018004
 40
0.7794652329
 40
0.8113455457
 40
0.8431240637
 40
0.8747841808
 40
0.9063117232
 40
0.9376952831
 40
0.9689262714
 40
1.0
 40
1.0
 40
1.0
 40
1.0
 10
10.6877350531
 20
8.0911895504
 30
0.0
 10
10.6922146866
 20
8.0955165512
 30
0.0
 10
10.7013479729
 20
8.1039942693
 30
0.0
 10
10.7155438937
 20
8.116157784
 30
0.0
 10
10.7302178042
 20
8.1277529088
 30
0.0
 10
10.7453492525
 20
8.1387633863
 30
0.0
 10
10.7609174501
 20
8.1491741901
 30
0.0
 10
10.7769009589
 20
8.1589709715
 30
0.0
 10
10.7932778106
 20
8.1681402159
 30
0.0
 10
10.8100254329
 20
8.176669366
 30
0.0
 10
10.8271207824
 20
8.1845466911
 30
0.0
 10
10.8445403539
 20
8.1917613112
 30
0.0
 10
10.8622601515
 20
8.1983033654
 30
0.0
 10
10.8802557937
 20
8.2041638665
 30
0.0
 10
10.8985025373
 20
8.2093347087
 30
0.0
 10
10.9169752532
 20
8.2138088456
 30
0.0
 10
10.9356485523
 20
8.2175801431
 30
0.0
 10
10.9544966648
 20
8.2206433708
 30
0.0
 10
10.973493996
 20
8.2229943741
 30
0.0
 10
10.9990164152
 20
8.2251777576
 30
0.0
 10
11.0311702457
 20
8.2261059749
 30
0.0
 10
11.0698726844
 20
8.2243402011
 30
0.0
 10
11.1085358049
 20
8.219706988
 30
0.0
 10
11.1469457059
 20
8.2122320548
 30
0.0
 10
11.1848918405
 20
8.2019569971
 30
0.0
 10
11.2221657577
 20
8.1889385739
 30
0.0
 10
11.2585628805
 20
8.173248584
 30
0.0
 10
11.2938834869
 20
8.1549735074
 30
0.0
 10
11.3279337494
 20
8.1342138482
 30
0.0
 10
11.3605268335
 20
8.1110837317
 30
0.0
 10
11.3914839421
 20
8.0857102858
 30
0.0
 10
11.42063517
 20
8.0582328066
 30
0.0
 10
11.447820538
 20
8.0288021518
 30
0.0
 10
11.4728908541
 20
7.9975798806
 30
0.0
 10
11.4957084035
 20
7.9647372853
 30
0.0
 10
11.5161478564
 20
7.9304545965
 30
0.0
 10
11.5340968935
 20
7.8949199328
 30
0.0
 10
11.5494567112
 20
7.8583282648
 30
0.0
 10
11.5621427571
 20
7.8208803657
 30
0.0
 10
11.5720850899
 20
7.7827819802
 30
0.0
 10
11.5792286366
 20
7.7442415628
 30
0.0
 10
11.5835339096
 20
7.7054735084
 30
0.0
 10
11.5844982001
 20
7.6795453802
 30
0.0
 10
11.5844982001
 20
7.6666189986
 30
0.0
  0
SPLINE
  5
388
100
AcDbEntity
  8
0
100
AcDbSpline
 62
7
  6
CONTINUOUS
 70
0
 71
3
 72
24
 73
20
 74
0
 42
0.0000001
 43
0.0000001
 44
0.0000000001
 40
0.0
 40
0.0
 40
0.0
 40
0.0
 40
0.0617098313
 40
0.0925738984
 40
0.1234458675
 40
0.1852188018
 40
0.2470541946
 40
0.308971872
 40
0.3709908252
 40
0.4331290222
 40
0.4954032331
 40
0.5578288693
 40
0.620419838
 40
0.6831884364
 40
0.7461451583
 40
0.8092989319
 40
0.8726560363
 40
0.9362226977
 40
1.0
 40
1.0
 40
1.0
 40
1.0
 10
11.4380613929
 20
7.3143946093
 30
0.0
 10
11.4438596672
 20
7.3199953213
 30
0.0
 10
11.4523438518
 20
7.3286232082
 30
0.0
 10
11.4631997319
 20
7.3405501915
 30
0.0
 10
11.4737511719
 20
7.3527586691
 30
0.0
 10
11.4863549695
 20
7.3685317793
 30
0.0
 10
11.500499735
 20
7.3882251339
 30
0.0
 10
11.5136360681
 20
7.4086435443
 30
0.0
 10
11.5257334468
 20
7.429739613
 30
0.0
 10
11.5367640706
 20
7.4514647505
 30
0.0
 10
11.5467025197
 20
7.4737688216
 30
0.0
 10
11.5555259196
 20
7.4966003875
 30
0.0
 10
11.5632139779
 20
7.5199067907
 30
0.0
 10
11.5697490156
 20
7.5436342784
 30
0.0
 10
11.5751160504
 20
7.5677281723
 30
0.0
 10
11.5793027084
 20
7.5921328299
 30
0.0
 10
11.5822995076
 20
7.6167923098
 30
0.0
 10
11.5840994444
 20
7.6416489014
 30
0.0
 10
11.5844982001
 20
7.6582874019
 30
0.0
 10
11.5844982001
 20
7.6666189986
 30
0.0
  0
SPLINE
  5
389
100
AcDbEntity
  8
0
100
AcDbSpline
 62
7
  6
CONTINUOUS
 70
0
 71
3
 72
45
 73
41
 74
0
 42
0.0000001
 43
0.0000001
 44
0.0000000001
 40
0.0
 40
0.0
 40
0.0
 40
0.0
 40
0.0019799022
 40
0.0037559481
 40
0.0053701895
 40
0.0068694267
 40
0.0083037203
 40
0.0097223145
 40
0.0111697007
 40
0.0126829904
 40
0.0142904403
 40
0.0160118844
 40
0.019844334
 40
0.0242457187
 40
0.0292314375
 40
0.0347999092
 40
0.0409395693
 40
0.0476325385
 40
0.0548630394
 40
0.0626139124
 40
0.0708668392
 40
0.0888206533
 40
0.1086137624
 40
0.1301547391
 40
0.1533658003
 40
0.1781875506
 40
0.2045700164
 40
0.2324770707
 40
0.2618807502
 40
0.2927627288
 40
0.3589267563
 40
0.4309752022
 40
0.5090253045
 40
0.5933050934
 40
0.6841543851
 40
0.7820094597
 40
0.8337087388
 40
0.887306721
 40
0.9427821539
 40
1.0
 40
1.0
 40
1.0
 40
1.0
 10
10.5809385673
 20
8.4180956023
 30
0.0
 10
10.5810230465
 20
8.4180736168
 30
0.0
 10
10.5811814393
 20
8.4180238697
 30
0.0
 10
10.5813973324
 20
8.4179249469
 30
0.0
 10
10.581578704
 20
8.4178067492
 30
0.0
 10
10.5817266625
 20
8.4176698839
 30
0.0
 10
10.5818422175
 20
8.4175153398
 30
0.0
 10
10.5819266252
 20
8.4173444282
 30
0.0
 10
10.5819811053
 20
8.4171582754
 30
0.0
 10
10.5820071476
 20
8.4169578571
 30
0.0
 10
10.5820063025
 20
8.4167438398
 30
0.0
 10
10.5819698494
 20
8.4164296804
 30
0.0
 10
10.5818571809
 20
8.4160033242
 30
0.0
 10
10.5816373535
 20
8.4154625182
 30
0.0
 10
10.5813341242
 20
8.4148761904
 30
0.0
 10
10.5809519324
 20
8.4142466864
 30
0.0
 10
10.5804949172
 20
8.4135760065
 30
0.0
 10
10.5799670113
 20
8.4128659784
 30
0.0
 10
10.5793713353
 20
8.4121185513
 30
0.0
 10
10.5787108959
 20
8.4113353402
 30
0.0
 10
10.5777194372
 20
8.410213345
 30
0.0
 10
10.5763307071
 20
8.4087346486
 30
0.0
 10
10.5744856347
 20
8.4068826262
 30
0.0
 10
10.5724298634
 20
8.404914509
 30
0.0
 10
10.5701732241
 20
8.4028365305
 30
0.0
 10
10.5677229307
 20
8.4006544458
 30
0.0
 10
10.5650846573
 20
8.3983727117
 30
0.0
 10
10.5622622174
 20
8.3959956047
 30
0.0
 10
10.5592582084
 20
8.3935265686
 30
0.0
 10
10.5549114022
 20
8.3900353946
 30
0.0
 10
10.5490221816
 20
8.3854629031
 30
0.0
 10
10.5413716497
 20
8.3797710982
 30
0.0
 10
10.5329532229
 20
8.3737768791
 30
0.0
 10
10.5237183767
 20
8.3675044853
 30
0.0
 10
10.5135992211
 20
8.3609858245
 30
0.0
 10
10.5045311107
 20
8.3554946789
 30
0.0
 10
10.4967586387
 20
8.3510425128
 30
0.0
 10
10.4905438823
 20
8.3476323961
 30
0.0
 10
10.4840445123
 20
8.3442382685
 30
0.0
 10
10.4795868506
 20
8.3420422053
 30
0.0
 10
10.4773089737
 20
8.3409580681
 30
0.0
  0
SPLINE
  5
38A
100
AcDbEntity
  8
0
100
AcDbSpline
 62
7
  6
CONTINUOUS
 70
0
 71
3
 72
24
 73
20
 74
0
 42
0.0000001
 43
0.0000001
 44
0.0000000001
 40
0.0
 40
0.0
 40
0.0
 40
0.0
 40
0.0317489048
 40
0.063116864
 40
0.0948547023
 40
0.1277955273
 40
0.1628273653
 40
0.2008600669
 40
0.2213051374
 40
0.2428513125
 40
0.2897161929
 40
0.3424969685
 40
0.4023128222
 40
0.4704336014
 40
0.5483564789
 40
0.6378807636
 40
0.7411914663
 40
0.8609046368
 40
1.0
 40
1.0
 40
1.0
 40
1.0
 10
10.9499038486
 20
8.1918651331
 30
0.0
 10
10.9496214813
 20
8.1919400369
 30
0.0
 10
10.9490698313
 20
8.1921298406
 30
0.0
 10
10.9482964348
 20
8.1925423443
 30
0.0
 10
10.947593015
 20
8.1930841457
 30
0.0
 10
10.9469655895
 20
8.1937591265
 30
0.0
 10
10.946421578
 20
8.1945732952
 30
0.0
 10
10.9460522269
 20
8.1953537052
 30
0.0
 10
10.9458034856
 20
8.1960471517
 30
0.0
 10
10.9455760257
 20
8.1968329906
 30
0.0
 10
10.9453640784
 20
8.1979303985
 30
0.0
 10
10.9452370468
 20
8.1993943851
 30
0.0
 10
10.9452459909
 20
8.2010592987
 30
0.0
 10
10.9454102833
 20
8.2029481964
 30
0.0
 10
10.9457546712
 20
8.20508994
 30
0.0
 10
10.9463105642
 20
8.2075201131
 30
0.0
 10
10.9471178314
 20
8.2102819795
 30
0.0
 10
10.9482261818
 20
8.2134257781
 30
0.0
 10
10.9491307795
 20
8.215629867
 30
0.0
 10
10.9496423127
 20
8.216803065
 30
0.0
  0
SPLINE
  5
38B
100
AcDbEntity
  8
0
100
AcDbSpline
 62
7
  6
CONTINUOUS
 70
0
 71
3
 72
15
 73
11
 74
0
 42
0.0000001
 43
0.0000001
 44
0.0000000001
 40
0.0
 40
0.0
 40
0.0
 40
0.0
 40
0.1172096586
 40
0.2391841292
 40
0.364611787
 40
0.4922261127
 40
0.6207911099
 40
0.7490877253
 40
0.8758962735
 40
1.0
 40
1.0
 40
1.0
 40
1.0
 10
10.6764168349
 20
8.6400007338
 30
0.0
 10
10.6745078563
 20
8.6390951323
 30
0.0
 10
10.6705858283
 20
8.6373024213
 30
0.0
 10
10.6645349897
 20
8.6347337482
 30
0.0
 10
10.6582411933
 20
8.6322636641
 30
0.0
 10
10.6517686724
 20
8.6299310623
 30
0.0
 10
10.6451818641
 20
8.6277714468
 30
0.0
 10
10.6385463586
 20
8.6258168139
 30
0.0
 10
10.6319296396
 20
8.624095289
 30
0.0
 10
10.6275151569
 20
8.6231049596
 30
0.0
 10
10.6253236135
 20
8.6226554473
 30
0.0
  0
SPLINE
  5
38C
100
AcDbEntity
  8
0
100
AcDbSpline
 62
7
  6
CONTINUOUS
 70
0
 71
3
 72
24
 73
20
 74
0
 42
0.0000001
 43
0.0000001
 44
0.0000000001
 40
0.0
 40
0.0
 40
0.0
 40
0.0
 40
0.0637773023
 40
0.1273439637
 40
0.1907010681
 40
0.2538548417
 40
0.3168115636
 40
0.379580162
 40
0.4421711307
 40
0.5045967669
 40
0.5668709778
 40
0.6290091748
 40
0.691028128
 40
0.7529458054
 40
0.8147811982
 40
0.8765541325
 40
0.9074261016
 40
0.9382901687
 40
1.0
 40
1.0
 40
1.0
 40
1.0
 10
9.6362257156
 20
8.7676580378
 30
0.0
 10
9.6362257156
 20
8.7759896345
 30
0.0
 10
9.6366244713
 20
8.792628135
 30
0.0
 10
9.6384244081
 20
8.8174847266
 30
0.0
 10
9.6414212073
 20
8.8421442065
 30
0.0
 10
9.6456078653
 20
8.8665488641
 30
0.0
 10
9.6509749001
 20
8.890642758
 30
0.0
 10
9.6575099378
 20
8.9143702457
 30
0.0
 10
9.6651979961
 20
8.9376766489
 30
0.0
 10
9.674021396
 20
8.9605082148
 30
0.0
 10
9.6839598451
 20
8.9828122859
 30
0.0
 10
9.6949904689
 20
9.0045374234
 30
0.0
 10
9.7070878476
 20
9.0256334921
 30
0.0
 10
9.7202241807
 20
9.0460519025
 30
0.0
 10
9.7343689462
 20
9.0657452571
 30
0.0
 10
9.7469727438
 20
9.0815183673
 30
0.0
 10
9.7575241838
 20
9.0937268449
 30
0.0
 10
9.7683800639
 20
9.1056538282
 30
0.0
 10
9.7768642485
 20
9.1142817151
 30
0.0
 10
9.7826625228
 20
9.1198824271
 30
0.0
  0
SPLINE
  5
38D
100
AcDbEntity
  8
0
100
AcDbSpline
 62
7
  6
CONTINUOUS
 70
0
 71
3
 72
43
 73
39
 74
0
 42
0.0000001
 43
0.0000001
 44
0.0000000001
 40
0.0
 40
0.0
 40
0.0
 40
0.0
 40
0.0309200949
 40
0.0619806449
 40
0.0931784448
 40
0.1245071939
 40
0.1559586999
 40
0.1875226401
 40
0.2191868416
 40
0.2509374875
 40
0.2827593569
 40
0.3146360794
 40
0.3465504048
 40
0.3784844817
 40
0.4104201444
 40
0.4423392021
 40
0.4742237282
 40
0.5060563471
 40
0.537820516
 40
0.569500795
 40
0.6010831055
 40
0.6325549714
 40
0.6639057418
 40
0.695126789
 40
0.7262116772
 40
0.7571562999
 40
0.7879589823
 40
0.8186205447
 40
0.8339015392
 40
0.849148713
 40
0.8643628743
 40
0.8795449782
 40
0.9098130746
 40
0.9399679818
 40
0.9550091618
 40
0.9700269554
 40
0.985023242
 40
1.0
 40
1.0
 40
1.0
 40
1.0
 10
9.8142930717
 20
8.9396579061
 30
0.0
 10
9.8142930717
 20
8.9280864879
 30
0.0
 10
9.8150654626
 20
8.9048839254
 30
0.0
 10
9.8185174838
 20
8.870160656
 30
0.0
 10
9.8242499677
 20
8.8355840009
 30
0.0
 10
9.8322375351
 20
8.801308193
 30
0.0
 10
9.8424447339
 20
8.7674836942
 30
0.0
 10
9.8548264507
 20
8.734259562
 30
0.0
 10
9.8693279715
 20
8.7017820109
 30
0.0
 10
9.885885299
 20
8.6701940025
 30
0.0
 10
9.9044254212
 20
8.6396345627
 30
0.0
 10
9.9248666366
 20
8.6102381968
 30
0.0
 10
9.947118899
 20
8.5821342937
 30
0.0
 10
9.9710841943
 20
8.5554465448
 30
0.0
 10
9.996657002
 20
8.5302924271
 30
0.0
 10
10.0237247487
 20
8.5067826885
 30
0.0
 10
10.0521683026
 20
8.4850208701
 30
0.0
 10
10.0818624787
 20
8.465102838
 30
0.0
 10
10.1126765798
 20
8.4471163499
 30
0.0
 10
10.144474988
 20
8.4311407004
 30
0.0
 10
10.1771177476
 20
8.4172463677
 30
0.0
 10
10.210461178
 20
8.4054947114
 30
0.0
 10
10.2443584796
 20
8.395937674
 30
0.0
 10
10.2786604097
 20
8.3886175498
 30
0.0
 10
10.313215818
 20
8.3835668089
 30
0.0
 10
10.3478727543
 20
8.3808080021
 30
0.0
 10
10.3824774473
 20
8.3803534348
 30
0.0
 10
10.4111803695
 20
8.3818989521
 30
0.0
 10
10.4339584621
 20
8.3842879049
 30
0.0
 10
10.4509165556
 20
8.3866502391
 30
0.0
 10
10.4677479081
 20
8.3895824573
 30
0.0
 10
10.4899711048
 20
8.394242362
 30
0.0
 10
10.5173506349
 20
8.4014722593
 30
0.0
 10
10.544114495
 20
8.4105633405
 30
0.0
 10
10.5650464236
 20
8.4189190322
 30
0.0
 10
10.5804812699
 20
8.4257155123
 30
0.0
 10
10.5956461116
 20
8.433038659
 30
0.0
 10
10.605571582
 20
8.4382700921
 30
0.0
 10
10.6104829842
 20
8.4409705389
 30
0.0
  0
SPLINE
  5
38E
100
AcDbEntity
  8
0
100
AcDbSpline
 62
7
  6
CONTINUOUS
 70
0
 71
3
 72
18
 73
14
 74
0
 42
0.0000001
 43
0.0000001
 44
0.0000000001
 40
0.0
 40
0.0
 40
0.0
 40
0.0
 40
0.0548620254
 40
0.1099280402
 40
0.1653994792
 40
0.2214730947
 40
0.2783387289
 40
0.3361775183
 40
0.4554063603
 40
0.5804419221
 40
0.7123344607
 40
0.8519575423
 40
1.0
 40
1.0
 40
1.0
 40
1.0
 10
10.2134812624
 20
10.5068205534
 30
0.0
 10
10.2134812651
 20
10.507766069
 30
0.0
 10
10.2135412939
 20
10.5096611588
 30
0.0
 10
10.2138111543
 20
10.5125007091
 30
0.0
 10
10.2142607488
 20
10.5153386226
 30
0.0
 10
10.2148899224
 20
10.5181738658
 30
0.0
 10
10.2156984551
 20
10.5210057171
 30
0.0
 10
10.2170282992
 20
10.5248137983
 30
0.0
 10
10.2191586723
 20
10.5295766933
 30
0.0
 10
10.2224012349
 20
10.5352016849
 30
0.0
 10
10.2263504865
 20
10.5407902655
 30
0.0
 10
10.2310004225
 20
10.5463368339
 30
0.0
 10
10.2344587567
 20
10.549895629
 30
0.0
 10
10.2362938823
 20
10.5516682243
 30
0.0
  0
SPLINE
  5
38F
100
AcDbEntity
  8
0
100
AcDbSpline
 62
7
  6
CONTINUOUS
 70
0
 71
3
 72
15
 73
11
 74
0
 42
0.0000001
 43
0.0000001
 44
0.0000000001
 40
0.0
 40
0.0
 40
0.0
 40
0.0
 40
0.1268033001
 40
0.2530381613
 40
0.3787210585
 40
0.5038750295
 40
0.6285337668
 40
0.7527393978
 40
0.8765422606
 40
1.0
 40
1.0
 40
1.0
 40
1.0
 10
9.8142930717
 20
8.9396579061
 30
0.0
 10
9.8142930717
 20
8.9509261212
 30
0.0
 10
9.8150222096
 20
8.9734190846
 30
0.0
 10
9.8183163163
 20
9.0069353417
 30
0.0
 10
9.823794582
 20
9.0400177801
 30
0.0
 10
9.8314342663
 20
9.0725249826
 30
0.0
 10
9.8412032241
 20
9.1043199422
 30
0.0
 10
9.8530607488
 20
9.135268671
 30
0.0
 10
9.8669558991
 20
9.1652386023
 30
0.0
 10
9.8775543036
 20
9.1845095209
 30
0.0
 10
9.8831700542
 20
9.1939341879
 30
0.0
  0
SPLINE
  5
390
100
AcDbEntity
  8
0
100
AcDbSpline
 62
7
  6
CONTINUOUS
 70
0
 71
3
 72
15
 73
11
 74
0
 42
0.0000001
 43
0.0000001
 44
0.0000000001
 40
0.0
 40
0.0
 40
0.0
 40
0.0
 40
0.1269213659
 40
0.2532262313
 40
0.3789352974
 40
0.504078294
 40
0.6286979202
 40
0.7528476491
 40
0.8765909448
 40
1.0
 40
1.0
 40
1.0
 40
1.0
 10
9.8268501082
 20
8.9387870726
 30
0.0
 10
9.8268501082
 20
8.9507162943
 30
0.0
 10
9.8276874047
 20
8.9745255945
 30
0.0
 10
9.8314709594
 20
9.0099689474
 30
0.0
 10
9.8377604752
 20
9.0448868472
 30
0.0
 10
9.8465252272
 20
9.0791035299
 30
0.0
 10
9.8577218657
 20
9.1124491792
 30
0.0
 10
9.8712954045
 20
9.1447582994
 30
0.0
 10
9.8871771791
 20
9.175867932
 30
0.0
 10
9.8992686267
 20
9.1957326906
 30
0.0
 10
9.9056675847
 20
9.2054070135
 30
0.0
  0
SPLINE
  5
391
100
AcDbEntity
  8
0
100
AcDbSpline
 62
7
  6
CONTINUOUS
 70
0
 71
3
 72
19
 73
15
 74
0
 42
0.0000001
 43
0.0000001
 44
0.0000000001
 40
0.0
 40
0.0
 40
0.0
 40
0.0
 40
0.1269798727
 40
0.2533130019
 40
0.3790229186
 40
0.5041442905
 40
0.5665107241
 40
0.6287495081
 40
0.690868719
 40
0.7528771298
 40
0.8147841628
 40
0.876599854
 40
0.9383347815
 40
1.0
 40
1.0
 40
1.0
 40
1.0
 10
9.8416993473
 20
8.942630337
 30
0.0
 10
9.8416993473
 20
8.9549015832
 30
0.0
 10
9.8426033092
 20
8.9793915137
 30
0.0
 10
9.8466887757
 20
9.0158247716
 30
0.0
 10
9.853477734
 20
9.0516710072
 30
0.0
 10
9.8613681114
 20
9.0809250842
 30
0.0
 10
9.8689891629
 20
9.1038287769
 30
0.0
 10
9.8753450555
 20
9.1207223234
 30
0.0
 10
9.8823377755
 20
9.1373245751
 30
0.0
 10
9.889957863
 20
9.1536131198
 30
0.0
 10
9.898194894
 20
9.1695655193
 30
0.0
 10
9.9070375969
 20
9.1851600599
 30
0.0
 10
9.9164736888
 20
9.2003750606
 30
0.0
 10
9.9231553077
 20
9.2102571707
 30
0.0
 10
9.9265900243
 20
9.2151270561
 30
0.0
  0
SPLINE
  5
392
100
AcDbEntity
  8
0
100
AcDbSpline
 62
7
  6
CONTINUOUS
 70
0
 71
3
 72
15
 73
11
 74
0
 42
0.0000001
 43
0.0000001
 44
0.0000000001
 40
0.0
 40
0.0
 40
0.0
 40
0.0
 40
0.1268165568
 40
0.2530594331
 40
0.3787455445
 40
0.5038985704
 40
0.6285531481
 40
0.7527525473
 40
0.8765484511
 40
1.0
 40
1.0
 40
1.0
 40
1.0
 10
9.8773680677
 20
8.9770836773
 30
0.0
 10
9.8773680677
 20
8.9879610974
 30
0.0
 10
9.8780784155
 20
9.0096736617
 30
0.0
 10
9.8812877133
 20
9.0420237504
 30
0.0
 10
9.886624695
 20
9.0739486752
 30
0.0
 10
9.894066797
 20
9.1053094236
 30
0.0
 10
9.9035821221
 20
9.1359713571
 30
0.0
 10
9.9151302793
 20
9.1658028545
 30
0.0
 10
9.9286607414
 20
9.194673748
 30
0.0
 10
9.9389790077
 20
9.2132245859
 30
0.0
 10
9.9444456234
 20
9.2222931394
 30
0.0
  0
SPLINE
  5
393
100
AcDbEntity
  8
0
100
AcDbSpline
 62
7
  6
CONTINUOUS
 70
0
 71
3
 72
21
 73
17
 74
0
 42
0.0000001
 43
0.0000001
 44
0.0000000001
 40
0.0
 40
0.0
 40
0.0
 40
0.0
 40
0.1270474294
 40
0.2534139955
 40
0.3163626208
 40
0.3791519996
 40
0.4417880407
 40
0.504277382
 40
0.5666276324
 40
0.6288473205
 40
0.6909458063
 40
0.752933256
 40
0.8148205614
 40
0.8766192708
 40
0.9383415318
 40
1.0
 40
1.0
 40
1.0
 40
1.0
 10
9.936155814
 20
8.9858682831
 30
0.0
 10
9.936155814
 20
8.9975933478
 30
0.0
 10
9.937065484
 20
9.0209905182
 30
0.0
 10
9.9404976273
 20
9.0500169781
 30
0.0
 10
9.9446066446
 20
9.0729230904
 30
0.0
 10
9.9483594792
 20
9.0899029884
 30
0.0
 10
9.9527813646
 20
9.1066770368
 30
0.0
 10
9.9578656059
 20
9.1232200427
 30
0.0
 10
9.963604455
 20
9.1395067917
 30
0.0
 10
9.9699892518
 20
9.1555125307
 30
0.0
 10
9.9770102982
 20
9.1712129206
 30
0.0
 10
9.9846568998
 20
9.186584118
 30
0.0
 10
9.9929174652
 20
9.2016027128
 30
0.0
 10
10.001779522
 20
9.216245943
 30
0.0
 10
10.011229321
 20
9.2304912645
 30
0.0
 10
10.0179150431
 20
9.2397133
 30
0.0
 10
10.0213502813
 20
9.2442497839
 30
0.0
  0
SPLINE
  5
394
100
AcDbEntity
  8
0
100
AcDbSpline
 62
7
  6
CONTINUOUS
 70
0
 71
3
 72
30
 73
26
 74
0
 42
0.0000001
 43
0.0000001
 44
0.0000000001
 40
0.0
 40
0.0
 40
0.0
 40
0.0
 40
0.0307564661
 40
0.0615997321
 40
0.0925269013
 40
0.1235348016
 40
0.1546195519
 40
0.1857767538
 40
0.2170015142
 40
0.2482884651
 40
0.3110123921
 40
0.3739108758
 40
0.4369284101
 40
0.5000062855
 40
0.5630841688
 40
0.6261017322
 40
0.6890002603
 40
0.75172425
 40
0.8142229262
 40
0.8453801746
 40
0.8764649678
 40
0.9074729123
 40
0.938400156
 40
0.9692434142
 40
1.0
 40
1.0
 40
1.0
 40
1.0
 10
10.2741602145
 20
9.2316686519
 30
0.0
 10
10.2748488176
 20
9.2255679735
 30
0.0
 10
10.2764877714
 20
9.2133771474
 30
0.0
 10
10.2797193717
 20
9.1951871469
 30
0.0
 10
10.2837218667
 20
9.1770993726
 30
0.0
 10
10.2884877383
 20
9.1591478516
 30
0.0
 10
10.2940081789
 20
9.1413657417
 30
0.0
 10
10.3002728364
 20
9.1237861542
 30
0.0
 10
10.3072702683
 20
9.1064413457
 30
0.0
 10
10.3175667811
 20
9.0836552358
 30
0.0
 10
10.3322049493
 20
9.0559223492
 30
0.0
 10
10.3524427888
 20
9.0241205183
 30
0.0
 10
10.3752209838
 20
8.9939959025
 30
0.0
 10
10.4003700384
 20
8.9657729582
 30
0.0
 10
10.4277039591
 20
8.939660215
 30
0.0
 10
10.4570202191
 20
8.9158511765
 30
0.0
 10
10.4881023093
 20
8.8945220732
 30
0.0
 10
10.520718621
 20
8.8758316559
 30
0.0
 10
10.5490120187
 20
8.8625545155
 30
0.0
 10
10.5721686409
 20
8.8533856015
 30
0.0
 10
10.5897488485
 20
8.8472517139
 30
0.0
 10
10.6075242648
 20
8.8418661658
 30
0.0
 10
10.6254623843
 20
8.8372387665
 30
0.0
 10
10.6435293988
 20
8.8333782501
 30
0.0
 10
10.6556560816
 20
8.831317535
 30
0.0
 10
10.6617292322
 20
8.8304177652
 30
0.0
  0
SPLINE
  5
395
100
AcDbEntity
  8
0
100
AcDbSpline
 62
7
  6
CONTINUOUS
 70
0
 71
3
 72
48
 73
44
 74
0
 42
0.0000001
 43
0.0000001
 44
0.0000000001
 40
0.0
 40
0.0
 40
0.0
 40
0.0
 40
0.0310737286
 40
0.0623047169
 40
0.0936882768
 40
0.1252158192
 40
0.1568759363
 40
0.1886544543
 40
0.2205347671
 40
0.2524981996
 40
0.2845244034
 40
0.3165917744
 40
0.3486778872
 40
0.3807599447
 40
0.4128152307
 40
0.444821561
 40
0.476757727
 40
0.5086039285
 40
0.5403421829
 40
0.5719567057
 40
0.6034342639
 40
0.6347644801
 40
0.6659400877
 40
0.6969571367
 40
0.7278151252
 40
0.7431880054
 40
0.758522545
 40
0.7738196675
 40
0.7890805069
 40
0.8043064089
 40
0.8194989208
 40
0.8346597817
 40
0.8497909186
 40
0.8648944344
 40
0.8799725929
 40
0.8950278113
 40
0.9100626449
 40
0.9250797694
 40
0.9400819686
 40
0.9550721182
 40
0.970053165
 40
0.9850281118
 40
1.0
 40
1.0
 40
1.0
 40
1.0
 10
9.6362257156
 20
8.7676580378
 30
0.0
 10
9.6362257156
 20
8.7547316562
 30
0.0
 10
9.6371900061
 20
8.728803528
 30
0.0
 10
9.6414952791
 20
8.6900354736
 30
0.0
 10
9.6486388258
 20
8.6514950562
 30
0.0
 10
9.6585811586
 20
8.6133966707
 30
0.0
 10
9.6712672045
 20
8.5759487716
 30
0.0
 10
9.6866270222
 20
8.5393571036
 30
0.0
 10
9.7045760593
 20
8.5038224399
 30
0.0
 10
9.7250155122
 20
8.4695397511
 30
0.0
 10
9.7478330616
 20
8.4366971558
 30
0.0
 10
9.7729033777
 20
8.4054748846
 30
0.0
 10
9.8000887457
 20
8.3760442298
 30
0.0
 10
9.8292399736
 20
8.3485667506
 30
0.0
 10
9.8601970822
 20
8.3231933047
 30
0.0
 10
9.8927901663
 20
8.3000631882
 30
0.0
 10
9.9268404288
 20
8.2793035289
 30
0.0
 10
9.9621610352
 20
8.2610284524
 30
0.0
 10
9.998558158
 20
8.2453384625
 30
0.0
 10
10.0358320752
 20
8.2323200393
 30
0.0
 10
10.0737782098
 20
8.2220449816
 30
0.0
 10
10.1121881108
 20
8.2145700484
 30
0.0
 10
10.1508512313
 20
8.2099368353
 30
0.0
 10
10.18955367
 20
8.2081710615
 30
0.0
 10
10.2217075005
 20
8.2090992788
 30
0.0
 10
10.2472299197
 20
8.2112826623
 30
0.0
 10
10.2662272509
 20
8.2136336656
 30
0.0
 10
10.2850753634
 20
8.2166968933
 30
0.0
 10
10.3037486625
 20
8.2204681908
 30
0.0
 10
10.3222213784
 20
8.2249423277
 30
0.0
 10
10.340468122
 20
8.2301131699
 30
0.0
 10
10.3584637642
 20
8.235973671
 30
0.0
 10
10.3761835618
 20
8.2425157252
 30
0.0
 10
10.3936031333
 20
8.2497303453
 30
0.0
 10
10.4106984828
 20
8.2576076704
 30
0.0
 10
10.4274461051
 20
8.2661368205
 30
0.0
 10
10.4438229568
 20
8.2753060649
 30
0.0
 10
10.4598064656
 20
8.2851028463
 30
0.0
 10
10.4753746632
 20
8.2955136501
 30
0.0
 10
10.4905061115
 20
8.3065241276
 30
0.0
 10
10.505180022
 20
8.3181192524
 30
0.0
 10
10.5193759428
 20
8.3302827671
 30
0.0
 10
10.5285092291
 20
8.3387604852
 30
0.0
 10
10.5329888626
 20
8.343087486
 30
0.0
  0
SPLINE
  5
396
100
AcDbEntity
  8
0
100
AcDbSpline
 62
7
  6
CONTINUOUS
 70
0
 71
3
 72
26
 73
22
 74
0
 42
0.0000001
 43
0.0000001
 44
0.0000000001
 40
0.0
 40
0.0
 40
0.0
 40
0.0
 40
0.1911206132
 40
0.2872541125
 40
0.382176495
 40
0.4741103777
 40
0.5609823304
 40
0.6408203049
 40
0.7122000177
 40
0.774484165
 40
0.8277620877
 40
0.872608198
 40
0.9098347013
 40
0.925868881
 40
0.9403286722
 40
0.9533229085
 40
0.9649584813
 40
0.9753372885
 40
0.9845653423
 40
0.9927500808
 40
1.0
 40
1.0
 40
1.0
 40
1.0
 10
10.5420136816
 20
8.4034580202
 30
0.0
 10
10.5444210126
 20
8.4046037701
 30
0.0
 10
10.5480482144
 20
8.4063071254
 30
0.0
 10
10.5528968655
 20
8.4085237294
 30
0.0
 10
10.5565004565
 20
8.4101356665
 30
0.0
 10
10.5600012508
 20
8.4116606053
 30
0.0
 10
10.5633260828
 20
8.4130620272
 30
0.0
 10
10.5664051814
 20
8.4143074326
 30
0.0
 10
10.5691858436
 20
8.4153748147
 30
0.0
 10
10.5716405861
 20
8.4162557777
 30
0.0
 10
10.5737667831
 20
8.4169543183
 30
0.0
 10
10.5755799117
 20
8.4174825324
 30
0.0
 10
10.5769096892
 20
8.4178087792
 30
0.0
 10
10.5778363448
 20
8.4179931648
 30
0.0
 10
10.5784350156
 20
8.4180920015
 30
0.0
 10
10.5789761498
 20
8.4181603944
 30
0.0
 10
10.5794630754
 20
8.4182001805
 30
0.0
 10
10.5798989438
 20
8.4182129086
 30
0.0
 10
10.5802867239
 20
8.4182001299
 30
0.0
 10
10.5806291303
 20
8.4181633142
 30
0.0
 10
10.5808406931
 20
8.4181210737
 30
0.0
 10
10.5809385673
 20
8.4180956023
 30
0.0
  0
SPLINE
  5
397
100
AcDbEntity
  8
0
100
AcDbSpline
 62
7
  6
CONTINUOUS
 70
0
 71
3
 72
43
 73
39
 74
0
 42
0.0000001
 43
0.0000001
 44
0.0000000001
 40
0.0
 40
0.0
 40
0.0
 40
0.0
 40
0.0149707062
 40
0.0299443832
 40
0.044923982
 40
0.0599124229
 40
0.0899215158
 40
0.1199993968
 40
0.1350733934
 40
0.1501720726
 40
0.1804466446
 40
0.2108445726
 40
0.2413788992
 40
0.2720596043
 40
0.3028934265
 40
0.3338837632
 40
0.3650306473
 40
0.3963307968
 40
0.4277777321
 40
0.4593619538
 40
0.4910711758
 40
0.5228906048
 40
0.5548032613
 40
0.5867903331
 40
0.6188315566
 40
0.6509056176
 40
0.6829905677
 40
0.7150642487
 40
0.7471047194
 40
0.7790906803
 40
0.8110018897
 40
0.8428195616
 40
0.8745267594
 40
0.9061087026
 40
0.9375532342
 40
0.9532230937
 40
0.9688557174
 40
1.0
 40
1.0
 40
1.0
 40
1.0
 10
11.1016953746
 20
8.8944297841
 30
0.0
 10
11.1000359535
 20
8.8928269064
 30
0.0
 10
11.0967792002
 20
8.8895554698
 30
0.0
 10
11.0920895333
 20
8.8844602362
 30
0.0
 10
11.0876008892
 20
8.8791831948
 30
0.0
 10
11.081890781
 20
8.8719123171
 30
0.0
 10
11.0752827079
 20
8.8623999074
 30
0.0
 10
11.0694277789
 20
8.8523912507
 30
0.0
 10
11.0652108647
 20
8.8441165496
 30
0.0
 10
11.0613033861
 20
8.8356579391
 30
0.0
 10
11.057021467
 20
8.8247808555
 30
0.0
 10
11.0528810126
 20
8.8113347869
 30
0.0
 10
11.0497546581
 20
8.7975530042
 30
0.0
 10
11.0476591799
 20
8.7835096705
 30
0.0
 10
11.0466055352
 20
8.7692797059
 30
0.0
 10
11.0465991944
 20
8.7549391494
 30
0.0
 10
11.0476400173
 20
8.7405645491
 30
0.0
 10
11.0497222897
 20
8.7262326112
 30
0.0
 10
11.052834753
 20
8.7120197812
 30
0.0
 10
11.056960671
 20
8.6980018442
 30
0.0
 10
11.0620779226
 20
8.6842535256
 30
0.0
 10
11.0681591221
 20
8.6708480985
 30
0.0
 10
11.0751717662
 20
8.657856998
 30
0.0
 10
11.0830784074
 20
8.6453494458
 30
0.0
 10
11.0918368533
 20
8.6333920857
 30
0.0
 10
11.1014003897
 20
8.6220486327
 30
0.0
 10
11.1117180282
 20
8.6113795373
 30
0.0
 10
11.122734775
 20
8.6014416667
 30
0.0
 10
11.1343919224
 20
8.5922880044
 30
0.0
 10
11.1466273541
 20
8.5839673708
 30
0.0
 10
11.1593758875
 20
8.5765241638
 30
0.0
 10
11.1725695637
 20
8.5699981288
 30
0.0
 10
11.1861381982
 20
8.5644241243
 30
0.0
 10
11.2000090396
 20
8.559832038
 30
0.0
 10
11.2117735714
 20
8.5568403008
 30
0.0
 10
11.2212612203
 20
8.5549617631
 30
0.0
 10
11.2307639576
 20
8.5534316277
 30
0.0
 10
11.2379407667
 20
8.5526702129
 30
0.0
 10
11.2427289213
 20
8.5523381533
 30
0.0
  0
SPLINE
  5
398
100
AcDbEntity
  8
0
100
AcDbSpline
 62
7
  6
CONTINUOUS
 70
0
 71
3
 72
91
 73
87
 74
0
 42
0.0000001
 43
0.0000001
 44
0.0000000001
 40
0.0
 40
0.0
 40
0.0
 40
0.0
 40
0.0039801924
 40
0.0081241222
 40
0.0124359637
 40
0.0169193096
 40
0.0215771886
 40
0.0264119285
 40
0.0314251939
 40
0.0366181702
 40
0.0419915548
 40
0.047545678
 40
0.0532804444
 40
0.0591954462
 40
0.0652899498
 40
0.0715629346
 40
0.0780131383
 40
0.0846390212
 40
0.0984103321
 40
0.112860905
 40
0.1279714342
 40
0.1437200292
 40
0.1600824911
 40
0.1770325451
 40
0.1945420381
 40
0.2125811122
 40
0.2311183582
 40
0.250120955
 40
0.2695548022
 40
0.2893846422
 40
0.309574176
 40
0.3300861748
 40
0.3508825876
 40
0.371924647
 40
0.3931729723
 40
0.4145876715
 40
0.4361284441
 40
0.4577546814
 40
0.4794255667
 40
0.5011001742
 40
0.5227375691
 40
0.5442969066
 40
0.5657375322
 40
0.5870190822
 40
0.6081015838
 40
0.6289455566
 40
0.6495121139
 40
0.6697630662
 40
0.6896610263
 40
0.7091695166
 40
0.7282530813
 40
0.7468774025
 40
0.7650094193
 40
0.7826174564
 40
0.799671362
 40
0.8161426596
 40
0.8320047173
 40
0.8472329411
 40
0.8618050018
 40
0.8757011035
 40
0.8889043078
 40
0.8952418952
 40
0.9014014185
 40
0.9073817887
 40
0.9131821496
 40
0.9188019795
 40
0.9242410699
 40
0.9294995748
 40
0.9345780695
 40
0.9394775409
 40
0.9441995182
 40
0.9487460398
 40
0.953119811
 40
0.9573242085
 40
0.9613634143
 40
0.9652425019
 40
0.9689675247
 40
0.9725456818
 40
0.9759853712
 40
0.9824865179
 40
0.9855753633
 40
0.9885738259
 40
0.9914977396
 40
0.9943643376
 40
0.9971920097
 40
1.0
 40
1.0
 40
1.0
 40
1.0
 10
10.2362938823
 20
10.5516682243
 30
0.0
 10
10.2376198748
 20
10.5529490348
 30
0.0
 10
10.2403866243
 20
10.5555015944
 30
0.0
 10
10.2447793686
 20
10.5592297954
 30
0.0
 10
10.2494946862
 20
10.5629312473
 30
0.0
 10
10.2545299916
 20
10.5666039973
 30
0.0
 10
10.2598828375
 20
10.5702463219
 30
0.0
 10
10.2655505919
 20
10.5738564586
 30
0.0
 10
10.2715304249
 20
10.5774326603
 30
0.0
 10
10.2778193646
 20
10.5809730829
 30
0.0
 10
10.2844142384
 20
10.5844760255
 30
0.0
 10
10.2913117702
 20
10.5879396782
 30
0.0
 10
10.2985084859
 20
10.5913623548
 30
0.0
 10
10.3060007832
 20
10.5947422995
 30
0.0
 10
10.3137848922
 20
10.5980778202
 30
0.0
 10
10.3218568923
 20
10.6013672399
 30
0.0
 10
10.3302127352
 20
10.6046088902
 30
0.0
 10
10.3418770348
 20
10.6089207363
 30
0.0
 10
10.3571437855
 20
10.6141683383
 30
0.0
 10
10.3762982676
 20
10.6201712764
 30
0.0
 10
10.3964769912
 20
10.6259460798
 30
0.0
 10
10.4176392224
 20
10.6314810011
 30
0.0
 10
10.4397423937
 20
10.6367647666
 30
0.0
 10
10.4627419296
 20
10.6417866132
 30
0.0
 10
10.4865914235
 20
10.6465363102
 30
0.0
 10
10.511242717
 20
10.6510041821
 30
0.0
 10
10.5366460072
 20
10.6551811293
 30
0.0
 10
10.562749951
 20
10.6590586486
 30
0.0
 10
10.5895017733
 20
10.6626288474
 30
0.0
 10
10.6168473775
 20
10.6658844603
 30
0.0
 10
10.6447314575
 20
10.6688188631
 30
0.0
 10
10.6730976104
 20
10.6714260863
 30
0.0
 10
10.7018884522
 20
10.6737008263
 30
0.0
 10
10.7310457346
 20
10.6756384562
 30
0.0
 10
10.7605104631
 20
10.6772350352
 30
0.0
 10
10.7902230179
 20
10.6784873186
 30
0.0
 10
10.8201232754
 20
10.6793927609
 30
0.0
 10
10.8501507313
 20
10.6799495219
 30
0.0
 10
10.880244623
 20
10.6801564699
 30
0.0
 10
10.9103440528
 20
10.6800131839
 30
0.0
 10
10.9403881115
 20
10.6795199548
 30
0.0
 10
10.9703160023
 20
10.6786777841
 30
0.0
 10
11.0000671638
 20
10.6774883834
 30
0.0
 10
11.0295813948
 20
10.6759541719
 30
0.0
 10
11.0587989756
 20
10.6740782697
 30
0.0
 10
11.0876607902
 20
10.6718644913
 30
0.0
 10
11.1161084456
 20
10.6693173388
 30
0.0
 10
11.1440843911
 20
10.6664419926
 30
0.0
 10
11.1715320356
 20
10.6632443013
 30
0.0
 10
11.1983958635
 20
10.65973077
 30
0.0
 10
11.2246215499
 20
10.6559085487
 30
0.0
 10
11.2501560733
 20
10.6517854188
 30
0.0
 10
11.2749478245
 20
10.6473697753
 30
0.0
 10
11.2989467135
 20
10.6426706106
 30
0.0
 10
11.3221042757
 20
10.6376974961
 30
0.0
 10
11.3443737723
 20
10.6324605623
 30
0.0
 10
11.3657102997
 20
10.6269704771
 30
0.0
 10
11.3860708646
 20
10.6212384214
 30
0.0
 10
11.4054145737
 20
10.6152760612
 30
0.0
 10
11.4237024206
 20
10.6090955276
 30
0.0
 10
11.4382236665
 20
10.6037026905
 30
0.0
 10
11.4492758383
 20
10.5992792595
 30
0.0
 10
11.457165086
 20
10.5959602756
 30
0.0
 10
11.4647639263
 20
10.5925963009
 30
0.0
 10
11.4720685377
 20
10.5891889587
 30
0.0
 10
11.4790752565
 20
10.5857400004
 30
0.0
 10
11.4857805677
 20
10.5822511493
 30
0.0
 10
11.4921811054
 20
10.5787241365
 30
0.0
 10
11.4982736849
 20
10.575160762
 30
0.0
 10
11.5040552395
 20
10.5715627393
 30
0.0
 10
11.5095229185
 20
10.5679319129
 30
0.0
 10
11.5146739688
 20
10.5642699992
 30
0.0
 10
11.5195058569
 20
10.5605788344
 30
0.0
 10
11.5240161646
 20
10.5568601603
 30
0.0
 10
11.5282026383
 20
10.5531157638
 30
0.0
 10
11.5320632217
 20
10.5493473855
 30
0.0
 10
11.5355958326
 20
10.545556853
 30
0.0
 10
11.5387989963
 20
10.5417455003
 30
0.0
 10
11.5425565898
 20
10.5367339925
 30
0.0
 10
11.5457474126
 20
10.5315874188
 30
0.0
 10
11.5482807485
 20
10.5263309351
 30
0.0
 10
11.5498114072
 20
10.5224433887
 30
0.0
 10
11.5510033491
 20
10.5185463686
 30
0.0
 10
11.5518556642
 20
10.5146417925
 30
0.0
 10
11.5523673638
 20
10.5107324289
 30
0.0
 10
11.5524812641
 20
10.5081206698
 30
0.0
 10
11.5524812603
 20
10.5068200511
 30
0.0
  0
SPLINE
  5
399
100
AcDbEntity
  8
0
100
AcDbSpline
 62
7
  6
CONTINUOUS
 70
0
 71
3
 72
43
 73
39
 74
0
 42
0.0000001
 43
0.0000001
 44
0.0000000001
 40
0.0
 40
0.0
 40
0.0
 40
0.0
 40
0.030948836
 40
0.0620411362
 40
0.0932734766
 40
0.1246391613
 40
0.1561294786
 40
0.1877334676
 40
0.2194382187
 40
0.2512291028
 40
0.2830900336
 40
0.3150037484
 40
0.346952102
 40
0.3789163728
 40
0.4108775752
 40
0.4428167749
 40
0.4747154021
 40
0.5065555636
 40
0.5383203445
 40
0.5699940992
 40
0.6015627256
 40
0.6330139205
 40
0.6643374129
 40
0.6955251654
 40
0.7265715446
 40
0.757473453
 40
0.7882304211
 40
0.8188446541
 40
0.8341019653
 40
0.8493256412
 40
0.8645167003
 40
0.8796763172
 40
0.9099019437
 40
0.9400195315
 40
0.9550446632
 40
0.970048371
 40
0.9850327527
 40
1.0
 40
1.0
 40
1.0
 40
1.0
 10
9.8268501082
 20
8.9387870726
 30
0.0
 10
9.8268501082
 20
8.927256848
 30
0.0
 10
9.8276359865
 20
8.9041355146
 30
0.0
 10
9.8311476652
 20
8.8695389389
 30
0.0
 10
9.8369783875
 20
8.8350980704
 30
0.0
 10
9.8451012415
 20
8.8009730401
 30
0.0
 10
9.8554786483
 20
8.7673199856
 30
0.0
 10
9.8680627967
 20
8.7342934828
 30
0.0
 10
9.8827957237
 20
8.7020450229
 30
0.0
 10
9.8996096618
 20
8.6707225633
 30
0.0
 10
9.9184273328
 20
8.6404697923
 30
0.0
 10
9.9391623094
 20
8.611425501
 30
0.0
 10
9.961719385
 20
8.5837229348
 30
0.0
 10
9.9859950042
 20
8.5574891787
 30
0.0
 10
10.0118777638
 20
8.5328446029
 30
0.0
 10
10.0392489109
 20
8.5099023109
 30
0.0
 10
10.0679828874
 20
8.4887676341
 30
0.0
 10
10.0979478756
 20
8.4695376201
 30
0.0
 10
10.1290064097
 20
8.4523005983
 30
0.0
 10
10.1610160126
 20
8.4371357977
 30
0.0
 10
10.1938298351
 20
8.4241129792
 30
0.0
 10
10.2272973252
 20
8.4132921232
 30
0.0
 10
10.2612648865
 20
8.4047231063
 30
0.0
 10
10.2955766248
 20
8.3984455054
 30
0.0
 10
10.3300749272
 20
8.3944883997
 30
0.0
 10
10.3646016469
 20
8.3928703105
 30
0.0
 10
10.39899707
 20
8.3935987989
 30
0.0
 10
10.4274551243
 20
8.3961623692
 30
0.0
 10
10.4499917091
 20
8.3993810587
 30
0.0
 10
10.4667458705
 20
8.4023719919
 30
0.0
 10
10.4833497171
 20
8.4059389294
 30
0.0
 10
10.5052383288
 20
8.4114512338
 30
0.0
 10
10.5321390283
 20
8.4197582139
 30
0.0
 10
10.5583358677
 20
8.4299359443
 30
0.0
 10
10.578761225
 20
8.4391610634
 30
0.0
 10
10.5937908545
 20
8.4466089775
 30
0.0
 10
10.6085237424
 20
8.4545818397
 30
0.0
 10
10.618142281
 20
8.4602444034
 30
0.0
 10
10.6228956776
 20
8.4631596742
 30
0.0
  0
SPLINE
  5
39A
100
AcDbEntity
  8
0
100
AcDbSpline
 62
7
  6
CONTINUOUS
 70
0
 71
3
 72
43
 73
39
 74
0
 42
0.0000001
 43
0.0000001
 44
0.0000000001
 40
0.0
 40
0.0
 40
0.0
 40
0.0
 40
0.0149707062
 40
0.0299443832
 40
0.044923982
 40
0.0599124229
 40
0.0899215158
 40
0.1199993968
 40
0.1350733934
 40
0.1501720726
 40
0.1804466446
 40
0.2108445726
 40
0.2413788992
 40
0.2720596043
 40
0.3028934265
 40
0.3338837632
 40
0.3650306473
 40
0.3963307968
 40
0.4277777321
 40
0.4593619538
 40
0.4910711758
 40
0.5228906048
 40
0.5548032613
 40
0.5867903331
 40
0.6188315566
 40
0.6509056176
 40
0.6829905677
 40
0.7150642487
 40
0.7471047194
 40
0.7790906803
 40
0.8110018897
 40
0.8428195616
 40
0.8745267594
 40
0.9061087026
 40
0.9375532342
 40
0.9532230937
 40
0.9688557174
 40
1.0
 40
1.0
 40
1.0
 40
1.0
 10
9.6528065781
 20
9.8400957115
 30
0.0
 10
9.651147157
 20
9.8384928337
 30
0.0
 10
9.6478904037
 20
9.8352213972
 30
0.0
 10
9.6432007368
 20
9.8301261636
 30
0.0
 10
9.6387120927
 20
9.8248491222
 30
0.0
 10
9.6330019845
 20
9.8175782445
 30
0.0
 10
9.6263939114
 20
9.8080658348
 30
0.0
 10
9.6205389824
 20
9.7980571781
 30
0.0
 10
9.6163220682
 20
9.789782477
 30
0.0
 10
9.6124145896
 20
9.7813238665
 30
0.0
 10
9.6081326705
 20
9.7704467829
 30
0.0
 10
9.6039922161
 20
9.7570007143
 30
0.0
 10
9.6008658616
 20
9.7432189316
 30
0.0
 10
9.5987703834
 20
9.7291755979
 30
0.0
 10
9.5977167387
 20
9.7149456332
 30
0.0
 10
9.5977103979
 20
9.7006050768
 30
0.0
 10
9.5987512208
 20
9.6862304765
 30
0.0
 10
9.6008334932
 20
9.6718985386
 30
0.0
 10
9.6039459565
 20
9.6576857086
 30
0.0
 10
9.6080718745
 20
9.6436677716
 30
0.0
 10
9.6131891261
 20
9.629919453
 30
0.0
 10
9.6192703256
 20
9.6165140259
 30
0.0
 10
9.6262829697
 20
9.6035229254
 30
0.0
 10
9.6341896109
 20
9.5910153732
 30
0.0
 10
9.6429480568
 20
9.5790580131
 30
0.0
 10
9.6525115932
 20
9.5677145601
 30
0.0
 10
9.6628292317
 20
9.5570454647
 30
0.0
 10
9.6738459785
 20
9.5471075941
 30
0.0
 10
9.6855031259
 20
9.5379539318
 30
0.0
 10
9.6977385576
 20
9.5296332982
 30
0.0
 10
9.710487091
 20
9.5221900912
 30
0.0
 10
9.7236807672
 20
9.5156640562
 30
0.0
 10
9.7372494017
 20
9.5100900517
 30
0.0
 10
9.7511202431
 20
9.5054979654
 30
0.0
 10
9.7628847749
 20
9.5025062282
 30
0.0
 10
9.7723724238
 20
9.5006276905
 30
0.0
 10
9.7818751611
 20
9.4990975551
 30
0.0
 10
9.7890519702
 20
9.4983361403
 30
0.0
 10
9.7938401248
 20
9.4980040807
 30
0.0
  0
SPLINE
  5
39B
100
AcDbEntity
  8
0
100
AcDbSpline
 62
7
  6
CONTINUOUS
 70
0
 71
3
 72
42
 73
38
 74
0
 42
0.0000001
 43
0.0000001
 44
0.0000000001
 40
0.0
 40
0.0
 40
0.0
 40
0.0
 40
0.030966359
 40
0.0620780156
 40
0.0933314012
 40
0.1247195807
 40
0.1562335103
 40
0.187861831
 40
0.2195911719
 40
0.2514063967
 40
0.2832908809
 40
0.3152268076
 40
0.3471954788
 40
0.3791776386
 40
0.4111538018
 40
0.4431045848
 40
0.4750110364
 40
0.5068549633
 40
0.5386192458
 40
0.5702881402
 40
0.6018475642
 40
0.6332853618
 40
0.664591539
 40
0.6957584682
 40
0.7267810579
 40
0.7422396321
 40
0.7576614408
 40
0.7883908232
 40
0.8189768665
 40
0.8494254335
 40
0.8797450717
 40
0.8948623457
 40
0.9099517517
 40
0.925015046
 40
0.9400541138
 40
0.9700627594
 40
1.0
 40
1.0
 40
1.0
 40
1.0
 10
9.8416993473
 20
8.942630337
 30
0.0
 10
9.8416993473
 20
8.9311882974
 30
0.0
 10
9.8424890203
 20
8.9082429693
 30
0.0
 10
9.846017269
 20
8.8739129201
 30
0.0
 10
9.8518749907
 20
8.8397433218
 30
0.0
 10
9.8600344633
 20
8.8058970353
 30
0.0
 10
9.8704570011
 20
8.7725328115
 30
0.0
 10
9.8830933619
 20
8.7398077437
 30
0.0
 10
9.8978838829
 20
8.7078757062
 30
0.0
 10
9.9147588275
 20
8.6768868825
 30
0.0
 10
9.933638699
 20
8.6469870021
 30
0.0
 10
9.9544346103
 20
8.6183166836
 30
0.0
 10
9.97704866
 20
8.5910107436
 30
0.0
 10
10.001374438
 20
8.5651975999
 30
0.0
 10
10.0272975153
 20
8.5409986726
 30
0.0
 10
10.0546959823
 20
8.5185278274
 30
0.0
 10
10.0834409859
 20
8.4978908107
 30
0.0
 10
10.1133973431
 20
8.4791847609
 30
0.0
 10
10.1444241888
 20
8.462497781
 30
0.0
 10
10.1763756168
 20
8.447908523
 30
0.0
 10
10.2091013846
 20
8.4354858146
 30
0.0
 10
10.2424474775
 20
8.4252882925
 30
0.0
 10
10.2762572945
 20
8.4173641643
 30
0.0
 10
10.3103707114
 20
8.4117510175
 30
0.0
 10
10.3389554002
 20
8.409018106
 30
0.0
 10
10.3618102951
 20
8.4080128293
 30
0.0
 10
10.3845778447
 20
8.4077942203
 30
0.0
 10
10.4129316436
 20
8.4089894283
 30
0.0
 10
10.4466536082
 20
8.4127771076
 30
0.0
 10
10.4798772528
 20
8.4188985586
 30
0.0
 10
10.5070479109
 20
8.425929159
 30
0.0
 10
10.528370941
 20
8.4326873171
 30
0.0
 10
10.5441282146
 20
8.43831164
 30
0.0
 10
10.5596457096
 20
8.4444894824
 30
0.0
 10
10.5799746558
 20
8.4534473967
 30
0.0
 10
10.6047070858
 20
8.4659926946
 30
0.0
 10
10.6236973582
 20
8.4774382388
 30
0.0
 10
10.6329557992
 20
8.4834916905
 30
0.0
  0
SPLINE
  5
39C
100
AcDbEntity
  8
0
100
AcDbSpline
 62
7
  6
CONTINUOUS
 70
0
 71
3
 72
43
 73
39
 74
0
 42
0.0000001
 43
0.0000001
 44
0.0000000001
 40
0.0
 40
0.0
 40
0.0
 40
0.0
 40
0.0149707062
 40
0.0299443832
 40
0.044923982
 40
0.0599124229
 40
0.0899215158
 40
0.1199993968
 40
0.1350733934
 40
0.1501720726
 40
0.1804466446
 40
0.2108445726
 40
0.2413788992
 40
0.2720596043
 40
0.3028934265
 40
0.3338837632
 40
0.3650306473
 40
0.3963307968
 40
0.4277777321
 40
0.4593619538
 40
0.4910711758
 40
0.5228906048
 40
0.5548032613
 40
0.5867903331
 40
0.6188315566
 40
0.6509056176
 40
0.6829905677
 40
0.7150642487
 40
0.7471047194
 40
0.7790906803
 40
0.8110018897
 40
0.8428195616
 40
0.8745267594
 40
0.9061087026
 40
0.9375532342
 40
0.9532230937
 40
0.9688557174
 40
1.0
 40
1.0
 40
1.0
 40
1.0
 10
9.6528065781
 20
7.364427707
 30
0.0
 10
9.651147157
 20
7.3628248293
 30
0.0
 10
9.6478904037
 20
7.3595533927
 30
0.0
 10
9.6432007368
 20
7.3544581591
 30
0.0
 10
9.6387120927
 20
7.3491811177
 30
0.0
 10
9.6330019845
 20
7.34191024
 30
0.0
 10
9.6263939114
 20
7.3323978303
 30
0.0
 10
9.6205389824
 20
7.3223891737
 30
0.0
 10
9.6163220682
 20
7.3141144726
 30
0.0
 10
9.6124145896
 20
7.305655862
 30
0.0
 10
9.6081326705
 20
7.2947787784
 30
0.0
 10
9.6039922161
 20
7.2813327098
 30
0.0
 10
9.6008658616
 20
7.2675509271
 30
0.0
 10
9.5987703834
 20
7.2535075934
 30
0.0
 10
9.5977167387
 20
7.2392776288
 30
0.0
 10
9.5977103979
 20
7.2249370724
 30
0.0
 10
9.5987512208
 20
7.210562472
 30
0.0
 10
9.6008334932
 20
7.1962305342
 30
0.0
 10
9.6039459565
 20
7.1820177041
 30
0.0
 10
9.6080718745
 20
7.1679997671
 30
0.0
 10
9.6131891261
 20
7.1542514485
 30
0.0
 10
9.6192703256
 20
7.1408460214
 30
0.0
 10
9.6262829697
 20
7.1278549209
 30
0.0
 10
9.6341896109
 20
7.1153473687
 30
0.0
 10
9.6429480568
 20
7.1033900086
 30
0.0
 10
9.6525115932
 20
7.0920465556
 30
0.0
 10
9.6628292317
 20
7.0813774603
 30
0.0
 10
9.6738459785
 20
7.0714395896
 30
0.0
 10
9.6855031259
 20
7.0622859273
 30
0.0
 10
9.6977385576
 20
7.0539652937
 30
0.0
 10
9.710487091
 20
7.0465220868
 30
0.0
 10
9.7236807672
 20
7.0399960518
 30
0.0
 10
9.7372494017
 20
7.0344220472
 30
0.0
 10
9.7511202431
 20
7.0298299609
 30
0.0
 10
9.7628847749
 20
7.0268382237
 30
0.0
 10
9.7723724238
 20
7.024959686
 30
0.0
 10
9.7818751611
 20
7.0234295506
 30
0.0
 10
9.7890519702
 20
7.0226681358
 30
0.0
 10
9.7938401248
 20
7.0223360762
 30
0.0
  0
SPLINE
  5
39D
100
AcDbEntity
  8
0
100
AcDbSpline
 62
7
  6
CONTINUOUS
 70
0
 71
3
 72
43
 73
39
 74
0
 42
0.0000001
 43
0.0000001
 44
0.0000000001
 40
0.0
 40
0.0
 40
0.0
 40
0.0
 40
0.0309231087
 40
0.0619869875
 40
0.0931884132
 40
0.1245210342
 40
0.1559766128
 40
0.1875447576
 40
0.2192132208
 40
0.2509681017
 40
0.2827940897
 40
0.3146747222
 40
0.3465926562
 40
0.37852995
 40
0.4104683521
 40
0.4423895933
 40
0.4742756795
 40
0.5061091797
 40
0.5378735096
 40
0.569553205
 40
0.6011341818
 40
0.6326039794
 40
0.663951982
 40
0.6951696179
 40
0.7262505296
 40
0.7571907114
 40
0.78798861
 40
0.8186451853
 40
0.8339236671
 40
0.8491683402
 40
0.8643800287
 40
0.8795597129
 40
0.909823195
 40
0.9399739762
 40
0.9550133462
 40
0.9700295232
 40
0.9850244061
 40
1.0
 40
1.0
 40
1.0
 40
1.0
 10
9.8773680677
 20
8.9770836773
 30
0.0
 10
9.8773680677
 20
8.9659914937
 30
0.0
 10
9.878110103
 20
8.943749736
 30
0.0
 10
9.8814263995
 20
8.9104648458
 30
0.0
 10
9.8869334146
 20
8.8773214536
 30
0.0
 10
9.8946066633
 20
8.8444680478
 30
0.0
 10
9.9044119286
 20
8.8120494781
 30
0.0
 10
9.9163056882
 20
8.7802092309
 30
0.0
 10
9.9302351638
 20
8.7490880501
 30
0.0
 10
9.9461386081
 20
8.7188235257
 30
0.0
 10
9.9639455821
 20
8.6895494413
 30
0.0
 10
9.9835772633
 20
8.6613952046
 30
0.0
 10
10.0049467948
 20
8.6344852799
 30
0.0
 10
10.0279596564
 20
8.6089386382
 30
0.0
 10
10.052514069
 20
8.5848682222
 30
0.0
 10
10.0785014644
 20
8.5623804697
 30
0.0
 10
10.1058069566
 20
8.5415748457
 30
0.0
 10
10.1343098451
 20
8.5225434066
 30
0.0
 10
10.1638841422
 20
8.5053703987
 30
0.0
 10
10.1943991096
 20
8.4901318589
 30
0.0
 10
10.2257198463
 20
8.4768953019
 30
0.0
 10
10.2577078805
 20
8.4657194263
 30
0.0
 10
10.2902217644
 20
8.4566538514
 30
0.0
 10
10.3231177242
 20
8.4497389052
 30
0.0
 10
10.3562501642
 20
8.4450054028
 30
0.0
 10
10.3894727473
 20
8.4424745615
 30
0.0
 10
10.422637415
 20
8.4421577193
 30
0.0
 10
10.4501388699
 20
8.4437422965
 30
0.0
 10
10.47195882
 20
8.4461168901
 30
0.0
 10
10.4882012023
 20
8.4484455988
 30
0.0
 10
10.5043196891
 20
8.4513215626
 30
0.0
 10
10.5255982772
 20
8.4558762243
 30
0.0
 10
10.5518074051
 20
8.4629182432
 30
0.0
 10
10.5774173833
 20
8.4717461473
 30
0.0
 10
10.5974405964
 20
8.4798469653
 30
0.0
 10
10.6122022191
 20
8.4864305319
 30
0.0
 10
10.6267022261
 20
8.4935190799
 30
0.0
 10
10.6361901804
 20
8.4985795591
 30
0.0
 10
10.6408844679
 20
8.5011910052
 30
0.0
  0
SPLINE
  5
39E
100
AcDbEntity
  8
0
100
AcDbSpline
 62
7
  6
CONTINUOUS
 70
0
 71
3
 72
23
 73
19
 74
0
 42
0.0000001
 43
0.0000001
 44
0.0000000001
 40
0.0
 40
0.0
 40
0.0
 40
0.0
 40
0.063776909
 40
0.1273449468
 40
0.1907019575
 40
0.2538561145
 40
0.3168131979
 40
0.3795820804
 40
0.4421733815
 40
0.5045993354
 40
0.5668738682
 40
0.6290123838
 40
0.6910316538
 40
0.75294965
 40
0.8147853622
 40
0.8765586114
 40
0.9382898593
 40
1.0
 40
1.0
 40
1.0
 40
1.0
 10
9.4099030756
 20
9.6202323015
 30
0.0
 10
9.4099030756
 20
9.6248146047
 30
0.0
 10
9.41012241
 20
9.6339657562
 30
0.0
 10
9.411112332
 20
9.6476368086
 30
0.0
 10
9.4127605803
 20
9.6611995017
 30
0.0
 10
9.4150631937
 20
9.6746219777
 30
0.0
 10
9.418015039
 20
9.687873559
 30
0.0
 10
9.4216092889
 20
9.7009236123
 30
0.0
 10
9.4258376759
 20
9.7137420742
 30
0.0
 10
9.4306904881
 20
9.7262993851
 30
0.0
 10
9.4361565786
 20
9.7385665756
 30
0.0
 10
9.4422233673
 20
9.7505153501
 30
0.0
 10
9.4488768639
 20
9.7621181536
 30
0.0
 10
9.4561017485
 20
9.7733482272
 30
0.0
 10
9.4638813631
 20
9.7841796298
 30
0.0
 10
9.472197871
 20
9.7945874515
 30
0.0
 10
9.4810317526
 20
9.8045473658
 30
0.0
 10
9.4872535024
 20
9.8108745681
 30
0.0
 10
9.4904425326
 20
9.813954948
 30
0.0
  0
SPLINE
  5
39F
100
AcDbEntity
  8
0
100
AcDbSpline
 62
7
  6
CONTINUOUS
 70
0
 71
3
 72
39
 73
35
 74
0
 42
0.0000001
 43
0.0000001
 44
0.0000000001
 40
0.0
 40
0.0
 40
0.0
 40
0.0
 40
0.0309873312
 40
0.0621221417
 40
0.0934006973
 40
0.1248157546
 40
0.1563578743
 40
0.188015208
 40
0.2197738231
 40
0.2516179665
 40
0.2835303598
 40
0.3154925162
 40
0.3474850716
 40
0.3794881289
 40
0.4114816073
 40
0.4434455934
 40
0.4753606912
 40
0.5072083659
 40
0.5389712767
 40
0.5706335931
 40
0.6021812922
 40
0.6336024333
 40
0.6648873995
 40
0.6960291044
 40
0.7270231587
 40
0.7578679927
 40
0.788564928
 40
0.8191181921
 40
0.8495348753
 40
0.8798248271
 40
0.9100004934
 40
0.9400766884
 40
0.9700703096
 40
1.0
 40
1.0
 40
1.0
 40
1.0
 10
9.936155814
 20
8.9858682831
 30
0.0
 10
9.936155814
 20
8.9753366467
 30
0.0
 10
9.9368934067
 20
8.9542160872
 30
0.0
 10
9.9401885353
 20
8.9226197322
 30
0.0
 10
9.945658642
 20
8.8911776872
 30
0.0
 10
9.9532770712
 20
8.8600442461
 30
0.0
 10
9.9630066289
 20
8.8293697515
 30
0.0
 10
9.974799991
 20
8.7993029028
 30
0.0
 10
9.988599827
 20
8.7699892531
 30
0.0
 10
10.0043391477
 20
8.7415707455
 30
0.0
 10
10.0219416129
 20
8.7141849703
 30
0.0
 10
10.0413219038
 20
8.6879645311
 30
0.0
 10
10.0623860926
 20
8.6630363729
 30
0.0
 10
10.0850321319
 20
8.6395211971
 30
0.0
 10
10.1091503469
 20
8.6175328873
 30
0.0
 10
10.1346239625
 20
8.5971779686
 30
0.0
 10
10.1613296462
 20
8.5785550794
 30
0.0
 10
10.1891380919
 20
8.5617544773
 30
0.0
 10
10.2179146663
 20
8.546857642
 30
0.0
 10
10.2475200452
 20
8.5339368757
 30
0.0
 10
10.2778108808
 20
8.5230549634
 30
0.0
 10
10.3086404697
 20
8.514264819
 30
0.0
 10
10.3398594713
 20
8.507609256
 30
0.0
 10
10.3713166228
 20
8.5031207899
 30
0.0
 10
10.4028594599
 20
8.5008214747
 30
0.0
 10
10.4343350437
 20
8.5007227724
 30
0.0
 10
10.4655906987
 20
8.5028254516
 30
0.0
 10
10.4964747547
 20
8.5071196247
 30
0.0
 10
10.5268372619
 20
8.5135847611
 30
0.0
 10
10.556530772
 20
8.5221898204
 30
0.0
 10
10.5854108588
 20
8.5328931896
 30
0.0
 10
10.6133376199
 20
8.5456434492
 30
0.0
 10
10.6401734243
 20
8.5603775699
 30
0.0
 10
10.6572685784
 20
8.5714878173
 30
0.0
 10
10.6655853871
 20
8.5773447686
 30
0.0
  0
SPLINE
  5
3A0
100
AcDbEntity
  8
0
100
AcDbSpline
 62
7
  6
CONTINUOUS
 70
0
 71
3
 72
71
 73
67
 74
0
 42
0.0000001
 43
0.0000001
 44
0.0000000001
 40
0.0
 40
0.0
 40
0.0
 40
0.0
 40
0.0155843069
 40
0.0311159038
 40
0.0465952632
 40
0.0620238805
 40
0.077403449
 40
0.0927362827
 40
0.1080251225
 40
0.1232731731
 40
0.1384840552
 40
0.1536617763
 40
0.1688106901
 40
0.1839354535
 40
0.1990409788
 40
0.2141323827
 40
0.2292149324
 40
0.2442939898
 40
0.259374954
 40
0.2744632038
 40
0.2895640402
 40
0.3046826299
 40
0.3198239506
 40
0.3349927394
 40
0.3501934439
 40
0.3654301775
 40
0.3807066787
 40
0.3960262758
 40
0.4113918556
 40
0.4268058385
 40
0.4422701584
 40
0.4577862477
 40
0.4733550287
 40
0.4889769093
 40
0.5046517847
 40
0.520379043
 40
0.5361575765
 40
0.5519857969
 40
0.5678616545
 40
0.5837826615
 40
0.5997459177
 40
0.6157481411
 40
0.6317856992
 40
0.6478546443
 40
0.6639507502
 40
0.6800695513
 40
0.6962063822
 40
0.7123564202
 40
0.7285147273
 40
0.7446762933
 40
0.7608360801
 40
0.7769890646
 40
0.7931302832
 40
0.8092548748
 40
0.8253581236
 40
0.841435501
 40
0.8574827062
 40
0.8734957057
 40
0.889470771
 40
0.9054045125
 40
0.9212939181
 40
0.9371363645
 40
0.9529297054
 40
0.9686721205
 40
0.9843625712
 40
1.0
 40
1.0
 40
1.0
 40
1.0
 10
9.5982586516
 20
8.7619846499
 30
0.0
 10
9.5982586516
 20
8.770992968
 30
0.0
 10
9.5986994883
 20
8.7889823306
 30
0.0
 10
9.6006895286
 20
8.8158530764
 30
0.0
 10
9.6040026084
 20
8.8425030496
 30
0.0
 10
9.608630698
 20
8.8688670888
 30
0.0
 10
9.6145627939
 20
8.8948819554
 30
0.0
 10
9.6217846171
 20
8.9204848459
 30
0.0
 10
9.6302788452
 20
8.9456140601
 30
0.0
 10
9.6400250518
 20
8.9702089958
 30
0.0
 10
9.6509997987
 20
8.9942103396
 30
0.0
 10
9.6631766728
 20
9.0175601994
 30
0.0
 10
9.6765263562
 20
9.0402022488
 30
0.0
 10
9.6910166917
 20
9.0620818642
 30
0.0
 10
9.7066127594
 20
9.0831462606
 30
0.0
 10
9.7232769645
 20
9.103344619
 30
0.0
 10
9.7409691269
 20
9.1226282105
 30
0.0
 10
9.7596465798
 20
9.1409505166
 30
0.0
 10
9.7792642729
 20
9.158267342
 30
0.0
 10
9.7997748831
 20
9.1745369236
 30
0.0
 10
9.8211289297
 20
9.1897200316
 30
0.0
 10
9.8432748958
 20
9.2037800649
 30
0.0
 10
9.8661593544
 20
9.2166831404
 30
0.0
 10
9.8897270996
 20
9.2283981734
 30
0.0
 10
9.9139212796
 20
9.2388969562
 30
0.0
 10
9.9386835374
 20
9.2481542235
 30
0.0
 10
9.9639541537
 20
9.2561477109
 30
0.0
 10
9.9896721918
 20
9.2628582076
 30
0.0
 10
10.0157756463
 20
9.2682696007
 30
0.0
 10
10.0422015926
 20
9.2723689129
 30
0.0
 10
10.0688863393
 20
9.2751463316
 30
0.0
 10
10.0957655818
 20
9.2765952311
 30
0.0
 10
10.1227745571
 20
9.2767121868
 30
0.0
 10
10.1498481997
 20
9.2754969819
 30
0.0
 10
10.1769212971
 20
9.2729526066
 30
0.0
 10
10.2039286475
 20
9.2690852532
 30
0.0
 10
10.230805216
 20
9.2639042966
 30
0.0
 10
10.2574862897
 20
9.2574222704
 30
0.0
 10
10.2839076334
 20
9.249654836
 30
0.0
 10
10.3100056427
 20
9.240620744
 30
0.0
 10
10.335717496
 20
9.2303417893
 30
0.0
 10
10.360981305
 20
9.2188427576
 30
0.0
 10
10.3857362625
 20
9.2061513658
 30
0.0
 10
10.4099227878
 20
9.1922981958
 30
0.0
 10
10.433482669
 20
9.1773166198
 30
0.0
 10
10.4563592031
 20
9.1612427223
 30
0.0
 10
10.4784973334
 20
9.1441152144
 30
0.0
 10
10.4998437789
 20
9.1259753376
 30
0.0
 10
10.5203471627
 20
9.1068667655
 30
0.0
 10
10.5399581346
 20
9.0868354993
 30
0.0
 10
10.5586294893
 20
9.065929757
 30
0.0
 10
10.5763162795
 20
9.0441998587
 30
0.0
 10
10.5929759236
 20
9.0216981053
 30
0.0
 10
10.6085683075
 20
8.9984786539
 30
0.0
 10
10.6230558814
 20
8.9745973879
 30
0.0
 10
10.6364037489
 20
8.9501117831
 30
0.0
 10
10.6485797538
 20
8.9250807718
 30
0.0
 10
10.6595545576
 20
8.8995646002
 30
0.0
 10
10.6693017052
 20
8.8736246843
 30
0.0
 10
10.6777976963
 20
8.8473234603
 30
0.0
 10
10.6850220242
 20
8.8207242469
 30
0.0
 10
10.6909572691
 20
8.7938910491
 30
0.0
 10
10.6955890417
 20
8.7668885647
 30
0.0
 10
10.6989062138
 20
8.7397814997
 30
0.0
 10
10.700900627
 20
8.7126360851
 30
0.0
 10
10.7013459756
 20
8.6945243086
 30
0.0
 10
10.7013459756
 20
8.6854852841
 30
0.0
  0
LINE
  5
3A1
100
AcDbEntity
  8
0
100
AcDbLine
 62
7
  6
CONTINUOUS
 10
10.6576759674
 20
8.6539054233
 11
10.6779265329
 21
8.6578347713
  0
SPLINE
  5
3A2
100
AcDbEntity
  8
0
100
AcDbSpline
 62
7
  6
CONTINUOUS
 70
0
 71
3
 72
39
 73
35
 74
0
 42
0.0000001
 43
0.0000001
 44
0.0000000001
 40
0.0
 40
0.0
 40
0.0
 40
0.0
 40
0.0306778381
 40
0.0614699791
 40
0.0923741009
 40
0.1233871709
 40
0.1545045817
 40
0.185720703
 40
0.2170287558
 40
0.2484209685
 40
0.279888646
 40
0.3114222783
 40
0.3430116454
 40
0.3746459317
 40
0.4063138433
 40
0.4380037296
 40
0.4697037078
 40
0.501401788
 40
0.5330860009
 40
0.5647445232
 40
0.5963658038
 40
0.627938687
 40
0.6594525328
 40
0.6908973337
 40
0.7222638261
 40
0.7535435961
 40
0.7847291776
 40
0.8158141431
 40
0.8467931845
 40
0.8776621839
 40
0.9084182725
 40
0.9390598771
 40
0.9695867527
 40
1.0
 40
1.0
 40
1.0
 40
1.0
 10
10.1543400889
 20
9.1966181216
 30
0.0
 10
10.1543400889
 20
9.1884452957
 30
0.0
 10
10.1547839324
 20
9.1720658201
 30
0.0
 10
10.1567704853
 20
9.1475257353
 30
0.0
 10
10.1600732348
 20
9.1230371655
 30
0.0
 10
10.1646823865
 20
9.0986726833
 30
0.0
 10
10.1705844425
 20
9.0745031989
 30
0.0
 10
10.1777620598
 20
9.050599423
 30
0.0
 10
10.1861942155
 20
9.0270311738
 30
0.0
 10
10.1958562095
 20
9.0038673132
 30
0.0
 10
10.2067197647
 20
8.9811755094
 30
0.0
 10
10.2187530977
 20
8.9590220501
 30
0.0
 10
10.2319210167
 20
8.9374716484
 30
0.0
 10
10.2461850222
 20
8.9165872552
 30
0.0
 10
10.2615034199
 20
8.8964298762
 30
0.0
 10
10.2778314414
 20
8.8770583956
 30
0.0
 10
10.2951213752
 20
8.8585294041
 30
0.0
 10
10.3133227048
 20
8.8408970352
 30
0.0
 10
10.3323822556
 20
8.824212808
 30
0.0
 10
10.3522443497
 20
8.8085254768
 30
0.0
 10
10.3728509674
 20
8.7938808899
 30
0.0
 10
10.3941419154
 20
8.780321856
 30
0.0
 10
10.4160550016
 20
8.767888019
 30
0.0
 10
10.4385262159
 20
8.756615743
 30
0.0
 10
10.4614899156
 20
8.7465380065
 30
0.0
 10
10.4848790165
 20
8.7376843057
 30
0.0
 10
10.5086251861
 20
8.7300805684
 30
0.0
 10
10.5326590445
 20
8.7237490779
 30
0.0
 10
10.556910357
 20
8.7187084065
 30
0.0
 10
10.5813082688
 20
8.714973363
 30
0.0
 10
10.6057813965
 20
8.7125549389
 30
0.0
 10
10.6302584568
 20
8.711460309
 30
0.0
 10
10.6546669104
 20
8.7116926812
 30
0.0
 10
10.6708780799
 20
8.7127339797
 30
0.0
 10
10.6789463674
 20
8.7134760035
 30
0.0
  0
SPLINE
  5
3A3
100
AcDbEntity
  8
0
100
AcDbSpline
 62
7
  6
CONTINUOUS
 70
0
 71
3
 72
39
 73
35
 74
0
 42
0.0000001
 43
0.0000001
 44
0.0000000001
 40
0.0
 40
0.0
 40
0.0
 40
0.0
 40
0.0306707164
 40
0.0614549546
 40
0.0923502348
 40
0.1233537434
 40
0.1544609094
 40
0.1856662523
 40
0.2169631334
 40
0.248343951
 40
0.2798001927
 40
0.3113225446
 40
0.3429009913
 40
0.374524927
 40
0.4061832686
 40
0.4378645732
 40
0.469557159
 40
0.5012492267
 40
0.5329289826
 40
0.5645847611
 40
0.5962051464
 40
0.627779093
 40
0.6592960422
 40
0.690746036
 40
0.7221198262
 40
0.7534089777
 40
0.7846059651
 40
0.8157042618
 40
0.8466984207
 40
0.8775841449
 40
0.908358347
 40
0.939019197
 40
0.9695661566
 40
1.0
 40
1.0
 40
1.0
 40
1.0
 10
10.1910824304
 20
9.2021085003
 30
0.0
 10
10.1910824304
 20
9.1945175935
 30
0.0
 10
10.1914915112
 20
9.1793045986
 30
0.0
 10
10.1933225362
 20
9.1565114321
 30
0.0
 10
10.1963668411
 20
9.1337647222
 30
0.0
 10
10.2006154993
 20
9.1111308806
 30
0.0
 10
10.2060562845
 20
9.0886747561
 30
0.0
 10
10.2126734376
 20
9.0664610569
 30
0.0
 10
10.2204478793
 20
9.0445536747
 30
0.0
 10
10.2293571801
 20
9.023015646
 30
0.0
 10
10.2393756634
 20
9.0019089324
 30
0.0
 10
10.2504744642
 20
8.981294254
 30
0.0
 10
10.2626216179
 20
8.9612309131
 30
0.0
 10
10.2757821497
 20
8.941776626
 30
0.0
 10
10.2899181761
 20
8.9229873571
 30
0.0
 10
10.3049890128
 20
8.9049171599
 30
0.0
 10
10.3209512898
 20
8.8876180197
 30
0.0
 10
10.3377590778
 20
8.8711397074
 30
0.0
 10
10.3553640193
 20
8.8555296362
 30
0.0
 10
10.3737154672
 20
8.8408327263
 30
0.0
 10
10.3927606293
 20
8.8270912761
 30
0.0
 10
10.4124447195
 20
8.8143448412
 30
0.0
 10
10.4327111146
 20
8.8026301212
 30
0.0
 10
10.4535015154
 20
8.7919808541
 30
0.0
 10
10.4747561139
 20
8.7824277195
 30
0.0
 10
10.4964137639
 20
8.7739982509
 30
0.0
 10
10.5184121551
 20
8.7667167555
 30
0.0
 10
10.540687993
 20
8.7606042446
 30
0.0
 10
10.5631771722
 20
8.7556783718
 30
0.0
 10
10.5858149871
 20
8.7519533813
 30
0.0
 10
10.6085362137
 20
8.7494400605
 30
0.0
 10
10.6312756809
 20
8.7481457377
 30
0.0
 10
10.6539670299
 20
8.748074145
 30
0.0
 10
10.6690487728
 20
8.7488433462
 30
0.0
 10
10.6765579999
 20
8.7494322201
 30
0.0
  0
SPLINE
  5
3A4
100
AcDbEntity
  8
0
100
AcDbSpline
 62
7
  6
CONTINUOUS
 70
0
 71
3
 72
23
 73
19
 74
0
 42
0.0000001
 43
0.0000001
 44
0.0000000001
 40
0.0
 40
0.0
 40
0.0
 40
0.0
 40
0.061876191
 40
0.1239897797
 40
0.1863153395
 40
0.2488236211
 40
0.3114821201
 40
0.3742556726
 40
0.4371070906
 40
0.4999978224
 40
0.5628886287
 40
0.6257402695
 40
0.688514189
 40
0.751173193
 40
0.8136821088
 40
0.8760084198
 40
0.9381228659
 40
1.0
 40
1.0
 40
1.0
 40
1.0
 10
10.3727523655
 20
9.1916968494
 30
0.0
 10
10.374633647
 20
9.1840828753
 30
0.0
 10
10.378919405
 20
9.1689480527
 30
0.0
 10
10.3868610486
 20
9.1466899652
 30
0.0
 10
10.3962915031
 20
9.1249323042
 30
0.0
 10
10.4071647975
 20
9.1037814169
 30
0.0
 10
10.4194284492
 20
9.0833389766
 30
0.0
 10
10.4330231791
 20
9.0637037037
 30
0.0
 10
10.4478833395
 20
9.0449703014
 30
0.0
 10
10.4639371917
 20
9.0272291637
 30
0.0
 10
10.4811072555
 20
9.0105658989
 30
0.0
 10
10.4993106772
 20
8.995060926
 30
0.0
 10
10.5184596224
 20
8.980789096
 30
0.0
 10
10.5384617365
 20
8.967819322
 30
0.0
 10
10.5592204279
 20
8.9562142946
 30
0.0
 10
10.5806359158
 20
8.9460300114
 30
0.0
 10
10.6026035234
 20
8.9373161368
 30
0.0
 10
10.6175797254
 20
8.9325045751
 30
0.0
 10
10.6251235007
 20
8.9303586137
 30
0.0
  0
SPLINE
  5
3A5
100
AcDbEntity
  8
0
100
AcDbSpline
 62
7
  6
CONTINUOUS
 70
0
 71
3
 72
24
 73
20
 74
0
 42
0.0000001
 43
0.0000001
 44
0.0000000001
 40
0.0
 40
0.0
 40
0.0
 40
0.0
 40
0.0637773023
 40
0.1273439637
 40
0.1907010681
 40
0.2538548417
 40
0.3168115636
 40
0.379580162
 40
0.4421711307
 40
0.5045967669
 40
0.5668709778
 40
0.6290091748
 40
0.691028128
 40
0.7529458054
 40
0.8147811982
 40
0.8765541325
 40
0.9074261016
 40
0.9382901687
 40
1.0
 40
1.0
 40
1.0
 40
1.0
 10
10.5412982459
 20
7.7389651611
 30
0.0
 10
10.5412982459
 20
7.7472967578
 30
0.0
 10
10.5416970016
 20
7.7639352583
 30
0.0
 10
10.5434969384
 20
7.7887918499
 30
0.0
 10
10.5464937376
 20
7.8134513298
 30
0.0
 10
10.5506803956
 20
7.8378559874
 30
0.0
 10
10.5560474304
 20
7.8619498814
 30
0.0
 10
10.5625824681
 20
7.8856773691
 30
0.0
 10
10.5702705264
 20
7.9089837722
 30
0.0
 10
10.5790939263
 20
7.9318153381
 30
0.0
 10
10.5890323754
 20
7.9541194093
 30
0.0
 10
10.6000629991
 20
7.9758445467
 30
0.0
 10
10.6121603779
 20
7.9969406154
 30
0.0
 10
10.625296711
 20
8.0173590258
 30
0.0
 10
10.6394414765
 20
8.0370523804
 30
0.0
 10
10.6520452741
 20
8.0528254906
 30
0.0
 10
10.6625967141
 20
8.0650339682
 30
0.0
 10
10.6734525942
 20
8.0769609515
 30
0.0
 10
10.6819367788
 20
8.0855888384
 30
0.0
 10
10.6877350531
 20
8.0911895504
 30
0.0
  0
SPLINE
  5
3A6
100
AcDbEntity
  8
0
100
AcDbSpline
 62
7
  6
CONTINUOUS
 70
0
 71
3
 72
71
 73
67
 74
0
 42
0.0000001
 43
0.0000001
 44
0.0000000001
 40
0.0
 40
0.0
 40
0.0
 40
0.0
 40
0.0155843069
 40
0.0311159038
 40
0.0465952632
 40
0.0620238805
 40
0.077403449
 40
0.0927362827
 40
0.1080251225
 40
0.1232731731
 40
0.1384840552
 40
0.1536617763
 40
0.1688106901
 40
0.1839354535
 40
0.1990409788
 40
0.2141323827
 40
0.2292149324
 40
0.2442939898
 40
0.259374954
 40
0.2744632038
 40
0.2895640402
 40
0.3046826299
 40
0.3198239506
 40
0.3349927394
 40
0.3501934439
 40
0.3654301775
 40
0.3807066787
 40
0.3960262758
 40
0.4113918556
 40
0.4268058385
 40
0.4422701584
 40
0.4577862477
 40
0.4733550287
 40
0.4889769093
 40
0.5046517847
 40
0.520379043
 40
0.5361575765
 40
0.5519857969
 40
0.5678616545
 40
0.5837826615
 40
0.5997459177
 40
0.6157481411
 40
0.6317856992
 40
0.6478546443
 40
0.6639507502
 40
0.6800695513
 40
0.6962063822
 40
0.7123564202
 40
0.7285147273
 40
0.7446762933
 40
0.7608360801
 40
0.7769890646
 40
0.7931302832
 40
0.8092548748
 40
0.8253581236
 40
0.841435501
 40
0.8574827062
 40
0.8734957057
 40
0.889470771
 40
0.9054045125
 40
0.9212939181
 40
0.9371363645
 40
0.9529297054
 40
0.9686721205
 40
0.9843625712
 40
1.0
 40
1.0
 40
1.0
 40
1.0
 10
10.7013459756
 20
8.6854852841
 30
0.0
 10
10.7013459756
 20
8.6764769661
 30
0.0
 10
10.700905139
 20
8.6584876034
 30
0.0
 10
10.6989150986
 20
8.6316168577
 30
0.0
 10
10.6956020189
 20
8.6049668844
 30
0.0
 10
10.6909739293
 20
8.5786028453
 30
0.0
 10
10.6850418333
 20
8.5525879786
 30
0.0
 10
10.6778200102
 20
8.5269850881
 30
0.0
 10
10.669325782
 20
8.501855874
 30
0.0
 10
10.6595795754
 20
8.4772609382
 30
0.0
 10
10.6486048286
 20
8.4532595945
 30
0.0
 10
10.6364279544
 20
8.4299097346
 30
0.0
 10
10.623078271
 20
8.4072676853
 30
0.0
 10
10.6085879356
 20
8.3853880698
 30
0.0
 10
10.5929918678
 20
8.3643236734
 30
0.0
 10
10.5763276628
 20
8.3441253151
 30
0.0
 10
10.5586355003
 20
8.3248417235
 30
0.0
 10
10.5399580475
 20
8.3065194175
 30
0.0
 10
10.5203403543
 20
8.289202592
 30
0.0
 10
10.4998297441
 20
8.2729330104
 30
0.0
 10
10.4784756976
 20
8.2577499024
 30
0.0
 10
10.4563297315
 20
8.2436898691
 30
0.0
 10
10.4334452728
 20
8.2307867936
 30
0.0
 10
10.4098775276
 20
8.2190717606
 30
0.0
 10
10.3856833476
 20
8.2085729778
 30
0.0
 10
10.3609210898
 20
8.1993157105
 30
0.0
 10
10.3356504736
 20
8.1913222231
 30
0.0
 10
10.3099324354
 20
8.1846117265
 30
0.0
 10
10.2838289809
 20
8.1792003333
 30
0.0
 10
10.2574030346
 20
8.1751010211
 30
0.0
 10
10.230718288
 20
8.1723236024
 30
0.0
 10
10.2038390455
 20
8.1708747029
 30
0.0
 10
10.1768300701
 20
8.1707577472
 30
0.0
 10
10.1497564276
 20
8.1719729521
 30
0.0
 10
10.1226833302
 20
8.1745173275
 30
0.0
 10
10.0956759797
 20
8.1783846808
 30
0.0
 10
10.0687994113
 20
8.1835656374
 30
0.0
 10
10.0421183375
 20
8.1900476636
 30
0.0
 10
10.0156969938
 20
8.197815098
 30
0.0
 10
9.9895989846
 20
8.20684919
 30
0.0
 10
9.9638871313
 20
8.2171281447
 30
0.0
 10
9.9386233222
 20
8.2286271764
 30
0.0
 10
9.9138683647
 20
8.2413185682
 30
0.0
 10
9.8896818394
 20
8.2551717383
 30
0.0
 10
9.8661219583
 20
8.2701533143
 30
0.0
 10
9.8432454241
 20
8.2862272117
 30
0.0
 10
9.8211072939
 20
8.3033547196
 30
0.0
 10
9.7997608483
 20
8.3214945965
 30
0.0
 10
9.7792574645
 20
8.3406031685
 30
0.0
 10
9.7596464926
 20
8.3606344348
 30
0.0
 10
9.7409751379
 20
8.381540177
 30
0.0
 10
9.7232883477
 20
8.4032700753
 30
0.0
 10
9.7066287036
 20
8.4257718287
 30
0.0
 10
9.6910363197
 20
8.4489912801
 30
0.0
 10
9.6765487458
 20
8.4728725461
 30
0.0
 10
9.6632008784
 20
8.4973581509
 30
0.0
 10
9.6510248734
 20
8.5223891622
 30
0.0
 10
9.6400500697
 20
8.5479053338
 30
0.0
 10
9.630302922
 20
8.5738452497
 30
0.0
 10
9.6218069309
 20
8.6001464737
 30
0.0
 10
9.6145826031
 20
8.6267456871
 30
0.0
 10
9.6086473581
 20
8.6535788849
 30
0.0
 10
9.6040155856
 20
8.6805813693
 30
0.0
 10
9.6006984134
 20
8.7076884344
 30
0.0
 10
9.5987040002
 20
8.734833849
 30
0.0
 10
9.5982586516
 20
8.7529456254
 30
0.0
 10
9.5982586516
 20
8.7619846499
 30
0.0
  0
SPLINE
  5
3A7
100
AcDbEntity
  8
0
100
AcDbSpline
 62
7
  6
CONTINUOUS
 70
0
 71
3
 72
43
 73
39
 74
0
 42
0.0000001
 43
0.0000001
 44
0.0000000001
 40
0.0
 40
0.0
 40
0.0
 40
0.0
 40
0.0309200949
 40
0.0619806449
 40
0.0931784448
 40
0.1245071939
 40
0.1559586999
 40
0.1875226401
 40
0.2191868416
 40
0.2509374875
 40
0.2827593569
 40
0.3146360794
 40
0.3465504048
 40
0.3784844817
 40
0.4104201444
 40
0.4423392021
 40
0.4742237282
 40
0.5060563471
 40
0.537820516
 40
0.569500795
 40
0.6010831055
 40
0.6325549714
 40
0.6639057418
 40
0.695126789
 40
0.7262116772
 40
0.7571562999
 40
0.7879589823
 40
0.8186205447
 40
0.8339015392
 40
0.849148713
 40
0.8643628743
 40
0.8795449782
 40
0.9098130746
 40
0.9399679818
 40
0.9550091618
 40
0.9700269554
 40
0.985023242
 40
1.0
 40
1.0
 40
1.0
 40
1.0
 10
10.719365602
 20
7.9109650294
 30
0.0
 10
10.719365602
 20
7.8993936113
 30
0.0
 10
10.7201379929
 20
7.8761910487
 30
0.0
 10
10.7235900141
 20
7.8414677793
 30
0.0
 10
10.729322498
 20
7.8068911242
 30
0.0
 10
10.7373100654
 20
7.7726153164
 30
0.0
 10
10.7475172642
 20
7.7387908175
 30
0.0
 10
10.759898981
 20
7.7055666853
 30
0.0
 10
10.7744005018
 20
7.6730891342
 30
0.0
 10
10.7909578293
 20
7.6415011259
 30
0.0
 10
10.8094979515
 20
7.610941686
 30
0.0
 10
10.8299391669
 20
7.5815453201
 30
0.0
 10
10.8521914293
 20
7.553441417
 30
0.0
 10
10.8761567246
 20
7.5267536681
 30
0.0
 10
10.9017295323
 20
7.5015995504
 30
0.0
 10
10.928797279
 20
7.4780898118
 30
0.0
 10
10.9572408329
 20
7.4563279934
 30
0.0
 10
10.986935009
 20
7.4364099613
 30
0.0
 10
11.0177491101
 20
7.4184234732
 30
0.0
 10
11.0495475183
 20
7.4024478238
 30
0.0
 10
11.0821902779
 20
7.388553491
 30
0.0
 10
11.1155337083
 20
7.3768018348
 30
0.0
 10
11.1494310099
 20
7.3672447973
 30
0.0
 10
11.18373294
 20
7.3599246731
 30
0.0
 10
11.2182883483
 20
7.3548739322
 30
0.0
 10
11.2529452846
 20
7.3521151255
 30
0.0
 10
11.2875499776
 20
7.3516605582
 30
0.0
 10
11.3162528998
 20
7.3532060754
 30
0.0
 10
11.3390309924
 20
7.3555950282
 30
0.0
 10
11.3559890859
 20
7.3579573625
 30
0.0
 10
11.3728204384
 20
7.3608895806
 30
0.0
 10
11.3950436351
 20
7.3655494853
 30
0.0
 10
11.4224231652
 20
7.3727793826
 30
0.0
 10
11.4491870253
 20
7.3818704638
 30
0.0
 10
11.4701189539
 20
7.3902261555
 30
0.0
 10
11.4855538002
 20
7.3970226356
 30
0.0
 10
11.5007186419
 20
7.4043457823
 30
0.0
 10
11.5106441123
 20
7.4095772154
 30
0.0
 10
11.5155555145
 20
7.4122776622
 30
0.0
  0
SPLINE
  5
3A8
100
AcDbEntity
  8
0
100
AcDbSpline
 62
7
  6
CONTINUOUS
 70
0
 71
3
 72
15
 73
11
 74
0
 42
0.0000001
 43
0.0000001
 44
0.0000000001
 40
0.0
 40
0.0
 40
0.0
 40
0.0
 40
0.1268033001
 40
0.2530381613
 40
0.3787210585
 40
0.5038750295
 40
0.6285337668
 40
0.7527393978
 40
0.8765422606
 40
1.0
 40
1.0
 40
1.0
 40
1.0
 10
10.719365602
 20
7.9109650294
 30
0.0
 10
10.719365602
 20
7.9222332446
 30
0.0
 10
10.7200947399
 20
7.9447262079
 30
0.0
 10
10.7233888466
 20
7.978242465
 30
0.0
 10
10.7288671123
 20
8.0113249034
 30
0.0
 10
10.7365067966
 20
8.0438321059
 30
0.0
 10
10.7462757544
 20
8.0756270655
 30
0.0
 10
10.7581332791
 20
8.1065757943
 30
0.0
 10
10.7720284293
 20
8.1365457256
 30
0.0
 10
10.7826268339
 20
8.1558166442
 30
0.0
 10
10.7882425845
 20
8.1652413112
 30
0.0
  0
SPLINE
  5
3A9
100
AcDbEntity
  8
0
100
AcDbSpline
 62
7
  6
CONTINUOUS
 70
0
 71
3
 72
15
 73
11
 74
0
 42
0.0000001
 43
0.0000001
 44
0.0000000001
 40
0.0
 40
0.0
 40
0.0
 40
0.0
 40
0.1269213659
 40
0.2532262313
 40
0.3789352974
 40
0.504078294
 40
0.6286979202
 40
0.7528476491
 40
0.8765909448
 40
1.0
 40
1.0
 40
1.0
 40
1.0
 10
10.7319226385
 20
7.9100941959
 30
0.0
 10
10.7319226385
 20
7.9220234176
 30
0.0
 10
10.732759935
 20
7.9458327178
 30
0.0
 10
10.7365434896
 20
7.9812760708
 30
0.0
 10
10.7428330054
 20
8.0161939705
 30
0.0
 10
10.7515977575
 20
8.0504106532
 30
0.0
 10
10.762794396
 20
8.0837563025
 30
0.0
 10
10.7763679348
 20
8.1160654227
 30
0.0
 10
10.7922497094
 20
8.1471750553
 30
0.0
 10
10.804341157
 20
8.167039814
 30
0.0
 10
10.810740115
 20
8.1767141368
 30
0.0
  0
SPLINE
  5
3AA
100
AcDbEntity
  8
0
100
AcDbSpline
 62
7
  6
CONTINUOUS
 70
0
 71
3
 72
19
 73
15
 74
0
 42
0.0000001
 43
0.0000001
 44
0.0000000001
 40
0.0
 40
0.0
 40
0.0
 40
0.0
 40
0.1269798727
 40
0.2533130019
 40
0.3790229186
 40
0.5041442905
 40
0.5665107241
 40
0.6287495081
 40
0.690868719
 40
0.7528771298
 40
0.8147841628
 40
0.876599854
 40
0.9383347815
 40
1.0
 40
1.0
 40
1.0
 40
1.0
 10
10.7467718776
 20
7.9139374604
 30
0.0
 10
10.7467718776
 20
7.9262087065
 30
0.0
 10
10.7476758395
 20
7.9506986371
 30
0.0
 10
10.751761306
 20
7.9871318949
 30
0.0
 10
10.7585502643
 20
8.0229781305
 30
0.0
 10
10.7664406416
 20
8.0522322075
 30
0.0
 10
10.7740616932
 20
8.0751359002
 30
0.0
 10
10.7804175858
 20
8.0920294467
 30
0.0
 10
10.7874103058
 20
8.1086316985
 30
0.0
 10
10.7950303933
 20
8.1249202431
 30
0.0
 10
10.8032674243
 20
8.1408726427
 30
0.0
 10
10.8121101272
 20
8.1564671832
 30
0.0
 10
10.8215462191
 20
8.1716821839
 30
0.0
 10
10.828227838
 20
8.181564294
 30
0.0
 10
10.8316625546
 20
8.1864341794
 30
0.0
  0
SPLINE
  5
3AB
100
AcDbEntity
  8
0
100
AcDbSpline
 62
7
  6
CONTINUOUS
 70
0
 71
3
 72
15
 73
11
 74
0
 42
0.0000001
 43
0.0000001
 44
0.0000000001
 40
0.0
 40
0.0
 40
0.0
 40
0.0
 40
0.1268165568
 40
0.2530594331
 40
0.3787455445
 40
0.5038985704
 40
0.6285531481
 40
0.7527525473
 40
0.8765484511
 40
1.0
 40
1.0
 40
1.0
 40
1.0
 10
10.7824405979
 20
7.9483908006
 30
0.0
 10
10.7824405979
 20
7.9592682207
 30
0.0
 10
10.7831509458
 20
7.980980785
 30
0.0
 10
10.7863602436
 20
8.0133308737
 30
0.0
 10
10.7916972253
 20
8.0452557985
 30
0.0
 10
10.7991393273
 20
8.0766165469
 30
0.0
 10
10.8086546523
 20
8.1072784804
 30
0.0
 10
10.8202028096
 20
8.1371099778
 30
0.0
 10
10.8337332717
 20
8.1659808713
 30
0.0
 10
10.844051538
 20
8.1845317092
 30
0.0
 10
10.8495181537
 20
8.1936002628
 30
0.0
  0
SPLINE
  5
3AC
100
AcDbEntity
  8
0
100
AcDbSpline
 62
7
  6
CONTINUOUS
 70
0
 71
3
 72
71
 73
67
 74
0
 42
0.0000001
 43
0.0000001
 44
0.0000000001
 40
0.0
 40
0.0
 40
0.0
 40
0.0
 40
0.0155843069
 40
0.0311159038
 40
0.0465952632
 40
0.0620238805
 40
0.077403449
 40
0.0927362827
 40
0.1080251225
 40
0.1232731731
 40
0.1384840552
 40
0.1536617763
 40
0.1688106901
 40
0.1839354535
 40
0.1990409788
 40
0.2141323827
 40
0.2292149324
 40
0.2442939898
 40
0.259374954
 40
0.2744632038
 40
0.2895640402
 40
0.3046826299
 40
0.3198239506
 40
0.3349927394
 40
0.3501934439
 40
0.3654301775
 40
0.3807066787
 40
0.3960262758
 40
0.4113918556
 40
0.4268058385
 40
0.4422701584
 40
0.4577862477
 40
0.4733550287
 40
0.4889769093
 40
0.5046517847
 40
0.520379043
 40
0.5361575765
 40
0.5519857969
 40
0.5678616545
 40
0.5837826615
 40
0.5997459177
 40
0.6157481411
 40
0.6317856992
 40
0.6478546443
 40
0.6639507502
 40
0.6800695513
 40
0.6962063822
 40
0.7123564202
 40
0.7285147273
 40
0.7446762933
 40
0.7608360801
 40
0.7769890646
 40
0.7931302832
 40
0.8092548748
 40
0.8253581236
 40
0.841435501
 40
0.8574827062
 40
0.8734957057
 40
0.889470771
 40
0.9054045125
 40
0.9212939181
 40
0.9371363645
 40
0.9529297054
 40
0.9686721205
 40
0.9843625712
 40
1.0
 40
1.0
 40
1.0
 40
1.0
 10
10.5033311819
 20
7.7332917732
 30
0.0
 10
10.5033311819
 20
7.7423000913
 30
0.0
 10
10.5037720186
 20
7.7602894539
 30
0.0
 10
10.5057620589
 20
7.7871601997
 30
0.0
 10
10.5090751387
 20
7.8138101729
 30
0.0
 10
10.5137032283
 20
7.8401742121
 30
0.0
 10
10.5196353242
 20
7.8661890787
 30
0.0
 10
10.5268571474
 20
7.8917919692
 30
0.0
 10
10.5353513755
 20
7.9169211834
 30
0.0
 10
10.5450975821
 20
7.9415161191
 30
0.0
 10
10.556072329
 20
7.9655174629
 30
0.0
 10
10.5682492031
 20
7.9888673228
 30
0.0
 10
10.5815988865
 20
8.0115093721
 30
0.0
 10
10.596089222
 20
8.0333889875
 30
0.0
 10
10.6116852897
 20
8.0544533839
 30
0.0
 10
10.6283494947
 20
8.0746517423
 30
0.0
 10
10.6460416572
 20
8.0939353338
 30
0.0
 10
10.6647191101
 20
8.1122576399
 30
0.0
 10
10.6843368032
 20
8.1295744654
 30
0.0
 10
10.7048474134
 20
8.145844047
 30
0.0
 10
10.72620146
 20
8.1610271549
 30
0.0
 10
10.7483474261
 20
8.1750871882
 30
0.0
 10
10.7712318847
 20
8.1879902637
 30
0.0
 10
10.7947996299
 20
8.1997052968
 30
0.0
 10
10.8189938099
 20
8.2102040795
 30
0.0
 10
10.8437560677
 20
8.2194613468
 30
0.0
 10
10.8690266839
 20
8.2274548342
 30
0.0
 10
10.8947447221
 20
8.2341653309
 30
0.0
 10
10.9208481766
 20
8.239576724
 30
0.0
 10
10.9472741229
 20
8.2436760362
 30
0.0
 10
10.9739588696
 20
8.2464534549
 30
0.0
 10
11.0008381121
 20
8.2479023544
 30
0.0
 10
11.0278470874
 20
8.2480193101
 30
0.0
 10
11.0549207299
 20
8.2468041052
 30
0.0
 10
11.0819938274
 20
8.2442597299
 30
0.0
 10
11.1090011778
 20
8.2403923765
 30
0.0
 10
11.1358777462
 20
8.23521142
 30
0.0
 10
11.16255882
 20
8.2287293938
 30
0.0
 10
11.1889801637
 20
8.2209619593
 30
0.0
 10
11.215078173
 20
8.2119278674
 30
0.0
 10
11.2407900263
 20
8.2016489126
 30
0.0
 10
11.2660538353
 20
8.1901498809
 30
0.0
 10
11.2908087928
 20
8.1774584891
 30
0.0
 10
11.3149953181
 20
8.1636053191
 30
0.0
 10
11.3385551993
 20
8.1486237431
 30
0.0
 10
11.3614317334
 20
8.1325498456
 30
0.0
 10
11.3835698637
 20
8.1154223377
 30
0.0
 10
11.4049163092
 20
8.0972824609
 30
0.0
 10
11.425419693
 20
8.0781738888
 30
0.0
 10
11.4450306649
 20
8.0581426226
 30
0.0
 10
11.4637020196
 20
8.0372368803
 30
0.0
 10
11.4813888098
 20
8.015506982
 30
0.0
 10
11.4980484539
 20
7.9930052287
 30
0.0
 10
11.5136408378
 20
7.9697857772
 30
0.0
 10
11.5281284117
 20
7.9459045112
 30
0.0
 10
11.5414762791
 20
7.9214189064
 30
0.0
 10
11.5536522841
 20
7.8963878951
 30
0.0
 10
11.5646270878
 20
7.8708717235
 30
0.0
 10
11.5743742355
 20
7.8449318076
 30
0.0
 10
11.5828702266
 20
7.8186305836
 30
0.0
 10
11.5900945545
 20
7.7920313702
 30
0.0
 10
11.5960297994
 20
7.7651981725
 30
0.0
 10
11.600661572
 20
7.738195688
 30
0.0
 10
11.6039787441
 20
7.711088623
 30
0.0
 10
11.6059731573
 20
7.6839432084
 30
0.0
 10
11.6064185059
 20
7.665831432
 30
0.0
 10
11.6064185059
 20
7.6567924075
 30
0.0
  0
SPLINE
  5
3AD
100
AcDbEntity
  8
0
100
AcDbSpline
 62
7
  6
CONTINUOUS
 70
0
 71
3
 72
25
 73
21
 74
0
 42
0.0000001
 43
0.0000001
 44
0.0000000001
 40
0.0
 40
0.0
 40
0.0
 40
0.0
 40
0.1203857812
 40
0.2282203475
 40
0.3251915564
 40
0.4127062064
 40
0.4919098718
 40
0.5637335282
 40
0.6289396263
 40
0.6881491714
 40
0.7418878609
 40
0.7906040672
 40
0.8346913956
 40
0.8745270394
 40
0.9104837484
 40
0.9429920561
 40
0.9581219242
 40
0.9726015889
 40
0.9865247796
 40
1.0
 40
1.0
 40
1.0
 40
1.0
 10
10.9857542151
 20
8.2238373375
 30
0.0
 10
10.9846784762
 20
8.2221441332
 30
0.0
 10
10.9825948196
 20
8.2189620395
 30
0.0
 10
10.9794849091
 20
8.2145233949
 30
0.0
 10
10.9765561219
 20
8.210629945
 30
0.0
 10
10.973788167
 20
8.2072160981
 30
0.0
 10
10.9711646646
 20
8.2042284686
 30
0.0
 10
10.9686728532
 20
8.2016241809
 30
0.0
 10
10.9663033049
 20
8.1993688038
 30
0.0
 10
10.9640488739
 20
8.1974351176
 30
0.0
 10
10.9619048819
 20
8.1958013255
 30
0.0
 10
10.9598683933
 20
8.1944503026
 30
0.0
 10
10.9579378448
 20
8.1933693194
 30
0.0
 10
10.9561132968
 20
8.1925484746
 30
0.0
 10
10.9543958778
 20
8.1919824843
 30
0.0
 10
10.9530237321
 20
8.1917144344
 30
0.0
 10
10.9519905219
 20
8.1916367082
 30
0.0
 10
10.9512641761
 20
8.1916435951
 30
0.0
 10
10.9505689694
 20
8.1917149108
 30
0.0
 10
10.9501208843
 20
8.1918075599
 30
0.0
 10
10.9499038486
 20
8.1918651331
 30
0.0
  0
SPLINE
  5
3AE
100
AcDbEntity
  8
0
100
AcDbSpline
 62
7
  6
CONTINUOUS
 70
0
 71
3
 72
71
 73
67
 74
0
 42
0.0000001
 43
0.0000001
 44
0.0000000001
 40
0.0
 40
0.0
 40
0.0
 40
0.0
 40
0.0155843069
 40
0.0311159038
 40
0.0465952632
 40
0.0620238805
 40
0.077403449
 40
0.0927362827
 40
0.1080251225
 40
0.1232731731
 40
0.1384840552
 40
0.1536617763
 40
0.1688106901
 40
0.1839354535
 40
0.1990409788
 40
0.2141323827
 40
0.2292149324
 40
0.2442939898
 40
0.259374954
 40
0.2744632038
 40
0.2895640402
 40
0.3046826299
 40
0.3198239506
 40
0.3349927394
 40
0.3501934439
 40
0.3654301775
 40
0.3807066787
 40
0.3960262758
 40
0.4113918556
 40
0.4268058385
 40
0.4422701584
 40
0.4577862477
 40
0.4733550287
 40
0.4889769093
 40
0.5046517847
 40
0.520379043
 40
0.5361575765
 40
0.5519857969
 40
0.5678616545
 40
0.5837826615
 40
0.5997459177
 40
0.6157481411
 40
0.6317856992
 40
0.6478546443
 40
0.6639507502
 40
0.6800695513
 40
0.6962063822
 40
0.7123564202
 40
0.7285147273
 40
0.7446762933
 40
0.7608360801
 40
0.7769890646
 40
0.7931302832
 40
0.8092548748
 40
0.8253581236
 40
0.841435501
 40
0.8574827062
 40
0.8734957057
 40
0.889470771
 40
0.9054045125
 40
0.9212939181
 40
0.9371363645
 40
0.9529297054
 40
0.9686721205
 40
0.9843625712
 40
1.0
 40
1.0
 40
1.0
 40
1.0
 10
11.6064185059
 20
7.6567924075
 30
0.0
 10
11.6064185059
 20
7.6477840894
 30
0.0
 10
11.6059776693
 20
7.6297947267
 30
0.0
 10
11.6039876289
 20
7.602923981
 30
0.0
 10
11.6006745491
 20
7.5762740077
 30
0.0
 10
11.5960464595
 20
7.5499099686
 30
0.0
 10
11.5901143636
 20
7.523895102
 30
0.0
 10
11.5828925404
 20
7.4982922114
 30
0.0
 10
11.5743983123
 20
7.4731629973
 30
0.0
 10
11.5646521057
 20
7.4485680615
 30
0.0
 10
11.5536773589
 20
7.4245667178
 30
0.0
 10
11.5415004847
 20
7.4012168579
 30
0.0
 10
11.5281508013
 20
7.3785748086
 30
0.0
 10
11.5136604659
 20
7.3566951932
 30
0.0
 10
11.4980643981
 20
7.3356307967
 30
0.0
 10
11.4814001931
 20
7.3154324384
 30
0.0
 10
11.4637080306
 20
7.2961488468
 30
0.0
 10
11.4450305778
 20
7.2778265408
 30
0.0
 10
11.4254128846
 20
7.2605097153
 30
0.0
 10
11.4049022744
 20
7.2442401337
 30
0.0
 10
11.3835482278
 20
7.2290570258
 30
0.0
 10
11.3614022618
 20
7.2149969924
 30
0.0
 10
11.3385178031
 20
7.2020939169
 30
0.0
 10
11.3149500579
 20
7.1903788839
 30
0.0
 10
11.2907558779
 20
7.1798801011
 30
0.0
 10
11.2659936201
 20
7.1706228338
 30
0.0
 10
11.2407230039
 20
7.1626293464
 30
0.0
 10
11.2150049657
 20
7.1559188498
 30
0.0
 10
11.1889015112
 20
7.1505074566
 30
0.0
 10
11.1624755649
 20
7.1464081445
 30
0.0
 10
11.1357908183
 20
7.1436307257
 30
0.0
 10
11.1089115758
 20
7.1421818262
 30
0.0
 10
11.0819026004
 20
7.1420648705
 30
0.0
 10
11.0548289579
 20
7.1432800754
 30
0.0
 10
11.0277558605
 20
7.1458244508
 30
0.0
 10
11.00074851
 20
7.1496918041
 30
0.0
 10
10.9738719416
 20
7.1548727607
 30
0.0
 10
10.9471908678
 20
7.1613547869
 30
0.0
 10
10.9207695241
 20
7.1691222214
 30
0.0
 10
10.8946715149
 20
7.1781563133
 30
0.0
 10
10.8689596615
 20
7.188435268
 30
0.0
 10
10.8436958525
 20
7.1999342998
 30
0.0
 10
10.818940895
 20
7.2126256915
 30
0.0
 10
10.7947543697
 20
7.2264788616
 30
0.0
 10
10.7711944885
 20
7.2414604376
 30
0.0
 10
10.7483179544
 20
7.257534335
 30
0.0
 10
10.7261798242
 20
7.2746618429
 30
0.0
 10
10.7048333786
 20
7.2928017198
 30
0.0
 10
10.6843299948
 20
7.3119102918
 30
0.0
 10
10.6647190229
 20
7.3319415581
 30
0.0
 10
10.6460476682
 20
7.3528473003
 30
0.0
 10
10.628360878
 20
7.3745771986
 30
0.0
 10
10.6117012339
 20
7.397078952
 30
0.0
 10
10.59610885
 20
7.4202984034
 30
0.0
 10
10.5816212761
 20
7.4441796694
 30
0.0
 10
10.5682734087
 20
7.4686652742
 30
0.0
 10
10.5560974037
 20
7.4936962855
 30
0.0
 10
10.5451226
 20
7.5192124571
 30
0.0
 10
10.5353754523
 20
7.545152373
 30
0.0
 10
10.5268794612
 20
7.5714535971
 30
0.0
 10
10.5196551333
 20
7.5980528104
 30
0.0
 10
10.5137198884
 20
7.6248860082
 30
0.0
 10
10.5090881159
 20
7.6518884926
 30
0.0
 10
10.5057709437
 20
7.6789955577
 30
0.0
 10
10.5037765305
 20
7.7061409723
 30
0.0
 10
10.5033311819
 20
7.7242527487
 30
0.0
 10
10.5033311819
 20
7.7332917732
 30
0.0
  0
SPLINE
  5
3AF
100
AcDbEntity
  8
0
100
AcDbSpline
 62
7
  6
CONTINUOUS
 70
0
 71
3
 72
21
 73
17
 74
0
 42
0.0000001
 43
0.0000001
 44
0.0000000001
 40
0.0
 40
0.0
 40
0.0
 40
0.0
 40
0.1270474294
 40
0.2534139955
 40
0.3163626208
 40
0.3791519996
 40
0.4417880407
 40
0.504277382
 40
0.5666276324
 40
0.6288473205
 40
0.6909458063
 40
0.752933256
 40
0.8148205614
 40
0.8766192708
 40
0.9383415318
 40
1.0
 40
1.0
 40
1.0
 40
1.0
 10
10.8412283443
 20
7.9571754064
 30
0.0
 10
10.8412283443
 20
7.9689004711
 30
0.0
 10
10.8421380143
 20
7.9922976416
 30
0.0
 10
10.8455701576
 20
8.0213241014
 30
0.0
 10
10.8496791749
 20
8.0442302138
 30
0.0
 10
10.8534320095
 20
8.0612101118
 30
0.0
 10
10.8578538948
 20
8.0779841601
 30
0.0
 10
10.8629381362
 20
8.094527166
 30
0.0
 10
10.8686769853
 20
8.110813915
 30
0.0
 10
10.8750617821
 20
8.126819654
 30
0.0
 10
10.8820828285
 20
8.1425200439
 30
0.0
 10
10.8897294301
 20
8.1578912413
 30
0.0
 10
10.8979899954
 20
8.1729098361
 30
0.0
 10
10.9068520522
 20
8.1875530664
 30
0.0
 10
10.9163018513
 20
8.2017983878
 30
0.0
 10
10.9229875734
 20
8.2110204233
 30
0.0
 10
10.9264228116
 20
8.2155569072
 30
0.0
  0
SPLINE
  5
3B0
100
AcDbEntity
  8
0
100
AcDbSpline
 62
7
  6
CONTINUOUS
 70
0
 71
3
 72
30
 73
26
 74
0
 42
0.0000001
 43
0.0000001
 44
0.0000000001
 40
0.0
 40
0.0
 40
0.0
 40
0.0
 40
0.0307564661
 40
0.0615997321
 40
0.0925269013
 40
0.1235348016
 40
0.1546195519
 40
0.1857767538
 40
0.2170015142
 40
0.2482884651
 40
0.3110123921
 40
0.3739108758
 40
0.4369284101
 40
0.5000062855
 40
0.5630841688
 40
0.6261017322
 40
0.6890002603
 40
0.75172425
 40
0.8142229262
 40
0.8453801746
 40
0.8764649678
 40
0.9074729123
 40
0.938400156
 40
0.9692434142
 40
1.0
 40
1.0
 40
1.0
 40
1.0
 10
11.1792327448
 20
8.2029757752
 30
0.0
 10
11.1799213479
 20
8.1968750968
 30
0.0
 10
11.1815603017
 20
8.1846842707
 30
0.0
 10
11.184791902
 20
8.1664942702
 30
0.0
 10
11.188794397
 20
8.1484064959
 30
0.0
 10
11.1935602686
 20
8.1304549749
 30
0.0
 10
11.1990807092
 20
8.112672865
 30
0.0
 10
11.2053453667
 20
8.0950932775
 30
0.0
 10
11.2123427986
 20
8.077748469
 30
0.0
 10
11.2226393114
 20
8.0549623591
 30
0.0
 10
11.2372774796
 20
8.0272294726
 30
0.0
 10
11.2575153191
 20
7.9954276416
 30
0.0
 10
11.2802935141
 20
7.9653030258
 30
0.0
 10
11.3054425687
 20
7.9370800815
 30
0.0
 10
11.3327764894
 20
7.9109673383
 30
0.0
 10
11.3620927494
 20
7.8871582998
 30
0.0
 10
11.3931748396
 20
7.8658291965
 30
0.0
 10
11.4257911513
 20
7.8471387793
 30
0.0
 10
11.454084549
 20
7.8338616388
 30
0.0
 10
11.4772411712
 20
7.8246927248
 30
0.0
 10
11.4948213788
 20
7.8185588372
 30
0.0
 10
11.5125967951
 20
7.8131732891
 30
0.0
 10
11.5305349145
 20
7.8085458898
 30
0.0
 10
11.5486019291
 20
7.8046853734
 30
0.0
 10
11.5607286119
 20
7.8026246583
 30
0.0
 10
11.5668017625
 20
7.8017248885
 30
0.0
  0
SPLINE
  5
3B1
100
AcDbEntity
  8
0
100
AcDbSpline
 62
7
  6
CONTINUOUS
 70
0
 71
3
 72
48
 73
44
 74
0
 42
0.0000001
 43
0.0000001
 44
0.0000000001
 40
0.0
 40
0.0
 40
0.0
 40
0.0
 40
0.0310737286
 40
0.0623047169
 40
0.0936882768
 40
0.1252158192
 40
0.1568759363
 40
0.1886544543
 40
0.2205347671
 40
0.2524981996
 40
0.2845244034
 40
0.3165917744
 40
0.3486778872
 40
0.3807599447
 40
0.4128152307
 40
0.444821561
 40
0.476757727
 40
0.5086039285
 40
0.5403421829
 40
0.5719567057
 40
0.6034342639
 40
0.6347644801
 40
0.6659400877
 40
0.6969571367
 40
0.7278151252
 40
0.7431880054
 40
0.758522545
 40
0.7738196675
 40
0.7890805069
 40
0.8043064089
 40
0.8194989208
 40
0.8346597817
 40
0.8497909186
 40
0.8648944344
 40
0.8799725929
 40
0.8950278113
 40
0.9100626449
 40
0.9250797694
 40
0.9400819686
 40
0.9550721182
 40
0.970053165
 40
0.9850281118
 40
1.0
 40
1.0
 40
1.0
 40
1.0
 10
10.5412982459
 20
7.7389651611
 30
0.0
 10
10.5412982459
 20
7.7260387795
 30
0.0
 10
10.5422625364
 20
7.7001106513
 30
0.0
 10
10.5465678094
 20
7.6613425969
 30
0.0
 10
10.5537113561
 20
7.6228021795
 30
0.0
 10
10.5636536889
 20
7.584703794
 30
0.0
 10
10.5763397348
 20
7.5472558949
 30
0.0
 10
10.5916995525
 20
7.5106642269
 30
0.0
 10
10.6096485896
 20
7.4751295632
 30
0.0
 10
10.6300880425
 20
7.4408468744
 30
0.0
 10
10.6529055919
 20
7.4080042791
 30
0.0
 10
10.677975908
 20
7.3767820079
 30
0.0
 10
10.705161276
 20
7.3473513532
 30
0.0
 10
10.7343125039
 20
7.3198738739
 30
0.0
 10
10.7652696125
 20
7.294500428
 30
0.0
 10
10.7978626966
 20
7.2713703116
 30
0.0
 10
10.8319129591
 20
7.2506106523
 30
0.0
 10
10.8672335655
 20
7.2323355757
 30
0.0
 10
10.9036306883
 20
7.2166455858
 30
0.0
 10
10.9409046055
 20
7.2036271626
 30
0.0
 10
10.9788507401
 20
7.1933521049
 30
0.0
 10
11.0172606411
 20
7.1858771717
 30
0.0
 10
11.0559237616
 20
7.1812439586
 30
0.0
 10
11.0946262003
 20
7.1794781848
 30
0.0
 10
11.1267800307
 20
7.1804064021
 30
0.0
 10
11.15230245
 20
7.1825897856
 30
0.0
 10
11.1712997812
 20
7.1849407889
 30
0.0
 10
11.1901478937
 20
7.1880040166
 30
0.0
 10
11.2088211928
 20
7.1917753142
 30
0.0
 10
11.2272939087
 20
7.196249451
 30
0.0
 10
11.2455406523
 20
7.2014202932
 30
0.0
 10
11.2635362945
 20
7.2072807943
 30
0.0
 10
11.281256092
 20
7.2138228486
 30
0.0
 10
11.2986756635
 20
7.2210374687
 30
0.0
 10
11.3157710131
 20
7.2289147938
 30
0.0
 10
11.3325186353
 20
7.2374439438
 30
0.0
 10
11.3488954871
 20
7.2466131882
 30
0.0
 10
11.3648789958
 20
7.2564099697
 30
0.0
 10
11.3804471935
 20
7.2668207734
 30
0.0
 10
11.3955786418
 20
7.2778312509
 30
0.0
 10
11.4102525523
 20
7.2894263757
 30
0.0
 10
11.4244484731
 20
7.3015898904
 30
0.0
 10
11.4335817594
 20
7.3100676085
 30
0.0
 10
11.4380613929
 20
7.3143946093
 30
0.0
  0
SPLINE
  5
3B2
100
AcDbEntity
  8
0
100
AcDbSpline
 62
7
  6
CONTINUOUS
 70
0
 71
3
 72
43
 73
39
 74
0
 42
0.0000001
 43
0.0000001
 44
0.0000000001
 40
0.0
 40
0.0
 40
0.0
 40
0.0
 40
0.030948836
 40
0.0620411362
 40
0.0932734766
 40
0.1246391613
 40
0.1561294786
 40
0.1877334676
 40
0.2194382187
 40
0.2512291028
 40
0.2830900336
 40
0.3150037484
 40
0.346952102
 40
0.3789163728
 40
0.4108775752
 40
0.4428167749
 40
0.4747154021
 40
0.5065555636
 40
0.5383203445
 40
0.5699940992
 40
0.6015627256
 40
0.6330139205
 40
0.6643374129
 40
0.6955251654
 40
0.7265715446
 40
0.757473453
 40
0.7882304211
 40
0.8188446541
 40
0.8341019653
 40
0.8493256412
 40
0.8645167003
 40
0.8796763172
 40
0.9099019437
 40
0.9400195315
 40
0.9550446632
 40
0.970048371
 40
0.9850327527
 40
1.0
 40
1.0
 40
1.0
 40
1.0
 10
10.7319226385
 20
7.9100941959
 30
0.0
 10
10.7319226385
 20
7.8985639713
 30
0.0
 10
10.7327085168
 20
7.8754426379
 30
0.0
 10
10.7362201954
 20
7.8408460622
 30
0.0
 10
10.7420509178
 20
7.8064051937
 30
0.0
 10
10.7501737718
 20
7.7722801634
 30
0.0
 10
10.7605511786
 20
7.7386271089
 30
0.0
 10
10.773135327
 20
7.7056006061
 30
0.0
 10
10.787868254
 20
7.6733521462
 30
0.0
 10
10.804682192
 20
7.6420296866
 30
0.0
 10
10.8234998631
 20
7.6117769156
 30
0.0
 10
10.8442348396
 20
7.5827326243
 30
0.0
 10
10.8667919153
 20
7.5550300581
 30
0.0
 10
10.8910675344
 20
7.528796302
 30
0.0
 10
10.916950294
 20
7.5041517262
 30
0.0
 10
10.9443214412
 20
7.4812094343
 30
0.0
 10
10.9730554177
 20
7.4600747574
 30
0.0
 10
11.0030204059
 20
7.4408447434
 30
0.0
 10
11.03407894
 20
7.4236077216
 30
0.0
 10
11.0660885428
 20
7.408442921
 30
0.0
 10
11.0989023654
 20
7.3954201025
 30
0.0
 10
11.1323698555
 20
7.3845992466
 30
0.0
 10
11.1663374168
 20
7.3760302296
 30
0.0
 10
11.2006491551
 20
7.3697526288
 30
0.0
 10
11.2351474575
 20
7.365795523
 30
0.0
 10
11.2696741772
 20
7.3641774338
 30
0.0
 10
11.3040696003
 20
7.3649059222
 30
0.0
 10
11.3325276546
 20
7.3674694925
 30
0.0
 10
11.3550642394
 20
7.3706881821
 30
0.0
 10
11.3718184008
 20
7.3736791152
 30
0.0
 10
11.3884222474
 20
7.3772460527
 30
0.0
 10
11.4103108591
 20
7.3827583571
 30
0.0
 10
11.4372115586
 20
7.3910653373
 30
0.0
 10
11.463408398
 20
7.4012430676
 30
0.0
 10
11.4838337553
 20
7.4104681867
 30
0.0
 10
11.4988633848
 20
7.4179161008
 30
0.0
 10
11.5135962726
 20
7.425888963
 30
0.0
 10
11.5232148113
 20
7.4315515267
 30
0.0
 10
11.5279682079
 20
7.4344667975
 30
0.0
  0
SPLINE
  5
3B3
100
AcDbEntity
  8
0
100
AcDbSpline
 62
7
  6
CONTINUOUS
 70
0
 71
3
 72
42
 73
38
 74
0
 42
0.0000001
 43
0.0000001
 44
0.0000000001
 40
0.0
 40
0.0
 40
0.0
 40
0.0
 40
0.030966359
 40
0.0620780156
 40
0.0933314012
 40
0.1247195807
 40
0.1562335103
 40
0.187861831
 40
0.2195911719
 40
0.2514063967
 40
0.2832908809
 40
0.3152268076
 40
0.3471954788
 40
0.3791776386
 40
0.4111538018
 40
0.4431045848
 40
0.4750110364
 40
0.5068549633
 40
0.5386192458
 40
0.5702881402
 40
0.6018475642
 40
0.6332853618
 40
0.664591539
 40
0.6957584682
 40
0.7267810579
 40
0.7422396321
 40
0.7576614408
 40
0.7883908232
 40
0.8189768665
 40
0.8494254335
 40
0.8797450717
 40
0.8948623457
 40
0.9099517517
 40
0.925015046
 40
0.9400541138
 40
0.9700627594
 40
1.0
 40
1.0
 40
1.0
 40
1.0
 10
10.7467718776
 20
7.9139374604
 30
0.0
 10
10.7467718776
 20
7.9024954207
 30
0.0
 10
10.7475615506
 20
7.8795500927
 30
0.0
 10
10.7510897993
 20
7.8452200435
 30
0.0
 10
10.756947521
 20
7.8110504451
 30
0.0
 10
10.7651069936
 20
7.7772041587
 30
0.0
 10
10.7755295314
 20
7.7438399348
 30
0.0
 10
10.7881658922
 20
7.711114867
 30
0.0
 10
10.8029564132
 20
7.6791828295
 30
0.0
 10
10.8198313578
 20
7.6481940058
 30
0.0
 10
10.8387112293
 20
7.6182941254
 30
0.0
 10
10.8595071405
 20
7.5896238069
 30
0.0
 10
10.8821211903
 20
7.5623178669
 30
0.0
 10
10.9064469683
 20
7.5365047232
 30
0.0
 10
10.9323700456
 20
7.5123057959
 30
0.0
 10
10.9597685126
 20
7.4898349507
 30
0.0
 10
10.9885135162
 20
7.469197934
 30
0.0
 10
11.0184698734
 20
7.4504918843
 30
0.0
 10
11.0494967191
 20
7.4338049043
 30
0.0
 10
11.0814481471
 20
7.4192156463
 30
0.0
 10
11.1141739149
 20
7.406792938
 30
0.0
 10
11.1475200078
 20
7.3965954158
 30
0.0
 10
11.1813298248
 20
7.3886712876
 30
0.0
 10
11.2154432417
 20
7.3830581408
 30
0.0
 10
11.2440279305
 20
7.3803252293
 30
0.0
 10
11.2668828254
 20
7.3793199526
 30
0.0
 10
11.289650375
 20
7.3791013436
 30
0.0
 10
11.3180041739
 20
7.3802965516
 30
0.0
 10
11.3517261384
 20
7.3840842309
 30
0.0
 10
11.3849497831
 20
7.3902056819
 30
0.0
 10
11.4121204412
 20
7.3972362823
 30
0.0
 10
11.4334434713
 20
7.4039944404
 30
0.0
 10
11.4492007449
 20
7.4096187634
 30
0.0
 10
11.4647182399
 20
7.4157966057
 30
0.0
 10
11.4850471861
 20
7.42475452
 30
0.0
 10
11.5097796161
 20
7.4372998179
 30
0.0
 10
11.5287698885
 20
7.4487453621
 30
0.0
 10
11.5380283295
 20
7.4547988139
 30
0.0
  0
SPLINE
  5
3B4
100
AcDbEntity
  8
0
100
AcDbSpline
 62
7
  6
CONTINUOUS
 70
0
 71
3
 72
39
 73
35
 74
0
 42
0.0000001
 43
0.0000001
 44
0.0000000001
 40
0.0
 40
0.0
 40
0.0
 40
0.0
 40
0.0299424725
 40
0.05990932
 40
0.0899243252
 40
0.1200101024
 40
0.1501875589
 40
0.1804754082
 40
0.2108897494
 40
0.2414437221
 40
0.272147242
 40
0.3030068208
 40
0.33402547
 40
0.3652026865
 40
0.3965345185
 40
0.428013701
 40
0.459629856
 40
0.4913697495
 40
0.5232175971
 40
0.5551554142
 40
0.587163399
 40
0.619220343
 40
0.6513040608
 40
0.6833918343
 40
0.715460865
 40
0.747488727
 40
0.7794538147
 40
0.8113357784
 40
0.8431159423
 40
0.8747777013
 40
0.90630686
 40
0.937692088
 40
0.9689246466
 40
1.0
 40
1.0
 40
1.0
 40
1.0
 10
9.9031235934
 20
9.3867192657
 30
0.0
 10
9.8981964642
 20
9.3819600039
 30
0.0
 10
9.8879548017
 20
9.3728255405
 30
0.0
 10
9.8715460322
 20
9.360381461
 30
0.0
 10
9.8541748876
 20
9.3492572448
 30
0.0
 10
9.835938419
 20
9.3395153073
 30
0.0
 10
9.8169368868
 20
9.3312088803
 30
0.0
 10
9.7972751616
 20
9.324383621
 30
0.0
 10
9.7770615951
 20
9.3190768644
 30
0.0
 10
9.7564075498
 20
9.3153175811
 30
0.0
 10
9.7354267423
 20
9.3131261929
 30
0.0
 10
9.7142346247
 20
9.3125144887
 30
0.0
 10
9.6929477502
 20
9.3134855668
 30
0.0
 10
9.6716831323
 20
9.316033812
 30
0.0
 10
9.6505576068
 20
9.3201449661
 30
0.0
 10
9.6296871986
 20
9.3257962129
 30
0.0
 10
9.6091864943
 20
9.3329563103
 30
0.0
 10
9.589168025
 20
9.3415857705
 30
0.0
 10
9.5697416494
 20
9.351637058
 30
0.0
 10
9.5510139588
 20
9.3630548611
 30
0.0
 10
9.5330877064
 20
9.3757764077
 30
0.0
 10
9.5160612508
 20
9.389731804
 30
0.0
 10
9.5000280242
 20
9.4048444161
 30
0.0
 10
9.4850760254
 20
9.4210312841
 30
0.0
 10
9.4712873235
 20
9.438203558
 30
0.0
 10
9.4587376297
 20
9.4562670009
 30
0.0
 10
9.4474958855
 20
9.4751224965
 30
0.0
 10
9.4376238877
 20
9.4946665894
 30
0.0
 10
9.429175953
 20
9.5147920329
 30
0.0
 10
9.4221986123
 20
9.5353884082
 30
0.0
 10
9.4167303183
 20
9.5563425621
 30
0.0
 10
9.4128013561
 20
9.5775398214
 30
0.0
 10
9.4104334299
 20
9.5988622879
 30
0.0
 10
9.4099030756
 20
9.613122776
 30
0.0
 10
9.4099030756
 20
9.6202323015
 30
0.0
  0
SPLINE
  5
3B5
100
AcDbEntity
  8
0
100
AcDbSpline
 62
7
  6
CONTINUOUS
 70
0
 71
3
 72
43
 73
39
 74
0
 42
0.0000001
 43
0.0000001
 44
0.0000000001
 40
0.0
 40
0.0
 40
0.0
 40
0.0
 40
0.0309231087
 40
0.0619869875
 40
0.0931884132
 40
0.1245210342
 40
0.1559766128
 40
0.1875447576
 40
0.2192132208
 40
0.2509681017
 40
0.2827940897
 40
0.3146747222
 40
0.3465926562
 40
0.37852995
 40
0.4104683521
 40
0.4423895933
 40
0.4742756795
 40
0.5061091797
 40
0.5378735096
 40
0.569553205
 40
0.6011341818
 40
0.6326039794
 40
0.663951982
 40
0.6951696179
 40
0.7262505296
 40
0.7571907114
 40
0.78798861
 40
0.8186451853
 40
0.8339236671
 40
0.8491683402
 40
0.8643800287
 40
0.8795597129
 40
0.909823195
 40
0.9399739762
 40
0.9550133462
 40
0.9700295232
 40
0.9850244061
 40
1.0
 40
1.0
 40
1.0
 40
1.0
 10
10.7824405979
 20
7.9483908006
 30
0.0
 10
10.7824405979
 20
7.937298617
 30
0.0
 10
10.7831826333
 20
7.9150568593
 30
0.0
 10
10.7864989298
 20
7.8817719691
 30
0.0
 10
10.7920059448
 20
7.8486285769
 30
0.0
 10
10.7996791936
 20
7.8157751711
 30
0.0
 10
10.8094844589
 20
7.7833566014
 30
0.0
 10
10.8213782185
 20
7.7515163542
 30
0.0
 10
10.8353076941
 20
7.7203951734
 30
0.0
 10
10.8512111384
 20
7.690130649
 30
0.0
 10
10.8690181124
 20
7.6608565646
 30
0.0
 10
10.8886497936
 20
7.6327023279
 30
0.0
 10
10.910019325
 20
7.6057924032
 30
0.0
 10
10.9330321867
 20
7.5802457616
 30
0.0
 10
10.9575865993
 20
7.5561753455
 30
0.0
 10
10.9835739947
 20
7.533687593
 30
0.0
 10
11.0108794869
 20
7.5128819691
 30
0.0
 10
11.0393823754
 20
7.49385053
 30
0.0
 10
11.0689566725
 20
7.476677522
 30
0.0
 10
11.0994716399
 20
7.4614389822
 30
0.0
 10
11.1307923766
 20
7.4482024252
 30
0.0
 10
11.1627804108
 20
7.4370265496
 30
0.0
 10
11.1952942947
 20
7.4279609748
 30
0.0
 10
11.2281902545
 20
7.4210460285
 30
0.0
 10
11.2613226945
 20
7.4163125261
 30
0.0
 10
11.2945452776
 20
7.4137816848
 30
0.0
 10
11.3277099453
 20
7.4134648427
 30
0.0
 10
11.3552114002
 20
7.4150494198
 30
0.0
 10
11.3770313503
 20
7.4174240134
 30
0.0
 10
11.3932737326
 20
7.4197527222
 30
0.0
 10
11.4093922194
 20
7.4226286859
 30
0.0
 10
11.4306708075
 20
7.4271833476
 30
0.0
 10
11.4568799354
 20
7.4342253665
 30
0.0
 10
11.4824899136
 20
7.4430532707
 30
0.0
 10
11.5025131267
 20
7.4511540886
 30
0.0
 10
11.5172747494
 20
7.4577376552
 30
0.0
 10
11.5317747564
 20
7.4648262032
 30
0.0
 10
11.5412627107
 20
7.4698866824
 30
0.0
 10
11.5459569982
 20
7.4724981285
 30
0.0
  0
SPLINE
  5
3B6
100
AcDbEntity
  8
0
100
AcDbSpline
 62
7
  6
CONTINUOUS
 70
0
 71
3
 72
39
 73
35
 74
0
 42
0.0000001
 43
0.0000001
 44
0.0000000001
 40
0.0
 40
0.0
 40
0.0
 40
0.0
 40
0.0299424725
 40
0.05990932
 40
0.0899243252
 40
0.1200101024
 40
0.1501875589
 40
0.1804754082
 40
0.2108897494
 40
0.2414437221
 40
0.272147242
 40
0.3030068208
 40
0.33402547
 40
0.3652026865
 40
0.3965345185
 40
0.428013701
 40
0.459629856
 40
0.4913697495
 40
0.5232175971
 40
0.5551554142
 40
0.587163399
 40
0.619220343
 40
0.6513040608
 40
0.6833918343
 40
0.715460865
 40
0.747488727
 40
0.7794538147
 40
0.8113357784
 40
0.8431159423
 40
0.8747777013
 40
0.90630686
 40
0.937692088
 40
0.9689246466
 40
1.0
 40
1.0
 40
1.0
 40
1.0
 10
11.3520123899
 20
8.4410533383
 30
0.0
 10
11.3470852607
 20
8.4362940765
 30
0.0
 10
11.3368435982
 20
8.4271596131
 30
0.0
 10
11.3204348287
 20
8.4147155336
 30
0.0
 10
11.3030636841
 20
8.4035913174
 30
0.0
 10
11.2848272155
 20
8.3938493799
 30
0.0
 10
11.2658256833
 20
8.3855429529
 30
0.0
 10
11.2461639581
 20
8.3787176936
 30
0.0
 10
11.2259503916
 20
8.373410937
 30
0.0
 10
11.2052963463
 20
8.3696516537
 30
0.0
 10
11.1843155388
 20
8.3674602655
 30
0.0
 10
11.1631234212
 20
8.3668485613
 30
0.0
 10
11.1418365467
 20
8.3678196394
 30
0.0
 10
11.1205719288
 20
8.3703678846
 30
0.0
 10
11.0994464033
 20
8.3744790387
 30
0.0
 10
11.0785759951
 20
8.3801302855
 30
0.0
 10
11.0580752908
 20
8.3872903829
 30
0.0
 10
11.0380568215
 20
8.3959198431
 30
0.0
 10
11.0186304459
 20
8.4059711306
 30
0.0
 10
10.9999027553
 20
8.4173889337
 30
0.0
 10
10.9819765029
 20
8.4301104803
 30
0.0
 10
10.9649500473
 20
8.4440658766
 30
0.0
 10
10.9489168207
 20
8.4591784887
 30
0.0
 10
10.9339648219
 20
8.4753653567
 30
0.0
 10
10.92017612
 20
8.4925376306
 30
0.0
 10
10.9076264262
 20
8.5106010735
 30
0.0
 10
10.896384682
 20
8.5294565691
 30
0.0
 10
10.8865126842
 20
8.549000662
 30
0.0
 10
10.8780647495
 20
8.5691261055
 30
0.0
 10
10.8710874088
 20
8.5897224808
 30
0.0
 10
10.8656191148
 20
8.6106766347
 30
0.0
 10
10.8616901526
 20
8.631873894
 30
0.0
 10
10.8593222264
 20
8.6531963605
 30
0.0
 10
10.8587918721
 20
8.6674568486
 30
0.0
 10
10.8587918721
 20
8.6745663741
 30
0.0
  0
SPLINE
  5
3B7
100
AcDbEntity
  8
0
100
AcDbSpline
 62
7
  6
CONTINUOUS
 70
0
 71
3
 72
39
 73
35
 74
0
 42
0.0000001
 43
0.0000001
 44
0.0000000001
 40
0.0
 40
0.0
 40
0.0
 40
0.0
 40
0.0309873312
 40
0.0621221417
 40
0.0934006973
 40
0.1248157546
 40
0.1563578743
 40
0.188015208
 40
0.2197738231
 40
0.2516179665
 40
0.2835303598
 40
0.3154925162
 40
0.3474850716
 40
0.3794881289
 40
0.4114816073
 40
0.4434455934
 40
0.4753606912
 40
0.5072083659
 40
0.5389712767
 40
0.5706335931
 40
0.6021812922
 40
0.6336024333
 40
0.6648873995
 40
0.6960291044
 40
0.7270231587
 40
0.7578679927
 40
0.788564928
 40
0.8191181921
 40
0.8495348753
 40
0.8798248271
 40
0.9100004934
 40
0.9400766884
 40
0.9700703096
 40
1.0
 40
1.0
 40
1.0
 40
1.0
 10
10.8412283443
 20
7.9571754064
 30
0.0
 10
10.8412283443
 20
7.94664377
 30
0.0
 10
10.8419659369
 20
7.9255232105
 30
0.0
 10
10.8452610656
 20
7.8939268555
 30
0.0
 10
10.8507311723
 20
7.8624848105
 30
0.0
 10
10.8583496015
 20
7.8313513694
 30
0.0
 10
10.8680791592
 20
7.8006768748
 30
0.0
 10
10.8798725213
 20
7.7706100261
 30
0.0
 10
10.8936723572
 20
7.7412963765
 30
0.0
 10
10.909411678
 20
7.7128778688
 30
0.0
 10
10.9270141431
 20
7.6854920936
 30
0.0
 10
10.9463944341
 20
7.6592716544
 30
0.0
 10
10.9674586229
 20
7.6343434962
 30
0.0
 10
10.9901046621
 20
7.6108283204
 30
0.0
 10
11.0142228772
 20
7.5888400106
 30
0.0
 10
11.0396964928
 20
7.5684850919
 30
0.0
 10
11.0664021765
 20
7.5498622027
 30
0.0
 10
11.0942106222
 20
7.5330616006
 30
0.0
 10
11.1229871966
 20
7.5181647653
 30
0.0
 10
11.1525925755
 20
7.505243999
 30
0.0
 10
11.1828834111
 20
7.4943620868
 30
0.0
 10
11.213713
 20
7.4855719423
 30
0.0
 10
11.2449320016
 20
7.4789163793
 30
0.0
 10
11.2763891531
 20
7.4744279133
 30
0.0
 10
11.3079319902
 20
7.472128598
 30
0.0
 10
11.339407574
 20
7.4720298958
 30
0.0
 10
11.370663229
 20
7.4741325749
 30
0.0
 10
11.401547285
 20
7.478426748
 30
0.0
 10
11.4319097922
 20
7.4848918844
 30
0.0
 10
11.4616033023
 20
7.4934969437
 30
0.0
 10
11.4904833891
 20
7.5042003129
 30
0.0
 10
11.5184101502
 20
7.5169505725
 30
0.0
 10
11.5452459545
 20
7.5316846932
 30
0.0
 10
11.5623411087
 20
7.5427949406
 30
0.0
 10
11.5706579174
 20
7.5486518919
 30
0.0
  0
SPLINE
  5
3B8
100
AcDbEntity
  8
0
100
AcDbSpline
 62
7
  6
CONTINUOUS
 70
0
 71
3
 72
15
 73
11
 74
0
 42
0.0000001
 43
0.0000001
 44
0.0000000001
 40
0.0
 40
0.0
 40
0.0
 40
0.0
 40
0.1417276715
 40
0.2780575893
 40
0.4092357631
 40
0.5355590575
 40
0.6573764949
 40
0.7750840646
 40
0.8891268671
 40
1.0
 40
1.0
 40
1.0
 40
1.0
 10
10.2362938823
 20
10.5207585953
 30
0.0
 10
10.2350687327
 20
10.5195751916
 30
0.0
 10
10.2327138652
 20
10.5172021495
 30
0.0
 10
10.2294148246
 20
10.5135517529
 30
0.0
 10
10.2264209304
 20
10.5098827999
 30
0.0
 10
10.2237338708
 20
10.5061970098
 30
0.0
 10
10.2213549742
 20
10.5024959483
 30
0.0
 10
10.2192855555
 20
10.4987810249
 30
0.0
 10
10.2175268704
 20
10.4950541903
 30
0.0
 10
10.2165499956
 20
10.4925306048
 30
0.0
 10
10.2161167185
 20
10.4912704792
 30
0.0
  0
SPLINE
  5
3B9
100
AcDbEntity
  8
0
100
AcDbSpline
 62
7
  6
CONTINUOUS
 70
0
 71
3
 72
39
 73
35
 74
0
 42
0.0000001
 43
0.0000001
 44
0.0000000001
 40
0.0
 40
0.0
 40
0.0
 40
0.0
 40
0.0299424725
 40
0.05990932
 40
0.0899243252
 40
0.1200101024
 40
0.1501875589
 40
0.1804754082
 40
0.2108897494
 40
0.2414437221
 40
0.272147242
 40
0.3030068208
 40
0.33402547
 40
0.3652026865
 40
0.3965345185
 40
0.428013701
 40
0.459629856
 40
0.4913697495
 40
0.5232175971
 40
0.5551554142
 40
0.587163399
 40
0.619220343
 40
0.6513040608
 40
0.6833918343
 40
0.715460865
 40
0.747488727
 40
0.7794538147
 40
0.8113357784
 40
0.8431159423
 40
0.8747777013
 40
0.90630686
 40
0.937692088
 40
0.9689246466
 40
1.0
 40
1.0
 40
1.0
 40
1.0
 10
9.9031235934
 20
6.9110512612
 30
0.0
 10
9.8981964642
 20
6.9062919995
 30
0.0
 10
9.8879548017
 20
6.897157536
 30
0.0
 10
9.8715460322
 20
6.8847134566
 30
0.0
 10
9.8541748876
 20
6.8735892404
 30
0.0
 10
9.835938419
 20
6.8638473028
 30
0.0
 10
9.8169368868
 20
6.8555408759
 30
0.0
 10
9.7972751616
 20
6.8487156166
 30
0.0
 10
9.7770615951
 20
6.84340886
 30
0.0
 10
9.7564075498
 20
6.8396495767
 30
0.0
 10
9.7354267423
 20
6.8374581884
 30
0.0
 10
9.7142346247
 20
6.8368464842
 30
0.0
 10
9.6929477502
 20
6.8378175623
 30
0.0
 10
9.6716831323
 20
6.8403658076
 30
0.0
 10
9.6505576068
 20
6.8444769617
 30
0.0
 10
9.6296871986
 20
6.8501282084
 30
0.0
 10
9.6091864943
 20
6.8572883058
 30
0.0
 10
9.589168025
 20
6.865917766
 30
0.0
 10
9.5697416494
 20
6.8759690535
 30
0.0
 10
9.5510139588
 20
6.8873868567
 30
0.0
 10
9.5330877064
 20
6.9001084033
 30
0.0
 10
9.5160612508
 20
6.9140637995
 30
0.0
 10
9.5000280242
 20
6.9291764116
 30
0.0
 10
9.4850760254
 20
6.9453632796
 30
0.0
 10
9.4712873235
 20
6.9625355536
 30
0.0
 10
9.4587376297
 20
6.9805989965
 30
0.0
 10
9.4474958855
 20
6.9994544921
 30
0.0
 10
9.4376238877
 20
7.0189985849
 30
0.0
 10
9.429175953
 20
7.0391240284
 30
0.0
 10
9.4221986123
 20
7.0597204037
 30
0.0
 10
9.4167303183
 20
7.0806745576
 30
0.0
 10
9.4128013561
 20
7.101871817
 30
0.0
 10
9.4104334299
 20
7.1231942835
 30
0.0
 10
9.4099030756
 20
7.1374547715
 30
0.0
 10
9.4099030756
 20
7.1445642971
 30
0.0
  0
SPLINE
  5
3BA
100
AcDbEntity
  8
0
100
AcDbSpline
 62
7
  6
CONTINUOUS
 70
0
 71
3
 72
55
 73
51
 74
0
 42
0.0000001
 43
0.0000001
 44
0.0000000001
 40
0.0
 40
0.0
 40
0.0
 40
0.0
 40
0.007892747
 40
0.0159196327
 40
0.0241983732
 40
0.0328370083
 40
0.0419276825
 40
0.0515445978
 40
0.0617455487
 40
0.0725733386
 40
0.0840578672
 40
0.0962178088
 40
0.109062609
 40
0.1225938466
 40
0.1368066264
 40
0.1516905793
 40
0.1672306587
 40
0.1834078996
 40
0.2175789702
 40
0.2539944366
 40
0.2924042326
 40
0.332527826
 40
0.3740588094
 40
0.4166686462
 40
0.4600100081
 40
0.5037206655
 40
0.5474279455
 40
0.5907542515
 40
0.6333232662
 40
0.6747669749
 40
0.7147329276
 40
0.7528918693
 40
0.788945315
 40
0.8226337015
 40
0.8385241831
 40
0.8537485957
 40
0.8682898501
 40
0.8821355706
 40
0.8952785233
 40
0.9077176731
 40
0.9194587966
 40
0.9305160972
 40
0.9409132125
 40
0.9506853702
 40
0.9598808299
 40
0.9685631378
 40
0.9768122039
 40
0.9847247075
 40
0.9924126637
 40
1.0
 40
1.0
 40
1.0
 40
1.0
 10
11.1141361105
 20
7.7488175908
 30
0.0
 10
11.1143945396
 20
7.7490672141
 30
0.0
 10
11.1149512706
 20
7.749535322
 30
0.0
 10
11.1158848232
 20
7.7501258257
 30
0.0
 10
11.1169170745
 20
7.7506060421
 30
0.0
 10
11.1180445465
 20
7.7509755416
 30
0.0
 10
11.1192643781
 20
7.7512345252
 30
0.0
 10
11.1205736848
 20
7.7513836975
 30
0.0
 10
11.1219696525
 20
7.751423822
 30
0.0
 10
11.1234494023
 20
7.7513561159
 30
0.0
 10
11.1250099665
 20
7.7511818719
 30
0.0
 10
11.1266482628
 20
7.7509027378
 30
0.0
 10
11.1283610736
 20
7.7505205304
 30
0.0
 10
11.1301450765
 20
7.7500373642
 30
0.0
 10
11.1319968387
 20
7.7494555568
 30
0.0
 10
11.1339128308
 20
7.7487776523
 30
0.0
 10
11.1358894571
 20
7.7480064149
 30
0.0
 10
11.1386514801
 20
7.7468359893
 30
0.0
 10
11.1422258714
 20
7.745151533
 30
0.0
 10
11.1466205835
 20
7.7428454168
 30
0.0
 10
11.151163701
 20
7.7402467709
 30
0.0
 10
11.1558213598
 20
7.7373852286
 30
0.0
 10
11.1605581112
 20
7.7342915485
 30
0.0
 10
11.1653367114
 20
7.7309975424
 30
0.0
 10
11.1701181867
 20
7.7275357547
 30
0.0
 10
11.1748619569
 20
7.7239392123
 30
0.0
 10
11.1795261188
 20
7.7202411196
 30
0.0
 10
11.1840678619
 20
7.7164745352
 30
0.0
 10
11.1884440123
 20
7.7126720206
 30
0.0
 10
11.1926116684
 20
7.7088652916
 30
0.0
 10
11.1965288696
 20
7.7050848995
 30
0.0
 10
11.2001553534
 20
7.7013599303
 30
0.0
 10
11.2034529867
 20
7.6977178799
 30
0.0
 10
11.2059443582
 20
7.6947175097
 30
0.0
 10
11.2077374364
 20
7.692374519
 30
0.0
 10
11.2089524177
 20
7.6906878227
 30
0.0
 10
11.2100605272
 20
7.6890400664
 30
0.0
 10
11.2110586037
 20
7.6874338863
 30
0.0
 10
11.2119437233
 20
7.6858718034
 30
0.0
 10
11.2127132976
 20
7.6843562705
 30
0.0
 10
11.2133649265
 20
7.6828895813
 30
0.0
 10
11.2138965902
 20
7.6814739789
 30
0.0
 10
11.2143063882
 20
7.6801115378
 30
0.0
 10
11.2145928143
 20
7.6788042975
 30
0.0
 10
11.2147543702
 20
7.6775541869
 30
0.0
 10
11.2147899351
 20
7.6763631755
 30
0.0
 10
11.2146983292
 20
7.6752333726
 30
0.0
 10
11.2144788926
 20
7.6741670512
 30
0.0
 10
11.2141313232
 20
7.6731671042
 30
0.0
 10
11.2138138879
 20
7.6725454591
 30
0.0
 10
11.2136358628
 20
7.6722494745
 30
0.0
  0
SPLINE
  5
3BB
100
AcDbEntity
  8
0
100
AcDbSpline
 62
7
  6
CONTINUOUS
 70
0
 71
3
 72
39
 73
35
 74
0
 42
0.0000001
 43
0.0000001
 44
0.0000000001
 40
0.0
 40
0.0
 40
0.0
 40
0.0
 40
0.0306778381
 40
0.0614699791
 40
0.0923741009
 40
0.1233871709
 40
0.1545045817
 40
0.185720703
 40
0.2170287558
 40
0.2484209685
 40
0.279888646
 40
0.3114222783
 40
0.3430116454
 40
0.3746459317
 40
0.4063138433
 40
0.4380037296
 40
0.4697037078
 40
0.501401788
 40
0.5330860009
 40
0.5647445232
 40
0.5963658038
 40
0.627938687
 40
0.6594525328
 40
0.6908973337
 40
0.7222638261
 40
0.7535435961
 40
0.7847291776
 40
0.8158141431
 40
0.8467931845
 40
0.8776621839
 40
0.9084182725
 40
0.9390598771
 40
0.9695867527
 40
1.0
 40
1.0
 40
1.0
 40
1.0
 10
11.0594126192
 20
8.167925245
 30
0.0
 10
11.0594126192
 20
8.159752419
 30
0.0
 10
11.0598564627
 20
8.1433729434
 30
0.0
 10
11.0618430156
 20
8.1188328586
 30
0.0
 10
11.0651457651
 20
8.0943442888
 30
0.0
 10
11.0697549168
 20
8.0699798066
 30
0.0
 10
11.0756569727
 20
8.0458103222
 30
0.0
 10
11.0828345901
 20
8.0219065464
 30
0.0
 10
11.0912667458
 20
7.9983382971
 30
0.0
 10
11.1009287398
 20
7.9751744365
 30
0.0
 10
11.111792295
 20
7.9524826327
 30
0.0
 10
11.123825628
 20
7.9303291734
 30
0.0
 10
11.136993547
 20
7.9087787717
 30
0.0
 10
11.1512575525
 20
7.8878943785
 30
0.0
 10
11.1665759502
 20
7.8677369996
 30
0.0
 10
11.1829039717
 20
7.8483655189
 30
0.0
 10
11.2001939055
 20
7.8298365274
 30
0.0
 10
11.218395235
 20
7.8122041586
 30
0.0
 10
11.2374547859
 20
7.7955199313
 30
0.0
 10
11.25731688
 20
7.7798326001
 30
0.0
 10
11.2779234977
 20
7.7651880132
 30
0.0
 10
11.2992144457
 20
7.7516289793
 30
0.0
 10
11.3211275319
 20
7.7391951423
 30
0.0
 10
11.3435987462
 20
7.7279228663
 30
0.0
 10
11.3665624459
 20
7.7178451298
 30
0.0
 10
11.3899515468
 20
7.708991429
 30
0.0
 10
11.4136977164
 20
7.7013876918
 30
0.0
 10
11.4377315748
 20
7.6950562012
 30
0.0
 10
11.4619828873
 20
7.6900155298
 30
0.0
 10
11.4863807991
 20
7.6862804864
 30
0.0
 10
11.5108539267
 20
7.6838620622
 30
0.0
 10
11.5353309871
 20
7.6827674323
 30
0.0
 10
11.5597394407
 20
7.6829998046
 30
0.0
 10
11.5759506102
 20
7.684041103
 30
0.0
 10
11.5840188977
 20
7.6847831268
 30
0.0
  0
SPLINE
  5
3BC
100
AcDbEntity
  8
0
100
AcDbSpline
 62
7
  6
CONTINUOUS
 70
0
 71
3
 72
39
 73
35
 74
0
 42
0.0000001
 43
0.0000001
 44
0.0000000001
 40
0.0
 40
0.0
 40
0.0
 40
0.0
 40
0.0306707164
 40
0.0614549546
 40
0.0923502348
 40
0.1233537434
 40
0.1544609094
 40
0.1856662523
 40
0.2169631334
 40
0.248343951
 40
0.2798001927
 40
0.3113225446
 40
0.3429009913
 40
0.374524927
 40
0.4061832686
 40
0.4378645732
 40
0.469557159
 40
0.5012492267
 40
0.5329289826
 40
0.5645847611
 40
0.5962051464
 40
0.627779093
 40
0.6592960422
 40
0.690746036
 40
0.7221198262
 40
0.7534089777
 40
0.7846059651
 40
0.8157042618
 40
0.8466984207
 40
0.8775841449
 40
0.908358347
 40
0.939019197
 40
0.9695661566
 40
1.0
 40
1.0
 40
1.0
 40
1.0
 10
11.0961549607
 20
8.1734156236
 30
0.0
 10
11.0961549607
 20
8.1658247168
 30
0.0
 10
11.0965640415
 20
8.150611722
 30
0.0
 10
11.0983950665
 20
8.1278185554
 30
0.0
 10
11.1014393714
 20
8.1050718455
 30
0.0
 10
11.1056880295
 20
8.0824380039
 30
0.0
 10
11.1111288148
 20
8.0599818794
 30
0.0
 10
11.1177459679
 20
8.0377681802
 30
0.0
 10
11.1255204096
 20
8.015860798
 30
0.0
 10
11.1344297104
 20
7.9943227693
 30
0.0
 10
11.1444481937
 20
7.9732160558
 30
0.0
 10
11.1555469945
 20
7.9526013773
 30
0.0
 10
11.1676941482
 20
7.9325380364
 30
0.0
 10
11.18085468
 20
7.9130837493
 30
0.0
 10
11.1949907064
 20
7.8942944805
 30
0.0
 10
11.2100615431
 20
7.8762242832
 30
0.0
 10
11.2260238201
 20
7.858925143
 30
0.0
 10
11.2428316081
 20
7.8424468307
 30
0.0
 10
11.2604365496
 20
7.8268367596
 30
0.0
 10
11.2787879975
 20
7.8121398496
 30
0.0
 10
11.2978331596
 20
7.7983983994
 30
0.0
 10
11.3175172498
 20
7.7856519645
 30
0.0
 10
11.3377836449
 20
7.7739372445
 30
0.0
 10
11.3585740457
 20
7.7632879774
 30
0.0
 10
11.3798286442
 20
7.7537348429
 30
0.0
 10
11.4014862942
 20
7.7453053742
 30
0.0
 10
11.4234846854
 20
7.7380238788
 30
0.0
 10
11.4457605233
 20
7.7319113679
 30
0.0
 10
11.4682497025
 20
7.7269854951
 30
0.0
 10
11.4908875173
 20
7.7232605047
 30
0.0
 10
11.513608744
 20
7.7207471838
 30
0.0
 10
11.5363482112
 20
7.719452861
 30
0.0
 10
11.5590395602
 20
7.7193812683
 30
0.0
 10
11.5741213031
 20
7.7201504695
 30
0.0
 10
11.5816305302
 20
7.7207393434
 30
0.0
  0
SPLINE
  5
3BD
100
AcDbEntity
  8
0
100
AcDbSpline
 62
7
  6
CONTINUOUS
 70
0
 71
3
 72
23
 73
19
 74
0
 42
0.0000001
 43
0.0000001
 44
0.0000000001
 40
0.0
 40
0.0
 40
0.0
 40
0.0
 40
0.061876191
 40
0.1239897797
 40
0.1863153395
 40
0.2488236211
 40
0.3114821201
 40
0.3742556726
 40
0.4371070906
 40
0.4999978224
 40
0.5628886287
 40
0.6257402695
 40
0.688514189
 40
0.751173193
 40
0.8136821088
 40
0.8760084198
 40
0.9381228659
 40
1.0
 40
1.0
 40
1.0
 40
1.0
 10
11.2778248958
 20
8.1630039727
 30
0.0
 10
11.2797061773
 20
8.1553899986
 30
0.0
 10
11.2839919353
 20
8.140255176
 30
0.0
 10
11.2919335789
 20
8.1179970885
 30
0.0
 10
11.3013640334
 20
8.0962394275
 30
0.0
 10
11.3122373278
 20
8.0750885402
 30
0.0
 10
11.3245009795
 20
8.0546460999
 30
0.0
 10
11.3380957094
 20
8.0350108271
 30
0.0
 10
11.3529558698
 20
8.0162774247
 30
0.0
 10
11.369009722
 20
7.998536287
 30
0.0
 10
11.3861797858
 20
7.9818730222
 30
0.0
 10
11.4043832075
 20
7.9663680493
 30
0.0
 10
11.4235321526
 20
7.9520962193
 30
0.0
 10
11.4435342667
 20
7.9391264454
 30
0.0
 10
11.4642929582
 20
7.9275214179
 30
0.0
 10
11.4857084461
 20
7.9173371347
 30
0.0
 10
11.5076760537
 20
7.9086232601
 30
0.0
 10
11.5226522557
 20
7.9038116984
 30
0.0
 10
11.530196031
 20
7.901665737
 30
0.0
  0
SPLINE
  5
3BE
100
AcDbEntity
  8
0
100
AcDbSpline
 62
7
  6
CONTINUOUS
 70
0
 71
3
 72
87
 73
83
 74
0
 42
0.0000001
 43
0.0000001
 44
0.0000000001
 40
0.0
 40
0.0
 40
0.0
 40
0.0
 40
0.0038983954
 40
0.0079521575
 40
0.012165153
 40
0.0165407143
 40
0.0210816858
 40
0.0257903194
 40
0.0306682282
 40
0.0357165946
 40
0.0409361554
 40
0.046327296
 40
0.0518900553
 40
0.0576241281
 40
0.0635289656
 40
0.0696037091
 40
0.0822580298
 40
0.0955763493
 40
0.1095443647
 40
0.124145072
 40
0.1393590764
 40
0.1551648451
 40
0.1715389156
 40
0.1884560831
 40
0.2058895602
 40
0.223811116
 40
0.2421912033
 40
0.260999072
 40
0.2802028762
 40
0.2997697816
 40
0.3196660648
 40
0.3398572079
 40
0.3603079907
 40
0.3809825793
 40
0.4018446152
 40
0.4228573061
 40
0.4439835132
 40
0.4864260259
 40
0.5288720583
 40
0.5500026573
 40
0.5710214829
 40
0.5918913821
 40
0.6125755441
 40
0.6330375881
 40
0.6532416547
 40
0.6731524926
 40
0.6927355489
 40
0.7119570608
 40
0.7307841496
 40
0.7491849216
 40
0.767128574
 40
0.7845855005
 40
0.8015274058
 40
0.8179274313
 40
0.8337602945
 40
0.8490024484
 40
0.8636322665
 40
0.8776302487
 40
0.8909792721
 40
0.9036648992
 40
0.9097554718
 40
0.9156762301
 40
0.9214262907
 40
0.9270050785
 40
0.9324122666
 40
0.9376478542
 40
0.9427121928
 40
0.9476059798
 40
0.9523303781
 40
0.9568869709
 40
0.9612778972
 40
0.9655058649
 40
0.9695742259
 40
0.973487095
 40
0.9772493669
 40
0.9808668961
 40
0.9843465267
 40
0.987696239
 40
0.9909252452
 40
0.994044046
 40
0.9970645428
 40
1.0
 40
1.0
 40
1.0
 40
1.0
 10
10.2362938823
 20
10.5207585953
 30
0.0
 10
10.2375778823
 20
10.5219988442
 30
0.0
 10
10.2402534817
 20
10.5244708936
 30
0.0
 10
10.2444948607
 20
10.5280845479
 30
0.0
 10
10.2490392577
 20
10.5316732289
 30
0.0
 10
10.2538843277
 20
10.5352351196
 30
0.0
 10
10.259027836
 20
10.5387686696
 30
0.0
 10
10.2644674304
 20
10.5422722484
 30
0.0
 10
10.2702005492
 20
10.5457442986
 30
0.0
 10
10.2762245232
 20
10.5491831248
 30
0.0
 10
10.2825364976
 20
10.5525871588
 30
0.0
 10
10.2891335143
 20
10.5559547889
 30
0.0
 10
10.296012474
 20
10.559284419
 30
0.0
 10
10.3031701205
 20
10.5625745099
 30
0.0
 10
10.3106031015
 20
10.565823476
 30
0.0
 10
10.3210183071
 20
10.570157655
 30
0.0
 10
10.3347089965
 20
10.5754503323
 30
0.0
 10
10.3519613532
 20
10.5815301692
 30
0.0
 10
10.3702212816
 20
10.5874104976
 30
0.0
 10
10.3894542168
 20
10.5930801014
 30
0.0
 10
10.4096239206
 20
10.5985281533
 30
0.0
 10
10.4306922531
 20
10.6037442388
 30
0.0
 10
10.4526193425
 20
10.6087183897
 30
0.0
 10
10.4753636479
 20
10.6134410971
 30
0.0
 10
10.4988820542
 20
10.6179033327
 30
0.0
 10
10.523129958
 20
10.6220965666
 30
0.0
 10
10.5480613544
 20
10.6260127835
 30
0.0
 10
10.5736289258
 20
10.6296444982
 30
0.0
 10
10.5997841326
 20
10.6329847759
 30
0.0
 10
10.6264773102
 20
10.6360272381
 30
0.0
 10
10.6536577667
 20
10.6387660755
 30
0.0
 10
10.6812738807
 20
10.6411960583
 30
0.0
 10
10.7092731978
 20
10.6433125458
 30
0.0
 10
10.7376025341
 20
10.6451114976
 30
0.0
 10
10.7662080608
 20
10.6465894766
 30
0.0
 10
10.7950354747
 20
10.6477436886
 30
0.0
 10
10.8337525262
 20
10.6488495402
 30
0.0
 10
10.8823007541
 20
10.6494084365
 30
0.0
 10
10.9308512787
 20
10.6488750738
 30
0.0
 10
10.9695753428
 20
10.6477896692
 30
0.0
 10
10.9984117883
 20
10.6466506478
 30
0.0
 10
11.0270288971
 20
10.6451877425
 30
0.0
 10
11.0553723441
 20
10.6434037182
 30
0.0
 10
11.0833882735
 20
10.6413019843
 30
0.0
 10
11.1110234702
 20
10.6388865534
 30
0.0
 10
11.1382254434
 20
10.6361620383
 30
0.0
 10
11.1649425302
 20
10.6331336408
 30
0.0
 10
11.1911239927
 20
10.6298071435
 30
0.0
 10
11.2167201158
 20
10.6261888977
 30
0.0
 10
11.2416823058
 20
10.6222858134
 30
0.0
 10
11.2659631866
 20
10.618105351
 30
0.0
 10
11.2895166899
 20
10.613655501
 30
0.0
 10
11.3122981444
 20
10.6089447694
 30
0.0
 10
11.3342643627
 20
10.6039821613
 30
0.0
 10
11.3553737281
 20
10.5987771628
 30
0.0
 10
11.3755862899
 20
10.5933397223
 30
0.0
 10
11.3948638257
 20
10.5876802344
 30
0.0
 10
11.4131700092
 20
10.5818095074
 30
0.0
 10
11.430470185
 20
10.5757387392
 30
0.0
 10
11.4442019181
 20
10.5704534789
 30
0.0
 10
11.4546507458
 20
10.5661249869
 30
0.0
 10
11.4621092818
 20
10.5628799432
 30
0.0
 10
11.4692928067
 20
10.5595936317
 30
0.0
 10
11.4761979542
 20
10.5562676295
 30
0.0
 10
11.4828214587
 20
10.5529034851
 30
0.0
 10
11.4891602007
 20
10.5495027815
 30
0.0
 10
11.4952112125
 20
10.5460671474
 30
0.0
 10
11.5009716295
 20
10.5425981365
 30
0.0
 10
11.5064387803
 20
10.5390974291
 30
0.0
 10
11.51161008
 20
10.5355665915
 30
0.0
 10
11.5164831263
 20
10.5320072812
 30
0.0
 10
11.5210556455
 20
10.5284211231
 30
0.0
 10
11.5253254744
 20
10.5248097033
 30
0.0
 10
11.529290654
 20
10.5211746943
 30
0.0
 10
11.5329492584
 20
10.5175176302
 30
0.0
 10
11.5362995878
 20
10.5138401613
 30
0.0
 10
11.5393399792
 20
10.5101438356
 30
0.0
 10
11.5420688963
 20
10.5064302211
 30
0.0
 10
11.5444849324
 20
10.5027009504
 30
0.0
 10
11.5465866764
 20
10.4989574848
 30
0.0
 10
11.5483728299
 20
10.4952018324
 30
0.0
 10
11.5493651351
 20
10.4926581804
 30
0.0
 10
11.5498052253
 20
10.4913880372
 30
0.0
  0
SPLINE
  5
3BF
100
AcDbEntity
  8
0
100
AcDbSpline
 62
7
  6
CONTINUOUS
 70
0
 71
3
 72
86
 73
82
 74
0
 42
0.0000001
 43
0.0000001
 44
0.0000000001
 40
0.0
 40
0.0
 40
0.0
 40
0.0
 40
0.0040448534
 40
0.0082603609
 40
0.0126509236
 40
0.0172202685
 40
0.0219715379
 40
0.0269072005
 40
0.0320289495
 40
0.0373379591
 40
0.0428348958
 40
0.0485199844
 40
0.054393089
 40
0.060453639
 40
0.0731328431
 40
0.0865477302
 40
0.1006836888
 40
0.1155225501
 40
0.1310430397
 40
0.1472211264
 40
0.1640303236
 40
0.1814419466
 40
0.1994253242
 40
0.217947984
 40
0.2369758112
 40
0.2564732015
 40
0.2764032123
 40
0.2967276959
 40
0.3174074251
 40
0.3384022115
 40
0.3596710244
 40
0.3811721148
 40
0.4247004144
 40
0.4686438933
 40
0.5126542074
 40
0.5563823351
 40
0.5780326116
 40
0.5994829756
 40
0.6206912065
 40
0.6416157142
 40
0.6622156543
 40
0.6824510515
 40
0.7022829213
 40
0.7216733882
 40
0.7405858128
 40
0.7589849264
 40
0.7768369825
 40
0.7941099167
 40
0.8107735079
 40
0.8267995685
 40
0.8421621639
 40
0.8568378774
 40
0.8708061288
 40
0.8840495411
 40
0.896554416
 40
0.9025270722
 40
0.9083119888
 40
0.9139087635
 40
0.9193174415
 40
0.9245384408
 40
0.9295726677
 40
0.9344215724
 40
0.9390871429
 40
0.9435720918
 40
0.9478798247
 40
0.9520146123
 40
0.9559816855
 40
0.959787304
 40
0.9634389821
 40
0.9669455201
 40
0.9703172113
 40
0.9735659355
 40
0.9767052188
 40
0.9797503277
 40
0.9827181583
 40
0.9856271425
 40
0.9884969701
 40
0.9913482223
 40
0.9942019254
 40
0.9970790461
 40
1.0
 40
1.0
 40
1.0
 40
1.0
 10
10.4265812814
 20
10.5075621194
 30
0.0
 10
10.4275409224
 20
10.5084890615
 30
0.0
 10
10.4295454081
 20
10.5103362043
 30
0.0
 10
10.4327319099
 20
10.5130322881
 30
0.0
 10
10.4361574756
 20
10.5157084897
 30
0.0
 10
10.4398201315
 20
10.5183632768
 30
0.0
 10
10.4437179767
 20
10.5209953737
 30
0.0
 10
10.4478490316
 20
10.5236034122
 30
0.0
 10
10.4522111218
 20
10.5261861085
 30
0.0
 10
10.4568019737
 20
10.5287420598
 30
0.0
 10
10.4616191642
 20
10.5312699353
 30
0.0
 10
10.4666601524
 20
10.5337684237
 30
0.0
 10
10.4719223089
 20
10.5362361906
 30
0.0
 10
10.4793417222
 20
10.5395335902
 30
0.0
 10
10.4891571691
 20
10.5435593151
 30
0.0
 10
10.5016000517
 20
10.5481774711
 30
0.0
 10
10.514852337
 20
10.5526430391
 30
0.0
 10
10.5288860056
 20
10.5569464946
 30
0.0
 10
10.5436715363
 20
10.5610786398
 30
0.0
 10
10.5591776815
 20
10.5650306367
 30
0.0
 10
10.5753716341
 20
10.5687940304
 30
0.0
 10
10.5922190887
 20
10.5723607648
 30
0.0
 10
10.60968433
 20
10.5757232041
 30
0.0
 10
10.6277303095
 20
10.578874148
 30
0.0
 10
10.646318724
 20
10.5818068534
 30
0.0
 10
10.6654101018
 20
10.5845150504
 30
0.0
 10
10.6849638929
 20
10.5869929474
 30
0.0
 10
10.7049385586
 20
10.5892352454
 30
0.0
 10
10.7252916627
 20
10.5912371495
 30
0.0
 10
10.7459799453
 20
10.5929943715
 30
0.0
 10
10.7669594731
 20
10.5945031872
 30
0.0
 10
10.7953762189
 20
10.5961861323
 30
0.0
 10
10.8312958921
 20
10.5976423489
 30
0.0
 10
10.874664112
 20
10.5983562778
 30
0.0
 10
10.9181029381
 20
10.5980373246
 30
0.0
 10
10.9541716002
 20
10.5969095976
 30
0.0
 10
10.9827778329
 20
10.595488069
 30
0.0
 10
11.0039501441
 20
10.5941715878
 30
0.0
 10
11.0248652859
 20
10.5926041848
 30
0.0
 10
11.0454788417
 20
10.5907891831
 30
0.0
 10
11.065746992
 20
10.5887304642
 30
0.0
 10
11.0856266705
 20
10.5864324281
 30
0.0
 10
11.105075641
 20
10.5838999915
 30
0.0
 10
11.1240525907
 20
10.5811385704
 30
0.0
 10
11.1425172151
 20
10.5781540706
 30
0.0
 10
11.1604303083
 20
10.5749528736
 30
0.0
 10
11.1777538526
 20
10.5715418292
 30
0.0
 10
11.194451105
 20
10.5679282425
 30
0.0
 10
11.2104866754
 20
10.5641198499
 30
0.0
 10
11.2258266027
 20
10.5601248038
 30
0.0
 10
11.2404384428
 20
10.5559516512
 30
0.0
 10
11.2542913274
 20
10.5516093145
 30
0.0
 10
11.2673561376
 20
10.5471070708
 30
0.0
 10
11.2796052635
 20
10.5424545176
 30
0.0
 10
11.2892542765
 20
10.5384007043
 30
0.0
 10
11.2965373203
 20
10.5350818772
 30
0.0
 10
11.3016960201
 20
10.5325995298
 30
0.0
 10
11.3066322895
 20
10.5300870758
 30
0.0
 10
11.3113435561
 20
10.5275458623
 30
0.0
 10
11.3158273336
 20
10.524977201
 30
0.0
 10
11.3200812671
 20
10.5223824278
 30
0.0
 10
11.3241031487
 20
10.5197629284
 30
0.0
 10
11.3278908455
 20
10.5171199958
 30
0.0
 10
11.3314424132
 20
10.5144550404
 30
0.0
 10
11.3347559782
 20
10.5117693733
 30
0.0
 10
11.3378298065
 20
10.5090643398
 30
0.0
 10
11.3406623109
 20
10.506341305
 30
0.0
 10
11.3432519346
 20
10.5036015305
 30
0.0
 10
11.3455973305
 20
10.5008463862
 30
0.0
 10
11.3476971433
 20
10.498077126
 30
0.0
 10
11.3495501423
 20
10.4952950599
 30
0.0
 10
11.3511551935
 20
10.492501522
 30
0.0
 10
11.3525111067
 20
10.4896978222
 30
0.0
 10
11.3536169241
 20
10.4868854364
 30
0.0
 10
11.3544716071
 20
10.4840658625
 30
0.0
 10
11.3550743435
 20
10.4812407889
 30
0.0
 10
11.3554245109
 20
10.4784120217
 30
0.0
 10
11.3555216138
 20
10.4755815034
 30
0.0
 10
11.355365632
 20
10.472751168
 30
0.0
 10
11.3549567239
 20
10.4699232474
 30
0.0
 10
11.3545199566
 20
10.4680584861
 30
0.0
 10
11.3542617855
 20
10.4671302273
 30
0.0
  0
SPLINE
  5
3C0
100
AcDbEntity
  8
0
100
AcDbSpline
 62
7
  6
CONTINUOUS
 70
0
 71
3
 72
57
 73
53
 74
0
 42
0.0000001
 43
0.0000001
 44
0.0000000001
 40
0.0
 40
0.0
 40
0.0
 40
0.0
 40
0.008914642
 40
0.0183644583
 40
0.0283523899
 40
0.0388782693
 40
0.0499391171
 40
0.0615296546
 40
0.0736425611
 40
0.0862686722
 40
0.0993972778
 40
0.1130161977
 40
0.1271119375
 40
0.1416698661
 40
0.1566742181
 40
0.1721082465
 40
0.1879543128
 40
0.2041938802
 40
0.2208076606
 40
0.2377756424
 40
0.2726901364
 40
0.3087653996
 40
0.3458204232
 40
0.3836673437
 40
0.4221128824
 40
0.4609597175
 40
0.500007833
 40
0.539055876
 40
0.5779024941
 40
0.616347673
 40
0.6541940931
 40
0.6912484791
 40
0.7273229719
 40
0.7622365682
 40
0.7792040555
 40
0.7958173121
 40
0.8120563273
 40
0.8279018144
 40
0.8433352374
 40
0.8583389592
 40
0.8728962345
 40
0.886991299
 40
0.9006095232
 40
0.9137374148
 40
0.9263627952
 40
0.9384749569
 40
0.9500647379
 40
0.9611248185
 40
0.9716499272
 40
0.9816370891
 40
0.9910861166
 40
1.0
 40
1.0
 40
1.0
 40
1.0
 10
10.4707134205
 20
10.4162532864
 30
0.0
 10
10.4728224658
 20
10.4176163446
 30
0.0
 10
10.4772384388
 20
10.4203150568
 30
0.0
 10
10.4842293607
 20
10.4241810637
 30
0.0
 10
10.491770108
 20
10.4279773312
 30
0.0
 10
10.4998502965
 20
10.4316985689
 30
0.0
 10
10.5084590419
 20
10.4353397856
 30
0.0
 10
10.5175846187
 20
10.4388959505
 30
0.0
 10
10.5272145733
 20
10.4423621544
 30
0.0
 10
10.5373357102
 20
10.4457336356
 30
0.0
 10
10.5479341493
 20
10.4490056958
 30
0.0
 10
10.5589953224
 20
10.4521738043
 30
0.0
 10
10.5705040058
 20
10.4552335837
 30
0.0
 10
10.5824443533
 20
10.4581807561
 30
0.0
 10
10.5947999035
 20
10.4610112495
 30
0.0
 10
10.6075536154
 20
10.4637211378
 30
0.0
 10
10.6206878967
 20
10.466306635
 30
0.0
 10
10.6341846108
 20
10.4687641715
 30
0.0
 10
10.6480251422
 20
10.471090351
 30
0.0
 10
10.6670935256
 20
10.4740404129
 30
0.0
 10
10.6916489708
 20
10.4773655982
 30
0.0
 10
10.7218980763
 20
10.4807489069
 30
0.0
 10
10.7530366381
 20
10.4835431992
 30
0.0
 10
10.7848926658
 20
10.4857328769
 30
0.0
 10
10.8172903512
 20
10.4873056753
 30
0.0
 10
10.8500508021
 20
10.4882527896
 30
0.0
 10
10.8829931133
 20
10.48856893
 30
0.0
 10
10.915935359
 20
10.4882523349
 30
0.0
 10
10.9486956139
 20
10.4873047685
 30
0.0
 10
10.9810929739
 20
10.485731523
 30
0.0
 10
11.0129485485
 20
10.4835414059
 30
0.0
 10
11.0440865321
 20
10.4807466842
 30
0.0
 10
11.0743349376
 20
10.4773629584
 30
0.0
 10
11.0988897219
 20
10.4740374312
 30
0.0
 10
11.117957518
 20
10.4710871023
 30
0.0
 10
11.1317975687
 20
10.4687607316
 30
0.0
 10
11.1452937749
 20
10.4663030086
 30
0.0
 10
11.1584275219
 20
10.4637173299
 30
0.0
 10
11.1711806738
 20
10.4610072655
 30
0.0
 10
11.1835356391
 20
10.4581766015
 30
0.0
 10
11.1954753777
 20
10.4552292642
 30
0.0
 10
11.2069834289
 20
10.452169326
 30
0.0
 10
11.2180439475
 20
10.4490010648
 30
0.0
 10
11.2286417106
 20
10.4457288583
 30
0.0
 10
11.238762151
 20
10.4423572376
 30
0.0
 10
11.2483913898
 20
10.4388909009
 30
0.0
 10
11.257516232
 20
10.43533461
 30
0.0
 10
11.2661242259
 20
10.4316932752
 30
0.0
 10
11.2742036477
 20
10.4279719256
 30
0.0
 10
11.2817436077
 20
10.4241755524
 30
0.0
 10
11.2887337338
 20
10.4203094544
 30
0.0
 10
11.2931491577
 20
10.4176106784
 30
0.0
 10
11.2952579255
 20
10.4162475845
 30
0.0
  0
SPLINE
  5
3C1
100
AcDbEntity
  8
0
100
AcDbSpline
 62
7
  6
CONTINUOUS
 70
0
 71
3
 72
42
 73
38
 74
0
 42
0.0000001
 43
0.0000001
 44
0.0000000001
 40
0.0
 40
0.0
 40
0.0
 40
0.0
 40
0.0309214871
 40
0.0464374568
 40
0.0619879034
 40
0.0931874205
 40
0.1245180095
 40
0.1559714476
 40
0.1875373739
 40
0.2192035883
 40
0.2509562358
 40
0.2827800566
 40
0.3146586399
 40
0.3465746948
 40
0.3785103308
 40
0.4104473447
 40
0.4423675114
 40
0.4742528747
 40
0.5060860351
 40
0.5378504314
 40
0.5695306129
 40
0.6011124984
 40
0.6325836185
 40
0.6639333376
 40
0.6951530522
 40
0.7262363603
 40
0.757179199
 40
0.7879799466
 40
0.818639484
 40
0.849161214
 40
0.8643743685
 40
0.8795554908
 40
0.9098217187
 40
0.9399749684
 40
0.9550154286
 40
0.9700325866
 40
1.0
 40
1.0
 40
1.0
 40
1.0
 10
9.5069601374
 20
9.7139822297
 30
0.0
 10
9.5069601374
 20
9.707611864
 30
0.0
 10
9.5072790916
 20
9.6980410615
 30
0.0
 10
9.5083336854
 20
9.6853124727
 30
0.0
 10
9.509811473
 20
9.6725679169
 30
0.0
 10
9.5124469145
 20
9.6566868591
 30
0.0
 10
9.5168483875
 20
9.6378180721
 30
0.0
 10
9.5224729502
 20
9.6191979657
 30
0.0
 10
9.5292956378
 20
9.60090917
 30
0.0
 10
9.5372862641
 20
9.5830322153
 30
0.0
 10
9.5464094987
 20
9.5656459754
 30
0.0
 10
9.556625034
 20
9.5488271095
 30
0.0
 10
9.5678877612
 20
9.5326497852
 30
0.0
 10
9.5801479678
 20
9.517185339
 30
0.0
 10
9.5933515566
 20
9.5025019692
 30
0.0
 10
9.6074402819
 20
9.4886644363
 30
0.0
 10
9.6223520047
 20
9.4757337803
 30
0.0
 10
9.6380209646
 20
9.4637670531
 30
0.0
 10
9.6543780671
 20
9.4528170694
 30
0.0
 10
9.6713511855
 20
9.4429321745
 30
0.0
 10
9.6888654758
 20
9.4341560324
 30
0.0
 10
9.7068437036
 20
9.4265274336
 30
0.0
 10
9.7252065802
 20
9.4200801244
 30
0.0
 10
9.7438731102
 20
9.4148426569
 30
0.0
 10
9.7627609396
 20
9.4108382617
 30
0.0
 10
9.7817867326
 20
9.4080847456
 30
0.0
 10
9.8008664702
 20
9.4065943985
 30
0.0
 10
9.8199160586
 20
9.4063739783
 30
0.0
 10
9.8388508041
 20
9.4074245144
 30
0.0
 10
9.8544834776
 20
9.4093578221
 30
0.0
 10
9.8668452416
 20
9.41153416
 30
0.0
 10
9.8790737783
 20
9.4141215124
 30
0.0
 10
9.8941378298
 20
9.4181297386
 30
0.0
 10
9.9088606424
 20
9.423162944
 30
0.0
 10
9.9203739801
 20
9.4277859533
 30
0.0
 10
9.9316829344
 20
9.4327934084
 30
0.0
 10
9.9399566912
 20
9.4369911156
 30
0.0
 10
9.9453602193
 20
9.4399773862
 30
0.0
  0
SPLINE
  5
3C2
100
AcDbEntity
  8
0
100
AcDbSpline
 62
7
  6
CONTINUOUS
 70
0
 71
3
 72
46
 73
42
 74
0
 42
0.0000001
 43
0.0000001
 44
0.0000000001
 40
0.0
 40
0.0
 40
0.0
 40
0.0
 40
0.0109030199
 40
0.0222145332
 40
0.0339285656
 40
0.0460383002
 40
0.05853605
 40
0.0714134541
 40
0.0982694235
 40
0.1265270178
 40
0.1560973298
 40
0.1868837411
 40
0.2187828745
 40
0.2516854335
 40
0.2854769644
 40
0.320038568
 40
0.3552475755
 40
0.3909782014
 40
0.4271021806
 40
0.4634893958
 40
0.5000084976
 40
0.5365275218
 40
0.5729145047
 40
0.6090380983
 40
0.6447681871
 40
0.6799765087
 40
0.714537281
 40
0.7483278393
 40
0.7812292892
 40
0.8131271828
 40
0.8439122297
 40
0.8734810602
 40
0.9017370642
 40
0.9153450058
 40
0.9285920906
 40
0.9414686047
 40
0.9539654667
 40
0.9660742704
 40
0.9777873802
 40
0.9890979304
 40
1.0
 40
1.0
 40
1.0
 40
1.0
 10
10.5447516806
 20
10.3905356213
 30
0.0
 10
10.547068666
 20
10.3914613092
 30
0.0
 10
10.5518121301
 20
10.3932910028
 30
0.0
 10
10.5591157193
 20
10.3959271808
 30
0.0
 10
10.5667327604
 20
10.398503431
 30
0.0
 10
10.5746558637
 20
10.4010171915
 30
0.0
 10
10.5828774103
 20
10.4034660957
 30
0.0
 10
10.5943884532
 20
10.4066866911
 30
0.0
 10
10.6094704839
 20
10.4105205771
 30
0.0
 10
10.628381459
 20
10.4147646899
 30
0.0
 10
10.6482771113
 20
10.4186976153
 30
0.0
 10
10.6690805587
 20
10.4223039685
 30
0.0
 10
10.6907115458
 20
10.425569614
 30
0.0
 10
10.7130864857
 20
10.4284817694
 30
0.0
 10
10.7361188832
 20
10.4310290396
 30
0.0
 10
10.7597196585
 20
10.4332014633
 30
0.0
 10
10.7837975067
 20
10.4349905487
 30
0.0
 10
10.8082592571
 20
10.4363893053
 30
0.0
 10
10.8330102388
 20
10.4373922693
 30
0.0
 10
10.8579546515
 20
10.4379955235
 30
0.0
 10
10.8829959404
 20
10.4381967125
 30
0.0
 10
10.9080371723
 20
10.437995051
 30
0.0
 10
10.9329814145
 20
10.4373913262
 30
0.0
 10
10.9577321127
 20
10.4363878956
 30
0.0
 10
10.9821934681
 20
10.4349886781
 30
0.0
 10
11.0062708113
 20
10.4331991392
 30
0.0
 10
11.0298709737
 20
10.4310262713
 30
0.0
 10
11.052902652
 20
10.4284785676
 30
0.0
 10
11.0752767734
 20
10.4255659919
 30
0.0
 10
11.0969068304
 20
10.4222999381
 30
0.0
 10
11.117709295
 20
10.4186932003
 30
0.0
 10
11.1376037209
 20
10.4147598797
 30
0.0
 10
11.153555794
 20
10.4111794372
 30
0.0
 10
11.1657996852
 20
10.4081543572
 30
0.0
 10
11.1745933587
 20
10.4058421693
 30
0.0
 10
11.1831047248
 20
10.4034604154
 30
0.0
 10
11.1913255761
 20
10.4010113862
 30
0.0
 10
11.1992479711
 20
10.3984974578
 30
0.0
 10
11.2068642882
 20
10.3959210806
 30
0.0
 10
11.2141671323
 20
10.3932847489
 30
0.0
 10
11.2189100951
 20
10.3914549723
 30
0.0
 10
11.2212268274
 20
10.3905292372
 30
0.0
  0
SPLINE
  5
3C3
100
AcDbEntity
  8
0
100
AcDbSpline
 62
7
  6
CONTINUOUS
 70
0
 71
3
 72
15
 73
11
 74
0
 42
0.0000001
 43
0.0000001
 44
0.0000000001
 40
0.0
 40
0.0
 40
0.0
 40
0.0
 40
0.126809393
 40
0.2530486508
 40
0.378732986
 40
0.5038865258
 40
0.6285432419
 40
0.7527458341
 40
0.8765452987
 40
1.0
 40
1.0
 40
1.0
 40
1.0
 10
9.5069601374
 20
9.7139822297
 30
0.0
 10
9.5069601374
 20
9.7202075847
 30
0.0
 10
9.5073647791
 20
9.7326342335
 30
0.0
 10
9.5091928564
 20
9.751149975
 30
0.0
 10
9.5122330166
 20
9.7694242837
 30
0.0
 10
9.5164724838
 20
9.7873782981
 30
0.0
 10
9.5218932797
 20
9.8049356904
 30
0.0
 10
9.5284725982
 20
9.8220217984
 30
0.0
 10
9.5361819255
 20
9.8385627706
 30
0.0
 10
9.5420615892
 20
9.8491950426
 30
0.0
 10
9.5451768519
 20
9.8543937739
 30
0.0
  0
SPLINE
  5
3C4
100
AcDbEntity
  8
0
100
AcDbSpline
 62
7
  6
CONTINUOUS
 70
0
 71
3
 72
23
 73
19
 74
0
 42
0.0000001
 43
0.0000001
 44
0.0000000001
 40
0.0
 40
0.0
 40
0.0
 40
0.0
 40
0.063776909
 40
0.1273449468
 40
0.1907019575
 40
0.2538561145
 40
0.3168131979
 40
0.3795820804
 40
0.4421733815
 40
0.5045993354
 40
0.5668738682
 40
0.6290123838
 40
0.6910316538
 40
0.75294965
 40
0.8147853622
 40
0.8765586114
 40
0.9382898593
 40
1.0
 40
1.0
 40
1.0
 40
1.0
 10
10.8587918721
 20
8.6745663741
 30
0.0
 10
10.8587918721
 20
8.6791486773
 30
0.0
 10
10.8590112065
 20
8.6882998288
 30
0.0
 10
10.8600011285
 20
8.7019708812
 30
0.0
 10
10.8616493768
 20
8.7155335743
 30
0.0
 10
10.8639519902
 20
8.7289560503
 30
0.0
 10
10.8669038355
 20
8.7422076316
 30
0.0
 10
10.8704980854
 20
8.7552576849
 30
0.0
 10
10.8747264724
 20
8.7680761468
 30
0.0
 10
10.8795792846
 20
8.7806334577
 30
0.0
 10
10.8850453751
 20
8.7929006482
 30
0.0
 10
10.8911121638
 20
8.8048494227
 30
0.0
 10
10.8977656604
 20
8.8164522262
 30
0.0
 10
10.904990545
 20
8.8276822998
 30
0.0
 10
10.9127701596
 20
8.8385137024
 30
0.0
 10
10.9210866675
 20
8.8489215241
 30
0.0
 10
10.9299205491
 20
8.8588814384
 30
0.0
 10
10.9361422989
 20
8.8652086407
 30
0.0
 10
10.9393313291
 20
8.8682890206
 30
0.0
  0
SPLINE
  5
3C5
100
AcDbEntity
  8
0
100
AcDbSpline
 62
7
  6
CONTINUOUS
 70
0
 71
3
 72
21
 73
17
 74
0
 42
0.0000001
 43
0.0000001
 44
0.0000000001
 40
0.0
 40
0.0
 40
0.0
 40
0.0
 40
0.1274736658
 40
0.2540668671
 40
0.3170668437
 40
0.3798654239
 40
0.4424734294
 40
0.5049033654
 40
0.5671697542
 40
0.6292888937
 40
0.6912786593
 40
0.7531583414
 40
0.8149484562
 40
0.8766705154
 40
0.9383467749
 40
1.0
 40
1.0
 40
1.0
 40
1.0
 10
9.7938401248
 20
9.4980040807
 30
0.0
 10
9.8003730663
 20
9.4975510196
 30
0.0
 10
9.8134479078
 20
9.4972958558
 30
0.0
 10
9.8297113651
 20
9.4986292857
 30
0.0
 10
9.8425188453
 20
9.5006817584
 30
0.0
 10
9.8519883848
 20
9.5027056229
 30
0.0
 10
9.8613115188
 20
9.5052112047
 30
0.0
 10
9.8704650208
 20
9.5081922793
 30
0.0
 10
9.8794257672
 20
9.5116413241
 30
0.0
 10
9.8881712097
 20
9.5155496598
 30
0.0
 10
9.8966792954
 20
9.5199074844
 30
0.0
 10
9.9049285805
 20
9.5247038526
 30
0.0
 10
9.9128982752
 20
9.5299266415
 30
0.0
 10
9.9205683647
 20
9.5355627733
 30
0.0
 10
9.9279192331
 20
9.5415978354
 30
0.0
 10
9.9325955934
 20
9.5458779041
 30
0.0
 10
9.9348736715
 20
9.5480783585
 30
0.0
  0
SPLINE
  5
3C6
100
AcDbEntity
  8
0
100
AcDbSpline
 62
7
  6
CONTINUOUS
 70
0
 71
3
 72
50
 73
46
 74
0
 42
0.0000001
 43
0.0000001
 44
0.0000000001
 40
0.0
 40
0.0
 40
0.0
 40
0.0
 40
0.0040030863
 40
0.0076573493
 40
0.0110038337
 40
0.0140854417
 40
0.0169466164
 40
0.0196335501
 40
0.0221929107
 40
0.0246703703
 40
0.0271092945
 40
0.0295486758
 40
0.0320219885
 40
0.0345573881
 40
0.0398927238
 40
0.0456793364
 40
0.0519792199
 40
0.0588148948
 40
0.0661914701
 40
0.0740996467
 40
0.082524926
 40
0.0914515295
 40
0.1008592894
 40
0.1107307281
 40
0.1210492767
 40
0.1317966421
 40
0.1545171006
 40
0.1787838719
 40
0.2045033025
 40
0.2315994794
 40
0.260011159
 40
0.2896911232
 40
0.320603602
 40
0.35272568
 40
0.3860431425
 40
0.4205550083
 40
0.4562678281
 40
0.5313873925
 40
0.6117044507
 40
0.6977567859
 40
0.790388214
 40
0.839531908
 40
0.890784534
 40
0.9442816345
 40
1.0
 40
1.0
 40
1.0
 40
1.0
 10
10.432178501
 20
8.3279516818
 30
0.0
 10
10.4319971544
 20
8.3279993102
 30
0.0
 10
10.4316531405
 20
8.3281021172
 30
0.0
 10
10.4311720944
 20
8.3282887785
 30
0.0
 10
10.4307482908
 20
8.3284987075
 30
0.0
 10
10.4303789693
 20
8.3287302389
 30
0.0
 10
10.4300617004
 20
8.328982138
 30
0.0
 10
10.4297942098
 20
8.3292530492
 30
0.0
 10
10.4295741688
 20
8.3295414803
 30
0.0
 10
10.4293996399
 20
8.3298462071
 30
0.0
 10
10.4292686835
 20
8.3301659177
 30
0.0
 10
10.4291791338
 20
8.3304992924
 30
0.0
 10
10.4291288598
 20
8.3308452715
 30
0.0
 10
10.4291116053
 20
8.3313302705
 30
0.0
 10
10.4291844451
 20
8.3319694823
 30
0.0
 10
10.429399942
 20
8.3327588679
 30
0.0
 10
10.4297340862
 20
8.3335815433
 30
0.0
 10
10.4301773569
 20
8.3344351345
 30
0.0
 10
10.4307225692
 20
8.3353170692
 30
0.0
 10
10.4313627677
 20
8.3362251659
 30
0.0
 10
10.4320920736
 20
8.3371573049
 30
0.0
 10
10.4329053209
 20
8.3381114203
 30
0.0
 10
10.4337975625
 20
8.3390860219
 30
0.0
 10
10.4347646601
 20
8.3400795375
 30
0.0
 10
10.4358028601
 20
8.3410906336
 30
0.0
 10
10.4373052696
 20
8.3424868626
 30
0.0
 10
10.4393437313
 20
8.3442648025
 30
0.0
 10
10.4419831428
 20
8.3464174098
 30
0.0
 10
10.4448426919
 20
8.3486221043
 30
0.0
 10
10.4479086187
 20
8.3508752532
 30
0.0
 10
10.4511699505
 20
8.3531743535
 30
0.0
 10
10.4546179671
 20
8.355517726
 30
0.0
 10
10.4582459538
 20
8.3579045379
 30
0.0
 10
10.4620490113
 20
8.3603344509
 30
0.0
 10
10.4660238732
 20
8.3628079365
 30
0.0
 10
10.4701688831
 20
8.365325765
 30
0.0
 10
10.4760215676
 20
8.3688030225
 30
0.0
 10
10.4837805651
 20
8.3732710897
 30
0.0
 10
10.4936676886
 20
8.3787655368
 30
0.0
 10
10.5043506568
 20
8.3845140913
 30
0.0
 10
10.5138108198
 20
8.3894518989
 30
0.0
 10
10.5218644878
 20
8.3935604103
 30
0.0
 10
10.5283071361
 20
8.3967929726
 30
0.0
 10
10.5350494539
 20
8.4001145152
 30
0.0
 10
10.5396572226
 20
8.4023364825
 30
0.0
 10
10.5420136816
 20
8.4034580202
 30
0.0
  0
SPLINE
  5
3C7
100
AcDbEntity
  8
0
100
AcDbSpline
 62
7
  6
CONTINUOUS
 70
0
 71
3
 72
42
 73
38
 74
0
 42
0.0000001
 43
0.0000001
 44
0.0000000001
 40
0.0
 40
0.0
 40
0.0
 40
0.0
 40
0.0309214871
 40
0.0464374568
 40
0.0619879034
 40
0.0931874205
 40
0.1245180095
 40
0.1559714476
 40
0.1875373739
 40
0.2192035883
 40
0.2509562358
 40
0.2827800566
 40
0.3146586399
 40
0.3465746948
 40
0.3785103308
 40
0.4104473447
 40
0.4423675114
 40
0.4742528747
 40
0.5060860351
 40
0.5378504314
 40
0.5695306129
 40
0.6011124984
 40
0.6325836185
 40
0.6639333376
 40
0.6951530522
 40
0.7262363603
 40
0.757179199
 40
0.7879799466
 40
0.818639484
 40
0.849161214
 40
0.8643743685
 40
0.8795554908
 40
0.9098217187
 40
0.9399749684
 40
0.9550154286
 40
0.9700325866
 40
1.0
 40
1.0
 40
1.0
 40
1.0
 10
10.9558489339
 20
8.7683163023
 30
0.0
 10
10.9558489339
 20
8.7619459366
 30
0.0
 10
10.9561678881
 20
8.7523751341
 30
0.0
 10
10.9572224819
 20
8.7396465453
 30
0.0
 10
10.9587002695
 20
8.7269019895
 30
0.0
 10
10.961335711
 20
8.7110209317
 30
0.0
 10
10.965737184
 20
8.6921521447
 30
0.0
 10
10.9713617467
 20
8.6735320383
 30
0.0
 10
10.9781844343
 20
8.6552432426
 30
0.0
 10
10.9861750605
 20
8.6373662879
 30
0.0
 10
10.9952982952
 20
8.619980048
 30
0.0
 10
11.0055138305
 20
8.6031611821
 30
0.0
 10
11.0167765577
 20
8.5869838578
 30
0.0
 10
11.0290367643
 20
8.5715194116
 30
0.0
 10
11.0422403531
 20
8.5568360418
 30
0.0
 10
11.0563290783
 20
8.5429985089
 30
0.0
 10
11.0712408012
 20
8.5300678529
 30
0.0
 10
11.0869097611
 20
8.5181011257
 30
0.0
 10
11.1032668636
 20
8.507151142
 30
0.0
 10
11.120239982
 20
8.4972662471
 30
0.0
 10
11.1377542723
 20
8.488490105
 30
0.0
 10
11.1557325001
 20
8.4808615062
 30
0.0
 10
11.1740953767
 20
8.474414197
 30
0.0
 10
11.1927619067
 20
8.4691767295
 30
0.0
 10
11.2116497361
 20
8.4651723343
 30
0.0
 10
11.2306755291
 20
8.4624188182
 30
0.0
 10
11.2497552667
 20
8.4609284711
 30
0.0
 10
11.2688048551
 20
8.4607080509
 30
0.0
 10
11.2877396006
 20
8.461758587
 30
0.0
 10
11.3033722741
 20
8.4636918947
 30
0.0
 10
11.3157340381
 20
8.4658682326
 30
0.0
 10
11.3279625748
 20
8.468455585
 30
0.0
 10
11.3430266263
 20
8.4724638112
 30
0.0
 10
11.3577494389
 20
8.4774970166
 30
0.0
 10
11.3692627766
 20
8.4821200259
 30
0.0
 10
11.3805717309
 20
8.487127481
 30
0.0
 10
11.3888454877
 20
8.4913251882
 30
0.0
 10
11.3942490158
 20
8.4943114588
 30
0.0
  0
SPLINE
  5
3C8
100
AcDbEntity
  8
0
100
AcDbSpline
 62
7
  6
CONTINUOUS
 70
0
 71
3
 72
15
 73
11
 74
0
 42
0.0000001
 43
0.0000001
 44
0.0000000001
 40
0.0
 40
0.0
 40
0.0
 40
0.0
 40
0.126809393
 40
0.2530486508
 40
0.378732986
 40
0.5038865258
 40
0.6285432419
 40
0.7527458341
 40
0.8765452987
 40
1.0
 40
1.0
 40
1.0
 40
1.0
 10
10.9558489339
 20
8.7683163023
 30
0.0
 10
10.9558489339
 20
8.7745416573
 30
0.0
 10
10.9562535756
 20
8.7869683061
 30
0.0
 10
10.9580816529
 20
8.8054840476
 30
0.0
 10
10.9611218131
 20
8.8237583563
 30
0.0
 10
10.9653612803
 20
8.8417123707
 30
0.0
 10
10.9707820762
 20
8.859269763
 30
0.0
 10
10.9773613947
 20
8.876355871
 30
0.0
 10
10.985070722
 20
8.8928968432
 30
0.0
 10
10.9909503857
 20
8.9035291152
 30
0.0
 10
10.9940656484
 20
8.9087278465
 30
0.0
  0
SPLINE
  5
3C9
100
AcDbEntity
  8
0
100
AcDbSpline
 62
7
  6
CONTINUOUS
 70
0
 71
3
 72
21
 73
17
 74
0
 42
0.0000001
 43
0.0000001
 44
0.0000000001
 40
0.0
 40
0.0
 40
0.0
 40
0.0
 40
0.1274736658
 40
0.2540668671
 40
0.3170668437
 40
0.3798654239
 40
0.4424734294
 40
0.5049033654
 40
0.5671697542
 40
0.6292888937
 40
0.6912786593
 40
0.7531583414
 40
0.8149484562
 40
0.8766705154
 40
0.9383467749
 40
1.0
 40
1.0
 40
1.0
 40
1.0
 10
11.2427289213
 20
8.5523381533
 30
0.0
 10
11.2492618628
 20
8.5518850922
 30
0.0
 10
11.2623367043
 20
8.5516299284
 30
0.0
 10
11.2786001616
 20
8.5529633583
 30
0.0
 10
11.2914076418
 20
8.555015831
 30
0.0
 10
11.3008771813
 20
8.5570396955
 30
0.0
 10
11.3102003153
 20
8.5595452774
 30
0.0
 10
11.3193538173
 20
8.5625263519
 30
0.0
 10
11.3283145637
 20
8.5659753967
 30
0.0
 10
11.3370600062
 20
8.5698837324
 30
0.0
 10
11.3455680919
 20
8.574241557
 30
0.0
 10
11.353817377
 20
8.5790379252
 30
0.0
 10
11.3617870717
 20
8.5842607141
 30
0.0
 10
11.3694571612
 20
8.5898968459
 30
0.0
 10
11.3768080296
 20
8.595931908
 30
0.0
 10
11.3814843899
 20
8.6002119767
 30
0.0
 10
11.383762468
 20
8.6024124312
 30
0.0
  0
SPLINE
  5
3CA
100
AcDbEntity
  8
0
100
AcDbSpline
 62
7
  6
CONTINUOUS
 70
0
 71
3
 72
42
 73
38
 74
0
 42
0.0000001
 43
0.0000001
 44
0.0000000001
 40
0.0
 40
0.0
 40
0.0
 40
0.0
 40
0.0309214871
 40
0.0464374568
 40
0.0619879034
 40
0.0931874205
 40
0.1245180095
 40
0.1559714476
 40
0.1875373739
 40
0.2192035883
 40
0.2509562358
 40
0.2827800566
 40
0.3146586399
 40
0.3465746948
 40
0.3785103308
 40
0.4104473447
 40
0.4423675114
 40
0.4742528747
 40
0.5060860351
 40
0.5378504314
 40
0.5695306129
 40
0.6011124984
 40
0.6325836185
 40
0.6639333376
 40
0.6951530522
 40
0.7262363603
 40
0.757179199
 40
0.7879799466
 40
0.818639484
 40
0.849161214
 40
0.8643743685
 40
0.8795554908
 40
0.9098217187
 40
0.9399749684
 40
0.9550154286
 40
0.9700325866
 40
1.0
 40
1.0
 40
1.0
 40
1.0
 10
9.5069601374
 20
7.2383142253
 30
0.0
 10
9.5069601374
 20
7.2319438595
 30
0.0
 10
9.5072790916
 20
7.222373057
 30
0.0
 10
9.5083336854
 20
7.2096444683
 30
0.0
 10
9.509811473
 20
7.1968999124
 30
0.0
 10
9.5124469145
 20
7.1810188546
 30
0.0
 10
9.5168483875
 20
7.1621500677
 30
0.0
 10
9.5224729502
 20
7.1435299612
 30
0.0
 10
9.5292956378
 20
7.1252411656
 30
0.0
 10
9.5372862641
 20
7.1073642108
 30
0.0
 10
9.5464094987
 20
7.089977971
 30
0.0
 10
9.556625034
 20
7.0731591051
 30
0.0
 10
9.5678877612
 20
7.0569817807
 30
0.0
 10
9.5801479678
 20
7.0415173346
 30
0.0
 10
9.5933515566
 20
7.0268339648
 30
0.0
 10
9.6074402819
 20
7.0129964319
 30
0.0
 10
9.6223520047
 20
7.0000657758
 30
0.0
 10
9.6380209646
 20
6.9880990487
 30
0.0
 10
9.6543780671
 20
6.977149065
 30
0.0
 10
9.6713511855
 20
6.9672641701
 30
0.0
 10
9.6888654758
 20
6.9584880279
 30
0.0
 10
9.7068437036
 20
6.9508594292
 30
0.0
 10
9.7252065802
 20
6.9444121199
 30
0.0
 10
9.7438731102
 20
6.9391746525
 30
0.0
 10
9.7627609396
 20
6.9351702573
 30
0.0
 10
9.7817867326
 20
6.9324167412
 30
0.0
 10
9.8008664702
 20
6.930926394
 30
0.0
 10
9.8199160586
 20
6.9307059738
 30
0.0
 10
9.8388508041
 20
6.9317565099
 30
0.0
 10
9.8544834776
 20
6.9336898176
 30
0.0
 10
9.8668452416
 20
6.9358661555
 30
0.0
 10
9.8790737783
 20
6.938453508
 30
0.0
 10
9.8941378298
 20
6.9424617341
 30
0.0
 10
9.9088606424
 20
6.9474949395
 30
0.0
 10
9.9203739801
 20
6.9521179489
 30
0.0
 10
9.9316829344
 20
6.9571254039
 30
0.0
 10
9.9399566912
 20
6.9613231111
 30
0.0
 10
9.9453602193
 20
6.9643093817
 30
0.0
  0
SPLINE
  5
3CB
100
AcDbEntity
  8
0
100
AcDbSpline
 62
7
  6
CONTINUOUS
 70
0
 71
3
 72
22
 73
18
 74
0
 42
0.0000001
 43
0.0000001
 44
0.0000000001
 40
0.0
 40
0.0
 40
0.0
 40
0.0
 40
0.0766713858
 40
0.1505262897
 40
0.2216871077
 40
0.2902988577
 40
0.4205289166
 40
0.4826203194
 40
0.5429927063
 40
0.6019132515
 40
0.6596727568
 40
0.7165818452
 40
0.7729665597
 40
0.8291630848
 40
0.8855111725
 40
0.9423477044
 40
1.0
 40
1.0
 40
1.0
 40
1.0
 10
10.4265812814
 20
10.5075621194
 30
0.0
 10
10.4257470936
 20
10.5067563558
 30
0.0
 10
10.4241414318
 20
10.5051406979
 30
0.0
 10
10.4218859006
 20
10.5026576579
 30
0.0
 10
10.419830328
 20
10.5001622113
 30
0.0
 10
10.4174005184
 20
10.4968778859
 30
0.0
 10
10.4153164353
 20
10.4935124298
 30
0.0
 10
10.413629005
 20
10.4900799467
 30
0.0
 10
10.4125876477
 20
10.4875389809
 30
0.0
 10
10.4117514445
 20
10.4849921148
 30
0.0
 10
10.4111208933
 20
10.4824404579
 30
0.0
 10
10.4106964774
 20
10.4798853
 30
0.0
 10
10.4104786246
 20
10.477327958
 30
0.0
 10
10.4104674403
 20
10.4747698479
 30
0.0
 10
10.410662982
 20
10.4722123252
 30
0.0
 10
10.4110650656
 20
10.4696569786
 30
0.0
 10
10.4114670663
 20
10.4679703778
 30
0.0
 10
10.4117007481
 20
10.4671301726
 30
0.0
  0
SPLINE
  5
3CC
100
AcDbEntity
  8
0
100
AcDbSpline
 62
7
  6
CONTINUOUS
 70
0
 71
3
 72
41
 73
37
 74
0
 42
0.0000001
 43
0.0000001
 44
0.0000000001
 40
0.0
 40
0.0
 40
0.0
 40
0.0
 40
0.00716611
 40
0.0143303644
 40
0.0215217909
 40
0.0287691971
 40
0.0361011193
 40
0.0435456823
 40
0.0511297664
 40
0.0588789997
 40
0.0749621013
 40
0.0919767967
 40
0.1100702
 40
0.1293625803
 40
0.1499494669
 40
0.1719046304
 40
0.1952827598
 40
0.2201221568
 40
0.2464471091
 40
0.2742698378
 40
0.3035922111
 40
0.334407043
 40
0.366699275
 40
0.4004468967
 40
0.4356214816
 40
0.4721888682
 40
0.51010944
 40
0.5493381769
 40
0.5898250938
 40
0.6315150432
 40
0.6743475223
 40
0.7182570283
 40
0.7631727251
 40
0.8090183014
 40
0.9031685247
 40
1.0
 40
1.0
 40
1.0
 40
1.0
 10
11.3557789747
 20
7.5877897133
 30
0.0
 10
11.3557789905
 20
7.5883952813
 30
0.0
 10
11.3558219375
 20
7.589606708
 30
0.0
 10
11.3560159455
 20
7.591416493
 30
0.0
 10
11.3563393159
 20
7.5932147529
 30
0.0
 10
11.3567919323
 20
7.5949994721
 30
0.0
 10
11.357373617
 20
7.5967688842
 30
0.0
 10
11.3580839759
 20
7.5985213335
 30
0.0
 10
11.3589227266
 20
7.6002553227
 30
0.0
 10
11.3602276349
 20
7.6025690217
 30
0.0
 10
11.3621958863
 20
7.6054149046
 30
0.0
 10
11.3650338752
 20
7.6086894174
 30
0.0
 10
11.3683710121
 20
7.6118604599
 30
0.0
 10
11.3722007748
 20
7.6149236461
 30
0.0
 10
11.3765166424
 20
7.617876759
 30
0.0
 10
11.3813112971
 20
7.6207192909
 30
0.0
 10
11.386576916
 20
7.6234522791
 30
0.0
 10
11.3923050098
 20
7.6260782486
 30
0.0
 10
11.3984862703
 20
7.6286015816
 30
0.0
 10
11.4051108013
 20
7.6310280203
 30
0.0
 10
11.4121680338
 20
7.6333647758
 30
0.0
 10
11.4196466873
 20
7.6356206717
 30
0.0
 10
11.427534911
 20
7.6378056436
 30
0.0
 10
11.4358201786
 20
7.6399308907
 30
0.0
 10
11.4444892625
 20
7.6420088191
 30
0.0
 10
11.4535282456
 20
7.6440526551
 30
0.0
 10
11.4629223887
 20
7.6460765621
 30
0.0
 10
11.4726560673
 20
7.6480954748
 30
0.0
 10
11.4827126963
 20
7.6501248329
 30
0.0
 10
11.4930745833
 20
7.6521806137
 30
0.0
 10
11.5037228366
 20
7.6542791246
 30
0.0
 10
11.5146372638
 20
7.6564367996
 30
0.0
 10
11.5257962641
 20
7.6586701674
 30
0.0
 10
11.5411058324
 20
7.6617982902
 30
0.0
 10
11.5606793775
 20
7.6659718161
 30
0.0
 10
11.5764043742
 20
7.6696088379
 30
0.0
 10
11.5843553898
 20
7.6715421605
 30
0.0
  0
SPLINE
  5
3CD
100
AcDbEntity
  8
0
100
AcDbSpline
 62
7
  6
CONTINUOUS
 70
0
 71
3
 72
15
 73
11
 74
0
 42
0.0000001
 43
0.0000001
 44
0.0000000001
 40
0.0
 40
0.0
 40
0.0
 40
0.0
 40
0.126809393
 40
0.2530486508
 40
0.378732986
 40
0.5038865258
 40
0.6285432419
 40
0.7527458341
 40
0.8765452987
 40
1.0
 40
1.0
 40
1.0
 40
1.0
 10
9.5069601374
 20
7.2383142253
 30
0.0
 10
9.5069601374
 20
7.2445395802
 30
0.0
 10
9.5073647791
 20
7.256966229
 30
0.0
 10
9.5091928564
 20
7.2754819705
 30
0.0
 10
9.5122330166
 20
7.2937562792
 30
0.0
 10
9.5164724838
 20
7.3117102936
 30
0.0
 10
9.5218932797
 20
7.3292676859
 30
0.0
 10
9.5284725982
 20
7.3463537939
 30
0.0
 10
9.5361819255
 20
7.3628947661
 30
0.0
 10
9.5420615892
 20
7.3735270382
 30
0.0
 10
9.5451768519
 20
7.3787257694
 30
0.0
  0
SPLINE
  5
3CE
100
AcDbEntity
  8
0
100
AcDbSpline
 62
7
  6
CONTINUOUS
 70
0
 71
3
 72
23
 73
19
 74
0
 42
0.0000001
 43
0.0000001
 44
0.0000000001
 40
0.0
 40
0.0
 40
0.0
 40
0.0
 40
0.063776909
 40
0.1273449468
 40
0.1907019575
 40
0.2538561145
 40
0.3168131979
 40
0.3795820804
 40
0.4421733815
 40
0.5045993354
 40
0.5668738682
 40
0.6290123838
 40
0.6910316538
 40
0.75294965
 40
0.8147853622
 40
0.8765586114
 40
0.9382898593
 40
1.0
 40
1.0
 40
1.0
 40
1.0
 10
9.4099030756
 20
7.1445642971
 30
0.0
 10
9.4099030756
 20
7.1491466002
 30
0.0
 10
9.41012241
 20
7.1582977518
 30
0.0
 10
9.411112332
 20
7.1719688041
 30
0.0
 10
9.4127605803
 20
7.1855314972
 30
0.0
 10
9.4150631937
 20
7.1989539732
 30
0.0
 10
9.418015039
 20
7.2122055546
 30
0.0
 10
9.4216092889
 20
7.2252556079
 30
0.0
 10
9.4258376759
 20
7.2380740698
 30
0.0
 10
9.4306904881
 20
7.2506313807
 30
0.0
 10
9.4361565786
 20
7.2628985711
 30
0.0
 10
9.4422233673
 20
7.2748473457
 30
0.0
 10
9.4488768639
 20
7.2864501491
 30
0.0
 10
9.4561017485
 20
7.2976802227
 30
0.0
 10
9.4638813631
 20
7.3085116253
 30
0.0
 10
9.472197871
 20
7.318919447
 30
0.0
 10
9.4810317526
 20
7.3288793613
 30
0.0
 10
9.4872535024
 20
7.3352065636
 30
0.0
 10
9.4904425326
 20
7.3382869435
 30
0.0
  0
SPLINE
  5
3CF
100
AcDbEntity
  8
0
100
AcDbSpline
 62
7
  6
CONTINUOUS
 70
0
 71
3
 72
21
 73
17
 74
0
 42
0.0000001
 43
0.0000001
 44
0.0000000001
 40
0.0
 40
0.0
 40
0.0
 40
0.0
 40
0.1274736658
 40
0.2540668671
 40
0.3170668437
 40
0.3798654239
 40
0.4424734294
 40
0.5049033654
 40
0.5671697542
 40
0.6292888937
 40
0.6912786593
 40
0.7531583414
 40
0.8149484562
 40
0.8766705154
 40
0.9383467749
 40
1.0
 40
1.0
 40
1.0
 40
1.0
 10
9.7938401248
 20
7.0223360762
 30
0.0
 10
9.8003730663
 20
7.0218830152
 30
0.0
 10
9.8134479078
 20
7.0216278513
 30
0.0
 10
9.8297113651
 20
7.0229612812
 30
0.0
 10
9.8425188453
 20
7.0250137539
 30
0.0
 10
9.8519883848
 20
7.0270376184
 30
0.0
 10
9.8613115188
 20
7.0295432003
 30
0.0
 10
9.8704650208
 20
7.0325242748
 30
0.0
 10
9.8794257672
 20
7.0359733196
 30
0.0
 10
9.8881712097
 20
7.0398816553
 30
0.0
 10
9.8966792954
 20
7.04423948
 30
0.0
 10
9.9049285805
 20
7.0490358481
 30
0.0
 10
9.9128982752
 20
7.054258637
 30
0.0
 10
9.9205683647
 20
7.0598947688
 30
0.0
 10
9.9279192331
 20
7.0659298309
 30
0.0
 10
9.9325955934
 20
7.0702098997
 30
0.0
 10
9.9348736715
 20
7.0724103541
 30
0.0
  0
SPLINE
  5
3D0
100
AcDbEntity
  8
0
100
AcDbSpline
 62
7
  6
CONTINUOUS
 70
0
 71
3
 72
33
 73
29
 74
0
 42
0.0000001
 43
0.0000001
 44
0.0000000001
 40
0.0
 40
0.0
 40
0.0
 40
0.0
 40
0.0048107334
 40
0.0097762154
 40
0.0204042064
 40
0.0261835842
 40
0.0323229398
 40
0.045794015
 40
0.0610070872
 40
0.078068807
 40
0.0970349568
 40
0.1179245629
 40
0.1407302792
 40
0.1654238345
 40
0.1919600695
 40
0.2202803731
 40
0.2503136843
 40
0.2819786197
 40
0.3151845679
 40
0.3498321436
 40
0.4230178074
 40
0.5006088117
 40
0.5815957547
 40
0.6649164842
 40
0.7494842458
 40
0.8342166237
 40
0.9180566097
 40
1.0
 40
1.0
 40
1.0
 40
1.0
 10
10.5789997941
 20
8.6263349916
 30
0.0
 10
10.5789997915
 20
8.6264716427
 30
0.0
 10
10.5790179671
 20
8.6267496431
 30
0.0
 10
10.5791266558
 20
8.6273201331
 30
0.0
 10
10.5793442401
 20
8.6278925296
 30
0.0
 10
10.5796507601
 20
8.6284553039
 30
0.0
 10
10.5800470959
 20
8.6290588139
 30
0.0
 10
10.5806811781
 20
8.6298220302
 30
0.0
 10
10.5816200914
 20
8.6307231924
 30
0.0
 10
10.5827568353
 20
8.631634742
 30
0.0
 10
10.5840879253
 20
8.6325543283
 30
0.0
 10
10.5856092899
 20
8.6334798089
 30
0.0
 10
10.5873160205
 20
8.6344089095
 30
0.0
 10
10.5892024189
 20
8.6353395863
 30
0.0
 10
10.5912620438
 20
8.6362699968
 30
0.0
 10
10.5934877949
 20
8.6371984207
 30
0.0
 10
10.595871882
 20
8.6381234331
 30
0.0
 10
10.5984059192
 20
8.6390437398
 30
0.0
 10
10.6010809376
 20
8.6399582327
 30
0.0
 10
10.6048929574
 20
8.6411911157
 30
0.0
 10
10.6099396657
 20
8.6427009485
 30
0.0
 10
10.6162877095
 20
8.6444467712
 30
0.0
 10
10.6229439794
 20
8.6461531843
 30
0.0
 10
10.6298153421
 20
8.6478155292
 30
0.0
 10
10.6368076431
 20
8.6494284445
 30
0.0
 10
10.6438277044
 20
8.6509853239
 30
0.0
 10
10.6507854784
 20
8.6524778625
 30
0.0
 10
10.655395799
 20
8.6534377329
 30
0.0
 10
10.6576759674
 20
8.6539054233
 30
0.0
  0
SPLINE
  5
3D1
100
AcDbEntity
  8
0
100
AcDbSpline
 62
4
  6
CONTINUOUS
 70
0
 71
3
 72
455
 73
451
 74
0
 42
0.0000001
 43
0.0000001
 44
0.0000000001
 40
0.0
 40
0.0
 40
0.0
 40
0.0
 40
0.015625
 40
0.0234375
 40
0.03125
 40
0.0390625
 40
0.04296875
 40
0.046875
 40
0.05078125
 40
0.052734375
 40
0.0546875
 40
0.056640625
 40
0.05859375
 40
0.0595703125
 40
0.060546875
 40
0.0610351562
 40
0.0615234375
 40
0.0620117188
 40
0.0622558594
 40
0.0625
 40
0.0627441406
 40
0.0629882812
 40
0.0634765625
 40
0.0639648438
 40
0.064453125
 40
0.0654296875
 40
0.06640625
 40
0.068359375
 40
0.0703125
 40
0.072265625
 40
0.07421875
 40
0.078125
 40
0.08203125
 40
0.0859375
 40
0.09375
 40
0.1015625
 40
0.10546875
 40
0.109375
 40
0.11328125
 40
0.115234375
 40
0.1171875
 40
0.119140625
 40
0.12109375
 40
0.1220703125
 40
0.123046875
 40
0.1235351562
 40
0.1240234375
 40
0.1245117188
 40
0.1247558594
 40
0.125
 40
0.1252441406
 40
0.1254882812
 40
0.1259765625
 40
0.1264648438
 40
0.126953125
 40
0.1279296875
 40
0.12890625
 40
0.130859375
 40
0.1328125
 40
0.134765625
 40
0.13671875
 40
0.140625
 40
0.14453125
 40
0.1484375
 40
0.15625
 40
0.1640625
 40
0.16796875
 40
0.171875
 40
0.17578125
 40
0.177734375
 40
0.1796875
 40
0.181640625
 40
0.18359375
 40
0.1845703125
 40
0.185546875
 40
0.1860351562
 40
0.1865234375
 40
0.1870117188
 40
0.1872558594
 40
0.1875
 40
0.1877441406
 40
0.1879882812
 40
0.1884765625
 40
0.1889648438
 40
0.189453125
 40
0.1904296875
 40
0.19140625
 40
0.193359375
 40
0.1953125
 40
0.197265625
 40
0.19921875
 40
0.203125
 40
0.20703125
 40
0.2109375
 40
0.21875
 40
0.2265625
 40
0.23046875
 40
0.234375
 40
0.23828125
 40
0.240234375
 40
0.2421875
 40
0.244140625
 40
0.24609375
 40
0.2470703125
 40
0.248046875
 40
0.2485351562
 40
0.2490234375
 40
0.2495117188
 40
0.2497558594
 40
0.2498779297
 40
0.25
 40
0.2501220703
 40
0.2502441406
 40
0.2504882812
 40
0.2509765625
 40
0.2514648438
 40
0.251953125
 40
0.2529296875
 40
0.25390625
 40
0.255859375
 40
0.2578125
 40
0.259765625
 40
0.26171875
 40
0.265625
 40
0.26953125
 40
0.2734375
 40
0.28125
 40
0.2890625
 40
0.29296875
 40
0.296875
 40
0.30078125
 40
0.302734375
 40
0.3046875
 40
0.306640625
 40
0.30859375
 40
0.3095703125
 40
0.310546875
 40
0.3110351562
 40
0.3115234375
 40
0.3120117188
 40
0.3122558594
 40
0.3125
 40
0.3127441406
 40
0.3129882812
 40
0.3134765625
 40
0.3139648438
 40
0.314453125
 40
0.3154296875
 40
0.31640625
 40
0.318359375
 40
0.3203125
 40
0.322265625
 40
0.32421875
 40
0.328125
 40
0.33203125
 40
0.3359375
 40
0.34375
 40
0.3515625
 40
0.35546875
 40
0.359375
 40
0.36328125
 40
0.365234375
 40
0.3671875
 40
0.369140625
 40
0.37109375
 40
0.3720703125
 40
0.373046875
 40
0.3735351562
 40
0.3740234375
 40
0.3745117188
 40
0.3747558594
 40
0.375
 40
0.3752441406
 40
0.3754882812
 40
0.3759765625
 40
0.3764648438
 40
0.376953125
 40
0.3779296875
 40
0.37890625
 40
0.380859375
 40
0.3828125
 40
0.384765625
 40
0.38671875
 40
0.390625
 40
0.39453125
 40
0.3984375
 40
0.40625
 40
0.4140625
 40
0.41796875
 40
0.421875
 40
0.42578125
 40
0.427734375
 40
0.4296875
 40
0.431640625
 40
0.43359375
 40
0.4345703125
 40
0.435546875
 40
0.4360351562
 40
0.4365234375
 40
0.4370117188
 40
0.4372558594
 40
0.4375
 40
0.4377441406
 40
0.4379882812
 40
0.4384765625
 40
0.4389648438
 40
0.439453125
 40
0.4404296875
 40
0.44140625
 40
0.443359375
 40
0.4453125
 40
0.447265625
 40
0.44921875
 40
0.453125
 40
0.45703125
 40
0.4609375
 40
0.46875
 40
0.4765625
 40
0.48046875
 40
0.484375
 40
0.48828125
 40
0.490234375
 40
0.4921875
 40
0.494140625
 40
0.49609375
 40
0.4970703125
 40
0.498046875
 40
0.4985351562
 40
0.4990234375
 40
0.4995117188
 40
0.4997558594
 40
0.5
 40
0.5002441406
 40
0.5004882812
 40
0.5009765625
 40
0.5014648438
 40
0.501953125
 40
0.5029296875
 40
0.50390625
 40
0.505859375
 40
0.5078125
 40
0.509765625
 40
0.51171875
 40
0.515625
 40
0.51953125
 40
0.5234375
 40
0.53125
 40
0.5390625
 40
0.54296875
 40
0.546875
 40
0.55078125
 40
0.552734375
 40
0.5546875
 40
0.556640625
 40
0.55859375
 40
0.5595703125
 40
0.560546875
 40
0.5615234375
 40
0.5620117188
 40
0.5622558594
 40
0.5625
 40
0.5627441406
 40
0.5629882812
 40
0.5634765625
 40
0.564453125
 40
0.5654296875
 40
0.56640625
 40
0.568359375
 40
0.5703125
 40
0.572265625
 40
0.57421875
 40
0.578125
 40
0.58203125
 40
0.5859375
 40
0.59375
 40
0.6015625
 40
0.60546875
 40
0.609375
 40
0.61328125
 40
0.615234375
 40
0.6171875
 40
0.619140625
 40
0.62109375
 40
0.6220703125
 40
0.623046875
 40
0.6240234375
 40
0.6245117188
 40
0.6247558594
 40
0.625
 40
0.6252441406
 40
0.6254882812
 40
0.6259765625
 40
0.626953125
 40
0.6279296875
 40
0.62890625
 40
0.630859375
 40
0.6328125
 40
0.634765625
 40
0.63671875
 40
0.640625
 40
0.64453125
 40
0.6484375
 40
0.65625
 40
0.6640625
 40
0.66796875
 40
0.671875
 40
0.67578125
 40
0.677734375
 40
0.6796875
 40
0.681640625
 40
0.68359375
 40
0.6845703125
 40
0.685546875
 40
0.6860351562
 40
0.6865234375
 40
0.6870117188
 40
0.6872558594
 40
0.6875
 40
0.6877441406
 40
0.6879882812
 40
0.6884765625
 40
0.6889648438
 40
0.689453125
 40
0.6904296875
 40
0.69140625
 40
0.693359375
 40
0.6953125
 40
0.697265625
 40
0.69921875
 40
0.703125
 40
0.70703125
 40
0.7109375
 40
0.71875
 40
0.7265625
 40
0.73046875
 40
0.734375
 40
0.73828125
 40
0.740234375
 40
0.7421875
 40
0.744140625
 40
0.74609375
 40
0.7470703125
 40
0.748046875
 40
0.7490234375
 40
0.7495117188
 40
0.7497558594
 40
0.75
 40
0.7502441406
 40
0.7504882812
 40
0.7509765625
 40
0.751953125
 40
0.7529296875
 40
0.75390625
 40
0.755859375
 40
0.7578125
 40
0.759765625
 40
0.76171875
 40
0.765625
 40
0.76953125
 40
0.7734375
 40
0.78125
 40
0.7890625
 40
0.79296875
 40
0.796875
 40
0.80078125
 40
0.802734375
 40
0.8046875
 40
0.806640625
 40
0.80859375
 40
0.8095703125
 40
0.810546875
 40
0.8115234375
 40
0.8120117188
 40
0.8122558594
 40
0.8125
 40
0.8127441406
 40
0.8129882812
 40
0.8134765625
 40
0.814453125
 40
0.8154296875
 40
0.81640625
 40
0.818359375
 40
0.8203125
 40
0.822265625
 40
0.82421875
 40
0.828125
 40
0.83203125
 40
0.8359375
 40
0.84375
 40
0.8515625
 40
0.85546875
 40
0.859375
 40
0.86328125
 40
0.865234375
 40
0.8671875
 40
0.869140625
 40
0.87109375
 40
0.8720703125
 40
0.873046875
 40
0.8740234375
 40
0.8745117188
 40
0.8747558594
 40
0.875
 40
0.8752441406
 40
0.8754882812
 40
0.8759765625
 40
0.876953125
 40
0.8779296875
 40
0.87890625
 40
0.880859375
 40
0.8828125
 40
0.884765625
 40
0.88671875
 40
0.890625
 40
0.89453125
 40
0.8984375
 40
0.90625
 40
0.9140625
 40
0.91796875
 40
0.921875
 40
0.92578125
 40
0.927734375
 40
0.9296875
 40
0.931640625
 40
0.93359375
 40
0.9345703125
 40
0.935546875
 40
0.9360351562
 40
0.9365234375
 40
0.9370117188
 40
0.9372558594
 40
0.9375
 40
0.9377441406
 40
0.9379882812
 40
0.9384765625
 40
0.9389648438
 40
0.939453125
 40
0.9404296875
 40
0.94140625
 40
0.943359375
 40
0.9453125
 40
0.947265625
 40
0.94921875
 40
0.953125
 40
0.95703125
 40
0.9609375
 40
0.96875
 40
0.9765625
 40
0.984375
 40
1.0
 40
1.0
 40
1.0
 40
1.0
 10
11.0399995488
 20
9.9422377408
 30
0.0
 10
11.0368663618
 20
9.9421478164
 30
0.0
 10
11.0321665815
 20
9.9420129297
 30
0.0
 10
11.0259002076
 20
9.9418330809
 30
0.0
 10
11.0212004272
 20
9.9416981943
 30
0.0
 10
11.0172839436
 20
9.9415857888
 30
0.0
 10
11.0141507567
 20
9.9414958643
 30
0.0
 10
11.0118008665
 20
9.9414284211
 30
0.0
 10
11.0098426247
 20
9.9413722181
 30
0.0
 10
11.0082760311
 20
9.9413272564
 30
0.0
 10
11.0071010863
 20
9.9412935333
 30
0.0
 10
11.0059261402
 20
9.9412598169
 30
0.0
 10
11.0049470225
 20
9.9412316992
 30
0.0
 10
11.0041637192
 20
9.9412092515
 30
0.0
 10
11.0036741754
 20
9.9411951157
 30
0.0
 10
11.0032824929
 20
9.9411840498
 30
0.0
 10
11.0029888608
 20
9.941175086
 30
0.0
 10
11.0027437546
 20
9.9411697295
 30
0.0
 10
11.0025485955
 20
9.9411607044
 30
0.0
 10
11.0023996964
 20
9.9411668873
 30
0.0
 10
11.0022604534
 20
9.9411236335
 30
0.0
 10
11.002071423
 20
9.9410832306
 30
0.0
 10
11.0018362924
 20
9.9410268022
 30
0.0
 10
11.0015536403
 20
9.9409616241
 30
0.0
 10
11.0011769438
 20
9.9408738342
 30
0.0
 10
11.0007060139
 20
9.9407644001
 30
0.0
 10
10.9999525592
 20
9.940589136
 30
0.0
 10
10.9990107295
 20
9.9403701141
 30
0.0
 10
10.9978805387
 20
9.9401072629
 30
0.0
 10
10.9967503467
 20
9.9398444183
 30
0.0
 10
10.9952434244
 20
9.9394939566
 30
0.0
 10
10.9933597713
 20
9.9390558802
 30
0.0
 10
10.9910993877
 20
9.9385301882
 30
0.0
 10
10.9880855429
 20
9.9378292657
 30
0.0
 10
10.9843182369
 20
9.9369531125
 30
0.0
 10
10.9805509309
 20
9.9360769594
 30
0.0
 10
10.9775370861
 20
9.9353760368
 30
0.0
 10
10.9752767025
 20
9.934850345
 30
0.0
 10
10.9733930496
 20
9.9344122681
 30
0.0
 10
10.971886127
 20
9.9340618073
 30
0.0
 10
10.9707559357
 20
9.93379896
 30
0.0
 10
10.9696257419
 20
9.9335361191
 30
0.0
 10
10.9686839217
 20
9.9333170651
 30
0.0
 10
10.9679304477
 20
9.9331418665
 30
0.0
 10
10.967459567
 20
9.933032266
 30
0.0
 10
10.9670827695
 20
9.9329448176
 30
0.0
 10
10.966800426
 20
9.932878596
 30
0.0
 10
10.9665643298
 20
9.9328254324
 30
0.0
 10
10.9663772693
 20
9.9327783687
 30
0.0
 10
10.9662320107
 20
9.9327554567
 30
0.0
 10
10.9661056966
 20
9.9326852682
 30
0.0
 10
10.9659306602
 20
9.9326081978
 30
0.0
 10
10.9657141352
 20
9.9325061938
 30
0.0
 10
10.9654533333
 20
9.9323862142
 30
0.0
 10
10.9651059369
 20
9.9322253944
 30
0.0
 10
10.9646715752
 20
9.9320246597
 30
0.0
 10
10.9639766615
 20
9.9317033221
 30
0.0
 10
10.963107997
 20
9.9313017056
 30
0.0
 10
10.9620656091
 20
9.9308197421
 30
0.0
 10
10.9610232187
 20
9.9303377849
 30
0.0
 10
10.9596333658
 20
9.929695173
 30
0.0
 10
10.9578960493
 20
9.928891909
 30
0.0
 10
10.9558112696
 20
9.9279279919
 30
0.0
 10
10.9530315633
 20
9.9266427692
 30
0.0
 10
10.9495569305
 20
9.9250362407
 30
0.0
 10
10.9460822976
 20
9.9234297123
 30
0.0
 10
10.9433025914
 20
9.9221444895
 30
0.0
 10
10.9412178116
 20
9.9211805725
 30
0.0
 10
10.9394804953
 20
9.9203773081
 30
0.0
 10
10.938090642
 20
9.9197346971
 30
0.0
 10
10.9370482528
 20
9.9192527373
 30
0.0
 10
10.9360058603
 20
9.9187707837
 30
0.0
 10
10.9351372102
 20
9.9183691362
 30
0.0
 10
10.9344422672
 20
9.9180478618
 30
0.0
 10
10.9340079799
 20
9.9178469661
 30
0.0
 10
10.9336604308
 20
9.9176864768
 30
0.0
 10
10.9334000954
 20
9.9175654875
 30
0.0
 10
10.9331821111
 20
9.9174666427
 30
0.0
 10
10.9330100519
 20
9.917383127
 30
0.0
 10
10.9328746455
 20
9.9173326221
 30
0.0
 10
10.9327635231
 20
9.9172358096
 30
0.0
 10
10.9326068772
 20
9.917122902
 30
0.0
 10
10.9324139802
 20
9.9169762178
 30
0.0
 10
10.9321812581
 20
9.9168025722
 30
0.0
 10
10.931871397
 20
9.916570215
 30
0.0
 10
10.9314839217
 20
9.9162800526
 30
0.0
 10
10.9308640445
 20
9.915815634
 30
0.0
 10
10.9300891694
 20
9.9152351652
 30
0.0
 10
10.9291593316
 20
9.9145385794
 30
0.0
 10
10.9282294904
 20
9.9138419997
 30
0.0
 10
10.9269897034
 20
9.9129132247
 30
0.0
 10
10.9254399692
 20
9.9117522567
 30
0.0
 10
10.9235802883
 20
9.9103590947
 30
0.0
 10
10.9211007137
 20
9.9085015456
 30
0.0
 10
10.9180012455
 20
9.9061796091
 30
0.0
 10
10.9149017774
 20
9.9038576727
 30
0.0
 10
10.9124222028
 20
9.9020001235
 30
0.0
 10
10.9105625219
 20
9.9006069616
 30
0.0
 10
10.9090127877
 20
9.8994459934
 30
0.0
 10
10.9077730006
 20
9.8985172187
 30
0.0
 10
10.9068431598
 20
9.8978206381
 30
0.0
 10
10.9059133208
 20
9.8971240558
 30
0.0
 10
10.9051384491
 20
9.8965435759
 30
0.0
 10
10.9045185648
 20
9.8960791801
 30
0.0
 10
10.9041311076
 20
9.8957889596
 30
0.0
 10
10.9038212095
 20
9.8955567217
 30
0.0
 10
10.9035886005
 20
9.8953827116
 30
0.0
 10
10.9033953496
 20
9.8952371679
 30
0.0
 10
10.9032589162
 20
9.8951363377
 30
0.0
 10
10.9031827621
 20
9.8950770804
 30
0.0
 10
10.9031205537
 20
9.8950372573
 30
0.0
 10
10.9030778127
 20
9.894979775
 30
0.0
 10
10.9030140342
 20
9.8949092917
 30
0.0
 10
10.9029055858
 20
9.894783076
 30
0.0
 10
10.9027490053
 20
9.8946042682
 30
0.0
 10
10.9025618168
 20
9.8943890567
 30
0.0
 10
10.9023119847
 20
9.8941023323
 30
0.0
 10
10.9019997794
 20
9.8937438499
 30
0.0
 10
10.9015002035
 20
9.8931703212
 30
0.0
 10
10.9008757499
 20
9.8924533955
 30
0.0
 10
10.9001263985
 20
9.891593091
 30
0.0
 10
10.8993770491
 20
9.8907327848
 30
0.0
 10
10.8983779158
 20
9.8895857104
 30
0.0
 10
10.8971289995
 20
9.8881518673
 30
0.0
 10
10.8956302997
 20
9.8864312556
 30
0.0
 10
10.8936320335
 20
9.8841371067
 30
0.0
 10
10.8911342006
 20
9.8812694205
 30
0.0
 10
10.8886363678
 20
9.8784017343
 30
0.0
 10
10.8866381016
 20
9.8761075854
 30
0.0
 10
10.8851394018
 20
9.8743869737
 30
0.0
 10
10.8838904856
 20
9.8729531305
 30
0.0
 10
10.8828913521
 20
9.8718060563
 30
0.0
 10
10.8821420034
 20
9.8709457496
 30
0.0
 10
10.8813926491
 20
9.870085447
 30
0.0
 10
10.8807682046
 20
9.8693685154
 30
0.0
 10
10.8802686101
 20
9.8687949988
 30
0.0
 10
10.8799564521
 20
9.8684364855
 30
0.0
 10
10.8797065229
 20
9.8681498247
 30
0.0
 10
10.8795196312
 20
9.8679344189
 30
0.0
 10
10.8793621221
 20
9.8677562188
 30
0.0
 10
10.8792400756
 20
9.8676107325
 30
0.0
 10
10.8791377178
 20
9.8675096137
 30
0.0
 10
10.8790766714
 20
9.8673779743
 30
0.0
 10
10.8789808456
 20
9.8672131164
 30
0.0
 10
10.8788660144
 20
9.8670033862
 30
0.0
 10
10.8787260977
 20
9.8667532757
 30
0.0
 10
10.8785402823
 20
9.8664192481
 30
0.0
 10
10.8783077597
 20
9.8660019008
 30
0.0
 10
10.8779358651
 20
9.8653340406
 30
0.0
 10
10.8774709483
 20
9.8644992511
 30
0.0
 10
10.8769130689
 20
9.8634974885
 30
0.0
 10
10.876355184
 20
9.8624957299
 30
0.0
 10
10.8756113394
 20
9.8611600503
 30
0.0
 10
10.8746815329
 20
9.8594904514
 30
0.0
 10
10.8735657655
 20
9.8574869325
 30
0.0
 10
10.8720780754
 20
9.854815574
 30
0.0
 10
10.8702184629
 20
9.8514763758
 30
0.0
 10
10.8683588504
 20
9.8481371777
 30
0.0
 10
10.8668711604
 20
9.8454658191
 30
0.0
 10
10.8657553928
 20
9.8434623003
 30
0.0
 10
10.8648255867
 20
9.8417927011
 30
0.0
 10
10.8640817413
 20
9.8404570221
 30
0.0
 10
10.8635238588
 20
9.839455262
 30
0.0
 10
10.8629659702
 20
9.8384535049
 30
0.0
 10
10.8625010823
 20
9.837618698
 30
0.0
 10
10.8621291287
 20
9.8369508734
 30
0.0
 10
10.8618967561
 20
9.8365334353
 30
0.0
 10
10.8617106328
 20
9.8361995942
 30
0.0
 10
10.861571657
 20
9.8359489139
 30
0.0
 10
10.8614538819
 20
9.8357409664
 30
0.0
 10
10.8613640622
 20
9.8355724715
 30
0.0
 10
10.8612846734
 20
9.8354519393
 30
0.0
 10
10.8612511808
 20
9.8353091195
 30
0.0
 10
10.8611904918
 20
9.8351264784
 30
0.0
 10
10.8611201311
 20
9.834895506
 30
0.0
 10
10.8610333439
 20
9.8346194824
 30
0.0
 10
10.86091845
 20
9.8342510516
 30
0.0
 10
10.860774551
 20
9.8337906498
 30
0.0
 10
10.86054447
 20
9.8330539305
 30
0.0
 10
10.8602568148
 20
9.8321330576
 30
0.0
 10
10.8599116516
 20
9.8310279989
 30
0.0
 10
10.8595664822
 20
9.8299229432
 30
0.0
 10
10.8591062586
 20
9.8284495345
 30
0.0
 10
10.8585309783
 20
9.8266077741
 30
0.0
 10
10.8578406423
 20
9.8243976614
 30
0.0
 10
10.8569201941
 20
9.8214508445
 30
0.0
 10
10.855769634
 20
9.8177673234
 30
0.0
 10
10.8546190738
 20
9.8140838023
 30
0.0
 10
10.8536986257
 20
9.8111369854
 30
0.0
 10
10.8530082895
 20
9.8089268728
 30
0.0
 10
10.8524330097
 20
9.8070851121
 30
0.0
 10
10.8519727851
 20
9.8056117039
 30
0.0
 10
10.8516276185
 20
9.804506647
 30
0.0
 10
10.8512824452
 20
9.8034015926
 30
0.0
 10
10.8509948213
 20
9.8024807064
 30
0.0
 10
10.8507646764
 20
9.8017440142
 30
0.0
 10
10.8506209402
 20
9.8012835435
 30
0.0
 10
10.8505057121
 20
9.8009152541
 30
0.0
 10
10.8504199458
 20
9.8006387984
 30
0.0
 10
10.8503463909
 20
9.8004091779
 30
0.0
 10
10.8502922187
 20
9.8002237786
 30
0.0
 10
10.8502388243
 20
9.8000893823
 30
0.0
 10
10.850234155
 20
9.7999372247
 30
0.0
 10
10.8502109089
 20
9.7997405522
 30
0.0
 10
10.8501876908
 20
9.7994925829
 30
0.0
 10
10.8501573297
 20
9.7991959308
 30
0.0
 10
10.8501177211
 20
9.7988000765
 30
0.0
 10
10.8500679115
 20
9.7983053676
 30
0.0
 10
10.8499883832
 20
9.7975137724
 30
0.0
 10
10.8498889155
 20
9.7965242993
 30
0.0
 10
10.8497695789
 20
9.7953369227
 30
0.0
 10
10.8496502357
 20
9.7941495485
 30
0.0
 10
10.8494911136
 20
9.792566382
 30
0.0
 10
10.8492922103
 20
9.7905874241
 30
0.0
 10
10.8490535267
 20
9.7882126746
 30
0.0
 10
10.8487352818
 20
9.7850463419
 30
0.0
 10
10.8483374756
 20
9.7810884261
 30
0.0
 10
10.8479396694
 20
9.7771305103
 30
0.0
 10
10.8476214245
 20
9.7739641776
 30
0.0
 10
10.8473827408
 20
9.7715894281
 30
0.0
 10
10.8471838379
 20
9.7696104702
 30
0.0
 10
10.847024715
 20
9.7680273039
 30
0.0
 10
10.8469053746
 20
9.7668399291
 30
0.0
 10
10.8467860273
 20
9.7656525543
 30
0.0
 10
10.8466865925
 20
9.7646630756
 30
0.0
 10
10.8466069971
 20
9.7638714918
 30
0.0
 10
10.8465573584
 20
9.763376754
 30
0.0
 10
10.8465173991
 20
9.762980959
 30
0.0
 10
10.8464881096
 20
9.7626841257
 30
0.0
 10
10.8464615384
 20
9.7624367236
 30
0.0
 10
10.8464451334
 20
9.7622388938
 30
0.0
 10
10.8464195716
 20
9.7620902704
 30
0.0
 10
10.8464446163
 20
9.7619426051
 30
0.0
 10
10.8464603316
 20
9.7617453834
 30
0.0
 10
10.8464860409
 20
9.761498971
 30
0.0
 10
10.846514296
 20
9.7612032271
 30
0.0
 10
10.8465528761
 20
9.7608089189
 30
0.0
 10
10.8466007909
 20
9.7603160279
 30
0.0
 10
10.846677628
 20
9.7595274055
 30
0.0
 10
10.8467736149
 20
9.7585416264
 30
0.0
 10
10.8468888247
 20
9.757358692
 30
0.0
 10
10.8470040276
 20
9.7561757574
 30
0.0
 10
10.8471576339
 20
9.7545985113
 30
0.0
 10
10.847349641
 20
9.7526269538
 30
0.0
 10
10.8475800498
 20
9.7502610847
 30
0.0
 10
10.8478872614
 20
9.7471065925
 30
0.0
 10
10.848271276
 20
9.7431634774
 30
0.0
 10
10.8486552906
 20
9.7392203623
 30
0.0
 10
10.8489625022
 20
9.7360658701
 30
0.0
 10
10.8491929112
 20
9.7337000011
 30
0.0
 10
10.8493849177
 20
9.7317284434
 30
0.0
 10
10.8495385252
 20
9.7301511975
 30
0.0
 10
10.8496537244
 20
9.7289682623
 30
0.0
 10
10.849768948
 20
9.7277853303
 30
0.0
 10
10.8498648918
 20
9.7267995438
 30
0.0
 10
10.8499418168
 20
9.7260109365
 30
0.0
 10
10.8499990461
 20
9.7254194212
 30
0.0
 10
10.8500482148
 20
9.7249266819
 30
0.0
 10
10.850079733
 20
9.7245813914
 30
0.0
 10
10.8501022713
 20
9.724384665
 30
0.0
 10
10.8501064199
 20
9.7242354792
 30
0.0
 10
10.850159325
 20
9.7240925662
 30
0.0
 10
10.8502128582
 20
9.7238998275
 30
0.0
 10
10.8503144652
 20
9.7235635542
 30
0.0
 10
10.8504554755
 20
9.7230826308
 30
0.0
 10
10.8506264609
 20
9.7225057509
 30
0.0
 10
10.8508538222
 20
9.721736498
 30
0.0
 10
10.8511382362
 20
9.7207749591
 30
0.0
 10
10.851479442
 20
9.7196211008
 30
0.0
 10
10.8518206722
 20
9.7184672456
 30
0.0
 10
10.8522756372
 20
9.716928771
 30
0.0
 10
10.8528443464
 20
9.715005678
 30
0.0
 10
10.8535267962
 20
9.7126979663
 30
0.0
 10
10.8544367296
 20
9.7096210174
 30
0.0
 10
10.8555741463
 20
9.7057748313
 30
0.0
 10
10.8567115631
 20
9.7019286452
 30
0.0
 10
10.8576214964
 20
9.6988516963
 30
0.0
 10
10.8583039467
 20
9.6965439847
 30
0.0
 10
10.8588726543
 20
9.6946208914
 30
0.0
 10
10.8593276226
 20
9.6930824174
 30
0.0
 10
10.8596688428
 20
9.69192856
 30
0.0
 10
10.8600100859
 20
9.6907747103
 30
0.0
 10
10.8602943837
 20
9.6898131445
 30
0.0
 10
10.8605219821
 20
9.6890439467
 30
0.0
 10
10.8606922431
 20
9.6884668983
 30
0.0
 10
10.86083552
 20
9.687986502
 30
0.0
 10
10.8609330807
 20
9.6876492877
 30
0.0
 10
10.8609930972
 20
9.6874580568
 30
0.0
 10
10.8610260879
 20
9.6873105123
 30
0.0
 10
10.8611050314
 20
9.6871787214
 30
0.0
 10
10.8611942605
 20
9.6869975052
 30
0.0
 10
10.8613578796
 20
9.686682937
 30
0.0
 10
10.8615877167
 20
9.6862322153
 30
0.0
 10
10.8618651924
 20
9.6856919223
 30
0.0
 10
10.8622345764
 20
9.6849713314
 30
0.0
 10
10.8626965066
 20
9.6840706615
 30
0.0
 10
10.8632507369
 20
9.6829898281
 30
0.0
 10
10.8638049903
 20
9.6819090027
 30
0.0
 10
10.8645439867
 20
9.6804678993
 30
0.0
 10
10.865467735
 20
9.678666521
 30
0.0
 10
10.8665762318
 20
9.6765048667
 30
0.0
 10
10.8680542279
 20
9.6736226611
 30
0.0
 10
10.8699017229
 20
9.670019904
 30
0.0
 10
10.871749218
 20
9.666417147
 30
0.0
 10
10.8732272141
 20
9.6635349413
 30
0.0
 10
10.874335711
 20
9.6613732871
 30
0.0
 10
10.8752594588
 20
9.6595719086
 30
0.0
 10
10.8759984564
 20
9.6581308056
 30
0.0
 10
10.8765527062
 20
9.6570499791
 30
0.0
 10
10.8771069499
 20
9.6559691497
 30
0.0
 10
10.8775688385
 20
9.6550684675
 30
0.0
 10
10.8779383073
 20
9.6543479017
 30
0.0
 10
10.878169321
 20
9.6538975936
 30
0.0
 10
10.8783539129
 20
9.653537243
 30
0.0
 10
10.8784929565
 20
9.6532672649
 30
0.0
 10
10.8786069185
 20
9.6530413773
 30
0.0
 10
10.8787023666
 20
9.6528626988
 30
0.0
 10
10.878762262
 20
9.6527231386
 30
0.0
 10
10.8788667809
 20
9.6526047678
 30
0.0
 10
10.8789905518
 20
9.6524395384
 30
0.0
 10
10.8791506135
 20
9.6522355411
 30
0.0
 10
10.8793403985
 20
9.6519896573
 30
0.0
 10
10.8795942446
 20
9.6516621919
 30
0.0
 10
10.8799112785
 20
9.6512527303
 30
0.0
 10
10.8804186857
 20
9.6505976642
 30
0.0
 10
10.8810528922
 20
9.6497788068
 30
0.0
 10
10.8818139626
 20
9.6487961885
 30
0.0
 10
10.8825750269
 20
9.6478135674
 30
0.0
 10
10.8835897815
 20
9.6465034068
 30
0.0
 10
10.8848582239
 20
9.6448657059
 30
0.0
 10
10.8863803552
 20
9.6429004648
 30
0.0
 10
10.8884098634
 20
9.6402801434
 30
0.0
 10
10.8909467487
 20
9.6370047416
 30
0.0
 10
10.8934836341
 20
9.6337293399
 30
0.0
 10
10.8955131423
 20
9.6311090184
 30
0.0
 10
10.8970352736
 20
9.6291437775
 30
0.0
 10
10.8983037157
 20
9.627506076
 30
0.0
 10
10.899318471
 20
9.6261959165
 30
0.0
 10
10.9000795331
 20
9.6252132921
 30
0.0
 10
10.9008406116
 20
9.6242306861
 30
0.0
 10
10.9014747929
 20
9.6234117906
 30
0.0
 10
10.9019822516
 20
9.6227568021
 30
0.0
 10
10.9023625349
 20
9.6222652113
 30
0.0
 10
10.9026804262
 20
9.6218566638
 30
0.0
 10
10.9029010101
 20
9.6215684993
 30
0.0
 10
10.9030300872
 20
9.6214072396
 30
0.0
 10
10.9031183619
 20
9.6212767009
 30
0.0
 10
10.9032392546
 20
9.621182835
 30
0.0
 10
10.9033890674
 20
9.6210448886
 30
0.0
 10
10.9036565407
 20
9.6208094423
 30
0.0
 10
10.904035874
 20
9.6204699745
 30
0.0
 10
10.9044922602
 20
9.620063947
 30
0.0
 10
10.9051003608
 20
9.6195221109
 30
0.0
 10
10.9058606287
 20
9.6188449758
 30
0.0
 10
10.9067728893
 20
9.6180323451
 30
0.0
 10
10.9076851661
 20
9.6172197327
 30
0.0
 10
10.9089015296
 20
9.6161362432
 30
0.0
 10
10.9104219859
 20
9.6147818834
 30
0.0
 10
10.9122465326
 20
9.6131566507
 30
0.0
 10
10.9146792618
 20
9.6109896742
 30
0.0
 10
10.9177201732
 20
9.6082809534
 30
0.0
 10
10.9207610847
 20
9.6055722327
 30
0.0
 10
10.9231938138
 20
9.603405256
 30
0.0
 10
10.9250183609
 20
9.6017800238
 30
0.0
 10
10.9265388161
 20
9.6004256627
 30
0.0
 10
10.9277551817
 20
9.5993421758
 30
0.0
 10
10.9286674522
 20
9.5985295554
 30
0.0
 10
10.9295797365
 20
9.5977169547
 30
0.0
 10
10.9303399304
 20
9.5970397262
 30
0.0
 10
10.930948182
 20
9.5964980807
 30
0.0
 10
10.9314041072
 20
9.5960914713
 30
0.0
 10
10.9317848829
 20
9.5957538238
 30
0.0
 10
10.9320497813
 20
9.595515128
 30
0.0
 10
10.9322037196
 20
9.595382388
 30
0.0
 10
10.93231194
 20
9.5952725296
 30
0.0
 10
10.9324478099
 20
9.5952020561
 30
0.0
 10
10.9326193253
 20
9.5950943536
 30
0.0
 10
10.9329239708
 20
9.5949122748
 30
0.0
 10
10.9333568295
 20
9.5946488159
 30
0.0
 10
10.9338772654
 20
9.5943340976
 30
0.0
 10
10.9345708287
 20
9.5939139729
 30
0.0
 10
10.9354379033
 20
9.5933889887
 30
0.0
 10
10.9364783412
 20
9.592758934
 30
0.0
 10
10.9375187929
 20
9.592128899
 30
0.0
 10
10.938906057
 20
9.5912888455
 30
0.0
 10
10.9406401389
 20
9.5902387809
 30
0.0
 10
10.9427210363
 20
9.5889787024
 30
0.0
 10
10.9454955666
 20
9.5872985982
 30
0.0
 10
10.9489637293
 20
9.5851984677
 30
0.0
 10
10.952431892
 20
9.5830983373
 30
0.0
 10
10.9552064221
 20
9.5814182329
 30
0.0
 10
10.9572873199
 20
9.5801581549
 30
0.0
 10
10.9590214009
 20
9.5791080889
 30
0.0
 10
10.9604086666
 20
9.5782680383
 30
0.0
 10
10.9614491134
 20
9.5776379944
 30
0.0
 10
10.9624895698
 20
9.5770079729
 30
0.0
 10
10.963356587
 20
9.5764828856
 30
0.0
 10
10.9640502674
 20
9.5760629711
 30
0.0
 10
10.9645703457
 20
9.5757476107
 30
0.0
 10
10.9650043232
 20
9.5754861608
 30
0.0
 10
10.9653069713
 20
9.5753004956
 30
0.0
 10
10.965481687
 20
9.5751985395
 30
0.0
 10
10.9656077268
 20
9.5751104147
 30
0.0
 10
10.9657528673
 20
9.5750668516
 30
0.0
 10
10.9659397254
 20
9.5749932238
 30
0.0
 10
10.9662698314
 20
9.5748716173
 30
0.0
 10
10.9667397883
 20
9.5746941075
 30
0.0
 10
10.9673044313
 20
9.5744827164
 30
0.0
 10
10.968057046
 20
9.5742002954
 30
0.0
 10
10.9689978977
 20
9.5738474634
 30
0.0
 10
10.970126884
 20
9.5734239818
 30
0.0
 10
10.9712558798
 20
9.5730005224
 30
0.0
 10
10.9727612042
 20
9.5724359022
 30
0.0
 10
10.9746428609
 20
9.5717301295
 30
0.0
 10
10.9769008484
 20
9.5708832012
 30
0.0
 10
10.9799114986
 20
9.5697539639
 30
0.0
 10
10.9836748114
 20
9.5683424171
 30
0.0
 10
10.9874381241
 20
9.5669308703
 30
0.0
 10
10.9904487743
 20
9.5658016329
 30
0.0
 10
10.9927067619
 20
9.5649547047
 30
0.0
 10
10.9945884183
 20
9.5642489315
 30
0.0
 10
10.9960937433
 20
9.5636843124
 30
0.0
 10
10.9972227375
 20
9.5632608497
 30
0.0
 10
10.9983517298
 20
9.5628373806
 30
0.0
 10
10.9992925627
 20
9.5624845097
 30
0.0
 10
11.0000452156
 20
9.5622021681
 30
0.0
 10
11.0005156544
 20
9.5620258068
 30
0.0
 10
11.0008919349
 20
9.5618844836
 30
0.0
 10
11.0011743385
 20
9.5617791326
 30
0.0
 10
11.00140906
 20
9.5616892997
 30
0.0
 10
11.0015982162
 20
9.5616220095
 30
0.0
 10
11.0017363154
 20
9.5615590379
 30
0.0
 10
11.0018887969
 20
9.5615437939
 30
0.0
 10
11.0020870816
 20
9.5615067967
 30
0.0
 10
11.0023366612
 20
9.5614662702
 30
0.0
 10
11.002635419
 20
9.5614151902
 30
0.0
 10
11.0030340203
 20
9.5613479385
 30
0.0
 10
11.0035321838
 20
9.5612635812
 30
0.0
 10
11.0043292946
 20
9.561128773
 30
0.0
 10
11.0053256662
 20
9.5609602067
 30
0.0
 10
11.0065213194
 20
9.5607579513
 30
0.0
 10
11.0077169707
 20
9.5605556893
 30
0.0
 10
11.009311173
 20
9.560286009
 30
0.0
 10
11.0113039257
 20
9.5599489078
 30
0.0
 10
11.0136952291
 20
9.5595443868
 30
0.0
 10
11.0168836335
 20
9.5590050252
 30
0.0
 10
11.0208691391
 20
9.5583308233
 30
0.0
 10
11.0256517457
 20
9.557521781
 30
0.0
 10
11.0320285546
 20
9.556443058
 30
0.0
 10
11.0368111612
 20
9.5556340157
 30
0.0
 10
11.0399995657
 20
9.5550946541
 30
0.0
  0
SPLINE
  5
3D2
100
AcDbEntity
  8
0
100
AcDbSpline
 62
4
  6
CONTINUOUS
 70
0
 71
3
 72
455
 73
451
 74
0
 42
0.0000001
 43
0.0000001
 44
0.0000000001
 40
0.0
 40
0.0
 40
0.0
 40
0.0
 40
0.015625
 40
0.0234375
 40
0.03125
 40
0.0390625
 40
0.04296875
 40
0.046875
 40
0.05078125
 40
0.052734375
 40
0.0546875
 40
0.056640625
 40
0.05859375
 40
0.0595703125
 40
0.060546875
 40
0.0610351562
 40
0.0615234375
 40
0.0620117188
 40
0.0622558594
 40
0.0625
 40
0.0627441406
 40
0.0629882812
 40
0.0634765625
 40
0.0639648438
 40
0.064453125
 40
0.0654296875
 40
0.06640625
 40
0.068359375
 40
0.0703125
 40
0.072265625
 40
0.07421875
 40
0.078125
 40
0.08203125
 40
0.0859375
 40
0.09375
 40
0.1015625
 40
0.10546875
 40
0.109375
 40
0.11328125
 40
0.115234375
 40
0.1171875
 40
0.119140625
 40
0.12109375
 40
0.1220703125
 40
0.123046875
 40
0.1235351562
 40
0.1240234375
 40
0.1245117188
 40
0.1247558594
 40
0.125
 40
0.1252441406
 40
0.1254882812
 40
0.1259765625
 40
0.1264648438
 40
0.126953125
 40
0.1279296875
 40
0.12890625
 40
0.130859375
 40
0.1328125
 40
0.134765625
 40
0.13671875
 40
0.140625
 40
0.14453125
 40
0.1484375
 40
0.15625
 40
0.1640625
 40
0.16796875
 40
0.171875
 40
0.17578125
 40
0.177734375
 40
0.1796875
 40
0.181640625
 40
0.18359375
 40
0.1845703125
 40
0.185546875
 40
0.1860351562
 40
0.1865234375
 40
0.1870117188
 40
0.1872558594
 40
0.1875
 40
0.1877441406
 40
0.1879882812
 40
0.1884765625
 40
0.1889648438
 40
0.189453125
 40
0.1904296875
 40
0.19140625
 40
0.193359375
 40
0.1953125
 40
0.197265625
 40
0.19921875
 40
0.203125
 40
0.20703125
 40
0.2109375
 40
0.21875
 40
0.2265625
 40
0.23046875
 40
0.234375
 40
0.23828125
 40
0.240234375
 40
0.2421875
 40
0.244140625
 40
0.24609375
 40
0.2470703125
 40
0.248046875
 40
0.2485351562
 40
0.2490234375
 40
0.2495117188
 40
0.2497558594
 40
0.2498779297
 40
0.25
 40
0.2501220703
 40
0.2502441406
 40
0.2504882812
 40
0.2509765625
 40
0.2514648438
 40
0.251953125
 40
0.2529296875
 40
0.25390625
 40
0.255859375
 40
0.2578125
 40
0.259765625
 40
0.26171875
 40
0.265625
 40
0.26953125
 40
0.2734375
 40
0.28125
 40
0.2890625
 40
0.29296875
 40
0.296875
 40
0.30078125
 40
0.302734375
 40
0.3046875
 40
0.306640625
 40
0.30859375
 40
0.3095703125
 40
0.310546875
 40
0.3110351562
 40
0.3115234375
 40
0.3120117188
 40
0.3122558594
 40
0.3125
 40
0.3127441406
 40
0.3129882812
 40
0.3134765625
 40
0.3139648438
 40
0.314453125
 40
0.3154296875
 40
0.31640625
 40
0.318359375
 40
0.3203125
 40
0.322265625
 40
0.32421875
 40
0.328125
 40
0.33203125
 40
0.3359375
 40
0.34375
 40
0.3515625
 40
0.35546875
 40
0.359375
 40
0.36328125
 40
0.365234375
 40
0.3671875
 40
0.369140625
 40
0.37109375
 40
0.3720703125
 40
0.373046875
 40
0.3735351562
 40
0.3740234375
 40
0.3745117188
 40
0.3747558594
 40
0.375
 40
0.3752441406
 40
0.3754882812
 40
0.3759765625
 40
0.3764648438
 40
0.376953125
 40
0.3779296875
 40
0.37890625
 40
0.380859375
 40
0.3828125
 40
0.384765625
 40
0.38671875
 40
0.390625
 40
0.39453125
 40
0.3984375
 40
0.40625
 40
0.4140625
 40
0.41796875
 40
0.421875
 40
0.42578125
 40
0.427734375
 40
0.4296875
 40
0.431640625
 40
0.43359375
 40
0.4345703125
 40
0.435546875
 40
0.4360351562
 40
0.4365234375
 40
0.4370117188
 40
0.4372558594
 40
0.4375
 40
0.4377441406
 40
0.4379882812
 40
0.4384765625
 40
0.4389648438
 40
0.439453125
 40
0.4404296875
 40
0.44140625
 40
0.443359375
 40
0.4453125
 40
0.447265625
 40
0.44921875
 40
0.453125
 40
0.45703125
 40
0.4609375
 40
0.46875
 40
0.4765625
 40
0.48046875
 40
0.484375
 40
0.48828125
 40
0.490234375
 40
0.4921875
 40
0.494140625
 40
0.49609375
 40
0.4970703125
 40
0.498046875
 40
0.4985351562
 40
0.4990234375
 40
0.4995117188
 40
0.4997558594
 40
0.5
 40
0.5002441406
 40
0.5004882812
 40
0.5009765625
 40
0.5014648438
 40
0.501953125
 40
0.5029296875
 40
0.50390625
 40
0.505859375
 40
0.5078125
 40
0.509765625
 40
0.51171875
 40
0.515625
 40
0.51953125
 40
0.5234375
 40
0.53125
 40
0.5390625
 40
0.54296875
 40
0.546875
 40
0.55078125
 40
0.552734375
 40
0.5546875
 40
0.556640625
 40
0.55859375
 40
0.5595703125
 40
0.560546875
 40
0.5615234375
 40
0.5620117188
 40
0.5622558594
 40
0.5625
 40
0.5627441406
 40
0.5629882812
 40
0.5634765625
 40
0.564453125
 40
0.5654296875
 40
0.56640625
 40
0.568359375
 40
0.5703125
 40
0.572265625
 40
0.57421875
 40
0.578125
 40
0.58203125
 40
0.5859375
 40
0.59375
 40
0.6015625
 40
0.60546875
 40
0.609375
 40
0.61328125
 40
0.615234375
 40
0.6171875
 40
0.619140625
 40
0.62109375
 40
0.6220703125
 40
0.623046875
 40
0.6240234375
 40
0.6245117188
 40
0.6247558594
 40
0.625
 40
0.6252441406
 40
0.6254882812
 40
0.6259765625
 40
0.626953125
 40
0.6279296875
 40
0.62890625
 40
0.630859375
 40
0.6328125
 40
0.634765625
 40
0.63671875
 40
0.640625
 40
0.64453125
 40
0.6484375
 40
0.65625
 40
0.6640625
 40
0.66796875
 40
0.671875
 40
0.67578125
 40
0.677734375
 40
0.6796875
 40
0.681640625
 40
0.68359375
 40
0.6845703125
 40
0.685546875
 40
0.6860351562
 40
0.6865234375
 40
0.6870117188
 40
0.6872558594
 40
0.6875
 40
0.6877441406
 40
0.6879882812
 40
0.6884765625
 40
0.6889648438
 40
0.689453125
 40
0.6904296875
 40
0.69140625
 40
0.693359375
 40
0.6953125
 40
0.697265625
 40
0.69921875
 40
0.703125
 40
0.70703125
 40
0.7109375
 40
0.71875
 40
0.7265625
 40
0.73046875
 40
0.734375
 40
0.73828125
 40
0.740234375
 40
0.7421875
 40
0.744140625
 40
0.74609375
 40
0.7470703125
 40
0.748046875
 40
0.7490234375
 40
0.7495117188
 40
0.7497558594
 40
0.75
 40
0.7502441406
 40
0.7504882812
 40
0.7509765625
 40
0.751953125
 40
0.7529296875
 40
0.75390625
 40
0.755859375
 40
0.7578125
 40
0.759765625
 40
0.76171875
 40
0.765625
 40
0.76953125
 40
0.7734375
 40
0.78125
 40
0.7890625
 40
0.79296875
 40
0.796875
 40
0.80078125
 40
0.802734375
 40
0.8046875
 40
0.806640625
 40
0.80859375
 40
0.8095703125
 40
0.810546875
 40
0.8115234375
 40
0.8120117188
 40
0.8122558594
 40
0.8125
 40
0.8127441406
 40
0.8129882812
 40
0.8134765625
 40
0.814453125
 40
0.8154296875
 40
0.81640625
 40
0.818359375
 40
0.8203125
 40
0.822265625
 40
0.82421875
 40
0.828125
 40
0.83203125
 40
0.8359375
 40
0.84375
 40
0.8515625
 40
0.85546875
 40
0.859375
 40
0.86328125
 40
0.865234375
 40
0.8671875
 40
0.869140625
 40
0.87109375
 40
0.8720703125
 40
0.873046875
 40
0.8740234375
 40
0.8745117188
 40
0.8747558594
 40
0.875
 40
0.8752441406
 40
0.8754882812
 40
0.8759765625
 40
0.876953125
 40
0.8779296875
 40
0.87890625
 40
0.880859375
 40
0.8828125
 40
0.884765625
 40
0.88671875
 40
0.890625
 40
0.89453125
 40
0.8984375
 40
0.90625
 40
0.9140625
 40
0.91796875
 40
0.921875
 40
0.92578125
 40
0.927734375
 40
0.9296875
 40
0.931640625
 40
0.93359375
 40
0.9345703125
 40
0.935546875
 40
0.9360351562
 40
0.9365234375
 40
0.9370117188
 40
0.9372558594
 40
0.9375
 40
0.9377441406
 40
0.9379882812
 40
0.9384765625
 40
0.9389648438
 40
0.939453125
 40
0.9404296875
 40
0.94140625
 40
0.943359375
 40
0.9453125
 40
0.947265625
 40
0.94921875
 40
0.953125
 40
0.95703125
 40
0.9609375
 40
0.96875
 40
0.9765625
 40
0.984375
 40
1.0
 40
1.0
 40
1.0
 40
1.0
 10
11.0399995488
 20
9.5550946553
 30
0.0
 10
11.0431327357
 20
9.5551845797
 30
0.0
 10
11.047832516
 20
9.5553194663
 30
0.0
 10
11.0540988899
 20
9.5554993152
 30
0.0
 10
11.0587986703
 20
9.5556342018
 30
0.0
 10
11.0627151539
 20
9.5557466073
 30
0.0
 10
11.0658483408
 20
9.5558365317
 30
0.0
 10
11.068198231
 20
9.555903975
 30
0.0
 10
11.0701564728
 20
9.5559601779
 30
0.0
 10
11.0717230664
 20
9.5560051397
 30
0.0
 10
11.0728980112
 20
9.5560388627
 30
0.0
 10
11.0740729573
 20
9.5560725791
 30
0.0
 10
11.075052075
 20
9.5561006969
 30
0.0
 10
11.0758353783
 20
9.5561231446
 30
0.0
 10
11.0763249221
 20
9.5561372803
 30
0.0
 10
11.0767166046
 20
9.5561483463
 30
0.0
 10
11.0770102367
 20
9.5561573101
 30
0.0
 10
11.0772553429
 20
9.5561626666
 30
0.0
 10
11.077450502
 20
9.5561716917
 30
0.0
 10
11.0775994011
 20
9.5561655088
 30
0.0
 10
11.0777386441
 20
9.5562087626
 30
0.0
 10
11.0779276745
 20
9.5562491655
 30
0.0
 10
11.0781628051
 20
9.5563055939
 30
0.0
 10
11.0784454572
 20
9.556370772
 30
0.0
 10
11.0788221537
 20
9.5564585619
 30
0.0
 10
11.0792930836
 20
9.556567996
 30
0.0
 10
11.0800465383
 20
9.5567432601
 30
0.0
 10
11.080988368
 20
9.556962282
 30
0.0
 10
11.0821185588
 20
9.5572251332
 30
0.0
 10
11.0832487508
 20
9.5574879777
 30
0.0
 10
11.0847556731
 20
9.5578384395
 30
0.0
 10
11.0866393262
 20
9.5582765158
 30
0.0
 10
11.0888997098
 20
9.5588022078
 30
0.0
 10
11.0919135546
 20
9.5595031303
 30
0.0
 10
11.0956808606
 20
9.5603792835
 30
0.0
 10
11.0994481666
 20
9.5612554367
 30
0.0
 10
11.1024620114
 20
9.5619563593
 30
0.0
 10
11.104722395
 20
9.5624820511
 30
0.0
 10
11.1066060479
 20
9.5629201279
 30
0.0
 10
11.1081129705
 20
9.5632705888
 30
0.0
 10
11.1092431618
 20
9.5635334361
 30
0.0
 10
11.1103733556
 20
9.563796277
 30
0.0
 10
11.1113151758
 20
9.5640153309
 30
0.0
 10
11.1120686498
 20
9.5641905296
 30
0.0
 10
11.1125395305
 20
9.5643001301
 30
0.0
 10
11.112916328
 20
9.5643875785
 30
0.0
 10
11.1131986715
 20
9.5644538
 30
0.0
 10
11.1134347677
 20
9.5645069637
 30
0.0
 10
11.1136218282
 20
9.5645540273
 30
0.0
 10
11.1137670868
 20
9.5645769394
 30
0.0
 10
11.1138934009
 20
9.5646471279
 30
0.0
 10
11.1140684373
 20
9.5647241983
 30
0.0
 10
11.1142849623
 20
9.5648262023
 30
0.0
 10
11.1145457642
 20
9.5649461818
 30
0.0
 10
11.1148931606
 20
9.5651070016
 30
0.0
 10
11.1153275223
 20
9.5653077363
 30
0.0
 10
11.1160224361
 20
9.565629074
 30
0.0
 10
11.1168911005
 20
9.5660306904
 30
0.0
 10
11.1179334884
 20
9.566512654
 30
0.0
 10
11.1189758788
 20
9.5669946112
 30
0.0
 10
11.1203657317
 20
9.567637223
 30
0.0
 10
11.1221030482
 20
9.568440487
 30
0.0
 10
11.1241878279
 20
9.5694044042
 30
0.0
 10
11.1269675342
 20
9.5706896269
 30
0.0
 10
11.130442167
 20
9.5722961554
 30
0.0
 10
11.1339167999
 20
9.5739026838
 30
0.0
 10
11.1366965061
 20
9.5751879066
 30
0.0
 10
11.1387812859
 20
9.5761518236
 30
0.0
 10
11.1405186022
 20
9.576955088
 30
0.0
 10
11.1419084556
 20
9.577597699
 30
0.0
 10
11.1429508447
 20
9.5780796588
 30
0.0
 10
11.1439932372
 20
9.5785616124
 30
0.0
 10
11.1448618873
 20
9.5789632599
 30
0.0
 10
11.1455568303
 20
9.5792845343
 30
0.0
 10
11.1459911176
 20
9.57948543
 30
0.0
 10
11.1463386667
 20
9.5796459193
 30
0.0
 10
11.1465990021
 20
9.5797669086
 30
0.0
 10
11.1468169864
 20
9.5798657534
 30
0.0
 10
11.1469890456
 20
9.5799492691
 30
0.0
 10
11.147124452
 20
9.579999774
 30
0.0
 10
11.1472355744
 20
9.5800965865
 30
0.0
 10
11.1473922203
 20
9.580209494
 30
0.0
 10
11.1475851173
 20
9.5803561783
 30
0.0
 10
11.1478178394
 20
9.5805298239
 30
0.0
 10
11.1481277005
 20
9.5807621811
 30
0.0
 10
11.1485151758
 20
9.5810523435
 30
0.0
 10
11.149135053
 20
9.5815167621
 30
0.0
 10
11.1499099281
 20
9.5820972308
 30
0.0
 10
11.150839766
 20
9.5827938167
 30
0.0
 10
11.1517696071
 20
9.5834903963
 30
0.0
 10
11.1530093941
 20
9.5844191713
 30
0.0
 10
11.1545591283
 20
9.5855801394
 30
0.0
 10
11.1564188092
 20
9.5869733013
 30
0.0
 10
11.1588983838
 20
9.5888308505
 30
0.0
 10
11.161997852
 20
9.5911527869
 30
0.0
 10
11.1650973202
 20
9.5934747234
 30
0.0
 10
11.1675768947
 20
9.5953322726
 30
0.0
 10
11.1694365756
 20
9.5967254345
 30
0.0
 10
11.1709863098
 20
9.5978864027
 30
0.0
 10
11.1722260969
 20
9.5988151774
 30
0.0
 10
11.1731559377
 20
9.5995117579
 30
0.0
 10
11.1740857767
 20
9.6002083402
 30
0.0
 10
11.1748606484
 20
9.6007888202
 30
0.0
 10
11.1754805327
 20
9.6012532159
 30
0.0
 10
11.1758679899
 20
9.6015434365
 30
0.0
 10
11.176177888
 20
9.6017756743
 30
0.0
 10
11.176410497
 20
9.6019496845
 30
0.0
 10
11.1766037479
 20
9.6020952281
 30
0.0
 10
11.1767401813
 20
9.6021960584
 30
0.0
 10
11.1768163354
 20
9.6022553156
 30
0.0
 10
11.1768785438
 20
9.6022951388
 30
0.0
 10
11.1769212848
 20
9.6023526211
 30
0.0
 10
11.1769850633
 20
9.6024231044
 30
0.0
 10
11.1770935117
 20
9.6025493201
 30
0.0
 10
11.1772500922
 20
9.6027281279
 30
0.0
 10
11.1774372807
 20
9.6029433394
 30
0.0
 10
11.1776871128
 20
9.6032300638
 30
0.0
 10
11.1779993181
 20
9.6035885461
 30
0.0
 10
11.178498894
 20
9.6041620749
 30
0.0
 10
11.1791233477
 20
9.6048790006
 30
0.0
 10
11.179872699
 20
9.6057393051
 30
0.0
 10
11.1806220484
 20
9.6065996113
 30
0.0
 10
11.1816211817
 20
9.6077466857
 30
0.0
 10
11.182870098
 20
9.6091805288
 30
0.0
 10
11.1843687978
 20
9.6109011405
 30
0.0
 10
11.186367064
 20
9.6131952894
 30
0.0
 10
11.1888648969
 20
9.6160629756
 30
0.0
 10
11.1913627297
 20
9.6189306617
 30
0.0
 10
11.1933609959
 20
9.6212248107
 30
0.0
 10
11.1948596957
 20
9.6229454223
 30
0.0
 10
11.1961086119
 20
9.6243792655
 30
0.0
 10
11.1971077454
 20
9.6255263397
 30
0.0
 10
11.1978570941
 20
9.6263866464
 30
0.0
 10
11.1986064484
 20
9.627246949
 30
0.0
 10
11.1992308929
 20
9.6279638807
 30
0.0
 10
11.1997304874
 20
9.6285373973
 30
0.0
 10
11.2000426454
 20
9.6288959106
 30
0.0
 10
11.2002925746
 20
9.6291825714
 30
0.0
 10
11.2004794663
 20
9.6293979772
 30
0.0
 10
11.2006369755
 20
9.6295761773
 30
0.0
 10
11.2007590219
 20
9.6297216636
 30
0.0
 10
11.2008613797
 20
9.6298227824
 30
0.0
 10
11.2009224261
 20
9.6299544217
 30
0.0
 10
11.2010182519
 20
9.6301192796
 30
0.0
 10
11.2011330831
 20
9.6303290098
 30
0.0
 10
11.2012729998
 20
9.6305791204
 30
0.0
 10
11.2014588152
 20
9.630913148
 30
0.0
 10
11.2016913378
 20
9.6313304952
 30
0.0
 10
11.2020632324
 20
9.6319983555
 30
0.0
 10
11.2025281492
 20
9.6328331449
 30
0.0
 10
11.2030860286
 20
9.6338349076
 30
0.0
 10
11.2036439135
 20
9.6348366662
 30
0.0
 10
11.2043877581
 20
9.6361723457
 30
0.0
 10
11.2053175646
 20
9.6378419447
 30
0.0
 10
11.206433332
 20
9.6398454636
 30
0.0
 10
11.2079210221
 20
9.6425168221
 30
0.0
 10
11.2097806346
 20
9.6458560203
 30
0.0
 10
11.2116402471
 20
9.6491952184
 30
0.0
 10
11.2131279371
 20
9.6518665769
 30
0.0
 10
11.2142437047
 20
9.6538700958
 30
0.0
 10
11.2151735108
 20
9.6555396949
 30
0.0
 10
11.2159173562
 20
9.656875374
 30
0.0
 10
11.2164752387
 20
9.6578771341
 30
0.0
 10
11.2170331273
 20
9.6588788911
 30
0.0
 10
11.2174980152
 20
9.6597136981
 30
0.0
 10
11.2178699688
 20
9.6603815226
 30
0.0
 10
11.2181023414
 20
9.6607989607
 30
0.0
 10
11.2182884647
 20
9.6611328018
 30
0.0
 10
11.2184274405
 20
9.6613834822
 30
0.0
 10
11.2185452156
 20
9.6615914297
 30
0.0
 10
11.2186350353
 20
9.6617599246
 30
0.0
 10
11.2187144241
 20
9.6618804567
 30
0.0
 10
11.2187479167
 20
9.6620232766
 30
0.0
 10
11.2188086057
 20
9.6622059176
 30
0.0
 10
11.2188789664
 20
9.6624368901
 30
0.0
 10
11.2189657536
 20
9.6627129137
 30
0.0
 10
11.2190806475
 20
9.6630813445
 30
0.0
 10
11.2192245465
 20
9.6635417463
 30
0.0
 10
11.2194546275
 20
9.6642784656
 30
0.0
 10
11.2197422827
 20
9.6651993385
 30
0.0
 10
11.2200874459
 20
9.6663043972
 30
0.0
 10
11.2204326153
 20
9.6674094529
 30
0.0
 10
11.2208928389
 20
9.6688828615
 30
0.0
 10
11.2214681192
 20
9.670724622
 30
0.0
 10
11.2221584552
 20
9.6729347347
 30
0.0
 10
11.2230789034
 20
9.6758815515
 30
0.0
 10
11.2242294635
 20
9.6795650727
 30
0.0
 10
11.2253800237
 20
9.6832485938
 30
0.0
 10
11.2263004718
 20
9.6861954107
 30
0.0
 10
11.226990808
 20
9.6884055233
 30
0.0
 10
11.2275660878
 20
9.6902472839
 30
0.0
 10
11.2280263124
 20
9.6917206922
 30
0.0
 10
11.228371479
 20
9.692825749
 30
0.0
 10
11.2287166523
 20
9.6939308035
 30
0.0
 10
11.2290042762
 20
9.6948516896
 30
0.0
 10
11.2292344211
 20
9.6955883819
 30
0.0
 10
11.2293781573
 20
9.6960488526
 30
0.0
 10
11.2294933854
 20
9.6964171419
 30
0.0
 10
11.2295791517
 20
9.6966935977
 30
0.0
 10
11.2296527066
 20
9.6969232182
 30
0.0
 10
11.2297068788
 20
9.6971086175
 30
0.0
 10
11.2297602732
 20
9.6972430138
 30
0.0
 10
11.2297649425
 20
9.6973951713
 30
0.0
 10
11.2297881886
 20
9.6975918439
 30
0.0
 10
11.2298114067
 20
9.6978398132
 30
0.0
 10
11.2298417678
 20
9.6981364653
 30
0.0
 10
11.2298813764
 20
9.6985323196
 30
0.0
 10
11.229931186
 20
9.6990270285
 30
0.0
 10
11.2300107143
 20
9.6998186237
 30
0.0
 10
11.230110182
 20
9.7008080967
 30
0.0
 10
11.2302295186
 20
9.7019954734
 30
0.0
 10
11.2303488618
 20
9.7031828476
 30
0.0
 10
11.2305079839
 20
9.7047660141
 30
0.0
 10
11.2307068872
 20
9.7067449719
 30
0.0
 10
11.2309455708
 20
9.7091197215
 30
0.0
 10
11.2312638157
 20
9.7122860541
 30
0.0
 10
11.2316616219
 20
9.71624397
 30
0.0
 10
11.2320594281
 20
9.7202018858
 30
0.0
 10
11.232377673
 20
9.7233682185
 30
0.0
 10
11.2326163568
 20
9.725742968
 30
0.0
 10
11.2328152596
 20
9.7277219259
 30
0.0
 10
11.2329743825
 20
9.7293050922
 30
0.0
 10
11.2330937229
 20
9.7304924669
 30
0.0
 10
11.2332130702
 20
9.7316798418
 30
0.0
 10
11.233312505
 20
9.7326693204
 30
0.0
 10
11.2333921004
 20
9.7334609042
 30
0.0
 10
11.2334417391
 20
9.7339556421
 30
0.0
 10
11.2334816984
 20
9.734351437
 30
0.0
 10
11.2335109879
 20
9.7346482704
 30
0.0
 10
11.2335375591
 20
9.7348956725
 30
0.0
 10
11.2335539641
 20
9.7350935023
 30
0.0
 10
11.2335795259
 20
9.7352421256
 30
0.0
 10
11.2335544812
 20
9.7353897909
 30
0.0
 10
11.2335387659
 20
9.7355870127
 30
0.0
 10
11.2335130566
 20
9.735833425
 30
0.0
 10
11.2334848015
 20
9.736129169
 30
0.0
 10
11.2334462214
 20
9.7365234771
 30
0.0
 10
11.2333983066
 20
9.7370163682
 30
0.0
 10
11.2333214695
 20
9.7378049906
 30
0.0
 10
11.2332254826
 20
9.7387907697
 30
0.0
 10
11.2331102729
 20
9.7399737041
 30
0.0
 10
11.2329950699
 20
9.7411566387
 30
0.0
 10
11.2328414636
 20
9.7427338847
 30
0.0
 10
11.2326494566
 20
9.7447054423
 30
0.0
 10
11.2324190477
 20
9.7470713114
 30
0.0
 10
11.2321118361
 20
9.7502258035
 30
0.0
 10
11.2317278215
 20
9.7541689187
 30
0.0
 10
11.2313438069
 20
9.7581120338
 30
0.0
 10
11.2310365953
 20
9.7612665259
 30
0.0
 10
11.2308061863
 20
9.763632395
 30
0.0
 10
11.2306141798
 20
9.7656039527
 30
0.0
 10
11.2304605723
 20
9.7671811985
 30
0.0
 10
11.2303453731
 20
9.7683641337
 30
0.0
 10
11.2302301495
 20
9.7695470658
 30
0.0
 10
11.2301342057
 20
9.7705328523
 30
0.0
 10
11.2300572807
 20
9.7713214596
 30
0.0
 10
11.2300000514
 20
9.7719129749
 30
0.0
 10
11.2299508827
 20
9.7724057141
 30
0.0
 10
11.2299193645
 20
9.7727510047
 30
0.0
 10
11.2298968262
 20
9.7729477311
 30
0.0
 10
11.2298926776
 20
9.7730969168
 30
0.0
 10
11.2298397725
 20
9.7732398299
 30
0.0
 10
11.2297862393
 20
9.7734325686
 30
0.0
 10
11.2296846323
 20
9.7737688419
 30
0.0
 10
11.229543622
 20
9.7742497652
 30
0.0
 10
11.2293726366
 20
9.7748266452
 30
0.0
 10
11.2291452753
 20
9.7755958981
 30
0.0
 10
11.2288608613
 20
9.7765574369
 30
0.0
 10
11.2285196555
 20
9.7777112952
 30
0.0
 10
11.2281784253
 20
9.7788651504
 30
0.0
 10
11.2277234603
 20
9.7804036251
 30
0.0
 10
11.2271547511
 20
9.782326718
 30
0.0
 10
11.2264723014
 20
9.7846344298
 30
0.0
 10
11.2255623679
 20
9.7877113786
 30
0.0
 10
11.2244249512
 20
9.7915575648
 30
0.0
 10
11.2232875344
 20
9.7954037509
 30
0.0
 10
11.2223776011
 20
9.7984806998
 30
0.0
 10
11.2216951508
 20
9.8007884114
 30
0.0
 10
11.2211264432
 20
9.8027115047
 30
0.0
 10
11.2206714749
 20
9.8042499786
 30
0.0
 10
11.2203302547
 20
9.8054038361
 30
0.0
 10
11.2199890116
 20
9.8065576857
 30
0.0
 10
11.2197047138
 20
9.8075192516
 30
0.0
 10
11.2194771154
 20
9.8082884494
 30
0.0
 10
11.2193068544
 20
9.8088654978
 30
0.0
 10
11.2191635775
 20
9.809345894
 30
0.0
 10
11.2190660168
 20
9.8096831084
 30
0.0
 10
11.2190060003
 20
9.8098743393
 30
0.0
 10
11.2189730096
 20
9.8100218837
 30
0.0
 10
11.2188940661
 20
9.8101536747
 30
0.0
 10
11.218804837
 20
9.8103348909
 30
0.0
 10
11.2186412179
 20
9.8106494591
 30
0.0
 10
11.2184113808
 20
9.8111001808
 30
0.0
 10
11.2181339051
 20
9.8116404738
 30
0.0
 10
11.2177645212
 20
9.8123610647
 30
0.0
 10
11.2173025909
 20
9.8132617346
 30
0.0
 10
11.2167483606
 20
9.8143425679
 30
0.0
 10
11.2161941072
 20
9.8154233934
 30
0.0
 10
11.2154551108
 20
9.8168644968
 30
0.0
 10
11.2145313625
 20
9.818665875
 30
0.0
 10
11.2134228657
 20
9.8208275293
 30
0.0
 10
11.2119448696
 20
9.823709735
 30
0.0
 10
11.2100973746
 20
9.827312492
 30
0.0
 10
11.2082498795
 20
9.8309152491
 30
0.0
 10
11.2067718834
 20
9.8337974547
 30
0.0
 10
11.2056633865
 20
9.835959109
 30
0.0
 10
11.2047396387
 20
9.8377604874
 30
0.0
 10
11.2040006411
 20
9.8392015904
 30
0.0
 10
11.2034463914
 20
9.840282417
 30
0.0
 10
11.2028921476
 20
9.8413632463
 30
0.0
 10
11.202430259
 20
9.8422639286
 30
0.0
 10
11.2020607902
 20
9.8429844943
 30
0.0
 10
11.2018297765
 20
9.8434348025
 30
0.0
 10
11.2016451846
 20
9.843795153
 30
0.0
 10
11.201506141
 20
9.8440651312
 30
0.0
 10
11.201392179
 20
9.8442910188
 30
0.0
 10
11.2012967309
 20
9.8444696973
 30
0.0
 10
11.2012368355
 20
9.8446092575
 30
0.0
 10
11.2011323166
 20
9.8447276283
 30
0.0
 10
11.2010085457
 20
9.8448928577
 30
0.0
 10
11.200848484
 20
9.845096855
 30
0.0
 10
11.200658699
 20
9.8453427388
 30
0.0
 10
11.2004048529
 20
9.8456702041
 30
0.0
 10
11.200087819
 20
9.8460796658
 30
0.0
 10
11.1995804118
 20
9.8467347318
 30
0.0
 10
11.1989462053
 20
9.8475535893
 30
0.0
 10
11.1981851349
 20
9.8485362076
 30
0.0
 10
11.1974240706
 20
9.8495188287
 30
0.0
 10
11.196409316
 20
9.8508289892
 30
0.0
 10
11.1951408736
 20
9.8524666902
 30
0.0
 10
11.1936187423
 20
9.8544319312
 30
0.0
 10
11.1915892341
 20
9.8570522527
 30
0.0
 10
11.1890523488
 20
9.8603276545
 30
0.0
 10
11.1865154634
 20
9.8636030562
 30
0.0
 10
11.1844859552
 20
9.8662233777
 30
0.0
 10
11.1829638239
 20
9.8681886186
 30
0.0
 10
11.1816953818
 20
9.8698263201
 30
0.0
 10
11.1806806265
 20
9.8711364795
 30
0.0
 10
11.1799195644
 20
9.8721191039
 30
0.0
 10
11.1791584859
 20
9.87310171
 30
0.0
 10
11.1785243046
 20
9.8739206055
 30
0.0
 10
11.1780168459
 20
9.874575594
 30
0.0
 10
11.1776365626
 20
9.8750671848
 30
0.0
 10
11.1773186713
 20
9.8754757323
 30
0.0
 10
11.1770980874
 20
9.8757638968
 30
0.0
 10
11.1769690103
 20
9.8759251565
 30
0.0
 10
11.1768807356
 20
9.8760556951
 30
0.0
 10
11.1767598429
 20
9.876149561
 30
0.0
 10
11.1766100301
 20
9.8762875075
 30
0.0
 10
11.1763425568
 20
9.8765229538
 30
0.0
 10
11.1759632235
 20
9.8768624215
 30
0.0
 10
11.1755068373
 20
9.8772684491
 30
0.0
 10
11.1748987367
 20
9.8778102851
 30
0.0
 10
11.1741384688
 20
9.8784874203
 30
0.0
 10
11.1732262082
 20
9.879300051
 30
0.0
 10
11.1723139314
 20
9.8801126633
 30
0.0
 10
11.1710975679
 20
9.8811961529
 30
0.0
 10
11.1695771116
 20
9.8825505127
 30
0.0
 10
11.1677525649
 20
9.8841757453
 30
0.0
 10
11.1653198357
 20
9.8863427219
 30
0.0
 10
11.1622789243
 20
9.8890514427
 30
0.0
 10
11.1592380128
 20
9.8917601634
 30
0.0
 10
11.1568052837
 20
9.8939271401
 30
0.0
 10
11.1549807366
 20
9.8955523723
 30
0.0
 10
11.1534602814
 20
9.8969067333
 30
0.0
 10
11.1522439158
 20
9.8979902203
 30
0.0
 10
11.1513316453
 20
9.8988028407
 30
0.0
 10
11.150419361
 20
9.8996154413
 30
0.0
 10
11.1496591671
 20
9.9002926699
 30
0.0
 10
11.1490509155
 20
9.9008343154
 30
0.0
 10
11.1485949903
 20
9.9012409248
 30
0.0
 10
11.1482142146
 20
9.9015785723
 30
0.0
 10
11.1479493162
 20
9.901817268
 30
0.0
 10
11.1477953779
 20
9.901950008
 30
0.0
 10
11.1476871575
 20
9.9020598664
 30
0.0
 10
11.1475512876
 20
9.9021303399
 30
0.0
 10
11.1473797722
 20
9.9022380425
 30
0.0
 10
11.1470751267
 20
9.9024201213
 30
0.0
 10
11.146642268
 20
9.9026835801
 30
0.0
 10
11.1461218321
 20
9.9029982984
 30
0.0
 10
11.1454282688
 20
9.9034184232
 30
0.0
 10
11.1445611942
 20
9.9039434074
 30
0.0
 10
11.1435207563
 20
9.9045734621
 30
0.0
 10
11.1424803046
 20
9.9052034971
 30
0.0
 10
11.1410930405
 20
9.9060435506
 30
0.0
 10
11.1393589586
 20
9.9070936152
 30
0.0
 10
11.1372780612
 20
9.9083536936
 30
0.0
 10
11.1345035309
 20
9.9100337979
 30
0.0
 10
11.1310353683
 20
9.9121339284
 30
0.0
 10
11.1275672055
 20
9.9142340588
 30
0.0
 10
11.1247926754
 20
9.9159141632
 30
0.0
 10
11.1227117777
 20
9.9171742412
 30
0.0
 10
11.1209776966
 20
9.9182243072
 30
0.0
 10
11.1195904309
 20
9.9190643578
 30
0.0
 10
11.1185499841
 20
9.9196944016
 30
0.0
 10
11.1175095277
 20
9.9203244232
 30
0.0
 10
11.1166425105
 20
9.9208495105
 30
0.0
 10
11.1159488301
 20
9.921269425
 30
0.0
 10
11.1154287518
 20
9.9215847854
 30
0.0
 10
11.1149947743
 20
9.9218462352
 30
0.0
 10
11.1146921262
 20
9.9220319005
 30
0.0
 10
11.1145174105
 20
9.9221338566
 30
0.0
 10
11.1143913707
 20
9.9222219814
 30
0.0
 10
11.1142462302
 20
9.9222655445
 30
0.0
 10
11.1140593721
 20
9.9223391722
 30
0.0
 10
11.1137292661
 20
9.9224607787
 30
0.0
 10
11.1132593092
 20
9.9226382886
 30
0.0
 10
11.1126946662
 20
9.9228496797
 30
0.0
 10
11.1119420515
 20
9.9231321007
 30
0.0
 10
11.1110011998
 20
9.9234849327
 30
0.0
 10
11.1098722135
 20
9.9239084143
 30
0.0
 10
11.1087432177
 20
9.9243318736
 30
0.0
 10
11.1072378933
 20
9.9248964939
 30
0.0
 10
11.1053562366
 20
9.9256022665
 30
0.0
 10
11.1030982491
 20
9.9264491948
 30
0.0
 10
11.1000875989
 20
9.9275784322
 30
0.0
 10
11.0963242861
 20
9.928989979
 30
0.0
 10
11.0925609734
 20
9.9304015258
 30
0.0
 10
11.0895503232
 20
9.9315307632
 30
0.0
 10
11.0872923356
 20
9.9323776914
 30
0.0
 10
11.0854106792
 20
9.9330834645
 30
0.0
 10
11.0839053542
 20
9.9336480837
 30
0.0
 10
11.08277636
 20
9.9340715464
 30
0.0
 10
11.0816473677
 20
9.9344950155
 30
0.0
 10
11.0807065348
 20
9.9348478864
 30
0.0
 10
11.079953882
 20
9.935130228
 30
0.0
 10
11.0794834431
 20
9.9353065892
 30
0.0
 10
11.0791071626
 20
9.9354479125
 30
0.0
 10
11.078824759
 20
9.9355532635
 30
0.0
 10
11.0785900375
 20
9.9356430964
 30
0.0
 10
11.0784008813
 20
9.9357103866
 30
0.0
 10
11.0782627821
 20
9.9357733582
 30
0.0
 10
11.0781103006
 20
9.9357886022
 30
0.0
 10
11.0779120159
 20
9.9358255994
 30
0.0
 10
11.0776624363
 20
9.9358661258
 30
0.0
 10
11.0773636785
 20
9.9359172059
 30
0.0
 10
11.0769650772
 20
9.9359844576
 30
0.0
 10
11.0764669137
 20
9.9360688149
 30
0.0
 10
11.0756698029
 20
9.936203623
 30
0.0
 10
11.0746734313
 20
9.9363721893
 30
0.0
 10
11.0734777781
 20
9.9365744448
 30
0.0
 10
11.0722821268
 20
9.9367767067
 30
0.0
 10
11.0706879245
 20
9.9370463871
 30
0.0
 10
11.0686951718
 20
9.9373834882
 30
0.0
 10
11.0663038684
 20
9.9377880093
 30
0.0
 10
11.063115464
 20
9.9383273709
 30
0.0
 10
11.0591299584
 20
9.9390015728
 30
0.0
 10
11.0543473518
 20
9.9398106151
 30
0.0
 10
11.0479705429
 20
9.9408893381
 30
0.0
 10
11.0431879363
 20
9.9416983804
 30
0.0
 10
11.0399995318
 20
9.9422377419
 30
0.0
  0
ENDSEC
  0
SECTION
  2
OBJECTS
  0
DICTIONARY
  5
C
100
AcDbDictionary
280
0
281
1
  3
ACAD_GROUP
350
D
  3
ACAD_MLINESTYLE
350
17
  3
ACAD_LAYOUT
350
1A
  3
ACAD_PLOTSETTINGS
350
19
  3
ACAD_PLOTSTYLENAME
350
E
  3
ACAD_IMAGE_DICT
350
       3D4
  3
ACAD_IMAGE_VARS
350
       3D5
  3
ACAD_TABLESTYLE
350
       3D6
  0
IMAGEDEF_REACTOR
  5
3D3
100
AcDbRasterImageDefReactor
 90
2
330
26E
  0
DICTIONARY
  5
D
102
{ACAD_REACTORS
330
C
102
}
100
AcDbDictionary
280
0
281
1
  0
ACDBDICTIONARYWDFLT
  5
E
102
{ACAD_REACTORS
330
C
102
}
100
AcDbDictionary
281
1
  3
Normal
350
F
100
AcDbDictionaryWithDefault
340
F
  0
DICTIONARY
  5
3D4
330
C
100
AcDbDictionary
281
1
  3
YTH_assy_2_img_1
350
       3D9
  0
RASTERVARIABLES
  5
3D5
330
C
100
AcDbRasterVariables
 90
0
 70
0
 71
1
 72
5
  0
DICTIONARY
  5
17
102
{ACAD_REACTORS
330
C
102
}
100
AcDbDictionary
280
0
281
1
  3
Standard
350
18
  0
DICTIONARY
  5
3D6
330
C
100
AcDbDictionary
281
1
  3
Standard
350
       3DA
  3
Standard1
350
       3DB
  0
DICTIONARY
  5
19
102
{ACAD_REACTORS
330
C
102
}
100
AcDbDictionary
281
1
  0
DICTIONARY
  5
1A
102
{ACAD_REACTORS
330
C
102
}
100
AcDbDictionary
281
1
  3
Model
350
3D7
  3
Layout1
350
3D8
  0
ACDBPLACEHOLDER
  5
F
102
{ACAD_REACTORS
330
E
102
}
  0
MLINESTYLE
  5
18
102
{ACAD_REACTORS
330
17
102
}
100
AcDbMlineStyle
  2
STANDARD
 70
0
  3

 62
256
 51
90.0
 52
90.0
 71
2
 49
0.5
 62
256
  6
BYLAYER
 49
-0.5
 62
256
  6
BYLAYER
  0
LAYOUT
  5
3D7
102
{ACAD_REACTORS
330
1A
102
}
100
AcDbPlotSettings
  1

  2
none_device
  4
ANSI_C_(22.00_x_17.00_Inches)
  6

 40
0.0
 41
0.0
 42
0.0
 43
0.0
 44
558.8
 45
431.8
 46
0.0
 47
0.0
 48
0.0
 49
0.0
140
0.0
141
0.0
142
1.0
143
1.0
 70
1024
 72
0
 73
0
 74
0
  7

 75
0
147
1.0
148
0.0
149
0.0
100
AcDbLayout
  1
Model
 70
0
 71
0
 10
0.0
 20
0.0
 11
22.0
 21
17.0
 12
0.0
 22
0.0
 32
0.0
 14
0.0
 24
0.0
 34
0.0
 15
0.0
 25
0.0
 35
0.0
146
0.0
 13
0.0
 23
0.0
 33
0.0
 16
1.0
 26
0.0
 36
0.0
 17
0.0
 27
1.0
 37
0.0
 76
0
330
20F
345
0
346
0
  0
LAYOUT
  5
3D8
102
{ACAD_REACTORS
330
1A
102
}
100
AcDbPlotSettings
  1

  2
none_device
  4
ANSI_C_(22.00_x_17.00_Inches)
  6

 40
0.0
 41
0.0
 42
0.0
 43
0.0
 44
558.8
 45
431.8
 46
0.0
 47
0.0
 48
0.0
 49
0.0
140
0.0
141
0.0
142
1.0
143
1.0
 70
0
 72
0
 73
0
 74
0
  7

 75
0
147
1.0
148
0.0
149
0.0
100
AcDbLayout
  1
Layout1
 70
0
 71
1
 10
0.0
 20
0.0
 11
22.0
 21
17.0
 12
0.0
 22
0.0
 32
0.0
 14
0.0
 24
0.0
 34
0.0
 15
0.0
 25
0.0
 35
0.0
146
0.0
 13
0.0
 23
0.0
 33
0.0
 16
1.0
 26
0.0
 36
0.0
 17
0.0
 27
1.0
 37
0.0
 76
0
330
210
345
0
346
0
  0
IMAGEDEF
  5
3D9
102
{ACAD_REACTORS
330
3D4
330
3D3
102
}
100
AcDbRasterImageDef
 90
0
  1
YTH_assy_2_img_1.png
 10
369.0
 20
92.0
 11
0.0066666667
 21
0.0066666667
280
1
281
0
  0
TABLESTYLE
  5
3DA
102
{ACAD_REACTORS
330
3D6
330
271
102
}
330
3D6
100
AcDbTableStyle
  3
Standard
 70
0
 71
0
 40
0.06
 41
0.06
280
1
281
1
  7
Standard
140
0.18
170
1
 62
0
 63
7
283
0
  7
Standard
140
0.18
170
1
 62
0
 63
7
283
0
  7
Standard
140
0.18
170
1
 62
0
 63
7
283
0
  0
TABLESTYLE
  5
3DB
102
{ACAD_REACTORS
330
3D6
330
270
102
}
330
3D6
100
AcDbTableStyle
  3
Standard1
 70
1
 71
0
 40
0.06
 41
0.06
280
1
281
1
  7
Standard
140
0.18
170
1
 62
0
 63
7
283
0
  7
Standard
140
0.18
170
1
 62
0
 63
7
283
0
  7
Standard
140
0.18
170
1
 62
0
 63
7
283
0
  0
ENDSEC
  0
EOF
