999
DXF file: YTD_assy_2.dxf
999
Pro/ENGINEER 2014200 by Parametric Technology Corporation
  0
SECTION
  2
HEADER
  9
$ACADVER
  1
AC1021
  9
$DWGCODEPAGE
  3
ANSI_1252
  9
$EXTMAX
 10
22.0
 20
17.0
 30
0.0
  9
$EXTMIN
 10
0.0
 20
0.0
 30
0.0
  9
$LIMMIN
 10
0.0
 20
0.0
  9
$LIMMAX
 10
22.0
 20
17.0
  9
$VIEWCTR
 10
11.0
 20
8.5
  9
$VIEWSIZE
 40
17.0
  9
$CLAYER
  8
0
  9
$LTSCALE
 40
1.21
  9
$CELTYPE
  6
BYLAYER
  9
$DIMSCALE
 40
1.0
  9
$DIMASZ
 40
0.1875
  9
$DIMEXO
 40
0.0625
  9
$DIMDLI
 40
0.836
  9
$DIMEXE
 40
0.125
  9
$DIMCEN
 40
0.198
  9
$DIMLFAC
 40
1.0
  9
$DIMBLK
  1
_FILLED
  9
$DIMTXT
 40
0.1
  9
$DIMTOL
 70
0
  9
$DIMLIM
 70
0
  9
$DIMTFAC
 40
1.0
  9
$DIMGAP
 40
0.09
  9
$DIMDSEP
 70
46
  9
$AUNITS
 70
0
  9
$PDMODE
 70
3
  9
$PDSIZE
 40
0.3125
  9
$HANDSEED
  5
351
  9
$TILEMODE
 70
1
  9
$MEASUREMENT
 70
0
  9
$INSUNITS
 70
1
  0
ENDSEC
  0
SECTION
  2
CLASSES
  0
CLASS
  1
ACDBDICTIONARYWDFLT
  2
AcDbDictionaryWithDefault
  3
AutoCAD 2000
 90
0
 91
1
280
0
281
0
  0
CLASS
  1
ACDBPLACEHOLDER
  2
AcDbPlaceHolder
  3
AutoCAD 2000
 90
0
 91
1
280
0
281
0
  0
CLASS
  1
LAYOUT
  2
AcDbLayout
  3
AutoCAD 2000
 90
0
 91
0
280
0
281
0
  0
CLASS
  1
RASTERVARIABLES
  2
AcDbRasterVariables
  3
ISM
 90
0
 91
1
280
0
281
0
  0
CLASS
  1
IMAGEDEF
  2
AcDbRasterImageDef
  3
ISM
 90
0
 91
1
280
0
281
0
  0
CLASS
  1
IMAGEDEF_REACTOR
  2
AcDbRasterImageDefReactor
  3
ISM
 90
0
 91
1
280
0
281
0
  0
CLASS
  1
IMAGE
  2
AcDbRasterImage
  3
ISM
 90
127
 91
1
280
0
281
1
  0
CLASS
  1
TABLESTYLE
  2
AcDbTableStyle
  3
ObjectDBX Classes
 90
2047
 91
1
280
0
281
0
  0
CLASS
  1
ACAD_TABLE
  2
AcDbTable
  3
ObjectDBX Classes
 90
1025
 91
2
280
0
281
1
  0
ENDSEC
  0
SECTION
  2
TABLES
  0
TABLE
  2
VPORT
  5
8
100
AcDbSymbolTable
 70
2
  0
VPORT
  5
1F4
100
AcDbSymbolTableRecord
100
AcDbViewportTableRecord
  2
*ACTIVE
 70
0
 10
0.0
 20
0.0
 11
1.0
 21
1.0
 12
11.0
 22
8.5
 13
0.0
 23
0.0
 14
1.0
 24
1.0
 15
0.0
 25
0.0
 16
0.0
 26
0.0
 36
1.0
 17
0.0
 27
0.0
 37
0.0
 40
17.0
 41
1.2941176471
 42
50.0
 43
0.0
 44
0.0
 50
0.0
 51
0.0
 71
0
 72
100
 73
1
 74
1
 75
0
 76
0
 77
0
 78
0
  0
ENDTAB
  0
TABLE
  2
LTYPE
  5
5
100
AcDbSymbolTable
 70
6
  0
LTYPE
  5
14
100
AcDbSymbolTableRecord
100
AcDbLinetypeTableRecord
  2
BYBLOCK
 70
0
  3

 72
65
 73
0
 40
0.0
  0
LTYPE
  5
15
100
AcDbSymbolTableRecord
100
AcDbLinetypeTableRecord
  2
BYLAYER
 70
0
  3

 72
65
 73
0
 40
0.0
  0
LTYPE
  5
16
100
AcDbSymbolTableRecord
100
AcDbLinetypeTableRecord
  2
CONTINUOUS
 70
64
  3
Solid line
 72
65
 73
0
 40
0.0
  0
LTYPE
  5
1F5
100
AcDbSymbolTableRecord
100
AcDbLinetypeTableRecord
  2
CENTER
 70
64
  3
____ _ ____ _ ____ _ ____ _ ____ _ ____ _ ____
 72
65
 73
4
 40
0.6
 49
0.375
 74
0
 49
-0.075
 74
0
 49
0.075
 74
0
 49
-0.075
 74
0
  0
LTYPE
  5
1F6
100
AcDbSymbolTableRecord
100
AcDbLinetypeTableRecord
  2
HIDDEN
 70
64
  3
- - - - - - - - - - - - - - - - - - - -
 72
65
 73
2
 40
0.2
 49
0.1
 74
0
 49
-0.1
 74
0
  0
LTYPE
  5
1F7
100
AcDbSymbolTableRecord
100
AcDbLinetypeTableRecord
  2
PHANTOM
 70
64
  3
_____ _ _ _____ _ _ _____ _ _ _____
 72
65
 73
6
 40
0.8
 49
0.45
 74
0
 49
-0.05
 74
0
 49
0.1
 74
0
 49
-0.05
 74
0
 49
0.1
 74
0
 49
-0.05
 74
0
  0
LTYPE
  5
1F8
100
AcDbSymbolTableRecord
100
AcDbLinetypeTableRecord
  2
DOT
 70
64
  3
. . . . . . . . . . . . . . . . . . . .
 72
65
 73
2
 40
0.2
 49
0.1
 74
0
 49
-0.1
 74
0
  0
LTYPE
  5
1F9
100
AcDbSymbolTableRecord
100
AcDbLinetypeTableRecord
  2
DASHED
 70
64
  3
- - - - - - - - - - - - - - - - - - - -
 72
65
 73
2
 40
0.2
 49
0.1
 74
0
 49
-0.1
 74
0
  0
ENDTAB
  0
TABLE
  2
LAYER
  5
2
100
AcDbSymbolTable
 70
36
  0
LAYER
  5
10
100
AcDbSymbolTableRecord
100
AcDbLayerTableRecord
  2
0
 70
0
 62
7
  6
CONTINUOUS
370
-3
390
F
  0
LAYER
  5
1FA
100
AcDbSymbolTableRecord
100
AcDbLayerTableRecord
  2
DEFAULT_1
 70
0
 62
7
  6
CENTER
370
-3
390
F
  0
LAYER
  5
1FB
100
AcDbSymbolTableRecord
100
AcDbLayerTableRecord
  2
DEFAULT_2
 70
0
 62
8
  6
HIDDEN
370
-3
390
F
  0
LAYER
  5
1FC
100
AcDbSymbolTableRecord
100
AcDbLayerTableRecord
  2
DEFAULT_3
 70
0
 62
7
  6
PHANTOM
370
-3
390
F
  0
LAYER
  5
1FD
100
AcDbSymbolTableRecord
100
AcDbLayerTableRecord
  2
01___PRT_ALL_DTM_PLN
 70
0
 62
7
  6
CONTINUOUS
370
-3
390
F
  0
LAYER
  5
1FE
100
AcDbSymbolTableRecord
100
AcDbLayerTableRecord
  2
01___PRT_DEF_DTM_PLN
 70
0
 62
7
  6
CONTINUOUS
370
-3
390
F
  0
LAYER
  5
1FF
100
AcDbSymbolTableRecord
100
AcDbLayerTableRecord
  2
02___PRT_ALL_AXES
 70
0
 62
7
  6
CONTINUOUS
370
-3
390
F
  0
LAYER
  5
200
100
AcDbSymbolTableRecord
100
AcDbLayerTableRecord
  2
03___PRT_ALL_CURVES
 70
0
 62
7
  6
CONTINUOUS
370
-3
390
F
  0
LAYER
  5
201
100
AcDbSymbolTableRecord
100
AcDbLayerTableRecord
  2
04___PRT_ALL_DTM_PNT
 70
0
 62
7
  6
CONTINUOUS
370
-3
390
F
  0
LAYER
  5
202
100
AcDbSymbolTableRecord
100
AcDbLayerTableRecord
  2
05___PRT_ALL_DTM_CSYS
 70
0
 62
7
  6
CONTINUOUS
370
-3
390
F
  0
LAYER
  5
203
100
AcDbSymbolTableRecord
100
AcDbLayerTableRecord
  2
05___PRT_DEF_DTM_CSYS
 70
0
 62
7
  6
CONTINUOUS
370
-3
390
F
  0
LAYER
  5
204
100
AcDbSymbolTableRecord
100
AcDbLayerTableRecord
  2
06___PRT_ALL_SURFS
 70
0
 62
7
  6
CONTINUOUS
370
-3
390
F
  0
LAYER
  5
205
100
AcDbSymbolTableRecord
100
AcDbLayerTableRecord
  2
DATUM_PLANES
 70
0
 62
7
  6
CONTINUOUS
370
-3
390
F
  0
LAYER
  5
206
100
AcDbSymbolTableRecord
100
AcDbLayerTableRecord
  2
DIMENSIONS
 70
0
 62
7
  6
CONTINUOUS
370
-3
390
F
  0
LAYER
  5
207
100
AcDbSymbolTableRecord
100
AcDbLayerTableRecord
  2
DTM_500001
 70
0
 62
7
  6
CONTINUOUS
370
-3
390
F
  0
LAYER
  5
208
100
AcDbSymbolTableRecord
100
AcDbLayerTableRecord
  2
PARAMETERDIMENSIONS
 70
0
 62
7
  6
CONTINUOUS
370
-3
390
F
  0
LAYER
  5
209
100
AcDbSymbolTableRecord
100
AcDbLayerTableRecord
  2
PORT_AREAS
 70
0
 62
7
  6
CONTINUOUS
370
-3
390
F
  0
LAYER
  5
20A
100
AcDbSymbolTableRecord
100
AcDbLayerTableRecord
  2
SUNNBOMCOSMETIC
 70
0
 62
7
  6
CONTINUOUS
370
-3
390
F
  0
LAYER
  5
20B
100
AcDbSymbolTableRecord
100
AcDbLayerTableRecord
  2
SUNNBOMSTAMPING
 70
0
 62
7
  6
CONTINUOUS
370
-3
390
F
  0
LAYER
  5
20C
100
AcDbSymbolTableRecord
100
AcDbLayerTableRecord
  2
THREADS
 70
0
 62
7
  6
CONTINUOUS
370
-3
390
F
  0
ENDTAB
  0
TABLE
  2
STYLE
  5
3
100
AcDbSymbolTable
 70
1
  0
STYLE
  5
11
100
AcDbSymbolTableRecord
100
AcDbTextStyleTableRecord
  2
STANDARD
 70
0
 40
0.0
 41
0.8
 50
0.0
 71
0
 42
0.2
  3
txt
  4

  0
STYLE
  5
20D
100
AcDbSymbolTableRecord
100
AcDbTextStyleTableRecord
  2
TEXTSTYLE_1
 70
0
 40
0.0
 41
0.8
 50
0.0
 71
0
 42
0.2
  3
gdt
  4

  0
ENDTAB
  0
TABLE
  2
VIEW
  5
6
100
AcDbSymbolTable
 70
0
  0
ENDTAB
  0
TABLE
  2
UCS
  5
7
100
AcDbSymbolTable
 70
0
  0
ENDTAB
  0
TABLE
  2
APPID
  5
9
100
AcDbSymbolTable
 70
1
  0
APPID
  5
20E
100
AcDbSymbolTableRecord
100
AcDbRegAppTableRecord
  2
ACAD
 70
0
  0
ENDTAB
  0
TABLE
  2
BLOCK_RECORD
  5
1
100
AcDbSymbolTable
 70
0
  0
BLOCK_RECORD
  5
20F
100
AcDbSymbolTableRecord
100
AcDbBlockTableRecord
  2
*Model_Space
  0
BLOCK_RECORD
  5
210
100
AcDbSymbolTableRecord
100
AcDbBlockTableRecord
  2
*Paper_Space
  0
BLOCK_RECORD
  5
211
100
AcDbSymbolTableRecord
100
AcDbBlockTableRecord
  2
SUN_FIRST_THIRD_ANGLE_BL0
  0
BLOCK_RECORD
  5
212
100
AcDbSymbolTableRecord
100
AcDbBlockTableRecord
  2
*T1
  0
BLOCK_RECORD
  5
213
100
AcDbSymbolTableRecord
100
AcDbBlockTableRecord
  2
*T2
  0
ENDTAB
  0
TABLE
  2
DIMSTYLE
  5
A
100
AcDbSymbolTable
 70
1
100
AcDbDimStyleTable
 71
0
  0
DIMSTYLE
105
214
100
AcDbSymbolTableRecord
100
AcDbDimStyleTableRecord
  2
STANDARD
 70
0
  3

  4

 40
1.0
 41
0.1875
 42
0.0625
 43
0.38
 44
0.125
 45
0.0
 46
0.0
 47
0.001
 48
0.001
140
0.1
141
0.09
142
0.0
143
25.4
144
1.0
145
0.0
146
1.0
147
0.09
 71
0.0
 72
0.0
 73
1
 74
1
 75
0
 76
0
 77
0
 78
4
170
0
171
2
172
0
173
0
174
0
175
0
176
0
177
0
178
0
270
2
271
3
272
3
273
2
274
2
275
0
280
0
281
0
282
0
283
1
284
4
285
0
286
0
287
3
288
0
340
11
278
46
  0
ENDTAB
  0
ENDSEC
  0
SECTION
  2
BLOCKS
  0
BLOCK
  5
20
100
AcDbEntity
  8
0
100
AcDbBlockBegin
  2
*Model_Space
 70
0
 10
0.0
 20
0.0
 30
0.0
  3
*Model_Space
  1

  0
ENDBLK
  5
21
100
AcDbEntity
  8
0
100
AcDbBlockEnd
  0
BLOCK
  5
1C
100
AcDbEntity
  8
0
100
AcDbBlockBegin
  2
*Paper_Space
 70
0
 10
0.0
 20
0.0
 30
0.0
  3
*Paper_Space
  1

  0
ENDBLK
  5
1D
100
AcDbEntity
  8
0
100
AcDbBlockEnd
  0
BLOCK
  5
215
100
AcDbEntity
  8
0
100
AcDbBlockBegin
 62
2
  6
CONTINUOUS
  2
SUN_FIRST_THIRD_ANGLE_BL0
 70
64
 10
20.4816717061
 20
1.2289683772
  3
SUN_FIRST_THIRD_ANGLE_BL0
  1

  0
TEXT
  5
216
100
AcDbEntity
  8
0
100
AcDbText
 62
2
  6
CONTINUOUS
 10
19.4750896608
 20
1.4136269581
  7
STANDARD
 40
0.08
  1
FIRST ANGLE
 41
0.8
 72
0
100
AcDbText
  0
TEXT
  5
217
100
AcDbEntity
  8
0
100
AcDbText
 62
2
  6
CONTINUOUS
 10
20.7842537513
 20
1.4047600029
  7
STANDARD
 40
0.08
  1
THIRD ANGLE
 41
0.8
 72
0
100
AcDbText
  0
LINE
  5
218
100
AcDbEntity
  8
0
100
AcDbLine
 62
7
  6
CONTINUOUS
 10
19.4767170086
 20
1.1727031207
 11
19.6334271527
 21
1.1717972817
  0
LINE
  5
219
100
AcDbEntity
  8
0
100
AcDbLine
 62
7
  6
CONTINUOUS
 10
19.6596964832
 20
1.1717972817
 11
19.6950230232
 21
1.171593082
  0
LINE
  5
21A
100
AcDbEntity
  8
0
100
AcDbLine
 62
7
  6
CONTINUOUS
 10
19.7194818561
 20
1.1708914427
 11
19.8852396156
 21
1.1699333054
  0
LINE
  5
21B
100
AcDbEntity
  8
0
100
AcDbLine
 62
7
  6
CONTINUOUS
 10
19.4758111696
 20
1.2723454088
 11
19.88525039
 21
1.3511534004
  0
LINE
  5
21C
100
AcDbEntity
  8
0
100
AcDbLine
 62
7
  6
CONTINUOUS
 10
19.88525039
 20
1.3511534004
 11
19.8831348489
 21
0.9851647912
  0
LINE
  5
21D
100
AcDbEntity
  8
0
100
AcDbLine
 62
7
  6
CONTINUOUS
 10
19.8831348489
 20
0.9851647912
 11
19.4767170086
 21
1.0658141206
  0
LINE
  5
21E
100
AcDbEntity
  8
0
100
AcDbLine
 62
7
  6
CONTINUOUS
 10
19.4767170086
 20
1.0658141206
 11
19.4779056764
 21
1.2714536432
  0
CIRCLE
  5
21F
100
AcDbEntity
  8
0
100
AcDbCircle
 62
7
  6
CONTINUOUS
 10
20.2068232291
 20
1.1717972817
 40
0.175742101
  0
CIRCLE
  5
220
100
AcDbEntity
  8
0
100
AcDbCircle
 62
7
  6
CONTINUOUS
 10
20.2068232291
 20
1.1717972817
 40
0.1005522074
  0
LINE
  5
221
100
AcDbEntity
  8
0
100
AcDbLine
 62
7
  6
CONTINUOUS
 10
20.2077290681
 20
1.3756110529
 11
20.2071171714
 21
1.2379342989
  0
LINE
  5
222
100
AcDbEntity
  8
0
100
AcDbLine
 62
7
  6
CONTINUOUS
 10
20.2077290681
 20
1.2016899681
 11
20.2074674401
 21
1.1428236749
  0
LINE
  5
223
100
AcDbEntity
  8
0
100
AcDbLine
 62
7
  6
CONTINUOUS
 10
20.208634907
 20
1.101141841
 11
20.2080230104
 21
0.963465087
  0
LINE
  5
224
100
AcDbEntity
  8
0
100
AcDbLine
 62
7
  6
CONTINUOUS
 10
20.0066328138
 20
1.1745147986
 11
20.1443095678
 21
1.1739029019
  0
LINE
  5
225
100
AcDbEntity
  8
0
100
AcDbLine
 62
7
  6
CONTINUOUS
 10
20.1832714155
 20
1.1727031207
 11
20.238153505
 21
1.172335442
  0
LINE
  5
226
100
AcDbEntity
  8
0
100
AcDbLine
 62
7
  6
CONTINUOUS
 10
20.2756669918
 20
1.1717972817
 11
20.407916871
 21
1.1712095044
  0
CIRCLE
  5
227
100
AcDbEntity
  8
0
100
AcDbCircle
 62
7
  6
CONTINUOUS
 10
20.7509457401
 20
1.1693297793
 40
0.1722024983
  0
CIRCLE
  5
228
100
AcDbEntity
  8
0
100
AcDbCircle
 62
7
  6
CONTINUOUS
 10
20.7509457401
 20
1.1693297793
 40
0.0985164967
  0
LINE
  5
229
100
AcDbEntity
  8
0
100
AcDbLine
 62
7
  6
CONTINUOUS
 10
20.7169767782
 20
1.170462078
 11
20.7825395137
 21
1.1682766535
  0
LINE
  5
22A
100
AcDbEntity
  8
0
100
AcDbLine
 62
7
  6
CONTINUOUS
 10
20.8177513651
 20
1.1693297793
 11
20.947965719
 21
1.1693297793
  0
LINE
  5
22B
100
AcDbEntity
  8
0
100
AcDbLine
 62
7
  6
CONTINUOUS
 10
20.6875370113
 20
1.170462078
 11
20.5573226574
 21
1.170462078
  0
LINE
  5
22C
100
AcDbEntity
  8
0
100
AcDbLine
 62
7
  6
CONTINUOUS
 10
20.7486811426
 20
1.1987695462
 11
20.7486811426
 21
1.1432869085
  0
LINE
  5
22D
100
AcDbEntity
  8
0
100
AcDbLine
 62
7
  6
CONTINUOUS
 10
20.7498134414
 20
1.1059210505
 11
20.7498134414
 21
0.9757066966
  0
LINE
  5
22E
100
AcDbEntity
  8
0
100
AcDbLine
 62
7
  6
CONTINUOUS
 10
20.7486811426
 20
1.2338708068
 11
20.7486811426
 21
1.3640851607
  0
LINE
  5
22F
100
AcDbEntity
  8
0
100
AcDbLine
 62
7
  6
CONTINUOUS
 10
21.0702539817
 20
1.2701043662
 11
21.4790138229
 21
1.3448360823
  0
LINE
  5
230
100
AcDbEntity
  8
0
100
AcDbLine
 62
7
  6
CONTINUOUS
 10
21.4790138229
 20
1.3448360823
 11
21.4790138229
 21
0.9779712941
  0
LINE
  5
231
100
AcDbEntity
  8
0
100
AcDbLine
 62
7
  6
CONTINUOUS
 10
21.4790138229
 20
0.9779712941
 11
21.069121683
 21
1.0617614
  0
LINE
  5
232
100
AcDbEntity
  8
0
100
AcDbLine
 62
7
  6
CONTINUOUS
 10
21.0702539817
 20
1.2701043662
 11
21.069121683
 21
1.0617614
  0
LINE
  5
233
100
AcDbEntity
  8
0
100
AcDbLine
 62
7
  6
CONTINUOUS
 10
21.4790138229
 20
1.1693297793
 11
21.3159628059
 21
1.1693297793
  0
LINE
  5
234
100
AcDbEntity
  8
0
100
AcDbLine
 62
7
  6
CONTINUOUS
 10
21.2876553377
 20
1.1693297793
 11
21.2502894796
 21
1.1693297793
  0
LINE
  5
235
100
AcDbEntity
  8
0
100
AcDbLine
 62
7
  6
CONTINUOUS
 10
21.2208497126
 20
1.1659328831
 11
21.0713862804
 21
1.1659328831
  0
LINE
  5
236
100
AcDbEntity
  8
0
100
AcDbLine
 62
7
  6
CONTINUOUS
 10
20.4796138713
 20
1.5284908897
 11
20.4766766948
 21
0.9294458646
  0
ENDBLK
  5
237
100
AcDbEntity
  8
0
  6
BYBLOCK
 62
0
100
AcDbBlockEnd
  0
BLOCK
  5
238
100
AcDbEntity
  8
0
100
AcDbBlockBegin
  2
*T1
 70
1
 10
0.0
 20
0.0
  3
*T1
  1

  0
LINE
  5
239
100
AcDbEntity
  8
0
100
AcDbLine
 62
2
  6
CONTINUOUS
 10
9.275
 20
0.0
 11
-0.0
 21
0.0
  0
LINE
  5
23A
100
AcDbEntity
  8
0
100
AcDbLine
 62
2
  6
CONTINUOUS
 10
9.275
 20
0.0
 11
9.275
 21
1.25
  0
LINE
  5
23B
100
AcDbEntity
  8
0
100
AcDbLine
 62
2
  6
CONTINUOUS
 10
9.275
 20
0.625
 11
-0.0
 21
0.625
  0
LINE
  5
23C
100
AcDbEntity
  8
0
100
AcDbLine
 62
2
  6
CONTINUOUS
 10
9.275
 20
1.25
 11
-0.0
 21
1.25
  0
LINE
  5
23D
100
AcDbEntity
  8
0
100
AcDbLine
 62
2
  6
CONTINUOUS
 10
6.8
 20
0.0
 11
6.8
 21
1.25
  0
LINE
  5
23E
100
AcDbEntity
  8
0
100
AcDbLine
 62
2
  6
CONTINUOUS
 10
6.4
 20
0.0
 11
6.4
 21
0.625
  0
LINE
  5
23F
100
AcDbEntity
  8
0
100
AcDbLine
 62
2
  6
CONTINUOUS
 10
5.9
 20
0.0
 11
5.9
 21
0.625
  0
LINE
  5
240
100
AcDbEntity
  8
0
100
AcDbLine
 62
2
  6
CONTINUOUS
 10
5.2
 20
0.0
 11
5.2
 21
0.625
  0
LINE
  5
241
100
AcDbEntity
  8
0
100
AcDbLine
 62
2
  6
CONTINUOUS
 10
4.1
 20
0.0
 11
4.1
 21
1.25
  0
LINE
  5
242
100
AcDbEntity
  8
0
100
AcDbLine
 62
2
  6
CONTINUOUS
 10
-0.0
 20
0.0
 11
-0.0
 21
1.25
  0
MTEXT
  5
243
100
AcDbEntity
  8
0
100
AcDbMText
 62
2
  6
CONTINUOUS
  7
STANDARD
 71
2
 72
1
 10
6.6
 20
0.325
 30
0.0
 11
1.0
 21
0.0
 31
0.0
 44
0.9
  1
2
 40
0.125
 41
0.2
  0
MTEXT
  5
244
100
AcDbEntity
  8
0
100
AcDbMText
 62
2
  6
CONTINUOUS
  7
STANDARD
 71
2
 72
1
 10
6.15
 20
0.325
 30
0.0
 11
1.0
 21
0.0
 31
0.0
 44
0.9
  1
C
 40
0.125
 41
0.2
  0
MTEXT
  5
245
100
AcDbEntity
  8
0
100
AcDbMText
 62
2
  6
CONTINUOUS
  7
STANDARD
 71
2
 72
1
 10
5.55
 20
0.325
 30
0.0
 11
1.0
 21
0.0
 31
0.0
 44
0.9
  1
1.000
 40
0.125
 41
1.0
  0
MTEXT
  5
246
100
AcDbEntity
  8
0
100
AcDbMText
 62
2
  6
CONTINUOUS
  7
STANDARD
 71
2
 72
1
 10
4.65
 20
0.325
 30
0.0
 11
1.0
 21
0.0
 31
0.0
 44
0.9
  1
Dec-06-19
 40
0.125
 41
1.8
  0
MTEXT
  5
247
100
AcDbEntity
  8
0
100
AcDbMText
 62
2
  6
CONTINUOUS
  7
STANDARD
 71
2
 72
1
 10
2.05
 20
0.4625
 30
0.0
 11
1.0
 21
0.0
 31
0.0
 44
0.9
  1
T-2A Motor mount Eaton/Char-Lynn 2000\PCross pilot with shuttle
 40
0.125
 41
7.4
  0
MTEXT
  5
248
100
AcDbEntity
  8
0
100
AcDbMText
 62
2
  6
CONTINUOUS
  7
STANDARD
 71
1
 72
1
 10
6.45
 20
0.5625
 30
0.0
 11
1.0
 21
0.0
 31
0.0
 44
0.9
  1
SHEET
 40
0.06
 41
0.48
  0
MTEXT
  5
249
100
AcDbEntity
  8
0
100
AcDbMText
 62
2
  6
CONTINUOUS
  7
STANDARD
 71
1
 72
1
 10
5.95
 20
0.5625
 30
0.0
 11
1.0
 21
0.0
 31
0.0
 44
0.9
  1
DWG SIZE
 40
0.06
 41
0.768
  0
MTEXT
  5
24A
100
AcDbEntity
  8
0
100
AcDbMText
 62
2
  6
CONTINUOUS
  7
STANDARD
 71
1
 72
1
 10
5.25
 20
0.5625
 30
0.0
 11
1.0
 21
0.0
 31
0.0
 44
0.9
  1
SCALE
 40
0.06
 41
0.48
  0
MTEXT
  5
24B
100
AcDbEntity
  8
0
100
AcDbMText
 62
2
  6
CONTINUOUS
  7
STANDARD
 71
1
 72
1
 10
4.15
 20
0.5625
 30
0.0
 11
1.0
 21
0.0
 31
0.0
 44
0.9
  1
DATE
 40
0.06
 41
0.384
  0
MTEXT
  5
24C
100
AcDbEntity
  8
0
100
AcDbMText
 62
2
  6
CONTINUOUS
  7
STANDARD
 71
1
 72
1
 10
0.05
 20
0.5625
 30
0.0
 11
1.0
 21
0.0
 31
0.0
 44
0.9
  1
DESCRIPTION
 40
0.06
 41
1.056
  0
MTEXT
  5
24D
100
AcDbEntity
  8
0
100
AcDbMText
 62
2
  6
CONTINUOUS
  7
STANDARD
 71
2
 72
1
 10
5.45
 20
1.0375
 30
0.0
 11
1.0
 21
0.0
 31
0.0
 44
0.9
  1
ALL DIMENSIONS IN INCH\PVIEWS ARE THIRD ANGLE
 40
0.12
 41
4.224
  0
MTEXT
  5
24E
100
AcDbEntity
  8
0
100
AcDbMText
 62
2
  6
CONTINUOUS
  7
STANDARD
 71
2
 72
1
 10
2.05
 20
0.95
 30
0.0
 11
1.0
 21
0.0
 31
0.0
 44
0.9
  1
YTD
 40
0.125
 41
0.6
  0
MTEXT
  5
24F
100
AcDbEntity
  8
0
100
AcDbMText
 62
2
  6
CONTINUOUS
  7
STANDARD
 71
1
 72
1
 10
0.05
 20
1.1875
 30
0.0
 11
1.0
 21
0.0
 31
0.0
 44
0.9
  1
MODEL
 40
0.06
 41
0.48
  0
ENDBLK
  5
250
100
AcDbEntity
  8
0
  6
BYBLOCK
 62
0
100
AcDbBlockEnd
  0
BLOCK
  5
251
100
AcDbEntity
  8
0
100
AcDbBlockBegin
  2
*T2
 70
1
 10
0.0
 20
0.0
  3
*T2
  1

  0
LINE
  5
252
100
AcDbEntity
  8
0
100
AcDbLine
 62
2
  6
CONTINUOUS
 10
0.0
 20
0.0
 11
9.055
 21
0.0
  0
LINE
  5
253
100
AcDbEntity
  8
0
100
AcDbLine
 62
2
  6
CONTINUOUS
 10
0.0
 20
0.0
 11
0.0
 21
-3.094
  0
LINE
  5
254
100
AcDbEntity
  8
0
100
AcDbLine
 62
2
  6
CONTINUOUS
 10
0.0
 20
-0.344
 11
9.055
 21
-0.344
  0
LINE
  5
255
100
AcDbEntity
  8
0
100
AcDbLine
 62
2
  6
CONTINUOUS
 10
0.0
 20
-0.594
 11
9.055
 21
-0.594
  0
LINE
  5
256
100
AcDbEntity
  8
0
100
AcDbLine
 62
2
  6
CONTINUOUS
 10
0.0
 20
-0.844
 11
9.055
 21
-0.844
  0
LINE
  5
257
100
AcDbEntity
  8
0
100
AcDbLine
 62
2
  6
CONTINUOUS
 10
0.0
 20
-1.094
 11
9.055
 21
-1.094
  0
LINE
  5
258
100
AcDbEntity
  8
0
100
AcDbLine
 62
2
  6
CONTINUOUS
 10
0.0
 20
-1.344
 11
9.055
 21
-1.344
  0
LINE
  5
259
100
AcDbEntity
  8
0
100
AcDbLine
 62
2
  6
CONTINUOUS
 10
0.0
 20
-1.594
 11
9.055
 21
-1.594
  0
LINE
  5
25A
100
AcDbEntity
  8
0
100
AcDbLine
 62
2
  6
CONTINUOUS
 10
0.0
 20
-1.844
 11
9.055
 21
-1.844
  0
LINE
  5
25B
100
AcDbEntity
  8
0
100
AcDbLine
 62
2
  6
CONTINUOUS
 10
0.0
 20
-2.094
 11
9.055
 21
-2.094
  0
LINE
  5
25C
100
AcDbEntity
  8
0
100
AcDbLine
 62
2
  6
CONTINUOUS
 10
0.0
 20
-2.344
 11
9.055
 21
-2.344
  0
LINE
  5
25D
100
AcDbEntity
  8
0
100
AcDbLine
 62
2
  6
CONTINUOUS
 10
0.0
 20
-2.594
 11
9.055
 21
-2.594
  0
LINE
  5
25E
100
AcDbEntity
  8
0
100
AcDbLine
 62
2
  6
CONTINUOUS
 10
0.0
 20
-2.844
 11
9.055
 21
-2.844
  0
LINE
  5
25F
100
AcDbEntity
  8
0
100
AcDbLine
 62
2
  6
CONTINUOUS
 10
0.0
 20
-3.094
 11
9.055
 21
-3.094
  0
LINE
  5
260
100
AcDbEntity
  8
0
100
AcDbLine
 62
2
  6
CONTINUOUS
 10
3.055
 20
0.0
 11
3.055
 21
-3.094
  0
LINE
  5
261
100
AcDbEntity
  8
0
100
AcDbLine
 62
2
  6
CONTINUOUS
 10
9.055
 20
0.0
 11
9.055
 21
-3.094
  0
MTEXT
  5
262
100
AcDbEntity
  8
0
100
AcDbMText
 62
2
  6
CONTINUOUS
  7
STANDARD
 71
2
 72
1
 10
1.5275
 20
-0.0995
 30
0.0
 11
1.0
 21
0.0
 31
0.0
 44
0.9
  1
Technical Data
 40
0.145
 41
3.248
  0
MTEXT
  5
263
100
AcDbEntity
  8
0
100
AcDbMText
 62
2
  6
CONTINUOUS
  7
STANDARD
 71
2
 72
1
 10
4.555
 20
-0.0995
 30
0.0
 11
1.0
 21
0.0
 31
0.0
 44
0.9
  1
U.S. Units
 40
0.145
 41
2.32
  0
MTEXT
  5
264
100
AcDbEntity
  8
0
100
AcDbMText
 62
2
  6
CONTINUOUS
  7
STANDARD
 71
2
 72
1
 10
7.555
 20
-0.0995
 30
0.0
 11
1.0
 21
0.0
 31
0.0
 44
0.9
  1
Metric Units
 40
0.145
 41
2.784
  0
MTEXT
  5
265
100
AcDbEntity
  8
0
100
AcDbMText
 62
2
  6
CONTINUOUS
  7
STANDARD
 71
2
 72
1
 10
1.5275
 20
-0.4065
 30
0.0
 11
1.0
 21
0.0
 31
0.0
 44
0.9
  1
Cavity
 40
0.125
 41
1.2
  0
MTEXT
  5
266
100
AcDbEntity
  8
0
100
AcDbMText
 62
2
  6
CONTINUOUS
  7
STANDARD
 71
2
 72
1
 10
6.055
 20
-0.4065
 30
0.0
 11
1.0
 21
0.0
 31
0.0
 44
0.9
  1
T-2A
 40
0.125
 41
0.8
  0
MTEXT
  5
267
100
AcDbEntity
  8
0
100
AcDbMText
 62
2
  6
CONTINUOUS
  7
STANDARD
 71
2
 72
1
 10
1.5275
 20
-0.6565
 30
0.0
 11
1.0
 21
0.0
 31
0.0
 44
0.9
  1
Body Features
 40
0.125
 41
2.6
  0
MTEXT
  5
268
100
AcDbEntity
  8
0
100
AcDbMText
 62
2
  6
CONTINUOUS
  7
STANDARD
 71
2
 72
1
 10
6.055
 20
-0.6565
 30
0.0
 11
1.0
 21
0.0
 31
0.0
 44
0.9
  1
Cross pilot with shuttle
 40
0.125
 41
4.8
  0
MTEXT
  5
269
100
AcDbEntity
  8
0
100
AcDbMText
 62
2
  6
CONTINUOUS
  7
STANDARD
 71
2
 72
1
 10
1.5275
 20
-0.9065
 30
0.0
 11
1.0
 21
0.0
 31
0.0
 44
0.9
  1
Body Type
 40
0.125
 41
1.8
  0
MTEXT
  5
26A
100
AcDbEntity
  8
0
100
AcDbMText
 62
2
  6
CONTINUOUS
  7
STANDARD
 71
2
 72
1
 10
6.055
 20
-0.9065
 30
0.0
 11
1.0
 21
0.0
 31
0.0
 44
0.9
  1
Motor mount
 40
0.125
 41
2.2
  0
MTEXT
  5
26B
100
AcDbEntity
  8
0
100
AcDbMText
 62
2
  6
CONTINUOUS
  7
STANDARD
 71
2
 72
1
 10
1.5275
 20
-1.1565
 30
0.0
 11
1.0
 21
0.0
 31
0.0
 44
0.9
  1
Interface
 40
0.125
 41
1.8
  0
MTEXT
  5
26C
100
AcDbEntity
  8
0
100
AcDbMText
 62
2
  6
CONTINUOUS
  7
STANDARD
 71
2
 72
1
 10
6.055
 20
-1.1565
 30
0.0
 11
1.0
 21
0.0
 31
0.0
 44
0.9
  1
Eaton/Char-Lynn 2000
 40
0.125
 41
4.0
  0
MTEXT
  5
26D
100
AcDbEntity
  8
0
100
AcDbMText
 62
2
  6
CONTINUOUS
  7
STANDARD
 71
2
 72
1
 10
1.5275
 20
-1.4065
 30
0.0
 11
1.0
 21
0.0
 31
0.0
 44
0.9
  1
Open Cavity Quantity
 40
0.125
 41
4.0
  0
MTEXT
  5
26E
100
AcDbEntity
  8
0
100
AcDbMText
 62
2
  6
CONTINUOUS
  7
STANDARD
 71
2
 72
1
 10
6.055
 20
-1.4065
 30
0.0
 11
1.0
 21
0.0
 31
0.0
 44
0.9
  1
2
 40
0.125
 41
0.2
  0
MTEXT
  5
26F
100
AcDbEntity
  8
0
100
AcDbMText
 62
2
  6
CONTINUOUS
  7
STANDARD
 71
2
 72
1
 10
1.5275
 20
-1.6565
 30
0.0
 11
1.0
 21
0.0
 31
0.0
 44
0.9
  1
Weight
 40
0.125
 41
1.2
  0
MTEXT
  5
270
100
AcDbEntity
  8
0
100
AcDbMText
 62
2
  6
CONTINUOUS
  7
STANDARD
 71
2
 72
1
 10
4.555
 20
-1.6565
 30
0.0
 11
1.0
 21
0.0
 31
0.0
 44
0.9
  1
2.235 lb.
 40
0.125
 41
1.8
  0
MTEXT
  5
271
100
AcDbEntity
  8
0
100
AcDbMText
 62
2
  6
CONTINUOUS
  7
STANDARD
 71
2
 72
1
 10
7.555
 20
-1.6565
 30
0.0
 11
1.0
 21
0.0
 31
0.0
 44
0.9
  1
1,014 kg.
 40
0.125
 41
1.8
  0
MTEXT
  5
272
100
AcDbEntity
  8
0
100
AcDbMText
 62
2
  6
CONTINUOUS
  7
STANDARD
 71
2
 72
1
 10
1.5275
 20
-1.9065
 30
0.0
 11
1.0
 21
0.0
 31
0.0
 44
0.9
  1
Mounting Hole Diameter
 40
0.125
 41
4.4
  0
MTEXT
  5
273
100
AcDbEntity
  8
0
100
AcDbMText
 62
2
  6
CONTINUOUS
  7
STANDARD
 71
2
 72
1
 10
4.555
 20
-1.9065
 30
0.0
 11
1.0
 21
0.0
 31
0.0
 44
0.9
  1
.41 in.
 40
0.125
 41
1.4
  0
MTEXT
  5
274
100
AcDbEntity
  8
0
100
AcDbMText
 62
2
  6
CONTINUOUS
  7
STANDARD
 71
2
 72
1
 10
7.555
 20
-1.9065
 30
0.0
 11
1.0
 21
0.0
 31
0.0
 44
0.9
  1
10,4 mm
 40
0.125
 41
1.4
  0
MTEXT
  5
275
100
AcDbEntity
  8
0
100
AcDbMText
 62
2
  6
CONTINUOUS
  7
STANDARD
 71
2
 72
1
 10
1.5275
 20
-2.1565
 30
0.0
 11
1.0
 21
0.0
 31
0.0
 44
0.9
  1
Mounting Hole Depth
 40
0.125
 41
3.8
  0
MTEXT
  5
276
100
AcDbEntity
  8
0
100
AcDbMText
 62
2
  6
CONTINUOUS
  7
STANDARD
 71
2
 72
1
 10
6.055
 20
-2.1565
 30
0.0
 11
1.0
 21
0.0
 31
0.0
 44
0.9
  1
Through
 40
0.125
 41
1.4
  0
MTEXT
  5
277
100
AcDbEntity
  8
0
100
AcDbMText
 62
2
  6
CONTINUOUS
  7
STANDARD
 71
2
 72
1
 10
1.5275
 20
-2.4065
 30
0.0
 11
1.0
 21
0.0
 31
0.0
 44
0.9
  1
Mounting Hole Quantity
 40
0.125
 41
4.4
  0
MTEXT
  5
278
100
AcDbEntity
  8
0
100
AcDbMText
 62
2
  6
CONTINUOUS
  7
STANDARD
 71
2
 72
1
 10
6.055
 20
-2.4065
 30
0.0
 11
1.0
 21
0.0
 31
0.0
 44
0.9
  1
3
 40
0.125
 41
0.2
  0
MTEXT
  5
279
100
AcDbEntity
  8
0
100
AcDbMText
 62
2
  6
CONTINUOUS
  7
STANDARD
 71
2
 72
1
 10
1.5275
 20
-2.6565
 30
0.0
 11
1.0
 21
0.0
 31
0.0
 44
0.9
  1
Mounting Hole C'bore Diameter
 40
0.125
 41
5.8
  0
MTEXT
  5
27A
100
AcDbEntity
  8
0
100
AcDbMText
 62
2
  6
CONTINUOUS
  7
STANDARD
 71
2
 72
1
 10
4.555
 20
-2.6565
 30
0.0
 11
1.0
 21
0.0
 31
0.0
 44
0.9
  1
.50 in.
 40
0.125
 41
1.4
  0
MTEXT
  5
27B
100
AcDbEntity
  8
0
100
AcDbMText
 62
2
  6
CONTINUOUS
  7
STANDARD
 71
2
 72
1
 10
7.555
 20
-2.6565
 30
0.0
 11
1.0
 21
0.0
 31
0.0
 44
0.9
  1
12,7 mm
 40
0.125
 41
1.4
  0
MTEXT
  5
27C
100
AcDbEntity
  8
0
100
AcDbMText
 62
2
  6
CONTINUOUS
  7
STANDARD
 71
2
 72
1
 10
1.5275
 20
-2.9065
 30
0.0
 11
1.0
 21
0.0
 31
0.0
 44
0.9
  1
Mounting Hole C'bore Depth
 40
0.125
 41
5.2
  0
MTEXT
  5
27D
100
AcDbEntity
  8
0
100
AcDbMText
 62
2
  6
CONTINUOUS
  7
STANDARD
 71
2
 72
1
 10
4.555
 20
-2.9065
 30
0.0
 11
1.0
 21
0.0
 31
0.0
 44
0.9
  1
.38 in.
 40
0.125
 41
1.4
  0
MTEXT
  5
27E
100
AcDbEntity
  8
0
100
AcDbMText
 62
2
  6
CONTINUOUS
  7
STANDARD
 71
2
 72
1
 10
7.555
 20
-2.9065
 30
0.0
 11
1.0
 21
0.0
 31
0.0
 44
0.9
  1
9,7 mm
 40
0.125
 41
1.2
  0
ENDBLK
  5
27F
100
AcDbEntity
  8
0
  6
BYBLOCK
 62
0
100
AcDbBlockEnd
  0
ENDSEC
  0
SECTION
  2
ENTITIES
  0
IMAGE
  5
280
100
AcDbEntity
  8
0
100
AcDbRasterImage
 62
7
  6
CONTINUOUS
 10
19.2297077316
 20
0.3094318264
 30
0.0
 11
0.0066666667
 21
0.0
 31
0.0
 12
0.0
 22
0.0066666667
 32
0.0
 13
369.0
 23
92.0
340
       34E
 70
9
280
0
281
50
282
50
283
0
360
       348
 71
1
 91
2
 14
-0.5
 24
-0.5
 14
368.5
 24
91.5
  0
INSERT
  5
281
100
AcDbEntity
  8
0
100
AcDbBlockReference
 62
2
  6
CONTINUOUS
  2
SUN_FIRST_THIRD_ANGLE_BL0
 10
20.4816717061
 20
1.2289683772
  0
ACAD_TABLE
  5
282
100
AcDbEntity
  8
0
 62
2
  6
CONTINUOUS
100
AcDbBlockReference
  2
*T1
 10
12.42375
 20
0.30125
 30
0.0
100
AcDbTable
342
       350
343
212
 11
1.0
 21
0.0
 31
0.0
 90
6
 91
4
 92
6
 93
20
 94
0
 95
0
 96
0
 70
1
 41
0.0
141
0.525
141
0.1
141
0.525
141
0.1
142
4.1
142
1.1
142
0.7
142
0.5
142
0.4
142
2.475
171
1
172
0
173
0
174
0
175
1
176
1
 91
33
178
0
145
0.0
301
CELL_VALUE
 90
4
  1
T-2A Motor mount Eaton/Char-Lynn 2000\PCross pilot with shuttle
304
ACVALUE_END
170
2
140
0.125
171
1
172
0
173
0
174
0
175
1
176
1
 91
33
178
0
145
0.0
301
CELL_VALUE
 90
4
  1
Dec-06-19
304
ACVALUE_END
170
5
140
0.125
171
1
172
0
173
0
174
0
175
1
176
1
 91
33
178
0
145
0.0
301
CELL_VALUE
 90
4
  1
1.000
304
ACVALUE_END
170
5
140
0.125
171
1
172
0
173
0
174
0
175
1
176
1
 91
33
178
0
145
0.0
301
CELL_VALUE
 90
4
  1
C
304
ACVALUE_END
170
5
140
0.125
171
1
172
0
173
0
174
0
175
1
176
1
 91
33
178
0
145
0.0
301
CELL_VALUE
 90
4
  1
2
304
ACVALUE_END
170
5
140
0.125
171
1
172
0
173
0
174
0
175
1
176
1
 91
33
178
0
145
0.0
301
CELL_VALUE
 90
4
  1
 
304
ACVALUE_END
170
1
140
0.125
171
1
172
0
173
0
174
0
175
1
176
1
 91
33
178
0
145
0.0
301
CELL_VALUE
 90
4
  1
DESCRIPTION
304
ACVALUE_END
170
1
140
0.06
171
1
172
0
173
0
174
0
175
1
176
1
 91
33
178
0
145
0.0
301
CELL_VALUE
 90
4
  1
DATE
304
ACVALUE_END
170
1
140
0.06
171
1
172
0
173
0
174
0
175
1
176
1
 91
33
178
0
145
0.0
301
CELL_VALUE
 90
4
  1
SCALE
304
ACVALUE_END
170
1
140
0.06
171
1
172
0
173
0
174
0
175
1
176
1
 91
33
178
0
145
0.0
301
CELL_VALUE
 90
4
  1
DWG SIZE
304
ACVALUE_END
170
1
140
0.06
171
1
172
0
173
0
174
0
175
1
176
1
 91
33
178
0
145
0.0
301
CELL_VALUE
 90
4
  1
SHEET
304
ACVALUE_END
170
1
140
0.06
171
1
172
0
173
0
174
0
175
1
176
1
 91
33
178
0
145
0.0
301
CELL_VALUE
 90
4
  1
 
304
ACVALUE_END
170
1
140
0.125
171
1
172
0
173
0
174
0
175
1
176
1
 91
33
178
0
145
0.0
301
CELL_VALUE
 90
4
  1
YTD
304
ACVALUE_END
170
5
140
0.125
171
1
172
0
173
0
174
0
175
4
176
1
 91
33
178
0
145
0.0
301
CELL_VALUE
 90
4
  1
ALL DIMENSIONS IN INCH\PVIEWS ARE THIRD ANGLE
304
ACVALUE_END
170
5
140
0.12
171
1
172
0
173
1
174
0
175
1
176
1
 91
1
178
0
145
0.0
170
1
171
1
172
0
173
1
174
0
175
1
176
1
 91
1
178
0
145
0.0
170
1
171
1
172
0
173
1
174
0
175
1
176
1
 91
1
178
0
145
0.0
170
5
171
1
172
0
173
0
174
0
175
1
176
1
 91
33
178
0
145
0.0
301
CELL_VALUE
 90
4
  1
 
304
ACVALUE_END
170
1
140
0.125
171
1
172
0
173
0
174
0
175
1
176
1
 91
33
178
0
145
0.0
301
CELL_VALUE
 90
4
  1
MODEL
304
ACVALUE_END
170
1
140
0.06
171
1
172
0
173
0
174
0
175
1
176
1
 91
33
178
0
145
0.0
301
CELL_VALUE
 90
4
  1
 
304
ACVALUE_END
170
1
140
0.125
171
1
172
0
173
0
174
0
175
1
176
1
 91
33
178
0
145
0.0
301
CELL_VALUE
 90
4
  1
 
304
ACVALUE_END
170
1
140
0.125
171
1
172
0
173
0
174
0
175
1
176
1
 91
33
178
0
145
0.0
301
CELL_VALUE
 90
4
  1
 
304
ACVALUE_END
170
1
140
0.125
171
1
172
0
173
0
174
0
175
1
176
1
 91
33
178
0
145
0.0
301
CELL_VALUE
 90
4
  1
 
304
ACVALUE_END
170
1
140
0.125
171
1
172
0
173
0
174
0
175
1
176
1
 91
33
178
0
145
0.0
301
CELL_VALUE
 90
4
  1
 
304
ACVALUE_END
170
1
140
0.125
  0
ACAD_TABLE
  5
283
100
AcDbEntity
  8
0
 62
2
  6
CONTINUOUS
100
AcDbBlockReference
  2
*T2
 10
12.4237499994
 20
16.47875
 30
0.0
100
AcDbTable
342
       34F
343
213
 11
1.0
 21
0.0
 31
0.0
 90
22
 91
12
 92
3
 93
16
 94
0
 95
0
 96
0
 41
0.028
141
0.344
141
0.25
141
0.25
141
0.25
141
0.25
141
0.25
141
0.25
141
0.25
141
0.25
141
0.25
141
0.25
141
0.25
142
3.055
142
3.0
142
3.0
171
1
172
0
173
0
174
0
175
1
176
1
 91
33
178
0
145
0.0
301
CELL_VALUE
 90
4
  1
Technical Data
304
ACVALUE_END
170
5
140
0.145
171
1
172
0
173
0
174
0
175
1
176
1
 91
33
178
0
145
0.0
301
CELL_VALUE
 90
4
  1
U.S. Units
304
ACVALUE_END
170
5
140
0.145
171
1
172
0
173
0
174
0
175
1
176
1
 91
33
178
0
145
0.0
301
CELL_VALUE
 90
4
  1
Metric Units
304
ACVALUE_END
170
5
140
0.145
171
1
172
0
173
0
174
0
175
1
176
1
 91
33
178
0
145
0.0
301
CELL_VALUE
 90
4
  1
Cavity
304
ACVALUE_END
170
5
140
0.125
171
1
172
0
173
0
174
0
175
2
176
1
 91
33
178
0
145
0.0
301
CELL_VALUE
 90
4
  1
T-2A
304
ACVALUE_END
170
5
140
0.125
171
1
172
0
173
1
174
0
175
1
176
1
 91
1
178
0
145
0.0
170
1
171
1
172
0
173
0
174
0
175
1
176
1
 91
33
178
0
145
0.0
301
CELL_VALUE
 90
4
  1
Body Features
304
ACVALUE_END
170
5
140
0.125
171
1
172
0
173
0
174
0
175
2
176
1
 91
33
178
0
145
0.0
301
CELL_VALUE
 90
4
  1
Cross pilot with shuttle
304
ACVALUE_END
170
5
140
0.125
171
1
172
0
173
1
174
0
175
1
176
1
 91
1
178
0
145
0.0
170
1
171
1
172
0
173
0
174
0
175
1
176
1
 91
33
178
0
145
0.0
301
CELL_VALUE
 90
4
  1
Body Type
304
ACVALUE_END
170
5
140
0.125
171
1
172
0
173
0
174
0
175
2
176
1
 91
33
178
0
145
0.0
301
CELL_VALUE
 90
4
  1
Motor mount
304
ACVALUE_END
170
5
140
0.125
171
1
172
0
173
1
174
0
175
1
176
1
 91
1
178
0
145
0.0
170
1
171
1
172
0
173
0
174
0
175
1
176
1
 91
33
178
0
145
0.0
301
CELL_VALUE
 90
4
  1
Interface
304
ACVALUE_END
170
5
140
0.125
171
1
172
0
173
0
174
0
175
2
176
1
 91
33
178
0
145
0.0
301
CELL_VALUE
 90
4
  1
Eaton/Char-Lynn 2000
304
ACVALUE_END
170
5
140
0.125
171
1
172
0
173
1
174
0
175
1
176
1
 91
1
178
0
145
0.0
170
1
171
1
172
0
173
0
174
0
175
1
176
1
 91
33
178
0
145
0.0
301
CELL_VALUE
 90
4
  1
Open Cavity Quantity
304
ACVALUE_END
170
5
140
0.125
171
1
172
0
173
0
174
0
175
2
176
1
 91
33
178
0
145
0.0
301
CELL_VALUE
 90
4
  1
2
304
ACVALUE_END
170
5
140
0.125
171
1
172
0
173
1
174
0
175
1
176
1
 91
1
178
0
145
0.0
170
1
171
1
172
0
173
0
174
0
175
1
176
1
 91
33
178
0
145
0.0
301
CELL_VALUE
 90
4
  1
Weight
304
ACVALUE_END
170
5
140
0.125
171
1
172
0
173
0
174
0
175
1
176
1
 91
33
178
0
145
0.0
301
CELL_VALUE
 90
4
  1
2.235 lb.
304
ACVALUE_END
170
5
140
0.125
171
1
172
0
173
0
174
0
175
1
176
1
 91
33
178
0
145
0.0
301
CELL_VALUE
 90
4
  1
1,014 kg.
304
ACVALUE_END
170
5
140
0.125
171
1
172
0
173
0
174
0
175
1
176
1
 91
33
178
0
145
0.0
301
CELL_VALUE
 90
4
  1
Mounting Hole Diameter
304
ACVALUE_END
170
5
140
0.125
171
1
172
0
173
0
174
0
175
1
176
1
 91
33
178
0
145
0.0
301
CELL_VALUE
 90
4
  1
.41 in.
304
ACVALUE_END
170
5
140
0.125
171
1
172
0
173
0
174
0
175
1
176
1
 91
33
178
0
145
0.0
301
CELL_VALUE
 90
4
  1
10,4 mm
304
ACVALUE_END
170
5
140
0.125
171
1
172
0
173
0
174
0
175
1
176
1
 91
33
178
0
145
0.0
301
CELL_VALUE
 90
4
  1
Mounting Hole Depth
304
ACVALUE_END
170
5
140
0.125
171
1
172
0
173
0
174
0
175
2
176
1
 91
33
178
0
145
0.0
301
CELL_VALUE
 90
4
  1
Through
304
ACVALUE_END
170
5
140
0.125
171
1
172
0
173
1
174
0
175
1
176
1
 91
1
178
0
145
0.0
170
1
171
1
172
0
173
0
174
0
175
1
176
1
 91
33
178
0
145
0.0
301
CELL_VALUE
 90
4
  1
Mounting Hole Quantity
304
ACVALUE_END
170
5
140
0.125
171
1
172
0
173
0
174
0
175
2
176
1
 91
33
178
0
145
0.0
301
CELL_VALUE
 90
4
  1
3
304
ACVALUE_END
170
5
140
0.125
171
1
172
0
173
1
174
0
175
1
176
1
 91
1
178
0
145
0.0
170
1
171
1
172
0
173
0
174
0
175
1
176
1
 91
33
178
0
145
0.0
301
CELL_VALUE
 90
4
  1
Mounting Hole C'bore Diameter
304
ACVALUE_END
170
5
140
0.125
171
1
172
0
173
0
174
0
175
1
176
1
 91
33
178
0
145
0.0
301
CELL_VALUE
 90
4
  1
.50 in.
304
ACVALUE_END
170
5
140
0.125
171
1
172
0
173
0
174
0
175
1
176
1
 91
33
178
0
145
0.0
301
CELL_VALUE
 90
4
  1
12,7 mm
304
ACVALUE_END
170
5
140
0.125
171
1
172
0
173
0
174
0
175
1
176
1
 91
33
178
0
145
0.0
301
CELL_VALUE
 90
4
  1
Mounting Hole C'bore Depth
304
ACVALUE_END
170
5
140
0.125
171
1
172
0
173
0
174
0
175
1
176
1
 91
33
178
0
145
0.0
301
CELL_VALUE
 90
4
  1
.38 in.
304
ACVALUE_END
170
5
140
0.125
171
1
172
0
173
0
174
0
175
1
176
1
 91
33
178
0
145
0.0
301
CELL_VALUE
 90
4
  1
9,7 mm
304
ACVALUE_END
170
5
140
0.125
  0
MTEXT
  5
284
100
AcDbEntity
  8
0
100
AcDbMText
 62
2
  6
CONTINUOUS
  7
STANDARD
 71
1
 72
1
 10
0.52125
 20
5.75995
 30
0.0
 11
1.0
 21
0.0
 31
0.0
 44
0.6
  3
Notes\P \P1. Important: Carefully consider\P   the maximum system pressure. The\P   pressure rating of the manifold is\P   dependent on the manifold material,\P   with the port type/size a secondary\P   consideration. Manifolds\P   constructed of alu
  1
minum are not\P   rated for pressures higher than\P   3000 psi (210 bar), regardless of\P   the port type/size specified.
 40
0.1
 41
3.04
  0
LINE
  5
285
100
AcDbEntity
  8
0
100
AcDbLine
 62
7
  6
CONTINUOUS
 10
0.30125
 20
0.30125
 11
0.30125
 21
16.69875
  0
LINE
  5
286
100
AcDbEntity
  8
0
100
AcDbLine
 62
7
  6
CONTINUOUS
 10
0.30125
 20
0.30125
 11
21.69875
 21
0.30125
  0
LINE
  5
287
100
AcDbEntity
  8
0
100
AcDbLine
 62
7
  6
CONTINUOUS
 10
0.30125
 20
16.69875
 11
21.69875
 21
16.69875
  0
LINE
  5
288
100
AcDbEntity
  8
0
100
AcDbLine
 62
7
  6
CONTINUOUS
 10
21.69875
 20
0.30125
 11
21.69875
 21
16.69875
  0
LINE
  5
289
100
AcDbEntity
  8
0
100
AcDbLine
 62
7
  6
CONTINUOUS
 10
9.0022823414
 20
10.0107231018
 11
9.6169770662
 21
10.6044726469
  0
LINE
  5
28A
100
AcDbEntity
  8
0
100
AcDbLine
 62
7
  6
CONTINUOUS
 10
9.0022823414
 20
10.0107231018
 11
9.0022823414
 21
6.6299825094
  0
LINE
  5
28B
100
AcDbEntity
  8
0
100
AcDbLine
 62
7
  6
CONTINUOUS
 10
12.3830229338
 20
6.3955273531
 11
9.0022823414
 21
6.6299825094
  0
LINE
  5
28C
100
AcDbEntity
  8
0
100
AcDbLine
 62
4
  6
CONTINUOUS
 10
9.401692681
 20
7.6986091862
 11
9.3872037931
 21
7.7189325109
  0
LINE
  5
28D
100
AcDbEntity
  8
0
100
AcDbLine
 62
4
  6
CONTINUOUS
 10
9.3944482371
 20
7.7763856587
 11
9.401692681
 21
7.7662239985
  0
LINE
  5
28E
100
AcDbEntity
  8
0
100
AcDbLine
 62
4
  6
CONTINUOUS
 10
9.3944482371
 20
7.7860449151
 11
9.3944482371
 21
7.7763856587
  0
LINE
  5
28F
100
AcDbEntity
  8
0
100
AcDbLine
 62
4
  6
CONTINUOUS
 10
9.4524037888
 20
7.7240701356
 11
9.4524037888
 21
7.7047516178
  0
LINE
  5
290
100
AcDbEntity
  8
0
100
AcDbLine
 62
4
  6
CONTINUOUS
 10
11.4745696704
 20
6.8207510072
 11
11.5325252221
 21
6.816731776
  0
LINE
  5
291
100
AcDbEntity
  8
0
100
AcDbLine
 62
4
  6
CONTINUOUS
 10
11.5977252178
 20
6.8508471766
 11
11.6411918816
 21
6.8478327532
  0
LINE
  5
292
100
AcDbEntity
  8
0
100
AcDbLine
 62
4
  6
CONTINUOUS
 10
11.8295474247
 20
6.8347702519
 11
11.8730140885
 21
6.8317558286
  0
LINE
  5
293
100
AcDbEntity
  8
0
100
AcDbLine
 62
4
  6
CONTINUOUS
 10
11.3659030109
 20
6.8862426173
 11
11.4093696747
 21
6.8832281939
  0
LINE
  5
294
100
AcDbEntity
  8
0
100
AcDbLine
 62
4
  6
CONTINUOUS
 10
11.7136363212
 20
6.8621272303
 11
11.757102985
 21
6.859112807
  0
LINE
  5
295
100
AcDbEntity
  8
0
100
AcDbLine
 62
4
  6
CONTINUOUS
 10
11.2355030196
 20
6.9532414391
 11
11.3079474592
 21
6.9482174002
  0
LINE
  5
296
100
AcDbEntity
  8
0
100
AcDbLine
 62
4
  6
CONTINUOUS
 10
11.4963030023
 20
6.9351548989
 11
11.5107918902
 21
6.9341500911
  0
LINE
  5
297
100
AcDbEntity
  8
0
100
AcDbLine
 62
4
  6
CONTINUOUS
 10
9.4161815689
 20
7.6879451195
 11
9.401692681
 21
7.6986091862
  0
LINE
  5
298
100
AcDbEntity
  8
0
100
AcDbLine
 62
4
  6
CONTINUOUS
 10
9.401692681
 20
7.7662239985
 11
9.4451593448
 21
7.7342317959
  0
LINE
  5
299
100
AcDbEntity
  8
0
100
AcDbLine
 62
4
  6
CONTINUOUS
 10
9.4451593448
 20
7.7342317959
 11
9.4524037888
 21
7.7240701356
  0
LINE
  5
29A
100
AcDbEntity
  8
0
100
AcDbLine
 62
4
  6
CONTINUOUS
 10
9.4524037888
 20
7.7820256839
 11
9.4451593448
 21
7.792187351
  0
LINE
  5
29B
100
AcDbEntity
  8
0
100
AcDbLine
 62
4
  6
CONTINUOUS
 10
9.4451593448
 20
7.792187351
 11
9.4306704569
 21
7.8028514151
  0
LINE
  5
29C
100
AcDbEntity
  8
0
100
AcDbLine
 62
4
  6
CONTINUOUS
 10
11.5107918902
 20
6.9341500911
 11
11.5252807782
 21
6.923486027
  0
LINE
  5
29D
100
AcDbEntity
  8
0
100
AcDbLine
 62
4
  6
CONTINUOUS
 10
9.401692681
 20
7.7952017744
 11
9.3944482371
 21
7.7860449151
  0
LINE
  5
29E
100
AcDbEntity
  8
0
100
AcDbLine
 62
4
  6
CONTINUOUS
 10
9.4306704569
 20
7.6869403117
 11
9.4161815689
 21
7.6879451195
  0
LINE
  5
29F
100
AcDbEntity
  8
0
100
AcDbLine
 62
4
  6
CONTINUOUS
 10
9.4306704569
 20
7.8028514151
 11
9.4161815689
 21
7.8038562229
  0
LINE
  5
2A0
100
AcDbEntity
  8
0
100
AcDbLine
 62
4
  6
CONTINUOUS
 10
10.3666526515
 20
7.9794223003
 11
10.3666526515
 21
7.8635111969
  0
LINE
  5
2A1
100
AcDbEntity
  8
0
100
AcDbLine
 62
4
  6
CONTINUOUS
 10
9.4524037888
 20
7.7047516178
 11
9.4451593448
 21
7.6955947628
  0
LINE
  5
2A2
100
AcDbEntity
  8
0
100
AcDbLine
 62
4
  6
CONTINUOUS
 10
10.5694970825
 20
7.8494438878
 11
10.6274526343
 21
7.8454246567
  0
LINE
  5
2A3
100
AcDbEntity
  8
0
100
AcDbLine
 62
4
  6
CONTINUOUS
 10
10.9099859489
 20
7.8258309048
 11
10.9606970566
 21
7.8223140775
  0
LINE
  5
2A4
100
AcDbEntity
  8
0
100
AcDbLine
 62
4
  6
CONTINUOUS
 10
10.6926526299
 20
7.8795400573
 11
10.7361192937
 21
7.8765256339
  0
LINE
  5
2A5
100
AcDbEntity
  8
0
100
AcDbLine
 62
4
  6
CONTINUOUS
 10
10.4608304231
 20
7.914935498
 11
10.5042970869
 21
7.9119210746
  0
LINE
  5
2A6
100
AcDbEntity
  8
0
100
AcDbLine
 62
4
  6
CONTINUOUS
 10
10.8085637334
 20
7.890820111
 11
10.8520303972
 21
7.8878056876
  0
LINE
  5
2A7
100
AcDbEntity
  8
0
100
AcDbLine
 62
4
  6
CONTINUOUS
 10
10.9099859489
 20
7.8934457128
 11
10.9606970566
 21
7.8899288855
  0
LINE
  5
2A8
100
AcDbEntity
  8
0
100
AcDbLine
 62
4
  6
CONTINUOUS
 10
10.9606970566
 20
7.9382251809
 11
10.9099859489
 21
7.9417420082
  0
LINE
  5
2A9
100
AcDbEntity
  8
0
100
AcDbLine
 62
4
  6
CONTINUOUS
 10
10.3304304317
 20
7.9819343198
 11
10.4028748714
 21
7.9769102809
  0
LINE
  5
2AA
100
AcDbEntity
  8
0
100
AcDbLine
 62
4
  6
CONTINUOUS
 10
10.5912304144
 20
7.9638477796
 11
10.6057193024
 21
7.9628429718
  0
LINE
  5
2AB
100
AcDbEntity
  8
0
100
AcDbLine
 62
4
  6
CONTINUOUS
 10
10.6057193024
 20
7.9628429718
 11
10.6202081903
 21
7.9521789077
  0
LINE
  5
2AC
100
AcDbEntity
  8
0
100
AcDbLine
 62
4
  6
CONTINUOUS
 10
10.6202081903
 20
7.9521789077
 11
10.6274526343
 21
7.9420172406
  0
LINE
  5
2AD
100
AcDbEntity
  8
0
100
AcDbLine
 62
4
  6
CONTINUOUS
 10
10.6274526343
 20
7.9420172406
 11
10.6274526343
 21
7.9226987279
  0
LINE
  5
2AE
100
AcDbEntity
  8
0
100
AcDbLine
 62
4
  6
CONTINUOUS
 10
11.5252807782
 20
6.923486027
 11
11.5325252221
 21
6.9133243599
  0
LINE
  5
2AF
100
AcDbEntity
  8
0
100
AcDbLine
 62
4
  6
CONTINUOUS
 10
10.9751859446
 20
7.8696055617
 11
10.9606970566
 21
7.8899288855
  0
LINE
  5
2B0
100
AcDbEntity
  8
0
100
AcDbLine
 62
4
  6
CONTINUOUS
 10
10.7143859618
 20
7.9553069134
 11
10.7506081817
 21
7.8368837905
  0
LINE
  5
2B1
100
AcDbEntity
  8
0
100
AcDbLine
 62
4
  6
CONTINUOUS
 10
10.5767415265
 20
7.8779192598
 11
10.5694970825
 21
7.8494438878
  0
LINE
  5
2B2
100
AcDbEntity
  8
0
100
AcDbLine
 62
4
  6
CONTINUOUS
 10
9.4161815689
 20
7.8038562229
 11
9.401692681
 21
7.7952017744
  0
LINE
  5
2B3
100
AcDbEntity
  8
0
100
AcDbLine
 62
4
  6
CONTINUOUS
 10
10.9679415006
 20
7.9280635207
 11
10.9606970566
 21
7.9382251809
  0
LINE
  5
2B4
100
AcDbEntity
  8
0
100
AcDbLine
 62
4
  6
CONTINUOUS
 10
10.9099859489
 20
7.9417420082
 11
10.9099859489
 21
7.8258309048
  0
LINE
  5
2B5
100
AcDbEntity
  8
0
100
AcDbLine
 62
4
  6
CONTINUOUS
 10
10.9679415006
 20
7.8990857449
 11
10.9679415006
 21
7.9280635207
  0
LINE
  5
2B6
100
AcDbEntity
  8
0
100
AcDbLine
 62
4
  6
CONTINUOUS
 10
10.9751859446
 20
7.8406277875
 11
10.9751859446
 21
7.8696055617
  0
LINE
  5
2B7
100
AcDbEntity
  8
0
100
AcDbLine
 62
4
  6
CONTINUOUS
 10
10.678163742
 20
7.8419078294
 11
10.7143859618
 21
7.9553069134
  0
LINE
  5
2B8
100
AcDbEntity
  8
0
100
AcDbLine
 62
4
  6
CONTINUOUS
 10
10.5694970825
 20
7.9460364717
 11
10.5767415265
 21
7.9551933311
  0
LINE
  5
2B9
100
AcDbEntity
  8
0
100
AcDbLine
 62
4
  6
CONTINUOUS
 10
9.4451593448
 20
7.6955947628
 11
9.4306704569
 21
7.6869403117
  0
LINE
  5
2BA
100
AcDbEntity
  8
0
100
AcDbLine
 62
4
  6
CONTINUOUS
 10
10.5912304144
 20
7.8962329681
 11
10.5767415265
 21
7.8779192598
  0
LINE
  5
2BB
100
AcDbEntity
  8
0
100
AcDbLine
 62
4
  6
CONTINUOUS
 10
10.6274526343
 20
7.9226987279
 11
10.6202081903
 21
7.9135418686
  0
LINE
  5
2BC
100
AcDbEntity
  8
0
100
AcDbLine
 62
7
  6
CONTINUOUS
 10
12.9977176586
 20
10.3700174906
 11
12.3830229338
 21
9.7762679454
  0
LINE
  5
2BD
100
AcDbEntity
  8
0
100
AcDbLine
 62
4
  6
CONTINUOUS
 10
11.6194585497
 20
6.9266140327
 11
11.6556807695
 21
6.8081909098
  0
LINE
  5
2BE
100
AcDbEntity
  8
0
100
AcDbLine
 62
4
  6
CONTINUOUS
 10
11.2717252394
 20
6.9507294197
 11
11.2717252394
 21
6.8348183162
  0
LINE
  5
2BF
100
AcDbEntity
  8
0
100
AcDbLine
 62
4
  6
CONTINUOUS
 10
10.9606970566
 20
7.8899288855
 11
10.9679415006
 21
7.8990857449
  0
LINE
  5
2C0
100
AcDbEntity
  8
0
100
AcDbLine
 62
4
  6
CONTINUOUS
 10
10.9606970566
 20
7.8223140775
 11
10.9751859446
 21
7.8406277875
  0
LINE
  5
2C1
100
AcDbEntity
  8
0
100
AcDbLine
 62
4
  6
CONTINUOUS
 10
10.5767415265
 20
7.9551933311
 11
10.5912304144
 21
7.9638477796
  0
LINE
  5
2C2
100
AcDbEntity
  8
0
100
AcDbLine
 62
4
  6
CONTINUOUS
 10
10.6202081903
 20
7.9135418686
 11
10.5912304144
 21
7.8962329681
  0
LINE
  5
2C3
100
AcDbEntity
  8
0
100
AcDbLine
 62
4
  6
CONTINUOUS
 10
11.8512807566
 20
6.910537108
 11
11.8875029764
 21
6.7921139851
  0
LINE
  5
2C4
100
AcDbEntity
  8
0
100
AcDbLine
 62
4
  6
CONTINUOUS
 10
11.5325252221
 20
6.9133243599
 11
11.5325252221
 21
6.8940058473
  0
LINE
  5
2C5
100
AcDbEntity
  8
0
100
AcDbLine
 62
4
  6
CONTINUOUS
 10
11.4818141144
 20
6.8492263791
 11
11.4745696704
 21
6.8207510072
  0
LINE
  5
2C6
100
AcDbEntity
  8
0
100
AcDbLine
 62
4
  6
CONTINUOUS
 10
11.5832363299
 20
6.8132149487
 11
11.6194585497
 21
6.9266140327
  0
LINE
  5
2C7
100
AcDbEntity
  8
0
100
AcDbLine
 62
4
  6
CONTINUOUS
 10
11.8150585367
 20
6.7971380241
 11
11.8512807566
 21
6.910537108
  0
LINE
  5
2C8
100
AcDbEntity
  8
0
100
AcDbLine
 62
4
  6
CONTINUOUS
 10
11.4745696704
 20
6.9173435911
 11
11.4818141144
 21
6.9265004504
  0
LINE
  5
2C9
100
AcDbEntity
  8
0
100
AcDbLine
 62
7
  6
CONTINUOUS
 10
12.3830229338
 20
9.7762679454
 11
9.0022823414
 21
10.0107231018
  0
LINE
  5
2CA
100
AcDbEntity
  8
0
100
AcDbLine
 62
7
  6
CONTINUOUS
 10
12.3830229338
 20
9.7762679454
 11
12.3830229338
 21
6.3955273531
  0
LINE
  5
2CB
100
AcDbEntity
  8
0
100
AcDbLine
 62
4
  6
CONTINUOUS
 10
11.4963030023
 20
6.8675400874
 11
11.4818141144
 21
6.8492263791
  0
LINE
  5
2CC
100
AcDbEntity
  8
0
100
AcDbLine
 62
4
  6
CONTINUOUS
 10
11.5325252221
 20
6.8940058473
 11
11.5252807782
 21
6.8848489879
  0
LINE
  5
2CD
100
AcDbEntity
  8
0
100
AcDbLine
 62
4
  6
CONTINUOUS
 10
11.4818141144
 20
6.9265004504
 11
11.4963030023
 21
6.9351548989
  0
LINE
  5
2CE
100
AcDbEntity
  8
0
100
AcDbLine
 62
4
  6
CONTINUOUS
 10
11.5252807782
 20
6.8848489879
 11
11.4963030023
 21
6.8675400874
  0
LINE
  5
2CF
100
AcDbEntity
  8
0
100
AcDbLine
 62
7
  6
CONTINUOUS
 10
12.9977176586
 20
10.3700174906
 11
12.9977176586
 21
6.9892768982
  0
LINE
  5
2D0
100
AcDbEntity
  8
0
100
AcDbLine
 62
7
  6
CONTINUOUS
 10
9.6169770662
 20
10.6044726469
 11
12.9977176586
 21
10.3700174906
  0
LINE
  5
2D1
100
AcDbEntity
  8
0
100
AcDbLine
 62
7
  6
CONTINUOUS
 10
12.9977176586
 20
6.9892768982
 11
12.3830229338
 21
6.3955273531
  0
ARC
  5
2D2
100
AcDbEntity
  8
0
100
AcDbCircle
 62
7
  6
CONTINUOUS
 10
12.3957179626
 20
8.0802819444
 40
0.7997231057
100
AcDbArc
 50
183.336625539
 51
187.5557206069
  0
ARC
  5
2D3
100
AcDbEntity
  8
0
100
AcDbCircle
 62
7
  6
CONTINUOUS
 10
12.2987768178
 20
8.0745431004
 40
0.7026122861
100
AcDbArc
 50
178.2111443646
 51
183.3295368005
  0
ARC
  5
2D4
100
AcDbEntity
  8
0
100
AcDbCircle
 62
7
  6
CONTINUOUS
 10
11.1438737861
 20
9.0682964919
 40
0.4466833899
100
AcDbArc
 50
172.7776860625
 51
180.0156724171
  0
ARC
  5
2D5
100
AcDbEntity
  8
0
100
AcDbCircle
 62
7
  6
CONTINUOUS
 10
12.0499122298
 20
8.0395365138
 40
0.4466833899
100
AcDbArc
 50
172.7776860624
 51
180.0156724171
  0
ARC
  5
2D6
100
AcDbEntity
  8
0
100
AcDbCircle
 62
7
  6
CONTINUOUS
 10
11.1525967632
 20
9.0737558506
 40
0.4186640188
100
AcDbArc
 50
173.552607865
 51
180.0124761097
  0
ARC
  5
2D7
100
AcDbEntity
  8
0
100
AcDbCircle
 62
7
  6
CONTINUOUS
 10
12.0586352069
 20
8.0449958725
 40
0.4186640188
100
AcDbArc
 50
173.552607865
 51
180.0124761097
  0
ARC
  5
2D8
100
AcDbEntity
  8
0
100
AcDbCircle
 62
7
  6
CONTINUOUS
 10
12.2318345394
 20
8.1781008565
 40
0.3685606866
100
AcDbArc
 50
218.2913984088
 51
229.7813233479
  0
ARC
  5
2D9
100
AcDbEntity
  8
0
100
AcDbCircle
 62
7
  6
CONTINUOUS
 10
11.3257960957
 20
9.2068608346
 40
0.3685606866
100
AcDbArc
 50
218.2913984088
 51
229.7813233478
  0
ARC
  5
2DA
100
AcDbEntity
  8
0
100
AcDbCircle
 62
7
  6
CONTINUOUS
 10
9.3965050294
 20
8.3374603482
 40
0.3600467106
100
AcDbArc
 50
134.8320443738
 51
135.8393257379
  0
ARC
  5
2DB
100
AcDbEntity
  8
0
100
AcDbCircle
 62
7
  6
CONTINUOUS
 10
9.4707925142
 20
8.2605518239
 40
0.3600255271
100
AcDbArc
 50
312.1752390263
 51
313.3149651756
  0
ARC
  5
2DC
100
AcDbEntity
  8
0
100
AcDbCircle
 62
7
  6
CONTINUOUS
 10
9.4381153473
 20
8.28246325
 40
0.2321766098
100
AcDbArc
 50
349.335144699
 51
0.0338826872
  0
ARC
  5
2DD
100
AcDbEntity
  8
0
100
AcDbCircle
 62
7
  6
CONTINUOUS
 10
9.4480766609
 20
8.3129564986
 40
0.2084742017
100
AcDbArc
 50
43.2622607693
 51
46.5189017379
  0
ARC
  5
2DE
100
AcDbEntity
  8
0
100
AcDbCircle
 62
7
  6
CONTINUOUS
 10
9.4481398753
 20
8.3130165167
 40
0.2083870347
100
AcDbArc
 50
42.579461925
 51
43.2621553489
  0
ARC
  5
2DF
100
AcDbEntity
  8
0
100
AcDbCircle
 62
7
  6
CONTINUOUS
 10
9.4482036914
 20
8.3130892355
 40
0.208290476
100
AcDbArc
 50
46.5191314909
 51
46.9937663109
  0
ARC
  5
2E0
100
AcDbEntity
  8
0
100
AcDbCircle
 62
7
  6
CONTINUOUS
 10
11.5824062163
 20
8.0495195529
 40
0.0968621468
100
AcDbArc
 50
154.4366650506
 51
156.5400748229
  0
SPLINE
  5
2E1
100
AcDbEntity
  8
0
100
AcDbSpline
 62
7
  6
CONTINUOUS
 70
0
 71
3
 72
23
 73
19
 74
0
 42
0.0000001
 43
0.0000001
 44
0.0000000001
 40
0.0
 40
0.0
 40
0.0
 40
0.0
 40
0.063776909
 40
0.1273449468
 40
0.1907019575
 40
0.2538561145
 40
0.3168131979
 40
0.3795820804
 40
0.4421733815
 40
0.5045993354
 40
0.5668738682
 40
0.6290123838
 40
0.6910316538
 40
0.75294965
 40
0.8147853622
 40
0.8765586114
 40
0.9382898593
 40
1.0
 40
1.0
 40
1.0
 40
1.0
 10
10.5265134031
 20
9.451998068
 30
0.0
 10
10.5265134031
 20
9.4474157648
 30
0.0
 10
10.5262940687
 20
9.4382646132
 30
0.0
 10
10.5253041467
 20
9.4245935609
 30
0.0
 10
10.5236558984
 20
9.4110308678
 30
0.0
 10
10.521353285
 20
9.3976083918
 30
0.0
 10
10.5184014397
 20
9.3843568105
 30
0.0
 10
10.5148071897
 20
9.3713067572
 30
0.0
 10
10.5105788028
 20
9.3584882953
 30
0.0
 10
10.5057259906
 20
9.3459309844
 30
0.0
 10
10.5002599001
 20
9.3336637939
 30
0.0
 10
10.4941931114
 20
9.3217150194
 30
0.0
 10
10.4875396147
 20
9.3101122159
 30
0.0
 10
10.4803147302
 20
9.2988821423
 30
0.0
 10
10.4725351156
 20
9.2880507397
 30
0.0
 10
10.4642186077
 20
9.277642918
 30
0.0
 10
10.4553847261
 20
9.2676830037
 30
0.0
 10
10.4491629763
 20
9.2613558014
 30
0.0
 10
10.4459739461
 20
9.2582754215
 30
0.0
  0
SPLINE
  5
2E2
100
AcDbEntity
  8
0
100
AcDbSpline
 62
7
  6
CONTINUOUS
 70
0
 71
3
 72
23
 73
19
 74
0
 42
0.0000001
 43
0.0000001
 44
0.0000000001
 40
0.0
 40
0.0
 40
0.0
 40
0.0
 40
0.063776909
 40
0.1273449468
 40
0.1907019575
 40
0.2538561145
 40
0.3168131979
 40
0.3795820804
 40
0.4421733815
 40
0.5045993354
 40
0.5668738682
 40
0.6290123838
 40
0.6910316538
 40
0.75294965
 40
0.8147853622
 40
0.8765586114
 40
0.9382898593
 40
1.0
 40
1.0
 40
1.0
 40
1.0
 10
11.9754021133
 20
8.5063321753
 30
0.0
 10
11.9754021133
 20
8.5017498722
 30
0.0
 10
11.9751827788
 20
8.4925987206
 30
0.0
 10
11.9741928568
 20
8.4789276683
 30
0.0
 10
11.9725446085
 20
8.4653649752
 30
0.0
 10
11.9702419951
 20
8.4519424992
 30
0.0
 10
11.9672901498
 20
8.4386909178
 30
0.0
 10
11.9636958999
 20
8.4256408645
 30
0.0
 10
11.9594675129
 20
8.4128224026
 30
0.0
 10
11.9546147007
 20
8.4002650917
 30
0.0
 10
11.9491486102
 20
8.3879979013
 30
0.0
 10
11.9430818215
 20
8.3760491268
 30
0.0
 10
11.9364283249
 20
8.3644463233
 30
0.0
 10
11.9292034403
 20
8.3532162497
 30
0.0
 10
11.9214238257
 20
8.3423848471
 30
0.0
 10
11.9131073178
 20
8.3319770254
 30
0.0
 10
11.9042734362
 20
8.3220171111
 30
0.0
 10
11.8980516864
 20
8.3156899088
 30
0.0
 10
11.8948626563
 20
8.3126095289
 30
0.0
  0
SPLINE
  5
2E3
100
AcDbEntity
  8
0
100
AcDbSpline
 62
7
  6
CONTINUOUS
 70
0
 71
3
 72
23
 73
19
 74
0
 42
0.0000001
 43
0.0000001
 44
0.0000000001
 40
0.0
 40
0.0
 40
0.0
 40
0.0
 40
0.063776909
 40
0.1273449468
 40
0.1907019575
 40
0.2538561145
 40
0.3168131979
 40
0.3795820804
 40
0.4421733815
 40
0.5045993354
 40
0.5668738682
 40
0.6290123838
 40
0.6910316538
 40
0.75294965
 40
0.8147853622
 40
0.8765586114
 40
0.9382898593
 40
1.0
 40
1.0
 40
1.0
 40
1.0
 10
10.5265134031
 20
6.9772960633
 30
0.0
 10
10.5265134031
 20
6.9727137602
 30
0.0
 10
10.5262940687
 20
6.9635626086
 30
0.0
 10
10.5253041467
 20
6.9498915562
 30
0.0
 10
10.5236558984
 20
6.9363288632
 30
0.0
 10
10.521353285
 20
6.9229063871
 30
0.0
 10
10.5184014397
 20
6.9096548058
 30
0.0
 10
10.5148071897
 20
6.8966047525
 30
0.0
 10
10.5105788028
 20
6.8837862906
 30
0.0
 10
10.5057259906
 20
6.8712289797
 30
0.0
 10
10.5002599001
 20
6.8589617893
 30
0.0
 10
10.4941931114
 20
6.8470130147
 30
0.0
 10
10.4875396147
 20
6.8354102112
 30
0.0
 10
10.4803147302
 20
6.8241801376
 30
0.0
 10
10.4725351156
 20
6.8133487351
 30
0.0
 10
10.4642186077
 20
6.8029409134
 30
0.0
 10
10.4553847261
 20
6.7929809991
 30
0.0
 10
10.4491629763
 20
6.7866537968
 30
0.0
 10
10.4459739461
 20
6.7835734169
 30
0.0
  0
SPLINE
  5
2E4
100
AcDbEntity
  8
0
100
AcDbSpline
 62
7
  6
CONTINUOUS
 70
0
 71
3
 72
23
 73
19
 74
0
 42
0.0000001
 43
0.0000001
 44
0.0000000001
 40
0.0
 40
0.0
 40
0.0
 40
0.0
 40
0.063777379
 40
0.1273447372
 40
0.1907019931
 40
0.2538561345
 40
0.3168131769
 40
0.3795820929
 40
0.4421733849
 40
0.5045993366
 40
0.5668738654
 40
0.6290123812
 40
0.6910316548
 40
0.7529496517
 40
0.8147853612
 40
0.8765586089
 40
0.9382898579
 40
1.0
 40
1.0
 40
1.0
 40
1.0
 10
9.824768225
 20
8.2633132159
 30
0.0
 10
9.824768225
 20
8.2569334236
 30
0.0
 10
9.8244628741
 20
8.2441926856
 30
0.0
 10
9.8230846167
 20
8.2251590611
 30
0.0
 10
9.8207898471
 20
8.2062763454
 30
0.0
 10
9.8175839931
 20
8.187588789
 30
0.0
 10
9.8134742723
 20
8.1691391787
 30
0.0
 10
9.8084701672
 20
8.150970143
 30
0.0
 10
9.8025831453
 20
8.1331235486
 30
0.0
 10
9.7958267557
 20
8.1156405519
 30
0.0
 10
9.7882165437
 20
8.0985614702
 30
0.0
 10
9.779770023
 20
8.0819256957
 30
0.0
 10
9.770506642
 20
8.0657716069
 30
0.0
 10
9.7604477207
 20
8.0501364684
 30
0.0
 10
9.7496164733
 20
8.0350563849
 30
0.0
 10
9.7380377526
 20
8.0205660205
 30
0.0
 10
9.7257387115
 20
8.0066992597
 30
0.0
 10
9.7170764204
 20
7.9978901793
 30
0.0
 10
9.7126364677
 20
7.9936014996
 30
0.0
  0
SPLINE
  5
2E5
100
AcDbEntity
  8
0
100
AcDbSpline
 62
7
  6
CONTINUOUS
 70
0
 71
3
 72
23
 73
19
 74
0
 42
0.0000001
 43
0.0000001
 44
0.0000000001
 40
0.0
 40
0.0
 40
0.0
 40
0.0
 40
0.0809718009
 40
0.1602613049
 40
0.2376628664
 40
0.3129724865
 40
0.385991794
 40
0.4565340326
 40
0.5244289939
 40
0.589527379
 40
0.6517037211
 40
0.7108581307
 40
0.7669169361
 40
0.8198323137
 40
0.8695819848
 40
0.9161686617
 40
0.9596221007
 40
1.0
 40
1.0
 40
1.0
 40
1.0
 10
10.5859818791
 20
9.119653631
 30
0.0
 10
10.5835232246
 20
9.1151899051
 30
0.0
 10
10.5788510077
 20
9.1062464969
 30
0.0
 10
10.5725401777
 20
9.0926796287
 30
0.0
 10
10.5670175046
 20
9.0791568403
 30
0.0
 10
10.5622999906
 20
9.0657500137
 30
0.0
 10
10.5583966181
 20
9.0525331967
 30
0.0
 10
10.555307735
 20
9.0395816934
 30
0.0
 10
10.5530245341
 20
9.0269702289
 30
0.0
 10
10.5515290166
 20
9.0147713699
 30
0.0
 10
10.5507943767
 20
9.0030540504
 30
0.0
 10
10.5507857802
 20
8.9918823898
 30
0.0
 10
10.5514614253
 20
8.981314873
 30
0.0
 10
10.5527738173
 20
8.9714038269
 30
0.0
 10
10.5546710711
 20
8.9621954668
 30
0.0
 10
10.5570984572
 20
8.9537294908
 30
0.0
 10
10.5599989124
 20
8.9460412394
 30
0.0
 10
10.5622934984
 20
8.941280282
 30
0.0
 10
10.5635104851
 20
8.9390494059
 30
0.0
  0
SPLINE
  5
2E6
100
AcDbEntity
  8
0
100
AcDbSpline
 62
7
  6
CONTINUOUS
 70
0
 71
3
 72
18
 73
14
 74
0
 42
0.0000001
 43
0.0000001
 44
0.0000000001
 40
0.0
 40
0.0
 40
0.0
 40
0.0
 40
0.1544916032
 40
0.2988845172
 40
0.4337214262
 40
0.5597517896
 40
0.6779498654
 40
0.7345289623
 40
0.7896497797
 40
0.8435207825
 40
0.8963682876
 40
0.9484403346
 40
1.0
 40
1.0
 40
1.0
 40
1.0
 10
10.5635104851
 20
8.9390494059
 30
0.0
 10
10.5644831457
 20
8.9372664074
 30
0.0
 10
10.5665050776
 20
8.9338904515
 30
0.0
 10
10.5698718538
 20
8.9292783162
 30
0.0
 10
10.5734347788
 20
8.9253035815
 30
0.0
 10
10.5771604742
 20
8.9219774782
 30
0.0
 10
10.5804237236
 20
8.9197214766
 30
0.0
 10
10.5830775513
 20
8.9182704709
 30
0.0
 10
10.5850594955
 20
8.9173656203
 30
0.0
 10
10.5870579045
 20
8.9166293803
 30
0.0
 10
10.589069343
 20
8.9160624709
 30
0.0
 10
10.5910900797
 20
8.9156655285
 30
0.0
 10
10.5924459204
 20
8.9155140421
 30
0.0
 10
10.5931221338
 20
8.9154671564
 30
0.0
  0
SPLINE
  5
2E7
100
AcDbEntity
  8
0
100
AcDbSpline
 62
7
  6
CONTINUOUS
 70
0
 71
3
 72
11
 73
7
 74
0
 42
0.0000001
 43
0.0000001
 44
0.0000000001
 40
0.0
 40
0.0
 40
0.0
 40
0.0
 40
0.25201065
 40
0.5029240571
 40
0.7523675324
 40
1.0
 40
1.0
 40
1.0
 40
1.0
 10
11.4388043844
 20
7.8805924765
 30
0.0
 10
11.4385369939
 20
7.8754043481
 30
0.0
 10
11.4382292969
 20
7.8650375249
 30
0.0
 10
11.4384646461
 20
7.8495246482
 30
0.0
 10
11.4394051294
 20
7.8341288029
 30
0.0
 10
11.4405072618
 20
7.8239368916
 30
0.0
 10
11.4411767192
 20
7.8188762182
 30
0.0
  0
SPLINE
  5
2E8
100
AcDbEntity
  8
0
100
AcDbSpline
 62
7
  6
CONTINUOUS
 70
0
 71
3
 72
14
 73
10
 74
0
 42
0.0000001
 43
0.0000001
 44
0.0000000001
 40
0.0
 40
0.0
 40
0.0
 40
0.0
 40
0.2387823066
 40
0.3622571137
 40
0.4877692832
 40
0.6148190963
 40
0.742893663
 40
0.8714650293
 40
1.0
 40
1.0
 40
1.0
 40
1.0
 10
11.4928959636
 20
8.063490344
 30
0.0
 10
11.4856702662
 20
8.0500026463
 30
0.0
 10
11.4755550965
 20
8.0290644141
 30
0.0
 10
11.4639737988
 20
8.0000223221
 30
0.0
 10
11.4562034191
 20
7.9772002849
 30
0.0
 10
11.4496201238
 20
7.9537007452
 30
0.0
 10
11.4443857684
 20
7.9296612755
 30
0.0
 10
11.4406463196
 20
7.9052474623
 30
0.0
 10
11.4392283259
 20
7.8888181307
 30
0.0
 10
11.4388043844
 20
7.8805924765
 30
0.0
  0
SPLINE
  5
2E9
100
AcDbEntity
  8
0
100
AcDbSpline
 62
7
  6
CONTINUOUS
 70
0
 71
3
 72
37
 73
33
 74
0
 42
0.0000001
 43
0.0000001
 44
0.0000000001
 40
0.0
 40
0.0
 40
0.0
 40
0.0
 40
0.037893773
 40
0.0754695635
 40
0.1126977423
 40
0.1495583989
 40
0.1860336558
 40
0.222110975
 40
0.2577817726
 40
0.2930407684
 40
0.3278853963
 40
0.3623153632
 40
0.396331895
 40
0.4299368155
 40
0.4959067176
 40
0.5602470058
 40
0.6229400861
 40
0.6839252584
 40
0.7137474702
 40
0.7430908033
 40
0.7719273085
 40
0.8002214815
 40
0.8279312012
 40
0.8550049633
 40
0.8813819731
 40
0.9069918902
 40
0.9317527082
 40
0.9555732638
 40
0.9671015995
 40
0.9783572165
 40
0.9893275029
 40
1.0
 40
1.0
 40
1.0
 40
1.0
 10
11.4411767192
 20
7.8188762182
 30
0.0
 10
11.4417630764
 20
7.8144437296
 30
0.0
 10
11.4431151515
 20
7.8056391456
 30
0.0
 10
11.4456879239
 20
7.792589272
 30
0.0
 10
11.4487854609
 20
7.7797790301
 30
0.0
 10
11.4523920731
 20
7.7672378399
 30
0.0
 10
11.4564896934
 20
7.7549915114
 30
0.0
 10
11.4610577169
 20
7.7430630436
 30
0.0
 10
11.4660737553
 20
7.7314722204
 30
0.0
 10
11.4715141142
 20
7.7202358829
 30
0.0
 10
11.4773542239
 20
7.7093680538
 30
0.0
 10
11.4835688122
 20
7.6988801761
 30
0.0
 10
11.4901325959
 20
7.6887811386
 30
0.0
 10
11.499258382
 20
7.6759246444
 30
0.0
 10
11.5113979432
 20
7.6608397288
 30
0.0
 10
11.5270467073
 20
7.6442644687
 30
0.0
 10
11.543490543
 20
7.6293416787
 30
0.0
 10
11.5578009791
 20
7.6182097068
 30
0.0
 10
11.5694694875
 20
7.6101535518
 30
0.0
 10
11.5782327095
 20
7.6045790844
 30
0.0
 10
11.5870452786
 20
7.5994320504
 30
0.0
 10
11.595879036
 20
7.5947179962
 30
0.0
 10
11.6047034477
 20
7.5904440543
 30
0.0
 10
11.6134855488
 20
7.5866192549
 30
0.0
 10
11.6221890964
 20
7.5832546603
 30
0.0
 10
11.630774007
 20
7.580363551
 30
0.0
 10
11.63919545
 20
7.5779619164
 30
0.0
 10
11.6461099265
 20
7.5763663756
 30
0.0
 10
11.6515167508
 20
7.5753606388
 30
0.0
 10
11.6554530503
 20
7.574750233
 30
0.0
 10
11.6593066367
 20
7.5742784573
 30
0.0
 10
11.6618511544
 20
7.5740552432
 30
0.0
 10
11.6631074338
 20
7.5739687559
 30
0.0
  0
SPLINE
  5
2EA
100
AcDbEntity
  8
0
100
AcDbSpline
 62
7
  6
CONTINUOUS
 70
0
 71
3
 72
15
 73
11
 74
0
 42
0.0000001
 43
0.0000001
 44
0.0000000001
 40
0.0
 40
0.0
 40
0.0
 40
0.0
 40
0.1259819474
 40
0.2515863032
 40
0.3768563197
 40
0.5018400136
 40
0.6265895108
 40
0.7511603175
 40
0.8756105299
 40
1.0
 40
1.0
 40
1.0
 40
1.0
 10
10.270626711
 20
9.754843535
 30
0.0
 10
10.2671013387
 20
9.7538265025
 30
0.0
 10
10.2601199279
 20
9.7515848248
 30
0.0
 10
10.2498844439
 20
9.7476048787
 30
0.0
 10
10.2399342602
 20
9.7430254492
 30
0.0
 10
10.2303026766
 20
9.7378617309
 30
0.0
 10
10.2210213572
 20
9.7321307082
 30
0.0
 10
10.2121208522
 20
9.7258511597
 30
0.0
 10
10.2036308989
 20
9.7190441507
 30
0.0
 10
10.19826192
 20
9.7141681159
 30
0.0
 10
10.1956562383
 20
9.711651207
 30
0.0
  0
SPLINE
  5
2EB
100
AcDbEntity
  8
0
100
AcDbSpline
 62
7
  6
CONTINUOUS
 70
0
 71
3
 72
15
 73
11
 74
0
 42
0.0000001
 43
0.0000001
 44
0.0000000001
 40
0.0
 40
0.0
 40
0.0
 40
0.0
 40
0.1259819474
 40
0.2515863032
 40
0.3768563197
 40
0.5018400136
 40
0.6265895108
 40
0.7511603175
 40
0.8756105299
 40
1.0
 40
1.0
 40
1.0
 40
1.0
 10
11.7195154211
 20
8.8091776424
 30
0.0
 10
11.7159900488
 20
8.8081606099
 30
0.0
 10
11.709008638
 20
8.8059189321
 30
0.0
 10
11.698773154
 20
8.8019389861
 30
0.0
 10
11.6888229704
 20
8.7973595566
 30
0.0
 10
11.6791913868
 20
8.7921958383
 30
0.0
 10
11.6699100673
 20
8.7864648156
 30
0.0
 10
11.6610095623
 20
8.7801852671
 30
0.0
 10
11.6525196091
 20
8.7733782581
 30
0.0
 10
11.6471506301
 20
8.7685022232
 30
0.0
 10
11.6445449484
 20
8.7659853144
 30
0.0
  0
SPLINE
  5
2EC
100
AcDbEntity
  8
0
100
AcDbSpline
 62
7
  6
CONTINUOUS
 70
0
 71
3
 72
15
 73
11
 74
0
 42
0.0000001
 43
0.0000001
 44
0.0000000001
 40
0.0
 40
0.0
 40
0.0
 40
0.0
 40
0.1259819474
 40
0.2515863032
 40
0.3768563197
 40
0.5018400136
 40
0.6265895108
 40
0.7511603175
 40
0.8756105299
 40
1.0
 40
1.0
 40
1.0
 40
1.0
 10
10.270626711
 20
7.2801415303
 30
0.0
 10
10.2671013387
 20
7.2791244978
 30
0.0
 10
10.2601199279
 20
7.2768828201
 30
0.0
 10
10.2498844439
 20
7.272902874
 30
0.0
 10
10.2399342602
 20
7.2683234446
 30
0.0
 10
10.2303026766
 20
7.2631597262
 30
0.0
 10
10.2210213572
 20
7.2574287036
 30
0.0
 10
10.2121208522
 20
7.2511491551
 30
0.0
 10
10.2036308989
 20
7.2443421461
 30
0.0
 10
10.19826192
 20
7.2394661112
 30
0.0
 10
10.1956562383
 20
7.2369492024
 30
0.0
  0
SPLINE
  5
2ED
100
AcDbEntity
  8
0
100
AcDbSpline
 62
7
  6
CONTINUOUS
 70
0
 71
3
 72
22
 73
18
 74
0
 42
0.0000001
 43
0.0000001
 44
0.0000000001
 40
0.0
 40
0.0
 40
0.0
 40
0.0
 40
0.1611147244
 40
0.2423966368
 40
0.3235717286
 40
0.4039854991
 40
0.4827941576
 40
0.5589772068
 40
0.631409057
 40
0.6989874997
 40
0.7607929723
 40
0.816222526
 40
0.865045137
 40
0.9073735777
 40
0.9435861625
 40
0.9742392102
 40
1.0
 40
1.0
 40
1.0
 40
1.0
 10
11.0201592977
 20
8.2125142547
 30
0.0
 10
11.0178550999
 20
8.2114175903
 30
0.0
 10
11.0143655451
 20
8.2098148543
 30
0.0
 10
11.0096578472
 20
8.2077887721
 30
0.0
 10
11.0060976277
 20
8.2063312517
 30
0.0
 10
11.0025457834
 20
8.2049585367
 30
0.0
 10
10.9990387945
 20
8.2036914292
 30
0.0
 10
10.9956213087
 20
8.2025516844
 30
0.0
 10
10.992343364
 20
8.2015597193
 30
0.0
 10
10.9892552954
 20
8.2007317613
 30
0.0
 10
10.9864013993
 20
8.2000773198
 30
0.0
 10
10.9838143902
 20
8.1995979187
 30
0.0
 10
10.9815124538
 20
8.1992875518
 30
0.0
 10
10.9794996581
 20
8.1991345178
 30
0.0
 10
10.9777684181
 20
8.1991239287
 30
0.0
 10
10.9763039942
 20
8.1992397798
 30
0.0
 10
10.9754231106
 20
8.1994042968
 30
0.0
 10
10.9750284789
 20
8.1995079592
 30
0.0
  0
SPLINE
  5
2EE
100
AcDbEntity
  8
0
100
AcDbSpline
 62
7
  6
CONTINUOUS
 70
0
 71
3
 72
23
 73
19
 74
0
 42
0.0000001
 43
0.0000001
 44
0.0000000001
 40
0.0
 40
0.0
 40
0.0
 40
0.0
 40
0.1341147083
 40
0.2508813346
 40
0.3527659939
 40
0.4419740335
 40
0.5203844605
 40
0.5895665914
 40
0.6508330654
 40
0.7053043719
 40
0.7539634565
 40
0.7976846384
 40
0.8372852071
 40
0.8735413473
 40
0.9072105417
 40
0.9390358791
 40
0.9697386526
 40
1.0
 40
1.0
 40
1.0
 40
1.0
 10
11.4935508156
 20
8.0880811044
 30
0.0
 10
11.493079152
 20
8.0869918104
 30
0.0
 10
11.4922379723
 20
8.0849358471
 30
0.0
 10
11.4911910632
 20
8.0819930998
 30
0.0
 10
11.4904067686
 20
8.0793823243
 30
0.0
 10
11.4898445229
 20
8.0770629231
 30
0.0
 10
11.4894710991
 20
8.0749992405
 30
0.0
 10
11.4892597763
 20
8.0731613672
 30
0.0
 10
11.4891892849
 20
8.0715246476
 30
0.0
 10
11.489242602
 20
8.0700688717
 30
0.0
 10
11.4894056101
 20
8.0687774421
 30
0.0
 10
11.4896674548
 20
8.0676367999
 30
0.0
 10
11.4900187639
 20
8.066635843
 30
0.0
 10
11.4904521733
 20
8.0657656597
 30
0.0
 10
11.4909612433
 20
8.0650191296
 30
0.0
 10
11.4915405959
 20
8.064390842
 30
0.0
 10
11.4921845408
 20
8.0638762026
 30
0.0
 10
11.4926545442
 20
8.0636063341
 30
0.0
 10
11.4928959636
 20
8.063490344
 30
0.0
  0
SPLINE
  5
2EF
100
AcDbEntity
  8
0
100
AcDbSpline
 62
7
  6
CONTINUOUS
 70
0
 71
3
 72
15
 73
11
 74
0
 42
0.0000001
 43
0.0000001
 44
0.0000000001
 40
0.0
 40
0.0
 40
0.0
 40
0.0
 40
0.1243868768
 40
0.2488347658
 40
0.3734037855
 40
0.4981522805
 40
0.623135977
 40
0.7484071848
 40
0.8740140555
 40
1.0
 40
1.0
 40
1.0
 40
1.0
 10
11.9266134269
 20
8.4739692821
 30
0.0
 10
11.929224844
 20
8.4764917309
 30
0.0
 10
11.9342947286
 20
8.4817003984
 30
0.0
 10
11.9414057645
 20
8.4899690736
 30
0.0
 10
11.9480015155
 20
8.4986681008
 30
0.0
 10
11.9540597698
 20
8.5077682821
 30
0.0
 10
11.9595605726
 20
8.5172395372
 30
0.0
 10
11.9644857472
 20
8.5270505913
 30
0.0
 10
11.9688188776
 20
8.5371684563
 30
0.0
 10
11.971299811
 20
8.5440860064
 30
0.0
 10
11.9724372484
 20
8.54758309
 30
0.0
  0
SPLINE
  5
2F0
100
AcDbEntity
  8
0
100
AcDbSpline
 62
7
  6
CONTINUOUS
 70
0
 71
3
 72
15
 73
11
 74
0
 42
0.0000001
 43
0.0000001
 44
0.0000000001
 40
0.0
 40
0.0
 40
0.0
 40
0.0
 40
0.1243868768
 40
0.2488347658
 40
0.3734037855
 40
0.4981522805
 40
0.623135977
 40
0.7484071848
 40
0.8740140555
 40
1.0
 40
1.0
 40
1.0
 40
1.0
 10
10.4777247168
 20
9.4196351747
 30
0.0
 10
10.4803361338
 20
9.4221576235
 30
0.0
 10
10.4854060184
 20
9.427366291
 30
0.0
 10
10.4925170544
 20
9.4356349662
 30
0.0
 10
10.4991128054
 20
9.4443339934
 30
0.0
 10
10.5051710597
 20
9.4534341748
 30
0.0
 10
10.5106718624
 20
9.4629054299
 30
0.0
 10
10.5155970371
 20
9.4727164839
 30
0.0
 10
10.5199301675
 20
9.4828343489
 30
0.0
 10
10.5224111008
 20
9.4897518991
 30
0.0
 10
10.5235485383
 20
9.4932489826
 30
0.0
  0
SPLINE
  5
2F1
100
AcDbEntity
  8
0
100
AcDbSpline
 62
7
  6
CONTINUOUS
 70
0
 71
3
 72
15
 73
11
 74
0
 42
0.0000001
 43
0.0000001
 44
0.0000000001
 40
0.0
 40
0.0
 40
0.0
 40
0.0
 40
0.1243868768
 40
0.2488347658
 40
0.3734037855
 40
0.4981522805
 40
0.623135977
 40
0.7484071848
 40
0.8740140555
 40
1.0
 40
1.0
 40
1.0
 40
1.0
 10
10.4777247168
 20
6.94493317
 30
0.0
 10
10.4803361338
 20
6.9474556189
 30
0.0
 10
10.4854060184
 20
6.9526642864
 30
0.0
 10
10.4925170544
 20
6.9609329615
 30
0.0
 10
10.4991128054
 20
6.9696319888
 30
0.0
 10
10.5051710597
 20
6.9787321701
 30
0.0
 10
10.5106718624
 20
6.9882034252
 30
0.0
 10
10.5155970371
 20
6.9980144792
 30
0.0
 10
10.5199301675
 20
7.0081323442
 30
0.0
 10
10.5224111008
 20
7.0150498944
 30
0.0
 10
10.5235485383
 20
7.018546978
 30
0.0
  0
SPLINE
  5
2F2
100
AcDbEntity
  8
0
100
AcDbSpline
 62
7
  6
CONTINUOUS
 70
0
 71
3
 72
39
 73
35
 74
0
 42
0.0000001
 43
0.0000001
 44
0.0000000001
 40
0.0
 40
0.0
 40
0.0
 40
0.0
 40
0.0299424725
 40
0.05990932
 40
0.0899243252
 40
0.1200101024
 40
0.1501875589
 40
0.1804754082
 40
0.2108897494
 40
0.2414437221
 40
0.272147242
 40
0.3030068208
 40
0.33402547
 40
0.3652026865
 40
0.3965345185
 40
0.428013701
 40
0.459629856
 40
0.4913697495
 40
0.5232175971
 40
0.5551554142
 40
0.587163399
 40
0.619220343
 40
0.6513040608
 40
0.6833918343
 40
0.715460865
 40
0.747488727
 40
0.7794538147
 40
0.8113357784
 40
0.8431159423
 40
0.8747777013
 40
0.90630686
 40
0.937692088
 40
0.9689246466
 40
1.0
 40
1.0
 40
1.0
 40
1.0
 10
10.0332928853
 20
9.6855111038
 30
0.0
 10
10.0382200144
 20
9.6902703656
 30
0.0
 10
10.048461677
 20
9.699404829
 30
0.0
 10
10.0648704464
 20
9.7118489085
 30
0.0
 10
10.0822415911
 20
9.7229731247
 30
0.0
 10
10.1004780596
 20
9.7327150622
 30
0.0
 10
10.1194795919
 20
9.7410214892
 30
0.0
 10
10.1391413171
 20
9.7478467485
 30
0.0
 10
10.1593548836
 20
9.7531535051
 30
0.0
 10
10.1800089288
 20
9.7569127884
 30
0.0
 10
10.2009897364
 20
9.7591041766
 30
0.0
 10
10.222181854
 20
9.7597158808
 30
0.0
 10
10.2434687285
 20
9.7587448027
 30
0.0
 10
10.2647333464
 20
9.7561965575
 30
0.0
 10
10.2858588719
 20
9.7520854034
 30
0.0
 10
10.3067292801
 20
9.7464341566
 30
0.0
 10
10.3272299844
 20
9.7392740592
 30
0.0
 10
10.3472484537
 20
9.730644599
 30
0.0
 10
10.3666748293
 20
9.7205933115
 30
0.0
 10
10.3854025199
 20
9.7091755084
 30
0.0
 10
10.4033287723
 20
9.6964539618
 30
0.0
 10
10.4203552279
 20
9.6824985655
 30
0.0
 10
10.4363884545
 20
9.6673859534
 30
0.0
 10
10.4513404533
 20
9.6511990854
 30
0.0
 10
10.4651291552
 20
9.6340268115
 30
0.0
 10
10.477678849
 20
9.6159633686
 30
0.0
 10
10.4889205932
 20
9.597107873
 30
0.0
 10
10.4987925909
 20
9.5775637801
 30
0.0
 10
10.5072405256
 20
9.5574383366
 30
0.0
 10
10.5142178664
 20
9.5368419613
 30
0.0
 10
10.5196861604
 20
9.5158878074
 30
0.0
 10
10.5236151226
 20
9.4946905481
 30
0.0
 10
10.5259830488
 20
9.4733680816
 30
0.0
 10
10.5265134031
 20
9.4591075935
 30
0.0
 10
10.5265134031
 20
9.451998068
 30
0.0
  0
SPLINE
  5
2F3
100
AcDbEntity
  8
0
100
AcDbSpline
 62
7
  6
CONTINUOUS
 70
0
 71
3
 72
39
 73
35
 74
0
 42
0.0000001
 43
0.0000001
 44
0.0000000001
 40
0.0
 40
0.0
 40
0.0
 40
0.0
 40
0.0299424725
 40
0.05990932
 40
0.0899243252
 40
0.1200101024
 40
0.1501875589
 40
0.1804754082
 40
0.2108897494
 40
0.2414437221
 40
0.272147242
 40
0.3030068208
 40
0.33402547
 40
0.3652026865
 40
0.3965345185
 40
0.428013701
 40
0.459629856
 40
0.4913697495
 40
0.5232175971
 40
0.5551554142
 40
0.587163399
 40
0.619220343
 40
0.6513040608
 40
0.6833918343
 40
0.715460865
 40
0.747488727
 40
0.7794538147
 40
0.8113357784
 40
0.8431159423
 40
0.8747777013
 40
0.90630686
 40
0.937692088
 40
0.9689246466
 40
1.0
 40
1.0
 40
1.0
 40
1.0
 10
11.4821815955
 20
8.7398452112
 30
0.0
 10
11.4871087246
 20
8.744604473
 30
0.0
 10
11.4973503872
 20
8.7537389364
 30
0.0
 10
11.5137591566
 20
8.7661830158
 30
0.0
 10
11.5311303013
 20
8.777307232
 30
0.0
 10
11.5493667698
 20
8.7870491696
 30
0.0
 10
11.5683683021
 20
8.7953555965
 30
0.0
 10
11.5880300272
 20
8.8021808558
 30
0.0
 10
11.6082435937
 20
8.8074876124
 30
0.0
 10
11.628897639
 20
8.8112468958
 30
0.0
 10
11.6498784466
 20
8.813438284
 30
0.0
 10
11.6710705641
 20
8.8140499882
 30
0.0
 10
11.6923574386
 20
8.8130789101
 30
0.0
 10
11.7136220565
 20
8.8105306648
 30
0.0
 10
11.7347475821
 20
8.8064195107
 30
0.0
 10
11.7556179902
 20
8.800768264
 30
0.0
 10
11.7761186946
 20
8.7936081666
 30
0.0
 10
11.7961371638
 20
8.7849787064
 30
0.0
 10
11.8155635394
 20
8.7749274189
 30
0.0
 10
11.8342912301
 20
8.7635096157
 30
0.0
 10
11.8522174824
 20
8.7507880691
 30
0.0
 10
11.8692439381
 20
8.7368326729
 30
0.0
 10
11.8852771646
 20
8.7217200608
 30
0.0
 10
11.9002291634
 20
8.7055331928
 30
0.0
 10
11.9140178653
 20
8.6883609188
 30
0.0
 10
11.9265675591
 20
8.670297476
 30
0.0
 10
11.9378093033
 20
8.6514419804
 30
0.0
 10
11.9476813011
 20
8.6318978875
 30
0.0
 10
11.9561292358
 20
8.611772444
 30
0.0
 10
11.9631065765
 20
8.5911760687
 30
0.0
 10
11.9685748706
 20
8.5702219148
 30
0.0
 10
11.9725038327
 20
8.5490246554
 30
0.0
 10
11.9748717589
 20
8.5277021889
 30
0.0
 10
11.9754021133
 20
8.5134417009
 30
0.0
 10
11.9754021133
 20
8.5063321753
 30
0.0
  0
SPLINE
  5
2F4
100
AcDbEntity
  8
0
100
AcDbSpline
 62
7
  6
CONTINUOUS
 70
0
 71
3
 72
39
 73
35
 74
0
 42
0.0000001
 43
0.0000001
 44
0.0000000001
 40
0.0
 40
0.0
 40
0.0
 40
0.0
 40
0.0299424725
 40
0.05990932
 40
0.0899243252
 40
0.1200101024
 40
0.1501875589
 40
0.1804754082
 40
0.2108897494
 40
0.2414437221
 40
0.272147242
 40
0.3030068208
 40
0.33402547
 40
0.3652026865
 40
0.3965345185
 40
0.428013701
 40
0.459629856
 40
0.4913697495
 40
0.5232175971
 40
0.5551554142
 40
0.587163399
 40
0.619220343
 40
0.6513040608
 40
0.6833918343
 40
0.715460865
 40
0.747488727
 40
0.7794538147
 40
0.8113357784
 40
0.8431159423
 40
0.8747777013
 40
0.90630686
 40
0.937692088
 40
0.9689246466
 40
1.0
 40
1.0
 40
1.0
 40
1.0
 10
10.0332928853
 20
7.2108090991
 30
0.0
 10
10.0382200144
 20
7.2155683609
 30
0.0
 10
10.048461677
 20
7.2247028243
 30
0.0
 10
10.0648704464
 20
7.2371469038
 30
0.0
 10
10.0822415911
 20
7.24827112
 30
0.0
 10
10.1004780596
 20
7.2580130575
 30
0.0
 10
10.1194795919
 20
7.2663194845
 30
0.0
 10
10.1391413171
 20
7.2731447438
 30
0.0
 10
10.1593548836
 20
7.2784515004
 30
0.0
 10
10.1800089288
 20
7.2822107837
 30
0.0
 10
10.2009897364
 20
7.284402172
 30
0.0
 10
10.222181854
 20
7.2850138762
 30
0.0
 10
10.2434687285
 20
7.2840427981
 30
0.0
 10
10.2647333464
 20
7.2814945528
 30
0.0
 10
10.2858588719
 20
7.2773833987
 30
0.0
 10
10.3067292801
 20
7.271732152
 30
0.0
 10
10.3272299844
 20
7.2645720545
 30
0.0
 10
10.3472484537
 20
7.2559425944
 30
0.0
 10
10.3666748293
 20
7.2458913069
 30
0.0
 10
10.3854025199
 20
7.2344735037
 30
0.0
 10
10.4033287723
 20
7.2217519571
 30
0.0
 10
10.4203552279
 20
7.2077965608
 30
0.0
 10
10.4363884545
 20
7.1926839487
 30
0.0
 10
10.4513404533
 20
7.1764970808
 30
0.0
 10
10.4651291552
 20
7.1593248068
 30
0.0
 10
10.477678849
 20
7.1412613639
 30
0.0
 10
10.4889205932
 20
7.1224058683
 30
0.0
 10
10.4987925909
 20
7.1028617754
 30
0.0
 10
10.5072405256
 20
7.0827363319
 30
0.0
 10
10.5142178664
 20
7.0621399567
 30
0.0
 10
10.5196861604
 20
7.0411858028
 30
0.0
 10
10.5236151226
 20
7.0199885434
 30
0.0
 10
10.5259830488
 20
6.9986660769
 30
0.0
 10
10.5265134031
 20
6.9844055889
 30
0.0
 10
10.5265134031
 20
6.9772960633
 30
0.0
  0
SPLINE
  5
2F5
100
AcDbEntity
  8
0
100
AcDbSpline
 62
7
  6
CONTINUOUS
 70
0
 71
3
 72
48
 73
44
 74
0
 42
0.0000001
 43
0.0000001
 44
0.0000000001
 40
0.0
 40
0.0
 40
0.0
 40
0.0
 40
0.0149718882
 40
0.029946835
 40
0.0449278818
 40
0.0599180314
 40
0.0749202306
 40
0.0899373551
 40
0.1049721887
 40
0.1200274071
 40
0.1351055656
 40
0.1502090814
 40
0.1653402183
 40
0.1805010792
 40
0.1956935911
 40
0.2109194931
 40
0.2261803325
 40
0.241477455
 40
0.2568119946
 40
0.2721848748
 40
0.3030428633
 40
0.3340599123
 40
0.3652355199
 40
0.3965657361
 40
0.4280432943
 40
0.4596578171
 40
0.4913960715
 40
0.523242273
 40
0.555178439
 40
0.5871847693
 40
0.6192400553
 40
0.6513221128
 40
0.6834082256
 40
0.7154755966
 40
0.7475018004
 40
0.7794652329
 40
0.8113455457
 40
0.8431240637
 40
0.8747841808
 40
0.9063117232
 40
0.9376952831
 40
0.9689262714
 40
1.0
 40
1.0
 40
1.0
 40
1.0
 10
10.3255128468
 20
8.9914386137
 30
0.0
 10
10.3299924803
 20
8.9957656145
 30
0.0
 10
10.3391257666
 20
9.0042433326
 30
0.0
 10
10.3533216873
 20
9.0164068473
 30
0.0
 10
10.3679955978
 20
9.0280019721
 30
0.0
 10
10.3831270461
 20
9.0390124496
 30
0.0
 10
10.3986952438
 20
9.0494232534
 30
0.0
 10
10.4146787525
 20
9.0592200348
 30
0.0
 10
10.4310556043
 20
9.0683892793
 30
0.0
 10
10.4478032266
 20
9.0769184293
 30
0.0
 10
10.4648985761
 20
9.0847957544
 30
0.0
 10
10.4823181476
 20
9.0920103745
 30
0.0
 10
10.5000379451
 20
9.0985524287
 30
0.0
 10
10.5180335874
 20
9.1044129298
 30
0.0
 10
10.536280331
 20
9.109583772
 30
0.0
 10
10.5547530469
 20
9.1140579089
 30
0.0
 10
10.573426346
 20
9.1178292064
 30
0.0
 10
10.5922744585
 20
9.1208924341
 30
0.0
 10
10.6112717897
 20
9.1232434374
 30
0.0
 10
10.6367942089
 20
9.1254268209
 30
0.0
 10
10.6689480394
 20
9.1263550382
 30
0.0
 10
10.7076504781
 20
9.1245892644
 30
0.0
 10
10.7463135986
 20
9.1199560513
 30
0.0
 10
10.7847234996
 20
9.1124811181
 30
0.0
 10
10.8226696342
 20
9.1022060604
 30
0.0
 10
10.8599435514
 20
9.0891876372
 30
0.0
 10
10.8963406742
 20
9.0734976473
 30
0.0
 10
10.9316612805
 20
9.0552225708
 30
0.0
 10
10.9657115431
 20
9.0344629115
 30
0.0
 10
10.9983046272
 20
9.011332795
 30
0.0
 10
11.0292617358
 20
8.9859593491
 30
0.0
 10
11.0584129637
 20
8.9584818699
 30
0.0
 10
11.0855983317
 20
8.9290512151
 30
0.0
 10
11.1106686478
 20
8.8978289439
 30
0.0
 10
11.1334861972
 20
8.8649863486
 30
0.0
 10
11.15392565
 20
8.8307036598
 30
0.0
 10
11.1718746872
 20
8.7951689961
 30
0.0
 10
11.1872345049
 20
8.7585773281
 30
0.0
 10
11.1999205507
 20
8.721129429
 30
0.0
 10
11.2098628836
 20
8.6830310435
 30
0.0
 10
11.2170064303
 20
8.6444906261
 30
0.0
 10
11.2213117033
 20
8.6057225717
 30
0.0
 10
11.2222759938
 20
8.5797944435
 30
0.0
 10
11.2222759938
 20
8.5668680619
 30
0.0
  0
SPLINE
  5
2F6
100
AcDbEntity
  8
0
100
AcDbSpline
 62
7
  6
CONTINUOUS
 70
0
 71
3
 72
24
 73
20
 74
0
 42
0.0000001
 43
0.0000001
 44
0.0000000001
 40
0.0
 40
0.0
 40
0.0
 40
0.0
 40
0.0617098313
 40
0.0925738984
 40
0.1234458675
 40
0.1852188018
 40
0.2470541946
 40
0.308971872
 40
0.3709908252
 40
0.4331290222
 40
0.4954032331
 40
0.5578288693
 40
0.620419838
 40
0.6831884364
 40
0.7461451583
 40
0.8092989319
 40
0.8726560363
 40
0.9362226977
 40
1.0
 40
1.0
 40
1.0
 40
1.0
 10
11.0758391866
 20
8.2146436726
 30
0.0
 10
11.0816374609
 20
8.2202443846
 30
0.0
 10
11.0901216455
 20
8.2288722715
 30
0.0
 10
11.1009775255
 20
8.2407992548
 30
0.0
 10
11.1115289656
 20
8.2530077324
 30
0.0
 10
11.1241327632
 20
8.2687808426
 30
0.0
 10
11.1382775287
 20
8.2884741972
 30
0.0
 10
11.1514138618
 20
8.3088926076
 30
0.0
 10
11.1635112405
 20
8.3299886763
 30
0.0
 10
11.1745418643
 20
8.3517138138
 30
0.0
 10
11.1844803134
 20
8.3740178849
 30
0.0
 10
11.1933037133
 20
8.3968494508
 30
0.0
 10
11.2009917716
 20
8.420155854
 30
0.0
 10
11.2075268092
 20
8.4438833417
 30
0.0
 10
11.2128938441
 20
8.4679772356
 30
0.0
 10
11.217080502
 20
8.4923818932
 30
0.0
 10
11.2200773012
 20
8.5170413731
 30
0.0
 10
11.221877238
 20
8.5418979647
 30
0.0
 10
11.2222759938
 20
8.5585364652
 30
0.0
 10
11.2222759938
 20
8.5668680619
 30
0.0
  0
SPLINE
  5
2F7
100
AcDbEntity
  8
0
100
AcDbSpline
 62
7
  6
CONTINUOUS
 70
0
 71
3
 72
45
 73
41
 74
0
 42
0.0000001
 43
0.0000001
 44
0.0000000001
 40
0.0
 40
0.0
 40
0.0
 40
0.0
 40
0.0019798852
 40
0.00375592
 40
0.0053701461
 40
0.0068693729
 40
0.0083036637
 40
0.0097222581
 40
0.0111696488
 40
0.0126829472
 40
0.0142904058
 40
0.0160118551
 40
0.0198443278
 40
0.0242457389
 40
0.0292314758
 40
0.0347999712
 40
0.0409396553
 40
0.0476326433
 40
0.0548631611
 40
0.0626140556
 40
0.0708670027
 40
0.088820841
 40
0.1086139859
 40
0.1301549789
 40
0.1533660705
 40
0.178187828
 40
0.2045703208
 40
0.2324773747
 40
0.2618810745
 40
0.2927630478
 40
0.3589270757
 40
0.4309755073
 40
0.5090255834
 40
0.5933053387
 40
0.68415459
 40
0.7820096143
 40
0.8337088624
 40
0.8873068079
 40
0.9427821999
 40
1.0
 40
1.0
 40
1.0
 40
1.0
 10
11.123788914
 20
8.2896517825
 30
0.0
 10
11.1238733922
 20
8.2896297963
 30
0.0
 10
11.1240317833
 20
8.2895800483
 30
0.0
 10
11.1242476742
 20
8.2894811252
 30
0.0
 10
11.1244290424
 20
8.289362925
 30
0.0
 10
11.1245769968
 20
8.2892260573
 30
0.0
 10
11.1246925499
 20
8.2890715127
 30
0.0
 10
11.1247769563
 20
8.2889006003
 30
0.0
 10
11.1248314331
 20
8.2887144459
 30
0.0
 10
11.1248574721
 20
8.2885140263
 30
0.0
 10
11.1248566246
 20
8.2883000081
 30
0.0
 10
11.1248201707
 20
8.2879858472
 30
0.0
 10
11.1247074977
 20
8.2875594897
 30
0.0
 10
11.1244876665
 20
8.2870186823
 30
0.0
 10
11.1241844349
 20
8.2864323524
 30
0.0
 10
11.1238022398
 20
8.2858028471
 30
0.0
 10
11.1233452216
 20
8.2851321659
 30
0.0
 10
11.1228173134
 20
8.2844221364
 30
0.0
 10
11.1222216352
 20
8.2836747081
 30
0.0
 10
11.1215611933
 20
8.2828914959
 30
0.0
 10
11.1205697317
 20
8.2817694998
 30
0.0
 10
11.1191809991
 20
8.2802908013
 30
0.0
 10
11.1173359231
 20
8.2784387786
 30
0.0
 10
11.1152801495
 20
8.2764706591
 30
0.0
 10
11.1130235073
 20
8.2743926811
 30
0.0
 10
11.1105732126
 20
8.2722105944
 30
0.0
 10
11.1079349369
 20
8.2699288617
 30
0.0
 10
11.1051124967
 20
8.2675517528
 30
0.0
 10
11.102108486
 20
8.2650827188
 30
0.0
 10
11.0977616808
 20
8.261591544
 30
0.0
 10
11.0918724606
 20
8.2570190556
 30
0.0
 10
11.0842219309
 20
8.2513272534
 30
0.0
 10
11.0758035076
 20
8.2453330382
 30
0.0
 10
11.0665686661
 20
8.239060649
 30
0.0
 10
11.056449516
 20
8.2325419935
 30
0.0
 10
11.0473814117
 20
8.2270508518
 30
0.0
 10
11.0396089452
 20
8.2225986897
 30
0.0
 10
11.033394194
 20
8.2191885762
 30
0.0
 10
11.0268948298
 20
8.2157944519
 30
0.0
 10
11.0224371724
 20
8.2135983909
 30
0.0
 10
11.0201592977
 20
8.2125142547
 30
0.0
  0
SPLINE
  5
2F8
100
AcDbEntity
  8
0
100
AcDbSpline
 62
7
  6
CONTINUOUS
 70
0
 71
3
 72
48
 73
44
 74
0
 42
0.0000001
 43
0.0000001
 44
0.0000000001
 40
0.0
 40
0.0
 40
0.0
 40
0.0
 40
0.0149718882
 40
0.029946835
 40
0.0449278818
 40
0.0599180314
 40
0.0749202306
 40
0.0899373551
 40
0.1049721887
 40
0.1200274071
 40
0.1351055656
 40
0.1502090814
 40
0.1653402183
 40
0.1805010792
 40
0.1956935911
 40
0.2109194931
 40
0.2261803325
 40
0.241477455
 40
0.2568119946
 40
0.2721848748
 40
0.3030428633
 40
0.3340599123
 40
0.3652355199
 40
0.3965657361
 40
0.4280432943
 40
0.4596578171
 40
0.4913960715
 40
0.523242273
 40
0.555178439
 40
0.5871847693
 40
0.6192400553
 40
0.6513221128
 40
0.6834082256
 40
0.7154755966
 40
0.7475018004
 40
0.7794652329
 40
0.8113455457
 40
0.8431240637
 40
0.8747841808
 40
0.9063117232
 40
0.9376952831
 40
0.9689262714
 40
1.0
 40
1.0
 40
1.0
 40
1.0
 10
11.2315512905
 20
7.9626786356
 30
0.0
 10
11.236030924
 20
7.9670056363
 30
0.0
 10
11.2451642104
 20
7.9754833544
 30
0.0
 10
11.2593601311
 20
7.9876468692
 30
0.0
 10
11.2740340416
 20
7.999241994
 30
0.0
 10
11.2891654899
 20
8.0102524714
 30
0.0
 10
11.3047336876
 20
8.0206632752
 30
0.0
 10
11.3207171963
 20
8.0304600567
 30
0.0
 10
11.3370940481
 20
8.0396293011
 30
0.0
 10
11.3538416704
 20
8.0481584511
 30
0.0
 10
11.3709370199
 20
8.0560357762
 30
0.0
 10
11.3883565914
 20
8.0632503963
 30
0.0
 10
11.4060763889
 20
8.0697924505
 30
0.0
 10
11.4240720311
 20
8.0756529517
 30
0.0
 10
11.4423187748
 20
8.0808237939
 30
0.0
 10
11.4607914906
 20
8.0852979307
 30
0.0
 10
11.4794647897
 20
8.0890692283
 30
0.0
 10
11.4983129023
 20
8.092132456
 30
0.0
 10
11.5173102334
 20
8.0944834593
 30
0.0
 10
11.5428326527
 20
8.0966668428
 30
0.0
 10
11.5749864831
 20
8.0975950601
 30
0.0
 10
11.6136889218
 20
8.0958292862
 30
0.0
 10
11.6523520423
 20
8.0911960732
 30
0.0
 10
11.6907619433
 20
8.0837211399
 30
0.0
 10
11.7287080779
 20
8.0734460822
 30
0.0
 10
11.7659819951
 20
8.060427659
 30
0.0
 10
11.802379118
 20
8.0447376692
 30
0.0
 10
11.8376997243
 20
8.0264625926
 30
0.0
 10
11.8717499868
 20
8.0057029333
 30
0.0
 10
11.9043430709
 20
7.9825728169
 30
0.0
 10
11.9353001795
 20
7.957199371
 30
0.0
 10
11.9644514074
 20
7.9297218917
 30
0.0
 10
11.9916367754
 20
7.9002912369
 30
0.0
 10
12.0167070915
 20
7.8690689657
 30
0.0
 10
12.0395246409
 20
7.8362263704
 30
0.0
 10
12.0599640938
 20
7.8019436816
 30
0.0
 10
12.077913131
 20
7.766409018
 30
0.0
 10
12.0932729486
 20
7.72981735
 30
0.0
 10
12.1059589945
 20
7.6923694508
 30
0.0
 10
12.1159013273
 20
7.6542710653
 30
0.0
 10
12.123044874
 20
7.6157306479
 30
0.0
 10
12.127350147
 20
7.5769625936
 30
0.0
 10
12.1283144375
 20
7.5510344654
 30
0.0
 10
12.1283144375
 20
7.5381080837
 30
0.0
  0
SPLINE
  5
2F9
100
AcDbEntity
  8
0
100
AcDbSpline
 62
7
  6
CONTINUOUS
 70
0
 71
3
 72
24
 73
20
 74
0
 42
0.0000001
 43
0.0000001
 44
0.0000000001
 40
0.0
 40
0.0
 40
0.0
 40
0.0
 40
0.0617098313
 40
0.0925738984
 40
0.1234458675
 40
0.1852188018
 40
0.2470541946
 40
0.308971872
 40
0.3709908252
 40
0.4331290222
 40
0.4954032331
 40
0.5578288693
 40
0.620419838
 40
0.6831884364
 40
0.7461451583
 40
0.8092989319
 40
0.8726560363
 40
0.9362226977
 40
1.0
 40
1.0
 40
1.0
 40
1.0
 10
11.9818776303
 20
7.1858836944
 30
0.0
 10
11.9876759046
 20
7.1914844065
 30
0.0
 10
11.9961600892
 20
7.2001122933
 30
0.0
 10
12.0070159693
 20
7.2120392766
 30
0.0
 10
12.0175674093
 20
7.2242477543
 30
0.0
 10
12.0301712069
 20
7.2400208645
 30
0.0
 10
12.0443159724
 20
7.259714219
 30
0.0
 10
12.0574523055
 20
7.2801326295
 30
0.0
 10
12.0695496843
 20
7.3012286981
 30
0.0
 10
12.080580308
 20
7.3229538356
 30
0.0
 10
12.0905187571
 20
7.3452579067
 30
0.0
 10
12.099342157
 20
7.3680894727
 30
0.0
 10
12.1070302153
 20
7.3913958758
 30
0.0
 10
12.113565253
 20
7.4151233635
 30
0.0
 10
12.1189322879
 20
7.4392172574
 30
0.0
 10
12.1231189458
 20
7.4636219151
 30
0.0
 10
12.126115745
 20
7.4882813949
 30
0.0
 10
12.1279156818
 20
7.5131379865
 30
0.0
 10
12.1283144375
 20
7.5297764871
 30
0.0
 10
12.1283144375
 20
7.5381080837
 30
0.0
  0
SPLINE
  5
2FA
100
AcDbEntity
  8
0
100
AcDbSpline
 62
7
  6
CONTINUOUS
 70
0
 71
3
 72
42
 73
38
 74
0
 42
0.0000001
 43
0.0000001
 44
0.0000000001
 40
0.0
 40
0.0
 40
0.0
 40
0.0
 40
0.0149723984
 40
0.029947855
 40
0.044929411
 40
0.0599200705
 40
0.0749227797
 40
0.0899404141
 40
0.1200256603
 40
0.1502025837
 40
0.1804898973
 40
0.2109037013
 40
0.2414571355
 40
0.2721601139
 40
0.3030191474
 40
0.3340372487
 40
0.3652139147
 40
0.3965451931
 40
0.4280238196
 40
0.4596394169
 40
0.4913787493
 40
0.5232260332
 40
0.5551632855
 40
0.5871707048
 40
0.6192270819
 40
0.6513102319
 40
0.6833974375
 40
0.7154659008
 40
0.7474931963
 40
0.7794577183
 40
0.8113391169
 40
0.8431187185
 40
0.8747799153
 40
0.906308527
 40
0.9376931747
 40
0.9689251987
 40
1.0
 40
1.0
 40
1.0
 40
1.0
 10
9.1380792767
 20
8.5884233362
 30
0.0
 10
9.1415095162
 20
8.5917367045
 30
0.0
 10
9.1485032088
 20
8.5982284978
 30
0.0
 10
9.1593736064
 20
8.6075426177
 30
0.0
 10
9.1706100062
 20
8.6164215404
 30
0.0
 10
9.1821967139
 20
8.6248527436
 30
0.0
 10
9.1941180778
 20
8.6328248317
 30
0.0
 10
9.2104447226
 20
8.6428321432
 30
0.0
 10
9.2316187666
 20
8.6541435498
 30
0.0
 10
9.2580731213
 20
8.6657077725
 30
0.0
 10
9.2854474364
 20
8.6752103953
 30
0.0
 10
9.3135898426
 20
8.6825987126
 30
0.0
 10
9.3423455699
 20
8.6878325675
 30
0.0
 10
9.3715562132
 20
8.6908835122
 30
0.0
 10
9.4010610559
 20
8.6917351532
 30
0.0
 10
9.4306978226
 20
8.6903831481
 30
0.0
 10
9.460303601
 20
8.6868353243
 30
0.0
 10
9.4897157283
 20
8.6811115431
 30
0.0
 10
9.5187726659
 20
8.6732435524
 30
0.0
 10
9.5473148712
 20
8.6632748316
 30
0.0
 10
9.5751856885
 20
8.6512604079
 30
0.0
 10
9.6022321712
 20
8.6372664597
 30
0.0
 10
9.6283058974
 20
8.621369955
 30
0.0
 10
9.6532638051
 20
8.6036582917
 30
0.0
 10
9.676968971
 20
8.5842288044
 30
0.0
 10
9.6992913166
 20
8.5631881871
 30
0.0
 10
9.7201083105
 20
8.5406519255
 30
0.0
 10
9.7393057012
 20
8.5167437308
 30
0.0
 10
9.7567780851
 20
8.4915948078
 30
0.0
 10
9.7724294601
 20
8.4653431389
 30
0.0
 10
9.786173776
 20
8.4381327565
 30
0.0
 10
9.7979354532
 20
8.4101129983
 30
0.0
 10
9.8076497184
 20
8.3814375884
 30
0.0
 10
9.8152629717
 20
8.3522640565
 30
0.0
 10
9.8207330846
 20
8.3227520548
 30
0.0
 10
9.8240298314
 20
8.2930657371
 30
0.0
 10
9.824768225
 20
8.2732114906
 30
0.0
 10
9.824768225
 20
8.2633132159
 30
0.0
  0
SPLINE
  5
2FB
100
AcDbEntity
  8
0
100
AcDbSpline
 62
7
  6
CONTINUOUS
 70
0
 71
3
 72
37
 73
33
 74
0
 42
0.0000001
 43
0.0000001
 44
0.0000000001
 40
0.0
 40
0.0
 40
0.0
 40
0.0
 40
0.0303256471
 40
0.0607661969
 40
0.0913243287
 40
0.1220012298
 40
0.1527965994
 40
0.1837086685
 40
0.2147342376
 40
0.24586873
 40
0.2771062605
 40
0.3084397198
 40
0.3398608716
 40
0.3713604574
 40
0.4029283107
 40
0.4345534785
 40
0.4979071037
 40
0.5613448462
 40
0.5930741635
 40
0.6247861712
 40
0.6564682729
 40
0.6881082124
 40
0.7196942138
 40
0.7512151181
 40
0.7826605114
 40
0.8140208536
 40
0.8452875953
 40
0.8764532488
 40
0.907511713
 40
0.9384575198
 40
0.9692882695
 40
1.0
 40
1.0
 40
1.0
 40
1.0
 10
9.3822211687
 20
8.5335765662
 30
0.0
 10
9.3865352944
 20
8.5342376698
 30
0.0
 10
9.3952199658
 20
8.535314256
 30
0.0
 10
9.4083411432
 20
8.5361867065
 30
0.0
 10
9.4215415638
 20
8.5363174042
 30
0.0
 10
9.4347793809
 20
8.5357059044
 30
0.0
 10
9.4480133537
 20
8.5343542021
 30
0.0
 10
9.4612020698
 20
8.5322665668
 30
0.0
 10
9.4743043172
 20
8.5294495717
 30
0.0
 10
9.4872791435
 20
8.5259120583
 30
0.0
 10
9.5000860072
 20
8.5216651235
 30
0.0
 10
9.5126848906
 20
8.5167220907
 30
0.0
 10
9.5250364594
 20
8.5110984224
 30
0.0
 10
9.5371020396
 20
8.5048117944
 30
0.0
 10
9.5488442809
 20
8.4978815912
 30
0.0
 10
9.5640262539
 20
8.4878086152
 30
0.0
 10
9.5820095967
 20
8.4737217624
 30
0.0
 10
9.5984365155
 20
8.4578262204
 30
0.0
 10
9.6105312585
 20
8.4441362128
 30
0.0
 10
9.6190517971
 20
8.4334123716
 30
0.0
 10
9.6269924519
 20
8.422268533
 30
0.0
 10
9.6343287375
 20
8.4107392107
 30
0.0
 10
9.6410376344
 20
8.3988605008
 30
0.0
 10
9.6470981864
 20
8.3866694863
 30
0.0
 10
9.6524914261
 20
8.3742042532
 30
0.0
 10
9.6572004707
 20
8.3615037362
 30
0.0
 10
9.6612105584
 20
8.3486076181
 30
0.0
 10
9.6645091537
 20
8.3355561711
 30
0.0
 10
9.6670858494
 20
8.3223902615
 30
0.0
 10
9.6689326718
 20
8.3091507792
 30
0.0
 10
9.6700436226
 20
8.2958797825
 30
0.0
 10
9.6702919165
 20
8.2870206024
 30
0.0
 10
9.6702919165
 20
8.282600551
 30
0.0
  0
SPLINE
  5
2FC
100
AcDbEntity
  8
0
100
AcDbSpline
 62
7
  6
CONTINUOUS
 70
0
 71
3
 72
30
 73
26
 74
0
 42
0.0000001
 43
0.0000001
 44
0.0000000001
 40
0.0
 40
0.0
 40
0.0
 40
0.0
 40
0.0302019436
 40
0.0604139358
 40
0.0906459256
 40
0.1209076553
 40
0.1512085834
 40
0.1815577802
 40
0.2119638306
 40
0.2424347757
 40
0.2729780264
 40
0.3036002823
 40
0.3343074992
 40
0.3651048279
 40
0.3959965544
 40
0.4269860984
 40
0.4892500424
 40
0.5519237676
 40
0.615001629
 40
0.6784637831
 40
0.7422771106
 40
0.8063965815
 40
0.8707669385
 40
0.9353246342
 40
1.0
 40
1.0
 40
1.0
 40
1.0
 10
9.3323703444
 20
8.4716122045
 30
0.0
 10
9.33442997
 20
8.4736016625
 30
0.0
 10
9.3386517106
 20
8.4774773752
 30
0.0
 10
9.345272116
 20
8.4829633396
 30
0.0
 10
9.352166667
 20
8.4881103847
 30
0.0
 10
9.3593196505
 20
8.4929068046
 30
0.0
 10
9.3667150616
 20
8.4973419253
 30
0.0
 10
9.3743363266
 20
8.5014057333
 30
0.0
 10
9.3821663276
 20
8.5050891647
 30
0.0
 10
9.3901874893
 20
8.5083839945
 30
0.0
 10
9.3983818459
 20
8.5112827839
 30
0.0
 10
9.4067309942
 20
8.5137790915
 30
0.0
 10
9.4152162256
 20
8.5158673579
 30
0.0
 10
9.4238184608
 20
8.5175428546
 30
0.0
 10
9.4325186554
 20
8.5188018838
 30
0.0
 10
9.4442395942
 20
8.5199232907
 30
0.0
 10
9.4590442521
 20
8.5202670337
 30
0.0
 10
9.4768506702
 20
8.518989468
 30
0.0
 10
9.4945722315
 20
8.5160350417
 30
0.0
 10
9.5120493459
 20
8.5114305303
 30
0.0
 10
9.5291261804
 20
8.5052176359
 30
0.0
 10
9.545650053
 20
8.497452349
 30
0.0
 10
9.5614738078
 20
8.4882039688
 30
0.0
 10
9.576454851
 20
8.4775566662
 30
0.0
 10
9.5857897292
 20
8.4695903754
 30
0.0
 10
9.5902740273
 20
8.46540779
 30
0.0
  0
SPLINE
  5
2FD
100
AcDbEntity
  8
0
100
AcDbSpline
 62
7
  6
CONTINUOUS
 70
0
 71
3
 72
19
 73
15
 74
0
 42
0.0000001
 43
0.0000001
 44
0.0000000001
 40
0.0
 40
0.0
 40
0.0
 40
0.0
 40
0.0633061756
 40
0.1265825511
 40
0.1898102073
 40
0.2529706328
 40
0.3789858669
 40
0.5045268846
 40
0.6294761243
 40
0.7537367865
 40
0.8156024233
 40
0.8772701453
 40
0.9387399269
 40
1.0
 40
1.0
 40
1.0
 40
1.0
 10
9.6015835158
 20
8.454013699
 30
0.0
 10
9.6037105763
 20
8.4516988737
 30
0.0
 10
9.6078596084
 20
8.4469733907
 30
0.0
 10
9.6137534178
 20
8.439613783
 30
0.0
 10
9.619303623
 20
8.4320001545
 30
0.0
 10
9.6262215891
 20
8.4215440405
 30
0.0
 10
9.6339481001
 20
8.4079320312
 30
0.0
 10
9.6416615033
 20
8.3908720868
 30
0.0
 10
9.6477397233
 20
8.3732553442
 30
0.0
 10
9.6514000137
 20
8.358222141
 30
0.0
 10
9.6534565858
 20
8.3460862772
 30
0.0
 10
9.6545598312
 20
8.3369620566
 30
0.0
 10
9.6552230073
 20
8.3278258782
 30
0.0
 10
9.6553711398
 20
8.3217302727
 30
0.0
 10
9.6553711398
 20
8.3186881866
 30
0.0
  0
SPLINE
  5
2FE
100
AcDbEntity
  8
0
100
AcDbSpline
 62
7
  6
CONTINUOUS
 70
0
 71
3
 72
21
 73
17
 74
0
 42
0.0000001
 43
0.0000001
 44
0.0000000001
 40
0.0
 40
0.0
 40
0.0
 40
0.0
 40
0.0617147819
 40
0.1234506692
 40
0.185228552
 40
0.2470689061
 40
0.3089915516
 40
0.3710154745
 40
0.4331586551
 40
0.4954378585
 40
0.5578685076
 40
0.6204644887
 40
0.6832380492
 40
0.7462000649
 40
0.8726823101
 40
1.0
 40
1.0
 40
1.0
 40
1.0
 10
9.6026267665
 20
8.1918221847
 30
0.0
 10
9.6047152144
 20
8.193839483
 30
0.0
 10
9.6087897947
 20
8.1979830303
 30
0.0
 10
9.6145749745
 20
8.2045056367
 30
0.0
 10
9.6200213618
 20
8.2113215451
 30
0.0
 10
9.6251161551
 20
8.2184148475
 30
0.0
 10
9.6298476368
 20
8.2257692534
 30
0.0
 10
9.6342049412
 20
8.2333677452
 30
0.0
 10
9.6381780197
 20
8.2411928116
 30
0.0
 10
9.6417576812
 20
8.2492264147
 30
0.0
 10
9.6449357441
 20
8.2574500139
 30
0.0
 10
9.6477048813
 20
8.2658445893
 30
0.0
 10
9.6500587085
 20
8.2743910286
 30
0.0
 10
9.652639807
 20
8.2859778396
 30
0.0
 10
9.6547993387
 20
8.3007491609
 30
0.0
 10
9.6553711398
 20
8.3126979792
 30
0.0
 10
9.6553711398
 20
8.3186881866
 30
0.0
  0
SPLINE
  5
2FF
100
AcDbEntity
  8
0
100
AcDbSpline
 62
7
  6
CONTINUOUS
 70
0
 71
3
 72
23
 73
19
 74
0
 42
0.0000001
 43
0.0000001
 44
0.0000000001
 40
0.0
 40
0.0
 40
0.0
 40
0.0
 40
0.063776909
 40
0.1273449468
 40
0.1907019575
 40
0.2538561145
 40
0.3168131979
 40
0.3795820804
 40
0.4421733815
 40
0.5045993354
 40
0.5668738682
 40
0.6290123838
 40
0.6910316538
 40
0.75294965
 40
0.8147853622
 40
0.8765586114
 40
0.9382898593
 40
1.0
 40
1.0
 40
1.0
 40
1.0
 10
9.9527534283
 20
7.0170864527
 30
0.0
 10
9.9527534283
 20
7.0216687558
 30
0.0
 10
9.9529727628
 20
7.0308199074
 30
0.0
 10
9.9539626848
 20
7.0444909598
 30
0.0
 10
9.955610933
 20
7.0580536528
 30
0.0
 10
9.9579135465
 20
7.0714761289
 30
0.0
 10
9.9608653917
 20
7.0847277102
 30
0.0
 10
9.9644596417
 20
7.0977777635
 30
0.0
 10
9.9686880286
 20
7.1105962254
 30
0.0
 10
9.9735408409
 20
7.1231535363
 30
0.0
 10
9.9790069314
 20
7.1354207267
 30
0.0
 10
9.98507372
 20
7.1473695013
 30
0.0
 10
9.9917272167
 20
7.1589723048
 30
0.0
 10
9.9989521012
 20
7.1702023784
 30
0.0
 10
10.0067317158
 20
7.1810337809
 30
0.0
 10
10.0150482237
 20
7.1914416027
 30
0.0
 10
10.0238821054
 20
7.2014015169
 30
0.0
 10
10.0301038552
 20
7.2077287193
 30
0.0
 10
10.0332928853
 20
7.2108090991
 30
0.0
  0
SPLINE
  5
300
100
AcDbEntity
  8
0
100
AcDbSpline
 62
7
  6
CONTINUOUS
 70
0
 71
3
 72
71
 73
67
 74
0
 42
0.0000001
 43
0.0000001
 44
0.0000000001
 40
0.0
 40
0.0
 40
0.0
 40
0.0
 40
0.0155843203
 40
0.0311158961
 40
0.0465952665
 40
0.0620238797
 40
0.0774034496
 40
0.0927362829
 40
0.1080251227
 40
0.1232731731
 40
0.1384840551
 40
0.1536617759
 40
0.1688106896
 40
0.1839354531
 40
0.1990409785
 40
0.2141323827
 40
0.2292149327
 40
0.2442939903
 40
0.2593749546
 40
0.2744632045
 40
0.2895640408
 40
0.3046826302
 40
0.3198239505
 40
0.334992739
 40
0.3501934432
 40
0.3654301766
 40
0.380706678
 40
0.3960262753
 40
0.4113918556
 40
0.426805839
 40
0.4422701592
 40
0.4577862487
 40
0.4733550295
 40
0.4889769099
 40
0.5046517847
 40
0.5203790425
 40
0.5361575757
 40
0.551985796
 40
0.5678616538
 40
0.5837826612
 40
0.5997459179
 40
0.6157481417
 40
0.6317857
 40
0.647854645
 40
0.6639507506
 40
0.6800695513
 40
0.6962063819
 40
0.7123564197
 40
0.7285147267
 40
0.7446762929
 40
0.7608360799
 40
0.7769890647
 40
0.7931302836
 40
0.8092548753
 40
0.825358124
 40
0.8414355011
 40
0.8574827061
 40
0.8734957055
 40
0.8894707708
 40
0.9054045124
 40
0.9212939177
 40
0.9371363655
 40
0.9529297023
 40
0.9686721284
 40
0.9843625579
 40
1.0
 40
1.0
 40
1.0
 40
1.0
 10
11.2441962996
 20
8.5570414708
 30
0.0
 10
11.2441962996
 20
8.548033145
 30
0.0
 10
11.243755466
 20
8.5300437866
 30
0.0
 10
11.24176542
 20
8.5031730394
 30
0.0
 10
11.238452348
 20
8.4765230734
 30
0.0
 10
11.2338242541
 20
8.4501590301
 30
0.0
 10
11.2278921598
 20
8.4241441649
 30
0.0
 10
11.2206703345
 20
8.3985412744
 30
0.0
 10
11.2121761049
 20
8.373412061
 30
0.0
 10
11.2024298963
 20
8.3488171262
 30
0.0
 10
11.1914551482
 20
8.3248157834
 30
0.0
 10
11.1792782739
 20
8.301465924
 30
0.0
 10
11.1659285925
 20
8.2788238737
 30
0.0
 10
11.1514382612
 20
8.2569442555
 30
0.0
 10
11.1358421968
 20
8.2358798561
 30
0.0
 10
11.1191779931
 20
8.2156814961
 30
0.0
 10
11.1014858303
 20
8.1963979042
 30
0.0
 10
11.0828083757
 20
8.1780755993
 30
0.0
 10
11.0631906799
 20
8.1607587763
 30
0.0
 10
11.0426800669
 20
8.1444891982
 30
0.0
 10
11.0213260179
 20
8.129306094
 30
0.0
 10
10.9991800503
 20
8.1152460637
 30
0.0
 10
10.9762955916
 20
8.1023429895
 30
0.0
 10
10.9527278484
 20
8.0906279541
 30
0.0
 10
10.9285336712
 20
8.0801291659
 30
0.0
 10
10.9037714159
 20
8.0708718925
 30
0.0
 10
10.8785008011
 20
8.0628783999
 30
0.0
 10
10.8527827629
 20
8.0561679009
 30
0.0
 10
10.8266793073
 20
8.0507565091
 30
0.0
 10
10.8002533596
 20
8.0466572009
 30
0.0
 10
10.7735686118
 20
8.0438797879
 30
0.0
 10
10.7466893687
 20
8.0424308945
 30
0.0
 10
10.7196803935
 20
8.0423139439
 30
0.0
 10
10.6926067517
 20
8.043529151
 30
0.0
 10
10.6655336549
 20
8.046073524
 30
0.0
 10
10.6385263045
 20
8.0499408723
 30
0.0
 10
10.6116497354
 20
8.0551218228
 30
0.0
 10
10.5849686604
 20
8.0616038435
 30
0.0
 10
10.5585473152
 20
8.0693712742
 30
0.0
 10
10.5324493048
 20
8.078405365
 30
0.0
 10
10.5067374516
 20
8.088684322
 30
0.0
 10
10.481473644
 20
8.1001833588
 30
0.0
 10
10.4567186891
 20
8.1128747563
 30
0.0
 10
10.4325321667
 20
8.1267279312
 30
0.0
 10
10.4089722875
 20
8.1417095094
 30
0.0
 10
10.3860957533
 20
8.1577834056
 30
0.0
 10
10.3639576215
 20
8.1749109106
 30
0.0
 10
10.3426111735
 20
8.1930507841
 30
0.0
 10
10.3221077868
 20
8.2121593531
 30
0.0
 10
10.3024968124
 20
8.2321906172
 30
0.0
 10
10.2838254559
 20
8.2530963585
 30
0.0
 10
10.2661386653
 20
8.2748262572
 30
0.0
 10
10.2494790226
 20
8.2973280121
 30
0.0
 10
10.2338866421
 20
8.320547466
 30
0.0
 10
10.2193990722
 20
8.3444287342
 30
0.0
 10
10.2060512068
 20
8.3689143397
 30
0.0
 10
10.1938752017
 20
8.3939453506
 30
0.0
 10
10.1829003967
 20
8.4194615214
 30
0.0
 10
10.1731532472
 20
8.4454014366
 30
0.0
 10
10.1646572546
 20
8.47170266
 30
0.0
 10
10.1574329245
 20
8.4983018736
 30
0.0
 10
10.1514976812
 20
8.52513507
 30
0.0
 10
10.1468659045
 20
8.5521375586
 30
0.0
 10
10.1435487399
 20
8.5792446163
 30
0.0
 10
10.1415543212
 20
8.6063900322
 30
0.0
 10
10.1411089756
 20
8.6245018043
 30
0.0
 10
10.1411089756
 20
8.6335408365
 30
0.0
  0
SPLINE
  5
301
100
AcDbEntity
  8
0
100
AcDbSpline
 62
7
  6
CONTINUOUS
 70
0
 71
3
 72
21
 73
17
 74
0
 42
0.0000001
 43
0.0000001
 44
0.0000000001
 40
0.0
 40
0.0
 40
0.0
 40
0.0
 40
0.0617147716
 40
0.1234506543
 40
0.1852285447
 40
0.2470688977
 40
0.3089915387
 40
0.3710154693
 40
0.433158657
 40
0.4954378566
 40
0.5578685017
 40
0.6204645074
 40
0.6832380667
 40
0.7461999974
 40
0.8726824274
 40
1.0
 40
1.0
 40
1.0
 40
1.0
 10
11.6445449484
 20
8.7659853144
 30
0.0
 10
11.6423652451
 20
8.7638798713
 30
0.0
 10
11.6381126836
 20
8.7595552148
 30
0.0
 10
11.6320747159
 20
8.7527476083
 30
0.0
 10
11.6263903885
 20
8.7456338439
 30
0.0
 10
11.6210730317
 20
8.7382305611
 30
0.0
 10
11.6161348126
 20
8.7305548009
 30
0.0
 10
11.6115871375
 20
8.7226242779
 30
0.0
 10
11.6074405091
 20
8.7144572668
 30
0.0
 10
11.6037044389
 20
8.7060726332
 30
0.0
 10
11.6003875196
 20
8.6974896979
 30
0.0
 10
11.5974974289
 20
8.6887283051
 30
0.0
 10
11.5950407562
 20
8.6798084306
 30
0.0
 10
11.5923468791
 20
8.6677153268
 30
0.0
 10
11.590093022
 20
8.652298567
 30
0.0
 10
11.5894962333
 20
8.6398276416
 30
0.0
 10
11.5894962333
 20
8.6335756973
 30
0.0
  0
SPLINE
  5
302
100
AcDbEntity
  8
0
100
AcDbSpline
 62
7
  6
CONTINUOUS
 70
0
 71
3
 72
21
 73
17
 74
0
 42
0.0000001
 43
0.0000001
 44
0.0000000001
 40
0.0
 40
0.0
 40
0.0
 40
0.0
 40
0.0617147716
 40
0.1234506543
 40
0.1852285447
 40
0.2470688977
 40
0.3089915387
 40
0.3710154693
 40
0.433158657
 40
0.4954378566
 40
0.5578685017
 40
0.6204645074
 40
0.6832380667
 40
0.7461999974
 40
0.8726824274
 40
1.0
 40
1.0
 40
1.0
 40
1.0
 10
10.1956562383
 20
9.711651207
 30
0.0
 10
10.193476535
 20
9.7095457639
 30
0.0
 10
10.1892239734
 20
9.7052211074
 30
0.0
 10
10.1831860058
 20
9.6984135009
 30
0.0
 10
10.1775016784
 20
9.6912997365
 30
0.0
 10
10.1721843216
 20
9.6838964537
 30
0.0
 10
10.1672461024
 20
9.6762206935
 30
0.0
 10
10.1626984273
 20
9.6682901705
 30
0.0
 10
10.1585517989
 20
9.6601231595
 30
0.0
 10
10.1548157288
 20
9.6517385258
 30
0.0
 10
10.1514988094
 20
9.6431555905
 30
0.0
 10
10.1486087187
 20
9.6343941977
 30
0.0
 10
10.146152046
 20
9.6254743233
 30
0.0
 10
10.143458169
 20
9.6133812194
 30
0.0
 10
10.1412043118
 20
9.5979644596
 30
0.0
 10
10.1406075232
 20
9.5854935342
 30
0.0
 10
10.1406075232
 20
9.5792415899
 30
0.0
  0
SPLINE
  5
303
100
AcDbEntity
  8
0
100
AcDbSpline
 62
7
  6
CONTINUOUS
 70
0
 71
3
 72
71
 73
67
 74
0
 42
0.0000001
 43
0.0000001
 44
0.0000000001
 40
0.0
 40
0.0
 40
0.0
 40
0.0
 40
0.0155843203
 40
0.0311158961
 40
0.0465952665
 40
0.0620238797
 40
0.0774034496
 40
0.0927362829
 40
0.1080251227
 40
0.1232731731
 40
0.1384840551
 40
0.1536617759
 40
0.1688106896
 40
0.1839354531
 40
0.1990409785
 40
0.2141323827
 40
0.2292149327
 40
0.2442939903
 40
0.2593749546
 40
0.2744632045
 40
0.2895640408
 40
0.3046826302
 40
0.3198239505
 40
0.334992739
 40
0.3501934432
 40
0.3654301766
 40
0.380706678
 40
0.3960262753
 40
0.4113918556
 40
0.426805839
 40
0.4422701592
 40
0.4577862487
 40
0.4733550295
 40
0.4889769099
 40
0.5046517847
 40
0.5203790425
 40
0.5361575757
 40
0.551985796
 40
0.5678616538
 40
0.5837826612
 40
0.5997459179
 40
0.6157481417
 40
0.6317857
 40
0.647854645
 40
0.6639507506
 40
0.6800695513
 40
0.6962063819
 40
0.7123564197
 40
0.7285147267
 40
0.7446762929
 40
0.7608360799
 40
0.7769890647
 40
0.7931302836
 40
0.8092548753
 40
0.825358124
 40
0.8414355011
 40
0.8574827061
 40
0.8734957055
 40
0.8894707708
 40
0.9054045124
 40
0.9212939177
 40
0.9371363655
 40
0.9529297023
 40
0.9686721284
 40
0.9843625579
 40
1.0
 40
1.0
 40
1.0
 40
1.0
 10
11.0471474193
 20
7.6047808583
 30
0.0
 10
11.0471474193
 20
7.6137891841
 30
0.0
 10
11.0475882529
 20
7.6317785425
 30
0.0
 10
11.0495782989
 20
7.6586492897
 30
0.0
 10
11.052891371
 20
7.6852992556
 30
0.0
 10
11.0575194648
 20
7.711663299
 30
0.0
 10
11.0634515591
 20
7.7376781642
 30
0.0
 10
11.0706733845
 20
7.7632810547
 30
0.0
 10
11.079167614
 20
7.7884102681
 30
0.0
 10
11.0889138226
 20
7.8130052029
 30
0.0
 10
11.0998885707
 20
7.8370065457
 30
0.0
 10
11.112065445
 20
7.8603564051
 30
0.0
 10
11.1254151264
 20
7.8829984554
 30
0.0
 10
11.1399054578
 20
7.9048780736
 30
0.0
 10
11.1555015221
 20
7.9259424729
 30
0.0
 10
11.1721657258
 20
7.946140833
 30
0.0
 10
11.1898578886
 20
7.9654244249
 30
0.0
 10
11.2085353433
 20
7.9837467298
 30
0.0
 10
11.228153039
 20
8.0010635528
 30
0.0
 10
11.248663652
 20
8.0173331309
 30
0.0
 10
11.2700177011
 20
8.0325162351
 30
0.0
 10
11.2921636686
 20
8.0465762654
 30
0.0
 10
11.3150481273
 20
8.0594793396
 30
0.0
 10
11.3386158705
 20
8.071194375
 30
0.0
 10
11.3628100477
 20
8.0816931632
 30
0.0
 10
11.387572303
 20
8.0909504366
 30
0.0
 10
11.4128429178
 20
8.0989439292
 30
0.0
 10
11.438560956
 20
8.1056544282
 30
0.0
 10
11.4646644116
 20
8.11106582
 30
0.0
 10
11.4910903593
 20
8.1151651282
 30
0.0
 10
11.5177751071
 20
8.1179425412
 30
0.0
 10
11.5446543502
 20
8.1193914346
 30
0.0
 10
11.5716633254
 20
8.1195083852
 30
0.0
 10
11.5987369672
 20
8.1182931781
 30
0.0
 10
11.625810064
 20
8.1157488051
 30
0.0
 10
11.6528174144
 20
8.1118814568
 30
0.0
 10
11.6796939835
 20
8.1067005063
 30
0.0
 10
11.7063750585
 20
8.1002184856
 30
0.0
 10
11.7327964037
 20
8.0924510549
 30
0.0
 10
11.7588944141
 20
8.0834169641
 30
0.0
 10
11.7846062674
 20
8.0731380071
 30
0.0
 10
11.8098700749
 20
8.0616389703
 30
0.0
 10
11.8346250298
 20
8.0489475728
 30
0.0
 10
11.8588115522
 20
8.0350943979
 30
0.0
 10
11.8823714314
 20
8.0201128197
 30
0.0
 10
11.9052479656
 20
8.0040389235
 30
0.0
 10
11.9273860974
 20
7.9869114185
 30
0.0
 10
11.9487325454
 20
7.968771545
 30
0.0
 10
11.9692359321
 20
7.949662976
 30
0.0
 10
11.9888469066
 20
7.9296317119
 30
0.0
 10
12.007518263
 20
7.9087259706
 30
0.0
 10
12.0252050536
 20
7.8869960719
 30
0.0
 10
12.0418646963
 20
7.864494317
 30
0.0
 10
12.0574570769
 20
7.8412748631
 30
0.0
 10
12.0719446467
 20
7.8173935949
 30
0.0
 10
12.0852925121
 20
7.7929079894
 30
0.0
 10
12.0974685172
 20
7.7678769785
 30
0.0
 10
12.1084433222
 20
7.7423608077
 30
0.0
 10
12.1181904718
 20
7.7164208925
 30
0.0
 10
12.1266864643
 20
7.6901196691
 30
0.0
 10
12.1339107944
 20
7.6635204555
 30
0.0
 10
12.1398460377
 20
7.6366872591
 30
0.0
 10
12.1444778145
 20
7.6096847704
 30
0.0
 10
12.147794979
 20
7.5825777128
 30
0.0
 10
12.1497893977
 20
7.5554322969
 30
0.0
 10
12.1502347433
 20
7.5373205248
 30
0.0
 10
12.1502347433
 20
7.5282814926
 30
0.0
  0
SPLINE
  5
304
100
AcDbEntity
  8
0
100
AcDbSpline
 62
7
  6
CONTINUOUS
 70
0
 71
3
 72
21
 73
17
 74
0
 42
0.0000001
 43
0.0000001
 44
0.0000000001
 40
0.0
 40
0.0
 40
0.0
 40
0.0
 40
0.0617147716
 40
0.1234506543
 40
0.1852285447
 40
0.2470688977
 40
0.3089915387
 40
0.3710154693
 40
0.433158657
 40
0.4954378566
 40
0.5578685017
 40
0.6204645074
 40
0.6832380667
 40
0.7461999974
 40
0.8726824274
 40
1.0
 40
1.0
 40
1.0
 40
1.0
 10
10.1956562383
 20
7.2369492024
 30
0.0
 10
10.193476535
 20
7.2348437592
 30
0.0
 10
10.1892239734
 20
7.2305191028
 30
0.0
 10
10.1831860058
 20
7.2237114962
 30
0.0
 10
10.1775016784
 20
7.2165977318
 30
0.0
 10
10.1721843216
 20
7.2091944491
 30
0.0
 10
10.1672461024
 20
7.2015186889
 30
0.0
 10
10.1626984273
 20
7.1935881659
 30
0.0
 10
10.1585517989
 20
7.1854211548
 30
0.0
 10
10.1548157288
 20
7.1770365212
 30
0.0
 10
10.1514988094
 20
7.1684535858
 30
0.0
 10
10.1486087187
 20
7.1596921931
 30
0.0
 10
10.146152046
 20
7.1507723186
 30
0.0
 10
10.143458169
 20
7.1386792148
 30
0.0
 10
10.1412043118
 20
7.123262455
 30
0.0
 10
10.1406075232
 20
7.1107915296
 30
0.0
 10
10.1406075232
 20
7.1045395853
 30
0.0
  0
SPLINE
  5
305
100
AcDbEntity
  8
0
100
AcDbSpline
 62
7
  6
CONTINUOUS
 70
0
 71
3
 72
42
 73
38
 74
0
 42
0.0000001
 43
0.0000001
 44
0.0000000001
 40
0.0
 40
0.0
 40
0.0
 40
0.0
 40
0.0309214871
 40
0.0464374568
 40
0.0619879034
 40
0.0931874205
 40
0.1245180095
 40
0.1559714476
 40
0.1875373739
 40
0.2192035883
 40
0.2509562358
 40
0.2827800566
 40
0.3146586399
 40
0.3465746948
 40
0.3785103308
 40
0.4104473447
 40
0.4423675114
 40
0.4742528747
 40
0.5060860351
 40
0.5378504314
 40
0.5695306129
 40
0.6011124984
 40
0.6325836185
 40
0.6639333376
 40
0.6951530522
 40
0.7262363603
 40
0.757179199
 40
0.7879799466
 40
0.818639484
 40
0.849161214
 40
0.8643743685
 40
0.8795554908
 40
0.9098217187
 40
0.9399749684
 40
0.9550154286
 40
0.9700325866
 40
1.0
 40
1.0
 40
1.0
 40
1.0
 10
10.0498104901
 20
9.5855383855
 30
0.0
 10
10.0498104901
 20
9.5791680198
 30
0.0
 10
10.0501294443
 20
9.5695972173
 30
0.0
 10
10.0511840381
 20
9.5568686285
 30
0.0
 10
10.0526618257
 20
9.5441240727
 30
0.0
 10
10.0552972673
 20
9.5282430149
 30
0.0
 10
10.0596987403
 20
9.509374228
 30
0.0
 10
10.065323303
 20
9.4907541215
 30
0.0
 10
10.0721459905
 20
9.4724653259
 30
0.0
 10
10.0801366168
 20
9.4545883711
 30
0.0
 10
10.0892598514
 20
9.4372021313
 30
0.0
 10
10.0994753868
 20
9.4203832654
 30
0.0
 10
10.1107381139
 20
9.404205941
 30
0.0
 10
10.1229983206
 20
9.3887414949
 30
0.0
 10
10.1362019094
 20
9.3740581251
 30
0.0
 10
10.1502906346
 20
9.3602205922
 30
0.0
 10
10.1652023574
 20
9.3472899361
 30
0.0
 10
10.1808713173
 20
9.335323209
 30
0.0
 10
10.1972284198
 20
9.3243732253
 30
0.0
 10
10.2142015382
 20
9.3144883304
 30
0.0
 10
10.2317158286
 20
9.3057121882
 30
0.0
 10
10.2496940564
 20
9.2980835895
 30
0.0
 10
10.268056933
 20
9.2916362802
 30
0.0
 10
10.286723463
 20
9.2863988128
 30
0.0
 10
10.3056112924
 20
9.2823944176
 30
0.0
 10
10.3246370853
 20
9.2796409015
 30
0.0
 10
10.343716823
 20
9.2781505543
 30
0.0
 10
10.3627664114
 20
9.2779301341
 30
0.0
 10
10.3817011569
 20
9.2789806702
 30
0.0
 10
10.3973338303
 20
9.2809139779
 30
0.0
 10
10.4096955943
 20
9.2830903158
 30
0.0
 10
10.421924131
 20
9.2856776683
 30
0.0
 10
10.4369881825
 20
9.2896858944
 30
0.0
 10
10.4517109951
 20
9.2947190998
 30
0.0
 10
10.4632243328
 20
9.2993421092
 30
0.0
 10
10.4745332871
 20
9.3043495642
 30
0.0
 10
10.4828070439
 20
9.3085472714
 30
0.0
 10
10.4882105721
 20
9.311533542
 30
0.0
  0
SPLINE
  5
306
100
AcDbEntity
  8
0
100
AcDbSpline
 62
7
  6
CONTINUOUS
 70
0
 71
3
 72
15
 73
11
 74
0
 42
0.0000001
 43
0.0000001
 44
0.0000000001
 40
0.0
 40
0.0
 40
0.0
 40
0.0
 40
0.126809393
 40
0.2530486508
 40
0.378732986
 40
0.5038865258
 40
0.6285432419
 40
0.7527458341
 40
0.8765452987
 40
1.0
 40
1.0
 40
1.0
 40
1.0
 10
10.0498104901
 20
9.5855383855
 30
0.0
 10
10.0498104901
 20
9.5917637405
 30
0.0
 10
10.0502151319
 20
9.6041903893
 30
0.0
 10
10.0520432092
 20
9.6227061308
 30
0.0
 10
10.0550833693
 20
9.6409804395
 30
0.0
 10
10.0593228365
 20
9.6589344539
 30
0.0
 10
10.0647436325
 20
9.6764918462
 30
0.0
 10
10.0713229509
 20
9.6935779542
 30
0.0
 10
10.0790322782
 20
9.7101189264
 30
0.0
 10
10.084911942
 20
9.7207511985
 30
0.0
 10
10.0880272047
 20
9.7259499297
 30
0.0
  0
SPLINE
  5
307
100
AcDbEntity
  8
0
100
AcDbSpline
 62
7
  6
CONTINUOUS
 70
0
 71
3
 72
44
 73
40
 74
0
 42
0.0000001
 43
0.0000001
 44
0.0000000001
 40
0.0
 40
0.0
 40
0.0
 40
0.0
 40
0.0310744569
 40
0.046673648
 40
0.0623114047
 40
0.0936957681
 40
0.1252240506
 40
0.1568849397
 40
0.1886642246
 40
0.2205453079
 40
0.2525095128
 40
0.2685188984
 40
0.2845413216
 40
0.3166094674
 40
0.3486963555
 40
0.3807791881
 40
0.4128352475
 40
0.4448423488
 40
0.4767792833
 40
0.5086262502
 40
0.5403652657
 40
0.5719805467
 40
0.6034588592
 40
0.6347898251
 40
0.6659661795
 40
0.6969839709
 40
0.7278426971
 40
0.7585453688
 40
0.7890984969
 40
0.8195119966
 40
0.8497990074
 40
0.8649028856
 40
0.8799814041
 40
0.9100663493
 40
0.9400805249
 40
0.9550710345
 40
0.9700524424
 40
0.9850277497
 40
1.0
 40
1.0
 40
1.0
 40
1.0
 10
10.1406075232
 20
9.5792415899
 30
0.0
 10
10.1406075232
 20
9.5743822212
 30
0.0
 10
10.1408791513
 20
9.5670798103
 30
0.0
 10
10.1417762367
 20
9.5573755136
 30
0.0
 10
10.1430332369
 20
9.5476619265
 30
0.0
 10
10.145273983
 20
9.5355726326
 30
0.0
 10
10.1490115501
 20
9.5212506707
 30
0.0
 10
10.1537805812
 20
9.5071729606
 30
0.0
 10
10.1595548048
 20
9.4934171379
 30
0.0
 10
10.166302174
 20
9.4800589367
 30
0.0
 10
10.1727026786
 20
9.4693236365
 30
0.0
 10
10.1782696961
 20
9.4610053002
 30
0.0
 10
10.1841316581
 20
9.4528720574
 30
0.0
 10
10.191988532
 20
9.4430871261
 30
0.0
 10
10.2022080949
 20
9.4320236057
 30
0.0
 10
10.2131668817
 20
9.4216940445
 30
0.0
 10
10.2248044881
 20
9.4121555223
 30
0.0
 10
10.2370571245
 20
9.4034603217
 30
0.0
 10
10.2498575434
 20
9.3956562424
 30
0.0
 10
10.2631355158
 20
9.3887861804
 30
0.0
 10
10.2768181821
 20
9.3828879369
 30
0.0
 10
10.2908304543
 20
9.3779939991
 30
0.0
 10
10.3050954201
 20
9.3741313645
 30
0.0
 10
10.3195347593
 20
9.3713213896
 30
0.0
 10
10.3340691688
 20
9.36957967
 30
0.0
 10
10.3486187878
 20
9.3689159475
 30
0.0
 10
10.3631036475
 20
9.3693340573
 30
0.0
 10
10.3774440472
 20
9.3708318718
 30
0.0
 10
10.3915612097
 20
9.3734014
 30
0.0
 10
10.4053769043
 20
9.3770284523
 30
0.0
 10
10.4165877501
 20
9.3809202474
 30
0.0
 10
10.425326073
 20
9.3845394864
 30
0.0
 10
10.4338874995
 20
9.3884844774
 30
0.0
 10
10.4442682527
 20
9.3940297279
 30
0.0
 10
10.4541677472
 20
9.4003693864
 30
0.0
 10
10.4617543372
 20
9.4058899111
 30
0.0
 10
10.4672706924
 20
9.4102489062
 30
0.0
 10
10.4726072876
 20
9.4148214986
 30
0.0
 10
10.4760407059
 20
9.4180085363
 30
0.0
 10
10.4777247168
 20
9.4196351747
 30
0.0
  0
SPLINE
  5
308
100
AcDbEntity
  8
0
100
AcDbSpline
 62
7
  6
CONTINUOUS
 70
0
 71
3
 72
42
 73
38
 74
0
 42
0.0000001
 43
0.0000001
 44
0.0000000001
 40
0.0
 40
0.0
 40
0.0
 40
0.0
 40
0.0309214871
 40
0.0464374568
 40
0.0619879034
 40
0.0931874205
 40
0.1245180095
 40
0.1559714476
 40
0.1875373739
 40
0.2192035883
 40
0.2509562358
 40
0.2827800566
 40
0.3146586399
 40
0.3465746948
 40
0.3785103308
 40
0.4104473447
 40
0.4423675114
 40
0.4742528747
 40
0.5060860351
 40
0.5378504314
 40
0.5695306129
 40
0.6011124984
 40
0.6325836185
 40
0.6639333376
 40
0.6951530522
 40
0.7262363603
 40
0.757179199
 40
0.7879799466
 40
0.818639484
 40
0.849161214
 40
0.8643743685
 40
0.8795554908
 40
0.9098217187
 40
0.9399749684
 40
0.9550154286
 40
0.9700325866
 40
1.0
 40
1.0
 40
1.0
 40
1.0
 10
11.4986992003
 20
8.6398724929
 30
0.0
 10
11.4986992003
 20
8.6335021272
 30
0.0
 10
11.4990181545
 20
8.6239313247
 30
0.0
 10
11.5000727483
 20
8.6112027359
 30
0.0
 10
11.5015505358
 20
8.5984581801
 30
0.0
 10
11.5041859774
 20
8.5825771223
 30
0.0
 10
11.5085874504
 20
8.5637083353
 30
0.0
 10
11.5142120131
 20
8.5450882289
 30
0.0
 10
11.5210347007
 20
8.5267994332
 30
0.0
 10
11.5290253269
 20
8.5089224785
 30
0.0
 10
11.5381485616
 20
8.4915362386
 30
0.0
 10
11.5483640969
 20
8.4747173727
 30
0.0
 10
11.5596268241
 20
8.4585400484
 30
0.0
 10
11.5718870307
 20
8.4430756022
 30
0.0
 10
11.5850906195
 20
8.4283922325
 30
0.0
 10
11.5991793447
 20
8.4145546996
 30
0.0
 10
11.6140910676
 20
8.4016240435
 30
0.0
 10
11.6297600275
 20
8.3896573163
 30
0.0
 10
11.64611713
 20
8.3787073326
 30
0.0
 10
11.6630902484
 20
8.3688224377
 30
0.0
 10
11.6806045387
 20
8.3600462956
 30
0.0
 10
11.6985827665
 20
8.3524176968
 30
0.0
 10
11.7169456431
 20
8.3459703876
 30
0.0
 10
11.7356121731
 20
8.3407329201
 30
0.0
 10
11.7545000025
 20
8.3367285249
 30
0.0
 10
11.7735257955
 20
8.3339750089
 30
0.0
 10
11.7926055331
 20
8.3324846617
 30
0.0
 10
11.8116551215
 20
8.3322642415
 30
0.0
 10
11.830589867
 20
8.3333147776
 30
0.0
 10
11.8462225405
 20
8.3352480853
 30
0.0
 10
11.8585843045
 20
8.3374244232
 30
0.0
 10
11.8708128412
 20
8.3400117757
 30
0.0
 10
11.8858768927
 20
8.3440200018
 30
0.0
 10
11.9005997053
 20
8.3490532072
 30
0.0
 10
11.912113043
 20
8.3536762165
 30
0.0
 10
11.9234219973
 20
8.3586836716
 30
0.0
 10
11.9316957541
 20
8.3628813788
 30
0.0
 10
11.9370992822
 20
8.3658676494
 30
0.0
  0
SPLINE
  5
309
100
AcDbEntity
  8
0
100
AcDbSpline
 62
7
  6
CONTINUOUS
 70
0
 71
3
 72
15
 73
11
 74
0
 42
0.0000001
 43
0.0000001
 44
0.0000000001
 40
0.0
 40
0.0
 40
0.0
 40
0.0
 40
0.126809393
 40
0.2530486508
 40
0.378732986
 40
0.5038865258
 40
0.6285432419
 40
0.7527458341
 40
0.8765452987
 40
1.0
 40
1.0
 40
1.0
 40
1.0
 10
11.4986992003
 20
8.6398724929
 30
0.0
 10
11.4986992003
 20
8.6460978479
 30
0.0
 10
11.499103842
 20
8.6585244967
 30
0.0
 10
11.5009319193
 20
8.6770402382
 30
0.0
 10
11.5039720795
 20
8.6953145469
 30
0.0
 10
11.5082115467
 20
8.7132685613
 30
0.0
 10
11.5136323426
 20
8.7308259536
 30
0.0
 10
11.5202116611
 20
8.7479120616
 30
0.0
 10
11.5279209884
 20
8.7644530338
 30
0.0
 10
11.5338006521
 20
8.7750853058
 30
0.0
 10
11.5369159148
 20
8.7802840371
 30
0.0
  0
SPLINE
  5
30A
100
AcDbEntity
  8
0
100
AcDbSpline
 62
7
  6
CONTINUOUS
 70
0
 71
3
 72
44
 73
40
 74
0
 42
0.0000001
 43
0.0000001
 44
0.0000000001
 40
0.0
 40
0.0
 40
0.0
 40
0.0
 40
0.0310744569
 40
0.046673648
 40
0.0623114047
 40
0.0936957681
 40
0.1252240506
 40
0.1568849397
 40
0.1886642246
 40
0.2205453079
 40
0.2525095128
 40
0.2685188984
 40
0.2845413216
 40
0.3166094674
 40
0.3486963555
 40
0.3807791881
 40
0.4128352475
 40
0.4448423488
 40
0.4767792833
 40
0.5086262502
 40
0.5403652657
 40
0.5719805467
 40
0.6034588592
 40
0.6347898251
 40
0.6659661795
 40
0.6969839709
 40
0.7278426971
 40
0.7585453688
 40
0.7890984969
 40
0.8195119966
 40
0.8497990074
 40
0.8649028856
 40
0.8799814041
 40
0.9100663493
 40
0.9400805249
 40
0.9550710345
 40
0.9700524424
 40
0.9850277497
 40
1.0
 40
1.0
 40
1.0
 40
1.0
 10
11.5894962333
 20
8.6335756973
 30
0.0
 10
11.5894962333
 20
8.6287163286
 30
0.0
 10
11.5897678615
 20
8.6214139177
 30
0.0
 10
11.5906649468
 20
8.611709621
 30
0.0
 10
11.5919219471
 20
8.6019960338
 30
0.0
 10
11.5941626932
 20
8.58990674
 30
0.0
 10
11.5979002602
 20
8.5755847781
 30
0.0
 10
11.6026692913
 20
8.561507068
 30
0.0
 10
11.6084435149
 20
8.5477512453
 30
0.0
 10
11.6151908842
 20
8.534393044
 30
0.0
 10
11.6215913887
 20
8.5236577439
 30
0.0
 10
11.6271584062
 20
8.5153394075
 30
0.0
 10
11.6330203682
 20
8.5072061648
 30
0.0
 10
11.6408772421
 20
8.4974212335
 30
0.0
 10
11.651096805
 20
8.4863577131
 30
0.0
 10
11.6620555919
 20
8.4760281519
 30
0.0
 10
11.6736931983
 20
8.4664896297
 30
0.0
 10
11.6859458347
 20
8.4577944291
 30
0.0
 10
11.6987462535
 20
8.4499903498
 30
0.0
 10
11.7120242259
 20
8.4431202878
 30
0.0
 10
11.7257068922
 20
8.4372220443
 30
0.0
 10
11.7397191644
 20
8.4323281065
 30
0.0
 10
11.7539841302
 20
8.4284654718
 30
0.0
 10
11.7684234694
 20
8.4256554969
 30
0.0
 10
11.7829578789
 20
8.4239137773
 30
0.0
 10
11.797507498
 20
8.4232500549
 30
0.0
 10
11.8119923576
 20
8.4236681646
 30
0.0
 10
11.8263327573
 20
8.4251659791
 30
0.0
 10
11.8404499198
 20
8.4277355074
 30
0.0
 10
11.8542656144
 20
8.4313625597
 30
0.0
 10
11.8654764602
 20
8.4352543547
 30
0.0
 10
11.8742147831
 20
8.4388735938
 30
0.0
 10
11.8827762096
 20
8.4428185848
 30
0.0
 10
11.8931569628
 20
8.4483638353
 30
0.0
 10
11.9030564573
 20
8.4547034938
 30
0.0
 10
11.9106430473
 20
8.4602240185
 30
0.0
 10
11.9161594025
 20
8.4645830135
 30
0.0
 10
11.9214959977
 20
8.469155606
 30
0.0
 10
11.924929416
 20
8.4723426436
 30
0.0
 10
11.9266134269
 20
8.4739692821
 30
0.0
  0
SPLINE
  5
30B
100
AcDbEntity
  8
0
100
AcDbSpline
 62
7
  6
CONTINUOUS
 70
0
 71
3
 72
42
 73
38
 74
0
 42
0.0000001
 43
0.0000001
 44
0.0000000001
 40
0.0
 40
0.0
 40
0.0
 40
0.0
 40
0.0309214871
 40
0.0464374568
 40
0.0619879034
 40
0.0931874205
 40
0.1245180095
 40
0.1559714476
 40
0.1875373739
 40
0.2192035883
 40
0.2509562358
 40
0.2827800566
 40
0.3146586399
 40
0.3465746948
 40
0.3785103308
 40
0.4104473447
 40
0.4423675114
 40
0.4742528747
 40
0.5060860351
 40
0.5378504314
 40
0.5695306129
 40
0.6011124984
 40
0.6325836185
 40
0.6639333376
 40
0.6951530522
 40
0.7262363603
 40
0.757179199
 40
0.7879799466
 40
0.818639484
 40
0.849161214
 40
0.8643743685
 40
0.8795554908
 40
0.9098217187
 40
0.9399749684
 40
0.9550154286
 40
0.9700325866
 40
1.0
 40
1.0
 40
1.0
 40
1.0
 10
10.0498104901
 20
7.1108363809
 30
0.0
 10
10.0498104901
 20
7.1044660152
 30
0.0
 10
10.0501294443
 20
7.0948952127
 30
0.0
 10
10.0511840381
 20
7.0821666239
 30
0.0
 10
10.0526618257
 20
7.0694220681
 30
0.0
 10
10.0552972673
 20
7.0535410103
 30
0.0
 10
10.0596987403
 20
7.0346722233
 30
0.0
 10
10.065323303
 20
7.0160521169
 30
0.0
 10
10.0721459905
 20
6.9977633212
 30
0.0
 10
10.0801366168
 20
6.9798863664
 30
0.0
 10
10.0892598514
 20
6.9625001266
 30
0.0
 10
10.0994753868
 20
6.9456812607
 30
0.0
 10
10.1107381139
 20
6.9295039364
 30
0.0
 10
10.1229983206
 20
6.9140394902
 30
0.0
 10
10.1362019094
 20
6.8993561204
 30
0.0
 10
10.1502906346
 20
6.8855185875
 30
0.0
 10
10.1652023574
 20
6.8725879314
 30
0.0
 10
10.1808713173
 20
6.8606212043
 30
0.0
 10
10.1972284198
 20
6.8496712206
 30
0.0
 10
10.2142015382
 20
6.8397863257
 30
0.0
 10
10.2317158286
 20
6.8310101836
 30
0.0
 10
10.2496940564
 20
6.8233815848
 30
0.0
 10
10.268056933
 20
6.8169342755
 30
0.0
 10
10.286723463
 20
6.8116968081
 30
0.0
 10
10.3056112924
 20
6.8076924129
 30
0.0
 10
10.3246370853
 20
6.8049388968
 30
0.0
 10
10.343716823
 20
6.8034485497
 30
0.0
 10
10.3627664114
 20
6.8032281295
 30
0.0
 10
10.3817011569
 20
6.8042786655
 30
0.0
 10
10.3973338303
 20
6.8062119733
 30
0.0
 10
10.4096955943
 20
6.8083883112
 30
0.0
 10
10.421924131
 20
6.8109756636
 30
0.0
 10
10.4369881825
 20
6.8149838898
 30
0.0
 10
10.4517109951
 20
6.8200170952
 30
0.0
 10
10.4632243328
 20
6.8246401045
 30
0.0
 10
10.4745332871
 20
6.8296475595
 30
0.0
 10
10.4828070439
 20
6.8338452668
 30
0.0
 10
10.4882105721
 20
6.8368315373
 30
0.0
  0
SPLINE
  5
30C
100
AcDbEntity
  8
0
100
AcDbSpline
 62
7
  6
CONTINUOUS
 70
0
 71
3
 72
15
 73
11
 74
0
 42
0.0000001
 43
0.0000001
 44
0.0000000001
 40
0.0
 40
0.0
 40
0.0
 40
0.0
 40
0.126809393
 40
0.2530486508
 40
0.378732986
 40
0.5038865258
 40
0.6285432419
 40
0.7527458341
 40
0.8765452987
 40
1.0
 40
1.0
 40
1.0
 40
1.0
 10
10.0498104901
 20
7.1108363809
 30
0.0
 10
10.0498104901
 20
7.1170617358
 30
0.0
 10
10.0502151319
 20
7.1294883847
 30
0.0
 10
10.0520432092
 20
7.1480041262
 30
0.0
 10
10.0550833693
 20
7.1662784349
 30
0.0
 10
10.0593228365
 20
7.1842324492
 30
0.0
 10
10.0647436325
 20
7.2017898415
 30
0.0
 10
10.0713229509
 20
7.2188759495
 30
0.0
 10
10.0790322782
 20
7.2354169217
 30
0.0
 10
10.084911942
 20
7.2460491938
 30
0.0
 10
10.0880272047
 20
7.2512479251
 30
0.0
  0
SPLINE
  5
30D
100
AcDbEntity
  8
0
100
AcDbSpline
 62
7
  6
CONTINUOUS
 70
0
 71
3
 72
44
 73
40
 74
0
 42
0.0000001
 43
0.0000001
 44
0.0000000001
 40
0.0
 40
0.0
 40
0.0
 40
0.0
 40
0.0310744569
 40
0.046673648
 40
0.0623114047
 40
0.0936957681
 40
0.1252240506
 40
0.1568849397
 40
0.1886642246
 40
0.2205453079
 40
0.2525095128
 40
0.2685188984
 40
0.2845413216
 40
0.3166094674
 40
0.3486963555
 40
0.3807791881
 40
0.4128352475
 40
0.4448423488
 40
0.4767792833
 40
0.5086262502
 40
0.5403652657
 40
0.5719805467
 40
0.6034588592
 40
0.6347898251
 40
0.6659661795
 40
0.6969839709
 40
0.7278426971
 40
0.7585453688
 40
0.7890984969
 40
0.8195119966
 40
0.8497990074
 40
0.8649028856
 40
0.8799814041
 40
0.9100663493
 40
0.9400805249
 40
0.9550710345
 40
0.9700524424
 40
0.9850277497
 40
1.0
 40
1.0
 40
1.0
 40
1.0
 10
10.1406075232
 20
7.1045395853
 30
0.0
 10
10.1406075232
 20
7.0996802166
 30
0.0
 10
10.1408791513
 20
7.0923778056
 30
0.0
 10
10.1417762367
 20
7.0826735089
 30
0.0
 10
10.1430332369
 20
7.0729599218
 30
0.0
 10
10.145273983
 20
7.060870628
 30
0.0
 10
10.1490115501
 20
7.0465486661
 30
0.0
 10
10.1537805812
 20
7.0324709559
 30
0.0
 10
10.1595548048
 20
7.0187151333
 30
0.0
 10
10.166302174
 20
7.005356932
 30
0.0
 10
10.1727026786
 20
6.9946216318
 30
0.0
 10
10.1782696961
 20
6.9863032955
 30
0.0
 10
10.1841316581
 20
6.9781700528
 30
0.0
 10
10.191988532
 20
6.9683851214
 30
0.0
 10
10.2022080949
 20
6.957321601
 30
0.0
 10
10.2131668817
 20
6.9469920399
 30
0.0
 10
10.2248044881
 20
6.9374535177
 30
0.0
 10
10.2370571245
 20
6.9287583171
 30
0.0
 10
10.2498575434
 20
6.9209542377
 30
0.0
 10
10.2631355158
 20
6.9140841758
 30
0.0
 10
10.2768181821
 20
6.9081859323
 30
0.0
 10
10.2908304543
 20
6.9032919944
 30
0.0
 10
10.3050954201
 20
6.8994293598
 30
0.0
 10
10.3195347593
 20
6.8966193849
 30
0.0
 10
10.3340691688
 20
6.8948776653
 30
0.0
 10
10.3486187878
 20
6.8942139428
 30
0.0
 10
10.3631036475
 20
6.8946320526
 30
0.0
 10
10.3774440472
 20
6.8961298671
 30
0.0
 10
10.3915612097
 20
6.8986993953
 30
0.0
 10
10.4053769043
 20
6.9023264477
 30
0.0
 10
10.4165877501
 20
6.9062182427
 30
0.0
 10
10.425326073
 20
6.9098374818
 30
0.0
 10
10.4338874995
 20
6.9137824727
 30
0.0
 10
10.4442682527
 20
6.9193277232
 30
0.0
 10
10.4541677472
 20
6.9256673817
 30
0.0
 10
10.4617543372
 20
6.9311879064
 30
0.0
 10
10.4672706924
 20
6.9355469015
 30
0.0
 10
10.4726072876
 20
6.940119494
 30
0.0
 10
10.4760407059
 20
6.9433065316
 30
0.0
 10
10.4777247168
 20
6.94493317
 30
0.0
  0
SPLINE
  5
30E
100
AcDbEntity
  8
0
100
AcDbSpline
 62
7
  6
CONTINUOUS
 70
0
 71
3
 72
24
 73
20
 74
0
 42
0.0000001
 43
0.0000001
 44
0.0000000001
 40
0.0
 40
0.0
 40
0.0
 40
0.0
 40
0.0637773023
 40
0.1273439637
 40
0.1907010681
 40
0.2538548417
 40
0.3168115636
 40
0.379580162
 40
0.4421711307
 40
0.5045967669
 40
0.5668709778
 40
0.6290091748
 40
0.691028128
 40
0.7529458054
 40
0.8147811982
 40
0.8765541325
 40
0.9074261016
 40
0.9382901687
 40
1.0
 40
1.0
 40
1.0
 40
1.0
 10
10.1790760396
 20
8.6392142244
 30
0.0
 10
10.1790760396
 20
8.6475458211
 30
0.0
 10
10.1794747953
 20
8.6641843216
 30
0.0
 10
10.1812747321
 20
8.6890409132
 30
0.0
 10
10.1842715313
 20
8.7137003931
 30
0.0
 10
10.1884581892
 20
8.7381050507
 30
0.0
 10
10.1938252241
 20
8.7621989447
 30
0.0
 10
10.2003602618
 20
8.7859264324
 30
0.0
 10
10.2080483201
 20
8.8092328355
 30
0.0
 10
10.2168717199
 20
8.8320644014
 30
0.0
 10
10.2268101691
 20
8.8543684726
 30
0.0
 10
10.2378407928
 20
8.87609361
 30
0.0
 10
10.2499381716
 20
8.8971896787
 30
0.0
 10
10.2630745047
 20
8.9176080891
 30
0.0
 10
10.2772192702
 20
8.9373014437
 30
0.0
 10
10.2898230678
 20
8.9530745539
 30
0.0
 10
10.3003745078
 20
8.9652830315
 30
0.0
 10
10.3112303879
 20
8.9772100148
 30
0.0
 10
10.3197145725
 20
8.9858379017
 30
0.0
 10
10.3255128468
 20
8.9914386137
 30
0.0
  0
SPLINE
  5
30F
100
AcDbEntity
  8
0
100
AcDbSpline
 62
7
  6
CONTINUOUS
 70
0
 71
3
 72
43
 73
39
 74
0
 42
0.0000001
 43
0.0000001
 44
0.0000000001
 40
0.0
 40
0.0
 40
0.0
 40
0.0
 40
0.0309200949
 40
0.0619806449
 40
0.0931784448
 40
0.1245071939
 40
0.1559586999
 40
0.1875226401
 40
0.2191868416
 40
0.2509374875
 40
0.2827593569
 40
0.3146360794
 40
0.3465504048
 40
0.3784844817
 40
0.4104201444
 40
0.4423392021
 40
0.4742237282
 40
0.5060563471
 40
0.537820516
 40
0.569500795
 40
0.6010831055
 40
0.6325549714
 40
0.6639057418
 40
0.695126789
 40
0.7262116772
 40
0.7571562999
 40
0.7879589823
 40
0.8186205447
 40
0.8339015392
 40
0.849148713
 40
0.8643628743
 40
0.8795449782
 40
0.9098130746
 40
0.9399679818
 40
0.9550091618
 40
0.9700269554
 40
0.985023242
 40
1.0
 40
1.0
 40
1.0
 40
1.0
 10
10.3571433956
 20
8.8112140927
 30
0.0
 10
10.3571433956
 20
8.7996426746
 30
0.0
 10
10.3579157866
 20
8.776440112
 30
0.0
 10
10.3613678078
 20
8.7417168426
 30
0.0
 10
10.3671002917
 20
8.7071401875
 30
0.0
 10
10.3750878591
 20
8.6728643797
 30
0.0
 10
10.3852950578
 20
8.6390398808
 30
0.0
 10
10.3976767747
 20
8.6058157486
 30
0.0
 10
10.4121782955
 20
8.5733381975
 30
0.0
 10
10.428735623
 20
8.5417501892
 30
0.0
 10
10.4472757452
 20
8.5111907493
 30
0.0
 10
10.4677169606
 20
8.4817943834
 30
0.0
 10
10.489969223
 20
8.4536904803
 30
0.0
 10
10.5139345183
 20
8.4270027314
 30
0.0
 10
10.539507326
 20
8.4018486137
 30
0.0
 10
10.5665750727
 20
8.3783388751
 30
0.0
 10
10.5950186266
 20
8.3565770567
 30
0.0
 10
10.6247128026
 20
8.3366590246
 30
0.0
 10
10.6555269038
 20
8.3186725365
 30
0.0
 10
10.687325312
 20
8.3026968871
 30
0.0
 10
10.7199680715
 20
8.2888025543
 30
0.0
 10
10.753311502
 20
8.2770508981
 30
0.0
 10
10.7872088036
 20
8.2674938606
 30
0.0
 10
10.8215107337
 20
8.2601737364
 30
0.0
 10
10.856066142
 20
8.2551229955
 30
0.0
 10
10.8907230783
 20
8.2523641888
 30
0.0
 10
10.9253277713
 20
8.2519096215
 30
0.0
 10
10.9540306935
 20
8.2534551387
 30
0.0
 10
10.9768087861
 20
8.2558440915
 30
0.0
 10
10.9937668795
 20
8.2582064258
 30
0.0
 10
11.010598232
 20
8.2611386439
 30
0.0
 10
11.0328214288
 20
8.2657985486
 30
0.0
 10
11.0602009589
 20
8.273028446
 30
0.0
 10
11.086964819
 20
8.2821195271
 30
0.0
 10
11.1078967476
 20
8.2904752188
 30
0.0
 10
11.1233315939
 20
8.2972716989
 30
0.0
 10
11.1384964356
 20
8.3045948456
 30
0.0
 10
11.148421906
 20
8.3098262787
 30
0.0
 10
11.1533333081
 20
8.3125267255
 30
0.0
  0
SPLINE
  5
310
100
AcDbEntity
  8
0
100
AcDbSpline
 62
7
  6
CONTINUOUS
 70
0
 71
3
 72
15
 73
11
 74
0
 42
0.0000001
 43
0.0000001
 44
0.0000000001
 40
0.0
 40
0.0
 40
0.0
 40
0.0
 40
0.1268033001
 40
0.2530381613
 40
0.3787210585
 40
0.5038750295
 40
0.6285337668
 40
0.7527393978
 40
0.8765422606
 40
1.0
 40
1.0
 40
1.0
 40
1.0
 10
10.3571433956
 20
8.8112140927
 30
0.0
 10
10.3571433956
 20
8.8224823079
 30
0.0
 10
10.3578725336
 20
8.8449752712
 30
0.0
 10
10.3611666403
 20
8.8784915283
 30
0.0
 10
10.366644906
 20
8.9115739667
 30
0.0
 10
10.3742845903
 20
8.9440811692
 30
0.0
 10
10.3840535481
 20
8.9758761288
 30
0.0
 10
10.3959110727
 20
9.0068248576
 30
0.0
 10
10.409806223
 20
9.0367947889
 30
0.0
 10
10.4204046276
 20
9.0560657075
 30
0.0
 10
10.4260203781
 20
9.0654903745
 30
0.0
  0
SPLINE
  5
311
100
AcDbEntity
  8
0
100
AcDbSpline
 62
7
  6
CONTINUOUS
 70
0
 71
3
 72
15
 73
11
 74
0
 42
0.0000001
 43
0.0000001
 44
0.0000000001
 40
0.0
 40
0.0
 40
0.0
 40
0.0
 40
0.1269213659
 40
0.2532262313
 40
0.3789352974
 40
0.504078294
 40
0.6286979202
 40
0.7528476491
 40
0.8765909448
 40
1.0
 40
1.0
 40
1.0
 40
1.0
 10
10.3697004321
 20
8.8103432592
 30
0.0
 10
10.3697004321
 20
8.8222724809
 30
0.0
 10
10.3705377287
 20
8.8460817811
 30
0.0
 10
10.3743212833
 20
8.8815251341
 30
0.0
 10
10.3806107991
 20
8.9164430338
 30
0.0
 10
10.3893755512
 20
8.9506597165
 30
0.0
 10
10.4005721897
 20
8.9840053658
 30
0.0
 10
10.4141457285
 20
9.016314486
 30
0.0
 10
10.4300275031
 20
9.0474241186
 30
0.0
 10
10.4421189507
 20
9.0672888773
 30
0.0
 10
10.4485179087
 20
9.0769632001
 30
0.0
  0
SPLINE
  5
312
100
AcDbEntity
  8
0
100
AcDbSpline
 62
7
  6
CONTINUOUS
 70
0
 71
3
 72
19
 73
15
 74
0
 42
0.0000001
 43
0.0000001
 44
0.0000000001
 40
0.0
 40
0.0
 40
0.0
 40
0.0
 40
0.1269798727
 40
0.2533130019
 40
0.3790229186
 40
0.5041442905
 40
0.5665107241
 40
0.6287495081
 40
0.690868719
 40
0.7528771298
 40
0.8147841628
 40
0.876599854
 40
0.9383347815
 40
1.0
 40
1.0
 40
1.0
 40
1.0
 10
10.3845496713
 20
8.8141865237
 30
0.0
 10
10.3845496713
 20
8.8264577698
 30
0.0
 10
10.3854536332
 20
8.8509477004
 30
0.0
 10
10.3895390997
 20
8.8873809582
 30
0.0
 10
10.396328058
 20
8.9232271938
 30
0.0
 10
10.4042184353
 20
8.9524812708
 30
0.0
 10
10.4118394869
 20
8.9753849635
 30
0.0
 10
10.4181953794
 20
8.99227851
 30
0.0
 10
10.4251880994
 20
9.0088807618
 30
0.0
 10
10.432808187
 20
9.0251693065
 30
0.0
 10
10.441045218
 20
9.041121706
 30
0.0
 10
10.4498879208
 20
9.0567162465
 30
0.0
 10
10.4593240128
 20
9.0719312472
 30
0.0
 10
10.4660056317
 20
9.0818133573
 30
0.0
 10
10.4694403483
 20
9.0866832427
 30
0.0
  0
SPLINE
  5
313
100
AcDbEntity
  8
0
100
AcDbSpline
 62
7
  6
CONTINUOUS
 70
0
 71
3
 72
15
 73
11
 74
0
 42
0.0000001
 43
0.0000001
 44
0.0000000001
 40
0.0
 40
0.0
 40
0.0
 40
0.0
 40
0.1268165568
 40
0.2530594331
 40
0.3787455445
 40
0.5038985704
 40
0.6285531481
 40
0.7527525473
 40
0.8765484511
 40
1.0
 40
1.0
 40
1.0
 40
1.0
 10
10.4202183916
 20
8.8486398639
 30
0.0
 10
10.4202183916
 20
8.859517284
 30
0.0
 10
10.4209287395
 20
8.8812298484
 30
0.0
 10
10.4241380373
 20
8.913579937
 30
0.0
 10
10.4294750189
 20
8.9455048618
 30
0.0
 10
10.436917121
 20
8.9768656102
 30
0.0
 10
10.446432446
 20
9.0075275437
 30
0.0
 10
10.4579806032
 20
9.0373590411
 30
0.0
 10
10.4715110654
 20
9.0662299346
 30
0.0
 10
10.4818293317
 20
9.0847807725
 30
0.0
 10
10.4872959474
 20
9.0938493261
 30
0.0
  0
SPLINE
  5
314
100
AcDbEntity
  8
0
100
AcDbSpline
 62
7
  6
CONTINUOUS
 70
0
 71
3
 72
21
 73
17
 74
0
 42
0.0000001
 43
0.0000001
 44
0.0000000001
 40
0.0
 40
0.0
 40
0.0
 40
0.0
 40
0.1270474294
 40
0.2534139955
 40
0.3163626208
 40
0.3791519996
 40
0.4417880407
 40
0.504277382
 40
0.5666276324
 40
0.6288473205
 40
0.6909458063
 40
0.752933256
 40
0.8148205614
 40
0.8766192708
 40
0.9383415318
 40
1.0
 40
1.0
 40
1.0
 40
1.0
 10
10.4790061379
 20
8.8574244697
 30
0.0
 10
10.4790061379
 20
8.8691495344
 30
0.0
 10
10.479915808
 20
8.8925467049
 30
0.0
 10
10.4833479513
 20
8.9215731647
 30
0.0
 10
10.4874569685
 20
8.9444792771
 30
0.0
 10
10.4912098032
 20
8.9614591751
 30
0.0
 10
10.4956316885
 20
8.9782332234
 30
0.0
 10
10.5007159299
 20
8.9947762293
 30
0.0
 10
10.5064547789
 20
9.0110629783
 30
0.0
 10
10.5128395758
 20
9.0270687173
 30
0.0
 10
10.5198606222
 20
9.0427691072
 30
0.0
 10
10.5275072238
 20
9.0581403046
 30
0.0
 10
10.5357677891
 20
9.0731588994
 30
0.0
 10
10.5446298459
 20
9.0878021297
 30
0.0
 10
10.5540796449
 20
9.1020474511
 30
0.0
 10
10.5607653671
 20
9.1112694866
 30
0.0
 10
10.5642006053
 20
9.1158059705
 30
0.0
  0
SPLINE
  5
315
100
AcDbEntity
  8
0
100
AcDbSpline
 62
7
  6
CONTINUOUS
 70
0
 71
3
 72
35
 73
31
 74
0
 42
0.0000001
 43
0.0000001
 44
0.0000000001
 40
0.0
 40
0.0
 40
0.0
 40
0.0
 40
0.0173169069
 40
0.0346814357
 40
0.0522396428
 40
0.0701362281
 40
0.0885089804
 40
0.1074875953
 40
0.1476922834
 40
0.1691487636
 40
0.1916104567
 40
0.215147055
 40
0.2398174542
 40
0.2656707183
 40
0.2927469018
 40
0.321078158
 40
0.3506893554
 40
0.38159903
 40
0.4138199088
 40
0.4473596023
 40
0.482221102
 40
0.5184032077
 40
0.5559010125
 40
0.5947060603
 40
0.6348068277
 40
0.6761889321
 40
0.7188354358
 40
0.8078389221
 40
0.9016345489
 40
1.0
 40
1.0
 40
1.0
 40
1.0
 10
10.5931221338
 20
8.9154671564
 30
0.0
 10
10.5939468772
 20
8.9154099722
 30
0.0
 10
10.5956058002
 20
8.9153802454
 30
0.0
 10
10.5980948509
 20
8.9155933504
 30
0.0
 10
10.6005765442
 20
8.9160642643
 30
0.0
 10
10.6030452099
 20
8.9167923331
 30
0.0
 10
10.6054962835
 20
8.9177770123
 30
0.0
 10
10.6087978163
 20
8.919462064
 30
0.0
 10
10.6119895474
 20
8.9216481132
 30
0.0
 10
10.6150476039
 20
8.9242540609
 30
0.0
 10
10.617358446
 20
8.9265004347
 30
0.0
 10
10.6196339837
 20
8.9289936291
 30
0.0
 10
10.6218733566
 20
8.9317318138
 30
0.0
 10
10.6240756712
 20
8.9347124899
 30
0.0
 10
10.6262403997
 20
8.9379332208
 30
0.0
 10
10.6283676825
 20
8.941391117
 30
0.0
 10
10.6304576957
 20
8.9450833392
 30
0.0
 10
10.6325114657
 20
8.9490065695
 30
0.0
 10
10.6345299249
 20
8.9531575627
 30
0.0
 10
10.6365148944
 20
8.9575326201
 30
0.0
 10
10.6384680888
 20
8.9621280866
 30
0.0
 10
10.6403920161
 20
8.9669399321
 30
0.0
 10
10.6422891664
 20
8.9719640993
 30
0.0
 10
10.644162634
 20
8.9771962458
 30
0.0
 10
10.6460156348
 20
8.9826319267
 30
0.0
 10
10.6478517898
 20
8.9882664964
 30
0.0
 10
10.6503178088
 20
8.9961506885
 30
0.0
 10
10.6533696522
 20
9.0064725921
 30
0.0
 10
10.6569823305
 20
9.0194006327
 30
0.0
 10
10.6593620431
 20
9.0282606526
 30
0.0
 10
10.6605675469
 20
9.032799334
 30
0.0
  0
SPLINE
  5
316
100
AcDbEntity
  8
0
100
AcDbSpline
 62
7
  6
CONTINUOUS
 70
0
 71
3
 72
48
 73
44
 74
0
 42
0.0000001
 43
0.0000001
 44
0.0000000001
 40
0.0
 40
0.0
 40
0.0
 40
0.0
 40
0.0310737286
 40
0.0623047169
 40
0.0936882768
 40
0.1252158192
 40
0.1568759363
 40
0.1886544543
 40
0.2205347671
 40
0.2524981996
 40
0.2845244034
 40
0.3165917744
 40
0.3486778872
 40
0.3807599447
 40
0.4128152307
 40
0.444821561
 40
0.476757727
 40
0.5086039285
 40
0.5403421829
 40
0.5719567057
 40
0.6034342639
 40
0.6347644801
 40
0.6659400877
 40
0.6969571367
 40
0.7278151252
 40
0.7431880054
 40
0.758522545
 40
0.7738196675
 40
0.7890805069
 40
0.8043064089
 40
0.8194989208
 40
0.8346597817
 40
0.8497909186
 40
0.8648944344
 40
0.8799725929
 40
0.8950278113
 40
0.9100626449
 40
0.9250797694
 40
0.9400819686
 40
0.9550721182
 40
0.970053165
 40
0.9850281118
 40
1.0
 40
1.0
 40
1.0
 40
1.0
 10
10.1790760396
 20
8.6392142244
 30
0.0
 10
10.1790760396
 20
8.6262878428
 30
0.0
 10
10.1800403301
 20
8.6003597146
 30
0.0
 10
10.1843456031
 20
8.5615916602
 30
0.0
 10
10.1914891498
 20
8.5230512428
 30
0.0
 10
10.2014314826
 20
8.4849528573
 30
0.0
 10
10.2141175285
 20
8.4475049582
 30
0.0
 10
10.2294773461
 20
8.4109132902
 30
0.0
 10
10.2474263833
 20
8.3753786265
 30
0.0
 10
10.2678658362
 20
8.3410959377
 30
0.0
 10
10.2906833855
 20
8.3082533424
 30
0.0
 10
10.3157537017
 20
8.2770310712
 30
0.0
 10
10.3429390697
 20
8.2476004165
 30
0.0
 10
10.3720902976
 20
8.2201229372
 30
0.0
 10
10.4030474061
 20
8.1947494913
 30
0.0
 10
10.4356404903
 20
8.1716193749
 30
0.0
 10
10.4696907528
 20
8.1508597156
 30
0.0
 10
10.5050113591
 20
8.132584639
 30
0.0
 10
10.541408482
 20
8.1168946491
 30
0.0
 10
10.5786823991
 20
8.1038762259
 30
0.0
 10
10.6166285338
 20
8.0936011682
 30
0.0
 10
10.6550384347
 20
8.086126235
 30
0.0
 10
10.6937015553
 20
8.0814930219
 30
0.0
 10
10.732403994
 20
8.0797272481
 30
0.0
 10
10.7645578244
 20
8.0806554654
 30
0.0
 10
10.7900802437
 20
8.0828388489
 30
0.0
 10
10.8090775748
 20
8.0851898522
 30
0.0
 10
10.8279256873
 20
8.0882530799
 30
0.0
 10
10.8465989865
 20
8.0920243775
 30
0.0
 10
10.8650717023
 20
8.0964985143
 30
0.0
 10
10.883318446
 20
8.1016693565
 30
0.0
 10
10.9013140882
 20
8.1075298576
 30
0.0
 10
10.9190338857
 20
8.1140719119
 30
0.0
 10
10.9364534572
 20
8.121286532
 30
0.0
 10
10.9535488067
 20
8.1291638571
 30
0.0
 10
10.970296429
 20
8.1376930071
 30
0.0
 10
10.9866732808
 20
8.1468622515
 30
0.0
 10
11.0026567895
 20
8.156659033
 30
0.0
 10
11.0182249872
 20
8.1670698368
 30
0.0
 10
11.0333564355
 20
8.1780803142
 30
0.0
 10
11.048030346
 20
8.189675439
 30
0.0
 10
11.0622262667
 20
8.2018389537
 30
0.0
 10
11.0713595531
 20
8.2103166718
 30
0.0
 10
11.0758391866
 20
8.2146436726
 30
0.0
  0
SPLINE
  5
317
100
AcDbEntity
  8
0
100
AcDbSpline
 62
7
  6
CONTINUOUS
 70
0
 71
3
 72
26
 73
22
 74
0
 42
0.0000001
 43
0.0000001
 44
0.0000000001
 40
0.0
 40
0.0
 40
0.0
 40
0.0
 40
0.1911209873
 40
0.2872546732
 40
0.3821772188
 40
0.4741112291
 40
0.5609832633
 40
0.6408212648
 40
0.7122009395
 40
0.7744850039
 40
0.8277628287
 40
0.872608828
 40
0.909835207
 40
0.9258693237
 40
0.9403290378
 40
0.9533232313
 40
0.964958732
 40
0.9753374589
 40
0.9845654798
 40
0.9927501562
 40
1.0
 40
1.0
 40
1.0
 40
1.0
 10
11.0848640056
 20
8.2750142069
 30
0.0
 10
11.0872713426
 20
8.2761599596
 30
0.0
 10
11.0908985536
 20
8.2778633191
 30
0.0
 10
11.0957472167
 20
8.2800799284
 30
0.0
 10
11.099350816
 20
8.2816918688
 30
0.0
 10
11.1028516171
 20
8.2832168101
 30
0.0
 10
11.1061764543
 20
8.2846182335
 30
0.0
 10
11.1092555558
 20
8.2858636393
 30
0.0
 10
11.1120362188
 20
8.2869310205
 30
0.0
 10
11.1144909603
 20
8.2878119817
 30
0.0
 10
11.1166171551
 20
8.2885105199
 30
0.0
 10
11.1184302807
 20
8.2890387314
 30
0.0
 10
11.1197600554
 20
8.2893649752
 30
0.0
 10
11.1206867082
 20
8.2895493589
 30
0.0
 10
11.1212853772
 20
8.2896481932
 30
0.0
 10
11.1218265092
 20
8.2897165851
 30
0.0
 10
11.1223134324
 20
8.2897563693
 30
0.0
 10
11.1227492986
 20
8.2897690945
 30
0.0
 10
11.1231370764
 20
8.2897563152
 30
0.0
 10
11.1234794805
 20
8.2897194974
 30
0.0
 10
11.123691041
 20
8.2896772548
 30
0.0
 10
11.123788914
 20
8.2896517825
 30
0.0
  0
SPLINE
  5
318
100
AcDbEntity
  8
0
100
AcDbSpline
 62
7
  6
CONTINUOUS
 70
0
 71
3
 72
43
 73
39
 74
0
 42
0.0000001
 43
0.0000001
 44
0.0000000001
 40
0.0
 40
0.0
 40
0.0
 40
0.0
 40
0.030948836
 40
0.0620411362
 40
0.0932734766
 40
0.1246391613
 40
0.1561294786
 40
0.1877334676
 40
0.2194382187
 40
0.2512291028
 40
0.2830900336
 40
0.3150037484
 40
0.346952102
 40
0.3789163728
 40
0.4108775752
 40
0.4428167749
 40
0.4747154021
 40
0.5065555636
 40
0.5383203445
 40
0.5699940992
 40
0.6015627256
 40
0.6330139205
 40
0.6643374129
 40
0.6955251654
 40
0.7265715446
 40
0.757473453
 40
0.7882304211
 40
0.8188446541
 40
0.8341019653
 40
0.8493256412
 40
0.8645167003
 40
0.8796763172
 40
0.9099019437
 40
0.9400195315
 40
0.9550446632
 40
0.970048371
 40
0.9850327527
 40
1.0
 40
1.0
 40
1.0
 40
1.0
 10
10.3697004321
 20
8.8103432592
 30
0.0
 10
10.3697004321
 20
8.7988130346
 30
0.0
 10
10.3704863105
 20
8.7756917012
 30
0.0
 10
10.3739979891
 20
8.7410951255
 30
0.0
 10
10.3798287115
 20
8.706654257
 30
0.0
 10
10.3879515654
 20
8.6725292267
 30
0.0
 10
10.3983289723
 20
8.6388761722
 30
0.0
 10
10.4109131207
 20
8.6058496694
 30
0.0
 10
10.4256460477
 20
8.5736012095
 30
0.0
 10
10.4424599857
 20
8.5422787499
 30
0.0
 10
10.4612776568
 20
8.5120259789
 30
0.0
 10
10.4820126333
 20
8.4829816876
 30
0.0
 10
10.5045697089
 20
8.4552791214
 30
0.0
 10
10.5288453281
 20
8.4290453653
 30
0.0
 10
10.5547280877
 20
8.4044007895
 30
0.0
 10
10.5820992349
 20
8.3814584976
 30
0.0
 10
10.6108332114
 20
8.3603238207
 30
0.0
 10
10.6407981995
 20
8.3410938067
 30
0.0
 10
10.6718567337
 20
8.3238567849
 30
0.0
 10
10.7038663365
 20
8.3086919843
 30
0.0
 10
10.7366801591
 20
8.2956691658
 30
0.0
 10
10.7701476492
 20
8.2848483099
 30
0.0
 10
10.8041152105
 20
8.2762792929
 30
0.0
 10
10.8384269488
 20
8.2700016921
 30
0.0
 10
10.8729252512
 20
8.2660445863
 30
0.0
 10
10.9074519709
 20
8.2644264971
 30
0.0
 10
10.941847394
 20
8.2651549855
 30
0.0
 10
10.9703054483
 20
8.2677185558
 30
0.0
 10
10.9928420331
 20
8.2709372454
 30
0.0
 10
11.0095961945
 20
8.2739281785
 30
0.0
 10
11.0262000411
 20
8.277495116
 30
0.0
 10
11.0480886527
 20
8.2830074204
 30
0.0
 10
11.0749893523
 20
8.2913144006
 30
0.0
 10
11.1011861917
 20
8.3014921309
 30
0.0
 10
11.1216115489
 20
8.31071725
 30
0.0
 10
11.1366411785
 20
8.3181651641
 30
0.0
 10
11.1513740663
 20
8.3261380263
 30
0.0
 10
11.160992605
 20
8.33180059
 30
0.0
 10
11.1657460016
 20
8.3347158608
 30
0.0
  0
SPLINE
  5
319
100
AcDbEntity
  8
0
100
AcDbSpline
 62
7
  6
CONTINUOUS
 70
0
 71
3
 72
42
 73
38
 74
0
 42
0.0000001
 43
0.0000001
 44
0.0000000001
 40
0.0
 40
0.0
 40
0.0
 40
0.0
 40
0.030966359
 40
0.0620780156
 40
0.0933314012
 40
0.1247195807
 40
0.1562335103
 40
0.187861831
 40
0.2195911719
 40
0.2514063967
 40
0.2832908809
 40
0.3152268076
 40
0.3471954788
 40
0.3791776386
 40
0.4111538018
 40
0.4431045848
 40
0.4750110364
 40
0.5068549633
 40
0.5386192458
 40
0.5702881402
 40
0.6018475642
 40
0.6332853618
 40
0.664591539
 40
0.6957584682
 40
0.7267810579
 40
0.7422396321
 40
0.7576614408
 40
0.7883908232
 40
0.8189768665
 40
0.8494254335
 40
0.8797450717
 40
0.8948623457
 40
0.9099517517
 40
0.925015046
 40
0.9400541138
 40
0.9700627594
 40
1.0
 40
1.0
 40
1.0
 40
1.0
 10
10.3845496713
 20
8.8141865237
 30
0.0
 10
10.3845496713
 20
8.802744484
 30
0.0
 10
10.3853393443
 20
8.779799156
 30
0.0
 10
10.388867593
 20
8.7454691068
 30
0.0
 10
10.3947253147
 20
8.7112995084
 30
0.0
 10
10.4028847872
 20
8.677453222
 30
0.0
 10
10.4133073251
 20
8.6440889981
 30
0.0
 10
10.4259436859
 20
8.6113639303
 30
0.0
 10
10.4407342069
 20
8.5794318928
 30
0.0
 10
10.4576091515
 20
8.5484430691
 30
0.0
 10
10.4764890229
 20
8.5185431887
 30
0.0
 10
10.4972849342
 20
8.4898728702
 30
0.0
 10
10.519898984
 20
8.4625669302
 30
0.0
 10
10.544224762
 20
8.4367537865
 30
0.0
 10
10.5701478393
 20
8.4125548592
 30
0.0
 10
10.5975463062
 20
8.390084014
 30
0.0
 10
10.6262913099
 20
8.3694469973
 30
0.0
 10
10.6562476671
 20
8.3507409476
 30
0.0
 10
10.6872745128
 20
8.3340539676
 30
0.0
 10
10.7192259408
 20
8.3194647096
 30
0.0
 10
10.7519517086
 20
8.3070420013
 30
0.0
 10
10.7852978015
 20
8.2968444791
 30
0.0
 10
10.8191076185
 20
8.2889203509
 30
0.0
 10
10.8532210353
 20
8.2833072041
 30
0.0
 10
10.8818057242
 20
8.2805742926
 30
0.0
 10
10.9046606191
 20
8.2795690159
 30
0.0
 10
10.9274281686
 20
8.2793504069
 30
0.0
 10
10.9557819676
 20
8.2805456149
 30
0.0
 10
10.9895039321
 20
8.2843332942
 30
0.0
 10
11.0227275768
 20
8.2904547452
 30
0.0
 10
11.0498982349
 20
8.2974853456
 30
0.0
 10
11.071221265
 20
8.3042435037
 30
0.0
 10
11.0869785386
 20
8.3098678267
 30
0.0
 10
11.1024960335
 20
8.316045669
 30
0.0
 10
11.1228249797
 20
8.3250035833
 30
0.0
 10
11.1475574097
 20
8.3375488812
 30
0.0
 10
11.1665476822
 20
8.3489944254
 30
0.0
 10
11.1758061231
 20
8.3550478772
 30
0.0
  0
SPLINE
  5
31A
100
AcDbEntity
  8
0
100
AcDbSpline
 62
7
  6
CONTINUOUS
 70
0
 71
3
 72
43
 73
39
 74
0
 42
0.0000001
 43
0.0000001
 44
0.0000000001
 40
0.0
 40
0.0
 40
0.0
 40
0.0
 40
0.0309231087
 40
0.0619869875
 40
0.0931884132
 40
0.1245210342
 40
0.1559766128
 40
0.1875447576
 40
0.2192132208
 40
0.2509681017
 40
0.2827940897
 40
0.3146747222
 40
0.3465926562
 40
0.37852995
 40
0.4104683521
 40
0.4423895933
 40
0.4742756795
 40
0.5061091797
 40
0.5378735096
 40
0.569553205
 40
0.6011341818
 40
0.6326039794
 40
0.663951982
 40
0.6951696179
 40
0.7262505296
 40
0.7571907114
 40
0.78798861
 40
0.8186451853
 40
0.8339236671
 40
0.8491683402
 40
0.8643800287
 40
0.8795597129
 40
0.909823195
 40
0.9399739762
 40
0.9550133462
 40
0.9700295232
 40
0.9850244061
 40
1.0
 40
1.0
 40
1.0
 40
1.0
 10
10.4202183916
 20
8.8486398639
 30
0.0
 10
10.4202183916
 20
8.8375476803
 30
0.0
 10
10.4209604269
 20
8.8153059226
 30
0.0
 10
10.4242767234
 20
8.7820210324
 30
0.0
 10
10.4297837385
 20
8.7488776402
 30
0.0
 10
10.4374569872
 20
8.7160242344
 30
0.0
 10
10.4472622526
 20
8.6836056647
 30
0.0
 10
10.4591560122
 20
8.6517654175
 30
0.0
 10
10.4730854878
 20
8.6206442367
 30
0.0
 10
10.4889889321
 20
8.5903797123
 30
0.0
 10
10.506795906
 20
8.5611056279
 30
0.0
 10
10.5264275872
 20
8.5329513912
 30
0.0
 10
10.5477971187
 20
8.5060414665
 30
0.0
 10
10.5708099804
 20
8.4804948249
 30
0.0
 10
10.595364393
 20
8.4564244088
 30
0.0
 10
10.6213517884
 20
8.4339366563
 30
0.0
 10
10.6486572806
 20
8.4131310324
 30
0.0
 10
10.677160169
 20
8.3940995933
 30
0.0
 10
10.7067344661
 20
8.3769265853
 30
0.0
 10
10.7372494336
 20
8.3616880455
 30
0.0
 10
10.7685701703
 20
8.3484514885
 30
0.0
 10
10.8005582045
 20
8.3372756129
 30
0.0
 10
10.8330720884
 20
8.3282100381
 30
0.0
 10
10.8659680481
 20
8.3212950918
 30
0.0
 10
10.8991004882
 20
8.3165615894
 30
0.0
 10
10.9323230713
 20
8.3140307481
 30
0.0
 10
10.965487739
 20
8.313713906
 30
0.0
 10
10.9929891939
 20
8.3152984831
 30
0.0
 10
11.014809144
 20
8.3176730767
 30
0.0
 10
11.0310515263
 20
8.3200017855
 30
0.0
 10
11.0471700131
 20
8.3228777492
 30
0.0
 10
11.0684486012
 20
8.3274324109
 30
0.0
 10
11.094657729
 20
8.3344744298
 30
0.0
 10
11.1202677073
 20
8.343302334
 30
0.0
 10
11.1402909204
 20
8.3514031519
 30
0.0
 10
11.1550525431
 20
8.3579867185
 30
0.0
 10
11.1695525501
 20
8.3650752665
 30
0.0
 10
11.1790405044
 20
8.3701357457
 30
0.0
 10
11.1837347919
 20
8.3727471918
 30
0.0
  0
SPLINE
  5
31B
100
AcDbEntity
  8
0
100
AcDbSpline
 62
7
  6
CONTINUOUS
 70
0
 71
3
 72
39
 73
35
 74
0
 42
0.0000001
 43
0.0000001
 44
0.0000000001
 40
0.0
 40
0.0
 40
0.0
 40
0.0
 40
0.0309873312
 40
0.0621221417
 40
0.0934006973
 40
0.1248157546
 40
0.1563578743
 40
0.188015208
 40
0.2197738231
 40
0.2516179665
 40
0.2835303598
 40
0.3154925162
 40
0.3474850716
 40
0.3794881289
 40
0.4114816073
 40
0.4434455934
 40
0.4753606912
 40
0.5072083659
 40
0.5389712767
 40
0.5706335931
 40
0.6021812922
 40
0.6336024333
 40
0.6648873995
 40
0.6960291044
 40
0.7270231587
 40
0.7578679927
 40
0.788564928
 40
0.8191181921
 40
0.8495348753
 40
0.8798248271
 40
0.9100004934
 40
0.9400766884
 40
0.9700703096
 40
1.0
 40
1.0
 40
1.0
 40
1.0
 10
10.4790061379
 20
8.8574244697
 30
0.0
 10
10.4790061379
 20
8.8468928333
 30
0.0
 10
10.4797437306
 20
8.8257722738
 30
0.0
 10
10.4830388593
 20
8.7941759188
 30
0.0
 10
10.488508966
 20
8.7627338738
 30
0.0
 10
10.4961273952
 20
8.7316004327
 30
0.0
 10
10.5058569529
 20
8.7009259381
 30
0.0
 10
10.5176503149
 20
8.6708590894
 30
0.0
 10
10.5314501509
 20
8.6415454398
 30
0.0
 10
10.5471894717
 20
8.6131269321
 30
0.0
 10
10.5647919368
 20
8.5857411569
 30
0.0
 10
10.5841722278
 20
8.5595207177
 30
0.0
 10
10.6052364165
 20
8.5345925595
 30
0.0
 10
10.6278824558
 20
8.5110773837
 30
0.0
 10
10.6520006709
 20
8.4890890739
 30
0.0
 10
10.6774742864
 20
8.4687341552
 30
0.0
 10
10.7041799702
 20
8.450111266
 30
0.0
 10
10.7319884159
 20
8.4333106639
 30
0.0
 10
10.7607649903
 20
8.4184138286
 30
0.0
 10
10.7903703691
 20
8.4054930623
 30
0.0
 10
10.8206612048
 20
8.3946111501
 30
0.0
 10
10.8514907937
 20
8.3858210056
 30
0.0
 10
10.8827097953
 20
8.3791654426
 30
0.0
 10
10.9141669468
 20
8.3746769766
 30
0.0
 10
10.9457097839
 20
8.3723776613
 30
0.0
 10
10.9771853677
 20
8.3722789591
 30
0.0
 10
11.0084410226
 20
8.3743816382
 30
0.0
 10
11.0393250786
 20
8.3786758113
 30
0.0
 10
11.0696875859
 20
8.3851409477
 30
0.0
 10
11.0993810959
 20
8.393746007
 30
0.0
 10
11.1282611828
 20
8.4044493762
 30
0.0
 10
11.1561879439
 20
8.4171996358
 30
0.0
 10
11.1830237482
 20
8.4319337565
 30
0.0
 10
11.2001189024
 20
8.4430440039
 30
0.0
 10
11.2084357111
 20
8.4489009552
 30
0.0
  0
SPLINE
  5
31C
100
AcDbEntity
  8
0
100
AcDbSpline
 62
7
  6
CONTINUOUS
 70
0
 71
3
 72
71
 73
67
 74
0
 42
0.0000001
 43
0.0000001
 44
0.0000000001
 40
0.0
 40
0.0
 40
0.0
 40
0.0
 40
0.0155843203
 40
0.0311158961
 40
0.0465952665
 40
0.0620238797
 40
0.0774034496
 40
0.0927362829
 40
0.1080251227
 40
0.1232731731
 40
0.1384840551
 40
0.1536617759
 40
0.1688106896
 40
0.1839354531
 40
0.1990409785
 40
0.2141323827
 40
0.2292149327
 40
0.2442939903
 40
0.2593749546
 40
0.2744632045
 40
0.2895640408
 40
0.3046826302
 40
0.3198239505
 40
0.334992739
 40
0.3501934432
 40
0.3654301766
 40
0.380706678
 40
0.3960262753
 40
0.4113918556
 40
0.426805839
 40
0.4422701592
 40
0.4577862487
 40
0.4733550295
 40
0.4889769099
 40
0.5046517847
 40
0.5203790425
 40
0.5361575757
 40
0.551985796
 40
0.5678616538
 40
0.5837826612
 40
0.5997459179
 40
0.6157481417
 40
0.6317857
 40
0.647854645
 40
0.6639507506
 40
0.6800695513
 40
0.6962063819
 40
0.7123564197
 40
0.7285147267
 40
0.7446762929
 40
0.7608360799
 40
0.7769890647
 40
0.7931302836
 40
0.8092548753
 40
0.825358124
 40
0.8414355011
 40
0.8574827061
 40
0.8734957055
 40
0.8894707708
 40
0.9054045124
 40
0.9212939177
 40
0.9371363655
 40
0.9529297023
 40
0.9686721284
 40
0.9843625579
 40
1.0
 40
1.0
 40
1.0
 40
1.0
 10
12.1502347433
 20
7.5282814926
 30
0.0
 10
12.1502347433
 20
7.5192731668
 30
0.0
 10
12.1497939097
 20
7.5012838084
 30
0.0
 10
12.1478038638
 20
7.4744130613
 30
0.0
 10
12.1444907917
 20
7.4477630953
 30
0.0
 10
12.1398626978
 20
7.421399052
 30
0.0
 10
12.1339306036
 20
7.3953841868
 30
0.0
 10
12.1267087782
 20
7.3697812962
 30
0.0
 10
12.1182145486
 20
7.3446520829
 30
0.0
 10
12.10846834
 20
7.3200571481
 30
0.0
 10
12.0974935919
 20
7.2960558053
 30
0.0
 10
12.0853167176
 20
7.2727059458
 30
0.0
 10
12.0719670363
 20
7.2500638955
 30
0.0
 10
12.0574767049
 20
7.2281842774
 30
0.0
 10
12.0418806405
 20
7.207119878
 30
0.0
 10
12.0252164368
 20
7.186921518
 30
0.0
 10
12.007524274
 20
7.1676379261
 30
0.0
 10
11.9888468194
 20
7.1493156212
 30
0.0
 10
11.9692291236
 20
7.1319987982
 30
0.0
 10
11.9487185106
 20
7.11572922
 30
0.0
 10
11.9273644616
 20
7.1005461158
 30
0.0
 10
11.905218494
 20
7.0864860855
 30
0.0
 10
11.8823340354
 20
7.0735830114
 30
0.0
 10
11.8587662921
 20
7.0618679759
 30
0.0
 10
11.834572115
 20
7.0513691878
 30
0.0
 10
11.8098098596
 20
7.0421119144
 30
0.0
 10
11.7845392448
 20
7.0341184217
 30
0.0
 10
11.7588212067
 20
7.0274079227
 30
0.0
 10
11.7327177511
 20
7.0219965309
 30
0.0
 10
11.7062918034
 20
7.0178972227
 30
0.0
 10
11.6796070555
 20
7.0151198097
 30
0.0
 10
11.6527278124
 20
7.0136709164
 30
0.0
 10
11.6257188373
 20
7.0135539657
 30
0.0
 10
11.5986451954
 20
7.0147691729
 30
0.0
 10
11.5715720986
 20
7.0173135459
 30
0.0
 10
11.5445647482
 20
7.0211808942
 30
0.0
 10
11.5176881791
 20
7.0263618447
 30
0.0
 10
11.4910071041
 20
7.0328438653
 30
0.0
 10
11.4645857589
 20
7.040611296
 30
0.0
 10
11.4384877486
 20
7.0496453868
 30
0.0
 10
11.4127758953
 20
7.0599243439
 30
0.0
 10
11.3875120878
 20
7.0714233806
 30
0.0
 10
11.3627571328
 20
7.0841147781
 30
0.0
 10
11.3385706104
 20
7.0979679531
 30
0.0
 10
11.3150107312
 20
7.1129495312
 30
0.0
 10
11.292134197
 20
7.1290234274
 30
0.0
 10
11.2699960652
 20
7.1461509325
 30
0.0
 10
11.2486496172
 20
7.1642908059
 30
0.0
 10
11.2281462306
 20
7.183399375
 30
0.0
 10
11.2085352561
 20
7.2034306391
 30
0.0
 10
11.1898638997
 20
7.2243363804
 30
0.0
 10
11.1721771091
 20
7.2460662791
 30
0.0
 10
11.1555174664
 20
7.2685680339
 30
0.0
 10
11.1399250858
 20
7.2917874878
 30
0.0
 10
11.1254375159
 20
7.3156687561
 30
0.0
 10
11.1120896506
 20
7.3401543616
 30
0.0
 10
11.0999136454
 20
7.3651853725
 30
0.0
 10
11.0889388405
 20
7.3907015433
 30
0.0
 10
11.0791916909
 20
7.4166414584
 30
0.0
 10
11.0706956983
 20
7.4429426819
 30
0.0
 10
11.0634713683
 20
7.4695418955
 30
0.0
 10
11.057536125
 20
7.4963750918
 30
0.0
 10
11.0529043482
 20
7.5233775805
 30
0.0
 10
11.0495871836
 20
7.5504846381
 30
0.0
 10
11.0475927649
 20
7.5776300541
 30
0.0
 10
11.0471474193
 20
7.5957418261
 30
0.0
 10
11.0471474193
 20
7.6047808583
 30
0.0
  0
SPLINE
  5
31D
100
AcDbEntity
  8
0
100
AcDbSpline
 62
7
  6
CONTINUOUS
 70
0
 71
3
 72
39
 73
35
 74
0
 42
0.0000001
 43
0.0000001
 44
0.0000000001
 40
0.0
 40
0.0
 40
0.0
 40
0.0
 40
0.0306778381
 40
0.0614699791
 40
0.0923741009
 40
0.1233871709
 40
0.1545045817
 40
0.185720703
 40
0.2170287558
 40
0.2484209685
 40
0.279888646
 40
0.3114222783
 40
0.3430116454
 40
0.3746459317
 40
0.4063138433
 40
0.4380037296
 40
0.4697037078
 40
0.501401788
 40
0.5330860009
 40
0.5647445232
 40
0.5963658038
 40
0.627938687
 40
0.6594525328
 40
0.6908973337
 40
0.7222638261
 40
0.7535435961
 40
0.7847291776
 40
0.8158141431
 40
0.8467931845
 40
0.8776621839
 40
0.9084182725
 40
0.9390598771
 40
0.9695867527
 40
1.0
 40
1.0
 40
1.0
 40
1.0
 10
10.6971904129
 20
9.0681743083
 30
0.0
 10
10.6971904129
 20
9.0600014823
 30
0.0
 10
10.6976342563
 20
9.0436220067
 30
0.0
 10
10.6996208093
 20
9.0190819219
 30
0.0
 10
10.7029235588
 20
8.9945933521
 30
0.0
 10
10.7075327105
 20
8.9702288699
 30
0.0
 10
10.7134347664
 20
8.9460593855
 30
0.0
 10
10.7206123838
 20
8.9221556097
 30
0.0
 10
10.7290445394
 20
8.8985873604
 30
0.0
 10
10.7387065335
 20
8.8754234999
 30
0.0
 10
10.7495700886
 20
8.852731696
 30
0.0
 10
10.7616034216
 20
8.8305782367
 30
0.0
 10
10.7747713407
 20
8.809027835
 30
0.0
 10
10.7890353462
 20
8.7881434418
 30
0.0
 10
10.8043537438
 20
8.7679860629
 30
0.0
 10
10.8206817654
 20
8.7486145822
 30
0.0
 10
10.8379716992
 20
8.7300855907
 30
0.0
 10
10.8561730287
 20
8.7124532219
 30
0.0
 10
10.8752325796
 20
8.6957689946
 30
0.0
 10
10.8950946737
 20
8.6800816634
 30
0.0
 10
10.9157012914
 20
8.6654370765
 30
0.0
 10
10.9369922394
 20
8.6518780426
 30
0.0
 10
10.9589053256
 20
8.6394442056
 30
0.0
 10
10.9813765399
 20
8.6281719296
 30
0.0
 10
11.0043402396
 20
8.6180941931
 30
0.0
 10
11.0277293405
 20
8.6092404923
 30
0.0
 10
11.05147551
 20
8.6016367551
 30
0.0
 10
11.0755093684
 20
8.5953052645
 30
0.0
 10
11.099760681
 20
8.5902645931
 30
0.0
 10
11.1241585928
 20
8.5865295497
 30
0.0
 10
11.1486317204
 20
8.5841111255
 30
0.0
 10
11.1731087807
 20
8.5830164956
 30
0.0
 10
11.1975172344
 20
8.5832488679
 30
0.0
 10
11.2137284039
 20
8.5842901663
 30
0.0
 10
11.2217966913
 20
8.5850321901
 30
0.0
  0
SPLINE
  5
31E
100
AcDbEntity
  8
0
100
AcDbSpline
 62
7
  6
CONTINUOUS
 70
0
 71
3
 72
39
 73
35
 74
0
 42
0.0000001
 43
0.0000001
 44
0.0000000001
 40
0.0
 40
0.0
 40
0.0
 40
0.0
 40
0.0306707164
 40
0.0614549546
 40
0.0923502348
 40
0.1233537434
 40
0.1544609094
 40
0.1856662523
 40
0.2169631334
 40
0.248343951
 40
0.2798001927
 40
0.3113225446
 40
0.3429009913
 40
0.374524927
 40
0.4061832686
 40
0.4378645732
 40
0.469557159
 40
0.5012492267
 40
0.5329289826
 40
0.5645847611
 40
0.5962051464
 40
0.627779093
 40
0.6592960422
 40
0.690746036
 40
0.7221198262
 40
0.7534089777
 40
0.7846059651
 40
0.8157042618
 40
0.8466984207
 40
0.8775841449
 40
0.908358347
 40
0.939019197
 40
0.9695661566
 40
1.0
 40
1.0
 40
1.0
 40
1.0
 10
10.7339327544
 20
9.0736646869
 30
0.0
 10
10.7339327544
 20
9.0660737801
 30
0.0
 10
10.7343418351
 20
9.0508607853
 30
0.0
 10
10.7361728602
 20
9.0280676187
 30
0.0
 10
10.7392171651
 20
9.0053209088
 30
0.0
 10
10.7434658232
 20
8.9826870672
 30
0.0
 10
10.7489066084
 20
8.9602309427
 30
0.0
 10
10.7555237616
 20
8.9380172435
 30
0.0
 10
10.7632982033
 20
8.9161098613
 30
0.0
 10
10.7722075041
 20
8.8945718326
 30
0.0
 10
10.7822259874
 20
8.8734651191
 30
0.0
 10
10.7933247882
 20
8.8528504406
 30
0.0
 10
10.8054719419
 20
8.8327870997
 30
0.0
 10
10.8186324737
 20
8.8133328126
 30
0.0
 10
10.8327685001
 20
8.7945435438
 30
0.0
 10
10.8478393367
 20
8.7764733465
 30
0.0
 10
10.8638016137
 20
8.7591742063
 30
0.0
 10
10.8806094017
 20
8.7426958941
 30
0.0
 10
10.8982143433
 20
8.7270858229
 30
0.0
 10
10.9165657911
 20
8.7123889129
 30
0.0
 10
10.9356109532
 20
8.6986474627
 30
0.0
 10
10.9552950435
 20
8.6859010278
 30
0.0
 10
10.9755614385
 20
8.6741863078
 30
0.0
 10
10.9963518394
 20
8.6635370407
 30
0.0
 10
11.0176064379
 20
8.6539839062
 30
0.0
 10
11.0392640878
 20
8.6455544375
 30
0.0
 10
11.061262479
 20
8.6382729421
 30
0.0
 10
11.083538317
 20
8.6321604312
 30
0.0
 10
11.1060274962
 20
8.6272345584
 30
0.0
 10
11.128665311
 20
8.623509568
 30
0.0
 10
11.1513865377
 20
8.6209962471
 30
0.0
 10
11.1741260048
 20
8.6197019243
 30
0.0
 10
11.1968173538
 20
8.6196303316
 30
0.0
 10
11.2118990968
 20
8.6203995328
 30
0.0
 10
11.2194083239
 20
8.6209884067
 30
0.0
  0
SPLINE
  5
31F
100
AcDbEntity
  8
0
100
AcDbSpline
 62
7
  6
CONTINUOUS
 70
0
 71
3
 72
23
 73
19
 74
0
 42
0.0000001
 43
0.0000001
 44
0.0000000001
 40
0.0
 40
0.0
 40
0.0
 40
0.0
 40
0.061876191
 40
0.1239897797
 40
0.1863153395
 40
0.2488236211
 40
0.3114821201
 40
0.3742556726
 40
0.4371070906
 40
0.4999978224
 40
0.5628886287
 40
0.6257402695
 40
0.688514189
 40
0.751173193
 40
0.8136821088
 40
0.8760084198
 40
0.9381228659
 40
1.0
 40
1.0
 40
1.0
 40
1.0
 10
10.9156026894
 20
9.063253036
 30
0.0
 10
10.917483971
 20
9.055639062
 30
0.0
 10
10.921769729
 20
9.0405042393
 30
0.0
 10
10.9297113726
 20
9.0182461518
 30
0.0
 10
10.9391418271
 20
8.9964884908
 30
0.0
 10
10.9500151215
 20
8.9753376036
 30
0.0
 10
10.9622787732
 20
8.9548951632
 30
0.0
 10
10.975873503
 20
8.9352598904
 30
0.0
 10
10.9907336635
 20
8.916526488
 30
0.0
 10
11.0067875156
 20
8.8987853503
 30
0.0
 10
11.0239575794
 20
8.8821220855
 30
0.0
 10
11.0421610011
 20
8.8666171126
 30
0.0
 10
11.0613099463
 20
8.8523452826
 30
0.0
 10
11.0813120604
 20
8.8393755087
 30
0.0
 10
11.1020707518
 20
8.8277704812
 30
0.0
 10
11.1234862398
 20
8.817586198
 30
0.0
 10
11.1454538474
 20
8.8088723234
 30
0.0
 10
11.1604300494
 20
8.8040607617
 30
0.0
 10
11.1679738246
 20
8.8019148003
 30
0.0
  0
SPLINE
  5
320
100
AcDbEntity
  8
0
100
AcDbSpline
 62
7
  6
CONTINUOUS
 70
0
 71
3
 72
30
 73
26
 74
0
 42
0.0000001
 43
0.0000001
 44
0.0000000001
 40
0.0
 40
0.0
 40
0.0
 40
0.0
 40
0.0307564661
 40
0.0615997321
 40
0.0925269013
 40
0.1235348016
 40
0.1546195519
 40
0.1857767538
 40
0.2170015142
 40
0.2482884651
 40
0.3110123921
 40
0.3739108758
 40
0.4369284101
 40
0.5000062855
 40
0.5630841688
 40
0.6261017322
 40
0.6890002603
 40
0.75172425
 40
0.8142229262
 40
0.8453801746
 40
0.8764649678
 40
0.9074729123
 40
0.938400156
 40
0.9692434142
 40
1.0
 40
1.0
 40
1.0
 40
1.0
 10
10.8170105385
 20
9.1032248385
 30
0.0
 10
10.8176991416
 20
9.0971241601
 30
0.0
 10
10.8193380954
 20
9.084933334
 30
0.0
 10
10.8225696957
 20
9.0667433335
 30
0.0
 10
10.8265721906
 20
9.0486555592
 30
0.0
 10
10.8313380623
 20
9.0307040382
 30
0.0
 10
10.8368585029
 20
9.0129219283
 30
0.0
 10
10.8431231604
 20
8.9953423408
 30
0.0
 10
10.8501205923
 20
8.9779975323
 30
0.0
 10
10.8604171051
 20
8.9552114224
 30
0.0
 10
10.8750552732
 20
8.9274785359
 30
0.0
 10
10.8952931127
 20
8.8956767049
 30
0.0
 10
10.9180713078
 20
8.8655520891
 30
0.0
 10
10.9432203623
 20
8.8373291448
 30
0.0
 10
10.9705542831
 20
8.8112164016
 30
0.0
 10
10.999870543
 20
8.7874073631
 30
0.0
 10
11.0309526333
 20
8.7660782598
 30
0.0
 10
11.063568945
 20
8.7473878426
 30
0.0
 10
11.0918623427
 20
8.7341107021
 30
0.0
 10
11.1150189648
 20
8.7249417881
 30
0.0
 10
11.1325991725
 20
8.7188079005
 30
0.0
 10
11.1503745887
 20
8.7134223524
 30
0.0
 10
11.1683127082
 20
8.7087949531
 30
0.0
 10
11.1863797228
 20
8.7049344367
 30
0.0
 10
11.1985064056
 20
8.7028737216
 30
0.0
 10
11.2045795562
 20
8.7019739518
 30
0.0
  0
SPLINE
  5
321
100
AcDbEntity
  8
0
100
AcDbSpline
 62
7
  6
CONTINUOUS
 70
0
 71
3
 72
24
 73
20
 74
0
 42
0.0000001
 43
0.0000001
 44
0.0000000001
 40
0.0
 40
0.0
 40
0.0
 40
0.0
 40
0.0637773023
 40
0.1273439637
 40
0.1907010681
 40
0.2538548417
 40
0.3168115636
 40
0.379580162
 40
0.4421711307
 40
0.5045967669
 40
0.5668709778
 40
0.6290091748
 40
0.691028128
 40
0.7529458054
 40
0.8147811982
 40
0.8765541325
 40
0.9074261016
 40
0.9382901687
 40
1.0
 40
1.0
 40
1.0
 40
1.0
 10
11.0851144833
 20
7.6104542463
 30
0.0
 10
11.0851144833
 20
7.6187858429
 30
0.0
 10
11.0855132391
 20
7.6354243435
 30
0.0
 10
11.0873131758
 20
7.6602809351
 30
0.0
 10
11.090309975
 20
7.6849404149
 30
0.0
 10
11.094496633
 20
7.7093450726
 30
0.0
 10
11.0998636679
 20
7.7334389665
 30
0.0
 10
11.1063987055
 20
7.7571664542
 30
0.0
 10
11.1140867638
 20
7.7804728573
 30
0.0
 10
11.1229101637
 20
7.8033044233
 30
0.0
 10
11.1328486128
 20
7.8256084944
 30
0.0
 10
11.1438792366
 20
7.8473336319
 30
0.0
 10
11.1559766153
 20
7.8684297005
 30
0.0
 10
11.1691129484
 20
7.888848111
 30
0.0
 10
11.1832577139
 20
7.9085414655
 30
0.0
 10
11.1958615115
 20
7.9243145757
 30
0.0
 10
11.2064129515
 20
7.9365230534
 30
0.0
 10
11.2172688316
 20
7.9484500367
 30
0.0
 10
11.2257530162
 20
7.9570779235
 30
0.0
 10
11.2315512905
 20
7.9626786356
 30
0.0
  0
SPLINE
  5
322
100
AcDbEntity
  8
0
100
AcDbSpline
 62
7
  6
CONTINUOUS
 70
0
 71
3
 72
23
 73
19
 74
0
 42
0.0000001
 43
0.0000001
 44
0.0000000001
 40
0.0
 40
0.0
 40
0.0
 40
0.0
 40
0.063777379
 40
0.1273447372
 40
0.1907019931
 40
0.2538561345
 40
0.3168131769
 40
0.3795820929
 40
0.4421733849
 40
0.5045993366
 40
0.5668738654
 40
0.6290123812
 40
0.6910316548
 40
0.7529496517
 40
0.8147853612
 40
0.8765586089
 40
0.9382898579
 40
1.0
 40
1.0
 40
1.0
 40
1.0
 10
9.0259475194
 20
8.3187116199
 30
0.0
 10
9.0259475194
 20
8.3250914122
 30
0.0
 10
9.0262528703
 20
8.3378321502
 30
0.0
 10
9.0276311277
 20
8.3568657747
 30
0.0
 10
9.0299258973
 20
8.3757484904
 30
0.0
 10
9.0331317513
 20
8.3944360468
 30
0.0
 10
9.0372414721
 20
8.4128856571
 30
0.0
 10
9.0422455771
 20
8.4310546928
 30
0.0
 10
9.0481325991
 20
8.4489012872
 30
0.0
 10
9.0548889887
 20
8.4663842839
 30
0.0
 10
9.0624992006
 20
8.4834633656
 30
0.0
 10
9.0709457214
 20
8.5000991401
 30
0.0
 10
9.0802091024
 20
8.5162532289
 30
0.0
 10
9.0902680237
 20
8.5318883674
 30
0.0
 10
9.1010992711
 20
8.5469684509
 30
0.0
 10
9.1126779918
 20
8.5614588153
 30
0.0
 10
9.1249770329
 20
8.5753255761
 30
0.0
 10
9.133639324
 20
8.5841346565
 30
0.0
 10
9.1380792767
 20
8.5884233362
 30
0.0
  0
SPLINE
  5
323
100
AcDbEntity
  8
0
100
AcDbSpline
 62
7
  6
CONTINUOUS
 70
0
 71
3
 72
43
 73
39
 74
0
 42
0.0000001
 43
0.0000001
 44
0.0000000001
 40
0.0
 40
0.0
 40
0.0
 40
0.0
 40
0.0309200949
 40
0.0619806449
 40
0.0931784448
 40
0.1245071939
 40
0.1559586999
 40
0.1875226401
 40
0.2191868416
 40
0.2509374875
 40
0.2827593569
 40
0.3146360794
 40
0.3465504048
 40
0.3784844817
 40
0.4104201444
 40
0.4423392021
 40
0.4742237282
 40
0.5060563471
 40
0.537820516
 40
0.569500795
 40
0.6010831055
 40
0.6325549714
 40
0.6639057418
 40
0.695126789
 40
0.7262116772
 40
0.7571562999
 40
0.7879589823
 40
0.8186205447
 40
0.8339015392
 40
0.849148713
 40
0.8643628743
 40
0.8795449782
 40
0.9098130746
 40
0.9399679818
 40
0.9550091618
 40
0.9700269554
 40
0.985023242
 40
1.0
 40
1.0
 40
1.0
 40
1.0
 10
11.2631818394
 20
7.7824541145
 30
0.0
 10
11.2631818394
 20
7.7708826964
 30
0.0
 10
11.2639542304
 20
7.7476801338
 30
0.0
 10
11.2674062515
 20
7.7129568645
 30
0.0
 10
11.2731387354
 20
7.6783802094
 30
0.0
 10
11.2811263028
 20
7.6441044015
 30
0.0
 10
11.2913335016
 20
7.6102799026
 30
0.0
 10
11.3037152184
 20
7.5770557705
 30
0.0
 10
11.3182167392
 20
7.5445782194
 30
0.0
 10
11.3347740667
 20
7.512990211
 30
0.0
 10
11.3533141889
 20
7.4824307711
 30
0.0
 10
11.3737554043
 20
7.4530344052
 30
0.0
 10
11.3960076667
 20
7.4249305022
 30
0.0
 10
11.4199729621
 20
7.3982427532
 30
0.0
 10
11.4455457697
 20
7.3730886355
 30
0.0
 10
11.4726135164
 20
7.349578897
 30
0.0
 10
11.5010570703
 20
7.3278170786
 30
0.0
 10
11.5307512464
 20
7.3078990464
 30
0.0
 10
11.5615653475
 20
7.2899125583
 30
0.0
 10
11.5933637558
 20
7.2739369089
 30
0.0
 10
11.6260065153
 20
7.2600425762
 30
0.0
 10
11.6593499457
 20
7.2482909199
 30
0.0
 10
11.6932472473
 20
7.2387338824
 30
0.0
 10
11.7275491774
 20
7.2314137583
 30
0.0
 10
11.7621045857
 20
7.2263630173
 30
0.0
 10
11.796761522
 20
7.2236042106
 30
0.0
 10
11.831366215
 20
7.2231496433
 30
0.0
 10
11.8600691373
 20
7.2246951606
 30
0.0
 10
11.8828472298
 20
7.2270841133
 30
0.0
 10
11.8998053233
 20
7.2294464476
 30
0.0
 10
11.9166366758
 20
7.2323786657
 30
0.0
 10
11.9388598725
 20
7.2370385705
 30
0.0
 10
11.9662394026
 20
7.2442684678
 30
0.0
 10
11.9930032627
 20
7.2533595489
 30
0.0
 10
12.0139351914
 20
7.2617152407
 30
0.0
 10
12.0293700376
 20
7.2685117207
 30
0.0
 10
12.0445348793
 20
7.2758348674
 30
0.0
 10
12.0544603497
 20
7.2810663005
 30
0.0
 10
12.0593717519
 20
7.2837667474
 30
0.0
  0
SPLINE
  5
324
100
AcDbEntity
  8
0
100
AcDbSpline
 62
7
  6
CONTINUOUS
 70
0
 71
3
 72
15
 73
11
 74
0
 42
0.0000001
 43
0.0000001
 44
0.0000000001
 40
0.0
 40
0.0
 40
0.0
 40
0.0
 40
0.1268033001
 40
0.2530381613
 40
0.3787210585
 40
0.5038750295
 40
0.6285337668
 40
0.7527393978
 40
0.8765422606
 40
1.0
 40
1.0
 40
1.0
 40
1.0
 10
11.2631818394
 20
7.7824541145
 30
0.0
 10
11.2631818394
 20
7.7937223297
 30
0.0
 10
11.2639109773
 20
7.816215293
 30
0.0
 10
11.267205084
 20
7.8497315501
 30
0.0
 10
11.2726833498
 20
7.8828139885
 30
0.0
 10
11.280323034
 20
7.9153211911
 30
0.0
 10
11.2900919918
 20
7.9471161507
 30
0.0
 10
11.3019495165
 20
7.9780648794
 30
0.0
 10
11.3158446668
 20
8.0080348107
 30
0.0
 10
11.3264430714
 20
8.0273057294
 30
0.0
 10
11.3320588219
 20
8.0367303963
 30
0.0
  0
SPLINE
  5
325
100
AcDbEntity
  8
0
100
AcDbSpline
 62
7
  6
CONTINUOUS
 70
0
 71
3
 72
15
 73
11
 74
0
 42
0.0000001
 43
0.0000001
 44
0.0000000001
 40
0.0
 40
0.0
 40
0.0
 40
0.0
 40
0.1269213659
 40
0.2532262313
 40
0.3789352974
 40
0.504078294
 40
0.6286979202
 40
0.7528476491
 40
0.8765909448
 40
1.0
 40
1.0
 40
1.0
 40
1.0
 10
11.2757388759
 20
7.7815832811
 30
0.0
 10
11.2757388759
 20
7.7935125027
 30
0.0
 10
11.2765761724
 20
7.817321803
 30
0.0
 10
11.2803597271
 20
7.8527651559
 30
0.0
 10
11.2866492429
 20
7.8876830556
 30
0.0
 10
11.295413995
 20
7.9218997384
 30
0.0
 10
11.3066106334
 20
7.9552453876
 30
0.0
 10
11.3201841722
 20
7.9875545079
 30
0.0
 10
11.3360659468
 20
8.0186641405
 30
0.0
 10
11.3481573944
 20
8.0385288991
 30
0.0
 10
11.3545563525
 20
8.0482032219
 30
0.0
  0
SPLINE
  5
326
100
AcDbEntity
  8
0
100
AcDbSpline
 62
7
  6
CONTINUOUS
 70
0
 71
3
 72
19
 73
15
 74
0
 42
0.0000001
 43
0.0000001
 44
0.0000000001
 40
0.0
 40
0.0
 40
0.0
 40
0.0
 40
0.1269798727
 40
0.2533130019
 40
0.3790229186
 40
0.5041442905
 40
0.5665107241
 40
0.6287495081
 40
0.690868719
 40
0.7528771298
 40
0.8147841628
 40
0.876599854
 40
0.9383347815
 40
1.0
 40
1.0
 40
1.0
 40
1.0
 10
11.290588115
 20
7.7854265455
 30
0.0
 10
11.290588115
 20
7.7976977917
 30
0.0
 10
11.291492077
 20
7.8221877222
 30
0.0
 10
11.2955775434
 20
7.8586209801
 30
0.0
 10
11.3023665017
 20
7.8944672156
 30
0.0
 10
11.3102568791
 20
7.9237212927
 30
0.0
 10
11.3178779306
 20
7.9466249853
 30
0.0
 10
11.3242338232
 20
7.9635185318
 30
0.0
 10
11.3312265432
 20
7.9801207836
 30
0.0
 10
11.3388466307
 20
7.9964093283
 30
0.0
 10
11.3470836617
 20
8.0123617278
 30
0.0
 10
11.3559263646
 20
8.0279562684
 30
0.0
 10
11.3653624566
 20
8.043171269
 30
0.0
 10
11.3720440754
 20
8.0530533792
 30
0.0
 10
11.375478792
 20
8.0579232645
 30
0.0
  0
SPLINE
  5
327
100
AcDbEntity
  8
0
100
AcDbSpline
 62
7
  6
CONTINUOUS
 70
0
 71
3
 72
15
 73
11
 74
0
 42
0.0000001
 43
0.0000001
 44
0.0000000001
 40
0.0
 40
0.0
 40
0.0
 40
0.0
 40
0.1268165568
 40
0.2530594331
 40
0.3787455445
 40
0.5038985704
 40
0.6285531481
 40
0.7527525473
 40
0.8765484511
 40
1.0
 40
1.0
 40
1.0
 40
1.0
 10
11.3262568354
 20
7.8198798857
 30
0.0
 10
11.3262568354
 20
7.8307573058
 30
0.0
 10
11.3269671832
 20
7.8524698702
 30
0.0
 10
11.330176481
 20
7.8848199589
 30
0.0
 10
11.3355134627
 20
7.9167448837
 30
0.0
 10
11.3429555648
 20
7.948105632
 30
0.0
 10
11.3524708898
 20
7.9787675655
 30
0.0
 10
11.364019047
 20
8.008599063
 30
0.0
 10
11.3775495091
 20
8.0374699565
 30
0.0
 10
11.3878677754
 20
8.0560207943
 30
0.0
 10
11.3933343912
 20
8.0650893479
 30
0.0
  0
SPLINE
  5
328
100
AcDbEntity
  8
0
100
AcDbSpline
 62
7
  6
CONTINUOUS
 70
0
 71
3
 72
21
 73
17
 74
0
 42
0.0000001
 43
0.0000001
 44
0.0000000001
 40
0.0
 40
0.0
 40
0.0
 40
0.0
 40
0.1270474294
 40
0.2534139955
 40
0.3163626208
 40
0.3791519996
 40
0.4417880407
 40
0.504277382
 40
0.5666276324
 40
0.6288473205
 40
0.6909458063
 40
0.752933256
 40
0.8148205614
 40
0.8766192708
 40
0.9383415318
 40
1.0
 40
1.0
 40
1.0
 40
1.0
 10
11.3850445817
 20
7.8286644915
 30
0.0
 10
11.3850445817
 20
7.8403895563
 30
0.0
 10
11.3859542517
 20
7.8637867267
 30
0.0
 10
11.389386395
 20
7.8928131866
 30
0.0
 10
11.3934954123
 20
7.9157192989
 30
0.0
 10
11.3972482469
 20
7.9326991969
 30
0.0
 10
11.4016701323
 20
7.9494732453
 30
0.0
 10
11.4067543737
 20
7.9660162511
 30
0.0
 10
11.4124932227
 20
7.9823030002
 30
0.0
 10
11.4188780195
 20
7.9983087392
 30
0.0
 10
11.4258990659
 20
8.014009129
 30
0.0
 10
11.4335456675
 20
8.0293803265
 30
0.0
 10
11.4418062329
 20
8.0443989213
 30
0.0
 10
11.4506682897
 20
8.0590421515
 30
0.0
 10
11.4601180887
 20
8.073287473
 30
0.0
 10
11.4668038108
 20
8.0825095084
 30
0.0
 10
11.470239049
 20
8.0870459924
 30
0.0
  0
SPLINE
  5
329
100
AcDbEntity
  8
0
100
AcDbSpline
 62
7
  6
CONTINUOUS
 70
0
 71
3
 72
56
 73
52
 74
0
 42
0.0000001
 43
0.0000001
 44
0.0000000001
 40
0.0
 40
0.0
 40
0.0
 40
0.0
 40
0.0113166246
 40
0.0221389715
 40
0.0324516197
 40
0.0422492554
 40
0.0515405724
 40
0.0603531883
 40
0.0687382665
 40
0.0767731944
 40
0.0806931669
 40
0.0845664906
 40
0.0884095126
 40
0.0922390837
 40
0.0960725627
 40
0.0999271632
 40
0.1038194539
 40
0.1077652392
 40
0.1117790506
 40
0.1158739653
 40
0.1243488786
 40
0.1332669471
 40
0.1426774751
 40
0.1526092717
 40
0.1630749033
 40
0.174075297
 40
0.1856026211
 40
0.1976440995
 40
0.2101829618
 40
0.2232013754
 40
0.2366799987
 40
0.2506004442
 40
0.2649438497
 40
0.279693165
 40
0.2948314554
 40
0.31034339
 40
0.3262144891
 40
0.3589807828
 40
0.3930327943
 40
0.4282846719
 40
0.4646588304
 40
0.5020826542
 40
0.5404852942
 40
0.5797944241
 40
0.6199329891
 40
0.6608161337
 40
0.7023482972
 40
0.7444205545
 40
0.8296657011
 40
0.915348562
 40
1.0
 40
1.0
 40
1.0
 40
1.0
 10
11.6631074338
 20
7.5739687559
 30
0.0
 10
11.6647919387
 20
7.5738527879
 30
0.0
 10
11.6680939165
 20
7.5737086677
 30
0.0
 10
11.6729382675
 20
7.5737753057
 30
0.0
 10
11.6775429894
 20
7.5741378284
 30
0.0
 10
11.6818835341
 20
7.5748040729
 30
0.0
 10
11.6859359869
 20
7.5757814808
 30
0.0
 10
11.6896775173
 20
7.5770765837
 30
0.0
 10
11.6930863483
 20
7.5786939117
 30
0.0
 10
11.6956552409
 20
7.5803272233
 30
0.0
 10
11.6975105923
 20
7.5817909822
 30
0.0
 10
11.698797074
 20
7.5829590616
 30
0.0
 10
11.6999886162
 20
7.5842052165
 30
0.0
 10
11.7010843083
 20
7.5855287602
 30
0.0
 10
11.7020838147
 20
7.5869284506
 30
0.0
 10
11.7029873128
 20
7.5884028915
 30
0.0
 10
11.7037948731
 20
7.5899508415
 30
0.0
 10
11.7045074004
 20
7.5915706447
 30
0.0
 10
11.7051260813
 20
7.5932607325
 30
0.0
 10
11.7058353284
 20
7.5956325809
 30
0.0
 10
11.7064881855
 20
7.5987783632
 30
0.0
 10
11.7069124493
 20
7.6027602664
 30
0.0
 10
11.7070071189
 20
7.6069799897
 30
0.0
 10
11.7067928041
 20
7.6114253637
 30
0.0
 10
11.7062912109
 20
7.6160854061
 30
0.0
 10
11.7055237093
 20
7.6209496298
 30
0.0
 10
11.7045115684
 20
7.6260084446
 30
0.0
 10
11.7032751173
 20
7.6312529464
 30
0.0
 10
11.7018342103
 20
7.6366752788
 30
0.0
 10
11.7002071852
 20
7.642268193
 30
0.0
 10
11.6984119527
 20
7.6480255684
 30
0.0
 10
11.696464498
 20
7.6539416534
 30
0.0
 10
11.6943806571
 20
7.660011828
 30
0.0
 10
11.6921741976
 20
7.6662316109
 30
0.0
 10
11.6898588061
 20
7.6725974817
 30
0.0
 10
11.6874465761
 20
7.6791060721
 30
0.0
 10
11.6840805988
 20
7.6880660826
 30
0.0
 10
11.6796906603
 20
7.6995963244
 30
0.0
 10
11.6742573126
 20
7.7138234519
 30
0.0
 10
11.6686720169
 20
7.7285687784
 30
0.0
 10
11.6629962064
 20
7.7438175938
 30
0.0
 10
11.6572859564
 20
7.7595547166
 30
0.0
 10
11.6515933798
 20
7.7757632533
 30
0.0
 10
11.6459676314
 20
7.7924233349
 30
0.0
 10
11.6404557044
 20
7.8095108664
 30
0.0
 10
11.635102966
 20
7.8269962234
 30
0.0
 10
11.6299534137
 20
7.844843191
 30
0.0
 10
11.6233869325
 20
7.8691665382
 30
0.0
 10
11.6159461216
 20
7.9000725138
 30
0.0
 10
11.6084975576
 20
7.9374817969
 30
0.0
 10
11.6045948841
 20
7.9626048016
 30
0.0
 10
11.6029384889
 20
7.9751260985
 30
0.0
  0
SPLINE
  5
32A
100
AcDbEntity
  8
0
100
AcDbSpline
 62
7
  6
CONTINUOUS
 70
0
 71
3
 72
48
 73
44
 74
0
 42
0.0000001
 43
0.0000001
 44
0.0000000001
 40
0.0
 40
0.0
 40
0.0
 40
0.0
 40
0.0310737286
 40
0.0623047169
 40
0.0936882768
 40
0.1252158192
 40
0.1568759363
 40
0.1886544543
 40
0.2205347671
 40
0.2524981996
 40
0.2845244034
 40
0.3165917744
 40
0.3486778872
 40
0.3807599447
 40
0.4128152307
 40
0.444821561
 40
0.476757727
 40
0.5086039285
 40
0.5403421829
 40
0.5719567057
 40
0.6034342639
 40
0.6347644801
 40
0.6659400877
 40
0.6969571367
 40
0.7278151252
 40
0.7431880054
 40
0.758522545
 40
0.7738196675
 40
0.7890805069
 40
0.8043064089
 40
0.8194989208
 40
0.8346597817
 40
0.8497909186
 40
0.8648944344
 40
0.8799725929
 40
0.8950278113
 40
0.9100626449
 40
0.9250797694
 40
0.9400819686
 40
0.9550721182
 40
0.970053165
 40
0.9850281118
 40
1.0
 40
1.0
 40
1.0
 40
1.0
 10
11.0851144833
 20
7.6104542463
 30
0.0
 10
11.0851144833
 20
7.5975278646
 30
0.0
 10
11.0860787738
 20
7.5715997364
 30
0.0
 10
11.0903840468
 20
7.5328316821
 30
0.0
 10
11.0975275935
 20
7.4942912647
 30
0.0
 10
11.1074699263
 20
7.4561928792
 30
0.0
 10
11.1201559722
 20
7.4187449801
 30
0.0
 10
11.1355157899
 20
7.382153312
 30
0.0
 10
11.153464827
 20
7.3466186484
 30
0.0
 10
11.1739042799
 20
7.3123359596
 30
0.0
 10
11.1967218293
 20
7.2794933643
 30
0.0
 10
11.2217921454
 20
7.2482710931
 30
0.0
 10
11.2489775134
 20
7.2188404383
 30
0.0
 10
11.2781287413
 20
7.1913629591
 30
0.0
 10
11.3090858499
 20
7.1659895131
 30
0.0
 10
11.341678934
 20
7.1428593967
 30
0.0
 10
11.3757291965
 20
7.1220997374
 30
0.0
 10
11.4110498029
 20
7.1038246609
 30
0.0
 10
11.4474469257
 20
7.088134671
 30
0.0
 10
11.4847208429
 20
7.0751162478
 30
0.0
 10
11.5226669775
 20
7.0648411901
 30
0.0
 10
11.5610768785
 20
7.0573662568
 30
0.0
 10
11.599739999
 20
7.0527330438
 30
0.0
 10
11.6384424377
 20
7.0509672699
 30
0.0
 10
11.6705962682
 20
7.0518954872
 30
0.0
 10
11.6961186874
 20
7.0540788708
 30
0.0
 10
11.7151160186
 20
7.056429874
 30
0.0
 10
11.7339641311
 20
7.0594931017
 30
0.0
 10
11.7526374302
 20
7.0632643993
 30
0.0
 10
11.7711101461
 20
7.0677385361
 30
0.0
 10
11.7893568897
 20
7.0729093783
 30
0.0
 10
11.8073525319
 20
7.0787698795
 30
0.0
 10
11.8250723295
 20
7.0853119337
 30
0.0
 10
11.842491901
 20
7.0925265538
 30
0.0
 10
11.8595872505
 20
7.1004038789
 30
0.0
 10
11.8763348728
 20
7.1089330289
 30
0.0
 10
11.8927117245
 20
7.1181022733
 30
0.0
 10
11.9086952333
 20
7.1278990548
 30
0.0
 10
11.9242634309
 20
7.1383098586
 30
0.0
 10
11.9393948792
 20
7.1493203361
 30
0.0
 10
11.9540687898
 20
7.1609154609
 30
0.0
 10
11.9682647105
 20
7.1730789756
 30
0.0
 10
11.9773979968
 20
7.1815566937
 30
0.0
 10
11.9818776303
 20
7.1858836944
 30
0.0
  0
SPLINE
  5
32B
100
AcDbEntity
  8
0
100
AcDbSpline
 62
7
  6
CONTINUOUS
 70
0
 71
3
 72
43
 73
39
 74
0
 42
0.0000001
 43
0.0000001
 44
0.0000000001
 40
0.0
 40
0.0
 40
0.0
 40
0.0
 40
0.030948836
 40
0.0620411362
 40
0.0932734766
 40
0.1246391613
 40
0.1561294786
 40
0.1877334676
 40
0.2194382187
 40
0.2512291028
 40
0.2830900336
 40
0.3150037484
 40
0.346952102
 40
0.3789163728
 40
0.4108775752
 40
0.4428167749
 40
0.4747154021
 40
0.5065555636
 40
0.5383203445
 40
0.5699940992
 40
0.6015627256
 40
0.6330139205
 40
0.6643374129
 40
0.6955251654
 40
0.7265715446
 40
0.757473453
 40
0.7882304211
 40
0.8188446541
 40
0.8341019653
 40
0.8493256412
 40
0.8645167003
 40
0.8796763172
 40
0.9099019437
 40
0.9400195315
 40
0.9550446632
 40
0.970048371
 40
0.9850327527
 40
1.0
 40
1.0
 40
1.0
 40
1.0
 10
11.2757388759
 20
7.7815832811
 30
0.0
 10
11.2757388759
 20
7.7700530565
 30
0.0
 10
11.2765247543
 20
7.7469317231
 30
0.0
 10
11.2800364329
 20
7.7123351473
 30
0.0
 10
11.2858671552
 20
7.6778942788
 30
0.0
 10
11.2939900092
 20
7.6437692486
 30
0.0
 10
11.304367416
 20
7.610116194
 30
0.0
 10
11.3169515644
 20
7.5770896912
 30
0.0
 10
11.3316844914
 20
7.5448412313
 30
0.0
 10
11.3484984295
 20
7.5135187718
 30
0.0
 10
11.3673161005
 20
7.4832660008
 30
0.0
 10
11.3880510771
 20
7.4542217095
 30
0.0
 10
11.4106081527
 20
7.4265191433
 30
0.0
 10
11.4348837719
 20
7.4002853872
 30
0.0
 10
11.4607665315
 20
7.3756408113
 30
0.0
 10
11.4881376786
 20
7.3526985194
 30
0.0
 10
11.5168716551
 20
7.3315638426
 30
0.0
 10
11.5468366433
 20
7.3123338285
 30
0.0
 10
11.5778951774
 20
7.2950968068
 30
0.0
 10
11.6099047803
 20
7.2799320062
 30
0.0
 10
11.6427186028
 20
7.2669091876
 30
0.0
 10
11.6761860929
 20
7.2560883317
 30
0.0
 10
11.7101536542
 20
7.2475193148
 30
0.0
 10
11.7444653925
 20
7.2412417139
 30
0.0
 10
11.7789636949
 20
7.2372846081
 30
0.0
 10
11.8134904146
 20
7.235666519
 30
0.0
 10
11.8478858377
 20
7.2363950074
 30
0.0
 10
11.876343892
 20
7.2389585777
 30
0.0
 10
11.8988804768
 20
7.2421772672
 30
0.0
 10
11.9156346382
 20
7.2451682003
 30
0.0
 10
11.9322384848
 20
7.2487351378
 30
0.0
 10
11.9541270965
 20
7.2542474422
 30
0.0
 10
11.981027796
 20
7.2625544224
 30
0.0
 10
12.0072246354
 20
7.2727321527
 30
0.0
 10
12.0276499927
 20
7.2819572719
 30
0.0
 10
12.0426796222
 20
7.289405186
 30
0.0
 10
12.0574125101
 20
7.2973780482
 30
0.0
 10
12.0670310487
 20
7.3030406118
 30
0.0
 10
12.0717844453
 20
7.3059558826
 30
0.0
  0
SPLINE
  5
32C
100
AcDbEntity
  8
0
100
AcDbSpline
 62
7
  6
CONTINUOUS
 70
0
 71
3
 72
42
 73
38
 74
0
 42
0.0000001
 43
0.0000001
 44
0.0000000001
 40
0.0
 40
0.0
 40
0.0
 40
0.0
 40
0.030966359
 40
0.0620780156
 40
0.0933314012
 40
0.1247195807
 40
0.1562335103
 40
0.187861831
 40
0.2195911719
 40
0.2514063967
 40
0.2832908809
 40
0.3152268076
 40
0.3471954788
 40
0.3791776386
 40
0.4111538018
 40
0.4431045848
 40
0.4750110364
 40
0.5068549633
 40
0.5386192458
 40
0.5702881402
 40
0.6018475642
 40
0.6332853618
 40
0.664591539
 40
0.6957584682
 40
0.7267810579
 40
0.7422396321
 40
0.7576614408
 40
0.7883908232
 40
0.8189768665
 40
0.8494254335
 40
0.8797450717
 40
0.8948623457
 40
0.9099517517
 40
0.925015046
 40
0.9400541138
 40
0.9700627594
 40
1.0
 40
1.0
 40
1.0
 40
1.0
 10
11.290588115
 20
7.7854265455
 30
0.0
 10
11.290588115
 20
7.7739845059
 30
0.0
 10
11.2913777881
 20
7.7510391778
 30
0.0
 10
11.2949060368
 20
7.7167091286
 30
0.0
 10
11.3007637584
 20
7.6825395303
 30
0.0
 10
11.308923231
 20
7.6486932438
 30
0.0
 10
11.3193457688
 20
7.6153290199
 30
0.0
 10
11.3319821296
 20
7.5826039521
 30
0.0
 10
11.3467726506
 20
7.5506719146
 30
0.0
 10
11.3636475952
 20
7.5196830909
 30
0.0
 10
11.3825274667
 20
7.4897832106
 30
0.0
 10
11.403323378
 20
7.4611128921
 30
0.0
 10
11.4259374277
 20
7.433806952
 30
0.0
 10
11.4502632057
 20
7.4079938084
 30
0.0
 10
11.476186283
 20
7.3837948811
 30
0.0
 10
11.50358475
 20
7.3613240359
 30
0.0
 10
11.5323297536
 20
7.3406870191
 30
0.0
 10
11.5622861108
 20
7.3219809694
 30
0.0
 10
11.5933129565
 20
7.3052939894
 30
0.0
 10
11.6252643845
 20
7.2907047315
 30
0.0
 10
11.6579901523
 20
7.2782820231
 30
0.0
 10
11.6913362452
 20
7.268084501
 30
0.0
 10
11.7251460622
 20
7.2601603727
 30
0.0
 10
11.7592594791
 20
7.254547226
 30
0.0
 10
11.7878441679
 20
7.2518143144
 30
0.0
 10
11.8106990628
 20
7.2508090378
 30
0.0
 10
11.8334666124
 20
7.2505904287
 30
0.0
 10
11.8618204113
 20
7.2517856368
 30
0.0
 10
11.8955423759
 20
7.255573316
 30
0.0
 10
11.9287660205
 20
7.261694767
 30
0.0
 10
11.9559366786
 20
7.2687253675
 30
0.0
 10
11.9772597088
 20
7.2754835256
 30
0.0
 10
11.9930169823
 20
7.2811078485
 30
0.0
 10
12.0085344773
 20
7.2872856909
 30
0.0
 10
12.0288634235
 20
7.2962436052
 30
0.0
 10
12.0535958535
 20
7.3087889031
 30
0.0
 10
12.0725861259
 20
7.3202344473
 30
0.0
 10
12.0818445669
 20
7.326287899
 30
0.0
  0
SPLINE
  5
32D
100
AcDbEntity
  8
0
100
AcDbSpline
 62
7
  6
CONTINUOUS
 70
0
 71
3
 72
39
 73
35
 74
0
 42
0.0000001
 43
0.0000001
 44
0.0000000001
 40
0.0
 40
0.0
 40
0.0
 40
0.0
 40
0.0299424725
 40
0.05990932
 40
0.0899243252
 40
0.1200101024
 40
0.1501875589
 40
0.1804754082
 40
0.2108897494
 40
0.2414437221
 40
0.272147242
 40
0.3030068208
 40
0.33402547
 40
0.3652026865
 40
0.3965345185
 40
0.428013701
 40
0.459629856
 40
0.4913697495
 40
0.5232175971
 40
0.5551554142
 40
0.587163399
 40
0.619220343
 40
0.6513040608
 40
0.6833918343
 40
0.715460865
 40
0.747488727
 40
0.7794538147
 40
0.8113357784
 40
0.8431159423
 40
0.8747777013
 40
0.90630686
 40
0.937692088
 40
0.9689246466
 40
1.0
 40
1.0
 40
1.0
 40
1.0
 10
10.4459739461
 20
9.2582754215
 30
0.0
 10
10.441046817
 20
9.2535161597
 30
0.0
 10
10.4308051544
 20
9.2443816963
 30
0.0
 10
10.414396385
 20
9.2319376169
 30
0.0
 10
10.3970252403
 20
9.2208134007
 30
0.0
 10
10.3787887718
 20
9.2110714631
 30
0.0
 10
10.3597872395
 20
9.2027650362
 30
0.0
 10
10.3401255143
 20
9.1959397769
 30
0.0
 10
10.3199119479
 20
9.1906330203
 30
0.0
 10
10.2992579026
 20
9.186873737
 30
0.0
 10
10.278277095
 20
9.1846823487
 30
0.0
 10
10.2570849775
 20
9.1840706445
 30
0.0
 10
10.2357981029
 20
9.1850417226
 30
0.0
 10
10.2145334851
 20
9.1875899679
 30
0.0
 10
10.1934079595
 20
9.191701122
 30
0.0
 10
10.1725375513
 20
9.1973523687
 30
0.0
 10
10.152036847
 20
9.2045124661
 30
0.0
 10
10.1320183778
 20
9.2131419263
 30
0.0
 10
10.1125920022
 20
9.2231932138
 30
0.0
 10
10.0938643115
 20
9.234611017
 30
0.0
 10
10.0759380591
 20
9.2473325636
 30
0.0
 10
10.0589116035
 20
9.2612879598
 30
0.0
 10
10.0428783769
 20
9.2764005719
 30
0.0
 10
10.0279263781
 20
9.2925874399
 30
0.0
 10
10.0141376762
 20
9.3097597139
 30
0.0
 10
10.0015879824
 20
9.3278231568
 30
0.0
 10
9.9903462383
 20
9.3466786524
 30
0.0
 10
9.9804742405
 20
9.3662227452
 30
0.0
 10
9.9720263058
 20
9.3863481887
 30
0.0
 10
9.9650489651
 20
9.406944564
 30
0.0
 10
9.959580671
 20
9.4278987179
 30
0.0
 10
9.9556517089
 20
9.4490959773
 30
0.0
 10
9.9532837827
 20
9.4704184438
 30
0.0
 10
9.9527534283
 20
9.4846789318
 30
0.0
 10
9.9527534283
 20
9.4917884574
 30
0.0
  0
SPLINE
  5
32E
100
AcDbEntity
  8
0
100
AcDbSpline
 62
7
  6
CONTINUOUS
 70
0
 71
3
 72
43
 73
39
 74
0
 42
0.0000001
 43
0.0000001
 44
0.0000000001
 40
0.0
 40
0.0
 40
0.0
 40
0.0
 40
0.0309231087
 40
0.0619869875
 40
0.0931884132
 40
0.1245210342
 40
0.1559766128
 40
0.1875447576
 40
0.2192132208
 40
0.2509681017
 40
0.2827940897
 40
0.3146747222
 40
0.3465926562
 40
0.37852995
 40
0.4104683521
 40
0.4423895933
 40
0.4742756795
 40
0.5061091797
 40
0.5378735096
 40
0.569553205
 40
0.6011341818
 40
0.6326039794
 40
0.663951982
 40
0.6951696179
 40
0.7262505296
 40
0.7571907114
 40
0.78798861
 40
0.8186451853
 40
0.8339236671
 40
0.8491683402
 40
0.8643800287
 40
0.8795597129
 40
0.909823195
 40
0.9399739762
 40
0.9550133462
 40
0.9700295232
 40
0.9850244061
 40
1.0
 40
1.0
 40
1.0
 40
1.0
 10
11.3262568354
 20
7.8198798857
 30
0.0
 10
11.3262568354
 20
7.8087877022
 30
0.0
 10
11.3269988707
 20
7.7865459444
 30
0.0
 10
11.3303151672
 20
7.7532610543
 30
0.0
 10
11.3358221823
 20
7.720117662
 30
0.0
 10
11.343495431
 20
7.6872642563
 30
0.0
 10
11.3533006964
 20
7.6548456865
 30
0.0
 10
11.3651944559
 20
7.6230054394
 30
0.0
 10
11.3791239315
 20
7.5918842586
 30
0.0
 10
11.3950273758
 20
7.5616197342
 30
0.0
 10
11.4128343498
 20
7.5323456498
 30
0.0
 10
11.432466031
 20
7.5041914131
 30
0.0
 10
11.4538355625
 20
7.4772814883
 30
0.0
 10
11.4768484241
 20
7.4517348467
 30
0.0
 10
11.5014028367
 20
7.4276644307
 30
0.0
 10
11.5273902321
 20
7.4051766782
 30
0.0
 10
11.5546957244
 20
7.3843710542
 30
0.0
 10
11.5831986128
 20
7.3653396151
 30
0.0
 10
11.6127729099
 20
7.3481666071
 30
0.0
 10
11.6432878773
 20
7.3329280673
 30
0.0
 10
11.674608614
 20
7.3196915103
 30
0.0
 10
11.7065966482
 20
7.3085156348
 30
0.0
 10
11.7391105321
 20
7.2994500599
 30
0.0
 10
11.7720064919
 20
7.2925351136
 30
0.0
 10
11.8051389319
 20
7.2878016113
 30
0.0
 10
11.838361515
 20
7.2852707699
 30
0.0
 10
11.8715261827
 20
7.2849539278
 30
0.0
 10
11.8990276376
 20
7.2865385049
 30
0.0
 10
11.9208475877
 20
7.2889130985
 30
0.0
 10
11.93708997
 20
7.2912418073
 30
0.0
 10
11.9532084568
 20
7.294117771
 30
0.0
 10
11.9744870449
 20
7.2986724327
 30
0.0
 10
12.0006961728
 20
7.3057144517
 30
0.0
 10
12.026306151
 20
7.3145423558
 30
0.0
 10
12.0463293641
 20
7.3226431738
 30
0.0
 10
12.0610909868
 20
7.3292267403
 30
0.0
 10
12.0755909938
 20
7.3363152884
 30
0.0
 10
12.0850789481
 20
7.3413757676
 30
0.0
 10
12.0897732356
 20
7.3439872136
 30
0.0
  0
SPLINE
  5
32F
100
AcDbEntity
  8
0
100
AcDbSpline
 62
7
  6
CONTINUOUS
 70
0
 71
3
 72
39
 73
35
 74
0
 42
0.0000001
 43
0.0000001
 44
0.0000000001
 40
0.0
 40
0.0
 40
0.0
 40
0.0
 40
0.0309873312
 40
0.0621221417
 40
0.0934006973
 40
0.1248157546
 40
0.1563578743
 40
0.188015208
 40
0.2197738231
 40
0.2516179665
 40
0.2835303598
 40
0.3154925162
 40
0.3474850716
 40
0.3794881289
 40
0.4114816073
 40
0.4434455934
 40
0.4753606912
 40
0.5072083659
 40
0.5389712767
 40
0.5706335931
 40
0.6021812922
 40
0.6336024333
 40
0.6648873995
 40
0.6960291044
 40
0.7270231587
 40
0.7578679927
 40
0.788564928
 40
0.8191181921
 40
0.8495348753
 40
0.8798248271
 40
0.9100004934
 40
0.9400766884
 40
0.9700703096
 40
1.0
 40
1.0
 40
1.0
 40
1.0
 10
11.3850445817
 20
7.8286644915
 30
0.0
 10
11.3850445817
 20
7.8181328551
 30
0.0
 10
11.3857821744
 20
7.7970122957
 30
0.0
 10
11.389077303
 20
7.7654159407
 30
0.0
 10
11.3945474097
 20
7.7339738957
 30
0.0
 10
11.4021658389
 20
7.7028404545
 30
0.0
 10
11.4118953966
 20
7.6721659599
 30
0.0
 10
11.4236887587
 20
7.6420991113
 30
0.0
 10
11.4374885947
 20
7.6127854616
 30
0.0
 10
11.4532279154
 20
7.5843669539
 30
0.0
 10
11.4708303806
 20
7.5569811787
 30
0.0
 10
11.4902106715
 20
7.5307607395
 30
0.0
 10
11.5112748603
 20
7.5058325813
 30
0.0
 10
11.5339208996
 20
7.4823174055
 30
0.0
 10
11.5580391146
 20
7.4603290958
 30
0.0
 10
11.5835127302
 20
7.4399741771
 30
0.0
 10
11.610218414
 20
7.4213512879
 30
0.0
 10
11.6380268596
 20
7.4045506858
 30
0.0
 10
11.666803434
 20
7.3896538504
 30
0.0
 10
11.6964088129
 20
7.3767330842
 30
0.0
 10
11.7266996485
 20
7.3658511719
 30
0.0
 10
11.7575292374
 20
7.3570610274
 30
0.0
 10
11.788748239
 20
7.3504054645
 30
0.0
 10
11.8202053905
 20
7.3459169984
 30
0.0
 10
11.8517482276
 20
7.3436176831
 30
0.0
 10
11.8832238114
 20
7.3435189809
 30
0.0
 10
11.9144794664
 20
7.34562166
 30
0.0
 10
11.9453635224
 20
7.3499158332
 30
0.0
 10
11.9757260296
 20
7.3563809696
 30
0.0
 10
12.0054195397
 20
7.3649860289
 30
0.0
 10
12.0342996265
 20
7.3756893981
 30
0.0
 10
12.0622263877
 20
7.3884396576
 30
0.0
 10
12.089062192
 20
7.4031737783
 30
0.0
 10
12.1061573461
 20
7.4142840258
 30
0.0
 10
12.1144741548
 20
7.4201409771
 30
0.0
  0
SPLINE
  5
330
100
AcDbEntity
  8
0
100
AcDbSpline
 62
7
  6
CONTINUOUS
 70
0
 71
3
 72
39
 73
35
 74
0
 42
0.0000001
 43
0.0000001
 44
0.0000000001
 40
0.0
 40
0.0
 40
0.0
 40
0.0
 40
0.0299424725
 40
0.05990932
 40
0.0899243252
 40
0.1200101024
 40
0.1501875589
 40
0.1804754082
 40
0.2108897494
 40
0.2414437221
 40
0.272147242
 40
0.3030068208
 40
0.33402547
 40
0.3652026865
 40
0.3965345185
 40
0.428013701
 40
0.459629856
 40
0.4913697495
 40
0.5232175971
 40
0.5551554142
 40
0.587163399
 40
0.619220343
 40
0.6513040608
 40
0.6833918343
 40
0.715460865
 40
0.747488727
 40
0.7794538147
 40
0.8113357784
 40
0.8431159423
 40
0.8747777013
 40
0.90630686
 40
0.937692088
 40
0.9689246466
 40
1.0
 40
1.0
 40
1.0
 40
1.0
 10
11.8948626563
 20
8.3126095289
 30
0.0
 10
11.8899355271
 20
8.3078502671
 30
0.0
 10
11.8796938646
 20
8.2987158037
 30
0.0
 10
11.8632850951
 20
8.2862717243
 30
0.0
 10
11.8459139505
 20
8.2751475081
 30
0.0
 10
11.8276774819
 20
8.2654055705
 30
0.0
 10
11.8086759496
 20
8.2570991435
 30
0.0
 10
11.7890142245
 20
8.2502738842
 30
0.0
 10
11.768800658
 20
8.2449671276
 30
0.0
 10
11.7481466127
 20
8.2412078443
 30
0.0
 10
11.7271658052
 20
8.2390164561
 30
0.0
 10
11.7059736876
 20
8.2384047519
 30
0.0
 10
11.6846868131
 20
8.23937583
 30
0.0
 10
11.6634221952
 20
8.2419240752
 30
0.0
 10
11.6422966696
 20
8.2460352293
 30
0.0
 10
11.6214262615
 20
8.2516864761
 30
0.0
 10
11.6009255571
 20
8.2588465735
 30
0.0
 10
11.5809070879
 20
8.2674760337
 30
0.0
 10
11.5614807123
 20
8.2775273212
 30
0.0
 10
11.5427530217
 20
8.2889451243
 30
0.0
 10
11.5248267693
 20
8.301666671
 30
0.0
 10
11.5078003136
 20
8.3156220672
 30
0.0
 10
11.4917670871
 20
8.3307346793
 30
0.0
 10
11.4768150883
 20
8.3469215473
 30
0.0
 10
11.4630263864
 20
8.3640938212
 30
0.0
 10
11.4504766926
 20
8.3821572641
 30
0.0
 10
11.4392349484
 20
8.4010127597
 30
0.0
 10
11.4293629506
 20
8.4205568526
 30
0.0
 10
11.4209150159
 20
8.4406822961
 30
0.0
 10
11.4139376752
 20
8.4612786714
 30
0.0
 10
11.4084693812
 20
8.4822328253
 30
0.0
 10
11.404540419
 20
8.5034300847
 30
0.0
 10
11.4021724928
 20
8.5247525511
 30
0.0
 10
11.4016421384
 20
8.5390130392
 30
0.0
 10
11.4016421384
 20
8.5461225647
 30
0.0
  0
SPLINE
  5
331
100
AcDbEntity
  8
0
100
AcDbSpline
 62
7
  6
CONTINUOUS
 70
0
 71
3
 72
39
 73
35
 74
0
 42
0.0000001
 43
0.0000001
 44
0.0000000001
 40
0.0
 40
0.0
 40
0.0
 40
0.0
 40
0.0306778381
 40
0.0614699791
 40
0.0923741009
 40
0.1233871709
 40
0.1545045817
 40
0.185720703
 40
0.2170287558
 40
0.2484209685
 40
0.279888646
 40
0.3114222783
 40
0.3430116454
 40
0.3746459317
 40
0.4063138433
 40
0.4380037296
 40
0.4697037078
 40
0.501401788
 40
0.5330860009
 40
0.5647445232
 40
0.5963658038
 40
0.627938687
 40
0.6594525328
 40
0.6908973337
 40
0.7222638261
 40
0.7535435961
 40
0.7847291776
 40
0.8158141431
 40
0.8467931845
 40
0.8776621839
 40
0.9084182725
 40
0.9390598771
 40
0.9695867527
 40
1.0
 40
1.0
 40
1.0
 40
1.0
 10
11.6032288566
 20
8.0394143301
 30
0.0
 10
11.6032288566
 20
8.0312415041
 30
0.0
 10
11.6036727001
 20
8.0148620286
 30
0.0
 10
11.605659253
 20
7.9903219437
 30
0.0
 10
11.6089620025
 20
7.965833374
 30
0.0
 10
11.6135711542
 20
7.9414688918
 30
0.0
 10
11.6194732102
 20
7.9172994073
 30
0.0
 10
11.6266508275
 20
7.8933956315
 30
0.0
 10
11.6350829832
 20
7.8698273823
 30
0.0
 10
11.6447449773
 20
7.8466635217
 30
0.0
 10
11.6556085324
 20
7.8239717178
 30
0.0
 10
11.6676418654
 20
7.8018182586
 30
0.0
 10
11.6808097844
 20
7.7802678569
 30
0.0
 10
11.6950737899
 20
7.7593834636
 30
0.0
 10
11.7103921876
 20
7.7392260847
 30
0.0
 10
11.7267202091
 20
7.719854604
 30
0.0
 10
11.7440101429
 20
7.7013256125
 30
0.0
 10
11.7622114725
 20
7.6836932437
 30
0.0
 10
11.7812710233
 20
7.6670090165
 30
0.0
 10
11.8011331174
 20
7.6513216852
 30
0.0
 10
11.8217397351
 20
7.6366770984
 30
0.0
 10
11.8430306831
 20
7.6231180645
 30
0.0
 10
11.8649437693
 20
7.6106842274
 30
0.0
 10
11.8874149836
 20
7.5994119515
 30
0.0
 10
11.9103786833
 20
7.589334215
 30
0.0
 10
11.9337677842
 20
7.5804805142
 30
0.0
 10
11.9575139538
 20
7.5728767769
 30
0.0
 10
11.9815478122
 20
7.5665452864
 30
0.0
 10
12.0057991248
 20
7.561504615
 30
0.0
 10
12.0301970365
 20
7.5577695715
 30
0.0
 10
12.0546701642
 20
7.5553511474
 30
0.0
 10
12.0791472245
 20
7.5542565175
 30
0.0
 10
12.1035556781
 20
7.5544888897
 30
0.0
 10
12.1197668476
 20
7.5555301881
 30
0.0
 10
12.1278351351
 20
7.556272212
 30
0.0
  0
SPLINE
  5
332
100
AcDbEntity
  8
0
100
AcDbSpline
 62
7
  6
CONTINUOUS
 70
0
 71
3
 72
39
 73
35
 74
0
 42
0.0000001
 43
0.0000001
 44
0.0000000001
 40
0.0
 40
0.0
 40
0.0
 40
0.0
 40
0.0299424725
 40
0.05990932
 40
0.0899243252
 40
0.1200101024
 40
0.1501875589
 40
0.1804754082
 40
0.2108897494
 40
0.2414437221
 40
0.272147242
 40
0.3030068208
 40
0.33402547
 40
0.3652026865
 40
0.3965345185
 40
0.428013701
 40
0.459629856
 40
0.4913697495
 40
0.5232175971
 40
0.5551554142
 40
0.587163399
 40
0.619220343
 40
0.6513040608
 40
0.6833918343
 40
0.715460865
 40
0.747488727
 40
0.7794538147
 40
0.8113357784
 40
0.8431159423
 40
0.8747777013
 40
0.90630686
 40
0.937692088
 40
0.9689246466
 40
1.0
 40
1.0
 40
1.0
 40
1.0
 10
10.4459739461
 20
6.7835734169
 30
0.0
 10
10.441046817
 20
6.7788141551
 30
0.0
 10
10.4308051544
 20
6.7696796917
 30
0.0
 10
10.414396385
 20
6.7572356122
 30
0.0
 10
10.3970252403
 20
6.746111396
 30
0.0
 10
10.3787887718
 20
6.7363694585
 30
0.0
 10
10.3597872395
 20
6.7280630315
 30
0.0
 10
10.3401255143
 20
6.7212377722
 30
0.0
 10
10.3199119479
 20
6.7159310156
 30
0.0
 10
10.2992579026
 20
6.7121717323
 30
0.0
 10
10.278277095
 20
6.7099803441
 30
0.0
 10
10.2570849775
 20
6.7093686398
 30
0.0
 10
10.2357981029
 20
6.710339718
 30
0.0
 10
10.2145334851
 20
6.7128879632
 30
0.0
 10
10.1934079595
 20
6.7169991173
 30
0.0
 10
10.1725375513
 20
6.7226503641
 30
0.0
 10
10.152036847
 20
6.7298104615
 30
0.0
 10
10.1320183778
 20
6.7384399216
 30
0.0
 10
10.1125920022
 20
6.7484912091
 30
0.0
 10
10.0938643115
 20
6.7599090123
 30
0.0
 10
10.0759380591
 20
6.7726305589
 30
0.0
 10
10.0589116035
 20
6.7865859552
 30
0.0
 10
10.0428783769
 20
6.8016985673
 30
0.0
 10
10.0279263781
 20
6.8178854352
 30
0.0
 10
10.0141376762
 20
6.8350577092
 30
0.0
 10
10.0015879824
 20
6.8531211521
 30
0.0
 10
9.9903462383
 20
6.8719766477
 30
0.0
 10
9.9804742405
 20
6.8915207406
 30
0.0
 10
9.9720263058
 20
6.9116461841
 30
0.0
 10
9.9650489651
 20
6.9322425593
 30
0.0
 10
9.959580671
 20
6.9531967132
 30
0.0
 10
9.9556517089
 20
6.9743939726
 30
0.0
 10
9.9532837827
 20
6.9957164391
 30
0.0
 10
9.9527534283
 20
7.0099769272
 30
0.0
 10
9.9527534283
 20
7.0170864527
 30
0.0
  0
SPLINE
  5
333
100
AcDbEntity
  8
0
100
AcDbSpline
 62
7
  6
CONTINUOUS
 70
0
 71
3
 72
39
 73
35
 74
0
 42
0.0000001
 43
0.0000001
 44
0.0000000001
 40
0.0
 40
0.0
 40
0.0
 40
0.0
 40
0.0306707164
 40
0.0614549546
 40
0.0923502348
 40
0.1233537434
 40
0.1544609094
 40
0.1856662523
 40
0.2169631334
 40
0.248343951
 40
0.2798001927
 40
0.3113225446
 40
0.3429009913
 40
0.374524927
 40
0.4061832686
 40
0.4378645732
 40
0.469557159
 40
0.5012492267
 40
0.5329289826
 40
0.5645847611
 40
0.5962051464
 40
0.627779093
 40
0.6592960422
 40
0.690746036
 40
0.7221198262
 40
0.7534089777
 40
0.7846059651
 40
0.8157042618
 40
0.8466984207
 40
0.8775841449
 40
0.908358347
 40
0.939019197
 40
0.9695661566
 40
1.0
 40
1.0
 40
1.0
 40
1.0
 10
11.6399711981
 20
8.0449047087
 30
0.0
 10
11.6399711981
 20
8.0373138019
 30
0.0
 10
11.6403802789
 20
8.0221008071
 30
0.0
 10
11.6422113039
 20
7.9993076405
 30
0.0
 10
11.6452556089
 20
7.9765609307
 30
0.0
 10
11.649504267
 20
7.9539270891
 30
0.0
 10
11.6549450522
 20
7.9314709645
 30
0.0
 10
11.6615622053
 20
7.9092572653
 30
0.0
 10
11.669336647
 20
7.8873498831
 30
0.0
 10
11.6782459478
 20
7.8658118544
 30
0.0
 10
11.6882644311
 20
7.8447051409
 30
0.0
 10
11.699363232
 20
7.8240904624
 30
0.0
 10
11.7115103856
 20
7.8040271216
 30
0.0
 10
11.7246709174
 20
7.7845728344
 30
0.0
 10
11.7388069438
 20
7.7657835656
 30
0.0
 10
11.7538777805
 20
7.7477133683
 30
0.0
 10
11.7698400575
 20
7.7304142282
 30
0.0
 10
11.7866478455
 20
7.7139359159
 30
0.0
 10
11.804252787
 20
7.6983258447
 30
0.0
 10
11.8226042349
 20
7.6836289348
 30
0.0
 10
11.841649397
 20
7.6698874845
 30
0.0
 10
11.8613334873
 20
7.6571410497
 30
0.0
 10
11.8815998823
 20
7.6454263297
 30
0.0
 10
11.9023902831
 20
7.6347770625
 30
0.0
 10
11.9236448816
 20
7.625223928
 30
0.0
 10
11.9453025316
 20
7.6167944594
 30
0.0
 10
11.9673009228
 20
7.6095129639
 30
0.0
 10
11.9895767607
 20
7.6034004531
 30
0.0
 10
12.0120659399
 20
7.5984745802
 30
0.0
 10
12.0347037548
 20
7.5947495898
 30
0.0
 10
12.0574249814
 20
7.5922362689
 30
0.0
 10
12.0801644486
 20
7.5909419461
 30
0.0
 10
12.1028557976
 20
7.5908703534
 30
0.0
 10
12.1179375405
 20
7.5916395546
 30
0.0
 10
12.1254467676
 20
7.5922284285
 30
0.0
  0
SPLINE
  5
334
100
AcDbEntity
  8
0
100
AcDbSpline
 62
7
  6
CONTINUOUS
 70
0
 71
3
 72
23
 73
19
 74
0
 42
0.0000001
 43
0.0000001
 44
0.0000000001
 40
0.0
 40
0.0
 40
0.0
 40
0.0
 40
0.061876191
 40
0.1239897797
 40
0.1863153395
 40
0.2488236211
 40
0.3114821201
 40
0.3742556726
 40
0.4371070906
 40
0.4999978224
 40
0.5628886287
 40
0.6257402695
 40
0.688514189
 40
0.751173193
 40
0.8136821088
 40
0.8760084198
 40
0.9381228659
 40
1.0
 40
1.0
 40
1.0
 40
1.0
 10
11.8216411332
 20
8.0344930578
 30
0.0
 10
11.8235224148
 20
8.0268790838
 30
0.0
 10
11.8278081727
 20
8.0117442611
 30
0.0
 10
11.8357498164
 20
7.9894861737
 30
0.0
 10
11.8451802708
 20
7.9677285126
 30
0.0
 10
11.8560535652
 20
7.9465776254
 30
0.0
 10
11.8683172169
 20
7.9261351851
 30
0.0
 10
11.8819119468
 20
7.9064999122
 30
0.0
 10
11.8967721073
 20
7.8877665099
 30
0.0
 10
11.9128259594
 20
7.8700253721
 30
0.0
 10
11.9299960232
 20
7.8533621074
 30
0.0
 10
11.9481994449
 20
7.8378571344
 30
0.0
 10
11.9673483901
 20
7.8235853044
 30
0.0
 10
11.9873505042
 20
7.8106155305
 30
0.0
 10
12.0081091956
 20
7.799010503
 30
0.0
 10
12.0295246835
 20
7.7888262198
 30
0.0
 10
12.0514922912
 20
7.7801123452
 30
0.0
 10
12.0664684931
 20
7.7753007836
 30
0.0
 10
12.0740122684
 20
7.7731548222
 30
0.0
  0
SPLINE
  5
335
100
AcDbEntity
  8
0
100
AcDbSpline
 62
7
  6
CONTINUOUS
 70
0
 71
3
 72
30
 73
26
 74
0
 42
0.0000001
 43
0.0000001
 44
0.0000000001
 40
0.0
 40
0.0
 40
0.0
 40
0.0
 40
0.0307564661
 40
0.0615997321
 40
0.0925269013
 40
0.1235348016
 40
0.1546195519
 40
0.1857767538
 40
0.2170015142
 40
0.2482884651
 40
0.3110123921
 40
0.3739108758
 40
0.4369284101
 40
0.5000062855
 40
0.5630841688
 40
0.6261017322
 40
0.6890002603
 40
0.75172425
 40
0.8142229262
 40
0.8453801746
 40
0.8764649678
 40
0.9074729123
 40
0.938400156
 40
0.9692434142
 40
1.0
 40
1.0
 40
1.0
 40
1.0
 10
11.7230489822
 20
8.0744648604
 30
0.0
 10
11.7237375853
 20
8.068364182
 30
0.0
 10
11.7253765391
 20
8.0561733558
 30
0.0
 10
11.7286081394
 20
8.0379833554
 30
0.0
 10
11.7326106344
 20
8.019895581
 30
0.0
 10
11.737376506
 20
8.00194406
 30
0.0
 10
11.7428969466
 20
7.9841619501
 30
0.0
 10
11.7491616041
 20
7.9665823626
 30
0.0
 10
11.756159036
 20
7.9492375541
 30
0.0
 10
11.7664555488
 20
7.9264514442
 30
0.0
 10
11.781093717
 20
7.8987185577
 30
0.0
 10
11.8013315565
 20
7.8669167268
 30
0.0
 10
11.8241097515
 20
7.836792111
 30
0.0
 10
11.8492588061
 20
7.8085691667
 30
0.0
 10
11.8765927268
 20
7.7824564234
 30
0.0
 10
11.9059089868
 20
7.758647385
 30
0.0
 10
11.936991077
 20
7.7373182817
 30
0.0
 10
11.9696073887
 20
7.7186278644
 30
0.0
 10
11.9979007864
 20
7.7053507239
 30
0.0
 10
12.0210574086
 20
7.69618181
 30
0.0
 10
12.0386376162
 20
7.6900479223
 30
0.0
 10
12.0564130325
 20
7.6846623743
 30
0.0
 10
12.074351152
 20
7.6800349749
 30
0.0
 10
12.0924181665
 20
7.6761744585
 30
0.0
 10
12.1045448493
 20
7.6741137435
 30
0.0
 10
12.1106179999
 20
7.6732139737
 30
0.0
  0
SPLINE
  5
336
100
AcDbEntity
  8
0
100
AcDbSpline
 62
7
  6
CONTINUOUS
 70
0
 71
3
 72
15
 73
11
 74
0
 42
0.0000001
 43
0.0000001
 44
0.0000000001
 40
0.0
 40
0.0
 40
0.0
 40
0.0
 40
0.1271216887
 40
0.253536792
 40
0.3792747291
 40
0.504381299
 40
0.6289207619
 40
0.7529727786
 40
0.8766309282
 40
1.0
 40
1.0
 40
1.0
 40
1.0
 10
9.4688209327
 20
8.449791319
 30
0.0
 10
9.4688209327
 20
8.4528283222
 30
0.0
 10
9.4690657759
 20
8.4588884191
 30
0.0
 10
9.4701725598
 20
8.4678914875
 30
0.0
 10
9.47201071
 20
8.476725756
 30
0.0
 10
9.47456836
 20
8.4853324452
 30
0.0
 10
9.4778288047
 20
8.4936551269
 30
0.0
 10
9.481770908
 20
8.50163919
 30
0.0
 10
9.4863683228
 20
8.5092314136
 30
0.0
 10
9.4898543865
 20
8.5140041791
 30
0.0
 10
9.4916943556
 20
8.5163066545
 30
0.0
  0
SPLINE
  5
337
100
AcDbEntity
  8
0
100
AcDbSpline
 62
7
  6
CONTINUOUS
 70
0
 71
3
 72
11
 73
7
 74
0
 42
0.0000001
 43
0.0000001
 44
0.0000000001
 40
0.0
 40
0.0
 40
0.0
 40
0.0
 40
0.2521166104
 40
0.502770238
 40
0.7520309273
 40
1.0
 40
1.0
 40
1.0
 40
1.0
 10
9.3883766668
 20
8.4497913144
 30
0.0
 10
9.3883766668
 20
8.4550679983
 30
0.0
 10
9.3888204712
 20
8.4655963193
 30
0.0
 10
9.3908270958
 20
8.4812264789
 30
0.0
 10
9.3941579993
 20
8.4965402754
 30
0.0
 10
9.3972547033
 20
8.5064922278
 30
0.0
 10
9.3990144122
 20
8.5113746715
 30
0.0
  0
SPLINE
  5
338
100
AcDbEntity
  8
0
100
AcDbSpline
 62
7
  6
CONTINUOUS
 70
0
 71
3
 72
39
 73
35
 74
0
 42
0.0000001
 43
0.0000001
 44
0.0000000001
 40
0.0
 40
0.0
 40
0.0
 40
0.0
 40
0.0308034315
 40
0.0617361377
 40
0.0927937243
 40
0.1239726676
 40
0.1552661536
 40
0.1866663848
 40
0.2181638762
 40
0.2497478556
 40
0.2814063571
 40
0.3131264056
 40
0.3448941985
 40
0.3766952929
 40
0.4085148013
 40
0.4403375901
 40
0.472148481
 40
0.5039324535
 40
0.5356748467
 40
0.567361558
 40
0.5989792336
 40
0.6305154535
 40
0.6619589062
 40
0.6932995525
 40
0.7245287763
 40
0.7556395217
 40
0.7866264098
 40
0.8174858336
 40
0.8482160322
 40
0.8788171385
 40
0.9092912008
 40
0.9396421764
 40
0.9698758966
 40
1.0
 40
1.0
 40
1.0
 40
1.0
 10
9.3883766668
 20
8.4497913144
 30
0.0
 10
9.3883766668
 20
8.4459801436
 30
0.0
 10
9.3886092492
 20
8.4383398307
 30
0.0
 10
9.3896493118
 20
8.4268995167
 30
0.0
 10
9.3913775399
 20
8.4154954174
 30
0.0
 10
9.3937873556
 20
8.4041702153
 30
0.0
 10
9.3968699334
 20
8.3929654089
 30
0.0
 10
9.4006138116
 20
8.3819223502
 30
0.0
 10
9.4050051815
 20
8.3710816974
 30
0.0
 10
9.4100278244
 20
8.3604833868
 30
0.0
 10
9.4156632066
 20
8.3501664502
 30
0.0
 10
9.4218905389
 20
8.3401688813
 30
0.0
 10
9.428686861
 20
8.3305274973
 30
0.0
 10
9.4360271241
 20
8.3212778047
 30
0.0
 10
9.4438842827
 20
8.3124538703
 30
0.0
 10
9.4522293929
 20
8.3040881967
 30
0.0
 10
9.4610317187
 20
8.2962116047
 30
0.0
 10
9.4702588406
 20
8.288853116
 30
0.0
 10
9.4798767727
 20
8.2820398432
 30
0.0
 10
9.4898500938
 20
8.2757968983
 30
0.0
 10
9.5001420753
 20
8.270147299
 30
0.0
 10
9.5107148152
 20
8.2651118857
 30
0.0
 10
9.5215293756
 20
8.2607092441
 30
0.0
 10
9.5325459247
 20
8.2569556378
 30
0.0
 10
9.5437238812
 20
8.2538649468
 30
0.0
 10
9.5550220608
 20
8.251448605
 30
0.0
 10
9.5663988303
 20
8.2497155691
 30
0.0
 10
9.57781226
 20
8.2486722845
 30
0.0
 10
9.5892202717
 20
8.248322658
 30
0.0
 10
9.6005808101
 20
8.248668049
 30
0.0
 10
9.6118519301
 20
8.2497072387
 30
0.0
 10
9.6229921958
 20
8.2514365167
 30
0.0
 10
9.633959926
 20
8.2538493747
 30
0.0
 10
9.6411434288
 20
8.2559117703
 30
0.0
 10
9.6446913389
 20
8.2570535941
 30
0.0
  0
SPLINE
  5
339
100
AcDbEntity
  8
0
100
AcDbSpline
 62
7
  6
CONTINUOUS
 70
0
 71
3
 72
39
 73
35
 74
0
 42
0.0000001
 43
0.0000001
 44
0.0000000001
 40
0.0
 40
0.0
 40
0.0
 40
0.0
 40
0.0299262832
 40
0.0599105787
 40
0.0899724466
 40
0.1201297663
 40
0.1503983675
 40
0.1807917165
 40
0.2113206606
 40
0.241993238
 40
0.2728145508
 40
0.3037867045
 40
0.3349088091
 40
0.3661770389
 40
0.3975847477
 40
0.4291226322
 40
0.4607789412
 40
0.4925397233
 40
0.5243891052
 40
0.5563095986
 40
0.5882824278
 40
0.6202878749
 40
0.6523056366
 40
0.6843151884
 40
0.7162961522
 40
0.7482286619
 40
0.7800937244
 40
0.8118735628
 40
0.8435519698
 40
0.8751145378
 40
0.9065492123
 40
0.9378457503
 40
0.9689979457
 40
1.0
 40
1.0
 40
1.0
 40
1.0
 10
9.6527949461
 20
8.3494862648
 30
0.0
 10
9.6507390371
 20
8.347957829
 30
0.0
 10
9.6465061812
 20
8.3450519571
 30
0.0
 10
9.6398413372
 20
8.3411781427
 30
0.0
 10
9.6328876915
 20
8.3378040113
 30
0.0
 10
9.6256802537
 20
8.3349466178
 30
0.0
 10
9.6182547079
 20
8.3326199883
 30
0.0
 10
9.6106479611
 20
8.3308356213
 30
0.0
 10
9.6028977605
 20
8.3296022828
 30
0.0
 10
9.5950425577
 20
8.3289260086
 30
0.0
 10
9.5871213032
 20
8.3288100671
 30
0.0
 10
9.5791732572
 20
8.3292549508
 30
0.0
 10
9.571237796
 20
8.3302583766
 30
0.0
 10
9.5633542183
 20
8.3318153003
 30
0.0
 10
9.5555615535
 20
8.3339179446
 30
0.0
 10
9.54789837
 20
8.3365558374
 30
0.0
 10
9.5404025856
 20
8.3397158635
 30
0.0
 10
9.5331112832
 20
8.3433823344
 30
0.0
 10
9.5260605297
 20
8.3475370657
 30
0.0
 10
9.5192851998
 20
8.3521594675
 30
0.0
 10
9.5128188057
 20
8.3572266452
 30
0.0
 10
9.5066933337
 20
8.3627135126
 30
0.0
 10
9.500939087
 20
8.3685929145
 30
0.0
 10
9.4955845379
 20
8.3748357602
 30
0.0
 10
9.4906561887
 20
8.3814111662
 30
0.0
 10
9.4861784376
 20
8.3882866047
 30
0.0
 10
9.4821734615
 20
8.3954280653
 30
0.0
 10
9.4786611038
 20
8.4028002231
 30
0.0
 10
9.4756587911
 20
8.4103666061
 30
0.0
 10
9.4731814077
 20
8.4180897962
 30
0.0
 10
9.4712413144
 20
8.4259315227
 30
0.0
 10
9.4698480991
 20
8.4338531618
 30
0.0
 10
9.4690088381
 20
8.4418149185
 30
0.0
 10
9.4688209327
 20
8.4471374172
 30
0.0
 10
9.4688209327
 20
8.449791319
 30
0.0
  0
SPLINE
  5
33A
100
AcDbEntity
  8
0
100
AcDbSpline
 62
7
  6
CONTINUOUS
 70
0
 71
3
 72
41
 73
37
 74
0
 42
0.0000001
 43
0.0000001
 44
0.0000000001
 40
0.0
 40
0.0
 40
0.0
 40
0.0
 40
0.0310574158
 40
0.0622700313
 40
0.0936334633
 40
0.1251393316
 40
0.1567766912
 40
0.1885318616
 40
0.2203888104
 40
0.2523294893
 40
0.2843342042
 40
0.3163820098
 40
0.348451124
 40
0.3805193518
 40
0.4125645155
 40
0.4445648839
 40
0.4764995971
 40
0.5083490776
 40
0.5400954236
 40
0.5717227787
 40
0.6032176723
 40
0.6345693194
 40
0.6657698755
 40
0.6968146411
 40
0.7277022097
 40
0.7584345462
 40
0.7890169944
 40
0.8194582088
 40
0.849770012
 40
0.879967167
 40
0.9100670735
 40
0.9400893909
 40
0.9550809744
 40
0.9700613372
 40
0.9850333677
 40
1.0
 40
1.0
 40
1.0
 40
1.0
 10
9.0342297222
 20
8.326711614
 30
0.0
 10
9.0342297222
 20
8.316938009
 30
0.0
 10
9.0349495928
 20
8.2973346223
 30
0.0
 10
9.0381640496
 20
8.2680200959
 30
0.0
 10
9.0434981706
 20
8.2388715189
 30
0.0
 10
9.0509232157
 20
8.2100469727
 30
0.0
 10
9.0603991278
 20
8.1817002764
 30
0.0
 10
9.0718749486
 20
8.1539832788
 30
0.0
 10
9.0852890349
 20
8.1270442518
 30
0.0
 10
9.1005694333
 20
8.1010273436
 30
0.0
 10
9.1176342605
 20
8.0760717602
 30
0.0
 10
9.1363921012
 20
8.0523110255
 30
0.0
 10
9.1567424996
 20
8.0298722638
 30
0.0
 10
9.1785765268
 20
8.0088755555
 30
0.0
 10
9.2017773511
 20
7.9894333024
 30
0.0
 10
9.2262208402
 20
7.971649619
 30
0.0
 10
9.2517762014
 20
7.9556197469
 30
0.0
 10
9.278306711
 20
7.9414295977
 30
0.0
 10
9.3056704274
 20
7.9291552904
 30
0.0
 10
9.333720937
 20
7.9188627483
 30
0.0
 10
9.3623081073
 20
7.9106072848
 30
0.0
 10
9.3912789063
 20
7.9044333629
 30
0.0
 10
9.4204782041
 20
7.9003743501
 30
0.0
 10
9.4497495893
 20
7.8984523418
 30
0.0
 10
9.4789361908
 20
7.8986779649
 30
0.0
 10
9.5078815231
 20
7.9010503504
 30
0.0
 10
9.5364303078
 20
7.9055571322
 30
0.0
 10
9.5644293271
 20
7.9121745207
 30
0.0
 10
9.5917281486
 20
7.920867282
 30
0.0
 10
9.6181803529
 20
7.9315892091
 30
0.0
 10
9.6436428194
 20
7.9442822977
 30
0.0
 10
9.6639363737
 20
7.9564544738
 30
0.0
 10
9.6795333497
 20
7.9671002579
 30
0.0
 10
9.6908974046
 20
7.9755269487
 30
0.0
 10
9.7019161087
 20
7.9843872285
 30
0.0
 10
9.7090232936
 20
7.9905765277
 30
0.0
 10
9.7125137899
 20
7.9937387714
 30
0.0
  0
SPLINE
  5
33B
100
AcDbEntity
  8
0
100
AcDbSpline
 62
7
  6
CONTINUOUS
 70
0
 71
3
 72
23
 73
19
 74
0
 42
0.0000001
 43
0.0000001
 44
0.0000000001
 40
0.0
 40
0.0
 40
0.0
 40
0.0
 40
0.0637485458
 40
0.127295972
 40
0.1906406851
 40
0.2537897915
 40
0.316748416
 40
0.3795244941
 40
0.4421274428
 40
0.5045681769
 40
0.5668591308
 40
0.6290140832
 40
0.6910480727
 40
0.7529772608
 40
0.8148187841
 40
0.8765905963
 40
0.9383113044
 40
1.0
 40
1.0
 40
1.0
 40
1.0
 10
9.0342297222
 20
8.326711614
 30
0.0
 10
9.0342297222
 20
8.3328439965
 30
0.0
 10
9.0345118718
 20
8.3450913328
 30
0.0
 10
9.0357852224
 20
8.3633923573
 30
0.0
 10
9.0379055653
 20
8.3815570952
 30
0.0
 10
9.0408682071
 20
8.3995461527
 30
0.0
 10
9.0446670308
 20
8.4173215333
 30
0.0
 10
9.0492939312
 20
8.4348452793
 30
0.0
 10
9.0547390778
 20
8.4520800993
 30
0.0
 10
9.0609909102
 20
8.4689892796
 30
0.0
 10
9.0680361467
 20
8.4855367953
 30
0.0
 10
9.0758598313
 20
8.5016873809
 30
0.0
 10
9.084445301
 20
8.517406628
 30
0.0
 10
9.0937742876
 20
8.5326610529
 30
0.0
 10
9.1038269079
 20
8.5474181177
 30
0.0
 10
9.1145818817
 20
8.5616464714
 30
0.0
 10
9.1260159088
 20
8.5753153753
 30
0.0
 10
9.1340772791
 20
8.5840379743
 30
0.0
 10
9.1382114986
 20
8.5882951261
 30
0.0
  0
SPLINE
  5
33C
100
AcDbEntity
  8
0
100
AcDbSpline
 62
7
  6
CONTINUOUS
 70
0
 71
3
 72
23
 73
19
 74
0
 42
0.0000001
 43
0.0000001
 44
0.0000000001
 40
0.0
 40
0.0
 40
0.0
 40
0.0
 40
0.0638356382
 40
0.127301092
 40
0.1904139417
 40
0.253199943
 40
0.3156955122
 40
0.3779457597
 40
0.4400033574
 40
0.5019269783
 40
0.5637795032
 40
0.625626056
 40
0.6875319481
 40
0.7495606195
 40
0.8117716505
 40
0.8742189298
 40
0.9369490542
 40
1.0
 40
1.0
 40
1.0
 40
1.0
 10
9.1969882335
 20
8.3154242729
 30
0.0
 10
9.1969882335
 20
8.3220674099
 30
0.0
 10
9.1975466952
 20
8.3353222402
 30
0.0
 10
9.2000714635
 20
8.3549998821
 30
0.0
 10
9.2042631287
 20
8.3742810976
 30
0.0
 10
9.2100923041
 20
8.3930263345
 30
0.0
 10
9.217517695
 20
8.4111019589
 30
0.0
 10
9.2264865349
 20
8.4283784957
 30
0.0
 10
9.2369349392
 20
8.4447322649
 30
0.0
 10
9.2487883616
 20
8.4600460891
 30
0.0
 10
9.261962074
 20
8.4742102529
 30
0.0
 10
9.2763617816
 20
8.4871233321
 30
0.0
 10
9.2918843577
 20
8.4986929063
 30
0.0
 10
9.3084186599
 20
8.5088362409
 30
0.0
 10
9.3258461025
 20
8.5174809198
 30
0.0
 10
9.3440423802
 20
8.5245654724
 30
0.0
 10
9.3628753723
 20
8.5300392659
 30
0.0
 10
9.3757354024
 20
8.5325826769
 30
0.0
 10
9.3822211687
 20
8.5335765662
 30
0.0
  0
SPLINE
  5
33D
100
AcDbEntity
  8
0
100
AcDbSpline
 62
7
  6
CONTINUOUS
 70
0
 71
3
 72
23
 73
19
 74
0
 42
0.0000001
 43
0.0000001
 44
0.0000000001
 40
0.0
 40
0.0
 40
0.0
 40
0.0
 40
0.0638780866
 40
0.1274048104
 40
0.190595294
 40
0.2534712762
 40
0.3160640285
 40
0.3784122095
 40
0.4405612928
 40
0.5025622868
 40
0.5644703646
 40
0.6263433263
 40
0.6882399678
 40
0.7502184132
 40
0.812334472
 40
0.874640081
 40
0.9371818846
 40
1.0
 40
1.0
 40
1.0
 40
1.0
 10
9.2443297706
 20
8.3394719196
 30
0.0
 10
9.2443297706
 20
8.3452087501
 30
0.0
 10
9.2447866915
 20
8.3566563319
 30
0.0
 10
9.2468521329
 20
8.3736665869
 30
0.0
 10
9.2502826917
 20
8.3903644488
 30
0.0
 10
9.2550567872
 20
8.4066415085
 30
0.0
 10
9.2611440295
 20
8.4223936881
 30
0.0
 10
9.2685056557
 20
8.4375197855
 30
0.0
 10
9.2770946347
 20
8.4519226771
 30
0.0
 10
9.2868560029
 20
8.4655098163
 30
0.0
 10
9.2977271863
 20
8.4781939004
 30
0.0
 10
9.3096384275
 20
8.4898934364
 30
0.0
 10
9.3225132287
 20
8.5005332857
 30
0.0
 10
9.3362689049
 20
8.5100451735
 30
0.0
 10
9.3508169677
 20
8.5183680984
 30
0.0
 10
9.3660643457
 20
8.5254488744
 30
0.0
 10
9.3819116454
 20
8.5312419152
 30
0.0
 10
9.3927864632
 20
8.5342146556
 30
0.0
 10
9.3982852225
 20
8.53547628
 30
0.0
  0
SPLINE
  5
33E
100
AcDbEntity
  8
0
100
AcDbSpline
 62
7
  6
CONTINUOUS
 70
0
 71
3
 72
21
 73
17
 74
0
 42
0.0000001
 43
0.0000001
 44
0.0000000001
 40
0.0
 40
0.0
 40
0.0
 40
0.0
 40
0.1273176899
 40
0.2537999351
 40
0.3167619508
 40
0.3795355113
 40
0.4421314924
 40
0.5045621415
 40
0.5668413449
 40
0.6289845255
 40
0.6910084484
 40
0.7529310939
 40
0.814771448
 40
0.8765493308
 40
0.9382852181
 40
1.0
 40
1.0
 40
1.0
 40
1.0
 10
9.2796259711
 20
8.3447462026
 30
0.0
 10
9.2796259711
 20
8.3507364099
 30
0.0
 10
9.2801977722
 20
8.3626852283
 30
0.0
 10
9.2823573039
 20
8.3774565495
 30
0.0
 10
9.2849384023
 20
8.3890433605
 30
0.0
 10
9.2872922295
 20
8.3975897998
 30
0.0
 10
9.2900613668
 20
8.4059843753
 30
0.0
 10
9.2932394296
 20
8.4142079745
 30
0.0
 10
9.2968190912
 20
8.4222415776
 30
0.0
 10
9.3007921696
 20
8.4300666439
 30
0.0
 10
9.305149474
 20
8.4376651358
 30
0.0
 10
9.3098809557
 20
8.4450195417
 30
0.0
 10
9.314975749
 20
8.4521128441
 30
0.0
 10
9.3204221364
 20
8.4589287525
 30
0.0
 10
9.3262073161
 20
8.4654513588
 30
0.0
 10
9.3302818964
 20
8.4695949062
 30
0.0
 10
9.3323703444
 20
8.4716122045
 30
0.0
  0
SPLINE
  5
33F
100
AcDbEntity
  8
0
100
AcDbSpline
 62
7
  6
CONTINUOUS
 70
0
 71
3
 72
39
 73
35
 74
0
 42
0.0000001
 43
0.0000001
 44
0.0000000001
 40
0.0
 40
0.0
 40
0.0
 40
0.0
 40
0.0313078535
 40
0.0628116495
 40
0.0945020872
 40
0.1263628551
 40
0.1583723983
 40
0.1905044215
 40
0.2227287691
 40
0.2550124094
 40
0.2873204793
 40
0.3196173606
 40
0.3518677791
 40
0.3840378981
 40
0.4160963737
 40
0.4480153573
 40
0.4797714252
 40
0.5113463823
 40
0.5427279459
 40
0.5739102587
 40
0.6048941968
 40
0.6356874823
 40
0.6663045304
 40
0.6967660574
 40
0.727098437
 40
0.7573327991
 40
0.7875039323
 40
0.8176490002
 40
0.847806151
 40
0.8780130772
 40
0.9083055939
 40
0.9387163172
 40
0.9692734856
 40
1.0
 40
1.0
 40
1.0
 40
1.0
 10
9.1969882335
 20
8.3154242729
 30
0.0
 10
9.1969882335
 20
8.3081135657
 30
0.0
 10
9.1976687923
 20
8.2934377355
 30
0.0
 10
9.2006995533
 20
8.271550638
 30
0.0
 10
9.2057169368
 20
8.2498979041
 30
0.0
 10
9.212677807
 20
8.228666308
 30
0.0
 10
9.2215223527
 20
8.2080358799
 30
0.0
 10
9.2321750222
 20
8.1881823333
 30
0.0
 10
9.2445448394
 20
8.1692744586
 30
0.0
 10
9.2585263641
 20
8.1514730731
 30
0.0
 10
9.2740005815
 20
8.1349296423
 30
0.0
 10
9.2908357337
 20
8.1197848729
 30
0.0
 10
9.3088886534
 20
8.1061677424
 30
0.0
 10
9.328005789
 20
8.0941942631
 30
0.0
 10
9.3480245337
 20
8.0839665099
 30
0.0
 10
9.3687746565
 20
8.0755719323
 30
0.0
 10
9.3900795838
 20
8.0690823287
 30
0.0
 10
9.4117579904
 20
8.0645534762
 30
0.0
 10
9.4336252481
 20
8.0620245645
 30
0.0
 10
9.4554949684
 20
8.06151769
 30
0.0
 10
9.4771805846
 20
8.0630379265
 30
0.0
 10
9.4984969013
 20
8.0665729318
 30
0.0
 10
9.5192616955
 20
8.0720931476
 30
0.0
 10
9.5392972302
 20
8.0795520699
 30
0.0
 10
9.5584319002
 20
8.0888863205
 30
0.0
 10
9.5765016425
 20
8.100016456
 30
0.0
 10
9.5933514647
 20
8.1128474179
 30
0.0
 10
9.6088368945
 20
8.127269352
 30
0.0
 10
9.6228251125
 20
8.1431587243
 30
0.0
 10
9.6351963932
 20
8.1603792564
 30
0.0
 10
9.6458449325
 20
8.1787830702
 30
0.0
 10
9.6546799839
 20
8.1982130152
 30
0.0
 10
9.6616260155
 20
8.2185000797
 30
0.0
 10
9.6649495233
 20
8.2324455041
 30
0.0
 10
9.6662814539
 20
8.2394957516
 30
0.0
  0
SPLINE
  5
340
100
AcDbEntity
  8
0
100
AcDbSpline
 62
7
  6
CONTINUOUS
 70
0
 71
3
 72
50
 73
46
 74
0
 42
0.0000001
 43
0.0000001
 44
0.0000000001
 40
0.0
 40
0.0
 40
0.0
 40
0.0
 40
0.0040028513
 40
0.0076569062
 40
0.0110032154
 40
0.0140846712
 40
0.0169457208
 40
0.0196325621
 40
0.022191856
 40
0.0246692764
 40
0.0271081872
 40
0.0295475667
 40
0.0320208989
 40
0.0345563414
 40
0.0398917675
 40
0.0456785048
 40
0.0519785135
 40
0.0588143038
 40
0.0661910193
 40
0.0740992807
 40
0.0825246833
 40
0.0914513926
 40
0.1008592146
 40
0.1107307555
 40
0.1210493908
 40
0.1317967934
 40
0.1545174024
 40
0.1787842393
 40
0.2045037802
 40
0.2315999903
 40
0.2600117453
 40
0.2896917214
 40
0.3206042473
 40
0.3527263231
 40
0.3860438085
 40
0.420555663
 40
0.4562684859
 40
0.5313880204
 40
0.6117050291
 40
0.6977572873
 40
0.7903886073
 40
0.8395322307
 40
0.8907847714
 40
0.9442817684
 40
1.0
 40
1.0
 40
1.0
 40
1.0
 10
10.9750284789
 20
8.1995079592
 30
0.0
 10
10.9748471453
 20
8.1995555922
 30
0.0
 10
10.9745031567
 20
8.1996584083
 30
0.0
 10
10.9740221491
 20
8.1998450851
 30
0.0
 10
10.97359838
 20
8.2000550244
 30
0.0
 10
10.9732290914
 20
8.2002865666
 30
0.0
 10
10.9729118558
 20
8.2005384783
 30
0.0
 10
10.9726443941
 20
8.2008093977
 30
0.0
 10
10.972424378
 20
8.2010978351
 30
0.0
 10
10.972249878
 20
8.2014025712
 30
0.0
 10
10.9721189489
 20
8.2017222889
 30
0.0
 10
10.9720294172
 20
8.2020556676
 30
0.0
 10
10.9719791647
 20
8.202401652
 30
0.0
 10
10.971961942
 20
8.2028866578
 30
0.0
 10
10.9720348077
 20
8.2035258765
 30
0.0
 10
10.9722503401
 20
8.204315267
 30
0.0
 10
10.9725845115
 20
8.2051379467
 30
0.0
 10
10.9730278057
 20
8.2059915431
 30
0.0
 10
10.9735730437
 20
8.2068734775
 30
0.0
 10
10.9742132577
 20
8.2077815796
 30
0.0
 10
10.9749425838
 20
8.2087137177
 30
0.0
 10
10.975755847
 20
8.2096678332
 30
0.0
 10
10.9766480999
 20
8.2106424371
 30
0.0
 10
10.9776152115
 20
8.2116359505
 30
0.0
 10
10.9786534227
 20
8.212647045
 30
0.0
 10
10.9801558418
 20
8.2140432749
 30
0.0
 10
10.9821943175
 20
8.2158212063
 30
0.0
 10
10.9848337375
 20
8.2179738135
 30
0.0
 10
10.987693295
 20
8.2201784981
 30
0.0
 10
10.9907592244
 20
8.2224316445
 30
0.0
 10
10.9940205581
 20
8.2247307343
 30
0.0
 10
10.9974685725
 20
8.2270741023
 30
0.0
 10
11.0010965561
 20
8.2294609036
 30
0.0
 10
11.0048996078
 20
8.2318908103
 30
0.0
 10
11.0088744627
 20
8.2343642855
 30
0.0
 10
11.0130194636
 20
8.2368821063
 30
0.0
 10
11.0188721342
 20
8.2403593499
 30
0.0
 10
11.0266311104
 20
8.2448274013
 30
0.0
 10
11.0365182041
 20
8.2503218277
 30
0.0
 10
11.0472011365
 20
8.2560703604
 30
0.0
 10
11.0566612656
 20
8.2610081483
 30
0.0
 10
11.0647149026
 20
8.2651166428
 30
0.0
 10
11.0711575239
 20
8.2683491909
 30
0.0
 10
11.0778998113
 20
8.271670718
 30
0.0
 10
11.0825075582
 20
8.2738926747
 30
0.0
 10
11.0848640056
 20
8.2750142069
 30
0.0
  0
SPLINE
  5
341
100
AcDbEntity
  8
0
100
AcDbSpline
 62
7
  6
CONTINUOUS
 70
0
 71
3
 72
39
 73
35
 74
0
 42
0.0000001
 43
0.0000001
 44
0.0000000001
 40
0.0
 40
0.0
 40
0.0
 40
0.0
 40
0.031292982
 40
0.0627771844
 40
0.0944441486
 40
0.1262785571
 40
0.1582603527
 40
0.1903649451
 40
0.2225640626
 40
0.2548266284
 40
0.2871196923
 40
0.3194094095
 40
0.3516620326
 40
0.3838449055
 40
0.4159274314
 40
0.4478819972
 40
0.4796848364
 40
0.5113168045
 40
0.5427640336
 40
0.5740184559
 40
0.6050781725
 40
0.6359476235
 40
0.6666375559
 40
0.6971647821
 40
0.7275517035
 40
0.7578256093
 40
0.7880177791
 40
0.8181624083
 40
0.8482953968
 40
0.8784530637
 40
0.9086708414
 40
0.9389820076
 40
0.9694165221
 40
1.0
 40
1.0
 40
1.0
 40
1.0
 10
9.2443297706
 20
8.3394719196
 30
0.0
 10
9.2443297706
 20
8.3329696366
 30
0.0
 10
9.2449203161
 20
8.3199179937
 30
0.0
 10
9.2475511308
 20
8.3004462756
 30
0.0
 10
9.2519076711
 20
8.2811701153
 30
0.0
 10
9.2579543358
 20
8.2622478568
 30
0.0
 10
9.2656416703
 20
8.2438323558
 30
0.0
 10
9.2749070418
 20
8.2260729506
 30
0.0
 10
9.2856751451
 20
8.2091134714
 30
0.0
 10
9.2978585823
 20
8.1930913297
 30
0.0
 10
9.3113584917
 20
8.1781362957
 30
0.0
 10
9.3260654422
 20
8.1643695496
 30
0.0
 10
9.3418602982
 20
8.1519027295
 30
0.0
 10
9.3586150939
 20
8.1408369526
 30
0.0
 10
9.3761941029
 20
8.1312620435
 30
0.0
 10
9.3944549427
 20
8.1232558703
 30
0.0
 10
9.4132496659
 20
8.1168836665
 30
0.0
 10
9.4324259251
 20
8.1121974356
 30
0.0
 10
9.4518282233
 20
8.1092356292
 30
0.0
 10
9.4712991263
 20
8.1080228183
 30
0.0
 10
9.4906805069
 20
8.1085693416
 30
0.0
 10
9.5098148329
 20
8.1108712825
 30
0.0
 10
9.5285464178
 20
8.1149105032
 30
0.0
 10
9.5467226933
 20
8.1206546586
 30
0.0
 10
9.5641954913
 20
8.1280573949
 30
0.0
 10
9.5808222486
 20
8.137058789
 30
0.0
 10
9.5964671998
 20
8.1475857753
 30
0.0
 10
9.6110026115
 20
8.15955263
 30
0.0
 10
9.6243098176
 20
8.1728617703
 30
0.0
 10
9.6362802213
 20
8.1874046421
 30
0.0
 10
9.6468162319
 20
8.203062331
 30
0.0
 10
9.655832318
 20
8.2197075063
 30
0.0
 10
9.663254716
 20
8.2372022195
 30
0.0
 10
9.6670916603
 20
8.2493095251
 30
0.0
 10
9.6687276324
 20
8.2554501931
 30
0.0
  0
SPLINE
  5
342
100
AcDbEntity
  8
0
100
AcDbSpline
 62
7
  6
CONTINUOUS
 70
0
 71
3
 72
71
 73
67
 74
0
 42
0.0000001
 43
0.0000001
 44
0.0000000001
 40
0.0
 40
0.0
 40
0.0
 40
0.0
 40
0.0155843203
 40
0.0311158961
 40
0.0465952665
 40
0.0620238797
 40
0.0774034496
 40
0.0927362829
 40
0.1080251227
 40
0.1232731731
 40
0.1384840551
 40
0.1536617759
 40
0.1688106896
 40
0.1839354531
 40
0.1990409785
 40
0.2141323827
 40
0.2292149327
 40
0.2442939903
 40
0.2593749546
 40
0.2744632045
 40
0.2895640408
 40
0.3046826302
 40
0.3198239505
 40
0.334992739
 40
0.3501934432
 40
0.3654301766
 40
0.380706678
 40
0.3960262753
 40
0.4113918556
 40
0.426805839
 40
0.4422701592
 40
0.4577862487
 40
0.4733550295
 40
0.4889769099
 40
0.5046517847
 40
0.5203790425
 40
0.5361575757
 40
0.551985796
 40
0.5678616538
 40
0.5837826612
 40
0.5997459179
 40
0.6157481417
 40
0.6317857
 40
0.647854645
 40
0.6639507506
 40
0.6800695513
 40
0.6962063819
 40
0.7123564197
 40
0.7285147267
 40
0.7446762929
 40
0.7608360799
 40
0.7769890647
 40
0.7931302836
 40
0.8092548753
 40
0.825358124
 40
0.8414355011
 40
0.8574827061
 40
0.8734957055
 40
0.8894707708
 40
0.9054045124
 40
0.9212939177
 40
0.9371363655
 40
0.9529297023
 40
0.9686721284
 40
0.9843625579
 40
1.0
 40
1.0
 40
1.0
 40
1.0
 10
10.1411089756
 20
8.6335408365
 30
0.0
 10
10.1411089756
 20
8.6425491623
 30
0.0
 10
10.1415498092
 20
8.6605385207
 30
0.0
 10
10.1435398551
 20
8.6874092678
 30
0.0
 10
10.1468529272
 20
8.7140592338
 30
0.0
 10
10.1514810211
 20
8.7404232771
 30
0.0
 10
10.1574131154
 20
8.7664381423
 30
0.0
 10
10.1646349407
 20
8.7920410329
 30
0.0
 10
10.1731291703
 20
8.8171702462
 30
0.0
 10
10.1828753789
 20
8.841765181
 30
0.0
 10
10.193850127
 20
8.8657665238
 30
0.0
 10
10.2060270013
 20
8.8891163833
 30
0.0
 10
10.2193766827
 20
8.9117584336
 30
0.0
 10
10.233867014
 20
8.9336380517
 30
0.0
 10
10.2494630784
 20
8.9547024511
 30
0.0
 10
10.2661272821
 20
8.9749008111
 30
0.0
 10
10.2838194449
 20
8.994184403
 30
0.0
 10
10.3024968995
 20
9.0125067079
 30
0.0
 10
10.3221145953
 20
9.0298235309
 30
0.0
 10
10.3426252083
 20
9.0460931091
 30
0.0
 10
10.3639792573
 20
9.0612762133
 30
0.0
 10
10.3861252249
 20
9.0753362435
 30
0.0
 10
10.4090096836
 20
9.0882393177
 30
0.0
 10
10.4325774268
 20
9.0999543532
 30
0.0
 10
10.4567716039
 20
9.1104531413
 30
0.0
 10
10.4815338593
 20
9.1197104147
 30
0.0
 10
10.5068044741
 20
9.1277039074
 30
0.0
 10
10.5325225122
 20
9.1344144064
 30
0.0
 10
10.5586259678
 20
9.1398257982
 30
0.0
 10
10.5850519155
 20
9.1439251064
 30
0.0
 10
10.6117366634
 20
9.1467025194
 30
0.0
 10
10.6386159065
 20
9.1481514127
 30
0.0
 10
10.6656248817
 20
9.1482683634
 30
0.0
 10
10.6926985235
 20
9.1470531562
 30
0.0
 10
10.7197716203
 20
9.1445087832
 30
0.0
 10
10.7467789707
 20
9.1406414349
 30
0.0
 10
10.7736555398
 20
9.1354604844
 30
0.0
 10
10.8003366148
 20
9.1289784638
 30
0.0
 10
10.82675796
 20
9.1212110331
 30
0.0
 10
10.8528559704
 20
9.1121769423
 30
0.0
 10
10.8785678236
 20
9.1018979852
 30
0.0
 10
10.9038316311
 20
9.0903989485
 30
0.0
 10
10.9285865861
 20
9.077707551
 30
0.0
 10
10.9527731085
 20
9.063854376
 30
0.0
 10
10.9763329877
 20
9.0488727979
 30
0.0
 10
10.9992095219
 20
9.0327989017
 30
0.0
 10
11.0213476537
 20
9.0156713966
 30
0.0
 10
11.0426941017
 20
8.9975315232
 30
0.0
 10
11.0631974883
 20
8.9784229541
 30
0.0
 10
11.0828084628
 20
8.95839169
 30
0.0
 10
11.1014798193
 20
8.9374859487
 30
0.0
 10
11.1191666098
 20
8.91575605
 30
0.0
 10
11.1358262526
 20
8.8932542952
 30
0.0
 10
11.1514186331
 20
8.8700348413
 30
0.0
 10
11.165906203
 20
8.846153573
 30
0.0
 10
11.1792540684
 20
8.8216679675
 30
0.0
 10
11.1914300735
 20
8.7966369566
 30
0.0
 10
11.2024048785
 20
8.7711207858
 30
0.0
 10
11.212152028
 20
8.7451808707
 30
0.0
 10
11.2206480206
 20
8.7188796472
 30
0.0
 10
11.2278723507
 20
8.6922804336
 30
0.0
 10
11.233807594
 20
8.6654472373
 30
0.0
 10
11.2384393707
 20
8.6384447486
 30
0.0
 10
11.2417565353
 20
8.611337691
 30
0.0
 10
11.243750954
 20
8.584192275
 30
0.0
 10
11.2441962996
 20
8.566080503
 30
0.0
 10
11.2441962996
 20
8.5570414708
 30
0.0
  0
SPLINE
  5
343
100
AcDbEntity
  8
0
100
AcDbSpline
 62
7
  6
CONTINUOUS
 70
0
 71
3
 72
23
 73
19
 74
0
 42
0.0000001
 43
0.0000001
 44
0.0000000001
 40
0.0
 40
0.0
 40
0.0
 40
0.0
 40
0.063776909
 40
0.1273449468
 40
0.1907019575
 40
0.2538561145
 40
0.3168131979
 40
0.3795820804
 40
0.4421733815
 40
0.5045993354
 40
0.5668738682
 40
0.6290123838
 40
0.6910316538
 40
0.75294965
 40
0.8147853622
 40
0.8765586114
 40
0.9382898593
 40
1.0
 40
1.0
 40
1.0
 40
1.0
 10
9.9527534283
 20
9.4917884574
 30
0.0
 10
9.9527534283
 20
9.4963707605
 30
0.0
 10
9.9529727628
 20
9.5055219121
 30
0.0
 10
9.9539626848
 20
9.5191929644
 30
0.0
 10
9.955610933
 20
9.5327556575
 30
0.0
 10
9.9579135465
 20
9.5461781335
 30
0.0
 10
9.9608653917
 20
9.5594297149
 30
0.0
 10
9.9644596417
 20
9.5724797682
 30
0.0
 10
9.9686880286
 20
9.5852982301
 30
0.0
 10
9.9735408409
 20
9.597855541
 30
0.0
 10
9.9790069314
 20
9.6101227314
 30
0.0
 10
9.98507372
 20
9.622071506
 30
0.0
 10
9.9917272167
 20
9.6336743094
 30
0.0
 10
9.9989521012
 20
9.644904383
 30
0.0
 10
10.0067317158
 20
9.6557357856
 30
0.0
 10
10.0150482237
 20
9.6661436073
 30
0.0
 10
10.0238821054
 20
9.6761035216
 30
0.0
 10
10.0301038552
 20
9.6824307239
 30
0.0
 10
10.0332928853
 20
9.6855111038
 30
0.0
  0
SPLINE
  5
344
100
AcDbEntity
  8
0
100
AcDbSpline
 62
7
  6
CONTINUOUS
 70
0
 71
3
 72
40
 73
36
 74
0
 42
0.0000001
 43
0.0000001
 44
0.0000000001
 40
0.0
 40
0.0
 40
0.0
 40
0.0
 40
0.0310751026
 40
0.0466747499
 40
0.0623128135
 40
0.0936978535
 40
0.1252268452
 40
0.1568884395
 40
0.1886684333
 40
0.2205502276
 40
0.2525151451
 40
0.284542837
 40
0.3166116973
 40
0.3486993002
 40
0.3807828479
 40
0.4128396226
 40
0.444847439
 40
0.4767850884
 40
0.5086327693
 40
0.5403724975
 40
0.5719884894
 40
0.6034675105
 40
0.6347991821
 40
0.6659762393
 40
0.6969947303
 40
0.7278541529
 40
0.758557518
 40
0.7891113365
 40
0.8195255235
 40
0.8498132183
 40
0.8799905205
 40
0.9100761434
 40
0.9400909936
 40
0.970057685
 40
1.0
 40
1.0
 40
1.0
 40
1.0
 10
9.2796259711
 20
8.3447462026
 30
0.0
 10
9.2796259711
 20
8.340090322
 30
0.0
 10
9.2798862253
 20
8.3330936828
 30
0.0
 10
9.2807457449
 20
8.3237957405
 30
0.0
 10
9.2819501013
 20
8.3144888923
 30
0.0
 10
9.2840970177
 20
8.3029058328
 30
0.0
 10
9.2876780631
 20
8.2891835923
 30
0.0
 10
9.2922473988
 20
8.2756953524
 30
0.0
 10
9.2977797822
 20
8.2625155955
 30
0.0
 10
9.3042447536
 20
8.2497165287
 30
0.0
 10
9.3116067463
 20
8.2373684163
 30
0.0
 10
9.3198252927
 20
8.2255390028
 30
0.0
 10
9.3288552436
 20
8.2142931996
 30
0.0
 10
9.3386470146
 20
8.2036927182
 30
0.0
 10
9.3491468555
 20
8.1937957391
 30
0.0
 10
9.3602971426
 20
8.184656595
 30
0.0
 10
9.3720366919
 20
8.1763254753
 30
0.0
 10
9.3843010906
 20
8.168848153
 30
0.0
 10
9.3970230465
 20
8.1622657356
 30
0.0
 10
9.4101327526
 20
8.1566144398
 30
0.0
 10
9.4235582651
 20
8.1519253933
 30
0.0
 10
9.4372258926
 20
8.1482244634
 30
0.0
 10
9.4510605947
 20
8.1455321123
 30
0.0
 10
9.4649863886
 20
8.1438632821
 30
0.0
 10
9.4789267604
 20
8.1432273074
 30
0.0
 10
9.4928050807
 20
8.1436278578
 30
0.0
 10
9.5065450221
 20
8.1450629101
 30
0.0
 10
9.5200709763
 20
8.1475247494
 30
0.0
 10
9.5333084717
 20
8.1510000031
 30
0.0
 10
9.5461845789
 20
8.155469698
 30
0.0
 10
9.5586283429
 20
8.160909378
 30
0.0
 10
9.5705710873
 20
8.1672891417
 30
0.0
 10
9.5819471543
 20
8.1745741322
 30
0.0
 10
9.5926929705
 20
8.1827234916
 30
0.0
 10
9.5994000859
 20
8.1887054311
 30
0.0
 10
9.6026267665
 20
8.1918221847
 30
0.0
  0
SPLINE
  5
345
100
AcDbEntity
  8
0
100
AcDbSpline
 62
7
  6
CONTINUOUS
 70
0
 71
3
 72
42
 73
38
 74
0
 42
0.0000001
 43
0.0000001
 44
0.0000000001
 40
0.0
 40
0.0
 40
0.0
 40
0.0
 40
0.0149723984
 40
0.029947855
 40
0.044929411
 40
0.0599200705
 40
0.0749227797
 40
0.0899404141
 40
0.1200256603
 40
0.1502025837
 40
0.1804898973
 40
0.2109037013
 40
0.2414571355
 40
0.2721601139
 40
0.3030191474
 40
0.3340372487
 40
0.3652139147
 40
0.3965451931
 40
0.4280238196
 40
0.4596394169
 40
0.4913787493
 40
0.5232260332
 40
0.5551632855
 40
0.5871707048
 40
0.6192270819
 40
0.6513102319
 40
0.6833974375
 40
0.7154659008
 40
0.7474931963
 40
0.7794577183
 40
0.8113391169
 40
0.8431187185
 40
0.8747799153
 40
0.906308527
 40
0.9376931747
 40
0.9689251987
 40
1.0
 40
1.0
 40
1.0
 40
1.0
 10
9.7126364677
 20
7.9936014996
 30
0.0
 10
9.7092062282
 20
7.9902881313
 30
0.0
 10
9.7022125356
 20
7.983796338
 30
0.0
 10
9.6913421379
 20
7.9744822181
 30
0.0
 10
9.6801057382
 20
7.9656032954
 30
0.0
 10
9.6685190305
 20
7.9571720922
 30
0.0
 10
9.6565976666
 20
7.9492000041
 30
0.0
 10
9.6402710218
 20
7.9391926926
 30
0.0
 10
9.6190969777
 20
7.927881286
 30
0.0
 10
9.5926426231
 20
7.9163170633
 30
0.0
 10
9.565268308
 20
7.9068144405
 30
0.0
 10
9.5371259018
 20
7.8994261232
 30
0.0
 10
9.5083701744
 20
7.8941922683
 30
0.0
 10
9.4791595311
 20
7.8911413236
 30
0.0
 10
9.4496546884
 20
7.8902896826
 30
0.0
 10
9.4200179218
 20
7.8916416877
 30
0.0
 10
9.3904121434
 20
7.8951895115
 30
0.0
 10
9.3610000161
 20
7.9009132927
 30
0.0
 10
9.3319430785
 20
7.9087812834
 30
0.0
 10
9.3034008732
 20
7.9187500042
 30
0.0
 10
9.2755300559
 20
7.9307644279
 30
0.0
 10
9.2484835731
 20
7.9447583761
 30
0.0
 10
9.222409847
 20
7.9606548808
 30
0.0
 10
9.1974519393
 20
7.9783665441
 30
0.0
 10
9.1737467734
 20
7.9977960314
 30
0.0
 10
9.1514244278
 20
8.0188366487
 30
0.0
 10
9.1306074338
 20
8.0413729103
 30
0.0
 10
9.1114100432
 20
8.065281105
 30
0.0
 10
9.0939376592
 20
8.090430028
 30
0.0
 10
9.0782862843
 20
8.1166816969
 30
0.0
 10
9.0645419684
 20
8.1438920793
 30
0.0
 10
9.0527802912
 20
8.1719118374
 30
0.0
 10
9.043066026
 20
8.2005872474
 30
0.0
 10
9.0354527727
 20
8.2297607793
 30
0.0
 10
9.0299826598
 20
8.259272781
 30
0.0
 10
9.026685913
 20
8.2889590987
 30
0.0
 10
9.0259475194
 20
8.3088133452
 30
0.0
 10
9.0259475194
 20
8.3187116199
 30
0.0
  0
SPLINE
  5
346
100
AcDbEntity
  8
0
100
AcDbSpline
 62
7
  6
CONTINUOUS
 70
0
 71
3
 72
23
 73
19
 74
0
 42
0.0000001
 43
0.0000001
 44
0.0000000001
 40
0.0
 40
0.0
 40
0.0
 40
0.0
 40
0.063776909
 40
0.1273449468
 40
0.1907019575
 40
0.2538561145
 40
0.3168131979
 40
0.3795820804
 40
0.4421733815
 40
0.5045993354
 40
0.5668738682
 40
0.6290123838
 40
0.6910316538
 40
0.75294965
 40
0.8147853622
 40
0.8765586114
 40
0.9382898593
 40
1.0
 40
1.0
 40
1.0
 40
1.0
 10
11.4016421384
 20
8.5461225647
 30
0.0
 10
11.4016421384
 20
8.5507048679
 30
0.0
 10
11.4018614729
 20
8.5598560195
 30
0.0
 10
11.4028513949
 20
8.5735270718
 30
0.0
 10
11.4044996432
 20
8.5870897649
 30
0.0
 10
11.4068022566
 20
8.6005122409
 30
0.0
 10
11.4097541019
 20
8.6137638222
 30
0.0
 10
11.4133483518
 20
8.6268138755
 30
0.0
 10
11.4175767388
 20
8.6396323374
 30
0.0
 10
11.422429551
 20
8.6521896484
 30
0.0
 10
11.4278956415
 20
8.6644568388
 30
0.0
 10
11.4339624302
 20
8.6764056133
 30
0.0
 10
11.4406159268
 20
8.6880084168
 30
0.0
 10
11.4478408114
 20
8.6992384904
 30
0.0
 10
11.455620426
 20
8.710069893
 30
0.0
 10
11.4639369339
 20
8.7204777147
 30
0.0
 10
11.4727708155
 20
8.730437629
 30
0.0
 10
11.4789925653
 20
8.7367648313
 30
0.0
 10
11.4821815955
 20
8.7398452112
 30
0.0
  0
SPLINE
  5
347
100
AcDbEntity
  8
0
100
AcDbSpline
 62
7
  6
CONTINUOUS
 70
0
 71
3
 72
14
 73
10
 74
0
 42
0.0000001
 43
0.0000001
 44
0.0000000001
 40
0.0
 40
0.0
 40
0.0
 40
0.0
 40
0.1144446259
 40
0.2323453515
 40
0.3534949437
 40
0.4776863533
 40
0.6046878228
 40
0.7342521072
 40
1.0
 40
1.0
 40
1.0
 40
1.0
 10
10.6605675469
 20
9.032799334
 30
0.0
 10
10.661507627
 20
9.0363387041
 30
0.0
 10
10.663400439
 20
9.0435285075
 30
0.0
 10
10.6662579825
 20
9.0544730184
 30
0.0
 10
10.6691953563
 20
9.0657190318
 30
0.0
 10
10.6722303963
 20
9.0772405006
 30
0.0
 10
10.6753808699
 20
9.0890099637
 30
0.0
 10
10.6797955394
 20
9.1051297992
 30
0.0
 10
10.6832749887
 20
9.117292313
 30
0.0
 10
10.6857000641
 20
9.1254427953
 30
0.0
  0
ENDSEC
  0
SECTION
  2
OBJECTS
  0
DICTIONARY
  5
C
100
AcDbDictionary
280
0
281
1
  3
ACAD_GROUP
350
D
  3
ACAD_MLINESTYLE
350
17
  3
ACAD_LAYOUT
350
1A
  3
ACAD_PLOTSETTINGS
350
19
  3
ACAD_PLOTSTYLENAME
350
E
  3
ACAD_IMAGE_DICT
350
       349
  3
ACAD_IMAGE_VARS
350
       34A
  3
ACAD_TABLESTYLE
350
       34B
  0
IMAGEDEF_REACTOR
  5
348
100
AcDbRasterImageDefReactor
 90
2
330
280
  0
DICTIONARY
  5
D
102
{ACAD_REACTORS
330
C
102
}
100
AcDbDictionary
280
0
281
1
  0
ACDBDICTIONARYWDFLT
  5
E
102
{ACAD_REACTORS
330
C
102
}
100
AcDbDictionary
281
1
  3
Normal
350
F
100
AcDbDictionaryWithDefault
340
F
  0
DICTIONARY
  5
349
330
C
100
AcDbDictionary
281
1
  3
YTD_assy_2_img_1
350
       34E
  0
RASTERVARIABLES
  5
34A
330
C
100
AcDbRasterVariables
 90
0
 70
0
 71
1
 72
5
  0
DICTIONARY
  5
17
102
{ACAD_REACTORS
330
C
102
}
100
AcDbDictionary
280
0
281
1
  3
Standard
350
18
  0
DICTIONARY
  5
34B
330
C
100
AcDbDictionary
281
1
  3
Standard
350
       34F
  3
Standard1
350
       350
  0
DICTIONARY
  5
19
102
{ACAD_REACTORS
330
C
102
}
100
AcDbDictionary
281
1
  0
DICTIONARY
  5
1A
102
{ACAD_REACTORS
330
C
102
}
100
AcDbDictionary
281
1
  3
Model
350
34C
  3
Layout1
350
34D
  0
ACDBPLACEHOLDER
  5
F
102
{ACAD_REACTORS
330
E
102
}
  0
MLINESTYLE
  5
18
102
{ACAD_REACTORS
330
17
102
}
100
AcDbMlineStyle
  2
STANDARD
 70
0
  3

 62
256
 51
90.0
 52
90.0
 71
2
 49
0.5
 62
256
  6
BYLAYER
 49
-0.5
 62
256
  6
BYLAYER
  0
LAYOUT
  5
34C
102
{ACAD_REACTORS
330
1A
102
}
100
AcDbPlotSettings
  1

  2
none_device
  4
ANSI_C_(22.00_x_17.00_Inches)
  6

 40
0.0
 41
0.0
 42
0.0
 43
0.0
 44
558.8
 45
431.8
 46
0.0
 47
0.0
 48
0.0
 49
0.0
140
0.0
141
0.0
142
1.0
143
1.0
 70
1024
 72
0
 73
0
 74
0
  7

 75
0
147
1.0
148
0.0
149
0.0
100
AcDbLayout
  1
Model
 70
0
 71
0
 10
0.0
 20
0.0
 11
22.0
 21
17.0
 12
0.0
 22
0.0
 32
0.0
 14
0.0
 24
0.0
 34
0.0
 15
0.0
 25
0.0
 35
0.0
146
0.0
 13
0.0
 23
0.0
 33
0.0
 16
1.0
 26
0.0
 36
0.0
 17
0.0
 27
1.0
 37
0.0
 76
0
330
20F
345
0
346
0
  0
LAYOUT
  5
34D
102
{ACAD_REACTORS
330
1A
102
}
100
AcDbPlotSettings
  1

  2
none_device
  4
ANSI_C_(22.00_x_17.00_Inches)
  6

 40
0.0
 41
0.0
 42
0.0
 43
0.0
 44
558.8
 45
431.8
 46
0.0
 47
0.0
 48
0.0
 49
0.0
140
0.0
141
0.0
142
1.0
143
1.0
 70
0
 72
0
 73
0
 74
0
  7

 75
0
147
1.0
148
0.0
149
0.0
100
AcDbLayout
  1
Layout1
 70
0
 71
1
 10
0.0
 20
0.0
 11
22.0
 21
17.0
 12
0.0
 22
0.0
 32
0.0
 14
0.0
 24
0.0
 34
0.0
 15
0.0
 25
0.0
 35
0.0
146
0.0
 13
0.0
 23
0.0
 33
0.0
 16
1.0
 26
0.0
 36
0.0
 17
0.0
 27
1.0
 37
0.0
 76
0
330
210
345
0
346
0
  0
IMAGEDEF
  5
34E
102
{ACAD_REACTORS
330
349
330
348
102
}
100
AcDbRasterImageDef
 90
0
  1
YTD_assy_2_img_1.png
 10
369.0
 20
92.0
 11
0.0066666667
 21
0.0066666667
280
1
281
0
  0
TABLESTYLE
  5
34F
102
{ACAD_REACTORS
330
34B
330
283
102
}
330
34B
100
AcDbTableStyle
  3
Standard
 70
0
 71
0
 40
0.06
 41
0.06
280
1
281
1
  7
Standard
140
0.18
170
1
 62
0
 63
7
283
0
  7
Standard
140
0.18
170
1
 62
0
 63
7
283
0
  7
Standard
140
0.18
170
1
 62
0
 63
7
283
0
  0
TABLESTYLE
  5
350
102
{ACAD_REACTORS
330
34B
330
282
102
}
330
34B
100
AcDbTableStyle
  3
Standard1
 70
1
 71
0
 40
0.06
 41
0.06
280
1
281
1
  7
Standard
140
0.18
170
1
 62
0
 63
7
283
0
  7
Standard
140
0.18
170
1
 62
0
 63
7
283
0
  7
Standard
140
0.18
170
1
 62
0
 63
7
283
0
  0
ENDSEC
  0
EOF
