999
DXF file: YTA_assy_2.dxf
999
Pro/ENGINEER 2014200 by Parametric Technology Corporation
  0
SECTION
  2
HEADER
  9
$ACADVER
  1
AC1021
  9
$DWGCODEPAGE
  3
ANSI_1252
  9
$EXTMAX
 10
22.0
 20
17.0
 30
0.0
  9
$EXTMIN
 10
0.0
 20
0.0
 30
0.0
  9
$LIMMIN
 10
0.0
 20
0.0
  9
$LIMMAX
 10
22.0
 20
17.0
  9
$VIEWCTR
 10
11.0
 20
8.5
  9
$VIEWSIZE
 40
17.0
  9
$CLAYER
  8
0
  9
$LTSCALE
 40
1.21
  9
$CELTYPE
  6
BYLAYER
  9
$DIMSCALE
 40
1.0
  9
$DIMASZ
 40
0.1875
  9
$DIMEXO
 40
0.0625
  9
$DIMDLI
 40
0.836
  9
$DIMEXE
 40
0.125
  9
$DIMCEN
 40
0.198
  9
$DIMLFAC
 40
1.0
  9
$DIMBLK
  1
_FILLED
  9
$DIMTXT
 40
0.1
  9
$DIMTOL
 70
0
  9
$DIMLIM
 70
0
  9
$DIMTFAC
 40
1.0
  9
$DIMGAP
 40
0.09
  9
$DIMDSEP
 70
46
  9
$AUNITS
 70
0
  9
$PDMODE
 70
3
  9
$PDSIZE
 40
0.3125
  9
$HANDSEED
  5
376
  9
$TILEMODE
 70
1
  9
$MEASUREMENT
 70
0
  9
$INSUNITS
 70
1
  0
ENDSEC
  0
SECTION
  2
CLASSES
  0
CLASS
  1
ACDBDICTIONARYWDFLT
  2
AcDbDictionaryWithDefault
  3
AutoCAD 2000
 90
0
 91
1
280
0
281
0
  0
CLASS
  1
ACDBPLACEHOLDER
  2
AcDbPlaceHolder
  3
AutoCAD 2000
 90
0
 91
1
280
0
281
0
  0
CLASS
  1
LAYOUT
  2
AcDbLayout
  3
AutoCAD 2000
 90
0
 91
0
280
0
281
0
  0
CLASS
  1
RASTERVARIABLES
  2
AcDbRasterVariables
  3
ISM
 90
0
 91
1
280
0
281
0
  0
CLASS
  1
IMAGEDEF
  2
AcDbRasterImageDef
  3
ISM
 90
0
 91
1
280
0
281
0
  0
CLASS
  1
IMAGEDEF_REACTOR
  2
AcDbRasterImageDefReactor
  3
ISM
 90
0
 91
1
280
0
281
0
  0
CLASS
  1
IMAGE
  2
AcDbRasterImage
  3
ISM
 90
127
 91
1
280
0
281
1
  0
CLASS
  1
TABLESTYLE
  2
AcDbTableStyle
  3
ObjectDBX Classes
 90
2047
 91
1
280
0
281
0
  0
CLASS
  1
ACAD_TABLE
  2
AcDbTable
  3
ObjectDBX Classes
 90
1025
 91
3
280
0
281
1
  0
ENDSEC
  0
SECTION
  2
TABLES
  0
TABLE
  2
VPORT
  5
8
100
AcDbSymbolTable
 70
2
  0
VPORT
  5
1F4
100
AcDbSymbolTableRecord
100
AcDbViewportTableRecord
  2
*ACTIVE
 70
0
 10
0.0
 20
0.0
 11
1.0
 21
1.0
 12
11.0
 22
8.5
 13
0.0
 23
0.0
 14
1.0
 24
1.0
 15
0.0
 25
0.0
 16
0.0
 26
0.0
 36
1.0
 17
0.0
 27
0.0
 37
0.0
 40
17.0
 41
1.2941176471
 42
50.0
 43
0.0
 44
0.0
 50
0.0
 51
0.0
 71
0
 72
100
 73
1
 74
1
 75
0
 76
0
 77
0
 78
0
  0
ENDTAB
  0
TABLE
  2
LTYPE
  5
5
100
AcDbSymbolTable
 70
6
  0
LTYPE
  5
14
100
AcDbSymbolTableRecord
100
AcDbLinetypeTableRecord
  2
BYBLOCK
 70
0
  3

 72
65
 73
0
 40
0.0
  0
LTYPE
  5
15
100
AcDbSymbolTableRecord
100
AcDbLinetypeTableRecord
  2
BYLAYER
 70
0
  3

 72
65
 73
0
 40
0.0
  0
LTYPE
  5
16
100
AcDbSymbolTableRecord
100
AcDbLinetypeTableRecord
  2
CONTINUOUS
 70
64
  3
Solid line
 72
65
 73
0
 40
0.0
  0
LTYPE
  5
1F5
100
AcDbSymbolTableRecord
100
AcDbLinetypeTableRecord
  2
CENTER
 70
64
  3
____ _ ____ _ ____ _ ____ _ ____ _ ____ _ ____
 72
65
 73
4
 40
0.6
 49
0.375
 74
0
 49
-0.075
 74
0
 49
0.075
 74
0
 49
-0.075
 74
0
  0
LTYPE
  5
1F6
100
AcDbSymbolTableRecord
100
AcDbLinetypeTableRecord
  2
HIDDEN
 70
64
  3
- - - - - - - - - - - - - - - - - - - -
 72
65
 73
2
 40
0.2
 49
0.1
 74
0
 49
-0.1
 74
0
  0
LTYPE
  5
1F7
100
AcDbSymbolTableRecord
100
AcDbLinetypeTableRecord
  2
PHANTOM
 70
64
  3
_____ _ _ _____ _ _ _____ _ _ _____
 72
65
 73
6
 40
0.8
 49
0.45
 74
0
 49
-0.05
 74
0
 49
0.1
 74
0
 49
-0.05
 74
0
 49
0.1
 74
0
 49
-0.05
 74
0
  0
LTYPE
  5
1F8
100
AcDbSymbolTableRecord
100
AcDbLinetypeTableRecord
  2
DOT
 70
64
  3
. . . . . . . . . . . . . . . . . . . .
 72
65
 73
2
 40
0.2
 49
0.1
 74
0
 49
-0.1
 74
0
  0
LTYPE
  5
1F9
100
AcDbSymbolTableRecord
100
AcDbLinetypeTableRecord
  2
DASHED
 70
64
  3
- - - - - - - - - - - - - - - - - - - -
 72
65
 73
2
 40
0.2
 49
0.1
 74
0
 49
-0.1
 74
0
  0
ENDTAB
  0
TABLE
  2
LAYER
  5
2
100
AcDbSymbolTable
 70
36
  0
LAYER
  5
10
100
AcDbSymbolTableRecord
100
AcDbLayerTableRecord
  2
0
 70
0
 62
7
  6
CONTINUOUS
370
-3
390
F
  0
LAYER
  5
1FA
100
AcDbSymbolTableRecord
100
AcDbLayerTableRecord
  2
DEFAULT_1
 70
0
 62
7
  6
CENTER
370
-3
390
F
  0
LAYER
  5
1FB
100
AcDbSymbolTableRecord
100
AcDbLayerTableRecord
  2
DEFAULT_2
 70
0
 62
8
  6
HIDDEN
370
-3
390
F
  0
LAYER
  5
1FC
100
AcDbSymbolTableRecord
100
AcDbLayerTableRecord
  2
DEFAULT_3
 70
0
 62
7
  6
PHANTOM
370
-3
390
F
  0
LAYER
  5
1FD
100
AcDbSymbolTableRecord
100
AcDbLayerTableRecord
  2
DATUM_PLANES
 70
0
 62
7
  6
CONTINUOUS
370
-3
390
F
  0
LAYER
  5
1FE
100
AcDbSymbolTableRecord
100
AcDbLayerTableRecord
  2
PORT_AREAS
 70
0
 62
7
  6
CONTINUOUS
370
-3
390
F
  0
LAYER
  5
1FF
100
AcDbSymbolTableRecord
100
AcDbLayerTableRecord
  2
SUNNBOMCOSMETIC
 70
0
 62
7
  6
CONTINUOUS
370
-3
390
F
  0
LAYER
  5
200
100
AcDbSymbolTableRecord
100
AcDbLayerTableRecord
  2
SUNNBOMSTAMPING
 70
0
 62
7
  6
CONTINUOUS
370
-3
390
F
  0
LAYER
  5
201
100
AcDbSymbolTableRecord
100
AcDbLayerTableRecord
  2
THREADS
 70
0
 62
7
  6
CONTINUOUS
370
-3
390
F
  0
ENDTAB
  0
TABLE
  2
STYLE
  5
3
100
AcDbSymbolTable
 70
1
  0
STYLE
  5
11
100
AcDbSymbolTableRecord
100
AcDbTextStyleTableRecord
  2
STANDARD
 70
0
 40
0.0
 41
0.8
 50
0.0
 71
0
 42
0.2
  3
txt
  4

  0
STYLE
  5
202
100
AcDbSymbolTableRecord
100
AcDbTextStyleTableRecord
  2
TEXTSTYLE_1
 70
0
 40
0.0
 41
0.8
 50
0.0
 71
0
 42
0.2
  3
gdt
  4

  0
ENDTAB
  0
TABLE
  2
VIEW
  5
6
100
AcDbSymbolTable
 70
0
  0
ENDTAB
  0
TABLE
  2
UCS
  5
7
100
AcDbSymbolTable
 70
0
  0
ENDTAB
  0
TABLE
  2
APPID
  5
9
100
AcDbSymbolTable
 70
1
  0
APPID
  5
203
100
AcDbSymbolTableRecord
100
AcDbRegAppTableRecord
  2
ACAD
 70
0
  0
ENDTAB
  0
TABLE
  2
BLOCK_RECORD
  5
1
100
AcDbSymbolTable
 70
0
  0
BLOCK_RECORD
  5
204
100
AcDbSymbolTableRecord
100
AcDbBlockTableRecord
  2
*Model_Space
  0
BLOCK_RECORD
  5
205
100
AcDbSymbolTableRecord
100
AcDbBlockTableRecord
  2
*Paper_Space
  0
BLOCK_RECORD
  5
206
100
AcDbSymbolTableRecord
100
AcDbBlockTableRecord
  2
SUN_FIRST_THIRD_ANGLE_BL0
  0
BLOCK_RECORD
  5
207
100
AcDbSymbolTableRecord
100
AcDbBlockTableRecord
  2
*T1
  0
BLOCK_RECORD
  5
208
100
AcDbSymbolTableRecord
100
AcDbBlockTableRecord
  2
*T2
  0
BLOCK_RECORD
  5
209
100
AcDbSymbolTableRecord
100
AcDbBlockTableRecord
  2
*T3
  0
ENDTAB
  0
TABLE
  2
DIMSTYLE
  5
A
100
AcDbSymbolTable
 70
1
100
AcDbDimStyleTable
 71
0
  0
DIMSTYLE
105
20A
100
AcDbSymbolTableRecord
100
AcDbDimStyleTableRecord
  2
STANDARD
 70
0
  3

  4

 40
1.0
 41
0.1875
 42
0.0625
 43
0.38
 44
0.125
 45
0.0
 46
0.0
 47
0.001
 48
0.001
140
0.1
141
0.09
142
0.0
143
25.4
144
1.0
145
0.0
146
1.0
147
0.09
 71
0.0
 72
0.0
 73
1
 74
1
 75
0
 76
0
 77
0
 78
4
170
0
171
2
172
0
173
0
174
0
175
0
176
0
177
0
178
0
270
2
271
3
272
3
273
2
274
2
275
0
280
0
281
0
282
0
283
1
284
4
285
0
286
0
287
3
288
0
340
11
278
46
  0
ENDTAB
  0
ENDSEC
  0
SECTION
  2
BLOCKS
  0
BLOCK
  5
20
100
AcDbEntity
  8
0
100
AcDbBlockBegin
  2
*Model_Space
 70
0
 10
0.0
 20
0.0
 30
0.0
  3
*Model_Space
  1

  0
ENDBLK
  5
21
100
AcDbEntity
  8
0
100
AcDbBlockEnd
  0
BLOCK
  5
1C
100
AcDbEntity
  8
0
100
AcDbBlockBegin
  2
*Paper_Space
 70
0
 10
0.0
 20
0.0
 30
0.0
  3
*Paper_Space
  1

  0
ENDBLK
  5
1D
100
AcDbEntity
  8
0
100
AcDbBlockEnd
  0
BLOCK
  5
20B
100
AcDbEntity
  8
0
100
AcDbBlockBegin
 62
2
  6
CONTINUOUS
  2
SUN_FIRST_THIRD_ANGLE_BL0
 70
64
 10
20.4816717061
 20
1.2289683772
  3
SUN_FIRST_THIRD_ANGLE_BL0
  1

  0
TEXT
  5
20C
100
AcDbEntity
  8
0
100
AcDbText
 62
2
  6
CONTINUOUS
 10
19.4750896608
 20
1.4136269581
  7
STANDARD
 40
0.08
  1
FIRST ANGLE
 41
0.8
 72
0
100
AcDbText
  0
TEXT
  5
20D
100
AcDbEntity
  8
0
100
AcDbText
 62
2
  6
CONTINUOUS
 10
20.7842537513
 20
1.4047600029
  7
STANDARD
 40
0.08
  1
THIRD ANGLE
 41
0.8
 72
0
100
AcDbText
  0
LINE
  5
20E
100
AcDbEntity
  8
0
100
AcDbLine
 62
7
  6
CONTINUOUS
 10
19.4767170086
 20
1.1727031207
 11
19.6334271527
 21
1.1717972817
  0
LINE
  5
20F
100
AcDbEntity
  8
0
100
AcDbLine
 62
7
  6
CONTINUOUS
 10
19.6596964832
 20
1.1717972817
 11
19.6950230232
 21
1.171593082
  0
LINE
  5
210
100
AcDbEntity
  8
0
100
AcDbLine
 62
7
  6
CONTINUOUS
 10
19.7194818561
 20
1.1708914427
 11
19.8852396156
 21
1.1699333054
  0
LINE
  5
211
100
AcDbEntity
  8
0
100
AcDbLine
 62
7
  6
CONTINUOUS
 10
19.4758111696
 20
1.2723454088
 11
19.88525039
 21
1.3511534004
  0
LINE
  5
212
100
AcDbEntity
  8
0
100
AcDbLine
 62
7
  6
CONTINUOUS
 10
19.88525039
 20
1.3511534004
 11
19.8831348489
 21
0.9851647912
  0
LINE
  5
213
100
AcDbEntity
  8
0
100
AcDbLine
 62
7
  6
CONTINUOUS
 10
19.8831348489
 20
0.9851647912
 11
19.4767170086
 21
1.0658141206
  0
LINE
  5
214
100
AcDbEntity
  8
0
100
AcDbLine
 62
7
  6
CONTINUOUS
 10
19.4767170086
 20
1.0658141206
 11
19.4779056764
 21
1.2714536432
  0
CIRCLE
  5
215
100
AcDbEntity
  8
0
100
AcDbCircle
 62
7
  6
CONTINUOUS
 10
20.2068232291
 20
1.1717972817
 40
0.175742101
  0
CIRCLE
  5
216
100
AcDbEntity
  8
0
100
AcDbCircle
 62
7
  6
CONTINUOUS
 10
20.2068232291
 20
1.1717972817
 40
0.1005522074
  0
LINE
  5
217
100
AcDbEntity
  8
0
100
AcDbLine
 62
7
  6
CONTINUOUS
 10
20.2077290681
 20
1.3756110529
 11
20.2071171714
 21
1.2379342989
  0
LINE
  5
218
100
AcDbEntity
  8
0
100
AcDbLine
 62
7
  6
CONTINUOUS
 10
20.2077290681
 20
1.2016899681
 11
20.2074674401
 21
1.1428236749
  0
LINE
  5
219
100
AcDbEntity
  8
0
100
AcDbLine
 62
7
  6
CONTINUOUS
 10
20.208634907
 20
1.101141841
 11
20.2080230104
 21
0.963465087
  0
LINE
  5
21A
100
AcDbEntity
  8
0
100
AcDbLine
 62
7
  6
CONTINUOUS
 10
20.0066328138
 20
1.1745147986
 11
20.1443095678
 21
1.1739029019
  0
LINE
  5
21B
100
AcDbEntity
  8
0
100
AcDbLine
 62
7
  6
CONTINUOUS
 10
20.1832714155
 20
1.1727031207
 11
20.238153505
 21
1.172335442
  0
LINE
  5
21C
100
AcDbEntity
  8
0
100
AcDbLine
 62
7
  6
CONTINUOUS
 10
20.2756669918
 20
1.1717972817
 11
20.407916871
 21
1.1712095044
  0
CIRCLE
  5
21D
100
AcDbEntity
  8
0
100
AcDbCircle
 62
7
  6
CONTINUOUS
 10
20.7509457401
 20
1.1693297793
 40
0.1722024983
  0
CIRCLE
  5
21E
100
AcDbEntity
  8
0
100
AcDbCircle
 62
7
  6
CONTINUOUS
 10
20.7509457401
 20
1.1693297793
 40
0.0985164967
  0
LINE
  5
21F
100
AcDbEntity
  8
0
100
AcDbLine
 62
7
  6
CONTINUOUS
 10
20.7169767782
 20
1.170462078
 11
20.7825395137
 21
1.1682766535
  0
LINE
  5
220
100
AcDbEntity
  8
0
100
AcDbLine
 62
7
  6
CONTINUOUS
 10
20.8177513651
 20
1.1693297793
 11
20.947965719
 21
1.1693297793
  0
LINE
  5
221
100
AcDbEntity
  8
0
100
AcDbLine
 62
7
  6
CONTINUOUS
 10
20.6875370113
 20
1.170462078
 11
20.5573226574
 21
1.170462078
  0
LINE
  5
222
100
AcDbEntity
  8
0
100
AcDbLine
 62
7
  6
CONTINUOUS
 10
20.7486811426
 20
1.1987695462
 11
20.7486811426
 21
1.1432869085
  0
LINE
  5
223
100
AcDbEntity
  8
0
100
AcDbLine
 62
7
  6
CONTINUOUS
 10
20.7498134414
 20
1.1059210505
 11
20.7498134414
 21
0.9757066966
  0
LINE
  5
224
100
AcDbEntity
  8
0
100
AcDbLine
 62
7
  6
CONTINUOUS
 10
20.7486811426
 20
1.2338708068
 11
20.7486811426
 21
1.3640851607
  0
LINE
  5
225
100
AcDbEntity
  8
0
100
AcDbLine
 62
7
  6
CONTINUOUS
 10
21.0702539817
 20
1.2701043662
 11
21.4790138229
 21
1.3448360823
  0
LINE
  5
226
100
AcDbEntity
  8
0
100
AcDbLine
 62
7
  6
CONTINUOUS
 10
21.4790138229
 20
1.3448360823
 11
21.4790138229
 21
0.9779712941
  0
LINE
  5
227
100
AcDbEntity
  8
0
100
AcDbLine
 62
7
  6
CONTINUOUS
 10
21.4790138229
 20
0.9779712941
 11
21.069121683
 21
1.0617614
  0
LINE
  5
228
100
AcDbEntity
  8
0
100
AcDbLine
 62
7
  6
CONTINUOUS
 10
21.0702539817
 20
1.2701043662
 11
21.069121683
 21
1.0617614
  0
LINE
  5
229
100
AcDbEntity
  8
0
100
AcDbLine
 62
7
  6
CONTINUOUS
 10
21.4790138229
 20
1.1693297793
 11
21.3159628059
 21
1.1693297793
  0
LINE
  5
22A
100
AcDbEntity
  8
0
100
AcDbLine
 62
7
  6
CONTINUOUS
 10
21.2876553377
 20
1.1693297793
 11
21.2502894796
 21
1.1693297793
  0
LINE
  5
22B
100
AcDbEntity
  8
0
100
AcDbLine
 62
7
  6
CONTINUOUS
 10
21.2208497126
 20
1.1659328831
 11
21.0713862804
 21
1.1659328831
  0
LINE
  5
22C
100
AcDbEntity
  8
0
100
AcDbLine
 62
7
  6
CONTINUOUS
 10
20.4796138713
 20
1.5284908897
 11
20.4766766948
 21
0.9294458646
  0
ENDBLK
  5
22D
100
AcDbEntity
  8
0
  6
BYBLOCK
 62
0
100
AcDbBlockEnd
  0
BLOCK
  5
22E
100
AcDbEntity
  8
0
100
AcDbBlockBegin
  2
*T1
 70
1
 10
0.0
 20
0.0
  3
*T1
  1

  0
LINE
  5
22F
100
AcDbEntity
  8
0
100
AcDbLine
 62
2
  6
CONTINUOUS
 10
9.275
 20
0.0
 11
-0.0
 21
0.0
  0
LINE
  5
230
100
AcDbEntity
  8
0
100
AcDbLine
 62
2
  6
CONTINUOUS
 10
9.275
 20
0.0
 11
9.275
 21
1.25
  0
LINE
  5
231
100
AcDbEntity
  8
0
100
AcDbLine
 62
2
  6
CONTINUOUS
 10
9.275
 20
0.625
 11
-0.0
 21
0.625
  0
LINE
  5
232
100
AcDbEntity
  8
0
100
AcDbLine
 62
2
  6
CONTINUOUS
 10
9.275
 20
1.25
 11
-0.0
 21
1.25
  0
LINE
  5
233
100
AcDbEntity
  8
0
100
AcDbLine
 62
2
  6
CONTINUOUS
 10
6.8
 20
0.0
 11
6.8
 21
1.25
  0
LINE
  5
234
100
AcDbEntity
  8
0
100
AcDbLine
 62
2
  6
CONTINUOUS
 10
6.4
 20
0.0
 11
6.4
 21
0.625
  0
LINE
  5
235
100
AcDbEntity
  8
0
100
AcDbLine
 62
2
  6
CONTINUOUS
 10
5.9
 20
0.0
 11
5.9
 21
0.625
  0
LINE
  5
236
100
AcDbEntity
  8
0
100
AcDbLine
 62
2
  6
CONTINUOUS
 10
5.2
 20
0.0
 11
5.2
 21
0.625
  0
LINE
  5
237
100
AcDbEntity
  8
0
100
AcDbLine
 62
2
  6
CONTINUOUS
 10
4.1
 20
0.0
 11
4.1
 21
1.25
  0
LINE
  5
238
100
AcDbEntity
  8
0
100
AcDbLine
 62
2
  6
CONTINUOUS
 10
-0.0
 20
0.0
 11
-0.0
 21
1.25
  0
MTEXT
  5
239
100
AcDbEntity
  8
0
100
AcDbMText
 62
2
  6
CONTINUOUS
  7
STANDARD
 71
2
 72
1
 10
6.6
 20
0.325
 30
0.0
 11
1.0
 21
0.0
 31
0.0
 44
0.9
  1
2
 40
0.125
 41
0.2
  0
MTEXT
  5
23A
100
AcDbEntity
  8
0
100
AcDbMText
 62
2
  6
CONTINUOUS
  7
STANDARD
 71
2
 72
1
 10
6.15
 20
0.325
 30
0.0
 11
1.0
 21
0.0
 31
0.0
 44
0.9
  1
C
 40
0.125
 41
0.2
  0
MTEXT
  5
23B
100
AcDbEntity
  8
0
100
AcDbMText
 62
2
  6
CONTINUOUS
  7
STANDARD
 71
2
 72
1
 10
5.55
 20
0.325
 30
0.0
 11
1.0
 21
0.0
 31
0.0
 44
0.9
  1
2.000
 40
0.125
 41
1.0
  0
MTEXT
  5
23C
100
AcDbEntity
  8
0
100
AcDbMText
 62
2
  6
CONTINUOUS
  7
STANDARD
 71
2
 72
1
 10
4.65
 20
0.325
 30
0.0
 11
1.0
 21
0.0
 31
0.0
 44
0.9
  1
Oct-21-19
 40
0.125
 41
1.8
  0
MTEXT
  5
23D
100
AcDbEntity
  8
0
100
AcDbMText
 62
2
  6
CONTINUOUS
  7
STANDARD
 71
2
 72
1
 10
2.05
 20
0.4625
 30
0.0
 11
1.0
 21
0.0
 31
0.0
 44
0.9
  1
T-11A Motor mount Eaton/Char-Lynn H & S\PCross pilot
 40
0.125
 41
7.8
  0
MTEXT
  5
23E
100
AcDbEntity
  8
0
100
AcDbMText
 62
2
  6
CONTINUOUS
  7
STANDARD
 71
1
 72
1
 10
6.45
 20
0.5625
 30
0.0
 11
1.0
 21
0.0
 31
0.0
 44
0.9
  1
SHEET
 40
0.06
 41
0.48
  0
MTEXT
  5
23F
100
AcDbEntity
  8
0
100
AcDbMText
 62
2
  6
CONTINUOUS
  7
STANDARD
 71
1
 72
1
 10
5.95
 20
0.5625
 30
0.0
 11
1.0
 21
0.0
 31
0.0
 44
0.9
  1
DWG SIZE
 40
0.06
 41
0.768
  0
MTEXT
  5
240
100
AcDbEntity
  8
0
100
AcDbMText
 62
2
  6
CONTINUOUS
  7
STANDARD
 71
1
 72
1
 10
5.25
 20
0.5625
 30
0.0
 11
1.0
 21
0.0
 31
0.0
 44
0.9
  1
SCALE
 40
0.06
 41
0.48
  0
MTEXT
  5
241
100
AcDbEntity
  8
0
100
AcDbMText
 62
2
  6
CONTINUOUS
  7
STANDARD
 71
1
 72
1
 10
4.15
 20
0.5625
 30
0.0
 11
1.0
 21
0.0
 31
0.0
 44
0.9
  1
DATE
 40
0.06
 41
0.384
  0
MTEXT
  5
242
100
AcDbEntity
  8
0
100
AcDbMText
 62
2
  6
CONTINUOUS
  7
STANDARD
 71
1
 72
1
 10
0.05
 20
0.5625
 30
0.0
 11
1.0
 21
0.0
 31
0.0
 44
0.9
  1
DESCRIPTION
 40
0.06
 41
1.056
  0
MTEXT
  5
243
100
AcDbEntity
  8
0
100
AcDbMText
 62
2
  6
CONTINUOUS
  7
STANDARD
 71
2
 72
1
 10
5.45
 20
1.0375
 30
0.0
 11
1.0
 21
0.0
 31
0.0
 44
0.9
  1
ALL DIMENSIONS IN INCH\PVIEWS ARE THIRD ANGLE
 40
0.12
 41
4.224
  0
MTEXT
  5
244
100
AcDbEntity
  8
0
100
AcDbMText
 62
2
  6
CONTINUOUS
  7
STANDARD
 71
2
 72
1
 10
2.05
 20
0.95
 30
0.0
 11
1.0
 21
0.0
 31
0.0
 44
0.9
  1
YTA
 40
0.125
 41
0.6
  0
MTEXT
  5
245
100
AcDbEntity
  8
0
100
AcDbMText
 62
2
  6
CONTINUOUS
  7
STANDARD
 71
1
 72
1
 10
0.05
 20
1.1875
 30
0.0
 11
1.0
 21
0.0
 31
0.0
 44
0.9
  1
MODEL
 40
0.06
 41
0.48
  0
ENDBLK
  5
246
100
AcDbEntity
  8
0
  6
BYBLOCK
 62
0
100
AcDbBlockEnd
  0
BLOCK
  5
247
100
AcDbEntity
  8
0
100
AcDbBlockBegin
  2
*T2
 70
1
 10
0.0
 20
0.0
  3
*T2
  1

  0
LINE
  5
248
100
AcDbEntity
  8
0
100
AcDbLine
 62
2
  6
CONTINUOUS
 10
0.0
 20
0.0
 11
9.055
 21
0.0
  0
LINE
  5
249
100
AcDbEntity
  8
0
100
AcDbLine
 62
2
  6
CONTINUOUS
 10
0.0
 20
0.0
 11
0.0
 21
-1.844
  0
LINE
  5
24A
100
AcDbEntity
  8
0
100
AcDbLine
 62
2
  6
CONTINUOUS
 10
0.0
 20
-0.344
 11
9.055
 21
-0.344
  0
LINE
  5
24B
100
AcDbEntity
  8
0
100
AcDbLine
 62
2
  6
CONTINUOUS
 10
0.0
 20
-0.594
 11
9.055
 21
-0.594
  0
LINE
  5
24C
100
AcDbEntity
  8
0
100
AcDbLine
 62
2
  6
CONTINUOUS
 10
0.0
 20
-0.844
 11
9.055
 21
-0.844
  0
LINE
  5
24D
100
AcDbEntity
  8
0
100
AcDbLine
 62
2
  6
CONTINUOUS
 10
0.0
 20
-1.094
 11
9.055
 21
-1.094
  0
LINE
  5
24E
100
AcDbEntity
  8
0
100
AcDbLine
 62
2
  6
CONTINUOUS
 10
0.0
 20
-1.344
 11
9.055
 21
-1.344
  0
LINE
  5
24F
100
AcDbEntity
  8
0
100
AcDbLine
 62
2
  6
CONTINUOUS
 10
0.0
 20
-1.594
 11
9.055
 21
-1.594
  0
LINE
  5
250
100
AcDbEntity
  8
0
100
AcDbLine
 62
2
  6
CONTINUOUS
 10
0.0
 20
-1.844
 11
9.055
 21
-1.844
  0
LINE
  5
251
100
AcDbEntity
  8
0
100
AcDbLine
 62
2
  6
CONTINUOUS
 10
3.055
 20
0.0
 11
3.055
 21
-1.844
  0
LINE
  5
252
100
AcDbEntity
  8
0
100
AcDbLine
 62
2
  6
CONTINUOUS
 10
9.055
 20
0.0
 11
9.055
 21
-1.844
  0
MTEXT
  5
253
100
AcDbEntity
  8
0
100
AcDbMText
 62
2
  6
CONTINUOUS
  7
STANDARD
 71
2
 72
1
 10
1.5275
 20
-0.0995
 30
0.0
 11
1.0
 21
0.0
 31
0.0
 44
0.9
  1
Technical Data
 40
0.145
 41
3.248
  0
MTEXT
  5
254
100
AcDbEntity
  8
0
100
AcDbMText
 62
2
  6
CONTINUOUS
  7
STANDARD
 71
2
 72
1
 10
4.555
 20
-0.0995
 30
0.0
 11
1.0
 21
0.0
 31
0.0
 44
0.9
  1
U.S. Units
 40
0.145
 41
2.32
  0
MTEXT
  5
255
100
AcDbEntity
  8
0
100
AcDbMText
 62
2
  6
CONTINUOUS
  7
STANDARD
 71
2
 72
1
 10
7.555
 20
-0.0995
 30
0.0
 11
1.0
 21
0.0
 31
0.0
 44
0.9
  1
Metric Units
 40
0.145
 41
2.784
  0
MTEXT
  5
256
100
AcDbEntity
  8
0
100
AcDbMText
 62
2
  6
CONTINUOUS
  7
STANDARD
 71
2
 72
1
 10
1.5275
 20
-0.4065
 30
0.0
 11
1.0
 21
0.0
 31
0.0
 44
0.9
  1
Cavity
 40
0.125
 41
1.2
  0
MTEXT
  5
257
100
AcDbEntity
  8
0
100
AcDbMText
 62
2
  6
CONTINUOUS
  7
STANDARD
 71
2
 72
1
 10
6.055
 20
-0.4065
 30
0.0
 11
1.0
 21
0.0
 31
0.0
 44
0.9
  1
T-11A
 40
0.125
 41
1.0
  0
MTEXT
  5
258
100
AcDbEntity
  8
0
100
AcDbMText
 62
2
  6
CONTINUOUS
  7
STANDARD
 71
2
 72
1
 10
1.5275
 20
-0.6565
 30
0.0
 11
1.0
 21
0.0
 31
0.0
 44
0.9
  1
Body Features
 40
0.125
 41
2.6
  0
MTEXT
  5
259
100
AcDbEntity
  8
0
100
AcDbMText
 62
2
  6
CONTINUOUS
  7
STANDARD
 71
2
 72
1
 10
6.055
 20
-0.6565
 30
0.0
 11
1.0
 21
0.0
 31
0.0
 44
0.9
  1
Cross pilot
 40
0.125
 41
2.2
  0
MTEXT
  5
25A
100
AcDbEntity
  8
0
100
AcDbMText
 62
2
  6
CONTINUOUS
  7
STANDARD
 71
2
 72
1
 10
1.5275
 20
-0.9065
 30
0.0
 11
1.0
 21
0.0
 31
0.0
 44
0.9
  1
Body Type
 40
0.125
 41
1.8
  0
MTEXT
  5
25B
100
AcDbEntity
  8
0
100
AcDbMText
 62
2
  6
CONTINUOUS
  7
STANDARD
 71
2
 72
1
 10
6.055
 20
-0.9065
 30
0.0
 11
1.0
 21
0.0
 31
0.0
 44
0.9
  1
Motor mount
 40
0.125
 41
2.2
  0
MTEXT
  5
25C
100
AcDbEntity
  8
0
100
AcDbMText
 62
2
  6
CONTINUOUS
  7
STANDARD
 71
2
 72
1
 10
1.5275
 20
-1.1565
 30
0.0
 11
1.0
 21
0.0
 31
0.0
 44
0.9
  1
Interface
 40
0.125
 41
1.8
  0
MTEXT
  5
25D
100
AcDbEntity
  8
0
100
AcDbMText
 62
2
  6
CONTINUOUS
  7
STANDARD
 71
2
 72
1
 10
6.055
 20
-1.1565
 30
0.0
 11
1.0
 21
0.0
 31
0.0
 44
0.9
  1
Eaton/Char-Lynn H & S
 40
0.125
 41
4.2
  0
MTEXT
  5
25E
100
AcDbEntity
  8
0
100
AcDbMText
 62
2
  6
CONTINUOUS
  7
STANDARD
 71
2
 72
1
 10
1.5275
 20
-1.4065
 30
0.0
 11
1.0
 21
0.0
 31
0.0
 44
0.9
  1
Open Cavity Quantity
 40
0.125
 41
4.0
  0
MTEXT
  5
25F
100
AcDbEntity
  8
0
100
AcDbMText
 62
2
  6
CONTINUOUS
  7
STANDARD
 71
2
 72
1
 10
6.055
 20
-1.4065
 30
0.0
 11
1.0
 21
0.0
 31
0.0
 44
0.9
  1
2
 40
0.125
 41
0.2
  0
MTEXT
  5
260
100
AcDbEntity
  8
0
100
AcDbMText
 62
2
  6
CONTINUOUS
  7
STANDARD
 71
2
 72
1
 10
1.5275
 20
-1.6565
 30
0.0
 11
1.0
 21
0.0
 31
0.0
 44
0.9
  1
Weight
 40
0.125
 41
1.2
  0
MTEXT
  5
261
100
AcDbEntity
  8
0
100
AcDbMText
 62
2
  6
CONTINUOUS
  7
STANDARD
 71
2
 72
1
 10
4.555
 20
-1.6565
 30
0.0
 11
1.0
 21
0.0
 31
0.0
 44
0.9
  1
1.652 lb.
 40
0.125
 41
1.8
  0
MTEXT
  5
262
100
AcDbEntity
  8
0
100
AcDbMText
 62
2
  6
CONTINUOUS
  7
STANDARD
 71
2
 72
1
 10
7.555
 20
-1.6565
 30
0.0
 11
1.0
 21
0.0
 31
0.0
 44
0.9
  1
0,749 kg.
 40
0.125
 41
1.8
  0
ENDBLK
  5
263
100
AcDbEntity
  8
0
  6
BYBLOCK
 62
0
100
AcDbBlockEnd
  0
BLOCK
  5
264
100
AcDbEntity
  8
0
100
AcDbBlockBegin
  2
*T3
 70
1
 10
0.0
 20
0.0
  3
*T3
  1

  0
LINE
  5
265
100
AcDbEntity
  8
0
100
AcDbLine
 62
2
  6
CONTINUOUS
 10
0.0
 20
0.0
 11
4.6
 21
0.0
  0
LINE
  5
266
100
AcDbEntity
  8
0
100
AcDbLine
 62
2
  6
CONTINUOUS
 10
0.0
 20
0.0
 11
0.0
 21
-0.93775
  0
LINE
  5
267
100
AcDbEntity
  8
0
100
AcDbLine
 62
2
  6
CONTINUOUS
 10
0.0
 20
-0.34375
 11
4.6
 21
-0.34375
  0
LINE
  5
268
100
AcDbEntity
  8
0
100
AcDbLine
 62
2
  6
CONTINUOUS
 10
0.0
 20
-0.68775
 11
4.6
 21
-0.68775
  0
LINE
  5
269
100
AcDbEntity
  8
0
100
AcDbLine
 62
2
  6
CONTINUOUS
 10
0.0
 20
-0.93775
 11
4.6
 21
-0.93775
  0
LINE
  5
26A
100
AcDbEntity
  8
0
100
AcDbLine
 62
2
  6
CONTINUOUS
 10
1.3
 20
-0.34375
 11
1.3
 21
-0.93775
  0
LINE
  5
26B
100
AcDbEntity
  8
0
100
AcDbLine
 62
2
  6
CONTINUOUS
 10
3.3
 20
-0.34375
 11
3.3
 21
-0.93775
  0
LINE
  5
26C
100
AcDbEntity
  8
0
100
AcDbLine
 62
2
  6
CONTINUOUS
 10
4.6
 20
0.0
 11
4.6
 21
-0.93775
  0
MTEXT
  5
26D
100
AcDbEntity
  8
0
100
AcDbMText
 62
2
  6
CONTINUOUS
  7
STANDARD
 71
2
 72
1
 10
2.3
 20
-0.099375
 30
0.0
 11
1.0
 21
0.0
 31
0.0
 44
0.9
  1
Port Headings
 40
0.145
 41
3.016
  0
MTEXT
  5
26E
100
AcDbEntity
  8
0
100
AcDbMText
 62
2
  6
CONTINUOUS
  7
STANDARD
 71
2
 72
1
 10
0.65
 20
-0.44325
 30
0.0
 11
1.0
 21
0.0
 31
0.0
 44
0.9
  1
Product
 40
0.145
 41
1.624
  0
MTEXT
  5
26F
100
AcDbEntity
  8
0
100
AcDbMText
 62
2
  6
CONTINUOUS
  7
STANDARD
 71
2
 72
1
 10
2.3
 20
-0.44325
 30
0.0
 11
1.0
 21
0.0
 31
0.0
 44
0.9
  1
Port
 40
0.145
 41
0.928
  0
MTEXT
  5
270
100
AcDbEntity
  8
0
100
AcDbMText
 62
2
  6
CONTINUOUS
  7
STANDARD
 71
2
 72
1
 10
3.95
 20
-0.44325
 30
0.0
 11
1.0
 21
0.0
 31
0.0
 44
0.9
  1
Size
 40
0.145
 41
0.928
  0
MTEXT
  5
271
100
AcDbEntity
  8
0
100
AcDbMText
 62
2
  6
CONTINUOUS
  7
STANDARD
 71
2
 72
1
 10
0.65
 20
-0.75025
 30
0.0
 11
1.0
 21
0.0
 31
0.0
 44
0.9
  1
YTA
 40
0.125
 41
0.6
  0
MTEXT
  5
272
100
AcDbEntity
  8
0
100
AcDbMText
 62
2
  6
CONTINUOUS
  7
STANDARD
 71
2
 72
1
 10
2.3
 20
-0.75025
 30
0.0
 11
1.0
 21
0.0
 31
0.0
 44
0.9
  1
Ports VA & VB
 40
0.125
 41
2.6
  0
MTEXT
  5
273
100
AcDbEntity
  8
0
100
AcDbMText
 62
2
  6
CONTINUOUS
  7
STANDARD
 71
2
 72
1
 10
3.95
 20
-0.75025
 30
0.0
 11
1.0
 21
0.0
 31
0.0
 44
0.9
  1
SAE 10
 40
0.125
 41
1.2
  0
ENDBLK
  5
274
100
AcDbEntity
  8
0
  6
BYBLOCK
 62
0
100
AcDbBlockEnd
  0
ENDSEC
  0
SECTION
  2
ENTITIES
  0
IMAGE
  5
275
100
AcDbEntity
  8
0
100
AcDbRasterImage
 62
7
  6
CONTINUOUS
 10
19.2297077316
 20
0.3094318264
 30
0.0
 11
0.0066666667
 21
0.0
 31
0.0
 12
0.0
 22
0.0066666667
 32
0.0
 13
369.0
 23
92.0
340
       373
 70
9
280
0
281
50
282
50
283
0
360
       36D
 71
1
 91
2
 14
-0.5
 24
-0.5
 14
368.5
 24
91.5
  0
INSERT
  5
276
100
AcDbEntity
  8
0
100
AcDbBlockReference
 62
2
  6
CONTINUOUS
  2
SUN_FIRST_THIRD_ANGLE_BL0
 10
20.4816717061
 20
1.2289683772
  0
ACAD_TABLE
  5
277
100
AcDbEntity
  8
0
 62
2
  6
CONTINUOUS
100
AcDbBlockReference
  2
*T1
 10
12.42375
 20
0.30125
 30
0.0
100
AcDbTable
342
       375
343
207
 11
1.0
 21
0.0
 31
0.0
 90
6
 91
4
 92
6
 93
20
 94
0
 95
0
 96
0
 70
1
 41
0.0
141
0.525
141
0.1
141
0.525
141
0.1
142
4.1
142
1.1
142
0.7
142
0.5
142
0.4
142
2.475
171
1
172
0
173
0
174
0
175
1
176
1
 91
33
178
0
145
0.0
301
CELL_VALUE
 90
4
  1
T-11A Motor mount Eaton/Char-Lynn H & S\PCross pilot
304
ACVALUE_END
170
2
140
0.125
171
1
172
0
173
0
174
0
175
1
176
1
 91
33
178
0
145
0.0
301
CELL_VALUE
 90
4
  1
Oct-21-19
304
ACVALUE_END
170
5
140
0.125
171
1
172
0
173
0
174
0
175
1
176
1
 91
33
178
0
145
0.0
301
CELL_VALUE
 90
4
  1
2.000
304
ACVALUE_END
170
5
140
0.125
171
1
172
0
173
0
174
0
175
1
176
1
 91
33
178
0
145
0.0
301
CELL_VALUE
 90
4
  1
C
304
ACVALUE_END
170
5
140
0.125
171
1
172
0
173
0
174
0
175
1
176
1
 91
33
178
0
145
0.0
301
CELL_VALUE
 90
4
  1
2
304
ACVALUE_END
170
5
140
0.125
171
1
172
0
173
0
174
0
175
1
176
1
 91
33
178
0
145
0.0
301
CELL_VALUE
 90
4
  1
 
304
ACVALUE_END
170
1
140
0.125
171
1
172
0
173
0
174
0
175
1
176
1
 91
33
178
0
145
0.0
301
CELL_VALUE
 90
4
  1
DESCRIPTION
304
ACVALUE_END
170
1
140
0.06
171
1
172
0
173
0
174
0
175
1
176
1
 91
33
178
0
145
0.0
301
CELL_VALUE
 90
4
  1
DATE
304
ACVALUE_END
170
1
140
0.06
171
1
172
0
173
0
174
0
175
1
176
1
 91
33
178
0
145
0.0
301
CELL_VALUE
 90
4
  1
SCALE
304
ACVALUE_END
170
1
140
0.06
171
1
172
0
173
0
174
0
175
1
176
1
 91
33
178
0
145
0.0
301
CELL_VALUE
 90
4
  1
DWG SIZE
304
ACVALUE_END
170
1
140
0.06
171
1
172
0
173
0
174
0
175
1
176
1
 91
33
178
0
145
0.0
301
CELL_VALUE
 90
4
  1
SHEET
304
ACVALUE_END
170
1
140
0.06
171
1
172
0
173
0
174
0
175
1
176
1
 91
33
178
0
145
0.0
301
CELL_VALUE
 90
4
  1
 
304
ACVALUE_END
170
1
140
0.125
171
1
172
0
173
0
174
0
175
1
176
1
 91
33
178
0
145
0.0
301
CELL_VALUE
 90
4
  1
YTA
304
ACVALUE_END
170
5
140
0.125
171
1
172
0
173
0
174
0
175
4
176
1
 91
33
178
0
145
0.0
301
CELL_VALUE
 90
4
  1
ALL DIMENSIONS IN INCH\PVIEWS ARE THIRD ANGLE
304
ACVALUE_END
170
5
140
0.12
171
1
172
0
173
1
174
0
175
1
176
1
 91
1
178
0
145
0.0
170
1
171
1
172
0
173
1
174
0
175
1
176
1
 91
1
178
0
145
0.0
170
1
171
1
172
0
173
1
174
0
175
1
176
1
 91
1
178
0
145
0.0
170
5
171
1
172
0
173
0
174
0
175
1
176
1
 91
33
178
0
145
0.0
301
CELL_VALUE
 90
4
  1
 
304
ACVALUE_END
170
1
140
0.125
171
1
172
0
173
0
174
0
175
1
176
1
 91
33
178
0
145
0.0
301
CELL_VALUE
 90
4
  1
MODEL
304
ACVALUE_END
170
1
140
0.06
171
1
172
0
173
0
174
0
175
1
176
1
 91
33
178
0
145
0.0
301
CELL_VALUE
 90
4
  1
 
304
ACVALUE_END
170
1
140
0.125
171
1
172
0
173
0
174
0
175
1
176
1
 91
33
178
0
145
0.0
301
CELL_VALUE
 90
4
  1
 
304
ACVALUE_END
170
1
140
0.125
171
1
172
0
173
0
174
0
175
1
176
1
 91
33
178
0
145
0.0
301
CELL_VALUE
 90
4
  1
 
304
ACVALUE_END
170
1
140
0.125
171
1
172
0
173
0
174
0
175
1
176
1
 91
33
178
0
145
0.0
301
CELL_VALUE
 90
4
  1
 
304
ACVALUE_END
170
1
140
0.125
171
1
172
0
173
0
174
0
175
1
176
1
 91
33
178
0
145
0.0
301
CELL_VALUE
 90
4
  1
 
304
ACVALUE_END
170
1
140
0.125
  0
ACAD_TABLE
  5
278
100
AcDbEntity
  8
0
 62
2
  6
CONTINUOUS
100
AcDbBlockReference
  2
*T2
 10
12.4237499994
 20
16.47875
 30
0.0
100
AcDbTable
342
       374
343
208
 11
1.0
 21
0.0
 31
0.0
 90
22
 91
7
 92
3
 93
16
 94
0
 95
0
 96
0
 41
0.028
141
0.344
141
0.25
141
0.25
141
0.25
141
0.25
141
0.25
141
0.25
142
3.055
142
3.0
142
3.0
171
1
172
0
173
0
174
0
175
1
176
1
 91
33
178
0
145
0.0
301
CELL_VALUE
 90
4
  1
Technical Data
304
ACVALUE_END
170
5
140
0.145
171
1
172
0
173
0
174
0
175
1
176
1
 91
33
178
0
145
0.0
301
CELL_VALUE
 90
4
  1
U.S. Units
304
ACVALUE_END
170
5
140
0.145
171
1
172
0
173
0
174
0
175
1
176
1
 91
33
178
0
145
0.0
301
CELL_VALUE
 90
4
  1
Metric Units
304
ACVALUE_END
170
5
140
0.145
171
1
172
0
173
0
174
0
175
1
176
1
 91
33
178
0
145
0.0
301
CELL_VALUE
 90
4
  1
Cavity
304
ACVALUE_END
170
5
140
0.125
171
1
172
0
173
0
174
0
175
2
176
1
 91
33
178
0
145
0.0
301
CELL_VALUE
 90
4
  1
T-11A
304
ACVALUE_END
170
5
140
0.125
171
1
172
0
173
1
174
0
175
1
176
1
 91
1
178
0
145
0.0
170
1
171
1
172
0
173
0
174
0
175
1
176
1
 91
33
178
0
145
0.0
301
CELL_VALUE
 90
4
  1
Body Features
304
ACVALUE_END
170
5
140
0.125
171
1
172
0
173
0
174
0
175
2
176
1
 91
33
178
0
145
0.0
301
CELL_VALUE
 90
4
  1
Cross pilot
304
ACVALUE_END
170
5
140
0.125
171
1
172
0
173
1
174
0
175
1
176
1
 91
1
178
0
145
0.0
170
1
171
1
172
0
173
0
174
0
175
1
176
1
 91
33
178
0
145
0.0
301
CELL_VALUE
 90
4
  1
Body Type
304
ACVALUE_END
170
5
140
0.125
171
1
172
0
173
0
174
0
175
2
176
1
 91
33
178
0
145
0.0
301
CELL_VALUE
 90
4
  1
Motor mount
304
ACVALUE_END
170
5
140
0.125
171
1
172
0
173
1
174
0
175
1
176
1
 91
1
178
0
145
0.0
170
1
171
1
172
0
173
0
174
0
175
1
176
1
 91
33
178
0
145
0.0
301
CELL_VALUE
 90
4
  1
Interface
304
ACVALUE_END
170
5
140
0.125
171
1
172
0
173
0
174
0
175
2
176
1
 91
33
178
0
145
0.0
301
CELL_VALUE
 90
4
  1
Eaton/Char-Lynn H & S
304
ACVALUE_END
170
5
140
0.125
171
1
172
0
173
1
174
0
175
1
176
1
 91
1
178
0
145
0.0
170
1
171
1
172
0
173
0
174
0
175
1
176
1
 91
33
178
0
145
0.0
301
CELL_VALUE
 90
4
  1
Open Cavity Quantity
304
ACVALUE_END
170
5
140
0.125
171
1
172
0
173
0
174
0
175
2
176
1
 91
33
178
0
145
0.0
301
CELL_VALUE
 90
4
  1
2
304
ACVALUE_END
170
5
140
0.125
171
1
172
0
173
1
174
0
175
1
176
1
 91
1
178
0
145
0.0
170
1
171
1
172
0
173
0
174
0
175
1
176
1
 91
33
178
0
145
0.0
301
CELL_VALUE
 90
4
  1
Weight
304
ACVALUE_END
170
5
140
0.125
171
1
172
0
173
0
174
0
175
1
176
1
 91
33
178
0
145
0.0
301
CELL_VALUE
 90
4
  1
1.652 lb.
304
ACVALUE_END
170
5
140
0.125
171
1
172
0
173
0
174
0
175
1
176
1
 91
33
178
0
145
0.0
301
CELL_VALUE
 90
4
  1
0,749 kg.
304
ACVALUE_END
170
5
140
0.125
  0
ACAD_TABLE
  5
279
100
AcDbEntity
  8
0
 62
2
  6
CONTINUOUS
100
AcDbBlockReference
  2
*T3
 10
0.52125
 20
1.459
 30
0.0
100
AcDbTable
342
       374
343
209
 11
1.0
 21
0.0
 31
0.0
 90
22
 91
3
 92
3
 93
16
 94
0
 95
0
 96
0
 41
0.05
141
0.34375
141
0.344
141
0.25
142
1.3
142
2.0
142
1.3
171
1
172
0
173
0
174
0
175
3
176
1
 91
33
178
0
145
0.0
301
CELL_VALUE
 90
4
  1
Port Headings
304
ACVALUE_END
170
5
140
0.145
171
1
172
0
173
1
174
0
175
1
176
1
 91
1
178
0
145
0.0
170
1
171
1
172
0
173
1
174
0
175
1
176
1
 91
1
178
0
145
0.0
170
1
171
1
172
0
173
0
174
0
175
1
176
1
 91
33
178
0
145
0.0
301
CELL_VALUE
 90
4
  1
Product
304
ACVALUE_END
170
5
140
0.145
171
1
172
0
173
0
174
0
175
1
176
1
 91
33
178
0
145
0.0
301
CELL_VALUE
 90
4
  1
Port
304
ACVALUE_END
170
5
140
0.145
171
1
172
0
173
0
174
0
175
1
176
1
 91
33
178
0
145
0.0
301
CELL_VALUE
 90
4
  1
Size
304
ACVALUE_END
170
5
140
0.145
171
1
172
0
173
0
174
0
175
1
176
1
 91
33
178
0
145
0.0
301
CELL_VALUE
 90
4
  1
YTA
304
ACVALUE_END
170
5
140
0.125
171
1
172
0
173
0
174
0
175
1
176
1
 91
33
178
0
145
0.0
301
CELL_VALUE
 90
4
  1
Ports VA & VB
304
ACVALUE_END
170
5
140
0.125
171
1
172
0
173
0
174
0
175
1
176
1
 91
33
178
0
145
0.0
301
CELL_VALUE
 90
4
  1
SAE 10
304
ACVALUE_END
170
5
140
0.125
  0
MTEXT
  5
27A
100
AcDbEntity
  8
0
100
AcDbMText
 62
2
  6
CONTINUOUS
  7
STANDARD
 71
1
 72
1
 10
0.52125
 20
5.75995
 30
0.0
 11
1.0
 21
0.0
 31
0.0
 44
0.6
  3
Notes\P \P1. A riser gage port adapter is\P   required for this product when used\P   with the Char-Lynn "S" series\P   motors. For details on gage port\P   adapters, see Sun models ZVQ (NPT),\P   WPA (SAE), and WPB (BSPP).\P2. Important: Carefully c
  3
onsider\P   the maximum system pressure. The\P   pressure rating of the manifold is\P   dependent on the manifold material,\P   with the port type/size a secondary\P   consideration. Manifolds\P   constructed of aluminum are not\P   rated for pressur
  1
es higher than\P   3000 psi (210 bar), regardless of\P   the port type/size specified.
 40
0.1
 41
3.04
  0
LINE
  5
27B
100
AcDbEntity
  8
0
100
AcDbLine
 62
7
  6
CONTINUOUS
 10
0.30125
 20
0.30125
 11
0.30125
 21
16.69875
  0
LINE
  5
27C
100
AcDbEntity
  8
0
100
AcDbLine
 62
7
  6
CONTINUOUS
 10
0.30125
 20
0.30125
 11
21.69875
 21
0.30125
  0
LINE
  5
27D
100
AcDbEntity
  8
0
100
AcDbLine
 62
7
  6
CONTINUOUS
 10
0.30125
 20
16.69875
 11
21.69875
 21
16.69875
  0
LINE
  5
27E
100
AcDbEntity
  8
0
100
AcDbLine
 62
7
  6
CONTINUOUS
 10
21.69875
 20
0.30125
 11
21.69875
 21
16.69875
  0
LINE
  5
27F
100
AcDbEntity
  8
0
100
AcDbLine
 62
7
  6
CONTINUOUS
 10
7.1476985082
 20
5.9069979507
 11
7.1476985082
 21
9.6509266052
  0
LINE
  5
280
100
AcDbEntity
  8
0
100
AcDbLine
 62
7
  6
CONTINUOUS
 10
9.0567461906
 20
11.4949251746
 11
7.9842065957
 21
10.4589314187
  0
LINE
  5
281
100
AcDbEntity
  8
0
100
AcDbLine
 62
7
  6
CONTINUOUS
 10
7.7357291944
 20
10.2189206653
 11
7.1476985082
 21
9.6509266052
  0
LINE
  5
282
100
AcDbEntity
  8
0
100
AcDbLine
 62
7
  6
CONTINUOUS
 10
7.7600507718
 20
10.1805942485
 11
7.9842065957
 21
10.3971121606
  0
LINE
  5
283
100
AcDbEntity
  8
0
100
AcDbLine
 62
7
  6
CONTINUOUS
 10
7.9842065957
 20
10.4589314187
 11
7.9842065957
 21
10.3971121606
  0
LINE
  5
284
100
AcDbEntity
  8
0
100
AcDbLine
 62
7
  6
CONTINUOUS
 10
7.1476985082
 20
5.9069979507
 11
12.9432538094
 21
5.5050748254
  0
LINE
  5
285
100
AcDbEntity
  8
0
100
AcDbLine
 62
4
  6
CONTINUOUS
 10
8.7920863788
 20
10.2742834056
 11
8.6575254209
 21
10.2193074918
  0
LINE
  5
286
100
AcDbEntity
  8
0
100
AcDbLine
 62
4
  6
CONTINUOUS
 10
8.951464146
 20
10.2632305199
 11
8.8169031882
 21
10.2082546061
  0
LINE
  5
287
100
AcDbEntity
  8
0
100
AcDbLine
 62
4
  6
CONTINUOUS
 10
10.2881384438
 20
10.7672159064
 11
10.2748277607
 21
10.7543587731
  0
LINE
  5
288
100
AcDbEntity
  8
0
100
AcDbLine
 62
4
  6
CONTINUOUS
 10
10.3653061894
 20
10.7388972521
 11
10.3519955077
 21
10.7260401202
  0
LINE
  5
289
100
AcDbEntity
  8
0
100
AcDbLine
 62
4
  6
CONTINUOUS
 10
10.5365193165
 20
10.7499906343
 11
10.501024164
 21
10.7157049478
  0
LINE
  5
28A
100
AcDbEntity
  8
0
100
AcDbLine
 62
4
  6
CONTINUOUS
 10
11.4248400534
 20
10.8794712616
 11
11.2964886229
 21
10.8240647156
  0
LINE
  5
28B
100
AcDbEntity
  8
0
100
AcDbLine
 62
4
  6
CONTINUOUS
 10
10.5616333538
 20
10.6885346328
 11
10.5715898048
 21
10.6924375628
  0
LINE
  5
28C
100
AcDbEntity
  8
0
100
AcDbLine
 62
4
  6
CONTINUOUS
 10
8.6575254209
 20
10.2193074918
 11
8.6471974995
 21
10.2843314835
  0
LINE
  5
28D
100
AcDbEntity
  8
0
100
AcDbLine
 62
4
  6
CONTINUOUS
 10
10.6292694273
 20
10.7481518031
 11
10.5849004847
 21
10.705294693
  0
LINE
  5
28E
100
AcDbEntity
  8
0
100
AcDbLine
 62
4
  6
CONTINUOUS
 10
10.5715898048
 20
10.6924375628
 11
10.5671529091
 21
10.6881518504
  0
LINE
  5
28F
100
AcDbEntity
  8
0
100
AcDbLine
 62
4
  6
CONTINUOUS
 10
10.9847006856
 20
11.0514720757
 11
10.9225841674
 21
10.991472123
  0
LINE
  5
290
100
AcDbEntity
  8
0
100
AcDbLine
 62
4
  6
CONTINUOUS
 10
11.0252908374
 20
10.9935362118
 11
11.0696597791
 21
11.036393321
  0
LINE
  5
291
100
AcDbEntity
  8
0
100
AcDbLine
 62
4
  6
CONTINUOUS
 10
10.7738610787
 20
10.7335309272
 11
10.7161814549
 21
10.6778166856
  0
LINE
  5
292
100
AcDbEntity
  8
0
100
AcDbLine
 62
4
  6
CONTINUOUS
 10
10.8445328577
 20
10.7332232335
 11
10.8001639151
 21
10.6903661234
  0
LINE
  5
293
100
AcDbEntity
  8
0
100
AcDbLine
 62
4
  6
CONTINUOUS
 10
11.1944446713
 20
11.0369262809
 11
11.1323281531
 21
10.9769263282
  0
LINE
  5
294
100
AcDbEntity
  8
0
100
AcDbLine
 62
4
  6
CONTINUOUS
 10
10.8995163526
 20
10.6834760084
 11
10.9394484009
 21
10.7220474074
  0
LINE
  5
295
100
AcDbEntity
  8
0
100
AcDbLine
 62
4
  6
CONTINUOUS
 10
11.2074368255
 20
10.9809043446
 11
11.2518057672
 21
11.0237614538
  0
LINE
  5
296
100
AcDbEntity
  8
0
100
AcDbLine
 62
4
  6
CONTINUOUS
 10
11.0101201799
 20
10.7217397137
 11
10.9746250251
 21
10.6874540249
  0
LINE
  5
297
100
AcDbEntity
  8
0
100
AcDbLine
 62
4
  6
CONTINUOUS
 10
12.314918625
 20
10.9592211483
 11
12.1865671946
 21
10.9038146023
  0
LINE
  5
298
100
AcDbEntity
  8
0
100
AcDbLine
 62
4
  6
CONTINUOUS
 10
11.5492695702
 20
10.699660945
 11
11.4238760957
 21
10.6471115367
  0
LINE
  5
299
100
AcDbEntity
  8
0
100
AcDbLine
 62
4
  6
CONTINUOUS
 10
8.9617920674
 20
10.1982065282
 11
8.951464146
 21
10.2632305199
  0
LINE
  5
29A
100
AcDbEntity
  8
0
100
AcDbLine
 62
4
  6
CONTINUOUS
 10
11.3677168706
 20
11.0157229915
 11
11.323347929
 21
10.9728658823
  0
LINE
  5
29B
100
AcDbEntity
  8
0
100
AcDbLine
 62
4
  6
CONTINUOUS
 10
11.1050356125
 20
10.7105638953
 11
11.0917249295
 21
10.697706762
  0
LINE
  5
29C
100
AcDbEntity
  8
0
100
AcDbLine
 62
4
  6
CONTINUOUS
 10
11.1412950105
 20
10.6713020138
 11
11.1501687983
 21
10.6798734351
  0
LINE
  5
29D
100
AcDbEntity
  8
0
100
AcDbLine
 62
4
  6
CONTINUOUS
 10
11.5609019693
 20
11.0023255594
 11
11.5165330277
 21
10.9594684502
  0
LINE
  5
29E
100
AcDbEntity
  8
0
100
AcDbLine
 62
4
  6
CONTINUOUS
 10
11.2585010526
 20
10.7045144416
 11
11.21413211
 21
10.6616573315
  0
LINE
  5
29F
100
AcDbEntity
  8
0
100
AcDbLine
 62
4
  6
CONTINUOUS
 10
11.2626195297
 20
10.6399210764
 11
11.3247360479
 21
10.6999210291
  0
LINE
  5
2A0
100
AcDbEntity
  8
0
100
AcDbLine
 62
4
  6
CONTINUOUS
 10
11.557309878
 20
10.870284448
 11
11.4951933598
 21
10.8102844953
  0
LINE
  5
2A1
100
AcDbEntity
  8
0
100
AcDbLine
 62
4
  6
CONTINUOUS
 10
11.4196514805
 20
10.6887452107
 11
11.384156328
 21
10.6544595242
  0
LINE
  5
2A2
100
AcDbEntity
  8
0
100
AcDbLine
 62
4
  6
CONTINUOUS
 10
11.7205194808
 20
10.8222185375
 11
11.7560146356
 21
10.8565042263
  0
LINE
  5
2A3
100
AcDbEntity
  8
0
100
AcDbLine
 62
4
  6
CONTINUOUS
 10
11.9175091236
 20
10.9867815908
 11
11.8553926054
 21
10.9267816381
  0
LINE
  5
2A4
100
AcDbEntity
  8
0
100
AcDbLine
 62
4
  6
CONTINUOUS
 10
11.5939002584
 20
10.6399137332
 11
11.6338323052
 21
10.6784851309
  0
LINE
  5
2A5
100
AcDbEntity
  8
0
100
AcDbLine
 62
4
  6
CONTINUOUS
 10
12.0499789482
 20
10.9775947773
 11
11.98786243
 21
10.9175948246
  0
LINE
  5
2A6
100
AcDbEntity
  8
0
100
AcDbLine
 62
4
  6
CONTINUOUS
 10
11.7331846875
 20
10.6715950197
 11
11.6710681693
 21
10.611595067
  0
LINE
  5
2A7
100
AcDbEntity
  8
0
100
AcDbLine
 62
4
  6
CONTINUOUS
 10
11.9815656155
 20
10.6543697439
 11
11.9194490974
 21
10.5943697912
  0
LINE
  5
2A8
100
AcDbEntity
  8
0
100
AcDbLine
 62
4
  6
CONTINUOUS
 10
12.355508694
 20
10.9012852901
 11
12.3998776357
 21
10.9441423993
  0
LINE
  5
2A9
100
AcDbEntity
  8
0
100
AcDbLine
 62
4
  6
CONTINUOUS
 10
12.097476719
 20
10.6463312816
 11
12.0353602008
 21
10.5863313289
  0
LINE
  5
2AA
100
AcDbEntity
  8
0
100
AcDbLine
 62
4
  6
CONTINUOUS
 10
12.1548378426
 20
10.6331664526
 11
12.1015951131
 21
10.5817379221
  0
LINE
  5
2AB
100
AcDbEntity
  8
0
100
AcDbLine
 62
4
  6
CONTINUOUS
 10
12.524662514
 20
10.9446753602
 11
12.4625459958
 21
10.8846754075
  0
LINE
  5
2AC
100
AcDbEntity
  8
0
100
AcDbLine
 62
4
  6
CONTINUOUS
 10
12.2175062165
 20
10.5736994598
 11
12.270748946
 21
10.6251279903
  0
LINE
  5
2AD
100
AcDbEntity
  8
0
100
AcDbLine
 62
4
  6
CONTINUOUS
 10
12.3322047383
 20
10.0287753635
 11
12.1976437805
 21
9.9737994497
  0
LINE
  5
2AE
100
AcDbEntity
  8
0
100
AcDbLine
 62
4
  6
CONTINUOUS
 10
12.3369838583
 20
10.6205345835
 11
12.3281100696
 21
10.6119631613
  0
LINE
  5
2AF
100
AcDbEntity
  8
0
100
AcDbLine
 62
4
  6
CONTINUOUS
 10
12.4173998078
 20
10.5782104333
 11
12.40852602
 21
10.569639012
  0
LINE
  5
2B0
100
AcDbEntity
  8
0
100
AcDbLine
 62
4
  6
CONTINUOUS
 10
12.0320742264
 20
10.0388715269
 11
12.0165450978
 21
10.0238715396
  0
LINE
  5
2B1
100
AcDbEntity
  8
0
100
AcDbLine
 62
4
  6
CONTINUOUS
 10
12.0155048543
 20
10.0078667418
 11
11.9999757248
 21
9.9928667537
  0
LINE
  5
2B2
100
AcDbEntity
  8
0
100
AcDbLine
 62
4
  6
CONTINUOUS
 10
12.1107104529
 20
9.9798282965
 11
12.1728269711
 21
10.0398282492
  0
LINE
  5
2B3
100
AcDbEntity
  8
0
100
AcDbLine
 62
4
  6
CONTINUOUS
 10
11.2964886229
 20
10.8240647156
 11
11.2923702012
 21
10.888658077
  0
LINE
  5
2B4
100
AcDbEntity
  8
0
100
AcDbLine
 62
7
  6
CONTINUOUS
 10
12.9432538094
 20
9.24900348
 11
13.5312844955
 21
9.81699754
  0
LINE
  5
2B5
100
AcDbEntity
  8
0
100
AcDbLine
 62
7
  6
CONTINUOUS
 10
13.7797618968
 20
10.0570082934
 11
14.8523014918
 21
11.0930020493
  0
LINE
  5
2B6
100
AcDbEntity
  8
0
100
AcDbLine
 62
7
  6
CONTINUOUS
 10
13.5312844955
 20
9.755178282
 11
13.7797618968
 21
9.9951890354
  0
LINE
  5
2B7
100
AcDbEntity
  8
0
100
AcDbLine
 62
7
  6
CONTINUOUS
 10
7.1476985082
 20
9.6509266052
 11
12.9432538094
 21
9.24900348
  0
LINE
  5
2B8
100
AcDbEntity
  8
0
100
AcDbLine
 62
4
  6
CONTINUOUS
 10
11.5232284227
 20
10.6402214295
 11
11.5179211465
 21
10.686523597
  0
LINE
  5
2B9
100
AcDbEntity
  8
0
100
AcDbLine
 62
4
  6
CONTINUOUS
 10
12.1865671946
 20
10.9038146023
 11
12.1824487728
 21
10.9684079637
  0
LINE
  5
2BA
100
AcDbEntity
  8
0
100
AcDbLine
 62
4
  6
CONTINUOUS
 10
12.0351701212
 20
10.0118619325
 11
12.0155048543
 21
10.0078667418
  0
LINE
  5
2BB
100
AcDbEntity
  8
0
100
AcDbLine
 62
4
  6
CONTINUOUS
 10
12.0714047556
 20
10.0468619037
 11
12.0320742264
 21
10.0388715269
  0
LINE
  5
2BC
100
AcDbEntity
  8
0
100
AcDbLine
 62
4
  6
CONTINUOUS
 10
10.9746250251
 20
10.6874540249
 11
10.9823099032
 21
10.6777342562
  0
LINE
  5
2BD
100
AcDbEntity
  8
0
100
AcDbLine
 62
4
  6
CONTINUOUS
 10
12.0092882374
 20
9.986861951
 11
12.1107104529
 21
9.9798282965
  0
LINE
  5
2BE
100
AcDbEntity
  8
0
100
AcDbLine
 62
4
  6
CONTINUOUS
 10
12.1365923367
 20
10.0048282779
 11
12.0351701212
 21
10.0118619325
  0
LINE
  5
2BF
100
AcDbEntity
  8
0
100
AcDbLine
 62
4
  6
CONTINUOUS
 10
8.7424030962
 20
10.2562930363
 11
8.6554697687
 21
10.262321883
  0
LINE
  5
2C0
100
AcDbEntity
  8
0
100
AcDbLine
 62
4
  6
CONTINUOUS
 10
12.1728269711
 20
10.0398282492
 11
12.0714047556
 21
10.0468619037
  0
LINE
  5
2C1
100
AcDbEntity
  8
0
100
AcDbLine
 62
4
  6
CONTINUOUS
 10
12.3425326598
 20
9.9637513718
 11
12.3322047383
 21
10.0287753635
  0
LINE
  5
2C2
100
AcDbEntity
  8
0
100
AcDbLine
 62
7
  6
CONTINUOUS
 10
12.9432538094
 20
5.5050748254
 11
12.9432538094
 21
9.24900348
  0
LINE
  5
2C3
100
AcDbEntity
  8
0
100
AcDbLine
 62
4
  6
CONTINUOUS
 10
12.40852602
 20
10.569639012
 11
12.3665347727
 21
10.5633642943
  0
LINE
  5
2C4
100
AcDbEntity
  8
0
100
AcDbLine
 62
4
  6
CONTINUOUS
 10
12.3789751032
 20
10.6268093023
 11
12.3369838583
 21
10.6205345835
  0
LINE
  5
2C5
100
AcDbEntity
  8
0
100
AcDbLine
 62
4
  6
CONTINUOUS
 10
12.1968290736
 20
10.6394411724
 11
12.1548378426
 21
10.6331664526
  0
LINE
  5
2C6
100
AcDbEntity
  8
0
100
AcDbLine
 62
4
  6
CONTINUOUS
 10
10.2748277607
 20
10.7543587731
 11
10.2884284973
 21
10.7503532852
  0
LINE
  5
2C7
100
AcDbEntity
  8
0
100
AcDbLine
 62
4
  6
CONTINUOUS
 10
10.3517054527
 20
10.74290274
 11
10.3653061894
 21
10.7388972521
  0
LINE
  5
2C8
100
AcDbEntity
  8
0
100
AcDbLine
 62
4
  6
CONTINUOUS
 10
10.2647650614
 20
10.72749616
 11
10.2526432912
 21
10.7329302198
  0
LINE
  5
2C9
100
AcDbEntity
  8
0
100
AcDbLine
 62
4
  6
CONTINUOUS
 10
10.3874906602
 20
10.7603258067
 11
10.3753688887
 21
10.7657598652
  0
LINE
  5
2CA
100
AcDbEntity
  8
0
100
AcDbLine
 62
4
  6
CONTINUOUS
 10
10.524397545
 20
10.7554246928
 11
10.5365193165
 21
10.7499906343
  0
LINE
  5
2CB
100
AcDbEntity
  8
0
100
AcDbLine
 62
4
  6
CONTINUOUS
 10
10.7617391966
 20
10.7389649934
 11
10.7738610787
 21
10.7335309272
  0
LINE
  5
2CC
100
AcDbEntity
  8
0
100
AcDbLine
 62
4
  6
CONTINUOUS
 10
11.9999757248
 20
9.9928667537
 11
12.0092882374
 21
9.986861951
  0
LINE
  5
2CD
100
AcDbEntity
  8
0
100
AcDbLine
 62
4
  6
CONTINUOUS
 10
12.0165450978
 20
10.0238715396
 11
12.0351701212
 21
10.0118619325
  0
LINE
  5
2CE
100
AcDbEntity
  8
0
100
AcDbLine
 62
4
  6
CONTINUOUS
 10
11.1478972254
 20
10.6662507364
 11
11.1412950105
 21
10.6713020138
  0
LINE
  5
2CF
100
AcDbEntity
  8
0
100
AcDbLine
 62
4
  6
CONTINUOUS
 10
11.7205194808
 20
10.8222185375
 11
11.6276631982
 21
10.8010976808
  0
LINE
  5
2D0
100
AcDbEntity
  8
0
100
AcDbLine
 62
4
  6
CONTINUOUS
 10
12.3998776357
 20
10.9441423993
 11
12.4418688805
 21
10.9504171181
  0
LINE
  5
2D1
100
AcDbEntity
  8
0
100
AcDbLine
 62
4
  6
CONTINUOUS
 10
10.501024164
 20
10.7157049478
 11
10.4800286024
 21
10.7125675827
  0
LINE
  5
2D2
100
AcDbEntity
  8
0
100
AcDbLine
 62
4
  6
CONTINUOUS
 10
10.3519955077
 20
10.7260401202
 11
10.3309999461
 21
10.7229027551
  0
LINE
  5
2D3
100
AcDbEntity
  8
0
100
AcDbLine
 62
4
  6
CONTINUOUS
 10
11.384156328
 20
10.6544595242
 11
11.3466019899
 21
10.6524705142
  0
LINE
  5
2D4
100
AcDbEntity
  8
0
100
AcDbLine
 62
4
  6
CONTINUOUS
 10
11.0917249295
 20
10.697706762
 11
11.0541705932
 21
10.6957177538
  0
LINE
  5
2D5
100
AcDbEntity
  8
0
100
AcDbLine
 62
4
  6
CONTINUOUS
 10
12.530366045
 20
10.9044702593
 11
12.6305109872
 21
10.90977428
  0
LINE
  5
2D6
100
AcDbEntity
  8
0
100
AcDbLine
 62
4
  6
CONTINUOUS
 10
12.3665347727
 20
10.5633642943
 11
12.3002998569
 21
10.5679577013
  0
LINE
  5
2D7
100
AcDbEntity
  8
0
100
AcDbLine
 62
4
  6
CONTINUOUS
 10
10.5671529091
 20
10.6881518504
 11
10.5616333538
 21
10.6885346328
  0
LINE
  5
2D8
100
AcDbEntity
  8
0
100
AcDbLine
 62
4
  6
CONTINUOUS
 10
11.6888157449
 20
10.6287379097
 11
11.6060220838
 21
10.6344796696
  0
LINE
  5
2D9
100
AcDbEntity
  8
0
100
AcDbLine
 62
4
  6
CONTINUOUS
 10
11.3466019899
 20
10.6524705142
 11
11.2803671052
 21
10.657063919
  0
LINE
  5
2DA
100
AcDbEntity
  8
0
100
AcDbLine
 62
4
  6
CONTINUOUS
 10
11.21413211
 20
10.6616573315
 11
11.1478972254
 21
10.6662507364
  0
LINE
  5
2DB
100
AcDbEntity
  8
0
100
AcDbLine
 62
4
  6
CONTINUOUS
 10
10.4800286024
 20
10.7125675827
 11
10.4137934966
 21
10.7171610029
  0
LINE
  5
2DC
100
AcDbEntity
  8
0
100
AcDbLine
 62
4
  6
CONTINUOUS
 10
10.3309999461
 20
10.7229027551
 11
10.2647650614
 21
10.72749616
  0
LINE
  5
2DD
100
AcDbEntity
  8
0
100
AcDbLine
 62
4
  6
CONTINUOUS
 10
10.9823099032
 20
10.6777342562
 11
11.0651035643
 21
10.6719924963
  0
LINE
  5
2DE
100
AcDbEntity
  8
0
100
AcDbLine
 62
4
  6
CONTINUOUS
 10
11.0541705932
 20
10.6957177538
 11
10.9879357086
 21
10.7003111586
  0
LINE
  5
2DF
100
AcDbEntity
  8
0
100
AcDbLine
 62
4
  6
CONTINUOUS
 10
12.4452100206
 20
10.6222158952
 11
12.3789751032
 21
10.6268093023
  0
LINE
  5
2E0
100
AcDbEntity
  8
0
100
AcDbLine
 62
4
  6
CONTINUOUS
 10
12.2465052786
 20
10.6359961158
 11
12.1968290736
 21
10.6394411724
  0
LINE
  5
2E1
100
AcDbEntity
  8
0
100
AcDbLine
 62
4
  6
CONTINUOUS
 10
10.9273265188
 20
10.7274814736
 11
10.8445328577
 21
10.7332232335
  0
LINE
  5
2E2
100
AcDbEntity
  8
0
100
AcDbLine
 62
4
  6
CONTINUOUS
 10
10.3753688887
 20
10.7657598652
 11
10.309134004
 21
10.7703532701
  0
LINE
  5
2E3
100
AcDbEntity
  8
0
100
AcDbLine
 62
4
  6
CONTINUOUS
 10
10.4581624392
 20
10.760018113
 11
10.524397545
 21
10.7554246928
  0
LINE
  5
2E4
100
AcDbEntity
  8
0
100
AcDbLine
 62
4
  6
CONTINUOUS
 10
10.7286217543
 20
10.7412616958
 11
10.7617391966
 21
10.7389649934
  0
LINE
  5
2E5
100
AcDbEntity
  8
0
100
AcDbLine
 62
4
  6
CONTINUOUS
 10
11.0101201799
 20
10.7217397137
 11
11.0763550646
 21
10.7171463088
  0
LINE
  5
2E6
100
AcDbEntity
  8
0
100
AcDbLine
 62
4
  6
CONTINUOUS
 10
11.3247360479
 20
10.6999210291
 11
11.3909709325
 21
10.6953276243
  0
LINE
  5
2E7
100
AcDbEntity
  8
0
100
AcDbLine
 62
4
  6
CONTINUOUS
 10
11.5823870125
 20
10.6973642426
 11
11.5492695702
 21
10.699660945
  0
LINE
  5
2E8
100
AcDbEntity
  8
0
100
AcDbLine
 62
4
  6
CONTINUOUS
 10
10.2884284973
 20
10.7503532852
 11
10.3517054527
 21
10.74290274
  0
LINE
  5
2E9
100
AcDbEntity
  8
0
100
AcDbLine
 62
4
  6
CONTINUOUS
 10
11.0763550646
 20
10.7171463088
 11
11.1050356125
 21
10.7105638953
  0
LINE
  5
2EA
100
AcDbEntity
  8
0
100
AcDbLine
 62
4
  6
CONTINUOUS
 10
11.3909709325
 20
10.6953276243
 11
11.4196514805
 21
10.6887452107
  0
LINE
  5
2EB
100
AcDbEntity
  8
0
100
AcDbLine
 62
4
  6
CONTINUOUS
 10
10.9394484009
 20
10.7220474074
 11
10.9273265188
 21
10.7274814736
  0
LINE
  5
2EC
100
AcDbEntity
  8
0
100
AcDbLine
 62
4
  6
CONTINUOUS
 10
11.6060220838
 20
10.6344796696
 11
11.5939002584
 21
10.6399137332
  0
LINE
  5
2ED
100
AcDbEntity
  8
0
100
AcDbLine
 62
4
  6
CONTINUOUS
 10
11.049534492
 20
10.9826680881
 11
11.0252908374
 21
10.9935362118
  0
LINE
  5
2EE
100
AcDbEntity
  8
0
100
AcDbLine
 62
4
  6
CONTINUOUS
 10
11.7601330366
 20
10.7919108663
 11
11.7205194808
 21
10.8222185375
  0
LINE
  5
2EF
100
AcDbEntity
  8
0
100
AcDbLine
 62
4
  6
CONTINUOUS
 10
12.0353602008
 20
10.5863313289
 11
11.9815656155
 21
10.6543697439
  0
LINE
  5
2F0
100
AcDbEntity
  8
0
100
AcDbLine
 62
7
  6
CONTINUOUS
 10
13.5312844955
 20
9.81699754
 11
13.5312844955
 21
9.755178282
  0
LINE
  5
2F1
100
AcDbEntity
  8
0
100
AcDbLine
 62
4
  6
CONTINUOUS
 10
10.309134004
 20
10.7703532701
 11
10.2881384438
 21
10.7672159064
  0
LINE
  5
2F2
100
AcDbEntity
  8
0
100
AcDbLine
 62
4
  6
CONTINUOUS
 10
11.5165330277
 20
10.9594684502
 11
11.4745417975
 21
10.9531937313
  0
LINE
  5
2F3
100
AcDbEntity
  8
0
100
AcDbLine
 62
4
  6
CONTINUOUS
 10
11.323347929
 20
10.9728658823
 11
11.2813566988
 21
10.9665911634
  0
LINE
  5
2F4
100
AcDbEntity
  8
0
100
AcDbLine
 62
4
  6
CONTINUOUS
 10
11.2518057672
 20
11.0237614538
 11
11.2937969983
 21
11.0300361736
  0
LINE
  5
2F5
100
AcDbEntity
  8
0
100
AcDbLine
 62
4
  6
CONTINUOUS
 10
11.0696597791
 20
11.036393321
 11
11.1116510102
 21
11.0426680408
  0
LINE
  5
2F6
100
AcDbEntity
  8
0
100
AcDbLine
 62
4
  6
CONTINUOUS
 10
10.7041788923
 20
11.0433658645
 11
10.8043238267
 21
11.0486698848
  0
LINE
  5
2F7
100
AcDbEntity
  8
0
100
AcDbLine
 62
4
  6
CONTINUOUS
 10
11.5614282859
 20
10.8056910876
 11
11.4289584475
 21
10.8148779021
  0
LINE
  5
2F8
100
AcDbEntity
  8
0
100
AcDbLine
 62
4
  6
CONTINUOUS
 10
11.3850141719
 20
10.8638595528
 11
11.2967009555
 21
10.8699840951
  0
LINE
  5
2F9
100
AcDbEntity
  8
0
100
AcDbLine
 62
4
  6
CONTINUOUS
 10
12.4625459958
 20
10.8846754075
 11
12.3797523623
 21
10.8904171654
  0
LINE
  5
2FA
100
AcDbEntity
  8
0
100
AcDbLine
 62
4
  6
CONTINUOUS
 10
12.05409737
 20
10.9130014159
 11
11.9216275454
 21
10.9221882294
  0
LINE
  5
2FB
100
AcDbEntity
  8
0
100
AcDbLine
 62
4
  6
CONTINUOUS
 10
11.8553926054
 20
10.9267816381
 11
11.7560402232
 21
10.9336717492
  0
LINE
  5
2FC
100
AcDbEntity
  8
0
100
AcDbLine
 62
4
  6
CONTINUOUS
 10
11.4745417975
 20
10.9531937313
 11
11.4083069129
 21
10.9577871362
  0
LINE
  5
2FD
100
AcDbEntity
  8
0
100
AcDbLine
 62
4
  6
CONTINUOUS
 10
11.2813566988
 20
10.9665911634
 11
11.2316804801
 21
10.9700362209
  0
LINE
  5
2FE
100
AcDbEntity
  8
0
100
AcDbLine
 62
4
  6
CONTINUOUS
 10
11.1323281531
 20
10.9769263282
 11
11.049534492
 21
10.9826680881
  0
LINE
  5
2FF
100
AcDbEntity
  8
0
100
AcDbLine
 62
4
  6
CONTINUOUS
 10
10.9225841674
 20
10.991472123
 11
10.8232318404
 21
10.9983622303
  0
LINE
  5
300
100
AcDbEntity
  8
0
100
AcDbLine
 62
4
  6
CONTINUOUS
 10
10.8829706461
 20
11.0217797918
 11
10.9492055308
 21
11.0171863869
  0
LINE
  5
301
100
AcDbEntity
  8
0
100
AcDbLine
 62
4
  6
CONTINUOUS
 10
11.8157790288
 20
10.9570893107
 11
11.8820139688
 21
10.952495902
  0
LINE
  5
302
100
AcDbEntity
  8
0
100
AcDbLine
 62
4
  6
CONTINUOUS
 10
12.2750927435
 20
10.9436094395
 11
12.1867795271
 21
10.9497339818
  0
LINE
  5
303
100
AcDbEntity
  8
0
100
AcDbLine
 62
4
  6
CONTINUOUS
 10
11.9175091236
 20
10.9867815908
 11
11.8181567413
 21
10.9936717019
  0
LINE
  5
304
100
AcDbEntity
  8
0
100
AcDbLine
 62
4
  6
CONTINUOUS
 10
10.9847006856
 20
11.0514720757
 11
10.8853483586
 21
11.058362183
  0
LINE
  5
305
100
AcDbEntity
  8
0
100
AcDbLine
 62
4
  6
CONTINUOUS
 10
11.1116510102
 20
11.0426680408
 11
11.1944446713
 21
11.0369262809
  0
LINE
  5
306
100
AcDbEntity
  8
0
100
AcDbLine
 62
4
  6
CONTINUOUS
 10
11.2937969983
 20
11.0300361736
 11
11.343473217
 21
11.0265911161
  0
LINE
  5
307
100
AcDbEntity
  8
0
100
AcDbLine
 62
4
  6
CONTINUOUS
 10
11.470423431
 20
11.0177870889
 11
11.5366583157
 21
11.013193684
  0
LINE
  5
308
100
AcDbEntity
  8
0
100
AcDbLine
 62
4
  6
CONTINUOUS
 10
12.4418688805
 20
10.9504171181
 11
12.524662514
 21
10.9446753602
  0
LINE
  5
309
100
AcDbEntity
  8
0
100
AcDbLine
 62
4
  6
CONTINUOUS
 10
10.7806603898
 20
11.0258127586
 11
10.7041788923
 21
11.0433658645
  0
LINE
  5
30A
100
AcDbEntity
  8
0
100
AcDbLine
 62
4
  6
CONTINUOUS
 10
12.3281100696
 20
10.6119631613
 11
12.4173998078
 21
10.5782104333
  0
LINE
  5
30B
100
AcDbEntity
  8
0
100
AcDbLine
 62
4
  6
CONTINUOUS
 10
11.2316804801
 20
10.9700362209
 11
11.2074368255
 21
10.9809043446
  0
LINE
  5
30C
100
AcDbEntity
  8
0
100
AcDbLine
 62
4
  6
CONTINUOUS
 10
12.3002998569
 20
10.5679577013
 11
12.2881780246
 21
10.5733917654
  0
LINE
  5
30D
100
AcDbEntity
  8
0
100
AcDbLine
 62
4
  6
CONTINUOUS
 10
11.343473217
 20
11.0265911161
 11
11.3677168706
 21
11.0157229915
  0
LINE
  5
30E
100
AcDbEntity
  8
0
100
AcDbLine
 62
4
  6
CONTINUOUS
 10
12.270748946
 20
10.6251279903
 11
12.2465052786
 21
10.6359961158
  0
LINE
  5
30F
100
AcDbEntity
  8
0
100
AcDbLine
 62
4
  6
CONTINUOUS
 10
11.5366583157
 20
11.013193684
 11
11.5609019693
 21
11.0023255594
  0
LINE
  5
310
100
AcDbEntity
  8
0
100
AcDbLine
 62
4
  6
CONTINUOUS
 10
12.4573318561
 20
10.6167818323
 11
12.4452100206
 21
10.6222158952
  0
LINE
  5
311
100
AcDbEntity
  8
0
100
AcDbLine
 62
7
  6
CONTINUOUS
 10
13.7797618968
 20
10.0570082934
 11
13.7797618968
 21
9.9951890354
  0
LINE
  5
312
100
AcDbEntity
  8
0
100
AcDbLine
 62
7
  6
CONTINUOUS
 10
14.8523014918
 20
11.0930020493
 11
9.0567461906
 21
11.4949251746
  0
LINE
  5
313
100
AcDbEntity
  8
0
100
AcDbLine
 62
4
  6
CONTINUOUS
 10
12.6305109872
 20
10.90977428
 11
12.5540294819
 21
10.9273273854
  0
LINE
  5
314
100
AcDbEntity
  8
0
100
AcDbLine
 62
4
  6
CONTINUOUS
 10
12.3797523623
 20
10.8904171654
 11
12.355508694
 21
10.9012852901
  0
LINE
  5
315
100
AcDbEntity
  8
0
100
AcDbLine
 62
7
  6
CONTINUOUS
 10
12.9432538094
 20
5.5050748254
 11
14.8523014918
 21
7.3490733948
  0
LINE
  5
316
100
AcDbEntity
  8
0
100
AcDbLine
 62
7
  6
CONTINUOUS
 10
14.8523014918
 20
7.3490733948
 11
14.8523014918
 21
11.0930020493
  0
SPLINE
  5
317
100
AcDbEntity
  8
0
100
AcDbSpline
 62
7
  6
CONTINUOUS
 70
0
 71
3
 72
52
 73
48
 74
0
 42
0.0000001
 43
0.0000001
 44
0.0000000001
 40
0.0
 40
0.0
 40
0.0
 40
0.0
 40
0.0417975951
 40
0.0840616288
 40
0.1266599
 40
0.1694646819
 40
0.2123442235
 40
0.2551675716
 40
0.2978037564
 40
0.3401225587
 40
0.3819950468
 40
0.4232940448
 40
0.4638946794
 40
0.5036749394
 40
0.5425162168
 40
0.5803038545
 40
0.6169277287
 40
0.6522828762
 40
0.6862702207
 40
0.7187973048
 40
0.7497791232
 40
0.7646666939
 40
0.7791400459
 40
0.7931910474
 40
0.8068124878
 40
0.8199977024
 40
0.8327409898
 40
0.8450375569
 40
0.8568834717
 40
0.8682761438
 40
0.8792139942
 40
0.8896969854
 40
0.8997266536
 40
0.9093062033
 40
0.9184411394
 40
0.9271391328
 40
0.9354107775
 40
0.9432698769
 40
0.9507338665
 40
0.9578247066
 40
0.9645691138
 40
0.9709994856
 40
0.9771542525
 40
0.9830781055
 40
0.9888220386
 40
0.9944424568
 40
1.0
 40
1.0
 40
1.0
 40
1.0
 10
9.3212660386
 20
11.2504317424
 30
0.0
 10
9.3276508953
 20
11.2499889511
 30
0.0
 10
9.3404991524
 20
11.2492005113
 30
0.0
 10
9.3598740393
 20
11.2483106323
 30
0.0
 10
9.379414343
 20
11.2477088122
 30
0.0
 10
9.399055661
 20
11.247396964
 30
0.0
 10
9.4187339083
 20
11.2473761667
 30
0.0
 10
9.438384493
 20
11.2476464749
 30
0.0
 10
9.4579430539
 20
11.2482069961
 30
0.0
 10
9.4773455017
 20
11.2490558756
 30
0.0
 10
9.4965282647
 20
11.2501903097
 30
0.0
 10
9.515428496
 20
11.2516065558
 30
0.0
 10
9.5339842788
 20
11.2532999439
 30
0.0
 10
9.5521348392
 20
11.2552648731
 30
0.0
 10
9.569820748
 20
11.2574948447
 30
0.0
 10
9.5869841121
 20
11.2599824855
 30
0.0
 10
9.6035687706
 20
11.2627195681
 30
0.0
 10
9.6195204751
 20
11.2656970451
 30
0.0
 10
9.6347871422
 20
11.2689050461
 30
0.0
 10
9.6493188339
 20
11.2723329641
 30
0.0
 10
9.6609259041
 20
11.27540268
 30
0.0
 10
9.6698031354
 20
11.2779670957
 30
0.0
 10
9.6761597529
 20
11.2799126342
 30
0.0
 10
9.6822985363
 20
11.2819044214
 30
0.0
 10
9.6882144947
 20
11.2839407617
 30
0.0
 10
9.6939027898
 20
11.2860200404
 30
0.0
 10
9.6993587886
 20
11.2881405353
 30
0.0
 10
9.7045780598
 20
11.2903004776
 30
0.0
 10
9.7095563396
 20
11.2924981784
 30
0.0
 10
9.7142896171
 20
11.2947317559
 30
0.0
 10
9.718774041
 20
11.2969994682
 30
0.0
 10
9.7230059978
 20
11.2992994584
 30
0.0
 10
9.7269821012
 20
11.3016298455
 30
0.0
 10
9.7306991218
 20
11.3039888614
 30
0.0
 10
9.7341541427
 20
11.306374548
 30
0.0
 10
9.7373443684
 20
11.3087851449
 30
0.0
 10
9.740267271
 20
11.3112187943
 30
0.0
 10
9.742920544
 20
11.3136736657
 30
0.0
 10
9.7453019527
 20
11.3161480912
 30
0.0
 10
9.7474095991
 20
11.3186402446
 30
0.0
 10
9.7492415175
 20
11.3211485338
 30
0.0
 10
9.750795936
 20
11.3236712332
 30
0.0
 10
9.7520711451
 20
11.3262065886
 30
0.0
 10
9.7530652876
 20
11.3287527211
 30
0.0
 10
9.7537769082
 20
11.3313074924
 30
0.0
 10
9.7542044649
 20
11.3338679965
 30
0.0
 10
9.7542997056
 20
11.3355810866
 30
0.0
 10
9.7542996982
 20
11.3364320768
 30
0.0
  0
SPLINE
  5
318
100
AcDbEntity
  8
0
100
AcDbSpline
 62
7
  6
CONTINUOUS
 70
0
 71
3
 72
52
 73
48
 74
0
 42
0.0000001
 43
0.0000001
 44
0.0000000001
 40
0.0
 40
0.0
 40
0.0
 40
0.0
 40
0.0417975951
 40
0.0840616288
 40
0.1266599
 40
0.1694646819
 40
0.2123442235
 40
0.2551675716
 40
0.2978037564
 40
0.3401225587
 40
0.3819950468
 40
0.4232940448
 40
0.4638946794
 40
0.5036749394
 40
0.5425162168
 40
0.5803038545
 40
0.6169277287
 40
0.6522828762
 40
0.6862702207
 40
0.7187973048
 40
0.7497791232
 40
0.7646666939
 40
0.7791400459
 40
0.7931910474
 40
0.8068124878
 40
0.8199977024
 40
0.8327409898
 40
0.8450375569
 40
0.8568834717
 40
0.8682761438
 40
0.8792139942
 40
0.8896969854
 40
0.8997266536
 40
0.9093062033
 40
0.9184411394
 40
0.9271391328
 40
0.9354107775
 40
0.9432698769
 40
0.9507338665
 40
0.9578247066
 40
0.9645691138
 40
0.9709994856
 40
0.9771542525
 40
0.9830781055
 40
0.9888220386
 40
0.9944424568
 40
1.0
 40
1.0
 40
1.0
 40
1.0
 10
14.1508954562
 20
10.9154958047
 30
0.0
 10
14.1572803129
 20
10.9150530134
 30
0.0
 10
14.17012857
 20
10.9142645736
 30
0.0
 10
14.1895034569
 20
10.9133746946
 30
0.0
 10
14.2090437606
 20
10.9127728745
 30
0.0
 10
14.2286850786
 20
10.9124610263
 30
0.0
 10
14.2483633259
 20
10.912440229
 30
0.0
 10
14.2680139106
 20
10.9127105372
 30
0.0
 10
14.2875724716
 20
10.9132710584
 30
0.0
 10
14.3069749193
 20
10.9141199379
 30
0.0
 10
14.3261576824
 20
10.9152543719
 30
0.0
 10
14.3450579136
 20
10.916670618
 30
0.0
 10
14.3636136964
 20
10.9183640061
 30
0.0
 10
14.3817642568
 20
10.9203289354
 30
0.0
 10
14.3994501656
 20
10.922558907
 30
0.0
 10
14.4166135297
 20
10.9250465478
 30
0.0
 10
14.4331981883
 20
10.9277836304
 30
0.0
 10
14.4491498927
 20
10.9307611073
 30
0.0
 10
14.4644165598
 20
10.9339691084
 30
0.0
 10
14.4789482515
 20
10.9373970264
 30
0.0
 10
14.4905553217
 20
10.9404667423
 30
0.0
 10
14.499432553
 20
10.943031158
 30
0.0
 10
14.5057891705
 20
10.9449766965
 30
0.0
 10
14.5119279539
 20
10.9469684836
 30
0.0
 10
14.5178439123
 20
10.949004824
 30
0.0
 10
14.5235322074
 20
10.9510841027
 30
0.0
 10
14.5289882062
 20
10.9532045976
 30
0.0
 10
14.5342074774
 20
10.9553645399
 30
0.0
 10
14.5391857572
 20
10.9575622407
 30
0.0
 10
14.5439190347
 20
10.9597958182
 30
0.0
 10
14.5484034586
 20
10.9620635305
 30
0.0
 10
14.5526354154
 20
10.9643635207
 30
0.0
 10
14.5566115188
 20
10.9666939078
 30
0.0
 10
14.5603285394
 20
10.9690529237
 30
0.0
 10
14.5637835603
 20
10.9714386103
 30
0.0
 10
14.566973786
 20
10.9738492072
 30
0.0
 10
14.5698966886
 20
10.9762828566
 30
0.0
 10
14.5725499617
 20
10.978737728
 30
0.0
 10
14.5749313703
 20
10.9812121535
 30
0.0
 10
14.5770390167
 20
10.9837043069
 30
0.0
 10
14.5788709351
 20
10.9862125961
 30
0.0
 10
14.5804253537
 20
10.9887352955
 30
0.0
 10
14.5817005628
 20
10.9912706509
 30
0.0
 10
14.5826947052
 20
10.9938167834
 30
0.0
 10
14.5834063258
 20
10.9963715547
 30
0.0
 10
14.5838338825
 20
10.9989320588
 30
0.0
 10
14.5839291232
 20
11.0006451489
 30
0.0
 10
14.5839291158
 20
11.0014961391
 30
0.0
  0
SPLINE
  5
319
100
AcDbEntity
  8
0
100
AcDbSpline
 62
7
  6
CONTINUOUS
 70
0
 71
3
 72
52
 73
48
 74
0
 42
0.0000001
 43
0.0000001
 44
0.0000000001
 40
0.0
 40
0.0
 40
0.0
 40
0.0
 40
0.0417975951
 40
0.0840616288
 40
0.1266599
 40
0.1694646819
 40
0.2123442235
 40
0.2551675716
 40
0.2978037564
 40
0.3401225587
 40
0.3819950468
 40
0.4232940448
 40
0.4638946794
 40
0.5036749394
 40
0.5425162168
 40
0.5803038545
 40
0.6169277287
 40
0.6522828762
 40
0.6862702207
 40
0.7187973048
 40
0.7497791232
 40
0.7646666939
 40
0.7791400459
 40
0.7931910474
 40
0.8068124878
 40
0.8199977024
 40
0.8327409898
 40
0.8450375569
 40
0.8568834717
 40
0.8682761438
 40
0.8792139942
 40
0.8896969854
 40
0.8997266536
 40
0.9093062033
 40
0.9184411394
 40
0.9271391328
 40
0.9354107775
 40
0.9432698769
 40
0.9507338665
 40
0.9578247066
 40
0.9645691138
 40
0.9709994856
 40
0.9771542525
 40
0.9830781055
 40
0.9888220386
 40
0.9944424568
 40
1.0
 40
1.0
 40
1.0
 40
1.0
 10
13.5685530853
 20
10.3529962356
 30
0.0
 10
13.574937942
 20
10.3525534443
 30
0.0
 10
13.5877861992
 20
10.3517650045
 30
0.0
 10
13.607161086
 20
10.3508751255
 30
0.0
 10
13.6267013897
 20
10.3502733054
 30
0.0
 10
13.6463427077
 20
10.3499614572
 30
0.0
 10
13.666020955
 20
10.3499406599
 30
0.0
 10
13.6856715397
 20
10.3502109681
 30
0.0
 10
13.7052301007
 20
10.3507714893
 30
0.0
 10
13.7246325484
 20
10.3516203688
 30
0.0
 10
13.7438153115
 20
10.3527548028
 30
0.0
 10
13.7627155427
 20
10.3541710489
 30
0.0
 10
13.7812713255
 20
10.355864437
 30
0.0
 10
13.799421886
 20
10.3578293663
 30
0.0
 10
13.8171077947
 20
10.3600593379
 30
0.0
 10
13.8342711588
 20
10.3625469787
 30
0.0
 10
13.8508558174
 20
10.3652840613
 30
0.0
 10
13.8668075218
 20
10.3682615382
 30
0.0
 10
13.8820741889
 20
10.3714695393
 30
0.0
 10
13.8966058806
 20
10.3748974573
 30
0.0
 10
13.9082129509
 20
10.3779671731
 30
0.0
 10
13.9170901821
 20
10.3805315889
 30
0.0
 10
13.9234467996
 20
10.3824771274
 30
0.0
 10
13.929585583
 20
10.3844689145
 30
0.0
 10
13.9355015414
 20
10.3865052549
 30
0.0
 10
13.9411898365
 20
10.3885845336
 30
0.0
 10
13.9466458353
 20
10.3907050285
 30
0.0
 10
13.9518651065
 20
10.3928649708
 30
0.0
 10
13.9568433863
 20
10.3950626716
 30
0.0
 10
13.9615766639
 20
10.3972962491
 30
0.0
 10
13.9660610877
 20
10.3995639614
 30
0.0
 10
13.9702930445
 20
10.4018639516
 30
0.0
 10
13.9742691479
 20
10.4041943387
 30
0.0
 10
13.9779861685
 20
10.4065533545
 30
0.0
 10
13.9814411894
 20
10.4089390412
 30
0.0
 10
13.9846314151
 20
10.4113496381
 30
0.0
 10
13.9875543177
 20
10.4137832875
 30
0.0
 10
13.9902075908
 20
10.4162381589
 30
0.0
 10
13.9925889995
 20
10.4187125844
 30
0.0
 10
13.9946966458
 20
10.4212047378
 30
0.0
 10
13.9965285642
 20
10.423713027
 30
0.0
 10
13.9980829828
 20
10.4262357264
 30
0.0
 10
13.9993581919
 20
10.4287710818
 30
0.0
 10
14.0003523343
 20
10.4313172143
 30
0.0
 10
14.0010639549
 20
10.4338719856
 30
0.0
 10
14.0014915116
 20
10.4364324897
 30
0.0
 10
14.0015867523
 20
10.4381455798
 30
0.0
 10
14.001586745
 20
10.43899657
 30
0.0
  0
SPLINE
  5
31A
100
AcDbEntity
  8
0
100
AcDbSpline
 62
7
  6
CONTINUOUS
 70
0
 71
3
 72
52
 73
48
 74
0
 42
0.0000001
 43
0.0000001
 44
0.0000000001
 40
0.0
 40
0.0
 40
0.0
 40
0.0
 40
0.0417975951
 40
0.0840616288
 40
0.1266599
 40
0.1694646819
 40
0.2123442235
 40
0.2551675716
 40
0.2978037564
 40
0.3401225587
 40
0.3819950468
 40
0.4232940448
 40
0.4638946794
 40
0.5036749394
 40
0.5425162168
 40
0.5803038545
 40
0.6169277287
 40
0.6522828762
 40
0.6862702207
 40
0.7187973048
 40
0.7497791232
 40
0.7646666939
 40
0.7791400459
 40
0.7931910474
 40
0.8068124878
 40
0.8199977024
 40
0.8327409898
 40
0.8450375569
 40
0.8568834717
 40
0.8682761438
 40
0.8792139942
 40
0.8896969854
 40
0.8997266536
 40
0.9093062033
 40
0.9184411394
 40
0.9271391328
 40
0.9354107775
 40
0.9432698769
 40
0.9507338665
 40
0.9578247066
 40
0.9645691138
 40
0.9709994856
 40
0.9771542525
 40
0.9830781055
 40
0.9888220386
 40
0.9944424568
 40
1.0
 40
1.0
 40
1.0
 40
1.0
 10
8.7389236677
 20
10.6879321733
 30
0.0
 10
8.7453085244
 20
10.687489382
 30
0.0
 10
8.7581567815
 20
10.6867009422
 30
0.0
 10
8.7775316684
 20
10.6858110632
 30
0.0
 10
8.7970719721
 20
10.6852092431
 30
0.0
 10
8.8167132901
 20
10.6848973949
 30
0.0
 10
8.8363915374
 20
10.6848765976
 30
0.0
 10
8.8560421221
 20
10.6851469058
 30
0.0
 10
8.8756006831
 20
10.685707427
 30
0.0
 10
8.8950031308
 20
10.6865563065
 30
0.0
 10
8.9141858939
 20
10.6876907405
 30
0.0
 10
8.9330861251
 20
10.6891069866
 30
0.0
 10
8.9516419079
 20
10.6908003747
 30
0.0
 10
8.9697924683
 20
10.692765304
 30
0.0
 10
8.9874783771
 20
10.6949952756
 30
0.0
 10
9.0046417412
 20
10.6974829164
 30
0.0
 10
9.0212263998
 20
10.700219999
 30
0.0
 10
9.0371781042
 20
10.7031974759
 30
0.0
 10
9.0524447713
 20
10.706405477
 30
0.0
 10
9.066976463
 20
10.709833395
 30
0.0
 10
9.0785835332
 20
10.7129031108
 30
0.0
 10
9.0874607645
 20
10.7154675266
 30
0.0
 10
9.093817382
 20
10.7174130651
 30
0.0
 10
9.0999561654
 20
10.7194048522
 30
0.0
 10
9.1058721238
 20
10.7214411926
 30
0.0
 10
9.1115604189
 20
10.7235204713
 30
0.0
 10
9.1170164177
 20
10.7256409662
 30
0.0
 10
9.1222356889
 20
10.7278009085
 30
0.0
 10
9.1272139687
 20
10.7299986093
 30
0.0
 10
9.1319472462
 20
10.7322321868
 30
0.0
 10
9.1364316701
 20
10.7344998991
 30
0.0
 10
9.1406636269
 20
10.7367998893
 30
0.0
 10
9.1446397303
 20
10.7391302764
 30
0.0
 10
9.1483567509
 20
10.7414892923
 30
0.0
 10
9.1518117718
 20
10.7438749789
 30
0.0
 10
9.1550019975
 20
10.7462855758
 30
0.0
 10
9.1579249001
 20
10.7487192252
 30
0.0
 10
9.1605781732
 20
10.7511740966
 30
0.0
 10
9.1629595818
 20
10.7536485221
 30
0.0
 10
9.1650672282
 20
10.7561406755
 30
0.0
 10
9.1668991466
 20
10.7586489647
 30
0.0
 10
9.1684535652
 20
10.7611716641
 30
0.0
 10
9.1697287743
 20
10.7637070195
 30
0.0
 10
9.1707229167
 20
10.766253152
 30
0.0
 10
9.1714345373
 20
10.7688079233
 30
0.0
 10
9.171862094
 20
10.7713684274
 30
0.0
 10
9.1719573347
 20
10.7730815175
 30
0.0
 10
9.1719573273
 20
10.7739325077
 30
0.0
  0
SPLINE
  5
31B
100
AcDbEntity
  8
0
100
AcDbSpline
 62
7
  6
CONTINUOUS
 70
0
 71
3
 72
46
 73
42
 74
0
 42
0.0000001
 43
0.0000001
 44
0.0000000001
 40
0.0
 40
0.0
 40
0.0
 40
0.0
 40
0.0516672117
 40
0.0782966891
 40
0.1054765436
 40
0.1615517402
 40
0.2200182
 40
0.2809792882
 40
0.3444950535
 40
0.3772097932
 40
0.4105471891
 40
0.4444846781
 40
0.4789884473
 40
0.5140109769
 40
0.5494898334
 40
0.5853456267
 40
0.621479972
 40
0.657773164
 40
0.6940810808
 40
0.7302307452
 40
0.7660146799
 40
0.7836944736
 40
0.8011858805
 40
0.8184503203
 40
0.8354455894
 40
0.8521259412
 40
0.8684427333
 40
0.8843435226
 40
0.8997739108
 40
0.9146773456
 40
0.9289970105
 40
0.9426774626
 40
0.9556667459
 40
0.9618883456
 40
0.9679209903
 40
0.973760598
 40
0.9794042428
 40
0.9848499415
 40
0.9900969129
 40
0.9951461416
 40
1.0
 40
1.0
 40
1.0
 40
1.0
 10
8.6492848393
 20
7.2111395356
 30
0.0
 10
8.6579722116
 20
7.2059056513
 30
0.0
 10
8.671195598
 20
7.1980707731
 30
0.0
 10
8.689120397
 20
7.1877074551
 30
0.0
 10
8.7078713775
 20
7.1770453952
 30
0.0
 10
8.7322058702
 20
7.1635610286
 30
0.0
 10
8.7625870039
 20
7.1473147083
 30
0.0
 10
8.7945206931
 20
7.1308834721
 30
0.0
 10
8.822200394
 20
7.1172425655
 30
0.0
 10
8.845176858
 20
7.1063343921
 30
0.0
 10
8.8629972587
 20
7.0981063786
 30
0.0
 10
8.8812329668
 20
7.0899431493
 30
0.0
 10
8.8998756628
 20
7.0818832659
 30
0.0
 10
8.9189108285
 20
7.0739735948
 30
0.0
 10
8.9383162599
 20
7.0662696807
 30
0.0
 10
8.9580606487
 20
7.0588364589
 30
0.0
 10
8.9781016045
 20
7.0517484768
 30
0.0
 10
8.9983831545
 20
7.0450897859
 30
0.0
 10
9.0188325747
 20
7.0389533328
 30
0.0
 10
9.0393558015
 20
7.033440032
 30
0.0
 10
9.0564894965
 20
7.0294373934
 30
0.0
 10
9.0701374152
 20
7.0266525571
 30
0.0
 10
9.0802625619
 20
7.0247969157
 30
0.0
 10
9.0902925061
 20
7.0231797255
 30
0.0
 10
9.1001992749
 20
7.0218145468
 30
0.0
 10
9.1099518964
 20
7.0207142574
 30
0.0
 10
9.1195163576
 20
7.0198913417
 30
0.0
 10
9.1288556863
 20
7.0193569212
 30
0.0
 10
9.1379300139
 20
7.0191212371
 30
0.0
 10
9.146696986
 20
7.0191929825
 30
0.0
 10
9.1551122785
 20
7.0195789667
 30
0.0
 10
9.1631299478
 20
7.0202846142
 30
0.0
 10
9.169530841
 20
7.0211533698
 30
0.0
 10
9.1744103057
 20
7.0220200454
 30
0.0
 10
9.1778885234
 20
7.0227419101
 30
0.0
 10
9.1812323949
 20
7.0235448872
 30
0.0
 10
9.1844365823
 20
7.0244285086
 30
0.0
 10
9.1874959001
 20
7.0253923023
 30
0.0
 10
9.1904053936
 20
7.0264358637
 30
0.0
 10
9.1931603809
 20
7.0275582338
 30
0.0
 10
9.1949256562
 20
7.0283745105
 30
0.0
 10
9.1957799061
 20
7.0287965214
 30
0.0
  0
SPLINE
  5
31C
100
AcDbEntity
  8
0
100
AcDbSpline
 62
7
  6
CONTINUOUS
 70
0
 71
3
 72
88
 73
84
 74
0
 42
0.0000001
 43
0.0000001
 44
0.0000000001
 40
0.0
 40
0.0
 40
0.0
 40
0.0
 40
0.0132136135
 40
0.0269936674
 40
0.0413255351
 40
0.0561940142
 40
0.0715818374
 40
0.0874705254
 40
0.1038403268
 40
0.1206703357
 40
0.1379386038
 40
0.1556222039
 40
0.1736973068
 40
0.1921392652
 40
0.210922682
 40
0.2300214713
 40
0.249408914
 40
0.269057727
 40
0.2889401251
 40
0.3090278769
 40
0.3292923569
 40
0.3497046052
 40
0.3702353875
 40
0.3908552491
 40
0.4115345679
 40
0.4322436104
 40
0.45295259
 40
0.4736317201
 40
0.4942512678
 40
0.5147816113
 40
0.5351932967
 40
0.555457091
 40
0.5755440357
 40
0.5954255065
 40
0.6150732736
 40
0.6344595541
 40
0.6535570676
 40
0.6723390969
 40
0.6907795587
 40
0.7088530592
 40
0.7265349549
 40
0.7438014201
 40
0.7606295313
 40
0.7769973422
 40
0.7928839582
 40
0.8082696275
 40
0.823135852
 40
0.8374655134
 40
0.851242993
 40
0.8579203522
 40
0.8644545857
 40
0.870844221
 40
0.8770879558
 40
0.8831845922
 40
0.8891330901
 40
0.8949325843
 40
0.9005823413
 40
0.9060818495
 40
0.911430773
 40
0.9166289809
 40
0.9216766071
 40
0.9265739983
 40
0.9313218079
 40
0.9359209901
 40
0.9403728103
 40
0.9446789446
 40
0.9488414443
 40
0.9528628284
 40
0.956746133
 40
0.9604949197
 40
0.964113405
 40
0.9676064657
 40
0.9709797239
 40
0.9742396406
 40
0.9773935249
 40
0.9804496432
 40
0.98341723
 40
0.9863064992
 40
0.9891286616
 40
0.9918958326
 40
0.9946209563
 40
0.9973176492
 40
1.0
 40
1.0
 40
1.0
 40
1.0
 10
13.5312844955
 20
9.81699754
 30
0.0
 10
13.5207522083
 20
9.8132466392
 30
0.0
 10
13.4991334132
 20
9.8058700571
 30
0.0
 10
13.4657778142
 20
9.7953704493
 30
0.0
 10
13.4308547261
 20
9.7852167
 30
0.0
 10
13.3944183486
 20
9.7754245894
 30
0.0
 10
13.3565242471
 20
9.7660092701
 30
0.0
 10
13.3172307719
 20
9.7569853292
 30
0.0
 10
13.2765983186
 20
9.7483667332
 30
0.0
 10
13.2346893916
 20
9.7401668369
 30
0.0
 10
13.1915684819
 20
9.7323983481
 30
0.0
 10
13.1473019674
 20
9.7250733057
 30
0.0
 10
13.1019580184
 20
9.7182030398
 30
0.0
 10
13.0556064743
 20
9.7117981865
 30
0.0
 10
13.0083187295
 20
9.7058686641
 30
0.0
 10
12.9601676311
 20
9.7004236631
 30
0.0
 10
12.9112273713
 20
9.6954716003
 30
0.0
 10
12.8615733655
 20
9.6910201339
 30
0.0
 10
12.8112821279
 20
9.6870761521
 30
0.0
 10
12.7604311576
 20
9.6836457676
 30
0.0
 10
12.7090988235
 20
9.6807342866
 30
0.0
 10
12.6573642417
 20
9.6783462027
 30
0.0
 10
12.6053071474
 20
9.6764852094
 30
0.0
 10
12.5530077727
 20
9.675154191
 30
0.0
 10
12.5005467262
 20
9.6743552148
 30
0.0
 10
12.4480048675
 20
9.6740895046
 30
0.0
 10
12.3954631798
 20
9.6743574687
 30
0.0
 10
12.3430026461
 20
9.6751586948
 30
0.0
 10
12.2907041253
 20
9.6764919555
 30
0.0
 10
12.2386482246
 20
9.6783551818
 30
0.0
 10
12.1869151745
 20
9.6807454849
 30
0.0
 10
12.1355847074
 20
9.6836591675
 30
0.0
 10
12.0847359364
 20
9.6870917317
 30
0.0
 10
12.0344472276
 20
9.6910378702
 30
0.0
 10
11.9847960762
 20
9.6954914663
 30
0.0
 10
11.9358589916
 20
9.7004456278
 30
0.0
 10
11.8877113838
 20
9.7058926927
 30
0.0
 10
11.8404274403
 20
9.7118242419
 30
0.0
 10
11.7940800026
 20
9.7182310825
 30
0.0
 10
11.7487404584
 20
9.7251032924
 30
0.0
 10
11.7044786398
 20
9.7324302318
 30
0.0
 10
11.6613627093
 20
9.7402005672
 30
0.0
 10
11.6194590397
 20
9.7484022596
 30
0.0
 10
11.5788321111
 20
9.7570225957
 30
0.0
 10
11.539544415
 20
9.7660482206
 30
0.0
 10
11.5016563785
 20
9.7754651604
 30
0.0
 10
11.4652261686
 20
9.7852588337
 30
0.0
 10
11.4303098742
 20
9.7954140636
 30
0.0
 10
11.4022341885
 20
9.8042545097
 30
0.0
 10
11.380579863
 20
9.811506536
 30
0.0
 10
11.3649199519
 20
9.8169693803
 30
0.0
 10
11.3496774414
 20
9.822510691
 30
0.0
 10
11.3348581585
 20
9.8281282839
 30
0.0
 10
11.3204678102
 20
9.833820029
 30
0.0
 10
11.3065119273
 20
9.8395837476
 30
0.0
 10
11.2929958502
 20
9.8454171611
 30
0.0
 10
11.2799247895
 20
9.8513181076
 30
0.0
 10
11.2673037373
 20
9.8572842577
 30
0.0
 10
11.25513753
 20
9.8633133318
 30
0.0
 10
11.2434308453
 20
9.869403069
 30
0.0
 10
11.2321881263
 20
9.8755510561
 30
0.0
 10
11.2214137
 20
9.8817550262
 30
0.0
 10
11.2111116645
 20
9.8880125844
 30
0.0
 10
11.2012859287
 20
9.8943213273
 30
0.0
 10
11.1919402804
 20
9.9006789558
 30
0.0
 10
11.1830782219
 20
9.9070829865
 30
0.0
 10
11.174703154
 20
9.913531086
 30
0.0
 10
11.1668182716
 20
9.9200208684
 30
0.0
 10
11.159426526
 20
9.926549877
 30
0.0
 10
11.1525308215
 20
9.9331158306
 30
0.0
 10
11.1461337478
 20
9.9397162759
 30
0.0
 10
11.1402378057
 20
9.9463488732
 30
0.0
 10
11.1348453871
 20
9.9530113159
 30
0.0
 10
11.1299585808
 20
9.9597011653
 30
0.0
 10
11.1255795512
 20
9.9664161519
 30
0.0
 10
11.1217101849
 20
9.9731538476
 30
0.0
 10
11.1183522615
 20
9.9799118099
 30
0.0
 10
11.1155076066
 20
9.9866875874
 30
0.0
 10
11.1131776275
 20
9.9934785022
 30
0.0
 10
11.1113638184
 20
10.0002818074
 30
0.0
 10
11.1100673497
 20
10.0070947188
 30
0.0
 10
11.1092890066
 20
10.0139136458
 30
0.0
 10
11.1091158679
 20
10.018466821
 30
0.0
 10
11.1091158616
 20
10.0207364041
 30
0.0
  0
SPLINE
  5
31D
100
AcDbEntity
  8
0
100
AcDbSpline
 62
7
  6
CONTINUOUS
 70
0
 71
3
 72
28
 73
24
 74
0
 42
0.0000001
 43
0.0000001
 44
0.0000000001
 40
0.0
 40
0.0
 40
0.0
 40
0.0
 40
0.0966661589
 40
0.1858878387
 40
0.268455441
 40
0.3452272004
 40
0.4169804886
 40
0.4843689896
 40
0.5166020466
 40
0.5479362175
 40
0.6080959522
 40
0.6652096282
 40
0.6927202543
 40
0.7195738691
 40
0.7714121601
 40
0.8209446195
 40
0.8449110203
 40
0.8683735883
 40
0.8913559252
 40
0.913882589
 40
0.9359811816
 40
0.9576811423
 40
1.0
 40
1.0
 40
1.0
 40
1.0
 10
11.33189377
 20
7.2286594459
 30
0.0
 10
11.3338858495
 20
7.2248524065
 30
0.0
 10
11.3380198175
 20
7.2176850971
 30
0.0
 10
11.3448116535
 20
7.2078594369
 30
0.0
 10
11.3517885673
 20
7.1992787926
 30
0.0
 10
11.358851484
 20
7.1918077941
 30
0.0
 10
11.3659355187
 20
7.1853213815
 30
0.0
 10
11.371905872
 20
7.1805797656
 30
0.0
 10
11.3766492255
 20
7.1772041121
 30
0.0
 10
11.3812374798
 20
7.1741704113
 30
0.0
 10
11.3869306859
 20
7.1708099734
 30
0.0
 10
11.3926904851
 20
7.1679267497
 30
0.0
 10
11.3972349224
 20
7.1659492308
 30
0.0
 10
11.4016287261
 20
7.1642209872
 30
0.0
 10
11.4070429258
 20
7.162423018
 30
0.0
 10
11.4124542641
 20
7.1610724001
 30
0.0
 10
11.4166930752
 20
7.1602871834
 30
0.0
 10
11.4197925285
 20
7.1598459956
 30
0.0
 10
11.4228445667
 20
7.1595460488
 30
0.0
 10
11.4258465465
 20
7.1593879666
 30
0.0
 10
11.4287958983
 20
7.1593721877
 30
0.0
 10
11.4326209636
 20
7.1595404787
 30
0.0
 10
11.435452999
 20
7.1598858289
 30
0.0
 10
11.4373038614
 20
7.1602214176
 30
0.0
  0
SPLINE
  5
31E
100
AcDbEntity
  8
0
100
AcDbSpline
 62
7
  6
CONTINUOUS
 70
0
 71
3
 72
46
 73
42
 74
0
 42
0.0000001
 43
0.0000001
 44
0.0000000001
 40
0.0
 40
0.0
 40
0.0
 40
0.0
 40
0.0446341856
 40
0.0920368771
 40
0.1419548251
 40
0.1939731471
 40
0.2475025454
 40
0.3017973534
 40
0.3560149647
 40
0.4093102452
 40
0.4609333075
 40
0.5102985098
 40
0.5570107891
 40
0.6008510763
 40
0.6417407375
 40
0.6797006251
 40
0.7148150652
 40
0.7472045913
 40
0.7770063331
 40
0.804362091
 40
0.8294115069
 40
0.8522867149
 40
0.8731130103
 40
0.8920055854
 40
0.9090740654
 40
0.9244206091
 40
0.9381467106
 40
0.9444341573
 40
0.9503554325
 40
0.9559247792
 40
0.9611568554
 40
0.9660681535
 40
0.9706774864
 40
0.9750061994
 40
0.979078072
 40
0.9829208259
 40
0.9865669101
 40
0.990053735
 40
0.9934233322
 40
0.99672213
 40
1.0
 40
1.0
 40
1.0
 40
1.0
 10
10.8208066746
 20
7.3517430406
 30
0.0
 10
10.8214793985
 20
7.3546267994
 30
0.0
 10
10.8229824862
 20
7.3605466501
 30
0.0
 10
10.8256280578
 20
7.3695871211
 30
0.0
 10
10.8287381469
 20
7.3789960185
 30
0.0
 10
10.8322987285
 20
7.3886780033
 30
0.0
 10
10.8362739759
 20
7.3985110777
 30
0.0
 10
10.8406048438
 20
7.4083522671
 30
0.0
 10
10.8452120008
 20
7.4180498173
 30
0.0
 10
10.8500033676
 20
7.4274590152
 30
0.0
 10
10.8548845468
 20
7.4364571378
 30
0.0
 10
10.8597686829
 20
7.4449532244
 30
0.0
 10
10.864583262
 20
7.4528906161
 30
0.0
 10
10.8692729192
 20
7.4602434182
 30
0.0
 10
10.873798823
 20
7.4670095562
 30
0.0
 10
10.8781361309
 20
7.4732032248
 30
0.0
 10
10.8822708237
 20
7.4788483503
 30
0.0
 10
10.8861967225
 20
7.4839736417
 30
0.0
 10
10.8899130638
 20
7.4886092221
 30
0.0
 10
10.8934224757
 20
7.4927846952
 30
0.0
 10
10.8967297388
 20
7.4965278426
 30
0.0
 10
10.899841172
 20
7.4998638236
 30
0.0
 10
10.9027630755
 20
7.5028156352
 30
0.0
 10
10.9055027242
 20
7.5054029401
 30
0.0
 10
10.9080665051
 20
7.5076436101
 30
0.0
 10
10.9104613379
 20
7.5095521359
 30
0.0
 10
10.912373299
 20
7.5109142009
 30
0.0
 10
10.9138240917
 20
7.5118398434
 30
0.0
 10
10.9148414123
 20
7.5124372466
 30
0.0
 10
10.9158206785
 20
7.5129594265
 30
0.0
 10
10.9167625773
 20
7.5134070525
 30
0.0
 10
10.9176676931
 20
7.5137807909
 30
0.0
 10
10.9185366133
 20
7.5140812588
 30
0.0
 10
10.9193698654
 20
7.5143090608
 30
0.0
 10
10.9201680225
 20
7.5144643129
 30
0.0
 10
10.9209315476
 20
7.5145470097
 30
0.0
 10
10.9216608287
 20
7.5145570581
 30
0.0
 10
10.9223561346
 20
7.5144943951
 30
0.0
 10
10.9230176234
 20
7.514358645
 30
0.0
 10
10.9236450344
 20
7.5141492432
 30
0.0
 10
10.9240398884
 20
7.5139605235
 30
0.0
 10
10.9242299557
 20
7.5138548564
 30
0.0
  0
SPLINE
  5
31F
100
AcDbEntity
  8
0
100
AcDbSpline
 62
7
  6
CONTINUOUS
 70
0
 71
3
 72
106
 73
102
 74
0
 42
0.0000001
 43
0.0000001
 44
0.0000000001
 40
0.0
 40
0.0
 40
0.0
 40
0.0
 40
0.002892414
 40
0.0058073597
 40
0.0087668042
 40
0.0117916495
 40
0.0149013382
 40
0.0181135859
 40
0.0214442629
 40
0.0249073441
 40
0.0285150077
 40
0.0322776945
 40
0.0362043149
 40
0.040302327
 40
0.0445779686
 40
0.0490363188
 40
0.0536815058
 40
0.0585167534
 40
0.0635445398
 40
0.0687666444
 40
0.0741842483
 40
0.0797979943
 40
0.0856080296
 40
0.0916140872
 40
0.0978154767
 40
0.1042111862
 40
0.1107998352
 40
0.1175797886
 40
0.1245490884
 40
0.1317055659
 40
0.1390467729
 40
0.1465700757
 40
0.1542726038
 40
0.1621513131
 40
0.1702029638
 40
0.1784241464
 40
0.1868112933
 40
0.1953606688
 40
0.2040684109
 40
0.2129304915
 40
0.2311007958
 40
0.2498371523
 40
0.2691030905
 40
0.2888604891
 40
0.3090697382
 40
0.3296898915
 40
0.3506788108
 40
0.3719933065
 40
0.3935892723
 40
0.4154218191
 40
0.4374454052
 40
0.4596139658
 40
0.4818810412
 40
0.5041999044
 40
0.5265236882
 40
0.5488055119
 40
0.5709986084
 40
0.5930564513
 40
0.6149328822
 40
0.6365822389
 40
0.6579594845
 40
0.6790203377
 40
0.6997214052
 40
0.7200203171
 40
0.7398758651
 40
0.7592481468
 40
0.7780987158
 40
0.7963907412
 40
0.8140891791
 40
0.822705496
 40
0.8311611966
 40
0.8394524721
 40
0.8475757044
 40
0.8555273946
 40
0.8633042525
 40
0.8709031295
 40
0.8783210997
 40
0.8855554126
 40
0.8926035523
 40
0.8994632232
 40
0.9061323791
 40
0.9126092494
 40
0.9188923355
 40
0.9249804806
 40
0.9308728375
 40
0.9365689782
 40
0.9420688464
 40
0.9473728959
 40
0.9524820491
 40
0.9573978499
 40
0.9621224519
 40
0.966658772
 40
0.9710105299
 40
0.9751824027
 40
0.9791801256
 40
0.98301062
 40
0.9866821521
 40
0.9902045071
 40
0.993589207
 40
0.9968494349
 40
1.0
 40
1.0
 40
1.0
 40
1.0
 10
10.4063752296
 20
10.2551925546
 30
0.0
 10
10.4063752372
 20
10.2524492898
 30
0.0
 10
10.406121764
 20
10.2469380939
 30
0.0
 10
10.4049828512
 20
10.2386908719
 30
0.0
 10
10.4030862974
 20
10.2304551405
 30
0.0
 10
10.4004342659
 20
10.2222373817
 30
0.0
 10
10.3970295066
 20
10.21404244
 30
0.0
 10
10.3928751934
 20
10.2058750013
 30
0.0
 10
10.3879745892
 20
10.19773942
 30
0.0
 10
10.3823313444
 20
10.1896397216
 30
0.0
 10
10.375949035
 20
10.1815800131
 30
0.0
 10
10.3688317207
 20
10.1735641336
 30
0.0
 10
10.3609834315
 20
10.1655962145
 30
0.0
 10
10.3524087616
 20
10.1576801298
 30
0.0
 10
10.3431123896
 20
10.1498200979
 30
0.0
 10
10.333099564
 20
10.1420200901
 30
0.0
 10
10.3223757358
 20
10.134284366
 30
0.0
 10
10.3109468783
 20
10.1266169858
 30
0.0
 10
10.2988192642
 20
10.1190221838
 30
0.0
 10
10.2859996235
 20
10.1115040772
 30
0.0
 10
10.2724950534
 20
10.1040668232
 30
0.0
 10
10.25831305
 20
10.0967145591
 30
0.0
 10
10.2434615158
 20
10.0894513336
 30
0.0
 10
10.2279487091
 20
10.0822812672
 30
0.0
 10
10.2117833102
 20
10.0752082862
 30
0.0
 10
10.194974328
 20
10.0682364574
 30
0.0
 10
10.1775311902
 20
10.0613695836
 30
0.0
 10
10.1594636402
 20
10.0546116408
 30
0.0
 10
10.1407818232
 20
10.0479663158
 30
0.0
 10
10.1214961965
 20
10.0414374574
 30
0.0
 10
10.1016175941
 20
10.0350286461
 30
0.0
 10
10.0811571624
 20
10.0287435738
 30
0.0
 10
10.0601263978
 20
10.0225857191
 30
0.0
 10
10.0385371075
 20
10.0165585963
 30
0.0
 10
10.016401424
 20
10.0106655801
 30
0.0
 10
9.9937317858
 20
10.0049099954
 30
0.0
 10
9.9705409335
 20
9.9992951032
 30
0.0
 10
9.9468419101
 20
9.9938240395
 30
0.0
 10
9.9226480206
 20
9.988499917
 30
0.0
 10
9.8894719346
 20
9.981543178
 30
0.0
 10
9.8468601207
 20
9.9732496556
 30
0.0
 10
9.7943887248
 20
9.9640104094
 30
0.0
 10
9.7402819711
 20
9.9554243003
 30
0.0
 10
9.6846616064
 20
9.9475107552
 30
0.0
 10
9.6276526172
 20
9.9402877014
 30
0.0
 10
9.5693831981
 20
9.9337714902
 30
0.0
 10
9.5099843861
 20
9.9279768715
 30
0.0
 10
9.4495897814
 20
9.9229169584
 30
0.0
 10
9.3883352375
 20
9.9186031996
 30
0.0
 10
9.3263585544
 20
9.9150453537
 30
0.0
 10
9.2637991652
 20
9.9122514687
 30
0.0
 10
9.2007978212
 20
9.9102278635
 30
0.0
 10
9.1374962726
 20
9.9089791149
 30
0.0
 10
9.0740369488
 20
9.9085080469
 30
0.0
 10
9.0105626354
 20
9.9088157252
 30
0.0
 10
8.9472161526
 20
9.9099014542
 30
0.0
 10
8.8841400314
 20
9.9117627789
 30
0.0
 10
8.8214761917
 20
9.9143954894
 30
0.0
 10
8.7593656209
 20
9.917793631
 30
0.0
 10
8.6979480554
 20
9.9219495173
 30
0.0
 10
8.6373616638
 20
9.9268537467
 30
0.0
 10
8.577742734
 20
9.9324952232
 30
0.0
 10
8.5192253631
 20
9.9388611803
 30
0.0
 10
8.4619411543
 20
9.9459372095
 30
0.0
 10
8.4060189099
 20
9.9537072907
 30
0.0
 10
8.351584359
 20
9.9621538305
 30
0.0
 10
8.2987597876
 20
9.9712576899
 30
0.0
 10
8.2476640402
 20
9.9809982673
 30
0.0
 10
8.2062596579
 20
9.9897033099
 30
0.0
 10
8.1740947693
 20
9.9969812355
 30
0.0
 10
8.1506890226
 20
10.0025361396
 30
0.0
 10
8.1277990702
 20
10.0082330879
 30
0.0
 10
8.1054377547
 20
10.0140688002
 30
0.0
 10
8.0836176542
 20
10.0200400746
 30
0.0
 10
8.0623510215
 20
10.0261434562
 30
0.0
 10
8.0416498098
 20
10.0323755853
 30
0.0
 10
8.0215256381
 20
10.038732882
 30
0.0
 10
8.0019898086
 20
10.045211815
 30
0.0
 10
7.9830532802
 20
10.0518087037
 30
0.0
 10
7.9647266738
 20
10.0585198431
 30
0.0
 10
7.9470202652
 20
10.0653414706
 30
0.0
 10
7.9299439633
 20
10.0722697127
 30
0.0
 10
7.9135073393
 20
10.0793007388
 30
0.0
 10
7.8977195612
 20
10.0864305208
 30
0.0
 10
7.8825894738
 20
10.0936551689
 30
0.0
 10
7.8681254784
 20
10.1009705266
 30
0.0
 10
7.8543356713
 20
10.1083726477
 30
0.0
 10
7.841227668
 20
10.1158572874
 30
0.0
 10
7.8288087914
 20
10.1234204426
 30
0.0
 10
7.8170858631
 20
10.1310578359
 30
0.0
 10
7.8060654123
 20
10.1387654138
 30
0.0
 10
7.7957534762
 20
10.1465389242
 30
0.0
 10
7.786155776
 20
10.1543742793
 30
0.0
 10
7.7772775988
 20
10.1622673285
 30
0.0
 10
7.7691238897
 20
10.1702139979
 30
0.0
 10
7.7616992865
 20
10.1782102447
 30
0.0
 10
7.7550079971
 20
10.1862519982
 30
0.0
 10
7.7490541225
 20
10.1943353727
 30
0.0
 10
7.7438412722
 20
10.2024566047
 30
0.0
 10
7.7393735794
 20
10.210610813
 30
0.0
 10
7.7368547159
 20
10.2161526394
 30
0.0
 10
7.7357291944
 20
10.2189206653
 30
0.0
  0
SPLINE
  5
320
100
AcDbEntity
  8
0
100
AcDbSpline
 62
7
  6
CONTINUOUS
 70
0
 71
3
 72
15
 73
11
 74
0
 42
0.0000001
 43
0.0000001
 44
0.0000000001
 40
0.0
 40
0.0
 40
0.0
 40
0.0
 40
0.1101926757
 40
0.2234968041
 40
0.34055497
 40
0.4619432029
 40
0.5881710546
 40
0.7196838599
 40
0.8568577323
 40
1.0
 40
1.0
 40
1.0
 40
1.0
 10
10.0099363494
 20
10.1758121002
 30
0.0
 10
10.0093930185
 20
10.1738585318
 30
0.0
 10
10.0081185979
 20
10.1699422713
 30
0.0
 10
10.0056979133
 20
10.1641552434
 30
0.0
 10
10.0027474796
 20
10.1583872701
 30
0.0
 10
9.9992696681
 20
10.1526420584
 30
0.0
 10
9.9952669582
 20
10.1469222314
 30
0.0
 10
9.9907418584
 20
10.1412306297
 30
0.0
 10
9.9856974796
 20
10.135570402
 30
0.0
 10
9.9820697557
 20
10.1318998986
 30
0.0
 10
9.9801752093
 20
10.1300699073
 30
0.0
  0
SPLINE
  5
321
100
AcDbEntity
  8
0
100
AcDbSpline
 62
7
  6
CONTINUOUS
 70
0
 71
3
 72
95
 73
91
 74
0
 42
0.0000001
 43
0.0000001
 44
0.0000000001
 40
0.0
 40
0.0
 40
0.0
 40
0.0
 40
0.0028891187
 40
0.0058524253
 40
0.0089045195
 40
0.0120586128
 40
0.0153264681
 40
0.018718493
 40
0.0222437397
 40
0.0259100409
 40
0.0297241249
 40
0.0336916576
 40
0.0378174401
 40
0.042105426
 40
0.0465588392
 40
0.0511802922
 40
0.055971763
 40
0.0609347618
 40
0.0660703159
 40
0.0713790194
 40
0.0768611392
 40
0.0825165435
 40
0.088344832
 40
0.0943453168
 40
0.1005170189
 40
0.1068587748
 40
0.1133691466
 40
0.1200465189
 40
0.1268890958
 40
0.1338948607
 40
0.1483869586
 40
0.1635040144
 40
0.1792246733
 40
0.195525566
 40
0.2123814982
 40
0.2297656029
 40
0.2476495043
 40
0.2660034555
 40
0.2847964592
 40
0.3039963722
 40
0.3235700098
 40
0.3434832609
 40
0.3637011852
 40
0.3841881061
 40
0.4049076969
 40
0.4258230802
 40
0.4468969214
 40
0.4680915165
 40
0.4893688784
 40
0.5106908265
 40
0.5320190794
 40
0.5533153417
 40
0.5745413898
 40
0.5956591623
 40
0.6166308526
 40
0.6374189949
 40
0.6579865517
 40
0.6782970036
 40
0.6983144499
 40
0.7180036984
 40
0.7373303543
 40
0.7562609167
 40
0.7747628863
 40
0.7928048777
 40
0.81035672
 40
0.8273895722
 40
0.8438760528
 40
0.8597903999
 40
0.8751086247
 40
0.8898086862
 40
0.8969207396
 40
0.9038710056
 40
0.9106573542
 40
0.9172778805
 40
0.923730828
 40
0.9300146345
 40
0.9361279846
 40
0.9420697344
 40
0.9478390349
 40
0.9534352812
 40
0.9588581448
 40
0.9641076699
 40
0.9691841948
 40
0.97408847
 40
0.9788216594
 40
0.9833854016
 40
0.9877820007
 40
0.9920143127
 40
0.996085675
 40
1.0
 40
1.0
 40
1.0
 40
1.0
 10
8.1248141134
 20
10.1758121694
 30
0.0
 10
8.1253156528
 20
10.1740088608
 30
0.0
 10
8.1264783218
 20
10.1703952152
 30
0.0
 10
8.1286570208
 20
10.165048221
 30
0.0
 10
8.131288239
 20
10.159716735
 30
0.0
 10
8.1343701425
 20
10.1544037202
 30
0.0
 10
8.1379007604
 20
10.1491113072
 30
0.0
 10
8.1418782264
 20
10.1438419135
 30
0.0
 10
8.1463003543
 20
10.1385977327
 30
0.0
 10
8.1511649103
 20
10.1333810227
 30
0.0
 10
8.156469566
 20
10.1281941288
 30
0.0
 10
8.1622116728
 20
10.1230392352
 30
0.0
 10
8.1683885675
 20
10.1179187421
 30
0.0
 10
8.1749972852
 20
10.1128349324
 30
0.0
 10
8.182034684
 20
10.1077901045
 30
0.0
 10
8.1894974855
 20
10.1027866838
 30
0.0
 10
8.1973820984
 20
10.0978269023
 30
0.0
 10
8.2056848234
 20
10.0929131615
 30
0.0
 10
8.2144017096
 20
10.0880477733
 30
0.0
 10
8.2235285922
 20
10.0832329924
 30
0.0
 10
8.2330611606
 20
10.0784712036
 30
0.0
 10
8.2429948341
 20
10.0737645921
 30
0.0
 10
8.2533248861
 20
10.0691154537
 30
0.0
 10
8.2640463817
 20
10.0645260329
 30
0.0
 10
8.2751541736
 20
10.0599984658
 30
0.0
 10
8.2866429662
 20
10.0555350134
 30
0.0
 10
8.2985072366
 20
10.0511377535
 30
0.0
 10
8.3107412986
 20
10.0468088257
 30
0.0
 10
8.3233393036
 20
10.042550324
 30
0.0
 10
8.3408111718
 20
10.036905212
 30
0.0
 10
8.3635239342
 20
10.030052161
 30
0.0
 10
8.3918333437
 20
10.0222310913
 30
0.0
 10
8.4214414701
 20
10.0147378198
 30
0.0
 10
8.4522914278
 20
10.0075868424
 30
0.0
 10
8.4843241077
 20
10.0007920204
 30
0.0
 10
8.5174780129
 20
9.9943664981
 30
0.0
 10
8.5516894739
 20
9.9883227097
 30
0.0
 10
8.5868927664
 20
9.982672353
 30
0.0
 10
8.6230202444
 20
9.9774263698
 30
0.0
 10
8.6600024615
 20
9.9725949141
 30
0.0
 10
8.6977683076
 20
9.9681873198
 30
0.0
 10
8.7362451573
 20
9.9642121092
 30
0.0
 10
8.7753590151
 20
9.9606769706
 30
0.0
 10
8.8150346529
 20
9.9575887493
 30
0.0
 10
8.8551957508
 20
9.9549534096
 30
0.0
 10
8.8957650493
 20
9.9527760375
 30
0.0
 10
8.9366645038
 20
9.951060841
 30
0.0
 10
8.977815433
 20
9.9498111399
 30
0.0
 10
9.0191386682
 20
9.9490293573
 30
0.0
 10
9.0605547063
 20
9.9487169931
 30
0.0
 10
9.1019838664
 20
9.9488746477
 30
0.0
 10
9.1433464428
 20
9.9495020174
 30
0.0
 10
9.1845628568
 20
9.9505979
 30
0.0
 10
9.2255538122
 20
9.952160177
 30
0.0
 10
9.2662404506
 20
9.9541858204
 30
0.0
 10
9.3065445018
 20
9.9566709146
 30
0.0
 10
9.3463884308
 20
9.9596106603
 30
0.0
 10
9.3856955914
 20
9.9629993858
 30
0.0
 10
9.4243903798
 20
9.9668305309
 30
0.0
 10
9.4623983796
 20
9.9710966834
 30
0.0
 10
9.4996464991
 20
9.9757895938
 30
0.0
 10
9.5360631128
 20
9.9809001933
 30
0.0
 10
9.5715782104
 20
9.9864185997
 30
0.0
 10
9.6061235394
 20
9.9923341238
 30
0.0
 10
9.6396327291
 20
9.9986353157
 30
0.0
 10
9.6720414201
 20
10.005309979
 30
0.0
 10
9.7032873796
 20
10.0123452051
 30
0.0
 10
9.7333107162
 20
10.0197273621
 30
0.0
 10
9.7620537379
 20
10.0274421641
 30
0.0
 10
9.785140638
 20
10.0342081845
 30
0.0
 10
9.8029208126
 20
10.0397859298
 30
0.0
 10
9.8157551406
 20
10.043996944
 30
0.0
 10
9.8282294841
 20
10.0482797499
 30
0.0
 10
9.8403378833
 20
10.0526322444
 30
0.0
 10
9.852074525
 20
10.0570523474
 30
0.0
 10
9.863433774
 20
10.0615379685
 30
0.0
 10
9.8744102083
 20
10.0660868774
 30
0.0
 10
9.88499855
 20
10.0706969736
 30
0.0
 10
9.8951937487
 20
10.0753659895
 30
0.0
 10
9.9049909353
 20
10.0800916849
 30
0.0
 10
9.9143854122
 20
10.0848718621
 30
0.0
 10
9.9233727409
 20
10.0897041559
 30
0.0
 10
9.9319486076
 20
10.0945863544
 30
0.0
 10
9.9401089358
 20
10.0995160909
 30
0.0
 10
9.9478498581
 20
10.104490987
 30
0.0
 10
9.9551676922
 20
10.1095088194
 30
0.0
 10
9.9620590855
 20
10.1145672215
 30
0.0
 10
9.96852077
 20
10.1196639979
 30
0.0
 10
9.97454937
 20
10.1247964594
 30
0.0
 10
9.9783512173
 20
10.1283080662
 30
0.0
 10
9.9801752093
 20
10.1300699073
 30
0.0
  0
SPLINE
  5
322
100
AcDbEntity
  8
0
100
AcDbSpline
 62
7
  6
CONTINUOUS
 70
0
 71
3
 72
15
 73
11
 74
0
 42
0.0000001
 43
0.0000001
 44
0.0000000001
 40
0.0
 40
0.0
 40
0.0
 40
0.0
 40
0.1101926757
 40
0.2234968041
 40
0.34055497
 40
0.4619432029
 40
0.5881710546
 40
0.7196838599
 40
0.8568577323
 40
1.0
 40
1.0
 40
1.0
 40
1.0
 10
13.3906769417
 20
9.9413569438
 30
0.0
 10
13.3901336108
 20
9.9394033754
 30
0.0
 10
13.3888591902
 20
9.9354871149
 30
0.0
 10
13.3864385056
 20
9.929700087
 30
0.0
 10
13.383488072
 20
9.9239321137
 30
0.0
 10
13.3800102605
 20
9.918186902
 30
0.0
 10
13.3760075505
 20
9.912467075
 30
0.0
 10
13.3714824507
 20
9.9067754733
 30
0.0
 10
13.366438072
 20
9.9011152456
 30
0.0
 10
13.362810348
 20
9.8974447422
 30
0.0
 10
13.3609158017
 20
9.8956147509
 30
0.0
  0
SPLINE
  5
323
100
AcDbEntity
  8
0
100
AcDbSpline
 62
7
  6
CONTINUOUS
 70
0
 71
3
 72
95
 73
91
 74
0
 42
0.0000001
 43
0.0000001
 44
0.0000000001
 40
0.0
 40
0.0
 40
0.0
 40
0.0
 40
0.0028891187
 40
0.0058524253
 40
0.0089045195
 40
0.0120586128
 40
0.0153264681
 40
0.018718493
 40
0.0222437397
 40
0.0259100409
 40
0.0297241249
 40
0.0336916576
 40
0.0378174401
 40
0.042105426
 40
0.0465588392
 40
0.0511802922
 40
0.055971763
 40
0.0609347618
 40
0.0660703159
 40
0.0713790194
 40
0.0768611392
 40
0.0825165435
 40
0.088344832
 40
0.0943453168
 40
0.1005170189
 40
0.1068587748
 40
0.1133691466
 40
0.1200465189
 40
0.1268890958
 40
0.1338948607
 40
0.1483869586
 40
0.1635040144
 40
0.1792246733
 40
0.195525566
 40
0.2123814982
 40
0.2297656029
 40
0.2476495043
 40
0.2660034555
 40
0.2847964592
 40
0.3039963722
 40
0.3235700098
 40
0.3434832609
 40
0.3637011852
 40
0.3841881061
 40
0.4049076969
 40
0.4258230802
 40
0.4468969214
 40
0.4680915165
 40
0.4893688784
 40
0.5106908265
 40
0.5320190794
 40
0.5533153417
 40
0.5745413898
 40
0.5956591623
 40
0.6166308526
 40
0.6374189949
 40
0.6579865517
 40
0.6782970036
 40
0.6983144499
 40
0.7180036984
 40
0.7373303543
 40
0.7562609167
 40
0.7747628863
 40
0.7928048777
 40
0.81035672
 40
0.8273895722
 40
0.8438760528
 40
0.8597903999
 40
0.8751086247
 40
0.8898086862
 40
0.8969207396
 40
0.9038710056
 40
0.9106573542
 40
0.9172778805
 40
0.923730828
 40
0.9300146345
 40
0.9361279846
 40
0.9420697344
 40
0.9478390349
 40
0.9534352812
 40
0.9588581448
 40
0.9641076699
 40
0.9691841948
 40
0.97408847
 40
0.9788216594
 40
0.9833854016
 40
0.9877820007
 40
0.9920143127
 40
0.996085675
 40
1.0
 40
1.0
 40
1.0
 40
1.0
 10
11.5055547057
 20
9.941357013
 30
0.0
 10
11.5060562451
 20
9.9395537044
 30
0.0
 10
11.5072189141
 20
9.9359400588
 30
0.0
 10
11.5093976132
 20
9.9305930646
 30
0.0
 10
11.5120288314
 20
9.9252615786
 30
0.0
 10
11.5151107348
 20
9.9199485638
 30
0.0
 10
11.5186413527
 20
9.9146561508
 30
0.0
 10
11.5226188188
 20
9.9093867571
 30
0.0
 10
11.5270409466
 20
9.9041425764
 30
0.0
 10
11.5319055026
 20
9.8989258663
 30
0.0
 10
11.5372101584
 20
9.8937389724
 30
0.0
 10
11.5429522651
 20
9.8885840788
 30
0.0
 10
11.5491291598
 20
9.8834635857
 30
0.0
 10
11.5557378776
 20
9.878379776
 30
0.0
 10
11.5627752764
 20
9.8733349481
 30
0.0
 10
11.5702380778
 20
9.8683315274
 30
0.0
 10
11.5781226908
 20
9.8633717459
 30
0.0
 10
11.5864254157
 20
9.8584580051
 30
0.0
 10
11.595142302
 20
9.8535926169
 30
0.0
 10
11.6042691846
 20
9.848777836
 30
0.0
 10
11.6138017529
 20
9.8440160472
 30
0.0
 10
11.6237354264
 20
9.8393094357
 30
0.0
 10
11.6340654784
 20
9.8346602973
 30
0.0
 10
11.644786974
 20
9.8300708765
 30
0.0
 10
11.655894766
 20
9.8255433094
 30
0.0
 10
11.6673835585
 20
9.821079857
 30
0.0
 10
11.6792478289
 20
9.8166825971
 30
0.0
 10
11.691481891
 20
9.8123536693
 30
0.0
 10
11.7040798959
 20
9.8080951677
 30
0.0
 10
11.7215517642
 20
9.8024500556
 30
0.0
 10
11.7442645265
 20
9.7955970046
 30
0.0
 10
11.772573936
 20
9.7877759349
 30
0.0
 10
11.8021820624
 20
9.7802826634
 30
0.0
 10
11.8330320202
 20
9.773131686
 30
0.0
 10
11.8650647
 20
9.766336864
 30
0.0
 10
11.8982186052
 20
9.7599113417
 30
0.0
 10
11.9324300662
 20
9.7538675533
 30
0.0
 10
11.9676333587
 20
9.7482171966
 30
0.0
 10
12.0037608367
 20
9.7429712134
 30
0.0
 10
12.0407430538
 20
9.7381397577
 30
0.0
 10
12.0785089
 20
9.7337321634
 30
0.0
 10
12.1169857496
 20
9.7297569528
 30
0.0
 10
12.1560996074
 20
9.7262218142
 30
0.0
 10
12.1957752452
 20
9.7231335929
 30
0.0
 10
12.2359363431
 20
9.7204982532
 30
0.0
 10
12.2765056417
 20
9.7183208811
 30
0.0
 10
12.3174050961
 20
9.7166056846
 30
0.0
 10
12.3585560254
 20
9.7153559835
 30
0.0
 10
12.3998792606
 20
9.7145742009
 30
0.0
 10
12.4412952987
 20
9.7142618367
 30
0.0
 10
12.4827244588
 20
9.7144194913
 30
0.0
 10
12.5240870352
 20
9.715046861
 30
0.0
 10
12.5653034491
 20
9.7161427436
 30
0.0
 10
12.6062944045
 20
9.7177050206
 30
0.0
 10
12.6469810429
 20
9.719730664
 30
0.0
 10
12.6872850941
 20
9.7222157582
 30
0.0
 10
12.7271290232
 20
9.7251555039
 30
0.0
 10
12.7664361838
 20
9.7285442294
 30
0.0
 10
12.8051309721
 20
9.7323753745
 30
0.0
 10
12.8431389719
 20
9.736641527
 30
0.0
 10
12.8803870914
 20
9.7413344374
 30
0.0
 10
12.9168037051
 20
9.7464450369
 30
0.0
 10
12.9523188027
 20
9.7519634433
 30
0.0
 10
12.9868641317
 20
9.7578789674
 30
0.0
 10
13.0203733214
 20
9.7641801593
 30
0.0
 10
13.0527820124
 20
9.7708548226
 30
0.0
 10
13.0840279719
 20
9.7778900487
 30
0.0
 10
13.1140513085
 20
9.7852722057
 30
0.0
 10
13.1427943302
 20
9.7929870077
 30
0.0
 10
13.1658812304
 20
9.7997530281
 30
0.0
 10
13.1836614049
 20
9.8053307734
 30
0.0
 10
13.1964957329
 20
9.8095417876
 30
0.0
 10
13.2089700764
 20
9.8138245935
 30
0.0
 10
13.2210784757
 20
9.818177088
 30
0.0
 10
13.2328151173
 20
9.822597191
 30
0.0
 10
13.2441743664
 20
9.8270828121
 30
0.0
 10
13.2551508007
 20
9.831631721
 30
0.0
 10
13.2657391423
 20
9.8362418172
 30
0.0
 10
13.275934341
 20
9.8409108331
 30
0.0
 10
13.2857315276
 20
9.8456365285
 30
0.0
 10
13.2951260045
 20
9.8504167057
 30
0.0
 10
13.3041133333
 20
9.8552489996
 30
0.0
 10
13.3126891999
 20
9.860131198
 30
0.0
 10
13.3208495281
 20
9.8650609345
 30
0.0
 10
13.3285904504
 20
9.8700358306
 30
0.0
 10
13.3359082846
 20
9.875053663
 30
0.0
 10
13.3427996779
 20
9.8801120651
 30
0.0
 10
13.3492613624
 20
9.8852088415
 30
0.0
 10
13.3552899623
 20
9.890341303
 30
0.0
 10
13.3590918096
 20
9.8938529098
 30
0.0
 10
13.3609158017
 20
9.8956147509
 30
0.0
  0
SPLINE
  5
324
100
AcDbEntity
  8
0
100
AcDbSpline
 62
7
  6
CONTINUOUS
 70
0
 71
3
 72
39
 73
35
 74
0
 42
0.0000001
 43
0.0000001
 44
0.0000000001
 40
0.0
 40
0.0
 40
0.0
 40
0.0
 40
0.0064813485
 40
0.0130002985
 40
0.0195937285
 40
0.026297146
 40
0.0331442162
 40
0.0401663079
 40
0.05484089
 40
0.0705272863
 40
0.0873816519
 40
0.1055233038
 40
0.1250399977
 40
0.1459941136
 40
0.1684273795
 40
0.192364659
 40
0.2178175573
 40
0.2447860489
 40
0.2732611697
 40
0.3032256797
 40
0.334655689
 40
0.3675213604
 40
0.4017874193
 40
0.4374142301
 40
0.4743575615
 40
0.5125697352
 40
0.5519993246
 40
0.5925918809
 40
0.6342900708
 40
0.6770336885
 40
0.7207603521
 40
0.8109000934
 40
0.9041686777
 40
1.0
 40
1.0
 40
1.0
 40
1.0
 10
9.0662997351
 20
11.3364312763
 30
0.0
 10
9.0662997403
 20
11.3358238426
 30
0.0
 10
9.0663480368
 20
11.334604907
 30
0.0
 10
9.0665651531
 20
11.3327796668
 30
0.0
 10
9.0669267765
 20
11.3309562043
 30
0.0
 10
9.0674325864
 20
11.3291355672
 30
0.0
 10
9.0680823072
 20
11.3273185145
 30
0.0
 10
9.069155447
 20
11.3248660989
 30
0.0
 10
9.0708768676
 20
11.3218032358
 30
0.0
 10
9.073479463
 20
11.3182144496
 30
0.0
 10
9.0766426397
 20
11.3146616702
 30
0.0
 10
9.0803603715
 20
11.3111495237
 30
0.0
 10
9.0846264656
 20
11.307682031
 30
0.0
 10
9.0894341699
 20
11.3042639659
 30
0.0
 10
9.0947759196
 20
11.3009003133
 30
0.0
 10
9.1006432097
 20
11.2975961664
 30
0.0
 10
9.1070266753
 20
11.2943568708
 30
0.0
 10
9.1139159423
 20
11.2911875672
 30
0.0
 10
9.1212997997
 20
11.2880935664
 30
0.0
 10
9.1291661058
 20
11.2850799369
 30
0.0
 10
9.1375018927
 20
11.282151729
 30
0.0
 10
9.146293367
 20
11.2793138678
 30
0.0
 10
9.155525934
 20
11.276571056
 30
0.0
 10
9.1651842552
 20
11.2739279826
 30
0.0
 10
9.1752522436
 20
11.2713890055
 30
0.0
 10
9.1857131255
 20
11.2689584657
 30
0.0
 10
9.1965494507
 20
11.2666404064
 30
0.0
 10
9.2077431371
 20
11.264438735
 30
0.0
 10
9.2192754891
 20
11.2623571849
 30
0.0
 10
9.2311272568
 20
11.2603991794
 30
0.0
 10
9.2474948748
 20
11.2579328393
 30
0.0
 10
9.2686076849
 20
11.2551929515
 30
0.0
 10
9.2946390892
 20
11.2524762748
 30
0.0
 10
9.3123062217
 20
11.2510531078
 30
0.0
 10
9.3212660386
 20
11.2504317424
 30
0.0
  0
SPLINE
  5
325
100
AcDbEntity
  8
0
100
AcDbSpline
 62
7
  6
CONTINUOUS
 70
0
 71
3
 72
39
 73
35
 74
0
 42
0.0000001
 43
0.0000001
 44
0.0000000001
 40
0.0
 40
0.0
 40
0.0
 40
0.0
 40
0.0064813485
 40
0.0130002985
 40
0.0195937285
 40
0.026297146
 40
0.0331442162
 40
0.0401663079
 40
0.05484089
 40
0.0705272863
 40
0.0873816519
 40
0.1055233038
 40
0.1250399977
 40
0.1459941136
 40
0.1684273795
 40
0.192364659
 40
0.2178175573
 40
0.2447860489
 40
0.2732611697
 40
0.3032256797
 40
0.334655689
 40
0.3675213604
 40
0.4017874193
 40
0.4374142301
 40
0.4743575615
 40
0.5125697352
 40
0.5519993246
 40
0.5925918809
 40
0.6342900708
 40
0.6770336885
 40
0.7207603521
 40
0.8109000934
 40
0.9041686777
 40
1.0
 40
1.0
 40
1.0
 40
1.0
 10
13.8959291527
 20
11.0014953386
 30
0.0
 10
13.895929158
 20
11.0008879049
 30
0.0
 10
13.8959774545
 20
10.9996689693
 30
0.0
 10
13.8961945708
 20
10.9978437291
 30
0.0
 10
13.8965561941
 20
10.9960202666
 30
0.0
 10
13.897062004
 20
10.9941996295
 30
0.0
 10
13.8977117248
 20
10.9923825768
 30
0.0
 10
13.8987848647
 20
10.9899301612
 30
0.0
 10
13.9005062852
 20
10.9868672981
 30
0.0
 10
13.9031088806
 20
10.9832785119
 30
0.0
 10
13.9062720573
 20
10.9797257325
 30
0.0
 10
13.9099897891
 20
10.976213586
 30
0.0
 10
13.9142558833
 20
10.9727460933
 30
0.0
 10
13.9190635875
 20
10.9693280282
 30
0.0
 10
13.9244053372
 20
10.9659643756
 30
0.0
 10
13.9302726273
 20
10.9626602287
 30
0.0
 10
13.9366560929
 20
10.9594209331
 30
0.0
 10
13.9435453599
 20
10.9562516295
 30
0.0
 10
13.9509292173
 20
10.9531576287
 30
0.0
 10
13.9587955234
 20
10.9501439992
 30
0.0
 10
13.9671313103
 20
10.9472157913
 30
0.0
 10
13.9759227846
 20
10.94437793
 30
0.0
 10
13.9851553516
 20
10.9416351183
 30
0.0
 10
13.9948136728
 20
10.9389920449
 30
0.0
 10
14.0048816612
 20
10.9364530678
 30
0.0
 10
14.0153425431
 20
10.934022528
 30
0.0
 10
14.0261788683
 20
10.9317044687
 30
0.0
 10
14.0373725547
 20
10.9295027973
 30
0.0
 10
14.0489049067
 20
10.9274212472
 30
0.0
 10
14.0607566744
 20
10.9254632417
 30
0.0
 10
14.0771242924
 20
10.9229969016
 30
0.0
 10
14.0982371025
 20
10.9202570138
 30
0.0
 10
14.1242685068
 20
10.9175403371
 30
0.0
 10
14.1419356393
 20
10.9161171701
 30
0.0
 10
14.1508954562
 20
10.9154958047
 30
0.0
  0
SPLINE
  5
326
100
AcDbEntity
  8
0
100
AcDbSpline
 62
7
  6
CONTINUOUS
 70
0
 71
3
 72
39
 73
35
 74
0
 42
0.0000001
 43
0.0000001
 44
0.0000000001
 40
0.0
 40
0.0
 40
0.0
 40
0.0
 40
0.0064813485
 40
0.0130002985
 40
0.0195937285
 40
0.026297146
 40
0.0331442162
 40
0.0401663079
 40
0.05484089
 40
0.0705272863
 40
0.0873816519
 40
0.1055233038
 40
0.1250399977
 40
0.1459941136
 40
0.1684273795
 40
0.192364659
 40
0.2178175573
 40
0.2447860489
 40
0.2732611697
 40
0.3032256797
 40
0.334655689
 40
0.3675213604
 40
0.4017874193
 40
0.4374142301
 40
0.4743575615
 40
0.5125697352
 40
0.5519993246
 40
0.5925918809
 40
0.6342900708
 40
0.6770336885
 40
0.7207603521
 40
0.8109000934
 40
0.9041686777
 40
1.0
 40
1.0
 40
1.0
 40
1.0
 10
13.3135867818
 20
10.4389957695
 30
0.0
 10
13.3135867871
 20
10.4383883358
 30
0.0
 10
13.3136350836
 20
10.4371694002
 30
0.0
 10
13.3138521999
 20
10.43534416
 30
0.0
 10
13.3142138232
 20
10.4335206975
 30
0.0
 10
13.3147196331
 20
10.4317000604
 30
0.0
 10
13.3153693539
 20
10.4298830077
 30
0.0
 10
13.3164424938
 20
10.4274305921
 30
0.0
 10
13.3181639143
 20
10.4243677289
 30
0.0
 10
13.3207665097
 20
10.4207789428
 30
0.0
 10
13.3239296864
 20
10.4172261634
 30
0.0
 10
13.3276474182
 20
10.4137140169
 30
0.0
 10
13.3319135124
 20
10.4102465242
 30
0.0
 10
13.3367212166
 20
10.4068284591
 30
0.0
 10
13.3420629663
 20
10.4034648065
 30
0.0
 10
13.3479302564
 20
10.4001606596
 30
0.0
 10
13.3543137221
 20
10.396921364
 30
0.0
 10
13.361202989
 20
10.3937520604
 30
0.0
 10
13.3685868464
 20
10.3906580596
 30
0.0
 10
13.3764531525
 20
10.3876444301
 30
0.0
 10
13.3847889394
 20
10.3847162222
 30
0.0
 10
13.3935804137
 20
10.3818783609
 30
0.0
 10
13.4028129807
 20
10.3791355492
 30
0.0
 10
13.412471302
 20
10.3764924758
 30
0.0
 10
13.4225392903
 20
10.3739534986
 30
0.0
 10
13.4330001722
 20
10.3715229589
 30
0.0
 10
13.4438364974
 20
10.3692048996
 30
0.0
 10
13.4550301838
 20
10.3670032282
 30
0.0
 10
13.4665625358
 20
10.3649216781
 30
0.0
 10
13.4784143035
 20
10.3629636726
 30
0.0
 10
13.4947819215
 20
10.3604973325
 30
0.0
 10
13.5158947317
 20
10.3577574447
 30
0.0
 10
13.5419261359
 20
10.355040768
 30
0.0
 10
13.5595932684
 20
10.353617601
 30
0.0
 10
13.5685530853
 20
10.3529962356
 30
0.0
  0
SPLINE
  5
327
100
AcDbEntity
  8
0
100
AcDbSpline
 62
7
  6
CONTINUOUS
 70
0
 71
3
 72
39
 73
35
 74
0
 42
0.0000001
 43
0.0000001
 44
0.0000000001
 40
0.0
 40
0.0
 40
0.0
 40
0.0
 40
0.0064813485
 40
0.0130002985
 40
0.0195937285
 40
0.026297146
 40
0.0331442162
 40
0.0401663079
 40
0.05484089
 40
0.0705272863
 40
0.0873816519
 40
0.1055233038
 40
0.1250399977
 40
0.1459941136
 40
0.1684273795
 40
0.192364659
 40
0.2178175573
 40
0.2447860489
 40
0.2732611697
 40
0.3032256797
 40
0.334655689
 40
0.3675213604
 40
0.4017874193
 40
0.4374142301
 40
0.4743575615
 40
0.5125697352
 40
0.5519993246
 40
0.5925918809
 40
0.6342900708
 40
0.6770336885
 40
0.7207603521
 40
0.8109000934
 40
0.9041686777
 40
1.0
 40
1.0
 40
1.0
 40
1.0
 10
8.4839573642
 20
10.7739317072
 30
0.0
 10
8.4839573695
 20
10.7733242735
 30
0.0
 10
8.484005666
 20
10.7721053379
 30
0.0
 10
8.4842227823
 20
10.7702800977
 30
0.0
 10
8.4845844056
 20
10.7684566352
 30
0.0
 10
8.4850902155
 20
10.7666359981
 30
0.0
 10
8.4857399363
 20
10.7648189454
 30
0.0
 10
8.4868130762
 20
10.7623665298
 30
0.0
 10
8.4885344967
 20
10.7593036667
 30
0.0
 10
8.4911370921
 20
10.7557148805
 30
0.0
 10
8.4943002688
 20
10.7521621011
 30
0.0
 10
8.4980180006
 20
10.7486499546
 30
0.0
 10
8.5022840948
 20
10.7451824619
 30
0.0
 10
8.507091799
 20
10.7417643968
 30
0.0
 10
8.5124335487
 20
10.7384007442
 30
0.0
 10
8.5183008388
 20
10.7350965973
 30
0.0
 10
8.5246843045
 20
10.7318573017
 30
0.0
 10
8.5315735714
 20
10.7286879981
 30
0.0
 10
8.5389574288
 20
10.7255939973
 30
0.0
 10
8.5468237349
 20
10.7225803678
 30
0.0
 10
8.5551595218
 20
10.7196521599
 30
0.0
 10
8.5639509961
 20
10.7168142986
 30
0.0
 10
8.5731835631
 20
10.7140714869
 30
0.0
 10
8.5828418843
 20
10.7114284135
 30
0.0
 10
8.5929098727
 20
10.7088894364
 30
0.0
 10
8.6033707546
 20
10.7064588966
 30
0.0
 10
8.6142070798
 20
10.7041408373
 30
0.0
 10
8.6254007662
 20
10.7019391659
 30
0.0
 10
8.6369331182
 20
10.6998576158
 30
0.0
 10
8.6487848859
 20
10.6978996103
 30
0.0
 10
8.6651525039
 20
10.6954332702
 30
0.0
 10
8.686265314
 20
10.6926933824
 30
0.0
 10
8.7122967183
 20
10.6899767057
 30
0.0
 10
8.7299638508
 20
10.6885535387
 30
0.0
 10
8.7389236677
 20
10.6879321733
 30
0.0
  0
SPLINE
  5
328
100
AcDbEntity
  8
0
100
AcDbSpline
 62
7
  6
CONTINUOUS
 70
0
 71
3
 72
25
 73
21
 74
0
 42
0.0000001
 43
0.0000001
 44
0.0000000001
 40
0.0
 40
0.0
 40
0.0
 40
0.0
 40
0.0616475753
 40
0.1233181765
 40
0.1850345731
 40
0.2468190243
 40
0.3086930326
 40
0.370677109
 40
0.4327905509
 40
0.4950512387
 40
0.55747545
 40
0.6200776927
 40
0.6828705879
 40
0.7143445123
 40
0.7458698784
 40
0.809073791
 40
0.8724932589
 40
0.9042878089
 40
0.9361387219
 40
1.0
 40
1.0
 40
1.0
 40
1.0
 10
8.1370790525
 20
7.6431463027
 30
0.0
 10
8.1467412397
 20
7.6524792734
 30
0.0
 10
8.1665754935
 20
7.6706326349
 30
0.0
 10
8.197753341
 20
7.696229591
 30
0.0
 10
8.2302850641
 20
7.7201346156
 30
0.0
 10
8.2640875631
 20
7.7422864528
 30
0.0
 10
8.2990759437
 20
7.762629617
 30
0.0
 10
8.3351619459
 20
7.7811128343
 30
0.0
 10
8.3722546677
 20
7.7976896291
 30
0.0
 10
8.4102605923
 20
7.8123183066
 30
0.0
 10
8.449084146
 20
7.8249621302
 30
0.0
 10
8.4886268559
 20
7.835589275
 30
0.0
 10
8.5220715027
 20
7.8427371726
 30
0.0
 10
8.5490816962
 20
7.8474249191
 30
0.0
 10
8.576292314
 20
7.8514288043
 30
0.0
 10
8.6105712228
 20
7.855130573
 30
0.0
 10
8.6450524818
 20
7.8570838821
 30
0.0
 10
8.6727390628
 20
7.857600275
 30
0.0
 10
8.7005255613
 20
7.8574175555
 30
0.0
 10
8.7213732187
 20
7.8564930652
 30
0.0
 10
8.7352558847
 20
7.8555302991
 30
0.0
  0
SPLINE
  5
329
100
AcDbEntity
  8
0
100
AcDbSpline
 62
7
  6
CONTINUOUS
 70
0
 71
3
 72
23
 73
19
 74
0
 42
0.0000001
 43
0.0000001
 44
0.0000000001
 40
0.0
 40
0.0
 40
0.0
 40
0.0
 40
0.0568026221
 40
0.1144505799
 40
0.1730638202
 40
0.2327136564
 40
0.2934172535
 40
0.3551364897
 40
0.4177823755
 40
0.4812254432
 40
0.5453103874
 40
0.6098726966
 40
0.6747542109
 40
0.7398150664
 40
0.8049412162
 40
0.8700473788
 40
0.9350772728
 40
1.0
 40
1.0
 40
1.0
 40
1.0
 10
8.6106349876
 20
7.8546080636
 30
0.0
 10
8.6059996678
 20
7.8429623775
 30
0.0
 10
8.5973977203
 20
7.8191971198
 30
0.0
 10
8.5865959286
 20
7.7825453937
 30
0.0
 10
8.577814114
 20
7.7447123908
 30
0.0
 10
8.5710610248
 20
7.7057823205
 30
0.0
 10
8.5663456959
 20
7.6658640648
 30
0.0
 10
8.5636763578
 20
7.6250954958
 30
0.0
 10
8.5630579709
 20
7.5836405689
 30
0.0
 10
8.5644909094
 20
7.5416840977
 30
0.0
 10
8.5679706372
 20
7.4994237046
 30
0.0
 10
8.5734886355
 20
7.4570609204
 30
0.0
 10
8.5810342697
 20
7.4147931179
 30
0.0
 10
8.5905971571
 20
7.3728076366
 30
0.0
 10
8.6021693594
 20
7.3312790815
 30
0.0
 10
8.615747388
 20
7.2903684953
 30
0.0
 10
8.6313320442
 20
7.2502279634
 30
0.0
 10
8.6430758308
 20
7.224050197
 30
0.0
 10
8.6492848393
 20
7.2111395356
 30
0.0
  0
SPLINE
  5
32A
100
AcDbEntity
  8
0
100
AcDbSpline
 62
7
  6
CONTINUOUS
 70
0
 71
3
 72
53
 73
49
 74
0
 42
0.0000001
 43
0.0000001
 44
0.0000000001
 40
0.0
 40
0.0
 40
0.0
 40
0.0
 40
0.014969904
 40
0.0299427774
 40
0.0449215739
 40
0.0599092106
 40
0.0749085515
 40
0.0899223942
 40
0.1049534485
 40
0.1200043231
 40
0.1350775135
 40
0.1501753819
 40
0.1653001488
 40
0.1804538818
 40
0.1956384783
 40
0.2108556627
 40
0.2261069759
 40
0.2413937626
 40
0.2567171739
 40
0.2720781563
 40
0.2874774469
 40
0.3029155785
 40
0.3183928694
 40
0.3339094273
 40
0.349465154
 40
0.3650597386
 40
0.3806926683
 40
0.3963632322
 40
0.412070519
 40
0.4278134329
 40
0.4593959612
 40
0.4911034832
 40
0.522921206
 40
0.5548321517
 40
0.5868175094
 40
0.6188570157
 40
0.6509293577
 40
0.6830125884
 40
0.7150845505
 40
0.7471233041
 40
0.7791075507
 40
0.8110170488
 40
0.8428330164
 40
0.8745385087
 40
0.9061187714
 40
0.9375616069
 40
0.9688573156
 40
1.0
 40
1.0
 40
1.0
 40
1.0
 10
9.3334327169
 20
6.404589924
 30
0.0
 10
9.3404709462
 20
6.4113883422
 30
0.0
 10
9.3542839787
 20
6.4252638086
 30
0.0
 10
9.3741747853
 20
6.4468746086
 30
0.0
 10
9.3932125814
 20
6.4692563228
 30
0.0
 10
9.411371398
 20
6.4923787172
 30
0.0
 10
9.4286272104
 20
6.5162109036
 30
0.0
 10
9.4449568919
 20
6.5407210428
 30
0.0
 10
9.4603385803
 20
6.5658764203
 30
0.0
 10
9.4747518584
 20
6.5916433411
 30
0.0
 10
9.4881773808
 20
6.6179874321
 30
0.0
 10
9.5005972305
 20
6.6448734796
 30
0.0
 10
9.5119949305
 20
6.6722655157
 30
0.0
 10
9.5223551345
 20
6.7001269966
 30
0.0
 10
9.5316640991
 20
6.7284206622
 30
0.0
 10
9.5399094545
 20
6.7571087024
 30
0.0
 10
9.5470800684
 20
6.7861528286
 30
0.0
 10
9.5531665178
 20
6.8155142064
 30
0.0
 10
9.5581606698
 20
6.8451536267
 30
0.0
 10
9.5620557791
 20
6.8750315127
 30
0.0
 10
9.5648468154
 20
6.9051079403
 30
0.0
 10
9.5665299832
 20
6.9353427548
 30
0.0
 10
9.56710303
 20
6.9656955767
 30
0.0
 10
9.5665653388
 20
6.9961258745
 30
0.0
 10
9.5649175141
 20
7.0265930174
 30
0.0
 10
9.5621618301
 20
7.0570563155
 30
0.0
 10
9.5583020497
 20
7.0874751416
 30
0.0
 10
9.5533432405
 20
7.117808741
 30
0.0
 10
9.5472920038
 20
7.1480171004
 30
0.0
 10
9.537769189
 20
7.1881117715
 30
0.0
 10
9.5231692779
 20
7.2377163515
 30
0.0
 10
9.5014653436
 20
7.2960269209
 30
0.0
 10
9.4756726191
 20
7.3528847719
 30
0.0
 10
9.4459293695
 20
7.407984874
 30
0.0
 10
9.4123942777
 20
7.4610341591
 30
0.0
 10
9.3752463903
 20
7.5117498539
 30
0.0
 10
9.3346838257
 20
7.5598617622
 30
0.0
 10
9.2909227952
 20
7.6051134331
 30
0.0
 10
9.2441965771
 20
7.6472636958
 30
0.0
 10
9.1947542017
 20
7.6860878589
 30
0.0
 10
9.142859096
 20
7.7213788349
 30
0.0
 10
9.0887877315
 20
7.7529482669
 30
0.0
 10
9.0328282713
 20
7.7806276541
 30
0.0
 10
8.9752788157
 20
7.8042690959
 30
0.0
 10
8.9164463302
 20
7.8237460574
 30
0.0
 10
8.8566433917
 20
7.8389541606
 30
0.0
 10
8.7961929747
 20
7.8498116996
 30
0.0
 10
8.7555643109
 20
7.8541219049
 30
0.0
 10
8.7352558847
 20
7.8555302991
 30
0.0
  0
SPLINE
  5
32B
100
AcDbEntity
  8
0
100
AcDbSpline
 62
7
  6
CONTINUOUS
 70
0
 71
3
 72
39
 73
35
 74
0
 42
0.0000001
 43
0.0000001
 44
0.0000000001
 40
0.0
 40
0.0
 40
0.0
 40
0.0
 40
0.0145547992
 40
0.0293267346
 40
0.0444562437
 40
0.0600732162
 40
0.0762960686
 40
0.0932322602
 40
0.1109795945
 40
0.1296275676
 40
0.1492597401
 40
0.1699554201
 40
0.1917919121
 40
0.2148465006
 40
0.2391981785
 40
0.264929649
 40
0.292128813
 40
0.3208900658
 40
0.3513153337
 40
0.3835136433
 40
0.4176003183
 40
0.4536915039
 40
0.4918957846
 40
0.5322973951
 40
0.5749279944
 40
0.6197253124
 40
0.66648136
 40
0.7147955563
 40
0.7640638466
 40
0.8135341103
 40
0.8624276905
 40
0.9100786659
 40
0.9560203393
 40
1.0
 40
1.0
 40
1.0
 40
1.0
 10
11.3570096496
 20
7.3997421948
 30
0.0
 10
11.3560989683
 20
7.3995772122
 30
0.0
 10
11.3542800336
 20
7.3991487694
 30
0.0
 10
11.3516042087
 20
7.3982234112
 30
0.0
 10
11.3489698363
 20
7.3970137767
 30
0.0
 10
11.3463784076
 20
7.3955210236
 30
0.0
 10
11.3438316467
 20
7.3937445384
 30
0.0
 10
11.3413310769
 20
7.3916839012
 30
0.0
 10
11.3388795133
 20
7.3893366015
 30
0.0
 10
11.3364795944
 20
7.3867000604
 30
0.0
 10
11.3341354453
 20
7.3837698584
 30
0.0
 10
11.3318515148
 20
7.3805409443
 30
0.0
 10
11.3296336871
 20
7.3770066959
 30
0.0
 10
11.3274887845
 20
7.373159356
 30
0.0
 10
11.3254252931
 20
7.3689895765
 30
0.0
 10
11.3234530802
 20
7.364486622
 30
0.0
 10
11.3215846075
 20
7.3596378922
 30
0.0
 10
11.3198339718
 20
7.3544294694
 30
0.0
 10
11.3182194033
 20
7.3488455162
 30
0.0
 10
11.3167617554
 20
7.3428693203
 30
0.0
 10
11.3154870317
 20
7.3364835046
 30
0.0
 10
11.3144264169
 20
7.3296717068
 30
0.0
 10
11.3136170832
 20
7.3224210898
 30
0.0
 10
11.3131028501
 20
7.3147264966
 30
0.0
 10
11.3129336255
 20
7.3065969161
 30
0.0
 10
11.3131630942
 20
7.2980641887
 30
0.0
 10
11.3138435393
 20
7.2891925848
 30
0.0
 10
11.3150173649
 20
7.2800855348
 30
0.0
 10
11.3167067786
 20
7.2708840165
 30
0.0
 10
11.3189054914
 20
7.2617526362
 30
0.0
 10
11.3215765487
 20
7.2528554314
 30
0.0
 10
11.3246593647
 20
7.2443307148
 30
0.0
 10
11.3280813111
 20
7.2362754254
 30
0.0
 10
11.3305972099
 20
7.2311372863
 30
0.0
 10
11.33189377
 20
7.2286594459
 30
0.0
  0
SPLINE
  5
32C
100
AcDbEntity
  8
0
100
AcDbSpline
 62
7
  6
CONTINUOUS
 70
0
 71
3
 72
25
 73
21
 74
0
 42
0.0000001
 43
0.0000001
 44
0.0000000001
 40
0.0
 40
0.0
 40
0.0
 40
0.0
 40
0.0616475753
 40
0.1233181765
 40
0.1850345731
 40
0.2468190243
 40
0.3086930326
 40
0.370677109
 40
0.4327905509
 40
0.4950512387
 40
0.55747545
 40
0.6200776927
 40
0.6828705879
 40
0.7143445123
 40
0.7458698784
 40
0.809073791
 40
0.8724932589
 40
0.9042878089
 40
0.9361387219
 40
1.0
 40
1.0
 40
1.0
 40
1.0
 10
10.7953070591
 20
7.4587975643
 30
0.0
 10
10.8049692463
 20
7.468130535
 30
0.0
 10
10.8248035001
 20
7.4862838965
 30
0.0
 10
10.8559813476
 20
7.5118808526
 30
0.0
 10
10.8885130707
 20
7.5357858773
 30
0.0
 10
10.9223155696
 20
7.5579377144
 30
0.0
 10
10.9573039503
 20
7.5782808786
 30
0.0
 10
10.9933899525
 20
7.5967640959
 30
0.0
 10
11.0304826743
 20
7.6133408907
 30
0.0
 10
11.0684885989
 20
7.6279695682
 30
0.0
 10
11.1073121525
 20
7.6406133918
 30
0.0
 10
11.1468548624
 20
7.6512405366
 30
0.0
 10
11.1802995093
 20
7.6583884342
 30
0.0
 10
11.2073097028
 20
7.6630761808
 30
0.0
 10
11.2345203206
 20
7.667080066
 30
0.0
 10
11.2687992294
 20
7.6707818346
 30
0.0
 10
11.3032804883
 20
7.6727351438
 30
0.0
 10
11.3309670694
 20
7.6732515366
 30
0.0
 10
11.3587535679
 20
7.6730688172
 30
0.0
 10
11.3796012253
 20
7.6721443269
 30
0.0
 10
11.3934838913
 20
7.6711815607
 30
0.0
  0
SPLINE
  5
32D
100
AcDbEntity
  8
0
100
AcDbSpline
 62
7
  6
CONTINUOUS
 70
0
 71
3
 72
53
 73
49
 74
0
 42
0.0000001
 43
0.0000001
 44
0.0000000001
 40
0.0
 40
0.0
 40
0.0
 40
0.0
 40
0.014969904
 40
0.0299427774
 40
0.0449215739
 40
0.0599092106
 40
0.0749085515
 40
0.0899223942
 40
0.1049534485
 40
0.1200043231
 40
0.1350775135
 40
0.1501753819
 40
0.1653001488
 40
0.1804538818
 40
0.1956384783
 40
0.2108556627
 40
0.2261069759
 40
0.2413937626
 40
0.2567171739
 40
0.2720781563
 40
0.2874774469
 40
0.3029155785
 40
0.3183928694
 40
0.3339094273
 40
0.349465154
 40
0.3650597386
 40
0.3806926683
 40
0.3963632322
 40
0.412070519
 40
0.4278134329
 40
0.4593959612
 40
0.4911034832
 40
0.522921206
 40
0.5548321517
 40
0.5868175094
 40
0.6188570157
 40
0.6509293577
 40
0.6830125884
 40
0.7150845505
 40
0.7471233041
 40
0.7791075507
 40
0.8110170488
 40
0.8428330164
 40
0.8745385087
 40
0.9061187714
 40
0.9375616069
 40
0.9688573156
 40
1.0
 40
1.0
 40
1.0
 40
1.0
 10
11.9916607235
 20
6.2202411857
 30
0.0
 10
11.9986989528
 20
6.2270396038
 30
0.0
 10
12.0125119853
 20
6.2409150702
 30
0.0
 10
12.0324027919
 20
6.2625258702
 30
0.0
 10
12.051440588
 20
6.2849075845
 30
0.0
 10
12.0695994046
 20
6.3080299788
 30
0.0
 10
12.086855217
 20
6.3318621652
 30
0.0
 10
12.1031848985
 20
6.3563723044
 30
0.0
 10
12.1185665869
 20
6.3815276819
 30
0.0
 10
12.1329798649
 20
6.4072946027
 30
0.0
 10
12.1464053873
 20
6.4336386937
 30
0.0
 10
12.1588252371
 20
6.4605247412
 30
0.0
 10
12.1702229371
 20
6.4879167773
 30
0.0
 10
12.1805831411
 20
6.5157782582
 30
0.0
 10
12.1898921057
 20
6.5440719238
 30
0.0
 10
12.1981374611
 20
6.572759964
 30
0.0
 10
12.205308075
 20
6.6018040902
 30
0.0
 10
12.2113945244
 20
6.631165468
 30
0.0
 10
12.2163886764
 20
6.6608048884
 30
0.0
 10
12.2202837856
 20
6.6906827743
 30
0.0
 10
12.223074822
 20
6.7207592019
 30
0.0
 10
12.2247579898
 20
6.7509940165
 30
0.0
 10
12.2253310366
 20
6.7813468383
 30
0.0
 10
12.2247933454
 20
6.8117771361
 30
0.0
 10
12.2231455206
 20
6.842244279
 30
0.0
 10
12.2203898366
 20
6.8727075771
 30
0.0
 10
12.2165300562
 20
6.9031264032
 30
0.0
 10
12.2115712471
 20
6.9334600026
 30
0.0
 10
12.2055200103
 20
6.963668362
 30
0.0
 10
12.1959971956
 20
7.0037630331
 30
0.0
 10
12.1813972845
 20
7.0533676131
 30
0.0
 10
12.1596933502
 20
7.1116781825
 30
0.0
 10
12.1339006257
 20
7.1685360335
 30
0.0
 10
12.1041573761
 20
7.2236361356
 30
0.0
 10
12.0706222843
 20
7.2766854207
 30
0.0
 10
12.0334743968
 20
7.3274011155
 30
0.0
 10
11.9929118322
 20
7.3755130238
 30
0.0
 10
11.9491508018
 20
7.4207646947
 30
0.0
 10
11.9024245836
 20
7.4629149574
 30
0.0
 10
11.8529822083
 20
7.5017391205
 30
0.0
 10
11.8010871026
 20
7.5370300965
 30
0.0
 10
11.7470157381
 20
7.5685995285
 30
0.0
 10
11.6910562779
 20
7.5962789157
 30
0.0
 10
11.6335068223
 20
7.6199203575
 30
0.0
 10
11.5746743368
 20
7.639397319
 30
0.0
 10
11.5148713982
 20
7.6546054222
 30
0.0
 10
11.4544209813
 20
7.6654629612
 30
0.0
 10
11.4137923174
 20
7.6697731666
 30
0.0
 10
11.3934838913
 20
7.6711815607
 30
0.0
  0
SPLINE
  5
32E
100
AcDbEntity
  8
0
100
AcDbSpline
 62
7
  6
CONTINUOUS
 70
0
 71
3
 72
24
 73
20
 74
0
 42
0.0000001
 43
0.0000001
 44
0.0000000001
 40
0.0
 40
0.0
 40
0.0
 40
0.0
 40
0.0149468868
 40
0.0302740255
 40
0.0624228356
 40
0.0971802057
 40
0.1351723659
 40
0.1769480777
 40
0.2229915706
 40
0.2737369537
 40
0.3295822703
 40
0.3908993789
 40
0.4580404699
 40
0.5313414014
 40
0.6111183054
 40
0.6976615971
 40
0.7912173859
 40
0.891971509
 40
1.0
 40
1.0
 40
1.0
 40
1.0
 10
10.8278181587
 20
7.2814400658
 30
0.0
 10
10.8274951928
 20
7.2816193942
 30
0.0
 10
10.8268564275
 20
7.282011105
 30
0.0
 10
10.8256115968
 20
7.2829248999
 30
0.0
 10
10.8241252712
 20
7.2843239284
 30
0.0
 10
10.8225075782
 20
7.2863595338
 30
0.0
 10
10.8210368366
 20
7.2887856977
 30
0.0
 10
10.8197247816
 20
7.2916107147
 30
0.0
 10
10.8185843656
 20
7.2948447111
 30
0.0
 10
10.8176307433
 20
7.298498522
 30
0.0
 10
10.8168805727
 20
7.3025833727
 30
0.0
 10
10.8163527716
 20
7.3071106904
 30
0.0
 10
10.8160678042
 20
7.31209163
 30
0.0
 10
10.8160479397
 20
7.3175366798
 30
0.0
 10
10.8163171707
 20
7.3234549973
 30
0.0
 10
10.8169008175
 20
7.3298533323
 30
0.0
 10
10.8178250102
 20
7.3367348275
 30
0.0
 10
10.8191159539
 20
7.3440966104
 30
0.0
 10
10.8202001194
 20
7.3491429261
 30
0.0
 10
10.8208066746
 20
7.3517430406
 30
0.0
  0
SPLINE
  5
32F
100
AcDbEntity
  8
0
100
AcDbSpline
 62
7
  6
CONTINUOUS
 70
0
 71
3
 72
85
 73
81
 74
0
 42
0.0000001
 43
0.0000001
 44
0.0000000001
 40
0.0
 40
0.0
 40
0.0
 40
0.0
 40
0.0027872193
 40
0.0056427564
 40
0.008576403
 40
0.011597068
 40
0.0147128166
 40
0.0179308542
 40
0.0212575783
 40
0.0246986554
 40
0.0282590194
 40
0.0319429805
 40
0.0357542679
 40
0.0396960476
 40
0.0437710356
 40
0.047981491
 40
0.0523292676
 40
0.0568158923
 40
0.0614425288
 40
0.0662100633
 40
0.071119125
 40
0.0761700612
 40
0.0813630301
 40
0.0866979672
 40
0.0921746032
 40
0.0977925279
 40
0.1035511316
 40
0.109449666
 40
0.1154872589
 40
0.1216628675
 40
0.1344232265
 40
0.1477204688
 40
0.1615423792
 40
0.1758752406
 40
0.1907039551
 40
0.2060121834
 40
0.2217824565
 40
0.2379962605
 40
0.2546341017
 40
0.2716755998
 40
0.2890995602
 40
0.306884029
 40
0.3250063418
 40
0.3434431969
 40
0.3621707108
 40
0.3811644628
 40
0.4003995409
 40
0.4198506039
 40
0.4394919295
 40
0.4592974567
 40
0.4792408326
 40
0.4992954672
 40
0.5194345788
 40
0.5396312365
 40
0.5598584099
 40
0.5800890181
 40
0.6002959729
 40
0.620452226
 40
0.6405308188
 40
0.6605049271
 40
0.6803479051
 40
0.7000333364
 40
0.719535085
 40
0.7388273362
 40
0.7578846429
 40
0.7766819835
 40
0.7951948121
 40
0.8133991001
 40
0.8312713872
 40
0.8487888494
 40
0.8659293512
 40
0.8826714932
 40
0.8989946758
 40
0.9148791867
 40
0.9303062499
 40
0.9452581314
 40
0.9597181949
 40
0.9736708991
 40
0.9871026183
 40
1.0
 40
1.0
 40
1.0
 40
1.0
 10
10.4011414746
 20
10.2239841867
 30
0.0
 10
10.4003864786
 20
10.2261877727
 30
0.0
 10
10.3987085617
 20
10.2305991113
 30
0.0
 10
10.3957409272
 20
10.2371280581
 30
0.0
 10
10.3922961371
 20
10.2436398446
 30
0.0
 10
10.3883759857
 20
10.2501319131
 30
0.0
 10
10.3839819807
 20
10.2566021328
 30
0.0
 10
10.3791159444
 20
10.2630483551
 30
0.0
 10
10.3737797855
 20
10.2694685007
 30
0.0
 10
10.3679754105
 20
10.2758603583
 30
0.0
 10
10.3617050314
 20
10.2822218813
 30
0.0
 10
10.3549708827
 20
10.2885509114
 30
0.0
 10
10.3477753411
 20
10.2948452619
 30
0.0
 10
10.3401210332
 20
10.3011028709
 30
0.0
 10
10.3320106187
 20
10.307321512
 30
0.0
 10
10.3234469899
 20
10.3134990506
 30
0.0
 10
10.3144332059
 20
10.3196333808
 30
0.0
 10
10.304972412
 20
10.3257222678
 30
0.0
 10
10.2950680058
 20
10.3317636395
 30
0.0
 10
10.2847234946
 20
10.3377553489
 30
0.0
 10
10.2739425318
 20
10.3436952218
 30
0.0
 10
10.2627289892
 20
10.3495812275
 30
0.0
 10
10.2510868337
 20
10.3554112104
 30
0.0
 10
10.2390202194
 20
10.3611830971
 30
0.0
 10
10.2265334673
 20
10.3668948755
 30
0.0
 10
10.2136310082
 20
10.3725444279
 30
0.0
 10
10.2003174698
 20
10.378129788
 30
0.0
 10
10.1865976124
 20
10.383648948
 30
0.0
 10
10.1724763115
 20
10.3890999042
 30
0.0
 10
10.1529058389
 20
10.3963534447
 30
0.0
 10
10.1274665785
 20
10.4052225418
 30
0.0
 10
10.0957436857
 20
10.4154501974
 30
0.0
 10
10.0625465028
 20
10.4253605039
 30
0.0
 10
10.0279225858
 20
10.4349391685
 30
0.0
 10
9.9919213625
 20
10.4441724056
 30
0.0
 10
9.9545943415
 20
10.4530469125
 30
0.0
 10
9.9159949301
 20
10.4615498905
 30
0.0
 10
9.8761783913
 20
10.4696690649
 30
0.0
 10
9.8352017676
 20
10.477392749
 30
0.0
 10
9.7931237813
 20
10.4847098145
 30
0.0
 10
9.7500047366
 20
10.4916097099
 30
0.0
 10
9.7059064446
 20
10.4980824784
 30
0.0
 10
9.6608921415
 20
10.5041188111
 30
0.0
 10
9.6150263828
 20
10.5097100154
 30
0.0
 10
9.5683749438
 20
10.5148480298
 30
0.0
 10
9.5210047353
 20
10.5195254431
 30
0.0
 10
9.4729837108
 20
10.5237355362
 30
0.0
 10
9.4243807586
 20
10.5274722488
 30
0.0
 10
9.3752655998
 20
10.5307301916
 30
0.0
 10
9.3257086958
 20
10.5335046658
 30
0.0
 10
9.2757811475
 20
10.5357916932
 30
0.0
 10
9.2255545873
 20
10.5375879828
 30
0.0
 10
9.1751010753
 20
10.5388909383
 30
0.0
 10
9.1244930001
 20
10.5396986789
 30
0.0
 10
9.0738029738
 20
10.5400100568
 30
0.0
 10
9.0231037251
 20
10.5398246249
 30
0.0
 10
8.9724679965
 20
10.5391426375
 30
0.0
 10
8.9219684393
 20
10.5379650745
 30
0.0
 10
8.8716775071
 20
10.5362936446
 30
0.0
 10
8.8216673545
 20
10.5341307542
 30
0.0
 10
8.7720097342
 20
10.5314795028
 30
0.0
 10
8.7227758897
 20
10.5283437085
 30
0.0
 10
8.6740364508
 20
10.5247278985
 30
0.0
 10
8.6258613391
 20
10.5206372785
 30
0.0
 10
8.5783196674
 20
10.5160777234
 30
0.0
 10
8.5314796311
 20
10.5110558035
 30
0.0
 10
8.4854084102
 20
10.5055787629
 30
0.0
 10
8.4401720827
 20
10.4996544895
 30
0.0
 10
8.3958355272
 20
10.4932915009
 30
0.0
 10
8.3524623157
 20
10.4864989722
 30
0.0
 10
8.3101146244
 20
10.4792867013
 30
0.0
 10
8.268853157
 20
10.4716650802
 30
0.0
 10
8.2287370487
 20
10.4636450764
 30
0.0
 10
8.1898237709
 20
10.4552382603
 30
0.0
 10
8.152169033
 20
10.4464567642
 30
0.0
 10
8.1158267198
 20
10.4373132367
 30
0.0
 10
8.0808489408
 20
10.4278208539
 30
0.0
 10
8.0472853183
 20
10.4179932745
 30
0.0
 10
8.0151844096
 20
10.4078447219
 30
0.0
 10
7.9943605054
 20
10.4007283085
 30
0.0
 10
7.9842065957
 20
10.3971121606
 30
0.0
  0
SPLINE
  5
330
100
AcDbEntity
  8
0
100
AcDbSpline
 62
7
  6
CONTINUOUS
 70
0
 71
3
 72
52
 73
48
 74
0
 42
0.0000001
 43
0.0000001
 44
0.0000000001
 40
0.0
 40
0.0
 40
0.0
 40
0.0
 40
0.0417975951
 40
0.0840616288
 40
0.1266599
 40
0.1694646819
 40
0.2123442235
 40
0.2551675716
 40
0.2978037564
 40
0.3401225587
 40
0.3819950468
 40
0.4232940448
 40
0.4638946794
 40
0.5036749394
 40
0.5425162168
 40
0.5803038545
 40
0.6169277287
 40
0.6522828762
 40
0.6862702207
 40
0.7187973048
 40
0.7497791232
 40
0.7646666939
 40
0.7791400459
 40
0.7931910474
 40
0.8068124878
 40
0.8199977024
 40
0.8327409898
 40
0.8450375569
 40
0.8568834717
 40
0.8682761438
 40
0.8792139942
 40
0.8896969854
 40
0.8997266536
 40
0.9093062033
 40
0.9184411394
 40
0.9271391328
 40
0.9354107775
 40
0.9432698769
 40
0.9507338665
 40
0.9578247066
 40
0.9645691138
 40
0.9709994856
 40
0.9771542525
 40
0.9830781055
 40
0.9888220386
 40
0.9944424568
 40
1.0
 40
1.0
 40
1.0
 40
1.0
 10
8.9169910238
 20
10.8599320415
 30
0.0
 10
8.9106061671
 20
10.8603748329
 30
0.0
 10
8.89775791
 20
10.8611632727
 30
0.0
 10
8.8783830231
 20
10.8620531517
 30
0.0
 10
8.8588427194
 20
10.8626549717
 30
0.0
 10
8.8392014014
 20
10.86296682
 30
0.0
 10
8.8195231542
 20
10.8629876173
 30
0.0
 10
8.7998725694
 20
10.862717309
 30
0.0
 10
8.7803140085
 20
10.8621567879
 30
0.0
 10
8.7609115607
 20
10.8613079084
 30
0.0
 10
8.7417287977
 20
10.8601734743
 30
0.0
 10
8.7228285664
 20
10.8587572282
 30
0.0
 10
8.7042727836
 20
10.8570638401
 30
0.0
 10
8.6861222232
 20
10.8550989109
 30
0.0
 10
8.6684363144
 20
10.8528689392
 30
0.0
 10
8.6512729504
 20
10.8503812985
 30
0.0
 10
8.6346882918
 20
10.8476442159
 30
0.0
 10
8.6187365873
 20
10.8446667389
 30
0.0
 10
8.6034699202
 20
10.8414587379
 30
0.0
 10
8.5889382286
 20
10.8380308198
 30
0.0
 10
8.5773311583
 20
10.834961104
 30
0.0
 10
8.5684539271
 20
10.8323966882
 30
0.0
 10
8.5620973096
 20
10.8304511497
 30
0.0
 10
8.5559585262
 20
10.8284593626
 30
0.0
 10
8.5500425677
 20
10.8264230223
 30
0.0
 10
8.5443542726
 20
10.8243437436
 30
0.0
 10
8.5388982738
 20
10.8222232487
 30
0.0
 10
8.5336790026
 20
10.8200633063
 30
0.0
 10
8.5287007228
 20
10.8178656055
 30
0.0
 10
8.5239674453
 20
10.815632028
 30
0.0
 10
8.5194830214
 20
10.8133643158
 30
0.0
 10
8.5152510647
 20
10.8110643255
 30
0.0
 10
8.5112749612
 20
10.8087339385
 30
0.0
 10
8.5075579406
 20
10.8063749226
 30
0.0
 10
8.5041029198
 20
10.8039892359
 30
0.0
 10
8.500912694
 20
10.801578639
 30
0.0
 10
8.4979897915
 20
10.7991449896
 30
0.0
 10
8.4953365184
 20
10.7966901183
 30
0.0
 10
8.4929551097
 20
10.7942156928
 30
0.0
 10
8.4908474633
 20
10.7917235393
 30
0.0
 10
8.4890155449
 20
10.7892152501
 30
0.0
 10
8.4874611264
 20
10.7866925508
 30
0.0
 10
8.4861859173
 20
10.7841571954
 30
0.0
 10
8.4851917748
 20
10.7816110628
 30
0.0
 10
8.4844801543
 20
10.7790562915
 30
0.0
 10
8.4840525975
 20
10.7764957874
 30
0.0
 10
8.4839573568
 20
10.7747826974
 30
0.0
 10
8.4839573642
 20
10.7739317072
 30
0.0
  0
SPLINE
  5
331
100
AcDbEntity
  8
0
100
AcDbSpline
 62
7
  6
CONTINUOUS
 70
0
 71
3
 72
88
 73
84
 74
0
 42
0.0000001
 43
0.0000001
 44
0.0000000001
 40
0.0
 40
0.0
 40
0.0
 40
0.0
 40
0.0132136135
 40
0.0269936674
 40
0.0413255351
 40
0.0561940142
 40
0.0715818374
 40
0.0874705254
 40
0.1038403268
 40
0.1206703357
 40
0.1379386038
 40
0.1556222039
 40
0.1736973068
 40
0.1921392652
 40
0.210922682
 40
0.2300214713
 40
0.249408914
 40
0.269057727
 40
0.2889401251
 40
0.3090278769
 40
0.3292923569
 40
0.3497046052
 40
0.3702353875
 40
0.3908552491
 40
0.4115345679
 40
0.4322436104
 40
0.45295259
 40
0.4736317201
 40
0.4942512678
 40
0.5147816113
 40
0.5351932967
 40
0.555457091
 40
0.5755440357
 40
0.5954255065
 40
0.6150732736
 40
0.6344595541
 40
0.6535570676
 40
0.6723390969
 40
0.6907795587
 40
0.7088530592
 40
0.7265349549
 40
0.7438014201
 40
0.7606295313
 40
0.7769973422
 40
0.7928839582
 40
0.8082696275
 40
0.823135852
 40
0.8374655134
 40
0.851242993
 40
0.8579203522
 40
0.8644545857
 40
0.870844221
 40
0.8770879558
 40
0.8831845922
 40
0.8891330901
 40
0.8949325843
 40
0.9005823413
 40
0.9060818495
 40
0.911430773
 40
0.9166289809
 40
0.9216766071
 40
0.9265739983
 40
0.9313218079
 40
0.9359209901
 40
0.9403728103
 40
0.9446789446
 40
0.9488414443
 40
0.9528628284
 40
0.956746133
 40
0.9604949197
 40
0.964113405
 40
0.9676064657
 40
0.9709797239
 40
0.9742396406
 40
0.9773935249
 40
0.9804496432
 40
0.98341723
 40
0.9863064992
 40
0.9891286616
 40
0.9918958326
 40
0.9946209563
 40
0.9973176492
 40
1.0
 40
1.0
 40
1.0
 40
1.0
 10
7.9842065957
 20
10.4589314187
 30
0.0
 10
7.9947388829
 20
10.4626823195
 30
0.0
 10
8.0163576779
 20
10.4700589015
 30
0.0
 10
8.0497132769
 20
10.4805585094
 30
0.0
 10
8.0846363651
 20
10.4907122587
 30
0.0
 10
8.1210727425
 20
10.5005043692
 30
0.0
 10
8.1589668441
 20
10.5099196886
 30
0.0
 10
8.1982603193
 20
10.5189436294
 30
0.0
 10
8.2388927726
 20
10.5275622255
 30
0.0
 10
8.2808016995
 20
10.5357621218
 30
0.0
 10
8.3239226093
 20
10.5435306106
 30
0.0
 10
8.3681891237
 20
10.550855653
 30
0.0
 10
8.4135330728
 20
10.5577259189
 30
0.0
 10
8.4598846168
 20
10.5641307722
 30
0.0
 10
8.5071723617
 20
10.5700602945
 30
0.0
 10
8.5553234601
 20
10.5755052956
 30
0.0
 10
8.6042637199
 20
10.5804573583
 30
0.0
 10
8.6539177257
 20
10.5849088248
 30
0.0
 10
8.7042089632
 20
10.5888528066
 30
0.0
 10
8.7550599336
 20
10.5922831911
 30
0.0
 10
8.8063922676
 20
10.595194672
 30
0.0
 10
8.8581268494
 20
10.5975827559
 30
0.0
 10
8.9101839437
 20
10.5994437493
 30
0.0
 10
8.9624833184
 20
10.6007747677
 30
0.0
 10
9.0149443649
 20
10.6015737439
 30
0.0
 10
9.0674862237
 20
10.601839454
 30
0.0
 10
9.1200279114
 20
10.6015714899
 30
0.0
 10
9.172488445
 20
10.6007702639
 30
0.0
 10
9.2247869658
 20
10.5994370032
 30
0.0
 10
9.2768428665
 20
10.5975737769
 30
0.0
 10
9.3285759167
 20
10.5951834738
 30
0.0
 10
9.3799063837
 20
10.5922697912
 30
0.0
 10
9.4307551547
 20
10.5888372269
 30
0.0
 10
9.4810438635
 20
10.5848910885
 30
0.0
 10
9.5306950149
 20
10.5804374924
 30
0.0
 10
9.5796320996
 20
10.5754833308
 30
0.0
 10
9.6277797073
 20
10.570036266
 30
0.0
 10
9.6750636509
 20
10.5641047168
 30
0.0
 10
9.7214110886
 20
10.5576978762
 30
0.0
 10
9.7667506327
 20
10.5508256663
 30
0.0
 10
9.8110124514
 20
10.5434987269
 30
0.0
 10
9.8541283819
 20
10.5357283915
 30
0.0
 10
9.8960320515
 20
10.527526699
 30
0.0
 10
9.93665898
 20
10.518906363
 30
0.0
 10
9.9759466762
 20
10.509880738
 30
0.0
 10
10.0138347127
 20
10.5004637983
 30
0.0
 10
10.0502649226
 20
10.490670125
 30
0.0
 10
10.0851812169
 20
10.480514895
 30
0.0
 10
10.1132569027
 20
10.471674449
 30
0.0
 10
10.1349112282
 20
10.4644224227
 30
0.0
 10
10.1505711392
 20
10.4589595783
 30
0.0
 10
10.1658136497
 20
10.4534182677
 30
0.0
 10
10.1806329326
 20
10.4478006748
 30
0.0
 10
10.195023281
 20
10.4421089296
 30
0.0
 10
10.2089791638
 20
10.4363452111
 30
0.0
 10
10.222495241
 20
10.4305117976
 30
0.0
 10
10.2355663016
 20
10.424610851
 30
0.0
 10
10.2481873538
 20
10.418644701
 30
0.0
 10
10.2603535612
 20
10.4126156269
 30
0.0
 10
10.2720602458
 20
10.4065258897
 30
0.0
 10
10.2833029649
 20
10.4003779025
 30
0.0
 10
10.2940773912
 20
10.3941739324
 30
0.0
 10
10.3043794267
 20
10.3879163743
 30
0.0
 10
10.3142051624
 20
10.3816076314
 30
0.0
 10
10.3235508107
 20
10.3752500028
 30
0.0
 10
10.3324128693
 20
10.3688459721
 30
0.0
 10
10.3407879372
 20
10.3623978727
 30
0.0
 10
10.3486728195
 20
10.3559080902
 30
0.0
 10
10.3560645651
 20
10.3493790817
 30
0.0
 10
10.3629602696
 20
10.342813128
 30
0.0
 10
10.3693573433
 20
10.3362126828
 30
0.0
 10
10.3752532854
 20
10.3295800855
 30
0.0
 10
10.380645704
 20
10.3229176427
 30
0.0
 10
10.3855325104
 20
10.3162277934
 30
0.0
 10
10.3899115399
 20
10.3095128067
 30
0.0
 10
10.3937809062
 20
10.3027751111
 30
0.0
 10
10.3971388296
 20
10.2960171488
 30
0.0
 10
10.3999834846
 20
10.2892413713
 30
0.0
 10
10.4023134636
 20
10.2824504565
 30
0.0
 10
10.4041272727
 20
10.2756471513
 30
0.0
 10
10.4054237414
 20
10.2688342398
 30
0.0
 10
10.4062020845
 20
10.2620153128
 30
0.0
 10
10.4063752233
 20
10.2574621377
 30
0.0
 10
10.4063752296
 20
10.2551925546
 30
0.0
  0
SPLINE
  5
332
100
AcDbEntity
  8
0
100
AcDbSpline
 62
7
  6
CONTINUOUS
 70
0
 71
3
 72
98
 73
94
 74
0
 42
0.0000001
 43
0.0000001
 44
0.0000000001
 40
0.0
 40
0.0
 40
0.0
 40
0.0
 40
0.0040448382
 40
0.0082603162
 40
0.0126508389
 40
0.0172201464
 40
0.0219713879
 40
0.0269070205
 40
0.0320287343
 40
0.037337709
 40
0.0428346045
 40
0.0485196581
 40
0.0543927218
 40
0.0604532289
 40
0.0667003403
 40
0.0731328594
 40
0.0797493433
 40
0.0865480912
 40
0.0935271325
 40
0.1006843274
 40
0.1080172707
 40
0.1155234088
 40
0.131043788
 40
0.1472217615
 40
0.1640308463
 40
0.1814423546
 40
0.1994256119
 40
0.2179481424
 40
0.2369758353
 40
0.2564730936
 40
0.2764029727
 40
0.296727321
 40
0.3174069086
 40
0.338401549
 40
0.3596702174
 40
0.3811711647
 40
0.4028620354
 40
0.4246999839
 40
0.4466417872
 40
0.4686439554
 40
0.4906628429
 40
0.5126547611
 40
0.5345760916
 40
0.5563833972
 40
0.5780335329
 40
0.5994837571
 40
0.6206918462
 40
0.6416162127
 40
0.6622160177
 40
0.6824512879
 40
0.7022830337
 40
0.721673374
 40
0.7405856707
 40
0.758984664
 40
0.7768366118
 40
0.7941094438
 40
0.8107729323
 40
0.8267988863
 40
0.842161381
 40
0.8495865775
 40
0.8568373395
 40
0.8639112154
 40
0.8708058976
 40
0.8775193334
 40
0.8840496858
 40
0.8903953458
 40
0.8965550182
 40
0.9025276386
 40
0.9083125148
 40
0.9139092685
 40
0.9193179048
 40
0.9245388831
 40
0.9295730783
 40
0.9344219518
 40
0.9390875046
 40
0.94357242
 40
0.9478801374
 40
0.9520148983
 40
0.9559819484
 40
0.959787551
 40
0.9634392033
 40
0.9669457281
 40
0.9703173974
 40
0.9735661037
 40
0.9767053709
 40
0.9797504598
 40
0.982718275
 40
0.9856272402
 40
0.9884970497
 40
0.9913482831
 40
0.9942019672
 40
0.9970790671
 40
1.0
 40
1.0
 40
1.0
 40
1.0
 10
8.1545752895
 20
10.2566756917
 30
0.0
 10
8.1564945767
 20
10.2585295809
 30
0.0
 10
8.1605035507
 20
10.2622238717
 30
0.0
 10
8.1668765519
 20
10.267616039
 30
0.0
 10
8.173727676
 20
10.2729684276
 30
0.0
 10
8.1810529759
 20
10.2782779988
 30
0.0
 10
8.1888486666
 20
10.2835421881
 30
0.0
 10
8.1971107751
 20
10.2887582695
 30
0.0
 10
8.2058349522
 20
10.2939236662
 30
0.0
 10
8.2150166561
 20
10.299035557
 30
0.0
 10
8.2246510279
 20
10.304091315
 30
0.0
 10
8.2347330066
 20
10.3090882891
 30
0.0
 10
8.2452573044
 20
10.3140237939
 30
0.0
 10
8.2562183452
 20
10.3188953127
 30
0.0
 10
8.2676103697
 20
10.323700163
 30
0.0
 10
8.2794273336
 20
10.3284358745
 30
0.0
 10
8.2916629958
 20
10.3330999012
 30
0.0
 10
8.3043108815
 20
10.3376897448
 30
0.0
 10
8.3173642808
 20
10.3422030308
 30
0.0
 10
8.3308162877
 20
10.3466372627
 30
0.0
 10
8.3446597684
 20
10.3509901925
 30
0.0
 10
8.3638438046
 20
10.3567465912
 30
0.0
 10
8.3887557877
 20
10.363708706
 30
0.0
 10
8.4197679584
 20
10.3716127073
 30
0.0
 10
8.4521558823
 20
10.3791394902
 30
0.0
 10
8.4858507762
 20
10.3862729551
 30
0.0
 10
8.52078125
 20
10.3929978298
 30
0.0
 10
8.5568731894
 20
10.3992997211
 30
0.0
 10
8.5940499981
 20
10.4051651398
 30
0.0
 10
8.6322327389
 20
10.4105815333
 30
0.0
 10
8.6713403115
 20
10.4155373236
 30
0.0
 10
8.7112896328
 20
10.4200219161
 30
0.0
 10
8.7519958215
 20
10.4240257239
 30
0.0
 10
8.7933723794
 20
10.4275401876
 30
0.0
 10
8.8353313737
 20
10.4305577909
 30
0.0
 10
8.8777836235
 20
10.4330720862
 30
0.0
 10
8.9206388925
 20
10.4350777076
 30
0.0
 10
8.9638060853
 20
10.436570372
 30
0.0
 10
9.0071934425
 20
10.4375468905
 30
0.0
 10
9.050708734
 20
10.4380051746
 30
0.0
 10
9.0942594552
 20
10.4379442393
 30
0.0
 10
9.1377530256
 20
10.4373642196
 30
0.0
 10
9.181096988
 20
10.4362663581
 30
0.0
 10
9.2241992053
 20
10.4346530007
 30
0.0
 10
9.2669680556
 20
10.4325275924
 30
0.0
 10
9.3093126265
 20
10.4298946694
 30
0.0
 10
9.3511429128
 20
10.4267598536
 30
0.0
 10
9.3923700111
 20
10.4231298501
 30
0.0
 10
9.4329063091
 20
10.4190124186
 30
0.0
 10
9.4726656699
 20
10.4144163601
 30
0.0
 10
9.5115636157
 20
10.4093514992
 30
0.0
 10
9.5495175121
 20
10.4038286601
 30
0.0
 10
9.5864467538
 20
10.3978596576
 30
0.0
 10
9.6222729386
 20
10.3914572673
 30
0.0
 10
9.6569200411
 20
10.3846351913
 30
0.0
 10
9.6903145533
 20
10.3774080305
 30
0.0
 10
9.7223857328
 20
10.3697912547
 30
0.0
 10
9.7530654806
 20
10.3618011579
 30
0.0
 10
9.7776897017
 20
10.3547685598
 30
0.0
 10
9.7966359045
 20
10.3489576194
 30
0.0
 10
9.8102965651
 20
10.3445662062
 30
0.0
 10
9.823562378
 20
10.3400945989
 30
0.0
 10
9.8364263134
 20
10.3355450753
 30
0.0
 10
9.8488815574
 20
10.3309201016
 30
0.0
 10
9.860921519
 20
10.3262221443
 30
0.0
 10
9.8725398108
 20
10.3214536402
 30
0.0
 10
9.8837303129
 20
10.3166172112
 30
0.0
 10
9.8944870871
 20
10.3117153226
 30
0.0
 10
9.904804478
 20
10.3067506417
 30
0.0
 10
9.9146770434
 20
10.3017257653
 30
0.0
 10
9.9240995725
 20
10.2966433052
 30
0.0
 10
9.93306715
 20
10.2915060133
 30
0.0
 10
9.941575024
 20
10.2863164611
 30
0.0
 10
9.9496187889
 20
10.2810774502
 30
0.0
 10
9.9571942131
 20
10.2757916192
 30
0.0
 10
9.964297339
 20
10.2704616744
 30
0.0
 10
9.9709245025
 20
10.2650903745
 30
0.0
 10
9.9770721613
 20
10.2596802942
 30
0.0
 10
9.9827371757
 20
10.2542342217
 30
0.0
 10
9.9879164583
 20
10.2487546968
 30
0.0
 10
9.9926072339
 20
10.2432443817
 30
0.0
 10
9.9968069057
 20
10.2377058909
 30
0.0
 10
10.000512898
 20
10.2321417442
 30
0.0
 10
10.003723015
 20
10.2265546732
 30
0.0
 10
10.0064348756
 20
10.2209472839
 30
0.0
 10
10.0086464928
 20
10.215322501
 30
0.0
 10
10.0103559122
 20
10.2096833675
 30
0.0
 10
10.0115613739
 20
10.2040332145
 30
0.0
 10
10.0122617352
 20
10.1983756851
 30
0.0
 10
10.0124559661
 20
10.1927146487
 30
0.0
 10
10.0121439964
 20
10.187053981
 30
0.0
 10
10.0113262233
 20
10.1813981373
 30
0.0
 10
10.0104526882
 20
10.1776686172
 30
0.0
 10
10.0099363494
 20
10.1758121002
 30
0.0
  0
SPLINE
  5
333
100
AcDbEntity
  8
0
100
AcDbSpline
 62
7
  6
CONTINUOUS
 70
0
 71
3
 72
68
 73
64
 74
0
 42
0.0000001
 43
0.0000001
 44
0.0000000001
 40
0.0
 40
0.0
 40
0.0
 40
0.0
 40
0.0043899181
 40
0.0089129704
 40
0.01356987
 40
0.0183611071
 40
0.0232869219
 40
0.0283473892
 40
0.0388713177
 40
0.0499303554
 40
0.0615192163
 40
0.0736305993
 40
0.0862553455
 40
0.099382728
 40
0.1130005919
 40
0.127095434
 40
0.1416526059
 40
0.1566563697
 40
0.1720899565
 40
0.1879357178
 40
0.204175139
 40
0.2207889014
 40
0.2377569949
 40
0.2550587148
 40
0.272672733
 40
0.2905771795
 40
0.3087496387
 40
0.3271672264
 40
0.3458066475
 40
0.364644201
 40
0.3836558571
 40
0.4221034598
 40
0.4609525517
 40
0.5000030484
 40
0.5390535241
 40
0.5779025518
 40
0.6163500495
 40
0.6353616379
 40
0.6541991161
 40
0.6728384455
 40
0.6912559367
 40
0.7094282914
 40
0.7273326157
 40
0.7449465106
 40
0.7622480977
 40
0.7792160409
 40
0.7958296555
 40
0.8120689167
 40
0.827914503
 40
0.8433479199
 40
0.8583514985
 40
0.8729084753
 40
0.8870031281
 40
0.9006207848
 40
0.9137479568
 40
0.926372498
 40
0.9384836566
 40
0.9500722977
 40
0.9611311188
 40
0.9716548135
 40
0.9816404539
 40
0.9910878571
 40
1.0
 40
1.0
 40
1.0
 40
1.0
 10
8.2427735713
 20
10.0740153584
 30
0.0
 10
8.2448505568
 20
10.075358474
 30
0.0
 10
8.2491016601
 20
10.0780329653
 30
0.0
 10
8.2556660403
 20
10.0819540652
 30
0.0
 10
8.2625108865
 20
10.0858429197
 30
0.0
 10
8.2696338084
 20
10.0896981092
 30
0.0
 10
8.2770323528
 20
10.0935184069
 30
0.0
 10
8.2873968137
 20
10.0986306132
 30
0.0
 10
8.3010339102
 20
10.1049135639
 30
0.0
 10
8.3182489923
 20
10.1121978423
 30
0.0
 10
8.3364983167
 20
10.1193120597
 30
0.0
 10
8.3557567751
 20
10.1262463283
 30
0.0
 10
8.3759980286
 20
10.1329911235
 30
0.0
 10
8.3971942844
 20
10.1395370817
 30
0.0
 10
8.4193164157
 20
10.145875089
 30
0.0
 10
8.4423339588
 20
10.1519964005
 30
0.0
 10
8.466215207
 20
10.1578924895
 30
0.0
 10
8.4909272374
 20
10.163555148
 30
0.0
 10
8.5164359501
 20
10.1689765565
 30
0.0
 10
8.5427061436
 20
10.1741491513
 30
0.0
 10
8.5697015484
 20
10.1790657442
 30
0.0
 10
8.5973848775
 20
10.1837195447
 30
0.0
 10
8.6257178943
 20
10.1881040529
 30
0.0
 10
8.6546614528
 20
10.1922131903
 30
0.0
 10
8.6841755553
 20
10.1960412801
 30
0.0
 10
8.7142194175
 20
10.1995829691
 30
0.0
 10
8.7447515136
 20
10.2028333615
 30
0.0
 10
8.7757296421
 20
10.2057879658
 30
0.0
 10
8.8071109748
 20
10.2084426364
 30
0.0
 10
8.8388521661
 20
10.210793743
 30
0.0
 10
8.8817537843
 20
10.2135294719
 30
0.0
 10
8.9359571364
 20
10.2161614327
 30
0.0
 10
9.0014875887
 20
10.2180565842
 30
0.0
 10
9.0673821552
 20
10.2186893846
 30
0.0
 10
9.1332766832
 20
10.2180563242
 30
0.0
 10
9.1988070203
 20
10.216160901
 30
0.0
 10
9.2530102283
 20
10.2135287232
 30
0.0
 10
9.2959116953
 20
10.2107928196
 30
0.0
 10
9.3276527453
 20
10.208441595
 30
0.0
 10
9.3590339172
 20
10.2057867849
 30
0.0
 10
9.3900118687
 20
10.2028320613
 30
0.0
 10
9.4205437694
 20
10.1995815532
 30
0.0
 10
9.4505874172
 20
10.1960397294
 30
0.0
 10
9.4801012903
 20
10.1922115289
 30
0.0
 10
9.5090446018
 20
10.1881022797
 30
0.0
 10
9.537377353
 20
10.183717644
 30
0.0
 10
9.5650604034
 20
10.1790637427
 30
0.0
 10
9.5920555124
 20
10.1741470423
 30
0.0
 10
9.6183253928
 20
10.1689743297
 30
0.0
 10
9.6438337811
 20
10.1635528316
 30
0.0
 10
9.66854547
 20
10.1578900703
 30
0.0
 10
9.6924263615
 20
10.151993876
 30
0.0
 10
9.7154435391
 20
10.1458724868
 30
0.0
 10
9.7375652867
 20
10.1395343818
 30
0.0
 10
9.7587611481
 20
10.1329883331
 30
0.0
 10
9.7790019971
 20
10.1262434733
 30
0.0
 10
9.7982600443
 20
10.119309111
 30
0.0
 10
9.8165089041
 20
10.1121948261
 30
0.0
 10
9.83372368
 20
10.1049104739
 30
0.0
 10
9.8498808863
 20
10.0974660281
 30
0.0
 10
9.8649587694
 20
10.0898715579
 30
0.0
 10
9.8789365864
 20
10.082137661
 30
0.0
 10
9.8877655369
 20
10.0767388416
 30
0.0
 10
9.8919820482
 20
10.0740120419
 30
0.0
  0
SPLINE
  5
334
100
AcDbEntity
  8
0
100
AcDbSpline
 62
7
  6
CONTINUOUS
 70
0
 71
3
 72
55
 73
51
 74
0
 42
0.0000001
 43
0.0000001
 44
0.0000000001
 40
0.0
 40
0.0
 40
0.0
 40
0.0
 40
0.0109057274
 40
0.0222198342
 40
0.0339363164
 40
0.0460483733
 40
0.0585483003
 40
0.0714277415
 40
0.08467757
 40
0.0982880986
 40
0.1122489888
 40
0.1265493974
 40
0.1411779389
 40
0.1561227591
 40
0.1713715578
 40
0.1869115946
 40
0.2027297664
 40
0.2188125584
 40
0.2517159816
 40
0.2855078833
 40
0.3200693951
 40
0.3552778832
 40
0.3910076003
 40
0.4271303223
 40
0.4635159754
 40
0.5000332558
 40
0.5365502463
 40
0.572935031
 40
0.6090563102
 40
0.6447840167
 40
0.6799899361
 40
0.7145483333
 40
0.7483365896
 40
0.7812358546
 40
0.7973163818
 40
0.8131321686
 40
0.8286697038
 40
0.8439158869
 40
0.858857982
 40
0.8734836918
 40
0.8877811672
 40
0.9017390259
 40
0.9153464304
 40
0.9285930464
 40
0.9414691929
 40
0.953965748
 40
0.9660743625
 40
0.9777873385
 40
0.9890978828
 40
1.0
 40
1.0
 40
1.0
 40
1.0
 10
8.3910263555
 20
10.0226667357
 30
0.0
 10
8.3956613686
 20
10.0245175101
 30
0.0
 10
8.4051502776
 20
10.0281757009
 30
0.0
 10
8.4197602165
 20
10.033446324
 30
0.0
 10
8.4349967531
 20
10.0385971088
 30
0.0
 10
8.4508451209
 20
10.0436229066
 30
0.0
 10
8.4672900591
 20
10.0485189632
 30
0.0
 10
8.4843157036
 20
10.0532804201
 30
0.0
 10
8.5019056126
 20
10.0579027462
 30
0.0
 10
8.5200427998
 20
10.0623813756
 30
0.0
 10
8.5387097364
 20
10.0667120175
 30
0.0
 10
8.557888379
 20
10.0708904254
 30
0.0
 10
8.5775601836
 20
10.074912561
 30
0.0
 10
8.5977061237
 20
10.0787745169
 30
0.0
 10
8.618306714
 20
10.0824725256
 30
0.0
 10
8.639342018
 20
10.086003025
 30
0.0
 10
8.660791703
 20
10.0893625598
 30
0.0
 10
8.6901386486
 20
10.0936420665
 30
0.0
 10
8.7277071321
 20
10.098529524
 30
0.0
 10
8.7737680387
 20
10.1036213917
 30
0.0
 10
8.820965021
 20
10.1079637202
 30
0.0
 10
8.8691153889
 20
10.1115395747
 30
0.0
 10
8.9180329197
 20
10.1143349786
 30
0.0
 10
8.9675283406
 20
10.1163390184
 30
0.0
 10
9.017410138
 20
10.1175438698
 30
0.0
 10
9.0674852874
 20
10.1179448298
 30
0.0
 10
9.1175600109
 20
10.1175403334
 30
0.0
 10
9.1674405326
 20
10.1163319593
 30
0.0
 10
9.2169338327
 20
10.1143244243
 30
0.0
 10
9.2658484059
 20
10.1115255666
 30
0.0
 10
9.3139949912
 20
10.1079463128
 30
0.0
 10
9.3611873803
 20
10.1036006531
 30
0.0
 10
9.4072429012
 20
10.0985055352
 30
0.0
 10
9.4448063915
 20
10.0936154047
 30
0.0
 10
9.4741489582
 20
10.089333803
 30
0.0
 10
9.495595093
 20
10.0859727516
 30
0.0
 10
9.5166266664
 20
10.0824407659
 30
0.0
 10
9.5372233492
 20
10.0787413008
 30
0.0
 10
9.5573652086
 20
10.0748779219
 30
0.0
 10
9.5770327632
 20
10.0708543956
 30
0.0
 10
9.5962069909
 20
10.0666746334
 30
0.0
 10
9.6148693519
 20
10.0623426722
 30
0.0
 10
9.6330018073
 20
10.0578627622
 30
0.0
 10
9.6505868327
 20
10.0532391933
 30
0.0
 10
9.667607447
 20
10.0484765346
 30
0.0
 10
9.684047213
 20
10.0435793167
 30
0.0
 10
9.6998902718
 20
10.0385524002
 30
0.0
 10
9.715121368
 20
10.0334005402
 30
0.0
 10
9.7297257403
 20
10.0281288858
 30
0.0
 10
9.7392108627
 20
10.0244699958
 30
0.0
 10
9.7438439596
 20
10.0226188782
 30
0.0
  0
SPLINE
  5
335
100
AcDbEntity
  8
0
100
AcDbSpline
 62
7
  6
CONTINUOUS
 70
0
 71
3
 72
10
 73
6
 74
0
 42
0.0000001
 43
0.0000001
 44
0.0000000001
 40
0.0
 40
0.0
 40
0.0
 40
0.0
 40
0.2687338156
 40
0.5244209911
 40
1.0
 40
1.0
 40
1.0
 40
1.0
 10
9.1957799061
 20
7.0287965214
 30
0.0
 10
9.1967915534
 20
7.0292962886
 30
0.0
 10
9.1987371353
 20
7.0303322377
 30
0.0
 10
9.2022990074
 20
7.0325580629
 30
0.0
 10
9.2047185101
 20
7.0344797599
 30
0.0
 10
9.2061547629
 20
7.0358670736
 30
0.0
  0
SPLINE
  5
336
100
AcDbEntity
  8
0
100
AcDbSpline
 62
7
  6
CONTINUOUS
 70
0
 71
3
 72
52
 73
48
 74
0
 42
0.0000001
 43
0.0000001
 44
0.0000000001
 40
0.0
 40
0.0
 40
0.0
 40
0.0
 40
0.0417975951
 40
0.0840616288
 40
0.1266599
 40
0.1694646819
 40
0.2123442235
 40
0.2551675716
 40
0.2978037564
 40
0.3401225587
 40
0.3819950468
 40
0.4232940448
 40
0.4638946794
 40
0.5036749394
 40
0.5425162168
 40
0.5803038545
 40
0.6169277287
 40
0.6522828762
 40
0.6862702207
 40
0.7187973048
 40
0.7497791232
 40
0.7646666939
 40
0.7791400459
 40
0.7931910474
 40
0.8068124878
 40
0.8199977024
 40
0.8327409898
 40
0.8450375569
 40
0.8568834717
 40
0.8682761438
 40
0.8792139942
 40
0.8896969854
 40
0.8997266536
 40
0.9093062033
 40
0.9184411394
 40
0.9271391328
 40
0.9354107775
 40
0.9432698769
 40
0.9507338665
 40
0.9578247066
 40
0.9645691138
 40
0.9709994856
 40
0.9771542525
 40
0.9830781055
 40
0.9888220386
 40
0.9944424568
 40
1.0
 40
1.0
 40
1.0
 40
1.0
 10
13.7466204414
 20
10.5249961038
 30
0.0
 10
13.7402355847
 20
10.5254388952
 30
0.0
 10
13.7273873276
 20
10.526227335
 30
0.0
 10
13.7080124408
 20
10.527117214
 30
0.0
 10
13.6884721371
 20
10.527719034
 30
0.0
 10
13.668830819
 20
10.5280308823
 30
0.0
 10
13.6491525718
 20
10.5280516796
 30
0.0
 10
13.6295019871
 20
10.5277813713
 30
0.0
 10
13.6099434261
 20
10.5272208502
 30
0.0
 10
13.5905409783
 20
10.5263719707
 30
0.0
 10
13.5713582153
 20
10.5252375366
 30
0.0
 10
13.552457984
 20
10.5238212905
 30
0.0
 10
13.5339022013
 20
10.5221279024
 30
0.0
 10
13.5157516408
 20
10.5201629732
 30
0.0
 10
13.498065732
 20
10.5179330015
 30
0.0
 10
13.480902368
 20
10.5154453608
 30
0.0
 10
13.4643177094
 20
10.5127082781
 30
0.0
 10
13.4483660049
 20
10.5097308012
 30
0.0
 10
13.4330993379
 20
10.5065228002
 30
0.0
 10
13.4185676462
 20
10.5030948821
 30
0.0
 10
13.4069605759
 20
10.5000251663
 30
0.0
 10
13.3980833447
 20
10.4974607505
 30
0.0
 10
13.3917267272
 20
10.495515212
 30
0.0
 10
13.3855879438
 20
10.4935234249
 30
0.0
 10
13.3796719853
 20
10.4914870845
 30
0.0
 10
13.3739836902
 20
10.4894078059
 30
0.0
 10
13.3685276914
 20
10.487287311
 30
0.0
 10
13.3633084203
 20
10.4851273686
 30
0.0
 10
13.3583301404
 20
10.4829296678
 30
0.0
 10
13.3535968629
 20
10.4806960903
 30
0.0
 10
13.3491124391
 20
10.478428378
 30
0.0
 10
13.3448804823
 20
10.4761283878
 30
0.0
 10
13.3409043788
 20
10.4737980008
 30
0.0
 10
13.3371873582
 20
10.4714389849
 30
0.0
 10
13.3337323374
 20
10.4690532982
 30
0.0
 10
13.3305421116
 20
10.4666427013
 30
0.0
 10
13.3276192091
 20
10.4642090519
 30
0.0
 10
13.324965936
 20
10.4617541806
 30
0.0
 10
13.3225845273
 20
10.4592797551
 30
0.0
 10
13.3204768809
 20
10.4567876016
 30
0.0
 10
13.3186449625
 20
10.4542793124
 30
0.0
 10
13.317090544
 20
10.451756613
 30
0.0
 10
13.3158153349
 20
10.4492212576
 30
0.0
 10
13.3148211924
 20
10.4466751251
 30
0.0
 10
13.3141095719
 20
10.4441203538
 30
0.0
 10
13.3136820151
 20
10.4415598497
 30
0.0
 10
13.3135867744
 20
10.4398467597
 30
0.0
 10
13.3135867818
 20
10.4389957695
 30
0.0
  0
SPLINE
  5
337
100
AcDbEntity
  8
0
100
AcDbSpline
 62
7
  6
CONTINUOUS
 70
0
 71
3
 72
106
 73
102
 74
0
 42
0.0000001
 43
0.0000001
 44
0.0000000001
 40
0.0
 40
0.0
 40
0.0
 40
0.0
 40
0.002892414
 40
0.0058073597
 40
0.0087668042
 40
0.0117916495
 40
0.0149013382
 40
0.0181135859
 40
0.0214442629
 40
0.0249073441
 40
0.0285150077
 40
0.0322776945
 40
0.0362043149
 40
0.040302327
 40
0.0445779686
 40
0.0490363188
 40
0.0536815058
 40
0.0585167534
 40
0.0635445398
 40
0.0687666444
 40
0.0741842483
 40
0.0797979943
 40
0.0856080296
 40
0.0916140872
 40
0.0978154767
 40
0.1042111862
 40
0.1107998352
 40
0.1175797886
 40
0.1245490884
 40
0.1317055659
 40
0.1390467729
 40
0.1465700757
 40
0.1542726038
 40
0.1621513131
 40
0.1702029638
 40
0.1784241464
 40
0.1868112933
 40
0.1953606688
 40
0.2040684109
 40
0.2129304915
 40
0.2311007958
 40
0.2498371523
 40
0.2691030905
 40
0.2888604891
 40
0.3090697382
 40
0.3296898915
 40
0.3506788108
 40
0.3719933065
 40
0.3935892723
 40
0.4154218191
 40
0.4374454052
 40
0.4596139658
 40
0.4818810412
 40
0.5041999044
 40
0.5265236882
 40
0.5488055119
 40
0.5709986084
 40
0.5930564513
 40
0.6149328822
 40
0.6365822389
 40
0.6579594845
 40
0.6790203377
 40
0.6997214052
 40
0.7200203171
 40
0.7398758651
 40
0.7592481468
 40
0.7780987158
 40
0.7963907412
 40
0.8140891791
 40
0.822705496
 40
0.8311611966
 40
0.8394524721
 40
0.8475757044
 40
0.8555273946
 40
0.8633042525
 40
0.8709031295
 40
0.8783210997
 40
0.8855554126
 40
0.8926035523
 40
0.8994632232
 40
0.9061323791
 40
0.9126092494
 40
0.9188923355
 40
0.9249804806
 40
0.9308728375
 40
0.9365689782
 40
0.9420688464
 40
0.9473728959
 40
0.9524820491
 40
0.9573978499
 40
0.9621224519
 40
0.966658772
 40
0.9710105299
 40
0.9751824027
 40
0.9791801256
 40
0.98301062
 40
0.9866821521
 40
0.9902045071
 40
0.993589207
 40
0.9968494349
 40
1.0
 40
1.0
 40
1.0
 40
1.0
 10
11.1091158616
 20
10.0207364041
 30
0.0
 10
11.109115854
 20
10.0234796688
 30
0.0
 10
11.1093693271
 20
10.0289908648
 30
0.0
 10
11.11050824
 20
10.0372380868
 30
0.0
 10
11.1124047937
 20
10.0454738181
 30
0.0
 10
11.1150568253
 20
10.053691577
 30
0.0
 10
11.1184615845
 20
10.0618865187
 30
0.0
 10
11.1226158978
 20
10.0700539573
 30
0.0
 10
11.127516502
 20
10.0781895387
 30
0.0
 10
11.1331597467
 20
10.0862892371
 30
0.0
 10
11.1395420561
 20
10.0943489456
 30
0.0
 10
11.1466593705
 20
10.102364825
 30
0.0
 10
11.1545076596
 20
10.1103327442
 30
0.0
 10
11.1630823296
 20
10.1182488288
 30
0.0
 10
11.1723787015
 20
10.1261088608
 30
0.0
 10
11.1823915272
 20
10.1339088685
 30
0.0
 10
11.1931153553
 20
10.1416445927
 30
0.0
 10
11.2045442128
 20
10.1493119728
 30
0.0
 10
11.2166718269
 20
10.1569067748
 30
0.0
 10
11.2294914677
 20
10.1644248814
 30
0.0
 10
11.2429960377
 20
10.1718621354
 30
0.0
 10
11.2571780412
 20
10.1792143996
 30
0.0
 10
11.2720295753
 20
10.1864776251
 30
0.0
 10
11.287542382
 20
10.1936476915
 30
0.0
 10
11.3037077809
 20
10.2007206724
 30
0.0
 10
11.3205167632
 20
10.2076925013
 30
0.0
 10
11.3379599009
 20
10.214559375
 30
0.0
 10
11.356027451
 20
10.2213173178
 30
0.0
 10
11.3747092679
 20
10.2279626429
 30
0.0
 10
11.3939948947
 20
10.2344915012
 30
0.0
 10
11.4138734971
 20
10.2409003126
 30
0.0
 10
11.4343339287
 20
10.2471853849
 30
0.0
 10
11.4553646933
 20
10.2533432396
 30
0.0
 10
11.4769539836
 20
10.2593703624
 30
0.0
 10
11.4990896671
 20
10.2652633785
 30
0.0
 10
11.5217593054
 20
10.2710189633
 30
0.0
 10
11.5449501576
 20
10.2766338555
 30
0.0
 10
11.5686491811
 20
10.2821049192
 30
0.0
 10
11.5928430705
 20
10.2874290417
 30
0.0
 10
11.6260191566
 20
10.2943857807
 30
0.0
 10
11.6686309704
 20
10.3026793031
 30
0.0
 10
11.7211023663
 20
10.3119185493
 30
0.0
 10
11.7752091201
 20
10.3205046583
 30
0.0
 10
11.8308294848
 20
10.3284182034
 30
0.0
 10
11.887838474
 20
10.3356412573
 30
0.0
 10
11.9461078931
 20
10.3421574684
 30
0.0
 10
12.005506705
 20
10.3479520872
 30
0.0
 10
12.0659013097
 20
10.3530120002
 30
0.0
 10
12.1271558536
 20
10.3573257591
 30
0.0
 10
12.1891325368
 20
10.3608836049
 30
0.0
 10
12.251691926
 20
10.36367749
 30
0.0
 10
12.31469327
 20
10.3657010951
 30
0.0
 10
12.3779948185
 20
10.3669498438
 30
0.0
 10
12.4414541424
 20
10.3674209117
 30
0.0
 10
12.5049284557
 20
10.3671132335
 30
0.0
 10
12.5682749385
 20
10.3660275044
 30
0.0
 10
12.6313510597
 20
10.3641661798
 30
0.0
 10
12.6940148995
 20
10.3615334693
 30
0.0
 10
12.7561254703
 20
10.3581353277
 30
0.0
 10
12.8175430358
 20
10.3539794414
 30
0.0
 10
12.8781294273
 20
10.3490752119
 30
0.0
 10
12.9377483572
 20
10.3434337354
 30
0.0
 10
12.996265728
 20
10.3370677783
 30
0.0
 10
13.0535499369
 20
10.3299917491
 30
0.0
 10
13.1094721812
 20
10.322221668
 30
0.0
 10
13.1639067321
 20
10.3137751281
 30
0.0
 10
13.2167313036
 20
10.3046712687
 30
0.0
 10
13.2678270509
 20
10.2949306914
 30
0.0
 10
13.3092314333
 20
10.2862256487
 30
0.0
 10
13.3413963219
 20
10.2789477232
 30
0.0
 10
13.3648020685
 20
10.2733928191
 30
0.0
 10
13.3876920209
 20
10.2676958707
 30
0.0
 10
13.4100533365
 20
10.2618601585
 30
0.0
 10
13.4318734369
 20
10.2558888841
 30
0.0
 10
13.4531400697
 20
10.2497855025
 30
0.0
 10
13.4738412813
 20
10.2435533733
 30
0.0
 10
13.493965453
 20
10.2371960767
 30
0.0
 10
13.5135012826
 20
10.2307171437
 30
0.0
 10
13.5324378109
 20
10.224120255
 30
0.0
 10
13.5507644174
 20
10.2174091156
 30
0.0
 10
13.568470826
 20
10.210587488
 30
0.0
 10
13.5855471278
 20
10.203659246
 30
0.0
 10
13.6019837518
 20
10.1966282199
 30
0.0
 10
13.61777153
 20
10.1894984379
 30
0.0
 10
13.6329016174
 20
10.1822737898
 30
0.0
 10
13.6473656128
 20
10.1749584321
 30
0.0
 10
13.6611554198
 20
10.167556311
 30
0.0
 10
13.6742634231
 20
10.1600716713
 30
0.0
 10
13.6866822998
 20
10.1525085161
 30
0.0
 10
13.698405228
 20
10.1448711227
 30
0.0
 10
13.7094256789
 20
10.1371635449
 30
0.0
 10
13.7197376149
 20
10.1293900344
 30
0.0
 10
13.7293353151
 20
10.1215546793
 30
0.0
 10
13.7382134923
 20
10.1136616302
 30
0.0
 10
13.7463672014
 20
10.1057149607
 30
0.0
 10
13.7537918046
 20
10.0977187139
 30
0.0
 10
13.760483094
 20
10.0896769604
 30
0.0
 10
13.7664369686
 20
10.081593586
 30
0.0
 10
13.771649819
 20
10.073472354
 30
0.0
 10
13.7761175118
 20
10.0653181456
 30
0.0
 10
13.7786363752
 20
10.0597763192
 30
0.0
 10
13.7797618968
 20
10.0570082934
 30
0.0
  0
SPLINE
  5
338
100
AcDbEntity
  8
0
100
AcDbSpline
 62
7
  6
CONTINUOUS
 70
0
 71
3
 72
53
 73
49
 74
0
 42
0.0000001
 43
0.0000001
 44
0.0000000001
 40
0.0
 40
0.0
 40
0.0
 40
0.0
 40
0.0311426844
 40
0.0624383931
 40
0.0938812286
 40
0.1254614913
 40
0.1571669836
 40
0.1889829512
 40
0.2208924493
 40
0.2528766959
 40
0.2849154495
 40
0.3169874116
 40
0.3490706423
 40
0.3811429843
 40
0.4131824906
 40
0.4451678483
 40
0.477078794
 40
0.5088965168
 40
0.5406040388
 40
0.5721865671
 40
0.587929481
 40
0.6036367678
 40
0.6193073317
 40
0.6349402614
 40
0.650534846
 40
0.6660905727
 40
0.6816071306
 40
0.6970844215
 40
0.7125225531
 40
0.7279218437
 40
0.7432828261
 40
0.7586062374
 40
0.7738930241
 40
0.7891443373
 40
0.8043615217
 40
0.8195461182
 40
0.8346998512
 40
0.8498246181
 40
0.8649224865
 40
0.8799956769
 40
0.8950465515
 40
0.9100776058
 40
0.9250914485
 40
0.9400907894
 40
0.9550784261
 40
0.9700572226
 40
0.985030096
 40
1.0
 40
1.0
 40
1.0
 40
1.0
 10
8.7352558847
 20
6.1922059277
 30
0.0
 10
8.7149474586
 20
6.1936143218
 30
0.0
 10
8.6743187947
 20
6.1979245272
 30
0.0
 10
8.6138683778
 20
6.2087820661
 30
0.0
 10
8.5540654392
 20
6.2239901694
 30
0.0
 10
8.4952329537
 20
6.2434671309
 30
0.0
 10
8.4376834982
 20
6.2671085727
 30
0.0
 10
8.381724038
 20
6.2947879598
 30
0.0
 10
8.3276526734
 20
6.3263573919
 30
0.0
 10
8.2757575677
 20
6.3616483679
 30
0.0
 10
8.2263151924
 20
6.400472531
 30
0.0
 10
8.1795889742
 20
6.4426227936
 30
0.0
 10
8.1358279438
 20
6.4878744645
 30
0.0
 10
8.0952653792
 20
6.5359863728
 30
0.0
 10
8.0581174918
 20
6.5867020676
 30
0.0
 10
8.0245823999
 20
6.6397513527
 30
0.0
 10
7.9948391504
 20
6.6948514548
 30
0.0
 10
7.9690464258
 20
6.7517093058
 30
0.0
 10
7.9473424916
 20
6.8100198753
 30
0.0
 10
7.9327425804
 20
6.8596244553
 30
0.0
 10
7.9232197657
 20
6.8997191264
 30
0.0
 10
7.9171685289
 20
6.9299274857
 30
0.0
 10
7.9122097198
 20
6.9602610852
 30
0.0
 10
7.9083499394
 20
6.9906799113
 30
0.0
 10
7.9055942554
 20
7.0211432093
 30
0.0
 10
7.9039464307
 20
7.0516103523
 30
0.0
 10
7.9034087394
 20
7.0820406501
 30
0.0
 10
7.9039817862
 20
7.1123934719
 30
0.0
 10
7.9056649541
 20
7.1426282864
 30
0.0
 10
7.9084559904
 20
7.1727047141
 30
0.0
 10
7.9123510997
 20
7.2025826
 30
0.0
 10
7.9173452517
 20
7.2322220203
 30
0.0
 10
7.923431701
 20
7.2615833981
 30
0.0
 10
7.9306023149
 20
7.2906275243
 30
0.0
 10
7.9388476703
 20
7.3193155645
 30
0.0
 10
7.9481566349
 20
7.3476092301
 30
0.0
 10
7.9585168389
 20
7.375470711
 30
0.0
 10
7.9699145389
 20
7.4028627471
 30
0.0
 10
7.9823343887
 20
7.4297487946
 30
0.0
 10
7.9957599111
 20
7.4560928856
 30
0.0
 10
8.0101731891
 20
7.4818598064
 30
0.0
 10
8.0255548776
 20
7.5070151839
 30
0.0
 10
8.041884559
 20
7.5315253231
 30
0.0
 10
8.0591403714
 20
7.5553575095
 30
0.0
 10
8.077299188
 20
7.5784799039
 30
0.0
 10
8.0963369841
 20
7.6008616181
 30
0.0
 10
8.1162277908
 20
7.6224724181
 30
0.0
 10
8.1300408232
 20
7.6363478846
 30
0.0
 10
8.1370790525
 20
7.6431463027
 30
0.0
  0
SPLINE
  5
339
100
AcDbEntity
  8
0
100
AcDbSpline
 62
7
  6
CONTINUOUS
 70
0
 71
3
 72
21
 73
17
 74
0
 42
0.0000001
 43
0.0000001
 44
0.0000000001
 40
0.0
 40
0.0
 40
0.0
 40
0.0
 40
0.1267948843
 40
0.2530337259
 40
0.3159557352
 40
0.3787429632
 40
0.441397645
 40
0.5039229569
 40
0.5663224814
 40
0.6286002277
 40
0.6907607935
 40
0.752809261
 40
0.8147511882
 40
0.8765925892
 40
0.9383399052
 40
1.0
 40
1.0
 40
1.0
 40
1.0
 10
9.0724968222
 20
6.5179556781
 30
0.0
 10
9.0900015912
 20
6.5167417183
 30
0.0
 10
9.1250200923
 20
6.5154166275
 30
0.0
 10
9.1687608767
 20
6.5165426872
 30
0.0
 10
9.2035373665
 20
6.5191159874
 30
0.0
 10
9.2294627813
 20
6.5218757045
 30
0.0
 10
9.2552308907
 20
6.5254643384
 30
0.0
 10
9.2808161434
 20
6.5298784234
 30
0.0
 10
9.3061928964
 20
6.5351133491
 30
0.0
 10
9.3313356982
 20
6.5411641302
 30
0.0
 10
9.3562194088
 20
6.5480244677
 30
0.0
 10
9.3808190524
 20
6.555687724
 30
0.0
 10
9.4051100121
 20
6.5641460471
 30
0.0
 10
9.4290680082
 20
6.5733911286
 30
0.0
 10
9.4526687122
 20
6.5834135075
 30
0.0
 10
9.4681597456
 20
6.59061182
 30
0.0
 10
9.4758367435
 20
6.5943367953
 30
0.0
  0
SPLINE
  5
33A
100
AcDbEntity
  8
0
100
AcDbSpline
 62
7
  6
CONTINUOUS
 70
0
 71
3
 72
45
 73
41
 74
0
 42
0.0000001
 43
0.0000001
 44
0.0000000001
 40
0.0
 40
0.0
 40
0.0
 40
0.0
 40
0.0309549034
 40
0.0620432811
 40
0.0932611254
 40
0.1246017213
 40
0.15605678
 40
0.1876161421
 40
0.2192680867
 40
0.2509994878
 40
0.2827960299
 40
0.3146424271
 40
0.3465226554
 40
0.3784201916
 40
0.410318258
 40
0.4422000689
 40
0.4740490782
 40
0.5058492232
 40
0.5375851649
 40
0.5692425193
 40
0.6008080802
 40
0.6322700272
 40
0.6636181184
 40
0.6948438641
 40
0.7259406782
 40
0.7569040047
 40
0.7877314155
 40
0.8184226775
 40
0.833719794
 40
0.8489838096
 40
0.8642153207
 40
0.8794150599
 40
0.8945838973
 40
0.9097228295
 40
0.9248329874
 40
0.9399156194
 40
0.9549720991
 40
0.9700039099
 40
0.9850126451
 40
1.0
 40
1.0
 40
1.0
 40
1.0
 10
9.0724968222
 20
6.5179556781
 30
0.0
 10
9.0547636988
 20
6.5191854744
 30
0.0
 10
9.0192894371
 20
6.5227831073
 30
0.0
 10
8.9664208185
 20
6.5315350908
 30
0.0
 10
8.9139837292
 20
6.5436189458
 30
0.0
 10
8.8621943006
 20
6.558985158
 30
0.0
 10
8.8112625741
 20
6.5775708573
 30
0.0
 10
8.7613959295
 20
6.5993002046
 30
0.0
 10
8.7127971599
 20
6.6240845615
 30
0.0
 10
8.6656639504
 20
6.6518229206
 30
0.0
 10
8.6201880002
 20
6.6824022912
 30
0.0
 10
8.5765542692
 20
6.7156981582
 30
0.0
 10
8.5349402236
 20
6.7515749845
 30
0.0
 10
8.495515128
 20
6.7898867686
 30
0.0
 10
8.4584393612
 20
6.8304776323
 30
0.0
 10
8.4238637696
 20
6.8731824509
 30
0.0
 10
8.391929058
 20
6.9178275189
 30
0.0
 10
8.3627652216
 20
6.9642312505
 30
0.0
 10
8.3364910198
 20
7.0122049119
 30
0.0
 10
8.3132134958
 20
7.0615533816
 30
0.0
 10
8.293027529
 20
7.1120759303
 30
0.0
 10
8.2760154609
 20
7.1635670405
 30
0.0
 10
8.2622467583
 20
7.2158172207
 30
0.0
 10
8.2517777331
 20
7.2686138953
 30
0.0
 10
8.2446512881
 20
7.321742087
 30
0.0
 10
8.2408968131
 20
7.3749859237
 30
0.0
 10
8.2405297704
 20
7.428127132
 30
0.0
 10
8.2430516873
 20
7.4721994555
 30
0.0
 10
8.2467626828
 20
7.5071821522
 30
0.0
 10
8.2503842416
 20
7.5332326963
 30
0.0
 10
8.2548434113
 20
7.5590960153
 30
0.0
 10
8.260135606
 20
7.5847461138
 30
0.0
 10
8.2662554213
 20
7.6101567691
 30
0.0
 10
8.2731967383
 20
7.6353020851
 30
0.0
 10
8.2809523201
 20
7.6601564782
 30
0.0
 10
8.289514499
 20
7.6846945584
 30
0.0
 10
8.2988743104
 20
7.7088913739
 30
0.0
 10
8.3090224958
 20
7.7327222724
 30
0.0
 10
8.3199483558
 20
7.7561626984
 30
0.0
 10
8.3277490999
 20
7.7715245489
 30
0.0
 10
8.3317749363
 20
7.7791313313
 30
0.0
  0
SPLINE
  5
33B
100
AcDbEntity
  8
0
100
AcDbSpline
 62
7
  6
CONTINUOUS
 70
0
 71
3
 72
45
 73
41
 74
0
 42
0.0000001
 43
0.0000001
 44
0.0000000001
 40
0.0
 40
0.0
 40
0.0
 40
0.0
 40
0.0309847264
 40
0.0621059086
 40
0.0933592891
 40
0.1247377316
 40
0.1562324217
 40
0.1878325644
 40
0.2195257165
 40
0.2512979625
 40
0.2831341508
 40
0.3150181364
 40
0.3469330351
 40
0.3788614873
 40
0.4107859247
 40
0.442688841
 40
0.4745530608
 40
0.5063620054
 40
0.5380999521
 40
0.5697522845
 40
0.6013057297
 40
0.63274858
 40
0.6640708948
 40
0.6952646802
 40
0.7263240427
 40
0.757245313
 40
0.7880271361
 40
0.8186705262
 40
0.8339433911
 40
0.8491831205
 40
0.864390509
 40
0.8795664892
 40
0.8947121403
 40
0.90982867
 40
0.9249174243
 40
0.9399798697
 40
0.9550175957
 40
0.9700323049
 40
0.9850258035
 40
1.0
 40
1.0
 40
1.0
 40
1.0
 10
9.0724968222
 20
6.5430697511
 30
0.0
 10
9.05491894
 20
6.5442887814
 30
0.0
 10
9.0197549004
 20
6.5478799569
 30
0.0
 10
8.9673611831
 20
6.5566654212
 30
0.0
 10
8.9154142753
 20
6.5688244143
 30
0.0
 10
8.8641378281
 20
6.584304891
 30
0.0
 10
8.8137490634
 20
6.6030406854
 30
0.0
 10
8.7644622869
 20
6.624951937
 30
0.0
 10
8.7164868582
 20
6.6499452836
 30
0.0
 10
8.6700266162
 20
6.6779143297
 30
0.0
 10
8.6252789384
 20
6.7087400735
 30
0.0
 10
8.5824339254
 20
6.742291406
 30
0.0
 10
8.541673598
 20
6.7784256724
 30
0.0
 10
8.5031711359
 20
6.81698928
 30
0.0
 10
8.4670901472
 20
6.8578183437
 30
0.0
 10
8.4335839794
 20
6.9007393781
 30
0.0
 10
8.4027950731
 20
6.9455700275
 30
0.0
 10
8.3748543605
 20
6.9921198335
 30
0.0
 10
8.3498807143
 20
7.0401910377
 30
0.0
 10
8.3279804335
 20
7.0895794082
 30
0.0
 10
8.3092467929
 20
7.1400751005
 30
0.0
 10
8.2937596562
 20
7.1914635482
 30
0.0
 10
8.2815851308
 20
7.2435263502
 30
0.0
 10
8.2727752911
 20
7.2960422371
 30
0.0
 10
8.2673679218
 20
7.3487878216
 30
0.0
 10
8.2653864587
 20
7.4015392028
 30
0.0
 10
8.2668394693
 20
7.4540704451
 30
0.0
 10
8.2709129519
 20
7.497530631
 30
0.0
 10
8.2758803242
 20
7.5319569982
 30
0.0
 10
8.2804498286
 20
7.5575570475
 30
0.0
 10
8.285862249
 20
7.5829356411
 30
0.0
 10
8.2921119523
 20
7.6080661059
 30
0.0
 10
8.2991921218
 20
7.6329216371
 30
0.0
 10
8.3070954599
 20
7.6574757363
 30
0.0
 10
8.3158133184
 20
7.6817023321
 30
0.0
 10
8.3253366606
 20
7.7055755603
 30
0.0
 10
8.3356551633
 20
7.7290700459
 30
0.0
 10
8.3467580157
 20
7.7521608226
 30
0.0
 10
8.3586331685
 20
7.7748229692
 30
0.0
 10
8.3670619322
 20
7.7896389828
 30
0.0
 10
8.3714002585
 20
7.7969663766
 30
0.0
  0
SPLINE
  5
33C
100
AcDbEntity
  8
0
100
AcDbSpline
 62
7
  6
CONTINUOUS
 70
0
 71
3
 72
41
 73
37
 74
0
 42
0.0000001
 43
0.0000001
 44
0.0000000001
 40
0.0
 40
0.0
 40
0.0
 40
0.0
 40
0.0310022413
 40
0.0621426337
 40
0.0934167844
 40
0.1248173062
 40
0.156335073
 40
0.1879589182
 40
0.2196759739
 40
0.2514718622
 40
0.2833309432
 40
0.3152365715
 40
0.3471713648
 40
0.3791174808
 40
0.4110568991
 40
0.4429717044
 40
0.4748443694
 40
0.5066580332
 40
0.5383967726
 40
0.5700458624
 40
0.6015920214
 40
0.6330236409
 40
0.6643309924
 40
0.6955064095
 40
0.7265444422
 40
0.7574419784
 40
0.7881983287
 40
0.8188152715
 40
0.8492970549
 40
0.8796503544
 40
0.9098841827
 40
0.9400097534
 40
0.955038281
 40
0.9700448616
 40
0.9850314265
 40
1.0
 40
1.0
 40
1.0
 40
1.0
 10
9.0819108569
 20
6.5724474544
 30
0.0
 10
9.0645635585
 20
6.5736504937
 30
0.0
 10
9.0298606106
 20
6.5772086597
 30
0.0
 10
8.9781610831
 20
6.5859408511
 30
0.0
 10
8.9269134175
 20
6.5980421392
 30
0.0
 10
8.8763437114
 20
6.6134594436
 30
0.0
 10
8.8266714939
 20
6.6321252355
 30
0.0
 10
8.7781132498
 20
6.6539579821
 30
0.0
 10
8.7308803455
 20
6.678862356
 30
0.0
 10
8.6851784327
 20
6.7067297224
 30
0.0
 10
8.6412064645
 20
6.7374385707
 30
0.0
 10
8.5991558639
 20
6.7708550559
 30
0.0
 10
8.5592096979
 20
6.8068335871
 30
0.0
 10
8.5215418888
 20
6.8452174545
 30
0.0
 10
8.486316464
 20
6.8858395071
 30
0.0
 10
8.4536868479
 20
6.928522874
 30
0.0
 10
8.4237952004
 20
6.9730817278
 30
0.0
 10
8.396771797
 20
7.0193220827
 30
0.0
 10
8.3727344511
 20
7.0670426256
 30
0.0
 10
8.3517880204
 20
7.1160355963
 30
0.0
 10
8.3340239499
 20
7.1660876802
 30
0.0
 10
8.3195198731
 20
7.2169809269
 30
0.0
 10
8.3083392716
 20
7.2684936878
 30
0.0
 10
8.3005311934
 20
7.32040157
 30
0.0
 10
8.2961300344
 20
7.372478402
 30
0.0
 10
8.2951553573
 20
7.4244972111
 30
0.0
 10
8.2976118048
 20
7.4762311956
 30
0.0
 10
8.3034890924
 20
7.5274547522
 30
0.0
 10
8.31276195
 20
7.5779442822
 30
0.0
 10
8.3253905318
 20
7.6274798042
 30
0.0
 10
8.3413193899
 20
7.6758435451
 30
0.0
 10
8.3573016476
 20
7.7150314058
 30
0.0
 10
8.3716596508
 20
7.7455742484
 30
0.0
 10
8.3831953304
 20
7.7680439057
 30
0.0
 10
8.3954929168
 20
7.7900665864
 30
0.0
 10
8.4041957064
 20
7.8044434634
 30
0.0
 10
8.4086690126
 20
7.811548296
 30
0.0
  0
SPLINE
  5
33D
100
AcDbEntity
  8
0
100
AcDbSpline
 62
7
  6
CONTINUOUS
 70
0
 71
3
 72
43
 73
39
 74
0
 42
0.0000001
 43
0.0000001
 44
0.0000000001
 40
0.0
 40
0.0
 40
0.0
 40
0.0
 40
0.0309458716
 40
0.0620243187
 40
0.0932313652
 40
0.1245604432
 40
0.1560034217
 40
0.1875503318
 40
0.219189673
 40
0.2509085586
 40
0.282692928
 40
0.3145277579
 40
0.3463972879
 40
0.3782852523
 40
0.4101751176
 40
0.4420503228
 40
0.4738945201
 40
0.5056918124
 40
0.5374269875
 40
0.5690857446
 40
0.6006549107
 40
0.6321226458
 40
0.663478632
 40
0.6947142449
 40
0.7258227047
 40
0.7567992025
 40
0.7876410008
 40
0.8183475033
 40
0.8336524017
 40
0.8489242511
 40
0.8641635946
 40
0.879371101
 40
0.9096899045
 40
0.9398926599
 40
0.9549556264
 40
0.9699934711
 40
0.9850077185
 40
1.0
 40
1.0
 40
1.0
 40
1.0
 10
9.1532482976
 20
6.6413541349
 30
0.0
 10
9.1365983805
 20
6.6425088106
 30
0.0
 10
9.1032911031
 20
6.6458793203
 30
0.0
 10
9.0536483667
 20
6.654064282
 30
0.0
 10
9.0044052652
 20
6.6653567325
 30
0.0
 10
8.9557620074
 20
6.6797110214
 30
0.0
 10
8.9079131753
 20
6.6970692264
 30
0.0
 10
8.8610509395
 20
6.7173614844
 30
0.0
 10
8.8153632749
 20
6.7405061456
 30
0.0
 10
8.7710334886
 20
6.7664101709
 30
0.0
 10
8.7282394151
 20
6.7949694766
 30
0.0
 10
8.6871527318
 20
6.8260693611
 30
0.0
 10
8.64793827
 20
6.8595849595
 30
0.0
 10
8.6107533615
 20
6.8953817432
 30
0.0
 10
8.5757472074
 20
6.9333160513
 30
0.0
 10
8.5430602869
 20
6.9732356677
 30
0.0
 10
8.5128237986
 20
7.0149804278
 30
0.0
 10
8.4851591374
 20
7.0583828559
 30
0.0
 10
8.46017741
 20
7.1032688311
 30
0.0
 10
8.4379789917
 20
7.1494582803
 30
0.0
 10
8.4186531244
 20
7.1967658924
 30
0.0
 10
8.4022775588
 20
7.2450018583
 30
0.0
 10
8.3889182407
 20
7.2939726124
 30
0.0
 10
8.3786290485
 20
7.343481645
 30
0.0
 10
8.3714515542
 20
7.393330123
 30
0.0
 10
8.3674149187
 20
7.44331827
 30
0.0
 10
8.3665354965
 20
7.4932439748
 30
0.0
 10
8.3684395187
 20
7.5346799168
 30
0.0
 10
8.3715432934
 20
7.5675902181
 30
0.0
 10
8.3746542945
 20
7.5921078634
 30
0.0
 10
8.3785476384
 20
7.6164603358
 30
0.0
 10
8.3847698366
 20
7.648641625
 30
0.0
 10
8.3944786591
 20
7.6883454248
 30
0.0
 10
8.4067509682
 20
7.7272520692
 30
0.0
 10
8.4180647047
 20
7.7577493835
 30
0.0
 10
8.4272820969
 20
7.7802727659
 30
0.0
 10
8.4372288828
 20
7.8024413449
 30
0.0
 10
8.4443450456
 20
7.8169800993
 30
0.0
 10
8.4480209959
 20
7.8241819277
 30
0.0
  0
SPLINE
  5
33E
100
AcDbEntity
  8
0
100
AcDbSpline
 62
7
  6
CONTINUOUS
 70
0
 71
3
 72
45
 73
41
 74
0
 42
0.0000001
 43
0.0000001
 44
0.0000000001
 40
0.0
 40
0.0
 40
0.0
 40
0.0
 40
0.0309940926
 40
0.0621256184
 40
0.0933901778
 40
0.1247805253
 40
0.1562876746
 40
0.1879006226
 40
0.2196066948
 40
0.2513917201
 40
0.283240279
 40
0.3151359509
 40
0.3470615773
 40
0.378999532
 40
0.4109319968
 40
0.4428412388
 40
0.4747098877
 40
0.5065212078
 40
0.5382593645
 40
0.5699096791
 40
0.6014588715
 40
0.6328952856
 40
0.6642090941
 40
0.6953924803
 40
0.7264397914
 40
0.7573476614
 40
0.7881150984
 40
0.8187435345
 40
0.8340088885
 40
0.8492411418
 40
0.8644411554
 40
0.8796099266
 40
0.894748603
 40
0.9098584607
 40
0.9249409152
 40
0.9399975027
 40
0.9550298824
 40
0.9700398255
 40
0.9850292065
 40
1.0
 40
1.0
 40
1.0
 40
1.0
 10
9.1739538041
 20
6.7386281903
 30
0.0
 10
9.1583966966
 20
6.7397070793
 30
0.0
 10
9.1272750457
 20
6.7428924018
 30
0.0
 10
9.0809079556
 20
6.7506985982
 30
0.0
 10
9.0349416982
 20
6.7615102596
 30
0.0
 10
8.9895768923
 20
6.7752804613
 30
0.0
 10
8.9450083263
 20
6.7919495472
 30
0.0
 10
8.9014281394
 20
6.8114454958
 30
0.0
 10
8.8590239734
 20
6.8336840982
 30
0.0
 10
8.8179784509
 20
6.8585693931
 30
0.0
 10
8.7784683192
 20
6.8859940504
 30
0.0
 10
8.7406637195
 20
6.9158398425
 30
0.0
 10
8.7047274543
 20
6.9479781468
 30
0.0
 10
8.6708142955
 20
6.9822704978
 30
0.0
 10
8.6390703195
 20
7.0185691764
 30
0.0
 10
8.6096322825
 20
7.0567178413
 30
0.0
 10
8.5826270392
 20
7.0965522008
 30
0.0
 10
8.5581709994
 20
7.1379007127
 30
0.0
 10
8.536369629
 20
7.1805853165
 30
0.0
 10
8.5173169982
 20
7.2244221931
 30
0.0
 10
8.5010953769
 20
7.269222547
 30
0.0
 10
8.4877748798
 20
7.3147934141
 30
0.0
 10
8.4774131601
 20
7.3609384719
 30
0.0
 10
8.4700551657
 20
7.4074589192
 30
0.0
 10
8.4657329091
 20
7.4541541627
 30
0.0
 10
8.4644654317
 20
7.5008232681
 30
0.0
 10
8.4662582945
 20
7.5472636105
 30
0.0
 10
8.4703018615
 20
7.5856540702
 30
0.0
 10
8.4750567061
 20
7.6160442659
 30
0.0
 10
8.479373213
 20
7.6386325415
 30
0.0
 10
8.4844389529
 20
7.6610146221
 30
0.0
 10
8.4902486861
 20
7.6831666396
 30
0.0
 10
8.496795912
 20
7.7050646648
 30
0.0
 10
8.5040738408
 20
7.7266850132
 30
0.0
 10
8.5120743624
 20
7.7480044321
 30
0.0
 10
8.5207891047
 20
7.7689998302
 30
0.0
 10
8.5302084472
 20
7.7896486101
 30
0.0
 10
8.5403224473
 20
7.8099284967
 30
0.0
 10
8.5511198962
 20
7.829817346
 30
0.0
 10
8.5587709878
 20
7.8428097784
 30
0.0
 10
8.562706019
 20
7.8492326611
 30
0.0
  0
SPLINE
  5
33F
100
AcDbEntity
  8
0
100
AcDbSpline
 62
7
  6
CONTINUOUS
 70
0
 71
3
 72
35
 73
31
 74
0
 42
0.0000001
 43
0.0000001
 44
0.0000000001
 40
0.0
 40
0.0
 40
0.0
 40
0.0
 40
0.0308202975
 40
0.0617171411
 40
0.0926876204
 40
0.123728537
 40
0.1548361463
 40
0.1860063335
 40
0.2172346354
 40
0.248516232
 40
0.279846
 40
0.3112185421
 40
0.3740582858
 40
0.4369988397
 40
0.4999903561
 40
0.5629818319
 40
0.5944669789
 40
0.6259330617
 40
0.6573739023
 40
0.6887834589
 40
0.7201558724
 40
0.7514854996
 40
0.7827669352
 40
0.813995059
 40
0.8451650607
 40
0.876272461
 40
0.907313157
 40
0.9382834369
 40
0.9691800009
 40
1.0
 40
1.0
 40
1.0
 40
1.0
 10
9.5357478066
 20
7.1925611047
 30
0.0
 10
9.5264550044
 20
7.1944588915
 30
0.0
 10
9.5079180239
 20
7.1986204039
 30
0.0
 10
9.480342118
 20
7.2059379052
 30
0.0
 10
9.4530017417
 20
7.2143272581
 30
0.0
 10
9.4259403753
 20
7.2237752459
 30
0.0
 10
9.3992003353
 20
7.2342670777
 30
0.0
 10
9.3728235996
 20
7.2457861474
 30
0.0
 10
9.346851565
 20
7.2583144851
 30
0.0
 10
9.3213251004
 20
7.2718323149
 30
0.0
 10
9.2962838025
 20
7.2863186318
 30
0.0
 10
9.2635813569
 20
7.3069030589
 30
0.0
 10
9.2241155354
 20
7.3349393938
 30
0.0
 10
9.1793401279
 20
7.372033303
 30
0.0
 10
9.1373950915
 20
7.4123672745
 30
0.0
 10
9.1050094642
 20
7.4484799182
 30
0.0
 10
9.0807691998
 20
7.4787307735
 30
0.0
 10
9.0634525037
 20
7.5020616604
 30
0.0
 10
9.0470262837
 20
7.5259991585
 30
0.0
 10
9.0315160761
 20
7.5505061477
 30
0.0
 10
9.0169462208
 20
7.5755439983
 30
0.0
 10
9.0033395811
 20
7.6010734589
 30
0.0
 10
8.990717627
 20
7.6270545057
 30
0.0
 10
8.9791000601
 20
7.6534463086
 30
0.0
 10
8.9685051662
 20
7.6802074679
 30
0.0
 10
8.958949671
 20
7.7072960237
 30
0.0
 10
8.9504484711
 20
7.7346693767
 30
0.0
 10
8.9430149595
 20
7.7622847372
 30
0.0
 10
8.9366610018
 20
7.7900982212
 30
0.0
 10
8.9331465757
 20
7.8087685158
 30
0.0
 10
8.9315731589
 20
7.8181216108
 30
0.0
  0
SPLINE
  5
340
100
AcDbEntity
  8
0
100
AcDbSpline
 62
7
  6
CONTINUOUS
 70
0
 71
3
 72
26
 73
22
 74
0
 42
0.0000001
 43
0.0000001
 44
0.0000000001
 40
0.0
 40
0.0
 40
0.0
 40
0.0
 40
0.0308876139
 40
0.0618412546
 40
0.0928581293
 40
0.1239350675
 40
0.1550686263
 40
0.1862551053
 40
0.248761601
 40
0.3114292687
 40
0.374220569
 40
0.4370956199
 40
0.5000129603
 40
0.5629303343
 40
0.6258054842
 40
0.6885969463
 40
0.7512648364
 40
0.8137716122
 40
0.8760828045
 40
0.9381677046
 40
1.0
 40
1.0
 40
1.0
 40
1.0
 10
9.5159781521
 20
7.2551658771
 30
0.0
 10
9.5081113089
 20
7.2572305108
 30
0.0
 10
9.4924318763
 20
7.2616405901
 30
0.0
 10
9.469134589
 20
7.2690787916
 30
0.0
 10
9.4460622372
 20
7.2773378868
 30
0.0
 10
9.4232453674
 20
7.2864071464
 30
0.0
 10
9.4007131705
 20
7.296274782
 30
0.0
 10
9.3710702032
 20
7.3104880467
 30
0.0
 10
9.3348766383
 20
7.3301878019
 30
0.0
 10
9.2930819498
 20
7.3567696554
 30
0.0
 10
9.25310248
 20
7.3861763392
 30
0.0
 10
9.2151472587
 20
7.4182542976
 30
0.0
 10
9.1794130451
 20
7.4528369757
 30
0.0
 10
9.1460855757
 20
7.4897446413
 30
0.0
 10
9.1153380114
 20
7.5287855979
 30
0.0
 10
9.0873301794
 20
7.5697570391
 30
0.0
 10
9.0622076795
 20
7.6124462164
 30
0.0
 10
9.040101266
 20
7.6566311917
 30
0.0
 10
9.0211258493
 20
7.7020833071
 30
0.0
 10
9.0053810654
 20
7.7485633852
 30
0.0
 10
8.9970734302
 20
7.7801500787
 30
0.0
 10
8.9934868833
 20
7.796031688
 30
0.0
  0
SPLINE
  5
341
100
AcDbEntity
  8
0
100
AcDbSpline
 62
7
  6
CONTINUOUS
 70
0
 71
3
 72
23
 73
19
 74
0
 42
0.0000001
 43
0.0000001
 44
0.0000000001
 40
0.0
 40
0.0
 40
0.0
 40
0.0
 40
0.0766671386
 40
0.1505177306
 40
0.2216741592
 40
0.2902817618
 40
0.356512927
 40
0.4205629262
 40
0.4826508012
 40
0.5430196743
 40
0.6019367527
 40
0.6596929051
 40
0.7165986642
 40
0.7729800851
 40
0.8291733012
 40
0.8855180569
 40
0.942351181
 40
1.0
 40
1.0
 40
1.0
 40
1.0
 10
8.1545752895
 20
10.2566756917
 30
0.0
 10
8.1529069157
 20
10.2550641663
 30
0.0
 10
8.1496956119
 20
10.25183288
 30
0.0
 10
8.1451845079
 20
10.246866736
 30
0.0
 10
8.141073584
 20
10.2418761716
 30
0.0
 10
8.1373651038
 20
10.2368633639
 30
0.0
 10
8.1340607079
 20
10.2318303624
 30
0.0
 10
8.1311620851
 20
10.2267790327
 30
0.0
 10
8.1286707448
 20
10.2217114047
 30
0.0
 10
8.1265881003
 20
10.2166296261
 30
0.0
 10
8.1249156796
 20
10.2115358816
 30
0.0
 10
8.123654553
 20
10.2064326059
 30
0.0
 10
8.1228057201
 20
10.2013223079
 30
0.0
 10
8.1223699926
 20
10.1962076494
 30
0.0
 10
8.1223475811
 20
10.191091451
 30
0.0
 10
8.1227386673
 20
10.1859764313
 30
0.0
 10
8.1235427854
 20
10.1808657601
 30
0.0
 10
8.1243467571
 20
10.1774925712
 30
0.0
 10
8.1248141134
 20
10.1758121694
 30
0.0
  0
SPLINE
  5
342
100
AcDbEntity
  8
0
100
AcDbSpline
 62
7
  6
CONTINUOUS
 70
0
 71
3
 72
25
 73
21
 74
0
 42
0.0000001
 43
0.0000001
 44
0.0000000001
 40
0.0
 40
0.0
 40
0.0
 40
0.0
 40
0.0638612781
 40
0.0957121911
 40
0.1275067411
 40
0.190926209
 40
0.2541301216
 40
0.2856554877
 40
0.3171294121
 40
0.3799223073
 40
0.44252455
 40
0.5049487613
 40
0.5672094491
 40
0.629322891
 40
0.6913069674
 40
0.7531809757
 40
0.8149654269
 40
0.8766818235
 40
0.9383524247
 40
1.0
 40
1.0
 40
1.0
 40
1.0
 10
8.7352558847
 20
6.1922059277
 30
0.0
 10
8.7491385508
 20
6.1912431615
 30
0.0
 10
8.7699862082
 20
6.1903186712
 30
0.0
 10
8.7977727066
 20
6.1901359518
 30
0.0
 10
8.8254592877
 20
6.1906523446
 30
0.0
 10
8.8599405466
 20
6.1926056538
 30
0.0
 10
8.8942194554
 20
6.1963074224
 30
0.0
 10
8.9214300732
 20
6.2003113076
 30
0.0
 10
8.9484402667
 20
6.2049990542
 30
0.0
 10
8.9818849136
 20
6.2121469518
 30
0.0
 10
9.0214276235
 20
6.2227740965
 30
0.0
 10
9.0602511771
 20
6.2354179202
 30
0.0
 10
9.0982571017
 20
6.2500465976
 30
0.0
 10
9.1353498235
 20
6.2666233924
 30
0.0
 10
9.1714358257
 20
6.2851066097
 30
0.0
 10
9.2064242064
 20
6.305449774
 30
0.0
 10
9.2402267054
 20
6.3276016111
 30
0.0
 10
9.2727584285
 20
6.3515066357
 30
0.0
 10
9.3039362759
 20
6.3771035918
 30
0.0
 10
9.3237705297
 20
6.3952569533
 30
0.0
 10
9.3334327169
 20
6.404589924
 30
0.0
  0
SPLINE
  5
343
100
AcDbEntity
  8
0
100
AcDbSpline
 62
7
  6
CONTINUOUS
 70
0
 71
3
 72
39
 73
35
 74
0
 42
0.0000001
 43
0.0000001
 44
0.0000000001
 40
0.0
 40
0.0
 40
0.0
 40
0.0
 40
0.0064813485
 40
0.0130002985
 40
0.0195937285
 40
0.026297146
 40
0.0331442162
 40
0.0401663079
 40
0.05484089
 40
0.0705272863
 40
0.0873816519
 40
0.1055233038
 40
0.1250399977
 40
0.1459941136
 40
0.1684273795
 40
0.192364659
 40
0.2178175573
 40
0.2447860489
 40
0.2732611697
 40
0.3032256797
 40
0.334655689
 40
0.3675213604
 40
0.4017874193
 40
0.4374142301
 40
0.4743575615
 40
0.5125697352
 40
0.5519993246
 40
0.5925918809
 40
0.6342900708
 40
0.6770336885
 40
0.7207603521
 40
0.8109000934
 40
0.9041686777
 40
1.0
 40
1.0
 40
1.0
 40
1.0
 10
9.7542996982
 20
11.3364320768
 30
0.0
 10
9.754299693
 20
11.3370395105
 30
0.0
 10
9.7542513965
 20
11.338258446
 30
0.0
 10
9.7540342802
 20
11.3400836862
 30
0.0
 10
9.7536726568
 20
11.3419071488
 30
0.0
 10
9.7531668469
 20
11.3437277859
 30
0.0
 10
9.7525171261
 20
11.3455448385
 30
0.0
 10
9.7514439863
 20
11.3479972541
 30
0.0
 10
9.7497225657
 20
11.3510601173
 30
0.0
 10
9.7471199703
 20
11.3546489035
 30
0.0
 10
9.7439567936
 20
11.3582016829
 30
0.0
 10
9.7402390618
 20
11.3617138293
 30
0.0
 10
9.7359729677
 20
11.3651813221
 30
0.0
 10
9.7311652634
 20
11.3685993871
 30
0.0
 10
9.7258235137
 20
11.3719630397
 30
0.0
 10
9.7199562236
 20
11.3752671866
 30
0.0
 10
9.713572758
 20
11.3785064822
 30
0.0
 10
9.706683491
 20
11.3816757858
 30
0.0
 10
9.6992996336
 20
11.3847697867
 30
0.0
 10
9.6914333276
 20
11.3877834162
 30
0.0
 10
9.6830975406
 20
11.3907116241
 30
0.0
 10
9.6743060663
 20
11.3935494853
 30
0.0
 10
9.6650734993
 20
11.3962922971
 30
0.0
 10
9.6554151781
 20
11.3989353705
 30
0.0
 10
9.6453471897
 20
11.4014743476
 30
0.0
 10
9.6348863078
 20
11.4039048873
 30
0.0
 10
9.6240499827
 20
11.4062229466
 30
0.0
 10
9.6128562962
 20
11.408424618
 30
0.0
 10
9.6013239442
 20
11.4105061681
 30
0.0
 10
9.5894721765
 20
11.4124641736
 30
0.0
 10
9.5731045585
 20
11.4149305137
 30
0.0
 10
9.5519917484
 20
11.4176704016
 30
0.0
 10
9.5259603441
 20
11.4203870782
 30
0.0
 10
9.5082932116
 20
11.4218102452
 30
0.0
 10
9.4993333947
 20
11.4224316107
 30
0.0
  0
SPLINE
  5
344
100
AcDbEntity
  8
0
100
AcDbSpline
 62
7
  6
CONTINUOUS
 70
0
 71
3
 72
20
 73
16
 74
0
 42
0.0000001
 43
0.0000001
 44
0.0000000001
 40
0.0
 40
0.0
 40
0.0
 40
0.0
 40
0.1269277606
 40
0.1901732441
 40
0.2532681101
 40
0.3162150871
 40
0.3790159197
 40
0.4416738831
 40
0.5041930774
 40
0.6288142879
 40
0.7529442159
 40
0.8148519409
 40
0.8766582295
 40
0.9383713417
 40
1.0
 40
1.0
 40
1.0
 40
1.0
 10
9.0724968222
 20
6.5430697511
 30
0.0
 10
9.0909959108
 20
6.5417868349
 30
0.0
 10
9.1187914394
 20
6.5408137954
 30
0.0
 10
9.1557923124
 20
6.5414450633
 30
0.0
 10
9.1834151366
 20
6.5428793697
 30
0.0
 10
9.2109056269
 20
6.5452733513
 30
0.0
 10
9.2382317373
 20
6.5486243902
 30
0.0
 10
9.2653610954
 20
6.5529284083
 30
0.0
 10
9.3011854164
 20
6.5599225712
 30
0.0
 10
9.3453292814
 20
6.5710155485
 30
0.0
 10
9.3884783719
 20
6.5852226523
 30
0.0
 10
9.4222111986
 20
6.5984003643
 30
0.0
 10
9.4470754137
 20
6.6091697781
 30
0.0
 10
9.4714934237
 20
6.620819933
 30
0.0
 10
9.4874666662
 20
6.6291706501
 30
0.0
 10
9.4953679207
 20
6.6334875669
 30
0.0
  0
SPLINE
  5
345
100
AcDbEntity
  8
0
100
AcDbSpline
 62
7
  6
CONTINUOUS
 70
0
 71
3
 72
39
 73
35
 74
0
 42
0.0000001
 43
0.0000001
 44
0.0000000001
 40
0.0
 40
0.0
 40
0.0
 40
0.0
 40
0.0064813485
 40
0.0130002985
 40
0.0195937285
 40
0.026297146
 40
0.0331442162
 40
0.0401663079
 40
0.05484089
 40
0.0705272863
 40
0.0873816519
 40
0.1055233038
 40
0.1250399977
 40
0.1459941136
 40
0.1684273795
 40
0.192364659
 40
0.2178175573
 40
0.2447860489
 40
0.2732611697
 40
0.3032256797
 40
0.334655689
 40
0.3675213604
 40
0.4017874193
 40
0.4374142301
 40
0.4743575615
 40
0.5125697352
 40
0.5519993246
 40
0.5925918809
 40
0.6342900708
 40
0.6770336885
 40
0.7207603521
 40
0.8109000934
 40
0.9041686777
 40
1.0
 40
1.0
 40
1.0
 40
1.0
 10
14.5839291158
 20
11.0014961391
 30
0.0
 10
14.5839291106
 20
11.0021035728
 30
0.0
 10
14.5838808141
 20
11.0033225083
 30
0.0
 10
14.5836636978
 20
11.0051477485
 30
0.0
 10
14.5833020744
 20
11.006971211
 30
0.0
 10
14.5827962646
 20
11.0087918482
 30
0.0
 10
14.5821465437
 20
11.0106089008
 30
0.0
 10
14.5810734039
 20
11.0130613164
 30
0.0
 10
14.5793519833
 20
11.0161241796
 30
0.0
 10
14.5767493879
 20
11.0197129658
 30
0.0
 10
14.5735862112
 20
11.0232657452
 30
0.0
 10
14.5698684794
 20
11.0267778916
 30
0.0
 10
14.5656023853
 20
11.0302453844
 30
0.0
 10
14.560794681
 20
11.0336634494
 30
0.0
 10
14.5554529313
 20
11.037027102
 30
0.0
 10
14.5495856412
 20
11.0403312489
 30
0.0
 10
14.5432021756
 20
11.0435705445
 30
0.0
 10
14.5363129086
 20
11.0467398481
 30
0.0
 10
14.5289290512
 20
11.049833849
 30
0.0
 10
14.5210627452
 20
11.0528474785
 30
0.0
 10
14.5127269582
 20
11.0557756864
 30
0.0
 10
14.5039354839
 20
11.0586135476
 30
0.0
 10
14.494702917
 20
11.0613563594
 30
0.0
 10
14.4850445957
 20
11.0639994327
 30
0.0
 10
14.4749766073
 20
11.0665384099
 30
0.0
 10
14.4645157254
 20
11.0689689496
 30
0.0
 10
14.4536794003
 20
11.0712870089
 30
0.0
 10
14.4424857138
 20
11.0734886803
 30
0.0
 10
14.4309533618
 20
11.0755702304
 30
0.0
 10
14.4191015941
 20
11.0775282359
 30
0.0
 10
14.4027339761
 20
11.079994576
 30
0.0
 10
14.381621166
 20
11.0827344639
 30
0.0
 10
14.3555897618
 20
11.0854511405
 30
0.0
 10
14.3379226292
 20
11.0868743075
 30
0.0
 10
14.3289628123
 20
11.0874956729
 30
0.0
  0
SPLINE
  5
346
100
AcDbEntity
  8
0
100
AcDbSpline
 62
7
  6
CONTINUOUS
 70
0
 71
3
 72
23
 73
19
 74
0
 42
0.0000001
 43
0.0000001
 44
0.0000000001
 40
0.0
 40
0.0
 40
0.0
 40
0.0
 40
0.0635818389
 40
0.1270091306
 40
0.1902751703
 40
0.2533841463
 40
0.3163386361
 40
0.3791408509
 40
0.4417946838
 40
0.5043047841
 40
0.5666764136
 40
0.6289156726
 40
0.6910293913
 40
0.7530250751
 40
0.8149109089
 40
0.8766956783
 40
0.9383887458
 40
1.0
 40
1.0
 40
1.0
 40
1.0
 10
9.0819108569
 20
6.5724474544
 30
0.0
 10
9.0913528796
 20
6.5717926479
 30
0.0
 10
9.1102392146
 20
6.5708227884
 30
0.0
 10
9.1385658936
 20
6.570391211
 30
0.0
 10
9.1668196468
 20
6.5709855462
 30
0.0
 10
9.1949626594
 20
6.572604942
 30
0.0
 10
9.2229588515
 20
6.5752471242
 30
0.0
 10
9.2507717164
 20
6.5789089351
 30
0.0
 10
9.2783650042
 20
6.583585494
 30
0.0
 10
9.3057028386
 20
6.5892706951
 30
0.0
 10
9.3327496055
 20
6.5959573169
 30
0.0
 10
9.3594701327
 20
6.6036364985
 30
0.0
 10
9.3858296091
 20
6.6122983674
 30
0.0
 10
9.4117937175
 20
6.6219316832
 30
0.0
 10
9.4373286687
 20
6.6325237824
 30
0.0
 10
9.4624012694
 20
6.6440611323
 30
0.0
 10
9.4869784695
 20
6.6565283255
 30
0.0
 10
9.5030225464
 20
6.6654549943
 30
0.0
 10
9.5109498525
 20
6.6700671208
 30
0.0
  0
SPLINE
  5
347
100
AcDbEntity
  8
0
100
AcDbSpline
 62
7
  6
CONTINUOUS
 70
0
 71
3
 72
39
 73
35
 74
0
 42
0.0000001
 43
0.0000001
 44
0.0000000001
 40
0.0
 40
0.0
 40
0.0
 40
0.0
 40
0.0064813485
 40
0.0130002985
 40
0.0195937285
 40
0.026297146
 40
0.0331442162
 40
0.0401663079
 40
0.05484089
 40
0.0705272863
 40
0.0873816519
 40
0.1055233038
 40
0.1250399977
 40
0.1459941136
 40
0.1684273795
 40
0.192364659
 40
0.2178175573
 40
0.2447860489
 40
0.2732611697
 40
0.3032256797
 40
0.334655689
 40
0.3675213604
 40
0.4017874193
 40
0.4374142301
 40
0.4743575615
 40
0.5125697352
 40
0.5519993246
 40
0.5925918809
 40
0.6342900708
 40
0.6770336885
 40
0.7207603521
 40
0.8109000934
 40
0.9041686777
 40
1.0
 40
1.0
 40
1.0
 40
1.0
 10
14.001586745
 20
10.43899657
 30
0.0
 10
14.0015867397
 20
10.4396040037
 30
0.0
 10
14.0015384432
 20
10.4408229392
 30
0.0
 10
14.0013213269
 20
10.4426481794
 30
0.0
 10
14.0009597035
 20
10.4444716419
 30
0.0
 10
14.0004538937
 20
10.4462922791
 30
0.0
 10
13.9998041728
 20
10.4481093317
 30
0.0
 10
13.998731033
 20
10.4505617473
 30
0.0
 10
13.9970096125
 20
10.4536246105
 30
0.0
 10
13.9944070171
 20
10.4572133966
 30
0.0
 10
13.9912438403
 20
10.4607661761
 30
0.0
 10
13.9875261086
 20
10.4642783225
 30
0.0
 10
13.9832600144
 20
10.4677458152
 30
0.0
 10
13.9784523101
 20
10.4711638803
 30
0.0
 10
13.9731105604
 20
10.4745275329
 30
0.0
 10
13.9672432703
 20
10.4778316798
 30
0.0
 10
13.9608598047
 20
10.4810709754
 30
0.0
 10
13.9539705377
 20
10.484240279
 30
0.0
 10
13.9465866804
 20
10.4873342799
 30
0.0
 10
13.9387203743
 20
10.4903479094
 30
0.0
 10
13.9303845873
 20
10.4932761173
 30
0.0
 10
13.921593113
 20
10.4961139785
 30
0.0
 10
13.9123605461
 20
10.4988567903
 30
0.0
 10
13.9027022248
 20
10.5014998636
 30
0.0
 10
13.8926342364
 20
10.5040388408
 30
0.0
 10
13.8821733545
 20
10.5064693805
 30
0.0
 10
13.8713370294
 20
10.5087874398
 30
0.0
 10
13.8601433429
 20
10.5109891112
 30
0.0
 10
13.8486109909
 20
10.5130706613
 30
0.0
 10
13.8367592232
 20
10.5150286668
 30
0.0
 10
13.8203916052
 20
10.5174950069
 30
0.0
 10
13.7992787951
 20
10.5202348947
 30
0.0
 10
13.7732473909
 20
10.5229515714
 30
0.0
 10
13.7555802584
 20
10.5243747384
 30
0.0
 10
13.7466204414
 20
10.5249961038
 30
0.0
  0
SPLINE
  5
348
100
AcDbEntity
  8
0
100
AcDbSpline
 62
7
  6
CONTINUOUS
 70
0
 71
3
 72
18
 73
14
 74
0
 42
0.0000001
 43
0.0000001
 44
0.0000000001
 40
0.0
 40
0.0
 40
0.0
 40
0.0
 40
0.1267615068
 40
0.2529817998
 40
0.3786697411
 40
0.5038405966
 40
0.6285187253
 40
0.6906906246
 40
0.7527519087
 40
0.814707731
 40
0.8765636369
 40
0.9383256122
 40
1.0
 40
1.0
 40
1.0
 40
1.0
 10
9.1532482976
 20
6.6413541349
 30
0.0
 10
9.1693670437
 20
6.6402362961
 30
0.0
 10
9.2016130183
 20
6.6389898269
 30
0.0
 10
9.2498960654
 20
6.6401123078
 30
0.0
 10
9.2978156659
 20
6.6442263907
 30
0.0
 10
9.3451861807
 20
6.6513166287
 30
0.0
 10
9.3840956242
 20
6.6596921756
 30
0.0
 10
9.4147605826
 20
6.6678501143
 30
0.0
 10
9.4374917699
 20
6.6746851867
 30
0.0
 10
9.4599527905
 20
6.6822354026
 30
0.0
 10
9.4821226288
 20
6.6904938621
 30
0.0
 10
9.503979913
 20
6.6994523645
 30
0.0
 10
9.5183395825
 20
6.7058905598
 30
0.0
 10
9.5254594485
 20
6.7092231957
 30
0.0
  0
SPLINE
  5
349
100
AcDbEntity
  8
0
100
AcDbSpline
 62
7
  6
CONTINUOUS
 70
0
 71
3
 72
19
 73
15
 74
0
 42
0.0000001
 43
0.0000001
 44
0.0000000001
 40
0.0
 40
0.0
 40
0.0
 40
0.0
 40
0.1257046949
 40
0.2508448615
 40
0.3755905317
 40
0.500131891
 40
0.5623941193
 40
0.624677812
 40
0.6870060553
 40
0.7494002009
 40
0.8118803006
 40
0.8744638189
 40
0.9371663049
 40
1.0
 40
1.0
 40
1.0
 40
1.0
 10
8.9878796094
 20
7.5381969881
 30
0.0
 10
8.9804959357
 20
7.5492582009
 30
0.0
 10
8.9663416784
 20
7.5717251922
 30
0.0
 10
8.9470400878
 20
7.6064822101
 30
0.0
 10
8.9298220164
 20
7.6421827309
 30
0.0
 10
8.9172939722
 20
7.6726941315
 30
0.0
 10
8.9084233029
 20
7.6975127963
 30
0.0
 10
8.9023545407
 20
7.7163327064
 30
0.0
 10
8.8968827753
 20
7.7353492025
 30
0.0
 10
8.8920194732
 20
7.7545518985
 30
0.0
 10
8.8877760922
 20
7.7739287185
 30
0.0
 10
8.8841625026
 20
7.7934661023
 30
0.0
 10
8.8811882561
 20
7.8131486311
 30
0.0
 10
8.8796382086
 20
7.826342138
 30
0.0
 10
8.8789717982
 20
7.8329562837
 30
0.0
  0
SPLINE
  5
34A
100
AcDbEntity
  8
0
100
AcDbSpline
 62
7
  6
CONTINUOUS
 70
0
 71
3
 72
39
 73
35
 74
0
 42
0.0000001
 43
0.0000001
 44
0.0000000001
 40
0.0
 40
0.0
 40
0.0
 40
0.0
 40
0.0064813485
 40
0.0130002985
 40
0.0195937285
 40
0.026297146
 40
0.0331442162
 40
0.0401663079
 40
0.05484089
 40
0.0705272863
 40
0.0873816519
 40
0.1055233038
 40
0.1250399977
 40
0.1459941136
 40
0.1684273795
 40
0.192364659
 40
0.2178175573
 40
0.2447860489
 40
0.2732611697
 40
0.3032256797
 40
0.334655689
 40
0.3675213604
 40
0.4017874193
 40
0.4374142301
 40
0.4743575615
 40
0.5125697352
 40
0.5519993246
 40
0.5925918809
 40
0.6342900708
 40
0.6770336885
 40
0.7207603521
 40
0.8109000934
 40
0.9041686777
 40
1.0
 40
1.0
 40
1.0
 40
1.0
 10
9.1719573273
 20
10.7739325077
 30
0.0
 10
9.1719573221
 20
10.7745399414
 30
0.0
 10
9.1719090256
 20
10.7757588769
 30
0.0
 10
9.1716919093
 20
10.7775841171
 30
0.0
 10
9.1713302859
 20
10.7794075796
 30
0.0
 10
9.1708244761
 20
10.7812282168
 30
0.0
 10
9.1701747552
 20
10.7830452694
 30
0.0
 10
9.1691016154
 20
10.785497685
 30
0.0
 10
9.1673801948
 20
10.7885605482
 30
0.0
 10
9.1647775994
 20
10.7921493344
 30
0.0
 10
9.1616144227
 20
10.7957021138
 30
0.0
 10
9.157896691
 20
10.7992142602
 30
0.0
 10
9.1536305968
 20
10.802681753
 30
0.0
 10
9.1488228925
 20
10.806099818
 30
0.0
 10
9.1434811428
 20
10.8094634706
 30
0.0
 10
9.1376138527
 20
10.8127676175
 30
0.0
 10
9.1312303871
 20
10.8160069131
 30
0.0
 10
9.1243411201
 20
10.8191762167
 30
0.0
 10
9.1169572628
 20
10.8222702176
 30
0.0
 10
9.1090909567
 20
10.8252838471
 30
0.0
 10
9.1007551697
 20
10.828212055
 30
0.0
 10
9.0919636954
 20
10.8310499162
 30
0.0
 10
9.0827311285
 20
10.833792728
 30
0.0
 10
9.0730728072
 20
10.8364358013
 30
0.0
 10
9.0630048188
 20
10.8389747785
 30
0.0
 10
9.0525439369
 20
10.8414053182
 30
0.0
 10
9.0417076118
 20
10.8437233775
 30
0.0
 10
9.0305139253
 20
10.8459250489
 30
0.0
 10
9.0189815733
 20
10.848006599
 30
0.0
 10
9.0071298056
 20
10.8499646045
 30
0.0
 10
8.9907621876
 20
10.8524309446
 30
0.0
 10
8.9696493775
 20
10.8551708325
 30
0.0
 10
8.9436179733
 20
10.8578875091
 30
0.0
 10
8.9259508407
 20
10.8593106761
 30
0.0
 10
8.9169910238
 20
10.8599320415
 30
0.0
  0
SPLINE
  5
34B
100
AcDbEntity
  8
0
100
AcDbSpline
 62
7
  6
CONTINUOUS
 70
0
 71
3
 72
22
 73
18
 74
0
 42
0.0000001
 43
0.0000001
 44
0.0000000001
 40
0.0
 40
0.0
 40
0.0
 40
0.0
 40
0.1269612617
 40
0.1902181596
 40
0.2533205304
 40
0.3162714665
 40
0.3790728713
 40
0.4417282523
 40
0.5042420602
 40
0.5666192766
 40
0.6288656178
 40
0.6909875165
 40
0.7529920842
 40
0.8148870285
 40
0.8766806696
 40
0.9383818741
 40
1.0
 40
1.0
 40
1.0
 40
1.0
 10
9.1739538041
 20
6.7386281903
 30
0.0
 10
9.1906309977
 20
6.737471623
 30
0.0
 10
9.2156905019
 20
6.7366163383
 30
0.0
 10
9.2490443101
 20
6.7372596336
 30
0.0
 10
9.2739392443
 20
6.7386304599
 30
0.0
 10
9.2987086707
 20
6.7408884708
 30
0.0
 10
9.3233223313
 20
6.7440310893
 30
0.0
 10
9.347749159
 20
6.7480541679
 30
0.0
 10
9.3719586171
 20
6.7529528755
 30
0.0
 10
9.3959204227
 20
6.7587209663
 30
0.0
 10
9.4196045723
 20
6.7653512704
 30
0.0
 10
9.4429813814
 20
6.7728355837
 30
0.0
 10
9.4660216501
 20
6.7811643788
 30
0.0
 10
9.4886964208
 20
6.790327448
 30
0.0
 10
9.5109774849
 20
6.8003131893
 30
0.0
 10
9.5328364919
 20
6.811109021
 30
0.0
 10
9.5471194026
 20
6.8188426136
 30
0.0
 10
9.5541801066
 20
6.8228392965
 30
0.0
  0
SPLINE
  5
34C
100
AcDbEntity
  8
0
100
AcDbSpline
 62
7
  6
CONTINUOUS
 70
0
 71
3
 72
75
 73
71
 74
0
 42
0.0000001
 43
0.0000001
 44
0.0000000001
 40
0.0
 40
0.0
 40
0.0
 40
0.0
 40
0.0156747273
 40
0.0235325814
 40
0.031403181
 40
0.0471815803
 40
0.0630097508
 40
0.0788855268
 40
0.0948064622
 40
0.1107696438
 40
0.1267717932
 40
0.1347869014
 40
0.1428103611
 40
0.1588792318
 40
0.1749752631
 40
0.1910939891
 40
0.2072307449
 40
0.2233807077
 40
0.2395389397
 40
0.2557004309
 40
0.2718601429
 40
0.2880130529
 40
0.3041541969
 40
0.3202787136
 40
0.3363818874
 40
0.3524591897
 40
0.36850632
 40
0.3845192451
 40
0.4004942363
 40
0.4164279049
 40
0.4323172352
 40
0.4481596152
 40
0.4639528635
 40
0.4796952542
 40
0.4953855368
 40
0.5110229526
 40
0.526607247
 40
0.5421386771
 40
0.5576180139
 40
0.5730465408
 40
0.5884260451
 40
0.6037588059
 40
0.6190475753
 40
0.6342955548
 40
0.649506366
 40
0.6646840161
 40
0.6798328593
 40
0.6949575524
 40
0.7100630078
 40
0.725154342
 40
0.7402368221
 40
0.7553158097
 40
0.7703967041
 40
0.7854848839
 40
0.80058565
 40
0.8157041693
 40
0.8308454194
 40
0.8460141376
 40
0.8612147716
 40
0.8764514346
 40
0.8917278653
 40
0.9070473908
 40
0.9224129018
 40
0.9301142846
 40
0.9378280267
 40
0.9532922984
 40
0.9688082546
 40
0.9765865231
 40
0.9843782672
 40
1.0
 40
1.0
 40
1.0
 40
1.0
 10
8.7163620979
 20
6.1034432953
 30
0.0
 10
8.7015768989
 20
6.1044686524
 30
0.0
 10
8.6794125573
 20
6.1065517209
 30
0.0
 10
8.6499691228
 20
6.1104031603
 30
0.0
 10
8.6205299795
 20
6.1149804774
 30
0.0
 10
8.5838631402
 20
6.122048671
 30
0.0
 10
8.540220606
 20
6.1326514012
 30
0.0
 10
8.4970024099
 20
6.1453568254
 30
0.0
 10
8.4543131326
 20
6.1601341605
 30
0.0
 10
8.412255894
 20
6.1769475602
 30
0.0
 10
8.3778364428
 20
6.1926138838
 30
0.0
 10
8.3507163601
 20
6.2061206165
 30
0.0
 10
8.3238617806
 20
6.2202835934
 30
0.0
 10
8.2908757674
 20
6.239176771
 30
0.0
 10
8.2523385779
 20
6.2636823609
 30
0.0
 10
8.2149187265
 20
6.2899749194
 30
0.0
 10
8.1787068151
 20
6.3179908308
 30
0.0
 10
8.1437898502
 20
6.3476627153
 30
0.0
 10
8.1102519103
 20
6.3789191149
 30
0.0
 10
8.0781737092
 20
6.4116847916
 30
0.0
 10
8.0476324667
 20
6.4458808736
 30
0.0
 10
8.0187017058
 20
6.4814250533
 30
0.0
 10
7.9914510829
 20
6.5182317822
 30
0.0
 10
7.965946211
 20
6.556212471
 30
0.0
 10
7.9422485064
 20
6.595275706
 30
0.0
 10
7.9204150446
 20
6.63532747
 30
0.0
 10
7.9004984227
 20
6.6762713668
 30
0.0
 10
7.8825466334
 20
6.7180088519
 30
0.0
 10
7.8666029498
 20
6.7604394677
 30
0.0
 10
7.8527058209
 20
6.8034610839
 30
0.0
 10
7.8408887787
 20
6.846970141
 30
0.0
 10
7.8311803587
 20
6.8908618988
 30
0.0
 10
7.8236040215
 20
6.9350306851
 30
0.0
 10
7.8181780971
 20
6.9793701499
 30
0.0
 10
7.8149157459
 20
7.0237735217
 30
0.0
 10
7.8138249244
 20
7.0681338627
 30
0.0
 10
7.8149083645
 20
7.1123443243
 30
0.0
 10
7.8181635647
 20
7.1562984033
 30
0.0
 10
7.823582794
 20
7.1998901978
 30
0.0
 10
7.8311531074
 20
7.2430146608
 30
0.0
 10
7.8408563761
 20
7.2855678536
 30
0.0
 10
7.8526693215
 20
7.3274471977
 30
0.0
 10
7.8665635666
 20
7.3685517246
 30
0.0
 10
7.8825057111
 20
7.4087823188
 30
0.0
 10
7.9004574074
 20
7.4480419582
 30
0.0
 10
7.9203754511
 20
7.4862359499
 30
0.0
 10
7.9422118833
 20
7.5232721611
 30
0.0
 10
7.9659141049
 20
7.5590612436
 30
0.0
 10
7.9914250024
 20
7.5935168524
 30
0.0
 10
8.0186830858
 20
7.6265558568
 30
0.0
 10
8.0476226343
 20
7.6580985464
 30
0.0
 10
8.0781738519
 20
7.6880688317
 30
0.0
 10
8.1102630467
 20
7.7163944234
 30
0.0
 10
8.1438128087
 20
7.7430070101
 30
0.0
 10
8.1787422002
 20
7.7678424243
 30
0.0
 10
8.2149669531
 20
7.7908407981
 30
0.0
 10
8.2523996765
 20
7.8119467087
 30
0.0
 10
8.2909500655
 20
7.8311093109
 30
0.0
 10
8.3305251421
 20
7.8482824611
 30
0.0
 10
8.3710294038
 20
7.86342482
 30
0.0
 10
8.4123653454
 20
7.8764999946
 30
0.0
 10
8.454432611
 20
7.8874764775
 30
0.0
 10
8.4899885047
 20
7.8948473086
 30
0.0
 10
8.5186919453
 20
7.8996727509
 30
0.0
 10
8.5476002913
 20
7.9037872956
 30
0.0
 10
8.5840056578
 20
7.9075765658
 30
0.0
 10
8.6206152401
 20
7.9095499
 30
0.0
 10
8.6500061342
 20
7.9100419731
 30
0.0
 10
8.6794996508
 20
7.9098079765
 30
0.0
 10
8.701626886
 20
7.9088148264
 30
0.0
 10
8.7163620979
 20
7.907792936
 30
0.0
  0
SPLINE
  5
34D
100
AcDbEntity
  8
0
100
AcDbSpline
 62
7
  6
CONTINUOUS
 70
0
 71
3
 72
64
 73
60
 74
0
 42
0.0000001
 43
0.0000001
 44
0.0000000001
 40
0.0
 40
0.0
 40
0.0
 40
0.0
 40
0.0041866234
 40
0.0082484643
 40
0.0122111644
 40
0.0161034641
 40
0.019956489
 40
0.0238018122
 40
0.0276707566
 40
0.0315930147
 40
0.0355959531
 40
0.03970404
 40
0.0483113128
 40
0.052846987
 40
0.0575512584
 40
0.0624320525
 40
0.0674946558
 40
0.0727421287
 40
0.0781755975
 40
0.0837945148
 40
0.0895969476
 40
0.0955798748
 40
0.101739351
 40
0.1080706041
 40
0.1145683124
 40
0.128039684
 40
0.1421042567
 40
0.1567101443
 40
0.1718048905
 40
0.1873370078
 40
0.2032572879
 40
0.2195190395
 40
0.2360786133
 40
0.2528957607
 40
0.2699334122
 40
0.2871577016
 40
0.3045380555
 40
0.3220468093
 40
0.3396590638
 40
0.357352775
 40
0.3751081322
 40
0.4107356533
 40
0.446427669
 40
0.4642705856
 40
0.4820992421
 40
0.4999068449
 40
0.517687136
 40
0.5531473343
 40
0.588453029
 40
0.6235891314
 40
0.6585491039
 40
0.6933331168
 40
0.7279468271
 40
0.7623983185
 40
0.7966985272
 40
0.8648869123
 40
0.8988069959
 40
0.9326257844
 40
1.0
 40
1.0
 40
1.0
 40
1.0
 10
9.2061547629
 20
7.0358670736
 30
0.0
 10
9.2067212499
 20
7.036414258
 30
0.0
 10
9.2077965041
 20
7.0375357876
 30
0.0
 10
9.2092446244
 20
7.0393225462
 30
0.0
 10
9.210499486
 20
7.04118396
 30
0.0
 10
9.2115600638
 20
7.0431179441
 30
0.0
 10
9.2124268268
 20
7.0451222409
 30
0.0
 10
9.2131002064
 20
7.0471948469
 30
0.0
 10
9.2135821685
 20
7.0493333464
 30
0.0
 10
9.2138750539
 20
7.0515355258
 30
0.0
 10
9.2139815845
 20
7.0537994
 30
0.0
 10
9.2138791518
 20
7.0569455532
 30
0.0
 10
9.2134091052
 20
7.060168657
 30
0.0
 10
9.2126272831
 20
7.0634348507
 30
0.0
 10
9.2118666909
 20
7.0659815545
 30
0.0
 10
9.2109477377
 20
7.068580394
 30
0.0
 10
9.2098761267
 20
7.0712305504
 30
0.0
 10
9.2086574611
 20
7.0739306972
 30
0.0
 10
9.2072977599
 20
7.0766797761
 30
0.0
 10
9.2058031986
 20
7.079476762
 30
0.0
 10
9.2041798692
 20
7.0823205926
 30
0.0
 10
9.2024340044
 20
7.0852102931
 30
0.0
 10
9.2005719227
 20
7.0881449624
 30
0.0
 10
9.1985999155
 20
7.0911237274
 30
0.0
 10
9.1957984836
 20
7.095202185
 30
0.0
 10
9.1920542421
 20
7.1003967852
 30
0.0
 10
9.1872739991
 20
7.1067219465
 30
0.0
 10
9.1822002431
 20
7.1132064213
 30
0.0
 10
9.1768773669
 20
7.1198455604
 30
0.0
 10
9.1713473801
 20
7.1266351459
 30
0.0
 10
9.165649503
 20
7.1335709803
 30
0.0
 10
9.1598204066
 20
7.1406491445
 30
0.0
 10
9.1538940651
 20
7.1478657981
 30
0.0
 10
9.1479015725
 20
7.1552169545
 30
0.0
 10
9.1418714881
 20
7.1626986513
 30
0.0
 10
9.1358298806
 20
7.1703068634
 30
0.0
 10
9.1298001819
 20
7.1780372777
 30
0.0
 10
9.1238035785
 20
7.1858854981
 30
0.0
 10
9.1178591742
 20
7.1938470616
 30
0.0
 10
9.1119836255
 20
7.2019171013
 30
0.0
 10
9.1042530348
 20
7.2128274151
 30
0.0
 10
9.0948443008
 20
7.2266966042
 30
0.0
 10
9.0858370123
 20
7.240849804
 30
0.0
 10
9.0788912065
 20
7.2523390822
 30
0.0
 10
9.0738209921
 20
7.2610292533
 30
0.0
 10
9.0688937378
 20
7.2697877725
 30
0.0
 10
9.0625261305
 20
7.2815398461
 30
0.0
 10
9.0549404687
 20
7.296373488
 30
0.0
 10
9.0464375272
 20
7.3143941028
 30
0.0
 10
9.0385429467
 20
7.3325868552
 30
0.0
 10
9.0312509497
 20
7.3509236369
 30
0.0
 10
9.0245493518
 20
7.3693796509
 30
0.0
 10
9.0184227089
 20
7.3879334628
 30
0.0
 10
9.0128526926
 20
7.406566916
 30
0.0
 10
9.0061565308
 20
7.4314457015
 30
0.0
 10
9.0004753716
 20
7.4564844439
 30
0.0
 10
8.9957485615
 20
7.4816168403
 30
0.0
 10
8.9916464084
 20
7.5067034967
 30
0.0
 10
8.989222842
 20
7.5255936809
 30
0.0
 10
8.9878796094
 20
7.5381969881
 30
0.0
  0
SPLINE
  5
34E
100
AcDbEntity
  8
0
100
AcDbSpline
 62
7
  6
CONTINUOUS
 70
0
 71
3
 72
75
 73
71
 74
0
 42
0.0000001
 43
0.0000001
 44
0.0000000001
 40
0.0
 40
0.0
 40
0.0
 40
0.0
 40
0.0156747273
 40
0.0235325814
 40
0.031403181
 40
0.0471815803
 40
0.0630097508
 40
0.0788855268
 40
0.0948064622
 40
0.1107696438
 40
0.1267717932
 40
0.1347869014
 40
0.1428103611
 40
0.1588792318
 40
0.1749752631
 40
0.1910939891
 40
0.2072307449
 40
0.2233807077
 40
0.2395389397
 40
0.2557004309
 40
0.2718601429
 40
0.2880130529
 40
0.3041541969
 40
0.3202787136
 40
0.3363818874
 40
0.3524591897
 40
0.36850632
 40
0.3845192451
 40
0.4004942363
 40
0.4164279049
 40
0.4323172352
 40
0.4481596152
 40
0.4639528635
 40
0.4796952542
 40
0.4953855368
 40
0.5110229526
 40
0.526607247
 40
0.5421386771
 40
0.5576180139
 40
0.5730465408
 40
0.5884260451
 40
0.6037588059
 40
0.6190475753
 40
0.6342955548
 40
0.649506366
 40
0.6646840161
 40
0.6798328593
 40
0.6949575524
 40
0.7100630078
 40
0.725154342
 40
0.7402368221
 40
0.7553158097
 40
0.7703967041
 40
0.7854848839
 40
0.80058565
 40
0.8157041693
 40
0.8308454194
 40
0.8460141376
 40
0.8612147716
 40
0.8764514346
 40
0.8917278653
 40
0.9070473908
 40
0.9224129018
 40
0.9301142846
 40
0.9378280267
 40
0.9532922984
 40
0.9688082546
 40
0.9765865231
 40
0.9843782672
 40
1.0
 40
1.0
 40
1.0
 40
1.0
 10
8.7163620979
 20
7.907792936
 30
0.0
 10
8.731147297
 20
7.906767579
 30
0.0
 10
8.7533116386
 20
7.9046845104
 30
0.0
 10
8.782755073
 20
7.900833071
 30
0.0
 10
8.8121942164
 20
7.896255754
 30
0.0
 10
8.8488610557
 20
7.8891875603
 30
0.0
 10
8.8925035899
 20
7.8785848302
 30
0.0
 10
8.935721786
 20
7.8658794059
 30
0.0
 10
8.9784110632
 20
7.8511020709
 30
0.0
 10
9.0204683018
 20
7.8342886712
 30
0.0
 10
9.054887753
 20
7.8186223476
 30
0.0
 10
9.0820078357
 20
7.8051156148
 30
0.0
 10
9.1088624152
 20
7.790952638
 30
0.0
 10
9.1418484284
 20
7.7720594603
 30
0.0
 10
9.180385618
 20
7.7475538705
 30
0.0
 10
9.2178054694
 20
7.7212613119
 30
0.0
 10
9.2540173808
 20
7.6932454006
 30
0.0
 10
9.2889343456
 20
7.663573516
 30
0.0
 10
9.3224722855
 20
7.6323171164
 30
0.0
 10
9.3545504866
 20
7.5995514398
 30
0.0
 10
9.3850917292
 20
7.5653553577
 30
0.0
 10
9.4140224901
 20
7.5298111781
 30
0.0
 10
9.441273113
 20
7.4930044492
 30
0.0
 10
9.4667779848
 20
7.4550237603
 30
0.0
 10
9.4904756894
 20
7.4159605253
 30
0.0
 10
9.5123091512
 20
7.3759087613
 30
0.0
 10
9.5322257731
 20
7.3349648645
 30
0.0
 10
9.5501775624
 20
7.2932273794
 30
0.0
 10
9.5661212461
 20
7.2507967636
 30
0.0
 10
9.580018375
 20
7.2077751475
 30
0.0
 10
9.5918354171
 20
7.1642660904
 30
0.0
 10
9.6015438371
 20
7.1203743325
 30
0.0
 10
9.6091201743
 20
7.0762055463
 30
0.0
 10
9.6145460988
 20
7.0318660815
 30
0.0
 10
9.6178084499
 20
6.9874627096
 30
0.0
 10
9.6188992714
 20
6.9431023686
 30
0.0
 10
9.6178158313
 20
6.898891907
 30
0.0
 10
9.6145606311
 20
6.854937828
 30
0.0
 10
9.6091414019
 20
6.8113460336
 30
0.0
 10
9.6015710884
 20
6.7682215705
 30
0.0
 10
9.5918678197
 20
6.7256683777
 30
0.0
 10
9.5800548744
 20
6.6837890337
 30
0.0
 10
9.5661606293
 20
6.6426845068
 30
0.0
 10
9.5502184847
 20
6.6024539126
 30
0.0
 10
9.5322667884
 20
6.5631942731
 30
0.0
 10
9.5123487448
 20
6.5250002814
 30
0.0
 10
9.4905123126
 20
6.4879640702
 30
0.0
 10
9.4668100909
 20
6.4521749878
 30
0.0
 10
9.4412991935
 20
6.417719379
 30
0.0
 10
9.41404111
 20
6.3846803746
 30
0.0
 10
9.3851015616
 20
6.353137685
 30
0.0
 10
9.3545503439
 20
6.3231673996
 30
0.0
 10
9.3224611492
 20
6.2948418079
 30
0.0
 10
9.2889113872
 20
6.2682292212
 30
0.0
 10
9.2539819957
 20
6.2433938071
 30
0.0
 10
9.2177572428
 20
6.2203954332
 30
0.0
 10
9.1803245193
 20
6.1992895226
 30
0.0
 10
9.1417741303
 20
6.1801269205
 30
0.0
 10
9.1021990538
 20
6.1629537702
 30
0.0
 10
9.0616947921
 20
6.1478114113
 30
0.0
 10
9.0203588504
 20
6.1347362367
 30
0.0
 10
8.9782915848
 20
6.1237597538
 30
0.0
 10
8.9427356912
 20
6.1163889227
 30
0.0
 10
8.9140322506
 20
6.1115634804
 30
0.0
 10
8.8851239046
 20
6.1074489357
 30
0.0
 10
8.848718538
 20
6.1036596655
 30
0.0
 10
8.8121089557
 20
6.1016863314
 30
0.0
 10
8.7827180616
 20
6.1011942582
 30
0.0
 10
8.753224545
 20
6.1014282548
 30
0.0
 10
8.7310973099
 20
6.1024214049
 30
0.0
 10
8.7163620979
 20
6.1034432953
 30
0.0
  0
SPLINE
  5
34F
100
AcDbEntity
  8
0
100
AcDbSpline
 62
7
  6
CONTINUOUS
 70
0
 71
3
 72
23
 73
19
 74
0
 42
0.0000001
 43
0.0000001
 44
0.0000000001
 40
0.0
 40
0.0
 40
0.0
 40
0.0
 40
0.052053318
 40
0.1059176709
 40
0.1615161203
 40
0.2187669317
 40
0.2775840006
 40
0.3378773535
 40
0.399553402
 40
0.4625151587
 40
0.5266627058
 40
0.5918934296
 40
0.6581021321
 40
0.7251817444
 40
0.7930228561
 40
0.8615138874
 40
0.9305462642
 40
1.0
 40
1.0
 40
1.0
 40
1.0
 10
8.5698341107
 20
7.4859569291
 30
0.0
 10
8.5769238017
 20
7.487795171
 30
0.0
 10
8.5913890347
 20
7.4913858583
 30
0.0
 10
8.6135468585
 20
7.4964412774
 30
0.0
 10
8.6365068671
 20
7.5012516725
 30
0.0
 10
8.6602284195
 20
7.5058084687
 30
0.0
 10
8.6846696688
 20
7.51010359
 30
0.0
 10
8.7097874473
 20
7.5141293873
 30
0.0
 10
8.7355373925
 20
7.5178786853
 30
0.0
 10
8.7618740019
 20
7.5213448462
 30
0.0
 10
8.7887507342
 20
7.5245217105
 30
0.0
 10
8.8161200837
 20
7.5274036087
 30
0.0
 10
8.8439336906
 20
7.5299854425
 30
0.0
 10
8.8721423737
 20
7.5322626265
 30
0.0
 10
8.9006961589
 20
7.5342310975
 30
0.0
 10
8.9295449622
 20
7.5358874067
 30
0.0
 10
8.9586372302
 20
7.5372285226
 30
0.0
 10
8.9781114039
 20
7.5379092527
 30
0.0
 10
8.9878796094
 20
7.5381969881
 30
0.0
  0
SPLINE
  5
350
100
AcDbEntity
  8
0
100
AcDbSpline
 62
7
  6
CONTINUOUS
 70
0
 71
3
 72
75
 73
71
 74
0
 42
0.0000001
 43
0.0000001
 44
0.0000000001
 40
0.0
 40
0.0
 40
0.0
 40
0.0
 40
0.0156747273
 40
0.0235325814
 40
0.031403181
 40
0.0471815803
 40
0.0630097508
 40
0.0788855268
 40
0.0948064622
 40
0.1107696438
 40
0.1267717932
 40
0.1347869014
 40
0.1428103611
 40
0.1588792318
 40
0.1749752631
 40
0.1910939891
 40
0.2072307449
 40
0.2233807077
 40
0.2395389397
 40
0.2557004309
 40
0.2718601429
 40
0.2880130529
 40
0.3041541969
 40
0.3202787136
 40
0.3363818874
 40
0.3524591897
 40
0.36850632
 40
0.3845192451
 40
0.4004942363
 40
0.4164279049
 40
0.4323172352
 40
0.4481596152
 40
0.4639528635
 40
0.4796952542
 40
0.4953855368
 40
0.5110229526
 40
0.526607247
 40
0.5421386771
 40
0.5576180139
 40
0.5730465408
 40
0.5884260451
 40
0.6037588059
 40
0.6190475753
 40
0.6342955548
 40
0.649506366
 40
0.6646840161
 40
0.6798328593
 40
0.6949575524
 40
0.7100630078
 40
0.725154342
 40
0.7402368221
 40
0.7553158097
 40
0.7703967041
 40
0.7854848839
 40
0.80058565
 40
0.8157041693
 40
0.8308454194
 40
0.8460141376
 40
0.8612147716
 40
0.8764514346
 40
0.8917278653
 40
0.9070473908
 40
0.9224129018
 40
0.9301142846
 40
0.9378280267
 40
0.9532922984
 40
0.9688082546
 40
0.9765865231
 40
0.9843782672
 40
1.0
 40
1.0
 40
1.0
 40
1.0
 10
11.3745901045
 20
5.9190945569
 30
0.0
 10
11.3598049054
 20
5.920119914
 30
0.0
 10
11.3376405638
 20
5.9222029825
 30
0.0
 10
11.3081971294
 20
5.9260544219
 30
0.0
 10
11.2787579861
 20
5.930631739
 30
0.0
 10
11.2420911467
 20
5.9376999326
 30
0.0
 10
11.1984486125
 20
5.9483026628
 30
0.0
 10
11.1552304164
 20
5.961008087
 30
0.0
 10
11.1125411392
 20
5.9757854221
 30
0.0
 10
11.0704839006
 20
5.9925988218
 30
0.0
 10
11.0360644494
 20
6.0082651454
 30
0.0
 10
11.0089443667
 20
6.0217718781
 30
0.0
 10
10.9820897872
 20
6.035934855
 30
0.0
 10
10.949103774
 20
6.0548280326
 30
0.0
 10
10.9105665845
 20
6.0793336225
 30
0.0
 10
10.8731467331
 20
6.105626181
 30
0.0
 10
10.8369348217
 20
6.1336420924
 30
0.0
 10
10.8020178568
 20
6.163313977
 30
0.0
 10
10.7684799169
 20
6.1945703765
 30
0.0
 10
10.7364017158
 20
6.2273360532
 30
0.0
 10
10.7058604733
 20
6.2615321352
 30
0.0
 10
10.6769297123
 20
6.2970763149
 30
0.0
 10
10.6496790895
 20
6.3338830438
 30
0.0
 10
10.6241742176
 20
6.3718637326
 30
0.0
 10
10.600476513
 20
6.4109269676
 30
0.0
 10
10.5786430512
 20
6.4509787316
 30
0.0
 10
10.5587264293
 20
6.4919226285
 30
0.0
 10
10.54077464
 20
6.5336601135
 30
0.0
 10
10.5248309564
 20
6.5760907293
 30
0.0
 10
10.5109338275
 20
6.6191123455
 30
0.0
 10
10.4991167853
 20
6.6626214026
 30
0.0
 10
10.4894083653
 20
6.7065131604
 30
0.0
 10
10.4818320281
 20
6.7506819467
 30
0.0
 10
10.4764061037
 20
6.7950214115
 30
0.0
 10
10.4731437525
 20
6.8394247834
 30
0.0
 10
10.472052931
 20
6.8837851243
 30
0.0
 10
10.4731363711
 20
6.9279955859
 30
0.0
 10
10.4763915713
 20
6.971949665
 30
0.0
 10
10.4818108006
 20
7.0155414594
 30
0.0
 10
10.489381114
 20
7.0586659224
 30
0.0
 10
10.4990843827
 20
7.1012191153
 30
0.0
 10
10.5108973281
 20
7.1430984593
 30
0.0
 10
10.5247915732
 20
7.1842029862
 30
0.0
 10
10.5407337177
 20
7.2244335804
 30
0.0
 10
10.558685414
 20
7.2636932198
 30
0.0
 10
10.5786034577
 20
7.3018872116
 30
0.0
 10
10.6004398899
 20
7.3389234227
 30
0.0
 10
10.6241421115
 20
7.3747125052
 30
0.0
 10
10.649653009
 20
7.409168114
 30
0.0
 10
10.6769110924
 20
7.4422071184
 30
0.0
 10
10.7058506409
 20
7.473749808
 30
0.0
 10
10.7364018585
 20
7.5037200933
 30
0.0
 10
10.7684910533
 20
7.5320456851
 30
0.0
 10
10.8020408153
 20
7.5586582718
 30
0.0
 10
10.8369702068
 20
7.5834936859
 30
0.0
 10
10.8731949596
 20
7.6064920597
 30
0.0
 10
10.9106276831
 20
7.6275979703
 30
0.0
 10
10.9491780721
 20
7.6467605725
 30
0.0
 10
10.9887531486
 20
7.6639337228
 30
0.0
 10
11.0292574103
 20
7.6790760816
 30
0.0
 10
11.070593352
 20
7.6921512562
 30
0.0
 10
11.1126606176
 20
7.7031277391
 30
0.0
 10
11.1482165113
 20
7.7104985702
 30
0.0
 10
11.1769199519
 20
7.7153240125
 30
0.0
 10
11.2058282979
 20
7.7194385572
 30
0.0
 10
11.2422336644
 20
7.7232278274
 30
0.0
 10
11.2788432467
 20
7.7252011616
 30
0.0
 10
11.3082341408
 20
7.7256932347
 30
0.0
 10
11.3377276574
 20
7.7254592382
 30
0.0
 10
11.3598548926
 20
7.724466088
 30
0.0
 10
11.3745901045
 20
7.7234441976
 30
0.0
  0
SPLINE
  5
351
100
AcDbEntity
  8
0
100
AcDbSpline
 62
7
  6
CONTINUOUS
 70
0
 71
3
 72
27
 73
23
 74
0
 42
0.0000001
 43
0.0000001
 44
0.0000000001
 40
0.0
 40
0.0
 40
0.0
 40
0.0
 40
0.1039124663
 40
0.2012768364
 40
0.2920297366
 40
0.3762510806
 40
0.4541228394
 40
0.5258950376
 40
0.5918704017
 40
0.6523968645
 40
0.7078670542
 40
0.7587233424
 40
0.8054659366
 40
0.8486618931
 40
0.8691377294
 40
0.888974669
 40
0.9082654868
 40
0.9271065033
 40
0.945597378
 40
0.9638409302
 40
0.981940737
 40
1.0
 40
1.0
 40
1.0
 40
1.0
 10
11.4325564257
 20
7.3258921106
 30
0.0
 10
11.4307683891
 20
7.329309206
 30
0.0
 10
11.4272175273
 20
7.3358828402
 30
0.0
 10
11.4217969017
 20
7.3452701407
 30
0.0
 10
11.4164758548
 20
7.3538658493
 30
0.0
 10
11.4112682687
 20
7.3616749129
 30
0.0
 10
11.4061799855
 20
7.3687097052
 30
0.0
 10
11.4012114664
 20
7.3749866853
 30
0.0
 10
11.3963597821
 20
7.3805242539
 30
0.0
 10
11.3916198539
 20
7.3853414342
 30
0.0
 10
11.3869854155
 20
7.3894569289
 30
0.0
 10
11.3824492788
 20
7.3928885199
 30
0.0
 10
11.3780049226
 20
7.3956520677
 30
0.0
 10
11.374307114
 20
7.3974408722
 30
0.0
 10
11.3714032187
 20
7.3985292492
 30
0.0
 10
11.3692849158
 20
7.3991723178
 30
0.0
 10
11.3671872796
 20
7.3996580883
 30
0.0
 10
11.3651099789
 20
7.3999877975
 30
0.0
 10
11.3630528824
 20
7.4001624771
 30
0.0
 10
11.3610159173
 20
7.4001832709
 30
0.0
 10
11.3589992798
 20
7.4000511478
 30
0.0
 10
11.3576691701
 20
7.3998616762
 30
0.0
 10
11.3570096496
 20
7.3997421948
 30
0.0
  0
SPLINE
  5
352
100
AcDbEntity
  8
0
100
AcDbSpline
 62
7
  6
CONTINUOUS
 70
0
 71
3
 72
75
 73
71
 74
0
 42
0.0000001
 43
0.0000001
 44
0.0000000001
 40
0.0
 40
0.0
 40
0.0
 40
0.0
 40
0.0156747273
 40
0.0235325814
 40
0.031403181
 40
0.0471815803
 40
0.0630097508
 40
0.0788855268
 40
0.0948064622
 40
0.1107696438
 40
0.1267717932
 40
0.1347869014
 40
0.1428103611
 40
0.1588792318
 40
0.1749752631
 40
0.1910939891
 40
0.2072307449
 40
0.2233807077
 40
0.2395389397
 40
0.2557004309
 40
0.2718601429
 40
0.2880130529
 40
0.3041541969
 40
0.3202787136
 40
0.3363818874
 40
0.3524591897
 40
0.36850632
 40
0.3845192451
 40
0.4004942363
 40
0.4164279049
 40
0.4323172352
 40
0.4481596152
 40
0.4639528635
 40
0.4796952542
 40
0.4953855368
 40
0.5110229526
 40
0.526607247
 40
0.5421386771
 40
0.5576180139
 40
0.5730465408
 40
0.5884260451
 40
0.6037588059
 40
0.6190475753
 40
0.6342955548
 40
0.649506366
 40
0.6646840161
 40
0.6798328593
 40
0.6949575524
 40
0.7100630078
 40
0.725154342
 40
0.7402368221
 40
0.7553158097
 40
0.7703967041
 40
0.7854848839
 40
0.80058565
 40
0.8157041693
 40
0.8308454194
 40
0.8460141376
 40
0.8612147716
 40
0.8764514346
 40
0.8917278653
 40
0.9070473908
 40
0.9224129018
 40
0.9301142846
 40
0.9378280267
 40
0.9532922984
 40
0.9688082546
 40
0.9765865231
 40
0.9843782672
 40
1.0
 40
1.0
 40
1.0
 40
1.0
 10
11.3745901045
 20
7.7234441976
 30
0.0
 10
11.3893753036
 20
7.7224188406
 30
0.0
 10
11.4115396452
 20
7.720335772
 30
0.0
 10
11.4409830796
 20
7.7164843326
 30
0.0
 10
11.4704222229
 20
7.7119070156
 30
0.0
 10
11.5070890623
 20
7.7048388219
 30
0.0
 10
11.5507315965
 20
7.6942360918
 30
0.0
 10
11.5939497926
 20
7.6815306675
 30
0.0
 10
11.6366390698
 20
7.6667533325
 30
0.0
 10
11.6786963084
 20
7.6499399328
 30
0.0
 10
11.7131157596
 20
7.6342736092
 30
0.0
 10
11.7402358423
 20
7.6207668764
 30
0.0
 10
11.7670904218
 20
7.6066038996
 30
0.0
 10
11.800076435
 20
7.587710722
 30
0.0
 10
11.8386136245
 20
7.5632051321
 30
0.0
 10
11.8760334759
 20
7.5369125735
 30
0.0
 10
11.9122453874
 20
7.5088966622
 30
0.0
 10
11.9471623522
 20
7.4792247776
 30
0.0
 10
11.9807002921
 20
7.447968378
 30
0.0
 10
12.0127784932
 20
7.4152027014
 30
0.0
 10
12.0433197357
 20
7.3810066193
 30
0.0
 10
12.0722504967
 20
7.3454624397
 30
0.0
 10
12.0995011196
 20
7.3086557108
 30
0.0
 10
12.1250059914
 20
7.2706750219
 30
0.0
 10
12.148703696
 20
7.2316117869
 30
0.0
 10
12.1705371578
 20
7.1915600229
 30
0.0
 10
12.1904537797
 20
7.1506161261
 30
0.0
 10
12.208405569
 20
7.108878641
 30
0.0
 10
12.2243492526
 20
7.0664480252
 30
0.0
 10
12.2382463816
 20
7.0234264091
 30
0.0
 10
12.2500634237
 20
6.979917352
 30
0.0
 10
12.2597718437
 20
6.9360255941
 30
0.0
 10
12.2673481809
 20
6.8918568079
 30
0.0
 10
12.2727741053
 20
6.8475173431
 30
0.0
 10
12.2760364565
 20
6.8031139712
 30
0.0
 10
12.277127278
 20
6.7587536302
 30
0.0
 10
12.2760438379
 20
6.7145431687
 30
0.0
 10
12.2727886377
 20
6.6705890896
 30
0.0
 10
12.2673694085
 20
6.6269972952
 30
0.0
 10
12.259799095
 20
6.5838728321
 30
0.0
 10
12.2500958263
 20
6.5413196393
 30
0.0
 10
12.238282881
 20
6.4994402953
 30
0.0
 10
12.2243886358
 20
6.4583357684
 30
0.0
 10
12.2084464913
 20
6.4181051742
 30
0.0
 10
12.190494795
 20
6.3788455348
 30
0.0
 10
12.1705767514
 20
6.340651543
 30
0.0
 10
12.1487403191
 20
6.3036153318
 30
0.0
 10
12.1250380975
 20
6.2678262494
 30
0.0
 10
12.0995272
 20
6.2333706406
 30
0.0
 10
12.0722691166
 20
6.2003316362
 30
0.0
 10
12.0433295682
 20
6.1687889466
 30
0.0
 10
12.0127783505
 20
6.1388186612
 30
0.0
 10
11.9806891558
 20
6.1104930695
 30
0.0
 10
11.9471393937
 20
6.0838804828
 30
0.0
 10
11.9122100022
 20
6.0590450687
 30
0.0
 10
11.8759852494
 20
6.0360466948
 30
0.0
 10
11.8385525259
 20
6.0149407842
 30
0.0
 10
11.8000021369
 20
5.9957781821
 30
0.0
 10
11.7604270604
 20
5.9786050318
 30
0.0
 10
11.7199227987
 20
5.9634626729
 30
0.0
 10
11.678586857
 20
5.9503874983
 30
0.0
 10
11.6365195914
 20
5.9394110154
 30
0.0
 10
11.6009636978
 20
5.9320401843
 30
0.0
 10
11.5722602571
 20
5.927214742
 30
0.0
 10
11.5433519112
 20
5.9231001973
 30
0.0
 10
11.5069465446
 20
5.9193109271
 30
0.0
 10
11.4703369623
 20
5.917337593
 30
0.0
 10
11.4409460682
 20
5.9168455198
 30
0.0
 10
11.4114525516
 20
5.9170795164
 30
0.0
 10
11.3893253165
 20
5.9180726665
 30
0.0
 10
11.3745901045
 20
5.9190945569
 30
0.0
  0
SPLINE
  5
353
100
AcDbEntity
  8
0
100
AcDbSpline
 62
7
  6
CONTINUOUS
 70
0
 71
3
 72
52
 73
48
 74
0
 42
0.0000001
 43
0.0000001
 44
0.0000000001
 40
0.0
 40
0.0
 40
0.0
 40
0.0
 40
0.0417975951
 40
0.0840616288
 40
0.1266599
 40
0.1694646819
 40
0.2123442235
 40
0.2551675716
 40
0.2978037564
 40
0.3401225587
 40
0.3819950468
 40
0.4232940448
 40
0.4638946794
 40
0.5036749394
 40
0.5425162168
 40
0.5803038545
 40
0.6169277287
 40
0.6522828762
 40
0.6862702207
 40
0.7187973048
 40
0.7497791232
 40
0.7646666939
 40
0.7791400459
 40
0.7931910474
 40
0.8068124878
 40
0.8199977024
 40
0.8327409898
 40
0.8450375569
 40
0.8568834717
 40
0.8682761438
 40
0.8792139942
 40
0.8896969854
 40
0.8997266536
 40
0.9093062033
 40
0.9184411394
 40
0.9271391328
 40
0.9354107775
 40
0.9432698769
 40
0.9507338665
 40
0.9578247066
 40
0.9645691138
 40
0.9709994856
 40
0.9771542525
 40
0.9830781055
 40
0.9888220386
 40
0.9944424568
 40
1.0
 40
1.0
 40
1.0
 40
1.0
 10
9.4993333947
 20
11.4224316107
 30
0.0
 10
9.492948538
 20
11.422874402
 30
0.0
 10
9.4801002809
 20
11.4236628418
 30
0.0
 10
9.460725394
 20
11.4245527208
 30
0.0
 10
9.4411850903
 20
11.4251545408
 30
0.0
 10
9.4215437723
 20
11.4254663891
 30
0.0
 10
9.401865525
 20
11.4254871864
 30
0.0
 10
9.3822149403
 20
11.4252168781
 30
0.0
 10
9.3626563794
 20
11.424656357
 30
0.0
 10
9.3432539316
 20
11.4238074775
 30
0.0
 10
9.3240711686
 20
11.4226730434
 30
0.0
 10
9.3051709373
 20
11.4212567973
 30
0.0
 10
9.2866151545
 20
11.4195634092
 30
0.0
 10
9.2684645941
 20
11.41759848
 30
0.0
 10
9.2507786853
 20
11.4153685083
 30
0.0
 10
9.2336153212
 20
11.4128808676
 30
0.0
 10
9.2170306627
 20
11.410143785
 30
0.0
 10
9.2010789582
 20
11.407166308
 30
0.0
 10
9.1858122911
 20
11.403958307
 30
0.0
 10
9.1712805994
 20
11.4005303889
 30
0.0
 10
9.1596735292
 20
11.3974606731
 30
0.0
 10
9.1507962979
 20
11.3948962573
 30
0.0
 10
9.1444396804
 20
11.3929507188
 30
0.0
 10
9.1383008971
 20
11.3909589317
 30
0.0
 10
9.1323849386
 20
11.3889225914
 30
0.0
 10
9.1266966435
 20
11.3868433127
 30
0.0
 10
9.1212406447
 20
11.3847228178
 30
0.0
 10
9.1160213735
 20
11.3825628754
 30
0.0
 10
9.1110430937
 20
11.3803651747
 30
0.0
 10
9.1063098162
 20
11.3781315971
 30
0.0
 10
9.1018253923
 20
11.3758638849
 30
0.0
 10
9.0975934355
 20
11.3735638946
 30
0.0
 10
9.0936173321
 20
11.3712335076
 30
0.0
 10
9.0899003115
 20
11.3688744917
 30
0.0
 10
9.0864452906
 20
11.366488805
 30
0.0
 10
9.0832550649
 20
11.3640782082
 30
0.0
 10
9.0803321623
 20
11.3616445588
 30
0.0
 10
9.0776788893
 20
11.3591896874
 30
0.0
 10
9.0752974806
 20
11.3567152619
 30
0.0
 10
9.0731898342
 20
11.3542231084
 30
0.0
 10
9.0713579158
 20
11.3517148193
 30
0.0
 10
9.0698034973
 20
11.3491921199
 30
0.0
 10
9.0685282882
 20
11.3466567645
 30
0.0
 10
9.0675341457
 20
11.3441106319
 30
0.0
 10
9.0668225251
 20
11.3415558606
 30
0.0
 10
9.0663949684
 20
11.3389953565
 30
0.0
 10
9.0662997277
 20
11.3372822665
 30
0.0
 10
9.0662997351
 20
11.3364312763
 30
0.0
  0
SPLINE
  5
354
100
AcDbEntity
  8
0
100
AcDbSpline
 62
7
  6
CONTINUOUS
 70
0
 71
3
 72
53
 73
49
 74
0
 42
0.0000001
 43
0.0000001
 44
0.0000000001
 40
0.0
 40
0.0
 40
0.0
 40
0.0
 40
0.0311426844
 40
0.0624383931
 40
0.0938812286
 40
0.1254614913
 40
0.1571669836
 40
0.1889829512
 40
0.2208924493
 40
0.2528766959
 40
0.2849154495
 40
0.3169874116
 40
0.3490706423
 40
0.3811429843
 40
0.4131824906
 40
0.4451678483
 40
0.477078794
 40
0.5088965168
 40
0.5406040388
 40
0.5721865671
 40
0.587929481
 40
0.6036367678
 40
0.6193073317
 40
0.6349402614
 40
0.650534846
 40
0.6660905727
 40
0.6816071306
 40
0.6970844215
 40
0.7125225531
 40
0.7279218437
 40
0.7432828261
 40
0.7586062374
 40
0.7738930241
 40
0.7891443373
 40
0.8043615217
 40
0.8195461182
 40
0.8346998512
 40
0.8498246181
 40
0.8649224865
 40
0.8799956769
 40
0.8950465515
 40
0.9100776058
 40
0.9250914485
 40
0.9400907894
 40
0.9550784261
 40
0.9700572226
 40
0.985030096
 40
1.0
 40
1.0
 40
1.0
 40
1.0
 10
11.3934838913
 20
6.0078571893
 30
0.0
 10
11.3731754652
 20
6.0092655834
 30
0.0
 10
11.3325468013
 20
6.0135757888
 30
0.0
 10
11.2720963844
 20
6.0244333278
 30
0.0
 10
11.2122934458
 20
6.039641431
 30
0.0
 10
11.1534609603
 20
6.0591183925
 30
0.0
 10
11.0959115047
 20
6.0827598343
 30
0.0
 10
11.0399520445
 20
6.1104392214
 30
0.0
 10
10.98588068
 20
6.1420086535
 30
0.0
 10
10.9339855743
 20
6.1772996295
 30
0.0
 10
10.884543199
 20
6.2161237926
 30
0.0
 10
10.8378169808
 20
6.2582740552
 30
0.0
 10
10.7940559504
 20
6.3035257261
 30
0.0
 10
10.7534933858
 20
6.3516376344
 30
0.0
 10
10.7163454984
 20
6.4023533292
 30
0.0
 10
10.6828104065
 20
6.4554026143
 30
0.0
 10
10.6530671569
 20
6.5105027164
 30
0.0
 10
10.6272744324
 20
6.5673605675
 30
0.0
 10
10.6055704982
 20
6.6256711369
 30
0.0
 10
10.590970587
 20
6.6752757169
 30
0.0
 10
10.5814477723
 20
6.715370388
 30
0.0
 10
10.5753965355
 20
6.7455787474
 30
0.0
 10
10.5704377264
 20
6.7759123468
 30
0.0
 10
10.566577946
 20
6.8063311729
 30
0.0
 10
10.563822262
 20
6.836794471
 30
0.0
 10
10.5621744372
 20
6.8672616139
 30
0.0
 10
10.561636746
 20
6.8976919117
 30
0.0
 10
10.5622097928
 20
6.9280447335
 30
0.0
 10
10.5638929606
 20
6.958279548
 30
0.0
 10
10.566683997
 20
6.9883559757
 30
0.0
 10
10.5705791062
 20
7.0182338616
 30
0.0
 10
10.5755732582
 20
7.0478732819
 30
0.0
 10
10.5816597076
 20
7.0772346597
 30
0.0
 10
10.5888303215
 20
7.1062787859
 30
0.0
 10
10.5970756769
 20
7.1349668261
 30
0.0
 10
10.6063846415
 20
7.1632604917
 30
0.0
 10
10.6167448455
 20
7.1911219727
 30
0.0
 10
10.6281425455
 20
7.2185140087
 30
0.0
 10
10.6405623953
 20
7.2454000563
 30
0.0
 10
10.6539879177
 20
7.2717441472
 30
0.0
 10
10.6684011957
 20
7.297511068
 30
0.0
 10
10.6837828841
 20
7.3226664455
 30
0.0
 10
10.7001125656
 20
7.3471765847
 30
0.0
 10
10.717368378
 20
7.3710087711
 30
0.0
 10
10.7355271946
 20
7.3941311655
 30
0.0
 10
10.7545649907
 20
7.4165128797
 30
0.0
 10
10.7744557974
 20
7.4381236797
 30
0.0
 10
10.7882688298
 20
7.4519991462
 30
0.0
 10
10.7953070591
 20
7.4587975643
 30
0.0
  0
SPLINE
  5
355
100
AcDbEntity
  8
0
100
AcDbSpline
 62
7
  6
CONTINUOUS
 70
0
 71
3
 72
43
 73
39
 74
0
 42
0.0000001
 43
0.0000001
 44
0.0000000001
 40
0.0
 40
0.0
 40
0.0
 40
0.0
 40
0.0448295013
 40
0.0932520614
 40
0.1446361849
 40
0.197957833
 40
0.2519564224
 40
0.3054028904
 40
0.3573262263
 40
0.4070960355
 40
0.4543831818
 40
0.4990704547
 40
0.5411687528
 40
0.5807567082
 40
0.617943521
 40
0.6528471877
 40
0.6855837371
 40
0.7162624987
 40
0.7449826915
 40
0.7718353864
 40
0.796902681
 40
0.8202600231
 40
0.841978934
 40
0.8621275901
 40
0.8807767051
 40
0.8979999075
 40
0.9138823621
 40
0.9285231578
 40
0.9420470203
 40
0.9546098565
 40
0.9605959308
 40
0.9664207265
 40
0.9721167175
 40
0.9777197291
 40
0.9832683483
 40
0.9888030065
 40
0.9943658583
 40
1.0
 40
1.0
 40
1.0
 40
1.0
 10
10.9214693304
 20
7.4489757053
 30
0.0
 10
10.9207796493
 20
7.446019256
 30
0.0
 10
10.9192917966
 20
7.4398817142
 30
0.0
 10
10.9168315099
 20
7.430400658
 30
0.0
 10
10.9140676232
 20
7.4204055515
 30
0.0
 10
10.911038089
 20
7.4100935291
 30
0.0
 10
10.9078001563
 20
7.3996986315
 30
0.0
 10
10.9044195767
 20
7.3894488864
 30
0.0
 10
10.90095844
 20
7.3795288555
 30
0.0
 10
10.8974665402
 20
7.3700629804
 30
0.0
 10
10.8939790117
 20
7.3611195082
 30
0.0
 10
10.8905181415
 20
7.3527250324
 30
0.0
 10
10.8870968277
 20
7.3448800664
 30
0.0
 10
10.88372185
 20
7.3375709833
 30
0.0
 10
10.8803963278
 20
7.3307778054
 30
0.0
 10
10.8771213261
 20
7.324478738
 30
0.0
 10
10.8738969246
 20
7.3186525589
 30
0.0
 10
10.8707229221
 20
7.3132798036
 30
0.0
 10
10.8675989193
 20
7.3083433586
 30
0.0
 10
10.8645249898
 20
7.3038284132
 30
0.0
 10
10.8615013891
 20
7.2997225765
 30
0.0
 10
10.8585288353
 20
7.2960156419
 30
0.0
 10
10.8556086255
 20
7.2926993581
 30
0.0
 10
10.8527422622
 20
7.2897674584
 30
0.0
 10
10.8499320517
 20
7.2872151537
 30
0.0
 10
10.8471802752
 20
7.285039517
 30
0.0
 10
10.8444900637
 20
7.2832388006
 30
0.0
 10
10.8418641882
 20
7.2818132649
 30
0.0
 10
10.8393068389
 20
7.2807645495
 30
0.0
 10
10.8372018513
 20
7.2801993965
 30
0.0
 10
10.8355685873
 20
7.2799513216
 30
0.0
 10
10.8343848614
 20
7.2798651367
 30
0.0
 10
10.8332239271
 20
7.279876691
 30
0.0
 10
10.8320868496
 20
7.2799867525
 30
0.0
 10
10.830974846
 20
7.2801960633
 30
0.0
 10
10.829889223
 20
7.2805055874
 30
0.0
 10
10.8288315112
 20
7.2809161447
 30
0.0
 10
10.828151728
 20
7.2812548499
 30
0.0
 10
10.8278181587
 20
7.2814400658
 30
0.0
  0
SPLINE
  5
356
100
AcDbEntity
  8
0
100
AcDbSpline
 62
7
  6
CONTINUOUS
 70
0
 71
3
 72
21
 73
17
 74
0
 42
0.0000001
 43
0.0000001
 44
0.0000000001
 40
0.0
 40
0.0
 40
0.0
 40
0.0
 40
0.1267948843
 40
0.2530337259
 40
0.3159557352
 40
0.3787429632
 40
0.441397645
 40
0.5039229569
 40
0.5663224814
 40
0.6286002277
 40
0.6907607935
 40
0.752809261
 40
0.8147511882
 40
0.8765925892
 40
0.9383399052
 40
1.0
 40
1.0
 40
1.0
 40
1.0
 10
11.7307248288
 20
6.3336069397
 30
0.0
 10
11.7482295977
 20
6.3323929799
 30
0.0
 10
11.7832480988
 20
6.3310678891
 30
0.0
 10
11.8269888833
 20
6.3321939488
 30
0.0
 10
11.8617653731
 20
6.3347672491
 30
0.0
 10
11.8876907878
 20
6.3375269661
 30
0.0
 10
11.9134588973
 20
6.3411156
 30
0.0
 10
11.9390441499
 20
6.345529685
 30
0.0
 10
11.964420903
 20
6.3507646107
 30
0.0
 10
11.9895637048
 20
6.3568153918
 30
0.0
 10
12.0144474154
 20
6.3636757293
 30
0.0
 10
12.0390470589
 20
6.3713389856
 30
0.0
 10
12.0633380187
 20
6.3797973087
 30
0.0
 10
12.0872960147
 20
6.3890423902
 30
0.0
 10
12.1108967188
 20
6.3990647691
 30
0.0
 10
12.1263877522
 20
6.4062630816
 30
0.0
 10
12.1340647501
 20
6.4099880569
 30
0.0
  0
SPLINE
  5
357
100
AcDbEntity
  8
0
100
AcDbSpline
 62
7
  6
CONTINUOUS
 70
0
 71
3
 72
45
 73
41
 74
0
 42
0.0000001
 43
0.0000001
 44
0.0000000001
 40
0.0
 40
0.0
 40
0.0
 40
0.0
 40
0.0309549034
 40
0.0620432811
 40
0.0932611254
 40
0.1246017213
 40
0.15605678
 40
0.1876161421
 40
0.2192680867
 40
0.2509994878
 40
0.2827960299
 40
0.3146424271
 40
0.3465226554
 40
0.3784201916
 40
0.410318258
 40
0.4422000689
 40
0.4740490782
 40
0.5058492232
 40
0.5375851649
 40
0.5692425193
 40
0.6008080802
 40
0.6322700272
 40
0.6636181184
 40
0.6948438641
 40
0.7259406782
 40
0.7569040047
 40
0.7877314155
 40
0.8184226775
 40
0.833719794
 40
0.8489838096
 40
0.8642153207
 40
0.8794150599
 40
0.8945838973
 40
0.9097228295
 40
0.9248329874
 40
0.9399156194
 40
0.9549720991
 40
0.9700039099
 40
0.9850126451
 40
1.0
 40
1.0
 40
1.0
 40
1.0
 10
11.7307248288
 20
6.3336069397
 30
0.0
 10
11.7129917053
 20
6.334836736
 30
0.0
 10
11.6775174436
 20
6.3384343689
 30
0.0
 10
11.6246488251
 20
6.3471863524
 30
0.0
 10
11.5722117358
 20
6.3592702074
 30
0.0
 10
11.5204223072
 20
6.3746364196
 30
0.0
 10
11.4694905807
 20
6.3932221189
 30
0.0
 10
11.4196239361
 20
6.4149514662
 30
0.0
 10
11.3710251665
 20
6.4397358232
 30
0.0
 10
11.3238919569
 20
6.4674741822
 30
0.0
 10
11.2784160067
 20
6.4980535528
 30
0.0
 10
11.2347822758
 20
6.5313494198
 30
0.0
 10
11.1931682302
 20
6.5672262461
 30
0.0
 10
11.1537431346
 20
6.6055380302
 30
0.0
 10
11.1166673678
 20
6.646128894
 30
0.0
 10
11.0820917762
 20
6.6888337125
 30
0.0
 10
11.0501570646
 20
6.7334787805
 30
0.0
 10
11.0209932282
 20
6.7798825121
 30
0.0
 10
10.9947190264
 20
6.8278561735
 30
0.0
 10
10.9714415024
 20
6.8772046432
 30
0.0
 10
10.9512555356
 20
6.9277271919
 30
0.0
 10
10.9342434675
 20
6.9792183021
 30
0.0
 10
10.9204747649
 20
7.0314684823
 30
0.0
 10
10.9100057397
 20
7.0842651569
 30
0.0
 10
10.9028792947
 20
7.1373933486
 30
0.0
 10
10.8991248197
 20
7.1906371853
 30
0.0
 10
10.8987577769
 20
7.2437783936
 30
0.0
 10
10.9012796939
 20
7.2878507171
 30
0.0
 10
10.9049906894
 20
7.3228334138
 30
0.0
 10
10.9086122482
 20
7.3488839579
 30
0.0
 10
10.9130714179
 20
7.3747472769
 30
0.0
 10
10.9183636126
 20
7.4003973754
 30
0.0
 10
10.9244834279
 20
7.4258080307
 30
0.0
 10
10.9314247449
 20
7.4509533467
 30
0.0
 10
10.9391803267
 20
7.4758077398
 30
0.0
 10
10.9477425056
 20
7.50034582
 30
0.0
 10
10.957102317
 20
7.5245426355
 30
0.0
 10
10.9672505024
 20
7.548373534
 30
0.0
 10
10.9781763624
 20
7.57181396
 30
0.0
 10
10.9859771065
 20
7.5871758105
 30
0.0
 10
10.9900029428
 20
7.5947825929
 30
0.0
  0
SPLINE
  5
358
100
AcDbEntity
  8
0
100
AcDbSpline
 62
7
  6
CONTINUOUS
 70
0
 71
3
 72
45
 73
41
 74
0
 42
0.0000001
 43
0.0000001
 44
0.0000000001
 40
0.0
 40
0.0
 40
0.0
 40
0.0
 40
0.0309847264
 40
0.0621059086
 40
0.0933592891
 40
0.1247377316
 40
0.1562324217
 40
0.1878325644
 40
0.2195257165
 40
0.2512979625
 40
0.2831341508
 40
0.3150181364
 40
0.3469330351
 40
0.3788614873
 40
0.4107859247
 40
0.442688841
 40
0.4745530608
 40
0.5063620054
 40
0.5380999521
 40
0.5697522845
 40
0.6013057297
 40
0.63274858
 40
0.6640708948
 40
0.6952646802
 40
0.7263240427
 40
0.757245313
 40
0.7880271361
 40
0.8186705262
 40
0.8339433911
 40
0.8491831205
 40
0.864390509
 40
0.8795664892
 40
0.8947121403
 40
0.90982867
 40
0.9249174243
 40
0.9399798697
 40
0.9550175957
 40
0.9700323049
 40
0.9850258035
 40
1.0
 40
1.0
 40
1.0
 40
1.0
 10
11.7307248288
 20
6.3587210127
 30
0.0
 10
11.7131469466
 20
6.359940043
 30
0.0
 10
11.677982907
 20
6.3635312185
 30
0.0
 10
11.6255891897
 20
6.3723166828
 30
0.0
 10
11.5736422819
 20
6.3844756759
 30
0.0
 10
11.5223658347
 20
6.3999561526
 30
0.0
 10
11.4719770699
 20
6.418691947
 30
0.0
 10
11.4226902935
 20
6.4406031986
 30
0.0
 10
11.3747148648
 20
6.4655965452
 30
0.0
 10
11.3282546228
 20
6.4935655913
 30
0.0
 10
11.283506945
 20
6.5243913351
 30
0.0
 10
11.240661932
 20
6.5579426676
 30
0.0
 10
11.1999016046
 20
6.5940769341
 30
0.0
 10
11.1613991425
 20
6.6326405416
 30
0.0
 10
11.1253181538
 20
6.6734696053
 30
0.0
 10
11.091811986
 20
6.7163906397
 30
0.0
 10
11.0610230797
 20
6.7612212891
 30
0.0
 10
11.0330823671
 20
6.8077710951
 30
0.0
 10
11.0081087209
 20
6.8558422994
 30
0.0
 10
10.9862084401
 20
6.9052306698
 30
0.0
 10
10.9674747994
 20
6.9557263621
 30
0.0
 10
10.9519876628
 20
7.0071148098
 30
0.0
 10
10.9398131373
 20
7.0591776118
 30
0.0
 10
10.9310032977
 20
7.1116934987
 30
0.0
 10
10.9255959284
 20
7.1644390833
 30
0.0
 10
10.9236144653
 20
7.2171904644
 30
0.0
 10
10.9250674759
 20
7.2697217067
 30
0.0
 10
10.9291409585
 20
7.3131818926
 30
0.0
 10
10.9341083308
 20
7.3476082598
 30
0.0
 10
10.9386778352
 20
7.3732083091
 30
0.0
 10
10.9440902556
 20
7.3985869027
 30
0.0
 10
10.9503399589
 20
7.4237173675
 30
0.0
 10
10.9574201283
 20
7.4485728987
 30
0.0
 10
10.9653234665
 20
7.473126998
 30
0.0
 10
10.9740413249
 20
7.4973535937
 30
0.0
 10
10.9835646672
 20
7.5212268219
 30
0.0
 10
10.9938831699
 20
7.5447213075
 30
0.0
 10
11.0049860223
 20
7.5678120842
 30
0.0
 10
11.0168611751
 20
7.5904742308
 30
0.0
 10
11.0252899388
 20
7.6052902444
 30
0.0
 10
11.0296282651
 20
7.6126176382
 30
0.0
  0
SPLINE
  5
359
100
AcDbEntity
  8
0
100
AcDbSpline
 62
7
  6
CONTINUOUS
 70
0
 71
3
 72
102
 73
98
 74
0
 42
0.0000001
 43
0.0000001
 44
0.0000000001
 40
0.0
 40
0.0
 40
0.0
 40
0.0
 40
0.0030900819
 40
0.0062841356
 40
0.0095959114
 40
0.0130376993
 40
0.016620308
 40
0.0203529883
 40
0.0242435846
 40
0.0282987272
 40
0.0325239365
 40
0.0369237834
 40
0.0415019258
 40
0.0462612956
 40
0.0512040985
 40
0.0563319738
 40
0.0616459876
 40
0.0671467429
 40
0.0728343999
 40
0.0787087206
 40
0.0847691299
 40
0.091014698
 40
0.0974442378
 40
0.1040562447
 40
0.1108490078
 40
0.1178205407
 40
0.1249686745
 40
0.1322910129
 40
0.1397849824
 40
0.1474478309
 40
0.1552766259
 40
0.1632682993
 40
0.1797269469
 40
0.1967965025
 40
0.2144473797
 40
0.2326481291
 40
0.2513656115
 40
0.2705651545
 40
0.290210696
 40
0.31026492
 40
0.3306893852
 40
0.3514446488
 40
0.3724903863
 40
0.3937855079
 40
0.4152882733
 40
0.4369564048
 40
0.4587471993
 40
0.4806176396
 40
0.502524505
 40
0.5244244818
 40
0.546274274
 40
0.5680307139
 40
0.589650872
 40
0.6110921686
 40
0.6323124846
 40
0.6532702741
 40
0.673924678
 40
0.6942356393
 40
0.7141640203
 40
0.733671724
 40
0.7527218195
 40
0.7712786718
 40
0.7893080799
 40
0.8067774242
 40
0.8236558279
 40
0.831864417
 40
0.8399145742
 40
0.8478030246
 40
0.8555266257
 40
0.863082394
 40
0.8704675192
 40
0.8776793452
 40
0.8847154326
 40
0.8915735006
 40
0.8982515243
 40
0.9047476617
 40
0.9110603562
 40
0.9171882831
 40
0.9231304276
 40
0.9288860792
 40
0.934454867
 40
0.9398368164
 40
0.9450323418
 40
0.950042362
 40
0.9548682702
 40
0.9595120876
 40
0.9639764461
 40
0.9682647507
 40
0.9723812117
 40
0.9763309924
 40
0.9801203107
 40
0.9837565601
 40
0.9872484719
 40
0.9906062002
 40
0.9938414961
 40
0.9969677334
 40
1.0
 40
1.0
 40
1.0
 40
1.0
 10
13.7797618968
 20
9.9951890354
 30
0.0
 10
13.778670333
 20
9.997873548
 30
0.0
 10
13.7762355738
 20
10.00324772
 30
0.0
 10
13.7719340786
 20
10.0111602857
 30
0.0
 10
13.766930852
 20
10.0190422558
 30
0.0
 10
13.7612296071
 20
10.026889102
 30
0.0
 10
13.7548336265
 20
10.0346973745
 30
0.0
 10
13.7477465707
 20
10.0424634668
 30
0.0
 10
13.7399722847
 20
10.0501837064
 30
0.0
 10
13.7315148816
 20
10.0578543003
 30
0.0
 10
13.7223788747
 20
10.0654715987
 30
0.0
 10
13.7125689522
 20
10.0730317163
 30
0.0
 10
13.7020902971
 20
10.0805309919
 30
0.0
 10
13.6909482799
 20
10.0879654715
 30
0.0
 10
13.6791487694
 20
10.0953314763
 30
0.0
 10
13.6666978642
 20
10.1026250902
 30
0.0
 10
13.6536021035
 20
10.1098426047
 30
0.0
 10
13.6398683192
 20
10.1169802042
 30
0.0
 10
13.6255037153
 20
10.1240341564
 30
0.0
 10
13.6105158384
 20
10.1310007807
 30
0.0
 10
13.5949125514
 20
10.1378763461
 30
0.0
 10
13.5787020864
 20
10.1446573101
 30
0.0
 10
13.5618929587
 20
10.1513399837
 30
0.0
 10
13.5444940545
 20
10.1579209432
 30
0.0
 10
13.5265145322
 20
10.1643965945
 30
0.0
 10
13.5079639014
 20
10.1707636021
 30
0.0
 10
13.4888519482
 20
10.1770185159
 30
0.0
 10
13.4691887803
 20
10.1831580667
 30
0.0
 10
13.4489847875
 20
10.18917898
 30
0.0
 10
13.4282506593
 20
10.1950780445
 30
0.0
 10
13.4069973454
 20
10.2008521933
 30
0.0
 10
13.3776948888
 20
10.2084548078
 30
0.0
 10
13.3398443258
 20
10.2176077536
 30
0.0
 10
13.2929698353
 20
10.2279407901
 30
0.0
 10
13.2443064342
 20
10.2377060503
 30
0.0
 10
13.1939571655
 20
10.2468827171
 30
0.0
 10
13.1420284501
 20
10.2554512165
 30
0.0
 10
13.0886301638
 20
10.2633932799
 30
0.0
 10
13.0338753093
 20
10.2706919774
 30
0.0
 10
12.9778797948
 20
10.2773317562
 30
0.0
 10
12.9207621761
 20
10.2832984703
 30
0.0
 10
12.8626434024
 20
10.2885794103
 30
0.0
 10
12.8036465563
 20
10.2931633296
 30
0.0
 10
12.7438965906
 20
10.2970404671
 30
0.0
 10
12.6835200618
 20
10.3002025681
 30
0.0
 10
12.6226448602
 20
10.3026429003
 30
0.0
 10
12.5613999376
 20
10.3043562687
 30
0.0
 10
12.4999150327
 20
10.3053390255
 30
0.0
 10
12.4383203955
 20
10.3055890779
 30
0.0
 10
12.3767465094
 20
10.3051058941
 30
0.0
 10
12.3153238135
 20
10.3038905034
 30
0.0
 10
12.2541824248
 20
10.3019454933
 30
0.0
 10
12.1934518615
 20
10.2992750045
 30
0.0
 10
12.1332607675
 20
10.2958847219
 30
0.0
 10
12.0737366384
 20
10.2917818633
 30
0.0
 10
12.0150055501
 20
10.2869751644
 30
0.0
 10
11.9571918899
 20
10.2814748607
 30
0.0
 10
11.900418091
 20
10.2752926665
 30
0.0
 10
11.8448043695
 20
10.2684417508
 30
0.0
 10
11.7904684671
 20
10.2609367102
 30
0.0
 10
11.7375253908
 20
10.252793541
 30
0.0
 10
11.6860871862
 20
10.2440296017
 30
0.0
 10
11.6362626145
 20
10.2346635833
 30
0.0
 10
11.5881571973
 20
10.2247154481
 30
0.0
 10
11.5492345465
 20
10.2158781234
 30
0.0
 10
11.5190406261
 20
10.2085211176
 30
0.0
 10
11.4970973411
 20
10.2029223507
 30
0.0
 10
11.4756578372
 20
10.1971944933
 30
0.0
 10
11.4547334392
 20
10.1913405444
 30
0.0
 10
11.4343352232
 20
10.1853636062
 30
0.0
 10
11.4144739708
 20
10.1792668871
 30
0.0
 10
11.3951601914
 20
10.1730535571
 30
0.0
 10
11.3764040808
 20
10.1667269982
 30
0.0
 10
11.3582155634
 20
10.1602904632
 30
0.0
 10
11.3406042257
 20
10.1537474709
 30
0.0
 10
11.3235793801
 20
10.1471013842
 30
0.0
 10
11.3071499879
 20
10.1403558095
 30
0.0
 10
11.2913247199
 20
10.1335142482
 30
0.0
 10
11.2761119002
 20
10.1265803494
 30
0.0
 10
11.2615195271
 20
10.1195577674
 30
0.0
 10
11.2475552771
 20
10.1124501632
 30
0.0
 10
11.2342264483
 20
10.1052613354
 30
0.0
 10
11.2215400576
 20
10.097994944
 30
0.0
 10
11.209502685
 20
10.0906548949
 30
0.0
 10
11.1981206703
 20
10.0832448537
 30
0.0
 10
11.1873998762
 20
10.0757687656
 30
0.0
 10
11.1773459418
 20
10.0682303205
 30
0.0
 10
11.1679640424
 20
10.0606334173
 30
0.0
 10
11.1592591014
 20
10.0529817786
 30
0.0
 10
11.1512356682
 20
10.0452791837
 30
0.0
 10
11.1438979682
 20
10.0375293743
 30
0.0
 10
11.1372500274
 20
10.0297359829
 30
0.0
 10
11.131295448
 20
10.0219027483
 30
0.0
 10
11.1260378805
 20
10.0140332706
 30
0.0
 10
11.121480393
 20
10.0061311743
 30
0.0
 10
11.1176265461
 20
9.9982008748
 30
0.0
 10
11.1154990933
 20
9.9928239212
 30
0.0
 10
11.1145608378
 20
9.9901394326
 30
0.0
  0
SPLINE
  5
35A
100
AcDbEntity
  8
0
100
AcDbSpline
 62
7
  6
CONTINUOUS
 70
0
 71
3
 72
41
 73
37
 74
0
 42
0.0000001
 43
0.0000001
 44
0.0000000001
 40
0.0
 40
0.0
 40
0.0
 40
0.0
 40
0.0310022413
 40
0.0621426337
 40
0.0934167844
 40
0.1248173062
 40
0.156335073
 40
0.1879589182
 40
0.2196759739
 40
0.2514718622
 40
0.2833309432
 40
0.3152365715
 40
0.3471713648
 40
0.3791174808
 40
0.4110568991
 40
0.4429717044
 40
0.4748443694
 40
0.5066580332
 40
0.5383967726
 40
0.5700458624
 40
0.6015920214
 40
0.6330236409
 40
0.6643309924
 40
0.6955064095
 40
0.7265444422
 40
0.7574419784
 40
0.7881983287
 40
0.8188152715
 40
0.8492970549
 40
0.8796503544
 40
0.9098841827
 40
0.9400097534
 40
0.955038281
 40
0.9700448616
 40
0.9850314265
 40
1.0
 40
1.0
 40
1.0
 40
1.0
 10
11.7401388634
 20
6.388098716
 30
0.0
 10
11.722791565
 20
6.3893017553
 30
0.0
 10
11.6880886171
 20
6.3928599213
 30
0.0
 10
11.6363890897
 20
6.4015921127
 30
0.0
 10
11.5851414241
 20
6.4136934008
 30
0.0
 10
11.5345717179
 20
6.4291107052
 30
0.0
 10
11.4848995005
 20
6.4477764972
 30
0.0
 10
11.4363412563
 20
6.4696092437
 30
0.0
 10
11.3891083521
 20
6.4945136176
 30
0.0
 10
11.3434064393
 20
6.522380984
 30
0.0
 10
11.2994344711
 20
6.5530898323
 30
0.0
 10
11.2573838705
 20
6.5865063175
 30
0.0
 10
11.2174377045
 20
6.6224848487
 30
0.0
 10
11.1797698954
 20
6.6608687161
 30
0.0
 10
11.1445444706
 20
6.7014907688
 30
0.0
 10
11.1119148545
 20
6.7441741356
 30
0.0
 10
11.082023207
 20
6.7887329894
 30
0.0
 10
11.0549998036
 20
6.8349733443
 30
0.0
 10
11.0309624576
 20
6.8826938872
 30
0.0
 10
11.010016027
 20
6.9316868579
 30
0.0
 10
10.9922519565
 20
6.9817389418
 30
0.0
 10
10.9777478797
 20
7.0326321885
 30
0.0
 10
10.9665672782
 20
7.0841449494
 30
0.0
 10
10.9587592
 20
7.1360528316
 30
0.0
 10
10.9543580409
 20
7.1881296636
 30
0.0
 10
10.9533833639
 20
7.2401484727
 30
0.0
 10
10.9558398114
 20
7.2918824572
 30
0.0
 10
10.961717099
 20
7.3431060138
 30
0.0
 10
10.9709899566
 20
7.3935955438
 30
0.0
 10
10.9836185384
 20
7.4431310658
 30
0.0
 10
10.9995473965
 20
7.4914948067
 30
0.0
 10
11.0155296542
 20
7.5306826674
 30
0.0
 10
11.0298876573
 20
7.56122551
 30
0.0
 10
11.041423337
 20
7.5836951673
 30
0.0
 10
11.0537209234
 20
7.605717848
 30
0.0
 10
11.062423713
 20
7.620094725
 30
0.0
 10
11.0668970191
 20
7.6271995576
 30
0.0
  0
SPLINE
  5
35B
100
AcDbEntity
  8
0
100
AcDbSpline
 62
7
  6
CONTINUOUS
 70
0
 71
3
 72
43
 73
39
 74
0
 42
0.0000001
 43
0.0000001
 44
0.0000000001
 40
0.0
 40
0.0
 40
0.0
 40
0.0
 40
0.0309458716
 40
0.0620243187
 40
0.0932313652
 40
0.1245604432
 40
0.1560034217
 40
0.1875503318
 40
0.219189673
 40
0.2509085586
 40
0.282692928
 40
0.3145277579
 40
0.3463972879
 40
0.3782852523
 40
0.4101751176
 40
0.4420503228
 40
0.4738945201
 40
0.5056918124
 40
0.5374269875
 40
0.5690857446
 40
0.6006549107
 40
0.6321226458
 40
0.663478632
 40
0.6947142449
 40
0.7258227047
 40
0.7567992025
 40
0.7876410008
 40
0.8183475033
 40
0.8336524017
 40
0.8489242511
 40
0.8641635946
 40
0.879371101
 40
0.9096899045
 40
0.9398926599
 40
0.9549556264
 40
0.9699934711
 40
0.9850077185
 40
1.0
 40
1.0
 40
1.0
 40
1.0
 10
11.8114763042
 20
6.4570053965
 30
0.0
 10
11.7948263871
 20
6.4581600722
 30
0.0
 10
11.7615191097
 20
6.4615305819
 30
0.0
 10
11.7118763732
 20
6.4697155436
 30
0.0
 10
11.6626332718
 20
6.4810079941
 30
0.0
 10
11.613990014
 20
6.495362283
 30
0.0
 10
11.5661411819
 20
6.5127204881
 30
0.0
 10
11.5192789461
 20
6.533012746
 30
0.0
 10
11.4735912815
 20
6.5561574072
 30
0.0
 10
11.4292614952
 20
6.5820614325
 30
0.0
 10
11.3864674217
 20
6.6106207382
 30
0.0
 10
11.3453807384
 20
6.6417206228
 30
0.0
 10
11.3061662766
 20
6.6752362212
 30
0.0
 10
11.2689813681
 20
6.7110330048
 30
0.0
 10
11.2339752139
 20
6.7489673129
 30
0.0
 10
11.2012882935
 20
6.7888869293
 30
0.0
 10
11.1710518052
 20
6.8306316894
 30
0.0
 10
11.143387144
 20
6.8740341175
 30
0.0
 10
11.1184054166
 20
6.9189200927
 30
0.0
 10
11.0962069983
 20
6.9651095419
 30
0.0
 10
11.0768811309
 20
7.0124171541
 30
0.0
 10
11.0605055654
 20
7.0606531199
 30
0.0
 10
11.0471462473
 20
7.1096238741
 30
0.0
 10
11.0368570551
 20
7.1591329066
 30
0.0
 10
11.0296795608
 20
7.2089813846
 30
0.0
 10
11.0256429253
 20
7.2589695317
 30
0.0
 10
11.0247635031
 20
7.3088952364
 30
0.0
 10
11.0266675253
 20
7.3503311784
 30
0.0
 10
11.0297712999
 20
7.3832414797
 30
0.0
 10
11.0328823011
 20
7.407759125
 30
0.0
 10
11.0367756449
 20
7.4321115974
 30
0.0
 10
11.0429978432
 20
7.4642928866
 30
0.0
 10
11.0527066656
 20
7.5039966864
 30
0.0
 10
11.0649789747
 20
7.5429033308
 30
0.0
 10
11.0762927113
 20
7.5734006451
 30
0.0
 10
11.0855101034
 20
7.5959240275
 30
0.0
 10
11.0954568894
 20
7.6180926065
 30
0.0
 10
11.1025730522
 20
7.632631361
 30
0.0
 10
11.1062490025
 20
7.6398331893
 30
0.0
  0
SPLINE
  5
35C
100
AcDbEntity
  8
0
100
AcDbSpline
 62
7
  6
CONTINUOUS
 70
0
 71
3
 72
45
 73
41
 74
0
 42
0.0000001
 43
0.0000001
 44
0.0000000001
 40
0.0
 40
0.0
 40
0.0
 40
0.0
 40
0.0309940926
 40
0.0621256184
 40
0.0933901778
 40
0.1247805253
 40
0.1562876746
 40
0.1879006226
 40
0.2196066948
 40
0.2513917201
 40
0.283240279
 40
0.3151359509
 40
0.3470615773
 40
0.378999532
 40
0.4109319968
 40
0.4428412388
 40
0.4747098877
 40
0.5065212078
 40
0.5382593645
 40
0.5699096791
 40
0.6014588715
 40
0.6328952856
 40
0.6642090941
 40
0.6953924803
 40
0.7264397914
 40
0.7573476614
 40
0.7881150984
 40
0.8187435345
 40
0.8340088885
 40
0.8492411418
 40
0.8644411554
 40
0.8796099266
 40
0.894748603
 40
0.9098584607
 40
0.9249409152
 40
0.9399975027
 40
0.9550298824
 40
0.9700398255
 40
0.9850292065
 40
1.0
 40
1.0
 40
1.0
 40
1.0
 10
11.8321818107
 20
6.5542794519
 30
0.0
 10
11.8166247031
 20
6.5553583409
 30
0.0
 10
11.7855030523
 20
6.5585436634
 30
0.0
 10
11.7391359621
 20
6.5663498598
 30
0.0
 10
11.6931697048
 20
6.5771615212
 30
0.0
 10
11.6478048989
 20
6.5909317229
 30
0.0
 10
11.6032363329
 20
6.6076008088
 30
0.0
 10
11.559656146
 20
6.6270967575
 30
0.0
 10
11.51725198
 20
6.6493353598
 30
0.0
 10
11.4762064575
 20
6.6742206547
 30
0.0
 10
11.4366963258
 20
6.7016453121
 30
0.0
 10
11.3988917261
 20
6.7314911041
 30
0.0
 10
11.3629554609
 20
6.7636294084
 30
0.0
 10
11.3290423021
 20
6.7979217595
 30
0.0
 10
11.297298326
 20
6.834220438
 30
0.0
 10
11.2678602891
 20
6.8723691029
 30
0.0
 10
11.2408550458
 20
6.9122034624
 30
0.0
 10
11.216399006
 20
6.9535519743
 30
0.0
 10
11.1945976355
 20
6.9962365782
 30
0.0
 10
11.1755450048
 20
7.0400734547
 30
0.0
 10
11.1593233835
 20
7.0848738086
 30
0.0
 10
11.1460028863
 20
7.1304446757
 30
0.0
 10
11.1356411667
 20
7.1765897335
 30
0.0
 10
11.1282831723
 20
7.2231101808
 30
0.0
 10
11.1239609157
 20
7.2698054243
 30
0.0
 10
11.1226934383
 20
7.3164745297
 30
0.0
 10
11.1244863011
 20
7.3629148721
 30
0.0
 10
11.1285298681
 20
7.4013053318
 30
0.0
 10
11.1332847127
 20
7.4316955275
 30
0.0
 10
11.1376012196
 20
7.4542838032
 30
0.0
 10
11.1426669595
 20
7.4766658837
 30
0.0
 10
11.1484766927
 20
7.4988179012
 30
0.0
 10
11.1550239185
 20
7.5207159264
 30
0.0
 10
11.1623018474
 20
7.5423362748
 30
0.0
 10
11.170302369
 20
7.5636556937
 30
0.0
 10
11.1790171113
 20
7.5846510918
 30
0.0
 10
11.1884364537
 20
7.6052998717
 30
0.0
 10
11.1985504539
 20
7.6255797583
 30
0.0
 10
11.2093479028
 20
7.6454686077
 30
0.0
 10
11.2169989944
 20
7.65846104
 30
0.0
 10
11.2209340256
 20
7.6648839227
 30
0.0
  0
SPLINE
  5
35D
100
AcDbEntity
  8
0
100
AcDbSpline
 62
7
  6
CONTINUOUS
 70
0
 71
3
 72
35
 73
31
 74
0
 42
0.0000001
 43
0.0000001
 44
0.0000000001
 40
0.0
 40
0.0
 40
0.0
 40
0.0
 40
0.0308202975
 40
0.0617171411
 40
0.0926876204
 40
0.123728537
 40
0.1548361463
 40
0.1860063335
 40
0.2172346354
 40
0.248516232
 40
0.279846
 40
0.3112185421
 40
0.3740582858
 40
0.4369988397
 40
0.4999903561
 40
0.5629818319
 40
0.5944669789
 40
0.6259330617
 40
0.6573739023
 40
0.6887834589
 40
0.7201558724
 40
0.7514854996
 40
0.7827669352
 40
0.813995059
 40
0.8451650607
 40
0.876272461
 40
0.907313157
 40
0.9382834369
 40
0.9691800009
 40
1.0
 40
1.0
 40
1.0
 40
1.0
 10
12.1939758132
 20
7.0082123663
 30
0.0
 10
12.184683011
 20
7.0101101532
 30
0.0
 10
12.1661460305
 20
7.0142716655
 30
0.0
 10
12.1385701246
 20
7.0215891669
 30
0.0
 10
12.1112297483
 20
7.0299785197
 30
0.0
 10
12.0841683819
 20
7.0394265075
 30
0.0
 10
12.0574283419
 20
7.0499183393
 30
0.0
 10
12.0310516062
 20
7.061437409
 30
0.0
 10
12.0050795716
 20
7.0739657467
 30
0.0
 10
11.979553107
 20
7.0874835765
 30
0.0
 10
11.9545118091
 20
7.1019698934
 30
0.0
 10
11.9218093635
 20
7.1225543205
 30
0.0
 10
11.8823435419
 20
7.1505906555
 30
0.0
 10
11.8375681345
 20
7.1876845646
 30
0.0
 10
11.7956230981
 20
7.2280185361
 30
0.0
 10
11.7632374708
 20
7.2641311799
 30
0.0
 10
11.7389972064
 20
7.2943820351
 30
0.0
 10
11.7216805103
 20
7.317712922
 30
0.0
 10
11.7052542903
 20
7.3416504201
 30
0.0
 10
11.6897440827
 20
7.3661574093
 30
0.0
 10
11.6751742274
 20
7.3911952599
 30
0.0
 10
11.6615675877
 20
7.4167247205
 30
0.0
 10
11.6489456336
 20
7.4427057673
 30
0.0
 10
11.6373280667
 20
7.4690975703
 30
0.0
 10
11.6267331728
 20
7.4958587295
 30
0.0
 10
11.6171776775
 20
7.5229472853
 30
0.0
 10
11.6086764777
 20
7.5503206383
 30
0.0
 10
11.6012429661
 20
7.5779359988
 30
0.0
 10
11.5948890084
 20
7.6057494828
 30
0.0
 10
11.5913745823
 20
7.6244197774
 30
0.0
 10
11.5898011655
 20
7.6337728725
 30
0.0
  0
SPLINE
  5
35E
100
AcDbEntity
  8
0
100
AcDbSpline
 62
7
  6
CONTINUOUS
 70
0
 71
3
 72
26
 73
22
 74
0
 42
0.0000001
 43
0.0000001
 44
0.0000000001
 40
0.0
 40
0.0
 40
0.0
 40
0.0
 40
0.0308876139
 40
0.0618412546
 40
0.0928581293
 40
0.1239350675
 40
0.1550686263
 40
0.1862551053
 40
0.248761601
 40
0.3114292687
 40
0.374220569
 40
0.4370956199
 40
0.5000129603
 40
0.5629303343
 40
0.6258054842
 40
0.6885969463
 40
0.7512648364
 40
0.8137716122
 40
0.8760828045
 40
0.9381677046
 40
1.0
 40
1.0
 40
1.0
 40
1.0
 10
12.1742061587
 20
7.0708171387
 30
0.0
 10
12.1663393155
 20
7.0728817725
 30
0.0
 10
12.1506598829
 20
7.0772918517
 30
0.0
 10
12.1273625956
 20
7.0847300532
 30
0.0
 10
12.1042902438
 20
7.0929891484
 30
0.0
 10
12.081473374
 20
7.1020584081
 30
0.0
 10
12.0589411771
 20
7.1119260437
 30
0.0
 10
12.0292982098
 20
7.1261393083
 30
0.0
 10
11.9931046449
 20
7.1458390635
 30
0.0
 10
11.9513099564
 20
7.172420917
 30
0.0
 10
11.9113304865
 20
7.2018276008
 30
0.0
 10
11.8733752653
 20
7.2339055592
 30
0.0
 10
11.8376410517
 20
7.2684882373
 30
0.0
 10
11.8043135823
 20
7.3053959029
 30
0.0
 10
11.773566018
 20
7.3444368595
 30
0.0
 10
11.745558186
 20
7.3854083007
 30
0.0
 10
11.7204356861
 20
7.428097478
 30
0.0
 10
11.6983292725
 20
7.4722824533
 30
0.0
 10
11.6793538559
 20
7.5177345687
 30
0.0
 10
11.6636090719
 20
7.5642146468
 30
0.0
 10
11.6553014368
 20
7.5958013403
 30
0.0
 10
11.6517148899
 20
7.6116829496
 30
0.0
  0
SPLINE
  5
35F
100
AcDbEntity
  8
0
100
AcDbSpline
 62
7
  6
CONTINUOUS
 70
0
 71
3
 72
52
 73
48
 74
0
 42
0.0000001
 43
0.0000001
 44
0.0000000001
 40
0.0
 40
0.0
 40
0.0
 40
0.0
 40
0.0417975951
 40
0.0840616288
 40
0.1266599
 40
0.1694646819
 40
0.2123442235
 40
0.2551675716
 40
0.2978037564
 40
0.3401225587
 40
0.3819950468
 40
0.4232940448
 40
0.4638946794
 40
0.5036749394
 40
0.5425162168
 40
0.5803038545
 40
0.6169277287
 40
0.6522828762
 40
0.6862702207
 40
0.7187973048
 40
0.7497791232
 40
0.7646666939
 40
0.7791400459
 40
0.7931910474
 40
0.8068124878
 40
0.8199977024
 40
0.8327409898
 40
0.8450375569
 40
0.8568834717
 40
0.8682761438
 40
0.8792139942
 40
0.8896969854
 40
0.8997266536
 40
0.9093062033
 40
0.9184411394
 40
0.9271391328
 40
0.9354107775
 40
0.9432698769
 40
0.9507338665
 40
0.9578247066
 40
0.9645691138
 40
0.9709994856
 40
0.9771542525
 40
0.9830781055
 40
0.9888220386
 40
0.9944424568
 40
1.0
 40
1.0
 40
1.0
 40
1.0
 10
14.3289628123
 20
11.0874956729
 30
0.0
 10
14.3225779556
 20
11.0879384643
 30
0.0
 10
14.3097296985
 20
11.0887269041
 30
0.0
 10
14.2903548116
 20
11.0896167831
 30
0.0
 10
14.2708145079
 20
11.0902186031
 30
0.0
 10
14.2511731899
 20
11.0905304514
 30
0.0
 10
14.2314949427
 20
11.0905512487
 30
0.0
 10
14.2118443579
 20
11.0902809404
 30
0.0
 10
14.192285797
 20
11.0897204193
 30
0.0
 10
14.1728833492
 20
11.0888715398
 30
0.0
 10
14.1537005862
 20
11.0877371057
 30
0.0
 10
14.1348003549
 20
11.0863208596
 30
0.0
 10
14.1162445721
 20
11.0846274715
 30
0.0
 10
14.0980940117
 20
11.0826625423
 30
0.0
 10
14.0804081029
 20
11.0804325706
 30
0.0
 10
14.0632447389
 20
11.0779449299
 30
0.0
 10
14.0466600803
 20
11.0752078473
 30
0.0
 10
14.0307083758
 20
11.0722303703
 30
0.0
 10
14.0154417087
 20
11.0690223693
 30
0.0
 10
14.0009100171
 20
11.0655944512
 30
0.0
 10
13.9893029468
 20
11.0625247354
 30
0.0
 10
13.9804257156
 20
11.0599603196
 30
0.0
 10
13.9740690981
 20
11.0580147811
 30
0.0
 10
13.9679303147
 20
11.056022994
 30
0.0
 10
13.9620143562
 20
11.0539866537
 30
0.0
 10
13.9563260611
 20
11.051907375
 30
0.0
 10
13.9508700623
 20
11.0497868801
 30
0.0
 10
13.9456507911
 20
11.0476269377
 30
0.0
 10
13.9406725113
 20
11.0454292369
 30
0.0
 10
13.9359392338
 20
11.0431956594
 30
0.0
 10
13.9314548099
 20
11.0409279472
 30
0.0
 10
13.9272228532
 20
11.0386279569
 30
0.0
 10
13.9232467497
 20
11.0362975699
 30
0.0
 10
13.9195297291
 20
11.033938554
 30
0.0
 10
13.9160747083
 20
11.0315528673
 30
0.0
 10
13.9128844825
 20
11.0291422704
 30
0.0
 10
13.90996158
 20
11.0267086211
 30
0.0
 10
13.9073083069
 20
11.0242537497
 30
0.0
 10
13.9049268982
 20
11.0217793242
 30
0.0
 10
13.9028192518
 20
11.0192871707
 30
0.0
 10
13.9009873334
 20
11.0167788815
 30
0.0
 10
13.8994329149
 20
11.0142561822
 30
0.0
 10
13.8981577058
 20
11.0117208268
 30
0.0
 10
13.8971635633
 20
11.0091746942
 30
0.0
 10
13.8964519428
 20
11.0066199229
 30
0.0
 10
13.896024386
 20
11.0040594188
 30
0.0
 10
13.8959291453
 20
11.0023463288
 30
0.0
 10
13.8959291527
 20
11.0014953386
 30
0.0
  0
SPLINE
  5
360
100
AcDbEntity
  8
0
100
AcDbSpline
 62
7
  6
CONTINUOUS
 70
0
 71
3
 72
39
 73
35
 74
0
 42
0.0000001
 43
0.0000001
 44
0.0000000001
 40
0.0
 40
0.0
 40
0.0
 40
0.0
 40
0.0172604065
 40
0.0342919625
 40
0.0511615669
 40
0.0679481911
 40
0.0847449645
 40
0.1016618123
 40
0.1188263732
 40
0.1363854352
 40
0.1545055271
 40
0.1733722108
 40
0.1931896658
 40
0.2141778918
 40
0.2365708771
 40
0.2606112477
 40
0.2865452679
 40
0.3146125784
 40
0.3450334017
 40
0.3779904848
 40
0.4136046253
 40
0.4519062865
 40
0.4928084851
 40
0.5360889849
 40
0.5813896595
 40
0.6282398767
 40
0.6761009928
 40
0.7244191072
 40
0.7726740135
 40
0.8204127261
 40
0.8672651139
 40
0.9129433442
 40
0.9572393768
 40
1.0
 40
1.0
 40
1.0
 40
1.0
 10
11.4373038614
 20
7.1602214176
 30
0.0
 10
11.4383725796
 20
7.160415192
 30
0.0
 10
11.4404837795
 20
7.1608714404
 30
0.0
 10
11.4435761798
 20
7.1617770211
 30
0.0
 10
11.4465631452
 20
7.162905163
 30
0.0
 10
11.4494366719
 20
7.1642636673
 30
0.0
 10
11.4521872615
 20
7.1658631018
 30
0.0
 10
11.454805461
 20
7.1677132947
 30
0.0
 10
11.4572791249
 20
7.1698278404
 30
0.0
 10
11.459596217
 20
7.1722198695
 30
0.0
 10
11.4617418428
 20
7.1749056484
 30
0.0
 10
11.4637008367
 20
7.1779018983
 30
0.0
 10
11.4654551452
 20
7.1812279321
 30
0.0
 10
11.466986158
 20
7.1849039883
 30
0.0
 10
11.4682724013
 20
7.1889522622
 30
0.0
 10
11.4692913341
 20
7.1933955869
 30
0.0
 10
11.4700183883
 20
7.1982569379
 30
0.0
 10
11.4704278869
 20
7.2035577119
 30
0.0
 10
11.4704940171
 20
7.2093154638
 30
0.0
 10
11.4701922394
 20
7.2155407962
 30
0.0
 10
11.469501671
 20
7.2222334302
 30
0.0
 10
11.4684080274
 20
7.2293779519
 30
0.0
 10
11.4669068504
 20
7.2369401801
 30
0.0
 10
11.4650062951
 20
7.2448653398
 30
0.0
 10
11.4627285522
 20
7.2530792089
 30
0.0
 10
11.4601091636
 20
7.2614926882
 30
0.0
 10
11.4571941343
 20
7.2700090623
 30
0.0
 10
11.454035478
 20
7.2785322451
 30
0.0
 10
11.4506863841
 20
7.2869739702
 30
0.0
 10
11.4471971157
 20
7.2952586212
 30
0.0
 10
11.4436122667
 20
7.3033251594
 30
0.0
 10
11.4399694123
 20
7.311127169
 30
0.0
 10
11.4362990727
 20
7.318630601
 30
0.0
 10
11.4338039478
 20
7.3235079861
 30
0.0
 10
11.4325564257
 20
7.3258921106
 30
0.0
  0
SPLINE
  5
361
100
AcDbEntity
  8
0
100
AcDbSpline
 62
7
  6
CONTINUOUS
 70
0
 71
3
 72
25
 73
21
 74
0
 42
0.0000001
 43
0.0000001
 44
0.0000000001
 40
0.0
 40
0.0
 40
0.0
 40
0.0
 40
0.0638612781
 40
0.0957121911
 40
0.1275067411
 40
0.190926209
 40
0.2541301216
 40
0.2856554877
 40
0.3171294121
 40
0.3799223073
 40
0.44252455
 40
0.5049487613
 40
0.5672094491
 40
0.629322891
 40
0.6913069674
 40
0.7531809757
 40
0.8149654269
 40
0.8766818235
 40
0.9383524247
 40
1.0
 40
1.0
 40
1.0
 40
1.0
 10
11.3934838913
 20
6.0078571893
 30
0.0
 10
11.4073665574
 20
6.0068944231
 30
0.0
 10
11.4282142147
 20
6.0059699328
 30
0.0
 10
11.4560007132
 20
6.0057872134
 30
0.0
 10
11.4836872943
 20
6.0063036062
 30
0.0
 10
11.5181685532
 20
6.0082569154
 30
0.0
 10
11.552447462
 20
6.011958684
 30
0.0
 10
11.5796580798
 20
6.0159625692
 30
0.0
 10
11.6066682733
 20
6.0206503158
 30
0.0
 10
11.6401129202
 20
6.0277982134
 30
0.0
 10
11.6796556301
 20
6.0384253581
 30
0.0
 10
11.7184791837
 20
6.0510691818
 30
0.0
 10
11.7564851083
 20
6.0656978592
 30
0.0
 10
11.7935778301
 20
6.082274654
 30
0.0
 10
11.8296638323
 20
6.1007578713
 30
0.0
 10
11.864652213
 20
6.1211010356
 30
0.0
 10
11.8984547119
 20
6.1432528727
 30
0.0
 10
11.930986435
 20
6.1671578973
 30
0.0
 10
11.9621642825
 20
6.1927548535
 30
0.0
 10
11.9819985363
 20
6.210908215
 30
0.0
 10
11.9916607235
 20
6.2202411857
 30
0.0
  0
SPLINE
  5
362
100
AcDbEntity
  8
0
100
AcDbSpline
 62
7
  6
CONTINUOUS
 70
0
 71
3
 72
98
 73
94
 74
0
 42
0.0000001
 43
0.0000001
 44
0.0000000001
 40
0.0
 40
0.0
 40
0.0
 40
0.0
 40
0.0040448382
 40
0.0082603162
 40
0.0126508389
 40
0.0172201464
 40
0.0219713879
 40
0.0269070205
 40
0.0320287343
 40
0.037337709
 40
0.0428346045
 40
0.0485196581
 40
0.0543927218
 40
0.0604532289
 40
0.0667003403
 40
0.0731328594
 40
0.0797493433
 40
0.0865480912
 40
0.0935271325
 40
0.1006843274
 40
0.1080172707
 40
0.1155234088
 40
0.131043788
 40
0.1472217615
 40
0.1640308463
 40
0.1814423546
 40
0.1994256119
 40
0.2179481424
 40
0.2369758353
 40
0.2564730936
 40
0.2764029727
 40
0.296727321
 40
0.3174069086
 40
0.338401549
 40
0.3596702174
 40
0.3811711647
 40
0.4028620354
 40
0.4246999839
 40
0.4466417872
 40
0.4686439554
 40
0.4906628429
 40
0.5126547611
 40
0.5345760916
 40
0.5563833972
 40
0.5780335329
 40
0.5994837571
 40
0.6206918462
 40
0.6416162127
 40
0.6622160177
 40
0.6824512879
 40
0.7022830337
 40
0.721673374
 40
0.7405856707
 40
0.758984664
 40
0.7768366118
 40
0.7941094438
 40
0.8107729323
 40
0.8267988863
 40
0.842161381
 40
0.8495865775
 40
0.8568373395
 40
0.8639112154
 40
0.8708058976
 40
0.8775193334
 40
0.8840496858
 40
0.8903953458
 40
0.8965550182
 40
0.9025276386
 40
0.9083125148
 40
0.9139092685
 40
0.9193179048
 40
0.9245388831
 40
0.9295730783
 40
0.9344219518
 40
0.9390875046
 40
0.94357242
 40
0.9478801374
 40
0.9520148983
 40
0.9559819484
 40
0.959787551
 40
0.9634392033
 40
0.9669457281
 40
0.9703173974
 40
0.9735661037
 40
0.9767053709
 40
0.9797504598
 40
0.982718275
 40
0.9856272402
 40
0.9884970497
 40
0.9913482831
 40
0.9942019672
 40
0.9970790671
 40
1.0
 40
1.0
 40
1.0
 40
1.0
 10
11.5353158818
 20
10.0222205353
 30
0.0
 10
11.537235169
 20
10.0240744245
 30
0.0
 10
11.541244143
 20
10.0277687153
 30
0.0
 10
11.5476171442
 20
10.0331608826
 30
0.0
 10
11.5544682683
 20
10.0385132712
 30
0.0
 10
11.5617935683
 20
10.0438228424
 30
0.0
 10
11.5695892589
 20
10.0490870317
 30
0.0
 10
11.5778513675
 20
10.0543031131
 30
0.0
 10
11.5865755446
 20
10.0594685098
 30
0.0
 10
11.5957572484
 20
10.0645804006
 30
0.0
 10
11.6053916202
 20
10.0696361586
 30
0.0
 10
11.6154735989
 20
10.0746331327
 30
0.0
 10
11.6259978968
 20
10.0795686375
 30
0.0
 10
11.6369589375
 20
10.0844401564
 30
0.0
 10
11.648350962
 20
10.0892450066
 30
0.0
 10
11.660167926
 20
10.0939807181
 30
0.0
 10
11.6724035881
 20
10.0986447448
 30
0.0
 10
11.6850514738
 20
10.1032345884
 30
0.0
 10
11.6981048731
 20
10.1077478744
 30
0.0
 10
11.7115568801
 20
10.1121821063
 30
0.0
 10
11.7254003607
 20
10.1165350361
 30
0.0
 10
11.7445843969
 20
10.1222914348
 30
0.0
 10
11.76949638
 20
10.1292535496
 30
0.0
 10
11.8005085507
 20
10.1371575509
 30
0.0
 10
11.8328964746
 20
10.1446843338
 30
0.0
 10
11.8665913685
 20
10.1518177987
 30
0.0
 10
11.9015218423
 20
10.1585426734
 30
0.0
 10
11.9376137817
 20
10.1648445647
 30
0.0
 10
11.9747905904
 20
10.1707099834
 30
0.0
 10
12.0129733312
 20
10.1761263769
 30
0.0
 10
12.0520809038
 20
10.1810821672
 30
0.0
 10
12.0920302251
 20
10.1855667597
 30
0.0
 10
12.1327364138
 20
10.1895705675
 30
0.0
 10
12.1741129717
 20
10.1930850313
 30
0.0
 10
12.216071966
 20
10.1961026345
 30
0.0
 10
12.2585242158
 20
10.1986169298
 30
0.0
 10
12.3013794848
 20
10.2006225512
 30
0.0
 10
12.3445466777
 20
10.2021152156
 30
0.0
 10
12.3879340348
 20
10.2030917341
 30
0.0
 10
12.4314493263
 20
10.2035500182
 30
0.0
 10
12.4750000475
 20
10.2034890829
 30
0.0
 10
12.518493618
 20
10.2029090632
 30
0.0
 10
12.5618375803
 20
10.2018112017
 30
0.0
 10
12.6049397977
 20
10.2001978443
 30
0.0
 10
12.6477086479
 20
10.198072436
 30
0.0
 10
12.6900532188
 20
10.195439513
 30
0.0
 10
12.7318835052
 20
10.1923046972
 30
0.0
 10
12.7731106035
 20
10.1886746937
 30
0.0
 10
12.8136469014
 20
10.1845572622
 30
0.0
 10
12.8534062623
 20
10.1799612038
 30
0.0
 10
12.892304208
 20
10.1748963428
 30
0.0
 10
12.9302581044
 20
10.1693735037
 30
0.0
 10
12.9671873461
 20
10.1634045012
 30
0.0
 10
13.003013531
 20
10.1570021109
 30
0.0
 10
13.0376606334
 20
10.1501800349
 30
0.0
 10
13.0710551456
 20
10.1429528741
 30
0.0
 10
13.1031263252
 20
10.1353360983
 30
0.0
 10
13.133806073
 20
10.1273460015
 30
0.0
 10
13.158430294
 20
10.1203134034
 30
0.0
 10
13.1773764969
 20
10.114502463
 30
0.0
 10
13.1910371574
 20
10.1101110498
 30
0.0
 10
13.2043029704
 20
10.1056394426
 30
0.0
 10
13.2171669057
 20
10.1010899189
 30
0.0
 10
13.2296221497
 20
10.0964649452
 30
0.0
 10
13.2416621113
 20
10.0917669879
 30
0.0
 10
13.2532804031
 20
10.0869984838
 30
0.0
 10
13.2644709052
 20
10.0821620548
 30
0.0
 10
13.2752276795
 20
10.0772601663
 30
0.0
 10
13.2855450704
 20
10.0722954853
 30
0.0
 10
13.2954176358
 20
10.0672706089
 30
0.0
 10
13.3048401648
 20
10.0621881488
 30
0.0
 10
13.3138077423
 20
10.0570508569
 30
0.0
 10
13.3223156164
 20
10.0518613047
 30
0.0
 10
13.3303593812
 20
10.0466222939
 30
0.0
 10
13.3379348054
 20
10.0413364628
 30
0.0
 10
13.3450379313
 20
10.036006518
 30
0.0
 10
13.3516650948
 20
10.0306352181
 30
0.0
 10
13.3578127536
 20
10.0252251378
 30
0.0
 10
13.363477768
 20
10.0197790653
 30
0.0
 10
13.3686570506
 20
10.0142995404
 30
0.0
 10
13.3733478262
 20
10.0087892253
 30
0.0
 10
13.3775474981
 20
10.0032507345
 30
0.0
 10
13.3812534903
 20
9.9976865878
 30
0.0
 10
13.3844636074
 20
9.9920995168
 30
0.0
 10
13.3871754679
 20
9.9864921275
 30
0.0
 10
13.3893870852
 20
9.9808673446
 30
0.0
 10
13.3910965046
 20
9.9752282111
 30
0.0
 10
13.3923019662
 20
9.9695780581
 30
0.0
 10
13.3930023276
 20
9.9639205287
 30
0.0
 10
13.3931965584
 20
9.9582594923
 30
0.0
 10
13.3928845887
 20
9.9525988246
 30
0.0
 10
13.3920668156
 20
9.9469429809
 30
0.0
 10
13.3911932806
 20
9.9432134608
 30
0.0
 10
13.3906769417
 20
9.9413569438
 30
0.0
  0
SPLINE
  5
363
100
AcDbEntity
  8
0
100
AcDbSpline
 62
7
  6
CONTINUOUS
 70
0
 71
3
 72
68
 73
64
 74
0
 42
0.0000001
 43
0.0000001
 44
0.0000000001
 40
0.0
 40
0.0
 40
0.0
 40
0.0
 40
0.0043899181
 40
0.0089129704
 40
0.01356987
 40
0.0183611071
 40
0.0232869219
 40
0.0283473892
 40
0.0388713177
 40
0.0499303554
 40
0.0615192163
 40
0.0736305993
 40
0.0862553455
 40
0.099382728
 40
0.1130005919
 40
0.127095434
 40
0.1416526059
 40
0.1566563697
 40
0.1720899565
 40
0.1879357178
 40
0.204175139
 40
0.2207889014
 40
0.2377569949
 40
0.2550587148
 40
0.272672733
 40
0.2905771795
 40
0.3087496387
 40
0.3271672264
 40
0.3458066475
 40
0.364644201
 40
0.3836558571
 40
0.4221034598
 40
0.4609525517
 40
0.5000030484
 40
0.5390535241
 40
0.5779025518
 40
0.6163500495
 40
0.6353616379
 40
0.6541991161
 40
0.6728384455
 40
0.6912559367
 40
0.7094282914
 40
0.7273326157
 40
0.7449465106
 40
0.7622480977
 40
0.7792160409
 40
0.7958296555
 40
0.8120689167
 40
0.827914503
 40
0.8433479199
 40
0.8583514985
 40
0.8729084753
 40
0.8870031281
 40
0.9006207848
 40
0.9137479568
 40
0.926372498
 40
0.9384836566
 40
0.9500722977
 40
0.9611311188
 40
0.9716548135
 40
0.9816404539
 40
0.9910878571
 40
1.0
 40
1.0
 40
1.0
 40
1.0
 10
11.6235141636
 20
9.8395602021
 30
0.0
 10
11.6255911491
 20
9.8409033176
 30
0.0
 10
11.6298422524
 20
9.8435778089
 30
0.0
 10
11.6364066326
 20
9.8474989088
 30
0.0
 10
11.6432514788
 20
9.8513877633
 30
0.0
 10
11.6503744007
 20
9.8552429528
 30
0.0
 10
11.6577729451
 20
9.8590632505
 30
0.0
 10
11.6681374061
 20
9.8641754568
 30
0.0
 10
11.6817745025
 20
9.8704584075
 30
0.0
 10
11.6989895846
 20
9.8777426859
 30
0.0
 10
11.7172389091
 20
9.8848569033
 30
0.0
 10
11.7364973674
 20
9.8917911719
 30
0.0
 10
11.756738621
 20
9.8985359671
 30
0.0
 10
11.7779348767
 20
9.9050819253
 30
0.0
 10
11.800057008
 20
9.9114199326
 30
0.0
 10
11.8230745511
 20
9.9175412441
 30
0.0
 10
11.8469557993
 20
9.9234373331
 30
0.0
 10
11.8716678297
 20
9.9290999916
 30
0.0
 10
11.8971765424
 20
9.9345214001
 30
0.0
 10
11.9234467359
 20
9.9396939949
 30
0.0
 10
11.9504421408
 20
9.9446105878
 30
0.0
 10
11.9781254699
 20
9.9492643883
 30
0.0
 10
12.0064584866
 20
9.9536488965
 30
0.0
 10
12.0354020451
 20
9.9577580339
 30
0.0
 10
12.0649161476
 20
9.9615861237
 30
0.0
 10
12.0949600098
 20
9.9651278127
 30
0.0
 10
12.1254921059
 20
9.9683782051
 30
0.0
 10
12.1564702345
 20
9.9713328094
 30
0.0
 10
12.1878515671
 20
9.97398748
 30
0.0
 10
12.2195927584
 20
9.9763385866
 30
0.0
 10
12.2624943766
 20
9.9790743155
 30
0.0
 10
12.3166977288
 20
9.9817062763
 30
0.0
 10
12.382228181
 20
9.9836014278
 30
0.0
 10
12.4481227476
 20
9.9842342282
 30
0.0
 10
12.5140172755
 20
9.9836011678
 30
0.0
 10
12.5795476127
 20
9.9817057446
 30
0.0
 10
12.6337508206
 20
9.9790735668
 30
0.0
 10
12.6766522876
 20
9.9763376632
 30
0.0
 10
12.7083933376
 20
9.9739864386
 30
0.0
 10
12.7397745095
 20
9.9713316285
 30
0.0
 10
12.770752461
 20
9.9683769049
 30
0.0
 10
12.8012843617
 20
9.9651263968
 30
0.0
 10
12.8313280095
 20
9.961584573
 30
0.0
 10
12.8608418826
 20
9.9577563725
 30
0.0
 10
12.8897851941
 20
9.9536471233
 30
0.0
 10
12.9181179453
 20
9.9492624876
 30
0.0
 10
12.9458009957
 20
9.9446085863
 30
0.0
 10
12.9727961047
 20
9.9396918859
 30
0.0
 10
12.9990659851
 20
9.9345191733
 30
0.0
 10
13.0245743734
 20
9.9290976752
 30
0.0
 10
13.0492860623
 20
9.9234349139
 30
0.0
 10
13.0731669539
 20
9.9175387196
 30
0.0
 10
13.0961841315
 20
9.9114173304
 30
0.0
 10
13.118305879
 20
9.9050792254
 30
0.0
 10
13.1395017404
 20
9.8985331767
 30
0.0
 10
13.1597425894
 20
9.8917883169
 30
0.0
 10
13.1790006366
 20
9.8848539546
 30
0.0
 10
13.1972494965
 20
9.8777396697
 30
0.0
 10
13.2144642723
 20
9.8704553175
 30
0.0
 10
13.2306214786
 20
9.8630108718
 30
0.0
 10
13.2456993617
 20
9.8554164015
 30
0.0
 10
13.2596771788
 20
9.8476825046
 30
0.0
 10
13.2685061292
 20
9.8422836852
 30
0.0
 10
13.2727226406
 20
9.8395568855
 30
0.0
  0
SPLINE
  5
364
100
AcDbEntity
  8
0
100
AcDbSpline
 62
7
  6
CONTINUOUS
 70
0
 71
3
 72
20
 73
16
 74
0
 42
0.0000001
 43
0.0000001
 44
0.0000000001
 40
0.0
 40
0.0
 40
0.0
 40
0.0
 40
0.1269277606
 40
0.1901732441
 40
0.2532681101
 40
0.3162150871
 40
0.3790159197
 40
0.4416738831
 40
0.5041930774
 40
0.6288142879
 40
0.7529442159
 40
0.8148519409
 40
0.8766582295
 40
0.9383713417
 40
1.0
 40
1.0
 40
1.0
 40
1.0
 10
11.7307248288
 20
6.3587210127
 30
0.0
 10
11.7492239174
 20
6.3574380966
 30
0.0
 10
11.7770194459
 20
6.356465057
 30
0.0
 10
11.814020319
 20
6.3570963249
 30
0.0
 10
11.8416431432
 20
6.3585306313
 30
0.0
 10
11.8691336335
 20
6.360924613
 30
0.0
 10
11.8964597439
 20
6.3642756518
 30
0.0
 10
11.923589102
 20
6.3685796699
 30
0.0
 10
11.959413423
 20
6.3755738328
 30
0.0
 10
12.003557288
 20
6.3866668101
 30
0.0
 10
12.0467063785
 20
6.4008739139
 30
0.0
 10
12.0804392052
 20
6.4140516259
 30
0.0
 10
12.1053034203
 20
6.4248210397
 30
0.0
 10
12.1297214303
 20
6.4364711946
 30
0.0
 10
12.1456946727
 20
6.4448219118
 30
0.0
 10
12.1535959273
 20
6.4491388285
 30
0.0
  0
SPLINE
  5
365
100
AcDbEntity
  8
0
100
AcDbSpline
 62
7
  6
CONTINUOUS
 70
0
 71
3
 72
55
 73
51
 74
0
 42
0.0000001
 43
0.0000001
 44
0.0000000001
 40
0.0
 40
0.0
 40
0.0
 40
0.0
 40
0.0109057274
 40
0.0222198342
 40
0.0339363164
 40
0.0460483733
 40
0.0585483003
 40
0.0714277415
 40
0.08467757
 40
0.0982880986
 40
0.1122489888
 40
0.1265493974
 40
0.1411779389
 40
0.1561227591
 40
0.1713715578
 40
0.1869115946
 40
0.2027297664
 40
0.2188125584
 40
0.2517159816
 40
0.2855078833
 40
0.3200693951
 40
0.3552778832
 40
0.3910076003
 40
0.4271303223
 40
0.4635159754
 40
0.5000332558
 40
0.5365502463
 40
0.572935031
 40
0.6090563102
 40
0.6447840167
 40
0.6799899361
 40
0.7145483333
 40
0.7483365896
 40
0.7812358546
 40
0.7973163818
 40
0.8131321686
 40
0.8286697038
 40
0.8439158869
 40
0.858857982
 40
0.8734836918
 40
0.8877811672
 40
0.9017390259
 40
0.9153464304
 40
0.9285930464
 40
0.9414691929
 40
0.953965748
 40
0.9660743625
 40
0.9777873385
 40
0.9890978828
 40
1.0
 40
1.0
 40
1.0
 40
1.0
 10
11.7717669478
 20
9.7882115793
 30
0.0
 10
11.7764019609
 20
9.7900623537
 30
0.0
 10
11.7858908699
 20
9.7937205445
 30
0.0
 10
11.8005008088
 20
9.7989911676
 30
0.0
 10
11.8157373454
 20
9.8041419524
 30
0.0
 10
11.8315857133
 20
9.8091677502
 30
0.0
 10
11.8480306514
 20
9.8140638069
 30
0.0
 10
11.865056296
 20
9.8188252637
 30
0.0
 10
11.8826462049
 20
9.8234475898
 30
0.0
 10
11.9007833921
 20
9.8279262192
 30
0.0
 10
11.9194503287
 20
9.8322568611
 30
0.0
 10
11.9386289713
 20
9.836435269
 30
0.0
 10
11.9583007759
 20
9.8404574046
 30
0.0
 10
11.978446716
 20
9.8443193605
 30
0.0
 10
11.9990473063
 20
9.8480173692
 30
0.0
 10
12.0200826104
 20
9.8515478686
 30
0.0
 10
12.0415322953
 20
9.8549074034
 30
0.0
 10
12.0708792409
 20
9.8591869101
 30
0.0
 10
12.1084477245
 20
9.8640743676
 30
0.0
 10
12.154508631
 20
9.8691662353
 30
0.0
 10
12.2017056133
 20
9.8735085638
 30
0.0
 10
12.2498559813
 20
9.8770844183
 30
0.0
 10
12.2987735121
 20
9.8798798222
 30
0.0
 10
12.3482689329
 20
9.881883862
 30
0.0
 10
12.3981507303
 20
9.8830887134
 30
0.0
 10
12.4482258797
 20
9.8834896734
 30
0.0
 10
12.4983006033
 20
9.883085177
 30
0.0
 10
12.5481811249
 20
9.8818768029
 30
0.0
 10
12.597674425
 20
9.8798692679
 30
0.0
 10
12.6465889983
 20
9.8770704102
 30
0.0
 10
12.6947355835
 20
9.8734911564
 30
0.0
 10
12.7419279727
 20
9.8691454967
 30
0.0
 10
12.7879834936
 20
9.8640503788
 30
0.0
 10
12.8255469838
 20
9.8591602483
 30
0.0
 10
12.8548895505
 20
9.8548786466
 30
0.0
 10
12.8763356854
 20
9.8515175952
 30
0.0
 10
12.8973672588
 20
9.8479856095
 30
0.0
 10
12.9179639415
 20
9.8442861444
 30
0.0
 10
12.9381058009
 20
9.8404227655
 30
0.0
 10
12.9577733555
 20
9.8363992392
 30
0.0
 10
12.9769475833
 20
9.832219477
 30
0.0
 10
12.9956099442
 20
9.8278875158
 30
0.0
 10
13.0137423996
 20
9.8234076058
 30
0.0
 10
13.0313274251
 20
9.818784037
 30
0.0
 10
13.0483480394
 20
9.8140213782
 30
0.0
 10
13.0647878053
 20
9.8091241603
 30
0.0
 10
13.0806308642
 20
9.8040972438
 30
0.0
 10
13.0958619603
 20
9.7989453838
 30
0.0
 10
13.1104663327
 20
9.7936737294
 30
0.0
 10
13.119951455
 20
9.7900148394
 30
0.0
 10
13.124584552
 20
9.7881637218
 30
0.0
  0
SPLINE
  5
366
100
AcDbEntity
  8
0
100
AcDbSpline
 62
7
  6
CONTINUOUS
 70
0
 71
3
 72
23
 73
19
 74
0
 42
0.0000001
 43
0.0000001
 44
0.0000000001
 40
0.0
 40
0.0
 40
0.0
 40
0.0
 40
0.0635818389
 40
0.1270091306
 40
0.1902751703
 40
0.2533841463
 40
0.3163386361
 40
0.3791408509
 40
0.4417946838
 40
0.5043047841
 40
0.5666764136
 40
0.6289156726
 40
0.6910293913
 40
0.7530250751
 40
0.8149109089
 40
0.8766956783
 40
0.9383887458
 40
1.0
 40
1.0
 40
1.0
 40
1.0
 10
11.7401388634
 20
6.388098716
 30
0.0
 10
11.7495808862
 20
6.3874439095
 30
0.0
 10
11.7684672212
 20
6.38647405
 30
0.0
 10
11.7967939002
 20
6.3860424726
 30
0.0
 10
11.8250476534
 20
6.3866368078
 30
0.0
 10
11.853190666
 20
6.3882562036
 30
0.0
 10
11.8811868581
 20
6.3908983858
 30
0.0
 10
11.908999723
 20
6.3945601967
 30
0.0
 10
11.9365930108
 20
6.3992367556
 30
0.0
 10
11.9639308452
 20
6.4049219567
 30
0.0
 10
11.990977612
 20
6.4116085785
 30
0.0
 10
12.0176981392
 20
6.4192877602
 30
0.0
 10
12.0440576157
 20
6.427949629
 30
0.0
 10
12.0700217241
 20
6.4375829449
 30
0.0
 10
12.0955566753
 20
6.448175044
 30
0.0
 10
12.120629276
 20
6.4597123939
 30
0.0
 10
12.1452064761
 20
6.4721795871
 30
0.0
 10
12.161250553
 20
6.481106256
 30
0.0
 10
12.1691778591
 20
6.4857183824
 30
0.0
  0
SPLINE
  5
367
100
AcDbEntity
  8
0
100
AcDbSpline
 62
7
  6
CONTINUOUS
 70
0
 71
3
 72
18
 73
14
 74
0
 42
0.0000001
 43
0.0000001
 44
0.0000000001
 40
0.0
 40
0.0
 40
0.0
 40
0.0
 40
0.1267615068
 40
0.2529817998
 40
0.3786697411
 40
0.5038405966
 40
0.6285187253
 40
0.6906906246
 40
0.7527519087
 40
0.814707731
 40
0.8765636369
 40
0.9383256122
 40
1.0
 40
1.0
 40
1.0
 40
1.0
 10
11.8114763042
 20
6.4570053965
 30
0.0
 10
11.8275950503
 20
6.4558875577
 30
0.0
 10
11.8598410249
 20
6.4546410886
 30
0.0
 10
11.908124072
 20
6.4557635694
 30
0.0
 10
11.9560436725
 20
6.4598776523
 30
0.0
 10
12.0034141873
 20
6.4669678903
 30
0.0
 10
12.0423236307
 20
6.4753434373
 30
0.0
 10
12.0729885892
 20
6.4835013759
 30
0.0
 10
12.0957197765
 20
6.4903364483
 30
0.0
 10
12.118180797
 20
6.4978866642
 30
0.0
 10
12.1403506354
 20
6.5061451237
 30
0.0
 10
12.1622079196
 20
6.5151036261
 30
0.0
 10
12.1765675891
 20
6.5215418214
 30
0.0
 10
12.1836874551
 20
6.5248744573
 30
0.0
  0
SPLINE
  5
368
100
AcDbEntity
  8
0
100
AcDbSpline
 62
7
  6
CONTINUOUS
 70
0
 71
3
 72
23
 73
19
 74
0
 42
0.0000001
 43
0.0000001
 44
0.0000000001
 40
0.0
 40
0.0
 40
0.0
 40
0.0
 40
0.0766671386
 40
0.1505177306
 40
0.2216741592
 40
0.2902817618
 40
0.356512927
 40
0.4205629262
 40
0.4826508012
 40
0.5430196743
 40
0.6019367527
 40
0.6596929051
 40
0.7165986642
 40
0.7729800851
 40
0.8291733012
 40
0.8855180569
 40
0.942351181
 40
1.0
 40
1.0
 40
1.0
 40
1.0
 10
11.5353158818
 20
10.0222205353
 30
0.0
 10
11.533647508
 20
10.0206090099
 30
0.0
 10
11.5304362043
 20
10.0173777237
 30
0.0
 10
11.5259251003
 20
10.0124115796
 30
0.0
 10
11.5218141763
 20
10.0074210152
 30
0.0
 10
11.5181056961
 20
10.0024082075
 30
0.0
 10
11.5148013002
 20
9.997375206
 30
0.0
 10
11.5119026774
 20
9.9923238763
 30
0.0
 10
11.5094113371
 20
9.9872562483
 30
0.0
 10
11.5073286926
 20
9.9821744697
 30
0.0
 10
11.505656272
 20
9.9770807252
 30
0.0
 10
11.5043951453
 20
9.9719774495
 30
0.0
 10
11.5035463124
 20
9.9668671515
 30
0.0
 10
11.5031105849
 20
9.961752493
 30
0.0
 10
11.5030881734
 20
9.9566362947
 30
0.0
 10
11.5034792597
 20
9.9515212749
 30
0.0
 10
11.5042833777
 20
9.9464106037
 30
0.0
 10
11.5050873494
 20
9.9430374148
 30
0.0
 10
11.5055547057
 20
9.941357013
 30
0.0
  0
SPLINE
  5
369
100
AcDbEntity
  8
0
100
AcDbSpline
 62
7
  6
CONTINUOUS
 70
0
 71
3
 72
22
 73
18
 74
0
 42
0.0000001
 43
0.0000001
 44
0.0000000001
 40
0.0
 40
0.0
 40
0.0
 40
0.0
 40
0.1269612617
 40
0.1902181596
 40
0.2533205304
 40
0.3162714665
 40
0.3790728713
 40
0.4417282523
 40
0.5042420602
 40
0.5666192766
 40
0.6288656178
 40
0.6909875165
 40
0.7529920842
 40
0.8148870285
 40
0.8766806696
 40
0.9383818741
 40
1.0
 40
1.0
 40
1.0
 40
1.0
 10
11.8321818107
 20
6.5542794519
 30
0.0
 10
11.8488590043
 20
6.5531228846
 30
0.0
 10
11.8739185085
 20
6.5522675999
 30
0.0
 10
11.9072723167
 20
6.5529108952
 30
0.0
 10
11.9321672509
 20
6.5542817215
 30
0.0
 10
11.9569366773
 20
6.5565397324
 30
0.0
 10
11.9815503379
 20
6.5596823509
 30
0.0
 10
12.0059771656
 20
6.5637054295
 30
0.0
 10
12.0301866237
 20
6.5686041371
 30
0.0
 10
12.0541484293
 20
6.5743722279
 30
0.0
 10
12.0778325788
 20
6.581002532
 30
0.0
 10
12.1012093879
 20
6.5884868453
 30
0.0
 10
12.1242496567
 20
6.5968156404
 30
0.0
 10
12.1469244273
 20
6.6059787096
 30
0.0
 10
12.1692054915
 20
6.6159644509
 30
0.0
 10
12.1910644985
 20
6.6267602826
 30
0.0
 10
12.2053474092
 20
6.6344938752
 30
0.0
 10
12.2124081132
 20
6.6384905581
 30
0.0
  0
SPLINE
  5
36A
100
AcDbEntity
  8
0
100
AcDbSpline
 62
7
  6
CONTINUOUS
 70
0
 71
3
 72
31
 73
27
 74
0
 42
0.0000001
 43
0.0000001
 44
0.0000000001
 40
0.0
 40
0.0
 40
0.0
 40
0.0
 40
0.010418236
 40
0.0211152213
 40
0.0322606942
 40
0.044010486
 40
0.0565027573
 40
0.0698580274
 40
0.0841853329
 40
0.0995822325
 40
0.1161345154
 40
0.1339192533
 40
0.1530131421
 40
0.1734897079
 40
0.1954175278
 40
0.2188653238
 40
0.2439077556
 40
0.2706181995
 40
0.3293421734
 40
0.3957038698
 40
0.4704363616
 40
0.5543591844
 40
0.6483740382
 40
0.7534278586
 40
0.8704136307
 40
1.0
 40
1.0
 40
1.0
 40
1.0
 10
10.9242299557
 20
7.5138548564
 30
0.0
 10
10.9244330495
 20
7.5137419474
 30
0.0
 10
10.9248300369
 20
7.5134857121
 30
0.0
 10
10.9253818134
 20
7.513021203
 30
0.0
 10
10.9258947506
 20
7.5124727985
 30
0.0
 10
10.9263687919
 20
7.5118399724
 30
0.0
 10
10.9268042039
 20
7.5111219137
 30
0.0
 10
10.9272013257
 20
7.5103175604
 30
0.0
 10
10.9275600475
 20
7.5094253034
 30
0.0
 10
10.9278802031
 20
7.5084433455
 30
0.0
 10
10.9281616269
 20
7.507369792
 30
0.0
 10
10.9284041624
 20
7.5062025317
 30
0.0
 10
10.9286071873
 20
7.5049390936
 30
0.0
 10
10.9287700739
 20
7.5035768052
 30
0.0
 10
10.9288922431
 20
7.5021128429
 30
0.0
 10
10.9289729729
 20
7.5005440705
 30
0.0
 10
10.9290111704
 20
7.4988670127
 30
0.0
 10
10.9290036933
 20
7.4964027087
 30
0.0
 10
10.9288722516
 20
7.4930184375
 30
0.0
 10
10.9285288655
 20
7.4885740719
 30
0.0
 10
10.9279805257
 20
7.4835845474
 30
0.0
 10
10.927209513
 20
7.4780013307
 30
0.0
 10
10.9261944398
 20
7.4717710607
 30
0.0
 10
10.9249106503
 20
7.4648391284
 30
0.0
 10
10.9233313312
 20
7.4571566358
 30
0.0
 10
10.9221259521
 20
7.4517904392
 30
0.0
 10
10.9214693304
 20
7.4489757053
 30
0.0
  0
SPLINE
  5
36B
100
AcDbEntity
  8
0
100
AcDbSpline
 62
4
  6
CONTINUOUS
 70
0
 71
3
 72
334
 73
330
 74
0
 42
0.0000001
 43
0.0000001
 44
0.0000000001
 40
0.0
 40
0.0
 40
0.0
 40
0.0
 40
0.015625
 40
0.03125
 40
0.0390625
 40
0.046875
 40
0.05078125
 40
0.0546875
 40
0.05859375
 40
0.060546875
 40
0.0615234375
 40
0.0625
 40
0.0634765625
 40
0.064453125
 40
0.06640625
 40
0.0703125
 40
0.07421875
 40
0.078125
 40
0.0859375
 40
0.09375
 40
0.1015625
 40
0.109375
 40
0.11328125
 40
0.1171875
 40
0.12109375
 40
0.123046875
 40
0.1240234375
 40
0.125
 40
0.1259765625
 40
0.126953125
 40
0.12890625
 40
0.1328125
 40
0.13671875
 40
0.140625
 40
0.1484375
 40
0.15625
 40
0.1640625
 40
0.171875
 40
0.17578125
 40
0.1796875
 40
0.18359375
 40
0.185546875
 40
0.1865234375
 40
0.1875
 40
0.1884765625
 40
0.189453125
 40
0.19140625
 40
0.1953125
 40
0.19921875
 40
0.203125
 40
0.2109375
 40
0.21875
 40
0.2265625
 40
0.234375
 40
0.23828125
 40
0.2421875
 40
0.244140625
 40
0.24609375
 40
0.248046875
 40
0.2490234375
 40
0.2495117188
 40
0.25
 40
0.2504882812
 40
0.2509765625
 40
0.251953125
 40
0.25390625
 40
0.255859375
 40
0.2578125
 40
0.26171875
 40
0.265625
 40
0.2734375
 40
0.28125
 40
0.2890625
 40
0.296875
 40
0.30078125
 40
0.3046875
 40
0.306640625
 40
0.30859375
 40
0.310546875
 40
0.3115234375
 40
0.3120117188
 40
0.3125
 40
0.3129882812
 40
0.3134765625
 40
0.314453125
 40
0.31640625
 40
0.318359375
 40
0.3203125
 40
0.32421875
 40
0.328125
 40
0.3359375
 40
0.34375
 40
0.3515625
 40
0.35546875
 40
0.359375
 40
0.36328125
 40
0.3671875
 40
0.369140625
 40
0.37109375
 40
0.373046875
 40
0.3740234375
 40
0.3745117188
 40
0.375
 40
0.3754882812
 40
0.3759765625
 40
0.376953125
 40
0.37890625
 40
0.380859375
 40
0.3828125
 40
0.38671875
 40
0.390625
 40
0.39453125
 40
0.3984375
 40
0.40625
 40
0.4140625
 40
0.41796875
 40
0.421875
 40
0.42578125
 40
0.4296875
 40
0.431640625
 40
0.43359375
 40
0.4345703125
 40
0.435546875
 40
0.4365234375
 40
0.4370117188
 40
0.4375
 40
0.4379882812
 40
0.4384765625
 40
0.439453125
 40
0.4404296875
 40
0.44140625
 40
0.443359375
 40
0.4453125
 40
0.44921875
 40
0.453125
 40
0.45703125
 40
0.4609375
 40
0.46875
 40
0.4765625
 40
0.48046875
 40
0.484375
 40
0.48828125
 40
0.4921875
 40
0.494140625
 40
0.49609375
 40
0.4970703125
 40
0.498046875
 40
0.4990234375
 40
0.4995117188
 40
0.4997558594
 40
0.5
 40
0.5002441406
 40
0.5004882812
 40
0.5009765625
 40
0.501953125
 40
0.5029296875
 40
0.50390625
 40
0.505859375
 40
0.5078125
 40
0.51171875
 40
0.515625
 40
0.51953125
 40
0.5234375
 40
0.53125
 40
0.5390625
 40
0.54296875
 40
0.546875
 40
0.55078125
 40
0.5546875
 40
0.556640625
 40
0.55859375
 40
0.5595703125
 40
0.560546875
 40
0.5615234375
 40
0.5620117188
 40
0.5622558594
 40
0.5625
 40
0.5627441406
 40
0.5629882812
 40
0.5634765625
 40
0.564453125
 40
0.5654296875
 40
0.56640625
 40
0.568359375
 40
0.5703125
 40
0.57421875
 40
0.578125
 40
0.58203125
 40
0.5859375
 40
0.59375
 40
0.6015625
 40
0.60546875
 40
0.609375
 40
0.61328125
 40
0.6171875
 40
0.619140625
 40
0.62109375
 40
0.6220703125
 40
0.623046875
 40
0.6240234375
 40
0.6245117188
 40
0.6247558594
 40
0.625
 40
0.6252441406
 40
0.6254882812
 40
0.6259765625
 40
0.626953125
 40
0.6279296875
 40
0.62890625
 40
0.630859375
 40
0.6328125
 40
0.63671875
 40
0.640625
 40
0.64453125
 40
0.6484375
 40
0.65625
 40
0.6640625
 40
0.66796875
 40
0.671875
 40
0.67578125
 40
0.6796875
 40
0.681640625
 40
0.68359375
 40
0.6845703125
 40
0.685546875
 40
0.6865234375
 40
0.6870117188
 40
0.6872558594
 40
0.6875
 40
0.6877441406
 40
0.6879882812
 40
0.6884765625
 40
0.689453125
 40
0.6904296875
 40
0.69140625
 40
0.693359375
 40
0.6953125
 40
0.69921875
 40
0.703125
 40
0.70703125
 40
0.7109375
 40
0.71875
 40
0.7265625
 40
0.73046875
 40
0.734375
 40
0.73828125
 40
0.7421875
 40
0.744140625
 40
0.74609375
 40
0.7470703125
 40
0.748046875
 40
0.7490234375
 40
0.7495117188
 40
0.75
 40
0.7504882812
 40
0.7509765625
 40
0.751953125
 40
0.7529296875
 40
0.75390625
 40
0.755859375
 40
0.7578125
 40
0.76171875
 40
0.765625
 40
0.76953125
 40
0.7734375
 40
0.78125
 40
0.7890625
 40
0.796875
 40
0.80078125
 40
0.8046875
 40
0.806640625
 40
0.80859375
 40
0.810546875
 40
0.8115234375
 40
0.8120117188
 40
0.8125
 40
0.8129882812
 40
0.8134765625
 40
0.814453125
 40
0.81640625
 40
0.818359375
 40
0.8203125
 40
0.82421875
 40
0.828125
 40
0.8359375
 40
0.84375
 40
0.8515625
 40
0.859375
 40
0.86328125
 40
0.8671875
 40
0.869140625
 40
0.87109375
 40
0.873046875
 40
0.8740234375
 40
0.8745117188
 40
0.875
 40
0.8754882812
 40
0.8759765625
 40
0.876953125
 40
0.87890625
 40
0.880859375
 40
0.8828125
 40
0.88671875
 40
0.890625
 40
0.8984375
 40
0.90625
 40
0.9140625
 40
0.921875
 40
0.92578125
 40
0.9296875
 40
0.931640625
 40
0.93359375
 40
0.935546875
 40
0.9365234375
 40
0.9370117188
 40
0.9375
 40
0.9379882812
 40
0.9384765625
 40
0.939453125
 40
0.94140625
 40
0.943359375
 40
0.9453125
 40
0.94921875
 40
0.953125
 40
0.9609375
 40
0.96875
 40
0.9765625
 40
0.984375
 40
1.0
 40
1.0
 40
1.0
 40
1.0
 10
12.3006358455
 20
10.7074822133
 30
0.0
 10
12.2942048376
 20
10.7077577635
 30
0.0
 10
12.28134282
 20
10.708308857
 30
0.0
 10
12.2652653067
 20
10.7089977579
 30
0.0
 10
12.2524032778
 20
10.7095488073
 30
0.0
 10
12.2443645511
 20
10.7098933747
 30
0.0
 10
12.2379334749
 20
10.7101686587
 30
0.0
 10
12.2331104276
 20
10.7103761345
 30
0.0
 10
12.2290903948
 20
10.7105458091
 30
0.0
 10
12.2262779944
 20
10.7106709042
 30
0.0
 10
12.2246683749
 20
10.7107325145
 30
0.0
 10
12.2234682973
 20
10.7108065335
 30
0.0
 10
12.2222409382
 20
10.7107742438
 30
0.0
 10
12.2206139755
 20
10.7107682725
 30
0.0
 10
12.2177623569
 20
10.7107405457
 30
0.0
 10
12.2136909342
 20
10.7107099686
 30
0.0
 10
12.2088042348
 20
10.7106694098
 30
0.0
 10
12.202288982
 20
10.7106166823
 30
0.0
 10
12.1941447986
 20
10.7105503064
 30
0.0
 10
12.1843718222
 20
10.7104708685
 30
0.0
 10
12.1745988587
 20
10.7103913243
 30
0.0
 10
12.166454643
 20
10.7103252142
 30
0.0
 10
12.1599394547
 20
10.710271955
 30
0.0
 10
12.1550525584
 20
10.7102330177
 30
0.0
 10
12.1509817517
 20
10.7101973678
 30
0.0
 10
12.1481290336
 20
10.7101786969
 30
0.0
 10
12.1465038327
 20
10.7101582158
 30
0.0
 10
12.1452710618
 20
10.7101704954
 30
0.0
 10
12.1440913098
 20
10.7100771195
 30
0.0
 10
12.1424998136
 20
10.709989472
 30
0.0
 10
12.1397233117
 20
10.7098189181
 30
0.0
 10
12.1357523756
 20
10.7095842468
 30
0.0
 10
12.1309891806
 20
10.7092987987
 30
0.0
 10
12.1246375799
 20
10.7089195438
 30
0.0
 10
12.1166983131
 20
10.7084450115
 30
0.0
 10
12.1071710804
 20
10.7078757848
 30
0.0
 10
12.0976439237
 20
10.7073064519
 30
0.0
 10
12.0897044668
 20
10.7068321848
 30
0.0
 10
12.0833532464
 20
10.7064523995
 30
0.0
 10
12.0785888915
 20
10.7061685693
 30
0.0
 10
12.0746215839
 20
10.7059288363
 30
0.0
 10
12.0718386045
 20
10.7057673184
 30
0.0
 10
12.0702574869
 20
10.705665193
 30
0.0
 10
12.0690458551
 20
10.7056162889
 30
0.0
 10
12.0679328196
 20
10.7054615395
 30
0.0
 10
12.0664143807
 20
10.7052921271
 30
0.0
 10
12.0637731363
 20
10.7049784536
 30
0.0
 10
12.0599915527
 20
10.7045393419
 30
0.0
 10
12.0554572382
 20
10.7040085585
 30
0.0
 10
12.0494102328
 20
10.7033021919
 30
0.0
 10
12.0418519066
 20
10.7024187719
 30
0.0
 10
12.0327817277
 20
10.701358867
 30
0.0
 10
12.0237116098
 20
10.7002989048
 30
0.0
 10
12.016153131
 20
10.6994156283
 30
0.0
 10
12.0101064309
 20
10.6987089748
 30
0.0
 10
12.0063270595
 20
10.6982673844
 30
0.0
 10
12.0033039828
 20
10.6979139569
 30
0.0
 10
12.0010355245
 20
10.6976493109
 30
0.0
 10
11.9991488031
 20
10.6974274219
 30
0.0
 10
11.9978209146
 20
10.6972747503
 30
0.0
 10
11.9970733376
 20
10.6971833704
 30
0.0
 10
11.996481058
 20
10.6971264952
 30
0.0
 10
11.9960095577
 20
10.6970250507
 30
0.0
 10
11.9953387615
 20
10.6969053377
 30
0.0
 10
11.994184497
 20
10.6966885966
 30
0.0
 10
11.9925252855
 20
10.6963827533
 30
0.0
 10
11.9905386242
 20
10.6960141205
 30
0.0
 10
11.9878882083
 20
10.6955231762
 30
0.0
 10
11.9845757138
 20
10.6949093019
 30
0.0
 10
11.9792754288
 20
10.6939272116
 30
0.0
 10
11.9726501741
 20
10.6926995612
 30
0.0
 10
11.9646998217
 20
10.6912263977
 30
0.0
 10
11.9567494939
 20
10.6897532261
 30
0.0
 10
11.9501241777
 20
10.6885255961
 30
0.0
 10
11.9448240157
 20
10.687543465
 30
0.0
 10
11.9415112084
 20
10.6869296941
 30
0.0
 10
11.9388614344
 20
10.6864385378
 30
0.0
 10
11.9368728122
 20
10.6860705525
 30
0.0
 10
11.9352197359
 20
10.6857626833
 30
0.0
 10
11.934054519
 20
10.6855495588
 30
0.0
 10
11.9334012713
 20
10.6854240511
 30
0.0
 10
11.9328758679
 20
10.6853404061
 30
0.0
 10
11.9324860395
 20
10.6852166789
 30
0.0
 10
11.9319189783
 20
10.6850656905
 30
0.0
 10
11.9309486544
 20
10.6847949466
 30
0.0
 10
11.9295509582
 20
10.6844115752
 30
0.0
 10
11.9278786534
 20
10.6839500719
 30
0.0
 10
11.9256471915
 20
10.6833352432
 30
0.0
 10
11.9228584537
 20
10.6825665331
 30
0.0
 10
11.9183961438
 20
10.6813366943
 30
0.0
 10
11.9128183693
 20
10.6797993624
 30
0.0
 10
11.9061249924
 20
10.6779545782
 30
0.0
 10
11.9005471859
 20
10.6764172555
 30
0.0
 10
11.8960849462
 20
10.6751873965
 30
0.0
 10
11.8927382454
 20
10.6742650064
 30
0.0
 10
11.8893916261
 20
10.6733426001
 30
0.0
 10
11.8866025227
 20
10.6725739787
 30
0.0
 10
11.8843718086
 20
10.6719589683
 30
0.0
 10
11.8826972194
 20
10.6714980202
 30
0.0
 10
11.8813066706
 20
10.6711129117
 30
0.0
 10
11.8803235874
 20
10.6708452689
 30
0.0
 10
11.8797769698
 20
10.6706893117
 30
0.0
 10
11.8793243452
 20
10.6705808469
 30
0.0
 10
11.8790347939
 20
10.6704398788
 30
0.0
 10
11.8785918438
 20
10.6702632589
 30
0.0
 10
11.8778431833
 20
10.6699488916
 30
0.0
 10
11.8767598126
 20
10.6695025572
 30
0.0
 10
11.8754656985
 20
10.6689657738
 30
0.0
 10
11.8737381413
 20
10.6682504756
 30
0.0
 10
11.8715794057
 20
10.6673562111
 30
0.0
 10
11.8689886183
 20
10.6662831544
 30
0.0
 10
11.8663979124
 20
10.6652100815
 30
0.0
 10
11.8629436094
 20
10.6637793233
 30
0.0
 10
11.8586257402
 20
10.6619908736
 30
0.0
 10
11.8543078684
 20
10.6602024244
 30
0.0
 10
11.8508535695
 20
10.6587716653
 30
0.0
 10
11.8482628515
 20
10.657698595
 30
0.0
 10
11.8456721093
 20
10.6566255286
 30
0.0
 10
11.8435132329
 20
10.6557312946
 30
0.0
 10
11.8417859629
 20
10.6550159341
 30
0.0
 10
11.8407068038
 20
10.6545687729
 30
0.0
 10
11.8398425955
 20
10.6542111834
 30
0.0
 10
11.8391968513
 20
10.6539426096
 30
0.0
 10
11.8386510584
 20
10.6537200123
 30
0.0
 10
11.8382316327
 20
10.653539211
 30
0.0
 10
11.837870041
 20
10.653411052
 30
0.0
 10
11.8376879347
 20
10.653254487
 30
0.0
 10
11.8373824296
 20
10.6530556563
 30
0.0
 10
11.8370220592
 20
10.6528037135
 30
0.0
 10
11.8365804073
 20
10.6525028394
 30
0.0
 10
11.8359947541
 20
10.6521011649
 30
0.0
 10
11.8352615864
 20
10.651599246
 30
0.0
 10
11.8340891335
 20
10.6507960784
 30
0.0
 10
11.8326233563
 20
10.6497921523
 30
0.0
 10
11.8308645141
 20
10.6485874267
 30
0.0
 10
11.8291056478
 20
10.647382705
 30
0.0
 10
11.826760501
 20
10.6457764079
 30
0.0
 10
11.8238290648
 20
10.6437685371
 30
0.0
 10
11.8208976293
 20
10.6417606661
 30
0.0
 10
11.8185524815
 20
10.6401543693
 30
0.0
 10
11.8167936182
 20
10.6389496468
 30
0.0
 10
11.8150347647
 20
10.6377449239
 30
0.0
 10
11.8135690226
 20
10.6367409895
 30
0.0
 10
11.8123964981
 20
10.6359378389
 30
0.0
 10
11.8116635129
 20
10.6354358769
 30
0.0
 10
11.8110774851
 20
10.6350342909
 30
0.0
 10
11.8106369774
 20
10.6347331463
 30
0.0
 10
11.8102730271
 20
10.6344820498
 30
0.0
 10
11.8100121009
 20
10.6343065621
 30
0.0
 10
11.8098726199
 20
10.6342058464
 30
0.0
 10
11.8097409106
 20
10.6341315407
 30
0.0
 10
11.8097127859
 20
10.6340525294
 30
0.0
 10
11.8096391548
 20
10.6339488224
 30
0.0
 10
11.8095271348
 20
10.6337665704
 30
0.0
 10
11.8093583049
 20
10.6335066102
 30
0.0
 10
11.8091594763
 20
10.6331944869
 30
0.0
 10
11.8088930557
 20
10.6327783822
 30
0.0
 10
11.8085604805
 20
10.6322582308
 30
0.0
 10
11.8080281084
 20
10.6314260001
 30
0.0
 10
11.8073627296
 20
10.6303857078
 30
0.0
 10
11.806564238
 20
10.6291373587
 30
0.0
 10
11.8057657564
 20
10.6278890091
 30
0.0
 10
11.8047011107
 20
10.6262245432
 30
0.0
 10
11.8033703049
 20
10.6241439607
 30
0.0
 10
11.8020394982
 20
10.6220633783
 30
0.0
 10
11.8009748539
 20
10.6203989123
 30
0.0
 10
11.8001763681
 20
10.6191505629
 30
0.0
 10
11.7993778921
 20
10.6179022133
 30
0.0
 10
11.7987124648
 20
10.6168619225
 30
0.0
 10
11.7981801915
 20
10.6160296886
 30
0.0
 10
11.7978473647
 20
10.6155095452
 30
0.0
 10
11.7975814606
 20
10.6150934243
 30
0.0
 10
11.7973810542
 20
10.6147813504
 30
0.0
 10
11.7972171609
 20
10.6145212353
 30
0.0
 10
11.7970963283
 20
10.6143392598
 30
0.0
 10
11.7970368172
 20
10.6142351098
 30
0.0
 10
11.7969653203
 20
10.6141574592
 30
0.0
 10
11.7969965098
 20
10.6140780433
 30
0.0
 10
11.7970022776
 20
10.6139727711
 30
0.0
 10
11.7970290597
 20
10.613788258
 30
0.0
 10
11.7970585949
 20
10.6135248178
 30
0.0
 10
11.7970977717
 20
10.6132086253
 30
0.0
 10
11.797148703
 20
10.6127870578
 30
0.0
 10
11.7972128138
 20
10.6122600907
 30
0.0
 10
11.7973151414
 20
10.6114169476
 30
0.0
 10
11.7974431365
 20
10.6103630174
 30
0.0
 10
11.797596694
 20
10.6090983017
 30
0.0
 10
11.7977502613
 20
10.6078335858
 30
0.0
 10
11.7979550143
 20
10.6061472981
 30
0.0
 10
11.7982109568
 20
10.6040394383
 30
0.0
 10
11.7984668984
 20
10.6019315786
 30
0.0
 10
11.7986716528
 20
10.6002452909
 30
0.0
 10
11.798825216
 20
10.598980575
 30
0.0
 10
11.7989787889
 20
10.5977158594
 30
0.0
 10
11.799106736
 20
10.5966619287
 30
0.0
 10
11.7992091617
 20
10.5958187865
 30
0.0
 10
11.7992730227
 20
10.5952918174
 30
0.0
 10
11.7993244667
 20
10.594870254
 30
0.0
 10
11.7993620773
 20
10.5945540488
 30
0.0
 10
11.7993965125
 20
10.5942906485
 30
0.0
 10
11.7994145473
 20
10.5941060642
 30
0.0
 10
11.7994343305
 20
10.594000906
 30
0.0
 10
11.7994224693
 20
10.59392114
 30
0.0
 10
11.7995126636
 20
10.5938448045
 30
0.0
 10
11.7995973246
 20
10.5937418272
 30
0.0
 10
11.7997620672
 20
10.5935621744
 30
0.0
 10
11.7999887424
 20
10.5933052362
 30
0.0
 10
11.8002644643
 20
10.592997035
 30
0.0
 10
11.8006307971
 20
10.5925860566
 30
0.0
 10
11.801089157
 20
10.5920723484
 30
0.0
 10
11.8018222848
 20
10.5912504071
 30
0.0
 10
11.8027387796
 20
10.5902229833
 30
0.0
 10
11.8038385368
 20
10.5889900734
 30
0.0
 10
11.8049383039
 20
10.587757164
 30
0.0
 10
11.8064046565
 20
10.5861132845
 30
0.0
 10
11.8082375985
 20
10.5840584353
 30
0.0
 10
11.8100705397
 20
10.582003586
 30
0.0
 10
11.8115368937
 20
10.5803597066
 30
0.0
 10
11.8126366566
 20
10.579126797
 30
0.0
 10
11.8137364293
 20
10.5778938879
 30
0.0
 10
11.8146528761
 20
10.5768664618
 30
0.0
 10
11.8153861018
 20
10.5760445251
 30
0.0
 10
11.8158442125
 20
10.575530805
 30
0.0
 10
11.8162110568
 20
10.5751198511
 30
0.0
 10
11.816485216
 20
10.574811575
 30
0.0
 10
11.8167167805
 20
10.5745548715
 30
0.0
 10
11.8168727949
 20
10.5743747996
 30
0.0
 10
11.8169714406
 20
10.5742724939
 30
0.0
 10
11.8170186784
 20
10.5741940956
 30
0.0
 10
11.8171681549
 20
10.5741220769
 30
0.0
 10
11.8173317948
 20
10.5740238268
 30
0.0
 10
11.8176347804
 20
10.5738529258
 30
0.0
 10
11.8180589301
 20
10.5736082396
 30
0.0
 10
11.8185716279
 20
10.5733148481
 30
0.0
 10
11.8192539264
 20
10.5729235784
 30
0.0
 10
11.8201072441
 20
10.572434519
 30
0.0
 10
11.821472304
 20
10.5716520085
 30
0.0
 10
11.823178714
 20
10.5706738756
 30
0.0
 10
11.8252263696
 20
10.569500114
 30
0.0
 10
11.8272740349
 20
10.5683263529
 30
0.0
 10
11.8300042519
 20
10.5667613379
 30
0.0
 10
11.8334170241
 20
10.5648050693
 30
0.0
 10
11.8368297969
 20
10.5628488007
 30
0.0
 10
11.839560013
 20
10.5612837855
 30
0.0
 10
11.8416076812
 20
10.5601100252
 30
0.0
 10
11.8436553261
 20
10.5589362607
 30
0.0
 10
11.8453617693
 20
10.5579581367
 30
0.0
 10
11.8467267617
 20
10.5571756081
 30
0.0
 10
11.847580251
 20
10.5566865948
 30
0.0
 10
11.8482621972
 20
10.5562952306
 30
0.0
 10
11.8487759713
 20
10.5560021277
 30
0.0
 10
11.8491967535
 20
10.5557565386
 30
0.0
 10
11.8495498932
 20
10.5555630651
 30
0.0
 10
11.8497696238
 20
10.5554097686
 30
0.0
 10
11.850161594
 20
10.5552877389
 30
0.0
 10
11.8506240555
 20
10.5551141106
 30
0.0
 10
11.8512227748
 20
10.5549008226
 30
0.0
 10
11.8519324024
 20
10.554643273
 30
0.0
 10
11.8528816586
 20
10.5543004338
 30
0.0
 10
11.8540671721
 20
10.553871693
 30
0.0
 10
11.8559645844
 20
10.5531858148
 30
0.0
 10
11.858336147
 20
10.5523284303
 30
0.0
 10
11.8611821091
 20
10.5512995848
 30
0.0
 10
11.8640280479
 20
10.5502707349
 30
0.0
 10
11.8678226414
 20
10.5488989367
 30
0.0
 10
11.8725658773
 20
10.5471841878
 30
0.0
 10
11.8782577768
 20
10.5451264926
 30
0.0
 10
11.8830009798
 20
10.5434117362
 30
0.0
 10
11.8867956457
 20
10.5420399544
 30
0.0
 10
11.8891670765
 20
10.5411825375
 30
0.0
 10
11.8910647601
 20
10.5404967261
 30
0.0
 10
11.8924865474
 20
10.5399820332
 30
0.0
 10
11.8936760636
 20
10.539554186
 30
0.0
 10
11.8944995141
 20
10.5392526059
 30
0.0
 10
11.8949844392
 20
10.5390835331
 30
0.0
 10
11.8953076188
 20
10.5389475488
 30
0.0
 10
11.8957856644
 20
10.5388466538
 30
0.0
 10
11.8963690395
 20
10.5386998877
 30
0.0
 10
11.8974151144
 20
10.5384487496
 30
0.0
 10
11.8988963488
 20
10.5380869995
 30
0.0
 10
11.9006794623
 20
10.5376541756
 30
0.0
 10
11.9030549798
 20
10.5370766312
 30
0.0
 10
11.9060250502
 20
10.5363548534
 30
0.0
 10
11.9107767862
 20
10.5351999235
 30
0.0
 10
11.9167165862
 20
10.5337562906
 30
0.0
 10
11.9238442875
 20
10.5320239176
 30
0.0
 10
11.9309720157
 20
10.530291552
 30
0.0
 10
11.9369117483
 20
10.5288479006
 30
0.0
 10
11.941663619
 20
10.5276930078
 30
0.0
 10
11.9446333473
 20
10.5269711357
 30
0.0
 10
11.9470095669
 20
10.5263937848
 30
0.0
 10
11.9487905351
 20
10.5259603696
 30
0.0
 10
11.9502784814
 20
10.5256004694
 30
0.0
 10
11.9513125746
 20
10.5253460289
 30
0.0
 10
11.9519151475
 20
10.525204554
 30
0.0
 10
11.9523342236
 20
10.5250874062
 30
0.0
 10
11.9528788829
 20
10.5250124649
 30
0.0
 10
11.9535612905
 20
10.5248978211
 30
0.0
 10
11.9547759134
 20
10.5247040536
 30
0.0
 10
11.9565004185
 20
10.5244236569
 30
0.0
 10
11.9585743919
 20
10.5240887158
 30
0.0
 10
11.9613380946
 20
10.5236415915
 30
0.0
 10
11.9647932691
 20
10.5230828697
 30
0.0
 10
11.970321243
 20
10.5221888123
 30
0.0
 10
11.9772313157
 20
10.5210712759
 30
0.0
 10
11.9855233551
 20
10.5197302159
 30
0.0
 10
11.9938154172
 20
10.5183891645
 30
0.0
 10
12.0007254334
 20
10.5172716068
 30
0.0
 10
12.0062535202
 20
10.5163775919
 30
0.0
 10
12.0097084077
 20
10.515818762
 30
0.0
 10
12.0124726995
 20
10.5153718597
 30
0.0
 10
12.014544873
 20
10.5150362404
 30
0.0
 10
12.0162750097
 20
10.5147579653
 30
0.0
 10
12.0174795792
 20
10.5145604104
 30
0.0
 10
12.0181780948
 20
10.5144518351
 30
0.0
 10
12.0186732756
 20
10.5143582534
 30
0.0
 10
12.0192781851
 20
10.5143111157
 30
0.0
 10
12.0200464565
 20
10.5142320654
 30
0.0
 10
12.0214087643
 20
10.5141012752
 30
0.0
 10
12.0233455951
 20
10.513910486
 30
0.0
 10
12.0256737828
 20
10.5136832279
 30
0.0
 10
12.0287766391
 20
10.5133796273
 30
0.0
 10
12.0326556867
 20
10.5130003284
 30
0.0
 10
12.0388618962
 20
10.5123933374
 30
0.0
 10
12.0466197496
 20
10.5116346374
 30
0.0
 10
12.0559291344
 20
10.5107241807
 30
0.0
 10
12.0652385297
 20
10.5098137285
 30
0.0
 10
12.0776510532
 20
10.5085997907
 30
0.0
 10
12.0869604465
 20
10.5076893377
 30
0.0
 10
12.0931667086
 20
10.5070823689
 30
0.0
  0
SPLINE
  5
36C
100
AcDbEntity
  8
0
100
AcDbSpline
 62
4
  6
CONTINUOUS
 70
0
 71
3
 72
334
 73
330
 74
0
 42
0.0000001
 43
0.0000001
 44
0.0000000001
 40
0.0
 40
0.0
 40
0.0
 40
0.0
 40
0.015625
 40
0.03125
 40
0.0390625
 40
0.046875
 40
0.05078125
 40
0.0546875
 40
0.05859375
 40
0.060546875
 40
0.0615234375
 40
0.0625
 40
0.0634765625
 40
0.064453125
 40
0.06640625
 40
0.0703125
 40
0.07421875
 40
0.078125
 40
0.0859375
 40
0.09375
 40
0.1015625
 40
0.109375
 40
0.11328125
 40
0.1171875
 40
0.12109375
 40
0.123046875
 40
0.1240234375
 40
0.125
 40
0.1259765625
 40
0.126953125
 40
0.12890625
 40
0.1328125
 40
0.13671875
 40
0.140625
 40
0.1484375
 40
0.15625
 40
0.1640625
 40
0.171875
 40
0.17578125
 40
0.1796875
 40
0.18359375
 40
0.185546875
 40
0.1865234375
 40
0.1875
 40
0.1884765625
 40
0.189453125
 40
0.19140625
 40
0.1953125
 40
0.19921875
 40
0.203125
 40
0.2109375
 40
0.21875
 40
0.2265625
 40
0.234375
 40
0.23828125
 40
0.2421875
 40
0.244140625
 40
0.24609375
 40
0.248046875
 40
0.2490234375
 40
0.2495117188
 40
0.25
 40
0.2504882812
 40
0.2509765625
 40
0.251953125
 40
0.25390625
 40
0.255859375
 40
0.2578125
 40
0.26171875
 40
0.265625
 40
0.2734375
 40
0.28125
 40
0.2890625
 40
0.296875
 40
0.30078125
 40
0.3046875
 40
0.306640625
 40
0.30859375
 40
0.310546875
 40
0.3115234375
 40
0.3120117188
 40
0.3125
 40
0.3129882812
 40
0.3134765625
 40
0.314453125
 40
0.31640625
 40
0.318359375
 40
0.3203125
 40
0.32421875
 40
0.328125
 40
0.3359375
 40
0.34375
 40
0.3515625
 40
0.35546875
 40
0.359375
 40
0.36328125
 40
0.3671875
 40
0.369140625
 40
0.37109375
 40
0.373046875
 40
0.3740234375
 40
0.3745117188
 40
0.375
 40
0.3754882812
 40
0.3759765625
 40
0.376953125
 40
0.37890625
 40
0.380859375
 40
0.3828125
 40
0.38671875
 40
0.390625
 40
0.39453125
 40
0.3984375
 40
0.40625
 40
0.4140625
 40
0.41796875
 40
0.421875
 40
0.42578125
 40
0.4296875
 40
0.431640625
 40
0.43359375
 40
0.4345703125
 40
0.435546875
 40
0.4365234375
 40
0.4370117188
 40
0.4375
 40
0.4379882812
 40
0.4384765625
 40
0.439453125
 40
0.4404296875
 40
0.44140625
 40
0.443359375
 40
0.4453125
 40
0.44921875
 40
0.453125
 40
0.45703125
 40
0.4609375
 40
0.46875
 40
0.4765625
 40
0.48046875
 40
0.484375
 40
0.48828125
 40
0.4921875
 40
0.494140625
 40
0.49609375
 40
0.4970703125
 40
0.498046875
 40
0.4990234375
 40
0.4995117188
 40
0.4997558594
 40
0.5
 40
0.5002441406
 40
0.5004882812
 40
0.5009765625
 40
0.501953125
 40
0.5029296875
 40
0.50390625
 40
0.505859375
 40
0.5078125
 40
0.51171875
 40
0.515625
 40
0.51953125
 40
0.5234375
 40
0.53125
 40
0.5390625
 40
0.54296875
 40
0.546875
 40
0.55078125
 40
0.5546875
 40
0.556640625
 40
0.55859375
 40
0.5595703125
 40
0.560546875
 40
0.5615234375
 40
0.5620117188
 40
0.5622558594
 40
0.5625
 40
0.5627441406
 40
0.5629882812
 40
0.5634765625
 40
0.564453125
 40
0.5654296875
 40
0.56640625
 40
0.568359375
 40
0.5703125
 40
0.57421875
 40
0.578125
 40
0.58203125
 40
0.5859375
 40
0.59375
 40
0.6015625
 40
0.60546875
 40
0.609375
 40
0.61328125
 40
0.6171875
 40
0.619140625
 40
0.62109375
 40
0.6220703125
 40
0.623046875
 40
0.6240234375
 40
0.6245117188
 40
0.6247558594
 40
0.625
 40
0.6252441406
 40
0.6254882812
 40
0.6259765625
 40
0.626953125
 40
0.6279296875
 40
0.62890625
 40
0.630859375
 40
0.6328125
 40
0.63671875
 40
0.640625
 40
0.64453125
 40
0.6484375
 40
0.65625
 40
0.6640625
 40
0.66796875
 40
0.671875
 40
0.67578125
 40
0.6796875
 40
0.681640625
 40
0.68359375
 40
0.6845703125
 40
0.685546875
 40
0.6865234375
 40
0.6870117188
 40
0.6872558594
 40
0.6875
 40
0.6877441406
 40
0.6879882812
 40
0.6884765625
 40
0.689453125
 40
0.6904296875
 40
0.69140625
 40
0.693359375
 40
0.6953125
 40
0.69921875
 40
0.703125
 40
0.70703125
 40
0.7109375
 40
0.71875
 40
0.7265625
 40
0.73046875
 40
0.734375
 40
0.73828125
 40
0.7421875
 40
0.744140625
 40
0.74609375
 40
0.7470703125
 40
0.748046875
 40
0.7490234375
 40
0.7495117188
 40
0.75
 40
0.7504882812
 40
0.7509765625
 40
0.751953125
 40
0.7529296875
 40
0.75390625
 40
0.755859375
 40
0.7578125
 40
0.76171875
 40
0.765625
 40
0.76953125
 40
0.7734375
 40
0.78125
 40
0.7890625
 40
0.796875
 40
0.80078125
 40
0.8046875
 40
0.806640625
 40
0.80859375
 40
0.810546875
 40
0.8115234375
 40
0.8120117188
 40
0.8125
 40
0.8129882812
 40
0.8134765625
 40
0.814453125
 40
0.81640625
 40
0.818359375
 40
0.8203125
 40
0.82421875
 40
0.828125
 40
0.8359375
 40
0.84375
 40
0.8515625
 40
0.859375
 40
0.86328125
 40
0.8671875
 40
0.869140625
 40
0.87109375
 40
0.873046875
 40
0.8740234375
 40
0.8745117188
 40
0.875
 40
0.8754882812
 40
0.8759765625
 40
0.876953125
 40
0.87890625
 40
0.880859375
 40
0.8828125
 40
0.88671875
 40
0.890625
 40
0.8984375
 40
0.90625
 40
0.9140625
 40
0.921875
 40
0.92578125
 40
0.9296875
 40
0.931640625
 40
0.93359375
 40
0.935546875
 40
0.9365234375
 40
0.9370117188
 40
0.9375
 40
0.9379882812
 40
0.9384765625
 40
0.939453125
 40
0.94140625
 40
0.943359375
 40
0.9453125
 40
0.94921875
 40
0.953125
 40
0.9609375
 40
0.96875
 40
0.9765625
 40
0.984375
 40
1.0
 40
1.0
 40
1.0
 40
1.0
 10
12.0931666748
 20
10.5070823713
 30
0.0
 10
12.0995976827
 20
10.5068068211
 30
0.0
 10
12.1124597003
 20
10.5062557276
 30
0.0
 10
12.1285372136
 20
10.5055668266
 30
0.0
 10
12.1413992425
 20
10.5050157773
 30
0.0
 10
12.1494379691
 20
10.5046712099
 30
0.0
 10
12.1558690454
 20
10.5043959259
 30
0.0
 10
12.1606920926
 20
10.5041884501
 30
0.0
 10
12.1647121255
 20
10.5040187754
 30
0.0
 10
12.1675245259
 20
10.5038936804
 30
0.0
 10
12.1691341454
 20
10.5038320701
 30
0.0
 10
12.1703342229
 20
10.5037580511
 30
0.0
 10
12.1715615821
 20
10.5037903408
 30
0.0
 10
12.1731885448
 20
10.5037963121
 30
0.0
 10
12.1760401633
 20
10.5038240389
 30
0.0
 10
12.180111586
 20
10.5038546159
 30
0.0
 10
12.1849982854
 20
10.5038951748
 30
0.0
 10
12.1915135383
 20
10.5039479022
 30
0.0
 10
12.1996577217
 20
10.5040142782
 30
0.0
 10
12.2094306981
 20
10.5040937161
 30
0.0
 10
12.2192036615
 20
10.5041732603
 30
0.0
 10
12.2273478772
 20
10.5042393704
 30
0.0
 10
12.2338630655
 20
10.5042926295
 30
0.0
 10
12.2387499618
 20
10.5043315668
 30
0.0
 10
12.2428207686
 20
10.5043672167
 30
0.0
 10
12.2456734867
 20
10.5043858877
 30
0.0
 10
12.2472986876
 20
10.5044063687
 30
0.0
 10
12.2485314585
 20
10.5043940891
 30
0.0
 10
12.2497112104
 20
10.5044874651
 30
0.0
 10
12.2513027067
 20
10.5045751125
 30
0.0
 10
12.2540792086
 20
10.5047456665
 30
0.0
 10
12.2580501447
 20
10.5049803377
 30
0.0
 10
12.2628133397
 20
10.5052657859
 30
0.0
 10
12.2691649404
 20
10.5056450407
 30
0.0
 10
12.2771042071
 20
10.5061195731
 30
0.0
 10
12.2866314399
 20
10.5066887998
 30
0.0
 10
12.2961585966
 20
10.5072581327
 30
0.0
 10
12.3040980535
 20
10.5077323997
 30
0.0
 10
12.3104492739
 20
10.5081121851
 30
0.0
 10
12.3152136288
 20
10.5083960152
 30
0.0
 10
12.3191809363
 20
10.5086357483
 30
0.0
 10
12.3219639157
 20
10.5087972661
 30
0.0
 10
12.3235450333
 20
10.5088993916
 30
0.0
 10
12.3247566652
 20
10.5089482957
 30
0.0
 10
12.3258697007
 20
10.509103045
 30
0.0
 10
12.3273881396
 20
10.5092724575
 30
0.0
 10
12.330029384
 20
10.5095861309
 30
0.0
 10
12.3338109676
 20
10.5100252426
 30
0.0
 10
12.3383452821
 20
10.5105560261
 30
0.0
 10
12.3443922875
 20
10.5112623927
 30
0.0
 10
12.3519506137
 20
10.5121458126
 30
0.0
 10
12.3610207926
 20
10.5132057175
 30
0.0
 10
12.3700909105
 20
10.5142656798
 30
0.0
 10
12.3776493893
 20
10.5151489563
 30
0.0
 10
12.3836960894
 20
10.5158556097
 30
0.0
 10
12.3874754607
 20
10.5162972002
 30
0.0
 10
12.3904985375
 20
10.5166506276
 30
0.0
 10
12.3927669957
 20
10.5169152736
 30
0.0
 10
12.3946537172
 20
10.5171371627
 30
0.0
 10
12.3959816057
 20
10.5172898342
 30
0.0
 10
12.3967291827
 20
10.5173812141
 30
0.0
 10
12.3973214623
 20
10.5174380894
 30
0.0
 10
12.3977929625
 20
10.5175395338
 30
0.0
 10
12.3984637587
 20
10.5176592469
 30
0.0
 10
12.3996180233
 20
10.517875988
 30
0.0
 10
12.4012772348
 20
10.5181818313
 30
0.0
 10
12.403263896
 20
10.5185504641
 30
0.0
 10
12.4059143119
 20
10.5190414084
 30
0.0
 10
12.4092268065
 20
10.5196552826
 30
0.0
 10
12.4145270915
 20
10.520637373
 30
0.0
 10
12.4211523462
 20
10.5218650234
 30
0.0
 10
12.4291026986
 20
10.5233381868
 30
0.0
 10
12.4370530264
 20
10.5248113584
 30
0.0
 10
12.4436783426
 20
10.5260389885
 30
0.0
 10
12.4489785046
 20
10.5270211195
 30
0.0
 10
12.4522913118
 20
10.5276348905
 30
0.0
 10
12.4549410859
 20
10.5281260467
 30
0.0
 10
12.456929708
 20
10.528494032
 30
0.0
 10
12.4585827843
 20
10.5288019012
 30
0.0
 10
12.4597480012
 20
10.5290150257
 30
0.0
 10
12.460401249
 20
10.5291405335
 30
0.0
 10
12.4609266524
 20
10.5292241784
 30
0.0
 10
12.4613164807
 20
10.5293479056
 30
0.0
 10
12.461883542
 20
10.5294988941
 30
0.0
 10
12.4628538658
 20
10.529769638
 30
0.0
 10
12.464251562
 20
10.5301530094
 30
0.0
 10
12.4659238669
 20
10.5306145127
 30
0.0
 10
12.4681553288
 20
10.5312293414
 30
0.0
 10
12.4709440665
 20
10.5319980515
 30
0.0
 10
12.4754063764
 20
10.5332278903
 30
0.0
 10
12.480984151
 20
10.5347652222
 30
0.0
 10
12.4876775279
 20
10.5366100063
 30
0.0
 10
12.4932553343
 20
10.538147329
 30
0.0
 10
12.497717574
 20
10.539377188
 30
0.0
 10
12.5010642748
 20
10.5402995782
 30
0.0
 10
12.5044108942
 20
10.5412219845
 30
0.0
 10
12.5071999976
 20
10.5419906058
 30
0.0
 10
12.5094307116
 20
10.5426056162
 30
0.0
 10
12.5111053009
 20
10.5430665644
 30
0.0
 10
12.5124958497
 20
10.5434516729
 30
0.0
 10
12.5134789328
 20
10.5437193156
 30
0.0
 10
12.5140255505
 20
10.5438752729
 30
0.0
 10
12.5144781751
 20
10.5439837377
 30
0.0
 10
12.5147677263
 20
10.5441247058
 30
0.0
 10
12.5152106765
 20
10.5443013257
 30
0.0
 10
12.515959337
 20
10.544615693
 30
0.0
 10
12.5170427077
 20
10.5450620274
 30
0.0
 10
12.5183368218
 20
10.5455988107
 30
0.0
 10
12.520064379
 20
10.546314109
 30
0.0
 10
12.5222231145
 20
10.5472083735
 30
0.0
 10
12.524813902
 20
10.5482814302
 30
0.0
 10
12.5274046079
 20
10.5493545031
 30
0.0
 10
12.5308589109
 20
10.5507852613
 30
0.0
 10
12.5351767801
 20
10.552573711
 30
0.0
 10
12.5394946518
 20
10.5543621601
 30
0.0
 10
12.5429489508
 20
10.5557929192
 30
0.0
 10
12.5455396688
 20
10.5568659895
 30
0.0
 10
12.5481304109
 20
10.557939056
 30
0.0
 10
12.5502892873
 20
10.55883329
 30
0.0
 10
12.5520165574
 20
10.5595486505
 30
0.0
 10
12.5530957165
 20
10.5599958116
 30
0.0
 10
12.5539599247
 20
10.5603534011
 30
0.0
 10
12.5546056689
 20
10.560621975
 30
0.0
 10
12.5551514619
 20
10.5608445722
 30
0.0
 10
12.5555708876
 20
10.5610253735
 30
0.0
 10
12.5559324792
 20
10.5611535326
 30
0.0
 10
12.5561145856
 20
10.5613100975
 30
0.0
 10
12.5564200907
 20
10.5615089282
 30
0.0
 10
12.5567804611
 20
10.561760871
 30
0.0
 10
12.557222113
 20
10.5620617452
 30
0.0
 10
12.5578077662
 20
10.5624634197
 30
0.0
 10
12.5585409339
 20
10.5629653386
 30
0.0
 10
12.5597133867
 20
10.5637685062
 30
0.0
 10
12.561179164
 20
10.5647724322
 30
0.0
 10
12.5629380061
 20
10.5659771578
 30
0.0
 10
12.5646968725
 20
10.5671818796
 30
0.0
 10
12.5670420192
 20
10.5687881766
 30
0.0
 10
12.5699734554
 20
10.5707960475
 30
0.0
 10
12.572904891
 20
10.5728039185
 30
0.0
 10
12.5752500387
 20
10.5744102152
 30
0.0
 10
12.5770089021
 20
10.5756149377
 30
0.0
 10
12.5787677556
 20
10.5768196607
 30
0.0
 10
12.5802334976
 20
10.577823595
 30
0.0
 10
12.5814060222
 20
10.5786267457
 30
0.0
 10
12.5821390074
 20
10.5791287077
 30
0.0
 10
12.5827250352
 20
10.5795302937
 30
0.0
 10
12.5831655428
 20
10.5798314383
 30
0.0
 10
12.5835294932
 20
10.5800825348
 30
0.0
 10
12.5837904193
 20
10.5802580225
 30
0.0
 10
12.5839299003
 20
10.5803587381
 30
0.0
 10
12.5840616097
 20
10.5804330439
 30
0.0
 10
12.5840897344
 20
10.5805120551
 30
0.0
 10
12.5841633655
 20
10.5806157621
 30
0.0
 10
12.5842753855
 20
10.5807980141
 30
0.0
 10
12.5844442153
 20
10.5810579743
 30
0.0
 10
12.5846430439
 20
10.5813700977
 30
0.0
 10
12.5849094645
 20
10.5817862024
 30
0.0
 10
12.5852420397
 20
10.5823063537
 30
0.0
 10
12.5857744119
 20
10.5831385845
 30
0.0
 10
12.5864397907
 20
10.5841788768
 30
0.0
 10
12.5872382822
 20
10.5854272259
 30
0.0
 10
12.5880367639
 20
10.5866755755
 30
0.0
 10
12.5891014096
 20
10.5883400414
 30
0.0
 10
12.5904322154
 20
10.5904206239
 30
0.0
 10
12.5917630221
 20
10.5925012063
 30
0.0
 10
12.5928276664
 20
10.5941656723
 30
0.0
 10
12.5936261522
 20
10.5954140217
 30
0.0
 10
12.5944246282
 20
10.5966623713
 30
0.0
 10
12.5950900555
 20
10.5977026621
 30
0.0
 10
12.5956223287
 20
10.5985348959
 30
0.0
 10
12.5959551555
 20
10.5990550394
 30
0.0
 10
12.5962210597
 20
10.5994711603
 30
0.0
 10
12.5964214661
 20
10.5997832342
 30
0.0
 10
12.5965853593
 20
10.6000433492
 30
0.0
 10
12.596706192
 20
10.6002253248
 30
0.0
 10
12.5967657031
 20
10.6003294747
 30
0.0
 10
12.5968372
 20
10.6004071254
 30
0.0
 10
12.5968060105
 20
10.6004865413
 30
0.0
 10
12.5968002426
 20
10.6005918134
 30
0.0
 10
12.5967734606
 20
10.6007763266
 30
0.0
 10
12.5967439254
 20
10.6010397668
 30
0.0
 10
12.5967047486
 20
10.6013559593
 30
0.0
 10
12.5966538173
 20
10.6017775268
 30
0.0
 10
12.5965897065
 20
10.6023044939
 30
0.0
 10
12.5964873789
 20
10.6031476369
 30
0.0
 10
12.5963593837
 20
10.6042015672
 30
0.0
 10
12.5962058262
 20
10.6054662829
 30
0.0
 10
12.5960522589
 20
10.6067309987
 30
0.0
 10
12.595847506
 20
10.6084172865
 30
0.0
 10
12.5955915635
 20
10.6105251462
 30
0.0
 10
12.5953356218
 20
10.6126330059
 30
0.0
 10
12.5951308675
 20
10.6143192937
 30
0.0
 10
12.5949773043
 20
10.6155840096
 30
0.0
 10
12.5948237314
 20
10.6168487251
 30
0.0
 10
12.5946957843
 20
10.6179026558
 30
0.0
 10
12.5945933586
 20
10.618745798
 30
0.0
 10
12.5945294975
 20
10.6192727672
 30
0.0
 10
12.5944780536
 20
10.6196943305
 30
0.0
 10
12.5944404429
 20
10.6200105357
 30
0.0
 10
12.5944060077
 20
10.6202739361
 30
0.0
 10
12.594387973
 20
10.6204585204
 30
0.0
 10
12.5943681898
 20
10.6205636785
 30
0.0
 10
12.594380051
 20
10.6206434446
 30
0.0
 10
12.5942898566
 20
10.6207197801
 30
0.0
 10
12.5942051956
 20
10.6208227574
 30
0.0
 10
12.5940404531
 20
10.6210024101
 30
0.0
 10
12.5938137778
 20
10.6212593484
 30
0.0
 10
12.5935380559
 20
10.6215675496
 30
0.0
 10
12.5931717231
 20
10.621978528
 30
0.0
 10
12.5927133632
 20
10.6224922361
 30
0.0
 10
12.5919802355
 20
10.6233141775
 30
0.0
 10
12.5910637407
 20
10.6243416013
 30
0.0
 10
12.5899639834
 20
10.6255745111
 30
0.0
 10
12.5888642164
 20
10.6268074206
 30
0.0
 10
12.5873978638
 20
10.6284513
 30
0.0
 10
12.5855649217
 20
10.6305061493
 30
0.0
 10
12.5837319805
 20
10.6325609985
 30
0.0
 10
12.5822656266
 20
10.6342048779
 30
0.0
 10
12.5811658636
 20
10.6354377876
 30
0.0
 10
12.5800660909
 20
10.6366706967
 30
0.0
 10
12.5791496442
 20
10.6376981228
 30
0.0
 10
12.5784164185
 20
10.6385200594
 30
0.0
 10
12.5779583078
 20
10.6390337795
 30
0.0
 10
12.5775914635
 20
10.6394447334
 30
0.0
 10
12.5773173043
 20
10.6397530096
 30
0.0
 10
12.5770857398
 20
10.6400097131
 30
0.0
 10
12.5769297254
 20
10.640189785
 30
0.0
 10
12.5768310797
 20
10.6402920907
 30
0.0
 10
12.5767838419
 20
10.640370489
 30
0.0
 10
12.5766343654
 20
10.6404425076
 30
0.0
 10
12.5764707254
 20
10.6405407578
 30
0.0
 10
12.5761677399
 20
10.6407116587
 30
0.0
 10
12.5757435902
 20
10.640956345
 30
0.0
 10
12.5752308923
 20
10.6412497365
 30
0.0
 10
12.5745485939
 20
10.6416410062
 30
0.0
 10
12.5736952761
 20
10.6421300656
 30
0.0
 10
12.5723302163
 20
10.6429125761
 30
0.0
 10
12.5706238062
 20
10.6438907089
 30
0.0
 10
12.5685761507
 20
10.6450644706
 30
0.0
 10
12.5665284854
 20
10.6462382317
 30
0.0
 10
12.5637982683
 20
10.6478032466
 30
0.0
 10
12.5603854961
 20
10.6497595153
 30
0.0
 10
12.5569727233
 20
10.6517157838
 30
0.0
 10
12.5542425072
 20
10.653280799
 30
0.0
 10
12.5521948391
 20
10.6544545593
 30
0.0
 10
12.5501471942
 20
10.6556283239
 30
0.0
 10
12.548440751
 20
10.6566064478
 30
0.0
 10
12.5470757586
 20
10.6573889764
 30
0.0
 10
12.5462222692
 20
10.6578779898
 30
0.0
 10
12.5455403231
 20
10.658269354
 30
0.0
 10
12.5450265489
 20
10.6585624569
 30
0.0
 10
12.5446057668
 20
10.658808046
 30
0.0
 10
12.5442526271
 20
10.6590015194
 30
0.0
 10
12.5440328965
 20
10.6591548159
 30
0.0
 10
12.5436409262
 20
10.6592768457
 30
0.0
 10
12.5431784648
 20
10.6594504739
 30
0.0
 10
12.5425797454
 20
10.659663762
 30
0.0
 10
12.5418701179
 20
10.6599213115
 30
0.0
 10
12.5409208617
 20
10.6602641508
 30
0.0
 10
12.5397353482
 20
10.6606928916
 30
0.0
 10
12.5378379359
 20
10.6613787697
 30
0.0
 10
12.5354663732
 20
10.6622361542
 30
0.0
 10
12.5326204112
 20
10.6632649998
 30
0.0
 10
12.5297744724
 20
10.6642938496
 30
0.0
 10
12.5259798788
 20
10.6656656478
 30
0.0
 10
12.5212366429
 20
10.6673803968
 30
0.0
 10
12.5155447435
 20
10.6694380919
 30
0.0
 10
12.5108015404
 20
10.6711528484
 30
0.0
 10
12.5070068746
 20
10.6725246301
 30
0.0
 10
12.5046354437
 20
10.673382047
 30
0.0
 10
12.5027377602
 20
10.6740678585
 30
0.0
 10
12.5013159729
 20
10.6745825513
 30
0.0
 10
12.5001264567
 20
10.6750103986
 30
0.0
 10
12.4993030062
 20
10.6753119787
 30
0.0
 10
12.4988180811
 20
10.6754810515
 30
0.0
 10
12.4984949015
 20
10.6756170358
 30
0.0
 10
12.4980168559
 20
10.6757179307
 30
0.0
 10
12.4974334808
 20
10.6758646968
 30
0.0
 10
12.4963874058
 20
10.6761158349
 30
0.0
 10
12.4949061714
 20
10.676477585
 30
0.0
 10
12.4931230579
 20
10.676910409
 30
0.0
 10
12.4907475405
 20
10.6774879534
 30
0.0
 10
12.4877774701
 20
10.6782097312
 30
0.0
 10
12.4830257341
 20
10.6793646611
 30
0.0
 10
12.4770859341
 20
10.6808082939
 30
0.0
 10
12.4699582328
 20
10.682540667
 30
0.0
 10
12.4628305046
 20
10.6842730326
 30
0.0
 10
12.4568907719
 20
10.685716684
 30
0.0
 10
12.4521389013
 20
10.6868715768
 30
0.0
 10
12.449169173
 20
10.6875934489
 30
0.0
 10
12.4467929534
 20
10.6881707997
 30
0.0
 10
12.4450119851
 20
10.688604215
 30
0.0
 10
12.4435240389
 20
10.6889641152
 30
0.0
 10
12.4424899457
 20
10.6892185556
 30
0.0
 10
12.4418873728
 20
10.6893600305
 30
0.0
 10
12.4414682967
 20
10.6894771783
 30
0.0
 10
12.4409236373
 20
10.6895521196
 30
0.0
 10
12.4402412297
 20
10.6896667635
 30
0.0
 10
12.4390266069
 20
10.6898605309
 30
0.0
 10
12.4373021017
 20
10.6901409276
 30
0.0
 10
12.4352281283
 20
10.6904758688
 30
0.0
 10
12.4324644257
 20
10.690922993
 30
0.0
 10
12.4290092512
 20
10.6914817148
 30
0.0
 10
12.4234812773
 20
10.6923757723
 30
0.0
 10
12.4165712046
 20
10.6934933087
 30
0.0
 10
12.4082791651
 20
10.6948343686
 30
0.0
 10
12.3999871031
 20
10.6961754201
 30
0.0
 10
12.3930770868
 20
10.6972929777
 30
0.0
 10
12.387549
 20
10.6981869927
 30
0.0
 10
12.3840941125
 20
10.6987458226
 30
0.0
 10
12.3813298207
 20
10.6991927249
 30
0.0
 10
12.3792576473
 20
10.6995283441
 30
0.0
 10
12.3775275105
 20
10.6998066192
 30
0.0
 10
12.3763229411
 20
10.7000041741
 30
0.0
 10
12.3756244254
 20
10.7001127495
 30
0.0
 10
12.3751292447
 20
10.7002063312
 30
0.0
 10
12.3745243352
 20
10.7002534688
 30
0.0
 10
12.3737560638
 20
10.7003325192
 30
0.0
 10
12.3723937559
 20
10.7004633093
 30
0.0
 10
12.3704569251
 20
10.7006540986
 30
0.0
 10
12.3681287375
 20
10.7008813566
 30
0.0
 10
12.3650258812
 20
10.7011849573
 30
0.0
 10
12.3611468336
 20
10.7015642561
 30
0.0
 10
12.3549406241
 20
10.7021712471
 30
0.0
 10
12.3471827707
 20
10.7029299472
 30
0.0
 10
12.3378733859
 20
10.7038404038
 30
0.0
 10
12.3285639905
 20
10.704750856
 30
0.0
 10
12.3161514671
 20
10.7059647938
 30
0.0
 10
12.3068420737
 20
10.7068752469
 30
0.0
 10
12.3006358116
 20
10.7074822156
 30
0.0
  0
ENDSEC
  0
SECTION
  2
OBJECTS
  0
DICTIONARY
  5
C
100
AcDbDictionary
280
0
281
1
  3
ACAD_GROUP
350
D
  3
ACAD_MLINESTYLE
350
17
  3
ACAD_LAYOUT
350
1A
  3
ACAD_PLOTSETTINGS
350
19
  3
ACAD_PLOTSTYLENAME
350
E
  3
ACAD_IMAGE_DICT
350
       36E
  3
ACAD_IMAGE_VARS
350
       36F
  3
ACAD_TABLESTYLE
350
       370
  0
IMAGEDEF_REACTOR
  5
36D
100
AcDbRasterImageDefReactor
 90
2
330
275
  0
DICTIONARY
  5
D
102
{ACAD_REACTORS
330
C
102
}
100
AcDbDictionary
280
0
281
1
  0
ACDBDICTIONARYWDFLT
  5
E
102
{ACAD_REACTORS
330
C
102
}
100
AcDbDictionary
281
1
  3
Normal
350
F
100
AcDbDictionaryWithDefault
340
F
  0
DICTIONARY
  5
36E
330
C
100
AcDbDictionary
281
1
  3
YTA_assy_2_img_1
350
       373
  0
RASTERVARIABLES
  5
36F
330
C
100
AcDbRasterVariables
 90
0
 70
0
 71
1
 72
5
  0
DICTIONARY
  5
17
102
{ACAD_REACTORS
330
C
102
}
100
AcDbDictionary
280
0
281
1
  3
Standard
350
18
  0
DICTIONARY
  5
370
330
C
100
AcDbDictionary
281
1
  3
Standard
350
       374
  3
Standard1
350
       375
  0
DICTIONARY
  5
19
102
{ACAD_REACTORS
330
C
102
}
100
AcDbDictionary
281
1
  0
DICTIONARY
  5
1A
102
{ACAD_REACTORS
330
C
102
}
100
AcDbDictionary
281
1
  3
Model
350
371
  3
Layout1
350
372
  0
ACDBPLACEHOLDER
  5
F
102
{ACAD_REACTORS
330
E
102
}
  0
MLINESTYLE
  5
18
102
{ACAD_REACTORS
330
17
102
}
100
AcDbMlineStyle
  2
STANDARD
 70
0
  3

 62
256
 51
90.0
 52
90.0
 71
2
 49
0.5
 62
256
  6
BYLAYER
 49
-0.5
 62
256
  6
BYLAYER
  0
LAYOUT
  5
371
102
{ACAD_REACTORS
330
1A
102
}
100
AcDbPlotSettings
  1

  2
none_device
  4
ANSI_C_(22.00_x_17.00_Inches)
  6

 40
0.0
 41
0.0
 42
0.0
 43
0.0
 44
558.8
 45
431.8
 46
0.0
 47
0.0
 48
0.0
 49
0.0
140
0.0
141
0.0
142
1.0
143
1.0
 70
1024
 72
0
 73
0
 74
0
  7

 75
0
147
1.0
148
0.0
149
0.0
100
AcDbLayout
  1
Model
 70
0
 71
0
 10
0.0
 20
0.0
 11
22.0
 21
17.0
 12
0.0
 22
0.0
 32
0.0
 14
0.0
 24
0.0
 34
0.0
 15
0.0
 25
0.0
 35
0.0
146
0.0
 13
0.0
 23
0.0
 33
0.0
 16
1.0
 26
0.0
 36
0.0
 17
0.0
 27
1.0
 37
0.0
 76
0
330
204
345
0
346
0
  0
LAYOUT
  5
372
102
{ACAD_REACTORS
330
1A
102
}
100
AcDbPlotSettings
  1

  2
none_device
  4
ANSI_C_(22.00_x_17.00_Inches)
  6

 40
0.0
 41
0.0
 42
0.0
 43
0.0
 44
558.8
 45
431.8
 46
0.0
 47
0.0
 48
0.0
 49
0.0
140
0.0
141
0.0
142
1.0
143
1.0
 70
0
 72
0
 73
0
 74
0
  7

 75
0
147
1.0
148
0.0
149
0.0
100
AcDbLayout
  1
Layout1
 70
0
 71
1
 10
0.0
 20
0.0
 11
22.0
 21
17.0
 12
0.0
 22
0.0
 32
0.0
 14
0.0
 24
0.0
 34
0.0
 15
0.0
 25
0.0
 35
0.0
146
0.0
 13
0.0
 23
0.0
 33
0.0
 16
1.0
 26
0.0
 36
0.0
 17
0.0
 27
1.0
 37
0.0
 76
0
330
205
345
0
346
0
  0
IMAGEDEF
  5
373
102
{ACAD_REACTORS
330
36E
330
36D
102
}
100
AcDbRasterImageDef
 90
0
  1
YTA_assy_2_img_1.png
 10
369.0
 20
92.0
 11
0.0066666667
 21
0.0066666667
280
1
281
0
  0
TABLESTYLE
  5
374
102
{ACAD_REACTORS
330
370
330
278
330
279
102
}
330
370
100
AcDbTableStyle
  3
Standard
 70
0
 71
0
 40
0.06
 41
0.06
280
1
281
1
  7
Standard
140
0.18
170
1
 62
0
 63
7
283
0
  7
Standard
140
0.18
170
1
 62
0
 63
7
283
0
  7
Standard
140
0.18
170
1
 62
0
 63
7
283
0
  0
TABLESTYLE
  5
375
102
{ACAD_REACTORS
330
370
330
277
102
}
330
370
100
AcDbTableStyle
  3
Standard1
 70
1
 71
0
 40
0.06
 41
0.06
280
1
281
1
  7
Standard
140
0.18
170
1
 62
0
 63
7
283
0
  7
Standard
140
0.18
170
1
 62
0
 63
7
283
0
  7
Standard
140
0.18
170
1
 62
0
 63
7
283
0
  0
ENDSEC
  0
EOF
