999
DXF file: YHV_assy_2.dxf
999
Pro/ENGINEER 2014200 by Parametric Technology Corporation
  0
SECTION
  2
HEADER
  9
$ACADVER
  1
AC1021
  9
$DWGCODEPAGE
  3
ANSI_1252
  9
$EXTMAX
 10
22.0
 20
17.0
 30
0.0
  9
$EXTMIN
 10
0.0
 20
0.0
 30
0.0
  9
$LIMMIN
 10
0.0
 20
0.0
  9
$LIMMAX
 10
22.0
 20
17.0
  9
$VIEWCTR
 10
11.0
 20
8.5
  9
$VIEWSIZE
 40
17.0
  9
$CLAYER
  8
0
  9
$LTSCALE
 40
1.21
  9
$CELTYPE
  6
BYLAYER
  9
$DIMSCALE
 40
1.0
  9
$DIMASZ
 40
0.1875
  9
$DIMEXO
 40
0.0625
  9
$DIMDLI
 40
0.836
  9
$DIMEXE
 40
0.125
  9
$DIMCEN
 40
0.198
  9
$DIMLFAC
 40
1.0
  9
$DIMBLK
  1
_FILLED
  9
$DIMTXT
 40
0.1
  9
$DIMTOL
 70
0
  9
$DIMLIM
 70
0
  9
$DIMTFAC
 40
1.0
  9
$DIMGAP
 40
0.09
  9
$DIMDSEP
 70
46
  9
$AUNITS
 70
0
  9
$PDMODE
 70
3
  9
$PDSIZE
 40
0.3125
  9
$HANDSEED
  5
378
  9
$TILEMODE
 70
1
  9
$MEASUREMENT
 70
0
  9
$INSUNITS
 70
1
  0
ENDSEC
  0
SECTION
  2
CLASSES
  0
CLASS
  1
ACDBDICTIONARYWDFLT
  2
AcDbDictionaryWithDefault
  3
AutoCAD 2000
 90
0
 91
1
280
0
281
0
  0
CLASS
  1
ACDBPLACEHOLDER
  2
AcDbPlaceHolder
  3
AutoCAD 2000
 90
0
 91
1
280
0
281
0
  0
CLASS
  1
LAYOUT
  2
AcDbLayout
  3
AutoCAD 2000
 90
0
 91
0
280
0
281
0
  0
CLASS
  1
RASTERVARIABLES
  2
AcDbRasterVariables
  3
ISM
 90
0
 91
1
280
0
281
0
  0
CLASS
  1
IMAGEDEF
  2
AcDbRasterImageDef
  3
ISM
 90
0
 91
1
280
0
281
0
  0
CLASS
  1
IMAGEDEF_REACTOR
  2
AcDbRasterImageDefReactor
  3
ISM
 90
0
 91
1
280
0
281
0
  0
CLASS
  1
IMAGE
  2
AcDbRasterImage
  3
ISM
 90
127
 91
1
280
0
281
1
  0
CLASS
  1
TABLESTYLE
  2
AcDbTableStyle
  3
ObjectDBX Classes
 90
2047
 91
1
280
0
281
0
  0
CLASS
  1
ACAD_TABLE
  2
AcDbTable
  3
ObjectDBX Classes
 90
1025
 91
3
280
0
281
1
  0
ENDSEC
  0
SECTION
  2
TABLES
  0
TABLE
  2
VPORT
  5
8
100
AcDbSymbolTable
 70
2
  0
VPORT
  5
1F4
100
AcDbSymbolTableRecord
100
AcDbViewportTableRecord
  2
*ACTIVE
 70
0
 10
0.0
 20
0.0
 11
1.0
 21
1.0
 12
11.0
 22
8.5
 13
0.0
 23
0.0
 14
1.0
 24
1.0
 15
0.0
 25
0.0
 16
0.0
 26
0.0
 36
1.0
 17
0.0
 27
0.0
 37
0.0
 40
17.0
 41
1.2941176471
 42
50.0
 43
0.0
 44
0.0
 50
0.0
 51
0.0
 71
0
 72
100
 73
1
 74
1
 75
0
 76
0
 77
0
 78
0
  0
ENDTAB
  0
TABLE
  2
LTYPE
  5
5
100
AcDbSymbolTable
 70
6
  0
LTYPE
  5
14
100
AcDbSymbolTableRecord
100
AcDbLinetypeTableRecord
  2
BYBLOCK
 70
0
  3

 72
65
 73
0
 40
0.0
  0
LTYPE
  5
15
100
AcDbSymbolTableRecord
100
AcDbLinetypeTableRecord
  2
BYLAYER
 70
0
  3

 72
65
 73
0
 40
0.0
  0
LTYPE
  5
16
100
AcDbSymbolTableRecord
100
AcDbLinetypeTableRecord
  2
CONTINUOUS
 70
64
  3
Solid line
 72
65
 73
0
 40
0.0
  0
LTYPE
  5
1F5
100
AcDbSymbolTableRecord
100
AcDbLinetypeTableRecord
  2
CENTER
 70
64
  3
____ _ ____ _ ____ _ ____ _ ____ _ ____ _ ____
 72
65
 73
4
 40
0.6
 49
0.375
 74
0
 49
-0.075
 74
0
 49
0.075
 74
0
 49
-0.075
 74
0
  0
LTYPE
  5
1F6
100
AcDbSymbolTableRecord
100
AcDbLinetypeTableRecord
  2
HIDDEN
 70
64
  3
- - - - - - - - - - - - - - - - - - - -
 72
65
 73
2
 40
0.2
 49
0.1
 74
0
 49
-0.1
 74
0
  0
LTYPE
  5
1F7
100
AcDbSymbolTableRecord
100
AcDbLinetypeTableRecord
  2
PHANTOM
 70
64
  3
_____ _ _ _____ _ _ _____ _ _ _____
 72
65
 73
6
 40
0.8
 49
0.45
 74
0
 49
-0.05
 74
0
 49
0.1
 74
0
 49
-0.05
 74
0
 49
0.1
 74
0
 49
-0.05
 74
0
  0
LTYPE
  5
1F8
100
AcDbSymbolTableRecord
100
AcDbLinetypeTableRecord
  2
DOT
 70
64
  3
. . . . . . . . . . . . . . . . . . . .
 72
65
 73
2
 40
0.2
 49
0.1
 74
0
 49
-0.1
 74
0
  0
LTYPE
  5
1F9
100
AcDbSymbolTableRecord
100
AcDbLinetypeTableRecord
  2
DASHED
 70
64
  3
- - - - - - - - - - - - - - - - - - - -
 72
65
 73
2
 40
0.2
 49
0.1
 74
0
 49
-0.1
 74
0
  0
ENDTAB
  0
TABLE
  2
LAYER
  5
2
100
AcDbSymbolTable
 70
36
  0
LAYER
  5
10
100
AcDbSymbolTableRecord
100
AcDbLayerTableRecord
  2
0
 70
0
 62
7
  6
CONTINUOUS
370
-3
390
F
  0
LAYER
  5
1FA
100
AcDbSymbolTableRecord
100
AcDbLayerTableRecord
  2
DEFAULT_1
 70
0
 62
7
  6
CENTER
370
-3
390
F
  0
LAYER
  5
1FB
100
AcDbSymbolTableRecord
100
AcDbLayerTableRecord
  2
DEFAULT_2
 70
0
 62
8
  6
HIDDEN
370
-3
390
F
  0
LAYER
  5
1FC
100
AcDbSymbolTableRecord
100
AcDbLayerTableRecord
  2
DEFAULT_3
 70
0
 62
7
  6
PHANTOM
370
-3
390
F
  0
LAYER
  5
1FD
100
AcDbSymbolTableRecord
100
AcDbLayerTableRecord
  2
DATUM_PLANES
 70
0
 62
7
  6
CONTINUOUS
370
-3
390
F
  0
LAYER
  5
1FE
100
AcDbSymbolTableRecord
100
AcDbLayerTableRecord
  2
PORT_AREAS
 70
0
 62
7
  6
CONTINUOUS
370
-3
390
F
  0
LAYER
  5
1FF
100
AcDbSymbolTableRecord
100
AcDbLayerTableRecord
  2
SUNNBOMCOSMETIC
 70
0
 62
7
  6
CONTINUOUS
370
-3
390
F
  0
LAYER
  5
200
100
AcDbSymbolTableRecord
100
AcDbLayerTableRecord
  2
SUNNBOMSTAMPING
 70
0
 62
7
  6
CONTINUOUS
370
-3
390
F
  0
LAYER
  5
201
100
AcDbSymbolTableRecord
100
AcDbLayerTableRecord
  2
THREADS
 70
0
 62
7
  6
CONTINUOUS
370
-3
390
F
  0
ENDTAB
  0
TABLE
  2
STYLE
  5
3
100
AcDbSymbolTable
 70
1
  0
STYLE
  5
11
100
AcDbSymbolTableRecord
100
AcDbTextStyleTableRecord
  2
STANDARD
 70
0
 40
0.0
 41
0.8
 50
0.0
 71
0
 42
0.2
  3
txt
  4

  0
STYLE
  5
202
100
AcDbSymbolTableRecord
100
AcDbTextStyleTableRecord
  2
TEXTSTYLE_1
 70
0
 40
0.0
 41
0.8
 50
0.0
 71
0
 42
0.2
  3
gdt
  4

  0
ENDTAB
  0
TABLE
  2
VIEW
  5
6
100
AcDbSymbolTable
 70
0
  0
ENDTAB
  0
TABLE
  2
UCS
  5
7
100
AcDbSymbolTable
 70
0
  0
ENDTAB
  0
TABLE
  2
APPID
  5
9
100
AcDbSymbolTable
 70
1
  0
APPID
  5
203
100
AcDbSymbolTableRecord
100
AcDbRegAppTableRecord
  2
ACAD
 70
0
  0
ENDTAB
  0
TABLE
  2
BLOCK_RECORD
  5
1
100
AcDbSymbolTable
 70
0
  0
BLOCK_RECORD
  5
204
100
AcDbSymbolTableRecord
100
AcDbBlockTableRecord
  2
*Model_Space
  0
BLOCK_RECORD
  5
205
100
AcDbSymbolTableRecord
100
AcDbBlockTableRecord
  2
*Paper_Space
  0
BLOCK_RECORD
  5
206
100
AcDbSymbolTableRecord
100
AcDbBlockTableRecord
  2
SUN_FIRST_THIRD_ANGLE_BL0
  0
BLOCK_RECORD
  5
207
100
AcDbSymbolTableRecord
100
AcDbBlockTableRecord
  2
*T1
  0
BLOCK_RECORD
  5
208
100
AcDbSymbolTableRecord
100
AcDbBlockTableRecord
  2
*T2
  0
BLOCK_RECORD
  5
209
100
AcDbSymbolTableRecord
100
AcDbBlockTableRecord
  2
*T3
  0
ENDTAB
  0
TABLE
  2
DIMSTYLE
  5
A
100
AcDbSymbolTable
 70
1
100
AcDbDimStyleTable
 71
0
  0
DIMSTYLE
105
20A
100
AcDbSymbolTableRecord
100
AcDbDimStyleTableRecord
  2
STANDARD
 70
0
  3

  4

 40
1.0
 41
0.1875
 42
0.0625
 43
0.38
 44
0.125
 45
0.0
 46
0.0
 47
0.001
 48
0.001
140
0.1
141
0.09
142
0.0
143
25.4
144
1.0
145
0.0
146
1.0
147
0.09
 71
0.0
 72
0.0
 73
1
 74
1
 75
0
 76
0
 77
0
 78
4
170
0
171
2
172
0
173
0
174
0
175
0
176
0
177
0
178
0
270
2
271
3
272
3
273
2
274
2
275
0
280
0
281
0
282
0
283
1
284
4
285
0
286
0
287
3
288
0
340
11
278
46
  0
ENDTAB
  0
ENDSEC
  0
SECTION
  2
BLOCKS
  0
BLOCK
  5
20
100
AcDbEntity
  8
0
100
AcDbBlockBegin
  2
*Model_Space
 70
0
 10
0.0
 20
0.0
 30
0.0
  3
*Model_Space
  1

  0
ENDBLK
  5
21
100
AcDbEntity
  8
0
100
AcDbBlockEnd
  0
BLOCK
  5
1C
100
AcDbEntity
  8
0
100
AcDbBlockBegin
  2
*Paper_Space
 70
0
 10
0.0
 20
0.0
 30
0.0
  3
*Paper_Space
  1

  0
ENDBLK
  5
1D
100
AcDbEntity
  8
0
100
AcDbBlockEnd
  0
BLOCK
  5
20B
100
AcDbEntity
  8
0
100
AcDbBlockBegin
 62
2
  6
CONTINUOUS
  2
SUN_FIRST_THIRD_ANGLE_BL0
 70
64
 10
20.4816717061
 20
1.2289683772
  3
SUN_FIRST_THIRD_ANGLE_BL0
  1

  0
TEXT
  5
20C
100
AcDbEntity
  8
0
100
AcDbText
 62
2
  6
CONTINUOUS
 10
19.4750896608
 20
1.4136269581
  7
STANDARD
 40
0.08
  1
FIRST ANGLE
 41
0.8
 72
0
100
AcDbText
  0
TEXT
  5
20D
100
AcDbEntity
  8
0
100
AcDbText
 62
2
  6
CONTINUOUS
 10
20.7842537513
 20
1.4047600029
  7
STANDARD
 40
0.08
  1
THIRD ANGLE
 41
0.8
 72
0
100
AcDbText
  0
LINE
  5
20E
100
AcDbEntity
  8
0
100
AcDbLine
 62
7
  6
CONTINUOUS
 10
19.4767170086
 20
1.1727031207
 11
19.6334271527
 21
1.1717972817
  0
LINE
  5
20F
100
AcDbEntity
  8
0
100
AcDbLine
 62
7
  6
CONTINUOUS
 10
19.6596964832
 20
1.1717972817
 11
19.6950230232
 21
1.171593082
  0
LINE
  5
210
100
AcDbEntity
  8
0
100
AcDbLine
 62
7
  6
CONTINUOUS
 10
19.7194818561
 20
1.1708914427
 11
19.8852396156
 21
1.1699333054
  0
LINE
  5
211
100
AcDbEntity
  8
0
100
AcDbLine
 62
7
  6
CONTINUOUS
 10
19.4758111696
 20
1.2723454088
 11
19.88525039
 21
1.3511534004
  0
LINE
  5
212
100
AcDbEntity
  8
0
100
AcDbLine
 62
7
  6
CONTINUOUS
 10
19.88525039
 20
1.3511534004
 11
19.8831348489
 21
0.9851647912
  0
LINE
  5
213
100
AcDbEntity
  8
0
100
AcDbLine
 62
7
  6
CONTINUOUS
 10
19.8831348489
 20
0.9851647912
 11
19.4767170086
 21
1.0658141206
  0
LINE
  5
214
100
AcDbEntity
  8
0
100
AcDbLine
 62
7
  6
CONTINUOUS
 10
19.4767170086
 20
1.0658141206
 11
19.4779056764
 21
1.2714536432
  0
CIRCLE
  5
215
100
AcDbEntity
  8
0
100
AcDbCircle
 62
7
  6
CONTINUOUS
 10
20.2068232291
 20
1.1717972817
 40
0.175742101
  0
CIRCLE
  5
216
100
AcDbEntity
  8
0
100
AcDbCircle
 62
7
  6
CONTINUOUS
 10
20.2068232291
 20
1.1717972817
 40
0.1005522074
  0
LINE
  5
217
100
AcDbEntity
  8
0
100
AcDbLine
 62
7
  6
CONTINUOUS
 10
20.2077290681
 20
1.3756110529
 11
20.2071171714
 21
1.2379342989
  0
LINE
  5
218
100
AcDbEntity
  8
0
100
AcDbLine
 62
7
  6
CONTINUOUS
 10
20.2077290681
 20
1.2016899681
 11
20.2074674401
 21
1.1428236749
  0
LINE
  5
219
100
AcDbEntity
  8
0
100
AcDbLine
 62
7
  6
CONTINUOUS
 10
20.208634907
 20
1.101141841
 11
20.2080230104
 21
0.963465087
  0
LINE
  5
21A
100
AcDbEntity
  8
0
100
AcDbLine
 62
7
  6
CONTINUOUS
 10
20.0066328138
 20
1.1745147986
 11
20.1443095678
 21
1.1739029019
  0
LINE
  5
21B
100
AcDbEntity
  8
0
100
AcDbLine
 62
7
  6
CONTINUOUS
 10
20.1832714155
 20
1.1727031207
 11
20.238153505
 21
1.172335442
  0
LINE
  5
21C
100
AcDbEntity
  8
0
100
AcDbLine
 62
7
  6
CONTINUOUS
 10
20.2756669918
 20
1.1717972817
 11
20.407916871
 21
1.1712095044
  0
CIRCLE
  5
21D
100
AcDbEntity
  8
0
100
AcDbCircle
 62
7
  6
CONTINUOUS
 10
20.7509457401
 20
1.1693297793
 40
0.1722024983
  0
CIRCLE
  5
21E
100
AcDbEntity
  8
0
100
AcDbCircle
 62
7
  6
CONTINUOUS
 10
20.7509457401
 20
1.1693297793
 40
0.0985164967
  0
LINE
  5
21F
100
AcDbEntity
  8
0
100
AcDbLine
 62
7
  6
CONTINUOUS
 10
20.7169767782
 20
1.170462078
 11
20.7825395137
 21
1.1682766535
  0
LINE
  5
220
100
AcDbEntity
  8
0
100
AcDbLine
 62
7
  6
CONTINUOUS
 10
20.8177513651
 20
1.1693297793
 11
20.947965719
 21
1.1693297793
  0
LINE
  5
221
100
AcDbEntity
  8
0
100
AcDbLine
 62
7
  6
CONTINUOUS
 10
20.6875370113
 20
1.170462078
 11
20.5573226574
 21
1.170462078
  0
LINE
  5
222
100
AcDbEntity
  8
0
100
AcDbLine
 62
7
  6
CONTINUOUS
 10
20.7486811426
 20
1.1987695462
 11
20.7486811426
 21
1.1432869085
  0
LINE
  5
223
100
AcDbEntity
  8
0
100
AcDbLine
 62
7
  6
CONTINUOUS
 10
20.7498134414
 20
1.1059210505
 11
20.7498134414
 21
0.9757066966
  0
LINE
  5
224
100
AcDbEntity
  8
0
100
AcDbLine
 62
7
  6
CONTINUOUS
 10
20.7486811426
 20
1.2338708068
 11
20.7486811426
 21
1.3640851607
  0
LINE
  5
225
100
AcDbEntity
  8
0
100
AcDbLine
 62
7
  6
CONTINUOUS
 10
21.0702539817
 20
1.2701043662
 11
21.4790138229
 21
1.3448360823
  0
LINE
  5
226
100
AcDbEntity
  8
0
100
AcDbLine
 62
7
  6
CONTINUOUS
 10
21.4790138229
 20
1.3448360823
 11
21.4790138229
 21
0.9779712941
  0
LINE
  5
227
100
AcDbEntity
  8
0
100
AcDbLine
 62
7
  6
CONTINUOUS
 10
21.4790138229
 20
0.9779712941
 11
21.069121683
 21
1.0617614
  0
LINE
  5
228
100
AcDbEntity
  8
0
100
AcDbLine
 62
7
  6
CONTINUOUS
 10
21.0702539817
 20
1.2701043662
 11
21.069121683
 21
1.0617614
  0
LINE
  5
229
100
AcDbEntity
  8
0
100
AcDbLine
 62
7
  6
CONTINUOUS
 10
21.4790138229
 20
1.1693297793
 11
21.3159628059
 21
1.1693297793
  0
LINE
  5
22A
100
AcDbEntity
  8
0
100
AcDbLine
 62
7
  6
CONTINUOUS
 10
21.2876553377
 20
1.1693297793
 11
21.2502894796
 21
1.1693297793
  0
LINE
  5
22B
100
AcDbEntity
  8
0
100
AcDbLine
 62
7
  6
CONTINUOUS
 10
21.2208497126
 20
1.1659328831
 11
21.0713862804
 21
1.1659328831
  0
LINE
  5
22C
100
AcDbEntity
  8
0
100
AcDbLine
 62
7
  6
CONTINUOUS
 10
20.4796138713
 20
1.5284908897
 11
20.4766766948
 21
0.9294458646
  0
ENDBLK
  5
22D
100
AcDbEntity
  8
0
  6
BYBLOCK
 62
0
100
AcDbBlockEnd
  0
BLOCK
  5
22E
100
AcDbEntity
  8
0
100
AcDbBlockBegin
  2
*T1
 70
1
 10
0.0
 20
0.0
  3
*T1
  1

  0
LINE
  5
22F
100
AcDbEntity
  8
0
100
AcDbLine
 62
2
  6
CONTINUOUS
 10
9.275
 20
0.0
 11
-0.0
 21
0.0
  0
LINE
  5
230
100
AcDbEntity
  8
0
100
AcDbLine
 62
2
  6
CONTINUOUS
 10
9.275
 20
0.0
 11
9.275
 21
1.25
  0
LINE
  5
231
100
AcDbEntity
  8
0
100
AcDbLine
 62
2
  6
CONTINUOUS
 10
9.275
 20
0.625
 11
-0.0
 21
0.625
  0
LINE
  5
232
100
AcDbEntity
  8
0
100
AcDbLine
 62
2
  6
CONTINUOUS
 10
9.275
 20
1.25
 11
-0.0
 21
1.25
  0
LINE
  5
233
100
AcDbEntity
  8
0
100
AcDbLine
 62
2
  6
CONTINUOUS
 10
6.8
 20
0.0
 11
6.8
 21
1.25
  0
LINE
  5
234
100
AcDbEntity
  8
0
100
AcDbLine
 62
2
  6
CONTINUOUS
 10
6.4
 20
0.0
 11
6.4
 21
0.625
  0
LINE
  5
235
100
AcDbEntity
  8
0
100
AcDbLine
 62
2
  6
CONTINUOUS
 10
5.9
 20
0.0
 11
5.9
 21
0.625
  0
LINE
  5
236
100
AcDbEntity
  8
0
100
AcDbLine
 62
2
  6
CONTINUOUS
 10
5.2
 20
0.0
 11
5.2
 21
0.625
  0
LINE
  5
237
100
AcDbEntity
  8
0
100
AcDbLine
 62
2
  6
CONTINUOUS
 10
4.1
 20
0.0
 11
4.1
 21
1.25
  0
LINE
  5
238
100
AcDbEntity
  8
0
100
AcDbLine
 62
2
  6
CONTINUOUS
 10
-0.0
 20
0.0
 11
-0.0
 21
1.25
  0
MTEXT
  5
239
100
AcDbEntity
  8
0
100
AcDbMText
 62
2
  6
CONTINUOUS
  7
STANDARD
 71
2
 72
1
 10
6.6
 20
0.325
 30
0.0
 11
1.0
 21
0.0
 31
0.0
 44
0.9
  1
2
 40
0.125
 41
0.2
  0
MTEXT
  5
23A
100
AcDbEntity
  8
0
100
AcDbMText
 62
2
  6
CONTINUOUS
  7
STANDARD
 71
2
 72
1
 10
6.15
 20
0.325
 30
0.0
 11
1.0
 21
0.0
 31
0.0
 44
0.9
  1
C
 40
0.125
 41
0.2
  0
MTEXT
  5
23B
100
AcDbEntity
  8
0
100
AcDbMText
 62
2
  6
CONTINUOUS
  7
STANDARD
 71
2
 72
1
 10
5.55
 20
0.325
 30
0.0
 11
1.0
 21
0.0
 31
0.0
 44
0.9
  1
1.000
 40
0.125
 41
1.0
  0
MTEXT
  5
23C
100
AcDbEntity
  8
0
100
AcDbMText
 62
2
  6
CONTINUOUS
  7
STANDARD
 71
2
 72
1
 10
4.65
 20
0.325
 30
0.0
 11
1.0
 21
0.0
 31
0.0
 44
0.9
  1
May-23-23
 40
0.125
 41
1.8
  0
MTEXT
  5
23D
100
AcDbEntity
  8
0
100
AcDbMText
 62
2
  6
CONTINUOUS
  7
STANDARD
 71
2
 72
1
 10
2.05
 20
0.4625
 30
0.0
 11
1.0
 21
0.0
 31
0.0
 44
0.9
  1
T-2A Line mount\PCross pilot with shuttle
 40
0.125
 41
4.8
  0
MTEXT
  5
23E
100
AcDbEntity
  8
0
100
AcDbMText
 62
2
  6
CONTINUOUS
  7
STANDARD
 71
1
 72
1
 10
6.45
 20
0.5625
 30
0.0
 11
1.0
 21
0.0
 31
0.0
 44
0.9
  1
SHEET
 40
0.06
 41
0.48
  0
MTEXT
  5
23F
100
AcDbEntity
  8
0
100
AcDbMText
 62
2
  6
CONTINUOUS
  7
STANDARD
 71
1
 72
1
 10
5.95
 20
0.5625
 30
0.0
 11
1.0
 21
0.0
 31
0.0
 44
0.9
  1
DWG SIZE
 40
0.06
 41
0.768
  0
MTEXT
  5
240
100
AcDbEntity
  8
0
100
AcDbMText
 62
2
  6
CONTINUOUS
  7
STANDARD
 71
1
 72
1
 10
5.25
 20
0.5625
 30
0.0
 11
1.0
 21
0.0
 31
0.0
 44
0.9
  1
SCALE
 40
0.06
 41
0.48
  0
MTEXT
  5
241
100
AcDbEntity
  8
0
100
AcDbMText
 62
2
  6
CONTINUOUS
  7
STANDARD
 71
1
 72
1
 10
4.15
 20
0.5625
 30
0.0
 11
1.0
 21
0.0
 31
0.0
 44
0.9
  1
DATE
 40
0.06
 41
0.384
  0
MTEXT
  5
242
100
AcDbEntity
  8
0
100
AcDbMText
 62
2
  6
CONTINUOUS
  7
STANDARD
 71
1
 72
1
 10
0.05
 20
0.5625
 30
0.0
 11
1.0
 21
0.0
 31
0.0
 44
0.9
  1
DESCRIPTION
 40
0.06
 41
1.056
  0
MTEXT
  5
243
100
AcDbEntity
  8
0
100
AcDbMText
 62
2
  6
CONTINUOUS
  7
STANDARD
 71
2
 72
1
 10
5.45
 20
1.0375
 30
0.0
 11
1.0
 21
0.0
 31
0.0
 44
0.9
  1
ALL DIMENSIONS IN INCH\PVIEWS ARE THIRD ANGLE
 40
0.12
 41
4.224
  0
MTEXT
  5
244
100
AcDbEntity
  8
0
100
AcDbMText
 62
2
  6
CONTINUOUS
  7
STANDARD
 71
2
 72
1
 10
2.05
 20
0.95
 30
0.0
 11
1.0
 21
0.0
 31
0.0
 44
0.9
  1
YHV
 40
0.125
 41
0.6
  0
MTEXT
  5
245
100
AcDbEntity
  8
0
100
AcDbMText
 62
2
  6
CONTINUOUS
  7
STANDARD
 71
1
 72
1
 10
0.05
 20
1.1875
 30
0.0
 11
1.0
 21
0.0
 31
0.0
 44
0.9
  1
MODEL
 40
0.06
 41
0.48
  0
ENDBLK
  5
246
100
AcDbEntity
  8
0
  6
BYBLOCK
 62
0
100
AcDbBlockEnd
  0
BLOCK
  5
247
100
AcDbEntity
  8
0
100
AcDbBlockBegin
  2
*T2
 70
1
 10
0.0
 20
0.0
  3
*T2
  1

  0
LINE
  5
248
100
AcDbEntity
  8
0
100
AcDbLine
 62
2
  6
CONTINUOUS
 10
0.0
 20
0.0
 11
9.055
 21
0.0
  0
LINE
  5
249
100
AcDbEntity
  8
0
100
AcDbLine
 62
2
  6
CONTINUOUS
 10
0.0
 20
0.0
 11
0.0
 21
-2.844
  0
LINE
  5
24A
100
AcDbEntity
  8
0
100
AcDbLine
 62
2
  6
CONTINUOUS
 10
0.0
 20
-0.344
 11
9.055
 21
-0.344
  0
LINE
  5
24B
100
AcDbEntity
  8
0
100
AcDbLine
 62
2
  6
CONTINUOUS
 10
0.0
 20
-0.594
 11
9.055
 21
-0.594
  0
LINE
  5
24C
100
AcDbEntity
  8
0
100
AcDbLine
 62
2
  6
CONTINUOUS
 10
0.0
 20
-0.844
 11
9.055
 21
-0.844
  0
LINE
  5
24D
100
AcDbEntity
  8
0
100
AcDbLine
 62
2
  6
CONTINUOUS
 10
0.0
 20
-1.094
 11
9.055
 21
-1.094
  0
LINE
  5
24E
100
AcDbEntity
  8
0
100
AcDbLine
 62
2
  6
CONTINUOUS
 10
0.0
 20
-1.344
 11
9.055
 21
-1.344
  0
LINE
  5
24F
100
AcDbEntity
  8
0
100
AcDbLine
 62
2
  6
CONTINUOUS
 10
0.0
 20
-1.594
 11
9.055
 21
-1.594
  0
LINE
  5
250
100
AcDbEntity
  8
0
100
AcDbLine
 62
2
  6
CONTINUOUS
 10
0.0
 20
-1.844
 11
9.055
 21
-1.844
  0
LINE
  5
251
100
AcDbEntity
  8
0
100
AcDbLine
 62
2
  6
CONTINUOUS
 10
0.0
 20
-2.094
 11
9.055
 21
-2.094
  0
LINE
  5
252
100
AcDbEntity
  8
0
100
AcDbLine
 62
2
  6
CONTINUOUS
 10
0.0
 20
-2.344
 11
9.055
 21
-2.344
  0
LINE
  5
253
100
AcDbEntity
  8
0
100
AcDbLine
 62
2
  6
CONTINUOUS
 10
0.0
 20
-2.594
 11
9.055
 21
-2.594
  0
LINE
  5
254
100
AcDbEntity
  8
0
100
AcDbLine
 62
2
  6
CONTINUOUS
 10
0.0
 20
-2.844
 11
9.055
 21
-2.844
  0
LINE
  5
255
100
AcDbEntity
  8
0
100
AcDbLine
 62
2
  6
CONTINUOUS
 10
3.055
 20
0.0
 11
3.055
 21
-2.844
  0
LINE
  5
256
100
AcDbEntity
  8
0
100
AcDbLine
 62
2
  6
CONTINUOUS
 10
9.055
 20
0.0
 11
9.055
 21
-2.844
  0
MTEXT
  5
257
100
AcDbEntity
  8
0
100
AcDbMText
 62
2
  6
CONTINUOUS
  7
STANDARD
 71
2
 72
1
 10
1.5275
 20
-0.0995
 30
0.0
 11
1.0
 21
0.0
 31
0.0
 44
0.9
  1
Technical Data
 40
0.145
 41
3.248
  0
MTEXT
  5
258
100
AcDbEntity
  8
0
100
AcDbMText
 62
2
  6
CONTINUOUS
  7
STANDARD
 71
2
 72
1
 10
4.555
 20
-0.0995
 30
0.0
 11
1.0
 21
0.0
 31
0.0
 44
0.9
  1
U.S. Units
 40
0.145
 41
2.32
  0
MTEXT
  5
259
100
AcDbEntity
  8
0
100
AcDbMText
 62
2
  6
CONTINUOUS
  7
STANDARD
 71
2
 72
1
 10
7.555
 20
-0.0995
 30
0.0
 11
1.0
 21
0.0
 31
0.0
 44
0.9
  1
Metric Units
 40
0.145
 41
2.784
  0
MTEXT
  5
25A
100
AcDbEntity
  8
0
100
AcDbMText
 62
2
  6
CONTINUOUS
  7
STANDARD
 71
2
 72
1
 10
1.5275
 20
-0.4065
 30
0.0
 11
1.0
 21
0.0
 31
0.0
 44
0.9
  1
Cavity
 40
0.125
 41
1.2
  0
MTEXT
  5
25B
100
AcDbEntity
  8
0
100
AcDbMText
 62
2
  6
CONTINUOUS
  7
STANDARD
 71
2
 72
1
 10
6.055
 20
-0.4065
 30
0.0
 11
1.0
 21
0.0
 31
0.0
 44
0.9
  1
T-2A
 40
0.125
 41
0.8
  0
MTEXT
  5
25C
100
AcDbEntity
  8
0
100
AcDbMText
 62
2
  6
CONTINUOUS
  7
STANDARD
 71
2
 72
1
 10
1.5275
 20
-0.6565
 30
0.0
 11
1.0
 21
0.0
 31
0.0
 44
0.9
  1
Body Features
 40
0.125
 41
2.6
  0
MTEXT
  5
25D
100
AcDbEntity
  8
0
100
AcDbMText
 62
2
  6
CONTINUOUS
  7
STANDARD
 71
2
 72
1
 10
6.055
 20
-0.6565
 30
0.0
 11
1.0
 21
0.0
 31
0.0
 44
0.9
  1
Cross pilot with shuttle
 40
0.125
 41
4.8
  0
MTEXT
  5
25E
100
AcDbEntity
  8
0
100
AcDbMText
 62
2
  6
CONTINUOUS
  7
STANDARD
 71
2
 72
1
 10
1.5275
 20
-0.9065
 30
0.0
 11
1.0
 21
0.0
 31
0.0
 44
0.9
  1
Body Type
 40
0.125
 41
1.8
  0
MTEXT
  5
25F
100
AcDbEntity
  8
0
100
AcDbMText
 62
2
  6
CONTINUOUS
  7
STANDARD
 71
2
 72
1
 10
6.055
 20
-0.9065
 30
0.0
 11
1.0
 21
0.0
 31
0.0
 44
0.9
  1
Line mount
 40
0.125
 41
2.0
  0
MTEXT
  5
260
100
AcDbEntity
  8
0
100
AcDbMText
 62
2
  6
CONTINUOUS
  7
STANDARD
 71
2
 72
1
 10
1.5275
 20
-1.1565
 30
0.0
 11
1.0
 21
0.0
 31
0.0
 44
0.9
  1
Interface
 40
0.125
 41
1.8
  0
MTEXT
  5
261
100
AcDbEntity
  8
0
100
AcDbMText
 62
2
  6
CONTINUOUS
  7
STANDARD
 71
2
 72
1
 10
6.055
 20
-1.1565
 30
0.0
 11
1.0
 21
0.0
 31
0.0
 44
0.9
  1
None
 40
0.125
 41
0.8
  0
MTEXT
  5
262
100
AcDbEntity
  8
0
100
AcDbMText
 62
2
  6
CONTINUOUS
  7
STANDARD
 71
2
 72
1
 10
1.5275
 20
-1.4065
 30
0.0
 11
1.0
 21
0.0
 31
0.0
 44
0.9
  1
Open Cavity Quantity
 40
0.125
 41
4.0
  0
MTEXT
  5
263
100
AcDbEntity
  8
0
100
AcDbMText
 62
2
  6
CONTINUOUS
  7
STANDARD
 71
2
 72
1
 10
6.055
 20
-1.4065
 30
0.0
 11
1.0
 21
0.0
 31
0.0
 44
0.9
  1
2
 40
0.125
 41
0.2
  0
MTEXT
  5
264
100
AcDbEntity
  8
0
100
AcDbMText
 62
2
  6
CONTINUOUS
  7
STANDARD
 71
2
 72
1
 10
1.5275
 20
-1.6565
 30
0.0
 11
1.0
 21
0.0
 31
0.0
 44
0.9
  1
Weight
 40
0.125
 41
1.2
  0
MTEXT
  5
265
100
AcDbEntity
  8
0
100
AcDbMText
 62
2
  6
CONTINUOUS
  7
STANDARD
 71
2
 72
1
 10
4.555
 20
-1.6565
 30
0.0
 11
1.0
 21
0.0
 31
0.0
 44
0.9
  1
1.768 lb.
 40
0.125
 41
1.8
  0
MTEXT
  5
266
100
AcDbEntity
  8
0
100
AcDbMText
 62
2
  6
CONTINUOUS
  7
STANDARD
 71
2
 72
1
 10
7.555
 20
-1.6565
 30
0.0
 11
1.0
 21
0.0
 31
0.0
 44
0.9
  1
0,802 kg.
 40
0.125
 41
1.8
  0
MTEXT
  5
267
100
AcDbEntity
  8
0
100
AcDbMText
 62
2
  6
CONTINUOUS
  7
STANDARD
 71
2
 72
1
 10
1.5275
 20
-1.9065
 30
0.0
 11
1.0
 21
0.0
 31
0.0
 44
0.9
  1
Mounting Hole Diameter
 40
0.125
 41
4.4
  0
MTEXT
  5
268
100
AcDbEntity
  8
0
100
AcDbMText
 62
2
  6
CONTINUOUS
  7
STANDARD
 71
2
 72
1
 10
4.555
 20
-1.9065
 30
0.0
 11
1.0
 21
0.0
 31
0.0
 44
0.9
  1
.41 in.
 40
0.125
 41
1.4
  0
MTEXT
  5
269
100
AcDbEntity
  8
0
100
AcDbMText
 62
2
  6
CONTINUOUS
  7
STANDARD
 71
2
 72
1
 10
7.555
 20
-1.9065
 30
0.0
 11
1.0
 21
0.0
 31
0.0
 44
0.9
  1
10,4 mm
 40
0.125
 41
1.4
  0
MTEXT
  5
26A
100
AcDbEntity
  8
0
100
AcDbMText
 62
2
  6
CONTINUOUS
  7
STANDARD
 71
2
 72
1
 10
1.5275
 20
-2.1565
 30
0.0
 11
1.0
 21
0.0
 31
0.0
 44
0.9
  1
Mounting Hole Depth
 40
0.125
 41
3.8
  0
MTEXT
  5
26B
100
AcDbEntity
  8
0
100
AcDbMText
 62
2
  6
CONTINUOUS
  7
STANDARD
 71
2
 72
1
 10
6.055
 20
-2.1565
 30
0.0
 11
1.0
 21
0.0
 31
0.0
 44
0.9
  1
Through
 40
0.125
 41
1.4
  0
MTEXT
  5
26C
100
AcDbEntity
  8
0
100
AcDbMText
 62
2
  6
CONTINUOUS
  7
STANDARD
 71
2
 72
1
 10
1.5275
 20
-2.4065
 30
0.0
 11
1.0
 21
0.0
 31
0.0
 44
0.9
  1
Mounting Hole Quantity
 40
0.125
 41
4.4
  0
MTEXT
  5
26D
100
AcDbEntity
  8
0
100
AcDbMText
 62
2
  6
CONTINUOUS
  7
STANDARD
 71
2
 72
1
 10
6.055
 20
-2.4065
 30
0.0
 11
1.0
 21
0.0
 31
0.0
 44
0.9
  1
2
 40
0.125
 41
0.2
  0
MTEXT
  5
26E
100
AcDbEntity
  8
0
100
AcDbMText
 62
2
  6
CONTINUOUS
  7
STANDARD
 71
2
 72
1
 10
1.5275
 20
-2.6565
 30
0.0
 11
1.0
 21
0.0
 31
0.0
 44
0.9
  1
Includes integral cartridge(s)
 40
0.125
 41
6.0
  0
MTEXT
  5
26F
100
AcDbEntity
  8
0
100
AcDbMText
 62
2
  6
CONTINUOUS
  7
STANDARD
 71
2
 72
1
 10
6.055
 20
-2.6565
 30
0.0
 11
1.0
 21
0.0
 31
0.0
 44
0.9
  1
Yes (see Included Components)
 40
0.125
 41
5.8
  0
ENDBLK
  5
270
100
AcDbEntity
  8
0
  6
BYBLOCK
 62
0
100
AcDbBlockEnd
  0
BLOCK
  5
271
100
AcDbEntity
  8
0
100
AcDbBlockBegin
  2
*T3
 70
1
 10
0.0
 20
0.0
  3
*T3
  1

  0
LINE
  5
272
100
AcDbEntity
  8
0
100
AcDbLine
 62
2
  6
CONTINUOUS
 10
0.0
 20
0.0
 11
4.6
 21
0.0
  0
LINE
  5
273
100
AcDbEntity
  8
0
100
AcDbLine
 62
2
  6
CONTINUOUS
 10
0.0
 20
0.0
 11
0.0
 21
-1.18775
  0
LINE
  5
274
100
AcDbEntity
  8
0
100
AcDbLine
 62
2
  6
CONTINUOUS
 10
0.0
 20
-0.34375
 11
4.6
 21
-0.34375
  0
LINE
  5
275
100
AcDbEntity
  8
0
100
AcDbLine
 62
2
  6
CONTINUOUS
 10
0.0
 20
-0.68775
 11
4.6
 21
-0.68775
  0
LINE
  5
276
100
AcDbEntity
  8
0
100
AcDbLine
 62
2
  6
CONTINUOUS
 10
0.0
 20
-0.93775
 11
4.6
 21
-0.93775
  0
LINE
  5
277
100
AcDbEntity
  8
0
100
AcDbLine
 62
2
  6
CONTINUOUS
 10
0.0
 20
-1.18775
 11
4.6
 21
-1.18775
  0
LINE
  5
278
100
AcDbEntity
  8
0
100
AcDbLine
 62
2
  6
CONTINUOUS
 10
1.3
 20
-0.34375
 11
1.3
 21
-1.18775
  0
LINE
  5
279
100
AcDbEntity
  8
0
100
AcDbLine
 62
2
  6
CONTINUOUS
 10
3.3
 20
-0.34375
 11
3.3
 21
-1.18775
  0
LINE
  5
27A
100
AcDbEntity
  8
0
100
AcDbLine
 62
2
  6
CONTINUOUS
 10
4.6
 20
0.0
 11
4.6
 21
-1.18775
  0
MTEXT
  5
27B
100
AcDbEntity
  8
0
100
AcDbMText
 62
2
  6
CONTINUOUS
  7
STANDARD
 71
2
 72
1
 10
2.3
 20
-0.099375
 30
0.0
 11
1.0
 21
0.0
 31
0.0
 44
0.9
  1
Port Headings
 40
0.145
 41
3.016
  0
MTEXT
  5
27C
100
AcDbEntity
  8
0
100
AcDbMText
 62
2
  6
CONTINUOUS
  7
STANDARD
 71
2
 72
1
 10
0.65
 20
-0.44325
 30
0.0
 11
1.0
 21
0.0
 31
0.0
 44
0.9
  1
Product
 40
0.145
 41
1.624
  0
MTEXT
  5
27D
100
AcDbEntity
  8
0
100
AcDbMText
 62
2
  6
CONTINUOUS
  7
STANDARD
 71
2
 72
1
 10
2.3
 20
-0.44325
 30
0.0
 11
1.0
 21
0.0
 31
0.0
 44
0.9
  1
Port
 40
0.145
 41
0.928
  0
MTEXT
  5
27E
100
AcDbEntity
  8
0
100
AcDbMText
 62
2
  6
CONTINUOUS
  7
STANDARD
 71
2
 72
1
 10
3.95
 20
-0.44325
 30
0.0
 11
1.0
 21
0.0
 31
0.0
 44
0.9
  1
Size
 40
0.145
 41
0.928
  0
MTEXT
  5
27F
100
AcDbEntity
  8
0
100
AcDbMText
 62
2
  6
CONTINUOUS
  7
STANDARD
 71
2
 72
1
 10
0.65
 20
-0.75025
 30
0.0
 11
1.0
 21
0.0
 31
0.0
 44
0.9
  1
YHV
 40
0.125
 41
0.6
  0
MTEXT
  5
280
100
AcDbEntity
  8
0
100
AcDbMText
 62
2
  6
CONTINUOUS
  7
STANDARD
 71
2
 72
1
 10
2.3
 20
-0.75025
 30
0.0
 11
1.0
 21
0.0
 31
0.0
 44
0.9
  1
Ports C1, C2, V1, V2
 40
0.125
 41
4.0
  0
MTEXT
  5
281
100
AcDbEntity
  8
0
100
AcDbMText
 62
2
  6
CONTINUOUS
  7
STANDARD
 71
2
 72
1
 10
3.95
 20
-0.75025
 30
0.0
 11
1.0
 21
0.0
 31
0.0
 44
0.9
  1
1/2" BSPP
 40
0.125
 41
1.8
  0
MTEXT
  5
282
100
AcDbEntity
  8
0
100
AcDbMText
 62
2
  6
CONTINUOUS
  7
STANDARD
 71
2
 72
1
 10
0.65
 20
-1.00025
 30
0.0
 11
1.0
 21
0.0
 31
0.0
 44
0.9
  1
YHV
 40
0.125
 41
0.6
  0
MTEXT
  5
283
100
AcDbEntity
  8
0
100
AcDbMText
 62
2
  6
CONTINUOUS
  7
STANDARD
 71
2
 72
1
 10
2.3
 20
-1.00025
 30
0.0
 11
1.0
 21
0.0
 31
0.0
 44
0.9
  1
Port S
 40
0.125
 41
1.2
  0
MTEXT
  5
284
100
AcDbEntity
  8
0
100
AcDbMText
 62
2
  6
CONTINUOUS
  7
STANDARD
 71
2
 72
1
 10
3.95
 20
-1.00025
 30
0.0
 11
1.0
 21
0.0
 31
0.0
 44
0.9
  1
1/4" BSPP
 40
0.125
 41
1.8
  0
ENDBLK
  5
285
100
AcDbEntity
  8
0
  6
BYBLOCK
 62
0
100
AcDbBlockEnd
  0
ENDSEC
  0
SECTION
  2
ENTITIES
  0
IMAGE
  5
286
100
AcDbEntity
  8
0
100
AcDbRasterImage
 62
7
  6
CONTINUOUS
 10
19.2297077316
 20
0.3094318264
 30
0.0
 11
0.0066666667
 21
0.0
 31
0.0
 12
0.0
 22
0.0066666667
 32
0.0
 13
369.0
 23
92.0
340
       375
 70
9
280
0
281
50
282
50
283
0
360
       36F
 71
1
 91
2
 14
-0.5
 24
-0.5
 14
368.5
 24
91.5
  0
INSERT
  5
287
100
AcDbEntity
  8
0
100
AcDbBlockReference
 62
2
  6
CONTINUOUS
  2
SUN_FIRST_THIRD_ANGLE_BL0
 10
20.4816717061
 20
1.2289683772
  0
ACAD_TABLE
  5
288
100
AcDbEntity
  8
0
 62
2
  6
CONTINUOUS
100
AcDbBlockReference
  2
*T1
 10
12.42375
 20
0.30125
 30
0.0
100
AcDbTable
342
       377
343
207
 11
1.0
 21
0.0
 31
0.0
 90
6
 91
4
 92
6
 93
20
 94
0
 95
0
 96
0
 70
1
 41
0.0
141
0.525
141
0.1
141
0.525
141
0.1
142
4.1
142
1.1
142
0.7
142
0.5
142
0.4
142
2.475
171
1
172
0
173
0
174
0
175
1
176
1
 91
33
178
0
145
0.0
301
CELL_VALUE
 90
4
  1
T-2A Line mount\PCross pilot with shuttle
304
ACVALUE_END
170
2
140
0.125
171
1
172
0
173
0
174
0
175
1
176
1
 91
33
178
0
145
0.0
301
CELL_VALUE
 90
4
  1
May-23-23
304
ACVALUE_END
170
5
140
0.125
171
1
172
0
173
0
174
0
175
1
176
1
 91
33
178
0
145
0.0
301
CELL_VALUE
 90
4
  1
1.000
304
ACVALUE_END
170
5
140
0.125
171
1
172
0
173
0
174
0
175
1
176
1
 91
33
178
0
145
0.0
301
CELL_VALUE
 90
4
  1
C
304
ACVALUE_END
170
5
140
0.125
171
1
172
0
173
0
174
0
175
1
176
1
 91
33
178
0
145
0.0
301
CELL_VALUE
 90
4
  1
2
304
ACVALUE_END
170
5
140
0.125
171
1
172
0
173
0
174
0
175
1
176
1
 91
33
178
0
145
0.0
301
CELL_VALUE
 90
4
  1
 
304
ACVALUE_END
170
1
140
0.125
171
1
172
0
173
0
174
0
175
1
176
1
 91
33
178
0
145
0.0
301
CELL_VALUE
 90
4
  1
DESCRIPTION
304
ACVALUE_END
170
1
140
0.06
171
1
172
0
173
0
174
0
175
1
176
1
 91
33
178
0
145
0.0
301
CELL_VALUE
 90
4
  1
DATE
304
ACVALUE_END
170
1
140
0.06
171
1
172
0
173
0
174
0
175
1
176
1
 91
33
178
0
145
0.0
301
CELL_VALUE
 90
4
  1
SCALE
304
ACVALUE_END
170
1
140
0.06
171
1
172
0
173
0
174
0
175
1
176
1
 91
33
178
0
145
0.0
301
CELL_VALUE
 90
4
  1
DWG SIZE
304
ACVALUE_END
170
1
140
0.06
171
1
172
0
173
0
174
0
175
1
176
1
 91
33
178
0
145
0.0
301
CELL_VALUE
 90
4
  1
SHEET
304
ACVALUE_END
170
1
140
0.06
171
1
172
0
173
0
174
0
175
1
176
1
 91
33
178
0
145
0.0
301
CELL_VALUE
 90
4
  1
 
304
ACVALUE_END
170
1
140
0.125
171
1
172
0
173
0
174
0
175
1
176
1
 91
33
178
0
145
0.0
301
CELL_VALUE
 90
4
  1
YHV
304
ACVALUE_END
170
5
140
0.125
171
1
172
0
173
0
174
0
175
4
176
1
 91
33
178
0
145
0.0
301
CELL_VALUE
 90
4
  1
ALL DIMENSIONS IN INCH\PVIEWS ARE THIRD ANGLE
304
ACVALUE_END
170
5
140
0.12
171
1
172
0
173
1
174
0
175
1
176
1
 91
1
178
0
145
0.0
170
1
171
1
172
0
173
1
174
0
175
1
176
1
 91
1
178
0
145
0.0
170
1
171
1
172
0
173
1
174
0
175
1
176
1
 91
1
178
0
145
0.0
170
5
171
1
172
0
173
0
174
0
175
1
176
1
 91
33
178
0
145
0.0
301
CELL_VALUE
 90
4
  1
 
304
ACVALUE_END
170
1
140
0.125
171
1
172
0
173
0
174
0
175
1
176
1
 91
33
178
0
145
0.0
301
CELL_VALUE
 90
4
  1
MODEL
304
ACVALUE_END
170
1
140
0.06
171
1
172
0
173
0
174
0
175
1
176
1
 91
33
178
0
145
0.0
301
CELL_VALUE
 90
4
  1
 
304
ACVALUE_END
170
1
140
0.125
171
1
172
0
173
0
174
0
175
1
176
1
 91
33
178
0
145
0.0
301
CELL_VALUE
 90
4
  1
 
304
ACVALUE_END
170
1
140
0.125
171
1
172
0
173
0
174
0
175
1
176
1
 91
33
178
0
145
0.0
301
CELL_VALUE
 90
4
  1
 
304
ACVALUE_END
170
1
140
0.125
171
1
172
0
173
0
174
0
175
1
176
1
 91
33
178
0
145
0.0
301
CELL_VALUE
 90
4
  1
 
304
ACVALUE_END
170
1
140
0.125
171
1
172
0
173
0
174
0
175
1
176
1
 91
33
178
0
145
0.0
301
CELL_VALUE
 90
4
  1
 
304
ACVALUE_END
170
1
140
0.125
  0
ACAD_TABLE
  5
289
100
AcDbEntity
  8
0
 62
2
  6
CONTINUOUS
100
AcDbBlockReference
  2
*T2
 10
12.4237499994
 20
16.47875
 30
0.0
100
AcDbTable
342
       376
343
208
 11
1.0
 21
0.0
 31
0.0
 90
22
 91
11
 92
3
 93
16
 94
0
 95
0
 96
0
 41
0.028
141
0.344
141
0.25
141
0.25
141
0.25
141
0.25
141
0.25
141
0.25
141
0.25
141
0.25
141
0.25
141
0.25
142
3.055
142
3.0
142
3.0
171
1
172
0
173
0
174
0
175
1
176
1
 91
33
178
0
145
0.0
301
CELL_VALUE
 90
4
  1
Technical Data
304
ACVALUE_END
170
5
140
0.145
171
1
172
0
173
0
174
0
175
1
176
1
 91
33
178
0
145
0.0
301
CELL_VALUE
 90
4
  1
U.S. Units
304
ACVALUE_END
170
5
140
0.145
171
1
172
0
173
0
174
0
175
1
176
1
 91
33
178
0
145
0.0
301
CELL_VALUE
 90
4
  1
Metric Units
304
ACVALUE_END
170
5
140
0.145
171
1
172
0
173
0
174
0
175
1
176
1
 91
33
178
0
145
0.0
301
CELL_VALUE
 90
4
  1
Cavity
304
ACVALUE_END
170
5
140
0.125
171
1
172
0
173
0
174
0
175
2
176
1
 91
33
178
0
145
0.0
301
CELL_VALUE
 90
4
  1
T-2A
304
ACVALUE_END
170
5
140
0.125
171
1
172
0
173
1
174
0
175
1
176
1
 91
1
178
0
145
0.0
170
1
171
1
172
0
173
0
174
0
175
1
176
1
 91
33
178
0
145
0.0
301
CELL_VALUE
 90
4
  1
Body Features
304
ACVALUE_END
170
5
140
0.125
171
1
172
0
173
0
174
0
175
2
176
1
 91
33
178
0
145
0.0
301
CELL_VALUE
 90
4
  1
Cross pilot with shuttle
304
ACVALUE_END
170
5
140
0.125
171
1
172
0
173
1
174
0
175
1
176
1
 91
1
178
0
145
0.0
170
1
171
1
172
0
173
0
174
0
175
1
176
1
 91
33
178
0
145
0.0
301
CELL_VALUE
 90
4
  1
Body Type
304
ACVALUE_END
170
5
140
0.125
171
1
172
0
173
0
174
0
175
2
176
1
 91
33
178
0
145
0.0
301
CELL_VALUE
 90
4
  1
Line mount
304
ACVALUE_END
170
5
140
0.125
171
1
172
0
173
1
174
0
175
1
176
1
 91
1
178
0
145
0.0
170
1
171
1
172
0
173
0
174
0
175
1
176
1
 91
33
178
0
145
0.0
301
CELL_VALUE
 90
4
  1
Interface
304
ACVALUE_END
170
5
140
0.125
171
1
172
0
173
0
174
0
175
2
176
1
 91
33
178
0
145
0.0
301
CELL_VALUE
 90
4
  1
None
304
ACVALUE_END
170
5
140
0.125
171
1
172
0
173
1
174
0
175
1
176
1
 91
1
178
0
145
0.0
170
1
171
1
172
0
173
0
174
0
175
1
176
1
 91
33
178
0
145
0.0
301
CELL_VALUE
 90
4
  1
Open Cavity Quantity
304
ACVALUE_END
170
5
140
0.125
171
1
172
0
173
0
174
0
175
2
176
1
 91
33
178
0
145
0.0
301
CELL_VALUE
 90
4
  1
2
304
ACVALUE_END
170
5
140
0.125
171
1
172
0
173
1
174
0
175
1
176
1
 91
1
178
0
145
0.0
170
1
171
1
172
0
173
0
174
0
175
1
176
1
 91
33
178
0
145
0.0
301
CELL_VALUE
 90
4
  1
Weight
304
ACVALUE_END
170
5
140
0.125
171
1
172
0
173
0
174
0
175
1
176
1
 91
33
178
0
145
0.0
301
CELL_VALUE
 90
4
  1
1.768 lb.
304
ACVALUE_END
170
5
140
0.125
171
1
172
0
173
0
174
0
175
1
176
1
 91
33
178
0
145
0.0
301
CELL_VALUE
 90
4
  1
0,802 kg.
304
ACVALUE_END
170
5
140
0.125
171
1
172
0
173
0
174
0
175
1
176
1
 91
33
178
0
145
0.0
301
CELL_VALUE
 90
4
  1
Mounting Hole Diameter
304
ACVALUE_END
170
5
140
0.125
171
1
172
0
173
0
174
0
175
1
176
1
 91
33
178
0
145
0.0
301
CELL_VALUE
 90
4
  1
.41 in.
304
ACVALUE_END
170
5
140
0.125
171
1
172
0
173
0
174
0
175
1
176
1
 91
33
178
0
145
0.0
301
CELL_VALUE
 90
4
  1
10,4 mm
304
ACVALUE_END
170
5
140
0.125
171
1
172
0
173
0
174
0
175
1
176
1
 91
33
178
0
145
0.0
301
CELL_VALUE
 90
4
  1
Mounting Hole Depth
304
ACVALUE_END
170
5
140
0.125
171
1
172
0
173
0
174
0
175
2
176
1
 91
33
178
0
145
0.0
301
CELL_VALUE
 90
4
  1
Through
304
ACVALUE_END
170
5
140
0.125
171
1
172
0
173
1
174
0
175
1
176
1
 91
1
178
0
145
0.0
170
1
171
1
172
0
173
0
174
0
175
1
176
1
 91
33
178
0
145
0.0
301
CELL_VALUE
 90
4
  1
Mounting Hole Quantity
304
ACVALUE_END
170
5
140
0.125
171
1
172
0
173
0
174
0
175
2
176
1
 91
33
178
0
145
0.0
301
CELL_VALUE
 90
4
  1
2
304
ACVALUE_END
170
5
140
0.125
171
1
172
0
173
1
174
0
175
1
176
1
 91
1
178
0
145
0.0
170
1
171
1
172
0
173
0
174
0
175
1
176
1
 91
33
178
0
145
0.0
301
CELL_VALUE
 90
4
  1
Includes integral cartridge(s)
304
ACVALUE_END
170
5
140
0.125
171
1
172
0
173
0
174
0
175
2
176
1
 91
33
178
0
145
0.0
301
CELL_VALUE
 90
4
  1
Yes (see Included Components)
304
ACVALUE_END
170
5
140
0.125
171
1
172
0
173
1
174
0
175
1
176
1
 91
1
178
0
145
0.0
170
1
  0
ACAD_TABLE
  5
28A
100
AcDbEntity
  8
0
 62
2
  6
CONTINUOUS
100
AcDbBlockReference
  2
*T3
 10
0.52125
 20
1.709
 30
0.0
100
AcDbTable
342
       376
343
209
 11
1.0
 21
0.0
 31
0.0
 90
22
 91
4
 92
3
 93
16
 94
0
 95
0
 96
0
 41
0.05
141
0.34375
141
0.344
141
0.25
141
0.25
142
1.3
142
2.0
142
1.3
171
1
172
0
173
0
174
0
175
3
176
1
 91
33
178
0
145
0.0
301
CELL_VALUE
 90
4
  1
Port Headings
304
ACVALUE_END
170
5
140
0.145
171
1
172
0
173
1
174
0
175
1
176
1
 91
1
178
0
145
0.0
170
1
171
1
172
0
173
1
174
0
175
1
176
1
 91
1
178
0
145
0.0
170
1
171
1
172
0
173
0
174
0
175
1
176
1
 91
33
178
0
145
0.0
301
CELL_VALUE
 90
4
  1
Product
304
ACVALUE_END
170
5
140
0.145
171
1
172
0
173
0
174
0
175
1
176
1
 91
33
178
0
145
0.0
301
CELL_VALUE
 90
4
  1
Port
304
ACVALUE_END
170
5
140
0.145
171
1
172
0
173
0
174
0
175
1
176
1
 91
33
178
0
145
0.0
301
CELL_VALUE
 90
4
  1
Size
304
ACVALUE_END
170
5
140
0.145
171
1
172
0
173
0
174
0
175
1
176
1
 91
33
178
0
145
0.0
301
CELL_VALUE
 90
4
  1
YHV
304
ACVALUE_END
170
5
140
0.125
171
1
172
0
173
0
174
0
175
1
176
1
 91
33
178
0
145
0.0
301
CELL_VALUE
 90
4
  1
Ports C1, C2, V1, V2
304
ACVALUE_END
170
5
140
0.125
171
1
172
0
173
0
174
0
175
1
176
1
 91
33
178
0
145
0.0
301
CELL_VALUE
 90
4
  1
1/2" BSPP
304
ACVALUE_END
170
5
140
0.125
171
1
172
0
173
0
174
0
175
1
176
1
 91
33
178
0
145
0.0
301
CELL_VALUE
 90
4
  1
YHV
304
ACVALUE_END
170
5
140
0.125
171
1
172
0
173
0
174
0
175
1
176
1
 91
33
178
0
145
0.0
301
CELL_VALUE
 90
4
  1
Port S
304
ACVALUE_END
170
5
140
0.125
171
1
172
0
173
0
174
0
175
1
176
1
 91
33
178
0
145
0.0
301
CELL_VALUE
 90
4
  1
1/4" BSPP
304
ACVALUE_END
170
5
140
0.125
  0
MTEXT
  5
28B
100
AcDbEntity
  8
0
100
AcDbMText
 62
2
  6
CONTINUOUS
  7
STANDARD
 71
1
 72
1
 10
0.52125
 20
5.75995
 30
0.0
 11
1.0
 21
0.0
 31
0.0
 44
0.6
  3
Notes\P \P1. Important: Carefully consider\P   the maximum system pressure. The\P   pressure rating of the manifold is\P   dependent on the manifold material,\P   with the port type/size a secondary\P   consideration. Manifolds\P   constructed of alu
  3
minum are not\P   rated for pressures higher than\P   3000 psi (210 bar), regardless of\P   the port type/size specified.\P2. Shuttle is accessible through\P   the V2 port.\P3. This drawing is for reference\P   only. It is generated by an\P   automat
  1
ed process and does not fall\P   under Sun's document control\P   process.\P4. Items without balloons are\P   shipped loose.
 40
0.1
 41
3.04
  0
LINE
  5
28C
100
AcDbEntity
  8
0
100
AcDbLine
 62
7
  6
CONTINUOUS
 10
0.30125
 20
0.30125
 11
0.30125
 21
16.69875
  0
LINE
  5
28D
100
AcDbEntity
  8
0
100
AcDbLine
 62
7
  6
CONTINUOUS
 10
0.30125
 20
0.30125
 11
21.69875
 21
0.30125
  0
LINE
  5
28E
100
AcDbEntity
  8
0
100
AcDbLine
 62
7
  6
CONTINUOUS
 10
0.30125
 20
16.69875
 11
21.69875
 21
16.69875
  0
LINE
  5
28F
100
AcDbEntity
  8
0
100
AcDbLine
 62
7
  6
CONTINUOUS
 10
21.69875
 20
0.30125
 11
21.69875
 21
16.69875
  0
LINE
  5
290
100
AcDbEntity
  8
0
100
AcDbLine
 62
7
  6
CONTINUOUS
 10
8.8396697825
 20
10.4204106867
 11
8.4514415353
 21
10.045410974
  0
LINE
  5
291
100
AcDbEntity
  8
0
100
AcDbLine
 62
7
  6
CONTINUOUS
 10
8.4514415353
 20
10.045410974
 11
8.4514415353
 21
6.9061518525
  0
LINE
  5
292
100
AcDbEntity
  8
0
100
AcDbLine
 62
4
  6
CONTINUOUS
 10
8.5842563453
 20
8.5873114103
 11
8.6204785652
 21
8.7007104943
  0
LINE
  5
293
100
AcDbEntity
  8
0
100
AcDbLine
 62
4
  6
CONTINUOUS
 10
8.7001674488
 20
8.6951840514
 11
8.7001674488
 21
8.579272948
  0
LINE
  5
294
100
AcDbEntity
  8
0
100
AcDbLine
 62
4
  6
CONTINUOUS
 10
8.5480341255
 20
8.7057345332
 11
8.5842563453
 21
8.5873114103
  0
LINE
  5
295
100
AcDbEntity
  8
0
100
AcDbLine
 62
4
  6
CONTINUOUS
 10
9.8785970827
 20
6.9520671675
 11
9.8641081947
 21
6.9627312342
  0
LINE
  5
296
100
AcDbEntity
  8
0
100
AcDbLine
 62
7
  6
CONTINUOUS
 10
8.4514415353
 20
6.9061518525
 11
13.1603302175
 21
6.5795893133
  0
LINE
  5
297
100
AcDbEntity
  8
0
100
AcDbLine
 62
4
  6
CONTINUOUS
 10
9.8930859706
 20
7.0669734631
 11
9.9075748585
 21
7.056309399
  0
LINE
  5
298
100
AcDbEntity
  8
0
100
AcDbLine
 62
4
  6
CONTINUOUS
 10
9.8641081947
 20
6.9627312342
 11
9.8496193068
 21
6.9830545589
  0
LINE
  5
299
100
AcDbEntity
  8
0
100
AcDbLine
 62
4
  6
CONTINUOUS
 10
9.9075748585
 20
7.056309399
 11
9.9148193025
 21
7.0461477319
  0
LINE
  5
29A
100
AcDbEntity
  8
0
100
AcDbLine
 62
4
  6
CONTINUOUS
 10
11.7090265118
 20
6.8251264554
 11
11.6945376239
 21
6.8261312632
  0
LINE
  5
29B
100
AcDbEntity
  8
0
100
AcDbLine
 62
4
  6
CONTINUOUS
 10
9.8930859706
 20
6.9510623597
 11
9.8785970827
 21
6.9520671675
  0
LINE
  5
29C
100
AcDbEntity
  8
0
100
AcDbLine
 62
4
  6
CONTINUOUS
 10
11.7887153955
 20
6.8196000125
 11
11.8466709472
 21
6.8155807814
  0
LINE
  5
29D
100
AcDbEntity
  8
0
100
AcDbLine
 62
4
  6
CONTINUOUS
 10
9.8785970827
 20
7.0679782709
 11
9.8930859706
 21
7.0669734631
  0
LINE
  5
29E
100
AcDbEntity
  8
0
100
AcDbLine
 62
4
  6
CONTINUOUS
 10
11.6945376239
 20
6.9420423666
 11
11.7090265118
 21
6.9410375588
  0
LINE
  5
29F
100
AcDbEntity
  8
0
100
AcDbLine
 62
4
  6
CONTINUOUS
 10
11.8104487274
 20
6.9340039043
 11
11.8249376153
 21
6.9329990965
  0
LINE
  5
2A0
100
AcDbEntity
  8
0
100
AcDbLine
 62
4
  6
CONTINUOUS
 10
9.8496193068
 20
6.9830545589
 11
9.8423748628
 21
7.0125347386
  0
LINE
  5
2A1
100
AcDbEntity
  8
0
100
AcDbLine
 62
7
  6
CONTINUOUS
 10
10.705875586
 20
10.0900271581
 11
10.7042963903
 21
10.0885303014
  0
LINE
  5
2A2
100
AcDbEntity
  8
0
100
AcDbLine
 62
4
  6
CONTINUOUS
 10
10.00175263
 20
7.0594374047
 11
10.00175263
 21
6.9435263012
  0
LINE
  5
2A3
100
AcDbEntity
  8
0
100
AcDbLine
 62
4
  6
CONTINUOUS
 10
11.6945376239
 20
6.8261312632
 11
11.680048736
 21
6.8367953299
  0
LINE
  5
2A4
100
AcDbEntity
  8
0
100
AcDbLine
 62
4
  6
CONTINUOUS
 10
11.7090265118
 20
6.9410375588
 11
11.7235153998
 21
6.9303734947
  0
LINE
  5
2A5
100
AcDbEntity
  8
0
100
AcDbLine
 62
4
  6
CONTINUOUS
 10
10.2586889186
 20
9.6399595282
 11
10.2586889186
 21
9.5820039751
  0
LINE
  5
2A6
100
AcDbEntity
  8
0
100
AcDbLine
 62
4
  6
CONTINUOUS
 10
10.3166444716
 20
9.5779847439
 11
10.3166444716
 21
9.5200291909
  0
LINE
  5
2A7
100
AcDbEntity
  8
0
100
AcDbLine
 62
4
  6
CONTINUOUS
 10
10.3456222481
 20
9.5180195753
 11
10.3456222481
 21
9.6339306813
  0
LINE
  5
2A8
100
AcDbEntity
  8
0
100
AcDbLine
 62
4
  6
CONTINUOUS
 10
9.8423748628
 20
7.0125347386
 11
9.8496193068
 21
7.0410101106
  0
LINE
  5
2A9
100
AcDbEntity
  8
0
100
AcDbLine
 62
4
  6
CONTINUOUS
 10
10.7130880526
 20
9.2226284484
 11
10.746205513
 21
9.27000793
  0
LINE
  5
2AA
100
AcDbEntity
  8
0
100
AcDbLine
 62
4
  6
CONTINUOUS
 10
10.4509081683
 20
8.9361300614
 11
10.4343494399
 21
8.9207196829
  0
LINE
  5
2AB
100
AcDbEntity
  8
0
100
AcDbLine
 62
4
  6
CONTINUOUS
 10
10.3708743141
 20
8.9968761947
 11
10.3267177015
 21
8.9778601581
  0
LINE
  5
2AC
100
AcDbEntity
  8
0
100
AcDbLine
 62
4
  6
CONTINUOUS
 10
10.8445229932
 20
7.8027095847
 11
10.8300341052
 21
7.8037143925
  0
LINE
  5
2AD
100
AcDbEntity
  8
0
100
AcDbLine
 62
4
  6
CONTINUOUS
 10
11.8249376153
 20
6.9329990965
 11
11.8394265032
 21
6.9223350324
  0
LINE
  5
2AE
100
AcDbEntity
  8
0
100
AcDbLine
 62
4
  6
CONTINUOUS
 10
10.8300341052
 20
7.8037143925
 11
10.8155452173
 21
7.8143784591
  0
LINE
  5
2AF
100
AcDbEntity
  8
0
100
AcDbLine
 62
4
  6
CONTINUOUS
 10
10.3929526222
 20
8.923590562
 11
10.3929526222
 21
9.039501668
  0
LINE
  5
2B0
100
AcDbEntity
  8
0
100
AcDbLine
 62
4
  6
CONTINUOUS
 10
10.4035778012
 20
9.62991145
 11
10.4035778012
 21
9.514000344
  0
LINE
  5
2B1
100
AcDbEntity
  8
0
100
AcDbLine
 62
4
  6
CONTINUOUS
 10
10.4325555777
 20
9.6279018344
 11
10.4325555777
 21
9.5119907284
  0
LINE
  5
2B2
100
AcDbEntity
  8
0
100
AcDbLine
 62
4
  6
CONTINUOUS
 10
10.4509081683
 20
9.0189237088
 11
10.4509081683
 21
8.9361300614
  0
LINE
  5
2B3
100
AcDbEntity
  8
0
100
AcDbLine
 62
4
  6
CONTINUOUS
 10
10.4905111307
 20
9.6238826031
 11
10.4905111307
 21
9.5079714971
  0
LINE
  5
2B4
100
AcDbEntity
  8
0
100
AcDbLine
 62
4
  6
CONTINUOUS
 10
10.497824569
 20
8.9163176677
 11
10.5309420259
 21
9.0299320703
  0
LINE
  5
2B5
100
AcDbEntity
  8
0
100
AcDbLine
 62
4
  6
CONTINUOUS
 10
10.8703960108
 20
8.9898321281
 11
10.8869547324
 21
9.0052425053
  0
LINE
  5
2B6
100
AcDbEntity
  8
0
100
AcDbLine
 62
4
  6
CONTINUOUS
 10
10.8445229932
 20
7.9186206881
 11
10.8300341052
 21
7.9196254959
  0
LINE
  5
2B7
100
AcDbEntity
  8
0
100
AcDbLine
 62
4
  6
CONTINUOUS
 10
10.8155452173
 20
7.8819932715
 11
10.8590118811
 21
7.8500010688
  0
LINE
  5
2B8
100
AcDbEntity
  8
0
100
AcDbLine
 62
4
  6
CONTINUOUS
 10
10.8590118811
 20
7.907956624
 11
10.8445229932
 21
7.9186206881
  0
LINE
  5
2B9
100
AcDbEntity
  8
0
100
AcDbLine
 62
4
  6
CONTINUOUS
 10
10.8155452173
 20
7.8143784591
 11
10.8010563294
 21
7.8347017839
  0
LINE
  5
2BA
100
AcDbEntity
  8
0
100
AcDbLine
 62
4
  6
CONTINUOUS
 10
10.8083007733
 20
7.8921549317
 11
10.8155452173
 21
7.8819932715
  0
LINE
  5
2BB
100
AcDbEntity
  8
0
100
AcDbLine
 62
4
  6
CONTINUOUS
 10
10.8590118811
 20
7.8500010688
 11
10.8662563251
 21
7.8398394086
  0
LINE
  5
2BC
100
AcDbEntity
  8
0
100
AcDbLine
 62
4
  6
CONTINUOUS
 10
10.8662563251
 20
7.8977949569
 11
10.8590118811
 21
7.907956624
  0
LINE
  5
2BD
100
AcDbEntity
  8
0
100
AcDbLine
 62
4
  6
CONTINUOUS
 10
11.680048736
 20
6.8367953299
 11
11.6655598481
 21
6.8571186546
  0
LINE
  5
2BE
100
AcDbEntity
  8
0
100
AcDbLine
 62
4
  6
CONTINUOUS
 10
10.6064222367
 20
9.4999330346
 11
10.6064222367
 21
9.6158441406
  0
LINE
  5
2BF
100
AcDbEntity
  8
0
100
AcDbLine
 62
4
  6
CONTINUOUS
 10
10.6302944104
 20
8.907130853
 11
10.6302944104
 21
9.0230419591
  0
LINE
  5
2C0
100
AcDbEntity
  8
0
100
AcDbLine
 62
4
  6
CONTINUOUS
 10
10.6643777897
 20
9.4959138034
 11
10.6643777897
 21
9.5538693564
  0
LINE
  5
2C1
100
AcDbEntity
  8
0
100
AcDbLine
 62
4
  6
CONTINUOUS
 10
10.6965293242
 20
8.9025374462
 11
10.6965293242
 21
9.0184485522
  0
LINE
  5
2C2
100
AcDbEntity
  8
0
100
AcDbLine
 62
4
  6
CONTINUOUS
 10
10.711708158
 20
9.4926314312
 11
10.711708158
 21
9.5505869842
  0
LINE
  5
2C3
100
AcDbEntity
  8
0
100
AcDbLine
 62
4
  6
CONTINUOUS
 10
10.7130880526
 20
9.2226284484
 11
10.7130880526
 21
9.1563935277
  0
LINE
  5
2C4
100
AcDbEntity
  8
0
100
AcDbLine
 62
4
  6
CONTINUOUS
 10
10.769663711
 20
9.5465677529
 11
10.769663711
 21
9.4306566469
  0
LINE
  5
2C5
100
AcDbEntity
  8
0
100
AcDbLine
 62
4
  6
CONTINUOUS
 10
10.7793229698
 20
9.1518001206
 11
10.7793229698
 21
9.2677112266
  0
LINE
  5
2C6
100
AcDbEntity
  8
0
100
AcDbLine
 62
4
  6
CONTINUOUS
 10
10.8083007464
 20
9.4859327124
 11
10.8083007464
 21
9.5438882654
  0
LINE
  5
2C7
100
AcDbEntity
  8
0
100
AcDbLine
 62
4
  6
CONTINUOUS
 10
10.8083007733
 20
7.901814188
 11
10.8083007733
 21
7.8921549317
  0
LINE
  5
2C8
100
AcDbEntity
  8
0
100
AcDbLine
 62
4
  6
CONTINUOUS
 10
10.9035134435
 20
9.143187482
 11
10.9366308866
 21
9.2568018855
  0
LINE
  5
2C9
100
AcDbEntity
  8
0
100
AcDbLine
 62
4
  6
CONTINUOUS
 10
10.9669885623
 20
8.9831334119
 11
10.9835472839
 21
8.9985437891
  0
LINE
  5
2CA
100
AcDbEntity
  8
0
100
AcDbLine
 62
4
  6
CONTINUOUS
 10
11.0249441154
 20
8.8963205332
 11
11.0083853938
 21
8.8809101543
  0
LINE
  5
2CB
100
AcDbEntity
  8
0
100
AcDbLine
 62
4
  6
CONTINUOUS
 10
11.1160171114
 20
8.8900045995
 11
11.0994583899
 21
8.8745942205
  0
LINE
  5
2CC
100
AcDbEntity
  8
0
100
AcDbLine
 62
4
  6
CONTINUOUS
 10
11.2898837705
 20
8.9110643643
 11
11.2457271613
 21
8.8920483293
  0
LINE
  5
2CD
100
AcDbEntity
  8
0
100
AcDbLine
 62
4
  6
CONTINUOUS
 10
11.7235153998
 20
6.9303734947
 11
11.7307598437
 21
6.9202118276
  0
LINE
  5
2CE
100
AcDbEntity
  8
0
100
AcDbLine
 62
4
  6
CONTINUOUS
 10
11.8394265032
 20
6.9223350324
 11
11.8466709472
 21
6.9121733653
  0
LINE
  5
2CF
100
AcDbEntity
  8
0
100
AcDbLine
 62
4
  6
CONTINUOUS
 10
10.5309420259
 20
9.0299320703
 11
10.5640594966
 21
8.9117242599
  0
LINE
  5
2D0
100
AcDbEntity
  8
0
100
AcDbLine
 62
4
  6
CONTINUOUS
 10
10.8372785159
 20
9.2636919958
 11
10.8372785159
 21
9.1477808898
  0
LINE
  5
2D1
100
AcDbEntity
  8
0
100
AcDbLine
 62
4
  6
CONTINUOUS
 10
10.8662562994
 20
9.5978245872
 11
10.8662562994
 21
9.4819134812
  0
LINE
  5
2D2
100
AcDbEntity
  8
0
100
AcDbLine
 62
4
  6
CONTINUOUS
 10
10.8662563251
 20
7.8398394086
 11
10.8662563251
 21
7.8205208908
  0
LINE
  5
2D3
100
AcDbEntity
  8
0
100
AcDbLine
 62
4
  6
CONTINUOUS
 10
10.8703960108
 20
8.9070384807
 11
10.8703960108
 21
8.9898321281
  0
LINE
  5
2D4
100
AcDbEntity
  8
0
100
AcDbLine
 62
4
  6
CONTINUOUS
 10
10.9048933347
 20
9.5371895467
 11
10.9048933347
 21
9.4792339937
  0
LINE
  5
2D5
100
AcDbEntity
  8
0
100
AcDbLine
 62
4
  6
CONTINUOUS
 10
10.9669885623
 20
8.9003397645
 11
10.9669885623
 21
8.9831334119
  0
LINE
  5
2D6
100
AcDbEntity
  8
0
100
AcDbLine
 62
4
  6
CONTINUOUS
 10
11.0014859231
 20
9.4725352749
 11
11.0014859231
 21
9.5111723103
  0
LINE
  5
2D7
100
AcDbEntity
  8
0
100
AcDbLine
 62
4
  6
CONTINUOUS
 10
11.0249441154
 20
8.9791141806
 11
11.0249441154
 21
8.8963205332
  0
LINE
  5
2D8
100
AcDbEntity
  8
0
100
AcDbLine
 62
4
  6
CONTINUOUS
 10
9.8496193068
 20
7.0410101106
 11
9.8641081947
 21
7.0593238224
  0
LINE
  5
2D9
100
AcDbEntity
  8
0
100
AcDbLine
 62
7
  6
CONTINUOUS
 10
12.5169866176
 20
9.9644261815
 11
12.5154074219
 21
9.9629293247
  0
LINE
  5
2DA
100
AcDbEntity
  8
0
100
AcDbLine
 62
4
  6
CONTINUOUS
 10
12.998537556
 20
8.2811799686
 11
13.0564931077
 21
8.2771607375
  0
LINE
  5
2DB
100
AcDbEntity
  8
0
100
AcDbLine
 62
4
  6
CONTINUOUS
 10
10.4343494399
 20
9.0366307889
 11
10.4509081683
 21
9.0189237088
  0
LINE
  5
2DC
100
AcDbEntity
  8
0
100
AcDbLine
 62
4
  6
CONTINUOUS
 10
11.0580615584
 20
8.8774651006
 11
11.0580615584
 21
8.9933762066
  0
LINE
  5
2DD
100
AcDbEntity
  8
0
100
AcDbLine
 62
4
  6
CONTINUOUS
 10
11.0594414761
 20
9.5264715967
 11
11.0594414761
 21
9.4685160437
  0
LINE
  5
2DE
100
AcDbEntity
  8
0
100
AcDbLine
 62
4
  6
CONTINUOUS
 10
11.0980785114
 20
9.5237921092
 11
11.0980785114
 21
9.4658365562
  0
LINE
  5
2DF
100
AcDbEntity
  8
0
100
AcDbLine
 62
4
  6
CONTINUOUS
 10
11.1160171114
 20
8.9727982469
 11
11.1160171114
 21
8.8900045995
  0
LINE
  5
2E0
100
AcDbEntity
  8
0
100
AcDbLine
 62
4
  6
CONTINUOUS
 10
11.1560340644
 20
9.4618173249
 11
11.1560340644
 21
9.5197728779
  0
LINE
  5
2E1
100
AcDbEntity
  8
0
100
AcDbLine
 62
4
  6
CONTINUOUS
 10
11.1629335536
 20
8.870192203
 11
11.1629335536
 21
8.986103309
  0
LINE
  5
2E2
100
AcDbEntity
  8
0
100
AcDbLine
 62
4
  6
CONTINUOUS
 10
11.1946710998
 20
9.4591378374
 11
11.1946710998
 21
9.5750489434
  0
LINE
  5
2E3
100
AcDbEntity
  8
0
100
AcDbLine
 62
4
  6
CONTINUOUS
 10
11.2333081351
 20
9.4564583499
 11
11.2333081351
 21
9.5144139029
  0
LINE
  5
2E4
100
AcDbEntity
  8
0
100
AcDbLine
 62
4
  6
CONTINUOUS
 10
9.9148193025
 20
6.9688736658
 11
9.9075748585
 21
6.9597168108
  0
LINE
  5
2E5
100
AcDbEntity
  8
0
100
AcDbLine
 62
4
  6
CONTINUOUS
 10
10.8155452173
 20
7.9109710474
 11
10.8083007733
 21
7.901814188
  0
LINE
  5
2E6
100
AcDbEntity
  8
0
100
AcDbLine
 62
4
  6
CONTINUOUS
 10
13.0202708879
 20
8.3955838604
 11
13.0347597758
 21
8.3945790526
  0
LINE
  5
2E7
100
AcDbEntity
  8
0
100
AcDbLine
 62
4
  6
CONTINUOUS
 10
10.3267177015
 20
8.9778601581
 11
10.3708743141
 21
8.9527195803
  0
LINE
  5
2E8
100
AcDbEntity
  8
0
100
AcDbLine
 62
4
  6
CONTINUOUS
 10
10.8869547324
 20
8.8893313993
 11
10.8703960108
 21
8.9070384807
  0
LINE
  5
2E9
100
AcDbEntity
  8
0
100
AcDbLine
 62
4
  6
CONTINUOUS
 10
10.6799705923
 20
9.2746013374
 11
10.7130880526
 21
9.2226284484
  0
LINE
  5
2EA
100
AcDbEntity
  8
0
100
AcDbLine
 62
4
  6
CONTINUOUS
 10
10.8703959867
 20
9.2613952914
 11
10.9035134435
 21
9.143187482
  0
LINE
  5
2EB
100
AcDbEntity
  8
0
100
AcDbLine
 62
4
  6
CONTINUOUS
 10
11.2719451704
 20
9.5117344154
 11
11.2719451704
 21
9.4537788624
  0
LINE
  5
2EC
100
AcDbEntity
  8
0
100
AcDbLine
 62
4
  6
CONTINUOUS
 10
11.3685377588
 20
9.5050356967
 11
11.3685377588
 21
9.4760579202
  0
LINE
  5
2ED
100
AcDbEntity
  8
0
100
AcDbLine
 62
4
  6
CONTINUOUS
 10
11.4264933118
 20
9.4720386889
 11
11.4264933118
 21
9.4430609124
  0
LINE
  5
2EE
100
AcDbEntity
  8
0
100
AcDbLine
 62
4
  6
CONTINUOUS
 10
10.8662563251
 20
7.8205208908
 11
10.8590118811
 21
7.8113640358
  0
LINE
  5
2EF
100
AcDbEntity
  8
0
100
AcDbLine
 62
4
  6
CONTINUOUS
 10
10.8300341052
 20
7.9196254959
 11
10.8155452173
 21
7.9109710474
  0
LINE
  5
2F0
100
AcDbEntity
  8
0
100
AcDbLine
 62
4
  6
CONTINUOUS
 10
11.0994583899
 20
8.8745942205
 11
11.0580615584
 21
8.8774651006
  0
LINE
  5
2F1
100
AcDbEntity
  8
0
100
AcDbLine
 62
4
  6
CONTINUOUS
 10
11.0083853938
 20
8.8809101543
 11
10.9835472839
 21
8.8826326831
  0
LINE
  5
2F2
100
AcDbEntity
  8
0
100
AcDbLine
 62
4
  6
CONTINUOUS
 10
10.9200721754
 20
8.8870346968
 11
10.8869547324
 21
8.8893313993
  0
LINE
  5
2F3
100
AcDbEntity
  8
0
100
AcDbLine
 62
4
  6
CONTINUOUS
 10
10.4343494399
 20
8.9207196829
 11
10.3929526222
 21
8.923590562
  0
LINE
  5
2F4
100
AcDbEntity
  8
0
100
AcDbLine
 62
4
  6
CONTINUOUS
 10
10.6965293242
 20
8.9025374462
 11
10.7462055164
 21
8.8990923905
  0
LINE
  5
2F5
100
AcDbEntity
  8
0
100
AcDbLine
 62
4
  6
CONTINUOUS
 10
11.1629335536
 20
8.870192203
 11
11.2126097182
 21
8.8667471493
  0
LINE
  5
2F6
100
AcDbEntity
  8
0
100
AcDbLine
 62
4
  6
CONTINUOUS
 10
10.5088637213
 20
8.9486695603
 11
10.5530203305
 21
8.945607289
  0
LINE
  5
2F7
100
AcDbEntity
  8
0
100
AcDbLine
 62
4
  6
CONTINUOUS
 10
11.1960509967
 20
8.9341304212
 11
11.1629335536
 21
8.9364271237
  0
LINE
  5
2F8
100
AcDbEntity
  8
0
100
AcDbLine
 62
4
  6
CONTINUOUS
 10
10.7296467949
 20
8.9664756625
 11
10.6965293242
 21
8.9687723669
  0
LINE
  5
2F9
100
AcDbEntity
  8
0
100
AcDbLine
 62
4
  6
CONTINUOUS
 10
10.9835472839
 20
8.8826326831
 11
10.9669885623
 21
8.9003397645
  0
LINE
  5
2FA
100
AcDbEntity
  8
0
100
AcDbLine
 62
4
  6
CONTINUOUS
 10
11.0083853938
 20
8.9968212603
 11
11.0249441154
 21
8.9791141806
  0
LINE
  5
2FB
100
AcDbEntity
  8
0
100
AcDbLine
 62
4
  6
CONTINUOUS
 10
11.0994583899
 20
8.9905053266
 11
11.1160171114
 21
8.9727982469
  0
LINE
  5
2FC
100
AcDbEntity
  8
0
100
AcDbLine
 62
4
  6
CONTINUOUS
 10
11.6655598481
 20
6.8571186546
 11
11.6583154041
 21
6.8865988344
  0
LINE
  5
2FD
100
AcDbEntity
  8
0
100
AcDbLine
 62
7
  6
CONTINUOUS
 10
13.5485584647
 20
10.0938481475
 11
13.1603302175
 21
9.7188484347
  0
LINE
  5
2FE
100
AcDbEntity
  8
0
100
AcDbLine
 62
4
  6
CONTINUOUS
 10
10.8590118811
 20
7.8113640358
 11
10.8445229932
 21
7.8027095847
  0
LINE
  5
2FF
100
AcDbEntity
  8
0
100
AcDbLine
 62
4
  6
CONTINUOUS
 10
9.8641081947
 20
7.0593238224
 11
9.8785970827
 21
7.0679782709
  0
LINE
  5
300
100
AcDbEntity
  8
0
100
AcDbLine
 62
4
  6
CONTINUOUS
 10
10.3929526222
 20
9.039501668
 11
10.4343494399
 21
9.0366307889
  0
LINE
  5
301
100
AcDbEntity
  8
0
100
AcDbLine
 62
4
  6
CONTINUOUS
 10
10.5971769397
 20
9.0253386635
 11
10.6634118535
 21
9.0207452566
  0
LINE
  5
302
100
AcDbEntity
  8
0
100
AcDbLine
 62
4
  6
CONTINUOUS
 10
10.6965293242
 20
9.0184485522
 11
10.7462055164
 21
9.0150034966
  0
LINE
  5
303
100
AcDbEntity
  8
0
100
AcDbLine
 62
4
  6
CONTINUOUS
 10
10.8869547324
 20
9.0052425053
 11
10.9200721754
 21
9.0029458028
  0
LINE
  5
304
100
AcDbEntity
  8
0
100
AcDbLine
 62
4
  6
CONTINUOUS
 10
10.9835472839
 20
8.9985437891
 11
11.0083853938
 21
8.9968212603
  0
LINE
  5
305
100
AcDbEntity
  8
0
100
AcDbLine
 62
4
  6
CONTINUOUS
 10
11.0580615584
 20
8.9933762066
 11
11.0994583899
 21
8.9905053266
  0
LINE
  5
306
100
AcDbEntity
  8
0
100
AcDbLine
 62
4
  6
CONTINUOUS
 10
11.1629335536
 20
8.986103309
 11
11.2126097182
 21
8.9826582553
  0
LINE
  5
307
100
AcDbEntity
  8
0
100
AcDbLine
 62
4
  6
CONTINUOUS
 10
11.2457271613
 20
8.9362049436
 11
11.2898837705
 21
8.9110643643
  0
LINE
  5
308
100
AcDbEntity
  8
0
100
AcDbLine
 62
4
  6
CONTINUOUS
 10
11.8466709472
 20
6.9121733653
 11
11.8466709472
 21
6.8928548526
  0
LINE
  5
309
100
AcDbEntity
  8
0
100
AcDbLine
 62
4
  6
CONTINUOUS
 10
9.9075748585
 20
6.9597168108
 11
9.8930859706
 21
6.9510623597
  0
LINE
  5
30A
100
AcDbEntity
  8
0
100
AcDbLine
 62
4
  6
CONTINUOUS
 10
10.7793229698
 20
9.2180350413
 11
10.8372785159
 21
9.2140158105
  0
LINE
  5
30B
100
AcDbEntity
  8
0
100
AcDbLine
 62
4
  6
CONTINUOUS
 10
11.6583154041
 20
6.8865988344
 11
11.6655598481
 21
6.9150742063
  0
LINE
  5
30C
100
AcDbEntity
  8
0
100
AcDbLine
 62
4
  6
CONTINUOUS
 10
10.769663711
 20
9.4306566469
 11
10.7310266757
 21
9.4333361344
  0
LINE
  5
30D
100
AcDbEntity
  8
0
100
AcDbLine
 62
4
  6
CONTINUOUS
 10
11.4264933118
 20
9.4430609124
 11
11.3685377588
 21
9.4470801437
  0
LINE
  5
30E
100
AcDbEntity
  8
0
100
AcDbLine
 62
4
  6
CONTINUOUS
 10
11.0594414761
 20
9.4685160437
 11
11.0014859231
 21
9.4725352749
  0
LINE
  5
30F
100
AcDbEntity
  8
0
100
AcDbLine
 62
4
  6
CONTINUOUS
 10
10.8662562994
 20
9.4819134812
 11
10.8083007464
 21
9.4859327124
  0
LINE
  5
310
100
AcDbEntity
  8
0
100
AcDbLine
 62
4
  6
CONTINUOUS
 10
10.769663711
 20
9.4886121999
 11
10.711708158
 21
9.4926314312
  0
LINE
  5
311
100
AcDbEntity
  8
0
100
AcDbLine
 62
4
  6
CONTINUOUS
 10
10.4035778012
 20
9.514000344
 11
10.3456222481
 21
9.5180195753
  0
LINE
  5
312
100
AcDbEntity
  8
0
100
AcDbLine
 62
4
  6
CONTINUOUS
 10
10.3166444716
 20
9.5200291909
 11
10.2586889186
 21
9.5240484221
  0
LINE
  5
313
100
AcDbEntity
  8
0
100
AcDbLine
 62
4
  6
CONTINUOUS
 10
11.0980785114
 20
9.4658365562
 11
11.1560340644
 21
9.4618173249
  0
LINE
  5
314
100
AcDbEntity
  8
0
100
AcDbLine
 62
4
  6
CONTINUOUS
 10
11.2719451704
 20
9.4537788624
 11
11.3299007235
 21
9.4497596312
  0
LINE
  5
315
100
AcDbEntity
  8
0
100
AcDbLine
 62
4
  6
CONTINUOUS
 10
11.3685377588
 20
9.4760579202
 11
11.4264933118
 21
9.4720386889
  0
LINE
  5
316
100
AcDbEntity
  8
0
100
AcDbLine
 62
4
  6
CONTINUOUS
 10
11.0014859231
 20
9.5111723103
 11
11.0594414761
 21
9.507153079
  0
LINE
  5
317
100
AcDbEntity
  8
0
100
AcDbLine
 62
4
  6
CONTINUOUS
 10
11.0594414761
 20
9.5264715967
 11
11.0208044407
 21
9.5291510842
  0
LINE
  5
318
100
AcDbEntity
  8
0
100
AcDbLine
 62
4
  6
CONTINUOUS
 10
10.6643777897
 20
9.5538693564
 11
10.6064222367
 21
9.5578885876
  0
LINE
  5
319
100
AcDbEntity
  8
0
100
AcDbLine
 62
4
  6
CONTINUOUS
 10
10.2586889186
 20
9.5820039751
 11
10.3166444716
 21
9.5779847439
  0
LINE
  5
31A
100
AcDbEntity
  8
0
100
AcDbLine
 62
4
  6
CONTINUOUS
 10
10.8083007464
 20
9.5438882654
 11
10.8662562994
 21
9.5398690342
  0
LINE
  5
31B
100
AcDbEntity
  8
0
100
AcDbLine
 62
4
  6
CONTINUOUS
 10
10.9048933347
 20
9.5371895467
 11
10.9628488877
 21
9.5331703154
  0
LINE
  5
31C
100
AcDbEntity
  8
0
100
AcDbLine
 62
4
  6
CONTINUOUS
 10
11.2719451704
 20
9.5117344154
 11
11.3299007235
 21
9.5077151842
  0
LINE
  5
31D
100
AcDbEntity
  8
0
100
AcDbLine
 62
4
  6
CONTINUOUS
 10
11.3685377588
 20
9.5050356967
 11
11.4264933118
 21
9.5010164654
  0
LINE
  5
31E
100
AcDbEntity
  8
0
100
AcDbLine
 62
4
  6
CONTINUOUS
 10
11.226063691
 20
9.5438940833
 11
11.2405525792
 21
9.5428892755
  0
LINE
  5
31F
100
AcDbEntity
  8
0
100
AcDbLine
 62
4
  6
CONTINUOUS
 10
10.3166444716
 20
9.6359402969
 11
10.2586889186
 21
9.6399595282
  0
LINE
  5
320
100
AcDbEntity
  8
0
100
AcDbLine
 62
4
  6
CONTINUOUS
 10
10.4325555777
 20
9.6279018344
 11
10.4905111307
 21
9.6238826031
  0
LINE
  5
321
100
AcDbEntity
  8
0
100
AcDbLine
 62
4
  6
CONTINUOUS
 10
11.7959598394
 20
6.8480753845
 11
11.7887153955
 21
6.8196000125
  0
LINE
  5
322
100
AcDbEntity
  8
0
100
AcDbLine
 62
4
  6
CONTINUOUS
 10
13.0057819999
 20
8.3869294118
 11
13.0202708879
 21
8.3955838604
  0
LINE
  5
323
100
AcDbEntity
  8
0
100
AcDbLine
 62
4
  6
CONTINUOUS
 10
13.0492486637
 20
8.3452779494
 11
13.0202708879
 21
8.3279690489
  0
LINE
  5
324
100
AcDbEntity
  8
0
100
AcDbLine
 62
4
  6
CONTINUOUS
 10
13.0347597758
 20
8.3945790526
 11
13.0492486637
 21
8.3839149885
  0
LINE
  5
325
100
AcDbEntity
  8
0
100
AcDbLine
 62
4
  6
CONTINUOUS
 10
11.6655598481
 20
6.9150742063
 11
11.680048736
 21
6.9333879181
  0
LINE
  5
326
100
AcDbEntity
  8
0
100
AcDbLine
 62
7
  6
CONTINUOUS
 10
13.1603302175
 20
9.7188484347
 11
8.4514415353
 21
10.045410974
  0
LINE
  5
327
100
AcDbEntity
  8
0
100
AcDbLine
 62
4
  6
CONTINUOUS
 10
11.7887153955
 20
6.9161925964
 11
11.7959598394
 21
6.9253494558
  0
LINE
  5
328
100
AcDbEntity
  8
0
100
AcDbLine
 62
4
  6
CONTINUOUS
 10
11.7307598437
 20
6.8429377615
 11
11.7235153998
 21
6.8337809065
  0
LINE
  5
329
100
AcDbEntity
  8
0
100
AcDbLine
 62
4
  6
CONTINUOUS
 10
12.998537556
 20
8.3777725525
 11
13.0057819999
 21
8.3869294118
  0
LINE
  5
32A
100
AcDbEntity
  8
0
100
AcDbLine
 62
4
  6
CONTINUOUS
 10
11.8104487274
 20
6.8663890928
 11
11.7959598394
 21
6.8480753845
  0
LINE
  5
32B
100
AcDbEntity
  8
0
100
AcDbLine
 62
4
  6
CONTINUOUS
 10
11.8466709472
 20
6.8928548526
 11
11.8394265032
 21
6.8836979933
  0
LINE
  5
32C
100
AcDbEntity
  8
0
100
AcDbLine
 62
4
  6
CONTINUOUS
 10
13.0202708879
 20
8.3279690489
 11
13.0057819999
 21
8.3096553406
  0
LINE
  5
32D
100
AcDbEntity
  8
0
100
AcDbLine
 62
4
  6
CONTINUOUS
 10
13.0564931077
 20
8.3544348087
 11
13.0492486637
 21
8.3452779494
  0
LINE
  5
32E
100
AcDbEntity
  8
0
100
AcDbLine
 62
4
  6
CONTINUOUS
 10
11.680048736
 20
6.9333879181
 11
11.6945376239
 21
6.9420423666
  0
LINE
  5
32F
100
AcDbEntity
  8
0
100
AcDbLine
 62
4
  6
CONTINUOUS
 10
13.0492486637
 20
8.3839149885
 11
13.0564931077
 21
8.3737533213
  0
LINE
  5
330
100
AcDbEntity
  8
0
100
AcDbLine
 62
4
  6
CONTINUOUS
 10
12.9116042284
 20
8.2872088154
 11
12.9478264482
 21
8.4006078993
  0
LINE
  5
331
100
AcDbEntity
  8
0
100
AcDbLine
 62
4
  6
CONTINUOUS
 10
11.7959598394
 20
6.9253494558
 11
11.8104487274
 21
6.9340039043
  0
LINE
  5
332
100
AcDbEntity
  8
0
100
AcDbLine
 62
4
  6
CONTINUOUS
 10
11.7235153998
 20
6.8337809065
 11
11.7090265118
 21
6.8251264554
  0
LINE
  5
333
100
AcDbEntity
  8
0
100
AcDbLine
 62
4
  6
CONTINUOUS
 10
11.8394265032
 20
6.8836979933
 11
11.8104487274
 21
6.8663890928
  0
LINE
  5
334
100
AcDbEntity
  8
0
100
AcDbLine
 62
7
  6
CONTINUOUS
 10
13.5485584647
 20
10.0938481475
 11
8.8396697825
 21
10.4204106867
  0
LINE
  5
335
100
AcDbEntity
  8
0
100
AcDbLine
 62
4
  6
CONTINUOUS
 10
12.8753820086
 20
8.4056319383
 11
12.9116042284
 21
8.2872088154
  0
LINE
  5
336
100
AcDbEntity
  8
0
100
AcDbLine
 62
4
  6
CONTINUOUS
 10
13.0564931077
 20
8.3737533213
 11
13.0564931077
 21
8.3544348087
  0
LINE
  5
337
100
AcDbEntity
  8
0
100
AcDbLine
 62
4
  6
CONTINUOUS
 10
13.0057819999
 20
8.3096553406
 11
12.998537556
 21
8.2811799686
  0
LINE
  5
338
100
AcDbEntity
  8
0
100
AcDbLine
 62
7
  6
CONTINUOUS
 10
13.1603302175
 20
6.5795893133
 11
13.1603302175
 21
9.7188484347
  0
LINE
  5
339
100
AcDbEntity
  8
0
100
AcDbLine
 62
7
  6
CONTINUOUS
 10
13.5485584647
 20
6.954589026
 11
13.5485584647
 21
10.0938481475
  0
LINE
  5
33A
100
AcDbEntity
  8
0
100
AcDbLine
 62
7
  6
CONTINUOUS
 10
13.5485584647
 20
6.954589026
 11
13.1603302175
 21
6.5795893133
  0
SPLINE
  5
33B
100
AcDbEntity
  8
0
100
AcDbSpline
 62
7
  6
CONTINUOUS
 70
0
 71
3
 72
42
 73
38
 74
0
 42
0.0000001
 43
0.0000001
 44
0.0000000001
 40
0.0
 40
0.0
 40
0.0
 40
0.0
 40
0.0311444347
 40
0.0467772112
 40
0.0624471461
 40
0.093891844
 40
0.1254739796
 40
0.1571813629
 40
0.1889992234
 40
0.2209106216
 40
0.2528967716
 40
0.2849374315
 40
0.3170113014
 40
0.34909644
 40
0.3811706886
 40
0.4132120984
 40
0.4451993552
 40
0.4771121951
 40
0.5089318057
 40
0.5406412074
 40
0.572225607
 40
0.6036727182
 40
0.6349730419
 40
0.6661200987
 40
0.6971106068
 40
0.7279445994
 40
0.7586254742
 40
0.7891599701
 40
0.8195580671
 40
0.8498328085
 40
0.864931571
 40
0.8800056544
 40
0.910083706
 40
0.9400929707
 40
0.9550814956
 40
0.9700611828
 40
1.0
 40
1.0
 40
1.0
 40
1.0
 10
8.934404477
 20
7.5517041549
 30
0.0
 10
8.9391926386
 20
7.5513720948
 30
0.0
 10
8.9463694698
 20
7.550610676
 30
0.0
 10
8.9558722322
 20
7.5490805354
 30
0.0
 10
8.9653599084
 20
7.5472019924
 30
0.0
 10
8.9771244628
 20
7.5442102408
 30
0.0
 10
8.9909953347
 20
7.5396181388
 30
0.0
 10
9.0045639994
 20
7.5340441096
 30
0.0
 10
9.0177577028
 20
7.5275180474
 30
0.0
 10
9.0305062601
 20
7.5200748083
 30
0.0
 10
9.0427417122
 20
7.5117541389
 30
0.0
 10
9.0543988755
 20
7.5026004373
 30
0.0
 10
9.0654156336
 20
7.4926625244
 30
0.0
 10
9.0757332783
 20
7.4819933843
 30
0.0
 10
9.0852968153
 20
7.4706498848
 30
0.0
 10
9.0940552561
 20
7.4586924769
 30
0.0
 10
9.1019618863
 20
7.4461848764
 30
0.0
 10
9.1089745133
 20
7.4331937276
 30
0.0
 10
9.1150556898
 20
7.419788253
 30
0.0
 10
9.1201729123
 20
7.4060398884
 30
0.0
 10
9.1242987955
 20
7.3920219074
 30
0.0
 10
9.1274112184
 20
7.3778090361
 30
0.0
 10
9.1294934452
 20
7.3634770602
 30
0.0
 10
9.1305342178
 20
7.3491024254
 30
0.0
 10
9.1305278224
 20
7.3347618387
 30
0.0
 10
9.129474119
 20
7.3205318482
 30
0.0
 10
9.1273785782
 20
7.3064884934
 30
0.0
 10
9.1242521568
 20
7.2927066952
 30
0.0
 10
9.120111634
 20
7.2792606156
 30
0.0
 10
9.1158296487
 20
7.2683835319
 30
0.0
 10
9.1119221301
 20
7.2599249163
 30
0.0
 10
9.1077051569
 20
7.2516502258
 30
0.0
 10
9.1018501434
 20
7.2416415564
 30
0.0
 10
9.0952420851
 20
7.2321292228
 30
0.0
 10
9.0895317545
 20
7.2248582374
 30
0.0
 10
9.0835490278
 20
7.2178245761
 30
0.0
 10
9.0787558052
 20
7.2128172282
 30
0.0
 10
9.0754372522
 20
7.2096117717
 30
0.0
  0
SPLINE
  5
33C
100
AcDbEntity
  8
0
100
AcDbSpline
 62
7
  6
CONTINUOUS
 70
0
 71
3
 72
42
 73
38
 74
0
 42
0.0000001
 43
0.0000001
 44
0.0000000001
 40
0.0
 40
0.0
 40
0.0
 40
0.0
 40
0.0311444347
 40
0.0467772112
 40
0.0624471461
 40
0.093891844
 40
0.1254739796
 40
0.1571813629
 40
0.1889992234
 40
0.2209106216
 40
0.2528967716
 40
0.2849374315
 40
0.3170113014
 40
0.34909644
 40
0.3811706886
 40
0.4132120984
 40
0.4451993552
 40
0.4771121951
 40
0.5089318057
 40
0.5406412074
 40
0.572225607
 40
0.6036727182
 40
0.6349730419
 40
0.6661200987
 40
0.6971106068
 40
0.7279445994
 40
0.7586254742
 40
0.7891599701
 40
0.8195580671
 40
0.8498328085
 40
0.864931571
 40
0.8800056544
 40
0.910083706
 40
0.9400929707
 40
0.9550814956
 40
0.9700611828
 40
1.0
 40
1.0
 40
1.0
 40
1.0
 10
12.6773672757
 20
7.2921288032
 30
0.0
 10
12.6821554372
 20
7.291796743
 30
0.0
 10
12.6893322684
 20
7.2910353243
 30
0.0
 10
12.6988350308
 20
7.2895051837
 30
0.0
 10
12.708322707
 20
7.2876266407
 30
0.0
 10
12.7200872615
 20
7.2846348891
 30
0.0
 10
12.7339581334
 20
7.2800427871
 30
0.0
 10
12.747526798
 20
7.2744687579
 30
0.0
 10
12.7607205014
 20
7.2679426956
 30
0.0
 10
12.7734690588
 20
7.2604994566
 30
0.0
 10
12.7857045108
 20
7.2521787872
 30
0.0
 10
12.7973616742
 20
7.2430250856
 30
0.0
 10
12.8083784323
 20
7.2330871727
 30
0.0
 10
12.8186960769
 20
7.2224180326
 30
0.0
 10
12.828259614
 20
7.2110745331
 30
0.0
 10
12.8370180548
 20
7.1991171252
 30
0.0
 10
12.844924685
 20
7.1866095246
 30
0.0
 10
12.851937312
 20
7.1736183759
 30
0.0
 10
12.8580184884
 20
7.1602129013
 30
0.0
 10
12.863135711
 20
7.1464645367
 30
0.0
 10
12.8672615941
 20
7.1324465557
 30
0.0
 10
12.870374017
 20
7.1182336843
 30
0.0
 10
12.8724562439
 20
7.1039017084
 30
0.0
 10
12.8734970165
 20
7.0895270737
 30
0.0
 10
12.873490621
 20
7.0751864869
 30
0.0
 10
12.8724369176
 20
7.0609564965
 30
0.0
 10
12.8703413769
 20
7.0469131417
 30
0.0
 10
12.8672149555
 20
7.0331313434
 30
0.0
 10
12.8630744326
 20
7.0196852639
 30
0.0
 10
12.8587924474
 20
7.0088081802
 30
0.0
 10
12.8548849287
 20
7.0003495646
 30
0.0
 10
12.8506679556
 20
6.992074874
 30
0.0
 10
12.8448129421
 20
6.9820662047
 30
0.0
 10
12.8382048838
 20
6.972553871
 30
0.0
 10
12.8324945532
 20
6.9652828857
 30
0.0
 10
12.8265118265
 20
6.9582492244
 30
0.0
 10
12.8217186039
 20
6.9532418765
 30
0.0
 10
12.8184000509
 20
6.95003642
 30
0.0
  0
SPLINE
  5
33D
100
AcDbEntity
  8
0
100
AcDbSpline
 62
7
  6
CONTINUOUS
 70
0
 71
3
 72
39
 73
35
 74
0
 42
0.0000001
 43
0.0000001
 44
0.0000000001
 40
0.0
 40
0.0
 40
0.0
 40
0.0
 40
0.0311450437
 40
0.0624431125
 40
0.0938883331
 40
0.1254709822
 40
0.157178873
 40
0.1889972474
 40
0.2209091591
 40
0.2528958248
 40
0.2849370022
 40
0.3170113907
 40
0.3490970489
 40
0.3811718181
 40
0.4132137492
 40
0.4452015278
 40
0.4771148901
 40
0.5089350229
 40
0.5406449458
 40
0.5722298665
 40
0.6036774985
 40
0.6349783412
 40
0.6661259148
 40
0.6971169386
 40
0.7279514454
 40
0.7586328312
 40
0.789167835
 40
0.8195664378
 40
0.8498416821
 40
0.8800094162
 40
0.9100879636
 40
0.9400977212
 40
0.9700606965
 40
1.0
 40
1.0
 40
1.0
 40
1.0
 10
10.8063688043
 20
8.8582147767
 30
0.0
 10
10.8167470811
 20
8.8574950407
 30
0.0
 10
10.8375096674
 20
8.8552923861
 30
0.0
 10
10.8684018254
 20
8.8497438264
 30
0.0
 10
10.8989630997
 20
8.8419719901
 30
0.0
 10
10.9290284469
 20
8.8320186361
 30
0.0
 10
10.9584381219
 20
8.8199370935
 30
0.0
 10
10.9870352557
 20
8.8057920212
 30
0.0
 10
11.0146675131
 20
8.7896590131
 30
0.0
 10
11.0411876465
 20
8.7716241939
 30
0.0
 10
11.0664543435
 20
8.751783781
 30
0.0
 10
11.0903329918
 20
8.7302436171
 30
0.0
 10
11.1126963469
 20
8.7071185447
 30
0.0
 10
11.1334251974
 20
8.6825318078
 30
0.0
 10
11.1524090139
 20
8.656614424
 30
0.0
 10
11.1695465693
 20
8.6295045135
 30
0.0
 10
11.1847464158
 20
8.6013465247
 30
0.0
 10
11.1979273665
 20
8.5722904827
 30
0.0
 10
11.2090189628
 20
8.5424912211
 30
0.0
 10
11.2179618745
 20
8.512107568
 30
0.0
 10
11.2247081568
 20
8.481301487
 30
0.0
 10
11.2292215081
 20
8.4502372348
 30
0.0
 10
11.2314775252
 20
8.4190805089
 30
0.0
 10
11.2314638476
 20
8.3879975649
 30
0.0
 10
11.2291801809
 20
8.3571543354
 30
0.0
 10
11.2246383132
 20
8.3267155616
 30
0.0
 10
11.2178621392
 20
8.2968439106
 30
0.0
 10
11.2088875299
 20
8.2676990945
 30
0.0
 10
11.1977621314
 20
8.2394370366
 30
0.0
 10
11.1845450768
 20
8.2122089852
 30
0.0
 10
11.1693069588
 20
8.1861608517
 30
0.0
 10
11.1521286757
 20
8.1614316859
 30
0.0
 10
11.1331037607
 20
8.1381556474
 30
0.0
 10
11.1192511037
 20
8.1236840737
 30
0.0
 10
11.1120582409
 20
8.1167362778
 30
0.0
  0
SPLINE
  5
33E
100
AcDbEntity
  8
0
100
AcDbSpline
 62
7
  6
CONTINUOUS
 70
0
 71
3
 72
53
 73
49
 74
0
 42
0.0000001
 43
0.0000001
 44
0.0000000001
 40
0.0
 40
0.0
 40
0.0
 40
0.0
 40
0.0417740478
 40
0.0840369835
 40
0.1266585592
 40
0.1695065657
 40
0.2124481957
 40
0.2553501644
 40
0.2980793779
 40
0.3405034127
 40
0.3824910553
 40
0.4239128269
 40
0.4646415185
 40
0.5045527309
 40
0.5435254266
 40
0.5814424966
 40
0.6181913512
 40
0.6536645436
 40
0.6877604426
 40
0.7203839756
 40
0.7361162401
 40
0.7514482063
 40
0.7663702194
 40
0.7808732533
 40
0.7949489098
 40
0.808589482
 40
0.8217880323
 40
0.8345384043
 40
0.8468353889
 40
0.8586746951
 40
0.8700532057
 40
0.8809689358
 40
0.8914213732
 40
0.9014114696
 40
0.9109420597
 40
0.9200179488
 40
0.9286464106
 40
0.9368374402
 40
0.9446043453
 40
0.9519642202
 40
0.9589386335
 40
0.9655543067
 40
0.9718438059
 40
0.9778461959
 40
0.9836073668
 40
0.9891800504
 40
0.9946230772
 40
1.0
 40
1.0
 40
1.0
 40
1.0
 10
13.2004471363
 20
8.3087095798
 30
0.0
 10
13.2004471363
 20
8.3198098329
 30
0.0
 10
13.2006203118
 20
8.3421405961
 30
0.0
 10
13.2013858916
 20
8.3757889297
 30
0.0
 10
13.2026565635
 20
8.4097076057
 30
0.0
 10
13.2044281652
 20
8.443784356
 30
0.0
 10
13.2066948402
 20
8.4779064287
 30
0.0
 10
13.209449097
 20
8.5119609424
 30
0.0
 10
13.2126818114
 20
8.5458352287
 30
0.0
 10
13.2163822672
 20
8.5794172239
 30
0.0
 10
13.2205381867
 20
8.6125958367
 30
0.0
 10
13.2251357733
 20
8.6452613199
 30
0.0
 10
13.2301597549
 20
8.6773056369
 30
0.0
 10
13.2355934343
 20
8.7086228238
 30
0.0
 10
13.2414187431
 20
8.7391093436
 30
0.0
 10
13.2476162998
 20
8.7686644415
 30
0.0
 10
13.2541654751
 20
8.7971904661
 30
0.0
 10
13.2610444494
 20
8.8245932813
 30
0.0
 10
13.2682303208
 20
8.8507823215
 30
0.0
 10
13.2745280446
 20
8.8717694804
 30
0.0
 10
13.2797119872
 20
8.8878796085
 30
0.0
 10
13.2836145608
 20
8.8994596276
 30
0.0
 10
13.2875755736
 20
8.9106739746
 30
0.0
 10
13.2915917545
 20
8.9215134058
 30
0.0
 10
13.2956597727
 20
8.9319689759
 30
0.0
 10
13.299776265
 20
8.942032065
 30
0.0
 10
13.3039378049
 20
8.951694388
 30
0.0
 10
13.3081409779
 20
8.9609479879
 30
0.0
 10
13.3123822701
 20
8.9697852708
 30
0.0
 10
13.3166582324
 20
8.9781989721
 30
0.0
 10
13.3209652852
 20
8.9861822212
 30
0.0
 10
13.3252999613
 20
8.9937284739
 30
0.0
 10
13.3296586478
 20
9.0008316116
 30
0.0
 10
13.3340378803
 20
9.0074858374
 30
0.0
 10
13.3384340609
 20
9.0136858049
 30
0.0
 10
13.3428437602
 20
9.019426485
 30
0.0
 10
13.3472634636
 20
9.0247033041
 30
0.0
 10
13.3516898309
 20
9.029511998
 30
0.0
 10
13.356119517
 20
9.0338487193
 30
0.0
 10
13.3605493414
 20
9.0377099017
 30
0.0
 10
13.3649762016
 20
9.0410922757
 30
0.0
 10
13.369397097
 20
9.043992779
 30
0.0
 10
13.3738090847
 20
9.0464084234
 30
0.0
 10
13.3782091134
 20
9.0483363434
 30
0.0
 10
13.3825938379
 20
9.0497735714
 30
0.0
 10
13.3869595981
 20
9.0507174364
 30
0.0
 10
13.3913011307
 20
9.0511655292
 30
0.0
 10
13.3941835377
 20
9.0511326402
 30
0.0
 10
13.395608877
 20
9.0510337922
 30
0.0
  0
SPLINE
  5
33F
100
AcDbEntity
  8
0
100
AcDbSpline
 62
7
  6
CONTINUOUS
 70
0
 71
3
 72
34
 73
30
 74
0
 42
0.0000001
 43
0.0000001
 44
0.0000000001
 40
0.0
 40
0.0
 40
0.0
 40
0.0
 40
0.0644890911
 40
0.1280443318
 40
0.1594413098
 40
0.1905572072
 40
0.2213834937
 40
0.2519162343
 40
0.3120854185
 40
0.3711989767
 40
0.400456882
 40
0.4295756428
 40
0.4586326227
 40
0.4877269742
 40
0.5169811789
 40
0.5465376812
 40
0.5765448836
 40
0.6071329747
 40
0.6383774276
 40
0.6702672695
 40
0.7027027646
 40
0.7355286387
 40
0.7685843394
 40
0.8017418436
 40
0.8349153409
 40
0.8680563889
 40
0.9011421039
 40
0.9341653401
 40
1.0
 40
1.0
 40
1.0
 40
1.0
 10
10.8478405991
 20
8.6596363632
 30
0.0
 10
10.8510757699
 20
8.6598196755
 30
0.0
 10
10.8575265542
 20
8.6598066116
 30
0.0
 10
10.8655004754
 20
8.65885848
 30
0.0
 10
10.8717043784
 20
8.6575636529
 30
0.0
 10
10.8762343155
 20
8.6563383436
 30
0.0
 10
10.8806430604
 20
8.6548618938
 30
0.0
 10
10.8863098601
 20
8.6525788974
 30
0.0
 10
10.8930260388
 20
8.6491339593
 30
0.0
 10
10.8991936369
 20
8.6448876364
 30
0.0
 10
10.9036802586
 20
8.6410439511
 30
0.0
 10
10.9067999665
 20
8.6379445778
 30
0.0
 10
10.9096631436
 20
8.6346171243
 30
0.0
 10
10.9122445811
 20
8.6310573787
 30
0.0
 10
10.9145139391
 20
8.6272608272
 30
0.0
 10
10.9164349746
 20
8.6232248368
 30
0.0
 10
10.9179658707
 20
8.6189530961
 30
0.0
 10
10.9190623702
 20
8.6144616661
 30
0.0
 10
10.9196846067
 20
8.6097845537
 30
0.0
 10
10.9198066598
 20
8.6049750809
 30
0.0
 10
10.9194242906
 20
8.6001001886
 30
0.0
 10
10.9185559436
 20
8.5952294542
 30
0.0
 10
10.9172365017
 20
8.5904244822
 30
0.0
 10
10.9155082908
 20
8.5857332647
 30
0.0
 10
10.9134134075
 20
8.5811899498
 30
0.0
 10
10.9109898305
 20
8.5768179958
 30
0.0
 10
10.9082696613
 20
8.5726332103
 30
0.0
 10
10.9042897456
 20
8.5673267674
 30
0.0
 10
10.9009261588
 20
8.5636477758
 30
0.0
 10
10.8985471777
 20
8.5613492726
 30
0.0
  0
SPLINE
  5
340
100
AcDbEntity
  8
0
100
AcDbSpline
 62
7
  6
CONTINUOUS
 70
0
 71
3
 72
21
 73
17
 74
0
 42
0.0000001
 43
0.0000001
 44
0.0000000001
 40
0.0
 40
0.0
 40
0.0
 40
0.0
 40
0.06165322
 40
0.1233294719
 40
0.1850515326
 40
0.2468416528
 40
0.308721334
 40
0.3707110997
 40
0.4328302469
 40
0.4950966389
 40
0.5575265783
 40
0.620134583
 40
0.6829331586
 40
0.745933179
 40
0.8725262751
 40
1.0
 40
1.0
 40
1.0
 40
1.0
 10
8.7933717019
 20
7.5016306294
 30
0.0
 10
8.7956497705
 20
7.5038310613
 30
0.0
 10
8.8003261457
 20
7.5081110478
 30
0.0
 10
8.8076769852
 20
7.5141460373
 30
0.0
 10
8.8153470407
 20
7.5197821037
 30
0.0
 10
8.8233167137
 20
7.5250048053
 30
0.0
 10
8.831565966
 20
7.5298010964
 30
0.0
 10
8.8400740001
 20
7.5341588758
 30
0.0
 10
8.848819399
 20
7.5380671474
 30
0.0
 10
8.8577800977
 20
7.5415161302
 30
0.0
 10
8.866933542
 20
7.5444971646
 30
0.0
 10
8.8762566152
 20
7.5470027129
 30
0.0
 10
8.8857260961
 20
7.5490265368
 30
0.0
 10
8.898533487
 20
7.5510789709
 30
0.0
 10
8.9147968308
 20
7.552412382
 30
0.0
 10
8.9278715782
 20
7.552157213
 30
0.0
 10
8.934404477
 20
7.5517041549
 30
0.0
  0
SPLINE
  5
341
100
AcDbEntity
  8
0
100
AcDbSpline
 62
7
  6
CONTINUOUS
 70
0
 71
3
 72
21
 73
17
 74
0
 42
0.0000001
 43
0.0000001
 44
0.0000000001
 40
0.0
 40
0.0
 40
0.0
 40
0.0
 40
0.06165322
 40
0.1233294719
 40
0.1850515326
 40
0.2468416528
 40
0.308721334
 40
0.3707110997
 40
0.4328302469
 40
0.4950966389
 40
0.5575265783
 40
0.620134583
 40
0.6829331586
 40
0.745933179
 40
0.8725262751
 40
1.0
 40
1.0
 40
1.0
 40
1.0
 10
12.5363345005
 20
7.2420552776
 30
0.0
 10
12.5386125691
 20
7.2442557096
 30
0.0
 10
12.5432889443
 20
7.2485356961
 30
0.0
 10
12.5506397838
 20
7.2545706856
 30
0.0
 10
12.5583098394
 20
7.260206752
 30
0.0
 10
12.5662795124
 20
7.2654294536
 30
0.0
 10
12.5745287646
 20
7.2702257447
 30
0.0
 10
12.5830367987
 20
7.274583524
 30
0.0
 10
12.5917821976
 20
7.2784917956
 30
0.0
 10
12.6007428963
 20
7.2819407785
 30
0.0
 10
12.6098963406
 20
7.2849218129
 30
0.0
 10
12.6192194138
 20
7.2874273612
 30
0.0
 10
12.6286888948
 20
7.2894511851
 30
0.0
 10
12.6414962856
 20
7.2915036191
 30
0.0
 10
12.6577596294
 20
7.2928370303
 30
0.0
 10
12.6708343768
 20
7.2925818612
 30
0.0
 10
12.6773672757
 20
7.2921288032
 30
0.0
  0
SPLINE
  5
342
100
AcDbEntity
  8
0
100
AcDbSpline
 62
7
  6
CONTINUOUS
 70
0
 71
3
 72
15
 73
11
 74
0
 42
0.0000001
 43
0.0000001
 44
0.0000000001
 40
0.0
 40
0.0
 40
0.0
 40
0.0
 40
0.125331565
 40
0.2509044731
 40
0.3765655352
 40
0.5021454978
 40
0.6274620046
 40
0.752331413
 40
0.8765703967
 40
1.0
 40
1.0
 40
1.0
 40
1.0
 10
10.7990757904
 20
8.6390583066
 30
0.0
 10
10.8006993014
 20
8.640626727
 30
0.0
 10
10.8041103034
 20
8.6436044492
 30
0.0
 10
10.8096370714
 20
8.6475527006
 30
0.0
 10
10.8155138675
 20
8.6509671118
 30
0.0
 10
10.8216714461
 20
8.6538316516
 30
0.0
 10
10.8280431677
 20
8.6561385536
 30
0.0
 10
10.8345650033
 20
8.6578862549
 30
0.0
 10
10.8411754305
 20
8.6590786472
 30
0.0
 10
10.8456210435
 20
8.659510598
 30
0.0
 10
10.8478405991
 20
8.6596363632
 30
0.0
  0
SPLINE
  5
343
100
AcDbEntity
  8
0
100
AcDbSpline
 62
7
  6
CONTINUOUS
 70
0
 71
3
 72
23
 73
19
 74
0
 42
0.0000001
 43
0.0000001
 44
0.0000000001
 40
0.0
 40
0.0
 40
0.0
 40
0.0
 40
0.0616482117
 40
0.1233194496
 40
0.1850364829
 40
0.24682157
 40
0.3086962136
 40
0.370680925
 40
0.4327950024
 40
0.4950563275
 40
0.5574811782
 40
0.6200840647
 40
0.6828776055
 40
0.7458723192
 40
0.8090769012
 40
0.8724969623
 40
0.9361381423
 40
1.0
 40
1.0
 40
1.0
 40
1.0
 10
10.5006793677
 20
8.749678498
 30
0.0
 10
10.5056170856
 20
8.7544479837
 30
0.0
 10
10.5157530426
 20
8.7637250576
 30
0.0
 10
10.5316860003
 20
8.7768060597
 30
0.0
 10
10.5483108361
 20
8.7890224276
 30
0.0
 10
10.5655850923
 20
8.8003428472
 30
0.0
 10
10.5834653793
 20
8.8107389685
 30
0.0
 10
10.6019065943
 20
8.8201845894
 30
0.0
 10
10.6208622761
 20
8.8286559595
 30
0.0
 10
10.6402846586
 20
8.8361317753
 30
0.0
 10
10.6601248097
 20
8.8425932481
 30
0.0
 10
10.6803327514
 20
8.8480241541
 30
0.0
 10
10.700857576
 20
8.8524108677
 30
0.0
 10
10.7216476252
 20
8.8557424275
 30
0.0
 10
10.7426504537
 20
8.8580104492
 30
0.0
 10
10.7638134921
 20
8.859209378
 30
0.0
 10
10.7850826396
 20
8.8593361467
 30
0.0
 10
10.7992742755
 20
8.8587067839
 30
0.0
 10
10.8063688043
 20
8.8582147767
 30
0.0
  0
SPLINE
  5
344
100
AcDbEntity
  8
0
100
AcDbSpline
 62
7
  6
CONTINUOUS
 70
0
 71
3
 72
21
 73
17
 74
0
 42
0.0000001
 43
0.0000001
 44
0.0000000001
 40
0.0
 40
0.0
 40
0.0
 40
0.0
 40
0.0616532252
 40
0.1233294847
 40
0.1850515438
 40
0.2468416587
 40
0.3087213407
 40
0.3707111063
 40
0.4328302458
 40
0.4950966346
 40
0.5575265705
 40
0.6201345761
 40
0.6829331562
 40
0.7459331328
 40
0.8725263341
 40
1.0
 40
1.0
 40
1.0
 40
1.0
 10
10.6550090271
 20
8.6137321942
 30
0.0
 10
10.657646211
 20
8.6162795186
 30
0.0
 10
10.6630597317
 20
8.6212342786
 30
0.0
 10
10.6715693578
 20
8.6282206814
 30
0.0
 10
10.6804485257
 20
8.6347452682
 30
0.0
 10
10.6896745273
 20
8.6407913547
 30
0.0
 10
10.6992241927
 20
8.6463438012
 30
0.0
 10
10.7090734549
 20
8.6513885743
 30
0.0
 10
10.7191974898
 20
8.6559130029
 30
0.0
 10
10.7295707681
 20
8.65990574
 30
0.0
 10
10.7401671873
 20
8.6633567381
 30
0.0
 10
10.7509599785
 20
8.6662572889
 30
0.0
 10
10.7619222539
 20
8.6686001866
 30
0.0
 10
10.7767486481
 20
8.6709762022
 30
0.0
 10
10.7955758043
 20
8.6725198282
 30
0.0
 10
10.8107117054
 20
8.6722244415
 30
0.0
 10
10.8182744708
 20
8.6716999619
 30
0.0
  0
SPLINE
  5
345
100
AcDbEntity
  8
0
100
AcDbSpline
 62
7
  6
CONTINUOUS
 70
0
 71
3
 72
40
 73
36
 74
0
 42
0.0000001
 43
0.0000001
 44
0.0000000001
 40
0.0
 40
0.0
 40
0.0
 40
0.0
 40
0.0299391536
 40
0.0599019778
 40
0.0899115833
 40
0.119989978
 40
0.1501575583
 40
0.1804326475
 40
0.2108310946
 40
0.2413659428
 40
0.272047172
 40
0.3028815209
 40
0.3338723869
 40
0.3650198029
 40
0.3963204871
 40
0.4277679594
 40
0.4593527206
 40
0.4910624842
 40
0.5228824566
 40
0.5547956582
 40
0.5867832763
 40
0.618825047
 40
0.6508996558
 40
0.6829851539
 40
0.7150593826
 40
0.7471004005
 40
0.7790869076
 40
0.810998662
 40
0.8428168773
 40
0.8745246166
 40
0.9061070992
 40
0.9375521677
 40
0.9532222948
 40
0.9688551855
 40
1.0
 40
1.0
 40
1.0
 40
1.0
 10
10.9815399144
 20
8.2756825644
 30
0.0
 10
10.9853815682
 20
8.2793933174
 30
0.0
 10
10.9927801869
 20
8.2871224325
 30
0.0
 10
11.0029412775
 20
8.2995539338
 30
0.0
 10
11.0121160982
 20
8.3127615418
 30
0.0
 10
11.0202546857
 20
8.3266736085
 30
0.0
 10
11.0273138434
 20
8.3412158607
 30
0.0
 10
11.0332558751
 20
8.3563103669
 30
0.0
 10
11.0380491818
 20
8.3718763535
 30
0.0
 10
11.0416683139
 20
8.3878305419
 30
0.0
 10
11.0440941256
 20
8.4040876277
 30
0.0
 10
11.0453138581
 20
8.4205607325
 30
0.0
 10
11.0453211988
 20
8.4371618707
 30
0.0
 10
11.0441163045
 20
8.4538024171
 30
0.0
 10
11.0417057918
 20
8.4703935764
 30
0.0
 10
11.0381026935
 20
8.4868468521
 30
0.0
 10
11.0333263842
 20
8.5030745128
 30
0.0
 10
11.0274024719
 20
8.5189900535
 30
0.0
 10
11.0203626595
 20
8.5345086509
 30
0.0
 10
11.0122445738
 20
8.5495476091
 30
0.0
 10
11.0030915654
 20
8.5640267947
 30
0.0
 10
10.9929524778
 20
8.5778690584
 30
0.0
 10
10.9818813889
 20
8.5910006414
 30
0.0
 10
10.9699373246
 20
8.6033515642
 30
0.0
 10
10.9571839479
 20
8.6148559953
 30
0.0
 10
10.9436892208
 20
8.625452599
 30
0.0
 10
10.9295250512
 20
8.6350848593
 30
0.0
 10
10.9147668971
 20
8.6437013793
 30
0.0
 10
10.8994934298
 20
8.6512561486
 30
0.0
 10
10.8837858975
 20
8.6577088137
 30
0.0
 10
10.86772852
 20
8.6630247755
 30
0.0
 10
10.854109481
 20
8.6664881164
 30
0.0
 10
10.8431262423
 20
8.6686627782
 30
0.0
 10
10.8321255368
 20
8.6704341171
 30
0.0
 10
10.8238174082
 20
8.6713155579
 30
0.0
 10
10.8182744708
 20
8.6716999619
 30
0.0
  0
SPLINE
  5
346
100
AcDbEntity
  8
0
100
AcDbSpline
 62
7
  6
CONTINUOUS
 70
0
 71
3
 72
72
 73
68
 74
0
 42
0.0000001
 43
0.0000001
 44
0.0000000001
 40
0.0
 40
0.0
 40
0.0
 40
0.0
 40
0.0038007381
 40
0.007741717
 40
0.0118259762
 40
0.0160561861
 40
0.0204346248
 40
0.0249631083
 40
0.0296429507
 40
0.034475139
 40
0.0445982624
 40
0.0553349859
 40
0.0666830763
 40
0.0786369214
 40
0.0911880266
 40
0.1043253873
 40
0.1180357756
 40
0.1323040022
 40
0.1471131281
 40
0.162444632
 40
0.1782785371
 40
0.1945935439
 40
0.2113671532
 40
0.2285757639
 40
0.2461947509
 40
0.2641985494
 40
0.2825607465
 40
0.3012541554
 40
0.3202508788
 40
0.339522374
 40
0.3787721111
 40
0.4187655094
 40
0.459257996
 40
0.5000010196
 40
0.5407440307
 40
0.5812364821
 40
0.6212298196
 40
0.6604794759
 40
0.6797509194
 40
0.6987475868
 40
0.7174409382
 40
0.7358030696
 40
0.7538067944
 40
0.7714257037
 40
0.7886342371
 40
0.8054077625
 40
0.8217226764
 40
0.8375564847
 40
0.8528878938
 40
0.8676969213
 40
0.8819650398
 40
0.8956753162
 40
0.9088125679
 40
0.9213635649
 40
0.9333172929
 40
0.9446652617
 40
0.9554018688
 40
0.9605403345
 40
0.9655254594
 40
0.9703575751
 40
0.9750373564
 40
0.9795657872
 40
0.983944203
 40
0.9881743821
 40
0.9922585089
 40
0.996199292
 40
1.0
 40
1.0
 40
1.0
 40
1.0
 10
10.7042965154
 20
10.0885302924
 30
0.0
 10
10.7031273982
 20
10.0874423447
 30
0.0
 10
10.7007016103
 20
10.0852736266
 30
0.0
 10
10.6968782464
 20
10.0820981779
 30
0.0
 10
10.6928068044
 20
10.0789436467
 30
0.0
 10
10.6884891025
 20
10.0758113653
 30
0.0
 10
10.6839268409
 20
10.0727025273
 30
0.0
 10
10.679121837
 20
10.0696183881
 30
0.0
 10
10.6740760538
 20
10.0665601068
 30
0.0
 10
10.6669186978
 20
10.0624548972
 30
0.0
 10
10.6573717192
 20
10.0574075635
 30
0.0
 10
10.6451614579
 20
10.0515643358
 30
0.0
 10
10.6320453994
 20
10.0458536792
 30
0.0
 10
10.6180449746
 20
10.0402849615
 30
0.0
 10
10.6031828325
 20
10.0348673063
 30
0.0
 10
10.587483201
 20
10.0296096577
 30
0.0
 10
10.5709717308
 20
10.024520694
 30
0.0
 10
10.5536754641
 20
10.0196088335
 30
0.0
 10
10.5356227627
 20
10.0148822124
 30
0.0
 10
10.5168432613
 20
10.0103486714
 30
0.0
 10
10.497367823
 20
10.0060157216
 30
0.0
 10
10.47722848
 20
10.0018905387
 30
0.0
 10
10.4564583681
 20
9.99797996
 30
0.0
 10
10.4350916707
 20
9.9942904718
 30
0.0
 10
10.4131635688
 20
9.9908281887
 30
0.0
 10
10.3907101817
 20
9.9875988394
 30
0.0
 10
10.367768495
 20
9.9846077706
 30
0.0
 10
10.3443763116
 20
9.9818599469
 30
0.0
 10
10.3205721419
 20
9.9793598947
 30
0.0
 10
10.2881394355
 20
9.9763441928
 30
0.0
 10
10.2468581282
 20
9.9732328565
 30
0.0
 10
10.1966138498
 20
9.9705639975
 30
0.0
 10
10.1456966654
 20
9.9689555463
 30
0.0
 10
10.0944420313
 20
9.9684182399
 30
0.0
 10
10.0431874131
 20
9.96895565
 30
0.0
 10
9.9922702774
 20
9.9705642006
 30
0.0
 10
9.942026079
 20
9.9732331648
 30
0.0
 10
9.9007448589
 20
9.9763445786
 30
0.0
 10
9.8683122386
 20
9.9793603503
 30
0.0
 10
9.8445081438
 20
9.9818604513
 30
0.0
 10
9.8211160412
 20
9.9846083172
 30
0.0
 10
9.798174444
 20
9.9875994328
 30
0.0
 10
9.7757211558
 20
9.9908288295
 30
0.0
 10
9.7537931585
 20
9.9942911586
 30
0.0
 10
9.7324265697
 20
9.9979806854
 30
0.0
 10
9.711656574
 20
10.0018913051
 30
0.0
 10
9.6915173571
 20
10.0060165308
 30
0.0
 10
9.6720420506
 20
10.0103495222
 30
0.0
 10
9.653262683
 20
10.0148830979
 30
0.0
 10
9.6352101212
 20
10.0196097525
 30
0.0
 10
9.6179140037
 20
10.0245216503
 30
0.0
 10
9.6014026903
 20
10.0296106497
 30
0.0
 10
9.5857032109
 20
10.0348683293
 30
0.0
 10
9.5708412412
 20
10.040286007
 30
0.0
 10
9.5568409369
 20
10.0458547633
 30
0.0
 10
9.543725221
 20
10.051565422
 30
0.0
 10
9.5334043193
 20
10.056504432
 30
0.0
 10
9.5256163296
 20
10.0605275005
 30
0.0
 10
9.5200953462
 20
10.0635301966
 30
0.0
 10
9.5148109433
 20
10.0665612913
 30
0.0
 10
9.5097652523
 20
10.0696195452
 30
0.0
 10
9.5049603297
 20
10.0727037125
 30
0.0
 10
9.5003981488
 20
10.0758125874
 30
0.0
 10
9.4960805404
 20
10.078944865
 30
0.0
 10
9.4920092611
 20
10.0820993596
 30
0.0
 10
9.4881860383
 20
10.0852747424
 30
0.0
 10
9.4857603509
 20
10.0874434311
 30
0.0
 10
9.4845912625
 20
10.0885313912
 30
0.0
  0
SPLINE
  5
347
100
AcDbEntity
  8
0
100
AcDbSpline
 62
7
  6
CONTINUOUS
 70
0
 71
3
 72
72
 73
68
 74
0
 42
0.0000001
 43
0.0000001
 44
0.0000000001
 40
0.0
 40
0.0
 40
0.0
 40
0.0
 40
0.0038007381
 40
0.007741717
 40
0.0118259762
 40
0.0160561861
 40
0.0204346248
 40
0.0249631083
 40
0.0296429507
 40
0.034475139
 40
0.0445982624
 40
0.0553349859
 40
0.0666830763
 40
0.0786369214
 40
0.0911880266
 40
0.1043253873
 40
0.1180357756
 40
0.1323040022
 40
0.1471131281
 40
0.162444632
 40
0.1782785371
 40
0.1945935439
 40
0.2113671532
 40
0.2285757639
 40
0.2461947509
 40
0.2641985494
 40
0.2825607465
 40
0.3012541554
 40
0.3202508788
 40
0.339522374
 40
0.3787721111
 40
0.4187655094
 40
0.459257996
 40
0.5000010196
 40
0.5407440307
 40
0.5812364821
 40
0.6212298196
 40
0.6604794759
 40
0.6797509194
 40
0.6987475868
 40
0.7174409382
 40
0.7358030696
 40
0.7538067944
 40
0.7714257037
 40
0.7886342371
 40
0.8054077625
 40
0.8217226764
 40
0.8375564847
 40
0.8528878938
 40
0.8676969213
 40
0.8819650398
 40
0.8956753162
 40
0.9088125679
 40
0.9213635649
 40
0.9333172929
 40
0.9446652617
 40
0.9554018688
 40
0.9605403345
 40
0.9655254594
 40
0.9703575751
 40
0.9750373564
 40
0.9795657872
 40
0.983944203
 40
0.9881743821
 40
0.9922585089
 40
0.996199292
 40
1.0
 40
1.0
 40
1.0
 40
1.0
 10
12.515407547
 20
9.9629293157
 30
0.0
 10
12.5142384298
 20
9.9618413681
 30
0.0
 10
12.5118126419
 20
9.9596726499
 30
0.0
 10
12.507989278
 20
9.9564972012
 30
0.0
 10
12.503917836
 20
9.95334267
 30
0.0
 10
12.4996001341
 20
9.9502103887
 30
0.0
 10
12.4950378726
 20
9.9471015507
 30
0.0
 10
12.4902328686
 20
9.9440174115
 30
0.0
 10
12.4851870854
 20
9.9409591302
 30
0.0
 10
12.4780297294
 20
9.9368539206
 30
0.0
 10
12.4684827508
 20
9.9318065868
 30
0.0
 10
12.4562724895
 20
9.9259633592
 30
0.0
 10
12.443156431
 20
9.9202527026
 30
0.0
 10
12.4291560062
 20
9.9146839849
 30
0.0
 10
12.4142938641
 20
9.9092663297
 30
0.0
 10
12.3985942326
 20
9.9040086811
 30
0.0
 10
12.3820827624
 20
9.8989197174
 30
0.0
 10
12.3647864957
 20
9.8940078569
 30
0.0
 10
12.3467337943
 20
9.8892812358
 30
0.0
 10
12.3279542929
 20
9.8847476947
 30
0.0
 10
12.3084788546
 20
9.8804147449
 30
0.0
 10
12.2883395116
 20
9.8762895621
 30
0.0
 10
12.2675693997
 20
9.8723789833
 30
0.0
 10
12.2462027023
 20
9.8686894951
 30
0.0
 10
12.2242746004
 20
9.8652272121
 30
0.0
 10
12.2018212133
 20
9.8619978628
 30
0.0
 10
12.1788795266
 20
9.8590067939
 30
0.0
 10
12.1554873432
 20
9.8562589703
 30
0.0
 10
12.1316831735
 20
9.853758918
 30
0.0
 10
12.0992504671
 20
9.8507432162
 30
0.0
 10
12.0579691598
 20
9.8476318799
 30
0.0
 10
12.0077248814
 20
9.8449630209
 30
0.0
 10
11.956807697
 20
9.8433545697
 30
0.0
 10
11.9055530629
 20
9.8428172633
 30
0.0
 10
11.8542984447
 20
9.8433546733
 30
0.0
 10
11.803381309
 20
9.8449632239
 30
0.0
 10
11.7531371106
 20
9.8476321882
 30
0.0
 10
11.7118558905
 20
9.8507436019
 30
0.0
 10
11.6794232702
 20
9.8537593736
 30
0.0
 10
11.6556191754
 20
9.8562594746
 30
0.0
 10
11.6322270728
 20
9.8590073405
 30
0.0
 10
11.6092854756
 20
9.8619984561
 30
0.0
 10
11.5868321874
 20
9.8652278529
 30
0.0
 10
11.5649041901
 20
9.868690182
 30
0.0
 10
11.5435376013
 20
9.8723797087
 30
0.0
 10
11.5227676056
 20
9.8762903284
 30
0.0
 10
11.5026283887
 20
9.8804155541
 30
0.0
 10
11.4831530822
 20
9.8847485456
 30
0.0
 10
11.4643737146
 20
9.8892821213
 30
0.0
 10
11.4463211528
 20
9.8940087759
 30
0.0
 10
11.4290250353
 20
9.8989206736
 30
0.0
 10
11.4125137219
 20
9.904009673
 30
0.0
 10
11.3968142425
 20
9.9092673527
 30
0.0
 10
11.3819522728
 20
9.9146850304
 30
0.0
 10
11.3679519685
 20
9.9202537866
 30
0.0
 10
11.3548362526
 20
9.9259644453
 30
0.0
 10
11.3445153509
 20
9.9309034554
 30
0.0
 10
11.3367273612
 20
9.9349265238
 30
0.0
 10
11.3312063778
 20
9.9379292199
 30
0.0
 10
11.3259219749
 20
9.9409603147
 30
0.0
 10
11.3208762839
 20
9.9440185685
 30
0.0
 10
11.3160713614
 20
9.9471027359
 30
0.0
 10
11.3115091804
 20
9.9502116108
 30
0.0
 10
11.307191572
 20
9.9533438883
 30
0.0
 10
11.3031202927
 20
9.956498383
 30
0.0
 10
11.2992970699
 20
9.9596737657
 30
0.0
 10
11.2968713825
 20
9.9618424545
 30
0.0
 10
11.2957022941
 20
9.9629304146
 30
0.0
  0
SPLINE
  5
348
100
AcDbEntity
  8
0
100
AcDbSpline
 62
7
  6
CONTINUOUS
 70
0
 71
3
 72
47
 73
43
 74
0
 42
0.0000001
 43
0.0000001
 44
0.0000000001
 40
0.0
 40
0.0
 40
0.0
 40
0.0
 40
0.0063158953
 40
0.0126706964
 40
0.0191025413
 40
0.0256481068
 40
0.0323419887
 40
0.0392163511
 40
0.0536141938
 40
0.0611949453
 40
0.0690567093
 40
0.0772178306
 40
0.0856942536
 40
0.094499648
 40
0.1036457893
 40
0.1131425899
 40
0.1229983503
 40
0.1332200167
 40
0.1438131323
 40
0.1547821683
 40
0.1661305713
 40
0.1899729423
 40
0.2153524409
 40
0.2422683478
 40
0.2707106917
 40
0.3006617255
 40
0.3320970385
 40
0.3649863926
 40
0.3992943516
 40
0.4349809011
 40
0.4720019229
 40
0.5103095575
 40
0.5498524869
 40
0.5905762826
 40
0.6324236706
 40
0.6753347453
 40
0.7192471563
 40
0.7640962954
 40
0.8098156376
 40
0.856336788
 40
0.9035890146
 40
1.0
 40
1.0
 40
1.0
 40
1.0
 10
13.3132798052
 20
7.8638851394
 30
0.0
 10
13.3122741438
 20
7.8639548825
 30
0.0
 10
13.3102613809
 20
7.8641771374
 30
0.0
 10
13.3072647887
 20
7.8647563775
 30
0.0
 10
13.3042882208
 20
7.8655815003
 30
0.0
 10
13.3013334432
 20
7.8666518988
 30
0.0
 10
13.2984015704
 20
7.8679668499
 30
0.0
 10
13.2944648819
 20
7.8700771506
 30
0.0
 10
13.2906350705
 20
7.872660432
 30
0.0
 10
13.2869288217
 20
7.8756541007
 30
0.0
 10
13.2841293401
 20
7.8781780969
 30
0.0
 10
13.2813597437
 20
7.8809406081
 30
0.0
 10
13.2786207653
 20
7.8839406823
 30
0.0
 10
13.2759134617
 20
7.887176973
 30
0.0
 10
13.2732388816
 20
7.8906482078
 30
0.0
 10
13.2705980351
 20
7.8943529494
 30
0.0
 10
13.2679919265
 20
7.8982896871
 30
0.0
 10
13.265421628
 20
7.902456853
 30
0.0
 10
13.2628881171
 20
7.9068527272
 30
0.0
 10
13.2603923961
 20
7.9114755476
 30
0.0
 10
13.2570616347
 20
7.9180479859
 30
0.0
 10
13.2530112094
 20
7.9268302758
 30
0.0
 10
13.248394305
 20
7.9380747264
 30
0.0
 10
13.2439515807
 20
7.9501741254
 30
0.0
 10
13.239690305
 20
7.9631087287
 30
0.0
 10
13.2356174691
 20
7.9768576535
 30
0.0
 10
13.2317398154
 20
7.9913985033
 30
0.0
 10
13.2280637872
 20
8.0067075378
 30
0.0
 10
13.2245954858
 20
8.02275968
 30
0.0
 10
13.2213406829
 20
8.0395285907
 30
0.0
 10
13.2183048035
 20
8.0569867245
 30
0.0
 10
13.2154929153
 20
8.075105373
 30
0.0
 10
13.2129096942
 20
8.0938547111
 30
0.0
 10
13.2105594433
 20
8.113203858
 30
0.0
 10
13.2084460825
 20
8.1331209372
 30
0.0
 10
13.2065731417
 20
8.1535731262
 30
0.0
 10
13.2049437361
 20
8.174526699
 30
0.0
 10
13.2035605752
 20
8.1959471105
 30
0.0
 10
13.2024259772
 20
8.2177990308
 30
0.0
 10
13.2015418283
 20
8.2400464002
 30
0.0
 10
13.2006932799
 20
8.2703902533
 30
0.0
 10
13.2004471363
 20
8.2933214705
 30
0.0
 10
13.2004471363
 20
8.3087095798
 30
0.0
  0
SPLINE
  5
349
100
AcDbEntity
  8
0
100
AcDbSpline
 62
7
  6
CONTINUOUS
 70
0
 71
3
 72
32
 73
28
 74
0
 42
0.0000001
 43
0.0000001
 44
0.0000000001
 40
0.0
 40
0.0
 40
0.0
 40
0.0
 40
0.0162145057
 40
0.0334276663
 40
0.051672194
 40
0.0709713971
 40
0.091341076
 40
0.1127902549
 40
0.1353226925
 40
0.1589371244
 40
0.1836284274
 40
0.2093876574
 40
0.2362028698
 40
0.2640591611
 40
0.2929391479
 40
0.32282313
 40
0.3536892528
 40
0.3855138315
 40
0.4182712521
 40
0.4519344342
 40
0.5218600797
 40
0.5950461907
 40
0.6712264969
 40
0.7501172083
 40
0.8314196774
 40
0.9148213152
 40
1.0
 40
1.0
 40
1.0
 40
1.0
 10
13.2845274576
 20
8.0604175227
 30
0.0
 10
13.28349468
 20
8.0616873859
 30
0.0
 10
13.2814524742
 20
8.0643768732
 30
0.0
 10
13.278540009
 20
8.0687070864
 30
0.0
 10
13.275691608
 20
8.0734468137
 30
0.0
 10
13.2729101203
 20
8.0785909997
 30
0.0
 10
13.270198318
 20
8.0841345324
 30
0.0
 10
13.2675588722
 20
8.0900717055
 30
0.0
 10
13.2649945696
 20
8.0963964511
 30
0.0
 10
13.2625079932
 20
8.103102218
 30
0.0
 10
13.2601018085
 20
8.1101820661
 30
0.0
 10
13.2577784875
 20
8.1176286183
 30
0.0
 10
13.2555405188
 20
8.12543411
 30
0.0
 10
13.253390242
 20
8.1335903764
 30
0.0
 10
13.2513299407
 20
8.1420888754
 30
0.0
 10
13.2493618035
 20
8.1509206943
 30
0.0
 10
13.2474878948
 20
8.1600765619
 30
0.0
 10
13.2457102392
 20
8.1695468556
 30
0.0
 10
13.244030657
 20
8.1793216331
 30
0.0
 10
13.241897441
 20
8.192919599
 30
0.0
 10
13.2395007991
 20
8.2106052965
 30
0.0
 10
13.2370764791
 20
8.2326112577
 30
0.0
 10
13.2350791943
 20
8.2555685183
 30
0.0
 10
13.2335175255
 20
8.2793804507
 30
0.0
 10
13.2323982591
 20
8.3039469175
 30
0.0
 10
13.2317262318
 20
8.3291644798
 30
0.0
 10
13.2315797111
 20
8.3461827287
 30
0.0
 10
13.2315797111
 20
8.3547813403
 30
0.0
  0
SPLINE
  5
34A
100
AcDbEntity
  8
0
100
AcDbSpline
 62
7
  6
CONTINUOUS
 70
0
 71
3
 72
9
 73
5
 74
0
 42
0.0000001
 43
0.0000001
 44
0.0000000001
 40
0.0
 40
0.0
 40
0.0
 40
0.0
 40
0.4961083783
 40
1.0
 40
1.0
 40
1.0
 40
1.0
 10
13.2744084662
 20
8.0871092835
 30
0.0
 10
13.2733918474
 20
8.0871797802
 30
0.0
 10
13.2713498379
 20
8.0874565698
 30
0.0
 10
13.2693609051
 20
8.0879936554
 30
0.0
 10
13.2683798103
 20
8.0883234686
 30
0.0
  0
SPLINE
  5
34B
100
AcDbEntity
  8
0
100
AcDbSpline
 62
7
  6
CONTINUOUS
 70
0
 71
3
 72
41
 73
37
 74
0
 42
0.0000001
 43
0.0000001
 44
0.0000000001
 40
0.0
 40
0.0
 40
0.0
 40
0.0
 40
0.007062982
 40
0.0144561102
 40
0.0221885768
 40
0.0302677101
 40
0.0386990282
 40
0.0474867017
 40
0.0566335033
 40
0.0661410975
 40
0.0760101768
 40
0.0862404244
 40
0.0968308488
 40
0.1077796055
 40
0.130740857
 40
0.1550986596
 40
0.1808182118
 40
0.2078576888
 40
0.2361691311
 40
0.2656991393
 40
0.2963894827
 40
0.3281776029
 40
0.3609970416
 40
0.3947778189
 40
0.4294467674
 40
0.4649278559
 40
0.5011425083
 40
0.5380098924
 40
0.5754471967
 40
0.613369899
 40
0.651692029
 40
0.6903264459
 40
0.7681777825
 40
0.8462147062
 40
0.9237241525
 40
1.0
 40
1.0
 40
1.0
 40
1.0
 10
13.3400030998
 20
8.8603516874
 30
0.0
 10
13.3390985227
 20
8.8595097971
 30
0.0
 10
13.3372903238
 20
8.8577397413
 30
0.0
 10
13.3346402422
 20
8.8549013657
 30
0.0
 10
13.3319930094
 20
8.8518218456
 30
0.0
 10
13.3293502886
 20
8.8485030753
 30
0.0
 10
13.3267135258
 20
8.8449470471
 30
0.0
 10
13.3240843413
 20
8.8411558535
 30
0.0
 10
13.3214642571
 20
8.837131782
 30
0.0
 10
13.3188548437
 20
8.8328772418
 30
0.0
 10
13.3162576984
 20
8.8283947768
 30
0.0
 10
13.3136743419
 20
8.8236871087
 30
0.0
 10
13.3111063698
 20
8.818757051
 30
0.0
 10
13.307650032
 20
8.8117800339
 30
0.0
 10
13.303388962
 20
8.802516111
 30
0.0
 10
13.2984391623
 20
8.7907327203
 30
0.0
 10
13.2935870693
 20
8.778141102
 30
0.0
 10
13.2888445541
 20
8.7647717696
 30
0.0
 10
13.2842232348
 20
8.7506569858
 30
0.0
 10
13.2797344342
 20
8.7358309633
 30
0.0
 10
13.2753891541
 20
8.7203296765
 30
0.0
 10
13.2711980448
 20
8.7041907829
 30
0.0
 10
13.2671713769
 20
8.6874535166
 30
0.0
 10
13.2633190178
 20
8.6701585907
 30
0.0
 10
13.2596504018
 20
8.6523480979
 30
0.0
 10
13.2561745062
 20
8.6340654032
 30
0.0
 10
13.2528998362
 20
8.615355031
 30
0.0
 10
13.2498344032
 20
8.5962625545
 30
0.0
 10
13.2469857034
 20
8.5768344805
 30
0.0
 10
13.2443607121
 20
8.557118152
 30
0.0
 10
13.2419658118
 20
8.5371615761
 30
0.0
 10
13.2390801195
 20
8.5102300643
 30
0.0
 10
13.2360902814
 20
8.4763242853
 30
0.0
 10
13.2335050746
 20
8.4355670208
 30
0.0
 10
13.2319387338
 20
8.3950338265
 30
0.0
 10
13.2315797111
 20
8.3681265072
 30
0.0
 10
13.2315797111
 20
8.3547813403
 30
0.0
  0
SPLINE
  5
34C
100
AcDbEntity
  8
0
100
AcDbSpline
 62
7
  6
CONTINUOUS
 70
0
 71
3
 72
9
 73
5
 74
0
 42
0.0000001
 43
0.0000001
 44
0.0000000001
 40
0.0
 40
0.0
 40
0.0
 40
0.0
 40
0.4960276131
 40
1.0
 40
1.0
 40
1.0
 40
1.0
 10
13.3262965156
 20
8.8353122133
 30
0.0
 10
13.3252691483
 20
8.8353834554
 30
0.0
 10
13.3231862089
 20
8.8353898356
 30
0.0
 10
13.321120642
 20
8.8351254622
 30
0.0
 10
13.3200928292
 20
8.8349294895
 30
0.0
  0
SPLINE
  5
34D
100
AcDbEntity
  8
0
100
AcDbSpline
 62
7
  6
CONTINUOUS
 70
0
 71
3
 72
21
 73
17
 74
0
 42
0.0000001
 43
0.0000001
 44
0.0000000001
 40
0.0
 40
0.0
 40
0.0
 40
0.0
 40
0.06165322
 40
0.1233294719
 40
0.1850515326
 40
0.2468416528
 40
0.308721334
 40
0.3707110997
 40
0.4328302469
 40
0.4950966389
 40
0.5575265783
 40
0.620134583
 40
0.6829331586
 40
0.745933179
 40
0.8725262751
 40
1.0
 40
1.0
 40
1.0
 40
1.0
 10
12.8184000509
 20
6.95003642
 30
0.0
 10
12.8161219822
 20
6.9478359881
 30
0.0
 10
12.8114456071
 20
6.9435560015
 30
0.0
 10
12.8040947676
 20
6.937521012
 30
0.0
 10
12.796424712
 20
6.9318849456
 30
0.0
 10
12.788455039
 20
6.926662244
 30
0.0
 10
12.7802057868
 20
6.9218659529
 30
0.0
 10
12.7716977526
 20
6.9175081736
 30
0.0
 10
12.7629523538
 20
6.913599902
 30
0.0
 10
12.7539916551
 20
6.9101509191
 30
0.0
 10
12.7448382108
 20
6.9071698848
 30
0.0
 10
12.7355151376
 20
6.9046643364
 30
0.0
 10
12.7260456566
 20
6.9026405125
 30
0.0
 10
12.7132382658
 20
6.9005880785
 30
0.0
 10
12.696974922
 20
6.8992546674
 30
0.0
 10
12.6839001746
 20
6.8995098364
 30
0.0
 10
12.6773672757
 20
6.8999628945
 30
0.0
  0
SPLINE
  5
34E
100
AcDbEntity
  8
0
100
AcDbSpline
 62
7
  6
CONTINUOUS
 70
0
 71
3
 72
15
 73
11
 74
0
 42
0.0000001
 43
0.0000001
 44
0.0000000001
 40
0.0
 40
0.0
 40
0.0
 40
0.0
 40
0.125702831
 40
0.2511667605
 40
0.3764249884
 40
0.5014979155
 40
0.6263954231
 40
0.751117664
 40
0.8756567639
 40
1.0
 40
1.0
 40
1.0
 40
1.0
 10
10.8985471777
 20
8.5613492726
 30
0.0
 10
10.8968412789
 20
8.5597010822
 30
0.0
 10
10.893284169
 20
8.5565578424
 30
0.0
 10
10.8875632671
 20
8.5523330452
 30
0.0
 10
10.8815066394
 20
8.5486272005
 30
0.0
 10
10.8751603044
 20
8.5454669433
 30
0.0
 10
10.868570896
 20
8.5428781617
 30
0.0
 10
10.8617872969
 20
8.5408861666
 30
0.0
 10
10.8548625168
 20
8.5395148564
 30
0.0
 10
10.8501832358
 20
8.539028367
 30
0.0
 10
10.8478405991
 20
8.5388956278
 30
0.0
  0
SPLINE
  5
34F
100
AcDbEntity
  8
0
100
AcDbSpline
 62
7
  6
CONTINUOUS
 70
0
 71
3
 72
15
 73
11
 74
0
 42
0.0000001
 43
0.0000001
 44
0.0000000001
 40
0.0
 40
0.0
 40
0.0
 40
0.0
 40
0.1462013888
 40
0.2850350028
 40
0.4169986302
 40
0.542720502
 40
0.6629498546
 40
0.7785580727
 40
0.8905389312
 40
1.0
 40
1.0
 40
1.0
 40
1.0
 10
11.3839555387
 20
9.953171029
 30
0.0
 10
11.3826451987
 20
9.9519053377
 30
0.0
 10
11.3801589733
 20
9.9493652589
 30
0.0
 10
11.3767662931
 20
9.9454245403
 30
0.0
 10
11.3738130578
 20
9.9414575222
 30
0.0
 10
11.3713023372
 20
9.9374672381
 30
0.0
 10
11.3692369805
 20
9.9334563764
 30
0.0
 10
11.3676196238
 20
9.9294278223
 30
0.0
 10
11.3664531853
 20
9.9253856479
 30
0.0
 10
11.3659736937
 20
9.9226617118
 30
0.0
 10
11.3658122687
 20
9.9213073128
 30
0.0
  0
SPLINE
  5
350
100
AcDbEntity
  8
0
100
AcDbSpline
 62
7
  6
CONTINUOUS
 70
0
 71
3
 72
23
 73
19
 74
0
 42
0.0000001
 43
0.0000001
 44
0.0000000001
 40
0.0
 40
0.0
 40
0.0
 40
0.0
 40
0.0616482117
 40
0.1233194496
 40
0.1850364829
 40
0.24682157
 40
0.3086962136
 40
0.370680925
 40
0.4327950024
 40
0.4950563275
 40
0.5574811782
 40
0.6200840647
 40
0.6828776055
 40
0.7458723192
 40
0.8090769012
 40
0.8724969623
 40
0.9361381423
 40
1.0
 40
1.0
 40
1.0
 40
1.0
 10
11.1120582409
 20
8.1167362778
 30
0.0
 10
11.107120523
 20
8.1119667921
 30
0.0
 10
11.096984566
 20
8.1026897182
 30
0.0
 10
11.0810516084
 20
8.0896087161
 30
0.0
 10
11.0644267725
 20
8.0773923482
 30
0.0
 10
11.0471525163
 20
8.0660719286
 30
0.0
 10
11.0292722293
 20
8.0556758073
 30
0.0
 10
11.0108310143
 20
8.0462301864
 30
0.0
 10
10.9918753325
 20
8.0377588163
 30
0.0
 10
10.97245295
 20
8.0302830005
 30
0.0
 10
10.9526127989
 20
8.0238215277
 30
0.0
 10
10.9324048572
 20
8.0183906217
 30
0.0
 10
10.9118800326
 20
8.0140039081
 30
0.0
 10
10.8910899834
 20
8.0106723484
 30
0.0
 10
10.8700871549
 20
8.0084043266
 30
0.0
 10
10.8489241165
 20
8.0072053978
 30
0.0
 10
10.827654969
 20
8.0070786291
 30
0.0
 10
10.8134633332
 20
8.0077079919
 30
0.0
 10
10.8063688043
 20
8.0081999992
 30
0.0
  0
SPLINE
  5
351
100
AcDbEntity
  8
0
100
AcDbSpline
 62
7
  6
CONTINUOUS
 70
0
 71
3
 72
39
 73
35
 74
0
 42
0.0000001
 43
0.0000001
 44
0.0000000001
 40
0.0
 40
0.0
 40
0.0
 40
0.0
 40
0.0311450437
 40
0.0624431125
 40
0.0938883331
 40
0.1254709822
 40
0.157178873
 40
0.1889972474
 40
0.2209091591
 40
0.2528958248
 40
0.2849370022
 40
0.3170113907
 40
0.3490970489
 40
0.3811718181
 40
0.4132137492
 40
0.4452015278
 40
0.4771148901
 40
0.5089350229
 40
0.5406449458
 40
0.5722298665
 40
0.6036774985
 40
0.6349783412
 40
0.6661259148
 40
0.6971169386
 40
0.7279514454
 40
0.7586328312
 40
0.789167835
 40
0.8195664378
 40
0.8498416821
 40
0.8800094162
 40
0.9100879636
 40
0.9400977212
 40
0.9700606965
 40
1.0
 40
1.0
 40
1.0
 40
1.0
 10
10.8063688043
 20
8.0081999992
 30
0.0
 10
10.7959905276
 20
8.0089197351
 30
0.0
 10
10.7752279412
 20
8.0111223897
 30
0.0
 10
10.7443357832
 20
8.0166709494
 30
0.0
 10
10.7137745089
 20
8.0244427857
 30
0.0
 10
10.6837091617
 20
8.0343961397
 30
0.0
 10
10.6542994867
 20
8.0464776823
 30
0.0
 10
10.6257023529
 20
8.0606227546
 30
0.0
 10
10.5980700955
 20
8.0767557628
 30
0.0
 10
10.5715499622
 20
8.0947905819
 30
0.0
 10
10.5462832651
 20
8.1146309948
 30
0.0
 10
10.5224046168
 20
8.1361711587
 30
0.0
 10
10.5000412617
 20
8.1592962311
 30
0.0
 10
10.4793124112
 20
8.183882968
 30
0.0
 10
10.4603285947
 20
8.2098003518
 30
0.0
 10
10.4431910393
 20
8.2369102623
 30
0.0
 10
10.4279911929
 20
8.2650682511
 30
0.0
 10
10.4148102421
 20
8.2941242931
 30
0.0
 10
10.4037186458
 20
8.3239235547
 30
0.0
 10
10.3947757341
 20
8.3543072078
 30
0.0
 10
10.3880294518
 20
8.3851132888
 30
0.0
 10
10.3835161005
 20
8.416177541
 30
0.0
 10
10.3812600834
 20
8.4473342669
 30
0.0
 10
10.3812737611
 20
8.4784172109
 30
0.0
 10
10.3835574277
 20
8.5092604404
 30
0.0
 10
10.3880992954
 20
8.5396992142
 30
0.0
 10
10.3948754694
 20
8.5695708652
 30
0.0
 10
10.4038500788
 20
8.5987156813
 30
0.0
 10
10.4149754772
 20
8.6269777392
 30
0.0
 10
10.4281925318
 20
8.6542057906
 30
0.0
 10
10.4434306498
 20
8.6802539241
 30
0.0
 10
10.4606089329
 20
8.7049830899
 30
0.0
 10
10.479633848
 20
8.7282591284
 30
0.0
 10
10.4934865049
 20
8.7427307022
 30
0.0
 10
10.5006793677
 20
8.749678498
 30
0.0
  0
SPLINE
  5
352
100
AcDbEntity
  8
0
100
AcDbSpline
 62
7
  6
CONTINUOUS
 70
0
 71
3
 72
29
 73
25
 74
0
 42
0.0000001
 43
0.0000001
 44
0.0000000001
 40
0.0
 40
0.0
 40
0.0
 40
0.0
 40
0.0749503488
 40
0.1455452737
 40
0.2121261891
 40
0.2751192851
 40
0.3350448404
 40
0.3640583593
 40
0.3925449884
 40
0.4205963601
 40
0.4483089338
 40
0.4757832092
 40
0.5031225081
 40
0.530431847
 40
0.5578166247
 40
0.5853812653
 40
0.6132280351
 40
0.6414557868
 40
0.6701590145
 40
0.7293218109
 40
0.7913860629
 40
0.8569001023
 40
0.9263189548
 40
1.0
 40
1.0
 40
1.0
 40
1.0
 10
9.4845912625
 20
10.0885313912
 30
0.0
 10
9.4827633972
 20
10.0902324126
 30
0.0
 10
9.4793152489
 20
10.0936475107
 30
0.0
 10
9.4746625751
 20
10.0989754283
 30
0.0
 10
9.4706950775
 20
10.1043457318
 30
0.0
 10
9.4674187793
 20
10.1097530863
 30
0.0
 10
9.4652456635
 20
10.1143362271
 30
0.0
 10
9.4638744855
 20
10.1180019795
 30
0.0
 10
9.4630322464
 20
10.1207265644
 30
0.0
 10
9.4623656695
 20
10.123454786
 30
0.0
 10
9.4618750296
 20
10.1261858928
 30
0.0
 10
9.461560499
 20
10.1289190031
 30
0.0
 10
9.4614222226
 20
10.1316532549
 30
0.0
 10
9.4614603198
 20
10.1343877603
 30
0.0
 10
9.461674719
 20
10.137121626
 30
0.0
 10
9.4620653155
 20
10.1398539809
 30
0.0
 10
9.4626319768
 20
10.142583932
 30
0.0
 10
9.4633744725
 20
10.1453107159
 30
0.0
 10
9.4646106055
 20
10.1489774454
 30
0.0
 10
9.4666148511
 20
10.1535646666
 30
0.0
 10
9.4696938367
 20
10.1589818177
 30
0.0
 10
9.4734656303
 20
10.1643633121
 30
0.0
 10
9.4779241971
 20
10.1697035868
 30
0.0
 10
9.4812478819
 20
10.1731275973
 30
0.0
 10
9.4830133824
 20
10.17483294
 30
0.0
  0
SPLINE
  5
353
100
AcDbEntity
  8
0
100
AcDbSpline
 62
7
  6
CONTINUOUS
 70
0
 71
3
 72
95
 73
91
 74
0
 42
0.0000001
 43
0.0000001
 44
0.0000000001
 40
0.0
 40
0.0
 40
0.0
 40
0.0
 40
0.0041939594
 40
0.0085762782
 40
0.0131520573
 40
0.0179256173
 40
0.0229004891
 40
0.0280792353
 40
0.0334636269
 40
0.0390547837
 40
0.0448532429
 40
0.0508590315
 40
0.0570716617
 40
0.0634902595
 40
0.0701135134
 40
0.0769398105
 40
0.09119284
 40
0.1062306851
 40
0.1220299823
 40
0.1385637575
 40
0.1558018515
 40
0.1737112679
 40
0.1922564673
 40
0.2113996207
 40
0.2311008356
 40
0.2513183603
 40
0.272008772
 40
0.2931271544
 40
0.3146272662
 40
0.3364617034
 40
0.3585820579
 40
0.380939072
 40
0.4034827908
 40
0.4261627133
 40
0.448927942
 40
0.4717273316
 40
0.4945096381
 40
0.5172236671
 40
0.539818422
 40
0.5622432532
 40
0.5844480073
 40
0.6063831771
 40
0.6280000543
 40
0.6492508828
 40
0.6700890155
 40
0.690469076
 40
0.710347124
 40
0.7296808303
 40
0.748429661
 40
0.7665550762
 40
0.7840207471
 40
0.8007927993
 40
0.816840092
 40
0.8321345465
 40
0.8466515423
 40
0.8536121205
 40
0.860370937
 40
0.8669261464
 40
0.8732762126
 40
0.8794199799
 40
0.8853566932
 40
0.8910860295
 40
0.8966081824
 40
0.9019238591
 40
0.9070344273
 40
0.9119418968
 40
0.9166491158
 40
0.9211597694
 40
0.9254786037
 40
0.9296114746
 40
0.9335655778
 40
0.9373495665
 40
0.9409737611
 40
0.9477890579
 40
0.9510148461
 40
0.9541417235
 40
0.9571900969
 40
0.9601821554
 40
0.9631415091
 40
0.9660926235
 40
0.9690601892
 40
0.9720684542
 40
0.9751406083
 40
0.9782982941
 40
0.9815612373
 40
0.98494706
 40
0.9884713247
 40
0.992147593
 40
0.9959873756
 40
1.0
 40
1.0
 40
1.0
 40
1.0
 10
9.4830133824
 20
10.17483294
 30
0.0
 10
9.4843835663
 20
10.176156436
 30
0.0
 10
9.4872536029
 20
10.1787930374
 30
0.0
 10
9.4918309767
 20
10.1826344992
 30
0.0
 10
9.4967707154
 20
10.186445416
 30
0.0
 10
9.5020696155
 20
10.1902234544
 30
0.0
 10
9.5077246446
 20
10.1939664859
 30
0.0
 10
9.5137324691
 20
10.1976723968
 30
0.0
 10
9.5200895492
 20
10.2013389856
 30
0.0
 10
9.5267921024
 20
10.2049640755
 30
0.0
 10
9.5338361391
 20
10.2085455382
 30
0.0
 10
9.5412174792
 20
10.2120812093
 30
0.0
 10
9.5489317092
 20
10.2155690244
 30
0.0
 10
9.5569742325
 20
10.2190068263
 30
0.0
 10
9.5653402349
 20
10.2223926474
 30
0.0
 10
9.5770891566
 20
10.2268998897
 30
0.0
 10
9.5925572122
 20
10.2323753537
 30
0.0
 10
9.6120673308
 20
10.2386159254
 30
0.0
 10
9.6327374895
 20
10.244602483
 30
0.0
 10
9.6545180957
 20
10.2503205161
 30
0.0
 10
9.677357075
 20
10.2557561505
 30
0.0
 10
9.7011996518
 20
10.2608961935
 30
0.0
 10
9.7259886026
 20
10.2657281694
 30
0.0
 10
9.7516643763
 20
10.2702403529
 30
0.0
 10
9.7781652557
 20
10.2744217971
 30
0.0
 10
9.8054275108
 20
10.278262361
 30
0.0
 10
9.8333855588
 20
10.2817527325
 30
0.0
 10
9.8619721258
 20
10.2848844512
 30
0.0
 10
9.891118412
 20
10.2876499281
 30
0.0
 10
9.92075426
 20
10.2900424631
 30
0.0
 10
9.9508083259
 20
10.2920562605
 30
0.0
 10
9.9812082523
 20
10.2936864431
 30
0.0
 10
10.0118808445
 20
10.2949290632
 30
0.0
 10
10.0427522474
 20
10.2957811119
 30
0.0
 10
10.0737481248
 20
10.2962405258
 30
0.0
 10
10.104793839
 20
10.2963061926
 30
0.0
 10
10.1358146316
 20
10.2959779538
 30
0.0
 10
10.166735805
 20
10.2952566042
 30
0.0
 10
10.1974829026
 20
10.2941438904
 30
0.0
 10
10.2279818891
 20
10.2926425067
 30
0.0
 10
10.25815933
 20
10.2907560887
 30
0.0
 10
10.2879425692
 20
10.2884892048
 30
0.0
 10
10.3172599055
 20
10.2858473458
 30
0.0
 10
10.3460407667
 20
10.2828369118
 30
0.0
 10
10.3742158813
 20
10.2794651974
 30
0.0
 10
10.401717448
 20
10.2757403745
 30
0.0
 10
10.4284793017
 20
10.2716714735
 30
0.0
 10
10.4544370768
 20
10.2672683616
 30
0.0
 10
10.4795283681
 20
10.2625417201
 30
0.0
 10
10.5036928858
 20
10.2575030184
 30
0.0
 10
10.526872616
 20
10.2521644858
 30
0.0
 10
10.5490119442
 20
10.2465390794
 30
0.0
 10
10.5700579025
 20
10.2406404516
 30
0.0
 10
10.5899599729
 20
10.2344829015
 30
0.0
 10
10.6057663859
 20
10.2290752265
 30
0.0
 10
10.617793998
 20
10.2246199758
 30
0.0
 10
10.6263728892
 20
10.2212699896
 30
0.0
 10
10.6346316139
 20
10.2178666429
 30
0.0
 10
10.6425652364
 20
10.2144119285
 30
0.0
 10
10.6501690114
 20
10.2109079337
 30
0.0
 10
10.6574384041
 20
10.2073567641
 30
0.0
 10
10.664369072
 20
10.2037605141
 30
0.0
 10
10.6709569075
 20
10.2001213662
 30
0.0
 10
10.6771979765
 20
10.1964414182
 30
0.0
 10
10.6830886116
 20
10.1927229068
 30
0.0
 10
10.6886252942
 20
10.1889679265
 30
0.0
 10
10.6938047985
 20
10.1851787333
 30
0.0
 10
10.6986240287
 20
10.1813574111
 30
0.0
 10
10.703080175
 20
10.1775061991
 30
0.0
 10
10.7071705834
 20
10.1736271235
 30
0.0
 10
10.7108927221
 20
10.1697225046
 30
0.0
 10
10.7142446572
 20
10.1657938105
 30
0.0
 10
10.7181364976
 20
10.1606339774
 30
0.0
 10
10.7213938471
 20
10.1553206519
 30
0.0
 10
10.723905265
 20
10.1498861773
 30
0.0
 10
10.7253746021
 20
10.1458711576
 30
0.0
 10
10.7264621676
 20
10.1418459993
 30
0.0
 10
10.7271666032
 20
10.1378132868
 30
0.0
 10
10.7274870586
 20
10.1337761975
 30
0.0
 10
10.7274229354
 20
10.1297379879
 30
0.0
 10
10.7269744522
 20
10.1257019999
 30
0.0
 10
10.726142155
 20
10.1216714732
 30
0.0
 10
10.7249272109
 20
10.117649407
 30
0.0
 10
10.7233310098
 20
10.1136385503
 30
0.0
 10
10.7213552239
 20
10.109641394
 30
0.0
 10
10.7190016699
 20
10.1056601901
 30
0.0
 10
10.7162721385
 20
10.1016970861
 30
0.0
 10
10.7131685533
 20
10.0977540663
 30
0.0
 10
10.7096931339
 20
10.0938334594
 30
0.0
 10
10.7071865269
 20
10.0912934299
 30
0.0
 10
10.705875586
 20
10.0900271581
 30
0.0
  0
SPLINE
  5
354
100
AcDbEntity
  8
0
100
AcDbSpline
 62
7
  6
CONTINUOUS
 70
0
 71
3
 72
23
 73
19
 74
0
 42
0.0000001
 43
0.0000001
 44
0.0000000001
 40
0.0
 40
0.0
 40
0.0
 40
0.0
 40
0.0638480823
 40
0.1274798015
 40
0.1908938451
 40
0.2540961046
 40
0.317091677
 40
0.3798888228
 40
0.442497507
 40
0.5049296828
 40
0.5671991287
 40
0.6293213111
 40
0.6913132444
 40
0.7531933163
 40
0.8149811025
 40
0.8766971658
 40
0.9383628397
 40
1.0
 40
1.0
 40
1.0
 40
1.0
 10
10.8105099058
 20
8.0121999963
 30
0.0
 10
10.8174807214
 20
8.0117165686
 30
0.0
 10
10.8314248431
 20
8.0110921185
 30
0.0
 10
10.8523242593
 20
8.0111891063
 30
0.0
 10
10.87312304
 20
8.0123211891
 30
0.0
 10
10.8937698073
 20
8.0144855218
 30
0.0
 10
10.9142147143
 20
8.0176770188
 30
0.0
 10
10.9344079567
 20
8.0218879206
 30
0.0
 10
10.9543004736
 20
8.0271080769
 30
0.0
 10
10.9738438929
 20
8.0333248296
 30
0.0
 10
10.9929906937
 20
8.0405231059
 30
0.0
 10
11.0116943112
 20
8.0486854461
 30
0.0
 10
11.0299092478
 20
8.0577920396
 30
0.0
 10
11.0475912002
 20
8.06782079
 30
0.0
 10
11.0646971058
 20
8.0787473052
 30
0.0
 10
11.0811855003
 20
8.0905451547
 30
0.0
 10
11.0970157222
 20
8.1031851549
 30
0.0
 10
11.1071072372
 20
8.112155003
 30
0.0
 10
11.1120288984
 20
8.1167680597
 30
0.0
  0
SPLINE
  5
355
100
AcDbEntity
  8
0
100
AcDbSpline
 62
7
  6
CONTINUOUS
 70
0
 71
3
 72
39
 73
35
 74
0
 42
0.0000001
 43
0.0000001
 44
0.0000000001
 40
0.0
 40
0.0
 40
0.0
 40
0.0
 40
0.0311366799
 40
0.0624254516
 40
0.0938605665
 40
0.1254324354
 40
0.1571290906
 40
0.1889360129
 40
0.2208365287
 40
0.2528121473
 40
0.2848429293
 40
0.316907878
 40
0.3489853437
 40
0.3810534388
 40
0.4130904543
 40
0.4450752737
 40
0.4769877807
 40
0.5088092526
 40
0.5405227331
 40
0.5721133799
 40
0.6035687822
 40
0.6348792394
 40
0.6660379923
 40
0.6970414025
 40
0.7278890751
 40
0.7585839181
 40
0.7891321278
 40
0.8195431012
 40
0.8498292733
 40
0.8800058796
 40
0.9100906433
 40
0.9401033931
 40
0.9700656223
 40
1.0
 40
1.0
 40
1.0
 40
1.0
 10
10.8105099058
 20
8.0121999963
 30
0.0
 10
10.8001939826
 20
8.012915408
 30
0.0
 10
10.7795562091
 20
8.0151002491
 30
0.0
 10
10.7488472235
 20
8.0205954157
 30
0.0
 10
10.718463212
 20
8.0282876997
 30
0.0
 10
10.6885662985
 20
8.038136266
 30
0.0
 10
10.6593134393
 20
8.0500889664
 30
0.0
 10
10.6308588153
 20
8.0640826254
 30
0.0
 10
10.6033521921
 20
8.0800433353
 30
0.0
 10
10.5769383915
 20
8.0978868928
 30
0.0
 10
10.5517564732
 20
8.1175192313
 30
0.0
 10
10.5279390288
 20
8.1388369046
 30
0.0
 10
10.5056114511
 20
8.1617275929
 30
0.0
 10
10.4848913205
 20
8.1860707378
 30
0.0
 10
10.4658877883
 20
8.2117381619
 30
0.0
 10
10.4487010188
 20
8.2385947404
 30
0.0
 10
10.4334216185
 20
8.2664990722
 30
0.0
 10
10.4201301831
 20
8.2953042389
 30
0.0
 10
10.408896896
 20
8.3248585768
 30
0.0
 10
10.3997811598
 20
8.3550064613
 30
0.0
 10
10.3928312635
 20
8.3855891057
 30
0.0
 10
10.3880840881
 20
8.4164453841
 30
0.0
 10
10.3855649626
 20
8.4474126844
 30
0.0
 10
10.3852875108
 20
8.4783277469
 30
0.0
 10
10.3872535761
 20
8.5090275124
 30
0.0
 10
10.3914531325
 20
8.5393499794
 30
0.0
 10
10.3978643665
 20
8.5691350574
 30
0.0
 10
10.4064537862
 20
8.5982254113
 30
0.0
 10
10.417176368
 20
8.6264672757
 30
0.0
 10
10.429975793
 20
8.6537113405
 30
0.0
 10
10.444784522
 20
8.6798133721
 30
0.0
 10
10.461524913
 20
8.7046357038
 30
0.0
 10
10.4801069184
 20
8.7280452726
 30
0.0
 10
10.4936641548
 20
8.7426343841
 30
0.0
 10
10.5007099333
 20
8.7496478422
 30
0.0
  0
SPLINE
  5
356
100
AcDbEntity
  8
0
100
AcDbSpline
 62
7
  6
CONTINUOUS
 70
0
 71
3
 72
95
 73
91
 74
0
 42
0.0000001
 43
0.0000001
 44
0.0000000001
 40
0.0
 40
0.0
 40
0.0
 40
0.0
 40
0.0041939594
 40
0.0085762782
 40
0.0131520573
 40
0.0179256173
 40
0.0229004891
 40
0.0280792353
 40
0.0334636269
 40
0.0390547837
 40
0.0448532429
 40
0.0508590315
 40
0.0570716617
 40
0.0634902595
 40
0.0701135134
 40
0.0769398105
 40
0.09119284
 40
0.1062306851
 40
0.1220299823
 40
0.1385637575
 40
0.1558018515
 40
0.1737112679
 40
0.1922564673
 40
0.2113996207
 40
0.2311008356
 40
0.2513183603
 40
0.272008772
 40
0.2931271544
 40
0.3146272662
 40
0.3364617034
 40
0.3585820579
 40
0.380939072
 40
0.4034827908
 40
0.4261627133
 40
0.448927942
 40
0.4717273316
 40
0.4945096381
 40
0.5172236671
 40
0.539818422
 40
0.5622432532
 40
0.5844480073
 40
0.6063831771
 40
0.6280000543
 40
0.6492508828
 40
0.6700890155
 40
0.690469076
 40
0.710347124
 40
0.7296808303
 40
0.748429661
 40
0.7665550762
 40
0.7840207471
 40
0.8007927993
 40
0.816840092
 40
0.8321345465
 40
0.8466515423
 40
0.8536121205
 40
0.860370937
 40
0.8669261464
 40
0.8732762126
 40
0.8794199799
 40
0.8853566932
 40
0.8910860295
 40
0.8966081824
 40
0.9019238591
 40
0.9070344273
 40
0.9119418968
 40
0.9166491158
 40
0.9211597694
 40
0.9254786037
 40
0.9296114746
 40
0.9335655778
 40
0.9373495665
 40
0.9409737611
 40
0.9477890579
 40
0.9510148461
 40
0.9541417235
 40
0.9571900969
 40
0.9601821554
 40
0.9631415091
 40
0.9660926235
 40
0.9690601892
 40
0.9720684542
 40
0.9751406083
 40
0.9782982941
 40
0.9815612373
 40
0.98494706
 40
0.9884713247
 40
0.992147593
 40
0.9959873756
 40
1.0
 40
1.0
 40
1.0
 40
1.0
 10
11.294124414
 20
10.0492319633
 30
0.0
 10
11.2954945979
 20
10.0505554594
 30
0.0
 10
11.2983646345
 20
10.0531920608
 30
0.0
 10
11.3029420083
 20
10.0570335226
 30
0.0
 10
11.307881747
 20
10.0608444394
 30
0.0
 10
11.3131806471
 20
10.0646224778
 30
0.0
 10
11.3188356762
 20
10.0683655093
 30
0.0
 10
11.3248435007
 20
10.0720714202
 30
0.0
 10
11.3312005808
 20
10.075738009
 30
0.0
 10
11.337903134
 20
10.0793630988
 30
0.0
 10
11.3449471707
 20
10.0829445616
 30
0.0
 10
11.3523285109
 20
10.0864802327
 30
0.0
 10
11.3600427408
 20
10.0899680477
 30
0.0
 10
11.3680852641
 20
10.0934058496
 30
0.0
 10
11.3764512665
 20
10.0967916707
 30
0.0
 10
11.3882001882
 20
10.101298913
 30
0.0
 10
11.4036682438
 20
10.1067743771
 30
0.0
 10
11.4231783624
 20
10.1130149488
 30
0.0
 10
11.4438485211
 20
10.1190015064
 30
0.0
 10
11.4656291273
 20
10.1247195394
 30
0.0
 10
11.4884681066
 20
10.1301551739
 30
0.0
 10
11.5123106834
 20
10.1352952169
 30
0.0
 10
11.5370996342
 20
10.1401271928
 30
0.0
 10
11.5627754079
 20
10.1446393762
 30
0.0
 10
11.5892762873
 20
10.1488208205
 30
0.0
 10
11.6165385424
 20
10.1526613843
 30
0.0
 10
11.6444965904
 20
10.1561517558
 30
0.0
 10
11.6730831574
 20
10.1592834746
 30
0.0
 10
11.7022294436
 20
10.1620489515
 30
0.0
 10
11.7318652917
 20
10.1644414864
 30
0.0
 10
11.7619193575
 20
10.1664552838
 30
0.0
 10
11.7923192839
 20
10.1680854665
 30
0.0
 10
11.8229918761
 20
10.1693280866
 30
0.0
 10
11.8538632791
 20
10.1701801352
 30
0.0
 10
11.8848591564
 20
10.1706395491
 30
0.0
 10
11.9159048706
 20
10.170705216
 30
0.0
 10
11.9469256632
 20
10.1703769772
 30
0.0
 10
11.9778468366
 20
10.1696556276
 30
0.0
 10
12.0085939342
 20
10.1685429138
 30
0.0
 10
12.0390929207
 20
10.1670415301
 30
0.0
 10
12.0692703616
 20
10.165155112
 30
0.0
 10
12.0990536008
 20
10.1628882282
 30
0.0
 10
12.1283709371
 20
10.1602463692
 30
0.0
 10
12.1571517983
 20
10.1572359352
 30
0.0
 10
12.1853269129
 20
10.1538642208
 30
0.0
 10
12.2128284796
 20
10.1501393979
 30
0.0
 10
12.2395903333
 20
10.1460704969
 30
0.0
 10
12.2655481084
 20
10.1416673849
 30
0.0
 10
12.2906393997
 20
10.1369407434
 30
0.0
 10
12.3148039174
 20
10.1319020418
 30
0.0
 10
12.3379836476
 20
10.1265635091
 30
0.0
 10
12.3601229758
 20
10.1209381027
 30
0.0
 10
12.3811689341
 20
10.115039475
 30
0.0
 10
12.4010710046
 20
10.1088819249
 30
0.0
 10
12.4168774175
 20
10.1034742498
 30
0.0
 10
12.4289050296
 20
10.0990189992
 30
0.0
 10
12.4374839208
 20
10.095669013
 30
0.0
 10
12.4457426455
 20
10.0922656662
 30
0.0
 10
12.453676268
 20
10.0888109518
 30
0.0
 10
12.461280043
 20
10.0853069571
 30
0.0
 10
12.4685494357
 20
10.0817557875
 30
0.0
 10
12.4754801036
 20
10.0781595374
 30
0.0
 10
12.4820679391
 20
10.0745203896
 30
0.0
 10
12.4883090081
 20
10.0708404416
 30
0.0
 10
12.4941996432
 20
10.0671219301
 30
0.0
 10
12.4997363258
 20
10.0633669499
 30
0.0
 10
12.5049158301
 20
10.0595777566
 30
0.0
 10
12.5097350603
 20
10.0557564344
 30
0.0
 10
12.5141912066
 20
10.0519052225
 30
0.0
 10
12.518281615
 20
10.0480261468
 30
0.0
 10
12.5220037537
 20
10.044121528
 30
0.0
 10
12.5253556888
 20
10.0401928339
 30
0.0
 10
12.5292475292
 20
10.0350330008
 30
0.0
 10
12.5325048787
 20
10.0297196753
 30
0.0
 10
12.5350162967
 20
10.0242852007
 30
0.0
 10
12.5364856337
 20
10.020270181
 30
0.0
 10
12.5375731992
 20
10.0162450227
 30
0.0
 10
12.5382776348
 20
10.0122123102
 30
0.0
 10
12.5385980902
 20
10.0081752208
 30
0.0
 10
12.538533967
 20
10.0041370113
 30
0.0
 10
12.5380854838
 20
10.0001010233
 30
0.0
 10
12.5372531866
 20
9.9960704965
 30
0.0
 10
12.5360382425
 20
9.9920484304
 30
0.0
 10
12.5344420414
 20
9.9880375736
 30
0.0
 10
12.5324662555
 20
9.9840404174
 30
0.0
 10
12.5301127015
 20
9.9800592135
 30
0.0
 10
12.5273831701
 20
9.9760961095
 30
0.0
 10
12.5242795849
 20
9.9721530897
 30
0.0
 10
12.5208041655
 20
9.9682324827
 30
0.0
 10
12.5182975585
 20
9.9656924533
 30
0.0
 10
12.5169866176
 20
9.9644261815
 30
0.0
  0
SPLINE
  5
357
100
AcDbEntity
  8
0
100
AcDbSpline
 62
7
  6
CONTINUOUS
 70
0
 71
3
 72
39
 73
35
 74
0
 42
0.0000001
 43
0.0000001
 44
0.0000000001
 40
0.0
 40
0.0
 40
0.0
 40
0.0
 40
0.031402539
 40
0.0630095484
 40
0.0948070963
 40
0.1267734464
 40
0.1588809717
 40
0.191097022
 40
0.2233851123
 40
0.2557062441
 40
0.2880202663
 40
0.3202872747
 40
0.3524690066
 40
0.3845301824
 40
0.4164397923
 40
0.4481722496
 40
0.4797084073
 40
0.5110363798
 40
0.542152119
 40
0.5730597425
 40
0.6037715186
 40
0.6343075558
 40
0.664695111
 40
0.6949675894
 40
0.7251632179
 40
0.7553234775
 40
0.7854913542
 40
0.8157095096
 40
0.8460184684
 40
0.8764549219
 40
0.9070502465
 40
0.9378292715
 40
0.9688091882
 40
1.0
 40
1.0
 40
1.0
 40
1.0
 10
10.8105099058
 20
8.1812370259
 30
0.0
 10
10.8021083817
 20
8.1818196736
 30
0.0
 10
10.7852968964
 20
8.1838167416
 30
0.0
 10
10.7604184644
 20
8.1892406276
 30
0.0
 10
10.7360222711
 20
8.1970505687
 30
0.0
 10
10.712345636
 20
8.2071706467
 30
0.0
 10
10.6896149588
 20
8.2195031654
 30
0.0
 10
10.6680485601
 20
8.2339293018
 30
0.0
 10
10.6478532108
 20
8.2503102257
 30
0.0
 10
10.629222765
 20
8.2684886297
 30
0.0
 10
10.6123359264
 20
8.2882898813
 30
0.0
 10
10.5973549786
 20
8.3095240532
 30
0.0
 10
10.5844238351
 20
8.3319873526
 30
0.0
 10
10.5736670411
 20
8.3554643211
 30
0.0
 10
10.565188339
 20
8.3797296752
 30
0.0
 10
10.5590697497
 20
8.4045504968
 30
0.0
 10
10.5553708885
 20
8.4296884148
 30
0.0
 10
10.5541280464
 20
8.4549017961
 30
0.0
 10
10.5553542629
 20
8.4799480636
 30
0.0
 10
10.5590385659
 20
8.5045859684
 30
0.0
 10
10.565146556
 20
8.5285778746
 30
0.0
 10
10.5736201618
 20
8.5516920994
 30
0.0
 10
10.5843784205
 20
8.5737051474
 30
0.0
 10
10.5973180567
 20
8.594403936
 30
0.0
 10
10.6123143408
 20
8.6135880488
 30
0.0
 10
10.6292225382
 20
8.6310715832
 30
0.0
 10
10.6478789685
 20
8.6466853887
 30
0.0
 10
10.6681030819
 20
8.6602783855
 30
0.0
 10
10.6896989065
 20
8.671719525
 30
0.0
 10
10.712457453
 20
8.6808986694
 30
0.0
 10
10.7361583096
 20
8.6877279186
 30
0.0
 10
10.7605732064
 20
8.692142182
 30
0.0
 10
10.7854635156
 20
8.6941000696
 30
0.0
 10
10.8021650278
 20
8.6937564634
 30
0.0
 10
10.8105099058
 20
8.6931777442
 30
0.0
  0
SPLINE
  5
358
100
AcDbEntity
  8
0
100
AcDbSpline
 62
7
  6
CONTINUOUS
 70
0
 71
3
 72
40
 73
36
 74
0
 42
0.0000001
 43
0.0000001
 44
0.0000000001
 40
0.0
 40
0.0
 40
0.0
 40
0.0
 40
0.0311448145
 40
0.0467777052
 40
0.0624478323
 40
0.0938929008
 40
0.1254753834
 40
0.1571831227
 40
0.189001338
 40
0.2209130924
 40
0.2528995995
 40
0.2849406174
 40
0.3170148461
 40
0.3491003442
 40
0.381174953
 40
0.4132167237
 40
0.4452043418
 40
0.4771175434
 40
0.5089375158
 40
0.5406472794
 40
0.5722320406
 40
0.6036795129
 40
0.6349801971
 40
0.6661276131
 40
0.6971184791
 40
0.727952828
 40
0.7586340572
 40
0.7891689054
 40
0.8195673525
 40
0.8498424417
 40
0.880010022
 40
0.9100884167
 40
0.9400980222
 40
0.9700608464
 40
1.0
 40
1.0
 40
1.0
 40
1.0
 10
10.8182744708
 20
8.2177147967
 30
0.0
 10
10.8127315334
 20
8.2180992007
 30
0.0
 10
10.8044234047
 20
8.2189806414
 30
0.0
 10
10.7934226992
 20
8.2207519804
 30
0.0
 10
10.7824394606
 20
8.2229266422
 30
0.0
 10
10.7688204216
 20
8.2263899831
 30
0.0
 10
10.752763044
 20
8.2317059449
 30
0.0
 10
10.7370555117
 20
8.23815861
 30
0.0
 10
10.7217820444
 20
8.2457133793
 30
0.0
 10
10.7070238903
 20
8.2543298993
 30
0.0
 10
10.6928597207
 20
8.2639621596
 30
0.0
 10
10.6793649936
 20
8.2745587633
 30
0.0
 10
10.6666116169
 20
8.2860631944
 30
0.0
 10
10.6546675526
 20
8.2984141172
 30
0.0
 10
10.6435964637
 20
8.3115457002
 30
0.0
 10
10.6334573761
 20
8.3253879638
 30
0.0
 10
10.6243043677
 20
8.3398671494
 30
0.0
 10
10.616186282
 20
8.3549061076
 30
0.0
 10
10.6091464696
 20
8.3704247051
 30
0.0
 10
10.6032225573
 20
8.3863402458
 30
0.0
 10
10.598446248
 20
8.4025679065
 30
0.0
 10
10.5948431498
 20
8.4190211822
 30
0.0
 10
10.592432637
 20
8.4356123415
 30
0.0
 10
10.5912277427
 20
8.4522528879
 30
0.0
 10
10.5912350834
 20
8.4688540261
 30
0.0
 10
10.5924548159
 20
8.4853271309
 30
0.0
 10
10.5948806276
 20
8.5015842166
 30
0.0
 10
10.5984997597
 20
8.517538405
 30
0.0
 10
10.6032930665
 20
8.5331043917
 30
0.0
 10
10.6092350982
 20
8.5481988978
 30
0.0
 10
10.6162942559
 20
8.56274115
 30
0.0
 10
10.6244328433
 20
8.5766532167
 30
0.0
 10
10.6336076641
 20
8.5898608248
 30
0.0
 10
10.6437687546
 20
8.602292326
 30
0.0
 10
10.6511673733
 20
8.6100214412
 30
0.0
 10
10.6550090271
 20
8.6137321942
 30
0.0
  0
SPLINE
  5
359
100
AcDbEntity
  8
0
100
AcDbSpline
 62
7
  6
CONTINUOUS
 70
0
 71
3
 72
39
 73
35
 74
0
 42
0.0000001
 43
0.0000001
 44
0.0000000001
 40
0.0
 40
0.0
 40
0.0
 40
0.0
 40
0.0308543159
 40
0.0618330631
 40
0.0929308673
 40
0.1241437891
 40
0.1554645901
 40
0.1868852893
 40
0.218396392
 40
0.2499872761
 40
0.2816462884
 40
0.3133609047
 40
0.3451178968
 40
0.3769034995
 40
0.4087035864
 40
0.4405038468
 40
0.472289968
 40
0.504047817
 40
0.5357636182
 40
0.5674241277
 40
0.5990168033
 40
0.6305299678
 40
0.6619529665
 40
0.6932763155
 40
0.7244918356
 40
0.7555927713
 40
0.7865738962
 40
0.8174315987
 40
0.8481639518
 40
0.8787707621
 40
0.9092535935
 40
0.9396157655
 40
0.9698623264
 40
1.0
 40
1.0
 40
1.0
 40
1.0
 10
10.9554484515
 20
8.3502146952
 30
0.0
 10
10.9509738384
 20
8.3505250106
 30
0.0
 10
10.9420227062
 20
8.351411096
 30
0.0
 10
10.9286720482
 20
8.353523698
 30
0.0
 10
10.9154144475
 20
8.3564153875
 30
0.0
 10
10.9022967724
 20
8.3600757969
 30
0.0
 10
10.8893644023
 20
8.3644922901
 30
0.0
 10
10.8766624153
 20
8.3696493785
 30
0.0
 10
10.8642349798
 20
8.3755291138
 30
0.0
 10
10.8521253317
 20
8.3821109914
 30
0.0
 10
10.8403755877
 20
8.3893720755
 30
0.0
 10
10.8290266149
 20
8.397287077
 30
0.0
 10
10.8181178866
 20
8.4058284405
 30
0.0
 10
10.8076873484
 20
8.41496644
 30
0.0
 10
10.7977712871
 20
8.4246692808
 30
0.0
 10
10.788404206
 20
8.4349032082
 30
0.0
 10
10.7796186906
 20
8.4456326125
 30
0.0
 10
10.7714453095
 20
8.4568201673
 30
0.0
 10
10.7639125089
 20
8.4684269569
 30
0.0
 10
10.757046515
 20
8.4804126103
 30
0.0
 10
10.7508712425
 20
8.4927354393
 30
0.0
 10
10.7454082156
 20
8.5053525829
 30
0.0
 10
10.7406764776
 20
8.5182201487
 30
0.0
 10
10.7366925275
 20
8.5312933684
 30
0.0
 10
10.733470273
 20
8.5445267563
 30
0.0
 10
10.7310209801
 20
8.5578742645
 30
0.0
 10
10.7293532332
 20
8.5712894399
 30
0.0
 10
10.7284729058
 20
8.5847255859
 30
0.0
 10
10.7283831335
 20
8.598135917
 30
0.0
 10
10.729084291
 20
8.611473742
 30
0.0
 10
10.7305739852
 20
8.6246925543
 30
0.0
 10
10.7328471489
 20
8.6377464634
 30
0.0
 10
10.735895727
 20
8.6505893463
 30
0.0
 10
10.7384428832
 20
8.6589966687
 30
0.0
 10
10.7398418297
 20
8.6631484986
 30
0.0
  0
SPLINE
  5
35A
100
AcDbEntity
  8
0
100
AcDbSpline
 62
7
  6
CONTINUOUS
 70
0
 71
3
 72
45
 73
41
 74
0
 42
0.0000001
 43
0.0000001
 44
0.0000000001
 40
0.0
 40
0.0
 40
0.0
 40
0.0
 40
0.0942525523
 40
0.1860442909
 40
0.2308572336
 40
0.274864106
 40
0.3180044255
 40
0.3602192608
 40
0.4014516635
 40
0.4416467232
 40
0.4807517063
 40
0.5187163424
 40
0.5554930017
 40
0.5910368562
 40
0.6253061882
 40
0.6582627538
 40
0.6898720295
 40
0.7201036205
 40
0.7489318773
 40
0.7763364469
 40
0.8023029829
 40
0.8268242009
 40
0.8499011705
 40
0.8609018574
 40
0.8715465627
 40
0.8818385016
 40
0.8917819216
 40
0.9013820045
 40
0.9106450511
 40
0.9195787152
 40
0.928191957
 40
0.9364953255
 40
0.9445011496
 40
0.9522235668
 40
0.95967885
 40
0.9738582086
 40
0.9806326865
 40
0.9872285982
 40
0.9936741871
 40
1.0
 40
1.0
 40
1.0
 40
1.0
 10
13.492986731
 20
8.6072811469
 30
0.0
 10
13.492986731
 20
8.6220931432
 30
0.0
 10
13.4926844317
 20
8.6513313759
 30
0.0
 10
13.4915158412
 20
8.6875955391
 30
0.0
 10
13.490103539
 20
8.7159444699
 30
0.0
 10
13.4888222253
 20
8.7366432104
 30
0.0
 10
13.4873124495
 20
8.7569171481
 30
0.0
 10
13.4855764961
 20
8.7767353675
 30
0.0
 10
13.4836170642
 20
8.7960676124
 30
0.0
 10
13.4814371753
 20
8.8148843864
 30
0.0
 10
13.4790401753
 20
8.8331569805
 30
0.0
 10
13.4764297648
 20
8.8508575311
 30
0.0
 10
13.4736099783
 20
8.867959063
 30
0.0
 10
13.4705851542
 20
8.8844355217
 30
0.0
 10
13.4673599438
 20
8.9002618257
 30
0.0
 10
13.4639393323
 20
8.9154139173
 30
0.0
 10
13.4603285864
 20
8.9298687913
 30
0.0
 10
13.4565332386
 20
8.943604532
 30
0.0
 10
13.452559121
 20
8.9566003848
 30
0.0
 10
13.4484123216
 20
8.9688367577
 30
0.0
 10
13.4440991179
 20
8.9802953625
 30
0.0
 10
13.439626033
 20
8.9909588797
 30
0.0
 10
13.4357107111
 20
8.9992978169
 30
0.0
 10
13.4324955295
 20
9.0055482018
 30
0.0
 10
13.4300869639
 20
9.0099522111
 30
0.0
 10
13.4276435642
 20
9.0141458103
 30
0.0
 10
13.4251662522
 20
9.0181274547
 30
0.0
 10
13.4226559336
 20
9.0218956411
 30
0.0
 10
13.4201134934
 20
9.0254489336
 30
0.0
 10
13.4175398963
 20
9.0287860289
 30
0.0
 10
13.4149360359
 20
9.0319056446
 30
0.0
 10
13.412302798
 20
9.0348065978
 30
0.0
 10
13.4096412158
 20
9.0374877603
 30
0.0
 10
13.4069518983
 20
9.0399482265
 30
0.0
 10
13.4033909269
 20
9.0428835364
 30
0.0
 10
13.3997155709
 20
9.0454401153
 30
0.0
 10
13.3959388435
 20
9.0475621929
 30
0.0
 10
13.3931260942
 20
9.0489046164
 30
0.0
 10
13.3902919273
 20
9.050020848
 30
0.0
 10
13.3883736439
 20
9.0506185891
 30
0.0
 10
13.3874139767
 20
9.0508780201
 30
0.0
  0
SPLINE
  5
35B
100
AcDbEntity
  8
0
100
AcDbSpline
 62
7
  6
CONTINUOUS
 70
0
 71
3
 72
52
 73
48
 74
0
 42
0.0000001
 43
0.0000001
 44
0.0000000001
 40
0.0
 40
0.0
 40
0.0
 40
0.0
 40
0.041036463
 40
0.0825439521
 40
0.1244010411
 40
0.1664848175
 40
0.2086716205
 40
0.250837365
 40
0.2928580583
 40
0.3346102447
 40
0.3759714754
 40
0.416820773
 40
0.4570391014
 40
0.4965098418
 40
0.5351192754
 40
0.5727570798
 40
0.6093168423
 40
0.6446965982
 40
0.6787994065
 40
0.7115339757
 40
0.7428153663
 40
0.7578868682
 40
0.7725665358
 40
0.7868459493
 40
0.8007172217
 40
0.8141731427
 40
0.8272071182
 40
0.8398133489
 40
0.8519867665
 40
0.8637232514
 40
0.8750195761
 40
0.885873671
 40
0.8962845893
 40
0.9062528347
 40
0.9157803693
 40
0.9248710239
 40
0.9335305799
 40
0.9417672885
 40
0.949592067
 40
0.9570191507
 40
0.9640664348
 40
0.970756251
 40
0.9771158167
 40
0.9831780018
 40
0.9889816527
 40
0.994571937
 40
1.0
 40
1.0
 40
1.0
 40
1.0
 10
13.492986731
 20
8.6072811469
 30
0.0
 10
13.492986731
 20
8.5964765952
 30
0.0
 10
13.4928226681
 20
8.574743152
 30
0.0
 10
13.4920970331
 20
8.541996375
 30
0.0
 10
13.4908924533
 20
8.5089877333
 30
0.0
 10
13.4892126771
 20
8.4758208106
 30
0.0
 10
13.487062961
 20
8.4425995945
 30
0.0
 10
13.4844500405
 20
8.4094282584
 30
0.0
 10
13.4813821168
 20
8.3764108169
 30
0.0
 10
13.4778688271
 20
8.3436507989
 30
0.0
 10
13.4739212161
 20
8.311250921
 30
0.0
 10
13.4695517011
 20
8.2793127629
 30
0.0
 10
13.4647740342
 20
8.2479364462
 30
0.0
 10
13.4596032594
 20
8.2172203173
 30
0.0
 10
13.4540556667
 20
8.187260634
 30
0.0
 10
13.4481487414
 20
8.1581512605
 30
0.0
 10
13.4419011116
 20
8.1299833599
 30
0.0
 10
13.435332488
 20
8.1028451211
 30
0.0
 10
13.4284636103
 20
8.0768213929
 30
0.0
 10
13.4213161549
 20
8.051993674
 30
0.0
 10
13.4150717428
 20
8.0321263325
 30
0.0
 10
13.4099437437
 20
8.0168966913
 30
0.0
 10
13.4060899447
 20
8.0059626767
 30
0.0
 10
13.4021837051
 20
7.9953835062
 30
0.0
 10
13.3982280355
 20
7.9851674473
 30
0.0
 10
13.3942260838
 20
7.9753224809
 30
0.0
 10
13.3901809509
 20
7.9658563017
 30
0.0
 10
13.3860958522
 20
7.9567762866
 30
0.0
 10
13.3819739423
 20
7.9480895224
 30
0.0
 10
13.3778184965
 20
7.9398027558
 30
0.0
 10
13.3736327052
 20
7.9319224404
 30
0.0
 10
13.3694198869
 20
7.9244546656
 30
0.0
 10
13.3651832468
 20
7.9174052286
 30
0.0
 10
13.3609261218
 20
7.9107795365
 30
0.0
 10
13.3566517028
 20
7.9045827117
 30
0.0
 10
13.3523633096
 20
7.8988194598
 30
0.0
 10
13.3480640757
 20
7.8934942219
 30
0.0
 10
13.3437572506
 20
7.8886110007
 30
0.0
 10
13.3394458517
 20
7.8841735798
 30
0.0
 10
13.3351329895
 20
7.880185303
 30
0.0
 10
13.3308215044
 20
7.8766493892
 30
0.0
 10
13.326514326
 20
7.8735686617
 30
0.0
 10
13.3222141248
 20
7.8709459812
 30
0.0
 10
13.3179238119
 20
7.8687839088
 30
0.0
 10
13.3136460262
 20
7.8670851878
 30
0.0
 10
13.3093847403
 20
7.865852324
 30
0.0
 10
13.3065233352
 20
7.865336664
 30
0.0
 10
13.3051050557
 20
7.865160626
 30
0.0
  0
SPLINE
  5
35C
100
AcDbEntity
  8
0
100
AcDbSpline
 62
7
  6
CONTINUOUS
 70
0
 71
3
 72
39
 73
35
 74
0
 42
0.0000001
 43
0.0000001
 44
0.0000000001
 40
0.0
 40
0.0
 40
0.0
 40
0.0
 40
0.0314655855
 40
0.0628977533
 40
0.094287559
 40
0.125636786
 40
0.1569429398
 40
0.1882042084
 40
0.2194195419
 40
0.2505879124
 40
0.2817091169
 40
0.312784392
 40
0.3438159625
 40
0.3748067665
 40
0.4057612237
 40
0.4366852889
 40
0.4675869042
 40
0.4984755454
 40
0.5293613359
 40
0.5602561619
 40
0.5911729267
 40
0.6221252782
 40
0.653126972
 40
0.6841912615
 40
0.7153306945
 40
0.7465563438
 40
0.7778772899
 40
0.8093004343
 40
0.8408299626
 40
0.87246692
 40
0.9042091037
 40
0.9360511469
 40
0.967985106
 40
1.0
 40
1.0
 40
1.0
 40
1.0
 10
10.8478405991
 20
8.5388956278
 30
0.0
 10
10.8462984724
 20
8.5388082473
 30
0.0
 10
10.8432095639
 20
8.5387289958
 30
0.0
 10
10.8385813742
 20
8.5389014368
 30
0.0
 10
10.83397908
 20
8.5393689387
 30
0.0
 10
10.8294229926
 20
8.5401338747
 30
0.0
 10
10.824933621
 20
8.5411976377
 30
0.0
 10
10.8205324934
 20
8.5425602342
 30
0.0
 10
10.8162417881
 20
8.5442201855
 30
0.0
 10
10.8120843173
 20
8.5461744438
 30
0.0
 10
10.8080833044
 20
8.5484180619
 30
0.0
 10
10.8042622667
 20
8.5509442131
 30
0.0
 10
10.8006448105
 20
8.5537439649
 30
0.0
 10
10.797254449
 20
8.5568061959
 30
0.0
 10
10.7941142406
 20
8.5601174057
 30
0.0
 10
10.7912464833
 20
8.563661755
 30
0.0
 10
10.7886724198
 20
8.5674210734
 30
0.0
 10
10.7864118439
 20
8.5713748228
 30
0.0
 10
10.7844827927
 20
8.5755002432
 30
0.0
 10
10.7829010868
 20
8.5797724735
 30
0.0
 10
10.7816800195
 20
8.5841648707
 30
0.0
 10
10.7808300766
 20
8.5886492889
 30
0.0
 10
10.7803586517
 20
8.5931964264
 30
0.0
 10
10.7802698921
 20
8.5977762445
 30
0.0
 10
10.7805645643
 20
8.6023584057
 30
0.0
 10
10.7812400316
 20
8.6069127386
 30
0.0
 10
10.7822903255
 20
8.611409692
 30
0.0
 10
10.7837063257
 20
8.6158207567
 30
0.0
 10
10.7854759643
 20
8.6201188427
 30
0.0
 10
10.7875845272
 20
8.6242785908
 30
0.0
 10
10.7900149524
 20
8.6282766065
 30
0.0
 10
10.7927482766
 20
8.6320917835
 30
0.0
 10
10.7957636725
 20
8.6357050743
 30
0.0
 10
10.7979455147
 20
8.6379663846
 30
0.0
 10
10.7990757904
 20
8.6390583066
 30
0.0
  0
SPLINE
  5
35D
100
AcDbEntity
  8
0
100
AcDbSpline
 62
7
  6
CONTINUOUS
 70
0
 71
3
 72
56
 73
52
 74
0
 42
0.0000001
 43
0.0000001
 44
0.0000000001
 40
0.0
 40
0.0
 40
0.0
 40
0.0
 40
0.0452111204
 40
0.0910029808
 40
0.1371916008
 40
0.1835900318
 40
0.2300107353
 40
0.2762658885
 40
0.3221685691
 40
0.3675336574
 40
0.4121788254
 40
0.4559255132
 40
0.4985999282
 40
0.5400340676
 40
0.580066782
 40
0.6185448987
 40
0.6553244344
 40
0.6730355324
 40
0.6902728691
 40
0.7070217193
 40
0.7232681303
 40
0.7389992096
 40
0.7542029596
 40
0.7688686214
 40
0.7829865411
 40
0.7965485035
 40
0.8095477238
 40
0.8219791245
 40
0.8338395308
 40
0.8451278939
 40
0.8558457437
 40
0.8659974252
 40
0.8755908459
 40
0.8846378601
 40
0.8931553319
 40
0.9011658443
 40
0.9086990515
 40
0.9157927776
 40
0.9224944085
 40
0.928861913
 40
0.9349643238
 40
0.9408811936
 40
0.946700489
 40
0.9525150506
 40
0.9584179624
 40
0.9644978636
 40
0.9708352893
 40
0.9775003625
 40
0.9845521868
 40
0.9920391456
 40
1.0
 40
1.0
 40
1.0
 40
1.0
 10
13.4463993413
 20
8.5622811814
 30
0.0
 10
13.4463993413
 20
8.5534330504
 30
0.0
 10
13.4462415397
 20
8.5356227754
 30
0.0
 10
13.4455457169
 20
8.5087812384
 30
0.0
 10
13.4443919108
 20
8.4817228523
 30
0.0
 10
13.4427850466
 20
8.4545643432
 30
0.0
 10
13.4407320556
 20
8.4274228477
 30
0.0
 10
13.4382417914
 20
8.4004153953
 30
0.0
 10
13.4353250214
 20
8.3736584477
 30
0.0
 10
13.4319943679
 20
8.3472673721
 30
0.0
 10
13.4282642591
 20
8.3213559444
 30
0.0
 10
13.4241508665
 20
8.2960358523
 30
0.0
 10
13.4196720383
 20
8.2714162008
 30
0.0
 10
13.4148472209
 20
8.247603051
 30
0.0
 10
13.4096973894
 20
8.2246988768
 30
0.0
 10
13.4042449184
 20
8.2028023568
 30
0.0
 10
13.3994100185
 20
8.1852594835
 30
0.0
 10
13.3953991094
 20
8.1718066002
 30
0.0
 10
13.3923680764
 20
8.1621533731
 30
0.0
 10
13.3892796832
 20
8.1528197909
 30
0.0
 10
13.3861371941
 20
8.1438158933
 30
0.0
 10
13.3829440714
 20
8.135151357
 30
0.0
 10
13.3797037061
 20
8.1268355011
 30
0.0
 10
13.3764196572
 20
8.1188772414
 30
0.0
 10
13.3730954196
 20
8.1112851194
 30
0.0
 10
13.3697346167
 20
8.1040672516
 30
0.0
 10
13.3663408404
 20
8.0972313525
 30
0.0
 10
13.3629177384
 20
8.090784702
 30
0.0
 10
13.3594689799
 20
8.0847341382
 30
0.0
 10
13.3559981934
 20
8.0790860706
 30
0.0
 10
13.3525090804
 20
8.0738464166
 30
0.0
 10
13.3490051956
 20
8.0690206889
 30
0.0
 10
13.3454901865
 20
8.0646138607
 30
0.0
 10
13.3419674558
 20
8.0606305487
 30
0.0
 10
13.3384404564
 20
8.0570748285
 30
0.0
 10
13.3349123347
 20
8.0539505112
 30
0.0
 10
13.3313861993
 20
8.0512609977
 30
0.0
 10
13.3278649108
 20
8.0490096066
 30
0.0
 10
13.3243513454
 20
8.0471995769
 30
0.0
 10
13.3208485543
 20
8.0458342533
 30
0.0
 10
13.3173601514
 20
8.0449171063
 30
0.0
 10
13.3138907502
 20
8.0444512173
 30
0.0
 10
13.3104460542
 20
8.0444389483
 30
0.0
 10
13.3070325164
 20
8.0448807744
 30
0.0
 10
13.3036565264
 20
8.045775533
 30
0.0
 10
13.3003235141
 20
8.0471201808
 30
0.0
 10
13.297037766
 20
8.0489111262
 30
0.0
 10
13.2938024365
 20
8.0511443558
 30
0.0
 10
13.2906201329
 20
8.0538162257
 30
0.0
 10
13.2874933577
 20
8.0569228767
 30
0.0
 10
13.2855104986
 20
8.0592088137
 30
0.0
 10
13.2845274576
 20
8.0604175227
 30
0.0
  0
SPLINE
  5
35E
100
AcDbEntity
  8
0
100
AcDbSpline
 62
7
  6
CONTINUOUS
 70
0
 71
3
 72
51
 73
47
 74
0
 42
0.0000001
 43
0.0000001
 44
0.0000000001
 40
0.0
 40
0.0
 40
0.0
 40
0.0
 40
0.0417739058
 40
0.0840372281
 40
0.1266587135
 40
0.1695068476
 40
0.2124485232
 40
0.2553505649
 40
0.2980798423
 40
0.3405039434
 40
0.3824916511
 40
0.4239134877
 40
0.4646422437
 40
0.5045535199
 40
0.5435262782
 40
0.5814434093
 40
0.6181923228
 40
0.6536655711
 40
0.6877615233
 40
0.720385107
 40
0.751448652
 40
0.7808728815
 40
0.7949485687
 40
0.8085891544
 40
0.8217877365
 40
0.8345381192
 40
0.8468351346
 40
0.8586744505
 40
0.8700529885
 40
0.8809687299
 40
0.8914211893
 40
0.9014113001
 40
0.9109419064
 40
0.9200178133
 40
0.9286462856
 40
0.9368373357
 40
0.9446042467
 40
0.9519641433
 40
0.9589385597
 40
0.9655542537
 40
0.9718437555
 40
0.9778461629
 40
0.9836073382
 40
0.9891800344
 40
0.9946230683
 40
1.0
 40
1.0
 40
1.0
 40
1.0
 10
13.3974095527
 20
8.5549606765
 30
0.0
 10
13.3974095527
 20
8.5479647538
 30
0.0
 10
13.3973004049
 20
8.5338907254
 30
0.0
 10
13.3968179051
 20
8.5126838008
 30
0.0
 10
13.3960170523
 20
8.4913064481
 30
0.0
 10
13.3949005023
 20
8.4698295254
 30
0.0
 10
13.3934719225
 20
8.4483240114
 30
0.0
 10
13.3917360478
 20
8.4268610869
 30
0.0
 10
13.3896986224
 20
8.4055117477
 30
0.0
 10
13.3873664029
 20
8.3843466265
 30
0.0
 10
13.3847471263
 20
8.3634357374
 30
0.0
 10
13.3818494884
 20
8.3428482491
 30
0.0
 10
13.3786831141
 20
8.3226522517
 30
0.0
 10
13.3752585269
 20
8.3029145295
 30
0.0
 10
13.3715871145
 20
8.2837003362
 30
0.0
 10
13.3676810918
 20
8.2650731751
 30
0.0
 10
13.3635534614
 20
8.2470945842
 30
0.0
 10
13.3592179713
 20
8.229823919
 30
0.0
 10
13.3546890687
 20
8.2133181666
 30
0.0
 10
13.3499818558
 20
8.1976316693
 30
0.0
 10
13.3451120174
 20
8.1828161821
 30
0.0
 10
13.3408715215
 20
8.1710686964
 30
0.0
 10
13.3374016111
 20
8.1621501534
 30
0.0
 10
13.3348071596
 20
8.155807868
 30
0.0
 10
13.3321843534
 20
8.1497181672
 30
0.0
 10
13.3295352848
 20
8.1438860682
 30
0.0
 10
13.3268622112
 20
8.1383163492
 30
0.0
 10
13.3241672685
 20
8.1330135987
 30
0.0
 10
13.3214527472
 20
8.1279821363
 30
0.0
 10
13.3187208027
 20
8.1232260965
 30
0.0
 10
13.3159737356
 20
8.1187493271
 30
0.0
 10
13.3132137136
 20
8.1145554875
 30
0.0
 10
13.3104430111
 20
8.110647945
 30
0.0
 10
13.3076637922
 20
8.1070298665
 30
0.0
 10
13.3048782595
 20
8.1037041435
 30
0.0
 10
13.3020885403
 20
8.100673447
 30
0.0
 10
13.2992967117
 20
8.0979402271
 30
0.0
 10
13.296504817
 20
8.0955066964
 30
0.0
 10
13.2937147671
 20
8.0933749611
 30
0.0
 10
13.2909285009
 20
8.0915468951
 30
0.0
 10
13.2881478252
 20
8.0900244477
 30
0.0
 10
13.2853747077
 20
8.0888093514
 30
0.0
 10
13.2826112187
 20
8.0879035537
 30
0.0
 10
13.2798596939
 20
8.0873086629
 30
0.0
 10
13.2771234316
 20
8.0870262621
 30
0.0
 10
13.2753067897
 20
8.0870469898
 30
0.0
 10
13.2744084662
 20
8.0871092835
 30
0.0
  0
SPLINE
  5
35F
100
AcDbEntity
  8
0
100
AcDbSpline
 62
7
  6
CONTINUOUS
 70
0
 71
3
 72
55
 73
51
 74
0
 42
0.0000001
 43
0.0000001
 44
0.0000000001
 40
0.0
 40
0.0
 40
0.0
 40
0.0
 40
0.0532130042
 40
0.1056339398
 40
0.1571447228
 40
0.2076351402
 40
0.2569951458
 40
0.3051191586
 40
0.3519052526
 40
0.3972558268
 40
0.4410780609
 40
0.4832843865
 40
0.5237930755
 40
0.5625289242
 40
0.5994240236
 40
0.6344186629
 40
0.6674624844
 40
0.6832406842
 40
0.6985174308
 40
0.7132897098
 40
0.7275556343
 40
0.7413142798
 40
0.7545658736
 40
0.7673120786
 40
0.7795558456
 40
0.7913019704
 40
0.8025570262
 40
0.8133297393
 40
0.8236313938
 40
0.8334759185
 40
0.8428806243
 40
0.8518663595
 40
0.8604581194
 40
0.8686855582
 40
0.8765832333
 40
0.8841911649
 40
0.8915547299
 40
0.8987245884
 40
0.9057560805
 40
0.9127081513
 40
0.9196419933
 40
0.9266193081
 40
0.9337005659
 40
0.9409433725
 40
0.9484012752
 40
0.9641398213
 40
0.9725127024
 40
0.9812626292
 40
0.9904173361
 40
1.0
 40
1.0
 40
1.0
 40
1.0
 10
13.4463993413
 20
8.5622811814
 30
0.0
 10
13.4463993413
 20
8.5687571386
 30
0.0
 10
13.4463159214
 20
8.5816128311
 30
0.0
 10
13.4459351347
 20
8.6007339253
 30
0.0
 10
13.4453004124
 20
8.6195168193
 30
0.0
 10
13.4444133573
 20
8.6379165827
 30
0.0
 10
13.4432760738
 20
8.655889653
 30
0.0
 10
13.4418913242
 20
8.6733932229
 30
0.0
 10
13.4402624493
 20
8.6903857148
 30
0.0
 10
13.4383933843
 20
8.7068267594
 30
0.0
 10
13.436288641
 20
8.7226773191
 30
0.0
 10
13.4339532971
 20
8.7378997808
 30
0.0
 10
13.4313929835
 20
8.752458059
 30
0.0
 10
13.4286138761
 20
8.7663176766
 30
0.0
 10
13.4256226855
 20
8.7794459374
 30
0.0
 10
13.4224265928
 20
8.7918117485
 30
0.0
 10
13.4195564198
 20
8.8016023382
 30
0.0
 10
13.4171552583
 20
8.8090247625
 30
0.0
 10
13.4153357475
 20
8.8142971331
 30
0.0
 10
13.4134708776
 20
8.8193579583
 30
0.0
 10
13.4115617681
 20
8.8242042687
 30
0.0
 10
13.4096095453
 20
8.8288332092
 30
0.0
 10
13.407615328
 20
8.8332420506
 30
0.0
 10
13.4055803394
 20
8.8374282269
 30
0.0
 10
13.4035056984
 20
8.8413892683
 30
0.0
 10
13.4013926518
 20
8.8451228841
 30
0.0
 10
13.399242388
 20
8.8486268999
 30
0.0
 10
13.3970560917
 20
8.8518992675
 30
0.0
 10
13.3948350294
 20
8.8549381233
 30
0.0
 10
13.3925803297
 20
8.8577416551
 30
0.0
 10
13.3902932447
 20
8.8603082572
 30
0.0
 10
13.3879749229
 20
8.8626363788
 30
0.0
 10
13.3856265137
 20
8.8647245561
 30
0.0
 10
13.3832492301
 20
8.8665714758
 30
0.0
 10
13.3808441863
 20
8.8681757364
 30
0.0
 10
13.3784126827
 20
8.8695361342
 30
0.0
 10
13.3759560345
 20
8.8706513879
 30
0.0
 10
13.3734757585
 20
8.8715203156
 30
0.0
 10
13.370973596
 20
8.8721419711
 30
0.0
 10
13.3684514512
 20
8.8725154507
 30
0.0
 10
13.3659114403
 20
8.872640419
 30
0.0
 10
13.3633556936
 20
8.8725167275
 30
0.0
 10
13.3607863601
 20
8.872144718
 30
0.0
 10
13.358205225
 20
8.8715250031
 30
0.0
 10
13.3546884239
 20
8.8703488684
 30
0.0
 10
13.3512086048
 20
8.8686792567
 30
0.0
 10
13.3477976933
 20
8.8665882789
 30
0.0
 10
13.3451817059
 20
8.864744873
 30
0.0
 10
13.3425633726
 20
8.8626603764
 30
0.0
 10
13.3408567755
 20
8.8611462039
 30
0.0
 10
13.3400030998
 20
8.8603516874
 30
0.0
  0
SPLINE
  5
360
100
AcDbEntity
  8
0
100
AcDbSpline
 62
7
  6
CONTINUOUS
 70
0
 71
3
 72
39
 73
35
 74
0
 42
0.0000001
 43
0.0000001
 44
0.0000000001
 40
0.0
 40
0.0
 40
0.0
 40
0.0
 40
0.0311908118
 40
0.0621707285
 40
0.0929497535
 40
0.1235450781
 40
0.1539815316
 40
0.1842904904
 40
0.2145086458
 40
0.2446765225
 40
0.2748367821
 40
0.3050324106
 40
0.335304889
 40
0.3656924442
 40
0.3962284814
 40
0.4269402575
 40
0.457847881
 40
0.4889636202
 40
0.5202915927
 40
0.5518277504
 40
0.5835602077
 40
0.6154698176
 40
0.6475309934
 40
0.6797127253
 40
0.7119797337
 40
0.7442937559
 40
0.7766148877
 40
0.808902978
 40
0.8411190283
 40
0.8732265536
 40
0.9051929037
 40
0.9369904516
 40
0.968597461
 40
1.0
 40
1.0
 40
1.0
 40
1.0
 10
10.8105099058
 20
8.1812370259
 30
0.0
 10
10.8188547838
 20
8.1806583066
 30
0.0
 10
10.8355562961
 20
8.1803147004
 30
0.0
 10
10.8604466052
 20
8.182272588
 30
0.0
 10
10.884861502
 20
8.1866868514
 30
0.0
 10
10.9085623586
 20
8.1935161007
 30
0.0
 10
10.9313209051
 20
8.2026952451
 30
0.0
 10
10.9529167297
 20
8.2141363846
 30
0.0
 10
10.9731408432
 20
8.2277293813
 30
0.0
 10
10.9917972734
 20
8.2433431869
 30
0.0
 10
11.0087054709
 20
8.2608267212
 30
0.0
 10
11.0237017549
 20
8.280010834
 30
0.0
 10
11.0366413911
 20
8.3007096226
 30
0.0
 10
11.0473996498
 20
8.3227226707
 30
0.0
 10
11.0558732556
 20
8.3458368954
 30
0.0
 10
11.0619812457
 20
8.3698288016
 30
0.0
 10
11.0656655487
 20
8.3944667064
 30
0.0
 10
11.0668917652
 20
8.419512974
 30
0.0
 10
11.0656489231
 20
8.4447263553
 30
0.0
 10
11.0619500619
 20
8.4698642733
 30
0.0
 10
11.0558314726
 20
8.4946850949
 30
0.0
 10
11.0473527705
 20
8.5189504489
 30
0.0
 10
11.0365959765
 20
8.5424274175
 30
0.0
 10
11.023664833
 20
8.5648907168
 30
0.0
 10
11.0086838852
 20
8.5861248888
 30
0.0
 10
10.9917970466
 20
8.6059261403
 30
0.0
 10
10.9731666008
 20
8.6241045444
 30
0.0
 10
10.9529712515
 20
8.6404854682
 30
0.0
 10
10.9314048528
 20
8.6549116047
 30
0.0
 10
10.9086741756
 20
8.6672441233
 30
0.0
 10
10.8849975405
 20
8.6773642013
 30
0.0
 10
10.8606013472
 20
8.6851741424
 30
0.0
 10
10.8357229152
 20
8.6905980284
 30
0.0
 10
10.8189114299
 20
8.6925950965
 30
0.0
 10
10.8105099058
 20
8.6931777442
 30
0.0
  0
SPLINE
  5
361
100
AcDbEntity
  8
0
100
AcDbSpline
 62
7
  6
CONTINUOUS
 70
0
 71
3
 72
39
 73
35
 74
0
 42
0.0000001
 43
0.0000001
 44
0.0000000001
 40
0.0
 40
0.0
 40
0.0
 40
0.0
 40
0.0964135252
 40
0.1901872722
 40
0.2807563045
 40
0.3246697466
 40
0.367581878
 40
0.4094303103
 40
0.4501550848
 40
0.4896989829
 40
0.5280075579
 40
0.5650294674
 40
0.6007169095
 40
0.6350257113
 40
0.6679158288
 40
0.699351936
 40
0.7293037194
 40
0.7577467203
 40
0.7846632913
 40
0.8100434247
 40
0.8338863594
 40
0.8562024699
 40
0.8770154231
 40
0.8963655502
 40
0.9143139284
 40
0.9309473128
 40
0.9463844834
 40
0.9607826997
 40
0.9676572119
 40
0.9743512721
 40
0.980896994
 40
0.9873289911
 40
0.9936839509
 40
1.0
 40
1.0
 40
1.0
 40
1.0
 10
13.3974095527
 20
8.5549606765
 30
0.0
 10
13.3974095527
 20
8.5646590837
 30
0.0
 10
13.3972041184
 20
8.5837911312
 30
0.0
 10
13.3962574785
 20
8.6120194167
 30
0.0
 10
13.394932056
 20
8.6349445554
 30
0.0
 10
13.3935486335
 20
8.6527357483
 30
0.0
 10
13.3923681923
 20
8.6656257956
 30
0.0
 10
13.3910362534
 20
8.6781785761
 30
0.0
 10
13.3895549952
 20
8.6903734181
 30
0.0
 10
13.3879269164
 20
8.7021902275
 30
0.0
 10
13.3861547199
 20
8.7136095438
 30
0.0
 10
13.3842413443
 20
8.7246125696
 30
0.0
 10
13.3821900032
 20
8.7351812131
 30
0.0
 10
13.3800041017
 20
8.7452981092
 30
0.0
 10
13.3776872649
 20
8.7549466567
 30
0.0
 10
13.3752433731
 20
8.7641110614
 30
0.0
 10
13.3726764652
 20
8.7727763505
 30
0.0
 10
13.369990774
 20
8.7809284149
 30
0.0
 10
13.3671907461
 20
8.7885540574
 30
0.0
 10
13.3642809207
 20
8.7956409975
 30
0.0
 10
13.3612659594
 20
8.802177921
 30
0.0
 10
13.3581506184
 20
8.8081545291
 30
0.0
 10
13.3549395747
 20
8.8135615006
 30
0.0
 10
13.3516373716
 20
8.8183905197
 30
0.0
 10
13.3482483885
 20
8.8226341698
 30
0.0
 10
13.3447762534
 20
8.8262857871
 30
0.0
 10
13.3412249919
 20
8.8293386046
 30
0.0
 10
13.3381547442
 20
8.8314096651
 30
0.0
 10
13.3356735346
 20
8.8327397006
 30
0.0
 10
13.333825744
 20
8.8335684675
 30
0.0
 10
13.3319634806
 20
8.8342430836
 30
0.0
 10
13.3300874904
 20
8.8347631029
 30
0.0
 10
13.3281988853
 20
8.8351281881
 30
0.0
 10
13.3269303361
 20
8.8352682614
 30
0.0
 10
13.3262965156
 20
8.8353122133
 30
0.0
  0
SPLINE
  5
362
100
AcDbEntity
  8
0
100
AcDbSpline
 62
7
  6
CONTINUOUS
 70
0
 71
3
 72
21
 73
17
 74
0
 42
0.0000001
 43
0.0000001
 44
0.0000000001
 40
0.0
 40
0.0
 40
0.0
 40
0.0
 40
0.1274736659
 40
0.2540668672
 40
0.3170668438
 40
0.3798654239
 40
0.4424734295
 40
0.5049033654
 40
0.5671697542
 40
0.6292888937
 40
0.6912786593
 40
0.7531583413
 40
0.8149484562
 40
0.8766705153
 40
0.9383467748
 40
1.0
 40
1.0
 40
1.0
 40
1.0
 10
10.8182744708
 20
8.2177147967
 30
0.0
 10
10.8258372361
 20
8.2171903171
 30
0.0
 10
10.8409731372
 20
8.2168949304
 30
0.0
 10
10.8598002934
 20
8.2184385564
 30
0.0
 10
10.8746266876
 20
8.220814572
 30
0.0
 10
10.885588963
 20
8.2231574697
 30
0.0
 10
10.8963817543
 20
8.2260580205
 30
0.0
 10
10.9069781734
 20
8.2295090186
 30
0.0
 10
10.9173514517
 20
8.2335017557
 30
0.0
 10
10.9274754866
 20
8.2380261843
 30
0.0
 10
10.9373247488
 20
8.2430709573
 30
0.0
 10
10.9468744142
 20
8.2486234039
 30
0.0
 10
10.9561004158
 20
8.2546694904
 30
0.0
 10
10.9649795837
 20
8.2611940772
 30
0.0
 10
10.9734892098
 20
8.26818048
 30
0.0
 10
10.9789027305
 20
8.27313524
 30
0.0
 10
10.9815399144
 20
8.2756825644
 30
0.0
  0
SPLINE
  5
363
100
AcDbEntity
  8
0
100
AcDbSpline
 62
7
  6
CONTINUOUS
 70
0
 71
3
 72
11
 73
7
 74
0
 42
0.0000001
 43
0.0000001
 44
0.0000000001
 40
0.0
 40
0.0
 40
0.0
 40
0.0
 40
0.2522355219
 40
0.5029346031
 40
0.7521569841
 40
1.0
 40
1.0
 40
1.0
 40
1.0
 10
10.9554484515
 20
8.3502146952
 30
0.0
 10
10.9620980133
 20
8.3497535465
 30
0.0
 10
10.9754044681
 20
8.3494140203
 30
0.0
 10
10.9952665219
 20
8.3506740429
 30
0.0
 10
11.0148208784
 20
8.3536943394
 30
0.0
 10
11.02758738
 20
8.3568760082
 30
0.0
 10
11.0338627573
 20
8.3587508501
 30
0.0
  0
SPLINE
  5
364
100
AcDbEntity
  8
0
100
AcDbSpline
 62
7
  6
CONTINUOUS
 70
0
 71
3
 72
82
 73
78
 74
0
 42
0.0000001
 43
0.0000001
 44
0.0000000001
 40
0.0
 40
0.0
 40
0.0
 40
0.0
 40
0.0039519233
 40
0.0080647395
 40
0.012342495
 40
0.0167886289
 40
0.0214060732
 40
0.026197185
 40
0.0311636264
 40
0.0363065606
 40
0.0416267229
 40
0.0471244157
 40
0.0527996369
 40
0.0586519991
 40
0.0708846929
 40
0.0838144675
 40
0.0974289457
 40
0.1117124918
 40
0.1266466061
 40
0.142210273
 40
0.1583802366
 40
0.175131224
 40
0.1924361227
 40
0.2102661481
 40
0.228591009
 40
0.2473790421
 40
0.2665973324
 40
0.2862118179
 40
0.3061874145
 40
0.3264881266
 40
0.3470771474
 40
0.3679169529
 40
0.4101950861
 40
0.4530126005
 40
0.4960535846
 40
0.5389999985
 40
0.5815346968
 40
0.6025499267
 40
0.6233452672
 40
0.6438826847
 40
0.6641247832
 40
0.6840349017
 40
0.7035772094
 40
0.7227168067
 40
0.7414198382
 40
0.7596536168
 40
0.7773867292
 40
0.7945891587
 40
0.8112324227
 40
0.8272897426
 40
0.8427362119
 40
0.8575489803
 40
0.8717074848
 40
0.8851937372
 40
0.8979926842
 40
0.910092616
 40
0.9158781207
 40
0.9214863113
 40
0.9269169182
 40
0.9321700684
 40
0.9372462095
 40
0.9421462506
 40
0.9468715666
 40
0.9514240184
 40
0.9558061123
 40
0.96002096
 40
0.9640724357
 40
0.9679652593
 40
0.9717050387
 40
0.9752984775
 40
0.9787533994
 40
0.9820789031
 40
0.9883814967
 40
0.9913875045
 40
0.9943148566
 40
0.9971798486
 40
1.0
 40
1.0
 40
1.0
 40
1.0
 10
9.5728445071
 20
10.0787720056
 30
0.0
 10
9.5739023258
 20
10.0797937801
 30
0.0
 10
9.5761085367
 20
10.0818302064
 30
0.0
 10
9.5796094523
 20
10.0848054424
 30
0.0
 10
9.5833650702
 20
10.0877596418
 30
0.0
 10
9.587373372
 20
10.0906911985
 30
0.0
 10
9.5916323999
 20
10.0935988052
 30
0.0
 10
9.5961401468
 20
10.0964810502
 30
0.0
 10
9.6008944068
 20
10.0993366078
 30
0.0
 10
9.6058928599
 20
10.1021640624
 30
0.0
 10
9.6111330628
 20
10.1049620005
 30
0.0
 10
9.6166124228
 20
10.1077290996
 30
0.0
 10
9.6223282838
 20
10.1104639759
 30
0.0
 10
9.6303801571
 20
10.1141197486
 30
0.0
 10
9.6410249838
 20
10.1185889428
 30
0.0
 10
9.6545129613
 20
10.1237263141
 30
0.0
 10
9.6688708267
 20
10.1287040435
 30
0.0
 10
9.6840702992
 20
10.1335122354
 30
0.0
 10
9.7000815901
 20
10.138141339
 30
0.0
 10
9.7168731761
 20
10.1425821369
 30
0.0
 10
9.7344119721
 20
10.1468257791
 30
0.0
 10
9.7526633762
 20
10.1508638001
 30
0.0
 10
9.7715913443
 20
10.1546881485
 30
0.0
 10
9.7911584651
 20
10.1582912086
 30
0.0
 10
9.8113260477
 20
10.1616657997
 30
0.0
 10
9.8320542042
 20
10.164805196
 30
0.0
 10
9.8533019245
 20
10.1677031363
 30
0.0
 10
9.875027155
 20
10.1703538542
 30
0.0
 10
9.8971868916
 20
10.1727520764
 30
0.0
 10
9.9197372557
 20
10.1748930208
 30
0.0
 10
9.942633639
 20
10.1767724493
 30
0.0
 10
9.9737108537
 20
10.178934826
 30
0.0
 10
10.0130874196
 20
10.1809516901
 30
0.0
 10
10.0607595361
 20
10.1822731179
 30
0.0
 10
10.1086982844
 20
10.1824963084
 30
0.0
 10
10.1565240928
 20
10.1816194914
 30
0.0
 10
10.1961266614
 20
10.1799716265
 30
0.0
 10
10.2274608248
 20
10.1781021674
 30
0.0
 10
10.2506045742
 20
10.1764376522
 30
0.0
 10
10.2734390287
 20
10.1745085427
 30
0.0
 10
10.2959190125
 20
10.1723186547
 30
0.0
 10
10.3180000106
 20
10.1698723593
 30
0.0
 10
10.3396383133
 20
10.1671745251
 30
0.0
 10
10.3607910864
 20
10.1642305209
 30
0.0
 10
10.3814164669
 20
10.1610462055
 30
0.0
 10
10.4014736506
 20
10.1576279303
 30
0.0
 10
10.4209229702
 20
10.153982508
 30
0.0
 10
10.4397259705
 20
10.1501172035
 30
0.0
 10
10.4578454915
 20
10.1460397142
 30
0.0
 10
10.4752457556
 20
10.1417581714
 30
0.0
 10
10.4918924413
 20
10.1372811154
 30
0.0
 10
10.5077527574
 20
10.1326174675
 30
0.0
 10
10.5227954882
 20
10.1277765112
 30
0.0
 10
10.536991171
 20
10.1227678599
 30
0.0
 10
10.5503118543
 20
10.1176014654
 30
0.0
 10
10.5608131666
 20
10.1131085614
 30
0.0
 10
10.5687475934
 20
10.1094346903
 30
0.0
 10
10.5743744423
 20
10.1066874833
 30
0.0
 10
10.5797637585
 20
10.1039085633
 30
0.0
 10
10.5849129298
 20
10.1010993239
 30
0.0
 10
10.589819413
 20
10.0982610962
 30
0.0
 10
10.5944808164
 20
10.0953952795
 30
0.0
 10
10.598894878
 20
10.092503285
 30
0.0
 10
10.6030594149
 20
10.0895864492
 30
0.0
 10
10.6069724358
 20
10.0866462279
 30
0.0
 10
10.610632013
 20
10.0836839716
 30
0.0
 10
10.6140363592
 20
10.0807010635
 30
0.0
 10
10.617183837
 20
10.0776989311
 30
0.0
 10
10.6200728501
 20
10.0746788436
 30
0.0
 10
10.622701938
 20
10.0716423279
 30
0.0
 10
10.6250699292
 20
10.0685903095
 30
0.0
 10
10.6278273021
 20
10.0645754103
 30
0.0
 10
10.6301288928
 20
10.060455916
 30
0.0
 10
10.6319040809
 20
10.0562587043
 30
0.0
 10
10.6329479269
 20
10.0531515539
 30
0.0
 10
10.6337237729
 20
10.0500382813
 30
0.0
 10
10.6340640092
 20
10.0479470821
 30
0.0
 10
10.6341881304
 20
10.0469049231
 30
0.0
  0
SPLINE
  5
365
100
AcDbEntity
  8
0
100
AcDbSpline
 62
7
  6
CONTINUOUS
 70
0
 71
3
 72
29
 73
25
 74
0
 42
0.0000001
 43
0.0000001
 44
0.0000000001
 40
0.0
 40
0.0
 40
0.0
 40
0.0
 40
0.0749503488
 40
0.1455452737
 40
0.2121261891
 40
0.2751192851
 40
0.3350448404
 40
0.3640583593
 40
0.3925449884
 40
0.4205963601
 40
0.4483089338
 40
0.4757832092
 40
0.5031225081
 40
0.530431847
 40
0.5578166247
 40
0.5853812653
 40
0.6132280351
 40
0.6414557868
 40
0.6701590145
 40
0.7293218109
 40
0.7913860629
 40
0.8569001023
 40
0.9263189548
 40
1.0
 40
1.0
 40
1.0
 40
1.0
 10
11.2957022941
 20
9.9629304146
 30
0.0
 10
11.2938744288
 20
9.964631436
 30
0.0
 10
11.2904262805
 20
9.9680465341
 30
0.0
 10
11.2857736067
 20
9.9733744517
 30
0.0
 10
11.2818061091
 20
9.9787447552
 30
0.0
 10
11.2785298109
 20
9.9841521097
 30
0.0
 10
11.2763566951
 20
9.9887352505
 30
0.0
 10
11.2749855171
 20
9.9924010028
 30
0.0
 10
11.274143278
 20
9.9951255877
 30
0.0
 10
11.2734767011
 20
9.9978538094
 30
0.0
 10
11.2729860612
 20
10.0005849161
 30
0.0
 10
11.2726715306
 20
10.0033180265
 30
0.0
 10
11.2725332542
 20
10.0060522782
 30
0.0
 10
11.2725713514
 20
10.0087867837
 30
0.0
 10
11.2727857506
 20
10.0115206493
 30
0.0
 10
11.2731763471
 20
10.0142530043
 30
0.0
 10
11.2737430084
 20
10.0169829554
 30
0.0
 10
11.2744855041
 20
10.0197097392
 30
0.0
 10
11.2757216371
 20
10.0233764688
 30
0.0
 10
11.2777258828
 20
10.02796369
 30
0.0
 10
11.2808048683
 20
10.033380841
 30
0.0
 10
11.2845766619
 20
10.0387623354
 30
0.0
 10
11.2890352287
 20
10.0441026102
 30
0.0
 10
11.2923589135
 20
10.0475266207
 30
0.0
 10
11.294124414
 20
10.0492319633
 30
0.0
  0
SPLINE
  5
366
100
AcDbEntity
  8
0
100
AcDbSpline
 62
7
  6
CONTINUOUS
 70
0
 71
3
 72
42
 73
38
 74
0
 42
0.0000001
 43
0.0000001
 44
0.0000000001
 40
0.0
 40
0.0
 40
0.0
 40
0.0
 40
0.0311444347
 40
0.0467772112
 40
0.0624471461
 40
0.093891844
 40
0.1254739796
 40
0.1571813629
 40
0.1889992234
 40
0.2209106216
 40
0.2528967716
 40
0.2849374315
 40
0.3170113014
 40
0.34909644
 40
0.3811706886
 40
0.4132120984
 40
0.4451993552
 40
0.4771121951
 40
0.5089318057
 40
0.5406412074
 40
0.572225607
 40
0.6036727182
 40
0.6349730419
 40
0.6661200987
 40
0.6971106068
 40
0.7279445994
 40
0.7586254742
 40
0.7891599701
 40
0.8195580671
 40
0.8498328085
 40
0.864931571
 40
0.8800056544
 40
0.910083706
 40
0.9400929707
 40
0.9550814956
 40
0.9700611828
 40
1.0
 40
1.0
 40
1.0
 40
1.0
 10
12.6773672757
 20
6.8999628945
 30
0.0
 10
12.6725791142
 20
6.9002949546
 30
0.0
 10
12.665402283
 20
6.9010563733
 30
0.0
 10
12.6558995206
 20
6.9025865139
 30
0.0
 10
12.6464118444
 20
6.9044650569
 30
0.0
 10
12.6346472899
 20
6.9074568085
 30
0.0
 10
12.620776418
 20
6.9120489105
 30
0.0
 10
12.6072077534
 20
6.9176229397
 30
0.0
 10
12.59401405
 20
6.924149002
 30
0.0
 10
12.5812654926
 20
6.9315922411
 30
0.0
 10
12.5690300406
 20
6.9399129105
 30
0.0
 10
12.5573728772
 20
6.9490666121
 30
0.0
 10
12.5463561191
 20
6.9590045249
 30
0.0
 10
12.5360384745
 20
6.969673665
 30
0.0
 10
12.5264749374
 20
6.9810171645
 30
0.0
 10
12.5177164966
 20
6.9929745724
 30
0.0
 10
12.5098098664
 20
7.005482173
 30
0.0
 10
12.5027972394
 20
7.0184733217
 30
0.0
 10
12.496716063
 20
7.0318787963
 30
0.0
 10
12.4915988404
 20
7.0456271609
 30
0.0
 10
12.4874729573
 20
7.0596451419
 30
0.0
 10
12.4843605344
 20
7.0738580133
 30
0.0
 10
12.4822783075
 20
7.0881899892
 30
0.0
 10
12.4812375349
 20
7.102564624
 30
0.0
 10
12.4812439304
 20
7.1169052107
 30
0.0
 10
12.4822976337
 20
7.1311352011
 30
0.0
 10
12.4843931745
 20
7.1451785559
 30
0.0
 10
12.4875195959
 20
7.1589603542
 30
0.0
 10
12.4916601188
 20
7.1724064337
 30
0.0
 10
12.495942104
 20
7.1832835174
 30
0.0
 10
12.4998496227
 20
7.191742133
 30
0.0
 10
12.5040665958
 20
7.2000168236
 30
0.0
 10
12.5099216093
 20
7.2100254929
 30
0.0
 10
12.5165296676
 20
7.2195378266
 30
0.0
 10
12.5222399982
 20
7.2268088119
 30
0.0
 10
12.5282227249
 20
7.2338424733
 30
0.0
 10
12.5330159475
 20
7.2388498211
 30
0.0
 10
12.5363345005
 20
7.2420552776
 30
0.0
  0
SPLINE
  5
367
100
AcDbEntity
  8
0
100
AcDbSpline
 62
7
  6
CONTINUOUS
 70
0
 71
3
 72
82
 73
78
 74
0
 42
0.0000001
 43
0.0000001
 44
0.0000000001
 40
0.0
 40
0.0
 40
0.0
 40
0.0
 40
0.0039519233
 40
0.0080647395
 40
0.012342495
 40
0.0167886289
 40
0.0214060732
 40
0.026197185
 40
0.0311636264
 40
0.0363065606
 40
0.0416267229
 40
0.0471244157
 40
0.0527996369
 40
0.0586519991
 40
0.0708846929
 40
0.0838144675
 40
0.0974289457
 40
0.1117124918
 40
0.1266466061
 40
0.142210273
 40
0.1583802366
 40
0.175131224
 40
0.1924361227
 40
0.2102661481
 40
0.228591009
 40
0.2473790421
 40
0.2665973324
 40
0.2862118179
 40
0.3061874145
 40
0.3264881266
 40
0.3470771474
 40
0.3679169529
 40
0.4101950861
 40
0.4530126005
 40
0.4960535846
 40
0.5389999985
 40
0.5815346968
 40
0.6025499267
 40
0.6233452672
 40
0.6438826847
 40
0.6641247832
 40
0.6840349017
 40
0.7035772094
 40
0.7227168067
 40
0.7414198382
 40
0.7596536168
 40
0.7773867292
 40
0.7945891587
 40
0.8112324227
 40
0.8272897426
 40
0.8427362119
 40
0.8575489803
 40
0.8717074848
 40
0.8851937372
 40
0.8979926842
 40
0.910092616
 40
0.9158781207
 40
0.9214863113
 40
0.9269169182
 40
0.9321700684
 40
0.9372462095
 40
0.9421462506
 40
0.9468715666
 40
0.9514240184
 40
0.9558061123
 40
0.96002096
 40
0.9640724357
 40
0.9679652593
 40
0.9717050387
 40
0.9752984775
 40
0.9787533994
 40
0.9820789031
 40
0.9883814967
 40
0.9913875045
 40
0.9943148566
 40
0.9971798486
 40
1.0
 40
1.0
 40
1.0
 40
1.0
 10
11.3839555387
 20
9.953171029
 30
0.0
 10
11.3850133574
 20
9.9541928035
 30
0.0
 10
11.3872195683
 20
9.9562292297
 30
0.0
 10
11.3907204839
 20
9.9592044658
 30
0.0
 10
11.3944761018
 20
9.9621586652
 30
0.0
 10
11.3984844036
 20
9.9650902218
 30
0.0
 10
11.4027434315
 20
9.9679978286
 30
0.0
 10
11.4072511784
 20
9.9708800735
 30
0.0
 10
11.4120054384
 20
9.9737356311
 30
0.0
 10
11.4170038915
 20
9.9765630857
 30
0.0
 10
11.4222440944
 20
9.9793610238
 30
0.0
 10
11.4277234545
 20
9.982128123
 30
0.0
 10
11.4334393154
 20
9.9848629993
 30
0.0
 10
11.4414911887
 20
9.988518772
 30
0.0
 10
11.4521360155
 20
9.9929879661
 30
0.0
 10
11.4656239929
 20
9.9981253375
 30
0.0
 10
11.4799818583
 20
10.0031030668
 30
0.0
 10
11.4951813308
 20
10.0079112587
 30
0.0
 10
11.5111926217
 20
10.0125403623
 30
0.0
 10
11.5279842077
 20
10.0169811603
 30
0.0
 10
11.5455230037
 20
10.0212248025
 30
0.0
 10
11.5637744078
 20
10.0252628234
 30
0.0
 10
11.5827023759
 20
10.0290871719
 30
0.0
 10
11.6022694967
 20
10.0326902319
 30
0.0
 10
11.6224370793
 20
10.0360648231
 30
0.0
 10
11.6431652358
 20
10.0392042194
 30
0.0
 10
11.6644129561
 20
10.0421021597
 30
0.0
 10
11.6861381866
 20
10.0447528775
 30
0.0
 10
11.7082979232
 20
10.0471510998
 30
0.0
 10
11.7308482873
 20
10.0492920442
 30
0.0
 10
11.7537446706
 20
10.0511714727
 30
0.0
 10
11.7848218853
 20
10.0533338493
 30
0.0
 10
11.8241984512
 20
10.0553507134
 30
0.0
 10
11.8718705677
 20
10.0566721412
 30
0.0
 10
11.919809316
 20
10.0568953318
 30
0.0
 10
11.9676351244
 20
10.0560185148
 30
0.0
 10
12.007237693
 20
10.0543706499
 30
0.0
 10
12.0385718564
 20
10.0525011908
 30
0.0
 10
12.0617156058
 20
10.0508366756
 30
0.0
 10
12.0845500603
 20
10.048907566
 30
0.0
 10
12.1070300441
 20
10.0467176781
 30
0.0
 10
12.1291110422
 20
10.0442713827
 30
0.0
 10
12.1507493449
 20
10.0415735485
 30
0.0
 10
12.171902118
 20
10.0386295442
 30
0.0
 10
12.1925274985
 20
10.0354452289
 30
0.0
 10
12.2125846822
 20
10.0320269537
 30
0.0
 10
12.2320340018
 20
10.0283815313
 30
0.0
 10
12.2508370021
 20
10.0245162269
 30
0.0
 10
12.2689565231
 20
10.0204387375
 30
0.0
 10
12.2863567872
 20
10.0161571947
 30
0.0
 10
12.3030034729
 20
10.0116801387
 30
0.0
 10
12.318863789
 20
10.0070164908
 30
0.0
 10
12.3339065198
 20
10.0021755346
 30
0.0
 10
12.3481022026
 20
9.9971668833
 30
0.0
 10
12.3614228859
 20
9.9920004888
 30
0.0
 10
12.3719241982
 20
9.9875075848
 30
0.0
 10
12.379858625
 20
9.9838337137
 30
0.0
 10
12.3854854739
 20
9.9810865066
 30
0.0
 10
12.3908747902
 20
9.9783075867
 30
0.0
 10
12.3960239614
 20
9.9754983473
 30
0.0
 10
12.4009304446
 20
9.9726601195
 30
0.0
 10
12.405591848
 20
9.9697943028
 30
0.0
 10
12.4100059096
 20
9.9669023083
 30
0.0
 10
12.4141704465
 20
9.9639854725
 30
0.0
 10
12.4180834674
 20
9.9610452512
 30
0.0
 10
12.4217430446
 20
9.958082995
 30
0.0
 10
12.4251473908
 20
9.9551000869
 30
0.0
 10
12.4282948686
 20
9.9520979544
 30
0.0
 10
12.4311838817
 20
9.949077867
 30
0.0
 10
12.4338129697
 20
9.9460413513
 30
0.0
 10
12.4361809608
 20
9.9429893328
 30
0.0
 10
12.4389383337
 20
9.9389744337
 30
0.0
 10
12.4412399244
 20
9.9348549393
 30
0.0
 10
12.4430151125
 20
9.9306577277
 30
0.0
 10
12.4440589585
 20
9.9275505773
 30
0.0
 10
12.4448348045
 20
9.9244373047
 30
0.0
 10
12.4451750408
 20
9.9223461054
 30
0.0
 10
12.445299162
 20
9.9213039464
 30
0.0
  0
SPLINE
  5
368
100
AcDbEntity
  8
0
100
AcDbSpline
 62
7
  6
CONTINUOUS
 70
0
 71
3
 72
53
 73
49
 74
0
 42
0.0000001
 43
0.0000001
 44
0.0000000001
 40
0.0
 40
0.0
 40
0.0
 40
0.0
 40
0.0417740478
 40
0.0840369835
 40
0.1266585592
 40
0.1695065657
 40
0.2124481957
 40
0.2553501644
 40
0.2980793779
 40
0.3405034127
 40
0.3824910553
 40
0.4239128269
 40
0.4646415185
 40
0.5045527309
 40
0.5435254266
 40
0.5814424966
 40
0.6181913512
 40
0.6536645436
 40
0.6877604426
 40
0.7203839756
 40
0.7361162401
 40
0.7514482063
 40
0.7663702194
 40
0.7808732533
 40
0.7949489098
 40
0.808589482
 40
0.8217880323
 40
0.8345384043
 40
0.8468353889
 40
0.8586746951
 40
0.8700532057
 40
0.8809689358
 40
0.8914213732
 40
0.9014114696
 40
0.9109420597
 40
0.9200179488
 40
0.9286464106
 40
0.9368374402
 40
0.9446043453
 40
0.9519642202
 40
0.9589386335
 40
0.9655543067
 40
0.9718438059
 40
0.9778461959
 40
0.9836073668
 40
0.9891800504
 40
0.9946230772
 40
1.0
 40
1.0
 40
1.0
 40
1.0
 10
13.5084415458
 20
8.6062093519
 30
0.0
 10
13.5084415458
 20
8.5951090987
 30
0.0
 10
13.5082683704
 20
8.5727783355
 30
0.0
 10
13.5075027906
 20
8.5391300019
 30
0.0
 10
13.5062321187
 20
8.5052113259
 30
0.0
 10
13.504460517
 20
8.4711345756
 30
0.0
 10
13.502193842
 20
8.4370125029
 30
0.0
 10
13.4994395852
 20
8.4029579892
 30
0.0
 10
13.4962068707
 20
8.3690837029
 30
0.0
 10
13.492506415
 20
8.3355017077
 30
0.0
 10
13.4883504954
 20
8.3023230949
 30
0.0
 10
13.4837529089
 20
8.2696576118
 30
0.0
 10
13.4787289273
 20
8.2376132947
 30
0.0
 10
13.4732952479
 20
8.2062961078
 30
0.0
 10
13.4674699391
 20
8.175809588
 30
0.0
 10
13.4612723824
 20
8.1462544901
 30
0.0
 10
13.4547232071
 20
8.1177284656
 30
0.0
 10
13.4478442328
 20
8.0903256504
 30
0.0
 10
13.4406583613
 20
8.0641366101
 30
0.0
 10
13.4343606376
 20
8.0431494512
 30
0.0
 10
13.429176695
 20
8.0270393232
 30
0.0
 10
13.4252741214
 20
8.015459304
 30
0.0
 10
13.4213131086
 20
8.004244957
 30
0.0
 10
13.4172969277
 20
7.9934055258
 30
0.0
 10
13.4132289095
 20
7.9829499557
 30
0.0
 10
13.4091124172
 20
7.9728868666
 30
0.0
 10
13.4049508773
 20
7.9632245436
 30
0.0
 10
13.4007477043
 20
7.9539709438
 30
0.0
 10
13.3965064121
 20
7.9451336609
 30
0.0
 10
13.3922304498
 20
7.9367199596
 30
0.0
 10
13.387923397
 20
7.9287367104
 30
0.0
 10
13.3835887209
 20
7.9211904577
 30
0.0
 10
13.3792300343
 20
7.91408732
 30
0.0
 10
13.3748508019
 20
7.9074330942
 30
0.0
 10
13.3704546213
 20
7.9012331267
 30
0.0
 10
13.366044922
 20
7.8954924466
 30
0.0
 10
13.3616252186
 20
7.8902156275
 30
0.0
 10
13.3571988513
 20
7.8854069336
 30
0.0
 10
13.3527691652
 20
7.8810702123
 30
0.0
 10
13.3483393408
 20
7.8772090299
 30
0.0
 10
13.3439124806
 20
7.8738266559
 30
0.0
 10
13.3394915852
 20
7.8709261527
 30
0.0
 10
13.3350795974
 20
7.8685105082
 30
0.0
 10
13.3306795688
 20
7.8665825882
 30
0.0
 10
13.3262948443
 20
7.8651453603
 30
0.0
 10
13.321929084
 20
7.8642014952
 30
0.0
 10
13.3175875514
 20
7.8637534025
 30
0.0
 10
13.3147051445
 20
7.8637862915
 30
0.0
 10
13.3132798052
 20
7.8638851394
 30
0.0
  0
SPLINE
  5
369
100
AcDbEntity
  8
0
100
AcDbSpline
 62
7
  6
CONTINUOUS
 70
0
 71
3
 72
42
 73
38
 74
0
 42
0.0000001
 43
0.0000001
 44
0.0000000001
 40
0.0
 40
0.0
 40
0.0
 40
0.0
 40
0.0311444347
 40
0.0467772112
 40
0.0624471461
 40
0.093891844
 40
0.1254739796
 40
0.1571813629
 40
0.1889992234
 40
0.2209106216
 40
0.2528967716
 40
0.2849374315
 40
0.3170113014
 40
0.34909644
 40
0.3811706886
 40
0.4132120984
 40
0.4451993552
 40
0.4771121951
 40
0.5089318057
 40
0.5406412074
 40
0.572225607
 40
0.6036727182
 40
0.6349730419
 40
0.6661200987
 40
0.6971106068
 40
0.7279445994
 40
0.7586254742
 40
0.7891599701
 40
0.8195580671
 40
0.8498328085
 40
0.864931571
 40
0.8800056544
 40
0.910083706
 40
0.9400929707
 40
0.9550814956
 40
0.9700611828
 40
1.0
 40
1.0
 40
1.0
 40
1.0
 10
8.934404477
 20
7.1595382462
 30
0.0
 10
8.9296163155
 20
7.1598703063
 30
0.0
 10
8.9224394843
 20
7.160631725
 30
0.0
 10
8.9129367219
 20
7.1621618656
 30
0.0
 10
8.9034490457
 20
7.1640404086
 30
0.0
 10
8.8916844913
 20
7.1670321603
 30
0.0
 10
8.8778136194
 20
7.1716242622
 30
0.0
 10
8.8642449547
 20
7.1771982914
 30
0.0
 10
8.8510512513
 20
7.1837243537
 30
0.0
 10
8.8383026939
 20
7.1911675928
 30
0.0
 10
8.8260672419
 20
7.1994882622
 30
0.0
 10
8.8144100785
 20
7.2086419638
 30
0.0
 10
8.8033933205
 20
7.2185798767
 30
0.0
 10
8.7930756758
 20
7.2292490167
 30
0.0
 10
8.7835121387
 20
7.2405925162
 30
0.0
 10
8.774753698
 20
7.2525499241
 30
0.0
 10
8.7668470678
 20
7.2650575247
 30
0.0
 10
8.7598344408
 20
7.2780486734
 30
0.0
 10
8.7537532643
 20
7.291454148
 30
0.0
 10
8.7486360418
 20
7.3052025126
 30
0.0
 10
8.7445101586
 20
7.3192204936
 30
0.0
 10
8.7413977357
 20
7.333433365
 30
0.0
 10
8.7393155089
 20
7.3477653409
 30
0.0
 10
8.7382747363
 20
7.3621399757
 30
0.0
 10
8.7382811317
 20
7.3764805624
 30
0.0
 10
8.7393348351
 20
7.3907105529
 30
0.0
 10
8.7414303759
 20
7.4047539077
 30
0.0
 10
8.7445567973
 20
7.4185357059
 30
0.0
 10
8.7486973201
 20
7.4319817854
 30
0.0
 10
8.7529793054
 20
7.4428588691
 30
0.0
 10
8.756886824
 20
7.4513174848
 30
0.0
 10
8.7611037972
 20
7.4595921753
 30
0.0
 10
8.7669588107
 20
7.4696008447
 30
0.0
 10
8.773566869
 20
7.4791131783
 30
0.0
 10
8.7792771996
 20
7.4863841636
 30
0.0
 10
8.7852599263
 20
7.493417825
 30
0.0
 10
8.7900531489
 20
7.4984251728
 30
0.0
 10
8.7933717019
 20
7.5016306294
 30
0.0
  0
SPLINE
  5
36A
100
AcDbEntity
  8
0
100
AcDbSpline
 62
7
  6
CONTINUOUS
 70
0
 71
3
 72
21
 73
17
 74
0
 42
0.0000001
 43
0.0000001
 44
0.0000000001
 40
0.0
 40
0.0
 40
0.0
 40
0.0
 40
0.06165322
 40
0.1233294719
 40
0.1850515326
 40
0.2468416528
 40
0.308721334
 40
0.3707110997
 40
0.4328302469
 40
0.4950966389
 40
0.5575265783
 40
0.620134583
 40
0.6829331586
 40
0.745933179
 40
0.8725262751
 40
1.0
 40
1.0
 40
1.0
 40
1.0
 10
9.0754372522
 20
7.2096117717
 30
0.0
 10
9.0731591836
 20
7.2074113398
 30
0.0
 10
9.0684828084
 20
7.2031313532
 30
0.0
 10
9.0611319689
 20
7.1970963637
 30
0.0
 10
9.0534619133
 20
7.1914602973
 30
0.0
 10
9.0454922404
 20
7.1862375958
 30
0.0
 10
9.0372429881
 20
7.1814413047
 30
0.0
 10
9.028734954
 20
7.1770835253
 30
0.0
 10
9.0199895551
 20
7.1731752537
 30
0.0
 10
9.0110288564
 20
7.1697262709
 30
0.0
 10
9.0018754121
 20
7.1667452365
 30
0.0
 10
8.9925523389
 20
7.1642396881
 30
0.0
 10
8.983082858
 20
7.1622158642
 30
0.0
 10
8.9702754671
 20
7.1601634302
 30
0.0
 10
8.9540121233
 20
7.1588300191
 30
0.0
 10
8.9409373759
 20
7.1590851881
 30
0.0
 10
8.934404477
 20
7.1595382462
 30
0.0
  0
SPLINE
  5
36B
100
AcDbEntity
  8
0
100
AcDbSpline
 62
7
  6
CONTINUOUS
 70
0
 71
3
 72
15
 73
11
 74
0
 42
0.0000001
 43
0.0000001
 44
0.0000000001
 40
0.0
 40
0.0
 40
0.0
 40
0.0
 40
0.1462013888
 40
0.2850350028
 40
0.4169986302
 40
0.542720502
 40
0.6629498546
 40
0.7785580727
 40
0.8905389312
 40
1.0
 40
1.0
 40
1.0
 40
1.0
 10
9.5728445071
 20
10.0787720056
 30
0.0
 10
9.5715341671
 20
10.0775063143
 30
0.0
 10
9.5690479417
 20
10.0749662356
 30
0.0
 10
9.5656552615
 20
10.0710255169
 30
0.0
 10
9.5627020262
 20
10.0670584989
 30
0.0
 10
9.5601913056
 20
10.0630682147
 30
0.0
 10
9.5581259489
 20
10.059057353
 30
0.0
 10
9.5565085922
 20
10.055028799
 30
0.0
 10
9.5553421537
 20
10.0509866246
 30
0.0
 10
9.5548626621
 20
10.0482626885
 30
0.0
 10
9.5547012371
 20
10.0469082895
 30
0.0
  0
SPLINE
  5
36C
100
AcDbEntity
  8
0
100
AcDbSpline
 62
7
  6
CONTINUOUS
 70
0
 71
3
 72
47
 73
43
 74
0
 42
0.0000001
 43
0.0000001
 44
0.0000000001
 40
0.0
 40
0.0
 40
0.0
 40
0.0
 40
0.0063158953
 40
0.0126706964
 40
0.0191025413
 40
0.0256481068
 40
0.0323419887
 40
0.0392163511
 40
0.0536141938
 40
0.0611949453
 40
0.0690567093
 40
0.0772178306
 40
0.0856942536
 40
0.094499648
 40
0.1036457893
 40
0.1131425899
 40
0.1229983503
 40
0.1332200167
 40
0.1438131323
 40
0.1547821683
 40
0.1661305713
 40
0.1899729423
 40
0.2153524409
 40
0.2422683478
 40
0.2707106917
 40
0.3006617255
 40
0.3320970385
 40
0.3649863926
 40
0.3992943516
 40
0.4349809011
 40
0.4720019229
 40
0.5103095575
 40
0.5498524869
 40
0.5905762826
 40
0.6324236706
 40
0.6753347453
 40
0.7192471563
 40
0.7640962954
 40
0.8098156376
 40
0.856336788
 40
0.9035890146
 40
1.0
 40
1.0
 40
1.0
 40
1.0
 10
13.395608877
 20
9.0510337922
 30
0.0
 10
13.3966145384
 20
9.0509640491
 30
0.0
 10
13.3986273012
 20
9.0507417942
 30
0.0
 10
13.4016238935
 20
9.0501625541
 30
0.0
 10
13.4046004614
 20
9.0493374314
 30
0.0
 10
13.407555239
 20
9.0482670328
 30
0.0
 10
13.4104871118
 20
9.0469520817
 30
0.0
 10
13.4144238003
 20
9.0448417811
 30
0.0
 10
13.4182536116
 20
9.0422584996
 30
0.0
 10
13.4219598604
 20
9.0392648309
 30
0.0
 10
13.4247593421
 20
9.0367408347
 30
0.0
 10
13.4275289385
 20
9.0339783235
 30
0.0
 10
13.4302679169
 20
9.0309782493
 30
0.0
 10
13.4329752205
 20
9.0277419587
 30
0.0
 10
13.4356498005
 20
9.0242707238
 30
0.0
 10
13.4382906471
 20
9.0205659822
 30
0.0
 10
13.4408967557
 20
9.0166292445
 30
0.0
 10
13.4434670542
 20
9.0124620787
 30
0.0
 10
13.446000565
 20
9.0080662045
 30
0.0
 10
13.448496286
 20
9.003443384
 30
0.0
 10
13.4518270475
 20
8.9968709457
 30
0.0
 10
13.4558774727
 20
8.9880886558
 30
0.0
 10
13.4604943772
 20
8.9768442052
 30
0.0
 10
13.4649371014
 20
8.9647448062
 30
0.0
 10
13.4691983772
 20
8.9518102029
 30
0.0
 10
13.4732712131
 20
8.9380612781
 30
0.0
 10
13.4771488668
 20
8.9235204283
 30
0.0
 10
13.480824895
 20
8.9082113938
 30
0.0
 10
13.4842931963
 20
8.8921592516
 30
0.0
 10
13.4875479992
 20
8.8753903409
 30
0.0
 10
13.4905838787
 20
8.8579322071
 30
0.0
 10
13.4933957669
 20
8.8398135586
 30
0.0
 10
13.4959789879
 20
8.8210642205
 30
0.0
 10
13.4983292388
 20
8.8017150737
 30
0.0
 10
13.5004425997
 20
8.7817979944
 30
0.0
 10
13.5023155405
 20
8.7613458054
 30
0.0
 10
13.5039449461
 20
8.7403922326
 30
0.0
 10
13.505328107
 20
8.7189718211
 30
0.0
 10
13.5064627049
 20
8.6971199008
 30
0.0
 10
13.5073468538
 20
8.6748725314
 30
0.0
 10
13.5081954023
 20
8.6445286783
 30
0.0
 10
13.5084415458
 20
8.6215974611
 30
0.0
 10
13.5084415458
 20
8.6062093519
 30
0.0
  0
SPLINE
  5
36D
100
AcDbEntity
  8
0
100
AcDbSpline
 62
4
  6
CONTINUOUS
 70
0
 71
3
 72
313
 73
309
 74
0
 42
0.0000001
 43
0.0000001
 44
0.0000000001
 40
0.0
 40
0.0
 40
0.0
 40
0.0
 40
0.015625
 40
0.0234375
 40
0.03125
 40
0.0390625
 40
0.046875
 40
0.05078125
 40
0.0546875
 40
0.056640625
 40
0.05859375
 40
0.060546875
 40
0.0615234375
 40
0.0620117188
 40
0.0625
 40
0.0629882812
 40
0.0634765625
 40
0.064453125
 40
0.06640625
 40
0.068359375
 40
0.0703125
 40
0.07421875
 40
0.078125
 40
0.0859375
 40
0.09375
 40
0.1015625
 40
0.109375
 40
0.11328125
 40
0.1171875
 40
0.119140625
 40
0.12109375
 40
0.123046875
 40
0.1240234375
 40
0.1245117188
 40
0.125
 40
0.1254882812
 40
0.1259765625
 40
0.126953125
 40
0.12890625
 40
0.130859375
 40
0.1328125
 40
0.13671875
 40
0.140625
 40
0.1484375
 40
0.15625
 40
0.1640625
 40
0.171875
 40
0.17578125
 40
0.1796875
 40
0.181640625
 40
0.18359375
 40
0.185546875
 40
0.1865234375
 40
0.1870117188
 40
0.1875
 40
0.1879882812
 40
0.1884765625
 40
0.189453125
 40
0.19140625
 40
0.193359375
 40
0.1953125
 40
0.19921875
 40
0.203125
 40
0.2109375
 40
0.21875
 40
0.2265625
 40
0.234375
 40
0.23828125
 40
0.2421875
 40
0.244140625
 40
0.24609375
 40
0.248046875
 40
0.2490234375
 40
0.2495117188
 40
0.25
 40
0.2504882812
 40
0.2509765625
 40
0.251953125
 40
0.25390625
 40
0.255859375
 40
0.2578125
 40
0.26171875
 40
0.265625
 40
0.2734375
 40
0.28125
 40
0.2890625
 40
0.296875
 40
0.30078125
 40
0.3046875
 40
0.306640625
 40
0.30859375
 40
0.310546875
 40
0.3115234375
 40
0.3120117188
 40
0.3125
 40
0.3129882812
 40
0.3134765625
 40
0.314453125
 40
0.31640625
 40
0.318359375
 40
0.3203125
 40
0.32421875
 40
0.328125
 40
0.3359375
 40
0.34375
 40
0.3515625
 40
0.359375
 40
0.36328125
 40
0.3671875
 40
0.369140625
 40
0.37109375
 40
0.373046875
 40
0.3740234375
 40
0.3745117188
 40
0.375
 40
0.3754882812
 40
0.3759765625
 40
0.376953125
 40
0.37890625
 40
0.380859375
 40
0.3828125
 40
0.38671875
 40
0.390625
 40
0.3984375
 40
0.40625
 40
0.4140625
 40
0.421875
 40
0.42578125
 40
0.4296875
 40
0.431640625
 40
0.43359375
 40
0.435546875
 40
0.4365234375
 40
0.4370117188
 40
0.4375
 40
0.4379882812
 40
0.4384765625
 40
0.439453125
 40
0.44140625
 40
0.443359375
 40
0.4453125
 40
0.44921875
 40
0.453125
 40
0.4609375
 40
0.46875
 40
0.4765625
 40
0.484375
 40
0.48828125
 40
0.4921875
 40
0.494140625
 40
0.49609375
 40
0.498046875
 40
0.4990234375
 40
0.4995117188
 40
0.5
 40
0.5004882812
 40
0.5009765625
 40
0.501953125
 40
0.50390625
 40
0.505859375
 40
0.5078125
 40
0.51171875
 40
0.515625
 40
0.5234375
 40
0.53125
 40
0.5390625
 40
0.546875
 40
0.55078125
 40
0.5546875
 40
0.556640625
 40
0.55859375
 40
0.560546875
 40
0.5615234375
 40
0.5620117188
 40
0.5625
 40
0.5629882812
 40
0.5634765625
 40
0.564453125
 40
0.56640625
 40
0.568359375
 40
0.5703125
 40
0.57421875
 40
0.578125
 40
0.5859375
 40
0.59375
 40
0.6015625
 40
0.609375
 40
0.61328125
 40
0.6171875
 40
0.619140625
 40
0.62109375
 40
0.623046875
 40
0.6240234375
 40
0.6245117188
 40
0.625
 40
0.6254882812
 40
0.6259765625
 40
0.626953125
 40
0.62890625
 40
0.630859375
 40
0.6328125
 40
0.63671875
 40
0.640625
 40
0.6484375
 40
0.65625
 40
0.6640625
 40
0.671875
 40
0.67578125
 40
0.6796875
 40
0.681640625
 40
0.68359375
 40
0.685546875
 40
0.6865234375
 40
0.6870117188
 40
0.6875
 40
0.6879882812
 40
0.6884765625
 40
0.689453125
 40
0.69140625
 40
0.693359375
 40
0.6953125
 40
0.69921875
 40
0.703125
 40
0.7109375
 40
0.71875
 40
0.7265625
 40
0.734375
 40
0.73828125
 40
0.7421875
 40
0.744140625
 40
0.74609375
 40
0.748046875
 40
0.7490234375
 40
0.7495117188
 40
0.75
 40
0.7504882812
 40
0.7509765625
 40
0.751953125
 40
0.75390625
 40
0.755859375
 40
0.7578125
 40
0.76171875
 40
0.765625
 40
0.7734375
 40
0.78125
 40
0.7890625
 40
0.796875
 40
0.80078125
 40
0.8046875
 40
0.806640625
 40
0.80859375
 40
0.810546875
 40
0.8115234375
 40
0.8120117188
 40
0.8125
 40
0.8129882812
 40
0.8134765625
 40
0.814453125
 40
0.81640625
 40
0.818359375
 40
0.8203125
 40
0.82421875
 40
0.828125
 40
0.8359375
 40
0.84375
 40
0.8515625
 40
0.859375
 40
0.86328125
 40
0.8671875
 40
0.869140625
 40
0.87109375
 40
0.873046875
 40
0.8740234375
 40
0.8745117188
 40
0.875
 40
0.8754882812
 40
0.8759765625
 40
0.876953125
 40
0.87890625
 40
0.880859375
 40
0.8828125
 40
0.88671875
 40
0.890625
 40
0.8984375
 40
0.90625
 40
0.9140625
 40
0.921875
 40
0.92578125
 40
0.9296875
 40
0.931640625
 40
0.93359375
 40
0.935546875
 40
0.9365234375
 40
0.9370117188
 40
0.9375
 40
0.9379882812
 40
0.9384765625
 40
0.939453125
 40
0.94140625
 40
0.943359375
 40
0.9453125
 40
0.94921875
 40
0.953125
 40
0.9609375
 40
0.96875
 40
0.9765625
 40
0.984375
 40
1.0
 40
1.0
 40
1.0
 40
1.0
 10
10.2007333656
 20
9.5860232064
 30
0.0
 10
10.2010093042
 20
9.5831898302
 30
0.0
 10
10.201423212
 20
9.5789397658
 30
0.0
 10
10.2019750898
 20
9.5732730135
 30
0.0
 10
10.202388996
 20
9.5690229489
 30
0.0
 10
10.2028029105
 20
9.5647728854
 30
0.0
 10
10.2031478132
 20
9.5612311625
 30
0.0
 10
10.2034237938
 20
9.5583977917
 30
0.0
 10
10.2035961486
 20
9.5566269178
 30
0.0
 10
10.2037343372
 20
9.5552102579
 30
0.0
 10
10.2038371443
 20
9.5541476556
 30
0.0
 10
10.2039254712
 20
9.5532624953
 30
0.0
 10
10.2039820908
 20
9.5526422128
 30
0.0
 10
10.2040225788
 20
9.5522888121
 30
0.0
 10
10.2040300314
 20
9.5520208137
 30
0.0
 10
10.2041250704
 20
9.5517640837
 30
0.0
 10
10.204221238
 20
9.5514178465
 30
0.0
 10
10.2044037655
 20
9.5508137628
 30
0.0
 10
10.2046570773
 20
9.5499498285
 30
0.0
 10
10.2049642368
 20
9.5489135172
 30
0.0
 10
10.2053726703
 20
9.5475316257
 30
0.0
 10
10.205883593
 20
9.5458043103
 30
0.0
 10
10.2067008565
 20
9.5430405783
 30
0.0
 10
10.2077225093
 20
9.5395859228
 30
0.0
 10
10.2089484592
 20
9.5354403315
 30
0.0
 10
10.2101744254
 20
9.5312947439
 30
0.0
 10
10.2111960374
 20
9.5278400789
 30
0.0
 10
10.2120133825
 20
9.5250763659
 30
0.0
 10
10.2125240977
 20
9.5233490022
 30
0.0
 10
10.2129329571
 20
9.5219672098
 30
0.0
 10
10.2132388152
 20
9.5209305958
 30
0.0
 10
10.2134961988
 20
9.5200676085
 30
0.0
 10
10.2136714575
 20
9.5194618343
 30
0.0
 10
10.2137792716
 20
9.5191183057
 30
0.0
 10
10.2138385364
 20
9.5188532558
 30
0.0
 10
10.213980351
 20
9.5186165056
 30
0.0
 10
10.2141406428
 20
9.5182909674
 30
0.0
 10
10.2144345693
 20
9.5177258748
 30
0.0
 10
10.2148474503
 20
9.5169161952
 30
0.0
 10
10.2153459098
 20
9.5159456089
 30
0.0
 10
10.2160094738
 20
9.5146511342
 30
0.0
 10
10.2168392879
 20
9.5130331641
 30
0.0
 10
10.2181667896
 20
9.5104443429
 30
0.0
 10
10.2198262362
 20
9.5072083404
 30
0.0
 10
10.2218175404
 20
9.5033251262
 30
0.0
 10
10.2238088602
 20
9.4994419183
 30
0.0
 10
10.2254682677
 20
9.4962058998
 30
0.0
 10
10.2267958475
 20
9.4936171106
 30
0.0
 10
10.2276254631
 20
9.4919990595
 30
0.0
 10
10.2282894345
 20
9.490704751
 30
0.0
 10
10.2287866495
 20
9.4897336571
 30
0.0
 10
10.2292034242
 20
9.4889255655
 30
0.0
 10
10.2294903998
 20
9.4883576379
 30
0.0
 10
10.2296618287
 20
9.4880366421
 30
0.0
 10
10.2297694338
 20
9.4877859393
 30
0.0
 10
10.2299571837
 20
9.4875732931
 30
0.0
 10
10.2301795614
 20
9.4872764902
 30
0.0
 10
10.2305817474
 20
9.48676327
 30
0.0
 10
10.2311494892
 20
9.4860268648
 30
0.0
 10
10.2318336941
 20
9.4851445626
 30
0.0
 10
10.2327449493
 20
9.4839676762
 30
0.0
 10
10.2338843668
 20
9.4824967338
 30
0.0
 10
10.23570724
 20
9.4801431333
 30
0.0
 10
10.2379858987
 20
9.4772011649
 30
0.0
 10
10.2407202589
 20
9.4736707874
 30
0.0
 10
10.2434546325
 20
9.4701404199
 30
0.0
 10
10.2457332579
 20
9.4671984265
 30
0.0
 10
10.2475561976
 20
9.4648448759
 30
0.0
 10
10.2486954459
 20
9.4633738067
 30
0.0
 10
10.2496070485
 20
9.4621971806
 30
0.0
 10
10.2502901921
 20
9.4613140833
 30
0.0
 10
10.2508612543
 20
9.4605801656
 30
0.0
 10
10.2512575129
 20
9.4600625049
 30
0.0
 10
10.2514893879
 20
9.4597728168
 30
0.0
 10
10.2516479651
 20
9.4595383162
 30
0.0
 10
10.2518651377
 20
9.4593696948
 30
0.0
 10
10.2521342624
 20
9.4591218868
 30
0.0
 10
10.2526147534
 20
9.4586989294
 30
0.0
 10
10.2532961905
 20
9.4580891071
 30
0.0
 10
10.254116046
 20
9.4573597161
 30
0.0
 10
10.2552084423
 20
9.4563863581
 30
0.0
 10
10.2565741926
 20
9.4551699471
 30
0.0
 10
10.2587592506
 20
9.4532235292
 30
0.0
 10
10.2614906223
 20
9.4507905623
 30
0.0
 10
10.2647682461
 20
9.4478709765
 30
0.0
 10
10.2680458802
 20
9.4449514039
 30
0.0
 10
10.2707772259
 20
9.4425184042
 30
0.0
 10
10.2729623359
 20
9.4405720519
 30
0.0
 10
10.2743279541
 20
9.4393554742
 30
0.0
 10
10.2754206215
 20
9.4383824583
 30
0.0
 10
10.2762396489
 20
9.4376520222
 30
0.0
 10
10.276923677
 20
9.4370454698
 30
0.0
 10
10.2773995425
 20
9.4366166751
 30
0.0
 10
10.2776760784
 20
9.43637822
 30
0.0
 10
10.2778704862
 20
9.4361808695
 30
0.0
 10
10.2781145639
 20
9.4360542704
 30
0.0
 10
10.2784226755
 20
9.4358607928
 30
0.0
 10
10.2789699429
 20
9.4355337052
 30
0.0
 10
10.2797475332
 20
9.4350604257
 30
0.0
 10
10.2806824481
 20
9.4344950635
 30
0.0
 10
10.2819283702
 20
9.4337403485
 30
0.0
 10
10.2834859889
 20
9.4327972624
 30
0.0
 10
10.2859780581
 20
9.4312881526
 30
0.0
 10
10.2890931863
 20
9.4294018249
 30
0.0
 10
10.2928313213
 20
9.4271382043
 30
0.0
 10
10.2965694645
 20
9.4248745981
 30
0.0
 10
10.2996845724
 20
9.4229882342
 30
0.0
 10
10.3021766819
 20
9.4214791968
 30
0.0
 10
10.3037341982
 20
9.4205359268
 30
0.0
 10
10.3049803306
 20
9.4197815893
 30
0.0
 10
10.3059146031
 20
9.4192150735
 30
0.0
 10
10.3066942033
 20
9.4187454032
 30
0.0
 10
10.3072378827
 20
9.4184118728
 30
0.0
 10
10.3075517432
 20
9.4182287181
 30
0.0
 10
10.3077781621
 20
9.4180704101
 30
0.0
 10
10.3080388935
 20
9.417992153
 30
0.0
 10
10.3083745668
 20
9.4178598876
 30
0.0
 10
10.3089675714
 20
9.4176414328
 30
0.0
 10
10.3098118055
 20
9.4173225528
 30
0.0
 10
10.3108261343
 20
9.4169428082
 30
0.0
 10
10.3121781368
 20
9.4164354652
 30
0.0
 10
10.3138682892
 20
9.4158016347
 30
0.0
 10
10.3165724496
 20
9.4147873111
 30
0.0
 10
10.3199526789
 20
9.4135194739
 30
0.0
 10
10.3240089411
 20
9.4119980384
 30
0.0
 10
10.328065209
 20
9.4104766188
 30
0.0
 10
10.3314454239
 20
9.4092087419
 30
0.0
 10
10.3341496131
 20
9.4081944979
 30
0.0
 10
10.3358396922
 20
9.4075604651
 30
0.0
 10
10.3371918453
 20
9.4070535371
 30
0.0
 10
10.338205714
 20
9.4066725245
 30
0.0
 10
10.3390513875
 20
9.4063576119
 30
0.0
 10
10.3396418226
 20
9.4061320748
 30
0.0
 10
10.3399816129
 20
9.406011157
 30
0.0
 10
10.3402296981
 20
9.4058980436
 30
0.0
 10
10.340503614
 20
9.40587065
 30
0.0
 10
10.3408598252
 20
9.4058042251
 30
0.0
 10
10.3414873927
 20
9.4057019125
 30
0.0
 10
10.342381723
 20
9.4055484684
 30
0.0
 10
10.3434558588
 20
9.4053674529
 30
0.0
 10
10.3448877117
 20
9.4051250101
 30
0.0
 10
10.3466776401
 20
9.4048223294
 30
0.0
 10
10.3495414628
 20
9.4043378319
 30
0.0
 10
10.3531212628
 20
9.403732282
 30
0.0
 10
10.3574170137
 20
9.4030055891
 30
0.0
 10
10.3617127663
 20
9.4022789132
 30
0.0
 10
10.3652925619
 20
9.4016733208
 30
0.0
 10
10.3681563932
 20
9.4011889083
 30
0.0
 10
10.3699462999
 20
9.4008860115
 30
0.0
 10
10.3713781974
 20
9.4006440122
 30
0.0
 10
10.3724521969
 20
9.4004616416
 30
0.0
 10
10.3733469534
 20
9.4003124375
 30
0.0
 10
10.3739737601
 20
9.4002025558
 30
0.0
 10
10.3743311903
 20
9.4001482586
 30
0.0
 10
10.374601362
 20
9.4000836125
 30
0.0
 10
10.3748635098
 20
9.400110413
 30
0.0
 10
10.375215839
 20
9.4001142495
 30
0.0
 10
10.3758311112
 20
9.4001358249
 30
0.0
 10
10.3767107531
 20
9.4001588771
 30
0.0
 10
10.3777660317
 20
9.4001898655
 30
0.0
 10
10.3791731717
 20
9.4002300218
 30
0.0
 10
10.3809320618
 20
9.4002806149
 30
0.0
 10
10.3837463054
 20
9.4003613414
 30
0.0
 10
10.3872641032
 20
9.4004623264
 30
0.0
 10
10.3914854639
 20
9.4005834733
 30
0.0
 10
10.3957068222
 20
9.4007046375
 30
0.0
 10
10.399224626
 20
9.4008055793
 30
0.0
 10
10.4020388575
 20
9.4008863923
 30
0.0
 10
10.4037977786
 20
9.4009367655
 30
0.0
 10
10.405204855
 20
9.400977373
 30
0.0
 10
10.4062603276
 20
9.4010069828
 30
0.0
 10
10.4071393625
 20
9.4010343485
 30
0.0
 10
10.4077557184
 20
9.4010482236
 30
0.0
 10
10.4081063112
 20
9.4010643979
 30
0.0
 10
10.4083737928
 20
9.4010533006
 30
0.0
 10
10.4086239318
 20
9.4011309924
 30
0.0
 10
10.4089634997
 20
9.4012036109
 30
0.0
 10
10.4095549252
 20
9.4013451229
 30
0.0
 10
10.4104012922
 20
9.401539739
 30
0.0
 10
10.4114163019
 20
9.4017765073
 30
0.0
 10
10.4127698685
 20
9.4020910706
 30
0.0
 10
10.4144617512
 20
9.4024846609
 30
0.0
 10
10.4171688059
 20
9.4031141895
 30
0.0
 10
10.4205526095
 20
9.4039011747
 30
0.0
 10
10.4246131809
 20
9.404845523
 30
0.0
 10
10.4286737474
 20
9.405789888
 30
0.0
 10
10.4320575634
 20
9.4065768315
 30
0.0
 10
10.4347645933
 20
9.4072064434
 30
0.0
 10
10.4364565388
 20
9.4075998218
 30
0.0
 10
10.4378099767
 20
9.40791482
 30
0.0
 10
10.4388253794
 20
9.4081502597
 30
0.0
 10
10.439670517
 20
9.4083490328
 30
0.0
 10
10.4402641371
 20
9.4084831239
 30
0.0
 10
10.4406001887
 20
9.4085676326
 30
0.0
 10
10.4408611286
 20
9.4086088012
 30
0.0
 10
10.4410880439
 20
9.4087348792
 30
0.0
 10
10.4414024658
 20
9.4088733657
 30
0.0
 10
10.4419471745
 20
9.4091295166
 30
0.0
 10
10.4427282207
 20
9.4094882319
 30
0.0
 10
10.4436642388
 20
9.4099217783
 30
0.0
 10
10.4449126951
 20
9.4104987615
 30
0.0
 10
10.4464731175
 20
9.4112203599
 30
0.0
 10
10.448969876
 20
9.4123747109
 30
0.0
 10
10.4520907956
 20
9.4138177209
 30
0.0
 10
10.4558359124
 20
9.4155493004
 30
0.0
 10
10.4595810217
 20
9.417280896
 30
0.0
 10
10.4627019599
 20
9.4187238657
 30
0.0
 10
10.4651986812
 20
9.4198782974
 30
0.0
 10
10.4667591983
 20
9.4205996907
 30
0.0
 10
10.4680074602
 20
9.4211770948
 30
0.0
 10
10.4689440722
 20
9.4216093555
 30
0.0
 10
10.4697232603
 20
9.4219720934
 30
0.0
 10
10.470271286
 20
9.4222210633
 30
0.0
 10
10.4705803932
 20
9.4223710555
 30
0.0
 10
10.4708236335
 20
9.4224617919
 30
0.0
 10
10.4710232593
 20
9.4226356976
 30
0.0
 10
10.4713046402
 20
9.4228385615
 30
0.0
 10
10.4717899687
 20
9.4232070899
 30
0.0
 10
10.4724870009
 20
9.4237264924
 30
0.0
 10
10.4733218534
 20
9.4243528001
 30
0.0
 10
10.474435544
 20
9.4251868205
 30
0.0
 10
10.4758274675
 20
9.4262297078
 30
0.0
 10
10.4780546513
 20
9.4278981253
 30
0.0
 10
10.4808385942
 20
9.4299837169
 30
0.0
 10
10.4841793432
 20
9.4324863954
 30
0.0
 10
10.4875200812
 20
9.4349890879
 30
0.0
 10
10.4903040514
 20
9.4370746443
 30
0.0
 10
10.4925311807
 20
9.4387431322
 30
0.0
 10
10.4939232428
 20
9.4397858406
 30
0.0
 10
10.495036649
 20
9.4406202282
 30
0.0
 10
10.4958723701
 20
9.4412454144
 30
0.0
 10
10.4965666846
 20
9.4417683257
 30
0.0
 10
10.4970568647
 20
9.4421305902
 30
0.0
 10
10.4973304722
 20
9.4423434904
 30
0.0
 10
10.4975539754
 20
9.4424865677
 30
0.0
 10
10.4977075359
 20
9.4426930908
 30
0.0
 10
10.49793668
 20
9.4429463243
 30
0.0
 10
10.4983263152
 20
9.443399794
 30
0.0
 10
10.4988888797
 20
9.4440422171
 30
0.0
 10
10.4995614134
 20
9.4448154322
 30
0.0
 10
10.5004590136
 20
9.4458455798
 30
0.0
 10
10.5015807095
 20
9.4471335402
 30
0.0
 10
10.503375593
 20
9.4491941226
 30
0.0
 10
10.5056191387
 20
9.4517699039
 30
0.0
 10
10.5083114205
 20
9.4548608173
 30
0.0
 10
10.5110036884
 20
9.457951742
 30
0.0
 10
10.5132472687
 20
9.4605274949
 30
0.0
 10
10.515042083
 20
9.462588134
 30
0.0
 10
10.5161639548
 20
9.4638759502
 30
0.0
 10
10.517061194
 20
9.4649063939
 30
0.0
 10
10.5177348303
 20
9.4656787044
 30
0.0
 10
10.5182939452
 20
9.4663239578
 30
0.0
 10
10.5186897385
 20
9.4667723749
 30
0.0
 10
10.5189090158
 20
9.4670337039
 30
0.0
 10
10.519092884
 20
9.4672153604
 30
0.0
 10
10.5192025563
 20
9.4674518323
 30
0.0
 10
10.5193746663
 20
9.467748008
 30
0.0
 10
10.5196638008
 20
9.4682752238
 30
0.0
 10
10.5200831542
 20
9.4690237319
 30
0.0
 10
10.5205836798
 20
9.4699239352
 30
0.0
 10
10.5212519899
 20
9.4711235099
 30
0.0
 10
10.5220870547
 20
9.4726232167
 30
0.0
 10
10.5234233389
 20
9.4750226142
 30
0.0
 10
10.5250936317
 20
9.4780219072
 30
0.0
 10
10.5270980119
 20
9.481621038
 30
0.0
 10
10.529102377
 20
9.4852201779
 30
0.0
 10
10.5307727074
 20
9.4882194481
 30
0.0
 10
10.5321089164
 20
9.4906188912
 30
0.0
 10
10.5329441723
 20
9.4921184823
 30
0.0
 10
10.5336120902
 20
9.4933182944
 30
0.0
 10
10.5341138139
 20
9.4942177722
 30
0.0
 10
10.5345294188
 20
9.4949685502
 30
0.0
 10
10.5348252449
 20
9.4954917139
 30
0.0
 10
10.5349866333
 20
9.4957943821
 30
0.0
 10
10.5351292391
 20
9.4960109112
 30
0.0
 10
10.5351894144
 20
9.4962674695
 30
0.0
 10
10.5352984008
 20
9.4965955845
 30
0.0
 10
10.5354757306
 20
9.4971762913
 30
0.0
 10
10.5357360627
 20
9.4980024713
 30
0.0
 10
10.5360454634
 20
9.4989953431
 30
0.0
 10
10.5364590447
 20
9.5003186636
 30
0.0
 10
10.5369756628
 20
9.5019729884
 30
0.0
 10
10.5378024522
 20
9.5046198108
 30
0.0
 10
10.5388358697
 20
9.5079283723
 30
0.0
 10
10.5400760024
 20
9.511898631
 30
0.0
 10
10.5413161189
 20
9.5158688966
 30
0.0
 10
10.5423495772
 20
9.5191774409
 30
0.0
 10
10.543176285
 20
9.5218242978
 30
0.0
 10
10.5436931104
 20
9.5234785348
 30
0.0
 10
10.5441062662
 20
9.5248020355
 30
0.0
 10
10.5444169668
 20
9.5257943571
 30
0.0
 10
10.5446732318
 20
9.5266222585
 30
0.0
 10
10.5448578221
 20
9.5271998922
 30
0.0
 10
10.5449551753
 20
9.5275329311
 30
0.0
 10
10.5450510839
 20
9.527774365
 30
0.0
 10
10.5450594814
 20
9.5280476987
 30
0.0
 10
10.545101203
 20
9.5284010166
 30
0.0
 10
10.5451599936
 20
9.5290245073
 30
0.0
 10
10.5452514157
 20
9.5299124978
 30
0.0
 10
10.5453579396
 20
9.5309792466
 30
0.0
 10
10.5455010831
 20
9.532401173
 30
0.0
 10
10.5456796318
 20
9.5341787199
 30
0.0
 10
10.5459655225
 20
9.5370227173
 30
0.0
 10
10.5463228129
 20
9.5405777407
 30
0.0
 10
10.5467515926
 20
9.5448437573
 30
0.0
 10
10.547180364
 20
9.549109777
 30
0.0
 10
10.547752062
 20
9.5547978022
 30
0.0
 10
10.5481808349
 20
9.5590638214
 30
0.0
 10
10.5484666837
 20
9.5619078341
 30
0.0
  0
SPLINE
  5
36E
100
AcDbEntity
  8
0
100
AcDbSpline
 62
4
  6
CONTINUOUS
 70
0
 71
3
 72
313
 73
309
 74
0
 42
0.0000001
 43
0.0000001
 44
0.0000000001
 40
0.0
 40
0.0
 40
0.0
 40
0.0
 40
0.015625
 40
0.0234375
 40
0.03125
 40
0.0390625
 40
0.046875
 40
0.05078125
 40
0.0546875
 40
0.056640625
 40
0.05859375
 40
0.060546875
 40
0.0615234375
 40
0.0620117188
 40
0.0625
 40
0.0629882812
 40
0.0634765625
 40
0.064453125
 40
0.06640625
 40
0.068359375
 40
0.0703125
 40
0.07421875
 40
0.078125
 40
0.0859375
 40
0.09375
 40
0.1015625
 40
0.109375
 40
0.11328125
 40
0.1171875
 40
0.119140625
 40
0.12109375
 40
0.123046875
 40
0.1240234375
 40
0.1245117188
 40
0.125
 40
0.1254882812
 40
0.1259765625
 40
0.126953125
 40
0.12890625
 40
0.130859375
 40
0.1328125
 40
0.13671875
 40
0.140625
 40
0.1484375
 40
0.15625
 40
0.1640625
 40
0.171875
 40
0.17578125
 40
0.1796875
 40
0.181640625
 40
0.18359375
 40
0.185546875
 40
0.1865234375
 40
0.1870117188
 40
0.1875
 40
0.1879882812
 40
0.1884765625
 40
0.189453125
 40
0.19140625
 40
0.193359375
 40
0.1953125
 40
0.19921875
 40
0.203125
 40
0.2109375
 40
0.21875
 40
0.2265625
 40
0.234375
 40
0.23828125
 40
0.2421875
 40
0.244140625
 40
0.24609375
 40
0.248046875
 40
0.2490234375
 40
0.2495117188
 40
0.25
 40
0.2504882812
 40
0.2509765625
 40
0.251953125
 40
0.25390625
 40
0.255859375
 40
0.2578125
 40
0.26171875
 40
0.265625
 40
0.2734375
 40
0.28125
 40
0.2890625
 40
0.296875
 40
0.30078125
 40
0.3046875
 40
0.306640625
 40
0.30859375
 40
0.310546875
 40
0.3115234375
 40
0.3120117188
 40
0.3125
 40
0.3129882812
 40
0.3134765625
 40
0.314453125
 40
0.31640625
 40
0.318359375
 40
0.3203125
 40
0.32421875
 40
0.328125
 40
0.3359375
 40
0.34375
 40
0.3515625
 40
0.359375
 40
0.36328125
 40
0.3671875
 40
0.369140625
 40
0.37109375
 40
0.373046875
 40
0.3740234375
 40
0.3745117188
 40
0.375
 40
0.3754882812
 40
0.3759765625
 40
0.376953125
 40
0.37890625
 40
0.380859375
 40
0.3828125
 40
0.38671875
 40
0.390625
 40
0.3984375
 40
0.40625
 40
0.4140625
 40
0.421875
 40
0.42578125
 40
0.4296875
 40
0.431640625
 40
0.43359375
 40
0.435546875
 40
0.4365234375
 40
0.4370117188
 40
0.4375
 40
0.4379882812
 40
0.4384765625
 40
0.439453125
 40
0.44140625
 40
0.443359375
 40
0.4453125
 40
0.44921875
 40
0.453125
 40
0.4609375
 40
0.46875
 40
0.4765625
 40
0.484375
 40
0.48828125
 40
0.4921875
 40
0.494140625
 40
0.49609375
 40
0.498046875
 40
0.4990234375
 40
0.4995117188
 40
0.5
 40
0.5004882812
 40
0.5009765625
 40
0.501953125
 40
0.50390625
 40
0.505859375
 40
0.5078125
 40
0.51171875
 40
0.515625
 40
0.5234375
 40
0.53125
 40
0.5390625
 40
0.546875
 40
0.55078125
 40
0.5546875
 40
0.556640625
 40
0.55859375
 40
0.560546875
 40
0.5615234375
 40
0.5620117188
 40
0.5625
 40
0.5629882812
 40
0.5634765625
 40
0.564453125
 40
0.56640625
 40
0.568359375
 40
0.5703125
 40
0.57421875
 40
0.578125
 40
0.5859375
 40
0.59375
 40
0.6015625
 40
0.609375
 40
0.61328125
 40
0.6171875
 40
0.619140625
 40
0.62109375
 40
0.623046875
 40
0.6240234375
 40
0.6245117188
 40
0.625
 40
0.6254882812
 40
0.6259765625
 40
0.626953125
 40
0.62890625
 40
0.630859375
 40
0.6328125
 40
0.63671875
 40
0.640625
 40
0.6484375
 40
0.65625
 40
0.6640625
 40
0.671875
 40
0.67578125
 40
0.6796875
 40
0.681640625
 40
0.68359375
 40
0.685546875
 40
0.6865234375
 40
0.6870117188
 40
0.6875
 40
0.6879882812
 40
0.6884765625
 40
0.689453125
 40
0.69140625
 40
0.693359375
 40
0.6953125
 40
0.69921875
 40
0.703125
 40
0.7109375
 40
0.71875
 40
0.7265625
 40
0.734375
 40
0.73828125
 40
0.7421875
 40
0.744140625
 40
0.74609375
 40
0.748046875
 40
0.7490234375
 40
0.7495117188
 40
0.75
 40
0.7504882812
 40
0.7509765625
 40
0.751953125
 40
0.75390625
 40
0.755859375
 40
0.7578125
 40
0.76171875
 40
0.765625
 40
0.7734375
 40
0.78125
 40
0.7890625
 40
0.796875
 40
0.80078125
 40
0.8046875
 40
0.806640625
 40
0.80859375
 40
0.810546875
 40
0.8115234375
 40
0.8120117188
 40
0.8125
 40
0.8129882812
 40
0.8134765625
 40
0.814453125
 40
0.81640625
 40
0.818359375
 40
0.8203125
 40
0.82421875
 40
0.828125
 40
0.8359375
 40
0.84375
 40
0.8515625
 40
0.859375
 40
0.86328125
 40
0.8671875
 40
0.869140625
 40
0.87109375
 40
0.873046875
 40
0.8740234375
 40
0.8745117188
 40
0.875
 40
0.8754882812
 40
0.8759765625
 40
0.876953125
 40
0.87890625
 40
0.880859375
 40
0.8828125
 40
0.88671875
 40
0.890625
 40
0.8984375
 40
0.90625
 40
0.9140625
 40
0.921875
 40
0.92578125
 40
0.9296875
 40
0.931640625
 40
0.93359375
 40
0.935546875
 40
0.9365234375
 40
0.9370117188
 40
0.9375
 40
0.9379882812
 40
0.9384765625
 40
0.939453125
 40
0.94140625
 40
0.943359375
 40
0.9453125
 40
0.94921875
 40
0.953125
 40
0.9609375
 40
0.96875
 40
0.9765625
 40
0.984375
 40
1.0
 40
1.0
 40
1.0
 40
1.0
 10
10.5484666837
 20
9.5619078189
 30
0.0
 10
10.5481907451
 20
9.5647411951
 30
0.0
 10
10.5477768373
 20
9.5689912595
 30
0.0
 10
10.5472249595
 20
9.5746580118
 30
0.0
 10
10.5468110533
 20
9.5789080764
 30
0.0
 10
10.5463971388
 20
9.5831581399
 30
0.0
 10
10.5460522361
 20
9.5866998628
 30
0.0
 10
10.5457762555
 20
9.5895332336
 30
0.0
 10
10.5456039007
 20
9.5913041075
 30
0.0
 10
10.5454657121
 20
9.5927207674
 30
0.0
 10
10.545362905
 20
9.5937833696
 30
0.0
 10
10.5452745781
 20
9.59466853
 30
0.0
 10
10.5452179585
 20
9.5952888125
 30
0.0
 10
10.5451774705
 20
9.5956422132
 30
0.0
 10
10.5451700179
 20
9.5959102116
 30
0.0
 10
10.5450749789
 20
9.5961669416
 30
0.0
 10
10.5449788113
 20
9.5965131788
 30
0.0
 10
10.5447962838
 20
9.5971172625
 30
0.0
 10
10.544542972
 20
9.5979811968
 30
0.0
 10
10.5442358125
 20
9.5990175081
 30
0.0
 10
10.543827379
 20
9.6003993996
 30
0.0
 10
10.5433164563
 20
9.602126715
 30
0.0
 10
10.5424991928
 20
9.604890447
 30
0.0
 10
10.54147754
 20
9.6083451025
 30
0.0
 10
10.5402515901
 20
9.6124906938
 30
0.0
 10
10.5390256239
 20
9.6166362814
 30
0.0
 10
10.5380040119
 20
9.6200909464
 30
0.0
 10
10.5371866668
 20
9.6228546594
 30
0.0
 10
10.5366759516
 20
9.6245820231
 30
0.0
 10
10.5362670922
 20
9.6259638155
 30
0.0
 10
10.5359612341
 20
9.6270004295
 30
0.0
 10
10.5357038505
 20
9.6278634168
 30
0.0
 10
10.5355285918
 20
9.628469191
 30
0.0
 10
10.5354207777
 20
9.6288127196
 30
0.0
 10
10.5353615129
 20
9.6290777695
 30
0.0
 10
10.5352196983
 20
9.6293145197
 30
0.0
 10
10.5350594065
 20
9.6296400579
 30
0.0
 10
10.53476548
 20
9.6302051504
 30
0.0
 10
10.534352599
 20
9.6310148301
 30
0.0
 10
10.5338541395
 20
9.6319854164
 30
0.0
 10
10.5331905755
 20
9.633279891
 30
0.0
 10
10.5323607614
 20
9.6348978612
 30
0.0
 10
10.5310332597
 20
9.6374866823
 30
0.0
 10
10.5293738131
 20
9.6407226849
 30
0.0
 10
10.5273825089
 20
9.6446058991
 30
0.0
 10
10.5253911891
 20
9.6484891069
 30
0.0
 10
10.5237317816
 20
9.6517251254
 30
0.0
 10
10.5224042018
 20
9.6543139147
 30
0.0
 10
10.5215745862
 20
9.6559319658
 30
0.0
 10
10.5209106148
 20
9.6572262743
 30
0.0
 10
10.5204133998
 20
9.6581973682
 30
0.0
 10
10.5199966251
 20
9.6590054598
 30
0.0
 10
10.5197096495
 20
9.6595733874
 30
0.0
 10
10.5195382206
 20
9.6598943832
 30
0.0
 10
10.5194306155
 20
9.660145086
 30
0.0
 10
10.5192428656
 20
9.6603577322
 30
0.0
 10
10.5190204879
 20
9.6606545351
 30
0.0
 10
10.5186183019
 20
9.6611677553
 30
0.0
 10
10.5180505601
 20
9.6619041605
 30
0.0
 10
10.5173663552
 20
9.6627864627
 30
0.0
 10
10.5164551
 20
9.6639633491
 30
0.0
 10
10.5153156825
 20
9.6654342915
 30
0.0
 10
10.5134928093
 20
9.667787892
 30
0.0
 10
10.5112141506
 20
9.6707298604
 30
0.0
 10
10.5084797904
 20
9.6742602379
 30
0.0
 10
10.5057454168
 20
9.6777906054
 30
0.0
 10
10.5034667914
 20
9.6807325988
 30
0.0
 10
10.5016438517
 20
9.6830861493
 30
0.0
 10
10.5005046034
 20
9.6845572186
 30
0.0
 10
10.4995930008
 20
9.6857338447
 30
0.0
 10
10.4989098572
 20
9.6866169419
 30
0.0
 10
10.498338795
 20
9.6873508597
 30
0.0
 10
10.4979425364
 20
9.6878685204
 30
0.0
 10
10.4977106614
 20
9.6881582085
 30
0.0
 10
10.4975520842
 20
9.6883927091
 30
0.0
 10
10.4973349116
 20
9.6885613305
 30
0.0
 10
10.4970657869
 20
9.6888091385
 30
0.0
 10
10.4965852959
 20
9.6892320959
 30
0.0
 10
10.4959038588
 20
9.6898419182
 30
0.0
 10
10.4950840033
 20
9.6905713091
 30
0.0
 10
10.493991607
 20
9.6915446672
 30
0.0
 10
10.4926258567
 20
9.6927610782
 30
0.0
 10
10.4904407987
 20
9.694707496
 30
0.0
 10
10.487709427
 20
9.697140463
 30
0.0
 10
10.4844318032
 20
9.7000600487
 30
0.0
 10
10.4811541691
 20
9.7029796214
 30
0.0
 10
10.4784228234
 20
9.7054126211
 30
0.0
 10
10.4762377134
 20
9.7073589734
 30
0.0
 10
10.4748720952
 20
9.7085755511
 30
0.0
 10
10.4737794278
 20
9.709548567
 30
0.0
 10
10.4729604004
 20
9.710279003
 30
0.0
 10
10.4722763723
 20
9.7108855555
 30
0.0
 10
10.4718005068
 20
9.7113143502
 30
0.0
 10
10.4715239709
 20
9.7115528053
 30
0.0
 10
10.4713295631
 20
9.7117501557
 30
0.0
 10
10.4710854854
 20
9.7118767549
 30
0.0
 10
10.4707773738
 20
9.7120702325
 30
0.0
 10
10.4702301064
 20
9.7123973201
 30
0.0
 10
10.4694525161
 20
9.7128705995
 30
0.0
 10
10.4685176012
 20
9.7134359618
 30
0.0
 10
10.4672716791
 20
9.7141906768
 30
0.0
 10
10.4657140604
 20
9.7151337629
 30
0.0
 10
10.4632219912
 20
9.7166428726
 30
0.0
 10
10.460106863
 20
9.7185292004
 30
0.0
 10
10.456368728
 20
9.720792821
 30
0.0
 10
10.4526305848
 20
9.7230564272
 30
0.0
 10
10.4495154769
 20
9.7249427911
 30
0.0
 10
10.4470233674
 20
9.7264518285
 30
0.0
 10
10.4454658511
 20
9.7273950985
 30
0.0
 10
10.4442197187
 20
9.728149436
 30
0.0
 10
10.4432854462
 20
9.7287159517
 30
0.0
 10
10.442505846
 20
9.7291856221
 30
0.0
 10
10.4419621666
 20
9.7295191525
 30
0.0
 10
10.4416483061
 20
9.7297023072
 30
0.0
 10
10.4414218872
 20
9.7298606152
 30
0.0
 10
10.4411611558
 20
9.7299388723
 30
0.0
 10
10.4408254825
 20
9.7300711377
 30
0.0
 10
10.4402324779
 20
9.7302895925
 30
0.0
 10
10.4393882438
 20
9.7306084724
 30
0.0
 10
10.438373915
 20
9.730988217
 30
0.0
 10
10.4370219125
 20
9.73149556
 30
0.0
 10
10.4353317601
 20
9.7321293906
 30
0.0
 10
10.4326275997
 20
9.7331437142
 30
0.0
 10
10.4292473704
 20
9.7344115513
 30
0.0
 10
10.4251911082
 20
9.7359329869
 30
0.0
 10
10.4211348403
 20
9.7374544065
 30
0.0
 10
10.4177546254
 20
9.7387222834
 30
0.0
 10
10.4150504362
 20
9.7397365274
 30
0.0
 10
10.4133603571
 20
9.7403705602
 30
0.0
 10
10.412008204
 20
9.7408774882
 30
0.0
 10
10.4109943353
 20
9.7412585008
 30
0.0
 10
10.4101486618
 20
9.7415734134
 30
0.0
 10
10.4095582267
 20
9.7417989505
 30
0.0
 10
10.4092184364
 20
9.7419198683
 30
0.0
 10
10.4089703512
 20
9.7420329817
 30
0.0
 10
10.4086964353
 20
9.7420603753
 30
0.0
 10
10.4083402241
 20
9.7421268002
 30
0.0
 10
10.4077126566
 20
9.7422291128
 30
0.0
 10
10.4068183263
 20
9.7423825569
 30
0.0
 10
10.4057441905
 20
9.7425635724
 30
0.0
 10
10.4043123376
 20
9.7428060152
 30
0.0
 10
10.4025224092
 20
9.7431086959
 30
0.0
 10
10.3996585865
 20
9.7435931934
 30
0.0
 10
10.3960787865
 20
9.7441987433
 30
0.0
 10
10.3917830356
 20
9.7449254362
 30
0.0
 10
10.387487283
 20
9.7456521121
 30
0.0
 10
10.3839074874
 20
9.7462577045
 30
0.0
 10
10.3810436561
 20
9.746742117
 30
0.0
 10
10.3792537494
 20
9.7470450138
 30
0.0
 10
10.3778218519
 20
9.747287013
 30
0.0
 10
10.3767478524
 20
9.7474693837
 30
0.0
 10
10.3758530959
 20
9.7476185878
 30
0.0
 10
10.3752262892
 20
9.7477284695
 30
0.0
 10
10.374868859
 20
9.7477827667
 30
0.0
 10
10.3745986873
 20
9.7478474128
 30
0.0
 10
10.3743365395
 20
9.7478206122
 30
0.0
 10
10.3739842103
 20
9.7478167758
 30
0.0
 10
10.3733689381
 20
9.7477952004
 30
0.0
 10
10.3724892962
 20
9.7477721481
 30
0.0
 10
10.3714340176
 20
9.7477411597
 30
0.0
 10
10.3700268776
 20
9.7477010035
 30
0.0
 10
10.3682679875
 20
9.7476504104
 30
0.0
 10
10.3654537439
 20
9.7475696839
 30
0.0
 10
10.3619359461
 20
9.7474686989
 30
0.0
 10
10.3577145854
 20
9.747347552
 30
0.0
 10
10.3534932271
 20
9.7472263877
 30
0.0
 10
10.3499754233
 20
9.747125446
 30
0.0
 10
10.3471611918
 20
9.747044633
 30
0.0
 10
10.3454022707
 20
9.7469942598
 30
0.0
 10
10.3439951943
 20
9.7469536522
 30
0.0
 10
10.3429397217
 20
9.7469240425
 30
0.0
 10
10.3420606868
 20
9.7468966768
 30
0.0
 10
10.3414443309
 20
9.7468828016
 30
0.0
 10
10.3410937381
 20
9.7468666274
 30
0.0
 10
10.3408262565
 20
9.7468777247
 30
0.0
 10
10.3405761175
 20
9.7468000329
 30
0.0
 10
10.3402365496
 20
9.7467274144
 30
0.0
 10
10.3396451241
 20
9.7465859023
 30
0.0
 10
10.3387987571
 20
9.7463912863
 30
0.0
 10
10.3377837474
 20
9.7461545179
 30
0.0
 10
10.3364301808
 20
9.7458399547
 30
0.0
 10
10.3347382981
 20
9.7454463644
 30
0.0
 10
10.3320312434
 20
9.7448168358
 30
0.0
 10
10.3286474398
 20
9.7440298506
 30
0.0
 10
10.3245868684
 20
9.7430855023
 30
0.0
 10
10.3205263019
 20
9.7421411373
 30
0.0
 10
10.3171424859
 20
9.7413541938
 30
0.0
 10
10.3144354559
 20
9.7407245818
 30
0.0
 10
10.3127435105
 20
9.7403312034
 30
0.0
 10
10.3113900726
 20
9.7400162053
 30
0.0
 10
10.3103746699
 20
9.7397807656
 30
0.0
 10
10.3095295323
 20
9.7395819925
 30
0.0
 10
10.3089359122
 20
9.7394479014
 30
0.0
 10
10.3085998606
 20
9.7393633927
 30
0.0
 10
10.3083389207
 20
9.7393222241
 30
0.0
 10
10.3081120054
 20
9.7391961461
 30
0.0
 10
10.3077975835
 20
9.7390576595
 30
0.0
 10
10.3072528748
 20
9.7388015087
 30
0.0
 10
10.3064718286
 20
9.7384427934
 30
0.0
 10
10.3055358105
 20
9.738009247
 30
0.0
 10
10.3042873542
 20
9.7374322637
 30
0.0
 10
10.3027269318
 20
9.7367106653
 30
0.0
 10
10.3002301733
 20
9.7355563144
 30
0.0
 10
10.2971092537
 20
9.7341133043
 30
0.0
 10
10.2933641369
 20
9.7323817249
 30
0.0
 10
10.2896190276
 20
9.7306501293
 30
0.0
 10
10.2864980894
 20
9.7292071596
 30
0.0
 10
10.2840013681
 20
9.7280527279
 30
0.0
 10
10.282440851
 20
9.7273313346
 30
0.0
 10
10.2811925891
 20
9.7267539305
 30
0.0
 10
10.2802559771
 20
9.7263216697
 30
0.0
 10
10.279476789
 20
9.7259589319
 30
0.0
 10
10.2789287633
 20
9.725709962
 30
0.0
 10
10.2786196561
 20
9.7255599698
 30
0.0
 10
10.2783764157
 20
9.7254692334
 30
0.0
 10
10.27817679
 20
9.7252953277
 30
0.0
 10
10.2778954091
 20
9.7250924637
 30
0.0
 10
10.2774100806
 20
9.7247239354
 30
0.0
 10
10.2767130484
 20
9.7242045329
 30
0.0
 10
10.2758781959
 20
9.7235782252
 30
0.0
 10
10.2747645053
 20
9.7227442048
 30
0.0
 10
10.2733725818
 20
9.7217013175
 30
0.0
 10
10.271145398
 20
9.7200329
 30
0.0
 10
10.2683614551
 20
9.7179473084
 30
0.0
 10
10.2650207061
 20
9.7154446299
 30
0.0
 10
10.2616799681
 20
9.7129419373
 30
0.0
 10
10.2588959979
 20
9.7108563809
 30
0.0
 10
10.2566688686
 20
9.7091878931
 30
0.0
 10
10.2552768065
 20
9.7081451846
 30
0.0
 10
10.2541634003
 20
9.7073107971
 30
0.0
 10
10.2533276792
 20
9.7066856109
 30
0.0
 10
10.2526333647
 20
9.7061626995
 30
0.0
 10
10.2521431846
 20
9.7058004351
 30
0.0
 10
10.2518695771
 20
9.7055875348
 30
0.0
 10
10.2516460739
 20
9.7054444576
 30
0.0
 10
10.2514925134
 20
9.7052379345
 30
0.0
 10
10.2512633693
 20
9.704984701
 30
0.0
 10
10.2508737341
 20
9.7045312313
 30
0.0
 10
10.2503111696
 20
9.7038888082
 30
0.0
 10
10.2496386359
 20
9.7031155931
 30
0.0
 10
10.2487410357
 20
9.7020854455
 30
0.0
 10
10.2476193398
 20
9.7007974851
 30
0.0
 10
10.2458244563
 20
9.6987369027
 30
0.0
 10
10.2435809106
 20
9.6961611214
 30
0.0
 10
10.2408886288
 20
9.693070208
 30
0.0
 10
10.2381963609
 20
9.6899792833
 30
0.0
 10
10.2359527806
 20
9.6874035304
 30
0.0
 10
10.2341579663
 20
9.6853428913
 30
0.0
 10
10.2330360945
 20
9.6840550751
 30
0.0
 10
10.2321388553
 20
9.6830246314
 30
0.0
 10
10.231465219
 20
9.6822523209
 30
0.0
 10
10.2309061041
 20
9.6816070675
 30
0.0
 10
10.2305103108
 20
9.6811586503
 30
0.0
 10
10.2302910335
 20
9.6808973214
 30
0.0
 10
10.2301071653
 20
9.6807156649
 30
0.0
 10
10.229997493
 20
9.680479193
 30
0.0
 10
10.2298253829
 20
9.6801830173
 30
0.0
 10
10.2295362485
 20
9.6796558014
 30
0.0
 10
10.2291168951
 20
9.6789072933
 30
0.0
 10
10.2286163695
 20
9.6780070901
 30
0.0
 10
10.2279480594
 20
9.6768075154
 30
0.0
 10
10.2271129946
 20
9.6753078086
 30
0.0
 10
10.2257767104
 20
9.6729084111
 30
0.0
 10
10.2241064176
 20
9.6699091181
 30
0.0
 10
10.2221020374
 20
9.6663099873
 30
0.0
 10
10.2200976723
 20
9.6627108473
 30
0.0
 10
10.2184273419
 20
9.6597115772
 30
0.0
 10
10.2170911329
 20
9.6573121341
 30
0.0
 10
10.216255877
 20
9.655812543
 30
0.0
 10
10.2155879591
 20
9.6546127308
 30
0.0
 10
10.2150862354
 20
9.6537132531
 30
0.0
 10
10.2146706305
 20
9.6529624751
 30
0.0
 10
10.2143748044
 20
9.6524393113
 30
0.0
 10
10.214213416
 20
9.6521366432
 30
0.0
 10
10.2140708102
 20
9.6519201141
 30
0.0
 10
10.2140106349
 20
9.6516635558
 30
0.0
 10
10.2139016485
 20
9.6513354408
 30
0.0
 10
10.2137243187
 20
9.650754734
 30
0.0
 10
10.2134639866
 20
9.649928554
 30
0.0
 10
10.2131545859
 20
9.6489356822
 30
0.0
 10
10.2127410046
 20
9.6476123617
 30
0.0
 10
10.2122243865
 20
9.6459580368
 30
0.0
 10
10.2113975971
 20
9.6433112145
 30
0.0
 10
10.2103641796
 20
9.6400026529
 30
0.0
 10
10.2091240469
 20
9.6360323943
 30
0.0
 10
10.2078839304
 20
9.6320621287
 30
0.0
 10
10.2068504721
 20
9.6287535844
 30
0.0
 10
10.2060237643
 20
9.6261067275
 30
0.0
 10
10.2055069389
 20
9.6244524904
 30
0.0
 10
10.2050937831
 20
9.6231289898
 30
0.0
 10
10.2047830825
 20
9.6221366682
 30
0.0
 10
10.2045268175
 20
9.6213087668
 30
0.0
 10
10.2043422272
 20
9.6207311331
 30
0.0
 10
10.204244874
 20
9.6203980942
 30
0.0
 10
10.2041489654
 20
9.6201566603
 30
0.0
 10
10.2041405679
 20
9.6198833266
 30
0.0
 10
10.2040988463
 20
9.6195300087
 30
0.0
 10
10.2040400557
 20
9.618906518
 30
0.0
 10
10.2039486336
 20
9.6180185275
 30
0.0
 10
10.2038421097
 20
9.6169517787
 30
0.0
 10
10.2036989662
 20
9.6155298522
 30
0.0
 10
10.2035204175
 20
9.6137523054
 30
0.0
 10
10.2032345268
 20
9.610908308
 30
0.0
 10
10.2028772364
 20
9.6073532846
 30
0.0
 10
10.2024484567
 20
9.6030872679
 30
0.0
 10
10.2020196853
 20
9.5988212482
 30
0.0
 10
10.2014479873
 20
9.593133223
 30
0.0
 10
10.2010192144
 20
9.5888672039
 30
0.0
 10
10.2007333656
 20
9.5860231912
 30
0.0
  0
ENDSEC
  0
SECTION
  2
OBJECTS
  0
DICTIONARY
  5
C
100
AcDbDictionary
280
0
281
1
  3
ACAD_GROUP
350
D
  3
ACAD_MLINESTYLE
350
17
  3
ACAD_LAYOUT
350
1A
  3
ACAD_PLOTSETTINGS
350
19
  3
ACAD_PLOTSTYLENAME
350
E
  3
ACAD_IMAGE_DICT
350
       370
  3
ACAD_IMAGE_VARS
350
       371
  3
ACAD_TABLESTYLE
350
       372
  0
IMAGEDEF_REACTOR
  5
36F
100
AcDbRasterImageDefReactor
 90
2
330
286
  0
DICTIONARY
  5
D
102
{ACAD_REACTORS
330
C
102
}
100
AcDbDictionary
280
0
281
1
  0
ACDBDICTIONARYWDFLT
  5
E
102
{ACAD_REACTORS
330
C
102
}
100
AcDbDictionary
281
1
  3
Normal
350
F
100
AcDbDictionaryWithDefault
340
F
  0
DICTIONARY
  5
370
330
C
100
AcDbDictionary
281
1
  3
YHV_assy_2_img_1
350
       375
  0
RASTERVARIABLES
  5
371
330
C
100
AcDbRasterVariables
 90
0
 70
0
 71
1
 72
5
  0
DICTIONARY
  5
17
102
{ACAD_REACTORS
330
C
102
}
100
AcDbDictionary
280
0
281
1
  3
Standard
350
18
  0
DICTIONARY
  5
372
330
C
100
AcDbDictionary
281
1
  3
Standard
350
       376
  3
Standard1
350
       377
  0
DICTIONARY
  5
19
102
{ACAD_REACTORS
330
C
102
}
100
AcDbDictionary
281
1
  0
DICTIONARY
  5
1A
102
{ACAD_REACTORS
330
C
102
}
100
AcDbDictionary
281
1
  3
Model
350
373
  3
Layout1
350
374
  0
ACDBPLACEHOLDER
  5
F
102
{ACAD_REACTORS
330
E
102
}
  0
MLINESTYLE
  5
18
102
{ACAD_REACTORS
330
17
102
}
100
AcDbMlineStyle
  2
STANDARD
 70
0
  3

 62
256
 51
90.0
 52
90.0
 71
2
 49
0.5
 62
256
  6
BYLAYER
 49
-0.5
 62
256
  6
BYLAYER
  0
LAYOUT
  5
373
102
{ACAD_REACTORS
330
1A
102
}
100
AcDbPlotSettings
  1

  2
none_device
  4
ANSI_C_(22.00_x_17.00_Inches)
  6

 40
0.0
 41
0.0
 42
0.0
 43
0.0
 44
558.8
 45
431.8
 46
0.0
 47
0.0
 48
0.0
 49
0.0
140
0.0
141
0.0
142
1.0
143
1.0
 70
1024
 72
0
 73
0
 74
0
  7

 75
0
147
1.0
148
0.0
149
0.0
100
AcDbLayout
  1
Model
 70
0
 71
0
 10
0.0
 20
0.0
 11
22.0
 21
17.0
 12
0.0
 22
0.0
 32
0.0
 14
0.0
 24
0.0
 34
0.0
 15
0.0
 25
0.0
 35
0.0
146
0.0
 13
0.0
 23
0.0
 33
0.0
 16
1.0
 26
0.0
 36
0.0
 17
0.0
 27
1.0
 37
0.0
 76
0
330
204
345
0
346
0
  0
LAYOUT
  5
374
102
{ACAD_REACTORS
330
1A
102
}
100
AcDbPlotSettings
  1

  2
none_device
  4
ANSI_C_(22.00_x_17.00_Inches)
  6

 40
0.0
 41
0.0
 42
0.0
 43
0.0
 44
558.8
 45
431.8
 46
0.0
 47
0.0
 48
0.0
 49
0.0
140
0.0
141
0.0
142
1.0
143
1.0
 70
0
 72
0
 73
0
 74
0
  7

 75
0
147
1.0
148
0.0
149
0.0
100
AcDbLayout
  1
Layout1
 70
0
 71
1
 10
0.0
 20
0.0
 11
22.0
 21
17.0
 12
0.0
 22
0.0
 32
0.0
 14
0.0
 24
0.0
 34
0.0
 15
0.0
 25
0.0
 35
0.0
146
0.0
 13
0.0
 23
0.0
 33
0.0
 16
1.0
 26
0.0
 36
0.0
 17
0.0
 27
1.0
 37
0.0
 76
0
330
205
345
0
346
0
  0
IMAGEDEF
  5
375
102
{ACAD_REACTORS
330
370
330
36F
102
}
100
AcDbRasterImageDef
 90
0
  1
YHV_assy_2_img_1.png
 10
369.0
 20
92.0
 11
0.0066666667
 21
0.0066666667
280
1
281
0
  0
TABLESTYLE
  5
376
102
{ACAD_REACTORS
330
372
330
289
330
28A
102
}
330
372
100
AcDbTableStyle
  3
Standard
 70
0
 71
0
 40
0.06
 41
0.06
280
1
281
1
  7
Standard
140
0.18
170
1
 62
0
 63
7
283
0
  7
Standard
140
0.18
170
1
 62
0
 63
7
283
0
  7
Standard
140
0.18
170
1
 62
0
 63
7
283
0
  0
TABLESTYLE
  5
377
102
{ACAD_REACTORS
330
372
330
288
102
}
330
372
100
AcDbTableStyle
  3
Standard1
 70
1
 71
0
 40
0.06
 41
0.06
280
1
281
1
  7
Standard
140
0.18
170
1
 62
0
 63
7
283
0
  7
Standard
140
0.18
170
1
 62
0
 63
7
283
0
  7
Standard
140
0.18
170
1
 62
0
 63
7
283
0
  0
ENDSEC
  0
EOF
