999
DXF file: YHL_assy_2.dxf
999
Pro/ENGINEER 2014200 by Parametric Technology Corporation
  0
SECTION
  2
HEADER
  9
$ACADVER
  1
AC1021
  9
$DWGCODEPAGE
  3
ANSI_1252
  9
$EXTMAX
 10
22.0
 20
17.0
 30
0.0
  9
$EXTMIN
 10
0.0
 20
0.0
 30
0.0
  9
$LIMMIN
 10
0.0
 20
0.0
  9
$LIMMAX
 10
22.0
 20
17.0
  9
$VIEWCTR
 10
11.0
 20
8.5
  9
$VIEWSIZE
 40
17.0
  9
$CLAYER
  8
0
  9
$LTSCALE
 40
1.21
  9
$CELTYPE
  6
BYLAYER
  9
$DIMSCALE
 40
1.0
  9
$DIMASZ
 40
0.1875
  9
$DIMEXO
 40
0.0625
  9
$DIMDLI
 40
0.836
  9
$DIMEXE
 40
0.125
  9
$DIMCEN
 40
0.198
  9
$DIMLFAC
 40
1.0
  9
$DIMBLK
  1
_FILLED
  9
$DIMTXT
 40
0.1
  9
$DIMTOL
 70
0
  9
$DIMLIM
 70
0
  9
$DIMTFAC
 40
1.0
  9
$DIMGAP
 40
0.09
  9
$DIMDSEP
 70
46
  9
$AUNITS
 70
0
  9
$PDMODE
 70
3
  9
$PDSIZE
 40
0.3125
  9
$HANDSEED
  5
39A
  9
$TILEMODE
 70
1
  9
$MEASUREMENT
 70
0
  9
$INSUNITS
 70
1
  0
ENDSEC
  0
SECTION
  2
CLASSES
  0
CLASS
  1
ACDBDICTIONARYWDFLT
  2
AcDbDictionaryWithDefault
  3
AutoCAD 2000
 90
0
 91
1
280
0
281
0
  0
CLASS
  1
ACDBPLACEHOLDER
  2
AcDbPlaceHolder
  3
AutoCAD 2000
 90
0
 91
1
280
0
281
0
  0
CLASS
  1
LAYOUT
  2
AcDbLayout
  3
AutoCAD 2000
 90
0
 91
0
280
0
281
0
  0
CLASS
  1
RASTERVARIABLES
  2
AcDbRasterVariables
  3
ISM
 90
0
 91
1
280
0
281
0
  0
CLASS
  1
IMAGEDEF
  2
AcDbRasterImageDef
  3
ISM
 90
0
 91
1
280
0
281
0
  0
CLASS
  1
IMAGEDEF_REACTOR
  2
AcDbRasterImageDefReactor
  3
ISM
 90
0
 91
1
280
0
281
0
  0
CLASS
  1
IMAGE
  2
AcDbRasterImage
  3
ISM
 90
127
 91
1
280
0
281
1
  0
CLASS
  1
TABLESTYLE
  2
AcDbTableStyle
  3
ObjectDBX Classes
 90
2047
 91
1
280
0
281
0
  0
CLASS
  1
ACAD_TABLE
  2
AcDbTable
  3
ObjectDBX Classes
 90
1025
 91
3
280
0
281
1
  0
ENDSEC
  0
SECTION
  2
TABLES
  0
TABLE
  2
VPORT
  5
8
100
AcDbSymbolTable
 70
2
  0
VPORT
  5
1F4
100
AcDbSymbolTableRecord
100
AcDbViewportTableRecord
  2
*ACTIVE
 70
0
 10
0.0
 20
0.0
 11
1.0
 21
1.0
 12
11.0
 22
8.5
 13
0.0
 23
0.0
 14
1.0
 24
1.0
 15
0.0
 25
0.0
 16
0.0
 26
0.0
 36
1.0
 17
0.0
 27
0.0
 37
0.0
 40
17.0
 41
1.2941176471
 42
50.0
 43
0.0
 44
0.0
 50
0.0
 51
0.0
 71
0
 72
100
 73
1
 74
1
 75
0
 76
0
 77
0
 78
0
  0
ENDTAB
  0
TABLE
  2
LTYPE
  5
5
100
AcDbSymbolTable
 70
6
  0
LTYPE
  5
14
100
AcDbSymbolTableRecord
100
AcDbLinetypeTableRecord
  2
BYBLOCK
 70
0
  3

 72
65
 73
0
 40
0.0
  0
LTYPE
  5
15
100
AcDbSymbolTableRecord
100
AcDbLinetypeTableRecord
  2
BYLAYER
 70
0
  3

 72
65
 73
0
 40
0.0
  0
LTYPE
  5
16
100
AcDbSymbolTableRecord
100
AcDbLinetypeTableRecord
  2
CONTINUOUS
 70
64
  3
Solid line
 72
65
 73
0
 40
0.0
  0
LTYPE
  5
1F5
100
AcDbSymbolTableRecord
100
AcDbLinetypeTableRecord
  2
CENTER
 70
64
  3
____ _ ____ _ ____ _ ____ _ ____ _ ____ _ ____
 72
65
 73
4
 40
0.6
 49
0.375
 74
0
 49
-0.075
 74
0
 49
0.075
 74
0
 49
-0.075
 74
0
  0
LTYPE
  5
1F6
100
AcDbSymbolTableRecord
100
AcDbLinetypeTableRecord
  2
HIDDEN
 70
64
  3
- - - - - - - - - - - - - - - - - - - -
 72
65
 73
2
 40
0.2
 49
0.1
 74
0
 49
-0.1
 74
0
  0
LTYPE
  5
1F7
100
AcDbSymbolTableRecord
100
AcDbLinetypeTableRecord
  2
PHANTOM
 70
64
  3
_____ _ _ _____ _ _ _____ _ _ _____
 72
65
 73
6
 40
0.8
 49
0.45
 74
0
 49
-0.05
 74
0
 49
0.1
 74
0
 49
-0.05
 74
0
 49
0.1
 74
0
 49
-0.05
 74
0
  0
LTYPE
  5
1F8
100
AcDbSymbolTableRecord
100
AcDbLinetypeTableRecord
  2
DOT
 70
64
  3
. . . . . . . . . . . . . . . . . . . .
 72
65
 73
2
 40
0.2
 49
0.1
 74
0
 49
-0.1
 74
0
  0
LTYPE
  5
1F9
100
AcDbSymbolTableRecord
100
AcDbLinetypeTableRecord
  2
DASHED
 70
64
  3
- - - - - - - - - - - - - - - - - - - -
 72
65
 73
2
 40
0.2
 49
0.1
 74
0
 49
-0.1
 74
0
  0
ENDTAB
  0
TABLE
  2
LAYER
  5
2
100
AcDbSymbolTable
 70
36
  0
LAYER
  5
10
100
AcDbSymbolTableRecord
100
AcDbLayerTableRecord
  2
0
 70
0
 62
7
  6
CONTINUOUS
370
-3
390
F
  0
LAYER
  5
1FA
100
AcDbSymbolTableRecord
100
AcDbLayerTableRecord
  2
DEFAULT_1
 70
0
 62
7
  6
CENTER
370
-3
390
F
  0
LAYER
  5
1FB
100
AcDbSymbolTableRecord
100
AcDbLayerTableRecord
  2
DEFAULT_2
 70
0
 62
8
  6
HIDDEN
370
-3
390
F
  0
LAYER
  5
1FC
100
AcDbSymbolTableRecord
100
AcDbLayerTableRecord
  2
DEFAULT_3
 70
0
 62
7
  6
PHANTOM
370
-3
390
F
  0
LAYER
  5
1FD
100
AcDbSymbolTableRecord
100
AcDbLayerTableRecord
  2
DATUM_PLANES
 70
0
 62
7
  6
CONTINUOUS
370
-3
390
F
  0
LAYER
  5
1FE
100
AcDbSymbolTableRecord
100
AcDbLayerTableRecord
  2
PORT_AREAS
 70
0
 62
7
  6
CONTINUOUS
370
-3
390
F
  0
LAYER
  5
1FF
100
AcDbSymbolTableRecord
100
AcDbLayerTableRecord
  2
SUNNBOMCOSMETIC
 70
0
 62
7
  6
CONTINUOUS
370
-3
390
F
  0
LAYER
  5
200
100
AcDbSymbolTableRecord
100
AcDbLayerTableRecord
  2
SUNNBOMSTAMPING
 70
0
 62
7
  6
CONTINUOUS
370
-3
390
F
  0
LAYER
  5
201
100
AcDbSymbolTableRecord
100
AcDbLayerTableRecord
  2
THREADS
 70
0
 62
7
  6
CONTINUOUS
370
-3
390
F
  0
ENDTAB
  0
TABLE
  2
STYLE
  5
3
100
AcDbSymbolTable
 70
1
  0
STYLE
  5
11
100
AcDbSymbolTableRecord
100
AcDbTextStyleTableRecord
  2
STANDARD
 70
0
 40
0.0
 41
0.8
 50
0.0
 71
0
 42
0.2
  3
txt
  4

  0
STYLE
  5
202
100
AcDbSymbolTableRecord
100
AcDbTextStyleTableRecord
  2
TEXTSTYLE_1
 70
0
 40
0.0
 41
0.8
 50
0.0
 71
0
 42
0.2
  3
gdt
  4

  0
ENDTAB
  0
TABLE
  2
VIEW
  5
6
100
AcDbSymbolTable
 70
0
  0
ENDTAB
  0
TABLE
  2
UCS
  5
7
100
AcDbSymbolTable
 70
0
  0
ENDTAB
  0
TABLE
  2
APPID
  5
9
100
AcDbSymbolTable
 70
1
  0
APPID
  5
203
100
AcDbSymbolTableRecord
100
AcDbRegAppTableRecord
  2
ACAD
 70
0
  0
ENDTAB
  0
TABLE
  2
BLOCK_RECORD
  5
1
100
AcDbSymbolTable
 70
0
  0
BLOCK_RECORD
  5
204
100
AcDbSymbolTableRecord
100
AcDbBlockTableRecord
  2
*Model_Space
  0
BLOCK_RECORD
  5
205
100
AcDbSymbolTableRecord
100
AcDbBlockTableRecord
  2
*Paper_Space
  0
BLOCK_RECORD
  5
206
100
AcDbSymbolTableRecord
100
AcDbBlockTableRecord
  2
SUN_FIRST_THIRD_ANGLE_BL0
  0
BLOCK_RECORD
  5
207
100
AcDbSymbolTableRecord
100
AcDbBlockTableRecord
  2
*T1
  0
BLOCK_RECORD
  5
208
100
AcDbSymbolTableRecord
100
AcDbBlockTableRecord
  2
*T2
  0
BLOCK_RECORD
  5
209
100
AcDbSymbolTableRecord
100
AcDbBlockTableRecord
  2
*T3
  0
ENDTAB
  0
TABLE
  2
DIMSTYLE
  5
A
100
AcDbSymbolTable
 70
1
100
AcDbDimStyleTable
 71
0
  0
DIMSTYLE
105
20A
100
AcDbSymbolTableRecord
100
AcDbDimStyleTableRecord
  2
STANDARD
 70
0
  3

  4

 40
1.0
 41
0.1875
 42
0.0625
 43
0.38
 44
0.125
 45
0.0
 46
0.0
 47
0.001
 48
0.001
140
0.1
141
0.09
142
0.0
143
25.4
144
1.0
145
0.0
146
1.0
147
0.09
 71
0.0
 72
0.0
 73
1
 74
1
 75
0
 76
0
 77
0
 78
4
170
0
171
2
172
0
173
0
174
0
175
0
176
0
177
0
178
0
270
2
271
3
272
3
273
2
274
2
275
0
280
0
281
0
282
0
283
1
284
4
285
0
286
0
287
3
288
0
340
11
278
46
  0
ENDTAB
  0
ENDSEC
  0
SECTION
  2
BLOCKS
  0
BLOCK
  5
20
100
AcDbEntity
  8
0
100
AcDbBlockBegin
  2
*Model_Space
 70
0
 10
0.0
 20
0.0
 30
0.0
  3
*Model_Space
  1

  0
ENDBLK
  5
21
100
AcDbEntity
  8
0
100
AcDbBlockEnd
  0
BLOCK
  5
1C
100
AcDbEntity
  8
0
100
AcDbBlockBegin
  2
*Paper_Space
 70
0
 10
0.0
 20
0.0
 30
0.0
  3
*Paper_Space
  1

  0
ENDBLK
  5
1D
100
AcDbEntity
  8
0
100
AcDbBlockEnd
  0
BLOCK
  5
20B
100
AcDbEntity
  8
0
100
AcDbBlockBegin
 62
2
  6
CONTINUOUS
  2
SUN_FIRST_THIRD_ANGLE_BL0
 70
64
 10
20.4816717061
 20
1.2289683772
  3
SUN_FIRST_THIRD_ANGLE_BL0
  1

  0
TEXT
  5
20C
100
AcDbEntity
  8
0
100
AcDbText
 62
2
  6
CONTINUOUS
 10
19.4750896608
 20
1.4136269581
  7
STANDARD
 40
0.08
  1
FIRST ANGLE
 41
0.8
 72
0
100
AcDbText
  0
TEXT
  5
20D
100
AcDbEntity
  8
0
100
AcDbText
 62
2
  6
CONTINUOUS
 10
20.7842537513
 20
1.4047600029
  7
STANDARD
 40
0.08
  1
THIRD ANGLE
 41
0.8
 72
0
100
AcDbText
  0
LINE
  5
20E
100
AcDbEntity
  8
0
100
AcDbLine
 62
7
  6
CONTINUOUS
 10
19.4767170086
 20
1.1727031207
 11
19.6334271527
 21
1.1717972817
  0
LINE
  5
20F
100
AcDbEntity
  8
0
100
AcDbLine
 62
7
  6
CONTINUOUS
 10
19.6596964832
 20
1.1717972817
 11
19.6950230232
 21
1.171593082
  0
LINE
  5
210
100
AcDbEntity
  8
0
100
AcDbLine
 62
7
  6
CONTINUOUS
 10
19.7194818561
 20
1.1708914427
 11
19.8852396156
 21
1.1699333054
  0
LINE
  5
211
100
AcDbEntity
  8
0
100
AcDbLine
 62
7
  6
CONTINUOUS
 10
19.4758111696
 20
1.2723454088
 11
19.88525039
 21
1.3511534004
  0
LINE
  5
212
100
AcDbEntity
  8
0
100
AcDbLine
 62
7
  6
CONTINUOUS
 10
19.88525039
 20
1.3511534004
 11
19.8831348489
 21
0.9851647912
  0
LINE
  5
213
100
AcDbEntity
  8
0
100
AcDbLine
 62
7
  6
CONTINUOUS
 10
19.8831348489
 20
0.9851647912
 11
19.4767170086
 21
1.0658141206
  0
LINE
  5
214
100
AcDbEntity
  8
0
100
AcDbLine
 62
7
  6
CONTINUOUS
 10
19.4767170086
 20
1.0658141206
 11
19.4779056764
 21
1.2714536432
  0
CIRCLE
  5
215
100
AcDbEntity
  8
0
100
AcDbCircle
 62
7
  6
CONTINUOUS
 10
20.2068232291
 20
1.1717972817
 40
0.175742101
  0
CIRCLE
  5
216
100
AcDbEntity
  8
0
100
AcDbCircle
 62
7
  6
CONTINUOUS
 10
20.2068232291
 20
1.1717972817
 40
0.1005522074
  0
LINE
  5
217
100
AcDbEntity
  8
0
100
AcDbLine
 62
7
  6
CONTINUOUS
 10
20.2077290681
 20
1.3756110529
 11
20.2071171714
 21
1.2379342989
  0
LINE
  5
218
100
AcDbEntity
  8
0
100
AcDbLine
 62
7
  6
CONTINUOUS
 10
20.2077290681
 20
1.2016899681
 11
20.2074674401
 21
1.1428236749
  0
LINE
  5
219
100
AcDbEntity
  8
0
100
AcDbLine
 62
7
  6
CONTINUOUS
 10
20.208634907
 20
1.101141841
 11
20.2080230104
 21
0.963465087
  0
LINE
  5
21A
100
AcDbEntity
  8
0
100
AcDbLine
 62
7
  6
CONTINUOUS
 10
20.0066328138
 20
1.1745147986
 11
20.1443095678
 21
1.1739029019
  0
LINE
  5
21B
100
AcDbEntity
  8
0
100
AcDbLine
 62
7
  6
CONTINUOUS
 10
20.1832714155
 20
1.1727031207
 11
20.238153505
 21
1.172335442
  0
LINE
  5
21C
100
AcDbEntity
  8
0
100
AcDbLine
 62
7
  6
CONTINUOUS
 10
20.2756669918
 20
1.1717972817
 11
20.407916871
 21
1.1712095044
  0
CIRCLE
  5
21D
100
AcDbEntity
  8
0
100
AcDbCircle
 62
7
  6
CONTINUOUS
 10
20.7509457401
 20
1.1693297793
 40
0.1722024983
  0
CIRCLE
  5
21E
100
AcDbEntity
  8
0
100
AcDbCircle
 62
7
  6
CONTINUOUS
 10
20.7509457401
 20
1.1693297793
 40
0.0985164967
  0
LINE
  5
21F
100
AcDbEntity
  8
0
100
AcDbLine
 62
7
  6
CONTINUOUS
 10
20.7169767782
 20
1.170462078
 11
20.7825395137
 21
1.1682766535
  0
LINE
  5
220
100
AcDbEntity
  8
0
100
AcDbLine
 62
7
  6
CONTINUOUS
 10
20.8177513651
 20
1.1693297793
 11
20.947965719
 21
1.1693297793
  0
LINE
  5
221
100
AcDbEntity
  8
0
100
AcDbLine
 62
7
  6
CONTINUOUS
 10
20.6875370113
 20
1.170462078
 11
20.5573226574
 21
1.170462078
  0
LINE
  5
222
100
AcDbEntity
  8
0
100
AcDbLine
 62
7
  6
CONTINUOUS
 10
20.7486811426
 20
1.1987695462
 11
20.7486811426
 21
1.1432869085
  0
LINE
  5
223
100
AcDbEntity
  8
0
100
AcDbLine
 62
7
  6
CONTINUOUS
 10
20.7498134414
 20
1.1059210505
 11
20.7498134414
 21
0.9757066966
  0
LINE
  5
224
100
AcDbEntity
  8
0
100
AcDbLine
 62
7
  6
CONTINUOUS
 10
20.7486811426
 20
1.2338708068
 11
20.7486811426
 21
1.3640851607
  0
LINE
  5
225
100
AcDbEntity
  8
0
100
AcDbLine
 62
7
  6
CONTINUOUS
 10
21.0702539817
 20
1.2701043662
 11
21.4790138229
 21
1.3448360823
  0
LINE
  5
226
100
AcDbEntity
  8
0
100
AcDbLine
 62
7
  6
CONTINUOUS
 10
21.4790138229
 20
1.3448360823
 11
21.4790138229
 21
0.9779712941
  0
LINE
  5
227
100
AcDbEntity
  8
0
100
AcDbLine
 62
7
  6
CONTINUOUS
 10
21.4790138229
 20
0.9779712941
 11
21.069121683
 21
1.0617614
  0
LINE
  5
228
100
AcDbEntity
  8
0
100
AcDbLine
 62
7
  6
CONTINUOUS
 10
21.0702539817
 20
1.2701043662
 11
21.069121683
 21
1.0617614
  0
LINE
  5
229
100
AcDbEntity
  8
0
100
AcDbLine
 62
7
  6
CONTINUOUS
 10
21.4790138229
 20
1.1693297793
 11
21.3159628059
 21
1.1693297793
  0
LINE
  5
22A
100
AcDbEntity
  8
0
100
AcDbLine
 62
7
  6
CONTINUOUS
 10
21.2876553377
 20
1.1693297793
 11
21.2502894796
 21
1.1693297793
  0
LINE
  5
22B
100
AcDbEntity
  8
0
100
AcDbLine
 62
7
  6
CONTINUOUS
 10
21.2208497126
 20
1.1659328831
 11
21.0713862804
 21
1.1659328831
  0
LINE
  5
22C
100
AcDbEntity
  8
0
100
AcDbLine
 62
7
  6
CONTINUOUS
 10
20.4796138713
 20
1.5284908897
 11
20.4766766948
 21
0.9294458646
  0
ENDBLK
  5
22D
100
AcDbEntity
  8
0
  6
BYBLOCK
 62
0
100
AcDbBlockEnd
  0
BLOCK
  5
22E
100
AcDbEntity
  8
0
100
AcDbBlockBegin
  2
*T1
 70
1
 10
0.0
 20
0.0
  3
*T1
  1

  0
LINE
  5
22F
100
AcDbEntity
  8
0
100
AcDbLine
 62
2
  6
CONTINUOUS
 10
9.275
 20
0.0
 11
-0.0
 21
0.0
  0
LINE
  5
230
100
AcDbEntity
  8
0
100
AcDbLine
 62
2
  6
CONTINUOUS
 10
9.275
 20
0.0
 11
9.275
 21
1.25
  0
LINE
  5
231
100
AcDbEntity
  8
0
100
AcDbLine
 62
2
  6
CONTINUOUS
 10
9.275
 20
0.625
 11
-0.0
 21
0.625
  0
LINE
  5
232
100
AcDbEntity
  8
0
100
AcDbLine
 62
2
  6
CONTINUOUS
 10
9.275
 20
1.25
 11
-0.0
 21
1.25
  0
LINE
  5
233
100
AcDbEntity
  8
0
100
AcDbLine
 62
2
  6
CONTINUOUS
 10
6.8
 20
0.0
 11
6.8
 21
1.25
  0
LINE
  5
234
100
AcDbEntity
  8
0
100
AcDbLine
 62
2
  6
CONTINUOUS
 10
6.4
 20
0.0
 11
6.4
 21
0.625
  0
LINE
  5
235
100
AcDbEntity
  8
0
100
AcDbLine
 62
2
  6
CONTINUOUS
 10
5.9
 20
0.0
 11
5.9
 21
0.625
  0
LINE
  5
236
100
AcDbEntity
  8
0
100
AcDbLine
 62
2
  6
CONTINUOUS
 10
5.2
 20
0.0
 11
5.2
 21
0.625
  0
LINE
  5
237
100
AcDbEntity
  8
0
100
AcDbLine
 62
2
  6
CONTINUOUS
 10
4.1
 20
0.0
 11
4.1
 21
1.25
  0
LINE
  5
238
100
AcDbEntity
  8
0
100
AcDbLine
 62
2
  6
CONTINUOUS
 10
-0.0
 20
0.0
 11
-0.0
 21
1.25
  0
MTEXT
  5
239
100
AcDbEntity
  8
0
100
AcDbMText
 62
2
  6
CONTINUOUS
  7
STANDARD
 71
2
 72
1
 10
6.6
 20
0.325
 30
0.0
 11
1.0
 21
0.0
 31
0.0
 44
0.9
  1
2
 40
0.125
 41
0.2
  0
MTEXT
  5
23A
100
AcDbEntity
  8
0
100
AcDbMText
 62
2
  6
CONTINUOUS
  7
STANDARD
 71
2
 72
1
 10
6.15
 20
0.325
 30
0.0
 11
1.0
 21
0.0
 31
0.0
 44
0.9
  1
C
 40
0.125
 41
0.2
  0
MTEXT
  5
23B
100
AcDbEntity
  8
0
100
AcDbMText
 62
2
  6
CONTINUOUS
  7
STANDARD
 71
2
 72
1
 10
5.55
 20
0.325
 30
0.0
 11
1.0
 21
0.0
 31
0.0
 44
0.9
  1
1.000
 40
0.125
 41
1.0
  0
MTEXT
  5
23C
100
AcDbEntity
  8
0
100
AcDbMText
 62
2
  6
CONTINUOUS
  7
STANDARD
 71
2
 72
1
 10
4.65
 20
0.325
 30
0.0
 11
1.0
 21
0.0
 31
0.0
 44
0.9
  1
May-29-24
 40
0.125
 41
1.8
  0
MTEXT
  5
23D
100
AcDbEntity
  8
0
100
AcDbMText
 62
2
  6
CONTINUOUS
  7
STANDARD
 71
2
 72
1
 10
2.05
 20
0.4625
 30
0.0
 11
1.0
 21
0.0
 31
0.0
 44
0.9
  1
T-2A Line mount\PCross pilot with shuttle
 40
0.125
 41
4.8
  0
MTEXT
  5
23E
100
AcDbEntity
  8
0
100
AcDbMText
 62
2
  6
CONTINUOUS
  7
STANDARD
 71
1
 72
1
 10
6.45
 20
0.5625
 30
0.0
 11
1.0
 21
0.0
 31
0.0
 44
0.9
  1
SHEET
 40
0.06
 41
0.48
  0
MTEXT
  5
23F
100
AcDbEntity
  8
0
100
AcDbMText
 62
2
  6
CONTINUOUS
  7
STANDARD
 71
1
 72
1
 10
5.95
 20
0.5625
 30
0.0
 11
1.0
 21
0.0
 31
0.0
 44
0.9
  1
DWG SIZE
 40
0.06
 41
0.768
  0
MTEXT
  5
240
100
AcDbEntity
  8
0
100
AcDbMText
 62
2
  6
CONTINUOUS
  7
STANDARD
 71
1
 72
1
 10
5.25
 20
0.5625
 30
0.0
 11
1.0
 21
0.0
 31
0.0
 44
0.9
  1
SCALE
 40
0.06
 41
0.48
  0
MTEXT
  5
241
100
AcDbEntity
  8
0
100
AcDbMText
 62
2
  6
CONTINUOUS
  7
STANDARD
 71
1
 72
1
 10
4.15
 20
0.5625
 30
0.0
 11
1.0
 21
0.0
 31
0.0
 44
0.9
  1
DATE
 40
0.06
 41
0.384
  0
MTEXT
  5
242
100
AcDbEntity
  8
0
100
AcDbMText
 62
2
  6
CONTINUOUS
  7
STANDARD
 71
1
 72
1
 10
0.05
 20
0.5625
 30
0.0
 11
1.0
 21
0.0
 31
0.0
 44
0.9
  1
DESCRIPTION
 40
0.06
 41
1.056
  0
MTEXT
  5
243
100
AcDbEntity
  8
0
100
AcDbMText
 62
2
  6
CONTINUOUS
  7
STANDARD
 71
2
 72
1
 10
5.45
 20
1.0375
 30
0.0
 11
1.0
 21
0.0
 31
0.0
 44
0.9
  1
ALL DIMENSIONS IN INCH\PVIEWS ARE THIRD ANGLE
 40
0.12
 41
4.224
  0
MTEXT
  5
244
100
AcDbEntity
  8
0
100
AcDbMText
 62
2
  6
CONTINUOUS
  7
STANDARD
 71
2
 72
1
 10
2.05
 20
0.95
 30
0.0
 11
1.0
 21
0.0
 31
0.0
 44
0.9
  1
YHL
 40
0.125
 41
0.6
  0
MTEXT
  5
245
100
AcDbEntity
  8
0
100
AcDbMText
 62
2
  6
CONTINUOUS
  7
STANDARD
 71
1
 72
1
 10
0.05
 20
1.1875
 30
0.0
 11
1.0
 21
0.0
 31
0.0
 44
0.9
  1
MODEL
 40
0.06
 41
0.48
  0
ENDBLK
  5
246
100
AcDbEntity
  8
0
  6
BYBLOCK
 62
0
100
AcDbBlockEnd
  0
BLOCK
  5
247
100
AcDbEntity
  8
0
100
AcDbBlockBegin
  2
*T2
 70
1
 10
0.0
 20
0.0
  3
*T2
  1

  0
LINE
  5
248
100
AcDbEntity
  8
0
100
AcDbLine
 62
2
  6
CONTINUOUS
 10
0.0
 20
0.0
 11
9.055
 21
0.0
  0
LINE
  5
249
100
AcDbEntity
  8
0
100
AcDbLine
 62
2
  6
CONTINUOUS
 10
0.0
 20
0.0
 11
0.0
 21
-2.844
  0
LINE
  5
24A
100
AcDbEntity
  8
0
100
AcDbLine
 62
2
  6
CONTINUOUS
 10
0.0
 20
-0.344
 11
9.055
 21
-0.344
  0
LINE
  5
24B
100
AcDbEntity
  8
0
100
AcDbLine
 62
2
  6
CONTINUOUS
 10
0.0
 20
-0.594
 11
9.055
 21
-0.594
  0
LINE
  5
24C
100
AcDbEntity
  8
0
100
AcDbLine
 62
2
  6
CONTINUOUS
 10
0.0
 20
-0.844
 11
9.055
 21
-0.844
  0
LINE
  5
24D
100
AcDbEntity
  8
0
100
AcDbLine
 62
2
  6
CONTINUOUS
 10
0.0
 20
-1.094
 11
9.055
 21
-1.094
  0
LINE
  5
24E
100
AcDbEntity
  8
0
100
AcDbLine
 62
2
  6
CONTINUOUS
 10
0.0
 20
-1.344
 11
9.055
 21
-1.344
  0
LINE
  5
24F
100
AcDbEntity
  8
0
100
AcDbLine
 62
2
  6
CONTINUOUS
 10
0.0
 20
-1.594
 11
9.055
 21
-1.594
  0
LINE
  5
250
100
AcDbEntity
  8
0
100
AcDbLine
 62
2
  6
CONTINUOUS
 10
0.0
 20
-1.844
 11
9.055
 21
-1.844
  0
LINE
  5
251
100
AcDbEntity
  8
0
100
AcDbLine
 62
2
  6
CONTINUOUS
 10
0.0
 20
-2.094
 11
9.055
 21
-2.094
  0
LINE
  5
252
100
AcDbEntity
  8
0
100
AcDbLine
 62
2
  6
CONTINUOUS
 10
0.0
 20
-2.344
 11
9.055
 21
-2.344
  0
LINE
  5
253
100
AcDbEntity
  8
0
100
AcDbLine
 62
2
  6
CONTINUOUS
 10
0.0
 20
-2.594
 11
9.055
 21
-2.594
  0
LINE
  5
254
100
AcDbEntity
  8
0
100
AcDbLine
 62
2
  6
CONTINUOUS
 10
0.0
 20
-2.844
 11
9.055
 21
-2.844
  0
LINE
  5
255
100
AcDbEntity
  8
0
100
AcDbLine
 62
2
  6
CONTINUOUS
 10
3.055
 20
0.0
 11
3.055
 21
-2.844
  0
LINE
  5
256
100
AcDbEntity
  8
0
100
AcDbLine
 62
2
  6
CONTINUOUS
 10
9.055
 20
0.0
 11
9.055
 21
-2.844
  0
MTEXT
  5
257
100
AcDbEntity
  8
0
100
AcDbMText
 62
2
  6
CONTINUOUS
  7
STANDARD
 71
2
 72
1
 10
1.5275
 20
-0.0995
 30
0.0
 11
1.0
 21
0.0
 31
0.0
 44
0.9
  1
Technical Data
 40
0.145
 41
3.248
  0
MTEXT
  5
258
100
AcDbEntity
  8
0
100
AcDbMText
 62
2
  6
CONTINUOUS
  7
STANDARD
 71
2
 72
1
 10
4.555
 20
-0.0995
 30
0.0
 11
1.0
 21
0.0
 31
0.0
 44
0.9
  1
U.S. Units
 40
0.145
 41
2.32
  0
MTEXT
  5
259
100
AcDbEntity
  8
0
100
AcDbMText
 62
2
  6
CONTINUOUS
  7
STANDARD
 71
2
 72
1
 10
7.555
 20
-0.0995
 30
0.0
 11
1.0
 21
0.0
 31
0.0
 44
0.9
  1
Metric Units
 40
0.145
 41
2.784
  0
MTEXT
  5
25A
100
AcDbEntity
  8
0
100
AcDbMText
 62
2
  6
CONTINUOUS
  7
STANDARD
 71
2
 72
1
 10
1.5275
 20
-0.4065
 30
0.0
 11
1.0
 21
0.0
 31
0.0
 44
0.9
  1
Cavity
 40
0.125
 41
1.2
  0
MTEXT
  5
25B
100
AcDbEntity
  8
0
100
AcDbMText
 62
2
  6
CONTINUOUS
  7
STANDARD
 71
2
 72
1
 10
6.055
 20
-0.4065
 30
0.0
 11
1.0
 21
0.0
 31
0.0
 44
0.9
  1
T-2A
 40
0.125
 41
0.8
  0
MTEXT
  5
25C
100
AcDbEntity
  8
0
100
AcDbMText
 62
2
  6
CONTINUOUS
  7
STANDARD
 71
2
 72
1
 10
1.5275
 20
-0.6565
 30
0.0
 11
1.0
 21
0.0
 31
0.0
 44
0.9
  1
Body Features
 40
0.125
 41
2.6
  0
MTEXT
  5
25D
100
AcDbEntity
  8
0
100
AcDbMText
 62
2
  6
CONTINUOUS
  7
STANDARD
 71
2
 72
1
 10
6.055
 20
-0.6565
 30
0.0
 11
1.0
 21
0.0
 31
0.0
 44
0.9
  1
Cross pilot with shuttle
 40
0.125
 41
4.8
  0
MTEXT
  5
25E
100
AcDbEntity
  8
0
100
AcDbMText
 62
2
  6
CONTINUOUS
  7
STANDARD
 71
2
 72
1
 10
1.5275
 20
-0.9065
 30
0.0
 11
1.0
 21
0.0
 31
0.0
 44
0.9
  1
Body Type
 40
0.125
 41
1.8
  0
MTEXT
  5
25F
100
AcDbEntity
  8
0
100
AcDbMText
 62
2
  6
CONTINUOUS
  7
STANDARD
 71
2
 72
1
 10
6.055
 20
-0.9065
 30
0.0
 11
1.0
 21
0.0
 31
0.0
 44
0.9
  1
Line mount
 40
0.125
 41
2.0
  0
MTEXT
  5
260
100
AcDbEntity
  8
0
100
AcDbMText
 62
2
  6
CONTINUOUS
  7
STANDARD
 71
2
 72
1
 10
1.5275
 20
-1.1565
 30
0.0
 11
1.0
 21
0.0
 31
0.0
 44
0.9
  1
Interface
 40
0.125
 41
1.8
  0
MTEXT
  5
261
100
AcDbEntity
  8
0
100
AcDbMText
 62
2
  6
CONTINUOUS
  7
STANDARD
 71
2
 72
1
 10
6.055
 20
-1.1565
 30
0.0
 11
1.0
 21
0.0
 31
0.0
 44
0.9
  1
None
 40
0.125
 41
0.8
  0
MTEXT
  5
262
100
AcDbEntity
  8
0
100
AcDbMText
 62
2
  6
CONTINUOUS
  7
STANDARD
 71
2
 72
1
 10
1.5275
 20
-1.4065
 30
0.0
 11
1.0
 21
0.0
 31
0.0
 44
0.9
  1
Open Cavity Quantity
 40
0.125
 41
4.0
  0
MTEXT
  5
263
100
AcDbEntity
  8
0
100
AcDbMText
 62
2
  6
CONTINUOUS
  7
STANDARD
 71
2
 72
1
 10
6.055
 20
-1.4065
 30
0.0
 11
1.0
 21
0.0
 31
0.0
 44
0.9
  1
2
 40
0.125
 41
0.2
  0
MTEXT
  5
264
100
AcDbEntity
  8
0
100
AcDbMText
 62
2
  6
CONTINUOUS
  7
STANDARD
 71
2
 72
1
 10
1.5275
 20
-1.6565
 30
0.0
 11
1.0
 21
0.0
 31
0.0
 44
0.9
  1
Weight
 40
0.125
 41
1.2
  0
MTEXT
  5
265
100
AcDbEntity
  8
0
100
AcDbMText
 62
2
  6
CONTINUOUS
  7
STANDARD
 71
2
 72
1
 10
4.555
 20
-1.6565
 30
0.0
 11
1.0
 21
0.0
 31
0.0
 44
0.9
  1
1.636 lb.
 40
0.125
 41
1.8
  0
MTEXT
  5
266
100
AcDbEntity
  8
0
100
AcDbMText
 62
2
  6
CONTINUOUS
  7
STANDARD
 71
2
 72
1
 10
7.555
 20
-1.6565
 30
0.0
 11
1.0
 21
0.0
 31
0.0
 44
0.9
  1
0,742 kg.
 40
0.125
 41
1.8
  0
MTEXT
  5
267
100
AcDbEntity
  8
0
100
AcDbMText
 62
2
  6
CONTINUOUS
  7
STANDARD
 71
2
 72
1
 10
1.5275
 20
-1.9065
 30
0.0
 11
1.0
 21
0.0
 31
0.0
 44
0.9
  1
Mounting Hole Diameter
 40
0.125
 41
4.4
  0
MTEXT
  5
268
100
AcDbEntity
  8
0
100
AcDbMText
 62
2
  6
CONTINUOUS
  7
STANDARD
 71
2
 72
1
 10
4.555
 20
-1.9065
 30
0.0
 11
1.0
 21
0.0
 31
0.0
 44
0.9
  1
.41 in.
 40
0.125
 41
1.4
  0
MTEXT
  5
269
100
AcDbEntity
  8
0
100
AcDbMText
 62
2
  6
CONTINUOUS
  7
STANDARD
 71
2
 72
1
 10
7.555
 20
-1.9065
 30
0.0
 11
1.0
 21
0.0
 31
0.0
 44
0.9
  1
10,4 mm
 40
0.125
 41
1.4
  0
MTEXT
  5
26A
100
AcDbEntity
  8
0
100
AcDbMText
 62
2
  6
CONTINUOUS
  7
STANDARD
 71
2
 72
1
 10
1.5275
 20
-2.1565
 30
0.0
 11
1.0
 21
0.0
 31
0.0
 44
0.9
  1
Mounting Hole Depth
 40
0.125
 41
3.8
  0
MTEXT
  5
26B
100
AcDbEntity
  8
0
100
AcDbMText
 62
2
  6
CONTINUOUS
  7
STANDARD
 71
2
 72
1
 10
6.055
 20
-2.1565
 30
0.0
 11
1.0
 21
0.0
 31
0.0
 44
0.9
  1
Through
 40
0.125
 41
1.4
  0
MTEXT
  5
26C
100
AcDbEntity
  8
0
100
AcDbMText
 62
2
  6
CONTINUOUS
  7
STANDARD
 71
2
 72
1
 10
1.5275
 20
-2.4065
 30
0.0
 11
1.0
 21
0.0
 31
0.0
 44
0.9
  1
Mounting Hole Quantity
 40
0.125
 41
4.4
  0
MTEXT
  5
26D
100
AcDbEntity
  8
0
100
AcDbMText
 62
2
  6
CONTINUOUS
  7
STANDARD
 71
2
 72
1
 10
6.055
 20
-2.4065
 30
0.0
 11
1.0
 21
0.0
 31
0.0
 44
0.9
  1
2
 40
0.125
 41
0.2
  0
MTEXT
  5
26E
100
AcDbEntity
  8
0
100
AcDbMText
 62
2
  6
CONTINUOUS
  7
STANDARD
 71
2
 72
1
 10
1.5275
 20
-2.6565
 30
0.0
 11
1.0
 21
0.0
 31
0.0
 44
0.9
  1
Includes integral cartridge(s)
 40
0.125
 41
6.0
  0
MTEXT
  5
26F
100
AcDbEntity
  8
0
100
AcDbMText
 62
2
  6
CONTINUOUS
  7
STANDARD
 71
2
 72
1
 10
6.055
 20
-2.6565
 30
0.0
 11
1.0
 21
0.0
 31
0.0
 44
0.9
  1
Yes (see Included Components)
 40
0.125
 41
5.8
  0
ENDBLK
  5
270
100
AcDbEntity
  8
0
  6
BYBLOCK
 62
0
100
AcDbBlockEnd
  0
BLOCK
  5
271
100
AcDbEntity
  8
0
100
AcDbBlockBegin
  2
*T3
 70
1
 10
0.0
 20
0.0
  3
*T3
  1

  0
LINE
  5
272
100
AcDbEntity
  8
0
100
AcDbLine
 62
2
  6
CONTINUOUS
 10
0.0
 20
0.0
 11
4.6
 21
0.0
  0
LINE
  5
273
100
AcDbEntity
  8
0
100
AcDbLine
 62
2
  6
CONTINUOUS
 10
0.0
 20
0.0
 11
0.0
 21
-1.18775
  0
LINE
  5
274
100
AcDbEntity
  8
0
100
AcDbLine
 62
2
  6
CONTINUOUS
 10
0.0
 20
-0.34375
 11
4.6
 21
-0.34375
  0
LINE
  5
275
100
AcDbEntity
  8
0
100
AcDbLine
 62
2
  6
CONTINUOUS
 10
0.0
 20
-0.68775
 11
4.6
 21
-0.68775
  0
LINE
  5
276
100
AcDbEntity
  8
0
100
AcDbLine
 62
2
  6
CONTINUOUS
 10
0.0
 20
-0.93775
 11
4.6
 21
-0.93775
  0
LINE
  5
277
100
AcDbEntity
  8
0
100
AcDbLine
 62
2
  6
CONTINUOUS
 10
0.0
 20
-1.18775
 11
4.6
 21
-1.18775
  0
LINE
  5
278
100
AcDbEntity
  8
0
100
AcDbLine
 62
2
  6
CONTINUOUS
 10
1.3
 20
-0.34375
 11
1.3
 21
-1.18775
  0
LINE
  5
279
100
AcDbEntity
  8
0
100
AcDbLine
 62
2
  6
CONTINUOUS
 10
3.3
 20
-0.34375
 11
3.3
 21
-1.18775
  0
LINE
  5
27A
100
AcDbEntity
  8
0
100
AcDbLine
 62
2
  6
CONTINUOUS
 10
4.6
 20
0.0
 11
4.6
 21
-1.18775
  0
MTEXT
  5
27B
100
AcDbEntity
  8
0
100
AcDbMText
 62
2
  6
CONTINUOUS
  7
STANDARD
 71
2
 72
1
 10
2.3
 20
-0.099375
 30
0.0
 11
1.0
 21
0.0
 31
0.0
 44
0.9
  1
Port Headings
 40
0.145
 41
3.016
  0
MTEXT
  5
27C
100
AcDbEntity
  8
0
100
AcDbMText
 62
2
  6
CONTINUOUS
  7
STANDARD
 71
2
 72
1
 10
0.65
 20
-0.44325
 30
0.0
 11
1.0
 21
0.0
 31
0.0
 44
0.9
  1
Product
 40
0.145
 41
1.624
  0
MTEXT
  5
27D
100
AcDbEntity
  8
0
100
AcDbMText
 62
2
  6
CONTINUOUS
  7
STANDARD
 71
2
 72
1
 10
2.3
 20
-0.44325
 30
0.0
 11
1.0
 21
0.0
 31
0.0
 44
0.9
  1
Port
 40
0.145
 41
0.928
  0
MTEXT
  5
27E
100
AcDbEntity
  8
0
100
AcDbMText
 62
2
  6
CONTINUOUS
  7
STANDARD
 71
2
 72
1
 10
3.95
 20
-0.44325
 30
0.0
 11
1.0
 21
0.0
 31
0.0
 44
0.9
  1
Size
 40
0.145
 41
0.928
  0
MTEXT
  5
27F
100
AcDbEntity
  8
0
100
AcDbMText
 62
2
  6
CONTINUOUS
  7
STANDARD
 71
2
 72
1
 10
0.65
 20
-0.75025
 30
0.0
 11
1.0
 21
0.0
 31
0.0
 44
0.9
  1
YHL
 40
0.125
 41
0.6
  0
MTEXT
  5
280
100
AcDbEntity
  8
0
100
AcDbMText
 62
2
  6
CONTINUOUS
  7
STANDARD
 71
2
 72
1
 10
2.3
 20
-0.75025
 30
0.0
 11
1.0
 21
0.0
 31
0.0
 44
0.9
  1
Ports C1,C2,V1,V2
 40
0.125
 41
3.4
  0
MTEXT
  5
281
100
AcDbEntity
  8
0
100
AcDbMText
 62
2
  6
CONTINUOUS
  7
STANDARD
 71
2
 72
1
 10
3.95
 20
-0.75025
 30
0.0
 11
1.0
 21
0.0
 31
0.0
 44
0.9
  1
SAE 12
 40
0.125
 41
1.2
  0
MTEXT
  5
282
100
AcDbEntity
  8
0
100
AcDbMText
 62
2
  6
CONTINUOUS
  7
STANDARD
 71
2
 72
1
 10
0.65
 20
-1.00025
 30
0.0
 11
1.0
 21
0.0
 31
0.0
 44
0.9
  1
YHL
 40
0.125
 41
0.6
  0
MTEXT
  5
283
100
AcDbEntity
  8
0
100
AcDbMText
 62
2
  6
CONTINUOUS
  7
STANDARD
 71
2
 72
1
 10
2.3
 20
-1.00025
 30
0.0
 11
1.0
 21
0.0
 31
0.0
 44
0.9
  1
Port S
 40
0.125
 41
1.2
  0
MTEXT
  5
284
100
AcDbEntity
  8
0
100
AcDbMText
 62
2
  6
CONTINUOUS
  7
STANDARD
 71
2
 72
1
 10
3.95
 20
-1.00025
 30
0.0
 11
1.0
 21
0.0
 31
0.0
 44
0.9
  1
SAE 4
 40
0.125
 41
1.0
  0
ENDBLK
  5
285
100
AcDbEntity
  8
0
  6
BYBLOCK
 62
0
100
AcDbBlockEnd
  0
ENDSEC
  0
SECTION
  2
ENTITIES
  0
IMAGE
  5
286
100
AcDbEntity
  8
0
100
AcDbRasterImage
 62
7
  6
CONTINUOUS
 10
19.2297077316
 20
0.3094318264
 30
0.0
 11
0.0066666667
 21
0.0
 31
0.0
 12
0.0
 22
0.0066666667
 32
0.0
 13
369.0
 23
92.0
340
       397
 70
9
280
0
281
50
282
50
283
0
360
       391
 71
1
 91
2
 14
-0.5
 24
-0.5
 14
368.5
 24
91.5
  0
INSERT
  5
287
100
AcDbEntity
  8
0
100
AcDbBlockReference
 62
2
  6
CONTINUOUS
  2
SUN_FIRST_THIRD_ANGLE_BL0
 10
20.4816717061
 20
1.2289683772
  0
ACAD_TABLE
  5
288
100
AcDbEntity
  8
0
 62
2
  6
CONTINUOUS
100
AcDbBlockReference
  2
*T1
 10
12.42375
 20
0.30125
 30
0.0
100
AcDbTable
342
       399
343
207
 11
1.0
 21
0.0
 31
0.0
 90
6
 91
4
 92
6
 93
20
 94
0
 95
0
 96
0
 70
1
 41
0.0
141
0.525
141
0.1
141
0.525
141
0.1
142
4.1
142
1.1
142
0.7
142
0.5
142
0.4
142
2.475
171
1
172
0
173
0
174
0
175
1
176
1
 91
33
178
0
145
0.0
301
CELL_VALUE
 90
4
  1
T-2A Line mount\PCross pilot with shuttle
304
ACVALUE_END
170
2
140
0.125
171
1
172
0
173
0
174
0
175
1
176
1
 91
33
178
0
145
0.0
301
CELL_VALUE
 90
4
  1
May-29-24
304
ACVALUE_END
170
5
140
0.125
171
1
172
0
173
0
174
0
175
1
176
1
 91
33
178
0
145
0.0
301
CELL_VALUE
 90
4
  1
1.000
304
ACVALUE_END
170
5
140
0.125
171
1
172
0
173
0
174
0
175
1
176
1
 91
33
178
0
145
0.0
301
CELL_VALUE
 90
4
  1
C
304
ACVALUE_END
170
5
140
0.125
171
1
172
0
173
0
174
0
175
1
176
1
 91
33
178
0
145
0.0
301
CELL_VALUE
 90
4
  1
2
304
ACVALUE_END
170
5
140
0.125
171
1
172
0
173
0
174
0
175
1
176
1
 91
33
178
0
145
0.0
301
CELL_VALUE
 90
4
  1
 
304
ACVALUE_END
170
1
140
0.125
171
1
172
0
173
0
174
0
175
1
176
1
 91
33
178
0
145
0.0
301
CELL_VALUE
 90
4
  1
DESCRIPTION
304
ACVALUE_END
170
1
140
0.06
171
1
172
0
173
0
174
0
175
1
176
1
 91
33
178
0
145
0.0
301
CELL_VALUE
 90
4
  1
DATE
304
ACVALUE_END
170
1
140
0.06
171
1
172
0
173
0
174
0
175
1
176
1
 91
33
178
0
145
0.0
301
CELL_VALUE
 90
4
  1
SCALE
304
ACVALUE_END
170
1
140
0.06
171
1
172
0
173
0
174
0
175
1
176
1
 91
33
178
0
145
0.0
301
CELL_VALUE
 90
4
  1
DWG SIZE
304
ACVALUE_END
170
1
140
0.06
171
1
172
0
173
0
174
0
175
1
176
1
 91
33
178
0
145
0.0
301
CELL_VALUE
 90
4
  1
SHEET
304
ACVALUE_END
170
1
140
0.06
171
1
172
0
173
0
174
0
175
1
176
1
 91
33
178
0
145
0.0
301
CELL_VALUE
 90
4
  1
 
304
ACVALUE_END
170
1
140
0.125
171
1
172
0
173
0
174
0
175
1
176
1
 91
33
178
0
145
0.0
301
CELL_VALUE
 90
4
  1
YHL
304
ACVALUE_END
170
5
140
0.125
171
1
172
0
173
0
174
0
175
4
176
1
 91
33
178
0
145
0.0
301
CELL_VALUE
 90
4
  1
ALL DIMENSIONS IN INCH\PVIEWS ARE THIRD ANGLE
304
ACVALUE_END
170
5
140
0.12
171
1
172
0
173
1
174
0
175
1
176
1
 91
1
178
0
145
0.0
170
1
171
1
172
0
173
1
174
0
175
1
176
1
 91
1
178
0
145
0.0
170
1
171
1
172
0
173
1
174
0
175
1
176
1
 91
1
178
0
145
0.0
170
5
171
1
172
0
173
0
174
0
175
1
176
1
 91
33
178
0
145
0.0
301
CELL_VALUE
 90
4
  1
 
304
ACVALUE_END
170
1
140
0.125
171
1
172
0
173
0
174
0
175
1
176
1
 91
33
178
0
145
0.0
301
CELL_VALUE
 90
4
  1
MODEL
304
ACVALUE_END
170
1
140
0.06
171
1
172
0
173
0
174
0
175
1
176
1
 91
33
178
0
145
0.0
301
CELL_VALUE
 90
4
  1
 
304
ACVALUE_END
170
1
140
0.125
171
1
172
0
173
0
174
0
175
1
176
1
 91
33
178
0
145
0.0
301
CELL_VALUE
 90
4
  1
 
304
ACVALUE_END
170
1
140
0.125
171
1
172
0
173
0
174
0
175
1
176
1
 91
33
178
0
145
0.0
301
CELL_VALUE
 90
4
  1
 
304
ACVALUE_END
170
1
140
0.125
171
1
172
0
173
0
174
0
175
1
176
1
 91
33
178
0
145
0.0
301
CELL_VALUE
 90
4
  1
 
304
ACVALUE_END
170
1
140
0.125
171
1
172
0
173
0
174
0
175
1
176
1
 91
33
178
0
145
0.0
301
CELL_VALUE
 90
4
  1
 
304
ACVALUE_END
170
1
140
0.125
  0
ACAD_TABLE
  5
289
100
AcDbEntity
  8
0
 62
2
  6
CONTINUOUS
100
AcDbBlockReference
  2
*T2
 10
12.4237499994
 20
16.47875
 30
0.0
100
AcDbTable
342
       398
343
208
 11
1.0
 21
0.0
 31
0.0
 90
22
 91
11
 92
3
 93
16
 94
0
 95
0
 96
0
 41
0.028
141
0.344
141
0.25
141
0.25
141
0.25
141
0.25
141
0.25
141
0.25
141
0.25
141
0.25
141
0.25
141
0.25
142
3.055
142
3.0
142
3.0
171
1
172
0
173
0
174
0
175
1
176
1
 91
33
178
0
145
0.0
301
CELL_VALUE
 90
4
  1
Technical Data
304
ACVALUE_END
170
5
140
0.145
171
1
172
0
173
0
174
0
175
1
176
1
 91
33
178
0
145
0.0
301
CELL_VALUE
 90
4
  1
U.S. Units
304
ACVALUE_END
170
5
140
0.145
171
1
172
0
173
0
174
0
175
1
176
1
 91
33
178
0
145
0.0
301
CELL_VALUE
 90
4
  1
Metric Units
304
ACVALUE_END
170
5
140
0.145
171
1
172
0
173
0
174
0
175
1
176
1
 91
33
178
0
145
0.0
301
CELL_VALUE
 90
4
  1
Cavity
304
ACVALUE_END
170
5
140
0.125
171
1
172
0
173
0
174
0
175
2
176
1
 91
33
178
0
145
0.0
301
CELL_VALUE
 90
4
  1
T-2A
304
ACVALUE_END
170
5
140
0.125
171
1
172
0
173
1
174
0
175
1
176
1
 91
1
178
0
145
0.0
170
1
171
1
172
0
173
0
174
0
175
1
176
1
 91
33
178
0
145
0.0
301
CELL_VALUE
 90
4
  1
Body Features
304
ACVALUE_END
170
5
140
0.125
171
1
172
0
173
0
174
0
175
2
176
1
 91
33
178
0
145
0.0
301
CELL_VALUE
 90
4
  1
Cross pilot with shuttle
304
ACVALUE_END
170
5
140
0.125
171
1
172
0
173
1
174
0
175
1
176
1
 91
1
178
0
145
0.0
170
1
171
1
172
0
173
0
174
0
175
1
176
1
 91
33
178
0
145
0.0
301
CELL_VALUE
 90
4
  1
Body Type
304
ACVALUE_END
170
5
140
0.125
171
1
172
0
173
0
174
0
175
2
176
1
 91
33
178
0
145
0.0
301
CELL_VALUE
 90
4
  1
Line mount
304
ACVALUE_END
170
5
140
0.125
171
1
172
0
173
1
174
0
175
1
176
1
 91
1
178
0
145
0.0
170
1
171
1
172
0
173
0
174
0
175
1
176
1
 91
33
178
0
145
0.0
301
CELL_VALUE
 90
4
  1
Interface
304
ACVALUE_END
170
5
140
0.125
171
1
172
0
173
0
174
0
175
2
176
1
 91
33
178
0
145
0.0
301
CELL_VALUE
 90
4
  1
None
304
ACVALUE_END
170
5
140
0.125
171
1
172
0
173
1
174
0
175
1
176
1
 91
1
178
0
145
0.0
170
1
171
1
172
0
173
0
174
0
175
1
176
1
 91
33
178
0
145
0.0
301
CELL_VALUE
 90
4
  1
Open Cavity Quantity
304
ACVALUE_END
170
5
140
0.125
171
1
172
0
173
0
174
0
175
2
176
1
 91
33
178
0
145
0.0
301
CELL_VALUE
 90
4
  1
2
304
ACVALUE_END
170
5
140
0.125
171
1
172
0
173
1
174
0
175
1
176
1
 91
1
178
0
145
0.0
170
1
171
1
172
0
173
0
174
0
175
1
176
1
 91
33
178
0
145
0.0
301
CELL_VALUE
 90
4
  1
Weight
304
ACVALUE_END
170
5
140
0.125
171
1
172
0
173
0
174
0
175
1
176
1
 91
33
178
0
145
0.0
301
CELL_VALUE
 90
4
  1
1.636 lb.
304
ACVALUE_END
170
5
140
0.125
171
1
172
0
173
0
174
0
175
1
176
1
 91
33
178
0
145
0.0
301
CELL_VALUE
 90
4
  1
0,742 kg.
304
ACVALUE_END
170
5
140
0.125
171
1
172
0
173
0
174
0
175
1
176
1
 91
33
178
0
145
0.0
301
CELL_VALUE
 90
4
  1
Mounting Hole Diameter
304
ACVALUE_END
170
5
140
0.125
171
1
172
0
173
0
174
0
175
1
176
1
 91
33
178
0
145
0.0
301
CELL_VALUE
 90
4
  1
.41 in.
304
ACVALUE_END
170
5
140
0.125
171
1
172
0
173
0
174
0
175
1
176
1
 91
33
178
0
145
0.0
301
CELL_VALUE
 90
4
  1
10,4 mm
304
ACVALUE_END
170
5
140
0.125
171
1
172
0
173
0
174
0
175
1
176
1
 91
33
178
0
145
0.0
301
CELL_VALUE
 90
4
  1
Mounting Hole Depth
304
ACVALUE_END
170
5
140
0.125
171
1
172
0
173
0
174
0
175
2
176
1
 91
33
178
0
145
0.0
301
CELL_VALUE
 90
4
  1
Through
304
ACVALUE_END
170
5
140
0.125
171
1
172
0
173
1
174
0
175
1
176
1
 91
1
178
0
145
0.0
170
1
171
1
172
0
173
0
174
0
175
1
176
1
 91
33
178
0
145
0.0
301
CELL_VALUE
 90
4
  1
Mounting Hole Quantity
304
ACVALUE_END
170
5
140
0.125
171
1
172
0
173
0
174
0
175
2
176
1
 91
33
178
0
145
0.0
301
CELL_VALUE
 90
4
  1
2
304
ACVALUE_END
170
5
140
0.125
171
1
172
0
173
1
174
0
175
1
176
1
 91
1
178
0
145
0.0
170
1
171
1
172
0
173
0
174
0
175
1
176
1
 91
33
178
0
145
0.0
301
CELL_VALUE
 90
4
  1
Includes integral cartridge(s)
304
ACVALUE_END
170
5
140
0.125
171
1
172
0
173
0
174
0
175
2
176
1
 91
33
178
0
145
0.0
301
CELL_VALUE
 90
4
  1
Yes (see Included Components)
304
ACVALUE_END
170
5
140
0.125
171
1
172
0
173
1
174
0
175
1
176
1
 91
1
178
0
145
0.0
170
1
  0
ACAD_TABLE
  5
28A
100
AcDbEntity
  8
0
 62
2
  6
CONTINUOUS
100
AcDbBlockReference
  2
*T3
 10
0.52125
 20
1.709
 30
0.0
100
AcDbTable
342
       398
343
209
 11
1.0
 21
0.0
 31
0.0
 90
22
 91
4
 92
3
 93
16
 94
0
 95
0
 96
0
 41
0.05
141
0.34375
141
0.344
141
0.25
141
0.25
142
1.3
142
2.0
142
1.3
171
1
172
0
173
0
174
0
175
3
176
1
 91
33
178
0
145
0.0
301
CELL_VALUE
 90
4
  1
Port Headings
304
ACVALUE_END
170
5
140
0.145
171
1
172
0
173
1
174
0
175
1
176
1
 91
1
178
0
145
0.0
170
1
171
1
172
0
173
1
174
0
175
1
176
1
 91
1
178
0
145
0.0
170
1
171
1
172
0
173
0
174
0
175
1
176
1
 91
33
178
0
145
0.0
301
CELL_VALUE
 90
4
  1
Product
304
ACVALUE_END
170
5
140
0.145
171
1
172
0
173
0
174
0
175
1
176
1
 91
33
178
0
145
0.0
301
CELL_VALUE
 90
4
  1
Port
304
ACVALUE_END
170
5
140
0.145
171
1
172
0
173
0
174
0
175
1
176
1
 91
33
178
0
145
0.0
301
CELL_VALUE
 90
4
  1
Size
304
ACVALUE_END
170
5
140
0.145
171
1
172
0
173
0
174
0
175
1
176
1
 91
33
178
0
145
0.0
301
CELL_VALUE
 90
4
  1
YHL
304
ACVALUE_END
170
5
140
0.125
171
1
172
0
173
0
174
0
175
1
176
1
 91
33
178
0
145
0.0
301
CELL_VALUE
 90
4
  1
Ports C1,C2,V1,V2
304
ACVALUE_END
170
5
140
0.125
171
1
172
0
173
0
174
0
175
1
176
1
 91
33
178
0
145
0.0
301
CELL_VALUE
 90
4
  1
SAE 12
304
ACVALUE_END
170
5
140
0.125
171
1
172
0
173
0
174
0
175
1
176
1
 91
33
178
0
145
0.0
301
CELL_VALUE
 90
4
  1
YHL
304
ACVALUE_END
170
5
140
0.125
171
1
172
0
173
0
174
0
175
1
176
1
 91
33
178
0
145
0.0
301
CELL_VALUE
 90
4
  1
Port S
304
ACVALUE_END
170
5
140
0.125
171
1
172
0
173
0
174
0
175
1
176
1
 91
33
178
0
145
0.0
301
CELL_VALUE
 90
4
  1
SAE 4
304
ACVALUE_END
170
5
140
0.125
  0
MTEXT
  5
28B
100
AcDbEntity
  8
0
100
AcDbMText
 62
2
  6
CONTINUOUS
  7
STANDARD
 71
1
 72
1
 10
0.52125
 20
5.75995
 30
0.0
 11
1.0
 21
0.0
 31
0.0
 44
0.6
  3
Notes\P \P1. Important: Carefully consider\P   the maximum system pressure. The\P   pressure rating of the manifold is\P   dependent on the manifold material,\P   with the port type/size a secondary\P   consideration. Manifolds\P   constructed of alu
  3
minum are not\P   rated for pressures higher than\P   3000 psi (210 bar), regardless of\P   the port type/size specified.\P2. Shuttle is accessible through\P   the V2 port.\P3. This drawing is for reference\P   only. It is generated by an\P   automat
  1
ed process and does not fall\P   under Sun's document control\P   process.
 40
0.1
 41
3.04
  0
LINE
  5
28C
100
AcDbEntity
  8
0
100
AcDbLine
 62
7
  6
CONTINUOUS
 10
0.30125
 20
0.30125
 11
0.30125
 21
16.69875
  0
LINE
  5
28D
100
AcDbEntity
  8
0
100
AcDbLine
 62
7
  6
CONTINUOUS
 10
0.30125
 20
0.30125
 11
21.69875
 21
0.30125
  0
LINE
  5
28E
100
AcDbEntity
  8
0
100
AcDbLine
 62
7
  6
CONTINUOUS
 10
0.30125
 20
16.69875
 11
21.69875
 21
16.69875
  0
LINE
  5
28F
100
AcDbEntity
  8
0
100
AcDbLine
 62
7
  6
CONTINUOUS
 10
21.69875
 20
0.30125
 11
21.69875
 21
16.69875
  0
LINE
  5
290
100
AcDbEntity
  8
0
100
AcDbLine
 62
7
  6
CONTINUOUS
 10
8.8396697825
 20
10.4204106867
 11
8.4514415353
 21
10.045410974
  0
LINE
  5
291
100
AcDbEntity
  8
0
100
AcDbLine
 62
7
  6
CONTINUOUS
 10
8.4514415353
 20
10.045410974
 11
8.4514415353
 21
8.8842789107
  0
LINE
  5
292
100
AcDbEntity
  8
0
100
AcDbLine
 62
7
  6
CONTINUOUS
 10
8.4514415353
 20
8.3087653867
 11
8.4514415353
 21
6.9061518525
  0
LINE
  5
293
100
AcDbEntity
  8
0
100
AcDbLine
 62
7
  6
CONTINUOUS
 10
8.4823511643
 20
8.8821353207
 11
8.4823511643
 21
8.3066217966
  0
LINE
  5
294
100
AcDbEntity
  8
0
100
AcDbLine
 62
4
  6
CONTINUOUS
 10
8.5842563453
 20
8.5873114103
 11
8.6204785652
 21
8.7007104943
  0
LINE
  5
295
100
AcDbEntity
  8
0
100
AcDbLine
 62
4
  6
CONTINUOUS
 10
8.7001674488
 20
8.6951840514
 11
8.7001674488
 21
8.579272948
  0
LINE
  5
296
100
AcDbEntity
  8
0
100
AcDbLine
 62
4
  6
CONTINUOUS
 10
8.5480341255
 20
8.7057345332
 11
8.5842563453
 21
8.5873114103
  0
LINE
  5
297
100
AcDbEntity
  8
0
100
AcDbLine
 62
4
  6
CONTINUOUS
 10
9.8785970827
 20
6.9520671675
 11
9.8641081947
 21
6.9627312342
  0
LINE
  5
298
100
AcDbEntity
  8
0
100
AcDbLine
 62
7
  6
CONTINUOUS
 10
8.4514415353
 20
6.9061518525
 11
9.6125735985
 21
6.8256270705
  0
LINE
  5
299
100
AcDbEntity
  8
0
100
AcDbLine
 62
7
  6
CONTINUOUS
 10
10.1880871226
 20
6.785715072
 11
11.4236846301
 21
6.7000260938
  0
LINE
  5
29A
100
AcDbEntity
  8
0
100
AcDbLine
 62
7
  6
CONTINUOUS
 10
11.9991981542
 20
6.6601140954
 11
13.1603302175
 21
6.5795893133
  0
LINE
  5
29B
100
AcDbEntity
  8
0
100
AcDbLine
 62
7
  6
CONTINUOUS
 10
11.9991981542
 20
6.6910237244
 11
11.4236846301
 21
6.7309357228
  0
LINE
  5
29C
100
AcDbEntity
  8
0
100
AcDbLine
 62
7
  6
CONTINUOUS
 10
10.1880871226
 20
6.816624701
 11
9.6125735985
 21
6.8565366995
  0
LINE
  5
29D
100
AcDbEntity
  8
0
100
AcDbLine
 62
4
  6
CONTINUOUS
 10
9.8930859706
 20
7.0669734631
 11
9.9075748585
 21
7.056309399
  0
LINE
  5
29E
100
AcDbEntity
  8
0
100
AcDbLine
 62
4
  6
CONTINUOUS
 10
9.8641081947
 20
6.9627312342
 11
9.8496193068
 21
6.9830545589
  0
LINE
  5
29F
100
AcDbEntity
  8
0
100
AcDbLine
 62
4
  6
CONTINUOUS
 10
9.9075748585
 20
7.056309399
 11
9.9148193025
 21
7.0461477319
  0
LINE
  5
2A0
100
AcDbEntity
  8
0
100
AcDbLine
 62
4
  6
CONTINUOUS
 10
11.7090265118
 20
6.8251264554
 11
11.6945376239
 21
6.8261312632
  0
LINE
  5
2A1
100
AcDbEntity
  8
0
100
AcDbLine
 62
4
  6
CONTINUOUS
 10
9.8930859706
 20
6.9510623597
 11
9.8785970827
 21
6.9520671675
  0
LINE
  5
2A2
100
AcDbEntity
  8
0
100
AcDbLine
 62
4
  6
CONTINUOUS
 10
11.7887153955
 20
6.8196000125
 11
11.8466709472
 21
6.8155807814
  0
LINE
  5
2A3
100
AcDbEntity
  8
0
100
AcDbLine
 62
4
  6
CONTINUOUS
 10
9.8785970827
 20
7.0679782709
 11
9.8930859706
 21
7.0669734631
  0
LINE
  5
2A4
100
AcDbEntity
  8
0
100
AcDbLine
 62
4
  6
CONTINUOUS
 10
11.6945376239
 20
6.9420423666
 11
11.7090265118
 21
6.9410375588
  0
LINE
  5
2A5
100
AcDbEntity
  8
0
100
AcDbLine
 62
4
  6
CONTINUOUS
 10
11.8104487274
 20
6.9340039043
 11
11.8249376153
 21
6.9329990965
  0
LINE
  5
2A6
100
AcDbEntity
  8
0
100
AcDbLine
 62
4
  6
CONTINUOUS
 10
9.8496193068
 20
6.9830545589
 11
9.8423748628
 21
7.0125347386
  0
LINE
  5
2A7
100
AcDbEntity
  8
0
100
AcDbLine
 62
7
  6
CONTINUOUS
 10
9.6125735985
 20
6.8256270705
 11
9.6125735985
 21
6.8565366995
  0
LINE
  5
2A8
100
AcDbEntity
  8
0
100
AcDbLine
 62
7
  6
CONTINUOUS
 10
10.705875586
 20
10.0900271581
 11
10.7042963903
 21
10.0885303014
  0
LINE
  5
2A9
100
AcDbEntity
  8
0
100
AcDbLine
 62
4
  6
CONTINUOUS
 10
10.00175263
 20
7.0594374047
 11
10.00175263
 21
6.9435263012
  0
LINE
  5
2AA
100
AcDbEntity
  8
0
100
AcDbLine
 62
4
  6
CONTINUOUS
 10
11.6945376239
 20
6.8261312632
 11
11.680048736
 21
6.8367953299
  0
LINE
  5
2AB
100
AcDbEntity
  8
0
100
AcDbLine
 62
4
  6
CONTINUOUS
 10
11.7090265118
 20
6.9410375588
 11
11.7235153998
 21
6.9303734947
  0
LINE
  5
2AC
100
AcDbEntity
  8
0
100
AcDbLine
 62
7
  6
CONTINUOUS
 10
10.1880871226
 20
6.785715072
 11
10.1880871226
 21
6.816624701
  0
LINE
  5
2AD
100
AcDbEntity
  8
0
100
AcDbLine
 62
4
  6
CONTINUOUS
 10
10.2586889299
 20
9.6457548916
 11
10.2586889299
 21
9.5877993399
  0
LINE
  5
2AE
100
AcDbEntity
  8
0
100
AcDbLine
 62
4
  6
CONTINUOUS
 10
10.3166444816
 20
9.5837801087
 11
10.3166444816
 21
9.525824557
  0
LINE
  5
2AF
100
AcDbEntity
  8
0
100
AcDbLine
 62
4
  6
CONTINUOUS
 10
10.3456222574
 20
9.5238149414
 11
10.3456222574
 21
9.6397260449
  0
LINE
  5
2B0
100
AcDbEntity
  8
0
100
AcDbLine
 62
4
  6
CONTINUOUS
 10
9.8423748628
 20
7.0125347386
 11
9.8496193068
 21
7.0410101106
  0
LINE
  5
2B1
100
AcDbEntity
  8
0
100
AcDbLine
 62
4
  6
CONTINUOUS
 10
10.7255071025
 20
9.2275625572
 11
10.7586245621
 21
9.2749420378
  0
LINE
  5
2B2
100
AcDbEntity
  8
0
100
AcDbLine
 62
4
  6
CONTINUOUS
 10
10.4509081655
 20
8.9419254412
 11
10.4343494374
 21
8.9265150631
  0
LINE
  5
2B3
100
AcDbEntity
  8
0
100
AcDbLine
 62
4
  6
CONTINUOUS
 10
10.3708743132
 20
9.0026715732
 11
10.3267177015
 21
8.983655537
  0
LINE
  5
2B4
100
AcDbEntity
  8
0
100
AcDbLine
 62
4
  6
CONTINUOUS
 10
10.8445229932
 20
7.8510058328
 11
10.8300341052
 21
7.8520106406
  0
LINE
  5
2B5
100
AcDbEntity
  8
0
100
AcDbLine
 62
4
  6
CONTINUOUS
 10
11.8249376153
 20
6.9329990965
 11
11.8394265032
 21
6.9223350324
  0
LINE
  5
2B6
100
AcDbEntity
  8
0
100
AcDbLine
 62
4
  6
CONTINUOUS
 10
10.8300341052
 20
7.8520106406
 11
10.8155452173
 21
7.8626747073
  0
LINE
  5
2B7
100
AcDbEntity
  8
0
100
AcDbLine
 62
4
  6
CONTINUOUS
 10
10.3929526207
 20
8.9293859421
 11
10.3929526207
 21
9.0452970455
  0
LINE
  5
2B8
100
AcDbEntity
  8
0
100
AcDbLine
 62
4
  6
CONTINUOUS
 10
10.4035778091
 20
9.6357068137
 11
10.4035778091
 21
9.5197957103
  0
LINE
  5
2B9
100
AcDbEntity
  8
0
100
AcDbLine
 62
4
  6
CONTINUOUS
 10
10.432555585
 20
9.6336971981
 11
10.432555585
 21
9.5177860947
  0
LINE
  5
2BA
100
AcDbEntity
  8
0
100
AcDbLine
 62
4
  6
CONTINUOUS
 10
10.4509081655
 20
9.0247190868
 11
10.4509081655
 21
8.9419254412
  0
LINE
  5
2BB
100
AcDbEntity
  8
0
100
AcDbLine
 62
4
  6
CONTINUOUS
 10
10.4905111367
 20
9.629677967
 11
10.4905111367
 21
9.5137668635
  0
LINE
  5
2BC
100
AcDbEntity
  8
0
100
AcDbLine
 62
4
  6
CONTINUOUS
 10
10.4978245652
 20
8.9221130481
 11
10.5309420213
 21
9.0357274481
  0
LINE
  5
2BD
100
AcDbEntity
  8
0
100
AcDbLine
 62
4
  6
CONTINUOUS
 10
10.8703959987
 20
8.9956275067
 11
10.8869547198
 21
9.0110378836
  0
LINE
  5
2BE
100
AcDbEntity
  8
0
100
AcDbLine
 62
4
  6
CONTINUOUS
 10
10.8445229932
 20
7.9669169362
 11
10.8300341052
 21
7.967921744
  0
LINE
  5
2BF
100
AcDbEntity
  8
0
100
AcDbLine
 62
4
  6
CONTINUOUS
 10
10.8155452173
 20
7.9302895196
 11
10.8590118811
 21
7.8982973169
  0
LINE
  5
2C0
100
AcDbEntity
  8
0
100
AcDbLine
 62
4
  6
CONTINUOUS
 10
10.8590118811
 20
7.9562528721
 11
10.8445229932
 21
7.9669169362
  0
LINE
  5
2C1
100
AcDbEntity
  8
0
100
AcDbLine
 62
4
  6
CONTINUOUS
 10
10.8155452173
 20
7.8626747073
 11
10.8010563294
 21
7.882998032
  0
LINE
  5
2C2
100
AcDbEntity
  8
0
100
AcDbLine
 62
4
  6
CONTINUOUS
 10
10.8083007733
 20
7.9404511798
 11
10.8155452173
 21
7.9302895196
  0
LINE
  5
2C3
100
AcDbEntity
  8
0
100
AcDbLine
 62
4
  6
CONTINUOUS
 10
10.8590118811
 20
7.8982973169
 11
10.8662563251
 21
7.8881356567
  0
LINE
  5
2C4
100
AcDbEntity
  8
0
100
AcDbLine
 62
4
  6
CONTINUOUS
 10
10.8662563251
 20
7.946091205
 11
10.8590118811
 21
7.9562528721
  0
LINE
  5
2C5
100
AcDbEntity
  8
0
100
AcDbLine
 62
4
  6
CONTINUOUS
 10
11.680048736
 20
6.8367953299
 11
11.6655598481
 21
6.8571186546
  0
LINE
  5
2C6
100
AcDbEntity
  8
0
100
AcDbLine
 62
4
  6
CONTINUOUS
 10
10.6064222401
 20
9.5057284012
 11
10.6064222401
 21
9.6216395046
  0
LINE
  5
2C7
100
AcDbEntity
  8
0
100
AcDbLine
 62
4
  6
CONTINUOUS
 10
10.6302944036
 20
8.9129262336
 11
10.6302944036
 21
9.028837337
  0
LINE
  5
2C8
100
AcDbEntity
  8
0
100
AcDbLine
 62
4
  6
CONTINUOUS
 10
10.6643777919
 20
9.5017091701
 11
10.6643777919
 21
9.5596647218
  0
LINE
  5
2C9
100
AcDbEntity
  8
0
100
AcDbLine
 62
4
  6
CONTINUOUS
 10
10.6965293159
 20
8.9083328268
 11
10.6965293159
 21
9.0242439302
  0
LINE
  5
2CA
100
AcDbEntity
  8
0
100
AcDbLine
 62
4
  6
CONTINUOUS
 10
10.7117081602
 20
9.4984267979
 11
10.7117081602
 21
9.5563823496
  0
LINE
  5
2CB
100
AcDbEntity
  8
0
100
AcDbLine
 62
4
  6
CONTINUOUS
 10
10.7255071025
 20
9.2275625572
 11
10.7255071025
 21
9.161327638
  0
LINE
  5
2CC
100
AcDbEntity
  8
0
100
AcDbLine
 62
4
  6
CONTINUOUS
 10
10.7696637119
 20
9.5523631184
 11
10.7696637119
 21
9.436452015
  0
LINE
  5
2CD
100
AcDbEntity
  8
0
100
AcDbLine
 62
4
  6
CONTINUOUS
 10
10.7917420183
 20
9.156734231
 11
10.7917420183
 21
9.2726453344
  0
LINE
  5
2CE
100
AcDbEntity
  8
0
100
AcDbLine
 62
4
  6
CONTINUOUS
 10
10.8083007464
 20
9.4917280793
 11
10.8083007464
 21
9.549683631
  0
LINE
  5
2CF
100
AcDbEntity
  8
0
100
AcDbLine
 62
4
  6
CONTINUOUS
 10
10.8083007733
 20
7.9501104361
 11
10.8083007733
 21
7.9404511798
  0
LINE
  5
2D0
100
AcDbEntity
  8
0
100
AcDbLine
 62
4
  6
CONTINUOUS
 10
10.966988548
 20
8.9889287907
 11
10.9835472692
 21
9.0043391676
  0
LINE
  5
2D1
100
AcDbEntity
  8
0
100
AcDbLine
 62
4
  6
CONTINUOUS
 10
11.0249440997
 20
8.902115914
 11
11.0083853786
 21
8.8867055354
  0
LINE
  5
2D2
100
AcDbEntity
  8
0
100
AcDbLine
 62
4
  6
CONTINUOUS
 10
11.1160170938
 20
8.8957999804
 11
11.0994583726
 21
8.8803896018
  0
LINE
  5
2D3
100
AcDbEntity
  8
0
100
AcDbLine
 62
4
  6
CONTINUOUS
 10
11.2898837489
 20
8.9168597448
 11
11.2457271407
 21
8.8978437101
  0
LINE
  5
2D4
100
AcDbEntity
  8
0
100
AcDbLine
 62
7
  6
CONTINUOUS
 10
13.1603302175
 20
7.9822028474
 11
13.1294205885
 21
7.9843464375
  0
LINE
  5
2D5
100
AcDbEntity
  8
0
100
AcDbLine
 62
7
  6
CONTINUOUS
 10
8.4514415353
 20
8.3087653867
 11
8.4823511643
 21
8.3066217966
  0
LINE
  5
2D6
100
AcDbEntity
  8
0
100
AcDbLine
 62
4
  6
CONTINUOUS
 10
11.7235153998
 20
6.9303734947
 11
11.7307598437
 21
6.9202118276
  0
LINE
  5
2D7
100
AcDbEntity
  8
0
100
AcDbLine
 62
4
  6
CONTINUOUS
 10
11.8394265032
 20
6.9223350324
 11
11.8466709472
 21
6.9121733653
  0
LINE
  5
2D8
100
AcDbEntity
  8
0
100
AcDbLine
 62
4
  6
CONTINUOUS
 10
10.5309420213
 20
9.0357274481
 11
10.5640594913
 21
8.9175196403
  0
LINE
  5
2D9
100
AcDbEntity
  8
0
100
AcDbLine
 62
4
  6
CONTINUOUS
 10
10.8496975631
 20
9.2686261037
 11
10.8496975631
 21
9.1527150003
  0
LINE
  5
2DA
100
AcDbEntity
  8
0
100
AcDbLine
 62
4
  6
CONTINUOUS
 10
10.8662562981
 20
9.6036199515
 11
10.8662562981
 21
9.4877088481
  0
LINE
  5
2DB
100
AcDbEntity
  8
0
100
AcDbLine
 62
4
  6
CONTINUOUS
 10
10.8662563251
 20
7.8881356567
 11
10.8662563251
 21
7.8688171389
  0
LINE
  5
2DC
100
AcDbEntity
  8
0
100
AcDbLine
 62
4
  6
CONTINUOUS
 10
10.8703959987
 20
8.9128338612
 11
10.8703959987
 21
8.9956275067
  0
LINE
  5
2DD
100
AcDbEntity
  8
0
100
AcDbLine
 62
4
  6
CONTINUOUS
 10
10.8828150331
 20
9.2663293994
 11
10.8828150331
 21
9.150418296
  0
LINE
  5
2DE
100
AcDbEntity
  8
0
100
AcDbLine
 62
4
  6
CONTINUOUS
 10
10.9048933325
 20
9.5429849124
 11
10.9048933325
 21
9.4850293607
  0
LINE
  5
2DF
100
AcDbEntity
  8
0
100
AcDbLine
 62
4
  6
CONTINUOUS
 10
10.966988548
 20
8.9061351451
 11
10.966988548
 21
8.9889287907
  0
LINE
  5
2E0
100
AcDbEntity
  8
0
100
AcDbLine
 62
4
  6
CONTINUOUS
 10
11.0014859187
 20
9.4783306421
 11
11.0014859187
 21
9.5169676765
  0
LINE
  5
2E1
100
AcDbEntity
  8
0
100
AcDbLine
 62
4
  6
CONTINUOUS
 10
11.0249440997
 20
8.9849095595
 11
11.0249440997
 21
8.902115914
  0
LINE
  5
2E2
100
AcDbEntity
  8
0
100
AcDbLine
 62
4
  6
CONTINUOUS
 10
9.8496193068
 20
7.0410101106
 11
9.8641081947
 21
7.0593238224
  0
LINE
  5
2E3
100
AcDbEntity
  8
0
100
AcDbLine
 62
7
  6
CONTINUOUS
 10
12.5169866176
 20
9.9644261815
 11
12.5154074219
 21
9.9629293247
  0
LINE
  5
2E4
100
AcDbEntity
  8
0
100
AcDbLine
 62
4
  6
CONTINUOUS
 10
12.998537556
 20
8.2811799686
 11
13.0564931077
 21
8.2771607375
  0
LINE
  5
2E5
100
AcDbEntity
  8
0
100
AcDbLine
 62
4
  6
CONTINUOUS
 10
10.4343494374
 20
9.0424261665
 11
10.4509081655
 21
9.0247190868
  0
LINE
  5
2E6
100
AcDbEntity
  8
0
100
AcDbLine
 62
4
  6
CONTINUOUS
 10
11.0580615421
 20
8.8832604817
 11
11.0580615421
 21
8.9991715852
  0
LINE
  5
2E7
100
AcDbEntity
  8
0
100
AcDbLine
 62
4
  6
CONTINUOUS
 10
11.0594414705
 20
9.5322669626
 11
11.0594414705
 21
9.4743114109
  0
LINE
  5
2E8
100
AcDbEntity
  8
0
100
AcDbLine
 62
4
  6
CONTINUOUS
 10
11.0980785049
 20
9.5295874752
 11
11.0980785049
 21
9.4716319234
  0
LINE
  5
2E9
100
AcDbEntity
  8
0
100
AcDbLine
 62
4
  6
CONTINUOUS
 10
11.1160170938
 20
8.9785936259
 11
11.1160170938
 21
8.8957999804
  0
LINE
  5
2EA
100
AcDbEntity
  8
0
100
AcDbLine
 62
4
  6
CONTINUOUS
 10
11.1560340566
 20
9.4676126923
 11
11.1560340566
 21
9.525568244
  0
LINE
  5
2EB
100
AcDbEntity
  8
0
100
AcDbLine
 62
4
  6
CONTINUOUS
 10
11.1629335349
 20
8.8759875843
 11
11.1629335349
 21
8.9918986878
  0
LINE
  5
2EC
100
AcDbEntity
  8
0
100
AcDbLine
 62
4
  6
CONTINUOUS
 10
11.1946710911
 20
9.4649332048
 11
11.1946710911
 21
9.5808443083
  0
LINE
  5
2ED
100
AcDbEntity
  8
0
100
AcDbLine
 62
4
  6
CONTINUOUS
 10
11.2333081256
 20
9.4622537174
 11
11.2333081256
 21
9.5202092691
  0
LINE
  5
2EE
100
AcDbEntity
  8
0
100
AcDbLine
 62
4
  6
CONTINUOUS
 10
9.9148193025
 20
6.9688736658
 11
9.9075748585
 21
6.9597168108
  0
LINE
  5
2EF
100
AcDbEntity
  8
0
100
AcDbLine
 62
4
  6
CONTINUOUS
 10
10.8155452173
 20
7.9592672955
 11
10.8083007733
 21
7.9501104361
  0
LINE
  5
2F0
100
AcDbEntity
  8
0
100
AcDbLine
 62
7
  6
CONTINUOUS
 10
13.5485584647
 20
8.3572025601
 11
13.5176488357
 21
8.3593461502
  0
LINE
  5
2F1
100
AcDbEntity
  8
0
100
AcDbLine
 62
4
  6
CONTINUOUS
 10
13.0202708879
 20
8.3955838604
 11
13.0347597758
 21
8.3945790526
  0
LINE
  5
2F2
100
AcDbEntity
  8
0
100
AcDbLine
 62
7
  6
CONTINUOUS
 10
13.1603302175
 20
8.5577163715
 11
13.1294205885
 21
8.5598599615
  0
LINE
  5
2F3
100
AcDbEntity
  8
0
100
AcDbLine
 62
7
  6
CONTINUOUS
 10
8.4514415353
 20
8.8842789107
 11
8.4823511643
 21
8.8821353207
  0
LINE
  5
2F4
100
AcDbEntity
  8
0
100
AcDbLine
 62
4
  6
CONTINUOUS
 10
10.3267177015
 20
8.983655537
 11
10.3708743132
 21
8.9585149598
  0
LINE
  5
2F5
100
AcDbEntity
  8
0
100
AcDbLine
 62
4
  6
CONTINUOUS
 10
10.8869547198
 20
8.8951267802
 11
10.8703959987
 21
8.9128338612
  0
LINE
  5
2F6
100
AcDbEntity
  8
0
100
AcDbLine
 62
4
  6
CONTINUOUS
 10
10.6923896429
 20
9.2795354451
 11
10.7255071025
 21
9.2275625572
  0
LINE
  5
2F7
100
AcDbEntity
  8
0
100
AcDbLine
 62
4
  6
CONTINUOUS
 10
11.2719451601
 20
9.5175297817
 11
11.2719451601
 21
9.45957423
  0
LINE
  5
2F8
100
AcDbEntity
  8
0
100
AcDbLine
 62
4
  6
CONTINUOUS
 10
11.3685377463
 20
9.5108310631
 11
11.3685377463
 21
9.4818532872
  0
LINE
  5
2F9
100
AcDbEntity
  8
0
100
AcDbLine
 62
7
  6
CONTINUOUS
 10
11.4236846301
 20
6.7000260938
 11
11.4236846301
 21
6.7309357228
  0
LINE
  5
2FA
100
AcDbEntity
  8
0
100
AcDbLine
 62
4
  6
CONTINUOUS
 10
11.426493298
 20
9.477834056
 11
11.426493298
 21
9.4488562802
  0
LINE
  5
2FB
100
AcDbEntity
  8
0
100
AcDbLine
 62
4
  6
CONTINUOUS
 10
10.8662563251
 20
7.8688171389
 11
10.8590118811
 21
7.8596602839
  0
LINE
  5
2FC
100
AcDbEntity
  8
0
100
AcDbLine
 62
4
  6
CONTINUOUS
 10
10.8300341052
 20
7.967921744
 11
10.8155452173
 21
7.9592672955
  0
LINE
  5
2FD
100
AcDbEntity
  8
0
100
AcDbLine
 62
4
  6
CONTINUOUS
 10
11.0994583726
 20
8.8803896018
 11
11.0580615421
 21
8.8832604817
  0
LINE
  5
2FE
100
AcDbEntity
  8
0
100
AcDbLine
 62
4
  6
CONTINUOUS
 10
11.0083853786
 20
8.8867055354
 11
10.9835472692
 21
8.8884280641
  0
LINE
  5
2FF
100
AcDbEntity
  8
0
100
AcDbLine
 62
4
  6
CONTINUOUS
 10
10.9200721622
 20
8.8928300777
 11
10.8869547198
 21
8.8951267802
  0
LINE
  5
300
100
AcDbEntity
  8
0
100
AcDbLine
 62
4
  6
CONTINUOUS
 10
10.4343494374
 20
8.9265150631
 11
10.3929526207
 21
8.9293859421
  0
LINE
  5
301
100
AcDbEntity
  8
0
100
AcDbLine
 62
4
  6
CONTINUOUS
 10
10.6965293159
 20
8.9083328268
 11
10.746205507
 21
8.9048877712
  0
LINE
  5
302
100
AcDbEntity
  8
0
100
AcDbLine
 62
4
  6
CONTINUOUS
 10
11.1629335349
 20
8.8759875843
 11
11.2126096984
 21
8.8725425307
  0
LINE
  5
303
100
AcDbEntity
  8
0
100
AcDbLine
 62
4
  6
CONTINUOUS
 10
10.5088637172
 20
8.9544649399
 11
10.5530203254
 21
8.9514026687
  0
LINE
  5
304
100
AcDbEntity
  8
0
100
AcDbLine
 62
4
  6
CONTINUOUS
 10
11.1960509772
 20
8.9399258011
 11
11.1629335349
 21
8.9422225035
  0
LINE
  5
305
100
AcDbEntity
  8
0
100
AcDbLine
 62
4
  6
CONTINUOUS
 10
10.7296467859
 20
8.9722710417
 11
10.6965293159
 21
8.974567746
  0
LINE
  5
306
100
AcDbEntity
  8
0
100
AcDbLine
 62
4
  6
CONTINUOUS
 10
10.9835472692
 20
8.8884280641
 11
10.966988548
 21
8.9061351451
  0
LINE
  5
307
100
AcDbEntity
  8
0
100
AcDbLine
 62
4
  6
CONTINUOUS
 10
11.0083853786
 20
9.0026166388
 11
11.0249440997
 21
8.9849095595
  0
LINE
  5
308
100
AcDbEntity
  8
0
100
AcDbLine
 62
4
  6
CONTINUOUS
 10
11.0994583726
 20
8.9963007052
 11
11.1160170938
 21
8.9785936259
  0
LINE
  5
309
100
AcDbEntity
  8
0
100
AcDbLine
 62
4
  6
CONTINUOUS
 10
11.6655598481
 20
6.8571186546
 11
11.6583154041
 21
6.8865988344
  0
LINE
  5
30A
100
AcDbEntity
  8
0
100
AcDbLine
 62
7
  6
CONTINUOUS
 10
13.5485584647
 20
10.0938481475
 11
13.1603302175
 21
9.7188484347
  0
LINE
  5
30B
100
AcDbEntity
  8
0
100
AcDbLine
 62
4
  6
CONTINUOUS
 10
10.8590118811
 20
7.8596602839
 11
10.8445229932
 21
7.8510058328
  0
LINE
  5
30C
100
AcDbEntity
  8
0
100
AcDbLine
 62
4
  6
CONTINUOUS
 10
9.8641081947
 20
7.0593238224
 11
9.8785970827
 21
7.0679782709
  0
LINE
  5
30D
100
AcDbEntity
  8
0
100
AcDbLine
 62
4
  6
CONTINUOUS
 10
10.3929526207
 20
9.0452970455
 11
10.4343494374
 21
9.0424261665
  0
LINE
  5
30E
100
AcDbEntity
  8
0
100
AcDbLine
 62
4
  6
CONTINUOUS
 10
10.5971769336
 20
9.0311340413
 11
10.6634118459
 21
9.0265406346
  0
LINE
  5
30F
100
AcDbEntity
  8
0
100
AcDbLine
 62
4
  6
CONTINUOUS
 10
10.6965293159
 20
9.0242439302
 11
10.746205507
 21
9.0207988747
  0
LINE
  5
310
100
AcDbEntity
  8
0
100
AcDbLine
 62
4
  6
CONTINUOUS
 10
10.8869547198
 20
9.0110378836
 11
10.9200721622
 21
9.0087411812
  0
LINE
  5
311
100
AcDbEntity
  8
0
100
AcDbLine
 62
4
  6
CONTINUOUS
 10
10.9835472692
 20
9.0043391676
 11
11.0083853786
 21
9.0026166388
  0
LINE
  5
312
100
AcDbEntity
  8
0
100
AcDbLine
 62
4
  6
CONTINUOUS
 10
11.0580615421
 20
8.9991715852
 11
11.0994583726
 21
8.9963007052
  0
LINE
  5
313
100
AcDbEntity
  8
0
100
AcDbLine
 62
4
  6
CONTINUOUS
 10
11.1629335349
 20
8.9918986878
 11
11.2126096984
 21
8.9884536341
  0
LINE
  5
314
100
AcDbEntity
  8
0
100
AcDbLine
 62
7
  6
CONTINUOUS
 10
13.5485584647
 20
8.9327160842
 11
13.5176488357
 21
8.9348596743
  0
LINE
  5
315
100
AcDbEntity
  8
0
100
AcDbLine
 62
4
  6
CONTINUOUS
 10
10.8828150331
 20
9.150418296
 11
10.9242118498
 21
9.147547417
  0
LINE
  5
316
100
AcDbEntity
  8
0
100
AcDbLine
 62
4
  6
CONTINUOUS
 10
11.2457271407
 20
8.9420003235
 11
11.2898837489
 21
8.9168597448
  0
LINE
  5
317
100
AcDbEntity
  8
0
100
AcDbLine
 62
4
  6
CONTINUOUS
 10
11.8466709472
 20
6.9121733653
 11
11.8466709472
 21
6.8928548526
  0
LINE
  5
318
100
AcDbEntity
  8
0
100
AcDbLine
 62
4
  6
CONTINUOUS
 10
9.9075748585
 20
6.9597168108
 11
9.8930859706
 21
6.9510623597
  0
LINE
  5
319
100
AcDbEntity
  8
0
100
AcDbLine
 62
4
  6
CONTINUOUS
 10
10.7917420183
 20
9.2229691502
 11
10.8496975631
 21
9.2189499195
  0
LINE
  5
31A
100
AcDbEntity
  8
0
100
AcDbLine
 62
7
  6
CONTINUOUS
 10
11.9991981542
 20
6.6601140954
 11
11.9991981542
 21
6.6910237244
  0
LINE
  5
31B
100
AcDbEntity
  8
0
100
AcDbLine
 62
4
  6
CONTINUOUS
 10
11.6583154041
 20
6.8865988344
 11
11.6655598481
 21
6.9150742063
  0
LINE
  5
31C
100
AcDbEntity
  8
0
100
AcDbLine
 62
4
  6
CONTINUOUS
 10
10.7696637119
 20
9.436452015
 11
10.7310266774
 21
9.4391315024
  0
LINE
  5
31D
100
AcDbEntity
  8
0
100
AcDbLine
 62
4
  6
CONTINUOUS
 10
11.426493298
 20
9.4488562802
 11
11.3685377463
 21
9.4528755114
  0
LINE
  5
31E
100
AcDbEntity
  8
0
100
AcDbLine
 62
4
  6
CONTINUOUS
 10
11.0594414705
 20
9.4743114109
 11
11.0014859187
 21
9.4783306421
  0
LINE
  5
31F
100
AcDbEntity
  8
0
100
AcDbLine
 62
4
  6
CONTINUOUS
 10
10.8662562981
 20
9.4877088481
 11
10.8083007464
 21
9.4917280793
  0
LINE
  5
320
100
AcDbEntity
  8
0
100
AcDbLine
 62
4
  6
CONTINUOUS
 10
10.7696637119
 20
9.4944075667
 11
10.7117081602
 21
9.4984267979
  0
LINE
  5
321
100
AcDbEntity
  8
0
100
AcDbLine
 62
4
  6
CONTINUOUS
 10
10.4035778091
 20
9.5197957103
 11
10.3456222574
 21
9.5238149414
  0
LINE
  5
322
100
AcDbEntity
  8
0
100
AcDbLine
 62
4
  6
CONTINUOUS
 10
10.3166444816
 20
9.525824557
 11
10.2586889299
 21
9.5298437882
  0
LINE
  5
323
100
AcDbEntity
  8
0
100
AcDbLine
 62
4
  6
CONTINUOUS
 10
11.0980785049
 20
9.4716319234
 11
11.1560340566
 21
9.4676126923
  0
LINE
  5
324
100
AcDbEntity
  8
0
100
AcDbLine
 62
4
  6
CONTINUOUS
 10
11.2719451601
 20
9.45957423
 11
11.3299007118
 21
9.4555549988
  0
LINE
  5
325
100
AcDbEntity
  8
0
100
AcDbLine
 62
4
  6
CONTINUOUS
 10
11.3685377463
 20
9.4818532872
 11
11.426493298
 21
9.477834056
  0
LINE
  5
326
100
AcDbEntity
  8
0
100
AcDbLine
 62
4
  6
CONTINUOUS
 10
11.0014859187
 20
9.5169676765
 11
11.0594414705
 21
9.5129484454
  0
LINE
  5
327
100
AcDbEntity
  8
0
100
AcDbLine
 62
4
  6
CONTINUOUS
 10
11.0594414705
 20
9.5322669626
 11
11.020804436
 21
9.53494645
  0
LINE
  5
328
100
AcDbEntity
  8
0
100
AcDbLine
 62
4
  6
CONTINUOUS
 10
10.6643777919
 20
9.5596647218
 11
10.6064222401
 21
9.5636839529
  0
LINE
  5
329
100
AcDbEntity
  8
0
100
AcDbLine
 62
4
  6
CONTINUOUS
 10
10.2586889299
 20
9.5877993399
 11
10.3166444816
 21
9.5837801087
  0
LINE
  5
32A
100
AcDbEntity
  8
0
100
AcDbLine
 62
4
  6
CONTINUOUS
 10
10.8083007464
 20
9.549683631
 11
10.8662562981
 21
9.5456643998
  0
LINE
  5
32B
100
AcDbEntity
  8
0
100
AcDbLine
 62
4
  6
CONTINUOUS
 10
10.9048933325
 20
9.5429849124
 11
10.9628488843
 21
9.5389656812
  0
LINE
  5
32C
100
AcDbEntity
  8
0
100
AcDbLine
 62
4
  6
CONTINUOUS
 10
11.2719451601
 20
9.5175297817
 11
11.3299007118
 21
9.5135105505
  0
LINE
  5
32D
100
AcDbEntity
  8
0
100
AcDbLine
 62
4
  6
CONTINUOUS
 10
11.3685377463
 20
9.5108310631
 11
11.426493298
 21
9.5068118319
  0
LINE
  5
32E
100
AcDbEntity
  8
0
100
AcDbLine
 62
4
  6
CONTINUOUS
 10
11.2260636816
 20
9.5496894489
 11
11.2405525696
 21
9.5486846411
  0
LINE
  5
32F
100
AcDbEntity
  8
0
100
AcDbLine
 62
4
  6
CONTINUOUS
 10
10.3166444816
 20
9.6417356605
 11
10.2586889299
 21
9.6457548916
  0
LINE
  5
330
100
AcDbEntity
  8
0
100
AcDbLine
 62
4
  6
CONTINUOUS
 10
10.432555585
 20
9.6336971981
 11
10.4905111367
 21
9.629677967
  0
LINE
  5
331
100
AcDbEntity
  8
0
100
AcDbLine
 62
4
  6
CONTINUOUS
 10
11.7959598394
 20
6.8480753845
 11
11.7887153955
 21
6.8196000125
  0
LINE
  5
332
100
AcDbEntity
  8
0
100
AcDbLine
 62
4
  6
CONTINUOUS
 10
13.0057819999
 20
8.3869294118
 11
13.0202708879
 21
8.3955838604
  0
LINE
  5
333
100
AcDbEntity
  8
0
100
AcDbLine
 62
4
  6
CONTINUOUS
 10
13.0492486637
 20
8.3452779494
 11
13.0202708879
 21
8.3279690489
  0
LINE
  5
334
100
AcDbEntity
  8
0
100
AcDbLine
 62
4
  6
CONTINUOUS
 10
13.0347597758
 20
8.3945790526
 11
13.0492486637
 21
8.3839149885
  0
LINE
  5
335
100
AcDbEntity
  8
0
100
AcDbLine
 62
4
  6
CONTINUOUS
 10
11.6655598481
 20
6.9150742063
 11
11.680048736
 21
6.9333879181
  0
LINE
  5
336
100
AcDbEntity
  8
0
100
AcDbLine
 62
7
  6
CONTINUOUS
 10
13.1603302175
 20
9.7188484347
 11
8.4514415353
 21
10.045410974
  0
LINE
  5
337
100
AcDbEntity
  8
0
100
AcDbLine
 62
4
  6
CONTINUOUS
 10
11.7887153955
 20
6.9161925964
 11
11.7959598394
 21
6.9253494558
  0
LINE
  5
338
100
AcDbEntity
  8
0
100
AcDbLine
 62
4
  6
CONTINUOUS
 10
11.7307598437
 20
6.8429377615
 11
11.7235153998
 21
6.8337809065
  0
LINE
  5
339
100
AcDbEntity
  8
0
100
AcDbLine
 62
4
  6
CONTINUOUS
 10
12.998537556
 20
8.3777725525
 11
13.0057819999
 21
8.3869294118
  0
LINE
  5
33A
100
AcDbEntity
  8
0
100
AcDbLine
 62
4
  6
CONTINUOUS
 10
11.8104487274
 20
6.8663890928
 11
11.7959598394
 21
6.8480753845
  0
LINE
  5
33B
100
AcDbEntity
  8
0
100
AcDbLine
 62
4
  6
CONTINUOUS
 10
11.8466709472
 20
6.8928548526
 11
11.8394265032
 21
6.8836979933
  0
LINE
  5
33C
100
AcDbEntity
  8
0
100
AcDbLine
 62
4
  6
CONTINUOUS
 10
13.0202708879
 20
8.3279690489
 11
13.0057819999
 21
8.3096553406
  0
LINE
  5
33D
100
AcDbEntity
  8
0
100
AcDbLine
 62
4
  6
CONTINUOUS
 10
13.0564931077
 20
8.3544348087
 11
13.0492486637
 21
8.3452779494
  0
LINE
  5
33E
100
AcDbEntity
  8
0
100
AcDbLine
 62
4
  6
CONTINUOUS
 10
11.680048736
 20
6.9333879181
 11
11.6945376239
 21
6.9420423666
  0
LINE
  5
33F
100
AcDbEntity
  8
0
100
AcDbLine
 62
4
  6
CONTINUOUS
 10
13.0492486637
 20
8.3839149885
 11
13.0564931077
 21
8.3737533213
  0
LINE
  5
340
100
AcDbEntity
  8
0
100
AcDbLine
 62
4
  6
CONTINUOUS
 10
12.9116042284
 20
8.2872088154
 11
12.9478264482
 21
8.4006078993
  0
LINE
  5
341
100
AcDbEntity
  8
0
100
AcDbLine
 62
4
  6
CONTINUOUS
 10
11.7959598394
 20
6.9253494558
 11
11.8104487274
 21
6.9340039043
  0
LINE
  5
342
100
AcDbEntity
  8
0
100
AcDbLine
 62
4
  6
CONTINUOUS
 10
11.7235153998
 20
6.8337809065
 11
11.7090265118
 21
6.8251264554
  0
LINE
  5
343
100
AcDbEntity
  8
0
100
AcDbLine
 62
4
  6
CONTINUOUS
 10
11.8394265032
 20
6.8836979933
 11
11.8104487274
 21
6.8663890928
  0
LINE
  5
344
100
AcDbEntity
  8
0
100
AcDbLine
 62
7
  6
CONTINUOUS
 10
13.5485584647
 20
10.0938481475
 11
8.8396697825
 21
10.4204106867
  0
LINE
  5
345
100
AcDbEntity
  8
0
100
AcDbLine
 62
4
  6
CONTINUOUS
 10
12.8753820086
 20
8.4056319383
 11
12.9116042284
 21
8.2872088154
  0
LINE
  5
346
100
AcDbEntity
  8
0
100
AcDbLine
 62
4
  6
CONTINUOUS
 10
13.0564931077
 20
8.3737533213
 11
13.0564931077
 21
8.3544348087
  0
LINE
  5
347
100
AcDbEntity
  8
0
100
AcDbLine
 62
7
  6
CONTINUOUS
 10
13.1294205885
 20
8.5598599615
 11
13.1294205885
 21
7.9843464375
  0
LINE
  5
348
100
AcDbEntity
  8
0
100
AcDbLine
 62
4
  6
CONTINUOUS
 10
13.0057819999
 20
8.3096553406
 11
12.998537556
 21
8.2811799686
  0
LINE
  5
349
100
AcDbEntity
  8
0
100
AcDbLine
 62
7
  6
CONTINUOUS
 10
13.1603302175
 20
6.5795893133
 11
13.1603302175
 21
7.9822028474
  0
LINE
  5
34A
100
AcDbEntity
  8
0
100
AcDbLine
 62
7
  6
CONTINUOUS
 10
13.1603302175
 20
8.5577163715
 11
13.1603302175
 21
9.7188484347
  0
LINE
  5
34B
100
AcDbEntity
  8
0
100
AcDbLine
 62
7
  6
CONTINUOUS
 10
13.5176488357
 20
8.9348596743
 11
13.5176488357
 21
8.3593461502
  0
LINE
  5
34C
100
AcDbEntity
  8
0
100
AcDbLine
 62
7
  6
CONTINUOUS
 10
13.5485584647
 20
6.954589026
 11
13.5485584647
 21
8.3572025601
  0
LINE
  5
34D
100
AcDbEntity
  8
0
100
AcDbLine
 62
7
  6
CONTINUOUS
 10
13.5485584647
 20
8.9327160842
 11
13.5485584647
 21
10.0938481475
  0
LINE
  5
34E
100
AcDbEntity
  8
0
100
AcDbLine
 62
7
  6
CONTINUOUS
 10
13.5485584647
 20
6.954589026
 11
13.1603302175
 21
6.5795893133
  0
ARC
  5
34F
100
AcDbEntity
  8
0
100
AcDbCircle
 62
7
  6
CONTINUOUS
 10
10.7775111433
 20
8.4796590788
 40
0.3600406406
100
AcDbArc
 50
134.7903243697
 51
135.8394173804
  0
ARC
  5
350
100
AcDbEntity
  8
0
100
AcDbCircle
 62
7
  6
CONTINUOUS
 10
10.8518494222
 20
8.4026968648
 40
0.3599576636
100
AcDbArc
 50
312.1758147136
 51
312.9228844525
  0
ARC
  5
351
100
AcDbEntity
  8
0
100
AcDbCircle
 62
7
  6
CONTINUOUS
 10
10.7983219209
 20
8.4454197514
 40
0.2330107001
100
AcDbArc
 50
85.9815208982
 51
98.6608087097
  0
ARC
  5
352
100
AcDbEntity
  8
0
100
AcDbCircle
 62
7
  6
CONTINUOUS
 10
10.8291715291
 20
8.4552291529
 40
0.2083598235
100
AcDbArc
 50
41.567683495
 51
42.6648169521
  0
ARC
  5
353
100
AcDbEntity
  8
0
100
AcDbCircle
 62
7
  6
CONTINUOUS
 10
10.8291705296
 20
8.4552364784
 40
0.2083554474
100
AcDbArc
 50
45.4300773728
 51
46.5172936354
  0
ARC
  5
354
100
AcDbEntity
  8
0
100
AcDbCircle
 62
7
  6
CONTINUOUS
 10
10.9527646774
 20
8.5945401472
 40
0.1024723303
100
AcDbArc
 50
141.3897285855
 51
149.490632183
  0
ARC
  5
355
100
AcDbEntity
  8
0
100
AcDbCircle
 62
7
  6
CONTINUOUS
 10
10.8316087661
 20
8.6097772399
 40
0.0813377293
100
AcDbArc
 50
293.8368266012
 51
313.9702404471
  0
ARC
  5
356
100
AcDbEntity
  8
0
100
AcDbCircle
 62
7
  6
CONTINUOUS
 10
10.8387568818
 20
8.5802570917
 40
0.0711207233
100
AcDbArc
 50
68.7964701748
 51
89.5719944649
  0
ARC
  5
357
100
AcDbEntity
  8
0
100
AcDbCircle
 62
7
  6
CONTINUOUS
 10
10.8397322239
 20
8.5975462167
 40
0.0669132081
100
AcDbArc
 50
269.6197514514
 51
291.7063108431
  0
SPLINE
  5
358
100
AcDbEntity
  8
0
100
AcDbSpline
 62
7
  6
CONTINUOUS
 70
0
 71
3
 72
42
 73
38
 74
0
 42
0.0000001
 43
0.0000001
 44
0.0000000001
 40
0.0
 40
0.0
 40
0.0
 40
0.0
 40
0.0311444347
 40
0.0467772112
 40
0.0624471461
 40
0.093891844
 40
0.1254739796
 40
0.1571813629
 40
0.1889992234
 40
0.2209106216
 40
0.2528967716
 40
0.2849374315
 40
0.3170113014
 40
0.34909644
 40
0.3811706886
 40
0.4132120984
 40
0.4451993552
 40
0.4771121951
 40
0.5089318057
 40
0.5406412074
 40
0.572225607
 40
0.6036727182
 40
0.6349730419
 40
0.6661200987
 40
0.6971106068
 40
0.7279445994
 40
0.7586254742
 40
0.7891599701
 40
0.8195580671
 40
0.8498328085
 40
0.864931571
 40
0.8800056544
 40
0.910083706
 40
0.9400929707
 40
0.9550814956
 40
0.9700611828
 40
1.0
 40
1.0
 40
1.0
 40
1.0
 10
8.934404477
 20
7.5517041549
 30
0.0
 10
8.9391926386
 20
7.5513720948
 30
0.0
 10
8.9463694698
 20
7.550610676
 30
0.0
 10
8.9558722322
 20
7.5490805354
 30
0.0
 10
8.9653599084
 20
7.5472019924
 30
0.0
 10
8.9771244628
 20
7.5442102408
 30
0.0
 10
8.9909953347
 20
7.5396181388
 30
0.0
 10
9.0045639994
 20
7.5340441096
 30
0.0
 10
9.0177577028
 20
7.5275180474
 30
0.0
 10
9.0305062601
 20
7.5200748083
 30
0.0
 10
9.0427417122
 20
7.5117541389
 30
0.0
 10
9.0543988755
 20
7.5026004373
 30
0.0
 10
9.0654156336
 20
7.4926625244
 30
0.0
 10
9.0757332783
 20
7.4819933843
 30
0.0
 10
9.0852968153
 20
7.4706498848
 30
0.0
 10
9.0940552561
 20
7.4586924769
 30
0.0
 10
9.1019618863
 20
7.4461848764
 30
0.0
 10
9.1089745133
 20
7.4331937276
 30
0.0
 10
9.1150556898
 20
7.419788253
 30
0.0
 10
9.1201729123
 20
7.4060398884
 30
0.0
 10
9.1242987955
 20
7.3920219074
 30
0.0
 10
9.1274112184
 20
7.3778090361
 30
0.0
 10
9.1294934452
 20
7.3634770602
 30
0.0
 10
9.1305342178
 20
7.3491024254
 30
0.0
 10
9.1305278224
 20
7.3347618387
 30
0.0
 10
9.129474119
 20
7.3205318482
 30
0.0
 10
9.1273785782
 20
7.3064884934
 30
0.0
 10
9.1242521568
 20
7.2927066952
 30
0.0
 10
9.120111634
 20
7.2792606156
 30
0.0
 10
9.1158296487
 20
7.2683835319
 30
0.0
 10
9.1119221301
 20
7.2599249163
 30
0.0
 10
9.1077051569
 20
7.2516502258
 30
0.0
 10
9.1018501434
 20
7.2416415564
 30
0.0
 10
9.0952420851
 20
7.2321292228
 30
0.0
 10
9.0895317545
 20
7.2248582374
 30
0.0
 10
9.0835490278
 20
7.2178245761
 30
0.0
 10
9.0787558052
 20
7.2128172282
 30
0.0
 10
9.0754372522
 20
7.2096117717
 30
0.0
  0
SPLINE
  5
359
100
AcDbEntity
  8
0
100
AcDbSpline
 62
7
  6
CONTINUOUS
 70
0
 71
3
 72
42
 73
38
 74
0
 42
0.0000001
 43
0.0000001
 44
0.0000000001
 40
0.0
 40
0.0
 40
0.0
 40
0.0
 40
0.0311444347
 40
0.0467772112
 40
0.0624471461
 40
0.093891844
 40
0.1254739796
 40
0.1571813629
 40
0.1889992234
 40
0.2209106216
 40
0.2528967716
 40
0.2849374315
 40
0.3170113014
 40
0.34909644
 40
0.3811706886
 40
0.4132120984
 40
0.4451993552
 40
0.4771121951
 40
0.5089318057
 40
0.5406412074
 40
0.572225607
 40
0.6036727182
 40
0.6349730419
 40
0.6661200987
 40
0.6971106068
 40
0.7279445994
 40
0.7586254742
 40
0.7891599701
 40
0.8195580671
 40
0.8498328085
 40
0.864931571
 40
0.8800056544
 40
0.910083706
 40
0.9400929707
 40
0.9550814956
 40
0.9700611828
 40
1.0
 40
1.0
 40
1.0
 40
1.0
 10
12.6773672757
 20
7.2921288032
 30
0.0
 10
12.6821554372
 20
7.291796743
 30
0.0
 10
12.6893322684
 20
7.2910353243
 30
0.0
 10
12.6988350308
 20
7.2895051837
 30
0.0
 10
12.708322707
 20
7.2876266407
 30
0.0
 10
12.7200872615
 20
7.2846348891
 30
0.0
 10
12.7339581334
 20
7.2800427871
 30
0.0
 10
12.747526798
 20
7.2744687579
 30
0.0
 10
12.7607205014
 20
7.2679426956
 30
0.0
 10
12.7734690588
 20
7.2604994566
 30
0.0
 10
12.7857045108
 20
7.2521787872
 30
0.0
 10
12.7973616742
 20
7.2430250856
 30
0.0
 10
12.8083784323
 20
7.2330871727
 30
0.0
 10
12.8186960769
 20
7.2224180326
 30
0.0
 10
12.828259614
 20
7.2110745331
 30
0.0
 10
12.8370180548
 20
7.1991171252
 30
0.0
 10
12.844924685
 20
7.1866095246
 30
0.0
 10
12.851937312
 20
7.1736183759
 30
0.0
 10
12.8580184884
 20
7.1602129013
 30
0.0
 10
12.863135711
 20
7.1464645367
 30
0.0
 10
12.8672615941
 20
7.1324465557
 30
0.0
 10
12.870374017
 20
7.1182336843
 30
0.0
 10
12.8724562439
 20
7.1039017084
 30
0.0
 10
12.8734970165
 20
7.0895270737
 30
0.0
 10
12.873490621
 20
7.0751864869
 30
0.0
 10
12.8724369176
 20
7.0609564965
 30
0.0
 10
12.8703413769
 20
7.0469131417
 30
0.0
 10
12.8672149555
 20
7.0331313434
 30
0.0
 10
12.8630744326
 20
7.0196852639
 30
0.0
 10
12.8587924474
 20
7.0088081802
 30
0.0
 10
12.8548849287
 20
7.0003495646
 30
0.0
 10
12.8506679556
 20
6.992074874
 30
0.0
 10
12.8448129421
 20
6.9820662047
 30
0.0
 10
12.8382048838
 20
6.972553871
 30
0.0
 10
12.8324945532
 20
6.9652828857
 30
0.0
 10
12.8265118265
 20
6.9582492244
 30
0.0
 10
12.8217186039
 20
6.9532418765
 30
0.0
 10
12.8184000509
 20
6.95003642
 30
0.0
  0
SPLINE
  5
35A
100
AcDbEntity
  8
0
100
AcDbSpline
 62
7
  6
CONTINUOUS
 70
0
 71
3
 72
39
 73
35
 74
0
 42
0.0000001
 43
0.0000001
 44
0.0000000001
 40
0.0
 40
0.0
 40
0.0
 40
0.0
 40
0.0311450469
 40
0.0624431113
 40
0.09388834
 40
0.1254709884
 40
0.1571788814
 40
0.1889972579
 40
0.2209091718
 40
0.2528958393
 40
0.2849370182
 40
0.3170114084
 40
0.349097068
 40
0.3811718384
 40
0.4132137706
 40
0.4452015496
 40
0.4771149115
 40
0.5089350441
 40
0.5406449673
 40
0.5722298867
 40
0.6036775163
 40
0.6349783575
 40
0.6661259304
 40
0.6971169519
 40
0.7279514552
 40
0.7586328387
 40
0.7891678413
 40
0.8195664421
 40
0.8498416837
 40
0.8800094162
 40
0.9100879631
 40
0.9400977203
 40
0.9700606956
 40
1.0
 40
1.0
 40
1.0
 40
1.0
 10
10.8063688043
 20
8.8326177407
 30
0.0
 10
10.8161220364
 20
8.8319413518
 30
0.0
 10
10.8356341679
 20
8.8298713556
 30
0.0
 10
10.8646658054
 20
8.8246569588
 30
0.0
 10
10.8933864852
 20
8.8173531851
 30
0.0
 10
10.9216411072
 20
8.8079992779
 30
0.0
 10
10.9492795456
 20
8.7966453605
 30
0.0
 10
10.976154373
 20
8.7833521774
 30
0.0
 10
11.002122431
 20
8.7681907811
 30
0.0
 10
11.0270453479
 20
8.7512421222
 30
0.0
 10
11.0507903237
 20
8.732596621
 30
0.0
 10
11.0732308304
 20
8.7123537196
 30
0.0
 10
11.094247298
 20
8.6906213604
 30
0.0
 10
11.1137277099
 20
8.6675153786
 30
0.0
 10
11.1315681968
 20
8.6431589
 30
0.0
 10
11.1476735882
 20
8.6176816989
 30
0.0
 10
11.1619579608
 20
8.5912195399
 30
0.0
 10
11.1743450427
 20
8.563913425
 30
0.0
 10
11.1847686226
 20
8.5359088602
 30
0.0
 10
11.1931728926
 20
8.507355091
 30
0.0
 10
11.19951281
 20
8.4784043359
 30
0.0
 10
11.2037542979
 20
8.4492109663
 30
0.0
 10
11.2058744232
 20
8.4199306959
 30
0.0
 10
11.2058615202
 20
8.390719765
 30
0.0
 10
11.2037153155
 20
8.3617341185
 30
0.0
 10
11.1994469376
 20
8.3331285712
 30
0.0
 10
11.1930788365
 20
8.3050559893
 30
0.0
 10
11.1846446843
 20
8.2776664754
 30
0.0
 10
11.1741892479
 20
8.2511065714
 30
0.0
 10
11.1617681533
 20
8.2255183951
 30
0.0
 10
11.147447732
 20
8.2010390693
 30
0.0
 10
11.1313039837
 20
8.1777992854
 30
0.0
 10
11.1134248006
 20
8.1559251325
 30
0.0
 10
11.1004063936
 20
8.1423251729
 30
0.0
 10
11.0936467219
 20
8.1357958259
 30
0.0
  0
SPLINE
  5
35B
100
AcDbEntity
  8
0
100
AcDbSpline
 62
7
  6
CONTINUOUS
 70
0
 71
3
 72
52
 73
48
 74
0
 42
0.0000001
 43
0.0000001
 44
0.0000000001
 40
0.0
 40
0.0
 40
0.0
 40
0.0
 40
0.0470070924
 40
0.0937047266
 40
0.1400011173
 40
0.1858065619
 40
0.231031954
 40
0.2755899433
 40
0.3193947997
 40
0.3623627923
 40
0.4044123975
 40
0.4454645719
 40
0.4854430195
 40
0.5242744795
 40
0.5618890321
 40
0.5982204335
 40
0.6332064867
 40
0.6667894597
 40
0.6989165721
 40
0.7295405711
 40
0.7586204324
 40
0.7725708893
 40
0.7861232218
 40
0.7992745279
 40
0.8120224288
 40
0.8243652625
 40
0.8363020426
 40
0.8478325949
 40
0.8589576233
 40
0.869678782
 40
0.8799988612
 40
0.8899218108
 40
0.8994530391
 40
0.908599428
 40
0.9173697177
 40
0.9257745686
 40
0.9338269888
 40
0.9415424891
 40
0.9489394989
 40
0.9560396088
 40
0.9628678946
 40
0.9694531471
 40
0.975827965
 40
0.9820287553
 40
0.9880954055
 40
0.9940708058
 40
1.0
 40
1.0
 40
1.0
 40
1.0
 10
13.1603302175
 20
8.5577163715
 30
0.0
 10
13.1615023789
 20
8.569861827
 30
0.0
 10
13.1639784711
 20
8.5940595633
 30
0.0
 10
13.1680997916
 20
8.6301667696
 30
0.0
 10
13.172609869
 20
8.665913183
 30
0.0
 10
13.177499216
 20
8.7012239474
 30
0.0
 10
13.1827576172
 20
8.7360253777
 30
0.0
 10
13.1883740374
 20
8.77024472
 30
0.0
 10
13.1943367101
 20
8.8038105006
 30
0.0
 10
13.2006331298
 20
8.8366525997
 30
0.0
 10
13.2072500916
 20
8.8687024271
 30
0.0
 10
13.2141737131
 20
8.8998930589
 30
0.0
 10
13.221389465
 20
8.9301593834
 30
0.0
 10
13.2288822003
 20
8.9594382401
 30
0.0
 10
13.2366361873
 20
8.987668558
 30
0.0
 10
13.2446351414
 20
9.0147914874
 30
0.0
 10
13.252862262
 20
9.0407505404
 30
0.0
 10
13.2613002684
 20
9.0654916896
 30
0.0
 10
13.2699314481
 20
9.0889636006
 30
0.0
 10
13.2787376805
 20
9.1111173924
 30
0.0
 10
13.286307777
 20
9.128677267
 30
0.0
 10
13.2924485669
 20
9.1420200422
 30
0.0
 10
13.2970226572
 20
9.1515306153
 30
0.0
 10
13.3016266172
 20
9.1606786426
 30
0.0
 10
13.3062581264
 20
9.1694593703
 30
0.0
 10
13.3109147324
 20
9.1778682516
 30
0.0
 10
13.3155940392
 20
9.1859009253
 30
0.0
 10
13.3202936178
 20
9.193553237
 30
0.0
 10
13.3250110292
 20
9.2008212423
 30
0.0
 10
13.3297438765
 20
9.2077011807
 30
0.0
 10
13.3344896934
 20
9.2141895377
 30
0.0
 10
13.3392461271
 20
9.2202829488
 30
0.0
 10
13.3440107112
 20
9.2259783327
 30
0.0
 10
13.348781145
 20
9.2312727208
 30
0.0
 10
13.3535550024
 20
9.2361634502
 30
0.0
 10
13.3583300382
 20
9.2406479405
 30
0.0
 10
13.3631039104
 20
9.244723903
 30
0.0
 10
13.3678744264
 20
9.2483891172
 30
0.0
 10
13.372639346
 20
9.2516415872
 30
0.0
 10
13.3773964965
 20
9.2544793937
 30
0.0
 10
13.3821436838
 20
9.2569007251
 30
0.0
 10
13.3868786416
 20
9.2589038993
 30
0.0
 10
13.391599047
 20
9.2604872288
 30
0.0
 10
13.3963022959
 20
9.2616493095
 30
0.0
 10
13.4009857927
 20
9.2623887222
 30
0.0
 10
13.4056459944
 20
9.262704648
 30
0.0
 10
13.408740385
 20
9.2626322956
 30
0.0
 10
13.4102757706
 20
9.2625258179
 30
0.0
  0
SPLINE
  5
35C
100
AcDbEntity
  8
0
100
AcDbSpline
 62
7
  6
CONTINUOUS
 70
0
 71
3
 72
31
 73
27
 74
0
 42
0.0000001
 43
0.0000001
 44
0.0000000001
 40
0.0
 40
0.0
 40
0.0
 40
0.0
 40
0.0618524031
 40
0.1227371256
 40
0.152835966
 40
0.1827121391
 40
0.2418478058
 40
0.3003884656
 40
0.329560952
 40
0.358741427
 40
0.3880082038
 40
0.4174517417
 40
0.4471706387
 40
0.4772659298
 40
0.5078285164
 40
0.538921835
 40
0.5705643939
 40
0.6027216955
 40
0.6353131748
 40
0.6682306701
 40
0.7013629948
 40
0.7346149874
 40
0.8011807692
 40
0.8676479006
 40
0.9339208512
 40
1.0
 40
1.0
 40
1.0
 40
1.0
 10
10.864480034
 20
8.6465632211
 30
0.0
 10
10.8669267627
 20
8.6458680465
 30
0.0
 10
10.871719079
 20
8.6442549483
 30
0.0
 10
10.8774588632
 20
8.641667001
 30
0.0
 10
10.881820133
 20
8.6392790633
 30
0.0
 10
10.8859881881
 20
8.6367024616
 30
0.0
 10
10.8908845688
 20
8.6330962606
 30
0.0
 10
10.8953084482
 20
8.6289616651
 30
0.0
 10
10.8984920445
 20
8.6253559393
 30
0.0
 10
10.9006918944
 20
8.6224985017
 30
0.0
 10
10.902690341
 20
8.6194831071
 30
0.0
 10
10.904469222
 20
8.6163073192
 30
0.0
 10
10.9060075551
 20
8.6129702989
 30
0.0
 10
10.9072821417
 20
8.6094744515
 30
0.0
 10
10.9082685138
 20
8.6058276583
 30
0.0
 10
10.9089434501
 20
8.6020457081
 30
0.0
 10
10.9092884537
 20
8.598153619
 30
0.0
 10
10.9092933955
 20
8.5941847969
 30
0.0
 10
10.9089586534
 20
8.5901777936
 30
0.0
 10
10.9082950045
 20
8.5861717839
 30
0.0
 10
10.9073209573
 20
8.5822020685
 30
0.0
 10
10.9056386827
 20
8.5769959179
 30
0.0
 10
10.9028801567
 20
8.5707162757
 30
0.0
 10
10.8986927203
 20
8.5636500028
 30
0.0
 10
10.8937591573
 20
8.557110895
 30
0.0
 10
10.8900344164
 20
8.5531267242
 30
0.0
 10
10.8880799981
 20
8.5512387507
 30
0.0
  0
SPLINE
  5
35D
100
AcDbEntity
  8
0
100
AcDbSpline
 62
7
  6
CONTINUOUS
 70
0
 71
3
 72
21
 73
17
 74
0
 42
0.0000001
 43
0.0000001
 44
0.0000000001
 40
0.0
 40
0.0
 40
0.0
 40
0.0
 40
0.06165322
 40
0.1233294719
 40
0.1850515326
 40
0.2468416528
 40
0.308721334
 40
0.3707110997
 40
0.4328302469
 40
0.4950966389
 40
0.5575265783
 40
0.620134583
 40
0.6829331586
 40
0.745933179
 40
0.8725262751
 40
1.0
 40
1.0
 40
1.0
 40
1.0
 10
8.7933717019
 20
7.5016306294
 30
0.0
 10
8.7956497705
 20
7.5038310613
 30
0.0
 10
8.8003261457
 20
7.5081110478
 30
0.0
 10
8.8076769852
 20
7.5141460373
 30
0.0
 10
8.8153470407
 20
7.5197821037
 30
0.0
 10
8.8233167137
 20
7.5250048053
 30
0.0
 10
8.831565966
 20
7.5298010964
 30
0.0
 10
8.8400740001
 20
7.5341588758
 30
0.0
 10
8.848819399
 20
7.5380671474
 30
0.0
 10
8.8577800977
 20
7.5415161302
 30
0.0
 10
8.866933542
 20
7.5444971646
 30
0.0
 10
8.8762566152
 20
7.5470027129
 30
0.0
 10
8.8857260961
 20
7.5490265368
 30
0.0
 10
8.898533487
 20
7.5510789709
 30
0.0
 10
8.9147968308
 20
7.552412382
 30
0.0
 10
8.9278715782
 20
7.552157213
 30
0.0
 10
8.934404477
 20
7.5517041549
 30
0.0
  0
SPLINE
  5
35E
100
AcDbEntity
  8
0
100
AcDbSpline
 62
7
  6
CONTINUOUS
 70
0
 71
3
 72
21
 73
17
 74
0
 42
0.0000001
 43
0.0000001
 44
0.0000000001
 40
0.0
 40
0.0
 40
0.0
 40
0.0
 40
0.06165322
 40
0.1233294719
 40
0.1850515326
 40
0.2468416528
 40
0.308721334
 40
0.3707110997
 40
0.4328302469
 40
0.4950966389
 40
0.5575265783
 40
0.620134583
 40
0.6829331586
 40
0.745933179
 40
0.8725262751
 40
1.0
 40
1.0
 40
1.0
 40
1.0
 10
12.5363345005
 20
7.2420552776
 30
0.0
 10
12.5386125691
 20
7.2442557096
 30
0.0
 10
12.5432889443
 20
7.2485356961
 30
0.0
 10
12.5506397838
 20
7.2545706856
 30
0.0
 10
12.5583098394
 20
7.260206752
 30
0.0
 10
12.5662795124
 20
7.2654294536
 30
0.0
 10
12.5745287646
 20
7.2702257447
 30
0.0
 10
12.5830367987
 20
7.274583524
 30
0.0
 10
12.5917821976
 20
7.2784917956
 30
0.0
 10
12.6007428963
 20
7.2819407785
 30
0.0
 10
12.6098963406
 20
7.2849218129
 30
0.0
 10
12.6192194138
 20
7.2874273612
 30
0.0
 10
12.6286888948
 20
7.2894511851
 30
0.0
 10
12.6414962856
 20
7.2915036191
 30
0.0
 10
12.6577596294
 20
7.2928370303
 30
0.0
 10
12.6708343768
 20
7.2925818612
 30
0.0
 10
12.6773672757
 20
7.2921288032
 30
0.0
  0
SPLINE
  5
35F
100
AcDbEntity
  8
0
100
AcDbSpline
 62
7
  6
CONTINUOUS
 70
0
 71
3
 72
15
 73
11
 74
0
 42
0.0000001
 43
0.0000001
 44
0.0000000001
 40
0.0
 40
0.0
 40
0.0
 40
0.0
 40
0.1232579905
 40
0.247038949
 40
0.3713661602
 40
0.4962342203
 40
0.6216074958
 40
0.7474233471
 40
0.8735912209
 40
1.0
 40
1.0
 40
1.0
 40
1.0
 10
10.7933875792
 20
8.633563915
 30
0.0
 10
10.794878894
 20
8.6350044817
 30
0.0
 10
10.7980196939
 20
8.6377389463
 30
0.0
 10
10.8031320725
 20
8.6413468335
 30
0.0
 10
10.8086032744
 20
8.6444393312
 30
0.0
 10
10.81437589
 20
8.6469899817
 30
0.0
 10
10.820391254
 20
8.6489792756
 30
0.0
 10
10.8265894199
 20
8.6503935468
 30
0.0
 10
10.8329090235
 20
8.6512251898
 30
0.0
 10
10.8371617346
 20
8.6513897648
 30
0.0
 10
10.8392881525
 20
8.6513753336
 30
0.0
  0
SPLINE
  5
360
100
AcDbEntity
  8
0
100
AcDbSpline
 62
7
  6
CONTINUOUS
 70
0
 71
3
 72
23
 73
19
 74
0
 42
0.0000001
 43
0.0000001
 44
0.0000000001
 40
0.0
 40
0.0
 40
0.0
 40
0.0
 40
0.0616482077
 40
0.1233194432
 40
0.1850364764
 40
0.2468215657
 40
0.3086962119
 40
0.3706809253
 40
0.4327950037
 40
0.4950563292
 40
0.5574811795
 40
0.6200840681
 40
0.6828776095
 40
0.745872322
 40
0.8090769221
 40
0.8724969185
 40
0.9361382339
 40
1.0
 40
1.0
 40
1.0
 40
1.0
 10
10.5190908867
 20
8.7306189499
 30
0.0
 10
10.523731211
 20
8.7351011628
 30
0.0
 10
10.5332567104
 20
8.7438194425
 30
0.0
 10
10.5482300446
 20
8.7561125488
 30
0.0
 10
10.5638535855
 20
8.7675930969
 30
0.0
 10
10.5800874337
 20
8.7782316547
 30
0.0
 10
10.5968908107
 20
8.7880015821
 30
0.0
 10
10.6142213279
 20
8.7968782589
 30
0.0
 10
10.6320353212
 20
8.8048393679
 30
0.0
 10
10.6502879017
 20
8.81186489
 30
0.0
 10
10.6689330847
 20
8.8179371708
 30
0.0
 10
10.687923905
 20
8.8230409579
 30
0.0
 10
10.7072125219
 20
8.8271634413
 30
0.0
 10
10.7267503892
 20
8.8302943262
 30
0.0
 10
10.7464882123
 20
8.8324257287
 30
0.0
 10
10.7663766087
 20
8.8335524448
 30
0.0
 10
10.7863647118
 20
8.8336715673
 30
0.0
 10
10.799701589
 20
8.8330801137
 30
0.0
 10
10.8063688043
 20
8.8326177407
 30
0.0
  0
SPLINE
  5
361
100
AcDbEntity
  8
0
100
AcDbSpline
 62
7
  6
CONTINUOUS
 70
0
 71
3
 72
21
 73
17
 74
0
 42
0.0000001
 43
0.0000001
 44
0.0000000001
 40
0.0
 40
0.0
 40
0.0
 40
0.0
 40
0.061653231
 40
0.1233294833
 40
0.1850515395
 40
0.2468416632
 40
0.3087213442
 40
0.3707111022
 40
0.4328302462
 40
0.495096638
 40
0.5575265767
 40
0.6201345688
 40
0.6829331417
 40
0.7459332092
 40
0.8725262015
 40
1.0
 40
1.0
 40
1.0
 40
1.0
 10
10.7133812716
 20
8.6138071796
 30
0.0
 10
10.7155639633
 20
8.6159154962
 30
0.0
 10
10.7200445271
 20
8.6200163385
 30
0.0
 10
10.7270876091
 20
8.6257986893
 30
0.0
 10
10.7344365146
 20
8.6311988567
 30
0.0
 10
10.7420725106
 20
8.636202949
 30
0.0
 10
10.7499763954
 20
8.6407984611
 30
0.0
 10
10.7581282192
 20
8.6449738383
 30
0.0
 10
10.7665074711
 20
8.6487185324
 30
0.0
 10
10.7750930233
 20
8.6520231371
 30
0.0
 10
10.783863249
 20
8.6548793914
 30
0.0
 10
10.7927959998
 20
8.6572800807
 30
0.0
 10
10.801869039
 20
8.6592191872
 30
0.0
 10
10.8141402409
 20
8.6611857095
 30
0.0
 10
10.8297227159
 20
8.6624633251
 30
0.0
 10
10.842250086
 20
8.6622188399
 30
0.0
 10
10.8485094875
 20
8.6617847489
 30
0.0
  0
SPLINE
  5
362
100
AcDbEntity
  8
0
100
AcDbSpline
 62
7
  6
CONTINUOUS
 70
0
 71
3
 72
37
 73
33
 74
0
 42
0.0000001
 43
0.0000001
 44
0.0000000001
 40
0.0
 40
0.0
 40
0.0
 40
0.0
 40
0.0303137639
 40
0.0607400981
 40
0.0912816229
 40
0.1219395532
 40
0.152713696
 40
0.183602467
 40
0.2146029329
 40
0.2457108593
 40
0.27692077
 40
0.3082260172
 40
0.3396188721
 40
0.3710906258
 40
0.4026316907
 40
0.4342317094
 40
0.4658796713
 40
0.4975640438
 40
0.5609732647
 40
0.6243823148
 40
0.6560664758
 40
0.6877141448
 40
0.7193137924
 40
0.7508544128
 40
0.7823256501
 40
0.8137179326
 40
0.8450225381
 40
0.8762317511
 40
0.9073390623
 40
0.9383383719
 40
0.9692272256
 40
1.0
 40
1.0
 40
1.0
 40
1.0
 10
11.0472928105
 20
8.3816929339
 30
0.0
 10
11.0480872802
 20
8.3858983586
 30
0.0
 10
11.0494419731
 20
8.3943715794
 30
0.0
 10
11.0507638273
 20
8.4071974393
 30
0.0
 10
11.051375573
 20
8.4201257078
 30
0.0
 10
11.0512753229
 20
8.4331169722
 30
0.0
 10
11.0504634286
 20
8.4461323071
 30
0.0
 10
11.0489423934
 20
8.4591325421
 30
0.0
 10
11.0467168453
 20
8.4720786107
 30
0.0
 10
11.0437935141
 20
8.4849316018
 30
0.0
 10
11.0401812074
 20
8.497652888
 30
0.0
 10
11.0358908089
 20
8.5102042392
 30
0.0
 10
11.0309352642
 20
8.522547953
 30
0.0
 10
11.0253295005
 20
8.5346469421
 30
0.0
 10
11.0190903614
 20
8.5464648818
 30
0.0
 10
11.0122366684
 20
8.5579661772
 30
0.0
 10
11.0047887572
 20
8.5691165889
 30
0.0
 10
10.9940955073
 20
8.5834720386
 30
0.0
 10
10.9793616447
 20
8.6003704111
 30
0.0
 10
10.9629786132
 20
8.6156752032
 30
0.0
 10
10.9489984561
 20
8.6268544845
 30
0.0
 10
10.9381101578
 20
8.6346803846
 30
0.0
 10
10.9268508249
 20
8.6419244264
 30
0.0
 10
10.9152539786
 20
8.648565111
 30
0.0
 10
10.903354547
 20
8.6545824098
 30
0.0
 10
10.8911882546
 20
8.6599582396
 30
0.0
 10
10.8787916593
 20
8.664676413
 30
0.0
 10
10.8662019724
 20
8.6687227142
 30
0.0
 10
10.8534571207
 20
8.6720848865
 30
0.0
 10
10.8405951208
 20
8.6747529757
 30
0.0
 10
10.8276553148
 20
8.6767186336
 30
0.0
 10
10.8189852124
 20
8.6775586453
 30
0.0
 10
10.8146510071
 20
8.6778592234
 30
0.0
  0
SPLINE
  5
363
100
AcDbEntity
  8
0
100
AcDbSpline
 62
7
  6
CONTINUOUS
 70
0
 71
3
 72
29
 73
25
 74
0
 42
0.0000001
 43
0.0000001
 44
0.0000000001
 40
0.0
 40
0.0
 40
0.0
 40
0.0
 40
0.0301953779
 40
0.0604009334
 40
0.0906267523
 40
0.1208827054
 40
0.1511783607
 40
0.1815229009
 40
0.2119250097
 40
0.2423928003
 40
0.2729337528
 40
0.3035546169
 40
0.3342613694
 40
0.3650591743
 40
0.4269258539
 40
0.4891966572
 40
0.5518799787
 40
0.614969256
 40
0.6784434847
 40
0.742268199
 40
0.8063968998
 40
0.8707728054
 40
0.9353308655
 40
1.0
 40
1.0
 40
1.0
 40
1.0
 10
10.9836377035
 20
8.3340171496
 30
0.0
 10
10.985711254
 20
8.3360200439
 30
0.0
 10
10.9897574388
 20
8.3401332686
 30
0.0
 10
10.9955048518
 20
8.3466060567
 30
0.0
 10
11.0009184574
 20
8.3533682089
 30
0.0
 10
11.0059856904
 20
8.3604041738
 30
0.0
 10
11.0106951612
 20
8.3676979552
 30
0.0
 10
11.015036128
 20
8.3752329733
 30
0.0
 10
11.0189987007
 20
8.3829921141
 30
0.0
 10
11.0225739554
 20
8.3909576912
 30
0.0
 10
11.0257537345
 20
8.3991116368
 30
0.0
 10
11.0285308031
 20
8.4074353451
 30
0.0
 10
11.0308989606
 20
8.4159101378
 30
0.0
 10
11.0335076225
 20
8.4274005651
 30
0.0
 10
11.0357176845
 20
8.4420528788
 30
0.0
 10
11.0366642292
 20
8.4598913017
 30
0.0
 10
11.0359027026
 20
8.4778557511
 30
0.0
 10
11.0334402856
 20
8.4957821481
 30
0.0
 10
11.0292998934
 20
8.5135082974
 30
0.0
 10
11.0235195288
 20
8.5308736085
 30
0.0
 10
11.0161520446
 20
8.5477208186
 30
0.0
 10
11.0072640777
 20
8.5638978344
 30
0.0
 10
10.9969376403
 20
8.5792568934
 30
0.0
 10
10.9891572853
 20
8.5888573465
 30
0.0
 10
10.9850606077
 20
8.5934767973
 30
0.0
  0
SPLINE
  5
364
100
AcDbEntity
  8
0
100
AcDbSpline
 62
7
  6
CONTINUOUS
 70
0
 71
3
 72
17
 73
13
 74
0
 42
0.0000001
 43
0.0000001
 44
0.0000000001
 40
0.0
 40
0.0
 40
0.0
 40
0.0
 40
0.1264590498
 40
0.1896356478
 40
0.2527463264
 40
0.378680635
 40
0.5041748489
 40
0.6291267767
 40
0.7534510307
 40
0.8153702801
 40
0.877109282
 40
1.0
 40
1.0
 40
1.0
 40
1.0
 10
10.9725473312
 20
8.6064154624
 30
0.0
 10
10.9683107482
 20
8.6104333938
 30
0.0
 10
10.9616998165
 20
8.6161952951
 30
0.0
 10
10.9524334908
 20
8.6232930142
 30
0.0
 10
10.9428952314
 20
8.6299798328
 30
0.0
 10
10.9304828693
 20
8.6375558487
 30
0.0
 10
10.9149143982
 20
8.6453244514
 30
0.0
 10
10.8988063412
 20
8.6517029648
 30
0.0
 10
10.8850205095
 20
8.6558226446
 30
0.0
 10
10.8738550149
 20
8.6583736863
 30
0.0
 10
10.8626539424
 20
8.6604188452
 30
0.0
 10
10.8541700053
 20
8.6613921907
 30
0.0
 10
10.8485094875
 20
8.6617847489
 30
0.0
  0
SPLINE
  5
365
100
AcDbEntity
  8
0
100
AcDbSpline
 62
7
  6
CONTINUOUS
 70
0
 71
3
 72
72
 73
68
 74
0
 42
0.0000001
 43
0.0000001
 44
0.0000000001
 40
0.0
 40
0.0
 40
0.0
 40
0.0
 40
0.0038007381
 40
0.007741717
 40
0.0118259762
 40
0.0160561861
 40
0.0204346248
 40
0.0249631083
 40
0.0296429507
 40
0.034475139
 40
0.0445982624
 40
0.0553349859
 40
0.0666830763
 40
0.0786369214
 40
0.0911880266
 40
0.1043253873
 40
0.1180357756
 40
0.1323040022
 40
0.1471131281
 40
0.162444632
 40
0.1782785371
 40
0.1945935439
 40
0.2113671532
 40
0.2285757639
 40
0.2461947509
 40
0.2641985494
 40
0.2825607465
 40
0.3012541554
 40
0.3202508788
 40
0.339522374
 40
0.3787721111
 40
0.4187655094
 40
0.459257996
 40
0.5000010196
 40
0.5407440307
 40
0.5812364821
 40
0.6212298196
 40
0.6604794759
 40
0.6797509194
 40
0.6987475868
 40
0.7174409382
 40
0.7358030696
 40
0.7538067944
 40
0.7714257037
 40
0.7886342371
 40
0.8054077625
 40
0.8217226764
 40
0.8375564847
 40
0.8528878938
 40
0.8676969213
 40
0.8819650398
 40
0.8956753162
 40
0.9088125679
 40
0.9213635649
 40
0.9333172929
 40
0.9446652617
 40
0.9554018688
 40
0.9605403345
 40
0.9655254594
 40
0.9703575751
 40
0.9750373564
 40
0.9795657872
 40
0.983944203
 40
0.9881743821
 40
0.9922585089
 40
0.996199292
 40
1.0
 40
1.0
 40
1.0
 40
1.0
 10
10.7042965154
 20
10.0885302924
 30
0.0
 10
10.7031273982
 20
10.0874423447
 30
0.0
 10
10.7007016103
 20
10.0852736266
 30
0.0
 10
10.6968782464
 20
10.0820981779
 30
0.0
 10
10.6928068044
 20
10.0789436467
 30
0.0
 10
10.6884891025
 20
10.0758113653
 30
0.0
 10
10.6839268409
 20
10.0727025273
 30
0.0
 10
10.679121837
 20
10.0696183881
 30
0.0
 10
10.6740760538
 20
10.0665601068
 30
0.0
 10
10.6669186978
 20
10.0624548972
 30
0.0
 10
10.6573717192
 20
10.0574075635
 30
0.0
 10
10.6451614579
 20
10.0515643358
 30
0.0
 10
10.6320453994
 20
10.0458536792
 30
0.0
 10
10.6180449746
 20
10.0402849615
 30
0.0
 10
10.6031828325
 20
10.0348673063
 30
0.0
 10
10.587483201
 20
10.0296096577
 30
0.0
 10
10.5709717308
 20
10.024520694
 30
0.0
 10
10.5536754641
 20
10.0196088335
 30
0.0
 10
10.5356227627
 20
10.0148822124
 30
0.0
 10
10.5168432613
 20
10.0103486714
 30
0.0
 10
10.497367823
 20
10.0060157216
 30
0.0
 10
10.47722848
 20
10.0018905387
 30
0.0
 10
10.4564583681
 20
9.99797996
 30
0.0
 10
10.4350916707
 20
9.9942904718
 30
0.0
 10
10.4131635688
 20
9.9908281887
 30
0.0
 10
10.3907101817
 20
9.9875988394
 30
0.0
 10
10.367768495
 20
9.9846077706
 30
0.0
 10
10.3443763116
 20
9.9818599469
 30
0.0
 10
10.3205721419
 20
9.9793598947
 30
0.0
 10
10.2881394355
 20
9.9763441928
 30
0.0
 10
10.2468581282
 20
9.9732328565
 30
0.0
 10
10.1966138498
 20
9.9705639975
 30
0.0
 10
10.1456966654
 20
9.9689555463
 30
0.0
 10
10.0944420313
 20
9.9684182399
 30
0.0
 10
10.0431874131
 20
9.96895565
 30
0.0
 10
9.9922702774
 20
9.9705642006
 30
0.0
 10
9.942026079
 20
9.9732331648
 30
0.0
 10
9.9007448589
 20
9.9763445786
 30
0.0
 10
9.8683122386
 20
9.9793603503
 30
0.0
 10
9.8445081438
 20
9.9818604513
 30
0.0
 10
9.8211160412
 20
9.9846083172
 30
0.0
 10
9.798174444
 20
9.9875994328
 30
0.0
 10
9.7757211558
 20
9.9908288295
 30
0.0
 10
9.7537931585
 20
9.9942911586
 30
0.0
 10
9.7324265697
 20
9.9979806854
 30
0.0
 10
9.711656574
 20
10.0018913051
 30
0.0
 10
9.6915173571
 20
10.0060165308
 30
0.0
 10
9.6720420506
 20
10.0103495222
 30
0.0
 10
9.653262683
 20
10.0148830979
 30
0.0
 10
9.6352101212
 20
10.0196097525
 30
0.0
 10
9.6179140037
 20
10.0245216503
 30
0.0
 10
9.6014026903
 20
10.0296106497
 30
0.0
 10
9.5857032109
 20
10.0348683293
 30
0.0
 10
9.5708412412
 20
10.040286007
 30
0.0
 10
9.5568409369
 20
10.0458547633
 30
0.0
 10
9.543725221
 20
10.051565422
 30
0.0
 10
9.5334043193
 20
10.056504432
 30
0.0
 10
9.5256163296
 20
10.0605275005
 30
0.0
 10
9.5200953462
 20
10.0635301966
 30
0.0
 10
9.5148109433
 20
10.0665612913
 30
0.0
 10
9.5097652523
 20
10.0696195452
 30
0.0
 10
9.5049603297
 20
10.0727037125
 30
0.0
 10
9.5003981488
 20
10.0758125874
 30
0.0
 10
9.4960805404
 20
10.078944865
 30
0.0
 10
9.4920092611
 20
10.0820993596
 30
0.0
 10
9.4881860383
 20
10.0852747424
 30
0.0
 10
9.4857603509
 20
10.0874434311
 30
0.0
 10
9.4845912625
 20
10.0885313912
 30
0.0
  0
SPLINE
  5
366
100
AcDbEntity
  8
0
100
AcDbSpline
 62
7
  6
CONTINUOUS
 70
0
 71
3
 72
72
 73
68
 74
0
 42
0.0000001
 43
0.0000001
 44
0.0000000001
 40
0.0
 40
0.0
 40
0.0
 40
0.0
 40
0.0038007381
 40
0.007741717
 40
0.0118259762
 40
0.0160561861
 40
0.0204346248
 40
0.0249631083
 40
0.0296429507
 40
0.034475139
 40
0.0445982624
 40
0.0553349859
 40
0.0666830763
 40
0.0786369214
 40
0.0911880266
 40
0.1043253873
 40
0.1180357756
 40
0.1323040022
 40
0.1471131281
 40
0.162444632
 40
0.1782785371
 40
0.1945935439
 40
0.2113671532
 40
0.2285757639
 40
0.2461947509
 40
0.2641985494
 40
0.2825607465
 40
0.3012541554
 40
0.3202508788
 40
0.339522374
 40
0.3787721111
 40
0.4187655094
 40
0.459257996
 40
0.5000010196
 40
0.5407440307
 40
0.5812364821
 40
0.6212298196
 40
0.6604794759
 40
0.6797509194
 40
0.6987475868
 40
0.7174409382
 40
0.7358030696
 40
0.7538067944
 40
0.7714257037
 40
0.7886342371
 40
0.8054077625
 40
0.8217226764
 40
0.8375564847
 40
0.8528878938
 40
0.8676969213
 40
0.8819650398
 40
0.8956753162
 40
0.9088125679
 40
0.9213635649
 40
0.9333172929
 40
0.9446652617
 40
0.9554018688
 40
0.9605403345
 40
0.9655254594
 40
0.9703575751
 40
0.9750373564
 40
0.9795657872
 40
0.983944203
 40
0.9881743821
 40
0.9922585089
 40
0.996199292
 40
1.0
 40
1.0
 40
1.0
 40
1.0
 10
12.515407547
 20
9.9629293157
 30
0.0
 10
12.5142384298
 20
9.9618413681
 30
0.0
 10
12.5118126419
 20
9.9596726499
 30
0.0
 10
12.507989278
 20
9.9564972012
 30
0.0
 10
12.503917836
 20
9.95334267
 30
0.0
 10
12.4996001341
 20
9.9502103887
 30
0.0
 10
12.4950378726
 20
9.9471015507
 30
0.0
 10
12.4902328686
 20
9.9440174115
 30
0.0
 10
12.4851870854
 20
9.9409591302
 30
0.0
 10
12.4780297294
 20
9.9368539206
 30
0.0
 10
12.4684827508
 20
9.9318065868
 30
0.0
 10
12.4562724895
 20
9.9259633592
 30
0.0
 10
12.443156431
 20
9.9202527026
 30
0.0
 10
12.4291560062
 20
9.9146839849
 30
0.0
 10
12.4142938641
 20
9.9092663297
 30
0.0
 10
12.3985942326
 20
9.9040086811
 30
0.0
 10
12.3820827624
 20
9.8989197174
 30
0.0
 10
12.3647864957
 20
9.8940078569
 30
0.0
 10
12.3467337943
 20
9.8892812358
 30
0.0
 10
12.3279542929
 20
9.8847476947
 30
0.0
 10
12.3084788546
 20
9.8804147449
 30
0.0
 10
12.2883395116
 20
9.8762895621
 30
0.0
 10
12.2675693997
 20
9.8723789833
 30
0.0
 10
12.2462027023
 20
9.8686894951
 30
0.0
 10
12.2242746004
 20
9.8652272121
 30
0.0
 10
12.2018212133
 20
9.8619978628
 30
0.0
 10
12.1788795266
 20
9.8590067939
 30
0.0
 10
12.1554873432
 20
9.8562589703
 30
0.0
 10
12.1316831735
 20
9.853758918
 30
0.0
 10
12.0992504671
 20
9.8507432162
 30
0.0
 10
12.0579691598
 20
9.8476318799
 30
0.0
 10
12.0077248814
 20
9.8449630209
 30
0.0
 10
11.956807697
 20
9.8433545697
 30
0.0
 10
11.9055530629
 20
9.8428172633
 30
0.0
 10
11.8542984447
 20
9.8433546733
 30
0.0
 10
11.803381309
 20
9.8449632239
 30
0.0
 10
11.7531371106
 20
9.8476321882
 30
0.0
 10
11.7118558905
 20
9.8507436019
 30
0.0
 10
11.6794232702
 20
9.8537593736
 30
0.0
 10
11.6556191754
 20
9.8562594746
 30
0.0
 10
11.6322270728
 20
9.8590073405
 30
0.0
 10
11.6092854756
 20
9.8619984561
 30
0.0
 10
11.5868321874
 20
9.8652278529
 30
0.0
 10
11.5649041901
 20
9.868690182
 30
0.0
 10
11.5435376013
 20
9.8723797087
 30
0.0
 10
11.5227676056
 20
9.8762903284
 30
0.0
 10
11.5026283887
 20
9.8804155541
 30
0.0
 10
11.4831530822
 20
9.8847485456
 30
0.0
 10
11.4643737146
 20
9.8892821213
 30
0.0
 10
11.4463211528
 20
9.8940087759
 30
0.0
 10
11.4290250353
 20
9.8989206736
 30
0.0
 10
11.4125137219
 20
9.904009673
 30
0.0
 10
11.3968142425
 20
9.9092673527
 30
0.0
 10
11.3819522728
 20
9.9146850304
 30
0.0
 10
11.3679519685
 20
9.9202537866
 30
0.0
 10
11.3548362526
 20
9.9259644453
 30
0.0
 10
11.3445153509
 20
9.9309034554
 30
0.0
 10
11.3367273612
 20
9.9349265238
 30
0.0
 10
11.3312063778
 20
9.9379292199
 30
0.0
 10
11.3259219749
 20
9.9409603147
 30
0.0
 10
11.3208762839
 20
9.9440185685
 30
0.0
 10
11.3160713614
 20
9.9471027359
 30
0.0
 10
11.3115091804
 20
9.9502116108
 30
0.0
 10
11.307191572
 20
9.9533438883
 30
0.0
 10
11.3031202927
 20
9.956498383
 30
0.0
 10
11.2992970699
 20
9.9596737657
 30
0.0
 10
11.2968713825
 20
9.9618424545
 30
0.0
 10
11.2957022941
 20
9.9629304146
 30
0.0
  0
SPLINE
  5
367
100
AcDbEntity
  8
0
100
AcDbSpline
 62
7
  6
CONTINUOUS
 70
0
 71
3
 72
51
 73
47
 74
0
 42
0.0000001
 43
0.0000001
 44
0.0000000001
 40
0.0
 40
0.0
 40
0.0
 40
0.0
 40
0.0054988976
 40
0.0111936891
 40
0.0171298501
 40
0.0233469167
 40
0.0298784732
 40
0.0367526586
 40
0.0439925874
 40
0.0516170709
 40
0.0596410644
 40
0.0680763222
 40
0.0769317312
 40
0.0862138281
 40
0.0959270137
 40
0.1060739408
 40
0.1166556415
 40
0.1276718145
 40
0.1391208975
 40
0.1510002786
 40
0.1633063389
 40
0.1760346068
 40
0.189179787
 40
0.2027358704
 40
0.2166961604
 40
0.2310533473
 40
0.2609256125
 40
0.2922840647
 40
0.3250517196
 40
0.3591448979
 40
0.3944739682
 40
0.4309439962
 40
0.4684553286
 40
0.5069041316
 40
0.5461828972
 40
0.5861809273
 40
0.6267848011
 40
0.6678788332
 40
0.709345523
 40
0.7510659996
 40
0.7929204649
 40
0.8347886274
 40
0.8765501598
 40
0.9180850849
 40
0.959274346
 40
1.0
 40
1.0
 40
1.0
 40
1.0
 10
13.3532990353
 20
9.0325389274
 30
0.0
 10
13.3519335806
 20
9.0322602084
 30
0.0
 10
13.3491821125
 20
9.0315463635
 30
0.0
 10
13.3451002223
 20
9.0300507213
 30
0.0
 10
13.3410048872
 20
9.028116804
 30
0.0
 10
13.3368995685
 20
9.0257470402
 30
0.0
 10
13.3327866556
 20
9.0229439592
 30
0.0
 10
13.3286688536
 20
9.019710021
 30
0.0
 10
13.3245487213
 20
9.0160479548
 30
0.0
 10
13.3204290401
 20
9.0119605523
 30
0.0
 10
13.3163125496
 20
9.0074509564
 30
0.0
 10
13.3122021848
 20
9.0025224942
 30
0.0
 10
13.3081008332
 20
8.9971788707
 30
0.0
 10
13.3040115329
 20
8.9914240388
 30
0.0
 10
13.2999372598
 20
8.9852623246
 30
0.0
 10
13.2958810974
 20
8.9786983295
 30
0.0
 10
13.2918460607
 20
8.9717370103
 30
0.0
 10
13.2878352368
 20
8.9643836093
 30
0.0
 10
13.2838516447
 20
8.9566437035
 30
0.0
 10
13.279898347
 20
8.9485231566
 30
0.0
 10
13.2759783419
 20
8.9400281473
 30
0.0
 10
13.2720946487
 20
8.9311651371
 30
0.0
 10
13.2682502255
 20
8.9219408845
 30
0.0
 10
13.2644480401
 20
8.9123624264
 30
0.0
 10
13.2606909708
 20
8.9024370692
 30
0.0
 10
13.2556792579
 20
8.8885669868
 30
0.0
 10
13.2495612266
 20
8.8704108503
 30
0.0
 10
13.2425378491
 20
8.847644864
 30
0.0
 10
13.2357607315
 20
8.8236908117
 30
0.0
 10
13.2292507762
 20
8.7986219695
 30
0.0
 10
13.2230280752
 20
8.7725148769
 30
0.0
 10
13.2171118197
 20
8.7454493786
 30
0.0
 10
13.2115202486
 20
8.7175082815
 30
0.0
 10
13.206270591
 20
8.6887771149
 30
0.0
 10
13.2013790146
 20
8.6593438539
 30
0.0
 10
13.1968605773
 20
8.6292986455
 30
0.0
 10
13.1927291815
 20
8.5987335275
 30
0.0
 10
13.1889975327
 20
8.5677421431
 30
0.0
 10
13.1856771012
 20
8.5364194505
 30
0.0
 10
13.1827780868
 20
8.5048614297
 30
0.0
 10
13.1803093891
 20
8.4731647879
 30
0.0
 10
13.1782785783
 20
8.4414266543
 30
0.0
 10
13.1766918761
 20
8.4097443024
 30
0.0
 10
13.175554128
 20
8.3782147851
 30
0.0
 10
13.1748688032
 20
8.3469348267
 30
0.0
 10
13.174713884
 20
8.3261744544
 30
0.0
 10
13.174713884
 20
8.315853166
 30
0.0
  0
SPLINE
  5
368
100
AcDbEntity
  8
0
100
AcDbSpline
 62
7
  6
CONTINUOUS
 70
0
 71
3
 72
38
 73
34
 74
0
 42
0.0000001
 43
0.0000001
 44
0.0000000001
 40
0.0
 40
0.0
 40
0.0
 40
0.0
 40
0.0063859075
 40
0.012918452
 40
0.02652315
 40
0.0410109005
 40
0.0565339442
 40
0.0732106505
 40
0.0911303938
 40
0.1103586826
 40
0.1309415273
 40
0.1529091175
 40
0.1762788953
 40
0.2010577539
 40
0.2272437326
 40
0.2548275476
 40
0.2837936119
 40
0.3141207535
 40
0.3457830426
 40
0.3787503218
 40
0.4129885067
 40
0.448460082
 40
0.4851244403
 40
0.5229380158
 40
0.5618545985
 40
0.6018256008
 40
0.6428001335
 40
0.6847252213
 40
0.7275460089
 40
0.7712058333
 40
0.8156465573
 40
0.9066280505
 40
1.0
 40
1.0
 40
1.0
 40
1.0
 10
13.2739280101
 20
7.888043239
 30
0.0
 10
13.2730195741
 20
7.8883644168
 30
0.0
 10
13.271204794
 20
7.8890811106
 30
0.0
 10
13.2675903704
 20
7.8908050357
 30
0.0
 10
13.2631095774
 20
7.8935206544
 30
0.0
 10
13.2579075834
 20
7.8975718754
 30
0.0
 10
13.2528112585
 20
7.9024506956
 30
0.0
 10
13.2478260258
 20
7.9081483641
 30
0.0
 10
13.2429565392
 20
7.9146564975
 30
0.0
 10
13.2382083791
 20
7.9219659613
 30
0.0
 10
13.2335873874
 20
7.9300666377
 30
0.0
 10
13.2290996427
 20
7.9389472217
 30
0.0
 10
13.2247513521
 20
7.9485952165
 30
0.0
 10
13.220548701
 20
7.9589968858
 30
0.0
 10
13.2164977384
 20
7.9701372665
 30
0.0
 10
13.2126044037
 20
7.9820002395
 30
0.0
 10
13.2088744582
 20
7.9945685479
 30
0.0
 10
13.2053134032
 20
8.0078238189
 30
0.0
 10
13.2019265339
 20
8.0217466288
 30
0.0
 10
13.1987189158
 20
8.0363165359
 30
0.0
 10
13.1956953104
 20
8.0515121001
 30
0.0
 10
13.1928602232
 20
8.0673109377
 30
0.0
 10
13.1902179051
 20
8.0836897607
 30
0.0
 10
13.1877722876
 20
8.100624401
 30
0.0
 10
13.1855270101
 20
8.1180898568
 30
0.0
 10
13.1834854409
 20
8.1360603372
 30
0.0
 10
13.1816506238
 20
8.1545092939
 30
0.0
 10
13.1800252819
 20
8.1734094623
 30
0.0
 10
13.1786118609
 20
8.1927328989
 30
0.0
 10
13.1774124473
 20
8.2124510762
 30
0.0
 10
13.1760907519
 20
8.2394401534
 30
0.0
 10
13.1749969719
 20
8.2739475444
 30
0.0
 10
13.174713884
 20
8.3017646922
 30
0.0
 10
13.174713884
 20
8.315853166
 30
0.0
  0
SPLINE
  5
369
100
AcDbEntity
  8
0
100
AcDbSpline
 62
7
  6
CONTINUOUS
 70
0
 71
3
 72
41
 73
37
 74
0
 42
0.0000001
 43
0.0000001
 44
0.0000000001
 40
0.0
 40
0.0
 40
0.0
 40
0.0
 40
0.0077464617
 40
0.0155169814
 40
0.0233353843
 40
0.031225009
 40
0.039208513
 40
0.0473077099
 40
0.0639299766
 40
0.0812499771
 40
0.0994003856
 40
0.118494076
 40
0.1386250623
 40
0.1598705413
 40
0.1822926729
 40
0.2059408066
 40
0.2308532404
 40
0.257058772
 40
0.2845782845
 40
0.3134255821
 40
0.3436086831
 40
0.3751303302
 40
0.4079887878
 40
0.4421783974
 40
0.4776898435
 40
0.5145108204
 40
0.552626001
 40
0.5920176065
 40
0.6326654464
 40
0.6745471091
 40
0.7176382829
 40
0.7619127719
 40
0.8073426645
 40
0.8538979019
 40
0.9015480736
 40
1.0
 40
1.0
 40
1.0
 40
1.0
 10
13.2986129116
 20
7.6523931137
 30
0.0
 10
13.2976459402
 20
7.6524601723
 30
0.0
 10
13.2957124092
 20
7.6526504333
 30
0.0
 10
13.2928262974
 20
7.6531032127
 30
0.0
 10
13.2899530842
 20
7.6537234707
 30
0.0
 10
13.2870935735
 20
7.6545109626
 30
0.0
 10
13.2842483076
 20
7.655465505
 30
0.0
 10
13.2804421791
 20
7.6569733579
 30
0.0
 10
13.2757097946
 20
7.6592929198
 30
0.0
 10
13.2701524101
 20
7.6627161971
 30
0.0
 10
13.2646701367
 20
7.6667989879
 30
0.0
 10
13.2592670901
 20
7.6715366877
 30
0.0
 10
13.253946484
 20
7.6769247208
 30
0.0
 10
13.2487118938
 20
7.6829584229
 30
0.0
 10
13.2435668114
 20
7.689632748
 30
0.0
 10
13.2385149199
 20
7.6969423175
 30
0.0
 10
13.2335599635
 20
7.7048812773
 30
0.0
 10
13.2287056794
 20
7.7134432524
 30
0.0
 10
13.2239559231
 20
7.7226213905
 30
0.0
 10
13.2193144089
 20
7.7324082596
 30
0.0
 10
13.2147849328
 20
7.7427959432
 30
0.0
 10
13.2103711557
 20
7.7537759737
 30
0.0
 10
13.2060766967
 20
7.7653393799
 30
0.0
 10
13.201905125
 20
7.7774766895
 30
0.0
 10
13.197859845
 20
7.7901779223
 30
0.0
 10
13.1939442666
 20
7.8034326302
 30
0.0
 10
13.1901615972
 20
7.8172298774
 30
0.0
 10
13.1865150131
 20
7.8315582771
 30
0.0
 10
13.1830075481
 20
7.8464059858
 30
0.0
 10
13.1796421064
 20
7.8617607189
 30
0.0
 10
13.176421528
 20
7.8776097768
 30
0.0
 10
13.1733484564
 20
7.8939400435
 30
0.0
 10
13.170425512
 20
7.9107379331
 30
0.0
 10
13.1676550552
 20
7.9279895844
 30
0.0
 10
13.1641292719
 20
7.9518374933
 30
0.0
 10
13.161781419
 20
7.9699695993
 30
0.0
 10
13.1603302175
 20
7.9822028474
 30
0.0
  0
SPLINE
  5
36A
100
AcDbEntity
  8
0
100
AcDbSpline
 62
7
  6
CONTINUOUS
 70
0
 71
3
 72
42
 73
38
 74
0
 42
0.0000001
 43
0.0000001
 44
0.0000000001
 40
0.0
 40
0.0
 40
0.0
 40
0.0
 40
0.0311444347
 40
0.0467772112
 40
0.0624471461
 40
0.093891844
 40
0.1254739796
 40
0.1571813629
 40
0.1889992234
 40
0.2209106216
 40
0.2528967716
 40
0.2849374315
 40
0.3170113014
 40
0.34909644
 40
0.3811706886
 40
0.4132120984
 40
0.4451993552
 40
0.4771121951
 40
0.5089318057
 40
0.5406412074
 40
0.572225607
 40
0.6036727182
 40
0.6349730419
 40
0.6661200987
 40
0.6971106068
 40
0.7279445994
 40
0.7586254742
 40
0.7891599701
 40
0.8195580671
 40
0.8498328085
 40
0.864931571
 40
0.8800056544
 40
0.910083706
 40
0.9400929707
 40
0.9550814956
 40
0.9700611828
 40
1.0
 40
1.0
 40
1.0
 40
1.0
 10
8.934404477
 20
7.1595382462
 30
0.0
 10
8.9296163155
 20
7.1598703063
 30
0.0
 10
8.9224394843
 20
7.160631725
 30
0.0
 10
8.9129367219
 20
7.1621618656
 30
0.0
 10
8.9034490457
 20
7.1640404086
 30
0.0
 10
8.8916844913
 20
7.1670321603
 30
0.0
 10
8.8778136194
 20
7.1716242622
 30
0.0
 10
8.8642449547
 20
7.1771982914
 30
0.0
 10
8.8510512513
 20
7.1837243537
 30
0.0
 10
8.8383026939
 20
7.1911675928
 30
0.0
 10
8.8260672419
 20
7.1994882622
 30
0.0
 10
8.8144100785
 20
7.2086419638
 30
0.0
 10
8.8033933205
 20
7.2185798767
 30
0.0
 10
8.7930756758
 20
7.2292490167
 30
0.0
 10
8.7835121387
 20
7.2405925162
 30
0.0
 10
8.774753698
 20
7.2525499241
 30
0.0
 10
8.7668470678
 20
7.2650575247
 30
0.0
 10
8.7598344408
 20
7.2780486734
 30
0.0
 10
8.7537532643
 20
7.291454148
 30
0.0
 10
8.7486360418
 20
7.3052025126
 30
0.0
 10
8.7445101586
 20
7.3192204936
 30
0.0
 10
8.7413977357
 20
7.333433365
 30
0.0
 10
8.7393155089
 20
7.3477653409
 30
0.0
 10
8.7382747363
 20
7.3621399757
 30
0.0
 10
8.7382811317
 20
7.3764805624
 30
0.0
 10
8.7393348351
 20
7.3907105529
 30
0.0
 10
8.7414303759
 20
7.4047539077
 30
0.0
 10
8.7445567973
 20
7.4185357059
 30
0.0
 10
8.7486973201
 20
7.4319817854
 30
0.0
 10
8.7529793054
 20
7.4428588691
 30
0.0
 10
8.756886824
 20
7.4513174848
 30
0.0
 10
8.7611037972
 20
7.4595921753
 30
0.0
 10
8.7669588107
 20
7.4696008447
 30
0.0
 10
8.773566869
 20
7.4791131783
 30
0.0
 10
8.7792771996
 20
7.4863841636
 30
0.0
 10
8.7852599263
 20
7.493417825
 30
0.0
 10
8.7900531489
 20
7.4984251728
 30
0.0
 10
8.7933717019
 20
7.5016306294
 30
0.0
  0
SPLINE
  5
36B
100
AcDbEntity
  8
0
100
AcDbSpline
 62
7
  6
CONTINUOUS
 70
0
 71
3
 72
21
 73
17
 74
0
 42
0.0000001
 43
0.0000001
 44
0.0000000001
 40
0.0
 40
0.0
 40
0.0
 40
0.0
 40
0.06165322
 40
0.1233294719
 40
0.1850515326
 40
0.2468416528
 40
0.308721334
 40
0.3707110997
 40
0.4328302469
 40
0.4950966389
 40
0.5575265783
 40
0.620134583
 40
0.6829331586
 40
0.745933179
 40
0.8725262751
 40
1.0
 40
1.0
 40
1.0
 40
1.0
 10
9.0754372522
 20
7.2096117717
 30
0.0
 10
9.0731591836
 20
7.2074113398
 30
0.0
 10
9.0684828084
 20
7.2031313532
 30
0.0
 10
9.0611319689
 20
7.1970963637
 30
0.0
 10
9.0534619133
 20
7.1914602973
 30
0.0
 10
9.0454922404
 20
7.1862375958
 30
0.0
 10
9.0372429881
 20
7.1814413047
 30
0.0
 10
9.028734954
 20
7.1770835253
 30
0.0
 10
9.0199895551
 20
7.1731752537
 30
0.0
 10
9.0110288564
 20
7.1697262709
 30
0.0
 10
9.0018754121
 20
7.1667452365
 30
0.0
 10
8.9925523389
 20
7.1642396881
 30
0.0
 10
8.983082858
 20
7.1622158642
 30
0.0
 10
8.9702754671
 20
7.1601634302
 30
0.0
 10
8.9540121233
 20
7.1588300191
 30
0.0
 10
8.9409373759
 20
7.1590851881
 30
0.0
 10
8.934404477
 20
7.1595382462
 30
0.0
  0
SPLINE
  5
36C
100
AcDbEntity
  8
0
100
AcDbSpline
 62
7
  6
CONTINUOUS
 70
0
 71
3
 72
15
 73
11
 74
0
 42
0.0000001
 43
0.0000001
 44
0.0000000001
 40
0.0
 40
0.0
 40
0.0
 40
0.0
 40
0.1462013888
 40
0.2850350028
 40
0.4169986302
 40
0.542720502
 40
0.6629498546
 40
0.7785580727
 40
0.8905389312
 40
1.0
 40
1.0
 40
1.0
 40
1.0
 10
11.3839555387
 20
9.953171029
 30
0.0
 10
11.3826451987
 20
9.9519053377
 30
0.0
 10
11.3801589733
 20
9.9493652589
 30
0.0
 10
11.3767662931
 20
9.9454245403
 30
0.0
 10
11.3738130578
 20
9.9414575222
 30
0.0
 10
11.3713023372
 20
9.9374672381
 30
0.0
 10
11.3692369805
 20
9.9334563764
 30
0.0
 10
11.3676196238
 20
9.9294278223
 30
0.0
 10
11.3664531853
 20
9.9253856479
 30
0.0
 10
11.3659736937
 20
9.9226617118
 30
0.0
 10
11.3658122687
 20
9.9213073128
 30
0.0
  0
SPLINE
  5
36D
100
AcDbEntity
  8
0
100
AcDbSpline
 62
7
  6
CONTINUOUS
 70
0
 71
3
 72
21
 73
17
 74
0
 42
0.0000001
 43
0.0000001
 44
0.0000000001
 40
0.0
 40
0.0
 40
0.0
 40
0.0
 40
0.06165322
 40
0.1233294719
 40
0.1850515326
 40
0.2468416528
 40
0.308721334
 40
0.3707110997
 40
0.4328302469
 40
0.4950966389
 40
0.5575265783
 40
0.620134583
 40
0.6829331586
 40
0.745933179
 40
0.8725262751
 40
1.0
 40
1.0
 40
1.0
 40
1.0
 10
12.8184000509
 20
6.95003642
 30
0.0
 10
12.8161219822
 20
6.9478359881
 30
0.0
 10
12.8114456071
 20
6.9435560015
 30
0.0
 10
12.8040947676
 20
6.937521012
 30
0.0
 10
12.796424712
 20
6.9318849456
 30
0.0
 10
12.788455039
 20
6.926662244
 30
0.0
 10
12.7802057868
 20
6.9218659529
 30
0.0
 10
12.7716977526
 20
6.9175081736
 30
0.0
 10
12.7629523538
 20
6.913599902
 30
0.0
 10
12.7539916551
 20
6.9101509191
 30
0.0
 10
12.7448382108
 20
6.9071698848
 30
0.0
 10
12.7355151376
 20
6.9046643364
 30
0.0
 10
12.7260456566
 20
6.9026405125
 30
0.0
 10
12.7132382658
 20
6.9005880785
 30
0.0
 10
12.696974922
 20
6.8992546674
 30
0.0
 10
12.6839001746
 20
6.8995098364
 30
0.0
 10
12.6773672757
 20
6.8999628945
 30
0.0
  0
SPLINE
  5
36E
100
AcDbEntity
  8
0
100
AcDbSpline
 62
7
  6
CONTINUOUS
 70
0
 71
3
 72
23
 73
19
 74
0
 42
0.0000001
 43
0.0000001
 44
0.0000000001
 40
0.0
 40
0.0
 40
0.0
 40
0.0
 40
0.0616482077
 40
0.1233194432
 40
0.1850364764
 40
0.2468215657
 40
0.3086962119
 40
0.3706809253
 40
0.4327950037
 40
0.4950563292
 40
0.5574811795
 40
0.6200840681
 40
0.6828776095
 40
0.745872322
 40
0.8090769221
 40
0.8724969185
 40
0.9361382339
 40
1.0
 40
1.0
 40
1.0
 40
1.0
 10
11.0936467219
 20
8.1357958259
 30
0.0
 10
11.0890063976
 20
8.131313613
 30
0.0
 10
11.0794808982
 20
8.1225953333
 30
0.0
 10
11.064507564
 20
8.110302227
 30
0.0
 10
11.0488840231
 20
8.0988216789
 30
0.0
 10
11.0326501749
 20
8.0881831211
 30
0.0
 10
11.0158467979
 20
8.0784131937
 30
0.0
 10
10.9985162807
 20
8.0695365169
 30
0.0
 10
10.9807022874
 20
8.0615754079
 30
0.0
 10
10.9624497069
 20
8.0545498858
 30
0.0
 10
10.9438045239
 20
8.0484776051
 30
0.0
 10
10.9248137036
 20
8.0433738179
 30
0.0
 10
10.9055250867
 20
8.0392513345
 30
0.0
 10
10.8859872194
 20
8.0361204496
 30
0.0
 10
10.8662493963
 20
8.0339890471
 30
0.0
 10
10.8463609999
 20
8.032862331
 30
0.0
 10
10.8263728968
 20
8.0327432085
 30
0.0
 10
10.8130360196
 20
8.0333346621
 30
0.0
 10
10.8063688043
 20
8.0337970351
 30
0.0
  0
SPLINE
  5
36F
100
AcDbEntity
  8
0
100
AcDbSpline
 62
7
  6
CONTINUOUS
 70
0
 71
3
 72
42
 73
38
 74
0
 42
0.0000001
 43
0.0000001
 44
0.0000000001
 40
0.0
 40
0.0
 40
0.0
 40
0.0
 40
0.0311444347
 40
0.0467772112
 40
0.0624471461
 40
0.093891844
 40
0.1254739796
 40
0.1571813629
 40
0.1889992234
 40
0.2209106216
 40
0.2528967716
 40
0.2849374315
 40
0.3170113014
 40
0.34909644
 40
0.3811706886
 40
0.4132120984
 40
0.4451993552
 40
0.4771121951
 40
0.5089318057
 40
0.5406412074
 40
0.572225607
 40
0.6036727182
 40
0.6349730419
 40
0.6661200987
 40
0.6971106068
 40
0.7279445994
 40
0.7586254742
 40
0.7891599701
 40
0.8195580671
 40
0.8498328085
 40
0.864931571
 40
0.8800056544
 40
0.910083706
 40
0.9400929707
 40
0.9550814956
 40
0.9700611828
 40
1.0
 40
1.0
 40
1.0
 40
1.0
 10
12.6773672757
 20
6.8999628945
 30
0.0
 10
12.6725791142
 20
6.9002949546
 30
0.0
 10
12.665402283
 20
6.9010563733
 30
0.0
 10
12.6558995206
 20
6.9025865139
 30
0.0
 10
12.6464118444
 20
6.9044650569
 30
0.0
 10
12.6346472899
 20
6.9074568085
 30
0.0
 10
12.620776418
 20
6.9120489105
 30
0.0
 10
12.6072077534
 20
6.9176229397
 30
0.0
 10
12.59401405
 20
6.924149002
 30
0.0
 10
12.5812654926
 20
6.9315922411
 30
0.0
 10
12.5690300406
 20
6.9399129105
 30
0.0
 10
12.5573728772
 20
6.9490666121
 30
0.0
 10
12.5463561191
 20
6.9590045249
 30
0.0
 10
12.5360384745
 20
6.969673665
 30
0.0
 10
12.5264749374
 20
6.9810171645
 30
0.0
 10
12.5177164966
 20
6.9929745724
 30
0.0
 10
12.5098098664
 20
7.005482173
 30
0.0
 10
12.5027972394
 20
7.0184733217
 30
0.0
 10
12.496716063
 20
7.0318787963
 30
0.0
 10
12.4915988404
 20
7.0456271609
 30
0.0
 10
12.4874729573
 20
7.0596451419
 30
0.0
 10
12.4843605344
 20
7.0738580133
 30
0.0
 10
12.4822783075
 20
7.0881899892
 30
0.0
 10
12.4812375349
 20
7.102564624
 30
0.0
 10
12.4812439304
 20
7.1169052107
 30
0.0
 10
12.4822976337
 20
7.1311352011
 30
0.0
 10
12.4843931745
 20
7.1451785559
 30
0.0
 10
12.4875195959
 20
7.1589603542
 30
0.0
 10
12.4916601188
 20
7.1724064337
 30
0.0
 10
12.495942104
 20
7.1832835174
 30
0.0
 10
12.4998496227
 20
7.191742133
 30
0.0
 10
12.5040665958
 20
7.2000168236
 30
0.0
 10
12.5099216093
 20
7.2100254929
 30
0.0
 10
12.5165296676
 20
7.2195378266
 30
0.0
 10
12.5222399982
 20
7.2268088119
 30
0.0
 10
12.5282227249
 20
7.2338424733
 30
0.0
 10
12.5330159475
 20
7.2388498211
 30
0.0
 10
12.5363345005
 20
7.2420552776
 30
0.0
  0
SPLINE
  5
370
100
AcDbEntity
  8
0
100
AcDbSpline
 62
7
  6
CONTINUOUS
 70
0
 71
3
 72
29
 73
25
 74
0
 42
0.0000001
 43
0.0000001
 44
0.0000000001
 40
0.0
 40
0.0
 40
0.0
 40
0.0
 40
0.0749503488
 40
0.1455452737
 40
0.2121261891
 40
0.2751192851
 40
0.3350448404
 40
0.3640583593
 40
0.3925449884
 40
0.4205963601
 40
0.4483089338
 40
0.4757832092
 40
0.5031225081
 40
0.530431847
 40
0.5578166247
 40
0.5853812653
 40
0.6132280351
 40
0.6414557868
 40
0.6701590145
 40
0.7293218109
 40
0.7913860629
 40
0.8569001023
 40
0.9263189548
 40
1.0
 40
1.0
 40
1.0
 40
1.0
 10
9.4845912625
 20
10.0885313912
 30
0.0
 10
9.4827633972
 20
10.0902324126
 30
0.0
 10
9.4793152489
 20
10.0936475107
 30
0.0
 10
9.4746625751
 20
10.0989754283
 30
0.0
 10
9.4706950775
 20
10.1043457318
 30
0.0
 10
9.4674187793
 20
10.1097530863
 30
0.0
 10
9.4652456635
 20
10.1143362271
 30
0.0
 10
9.4638744855
 20
10.1180019795
 30
0.0
 10
9.4630322464
 20
10.1207265644
 30
0.0
 10
9.4623656695
 20
10.123454786
 30
0.0
 10
9.4618750296
 20
10.1261858928
 30
0.0
 10
9.461560499
 20
10.1289190031
 30
0.0
 10
9.4614222226
 20
10.1316532549
 30
0.0
 10
9.4614603198
 20
10.1343877603
 30
0.0
 10
9.461674719
 20
10.137121626
 30
0.0
 10
9.4620653155
 20
10.1398539809
 30
0.0
 10
9.4626319768
 20
10.142583932
 30
0.0
 10
9.4633744725
 20
10.1453107159
 30
0.0
 10
9.4646106055
 20
10.1489774454
 30
0.0
 10
9.4666148511
 20
10.1535646666
 30
0.0
 10
9.4696938367
 20
10.1589818177
 30
0.0
 10
9.4734656303
 20
10.1643633121
 30
0.0
 10
9.4779241971
 20
10.1697035868
 30
0.0
 10
9.4812478819
 20
10.1731275973
 30
0.0
 10
9.4830133824
 20
10.17483294
 30
0.0
  0
SPLINE
  5
371
100
AcDbEntity
  8
0
100
AcDbSpline
 62
7
  6
CONTINUOUS
 70
0
 71
3
 72
23
 73
19
 74
0
 42
0.0000001
 43
0.0000001
 44
0.0000000001
 40
0.0
 40
0.0
 40
0.0
 40
0.0
 40
0.0638319248
 40
0.1274523714
 40
0.1908590307
 40
0.2540580606
 40
0.3170540485
 40
0.3798547368
 40
0.4424695212
 40
0.5049096226
 40
0.5671880236
 40
0.6293193017
 40
0.6913195182
 40
0.7532060638
 40
0.8149974905
 40
0.8767133254
 40
0.9383738714
 40
1.0
 40
1.0
 40
1.0
 40
1.0
 10
10.8146510071
 20
8.0417970291
 30
0.0
 10
10.821070987
 20
8.041351802
 30
0.0
 10
10.8339132007
 20
8.0407704053
 30
0.0
 10
10.8531623112
 20
8.0408311216
 30
0.0
 10
10.872322429
 20
8.0418260722
 30
0.0
 10
10.8913480473
 20
8.0437528088
 30
0.0
 10
10.9101950978
 20
8.0466070146
 30
0.0
 10
10.9288194731
 20
8.0503820323
 30
0.0
 10
10.947177727
 20
8.0550690925
 30
0.0
 10
10.9652269935
 20
8.0606572875
 30
0.0
 10
10.982925126
 20
8.0671336079
 30
0.0
 10
11.0002307885
 20
8.0744829802
 30
0.0
 10
11.017103548
 20
8.0826882878
 30
0.0
 10
11.0335040053
 20
8.0917303899
 30
0.0
 10
11.0493938166
 20
8.101588154
 30
0.0
 10
11.0647359874
 20
8.1122386973
 30
0.0
 10
11.0794941913
 20
8.1236567148
 30
0.0
 10
11.0889234243
 20
8.1317650645
 30
0.0
 10
11.0935278147
 20
8.1359365339
 30
0.0
  0
SPLINE
  5
372
100
AcDbEntity
  8
0
100
AcDbSpline
 62
7
  6
CONTINUOUS
 70
0
 71
3
 72
39
 73
35
 74
0
 42
0.0000001
 43
0.0000001
 44
0.0000000001
 40
0.0
 40
0.0
 40
0.0
 40
0.0
 40
0.031127141
 40
0.0624053285
 40
0.0938289388
 40
0.1253885405
 40
0.1570724085
 40
0.1888662891
 40
0.2207538148
 40
0.2527168213
 40
0.2847357086
 40
0.3167898198
 40
0.3488578341
 40
0.3809181694
 40
0.4129493879
 40
0.4449306003
 40
0.4768418614
 40
0.5086645542
 40
0.5403817558
 40
0.57197858
 40
0.6034424878
 40
0.634763562
 40
0.665934739
 40
0.6969519931
 40
0.7278144634
 40
0.7585245183
 40
0.789087753
 40
0.8195129167
 40
0.8498117682
 40
0.8799988559
 40
0.9100912255
 40
0.9401080612
 40
0.9700702671
 40
1.0
 40
1.0
 40
1.0
 40
1.0
 10
10.8146510071
 20
8.0417970291
 30
0.0
 10
10.8050224695
 20
8.0424647705
 30
0.0
 10
10.7857599328
 20
8.0444992083
 30
0.0
 10
10.7570946453
 20
8.0496070966
 30
0.0
 10
10.7287285749
 20
8.0567522191
 30
0.0
 10
10.7008110296
 20
8.0658971665
 30
0.0
 10
10.6734865874
 20
8.0769941499
 30
0.0
 10
10.6468973227
 20
8.0899853362
 30
0.0
 10
10.6211812957
 20
8.1048030428
 30
0.0
 10
10.5964720662
 20
8.1213701458
 30
0.0
 10
10.5728979534
 20
8.1396004779
 30
0.0
 10
10.550581394
 20
8.1593992708
 30
0.0
 10
10.5296383148
 20
8.1806636471
 30
0.0
 10
10.5101775122
 20
8.2032831235
 30
0.0
 10
10.4923001027
 20
8.2271401971
 30
0.0
 10
10.4760990148
 20
8.2521109584
 30
0.0
 10
10.4616585073
 20
8.2780657235
 30
0.0
 10
10.4490537417
 20
8.3048697013
 30
0.0
 10
10.4383503655
 20
8.3323836708
 30
0.0
 10
10.429604174
 20
8.3604647031
 30
0.0
 10
10.4228608421
 20
8.388966902
 30
0.0
 10
10.4181556774
 20
8.4177421477
 30
0.0
 10
10.4155134381
 20
8.4466408554
 30
0.0
 10
10.4149481718
 20
8.4755127396
 30
0.0
 10
10.4164631223
 20
8.5042075918
 30
0.0
 10
10.4200507324
 20
8.5325760569
 30
0.0
 10
10.4256926584
 20
8.5604704028
 30
0.0
 10
10.433359857
 20
8.5877452896
 30
0.0
 10
10.4430126901
 20
8.614258519
 30
0.0
 10
10.4546011406
 20
8.6398718454
 30
0.0
 10
10.46806492
 20
8.6644515132
 30
0.0
 10
10.4833344182
 20
8.6878696548
 30
0.0
 10
10.5003286242
 20
8.7100024317
 30
0.0
 10
10.512756188
 20
8.7238315606
 30
0.0
 10
10.5192215659
 20
8.7304892147
 30
0.0
  0
SPLINE
  5
373
100
AcDbEntity
  8
0
100
AcDbSpline
 62
7
  6
CONTINUOUS
 70
0
 71
3
 72
51
 73
47
 74
0
 42
0.0000001
 43
0.0000001
 44
0.0000000001
 40
0.0
 40
0.0
 40
0.0
 40
0.0
 40
0.0313777371
 40
0.0629461967
 40
0.0946942488
 40
0.1266039234
 40
0.1586525693
 40
0.1908131864
 40
0.2230553455
 40
0.2553461437
 40
0.2876512091
 40
0.3199357409
 40
0.3521655563
 40
0.3843081265
 40
0.4163335725
 40
0.4482156067
 40
0.479932397
 40
0.5114673102
 40
0.5428095269
 40
0.5739545053
 40
0.6049042409
 40
0.6356673201
 40
0.6509876151
 40
0.6662673902
 40
0.6815094598
 40
0.6967169686
 40
0.7118933716
 40
0.7270424108
 40
0.7421680718
 40
0.7572745538
 40
0.7723662373
 40
0.7874476344
 40
0.8025233521
 40
0.8175980544
 40
0.8326764108
 40
0.8477630562
 40
0.8628625536
 40
0.8779793437
 40
0.8931177065
 40
0.9082817301
 40
0.9234752649
 40
0.9387018897
 40
0.9539648954
 40
0.9692672438
 40
0.9846115231
 40
1.0
 40
1.0
 40
1.0
 40
1.0
 10
10.8146510071
 20
8.2045555405
 30
0.0
 10
10.8074263483
 20
8.2050565723
 30
0.0
 10
10.792970694
 20
8.2067235988
 30
0.0
 10
10.7715440273
 20
8.2111695735
 30
0.0
 10
10.7504764849
 20
8.2175316132
 30
0.0
 10
10.7299455376
 20
8.22575636
 30
0.0
 10
10.7101212164
 20
8.2357749885
 30
0.0
 10
10.6911683742
 20
8.2475038785
 30
0.0
 10
10.6732444356
 20
8.2608453581
 30
0.0
 10
10.6564983216
 20
8.2756883896
 30
0.0
 10
10.6410691432
 20
8.2919095037
 30
0.0
 10
10.6270851755
 20
8.3093739
 30
0.0
 10
10.6146627542
 20
8.3279364802
 30
0.0
 10
10.603905243
 20
8.3474429966
 30
0.0
 10
10.5949023113
 20
8.3677314015
 30
0.0
 10
10.587729182
 20
8.388633134
 30
0.0
 10
10.5824458573
 20
8.4099744353
 30
0.0
 10
10.5790967651
 20
8.4315778663
 30
0.0
 10
10.5777103526
 20
8.4532635856
 30
0.0
 10
10.5782988371
 20
8.474851332
 30
0.0
 10
10.5808575039
 20
8.4961599594
 30
0.0
 10
10.584621118
 20
8.5135656652
 30
0.0
 10
10.5885898351
 20
8.5271654684
 30
0.0
 10
10.5920341506
 20
8.5371739817
 30
0.0
 10
10.5959426658
 20
8.5469822702
 30
0.0
 10
10.6003073611
 20
8.5565701322
 30
0.0
 10
10.6051191069
 20
8.5659174848
 30
0.0
 10
10.6103678357
 20
8.5750048646
 30
0.0
 10
10.6160426788
 20
8.5838132542
 30
0.0
 10
10.6221317615
 20
8.5923242888
 30
0.0
 10
10.6286223577
 20
8.6005202241
 30
0.0
 10
10.6355009934
 20
8.608383896
 30
0.0
 10
10.6427532649
 20
8.6158989286
 30
0.0
 10
10.6503640283
 20
8.6230496503
 30
0.0
 10
10.6583174536
 20
8.6298210747
 30
0.0
 10
10.6665968868
 20
8.6361991281
 30
0.0
 10
10.67518505
 20
8.642170504
 30
0.0
 10
10.6840640548
 20
8.647722684
 30
0.0
 10
10.6932153197
 20
8.6528441606
 30
0.0
 10
10.7026197569
 20
8.6575242398
 30
0.0
 10
10.712257758
 20
8.6617531134
 30
0.0
 10
10.7221091772
 20
8.6655220524
 30
0.0
 10
10.7321534525
 20
8.6688231714
 30
0.0
 10
10.7423697121
 20
8.6716495664
 30
0.0
 10
10.7527363143
 20
8.6739954135
 30
0.0
 10
10.7597236328
 20
8.6752339168
 30
0.0
 10
10.7632343291
 20
8.6757718819
 30
0.0
  0
SPLINE
  5
374
100
AcDbEntity
  8
0
100
AcDbSpline
 62
7
  6
CONTINUOUS
 70
0
 71
3
 72
52
 73
48
 74
0
 42
0.0000001
 43
0.0000001
 44
0.0000000001
 40
0.0
 40
0.0
 40
0.0
 40
0.0
 40
0.0470070924
 40
0.0937047266
 40
0.1400011173
 40
0.1858065619
 40
0.231031954
 40
0.2755899433
 40
0.3193947997
 40
0.3623627923
 40
0.4044123975
 40
0.4454645719
 40
0.4854430195
 40
0.5242744795
 40
0.5618890321
 40
0.5982204335
 40
0.6332064867
 40
0.6667894597
 40
0.6989165721
 40
0.7295405711
 40
0.7586204324
 40
0.7725708893
 40
0.7861232218
 40
0.7992745279
 40
0.8120224288
 40
0.8243652625
 40
0.8363020426
 40
0.8478325949
 40
0.8589576233
 40
0.869678782
 40
0.8799988612
 40
0.8899218108
 40
0.8994530391
 40
0.908599428
 40
0.9173697177
 40
0.9257745686
 40
0.9338269888
 40
0.9415424891
 40
0.9489394989
 40
0.9560396088
 40
0.9628678946
 40
0.9694531471
 40
0.975827965
 40
0.9820287553
 40
0.9880954055
 40
0.9940708058
 40
1.0
 40
1.0
 40
1.0
 40
1.0
 10
13.5485584647
 20
8.3572025601
 30
0.0
 10
13.5473863033
 20
8.3450571046
 30
0.0
 10
13.5449102111
 20
8.3208593683
 30
0.0
 10
13.5407888906
 20
8.284752162
 30
0.0
 10
13.5362788132
 20
8.2490057486
 30
0.0
 10
13.5313894662
 20
8.2136949842
 30
0.0
 10
13.526131065
 20
8.1788935539
 30
0.0
 10
13.5205146448
 20
8.1446742116
 30
0.0
 10
13.5145519721
 20
8.1111084311
 30
0.0
 10
13.5082555524
 20
8.0782663319
 30
0.0
 10
13.5016385905
 20
8.0462165046
 30
0.0
 10
13.494714969
 20
8.0150258728
 30
0.0
 10
13.4874992172
 20
7.9847595482
 30
0.0
 10
13.4800064818
 20
7.9554806915
 30
0.0
 10
13.4722524949
 20
7.9272503736
 30
0.0
 10
13.4642535408
 20
7.9001274442
 30
0.0
 10
13.4560264202
 20
7.8741683912
 30
0.0
 10
13.4475884137
 20
7.849427242
 30
0.0
 10
13.4389572341
 20
7.825955331
 30
0.0
 10
13.4301510016
 20
7.8038015392
 30
0.0
 10
13.4225809052
 20
7.7862416647
 30
0.0
 10
13.4164401153
 20
7.7728988895
 30
0.0
 10
13.411866025
 20
7.7633883163
 30
0.0
 10
13.407262065
 20
7.754240289
 30
0.0
 10
13.4026305557
 20
7.7454595614
 30
0.0
 10
13.3979739497
 20
7.73705068
 30
0.0
 10
13.3932946429
 20
7.7290180063
 30
0.0
 10
13.3885950643
 20
7.7213656946
 30
0.0
 10
13.383877653
 20
7.7140976894
 30
0.0
 10
13.3791448057
 20
7.7072177509
 30
0.0
 10
13.3743989888
 20
7.7007293939
 30
0.0
 10
13.3696425551
 20
7.6946359828
 30
0.0
 10
13.3648779709
 20
7.6889405989
 30
0.0
 10
13.3601075372
 20
7.6836462108
 30
0.0
 10
13.3553336798
 20
7.6787554814
 30
0.0
 10
13.3505586439
 20
7.6742709912
 30
0.0
 10
13.3457847717
 20
7.6701950286
 30
0.0
 10
13.3410142558
 20
7.6665298145
 30
0.0
 10
13.3362493362
 20
7.6632773444
 30
0.0
 10
13.3314921857
 20
7.6604395379
 30
0.0
 10
13.3267449984
 20
7.6580182066
 30
0.0
 10
13.3220100406
 20
7.6560150323
 30
0.0
 10
13.3172896352
 20
7.6544317028
 30
0.0
 10
13.3125863863
 20
7.6532696221
 30
0.0
 10
13.3079028895
 20
7.6525302094
 30
0.0
 10
13.3032426878
 20
7.6522142836
 30
0.0
 10
13.3001482972
 20
7.652286636
 30
0.0
 10
13.2986129116
 20
7.6523931137
 30
0.0
  0
SPLINE
  5
375
100
AcDbEntity
  8
0
100
AcDbSpline
 62
7
  6
CONTINUOUS
 70
0
 71
3
 72
39
 73
35
 74
0
 42
0.0000001
 43
0.0000001
 44
0.0000000001
 40
0.0
 40
0.0
 40
0.0
 40
0.0
 40
0.0313656361
 40
0.0629173634
 40
0.0946449168
 40
0.1265314499
 40
0.1585558711
 40
0.1906929283
 40
0.2229140948
 40
0.2551884166
 40
0.2874834124
 40
0.3197660089
 40
0.3520034884
 40
0.3841644266
 40
0.416219605
 40
0.4481428822
 40
0.4799119929
 40
0.5115092602
 40
0.5429221985
 40
0.5741439892
 40
0.6051737913
 40
0.6360168753
 40
0.6666845657
 40
0.6971939794
 40
0.7275675434
 40
0.7578323082
 40
0.7880190732
 40
0.818161353
 40
0.848294219
 40
0.8784530724
 40
0.9086724041
 40
0.9389845928
 40
0.9694187964
 40
1.0
 40
1.0
 40
1.0
 40
1.0
 10
10.8410505279
 20
8.2509975372
 30
0.0
 10
10.8346302164
 20
8.2514427873
 30
0.0
 10
10.8217842243
 20
8.2529093202
 30
0.0
 10
10.8027336422
 20
8.2567955538
 30
0.0
 10
10.7839865145
 20
8.2623440188
 30
0.0
 10
10.7656929734
 20
8.2695104682
 30
0.0
 10
10.7479970985
 20
8.2782379236
 30
0.0
 10
10.7310388086
 20
8.2884571282
 30
0.0
 10
10.7149520067
 20
8.3000871175
 30
0.0
 10
10.6998637736
 20
8.3130358662
 30
0.0
 10
10.6858933279
 20
8.3272010053
 30
0.0
 10
10.6731510563
 20
8.3424705603
 30
0.0
 10
10.6617376947
 20
8.3587238827
 30
0.0
 10
10.6517435537
 20
8.3758325872
 30
0.0
 10
10.643247823
 20
8.3936615449
 30
0.0
 10
10.6363178725
 20
8.4120698942
 30
0.0
 10
10.6310087768
 20
8.4309121711
 30
0.0
 10
10.627362889
 20
8.4500394338
 30
0.0
 10
10.6254095048
 20
8.4693004081
 30
0.0
 10
10.6251645265
 20
8.4885426516
 30
0.0
 10
10.6266303725
 20
8.507613757
 30
0.0
 10
10.6297959429
 20
8.5263625377
 30
0.0
 10
10.6346366759
 20
8.5446402082
 30
0.0
 10
10.6411146153
 20
8.5623015889
 30
0.0
 10
10.6491787276
 20
8.5792062745
 30
0.0
 10
10.6587652927
 20
8.595219766
 30
0.0
 10
10.669798385
 20
8.6102145668
 30
0.0
 10
10.682190401
 20
8.6240712953
 30
0.0
 10
10.6958427958
 20
8.6366796627
 30
0.0
 10
10.7106469729
 20
8.6479393846
 30
0.0
 10
10.7264849515
 20
8.657760945
 30
0.0
 10
10.743231173
 20
8.6660665876
 30
0.0
 10
10.7607503344
 20
8.6727901709
 30
0.0
 10
10.7728255301
 20
8.6761747657
 30
0.0
 10
10.7789388714
 20
8.6775889475
 30
0.0
  0
SPLINE
  5
376
100
AcDbEntity
  8
0
100
AcDbSpline
 62
7
  6
CONTINUOUS
 70
0
 71
3
 72
51
 73
47
 74
0
 42
0.0000001
 43
0.0000001
 44
0.0000000001
 40
0.0
 40
0.0
 40
0.0
 40
0.0
 40
0.0454968298
 40
0.0907142724
 40
0.1355715695
 40
0.179991008
 40
0.2238945627
 40
0.2672059093
 40
0.3098499273
 40
0.3517530987
 40
0.3928436594
 40
0.4330518028
 40
0.4723098884
 40
0.5105526576
 40
0.5477174645
 40
0.5837445239
 40
0.6185771855
 40
0.6521622396
 40
0.6844502513
 40
0.715395952
 40
0.7449587035
 40
0.7731030572
 40
0.7866342392
 40
0.7998002989
 40
0.8125985574
 40
0.8250269169
 40
0.8370837413
 40
0.8487680061
 40
0.8600793304
 40
0.8710179789
 40
0.8815850689
 40
0.8917824753
 40
0.9016131153
 40
0.911080905
 40
0.9201909819
 40
0.9289498401
 40
0.9373654346
 40
0.9454475028
 40
0.9532076125
 40
0.9606595582
 40
0.9678194746
 40
0.9747061545
 40
0.9813412697
 40
0.9877495043
 40
0.9939587518
 40
1.0
 40
1.0
 40
1.0
 40
1.0
 10
13.5176488357
 20
8.3593461502
 30
0.0
 10
13.5165367277
 20
8.3478229437
 30
0.0
 10
13.5141937448
 20
8.3248592064
 30
0.0
 10
13.5103125005
 20
8.2905811391
 30
0.0
 10
13.5060805013
 20
8.2566207939
 30
0.0
 10
13.5015057941
 20
8.2230422821
 30
0.0
 10
13.4965969505
 20
8.1899085712
 30
0.0
 10
13.4913632507
 20
8.1572820415
 30
0.0
 10
13.4858145528
 20
8.125224014
 30
0.0
 10
13.479961325
 20
8.0937947671
 30
0.0
 10
13.4738146115
 20
8.0630533791
 30
0.0
 10
13.4673860128
 20
8.0330576265
 30
0.0
 10
13.4606876636
 20
8.0038638733
 30
0.0
 10
13.4537322105
 20
7.9755269629
 30
0.0
 10
13.4465327879
 20
7.9481001131
 30
0.0
 10
13.4391029932
 20
7.9216348106
 30
0.0
 10
13.4314568613
 20
7.896180709
 30
0.0
 10
13.4236088399
 20
7.8717855202
 30
0.0
 10
13.4155737559
 20
7.8484949434
 30
0.0
 10
13.4073667822
 20
7.8263524825
 30
0.0
 10
13.3990034117
 20
7.80539966
 30
0.0
 10
13.3918258362
 20
7.7887515106
 30
0.0
 10
13.3860079798
 20
7.7760670498
 30
0.0
 10
13.3816725781
 20
7.7670000731
 30
0.0
 10
13.3773099005
 20
7.7582587017
 30
0.0
 10
13.3729220145
 20
7.7498470002
 30
0.0
 10
13.3685109529
 20
7.7417689102
 30
0.0
 10
13.3640787825
 20
7.7340282014
 30
0.0
 10
13.3596275971
 20
7.7266284717
 30
0.0
 10
13.3551594216
 20
7.7195731876
 30
0.0
 10
13.3506763951
 20
7.7128655984
 30
0.0
 10
13.3461805238
 20
7.7065088493
 30
0.0
 10
13.3416739327
 20
7.7005058562
 30
0.0
 10
13.3371586502
 20
7.6948594121
 30
0.0
 10
13.3326367273
 20
7.689572128
 30
0.0
 10
13.3281102265
 20
7.6846464241
 30
0.0
 10
13.3235811038
 20
7.680084627
 30
0.0
 10
13.3190514183
 20
7.6758888015
 30
0.0
 10
13.3145230589
 20
7.6720609882
 30
0.0
 10
13.3099980138
 20
7.6686029721
 30
0.0
 10
13.3054781626
 20
7.6655164981
 30
0.0
 10
13.3009653903
 20
7.6628031804
 30
0.0
 10
13.2964616536
 20
7.6604644943
 30
0.0
 10
13.2919687267
 20
7.6585019373
 30
0.0
 10
13.2874890673
 20
7.6569168381
 30
0.0
 10
13.2844761644
 20
7.656102787
 30
0.0
 10
13.2829771526
 20
7.655762249
 30
0.0
  0
SPLINE
  5
377
100
AcDbEntity
  8
0
100
AcDbSpline
 62
7
  6
CONTINUOUS
 70
0
 71
3
 72
37
 73
33
 74
0
 42
0.0000001
 43
0.0000001
 44
0.0000000001
 40
0.0
 40
0.0
 40
0.0
 40
0.0
 40
0.0944101663
 40
0.1851075758
 40
0.2289994995
 40
0.2718871769
 40
0.3137471386
 40
0.3545576263
 40
0.3942980719
 40
0.4329493228
 40
0.4704936773
 40
0.5069151275
 40
0.5421994045
 40
0.5763341389
 40
0.6093090918
 40
0.6411162586
 40
0.6717502694
 40
0.701208464
 40
0.7294914958
 40
0.7566034273
 40
0.7825525626
 40
0.8073516411
 40
0.8310189319
 40
0.8535786236
 40
0.8750622111
 40
0.8955091784
 40
0.9149686597
 40
0.9335004226
 40
0.9511766129
 40
0.9680827479
 40
0.9843189331
 40
1.0
 40
1.0
 40
1.0
 40
1.0
 10
13.5176488357
 20
8.9348596743
 30
0.0
 10
13.5163147676
 20
8.9461055189
 30
0.0
 10
13.5134819958
 20
8.9681299351
 30
0.0
 10
13.5093891309
 20
8.995294805
 30
0.0
 10
13.5058420235
 20
9.0162864236
 30
0.0
 10
13.5030834531
 20
9.0314688543
 30
0.0
 10
13.5001995246
 20
9.0462515692
 30
0.0
 10
13.4971922814
 20
9.0606242505
 30
0.0
 10
13.4940638085
 20
9.0745768826
 30
0.0
 10
13.4908163229
 20
9.088099741
 30
0.0
 10
13.4874520845
 20
9.1011833969
 30
0.0
 10
13.4839734633
 20
9.1138187385
 30
0.0
 10
13.4803828938
 20
9.125996974
 30
0.0
 10
13.4766828823
 20
9.1377096366
 30
0.0
 10
13.4728760305
 20
9.1489485951
 30
0.0
 10
13.4689649687
 20
9.1597060532
 30
0.0
 10
13.4649524533
 20
9.1699745724
 30
0.0
 10
13.460841221
 20
9.1797470515
 30
0.0
 10
13.4566341635
 20
9.1890167731
 30
0.0
 10
13.4523341005
 20
9.1977773528
 30
0.0
 10
13.4479440278
 20
9.2060228196
 30
0.0
 10
13.4434668141
 20
9.2137475205
 30
0.0
 10
13.4389055105
 20
9.2209462434
 30
0.0
 10
13.4342629845
 20
9.2276140615
 30
0.0
 10
13.4295422725
 20
9.2337465015
 30
0.0
 10
13.4247461787
 20
9.2393393102
 30
0.0
 10
13.4198776534
 20
9.2443886577
 30
0.0
 10
13.4149393907
 20
9.2488908235
 30
0.0
 10
13.4099343066
 20
9.2528423898
 30
0.0
 10
13.4048649445
 20
9.2562399744
 30
0.0
 10
13.3997350582
 20
9.259080092
 30
0.0
 10
13.3962236913
 20
9.2606228942
 30
0.0
 10
13.3944663051
 20
9.2612934665
 30
0.0
  0
SPLINE
  5
378
100
AcDbEntity
  8
0
100
AcDbSpline
 62
7
  6
CONTINUOUS
 70
0
 71
3
 72
54
 73
50
 74
0
 42
0.0000001
 43
0.0000001
 44
0.0000000001
 40
0.0
 40
0.0
 40
0.0
 40
0.0
 40
0.0427960701
 40
0.0861064905
 40
0.1297875467
 40
0.173693336
 40
0.2176773329
 40
0.2615925587
 40
0.3052923648
 40
0.3486310056
 40
0.3914642787
 40
0.4336501497
 40
0.4750493893
 40
0.5155262189
 40
0.5549489717
 40
0.5931907774
 40
0.6301302797
 40
0.6656524041
 40
0.6996491983
 40
0.7160444006
 40
0.732021548
 40
0.7475695729
 40
0.7626781109
 40
0.7773374694
 40
0.7915387287
 40
0.8052737976
 40
0.8185354546
 40
0.8313175056
 40
0.843614774
 40
0.855423366
 40
0.8667406375
 40
0.8775655669
 40
0.8878987486
 40
0.8977428682
 40
0.9071027979
 40
0.9159861752
 40
0.9244036874
 40
0.9323697709
 40
0.9399031581
 40
0.9470277024
 40
0.9537731721
 40
0.9601760789
 40
0.9662804261
 40
0.9721380521
 40
0.9778085319
 40
0.9833581306
 40
0.9888579484
 40
0.9943811754
 40
1.0
 40
1.0
 40
1.0
 40
1.0
 10
13.4723555402
 20
8.6033529457
 30
0.0
 10
13.4723555402
 20
8.5922198092
 30
0.0
 10
13.472175263
 20
8.5698193555
 30
0.0
 10
13.4713788303
 20
8.5360640529
 30
0.0
 10
13.4700572683
 20
8.5020362654
 30
0.0
 10
13.4682152373
 20
8.4678572426
 30
0.0
 10
13.4658592944
 20
8.4336487323
 30
0.0
 10
13.4629978241
 20
8.3995325637
 30
0.0
 10
13.459641035
 20
8.3656302482
 30
0.0
 10
13.4558009108
 20
8.3320625251
 30
0.0
 10
13.4514911734
 20
8.2989489346
 30
0.0
 10
13.4467272325
 20
8.2664073866
 30
0.0
 10
13.4415261328
 20
8.2345537362
 30
0.0
 10
13.4359064936
 20
8.2035013664
 30
0.0
 10
13.4298884457
 20
8.1733607715
 30
0.0
 10
13.4234935571
 20
8.1442391753
 30
0.0
 10
13.4167447699
 20
8.1162400576
 30
0.0
 10
13.4096662771
 20
8.089463048
 30
0.0
 10
13.4034411872
 20
8.0679947517
 30
0.0
 10
13.3983047432
 20
8.0515104841
 30
0.0
 10
13.3944325519
 20
8.0396604738
 30
0.0
 10
13.3904973817
 20
8.0281845008
 30
0.0
 10
13.3865027429
 20
8.0170927496
 30
0.0
 10
13.3824521931
 20
8.0063950775
 30
0.0
 10
13.3783493485
 20
7.9961009787
 30
0.0
 10
13.374197878
 20
7.9862195813
 30
0.0
 10
13.3700014586
 20
7.9767596445
 30
0.0
 10
13.3657638622
 20
7.9677295294
 30
0.0
 10
13.3614888064
 20
7.9591372259
 30
0.0
 10
13.3571801426
 20
7.9509902902
 30
0.0
 10
13.3528416091
 20
7.9432959094
 30
0.0
 10
13.3484771012
 20
7.9360607997
 30
0.0
 10
13.3440903532
 20
7.9292913142
 30
0.0
 10
13.3396852493
 20
7.9229933027
 30
0.0
 10
13.3352654811
 20
7.917172259
 30
0.0
 10
13.3308348415
 20
7.9118331635
 30
0.0
 10
13.3263969156
 20
7.9069806532
 30
0.0
 10
13.3219552988
 20
7.9026188923
 30
0.0
 10
13.3175133831
 20
7.8987517416
 30
0.0
 10
13.3130744746
 20
7.8953827299
 30
0.0
 10
13.3086417501
 20
7.8925151844
 30
0.0
 10
13.3042183297
 20
7.89015237
 30
0.0
 10
13.2998074988
 20
7.8882974612
 30
0.0
 10
13.2954128645
 20
7.8869537657
 30
0.0
 10
13.2910387574
 20
7.886124227
 30
0.0
 10
13.2866903804
 20
7.8858114434
 30
0.0
 10
13.2823735214
 20
7.886016688
 30
0.0
 10
13.2780951258
 20
7.8867397736
 30
0.0
 10
13.2753061182
 20
7.8875560085
 30
0.0
 10
13.2739280101
 20
7.888043239
 30
0.0
  0
SPLINE
  5
379
100
AcDbEntity
  8
0
100
AcDbSpline
 62
7
  6
CONTINUOUS
 70
0
 71
3
 72
42
 73
38
 74
0
 42
0.0000001
 43
0.0000001
 44
0.0000000001
 40
0.0
 40
0.0
 40
0.0
 40
0.0
 40
0.0311443918
 40
0.0467772358
 40
0.0624471561
 40
0.093891822
 40
0.125473962
 40
0.1571813366
 40
0.1889991927
 40
0.2209105852
 40
0.2528967304
 40
0.2849373857
 40
0.3170112516
 40
0.3490963869
 40
0.3811706329
 40
0.413212041
 40
0.4451992971
 40
0.4771121372
 40
0.5089317491
 40
0.540641153
 40
0.5722255557
 40
0.603672671
 40
0.6349729995
 40
0.6661200617
 40
0.6971105757
 40
0.7279445745
 40
0.7586254556
 40
0.7891599574
 40
0.8195580601
 40
0.8498328063
 40
0.864931569
 40
0.8800056544
 40
0.9100837087
 40
0.9400929747
 40
0.9550814997
 40
0.970061185
 40
1.0
 40
1.0
 40
1.0
 40
1.0
 10
10.8485094875
 20
8.2860395802
 30
0.0
 10
10.8439218325
 20
8.2863577352
 30
0.0
 10
10.8370455215
 20
8.2870872717
 30
0.0
 10
10.8279406769
 20
8.288553335
 30
0.0
 10
10.8188502849
 20
8.2903532113
 30
0.0
 10
10.8075783669
 20
8.2932196837
 30
0.0
 10
10.7942883271
 20
8.2976194817
 30
0.0
 10
10.781287836
 20
8.3029600937
 30
0.0
 10
10.7686466035
 20
8.3092128683
 30
0.0
 10
10.7564318748
 20
8.3163444132
 30
0.0
 10
10.744708763
 20
8.3243166448
 30
0.0
 10
10.7335397219
 20
8.3330870252
 30
0.0
 10
10.7229842666
 20
8.342608778
 30
0.0
 10
10.7130986469
 20
8.352831138
 30
0.0
 10
10.7039355539
 20
8.3636996192
 30
0.0
 10
10.6955438411
 20
8.3751563023
 30
0.0
 10
10.6879682666
 20
8.38714014
 30
0.0
 10
10.6812492562
 20
8.3995872789
 30
0.0
 10
10.6754226892
 20
8.4124313957
 30
0.0
 10
10.6705197079
 20
8.4256040462
 30
0.0
 10
10.6665665512
 20
8.4390350256
 30
0.0
 10
10.6635844139
 20
8.4526527373
 30
0.0
 10
10.6615893309
 20
8.4663845693
 30
0.0
 10
10.6605920894
 20
8.4801572773
 30
0.0
 10
10.6605981642
 20
8.4938973669
 30
0.0
 10
10.6616076893
 20
8.5075314956
 30
0.0
 10
10.6636154245
 20
8.520986808
 30
0.0
 10
10.6666108687
 20
8.5341915224
 30
0.0
 10
10.6705779588
 20
8.5470745761
 30
0.0
 10
10.6746805635
 20
8.5574962249
 30
0.0
 10
10.6784244685
 20
8.5656006391
 30
0.0
 10
10.6824647675
 20
8.5735288815
 30
0.0
 10
10.6880745859
 20
8.5831184612
 30
0.0
 10
10.6944058633
 20
8.5922325265
 30
0.0
 10
10.6998770729
 20
8.5991990501
 30
0.0
 10
10.7056092073
 20
8.6059382414
 30
0.0
 10
10.7102016884
 20
8.6107359406
 30
0.0
 10
10.7133812716
 20
8.6138071796
 30
0.0
  0
SPLINE
  5
37A
100
AcDbEntity
  8
0
100
AcDbSpline
 62
7
  6
CONTINUOUS
 70
0
 71
3
 72
33
 73
29
 74
0
 42
0.0000001
 43
0.0000001
 44
0.0000000001
 40
0.0
 40
0.0
 40
0.0
 40
0.0
 40
0.0718179815
 40
0.144733805
 40
0.2182248732
 40
0.2917623451
 40
0.3648171643
 40
0.4368647136
 40
0.4723498379
 40
0.5073908989
 40
0.5419257457
 40
0.5758934278
 40
0.6092343476
 40
0.6418904234
 40
0.6738052892
 40
0.7049244595
 40
0.7351954993
 40
0.764568219
 40
0.7929949206
 40
0.8204306395
 40
0.8468333805
 40
0.8721644186
 40
0.896388678
 40
0.9194751892
 40
0.9413975719
 40
0.9621346799
 40
0.9816714443
 40
1.0
 40
1.0
 40
1.0
 40
1.0
 10
13.3294874273
 20
8.6033529376
 30
0.0
 10
13.3294874273
 20
8.5880172489
 30
0.0
 10
13.3291216762
 20
8.5571103746
 30
0.0
 10
13.3275202251
 20
8.5105355092
 30
0.0
 10
13.324872484
 20
8.4636404611
 30
0.0
 10
13.3211987074
 20
8.416784889
 30
0.0
 10
13.3165270468
 20
8.3703281077
 30
0.0
 10
13.3118091011
 20
8.3320522587
 30
0.0
 10
13.307555631
 20
8.3019057011
 30
0.0
 10
13.3041567522
 20
8.279729834
 30
0.0
 10
13.3005397019
 20
8.2579168968
 30
0.0
 10
13.296711414
 20
8.236508706
 30
0.0
 10
13.2926792652
 20
8.2155463402
 30
0.0
 10
13.2884510095
 20
8.1950700085
 30
0.0
 10
13.2840347966
 20
8.1751189778
 30
0.0
 10
13.2794391381
 20
8.1557314948
 30
0.0
 10
13.27467289
 20
8.1369447202
 30
0.0
 10
13.2697452317
 20
8.1187946535
 30
0.0
 10
13.2646656631
 20
8.1013160517
 30
0.0
 10
13.2594439846
 20
8.0845423561
 30
0.0
 10
13.2540902643
 20
8.0685056352
 30
0.0
 10
13.2486148181
 20
8.0532365182
 30
0.0
 10
13.2430281903
 20
8.0387641214
 30
0.0
 10
13.2373411362
 20
8.0251159583
 30
0.0
 10
13.2315645948
 20
8.0123179342
 30
0.0
 10
13.2257095595
 20
8.0003941163
 30
0.0
 10
13.2197873523
 20
7.9893672449
 30
0.0
 10
13.215670092
 20
7.9824047791
 30
0.0
 10
13.2135967084
 20
7.9790853078
 30
0.0
  0
SPLINE
  5
37B
100
AcDbEntity
  8
0
100
AcDbSpline
 62
7
  6
CONTINUOUS
 70
0
 71
3
 72
28
 73
24
 74
0
 42
0.0000001
 43
0.0000001
 44
0.0000000001
 40
0.0
 40
0.0
 40
0.0
 40
0.0
 40
0.0676482701
 40
0.1362387593
 40
0.2054173701
 40
0.2748243603
 40
0.3440991392
 40
0.4128818943
 40
0.480816065
 40
0.5475507279
 40
0.6127430427
 40
0.6760607
 40
0.7371844293
 40
0.7668286208
 40
0.7958119308
 40
0.8240993622
 40
0.851657216
 40
0.878453345
 40
0.904457137
 40
0.9296396683
 40
0.9539739659
 40
0.9774350031
 40
1.0
 40
1.0
 40
1.0
 40
1.0
 10
13.2712838702
 20
8.5946556267
 30
0.0
 10
13.2712838702
 20
8.5827911448
 30
0.0
 10
13.2710437672
 20
8.5588963208
 30
0.0
 10
13.2699879873
 20
8.5228826437
 30
0.0
 10
13.2682392435
 20
8.4865870475
 30
0.0
 10
13.265807129
 20
8.45021061
 30
0.0
 10
13.2627051191
 20
8.4139548225
 30
0.0
 10
13.2589504407
 20
8.3780204688
 30
0.0
 10
13.2545639768
 20
8.3426065286
 30
0.0
 10
13.2495701438
 20
8.3079090881
 30
0.0
 10
13.2439968086
 20
8.2741201449
 30
0.0
 10
13.2378750548
 20
8.2414268183
 30
0.0
 10
13.2322897657
 20
8.2149830779
 30
0.0
 10
13.2275621973
 20
8.1945190111
 30
0.0
 10
13.2239375564
 20
8.1797121748
 30
0.0
 10
13.2202029115
 20
8.1653103952
 30
0.0
 10
13.2163633971
 20
8.1513335952
 30
0.0
 10
13.2124243868
 20
8.1378011141
 30
0.0
 10
13.2083913504
 20
8.1247316667
 30
0.0
 10
13.2042698791
 20
8.1121433318
 30
0.0
 10
13.2000657266
 20
8.1000534673
 30
0.0
 10
13.1957847487
 20
8.0884788481
 30
0.0
 10
13.1928249449
 20
8.0809679443
 30
0.0
 10
13.1913310816
 20
8.0773031601
 30
0.0
  0
SPLINE
  5
37C
100
AcDbEntity
  8
0
100
AcDbSpline
 62
7
  6
CONTINUOUS
 70
0
 71
3
 72
21
 73
17
 74
0
 42
0.0000001
 43
0.0000001
 44
0.0000000001
 40
0.0
 40
0.0
 40
0.0
 40
0.0
 40
0.0611962502
 40
0.1226670626
 40
0.1843996707
 40
0.2463823377
 40
0.3085959643
 40
0.3710189638
 40
0.4336259108
 40
0.4963885411
 40
0.6221956574
 40
0.7482338337
 40
0.8112817279
 40
0.8742809154
 40
0.9371991809
 40
1.0
 40
1.0
 40
1.0
 40
1.0
 10
10.9626489228
 20
8.4713453414
 30
0.0
 10
10.9601629058
 20
8.4715177473
 30
0.0
 10
10.9551895913
 20
8.4720274862
 30
0.0
 10
10.9477804023
 20
8.4732779813
 30
0.0
 10
10.9404357828
 20
8.4750108124
 30
0.0
 10
10.9331881344
 20
8.4772182519
 30
0.0
 10
10.9260687652
 20
8.4798907685
 30
0.0
 10
10.9191087209
 20
8.4830166087
 30
0.0
 10
10.9123379506
 20
8.4865823935
 30
0.0
 10
10.9035973565
 20
8.4919051448
 30
0.0
 10
10.8932935948
 20
8.4995767261
 30
0.0
 10
10.8840030545
 20
8.5084647785
 30
0.0
 10
10.8772672277
 20
8.5162181166
 30
0.0
 10
10.8725845579
 20
8.5223306895
 30
0.0
 10
10.8682938765
 20
8.5287117218
 30
0.0
 10
10.8657036523
 20
8.5331320565
 30
0.0
 10
10.864480034
 20
8.535377649
 30
0.0
  0
SPLINE
  5
37D
100
AcDbEntity
  8
0
100
AcDbSpline
 62
7
  6
CONTINUOUS
 70
0
 71
3
 72
37
 73
33
 74
0
 42
0.0000001
 43
0.0000001
 44
0.0000000001
 40
0.0
 40
0.0
 40
0.0
 40
0.0
 40
0.0308687317
 40
0.0618635862
 40
0.0929784421
 40
0.1242096113
 40
0.1555495225
 40
0.1869899618
 40
0.2185211615
 40
0.2501321773
 40
0.2818110301
 40
0.3135448479
 40
0.3453200481
 40
0.3771225092
 40
0.4407265199
 40
0.5042648498
 40
0.535986094
 40
0.5676490586
 40
0.5992410796
 40
0.6307504218
 40
0.6621664373
 40
0.6934797138
 40
0.7246822123
 40
0.7557673955
 40
0.7867303316
 40
0.8175677794
 40
0.8482782512
 40
0.8788620545
 40
0.9093213147
 40
0.9396599683
 40
0.9698837247
 40
1.0
 40
1.0
 40
1.0
 40
1.0
 10
10.9572601833
 20
8.3910846921
 30
0.0
 10
10.953517
 20
8.3913442827
 30
0.0
 10
10.9460289681
 20
8.39208793
 30
0.0
 10
10.9348616665
 20
8.3938657305
 30
0.0
 10
10.9237738728
 20
8.3963021078
 30
0.0
 10
10.9128056594
 20
8.3993880897
 30
0.0
 10
10.9019957587
 20
8.4031128255
 30
0.0
 10
10.8913826759
 20
8.4074629727
 30
0.0
 10
10.8810041033
 20
8.4124230566
 30
0.0
 10
10.8708969247
 20
8.417975394
 30
0.0
 10
10.8610970283
 20
8.4241002455
 30
0.0
 10
10.8516393102
 20
8.4307757413
 30
0.0
 10
10.8425570915
 20
8.4379784654
 30
0.0
 10
10.8309934103
 20
8.4482486393
 30
0.0
 10
10.8176385912
 20
8.4622686742
 30
0.0
 10
10.8059305229
 20
8.4776784075
 30
0.0
 10
10.7976552447
 20
8.4907069905
 30
0.0
 10
10.7920183269
 20
8.5007891257
 30
0.0
 10
10.7869692768
 20
8.5111491625
 30
0.0
 10
10.7825257981
 20
8.5217506195
 30
0.0
 10
10.7787037891
 20
8.5325557379
 30
0.0
 10
10.7755168633
 20
8.5435261452
 30
0.0
 10
10.7729764065
 20
8.5546228444
 30
0.0
 10
10.7710914819
 20
8.565806387
 30
0.0
 10
10.7698688371
 20
8.5770370109
 30
0.0
 10
10.769312874
 20
8.5882747811
 30
0.0
 10
10.7694256312
 20
8.5994797239
 30
0.0
 10
10.7702067856
 20
8.6106119833
 30
0.0
 10
10.7716535971
 20
8.6216319016
 30
0.0
 10
10.7737610146
 20
8.632500396
 30
0.0
 10
10.7765214129
 20
8.6431782328
 30
0.0
 10
10.7787947556
 20
8.650157388
 30
0.0
 10
10.7800366496
 20
8.6536010057
 30
0.0
  0
SPLINE
  5
37E
100
AcDbEntity
  8
0
100
AcDbSpline
 62
7
  6
CONTINUOUS
 70
0
 71
3
 72
39
 73
35
 74
0
 42
0.0000001
 43
0.0000001
 44
0.0000000001
 40
0.0
 40
0.0
 40
0.0
 40
0.0
 40
0.0318620992
 40
0.0637327807
 40
0.0956006359
 40
0.127463689
 40
0.1593142794
 40
0.1911452778
 40
0.2229490463
 40
0.2547174448
 40
0.2864423773
 40
0.3181158868
 40
0.3497302541
 40
0.3812783195
 40
0.4127538012
 40
0.4441514918
 40
0.4754676344
 40
0.5066999524
 40
0.5378478042
 40
0.5689125244
 40
0.5998974362
 40
0.6308079018
 40
0.6616512633
 40
0.6924367256
 40
0.7231752674
 40
0.7538793726
 40
0.7845627603
 40
0.815240033
 40
0.8459262565
 40
0.876636608
 40
0.9073858092
 40
0.9381878128
 40
0.9690554874
 40
1.0
 40
1.0
 40
1.0
 40
1.0
 10
10.8392881525
 20
8.5306345982
 30
0.0
 10
10.8377534893
 20
8.5306450134
 30
0.0
 10
10.8346834127
 20
8.5307718764
 30
0.0
 10
10.8301031955
 20
8.5312797467
 30
0.0
 10
10.8255688857
 20
8.5321037875
 30
0.0
 10
10.8211037346
 20
8.5332405187
 30
0.0
 10
10.8167303288
 20
8.5346851952
 30
0.0
 10
10.8124713281
 20
8.5364312146
 30
0.0
 10
10.8083490224
 20
8.5384703633
 30
0.0
 10
10.8043852991
 20
8.5407928129
 30
0.0
 10
10.8006014783
 20
8.5433870946
 30
0.0
 10
10.7970181423
 20
8.5462400985
 30
0.0
 10
10.7936550249
 20
8.5493371581
 30
0.0
 10
10.7905308788
 20
8.5526621137
 30
0.0
 10
10.7876633356
 20
8.5561973804
 30
0.0
 10
10.7850687096
 20
8.5599239984
 30
0.0
 10
10.7827619068
 20
8.5638217709
 30
0.0
 10
10.7807563027
 20
8.5678693751
 30
0.0
 10
10.7790636487
 20
8.5720444971
 30
0.0
 10
10.7776939211
 20
8.5763239531
 30
0.0
 10
10.7766552142
 20
8.580683855
 30
0.0
 10
10.7759537172
 20
8.5850997859
 30
0.0
 10
10.7755936422
 20
8.5895469622
 30
0.0
 10
10.7755771933
 20
8.5940004073
 30
0.0
 10
10.7759044783
 20
8.5984351333
 30
0.0
 10
10.7765735537
 20
8.6028263333
 30
0.0
 10
10.7775804542
 20
8.6071495554
 30
0.0
 10
10.7789192272
 20
8.6113808747
 30
0.0
 10
10.7805819634
 20
8.6154970652
 30
0.0
 10
10.7825588531
 20
8.6194757785
 30
0.0
 10
10.7848382948
 20
8.6232956561
 30
0.0
 10
10.7874071072
 20
8.6269365552
 30
0.0
 10
10.7902502546
 20
8.6303793151
 30
0.0
 10
10.7923155536
 20
8.6325283694
 30
0.0
 10
10.7933875792
 20
8.633563915
 30
0.0
  0
SPLINE
  5
37F
100
AcDbEntity
  8
0
100
AcDbSpline
 62
7
  6
CONTINUOUS
 70
0
 71
3
 72
52
 73
48
 74
0
 42
0.0000001
 43
0.0000001
 44
0.0000000001
 40
0.0
 40
0.0
 40
0.0
 40
0.0
 40
0.0499779125
 40
0.0993160495
 40
0.1479278371
 40
0.1957336332
 40
0.2426529024
 40
0.2886079559
 40
0.33352336
 40
0.3773261063
 40
0.4199459773
 40
0.461315784
 40
0.5013716661
 40
0.5400533612
 40
0.5773045436
 40
0.6130732609
 40
0.6473124242
 40
0.6799803084
 40
0.7110412166
 40
0.7404663453
 40
0.7682348979
 40
0.78149468
 40
0.7943368657
 40
0.8067618093
 40
0.8187706918
 40
0.8303655333
 40
0.8415495254
 40
0.8523268987
 40
0.8627032024
 40
0.8726854988
 40
0.8822823559
 40
0.891504292
 40
0.9003638341
 40
0.9088757725
 40
0.9170575677
 40
0.924929406
 40
0.9325146109
 40
0.9398398101
 40
0.9469349907
 40
0.9538336628
 40
0.9605725908
 40
0.9671915091
 40
0.9737325865
 40
0.9802396241
 40
0.9867571864
 40
0.9933295953
 40
1.0
 40
1.0
 40
1.0
 40
1.0
 10
13.4723555402
 20
8.6033529457
 30
0.0
 10
13.4723555402
 20
8.6112295493
 30
0.0
 10
13.472266362
 20
8.6268820862
 30
0.0
 10
13.4718600044
 20
8.6501927464
 30
0.0
 10
13.4711825392
 20
8.6731546838
 30
0.0
 10
13.4702352933
 20
8.6957255482
 30
0.0
 10
13.469019977
 20
8.7178642793
 30
0.0
 10
13.4675388611
 20
8.7395302861
 30
0.0
 10
13.4657946938
 20
8.7606839548
 30
0.0
 10
13.4637907011
 20
8.7812865996
 30
0.0
 10
13.4615305859
 20
8.8013005427
 30
0.0
 10
13.4590185313
 20
8.820689205
 30
0.0
 10
13.4562591937
 20
8.8394171695
 30
0.0
 10
13.4532576803
 20
8.8574502434
 30
0.0
 10
13.4500195385
 20
8.8747555231
 30
0.0
 10
13.4465507547
 20
8.8913014691
 30
0.0
 10
13.4428577517
 20
8.9070579842
 30
0.0
 10
13.4389473509
 20
8.9219964413
 30
0.0
 10
13.4348267519
 20
8.9360898411
 30
0.0
 10
13.4305035172
 20
8.9493125518
 30
0.0
 10
13.4266820154
 20
8.9597409023
 30
0.0
 10
13.4235203489
 20
8.9676209072
 30
0.0
 10
13.4211399015
 20
8.9732072815
 30
0.0
 10
13.4187148349
 20
8.9785587444
 30
0.0
 10
13.4162462393
 20
8.9836728931
 30
0.0
 10
13.4137351802
 20
8.988547394
 30
0.0
 10
13.4111828362
 20
8.9931800729
 30
0.0
 10
13.4085903126
 20
8.9975688345
 30
0.0
 10
13.4059587389
 20
9.0017116978
 30
0.0
 10
13.4032893132
 20
9.0056068321
 30
0.0
 10
13.4005831231
 20
9.0092524524
 30
0.0
 10
13.3978413593
 20
9.0126469418
 30
0.0
 10
13.39506517
 20
9.0157887695
 30
0.0
 10
13.392255649
 20
9.0186764524
 30
0.0
 10
13.3894139958
 20
9.0213086923
 30
0.0
 10
13.3865412967
 20
9.0236841681
 30
0.0
 10
13.3836387058
 20
9.0258016678
 30
0.0
 10
13.3807074244
 20
9.0276600805
 30
0.0
 10
13.3777486181
 20
9.0292582134
 30
0.0
 10
13.3747636352
 20
9.0305950885
 30
0.0
 10
13.3717538664
 20
9.0316697098
 30
0.0
 10
13.3687208483
 20
9.0324811708
 30
0.0
 10
13.3656662816
 20
9.0330288805
 30
0.0
 10
13.3625919588
 20
9.0333122764
 30
0.0
 10
13.3594996905
 20
9.0333311939
 30
0.0
 10
13.3563915861
 20
9.0330857827
 30
0.0
 10
13.3543290629
 20
9.0327491785
 30
0.0
 10
13.3532990353
 20
9.0325389274
 30
0.0
  0
SPLINE
  5
380
100
AcDbEntity
  8
0
100
AcDbSpline
 62
7
  6
CONTINUOUS
 70
0
 71
3
 72
28
 73
24
 74
0
 42
0.0000001
 43
0.0000001
 44
0.0000000001
 40
0.0
 40
0.0
 40
0.0
 40
0.0
 40
0.0786887548
 40
0.15606343
 40
0.2319168532
 40
0.3060489888
 40
0.3782651367
 40
0.4483782184
 40
0.5162091114
 40
0.5815878465
 40
0.6443546179
 40
0.7043610228
 40
0.7614714633
 40
0.7889030225
 40
0.8155664539
 40
0.841449284
 40
0.8665401549
 40
0.8908290477
 40
0.9143073568
 40
0.9369679815
 40
0.9588056127
 40
0.9798167079
 40
1.0
 40
1.0
 40
1.0
 40
1.0
 10
13.3294874273
 20
8.6033529376
 30
0.0
 10
13.3294874273
 20
8.6126043431
 30
0.0
 10
13.3293562624
 20
8.6309529595
 30
0.0
 10
13.3287566033
 20
8.6582137276
 30
0.0
 10
13.3277572862
 20
8.6849268067
 30
0.0
 10
13.3263612921
 20
8.711014824
 30
0.0
 10
13.3245727241
 20
8.7364024505
 30
0.0
 10
13.3223968618
 20
8.7610162965
 30
0.0
 10
13.3198401068
 20
8.7847852881
 30
0.0
 10
13.3169099839
 20
8.8076408017
 30
0.0
 10
13.3136151246
 20
8.8295169726
 30
0.0
 10
13.3099651921
 20
8.8503506273
 30
0.0
 10
13.30659303
 20
8.867009683
 30
0.0
 10
13.3037153188
 20
8.8797638787
 30
0.0
 10
13.3015040392
 20
8.888903549
 30
0.0
 10
13.299212428
 20
8.8977394133
 30
0.0
 10
13.2968421079
 20
8.9062651164
 30
0.0
 10
13.2943948073
 20
8.9144745156
 30
0.0
 10
13.2918723059
 20
8.9223617112
 30
0.0
 10
13.2892764076
 20
8.9299210271
 30
0.0
 10
13.2866090131
 20
8.9371470719
 30
0.0
 10
13.2838720235
 20
8.9440345836
 30
0.0
 10
13.2819639258
 20
8.9484868912
 30
0.0
 10
13.280997092
 20
8.9506539362
 30
0.0
  0
SPLINE
  5
381
100
AcDbEntity
  8
0
100
AcDbSpline
 62
7
  6
CONTINUOUS
 70
0
 71
3
 72
21
 73
17
 74
0
 42
0.0000001
 43
0.0000001
 44
0.0000000001
 40
0.0
 40
0.0
 40
0.0
 40
0.0
 40
0.1443735059
 40
0.2847906534
 40
0.3532507692
 40
0.4204062679
 40
0.4861574818
 40
0.5504075043
 40
0.6130629063
 40
0.6740338444
 40
0.7332343625
 40
0.7905829406
 40
0.8460027114
 40
0.8994218397
 40
0.9507742246
 40
1.0
 40
1.0
 40
1.0
 40
1.0
 10
13.2712838702
 20
8.5946556267
 30
0.0
 10
13.2712838702
 20
8.6073508177
 30
0.0
 10
13.2710147073
 20
8.6323942007
 30
0.0
 10
13.2699728722
 20
8.663442163
 30
0.0
 10
13.268713309
 20
8.6876823897
 30
0.0
 10
13.2675713153
 20
8.7053528118
 30
0.0
 10
13.266226038
 20
8.7226376332
 30
0.0
 10
13.2646796861
 20
8.7395083417
 30
0.0
 10
13.2629348643
 20
8.7559370737
 30
0.0
 10
13.2609944805
 20
8.7718967106
 30
0.0
 10
13.258861758
 20
8.7873609129
 30
0.0
 10
13.2565402721
 20
8.8023041801
 30
0.0
 10
13.2540339033
 20
8.8167018718
 30
0.0
 10
13.2513468105
 20
8.8305303007
 30
0.0
 10
13.248483504
 20
8.843766598
 30
0.0
 10
13.2464158574
 20
8.852366685
 30
0.0
 10
13.2453502882
 20
8.8565620477
 30
0.0
  0
SPLINE
  5
382
100
AcDbEntity
  8
0
100
AcDbSpline
 62
7
  6
CONTINUOUS
 70
0
 71
3
 72
23
 73
19
 74
0
 42
0.0000001
 43
0.0000001
 44
0.0000000001
 40
0.0
 40
0.0
 40
0.0
 40
0.0
 40
0.0639437083
 40
0.1275045299
 40
0.1906968448
 40
0.2535439333
 40
0.3160809001
 40
0.3783525407
 40
0.4404122346
 40
0.5023202862
 40
0.5641419975
 40
0.625945536
 40
0.6877996719
 40
0.7497714946
 40
0.8119242021
 40
0.8743150516
 40
0.9369935559
 40
1.0
 40
1.0
 40
1.0
 40
1.0
 10
10.8146510071
 20
8.2045555405
 30
0.0
 10
10.8214639533
 20
8.2040830611
 30
0.0
 10
10.8350971587
 20
8.2037249324
 30
0.0
 10
10.8554509315
 20
8.2049688283
 30
0.0
 10
10.8755018486
 20
8.2079859095
 30
0.0
 10
10.8950973619
 20
8.2127542701
 30
0.0
 10
10.9140905399
 20
8.2192384669
 30
0.0
 10
10.9323382927
 20
8.2273901507
 30
0.0
 10
10.9497032116
 20
8.237148302
 30
0.0
 10
10.9660544232
 20
8.2484397201
 30
0.0
 10
10.9812686637
 20
8.2611795565
 30
0.0
 10
10.9952312859
 20
8.2752719045
 30
0.0
 10
11.0078371475
 20
8.2906105674
 30
0.0
 10
11.0189914184
 20
8.307079974
 30
0.0
 10
11.0286102582
 20
8.3245558549
 30
0.0
 10
11.0366216626
 20
8.3429070573
 30
0.0
 10
11.0429653835
 20
8.3619933301
 30
0.0
 10
11.0460436543
 20
8.3750806838
 30
0.0
 10
11.0472928105
 20
8.3816929339
 30
0.0
  0
SPLINE
  5
383
100
AcDbEntity
  8
0
100
AcDbSpline
 62
7
  6
CONTINUOUS
 70
0
 71
3
 72
29
 73
25
 74
0
 42
0.0000001
 43
0.0000001
 44
0.0000000001
 40
0.0
 40
0.0
 40
0.0
 40
0.0
 40
0.0749503488
 40
0.1455452737
 40
0.2121261891
 40
0.2751192851
 40
0.3350448404
 40
0.3640583593
 40
0.3925449884
 40
0.4205963601
 40
0.4483089338
 40
0.4757832092
 40
0.5031225081
 40
0.530431847
 40
0.5578166247
 40
0.5853812653
 40
0.6132280351
 40
0.6414557868
 40
0.6701590145
 40
0.7293218109
 40
0.7913860629
 40
0.8569001023
 40
0.9263189548
 40
1.0
 40
1.0
 40
1.0
 40
1.0
 10
11.2957022941
 20
9.9629304146
 30
0.0
 10
11.2938744288
 20
9.964631436
 30
0.0
 10
11.2904262805
 20
9.9680465341
 30
0.0
 10
11.2857736067
 20
9.9733744517
 30
0.0
 10
11.2818061091
 20
9.9787447552
 30
0.0
 10
11.2785298109
 20
9.9841521097
 30
0.0
 10
11.2763566951
 20
9.9887352505
 30
0.0
 10
11.2749855171
 20
9.9924010028
 30
0.0
 10
11.274143278
 20
9.9951255877
 30
0.0
 10
11.2734767011
 20
9.9978538094
 30
0.0
 10
11.2729860612
 20
10.0005849161
 30
0.0
 10
11.2726715306
 20
10.0033180265
 30
0.0
 10
11.2725332542
 20
10.0060522782
 30
0.0
 10
11.2725713514
 20
10.0087867837
 30
0.0
 10
11.2727857506
 20
10.0115206493
 30
0.0
 10
11.2731763471
 20
10.0142530043
 30
0.0
 10
11.2737430084
 20
10.0169829554
 30
0.0
 10
11.2744855041
 20
10.0197097392
 30
0.0
 10
11.2757216371
 20
10.0233764688
 30
0.0
 10
11.2777258828
 20
10.02796369
 30
0.0
 10
11.2808048683
 20
10.033380841
 30
0.0
 10
11.2845766619
 20
10.0387623354
 30
0.0
 10
11.2890352287
 20
10.0441026102
 30
0.0
 10
11.2923589135
 20
10.0475266207
 30
0.0
 10
11.294124414
 20
10.0492319633
 30
0.0
  0
SPLINE
  5
384
100
AcDbEntity
  8
0
100
AcDbSpline
 62
7
  6
CONTINUOUS
 70
0
 71
3
 72
26
 73
22
 74
0
 42
0.0000001
 43
0.0000001
 44
0.0000000001
 40
0.0
 40
0.0
 40
0.0
 40
0.0
 40
0.0639795391
 40
0.0958392605
 40
0.1276087353
 40
0.1908722279
 40
0.2538034374
 40
0.2851607452
 40
0.3164469783
 40
0.3476672173
 40
0.3788270365
 40
0.4409749834
 40
0.5029580556
 40
0.5648337326
 40
0.6266627016
 40
0.6885070502
 40
0.7504284046
 40
0.8124860857
 40
0.8747353541
 40
0.9372258092
 40
1.0
 40
1.0
 40
1.0
 40
1.0
 10
10.8410505279
 20
8.2509975372
 30
0.0
 10
10.846950259
 20
8.2505883895
 30
0.0
 10
10.8558187272
 20
8.2503364608
 30
0.0
 10
10.8676098478
 20
8.2507356091
 30
0.0
 10
10.8793087596
 20
8.2516203819
 30
0.0
 10
10.8937888232
 20
8.2536348964
 30
0.0
 10
10.9080098459
 20
8.25685966
 30
0.0
 10
10.9191445618
 20
8.2601489805
 30
0.0
 10
10.9273546282
 20
8.2629631792
 30
0.0
 10
10.9354185905
 20
8.2661225532
 30
0.0
 10
10.9459467556
 20
8.2707831186
 30
0.0
 10
10.9586833848
 20
8.27744588
 30
0.0
 10
10.9731806052
 20
8.2867295346
 30
0.0
 10
10.9867833627
 20
8.2972334701
 30
0.0
 10
10.9993984183
 20
8.3088860849
 30
0.0
 10
11.0109402578
 20
8.3216083005
 30
0.0
 10
11.0213304605
 20
8.3353136557
 30
0.0
 10
11.0304985317
 20
8.3499088731
 30
0.0
 10
11.038382479
 20
8.3652951627
 30
0.0
 10
11.0449285898
 20
8.3813663793
 30
0.0
 10
11.0483640054
 20
8.3924412307
 30
0.0
 10
11.0498462872
 20
8.3980511935
 30
0.0
  0
SPLINE
  5
385
100
AcDbEntity
  8
0
100
AcDbSpline
 62
7
  6
CONTINUOUS
 70
0
 71
3
 72
82
 73
78
 74
0
 42
0.0000001
 43
0.0000001
 44
0.0000000001
 40
0.0
 40
0.0
 40
0.0
 40
0.0
 40
0.0039519233
 40
0.0080647395
 40
0.012342495
 40
0.0167886289
 40
0.0214060732
 40
0.026197185
 40
0.0311636264
 40
0.0363065606
 40
0.0416267229
 40
0.0471244157
 40
0.0527996369
 40
0.0586519991
 40
0.0708846929
 40
0.0838144675
 40
0.0974289457
 40
0.1117124918
 40
0.1266466061
 40
0.142210273
 40
0.1583802366
 40
0.175131224
 40
0.1924361227
 40
0.2102661481
 40
0.228591009
 40
0.2473790421
 40
0.2665973324
 40
0.2862118179
 40
0.3061874145
 40
0.3264881266
 40
0.3470771474
 40
0.3679169529
 40
0.4101950861
 40
0.4530126005
 40
0.4960535846
 40
0.5389999985
 40
0.5815346968
 40
0.6025499267
 40
0.6233452672
 40
0.6438826847
 40
0.6641247832
 40
0.6840349017
 40
0.7035772094
 40
0.7227168067
 40
0.7414198382
 40
0.7596536168
 40
0.7773867292
 40
0.7945891587
 40
0.8112324227
 40
0.8272897426
 40
0.8427362119
 40
0.8575489803
 40
0.8717074848
 40
0.8851937372
 40
0.8979926842
 40
0.910092616
 40
0.9158781207
 40
0.9214863113
 40
0.9269169182
 40
0.9321700684
 40
0.9372462095
 40
0.9421462506
 40
0.9468715666
 40
0.9514240184
 40
0.9558061123
 40
0.96002096
 40
0.9640724357
 40
0.9679652593
 40
0.9717050387
 40
0.9752984775
 40
0.9787533994
 40
0.9820789031
 40
0.9883814967
 40
0.9913875045
 40
0.9943148566
 40
0.9971798486
 40
1.0
 40
1.0
 40
1.0
 40
1.0
 10
11.3839555387
 20
9.953171029
 30
0.0
 10
11.3850133574
 20
9.9541928035
 30
0.0
 10
11.3872195683
 20
9.9562292297
 30
0.0
 10
11.3907204839
 20
9.9592044658
 30
0.0
 10
11.3944761018
 20
9.9621586652
 30
0.0
 10
11.3984844036
 20
9.9650902218
 30
0.0
 10
11.4027434315
 20
9.9679978286
 30
0.0
 10
11.4072511784
 20
9.9708800735
 30
0.0
 10
11.4120054384
 20
9.9737356311
 30
0.0
 10
11.4170038915
 20
9.9765630857
 30
0.0
 10
11.4222440944
 20
9.9793610238
 30
0.0
 10
11.4277234545
 20
9.982128123
 30
0.0
 10
11.4334393154
 20
9.9848629993
 30
0.0
 10
11.4414911887
 20
9.988518772
 30
0.0
 10
11.4521360155
 20
9.9929879661
 30
0.0
 10
11.4656239929
 20
9.9981253375
 30
0.0
 10
11.4799818583
 20
10.0031030668
 30
0.0
 10
11.4951813308
 20
10.0079112587
 30
0.0
 10
11.5111926217
 20
10.0125403623
 30
0.0
 10
11.5279842077
 20
10.0169811603
 30
0.0
 10
11.5455230037
 20
10.0212248025
 30
0.0
 10
11.5637744078
 20
10.0252628234
 30
0.0
 10
11.5827023759
 20
10.0290871719
 30
0.0
 10
11.6022694967
 20
10.0326902319
 30
0.0
 10
11.6224370793
 20
10.0360648231
 30
0.0
 10
11.6431652358
 20
10.0392042194
 30
0.0
 10
11.6644129561
 20
10.0421021597
 30
0.0
 10
11.6861381866
 20
10.0447528775
 30
0.0
 10
11.7082979232
 20
10.0471510998
 30
0.0
 10
11.7308482873
 20
10.0492920442
 30
0.0
 10
11.7537446706
 20
10.0511714727
 30
0.0
 10
11.7848218853
 20
10.0533338493
 30
0.0
 10
11.8241984512
 20
10.0553507134
 30
0.0
 10
11.8718705677
 20
10.0566721412
 30
0.0
 10
11.919809316
 20
10.0568953318
 30
0.0
 10
11.9676351244
 20
10.0560185148
 30
0.0
 10
12.007237693
 20
10.0543706499
 30
0.0
 10
12.0385718564
 20
10.0525011908
 30
0.0
 10
12.0617156058
 20
10.0508366756
 30
0.0
 10
12.0845500603
 20
10.048907566
 30
0.0
 10
12.1070300441
 20
10.0467176781
 30
0.0
 10
12.1291110422
 20
10.0442713827
 30
0.0
 10
12.1507493449
 20
10.0415735485
 30
0.0
 10
12.171902118
 20
10.0386295442
 30
0.0
 10
12.1925274985
 20
10.0354452289
 30
0.0
 10
12.2125846822
 20
10.0320269537
 30
0.0
 10
12.2320340018
 20
10.0283815313
 30
0.0
 10
12.2508370021
 20
10.0245162269
 30
0.0
 10
12.2689565231
 20
10.0204387375
 30
0.0
 10
12.2863567872
 20
10.0161571947
 30
0.0
 10
12.3030034729
 20
10.0116801387
 30
0.0
 10
12.318863789
 20
10.0070164908
 30
0.0
 10
12.3339065198
 20
10.0021755346
 30
0.0
 10
12.3481022026
 20
9.9971668833
 30
0.0
 10
12.3614228859
 20
9.9920004888
 30
0.0
 10
12.3719241982
 20
9.9875075848
 30
0.0
 10
12.379858625
 20
9.9838337137
 30
0.0
 10
12.3854854739
 20
9.9810865066
 30
0.0
 10
12.3908747902
 20
9.9783075867
 30
0.0
 10
12.3960239614
 20
9.9754983473
 30
0.0
 10
12.4009304446
 20
9.9726601195
 30
0.0
 10
12.405591848
 20
9.9697943028
 30
0.0
 10
12.4100059096
 20
9.9669023083
 30
0.0
 10
12.4141704465
 20
9.9639854725
 30
0.0
 10
12.4180834674
 20
9.9610452512
 30
0.0
 10
12.4217430446
 20
9.958082995
 30
0.0
 10
12.4251473908
 20
9.9551000869
 30
0.0
 10
12.4282948686
 20
9.9520979544
 30
0.0
 10
12.4311838817
 20
9.949077867
 30
0.0
 10
12.4338129697
 20
9.9460413513
 30
0.0
 10
12.4361809608
 20
9.9429893328
 30
0.0
 10
12.4389383337
 20
9.9389744337
 30
0.0
 10
12.4412399244
 20
9.9348549393
 30
0.0
 10
12.4430151125
 20
9.9306577277
 30
0.0
 10
12.4440589585
 20
9.9275505773
 30
0.0
 10
12.4448348045
 20
9.9244373047
 30
0.0
 10
12.4451750408
 20
9.9223461054
 30
0.0
 10
12.445299162
 20
9.9213039464
 30
0.0
  0
SPLINE
  5
386
100
AcDbEntity
  8
0
100
AcDbSpline
 62
7
  6
CONTINUOUS
 70
0
 71
3
 72
21
 73
17
 74
0
 42
0.0000001
 43
0.0000001
 44
0.0000000001
 40
0.0
 40
0.0
 40
0.0
 40
0.0
 40
0.1274737985
 40
0.2540667908
 40
0.3170668583
 40
0.3798654312
 40
0.4424734233
 40
0.504903362
 40
0.5671697538
 40
0.6292888978
 40
0.6912786558
 40
0.7531583368
 40
0.8149484605
 40
0.8766705167
 40
0.938346769
 40
1.0
 40
1.0
 40
1.0
 40
1.0
 10
10.8485094875
 20
8.2860395802
 30
0.0
 10
10.8547688891
 20
8.2856054893
 30
0.0
 10
10.8672962592
 20
8.2853610041
 30
0.0
 10
10.8828787342
 20
8.2866386197
 30
0.0
 10
10.8951499361
 20
8.2886051419
 30
0.0
 10
10.9042229753
 20
8.2905442485
 30
0.0
 10
10.9131557261
 20
8.2929449378
 30
0.0
 10
10.9219259518
 20
8.2958011921
 30
0.0
 10
10.930511504
 20
8.2991057968
 30
0.0
 10
10.9388907559
 20
8.3028504909
 30
0.0
 10
10.9470425797
 20
8.3070258681
 30
0.0
 10
10.9549464645
 20
8.3116213802
 30
0.0
 10
10.9625824604
 20
8.3166254725
 30
0.0
 10
10.969931366
 20
8.3220256399
 30
0.0
 10
10.976974448
 20
8.3278079907
 30
0.0
 10
10.9814550118
 20
8.331908833
 30
0.0
 10
10.9836377035
 20
8.3340171496
 30
0.0
  0
SPLINE
  5
387
100
AcDbEntity
  8
0
100
AcDbSpline
 62
7
  6
CONTINUOUS
 70
0
 71
3
 72
15
 73
11
 74
0
 42
0.0000001
 43
0.0000001
 44
0.0000000001
 40
0.0
 40
0.0
 40
0.0
 40
0.0
 40
0.1232438819
 40
0.2467981588
 40
0.3707780448
 40
0.4952853428
 40
0.620405138
 40
0.7462043058
 40
0.8727271939
 40
1.0
 40
1.0
 40
1.0
 40
1.0
 10
11.0338184293
 20
8.4916905726
 30
0.0
 10
11.0313271832
 20
8.4898378826
 30
0.0
 10
11.0261657845
 20
8.486353784
 30
0.0
 10
11.0179709153
 20
8.4818468546
 30
0.0
 10
11.0093729892
 20
8.4780848529
 30
0.0
 10
11.0004356027
 20
8.4750956907
 30
0.0
 10
10.99122382
 20
8.4729007955
 30
0.0
 10
10.9818046583
 20
8.4715160545
 30
0.0
 10
10.9722476036
 20
8.4709512129
 30
0.0
 10
10.9658473698
 20
8.4711235284
 30
0.0
 10
10.9626489228
 20
8.4713453414
 30
0.0
  0
SPLINE
  5
388
100
AcDbEntity
  8
0
100
AcDbSpline
 62
7
  6
CONTINUOUS
 70
0
 71
3
 72
11
 73
7
 74
0
 42
0.0000001
 43
0.0000001
 44
0.0000000001
 40
0.0
 40
0.0
 40
0.0
 40
0.0
 40
0.2523523548
 40
0.503081495
 40
0.7522586029
 40
1.0
 40
1.0
 40
1.0
 40
1.0
 10
10.9572601833
 20
8.3910846921
 30
0.0
 10
10.9630766247
 20
8.3906813205
 30
0.0
 10
10.9747167302
 20
8.3904132645
 30
0.0
 10
10.9920783513
 20
8.3916476718
 30
0.0
 10
11.0091394363
 20
8.3945083798
 30
0.0
 10
11.0202475392
 20
8.39749325
 30
0.0
 10
11.0256962537
 20
8.399246618
 30
0.0
  0
SPLINE
  5
389
100
AcDbEntity
  8
0
100
AcDbSpline
 62
7
  6
CONTINUOUS
 70
0
 71
3
 72
95
 73
91
 74
0
 42
0.0000001
 43
0.0000001
 44
0.0000000001
 40
0.0
 40
0.0
 40
0.0
 40
0.0
 40
0.0041939594
 40
0.0085762782
 40
0.0131520573
 40
0.0179256173
 40
0.0229004891
 40
0.0280792353
 40
0.0334636269
 40
0.0390547837
 40
0.0448532429
 40
0.0508590315
 40
0.0570716617
 40
0.0634902595
 40
0.0701135134
 40
0.0769398105
 40
0.09119284
 40
0.1062306851
 40
0.1220299823
 40
0.1385637575
 40
0.1558018515
 40
0.1737112679
 40
0.1922564673
 40
0.2113996207
 40
0.2311008356
 40
0.2513183603
 40
0.272008772
 40
0.2931271544
 40
0.3146272662
 40
0.3364617034
 40
0.3585820579
 40
0.380939072
 40
0.4034827908
 40
0.4261627133
 40
0.448927942
 40
0.4717273316
 40
0.4945096381
 40
0.5172236671
 40
0.539818422
 40
0.5622432532
 40
0.5844480073
 40
0.6063831771
 40
0.6280000543
 40
0.6492508828
 40
0.6700890155
 40
0.690469076
 40
0.710347124
 40
0.7296808303
 40
0.748429661
 40
0.7665550762
 40
0.7840207471
 40
0.8007927993
 40
0.816840092
 40
0.8321345465
 40
0.8466515423
 40
0.8536121205
 40
0.860370937
 40
0.8669261464
 40
0.8732762126
 40
0.8794199799
 40
0.8853566932
 40
0.8910860295
 40
0.8966081824
 40
0.9019238591
 40
0.9070344273
 40
0.9119418968
 40
0.9166491158
 40
0.9211597694
 40
0.9254786037
 40
0.9296114746
 40
0.9335655778
 40
0.9373495665
 40
0.9409737611
 40
0.9477890579
 40
0.9510148461
 40
0.9541417235
 40
0.9571900969
 40
0.9601821554
 40
0.9631415091
 40
0.9660926235
 40
0.9690601892
 40
0.9720684542
 40
0.9751406083
 40
0.9782982941
 40
0.9815612373
 40
0.98494706
 40
0.9884713247
 40
0.992147593
 40
0.9959873756
 40
1.0
 40
1.0
 40
1.0
 40
1.0
 10
9.4830133824
 20
10.17483294
 30
0.0
 10
9.4843835663
 20
10.176156436
 30
0.0
 10
9.4872536029
 20
10.1787930374
 30
0.0
 10
9.4918309767
 20
10.1826344992
 30
0.0
 10
9.4967707154
 20
10.186445416
 30
0.0
 10
9.5020696155
 20
10.1902234544
 30
0.0
 10
9.5077246446
 20
10.1939664859
 30
0.0
 10
9.5137324691
 20
10.1976723968
 30
0.0
 10
9.5200895492
 20
10.2013389856
 30
0.0
 10
9.5267921024
 20
10.2049640755
 30
0.0
 10
9.5338361391
 20
10.2085455382
 30
0.0
 10
9.5412174792
 20
10.2120812093
 30
0.0
 10
9.5489317092
 20
10.2155690244
 30
0.0
 10
9.5569742325
 20
10.2190068263
 30
0.0
 10
9.5653402349
 20
10.2223926474
 30
0.0
 10
9.5770891566
 20
10.2268998897
 30
0.0
 10
9.5925572122
 20
10.2323753537
 30
0.0
 10
9.6120673308
 20
10.2386159254
 30
0.0
 10
9.6327374895
 20
10.244602483
 30
0.0
 10
9.6545180957
 20
10.2503205161
 30
0.0
 10
9.677357075
 20
10.2557561505
 30
0.0
 10
9.7011996518
 20
10.2608961935
 30
0.0
 10
9.7259886026
 20
10.2657281694
 30
0.0
 10
9.7516643763
 20
10.2702403529
 30
0.0
 10
9.7781652557
 20
10.2744217971
 30
0.0
 10
9.8054275108
 20
10.278262361
 30
0.0
 10
9.8333855588
 20
10.2817527325
 30
0.0
 10
9.8619721258
 20
10.2848844512
 30
0.0
 10
9.891118412
 20
10.2876499281
 30
0.0
 10
9.92075426
 20
10.2900424631
 30
0.0
 10
9.9508083259
 20
10.2920562605
 30
0.0
 10
9.9812082523
 20
10.2936864431
 30
0.0
 10
10.0118808445
 20
10.2949290632
 30
0.0
 10
10.0427522474
 20
10.2957811119
 30
0.0
 10
10.0737481248
 20
10.2962405258
 30
0.0
 10
10.104793839
 20
10.2963061926
 30
0.0
 10
10.1358146316
 20
10.2959779538
 30
0.0
 10
10.166735805
 20
10.2952566042
 30
0.0
 10
10.1974829026
 20
10.2941438904
 30
0.0
 10
10.2279818891
 20
10.2926425067
 30
0.0
 10
10.25815933
 20
10.2907560887
 30
0.0
 10
10.2879425692
 20
10.2884892048
 30
0.0
 10
10.3172599055
 20
10.2858473458
 30
0.0
 10
10.3460407667
 20
10.2828369118
 30
0.0
 10
10.3742158813
 20
10.2794651974
 30
0.0
 10
10.401717448
 20
10.2757403745
 30
0.0
 10
10.4284793017
 20
10.2716714735
 30
0.0
 10
10.4544370768
 20
10.2672683616
 30
0.0
 10
10.4795283681
 20
10.2625417201
 30
0.0
 10
10.5036928858
 20
10.2575030184
 30
0.0
 10
10.526872616
 20
10.2521644858
 30
0.0
 10
10.5490119442
 20
10.2465390794
 30
0.0
 10
10.5700579025
 20
10.2406404516
 30
0.0
 10
10.5899599729
 20
10.2344829015
 30
0.0
 10
10.6057663859
 20
10.2290752265
 30
0.0
 10
10.617793998
 20
10.2246199758
 30
0.0
 10
10.6263728892
 20
10.2212699896
 30
0.0
 10
10.6346316139
 20
10.2178666429
 30
0.0
 10
10.6425652364
 20
10.2144119285
 30
0.0
 10
10.6501690114
 20
10.2109079337
 30
0.0
 10
10.6574384041
 20
10.2073567641
 30
0.0
 10
10.664369072
 20
10.2037605141
 30
0.0
 10
10.6709569075
 20
10.2001213662
 30
0.0
 10
10.6771979765
 20
10.1964414182
 30
0.0
 10
10.6830886116
 20
10.1927229068
 30
0.0
 10
10.6886252942
 20
10.1889679265
 30
0.0
 10
10.6938047985
 20
10.1851787333
 30
0.0
 10
10.6986240287
 20
10.1813574111
 30
0.0
 10
10.703080175
 20
10.1775061991
 30
0.0
 10
10.7071705834
 20
10.1736271235
 30
0.0
 10
10.7108927221
 20
10.1697225046
 30
0.0
 10
10.7142446572
 20
10.1657938105
 30
0.0
 10
10.7181364976
 20
10.1606339774
 30
0.0
 10
10.7213938471
 20
10.1553206519
 30
0.0
 10
10.723905265
 20
10.1498861773
 30
0.0
 10
10.7253746021
 20
10.1458711576
 30
0.0
 10
10.7264621676
 20
10.1418459993
 30
0.0
 10
10.7271666032
 20
10.1378132868
 30
0.0
 10
10.7274870586
 20
10.1337761975
 30
0.0
 10
10.7274229354
 20
10.1297379879
 30
0.0
 10
10.7269744522
 20
10.1257019999
 30
0.0
 10
10.726142155
 20
10.1216714732
 30
0.0
 10
10.7249272109
 20
10.117649407
 30
0.0
 10
10.7233310098
 20
10.1136385503
 30
0.0
 10
10.7213552239
 20
10.109641394
 30
0.0
 10
10.7190016699
 20
10.1056601901
 30
0.0
 10
10.7162721385
 20
10.1016970861
 30
0.0
 10
10.7131685533
 20
10.0977540663
 30
0.0
 10
10.7096931339
 20
10.0938334594
 30
0.0
 10
10.7071865269
 20
10.0912934299
 30
0.0
 10
10.705875586
 20
10.0900271581
 30
0.0
  0
SPLINE
  5
38A
100
AcDbEntity
  8
0
100
AcDbSpline
 62
7
  6
CONTINUOUS
 70
0
 71
3
 72
82
 73
78
 74
0
 42
0.0000001
 43
0.0000001
 44
0.0000000001
 40
0.0
 40
0.0
 40
0.0
 40
0.0
 40
0.0039519233
 40
0.0080647395
 40
0.012342495
 40
0.0167886289
 40
0.0214060732
 40
0.026197185
 40
0.0311636264
 40
0.0363065606
 40
0.0416267229
 40
0.0471244157
 40
0.0527996369
 40
0.0586519991
 40
0.0708846929
 40
0.0838144675
 40
0.0974289457
 40
0.1117124918
 40
0.1266466061
 40
0.142210273
 40
0.1583802366
 40
0.175131224
 40
0.1924361227
 40
0.2102661481
 40
0.228591009
 40
0.2473790421
 40
0.2665973324
 40
0.2862118179
 40
0.3061874145
 40
0.3264881266
 40
0.3470771474
 40
0.3679169529
 40
0.4101950861
 40
0.4530126005
 40
0.4960535846
 40
0.5389999985
 40
0.5815346968
 40
0.6025499267
 40
0.6233452672
 40
0.6438826847
 40
0.6641247832
 40
0.6840349017
 40
0.7035772094
 40
0.7227168067
 40
0.7414198382
 40
0.7596536168
 40
0.7773867292
 40
0.7945891587
 40
0.8112324227
 40
0.8272897426
 40
0.8427362119
 40
0.8575489803
 40
0.8717074848
 40
0.8851937372
 40
0.8979926842
 40
0.910092616
 40
0.9158781207
 40
0.9214863113
 40
0.9269169182
 40
0.9321700684
 40
0.9372462095
 40
0.9421462506
 40
0.9468715666
 40
0.9514240184
 40
0.9558061123
 40
0.96002096
 40
0.9640724357
 40
0.9679652593
 40
0.9717050387
 40
0.9752984775
 40
0.9787533994
 40
0.9820789031
 40
0.9883814967
 40
0.9913875045
 40
0.9943148566
 40
0.9971798486
 40
1.0
 40
1.0
 40
1.0
 40
1.0
 10
9.5728445071
 20
10.0787720056
 30
0.0
 10
9.5739023258
 20
10.0797937801
 30
0.0
 10
9.5761085367
 20
10.0818302064
 30
0.0
 10
9.5796094523
 20
10.0848054424
 30
0.0
 10
9.5833650702
 20
10.0877596418
 30
0.0
 10
9.587373372
 20
10.0906911985
 30
0.0
 10
9.5916323999
 20
10.0935988052
 30
0.0
 10
9.5961401468
 20
10.0964810502
 30
0.0
 10
9.6008944068
 20
10.0993366078
 30
0.0
 10
9.6058928599
 20
10.1021640624
 30
0.0
 10
9.6111330628
 20
10.1049620005
 30
0.0
 10
9.6166124228
 20
10.1077290996
 30
0.0
 10
9.6223282838
 20
10.1104639759
 30
0.0
 10
9.6303801571
 20
10.1141197486
 30
0.0
 10
9.6410249838
 20
10.1185889428
 30
0.0
 10
9.6545129613
 20
10.1237263141
 30
0.0
 10
9.6688708267
 20
10.1287040435
 30
0.0
 10
9.6840702992
 20
10.1335122354
 30
0.0
 10
9.7000815901
 20
10.138141339
 30
0.0
 10
9.7168731761
 20
10.1425821369
 30
0.0
 10
9.7344119721
 20
10.1468257791
 30
0.0
 10
9.7526633762
 20
10.1508638001
 30
0.0
 10
9.7715913443
 20
10.1546881485
 30
0.0
 10
9.7911584651
 20
10.1582912086
 30
0.0
 10
9.8113260477
 20
10.1616657997
 30
0.0
 10
9.8320542042
 20
10.164805196
 30
0.0
 10
9.8533019245
 20
10.1677031363
 30
0.0
 10
9.875027155
 20
10.1703538542
 30
0.0
 10
9.8971868916
 20
10.1727520764
 30
0.0
 10
9.9197372557
 20
10.1748930208
 30
0.0
 10
9.942633639
 20
10.1767724493
 30
0.0
 10
9.9737108537
 20
10.178934826
 30
0.0
 10
10.0130874196
 20
10.1809516901
 30
0.0
 10
10.0607595361
 20
10.1822731179
 30
0.0
 10
10.1086982844
 20
10.1824963084
 30
0.0
 10
10.1565240928
 20
10.1816194914
 30
0.0
 10
10.1961266614
 20
10.1799716265
 30
0.0
 10
10.2274608248
 20
10.1781021674
 30
0.0
 10
10.2506045742
 20
10.1764376522
 30
0.0
 10
10.2734390287
 20
10.1745085427
 30
0.0
 10
10.2959190125
 20
10.1723186547
 30
0.0
 10
10.3180000106
 20
10.1698723593
 30
0.0
 10
10.3396383133
 20
10.1671745251
 30
0.0
 10
10.3607910864
 20
10.1642305209
 30
0.0
 10
10.3814164669
 20
10.1610462055
 30
0.0
 10
10.4014736506
 20
10.1576279303
 30
0.0
 10
10.4209229702
 20
10.153982508
 30
0.0
 10
10.4397259705
 20
10.1501172035
 30
0.0
 10
10.4578454915
 20
10.1460397142
 30
0.0
 10
10.4752457556
 20
10.1417581714
 30
0.0
 10
10.4918924413
 20
10.1372811154
 30
0.0
 10
10.5077527574
 20
10.1326174675
 30
0.0
 10
10.5227954882
 20
10.1277765112
 30
0.0
 10
10.536991171
 20
10.1227678599
 30
0.0
 10
10.5503118543
 20
10.1176014654
 30
0.0
 10
10.5608131666
 20
10.1131085614
 30
0.0
 10
10.5687475934
 20
10.1094346903
 30
0.0
 10
10.5743744423
 20
10.1066874833
 30
0.0
 10
10.5797637585
 20
10.1039085633
 30
0.0
 10
10.5849129298
 20
10.1010993239
 30
0.0
 10
10.589819413
 20
10.0982610962
 30
0.0
 10
10.5944808164
 20
10.0953952795
 30
0.0
 10
10.598894878
 20
10.092503285
 30
0.0
 10
10.6030594149
 20
10.0895864492
 30
0.0
 10
10.6069724358
 20
10.0866462279
 30
0.0
 10
10.610632013
 20
10.0836839716
 30
0.0
 10
10.6140363592
 20
10.0807010635
 30
0.0
 10
10.617183837
 20
10.0776989311
 30
0.0
 10
10.6200728501
 20
10.0746788436
 30
0.0
 10
10.622701938
 20
10.0716423279
 30
0.0
 10
10.6250699292
 20
10.0685903095
 30
0.0
 10
10.6278273021
 20
10.0645754103
 30
0.0
 10
10.6301288928
 20
10.060455916
 30
0.0
 10
10.6319040809
 20
10.0562587043
 30
0.0
 10
10.6329479269
 20
10.0531515539
 30
0.0
 10
10.6337237729
 20
10.0500382813
 30
0.0
 10
10.6340640092
 20
10.0479470821
 30
0.0
 10
10.6341881304
 20
10.0469049231
 30
0.0
  0
SPLINE
  5
38B
100
AcDbEntity
  8
0
100
AcDbSpline
 62
7
  6
CONTINUOUS
 70
0
 71
3
 72
95
 73
91
 74
0
 42
0.0000001
 43
0.0000001
 44
0.0000000001
 40
0.0
 40
0.0
 40
0.0
 40
0.0
 40
0.0041939594
 40
0.0085762782
 40
0.0131520573
 40
0.0179256173
 40
0.0229004891
 40
0.0280792353
 40
0.0334636269
 40
0.0390547837
 40
0.0448532429
 40
0.0508590315
 40
0.0570716617
 40
0.0634902595
 40
0.0701135134
 40
0.0769398105
 40
0.09119284
 40
0.1062306851
 40
0.1220299823
 40
0.1385637575
 40
0.1558018515
 40
0.1737112679
 40
0.1922564673
 40
0.2113996207
 40
0.2311008356
 40
0.2513183603
 40
0.272008772
 40
0.2931271544
 40
0.3146272662
 40
0.3364617034
 40
0.3585820579
 40
0.380939072
 40
0.4034827908
 40
0.4261627133
 40
0.448927942
 40
0.4717273316
 40
0.4945096381
 40
0.5172236671
 40
0.539818422
 40
0.5622432532
 40
0.5844480073
 40
0.6063831771
 40
0.6280000543
 40
0.6492508828
 40
0.6700890155
 40
0.690469076
 40
0.710347124
 40
0.7296808303
 40
0.748429661
 40
0.7665550762
 40
0.7840207471
 40
0.8007927993
 40
0.816840092
 40
0.8321345465
 40
0.8466515423
 40
0.8536121205
 40
0.860370937
 40
0.8669261464
 40
0.8732762126
 40
0.8794199799
 40
0.8853566932
 40
0.8910860295
 40
0.8966081824
 40
0.9019238591
 40
0.9070344273
 40
0.9119418968
 40
0.9166491158
 40
0.9211597694
 40
0.9254786037
 40
0.9296114746
 40
0.9335655778
 40
0.9373495665
 40
0.9409737611
 40
0.9477890579
 40
0.9510148461
 40
0.9541417235
 40
0.9571900969
 40
0.9601821554
 40
0.9631415091
 40
0.9660926235
 40
0.9690601892
 40
0.9720684542
 40
0.9751406083
 40
0.9782982941
 40
0.9815612373
 40
0.98494706
 40
0.9884713247
 40
0.992147593
 40
0.9959873756
 40
1.0
 40
1.0
 40
1.0
 40
1.0
 10
11.294124414
 20
10.0492319633
 30
0.0
 10
11.2954945979
 20
10.0505554594
 30
0.0
 10
11.2983646345
 20
10.0531920608
 30
0.0
 10
11.3029420083
 20
10.0570335226
 30
0.0
 10
11.307881747
 20
10.0608444394
 30
0.0
 10
11.3131806471
 20
10.0646224778
 30
0.0
 10
11.3188356762
 20
10.0683655093
 30
0.0
 10
11.3248435007
 20
10.0720714202
 30
0.0
 10
11.3312005808
 20
10.075738009
 30
0.0
 10
11.337903134
 20
10.0793630988
 30
0.0
 10
11.3449471707
 20
10.0829445616
 30
0.0
 10
11.3523285109
 20
10.0864802327
 30
0.0
 10
11.3600427408
 20
10.0899680477
 30
0.0
 10
11.3680852641
 20
10.0934058496
 30
0.0
 10
11.3764512665
 20
10.0967916707
 30
0.0
 10
11.3882001882
 20
10.101298913
 30
0.0
 10
11.4036682438
 20
10.1067743771
 30
0.0
 10
11.4231783624
 20
10.1130149488
 30
0.0
 10
11.4438485211
 20
10.1190015064
 30
0.0
 10
11.4656291273
 20
10.1247195394
 30
0.0
 10
11.4884681066
 20
10.1301551739
 30
0.0
 10
11.5123106834
 20
10.1352952169
 30
0.0
 10
11.5370996342
 20
10.1401271928
 30
0.0
 10
11.5627754079
 20
10.1446393762
 30
0.0
 10
11.5892762873
 20
10.1488208205
 30
0.0
 10
11.6165385424
 20
10.1526613843
 30
0.0
 10
11.6444965904
 20
10.1561517558
 30
0.0
 10
11.6730831574
 20
10.1592834746
 30
0.0
 10
11.7022294436
 20
10.1620489515
 30
0.0
 10
11.7318652917
 20
10.1644414864
 30
0.0
 10
11.7619193575
 20
10.1664552838
 30
0.0
 10
11.7923192839
 20
10.1680854665
 30
0.0
 10
11.8229918761
 20
10.1693280866
 30
0.0
 10
11.8538632791
 20
10.1701801352
 30
0.0
 10
11.8848591564
 20
10.1706395491
 30
0.0
 10
11.9159048706
 20
10.170705216
 30
0.0
 10
11.9469256632
 20
10.1703769772
 30
0.0
 10
11.9778468366
 20
10.1696556276
 30
0.0
 10
12.0085939342
 20
10.1685429138
 30
0.0
 10
12.0390929207
 20
10.1670415301
 30
0.0
 10
12.0692703616
 20
10.165155112
 30
0.0
 10
12.0990536008
 20
10.1628882282
 30
0.0
 10
12.1283709371
 20
10.1602463692
 30
0.0
 10
12.1571517983
 20
10.1572359352
 30
0.0
 10
12.1853269129
 20
10.1538642208
 30
0.0
 10
12.2128284796
 20
10.1501393979
 30
0.0
 10
12.2395903333
 20
10.1460704969
 30
0.0
 10
12.2655481084
 20
10.1416673849
 30
0.0
 10
12.2906393997
 20
10.1369407434
 30
0.0
 10
12.3148039174
 20
10.1319020418
 30
0.0
 10
12.3379836476
 20
10.1265635091
 30
0.0
 10
12.3601229758
 20
10.1209381027
 30
0.0
 10
12.3811689341
 20
10.115039475
 30
0.0
 10
12.4010710046
 20
10.1088819249
 30
0.0
 10
12.4168774175
 20
10.1034742498
 30
0.0
 10
12.4289050296
 20
10.0990189992
 30
0.0
 10
12.4374839208
 20
10.095669013
 30
0.0
 10
12.4457426455
 20
10.0922656662
 30
0.0
 10
12.453676268
 20
10.0888109518
 30
0.0
 10
12.461280043
 20
10.0853069571
 30
0.0
 10
12.4685494357
 20
10.0817557875
 30
0.0
 10
12.4754801036
 20
10.0781595374
 30
0.0
 10
12.4820679391
 20
10.0745203896
 30
0.0
 10
12.4883090081
 20
10.0708404416
 30
0.0
 10
12.4941996432
 20
10.0671219301
 30
0.0
 10
12.4997363258
 20
10.0633669499
 30
0.0
 10
12.5049158301
 20
10.0595777566
 30
0.0
 10
12.5097350603
 20
10.0557564344
 30
0.0
 10
12.5141912066
 20
10.0519052225
 30
0.0
 10
12.518281615
 20
10.0480261468
 30
0.0
 10
12.5220037537
 20
10.044121528
 30
0.0
 10
12.5253556888
 20
10.0401928339
 30
0.0
 10
12.5292475292
 20
10.0350330008
 30
0.0
 10
12.5325048787
 20
10.0297196753
 30
0.0
 10
12.5350162967
 20
10.0242852007
 30
0.0
 10
12.5364856337
 20
10.020270181
 30
0.0
 10
12.5375731992
 20
10.0162450227
 30
0.0
 10
12.5382776348
 20
10.0122123102
 30
0.0
 10
12.5385980902
 20
10.0081752208
 30
0.0
 10
12.538533967
 20
10.0041370113
 30
0.0
 10
12.5380854838
 20
10.0001010233
 30
0.0
 10
12.5372531866
 20
9.9960704965
 30
0.0
 10
12.5360382425
 20
9.9920484304
 30
0.0
 10
12.5344420414
 20
9.9880375736
 30
0.0
 10
12.5324662555
 20
9.9840404174
 30
0.0
 10
12.5301127015
 20
9.9800592135
 30
0.0
 10
12.5273831701
 20
9.9760961095
 30
0.0
 10
12.5242795849
 20
9.9721530897
 30
0.0
 10
12.5208041655
 20
9.9682324827
 30
0.0
 10
12.5182975585
 20
9.9656924533
 30
0.0
 10
12.5169866176
 20
9.9644261815
 30
0.0
  0
SPLINE
  5
38C
100
AcDbEntity
  8
0
100
AcDbSpline
 62
7
  6
CONTINUOUS
 70
0
 71
3
 72
39
 73
35
 74
0
 42
0.0000001
 43
0.0000001
 44
0.0000000001
 40
0.0
 40
0.0
 40
0.0
 40
0.0
 40
0.0311450469
 40
0.0624431113
 40
0.09388834
 40
0.1254709884
 40
0.1571788814
 40
0.1889972579
 40
0.2209091718
 40
0.2528958393
 40
0.2849370182
 40
0.3170114084
 40
0.349097068
 40
0.3811718384
 40
0.4132137706
 40
0.4452015496
 40
0.4771149115
 40
0.5089350441
 40
0.5406449673
 40
0.5722298867
 40
0.6036775163
 40
0.6349783575
 40
0.6661259304
 40
0.6971169519
 40
0.7279514552
 40
0.7586328387
 40
0.7891678413
 40
0.8195664421
 40
0.8498416837
 40
0.8800094162
 40
0.9100879631
 40
0.9400977203
 40
0.9700606956
 40
1.0
 40
1.0
 40
1.0
 40
1.0
 10
10.8063688043
 20
8.0337970351
 30
0.0
 10
10.7966155722
 20
8.034473424
 30
0.0
 10
10.7771034407
 20
8.0365434202
 30
0.0
 10
10.7480718032
 20
8.041757817
 30
0.0
 10
10.7193511234
 20
8.0490615907
 30
0.0
 10
10.6910965015
 20
8.0584154979
 30
0.0
 10
10.663458063
 20
8.0697694153
 30
0.0
 10
10.6365832356
 20
8.0830625984
 30
0.0
 10
10.6106151776
 20
8.0982239947
 30
0.0
 10
10.5856922607
 20
8.1151726536
 30
0.0
 10
10.561947285
 20
8.1338181548
 30
0.0
 10
10.5395067782
 20
8.1540610562
 30
0.0
 10
10.5184903106
 20
8.1757934154
 30
0.0
 10
10.4990098988
 20
8.1988993972
 30
0.0
 10
10.4811694118
 20
8.2232558759
 30
0.0
 10
10.4650640205
 20
8.2487330769
 30
0.0
 10
10.4507796478
 20
8.2751952359
 30
0.0
 10
10.4383925659
 20
8.3025013508
 30
0.0
 10
10.427968986
 20
8.3305059156
 30
0.0
 10
10.4195647161
 20
8.3590596848
 30
0.0
 10
10.4132247987
 20
8.3880104399
 30
0.0
 10
10.4089833107
 20
8.4172038095
 30
0.0
 10
10.4068631855
 20
8.4464840799
 30
0.0
 10
10.4068760884
 20
8.4756950108
 30
0.0
 10
10.4090222931
 20
8.5046806573
 30
0.0
 10
10.4132906711
 20
8.5332862046
 30
0.0
 10
10.4196587721
 20
8.5613587865
 30
0.0
 10
10.4280929244
 20
8.5887483004
 30
0.0
 10
10.4385483607
 20
8.6153082044
 30
0.0
 10
10.4509694554
 20
8.6408963807
 30
0.0
 10
10.4652898766
 20
8.6653757065
 30
0.0
 10
10.4814336249
 20
8.6886154905
 30
0.0
 10
10.499312808
 20
8.7104896434
 30
0.0
 10
10.512331215
 20
8.7240896029
 30
0.0
 10
10.5190908867
 20
8.7306189499
 30
0.0
  0
SPLINE
  5
38D
100
AcDbEntity
  8
0
100
AcDbSpline
 62
7
  6
CONTINUOUS
 70
0
 71
3
 72
15
 73
11
 74
0
 42
0.0000001
 43
0.0000001
 44
0.0000000001
 40
0.0
 40
0.0
 40
0.0
 40
0.0
 40
0.1462013888
 40
0.2850350028
 40
0.4169986302
 40
0.542720502
 40
0.6629498546
 40
0.7785580727
 40
0.8905389312
 40
1.0
 40
1.0
 40
1.0
 40
1.0
 10
9.5728445071
 20
10.0787720056
 30
0.0
 10
9.5715341671
 20
10.0775063143
 30
0.0
 10
9.5690479417
 20
10.0749662356
 30
0.0
 10
9.5656552615
 20
10.0710255169
 30
0.0
 10
9.5627020262
 20
10.0670584989
 30
0.0
 10
9.5601913056
 20
10.0630682147
 30
0.0
 10
9.5581259489
 20
10.059057353
 30
0.0
 10
9.5565085922
 20
10.055028799
 30
0.0
 10
9.5553421537
 20
10.0509866246
 30
0.0
 10
9.5548626621
 20
10.0482626885
 30
0.0
 10
9.5547012371
 20
10.0469082895
 30
0.0
  0
SPLINE
  5
38E
100
AcDbEntity
  8
0
100
AcDbSpline
 62
7
  6
CONTINUOUS
 70
0
 71
3
 72
41
 73
37
 74
0
 42
0.0000001
 43
0.0000001
 44
0.0000000001
 40
0.0
 40
0.0
 40
0.0
 40
0.0
 40
0.0077464617
 40
0.0155169814
 40
0.0233353843
 40
0.031225009
 40
0.039208513
 40
0.0473077099
 40
0.0639299766
 40
0.0812499771
 40
0.0994003856
 40
0.118494076
 40
0.1386250623
 40
0.1598705413
 40
0.1822926729
 40
0.2059408066
 40
0.2308532404
 40
0.257058772
 40
0.2845782845
 40
0.3134255821
 40
0.3436086831
 40
0.3751303302
 40
0.4079887878
 40
0.4421783974
 40
0.4776898435
 40
0.5145108204
 40
0.552626001
 40
0.5920176065
 40
0.6326654464
 40
0.6745471091
 40
0.7176382829
 40
0.7619127719
 40
0.8073426645
 40
0.8538979019
 40
0.9015480736
 40
1.0
 40
1.0
 40
1.0
 40
1.0
 10
13.4102757706
 20
9.2625258179
 30
0.0
 10
13.411242742
 20
9.2624587593
 30
0.0
 10
13.4131762729
 20
9.2622684983
 30
0.0
 10
13.4160623848
 20
9.2618157189
 30
0.0
 10
13.418935598
 20
9.2611954609
 30
0.0
 10
13.4217951087
 20
9.260407969
 30
0.0
 10
13.4246403746
 20
9.2594534266
 30
0.0
 10
13.4284465031
 20
9.2579455737
 30
0.0
 10
13.4331788876
 20
9.2556260118
 30
0.0
 10
13.4387362721
 20
9.2522027346
 30
0.0
 10
13.4442185455
 20
9.2481199437
 30
0.0
 10
13.449621592
 20
9.2433822439
 30
0.0
 10
13.4549421982
 20
9.2379942108
 30
0.0
 10
13.4601767883
 20
9.2319605087
 30
0.0
 10
13.4653218708
 20
9.2252861837
 30
0.0
 10
13.4703737623
 20
9.2179766141
 30
0.0
 10
13.4753287186
 20
9.2100376543
 30
0.0
 10
13.4801830027
 20
9.2014756792
 30
0.0
 10
13.4849327591
 20
9.1922975411
 30
0.0
 10
13.4895742733
 20
9.182510672
 30
0.0
 10
13.4941037494
 20
9.1721229885
 30
0.0
 10
13.4985175264
 20
9.161142958
 30
0.0
 10
13.5028119854
 20
9.1495795517
 30
0.0
 10
13.5069835571
 20
9.1374422421
 30
0.0
 10
13.5110288372
 20
9.1247410093
 30
0.0
 10
13.5149444156
 20
9.1114863014
 30
0.0
 10
13.518727085
 20
9.0976890542
 30
0.0
 10
13.522373669
 20
9.0833606546
 30
0.0
 10
13.5258811341
 20
9.0685129458
 30
0.0
 10
13.5292465758
 20
9.0531582127
 30
0.0
 10
13.5324671542
 20
9.0373091548
 30
0.0
 10
13.5355402258
 20
9.0209788881
 30
0.0
 10
13.5384631701
 20
9.0041809986
 30
0.0
 10
13.5412336269
 20
8.9869293473
 30
0.0
 10
13.5447594103
 20
8.9630814383
 30
0.0
 10
13.5471072632
 20
8.9449493323
 30
0.0
 10
13.5485584647
 20
8.9327160842
 30
0.0
  0
SPLINE
  5
38F
100
AcDbEntity
  8
0
100
AcDbSpline
 62
4
  6
CONTINUOUS
 70
0
 71
3
 72
313
 73
309
 74
0
 42
0.0000001
 43
0.0000001
 44
0.0000000001
 40
0.0
 40
0.0
 40
0.0
 40
0.0
 40
0.015625
 40
0.0234375
 40
0.03125
 40
0.0390625
 40
0.046875
 40
0.05078125
 40
0.0546875
 40
0.056640625
 40
0.05859375
 40
0.060546875
 40
0.0615234375
 40
0.0620117188
 40
0.0625
 40
0.0629882812
 40
0.0634765625
 40
0.064453125
 40
0.06640625
 40
0.068359375
 40
0.0703125
 40
0.07421875
 40
0.078125
 40
0.0859375
 40
0.09375
 40
0.1015625
 40
0.109375
 40
0.11328125
 40
0.1171875
 40
0.119140625
 40
0.12109375
 40
0.123046875
 40
0.1240234375
 40
0.1245117188
 40
0.125
 40
0.1254882812
 40
0.1259765625
 40
0.126953125
 40
0.12890625
 40
0.130859375
 40
0.1328125
 40
0.13671875
 40
0.140625
 40
0.1484375
 40
0.15625
 40
0.1640625
 40
0.171875
 40
0.17578125
 40
0.1796875
 40
0.181640625
 40
0.18359375
 40
0.185546875
 40
0.1865234375
 40
0.1870117188
 40
0.1875
 40
0.1879882812
 40
0.1884765625
 40
0.189453125
 40
0.19140625
 40
0.193359375
 40
0.1953125
 40
0.19921875
 40
0.203125
 40
0.2109375
 40
0.21875
 40
0.2265625
 40
0.234375
 40
0.23828125
 40
0.2421875
 40
0.244140625
 40
0.24609375
 40
0.248046875
 40
0.2490234375
 40
0.2495117188
 40
0.25
 40
0.2504882812
 40
0.2509765625
 40
0.251953125
 40
0.25390625
 40
0.255859375
 40
0.2578125
 40
0.26171875
 40
0.265625
 40
0.2734375
 40
0.28125
 40
0.2890625
 40
0.296875
 40
0.30078125
 40
0.3046875
 40
0.306640625
 40
0.30859375
 40
0.310546875
 40
0.3115234375
 40
0.3120117188
 40
0.3125
 40
0.3129882812
 40
0.3134765625
 40
0.314453125
 40
0.31640625
 40
0.318359375
 40
0.3203125
 40
0.32421875
 40
0.328125
 40
0.3359375
 40
0.34375
 40
0.3515625
 40
0.359375
 40
0.36328125
 40
0.3671875
 40
0.369140625
 40
0.37109375
 40
0.373046875
 40
0.3740234375
 40
0.3745117188
 40
0.375
 40
0.3754882812
 40
0.3759765625
 40
0.376953125
 40
0.37890625
 40
0.380859375
 40
0.3828125
 40
0.38671875
 40
0.390625
 40
0.3984375
 40
0.40625
 40
0.4140625
 40
0.421875
 40
0.42578125
 40
0.4296875
 40
0.431640625
 40
0.43359375
 40
0.435546875
 40
0.4365234375
 40
0.4370117188
 40
0.4375
 40
0.4379882812
 40
0.4384765625
 40
0.439453125
 40
0.44140625
 40
0.443359375
 40
0.4453125
 40
0.44921875
 40
0.453125
 40
0.4609375
 40
0.46875
 40
0.4765625
 40
0.484375
 40
0.48828125
 40
0.4921875
 40
0.494140625
 40
0.49609375
 40
0.498046875
 40
0.4990234375
 40
0.4995117188
 40
0.5
 40
0.5004882812
 40
0.5009765625
 40
0.501953125
 40
0.50390625
 40
0.505859375
 40
0.5078125
 40
0.51171875
 40
0.515625
 40
0.5234375
 40
0.53125
 40
0.5390625
 40
0.546875
 40
0.55078125
 40
0.5546875
 40
0.556640625
 40
0.55859375
 40
0.560546875
 40
0.5615234375
 40
0.5620117188
 40
0.5625
 40
0.5629882812
 40
0.5634765625
 40
0.564453125
 40
0.56640625
 40
0.568359375
 40
0.5703125
 40
0.57421875
 40
0.578125
 40
0.5859375
 40
0.59375
 40
0.6015625
 40
0.609375
 40
0.61328125
 40
0.6171875
 40
0.619140625
 40
0.62109375
 40
0.623046875
 40
0.6240234375
 40
0.6245117188
 40
0.625
 40
0.6254882812
 40
0.6259765625
 40
0.626953125
 40
0.62890625
 40
0.630859375
 40
0.6328125
 40
0.63671875
 40
0.640625
 40
0.6484375
 40
0.65625
 40
0.6640625
 40
0.671875
 40
0.67578125
 40
0.6796875
 40
0.681640625
 40
0.68359375
 40
0.685546875
 40
0.6865234375
 40
0.6870117188
 40
0.6875
 40
0.6879882812
 40
0.6884765625
 40
0.689453125
 40
0.69140625
 40
0.693359375
 40
0.6953125
 40
0.69921875
 40
0.703125
 40
0.7109375
 40
0.71875
 40
0.7265625
 40
0.734375
 40
0.73828125
 40
0.7421875
 40
0.744140625
 40
0.74609375
 40
0.748046875
 40
0.7490234375
 40
0.7495117188
 40
0.75
 40
0.7504882812
 40
0.7509765625
 40
0.751953125
 40
0.75390625
 40
0.755859375
 40
0.7578125
 40
0.76171875
 40
0.765625
 40
0.7734375
 40
0.78125
 40
0.7890625
 40
0.796875
 40
0.80078125
 40
0.8046875
 40
0.806640625
 40
0.80859375
 40
0.810546875
 40
0.8115234375
 40
0.8120117188
 40
0.8125
 40
0.8129882812
 40
0.8134765625
 40
0.814453125
 40
0.81640625
 40
0.818359375
 40
0.8203125
 40
0.82421875
 40
0.828125
 40
0.8359375
 40
0.84375
 40
0.8515625
 40
0.859375
 40
0.86328125
 40
0.8671875
 40
0.869140625
 40
0.87109375
 40
0.873046875
 40
0.8740234375
 40
0.8745117188
 40
0.875
 40
0.8754882812
 40
0.8759765625
 40
0.876953125
 40
0.87890625
 40
0.880859375
 40
0.8828125
 40
0.88671875
 40
0.890625
 40
0.8984375
 40
0.90625
 40
0.9140625
 40
0.921875
 40
0.92578125
 40
0.9296875
 40
0.931640625
 40
0.93359375
 40
0.935546875
 40
0.9365234375
 40
0.9370117188
 40
0.9375
 40
0.9379882812
 40
0.9384765625
 40
0.939453125
 40
0.94140625
 40
0.943359375
 40
0.9453125
 40
0.94921875
 40
0.953125
 40
0.9609375
 40
0.96875
 40
0.9765625
 40
0.984375
 40
1.0
 40
1.0
 40
1.0
 40
1.0
 10
10.2007333781
 20
9.5918185711
 30
0.0
 10
10.2010093168
 20
9.5889851949
 30
0.0
 10
10.2014232245
 20
9.5847351307
 30
0.0
 10
10.2019751023
 20
9.5790683784
 30
0.0
 10
10.2023890085
 20
9.574818314
 30
0.0
 10
10.202802923
 20
9.5705682506
 30
0.0
 10
10.2031478257
 20
9.5670265277
 30
0.0
 10
10.2034238063
 20
9.564193157
 30
0.0
 10
10.2035961611
 20
9.5624222831
 30
0.0
 10
10.2037343497
 20
9.5610056233
 30
0.0
 10
10.2038371567
 20
9.559943021
 30
0.0
 10
10.2039254837
 20
9.5590578607
 30
0.0
 10
10.2039821033
 20
9.5584375782
 30
0.0
 10
10.2040225912
 20
9.5580841775
 30
0.0
 10
10.2040300438
 20
9.5578161791
 30
0.0
 10
10.2041250828
 20
9.5575594492
 30
0.0
 10
10.2042212504
 20
9.557213212
 30
0.0
 10
10.204403778
 20
9.5566091282
 30
0.0
 10
10.2046570898
 20
9.555745194
 30
0.0
 10
10.2049642493
 20
9.5547088827
 30
0.0
 10
10.2053726827
 20
9.5533269912
 30
0.0
 10
10.2058836054
 20
9.5515996759
 30
0.0
 10
10.2067008689
 20
9.5488359439
 30
0.0
 10
10.2077225217
 20
9.5453812885
 30
0.0
 10
10.2089484715
 20
9.5412356973
 30
0.0
 10
10.2101744377
 20
9.5370901098
 30
0.0
 10
10.2111960497
 20
9.5336354449
 30
0.0
 10
10.2120133947
 20
9.5308717319
 30
0.0
 10
10.2125241099
 20
9.5291443683
 30
0.0
 10
10.2129329693
 20
9.5277625759
 30
0.0
 10
10.2132388274
 20
9.5267259619
 30
0.0
 10
10.213496211
 20
9.5258629747
 30
0.0
 10
10.2136714698
 20
9.5252572004
 30
0.0
 10
10.2137792838
 20
9.5249136718
 30
0.0
 10
10.2138385486
 20
9.5246486219
 30
0.0
 10
10.2139803632
 20
9.5244118718
 30
0.0
 10
10.214140655
 20
9.5240863336
 30
0.0
 10
10.2144345815
 20
9.523521241
 30
0.0
 10
10.2148474625
 20
9.5227115614
 30
0.0
 10
10.215345922
 20
9.5217409751
 30
0.0
 10
10.216009486
 20
9.5204465005
 30
0.0
 10
10.2168393
 20
9.5188285304
 30
0.0
 10
10.2181668018
 20
9.5162397093
 30
0.0
 10
10.2198262483
 20
9.5130037068
 30
0.0
 10
10.2218175524
 20
9.5091204927
 30
0.0
 10
10.2238088722
 20
9.5052372849
 30
0.0
 10
10.2254682796
 20
9.5020012665
 30
0.0
 10
10.2267958595
 20
9.4994124773
 30
0.0
 10
10.2276254751
 20
9.4977944262
 30
0.0
 10
10.2282894464
 20
9.4965001178
 30
0.0
 10
10.2287866614
 20
9.4955290239
 30
0.0
 10
10.2292034361
 20
9.4947209323
 30
0.0
 10
10.2294904117
 20
9.4941530048
 30
0.0
 10
10.2296618406
 20
9.493832009
 30
0.0
 10
10.2297694457
 20
9.4935813062
 30
0.0
 10
10.2299571955
 20
9.4933686599
 30
0.0
 10
10.2301795733
 20
9.4930718571
 30
0.0
 10
10.2305817593
 20
9.4925586369
 30
0.0
 10
10.2311495011
 20
9.4918222317
 30
0.0
 10
10.231833706
 20
9.4909399295
 30
0.0
 10
10.2327449611
 20
9.4897630432
 30
0.0
 10
10.2338843786
 20
9.4882921008
 30
0.0
 10
10.2357072518
 20
9.4859385004
 30
0.0
 10
10.2379859104
 20
9.482996532
 30
0.0
 10
10.2407202706
 20
9.4794661546
 30
0.0
 10
10.243454644
 20
9.4759357872
 30
0.0
 10
10.2457332694
 20
9.4729937938
 30
0.0
 10
10.2475562091
 20
9.4706402433
 30
0.0
 10
10.2486954574
 20
9.4691691741
 30
0.0
 10
10.2496070599
 20
9.467992548
 30
0.0
 10
10.2502902035
 20
9.4671094508
 30
0.0
 10
10.2508612657
 20
9.466375533
 30
0.0
 10
10.2512575243
 20
9.4658578724
 30
0.0
 10
10.2514893993
 20
9.4655681843
 30
0.0
 10
10.2516479765
 20
9.4653336837
 30
0.0
 10
10.2518651491
 20
9.4651650623
 30
0.0
 10
10.2521342738
 20
9.4649172543
 30
0.0
 10
10.2526147647
 20
9.4644942969
 30
0.0
 10
10.2532962018
 20
9.4638844746
 30
0.0
 10
10.2541160573
 20
9.4631550837
 30
0.0
 10
10.2552084536
 20
9.4621817257
 30
0.0
 10
10.2565742039
 20
9.4609653147
 30
0.0
 10
10.2587592619
 20
9.4590188969
 30
0.0
 10
10.2614906335
 20
9.45658593
 30
0.0
 10
10.2647682571
 20
9.4536663443
 30
0.0
 10
10.2680458912
 20
9.4507467717
 30
0.0
 10
10.2707772368
 20
9.4483137721
 30
0.0
 10
10.2729623468
 20
9.4463674198
 30
0.0
 10
10.274327965
 20
9.4451508422
 30
0.0
 10
10.2754206324
 20
9.4441778262
 30
0.0
 10
10.2762396597
 20
9.4434473902
 30
0.0
 10
10.2769236878
 20
9.4428408378
 30
0.0
 10
10.2773995534
 20
9.4424120431
 30
0.0
 10
10.2776760892
 20
9.442173588
 30
0.0
 10
10.277870497
 20
9.4419762376
 30
0.0
 10
10.2781145747
 20
9.4418496385
 30
0.0
 10
10.2784226863
 20
9.4416561608
 30
0.0
 10
10.2789699537
 20
9.4413290732
 30
0.0
 10
10.279747544
 20
9.4408557938
 30
0.0
 10
10.2806824588
 20
9.4402904316
 30
0.0
 10
10.2819283809
 20
9.4395357165
 30
0.0
 10
10.2834859996
 20
9.4385926305
 30
0.0
 10
10.2859780688
 20
9.4370835208
 30
0.0
 10
10.2890931968
 20
9.4351971931
 30
0.0
 10
10.2928313318
 20
9.4329335725
 30
0.0
 10
10.2965694749
 20
9.4306699663
 30
0.0
 10
10.2996845828
 20
9.4287836025
 30
0.0
 10
10.3021766922
 20
9.4272745651
 30
0.0
 10
10.3037342084
 20
9.4263312951
 30
0.0
 10
10.3049803408
 20
9.4255769577
 30
0.0
 10
10.3059146132
 20
9.4250104419
 30
0.0
 10
10.3066942135
 20
9.4245407716
 30
0.0
 10
10.3072378929
 20
9.4242072412
 30
0.0
 10
10.3075517533
 20
9.4240240865
 30
0.0
 10
10.3077781722
 20
9.4238657785
 30
0.0
 10
10.3080389036
 20
9.4237875214
 30
0.0
 10
10.3083745769
 20
9.423655256
 30
0.0
 10
10.3089675815
 20
9.4234368012
 30
0.0
 10
10.3098118156
 20
9.4231179213
 30
0.0
 10
10.3108261443
 20
9.4227381767
 30
0.0
 10
10.3121781468
 20
9.4222308337
 30
0.0
 10
10.3138682992
 20
9.4215970032
 30
0.0
 10
10.3165724595
 20
9.4205826796
 30
0.0
 10
10.3199526887
 20
9.4193148425
 30
0.0
 10
10.3240089508
 20
9.417793407
 30
0.0
 10
10.3280652187
 20
9.4162719874
 30
0.0
 10
10.3314454335
 20
9.4150041105
 30
0.0
 10
10.3341496227
 20
9.4139898665
 30
0.0
 10
10.3358397017
 20
9.4133558337
 30
0.0
 10
10.3371918548
 20
9.4128489058
 30
0.0
 10
10.3382057235
 20
9.4124678932
 30
0.0
 10
10.3390513969
 20
9.4121529806
 30
0.0
 10
10.339641832
 20
9.4119274435
 30
0.0
 10
10.3399816223
 20
9.4118065257
 30
0.0
 10
10.3402297075
 20
9.4116934123
 30
0.0
 10
10.3405036234
 20
9.4116660187
 30
0.0
 10
10.3408598346
 20
9.4115995938
 30
0.0
 10
10.3414874021
 20
9.4114972812
 30
0.0
 10
10.3423817324
 20
9.4113438371
 30
0.0
 10
10.3434558681
 20
9.4111628216
 30
0.0
 10
10.344887721
 20
9.4109203788
 30
0.0
 10
10.3466776494
 20
9.4106176982
 30
0.0
 10
10.349541472
 20
9.4101332006
 30
0.0
 10
10.3531212719
 20
9.4095276508
 30
0.0
 10
10.3574170227
 20
9.4088009579
 30
0.0
 10
10.3617127752
 20
9.408074282
 30
0.0
 10
10.3652925708
 20
9.4074686896
 30
0.0
 10
10.368156402
 20
9.4069842771
 30
0.0
 10
10.3699463087
 20
9.4066813803
 30
0.0
 10
10.3713782061
 20
9.4064393811
 30
0.0
 10
10.3724522056
 20
9.4062570104
 30
0.0
 10
10.3733469621
 20
9.4061078064
 30
0.0
 10
10.3739737688
 20
9.4059979246
 30
0.0
 10
10.3743311989
 20
9.4059436274
 30
0.0
 10
10.3746013706
 20
9.4058789813
 30
0.0
 10
10.3748635184
 20
9.4059057819
 30
0.0
 10
10.3752158476
 20
9.4059096183
 30
0.0
 10
10.3758311198
 20
9.4059311938
 30
0.0
 10
10.3767107617
 20
9.405954246
 30
0.0
 10
10.3777660403
 20
9.4059852344
 30
0.0
 10
10.3791731802
 20
9.4060253906
 30
0.0
 10
10.3809320703
 20
9.4060759837
 30
0.0
 10
10.3837463139
 20
9.4061567102
 30
0.0
 10
10.3872641116
 20
9.4062576952
 30
0.0
 10
10.3914854722
 20
9.4063788421
 30
0.0
 10
10.3957068303
 20
9.4065000064
 30
0.0
 10
10.3992246341
 20
9.4066009481
 30
0.0
 10
10.4020388655
 20
9.4066817611
 30
0.0
 10
10.4037977865
 20
9.4067321343
 30
0.0
 10
10.405204863
 20
9.4067727418
 30
0.0
 10
10.4062603356
 20
9.4068023516
 30
0.0
 10
10.4071393704
 20
9.4068297173
 30
0.0
 10
10.4077557263
 20
9.4068435924
 30
0.0
 10
10.4081063191
 20
9.4068597667
 30
0.0
 10
10.4083738007
 20
9.4068486694
 30
0.0
 10
10.4086239397
 20
9.4069263612
 30
0.0
 10
10.4089635076
 20
9.4069989797
 30
0.0
 10
10.409554933
 20
9.4071404917
 30
0.0
 10
10.4104013
 20
9.4073351078
 30
0.0
 10
10.4114163097
 20
9.4075718761
 30
0.0
 10
10.4127698763
 20
9.4078864394
 30
0.0
 10
10.414461759
 20
9.4082800297
 30
0.0
 10
10.4171688136
 20
9.4089095582
 30
0.0
 10
10.4205526171
 20
9.4096965434
 30
0.0
 10
10.4246131884
 20
9.4106408917
 30
0.0
 10
10.4286737549
 20
9.4115852567
 30
0.0
 10
10.4320575707
 20
9.4123722002
 30
0.0
 10
10.4347646006
 20
9.4130018121
 30
0.0
 10
10.436456546
 20
9.4133951905
 30
0.0
 10
10.437809984
 20
9.4137101887
 30
0.0
 10
10.4388253866
 20
9.4139456284
 30
0.0
 10
10.4396705242
 20
9.4141444014
 30
0.0
 10
10.4402641442
 20
9.4142784925
 30
0.0
 10
10.4406001959
 20
9.4143630013
 30
0.0
 10
10.4408611358
 20
9.4144041698
 30
0.0
 10
10.4410880511
 20
9.4145302478
 30
0.0
 10
10.4414024729
 20
9.4146687344
 30
0.0
 10
10.4419471816
 20
9.4149248852
 30
0.0
 10
10.4427282279
 20
9.4152836005
 30
0.0
 10
10.4436642459
 20
9.4157171469
 30
0.0
 10
10.4449127022
 20
9.4162941301
 30
0.0
 10
10.4464731245
 20
9.4170157285
 30
0.0
 10
10.448969883
 20
9.4181700795
 30
0.0
 10
10.4520908025
 20
9.4196130895
 30
0.0
 10
10.4558359192
 20
9.4213446689
 30
0.0
 10
10.4595810285
 20
9.4230762645
 30
0.0
 10
10.4627019666
 20
9.4245192341
 30
0.0
 10
10.4651986878
 20
9.4256736657
 30
0.0
 10
10.4667592049
 20
9.4263950591
 30
0.0
 10
10.4680074668
 20
9.4269724632
 30
0.0
 10
10.4689440787
 20
9.4274047239
 30
0.0
 10
10.4697232668
 20
9.4277674617
 30
0.0
 10
10.4702712925
 20
9.4280164316
 30
0.0
 10
10.4705803997
 20
9.4281664239
 30
0.0
 10
10.47082364
 20
9.4282571602
 30
0.0
 10
10.4710232658
 20
9.428431066
 30
0.0
 10
10.4713046467
 20
9.4286339299
 30
0.0
 10
10.4717899752
 20
9.4290024582
 30
0.0
 10
10.4724870074
 20
9.4295218607
 30
0.0
 10
10.4733218598
 20
9.4301481683
 30
0.0
 10
10.4744355504
 20
9.4309821888
 30
0.0
 10
10.4758274739
 20
9.4320250761
 30
0.0
 10
10.4780546576
 20
9.4336934935
 30
0.0
 10
10.4808386005
 20
9.4357790851
 30
0.0
 10
10.4841793494
 20
9.4382817635
 30
0.0
 10
10.4875200873
 20
9.440784456
 30
0.0
 10
10.4903040575
 20
9.4428700123
 30
0.0
 10
10.4925311867
 20
9.4445385001
 30
0.0
 10
10.4939232487
 20
9.4455812086
 30
0.0
 10
10.495036655
 20
9.4464155961
 30
0.0
 10
10.495872376
 20
9.4470407823
 30
0.0
 10
10.4965666905
 20
9.4475636936
 30
0.0
 10
10.4970568706
 20
9.4479259581
 30
0.0
 10
10.497330478
 20
9.4481388583
 30
0.0
 10
10.4975539813
 20
9.4482819356
 30
0.0
 10
10.4977075417
 20
9.4484884587
 30
0.0
 10
10.4979366858
 20
9.4487416921
 30
0.0
 10
10.4983263211
 20
9.4491951618
 30
0.0
 10
10.4988888856
 20
9.4498375849
 30
0.0
 10
10.4995614193
 20
9.4506108
 30
0.0
 10
10.5004590194
 20
9.4516409476
 30
0.0
 10
10.5015807153
 20
9.452928908
 30
0.0
 10
10.5033755988
 20
9.4549894904
 30
0.0
 10
10.5056191444
 20
9.4575652716
 30
0.0
 10
10.5083114261
 20
9.4606561849
 30
0.0
 10
10.511003694
 20
9.4637471095
 30
0.0
 10
10.5132472742
 20
9.4663228623
 30
0.0
 10
10.5150420885
 20
9.4683835015
 30
0.0
 10
10.5161639602
 20
9.4696713176
 30
0.0
 10
10.5170611994
 20
9.4707017612
 30
0.0
 10
10.5177348357
 20
9.4714740718
 30
0.0
 10
10.5182939506
 20
9.4721193251
 30
0.0
 10
10.518689744
 20
9.4725677423
 30
0.0
 10
10.5189090212
 20
9.4728290712
 30
0.0
 10
10.5190928894
 20
9.4730107277
 30
0.0
 10
10.5192025617
 20
9.4732471996
 30
0.0
 10
10.5193746717
 20
9.4735433753
 30
0.0
 10
10.5196638062
 20
9.4740705911
 30
0.0
 10
10.5200831596
 20
9.4748190992
 30
0.0
 10
10.5205836852
 20
9.4757193024
 30
0.0
 10
10.5212519952
 20
9.4769188771
 30
0.0
 10
10.5220870601
 20
9.4784185839
 30
0.0
 10
10.5234233442
 20
9.4808179814
 30
0.0
 10
10.525093637
 20
9.4838172742
 30
0.0
 10
10.5270980171
 20
9.487416405
 30
0.0
 10
10.5291023821
 20
9.4910155449
 30
0.0
 10
10.5307727125
 20
9.494014815
 30
0.0
 10
10.5321089215
 20
9.496414258
 30
0.0
 10
10.5329441774
 20
9.4979138491
 30
0.0
 10
10.5336120953
 20
9.4991136612
 30
0.0
 10
10.534113819
 20
9.5000131389
 30
0.0
 10
10.5345294239
 20
9.5007639169
 30
0.0
 10
10.53482525
 20
9.5012870806
 30
0.0
 10
10.5349866383
 20
9.5015897488
 30
0.0
 10
10.5351292442
 20
9.5018062779
 30
0.0
 10
10.5351894194
 20
9.5020628361
 30
0.0
 10
10.5352984059
 20
9.5023909512
 30
0.0
 10
10.5354757357
 20
9.5029716579
 30
0.0
 10
10.5357360677
 20
9.5037978379
 30
0.0
 10
10.5360454684
 20
9.5047907097
 30
0.0
 10
10.5364590497
 20
9.5061140302
 30
0.0
 10
10.5369756678
 20
9.507768355
 30
0.0
 10
10.5378024572
 20
9.5104151773
 30
0.0
 10
10.5388358746
 20
9.5137237388
 30
0.0
 10
10.5400760074
 20
9.5176939974
 30
0.0
 10
10.5413161238
 20
9.5216642629
 30
0.0
 10
10.542349582
 20
9.524972807
 30
0.0
 10
10.5431762899
 20
9.5276196639
 30
0.0
 10
10.5436931153
 20
9.5292739009
 30
0.0
 10
10.5441062711
 20
9.5305974015
 30
0.0
 10
10.5444169716
 20
9.5315897231
 30
0.0
 10
10.5446732366
 20
9.5324176245
 30
0.0
 10
10.5448578269
 20
9.5329952582
 30
0.0
 10
10.5449551802
 20
9.5333282971
 30
0.0
 10
10.5450510887
 20
9.5335697309
 30
0.0
 10
10.5450594863
 20
9.5338430646
 30
0.0
 10
10.5451012078
 20
9.5341963826
 30
0.0
 10
10.5451599985
 20
9.5348198732
 30
0.0
 10
10.5452514205
 20
9.5357078637
 30
0.0
 10
10.5453579444
 20
9.5367746125
 30
0.0
 10
10.5455010879
 20
9.5381965389
 30
0.0
 10
10.5456796366
 20
9.5399740857
 30
0.0
 10
10.5459655273
 20
9.5428180831
 30
0.0
 10
10.5463228177
 20
9.5463731064
 30
0.0
 10
10.5467515974
 20
9.5506391229
 30
0.0
 10
10.5471803687
 20
9.5549051425
 30
0.0
 10
10.5477520668
 20
9.5605931676
 30
0.0
 10
10.5481808397
 20
9.5648591867
 30
0.0
 10
10.5484666884
 20
9.5677031993
 30
0.0
  0
SPLINE
  5
390
100
AcDbEntity
  8
0
100
AcDbSpline
 62
4
  6
CONTINUOUS
 70
0
 71
3
 72
313
 73
309
 74
0
 42
0.0000001
 43
0.0000001
 44
0.0000000001
 40
0.0
 40
0.0
 40
0.0
 40
0.0
 40
0.015625
 40
0.0234375
 40
0.03125
 40
0.0390625
 40
0.046875
 40
0.05078125
 40
0.0546875
 40
0.056640625
 40
0.05859375
 40
0.060546875
 40
0.0615234375
 40
0.0620117188
 40
0.0625
 40
0.0629882812
 40
0.0634765625
 40
0.064453125
 40
0.06640625
 40
0.068359375
 40
0.0703125
 40
0.07421875
 40
0.078125
 40
0.0859375
 40
0.09375
 40
0.1015625
 40
0.109375
 40
0.11328125
 40
0.1171875
 40
0.119140625
 40
0.12109375
 40
0.123046875
 40
0.1240234375
 40
0.1245117188
 40
0.125
 40
0.1254882812
 40
0.1259765625
 40
0.126953125
 40
0.12890625
 40
0.130859375
 40
0.1328125
 40
0.13671875
 40
0.140625
 40
0.1484375
 40
0.15625
 40
0.1640625
 40
0.171875
 40
0.17578125
 40
0.1796875
 40
0.181640625
 40
0.18359375
 40
0.185546875
 40
0.1865234375
 40
0.1870117188
 40
0.1875
 40
0.1879882812
 40
0.1884765625
 40
0.189453125
 40
0.19140625
 40
0.193359375
 40
0.1953125
 40
0.19921875
 40
0.203125
 40
0.2109375
 40
0.21875
 40
0.2265625
 40
0.234375
 40
0.23828125
 40
0.2421875
 40
0.244140625
 40
0.24609375
 40
0.248046875
 40
0.2490234375
 40
0.2495117188
 40
0.25
 40
0.2504882812
 40
0.2509765625
 40
0.251953125
 40
0.25390625
 40
0.255859375
 40
0.2578125
 40
0.26171875
 40
0.265625
 40
0.2734375
 40
0.28125
 40
0.2890625
 40
0.296875
 40
0.30078125
 40
0.3046875
 40
0.306640625
 40
0.30859375
 40
0.310546875
 40
0.3115234375
 40
0.3120117188
 40
0.3125
 40
0.3129882812
 40
0.3134765625
 40
0.314453125
 40
0.31640625
 40
0.318359375
 40
0.3203125
 40
0.32421875
 40
0.328125
 40
0.3359375
 40
0.34375
 40
0.3515625
 40
0.359375
 40
0.36328125
 40
0.3671875
 40
0.369140625
 40
0.37109375
 40
0.373046875
 40
0.3740234375
 40
0.3745117188
 40
0.375
 40
0.3754882812
 40
0.3759765625
 40
0.376953125
 40
0.37890625
 40
0.380859375
 40
0.3828125
 40
0.38671875
 40
0.390625
 40
0.3984375
 40
0.40625
 40
0.4140625
 40
0.421875
 40
0.42578125
 40
0.4296875
 40
0.431640625
 40
0.43359375
 40
0.435546875
 40
0.4365234375
 40
0.4370117188
 40
0.4375
 40
0.4379882812
 40
0.4384765625
 40
0.439453125
 40
0.44140625
 40
0.443359375
 40
0.4453125
 40
0.44921875
 40
0.453125
 40
0.4609375
 40
0.46875
 40
0.4765625
 40
0.484375
 40
0.48828125
 40
0.4921875
 40
0.494140625
 40
0.49609375
 40
0.498046875
 40
0.4990234375
 40
0.4995117188
 40
0.5
 40
0.5004882812
 40
0.5009765625
 40
0.501953125
 40
0.50390625
 40
0.505859375
 40
0.5078125
 40
0.51171875
 40
0.515625
 40
0.5234375
 40
0.53125
 40
0.5390625
 40
0.546875
 40
0.55078125
 40
0.5546875
 40
0.556640625
 40
0.55859375
 40
0.560546875
 40
0.5615234375
 40
0.5620117188
 40
0.5625
 40
0.5629882812
 40
0.5634765625
 40
0.564453125
 40
0.56640625
 40
0.568359375
 40
0.5703125
 40
0.57421875
 40
0.578125
 40
0.5859375
 40
0.59375
 40
0.6015625
 40
0.609375
 40
0.61328125
 40
0.6171875
 40
0.619140625
 40
0.62109375
 40
0.623046875
 40
0.6240234375
 40
0.6245117188
 40
0.625
 40
0.6254882812
 40
0.6259765625
 40
0.626953125
 40
0.62890625
 40
0.630859375
 40
0.6328125
 40
0.63671875
 40
0.640625
 40
0.6484375
 40
0.65625
 40
0.6640625
 40
0.671875
 40
0.67578125
 40
0.6796875
 40
0.681640625
 40
0.68359375
 40
0.685546875
 40
0.6865234375
 40
0.6870117188
 40
0.6875
 40
0.6879882812
 40
0.6884765625
 40
0.689453125
 40
0.69140625
 40
0.693359375
 40
0.6953125
 40
0.69921875
 40
0.703125
 40
0.7109375
 40
0.71875
 40
0.7265625
 40
0.734375
 40
0.73828125
 40
0.7421875
 40
0.744140625
 40
0.74609375
 40
0.748046875
 40
0.7490234375
 40
0.7495117188
 40
0.75
 40
0.7504882812
 40
0.7509765625
 40
0.751953125
 40
0.75390625
 40
0.755859375
 40
0.7578125
 40
0.76171875
 40
0.765625
 40
0.7734375
 40
0.78125
 40
0.7890625
 40
0.796875
 40
0.80078125
 40
0.8046875
 40
0.806640625
 40
0.80859375
 40
0.810546875
 40
0.8115234375
 40
0.8120117188
 40
0.8125
 40
0.8129882812
 40
0.8134765625
 40
0.814453125
 40
0.81640625
 40
0.818359375
 40
0.8203125
 40
0.82421875
 40
0.828125
 40
0.8359375
 40
0.84375
 40
0.8515625
 40
0.859375
 40
0.86328125
 40
0.8671875
 40
0.869140625
 40
0.87109375
 40
0.873046875
 40
0.8740234375
 40
0.8745117188
 40
0.875
 40
0.8754882812
 40
0.8759765625
 40
0.876953125
 40
0.87890625
 40
0.880859375
 40
0.8828125
 40
0.88671875
 40
0.890625
 40
0.8984375
 40
0.90625
 40
0.9140625
 40
0.921875
 40
0.92578125
 40
0.9296875
 40
0.931640625
 40
0.93359375
 40
0.935546875
 40
0.9365234375
 40
0.9370117188
 40
0.9375
 40
0.9379882812
 40
0.9384765625
 40
0.939453125
 40
0.94140625
 40
0.943359375
 40
0.9453125
 40
0.94921875
 40
0.953125
 40
0.9609375
 40
0.96875
 40
0.9765625
 40
0.984375
 40
1.0
 40
1.0
 40
1.0
 40
1.0
 10
10.5484666884
 20
9.5677031841
 30
0.0
 10
10.5481907498
 20
9.5705365602
 30
0.0
 10
10.5477768421
 20
9.5747866245
 30
0.0
 10
10.5472249643
 20
9.5804533767
 30
0.0
 10
10.5468110581
 20
9.5847034412
 30
0.0
 10
10.5463971436
 20
9.5889535046
 30
0.0
 10
10.5460522409
 20
9.5924952274
 30
0.0
 10
10.5457762603
 20
9.5953285982
 30
0.0
 10
10.5456039055
 20
9.597099472
 30
0.0
 10
10.5454657169
 20
9.5985161319
 30
0.0
 10
10.5453629099
 20
9.5995787341
 30
0.0
 10
10.5452745829
 20
9.6004638945
 30
0.0
 10
10.5452179633
 20
9.601084177
 30
0.0
 10
10.5451774754
 20
9.6014375776
 30
0.0
 10
10.5451700227
 20
9.601705576
 30
0.0
 10
10.5450749837
 20
9.601962306
 30
0.0
 10
10.5449788162
 20
9.6023085432
 30
0.0
 10
10.5447962886
 20
9.6029126269
 30
0.0
 10
10.5445429768
 20
9.6037765612
 30
0.0
 10
10.5442358173
 20
9.6048128724
 30
0.0
 10
10.5438273839
 20
9.6061947639
 30
0.0
 10
10.5433164611
 20
9.6079220793
 30
0.0
 10
10.5424991977
 20
9.6106858112
 30
0.0
 10
10.5414775449
 20
9.6141404667
 30
0.0
 10
10.5402515951
 20
9.6182860579
 30
0.0
 10
10.5390256289
 20
9.6224316454
 30
0.0
 10
10.5380040169
 20
9.6258863103
 30
0.0
 10
10.5371866718
 20
9.6286500233
 30
0.0
 10
10.5366759566
 20
9.6303773869
 30
0.0
 10
10.5362670972
 20
9.6317591793
 30
0.0
 10
10.5359612391
 20
9.6327957932
 30
0.0
 10
10.5357038556
 20
9.6336587805
 30
0.0
 10
10.5355285968
 20
9.6342645547
 30
0.0
 10
10.5354207828
 20
9.6346080833
 30
0.0
 10
10.535361518
 20
9.6348731332
 30
0.0
 10
10.5352197034
 20
9.6351098834
 30
0.0
 10
10.5350594116
 20
9.6354354216
 30
0.0
 10
10.5347654851
 20
9.6360005141
 30
0.0
 10
10.534352604
 20
9.6368101937
 30
0.0
 10
10.5338541446
 20
9.6377807801
 30
0.0
 10
10.5331905806
 20
9.6390752547
 30
0.0
 10
10.5323607665
 20
9.6406932248
 30
0.0
 10
10.5310332648
 20
9.6432820459
 30
0.0
 10
10.5293738183
 20
9.6465180484
 30
0.0
 10
10.5273825141
 20
9.6504012625
 30
0.0
 10
10.5253911944
 20
9.6542844702
 30
0.0
 10
10.5237317869
 20
9.6575204886
 30
0.0
 10
10.5224042071
 20
9.6601092778
 30
0.0
 10
10.5215745915
 20
9.6617273289
 30
0.0
 10
10.5209106202
 20
9.6630216374
 30
0.0
 10
10.5204134052
 20
9.6639927313
 30
0.0
 10
10.5199966305
 20
9.6648008228
 30
0.0
 10
10.5197096549
 20
9.6653687504
 30
0.0
 10
10.519538226
 20
9.6656897462
 30
0.0
 10
10.5194306209
 20
9.665940449
 30
0.0
 10
10.519242871
 20
9.6661530952
 30
0.0
 10
10.5190204933
 20
9.6664498981
 30
0.0
 10
10.5186183073
 20
9.6669631183
 30
0.0
 10
10.5180505655
 20
9.6676995235
 30
0.0
 10
10.5173663606
 20
9.6685818257
 30
0.0
 10
10.5164551055
 20
9.669758712
 30
0.0
 10
10.5153156879
 20
9.6712296544
 30
0.0
 10
10.5134928148
 20
9.6735832548
 30
0.0
 10
10.5112141562
 20
9.6765252232
 30
0.0
 10
10.508479796
 20
9.6800556006
 30
0.0
 10
10.5057454225
 20
9.683585968
 30
0.0
 10
10.5034667972
 20
9.6865279613
 30
0.0
 10
10.5016438575
 20
9.6888815118
 30
0.0
 10
10.5005046092
 20
9.690352581
 30
0.0
 10
10.4995930067
 20
9.6915292071
 30
0.0
 10
10.498909863
 20
9.6924123044
 30
0.0
 10
10.4983388008
 20
9.6931462221
 30
0.0
 10
10.4979425423
 20
9.6936638828
 30
0.0
 10
10.4977106673
 20
9.6939535709
 30
0.0
 10
10.49755209
 20
9.6941880715
 30
0.0
 10
10.4973349175
 20
9.6943566929
 30
0.0
 10
10.4970657928
 20
9.6946045009
 30
0.0
 10
10.4965853018
 20
9.6950274582
 30
0.0
 10
10.4959038648
 20
9.6956372806
 30
0.0
 10
10.4950840093
 20
9.6963666715
 30
0.0
 10
10.493991613
 20
9.6973400295
 30
0.0
 10
10.4926258627
 20
9.6985564405
 30
0.0
 10
10.4904408047
 20
9.7005028583
 30
0.0
 10
10.4877094331
 20
9.7029358252
 30
0.0
 10
10.4844318094
 20
9.7058554109
 30
0.0
 10
10.4811541754
 20
9.7087749834
 30
0.0
 10
10.4784228297
 20
9.7112079831
 30
0.0
 10
10.4762377198
 20
9.7131543353
 30
0.0
 10
10.4748721016
 20
9.714370913
 30
0.0
 10
10.4737794342
 20
9.7153439289
 30
0.0
 10
10.4729604069
 20
9.7160743649
 30
0.0
 10
10.4722763787
 20
9.7166809174
 30
0.0
 10
10.4718005132
 20
9.7171097121
 30
0.0
 10
10.4715239774
 20
9.7173481672
 30
0.0
 10
10.4713295695
 20
9.7175455176
 30
0.0
 10
10.4710854918
 20
9.7176721167
 30
0.0
 10
10.4707773803
 20
9.7178655944
 30
0.0
 10
10.4702301129
 20
9.718192682
 30
0.0
 10
10.4694525226
 20
9.7186659614
 30
0.0
 10
10.4685176078
 20
9.7192313236
 30
0.0
 10
10.4672716856
 20
9.7199860386
 30
0.0
 10
10.465714067
 20
9.7209291247
 30
0.0
 10
10.4632219978
 20
9.7224382344
 30
0.0
 10
10.4601068698
 20
9.7243245621
 30
0.0
 10
10.4563687348
 20
9.7265881827
 30
0.0
 10
10.4526305917
 20
9.7288517888
 30
0.0
 10
10.4495154838
 20
9.7307381527
 30
0.0
 10
10.4470233744
 20
9.73224719
 30
0.0
 10
10.4454658581
 20
9.73319046
 30
0.0
 10
10.4442197257
 20
9.7339447975
 30
0.0
 10
10.4432854533
 20
9.7345113132
 30
0.0
 10
10.4425058531
 20
9.7349809836
 30
0.0
 10
10.4419621737
 20
9.735314514
 30
0.0
 10
10.4416483133
 20
9.7354976686
 30
0.0
 10
10.4414218944
 20
9.7356559766
 30
0.0
 10
10.441161163
 20
9.7357342337
 30
0.0
 10
10.4408254897
 20
9.7358664991
 30
0.0
 10
10.4402324851
 20
9.736084954
 30
0.0
 10
10.439388251
 20
9.7364038339
 30
0.0
 10
10.4383739222
 20
9.7367835785
 30
0.0
 10
10.4370219197
 20
9.7372909215
 30
0.0
 10
10.4353317674
 20
9.737924752
 30
0.0
 10
10.432627607
 20
9.7389390755
 30
0.0
 10
10.4292473778
 20
9.7402069127
 30
0.0
 10
10.4251911157
 20
9.7417283482
 30
0.0
 10
10.4211348479
 20
9.7432497677
 30
0.0
 10
10.4177546331
 20
9.7445176447
 30
0.0
 10
10.4150504439
 20
9.7455318887
 30
0.0
 10
10.4133603649
 20
9.7461659214
 30
0.0
 10
10.4120082118
 20
9.7466728494
 30
0.0
 10
10.4109943431
 20
9.747053862
 30
0.0
 10
10.4101486697
 20
9.7473687746
 30
0.0
 10
10.4095582346
 20
9.7475943117
 30
0.0
 10
10.4092184442
 20
9.7477152295
 30
0.0
 10
10.408970359
 20
9.7478283428
 30
0.0
 10
10.4086964431
 20
9.7478557365
 30
0.0
 10
10.408340232
 20
9.7479221614
 30
0.0
 10
10.4077126645
 20
9.748024474
 30
0.0
 10
10.4068183342
 20
9.7481779181
 30
0.0
 10
10.4057441985
 20
9.7483589335
 30
0.0
 10
10.4043123456
 20
9.7486013763
 30
0.0
 10
10.4025224172
 20
9.748904057
 30
0.0
 10
10.3996585945
 20
9.7493885545
 30
0.0
 10
10.3960787947
 20
9.7499941044
 30
0.0
 10
10.3917830439
 20
9.7507207973
 30
0.0
 10
10.3874872914
 20
9.7514474732
 30
0.0
 10
10.3839074958
 20
9.7520530656
 30
0.0
 10
10.3810436646
 20
9.7525374781
 30
0.0
 10
10.3792537579
 20
9.7528403749
 30
0.0
 10
10.3778218605
 20
9.7530823741
 30
0.0
 10
10.3767478609
 20
9.7532647447
 30
0.0
 10
10.3758531045
 20
9.7534139488
 30
0.0
 10
10.3752262978
 20
9.7535238306
 30
0.0
 10
10.3748688677
 20
9.7535781277
 30
0.0
 10
10.374598696
 20
9.7536427738
 30
0.0
 10
10.3743365482
 20
9.7536159733
 30
0.0
 10
10.3739842189
 20
9.7536121369
 30
0.0
 10
10.3733689468
 20
9.7535905614
 30
0.0
 10
10.3724893048
 20
9.7535675092
 30
0.0
 10
10.3714340263
 20
9.7535365208
 30
0.0
 10
10.3700268863
 20
9.7534963645
 30
0.0
 10
10.3682679963
 20
9.7534457715
 30
0.0
 10
10.3654537527
 20
9.7533650449
 30
0.0
 10
10.361935955
 20
9.75326406
 30
0.0
 10
10.3577145944
 20
9.753142913
 30
0.0
 10
10.3534932363
 20
9.7530217488
 30
0.0
 10
10.3499754325
 20
9.7529208071
 30
0.0
 10
10.347161201
 20
9.752839994
 30
0.0
 10
10.34540228
 20
9.7527896208
 30
0.0
 10
10.3439952036
 20
9.7527490133
 30
0.0
 10
10.342939731
 20
9.7527194036
 30
0.0
 10
10.3420606961
 20
9.7526920379
 30
0.0
 10
10.3414443403
 20
9.7526781627
 30
0.0
 10
10.3410937475
 20
9.7526619885
 30
0.0
 10
10.3408262659
 20
9.7526730857
 30
0.0
 10
10.3405761269
 20
9.7525953939
 30
0.0
 10
10.340236559
 20
9.7525227755
 30
0.0
 10
10.3396451335
 20
9.7523812634
 30
0.0
 10
10.3387987665
 20
9.7521866474
 30
0.0
 10
10.3377837569
 20
9.751949879
 30
0.0
 10
10.3364301903
 20
9.7516353158
 30
0.0
 10
10.3347383076
 20
9.7512417255
 30
0.0
 10
10.332031253
 20
9.750612197
 30
0.0
 10
10.3286474495
 20
9.7498252117
 30
0.0
 10
10.3245868781
 20
9.7488808634
 30
0.0
 10
10.3205263117
 20
9.7479364985
 30
0.0
 10
10.3171424958
 20
9.747149555
 30
0.0
 10
10.3144354659
 20
9.746519943
 30
0.0
 10
10.3127435205
 20
9.7461265647
 30
0.0
 10
10.3113900826
 20
9.7458115665
 30
0.0
 10
10.31037468
 20
9.7455761268
 30
0.0
 10
10.3095295424
 20
9.7453773537
 30
0.0
 10
10.3089359223
 20
9.7452432627
 30
0.0
 10
10.3085998707
 20
9.7451587539
 30
0.0
 10
10.3083389308
 20
9.7451175853
 30
0.0
 10
10.3081120155
 20
9.7449915074
 30
0.0
 10
10.3077975936
 20
9.7448530208
 30
0.0
 10
10.3072528849
 20
9.74459687
 30
0.0
 10
10.3064718387
 20
9.7442381547
 30
0.0
 10
10.3055358207
 20
9.7438046083
 30
0.0
 10
10.3042873644
 20
9.743227625
 30
0.0
 10
10.3027269421
 20
9.7425060266
 30
0.0
 10
10.3002301836
 20
9.7413516757
 30
0.0
 10
10.2971092641
 20
9.7399086657
 30
0.0
 10
10.2933641474
 20
9.7381770863
 30
0.0
 10
10.2896190381
 20
9.7364454907
 30
0.0
 10
10.2864981
 20
9.735002521
 30
0.0
 10
10.2840013788
 20
9.7338480894
 30
0.0
 10
10.2824408617
 20
9.7331266961
 30
0.0
 10
10.2811925998
 20
9.732549292
 30
0.0
 10
10.2802559879
 20
9.7321170313
 30
0.0
 10
10.2794767998
 20
9.7317542934
 30
0.0
 10
10.2789287741
 20
9.7315053235
 30
0.0
 10
10.2786196669
 20
9.7313553313
 30
0.0
 10
10.2783764265
 20
9.731264595
 30
0.0
 10
10.2781768008
 20
9.7310906892
 30
0.0
 10
10.2778954198
 20
9.7308878253
 30
0.0
 10
10.2774100914
 20
9.730519297
 30
0.0
 10
10.2767130592
 20
9.7299998945
 30
0.0
 10
10.2758782068
 20
9.7293735868
 30
0.0
 10
10.2747645162
 20
9.7285395664
 30
0.0
 10
10.2733725927
 20
9.7274966791
 30
0.0
 10
10.2711454089
 20
9.7258282617
 30
0.0
 10
10.2683614661
 20
9.7237426701
 30
0.0
 10
10.2650207172
 20
9.7212399917
 30
0.0
 10
10.2616799792
 20
9.7187372992
 30
0.0
 10
10.2588960091
 20
9.7166517428
 30
0.0
 10
10.2566688799
 20
9.714983255
 30
0.0
 10
10.2552768178
 20
9.7139405466
 30
0.0
 10
10.2541634116
 20
9.7131061591
 30
0.0
 10
10.2533276905
 20
9.7124809729
 30
0.0
 10
10.2526333761
 20
9.7119580615
 30
0.0
 10
10.252143196
 20
9.7115957971
 30
0.0
 10
10.2518695885
 20
9.7113828968
 30
0.0
 10
10.2516460853
 20
9.7112398196
 30
0.0
 10
10.2514925248
 20
9.7110332965
 30
0.0
 10
10.2512633807
 20
9.710780063
 30
0.0
 10
10.2508737455
 20
9.7103265933
 30
0.0
 10
10.250311181
 20
9.7096841702
 30
0.0
 10
10.2496386473
 20
9.7089109551
 30
0.0
 10
10.2487410472
 20
9.7078808076
 30
0.0
 10
10.2476193513
 20
9.7065928472
 30
0.0
 10
10.2458244678
 20
9.7045322648
 30
0.0
 10
10.2435809222
 20
9.7019564836
 30
0.0
 10
10.2408886405
 20
9.6988655703
 30
0.0
 10
10.2381963726
 20
9.6957746457
 30
0.0
 10
10.2359527924
 20
9.6931988928
 30
0.0
 10
10.234157978
 20
9.6911382537
 30
0.0
 10
10.2330361063
 20
9.6898504376
 30
0.0
 10
10.2321388671
 20
9.6888199939
 30
0.0
 10
10.2314652309
 20
9.6880476834
 30
0.0
 10
10.2309061159
 20
9.68740243
 30
0.0
 10
10.2305103226
 20
9.6869540129
 30
0.0
 10
10.2302910454
 20
9.686692684
 30
0.0
 10
10.2301071771
 20
9.6865110274
 30
0.0
 10
10.2299975049
 20
9.6862745555
 30
0.0
 10
10.2298253948
 20
9.6859783799
 30
0.0
 10
10.2295362604
 20
9.685451164
 30
0.0
 10
10.229116907
 20
9.6847026559
 30
0.0
 10
10.2286163814
 20
9.6838024527
 30
0.0
 10
10.2279480713
 20
9.682602878
 30
0.0
 10
10.2271130065
 20
9.6811031713
 30
0.0
 10
10.2257767224
 20
9.6787037738
 30
0.0
 10
10.2241064296
 20
9.6757044809
 30
0.0
 10
10.2221020495
 20
9.6721053502
 30
0.0
 10
10.2200976844
 20
9.6685062103
 30
0.0
 10
10.218427354
 20
9.6655069402
 30
0.0
 10
10.2170911451
 20
9.6631074972
 30
0.0
 10
10.2162558892
 20
9.6616079061
 30
0.0
 10
10.2155879713
 20
9.660408094
 30
0.0
 10
10.2150862476
 20
9.6595086162
 30
0.0
 10
10.2146706427
 20
9.6587578383
 30
0.0
 10
10.2143748166
 20
9.6582346745
 30
0.0
 10
10.2142134282
 20
9.6579320064
 30
0.0
 10
10.2140708224
 20
9.6577154773
 30
0.0
 10
10.2140106471
 20
9.657458919
 30
0.0
 10
10.2139016607
 20
9.657130804
 30
0.0
 10
10.2137243309
 20
9.6565500972
 30
0.0
 10
10.2134639988
 20
9.6557239172
 30
0.0
 10
10.2131545982
 20
9.6547310455
 30
0.0
 10
10.2127410169
 20
9.6534077249
 30
0.0
 10
10.2122243988
 20
9.6517534002
 30
0.0
 10
10.2113976094
 20
9.6491065779
 30
0.0
 10
10.210364192
 20
9.6457980164
 30
0.0
 10
10.2091240592
 20
9.6418277578
 30
0.0
 10
10.2078839428
 20
9.6378574923
 30
0.0
 10
10.2068504845
 20
9.6345489481
 30
0.0
 10
10.2060237767
 20
9.6319020913
 30
0.0
 10
10.2055069513
 20
9.6302478543
 30
0.0
 10
10.2050937955
 20
9.6289243536
 30
0.0
 10
10.2047830949
 20
9.6279320321
 30
0.0
 10
10.20452683
 20
9.6271041307
 30
0.0
 10
10.2043422397
 20
9.6265264969
 30
0.0
 10
10.2042448864
 20
9.6261934581
 30
0.0
 10
10.2041489778
 20
9.6259520242
 30
0.0
 10
10.2041405803
 20
9.6256786905
 30
0.0
 10
10.2040988587
 20
9.6253253726
 30
0.0
 10
10.2040400681
 20
9.624701882
 30
0.0
 10
10.203948646
 20
9.6238138915
 30
0.0
 10
10.2038421221
 20
9.6227471427
 30
0.0
 10
10.2036989787
 20
9.6213252163
 30
0.0
 10
10.2035204299
 20
9.6195476694
 30
0.0
 10
10.2032345393
 20
9.6167036721
 30
0.0
 10
10.2028772489
 20
9.6131486488
 30
0.0
 10
10.2024484692
 20
9.6088826322
 30
0.0
 10
10.2020196978
 20
9.6046166126
 30
0.0
 10
10.2014479998
 20
9.5989285876
 30
0.0
 10
10.2010192269
 20
9.5946625685
 30
0.0
 10
10.2007333781
 20
9.5918185559
 30
0.0
  0
ENDSEC
  0
SECTION
  2
OBJECTS
  0
DICTIONARY
  5
C
100
AcDbDictionary
280
0
281
1
  3
ACAD_GROUP
350
D
  3
ACAD_MLINESTYLE
350
17
  3
ACAD_LAYOUT
350
1A
  3
ACAD_PLOTSETTINGS
350
19
  3
ACAD_PLOTSTYLENAME
350
E
  3
ACAD_IMAGE_DICT
350
       392
  3
ACAD_IMAGE_VARS
350
       393
  3
ACAD_TABLESTYLE
350
       394
  0
IMAGEDEF_REACTOR
  5
391
100
AcDbRasterImageDefReactor
 90
2
330
286
  0
DICTIONARY
  5
D
102
{ACAD_REACTORS
330
C
102
}
100
AcDbDictionary
280
0
281
1
  0
ACDBDICTIONARYWDFLT
  5
E
102
{ACAD_REACTORS
330
C
102
}
100
AcDbDictionary
281
1
  3
Normal
350
F
100
AcDbDictionaryWithDefault
340
F
  0
DICTIONARY
  5
392
330
C
100
AcDbDictionary
281
1
  3
YHL_assy_2_img_1
350
       397
  0
RASTERVARIABLES
  5
393
330
C
100
AcDbRasterVariables
 90
0
 70
0
 71
1
 72
5
  0
DICTIONARY
  5
17
102
{ACAD_REACTORS
330
C
102
}
100
AcDbDictionary
280
0
281
1
  3
Standard
350
18
  0
DICTIONARY
  5
394
330
C
100
AcDbDictionary
281
1
  3
Standard
350
       398
  3
Standard1
350
       399
  0
DICTIONARY
  5
19
102
{ACAD_REACTORS
330
C
102
}
100
AcDbDictionary
281
1
  0
DICTIONARY
  5
1A
102
{ACAD_REACTORS
330
C
102
}
100
AcDbDictionary
281
1
  3
Model
350
395
  3
Layout1
350
396
  0
ACDBPLACEHOLDER
  5
F
102
{ACAD_REACTORS
330
E
102
}
  0
MLINESTYLE
  5
18
102
{ACAD_REACTORS
330
17
102
}
100
AcDbMlineStyle
  2
STANDARD
 70
0
  3

 62
256
 51
90.0
 52
90.0
 71
2
 49
0.5
 62
256
  6
BYLAYER
 49
-0.5
 62
256
  6
BYLAYER
  0
LAYOUT
  5
395
102
{ACAD_REACTORS
330
1A
102
}
100
AcDbPlotSettings
  1

  2
none_device
  4
ANSI_C_(22.00_x_17.00_Inches)
  6

 40
0.0
 41
0.0
 42
0.0
 43
0.0
 44
558.8
 45
431.8
 46
0.0
 47
0.0
 48
0.0
 49
0.0
140
0.0
141
0.0
142
1.0
143
1.0
 70
1024
 72
0
 73
0
 74
0
  7

 75
0
147
1.0
148
0.0
149
0.0
100
AcDbLayout
  1
Model
 70
0
 71
0
 10
0.0
 20
0.0
 11
22.0
 21
17.0
 12
0.0
 22
0.0
 32
0.0
 14
0.0
 24
0.0
 34
0.0
 15
0.0
 25
0.0
 35
0.0
146
0.0
 13
0.0
 23
0.0
 33
0.0
 16
1.0
 26
0.0
 36
0.0
 17
0.0
 27
1.0
 37
0.0
 76
0
330
204
345
0
346
0
  0
LAYOUT
  5
396
102
{ACAD_REACTORS
330
1A
102
}
100
AcDbPlotSettings
  1

  2
none_device
  4
ANSI_C_(22.00_x_17.00_Inches)
  6

 40
0.0
 41
0.0
 42
0.0
 43
0.0
 44
558.8
 45
431.8
 46
0.0
 47
0.0
 48
0.0
 49
0.0
140
0.0
141
0.0
142
1.0
143
1.0
 70
0
 72
0
 73
0
 74
0
  7

 75
0
147
1.0
148
0.0
149
0.0
100
AcDbLayout
  1
Layout1
 70
0
 71
1
 10
0.0
 20
0.0
 11
22.0
 21
17.0
 12
0.0
 22
0.0
 32
0.0
 14
0.0
 24
0.0
 34
0.0
 15
0.0
 25
0.0
 35
0.0
146
0.0
 13
0.0
 23
0.0
 33
0.0
 16
1.0
 26
0.0
 36
0.0
 17
0.0
 27
1.0
 37
0.0
 76
0
330
205
345
0
346
0
  0
IMAGEDEF
  5
397
102
{ACAD_REACTORS
330
392
330
391
102
}
100
AcDbRasterImageDef
 90
0
  1
YHL_assy_2_img_1.png
 10
369.0
 20
92.0
 11
0.0066666667
 21
0.0066666667
280
1
281
0
  0
TABLESTYLE
  5
398
102
{ACAD_REACTORS
330
394
330
289
330
28A
102
}
330
394
100
AcDbTableStyle
  3
Standard
 70
0
 71
0
 40
0.06
 41
0.06
280
1
281
1
  7
Standard
140
0.18
170
1
 62
0
 63
7
283
0
  7
Standard
140
0.18
170
1
 62
0
 63
7
283
0
  7
Standard
140
0.18
170
1
 62
0
 63
7
283
0
  0
TABLESTYLE
  5
399
102
{ACAD_REACTORS
330
394
330
288
102
}
330
394
100
AcDbTableStyle
  3
Standard1
 70
1
 71
0
 40
0.06
 41
0.06
280
1
281
1
  7
Standard
140
0.18
170
1
 62
0
 63
7
283
0
  7
Standard
140
0.18
170
1
 62
0
 63
7
283
0
  7
Standard
140
0.18
170
1
 62
0
 63
7
283
0
  0
ENDSEC
  0
EOF
