999
DXF file: YHK_assy_2.dxf
999
Pro/ENGINEER 2014200 by Parametric Technology Corporation
  0
SECTION
  2
HEADER
  9
$ACADVER
  1
AC1021
  9
$DWGCODEPAGE
  3
ANSI_1252
  9
$EXTMAX
 10
22.0
 20
17.0
 30
0.0
  9
$EXTMIN
 10
0.0
 20
0.0
 30
0.0
  9
$LIMMIN
 10
0.0
 20
0.0
  9
$LIMMAX
 10
22.0
 20
17.0
  9
$VIEWCTR
 10
11.0
 20
8.5
  9
$VIEWSIZE
 40
17.0
  9
$CLAYER
  8
0
  9
$LTSCALE
 40
1.21
  9
$CELTYPE
  6
BYLAYER
  9
$DIMSCALE
 40
1.0
  9
$DIMASZ
 40
0.1875
  9
$DIMEXO
 40
0.0625
  9
$DIMDLI
 40
0.836
  9
$DIMEXE
 40
0.125
  9
$DIMCEN
 40
0.198
  9
$DIMLFAC
 40
1.0
  9
$DIMBLK
  1
_FILLED
  9
$DIMTXT
 40
0.1
  9
$DIMTOL
 70
0
  9
$DIMLIM
 70
0
  9
$DIMTFAC
 40
1.0
  9
$DIMGAP
 40
0.09
  9
$DIMDSEP
 70
46
  9
$AUNITS
 70
0
  9
$PDMODE
 70
3
  9
$PDSIZE
 40
0.3125
  9
$HANDSEED
  5
3A6
  9
$TILEMODE
 70
1
  9
$MEASUREMENT
 70
0
  9
$INSUNITS
 70
1
  0
ENDSEC
  0
SECTION
  2
CLASSES
  0
CLASS
  1
ACDBDICTIONARYWDFLT
  2
AcDbDictionaryWithDefault
  3
AutoCAD 2000
 90
0
 91
1
280
0
281
0
  0
CLASS
  1
ACDBPLACEHOLDER
  2
AcDbPlaceHolder
  3
AutoCAD 2000
 90
0
 91
1
280
0
281
0
  0
CLASS
  1
LAYOUT
  2
AcDbLayout
  3
AutoCAD 2000
 90
0
 91
0
280
0
281
0
  0
CLASS
  1
RASTERVARIABLES
  2
AcDbRasterVariables
  3
ISM
 90
0
 91
1
280
0
281
0
  0
CLASS
  1
IMAGEDEF
  2
AcDbRasterImageDef
  3
ISM
 90
0
 91
1
280
0
281
0
  0
CLASS
  1
IMAGEDEF_REACTOR
  2
AcDbRasterImageDefReactor
  3
ISM
 90
0
 91
1
280
0
281
0
  0
CLASS
  1
IMAGE
  2
AcDbRasterImage
  3
ISM
 90
127
 91
1
280
0
281
1
  0
CLASS
  1
TABLESTYLE
  2
AcDbTableStyle
  3
ObjectDBX Classes
 90
2047
 91
1
280
0
281
0
  0
CLASS
  1
ACAD_TABLE
  2
AcDbTable
  3
ObjectDBX Classes
 90
1025
 91
3
280
0
281
1
  0
ENDSEC
  0
SECTION
  2
TABLES
  0
TABLE
  2
VPORT
  5
8
100
AcDbSymbolTable
 70
2
  0
VPORT
  5
1F4
100
AcDbSymbolTableRecord
100
AcDbViewportTableRecord
  2
*ACTIVE
 70
0
 10
0.0
 20
0.0
 11
1.0
 21
1.0
 12
11.0
 22
8.5
 13
0.0
 23
0.0
 14
1.0
 24
1.0
 15
0.0
 25
0.0
 16
0.0
 26
0.0
 36
1.0
 17
0.0
 27
0.0
 37
0.0
 40
17.0
 41
1.2941176471
 42
50.0
 43
0.0
 44
0.0
 50
0.0
 51
0.0
 71
0
 72
100
 73
1
 74
1
 75
0
 76
0
 77
0
 78
0
  0
ENDTAB
  0
TABLE
  2
LTYPE
  5
5
100
AcDbSymbolTable
 70
6
  0
LTYPE
  5
14
100
AcDbSymbolTableRecord
100
AcDbLinetypeTableRecord
  2
BYBLOCK
 70
0
  3

 72
65
 73
0
 40
0.0
  0
LTYPE
  5
15
100
AcDbSymbolTableRecord
100
AcDbLinetypeTableRecord
  2
BYLAYER
 70
0
  3

 72
65
 73
0
 40
0.0
  0
LTYPE
  5
16
100
AcDbSymbolTableRecord
100
AcDbLinetypeTableRecord
  2
CONTINUOUS
 70
64
  3
Solid line
 72
65
 73
0
 40
0.0
  0
LTYPE
  5
1F5
100
AcDbSymbolTableRecord
100
AcDbLinetypeTableRecord
  2
CENTER
 70
64
  3
____ _ ____ _ ____ _ ____ _ ____ _ ____ _ ____
 72
65
 73
4
 40
0.6
 49
0.375
 74
0
 49
-0.075
 74
0
 49
0.075
 74
0
 49
-0.075
 74
0
  0
LTYPE
  5
1F6
100
AcDbSymbolTableRecord
100
AcDbLinetypeTableRecord
  2
HIDDEN
 70
64
  3
- - - - - - - - - - - - - - - - - - - -
 72
65
 73
2
 40
0.2
 49
0.1
 74
0
 49
-0.1
 74
0
  0
LTYPE
  5
1F7
100
AcDbSymbolTableRecord
100
AcDbLinetypeTableRecord
  2
PHANTOM
 70
64
  3
_____ _ _ _____ _ _ _____ _ _ _____
 72
65
 73
6
 40
0.8
 49
0.45
 74
0
 49
-0.05
 74
0
 49
0.1
 74
0
 49
-0.05
 74
0
 49
0.1
 74
0
 49
-0.05
 74
0
  0
LTYPE
  5
1F8
100
AcDbSymbolTableRecord
100
AcDbLinetypeTableRecord
  2
DOT
 70
64
  3
. . . . . . . . . . . . . . . . . . . .
 72
65
 73
2
 40
0.2
 49
0.1
 74
0
 49
-0.1
 74
0
  0
LTYPE
  5
1F9
100
AcDbSymbolTableRecord
100
AcDbLinetypeTableRecord
  2
DASHED
 70
64
  3
- - - - - - - - - - - - - - - - - - - -
 72
65
 73
2
 40
0.2
 49
0.1
 74
0
 49
-0.1
 74
0
  0
ENDTAB
  0
TABLE
  2
LAYER
  5
2
100
AcDbSymbolTable
 70
36
  0
LAYER
  5
10
100
AcDbSymbolTableRecord
100
AcDbLayerTableRecord
  2
0
 70
0
 62
7
  6
CONTINUOUS
370
-3
390
F
  0
LAYER
  5
1FA
100
AcDbSymbolTableRecord
100
AcDbLayerTableRecord
  2
DEFAULT_1
 70
0
 62
7
  6
CENTER
370
-3
390
F
  0
LAYER
  5
1FB
100
AcDbSymbolTableRecord
100
AcDbLayerTableRecord
  2
DEFAULT_2
 70
0
 62
8
  6
HIDDEN
370
-3
390
F
  0
LAYER
  5
1FC
100
AcDbSymbolTableRecord
100
AcDbLayerTableRecord
  2
DEFAULT_3
 70
0
 62
7
  6
PHANTOM
370
-3
390
F
  0
LAYER
  5
1FD
100
AcDbSymbolTableRecord
100
AcDbLayerTableRecord
  2
01___PRT_ALL_DTM_PLN
 70
0
 62
7
  6
CONTINUOUS
370
-3
390
F
  0
LAYER
  5
1FE
100
AcDbSymbolTableRecord
100
AcDbLayerTableRecord
  2
01___PRT_DEF_DTM_PLN
 70
0
 62
7
  6
CONTINUOUS
370
-3
390
F
  0
LAYER
  5
1FF
100
AcDbSymbolTableRecord
100
AcDbLayerTableRecord
  2
02___PRT_ALL_AXES
 70
0
 62
7
  6
CONTINUOUS
370
-3
390
F
  0
LAYER
  5
200
100
AcDbSymbolTableRecord
100
AcDbLayerTableRecord
  2
03___PRT_ALL_CURVES
 70
0
 62
7
  6
CONTINUOUS
370
-3
390
F
  0
LAYER
  5
201
100
AcDbSymbolTableRecord
100
AcDbLayerTableRecord
  2
04___PRT_ALL_DTM_PNT
 70
0
 62
7
  6
CONTINUOUS
370
-3
390
F
  0
LAYER
  5
202
100
AcDbSymbolTableRecord
100
AcDbLayerTableRecord
  2
05___PRT_ALL_DTM_CSYS
 70
0
 62
7
  6
CONTINUOUS
370
-3
390
F
  0
LAYER
  5
203
100
AcDbSymbolTableRecord
100
AcDbLayerTableRecord
  2
05___PRT_DEF_DTM_CSYS
 70
0
 62
7
  6
CONTINUOUS
370
-3
390
F
  0
LAYER
  5
204
100
AcDbSymbolTableRecord
100
AcDbLayerTableRecord
  2
06___PRT_ALL_SURFS
 70
0
 62
7
  6
CONTINUOUS
370
-3
390
F
  0
LAYER
  5
205
100
AcDbSymbolTableRecord
100
AcDbLayerTableRecord
  2
DATUM_PLANES
 70
0
 62
7
  6
CONTINUOUS
370
-3
390
F
  0
LAYER
  5
206
100
AcDbSymbolTableRecord
100
AcDbLayerTableRecord
  2
PORT_AREAS
 70
0
 62
7
  6
CONTINUOUS
370
-3
390
F
  0
LAYER
  5
207
100
AcDbSymbolTableRecord
100
AcDbLayerTableRecord
  2
SUNNBOMCOSMETIC
 70
0
 62
7
  6
CONTINUOUS
370
-3
390
F
  0
LAYER
  5
208
100
AcDbSymbolTableRecord
100
AcDbLayerTableRecord
  2
SUNNBOMSTAMPING
 70
0
 62
7
  6
CONTINUOUS
370
-3
390
F
  0
LAYER
  5
209
100
AcDbSymbolTableRecord
100
AcDbLayerTableRecord
  2
THREADS
 70
0
 62
7
  6
CONTINUOUS
370
-3
390
F
  0
ENDTAB
  0
TABLE
  2
STYLE
  5
3
100
AcDbSymbolTable
 70
1
  0
STYLE
  5
11
100
AcDbSymbolTableRecord
100
AcDbTextStyleTableRecord
  2
STANDARD
 70
0
 40
0.0
 41
0.8
 50
0.0
 71
0
 42
0.2
  3
txt
  4

  0
STYLE
  5
20A
100
AcDbSymbolTableRecord
100
AcDbTextStyleTableRecord
  2
TEXTSTYLE_1
 70
0
 40
0.0
 41
0.8
 50
0.0
 71
0
 42
0.2
  3
gdt
  4

  0
ENDTAB
  0
TABLE
  2
VIEW
  5
6
100
AcDbSymbolTable
 70
0
  0
ENDTAB
  0
TABLE
  2
UCS
  5
7
100
AcDbSymbolTable
 70
0
  0
ENDTAB
  0
TABLE
  2
APPID
  5
9
100
AcDbSymbolTable
 70
1
  0
APPID
  5
20B
100
AcDbSymbolTableRecord
100
AcDbRegAppTableRecord
  2
ACAD
 70
0
  0
ENDTAB
  0
TABLE
  2
BLOCK_RECORD
  5
1
100
AcDbSymbolTable
 70
0
  0
BLOCK_RECORD
  5
20C
100
AcDbSymbolTableRecord
100
AcDbBlockTableRecord
  2
*Model_Space
  0
BLOCK_RECORD
  5
20D
100
AcDbSymbolTableRecord
100
AcDbBlockTableRecord
  2
*Paper_Space
  0
BLOCK_RECORD
  5
20E
100
AcDbSymbolTableRecord
100
AcDbBlockTableRecord
  2
SUN_FIRST_THIRD_ANGLE_BL0
  0
BLOCK_RECORD
  5
20F
100
AcDbSymbolTableRecord
100
AcDbBlockTableRecord
  2
*T1
  0
BLOCK_RECORD
  5
210
100
AcDbSymbolTableRecord
100
AcDbBlockTableRecord
  2
*T2
  0
BLOCK_RECORD
  5
211
100
AcDbSymbolTableRecord
100
AcDbBlockTableRecord
  2
*T3
  0
ENDTAB
  0
TABLE
  2
DIMSTYLE
  5
A
100
AcDbSymbolTable
 70
1
100
AcDbDimStyleTable
 71
0
  0
DIMSTYLE
105
212
100
AcDbSymbolTableRecord
100
AcDbDimStyleTableRecord
  2
STANDARD
 70
0
  3

  4

 40
1.0
 41
0.1875
 42
0.0625
 43
0.38
 44
0.125
 45
0.0
 46
0.0
 47
0.001
 48
0.001
140
0.1
141
0.09
142
0.0
143
25.4
144
1.0
145
0.0
146
1.0
147
0.09
 71
0.0
 72
0.0
 73
1
 74
1
 75
0
 76
0
 77
0
 78
4
170
0
171
2
172
0
173
0
174
0
175
0
176
0
177
0
178
0
270
2
271
3
272
3
273
2
274
2
275
0
280
0
281
0
282
0
283
1
284
4
285
0
286
0
287
3
288
0
340
11
278
46
  0
ENDTAB
  0
ENDSEC
  0
SECTION
  2
BLOCKS
  0
BLOCK
  5
20
100
AcDbEntity
  8
0
100
AcDbBlockBegin
  2
*Model_Space
 70
0
 10
0.0
 20
0.0
 30
0.0
  3
*Model_Space
  1

  0
ENDBLK
  5
21
100
AcDbEntity
  8
0
100
AcDbBlockEnd
  0
BLOCK
  5
1C
100
AcDbEntity
  8
0
100
AcDbBlockBegin
  2
*Paper_Space
 70
0
 10
0.0
 20
0.0
 30
0.0
  3
*Paper_Space
  1

  0
ENDBLK
  5
1D
100
AcDbEntity
  8
0
100
AcDbBlockEnd
  0
BLOCK
  5
213
100
AcDbEntity
  8
0
100
AcDbBlockBegin
 62
2
  6
CONTINUOUS
  2
SUN_FIRST_THIRD_ANGLE_BL0
 70
64
 10
20.4816717061
 20
1.2289683772
  3
SUN_FIRST_THIRD_ANGLE_BL0
  1

  0
TEXT
  5
214
100
AcDbEntity
  8
0
100
AcDbText
 62
2
  6
CONTINUOUS
 10
19.4750896608
 20
1.4136269581
  7
STANDARD
 40
0.08
  1
FIRST ANGLE
 41
0.8
 72
0
100
AcDbText
  0
TEXT
  5
215
100
AcDbEntity
  8
0
100
AcDbText
 62
2
  6
CONTINUOUS
 10
20.7842537513
 20
1.4047600029
  7
STANDARD
 40
0.08
  1
THIRD ANGLE
 41
0.8
 72
0
100
AcDbText
  0
LINE
  5
216
100
AcDbEntity
  8
0
100
AcDbLine
 62
7
  6
CONTINUOUS
 10
19.4767170086
 20
1.1727031207
 11
19.6334271527
 21
1.1717972817
  0
LINE
  5
217
100
AcDbEntity
  8
0
100
AcDbLine
 62
7
  6
CONTINUOUS
 10
19.6596964832
 20
1.1717972817
 11
19.6950230232
 21
1.171593082
  0
LINE
  5
218
100
AcDbEntity
  8
0
100
AcDbLine
 62
7
  6
CONTINUOUS
 10
19.7194818561
 20
1.1708914427
 11
19.8852396156
 21
1.1699333054
  0
LINE
  5
219
100
AcDbEntity
  8
0
100
AcDbLine
 62
7
  6
CONTINUOUS
 10
19.4758111696
 20
1.2723454088
 11
19.88525039
 21
1.3511534004
  0
LINE
  5
21A
100
AcDbEntity
  8
0
100
AcDbLine
 62
7
  6
CONTINUOUS
 10
19.88525039
 20
1.3511534004
 11
19.8831348489
 21
0.9851647912
  0
LINE
  5
21B
100
AcDbEntity
  8
0
100
AcDbLine
 62
7
  6
CONTINUOUS
 10
19.8831348489
 20
0.9851647912
 11
19.4767170086
 21
1.0658141206
  0
LINE
  5
21C
100
AcDbEntity
  8
0
100
AcDbLine
 62
7
  6
CONTINUOUS
 10
19.4767170086
 20
1.0658141206
 11
19.4779056764
 21
1.2714536432
  0
CIRCLE
  5
21D
100
AcDbEntity
  8
0
100
AcDbCircle
 62
7
  6
CONTINUOUS
 10
20.2068232291
 20
1.1717972817
 40
0.175742101
  0
CIRCLE
  5
21E
100
AcDbEntity
  8
0
100
AcDbCircle
 62
7
  6
CONTINUOUS
 10
20.2068232291
 20
1.1717972817
 40
0.1005522074
  0
LINE
  5
21F
100
AcDbEntity
  8
0
100
AcDbLine
 62
7
  6
CONTINUOUS
 10
20.2077290681
 20
1.3756110529
 11
20.2071171714
 21
1.2379342989
  0
LINE
  5
220
100
AcDbEntity
  8
0
100
AcDbLine
 62
7
  6
CONTINUOUS
 10
20.2077290681
 20
1.2016899681
 11
20.2074674401
 21
1.1428236749
  0
LINE
  5
221
100
AcDbEntity
  8
0
100
AcDbLine
 62
7
  6
CONTINUOUS
 10
20.208634907
 20
1.101141841
 11
20.2080230104
 21
0.963465087
  0
LINE
  5
222
100
AcDbEntity
  8
0
100
AcDbLine
 62
7
  6
CONTINUOUS
 10
20.0066328138
 20
1.1745147986
 11
20.1443095678
 21
1.1739029019
  0
LINE
  5
223
100
AcDbEntity
  8
0
100
AcDbLine
 62
7
  6
CONTINUOUS
 10
20.1832714155
 20
1.1727031207
 11
20.238153505
 21
1.172335442
  0
LINE
  5
224
100
AcDbEntity
  8
0
100
AcDbLine
 62
7
  6
CONTINUOUS
 10
20.2756669918
 20
1.1717972817
 11
20.407916871
 21
1.1712095044
  0
CIRCLE
  5
225
100
AcDbEntity
  8
0
100
AcDbCircle
 62
7
  6
CONTINUOUS
 10
20.7509457401
 20
1.1693297793
 40
0.1722024983
  0
CIRCLE
  5
226
100
AcDbEntity
  8
0
100
AcDbCircle
 62
7
  6
CONTINUOUS
 10
20.7509457401
 20
1.1693297793
 40
0.0985164967
  0
LINE
  5
227
100
AcDbEntity
  8
0
100
AcDbLine
 62
7
  6
CONTINUOUS
 10
20.7169767782
 20
1.170462078
 11
20.7825395137
 21
1.1682766535
  0
LINE
  5
228
100
AcDbEntity
  8
0
100
AcDbLine
 62
7
  6
CONTINUOUS
 10
20.8177513651
 20
1.1693297793
 11
20.947965719
 21
1.1693297793
  0
LINE
  5
229
100
AcDbEntity
  8
0
100
AcDbLine
 62
7
  6
CONTINUOUS
 10
20.6875370113
 20
1.170462078
 11
20.5573226574
 21
1.170462078
  0
LINE
  5
22A
100
AcDbEntity
  8
0
100
AcDbLine
 62
7
  6
CONTINUOUS
 10
20.7486811426
 20
1.1987695462
 11
20.7486811426
 21
1.1432869085
  0
LINE
  5
22B
100
AcDbEntity
  8
0
100
AcDbLine
 62
7
  6
CONTINUOUS
 10
20.7498134414
 20
1.1059210505
 11
20.7498134414
 21
0.9757066966
  0
LINE
  5
22C
100
AcDbEntity
  8
0
100
AcDbLine
 62
7
  6
CONTINUOUS
 10
20.7486811426
 20
1.2338708068
 11
20.7486811426
 21
1.3640851607
  0
LINE
  5
22D
100
AcDbEntity
  8
0
100
AcDbLine
 62
7
  6
CONTINUOUS
 10
21.0702539817
 20
1.2701043662
 11
21.4790138229
 21
1.3448360823
  0
LINE
  5
22E
100
AcDbEntity
  8
0
100
AcDbLine
 62
7
  6
CONTINUOUS
 10
21.4790138229
 20
1.3448360823
 11
21.4790138229
 21
0.9779712941
  0
LINE
  5
22F
100
AcDbEntity
  8
0
100
AcDbLine
 62
7
  6
CONTINUOUS
 10
21.4790138229
 20
0.9779712941
 11
21.069121683
 21
1.0617614
  0
LINE
  5
230
100
AcDbEntity
  8
0
100
AcDbLine
 62
7
  6
CONTINUOUS
 10
21.0702539817
 20
1.2701043662
 11
21.069121683
 21
1.0617614
  0
LINE
  5
231
100
AcDbEntity
  8
0
100
AcDbLine
 62
7
  6
CONTINUOUS
 10
21.4790138229
 20
1.1693297793
 11
21.3159628059
 21
1.1693297793
  0
LINE
  5
232
100
AcDbEntity
  8
0
100
AcDbLine
 62
7
  6
CONTINUOUS
 10
21.2876553377
 20
1.1693297793
 11
21.2502894796
 21
1.1693297793
  0
LINE
  5
233
100
AcDbEntity
  8
0
100
AcDbLine
 62
7
  6
CONTINUOUS
 10
21.2208497126
 20
1.1659328831
 11
21.0713862804
 21
1.1659328831
  0
LINE
  5
234
100
AcDbEntity
  8
0
100
AcDbLine
 62
7
  6
CONTINUOUS
 10
20.4796138713
 20
1.5284908897
 11
20.4766766948
 21
0.9294458646
  0
ENDBLK
  5
235
100
AcDbEntity
  8
0
  6
BYBLOCK
 62
0
100
AcDbBlockEnd
  0
BLOCK
  5
236
100
AcDbEntity
  8
0
100
AcDbBlockBegin
  2
*T1
 70
1
 10
0.0
 20
0.0
  3
*T1
  1

  0
LINE
  5
237
100
AcDbEntity
  8
0
100
AcDbLine
 62
2
  6
CONTINUOUS
 10
9.275
 20
0.0
 11
-0.0
 21
0.0
  0
LINE
  5
238
100
AcDbEntity
  8
0
100
AcDbLine
 62
2
  6
CONTINUOUS
 10
9.275
 20
0.0
 11
9.275
 21
1.25
  0
LINE
  5
239
100
AcDbEntity
  8
0
100
AcDbLine
 62
2
  6
CONTINUOUS
 10
9.275
 20
0.625
 11
-0.0
 21
0.625
  0
LINE
  5
23A
100
AcDbEntity
  8
0
100
AcDbLine
 62
2
  6
CONTINUOUS
 10
9.275
 20
1.25
 11
-0.0
 21
1.25
  0
LINE
  5
23B
100
AcDbEntity
  8
0
100
AcDbLine
 62
2
  6
CONTINUOUS
 10
6.8
 20
0.0
 11
6.8
 21
1.25
  0
LINE
  5
23C
100
AcDbEntity
  8
0
100
AcDbLine
 62
2
  6
CONTINUOUS
 10
6.4
 20
0.0
 11
6.4
 21
0.625
  0
LINE
  5
23D
100
AcDbEntity
  8
0
100
AcDbLine
 62
2
  6
CONTINUOUS
 10
5.9
 20
0.0
 11
5.9
 21
0.625
  0
LINE
  5
23E
100
AcDbEntity
  8
0
100
AcDbLine
 62
2
  6
CONTINUOUS
 10
5.2
 20
0.0
 11
5.2
 21
0.625
  0
LINE
  5
23F
100
AcDbEntity
  8
0
100
AcDbLine
 62
2
  6
CONTINUOUS
 10
4.1
 20
0.0
 11
4.1
 21
1.25
  0
LINE
  5
240
100
AcDbEntity
  8
0
100
AcDbLine
 62
2
  6
CONTINUOUS
 10
-0.0
 20
0.0
 11
-0.0
 21
1.25
  0
MTEXT
  5
241
100
AcDbEntity
  8
0
100
AcDbMText
 62
2
  6
CONTINUOUS
  7
STANDARD
 71
2
 72
1
 10
6.6
 20
0.325
 30
0.0
 11
1.0
 21
0.0
 31
0.0
 44
0.9
  1
2
 40
0.125
 41
0.2
  0
MTEXT
  5
242
100
AcDbEntity
  8
0
100
AcDbMText
 62
2
  6
CONTINUOUS
  7
STANDARD
 71
2
 72
1
 10
6.15
 20
0.325
 30
0.0
 11
1.0
 21
0.0
 31
0.0
 44
0.9
  1
C
 40
0.125
 41
0.2
  0
MTEXT
  5
243
100
AcDbEntity
  8
0
100
AcDbMText
 62
2
  6
CONTINUOUS
  7
STANDARD
 71
2
 72
1
 10
5.55
 20
0.325
 30
0.0
 11
1.0
 21
0.0
 31
0.0
 44
0.9
  1
1.000
 40
0.125
 41
1.0
  0
MTEXT
  5
244
100
AcDbEntity
  8
0
100
AcDbMText
 62
2
  6
CONTINUOUS
  7
STANDARD
 71
2
 72
1
 10
4.65
 20
0.325
 30
0.0
 11
1.0
 21
0.0
 31
0.0
 44
0.9
  1
Dec-03-19
 40
0.125
 41
1.8
  0
MTEXT
  5
245
100
AcDbEntity
  8
0
100
AcDbMText
 62
2
  6
CONTINUOUS
  7
STANDARD
 71
2
 72
1
 10
2.05
 20
0.4625
 30
0.0
 11
1.0
 21
0.0
 31
0.0
 44
0.9
  1
T-2A Line mount\PCross pilot with shuttle
 40
0.125
 41
4.8
  0
MTEXT
  5
246
100
AcDbEntity
  8
0
100
AcDbMText
 62
2
  6
CONTINUOUS
  7
STANDARD
 71
1
 72
1
 10
6.45
 20
0.5625
 30
0.0
 11
1.0
 21
0.0
 31
0.0
 44
0.9
  1
SHEET
 40
0.06
 41
0.48
  0
MTEXT
  5
247
100
AcDbEntity
  8
0
100
AcDbMText
 62
2
  6
CONTINUOUS
  7
STANDARD
 71
1
 72
1
 10
5.95
 20
0.5625
 30
0.0
 11
1.0
 21
0.0
 31
0.0
 44
0.9
  1
DWG SIZE
 40
0.06
 41
0.768
  0
MTEXT
  5
248
100
AcDbEntity
  8
0
100
AcDbMText
 62
2
  6
CONTINUOUS
  7
STANDARD
 71
1
 72
1
 10
5.25
 20
0.5625
 30
0.0
 11
1.0
 21
0.0
 31
0.0
 44
0.9
  1
SCALE
 40
0.06
 41
0.48
  0
MTEXT
  5
249
100
AcDbEntity
  8
0
100
AcDbMText
 62
2
  6
CONTINUOUS
  7
STANDARD
 71
1
 72
1
 10
4.15
 20
0.5625
 30
0.0
 11
1.0
 21
0.0
 31
0.0
 44
0.9
  1
DATE
 40
0.06
 41
0.384
  0
MTEXT
  5
24A
100
AcDbEntity
  8
0
100
AcDbMText
 62
2
  6
CONTINUOUS
  7
STANDARD
 71
1
 72
1
 10
0.05
 20
0.5625
 30
0.0
 11
1.0
 21
0.0
 31
0.0
 44
0.9
  1
DESCRIPTION
 40
0.06
 41
1.056
  0
MTEXT
  5
24B
100
AcDbEntity
  8
0
100
AcDbMText
 62
2
  6
CONTINUOUS
  7
STANDARD
 71
2
 72
1
 10
5.45
 20
1.0375
 30
0.0
 11
1.0
 21
0.0
 31
0.0
 44
0.9
  1
ALL DIMENSIONS IN INCH\PVIEWS ARE THIRD ANGLE
 40
0.12
 41
4.224
  0
MTEXT
  5
24C
100
AcDbEntity
  8
0
100
AcDbMText
 62
2
  6
CONTINUOUS
  7
STANDARD
 71
2
 72
1
 10
2.05
 20
0.95
 30
0.0
 11
1.0
 21
0.0
 31
0.0
 44
0.9
  1
YHK
 40
0.125
 41
0.6
  0
MTEXT
  5
24D
100
AcDbEntity
  8
0
100
AcDbMText
 62
2
  6
CONTINUOUS
  7
STANDARD
 71
1
 72
1
 10
0.05
 20
1.1875
 30
0.0
 11
1.0
 21
0.0
 31
0.0
 44
0.9
  1
MODEL
 40
0.06
 41
0.48
  0
ENDBLK
  5
24E
100
AcDbEntity
  8
0
  6
BYBLOCK
 62
0
100
AcDbBlockEnd
  0
BLOCK
  5
24F
100
AcDbEntity
  8
0
100
AcDbBlockBegin
  2
*T2
 70
1
 10
0.0
 20
0.0
  3
*T2
  1

  0
LINE
  5
250
100
AcDbEntity
  8
0
100
AcDbLine
 62
2
  6
CONTINUOUS
 10
0.0
 20
0.0
 11
9.055
 21
0.0
  0
LINE
  5
251
100
AcDbEntity
  8
0
100
AcDbLine
 62
2
  6
CONTINUOUS
 10
0.0
 20
0.0
 11
0.0
 21
-2.594
  0
LINE
  5
252
100
AcDbEntity
  8
0
100
AcDbLine
 62
2
  6
CONTINUOUS
 10
0.0
 20
-0.344
 11
9.055
 21
-0.344
  0
LINE
  5
253
100
AcDbEntity
  8
0
100
AcDbLine
 62
2
  6
CONTINUOUS
 10
0.0
 20
-0.594
 11
9.055
 21
-0.594
  0
LINE
  5
254
100
AcDbEntity
  8
0
100
AcDbLine
 62
2
  6
CONTINUOUS
 10
0.0
 20
-0.844
 11
9.055
 21
-0.844
  0
LINE
  5
255
100
AcDbEntity
  8
0
100
AcDbLine
 62
2
  6
CONTINUOUS
 10
0.0
 20
-1.094
 11
9.055
 21
-1.094
  0
LINE
  5
256
100
AcDbEntity
  8
0
100
AcDbLine
 62
2
  6
CONTINUOUS
 10
0.0
 20
-1.344
 11
9.055
 21
-1.344
  0
LINE
  5
257
100
AcDbEntity
  8
0
100
AcDbLine
 62
2
  6
CONTINUOUS
 10
0.0
 20
-1.594
 11
9.055
 21
-1.594
  0
LINE
  5
258
100
AcDbEntity
  8
0
100
AcDbLine
 62
2
  6
CONTINUOUS
 10
0.0
 20
-1.844
 11
9.055
 21
-1.844
  0
LINE
  5
259
100
AcDbEntity
  8
0
100
AcDbLine
 62
2
  6
CONTINUOUS
 10
0.0
 20
-2.094
 11
9.055
 21
-2.094
  0
LINE
  5
25A
100
AcDbEntity
  8
0
100
AcDbLine
 62
2
  6
CONTINUOUS
 10
0.0
 20
-2.344
 11
9.055
 21
-2.344
  0
LINE
  5
25B
100
AcDbEntity
  8
0
100
AcDbLine
 62
2
  6
CONTINUOUS
 10
0.0
 20
-2.594
 11
9.055
 21
-2.594
  0
LINE
  5
25C
100
AcDbEntity
  8
0
100
AcDbLine
 62
2
  6
CONTINUOUS
 10
3.055
 20
0.0
 11
3.055
 21
-2.594
  0
LINE
  5
25D
100
AcDbEntity
  8
0
100
AcDbLine
 62
2
  6
CONTINUOUS
 10
9.055
 20
0.0
 11
9.055
 21
-2.594
  0
MTEXT
  5
25E
100
AcDbEntity
  8
0
100
AcDbMText
 62
2
  6
CONTINUOUS
  7
STANDARD
 71
2
 72
1
 10
1.5275
 20
-0.0995
 30
0.0
 11
1.0
 21
0.0
 31
0.0
 44
0.9
  1
Technical Data
 40
0.145
 41
3.248
  0
MTEXT
  5
25F
100
AcDbEntity
  8
0
100
AcDbMText
 62
2
  6
CONTINUOUS
  7
STANDARD
 71
2
 72
1
 10
4.555
 20
-0.0995
 30
0.0
 11
1.0
 21
0.0
 31
0.0
 44
0.9
  1
U.S. Units
 40
0.145
 41
2.32
  0
MTEXT
  5
260
100
AcDbEntity
  8
0
100
AcDbMText
 62
2
  6
CONTINUOUS
  7
STANDARD
 71
2
 72
1
 10
7.555
 20
-0.0995
 30
0.0
 11
1.0
 21
0.0
 31
0.0
 44
0.9
  1
Metric Units
 40
0.145
 41
2.784
  0
MTEXT
  5
261
100
AcDbEntity
  8
0
100
AcDbMText
 62
2
  6
CONTINUOUS
  7
STANDARD
 71
2
 72
1
 10
1.5275
 20
-0.4065
 30
0.0
 11
1.0
 21
0.0
 31
0.0
 44
0.9
  1
Cavity
 40
0.125
 41
1.2
  0
MTEXT
  5
262
100
AcDbEntity
  8
0
100
AcDbMText
 62
2
  6
CONTINUOUS
  7
STANDARD
 71
2
 72
1
 10
6.055
 20
-0.4065
 30
0.0
 11
1.0
 21
0.0
 31
0.0
 44
0.9
  1
T-2A
 40
0.125
 41
0.8
  0
MTEXT
  5
263
100
AcDbEntity
  8
0
100
AcDbMText
 62
2
  6
CONTINUOUS
  7
STANDARD
 71
2
 72
1
 10
1.5275
 20
-0.6565
 30
0.0
 11
1.0
 21
0.0
 31
0.0
 44
0.9
  1
Body Features
 40
0.125
 41
2.6
  0
MTEXT
  5
264
100
AcDbEntity
  8
0
100
AcDbMText
 62
2
  6
CONTINUOUS
  7
STANDARD
 71
2
 72
1
 10
6.055
 20
-0.6565
 30
0.0
 11
1.0
 21
0.0
 31
0.0
 44
0.9
  1
Cross pilot with shuttle
 40
0.125
 41
4.8
  0
MTEXT
  5
265
100
AcDbEntity
  8
0
100
AcDbMText
 62
2
  6
CONTINUOUS
  7
STANDARD
 71
2
 72
1
 10
1.5275
 20
-0.9065
 30
0.0
 11
1.0
 21
0.0
 31
0.0
 44
0.9
  1
Body Type
 40
0.125
 41
1.8
  0
MTEXT
  5
266
100
AcDbEntity
  8
0
100
AcDbMText
 62
2
  6
CONTINUOUS
  7
STANDARD
 71
2
 72
1
 10
6.055
 20
-0.9065
 30
0.0
 11
1.0
 21
0.0
 31
0.0
 44
0.9
  1
Line mount
 40
0.125
 41
2.0
  0
MTEXT
  5
267
100
AcDbEntity
  8
0
100
AcDbMText
 62
2
  6
CONTINUOUS
  7
STANDARD
 71
2
 72
1
 10
1.5275
 20
-1.1565
 30
0.0
 11
1.0
 21
0.0
 31
0.0
 44
0.9
  1
Interface
 40
0.125
 41
1.8
  0
MTEXT
  5
268
100
AcDbEntity
  8
0
100
AcDbMText
 62
2
  6
CONTINUOUS
  7
STANDARD
 71
2
 72
1
 10
6.055
 20
-1.1565
 30
0.0
 11
1.0
 21
0.0
 31
0.0
 44
0.9
  1
None
 40
0.125
 41
0.8
  0
MTEXT
  5
269
100
AcDbEntity
  8
0
100
AcDbMText
 62
2
  6
CONTINUOUS
  7
STANDARD
 71
2
 72
1
 10
1.5275
 20
-1.4065
 30
0.0
 11
1.0
 21
0.0
 31
0.0
 44
0.9
  1
Open Cavity Quantity
 40
0.125
 41
4.0
  0
MTEXT
  5
26A
100
AcDbEntity
  8
0
100
AcDbMText
 62
2
  6
CONTINUOUS
  7
STANDARD
 71
2
 72
1
 10
6.055
 20
-1.4065
 30
0.0
 11
1.0
 21
0.0
 31
0.0
 44
0.9
  1
2
 40
0.125
 41
0.2
  0
MTEXT
  5
26B
100
AcDbEntity
  8
0
100
AcDbMText
 62
2
  6
CONTINUOUS
  7
STANDARD
 71
2
 72
1
 10
1.5275
 20
-1.6565
 30
0.0
 11
1.0
 21
0.0
 31
0.0
 44
0.9
  1
Weight
 40
0.125
 41
1.2
  0
MTEXT
  5
26C
100
AcDbEntity
  8
0
100
AcDbMText
 62
2
  6
CONTINUOUS
  7
STANDARD
 71
2
 72
1
 10
4.555
 20
-1.6565
 30
0.0
 11
1.0
 21
0.0
 31
0.0
 44
0.9
  1
1.741 lb.
 40
0.125
 41
1.8
  0
MTEXT
  5
26D
100
AcDbEntity
  8
0
100
AcDbMText
 62
2
  6
CONTINUOUS
  7
STANDARD
 71
2
 72
1
 10
7.555
 20
-1.6565
 30
0.0
 11
1.0
 21
0.0
 31
0.0
 44
0.9
  1
0,790 kg.
 40
0.125
 41
1.8
  0
MTEXT
  5
26E
100
AcDbEntity
  8
0
100
AcDbMText
 62
2
  6
CONTINUOUS
  7
STANDARD
 71
2
 72
1
 10
1.5275
 20
-1.9065
 30
0.0
 11
1.0
 21
0.0
 31
0.0
 44
0.9
  1
Mounting Hole Diameter
 40
0.125
 41
4.4
  0
MTEXT
  5
26F
100
AcDbEntity
  8
0
100
AcDbMText
 62
2
  6
CONTINUOUS
  7
STANDARD
 71
2
 72
1
 10
4.555
 20
-1.9065
 30
0.0
 11
1.0
 21
0.0
 31
0.0
 44
0.9
  1
.41 in.
 40
0.125
 41
1.4
  0
MTEXT
  5
270
100
AcDbEntity
  8
0
100
AcDbMText
 62
2
  6
CONTINUOUS
  7
STANDARD
 71
2
 72
1
 10
7.555
 20
-1.9065
 30
0.0
 11
1.0
 21
0.0
 31
0.0
 44
0.9
  1
10,4 mm
 40
0.125
 41
1.4
  0
MTEXT
  5
271
100
AcDbEntity
  8
0
100
AcDbMText
 62
2
  6
CONTINUOUS
  7
STANDARD
 71
2
 72
1
 10
1.5275
 20
-2.1565
 30
0.0
 11
1.0
 21
0.0
 31
0.0
 44
0.9
  1
Mounting Hole Depth
 40
0.125
 41
3.8
  0
MTEXT
  5
272
100
AcDbEntity
  8
0
100
AcDbMText
 62
2
  6
CONTINUOUS
  7
STANDARD
 71
2
 72
1
 10
6.055
 20
-2.1565
 30
0.0
 11
1.0
 21
0.0
 31
0.0
 44
0.9
  1
Through
 40
0.125
 41
1.4
  0
MTEXT
  5
273
100
AcDbEntity
  8
0
100
AcDbMText
 62
2
  6
CONTINUOUS
  7
STANDARD
 71
2
 72
1
 10
1.5275
 20
-2.4065
 30
0.0
 11
1.0
 21
0.0
 31
0.0
 44
0.9
  1
Mounting Hole Quantity
 40
0.125
 41
4.4
  0
MTEXT
  5
274
100
AcDbEntity
  8
0
100
AcDbMText
 62
2
  6
CONTINUOUS
  7
STANDARD
 71
2
 72
1
 10
6.055
 20
-2.4065
 30
0.0
 11
1.0
 21
0.0
 31
0.0
 44
0.9
  1
2
 40
0.125
 41
0.2
  0
ENDBLK
  5
275
100
AcDbEntity
  8
0
  6
BYBLOCK
 62
0
100
AcDbBlockEnd
  0
BLOCK
  5
276
100
AcDbEntity
  8
0
100
AcDbBlockBegin
  2
*T3
 70
1
 10
0.0
 20
0.0
  3
*T3
  1

  0
LINE
  5
277
100
AcDbEntity
  8
0
100
AcDbLine
 62
2
  6
CONTINUOUS
 10
0.0
 20
0.0
 11
4.6
 21
0.0
  0
LINE
  5
278
100
AcDbEntity
  8
0
100
AcDbLine
 62
2
  6
CONTINUOUS
 10
0.0
 20
0.0
 11
0.0
 21
-1.18775
  0
LINE
  5
279
100
AcDbEntity
  8
0
100
AcDbLine
 62
2
  6
CONTINUOUS
 10
0.0
 20
-0.34375
 11
4.6
 21
-0.34375
  0
LINE
  5
27A
100
AcDbEntity
  8
0
100
AcDbLine
 62
2
  6
CONTINUOUS
 10
0.0
 20
-0.68775
 11
4.6
 21
-0.68775
  0
LINE
  5
27B
100
AcDbEntity
  8
0
100
AcDbLine
 62
2
  6
CONTINUOUS
 10
0.0
 20
-0.93775
 11
4.6
 21
-0.93775
  0
LINE
  5
27C
100
AcDbEntity
  8
0
100
AcDbLine
 62
2
  6
CONTINUOUS
 10
0.0
 20
-1.18775
 11
4.6
 21
-1.18775
  0
LINE
  5
27D
100
AcDbEntity
  8
0
100
AcDbLine
 62
2
  6
CONTINUOUS
 10
1.3
 20
-0.34375
 11
1.3
 21
-1.18775
  0
LINE
  5
27E
100
AcDbEntity
  8
0
100
AcDbLine
 62
2
  6
CONTINUOUS
 10
3.3
 20
-0.34375
 11
3.3
 21
-1.18775
  0
LINE
  5
27F
100
AcDbEntity
  8
0
100
AcDbLine
 62
2
  6
CONTINUOUS
 10
4.6
 20
0.0
 11
4.6
 21
-1.18775
  0
MTEXT
  5
280
100
AcDbEntity
  8
0
100
AcDbMText
 62
2
  6
CONTINUOUS
  7
STANDARD
 71
2
 72
1
 10
2.3
 20
-0.099375
 30
0.0
 11
1.0
 21
0.0
 31
0.0
 44
0.9
  1
Port Headings
 40
0.145
 41
3.016
  0
MTEXT
  5
281
100
AcDbEntity
  8
0
100
AcDbMText
 62
2
  6
CONTINUOUS
  7
STANDARD
 71
2
 72
1
 10
0.65
 20
-0.44325
 30
0.0
 11
1.0
 21
0.0
 31
0.0
 44
0.9
  1
Product
 40
0.145
 41
1.624
  0
MTEXT
  5
282
100
AcDbEntity
  8
0
100
AcDbMText
 62
2
  6
CONTINUOUS
  7
STANDARD
 71
2
 72
1
 10
2.3
 20
-0.44325
 30
0.0
 11
1.0
 21
0.0
 31
0.0
 44
0.9
  1
Port
 40
0.145
 41
0.928
  0
MTEXT
  5
283
100
AcDbEntity
  8
0
100
AcDbMText
 62
2
  6
CONTINUOUS
  7
STANDARD
 71
2
 72
1
 10
3.95
 20
-0.44325
 30
0.0
 11
1.0
 21
0.0
 31
0.0
 44
0.9
  1
Size
 40
0.145
 41
0.928
  0
MTEXT
  5
284
100
AcDbEntity
  8
0
100
AcDbMText
 62
2
  6
CONTINUOUS
  7
STANDARD
 71
2
 72
1
 10
0.65
 20
-0.75025
 30
0.0
 11
1.0
 21
0.0
 31
0.0
 44
0.9
  1
YHK
 40
0.125
 41
0.6
  0
MTEXT
  5
285
100
AcDbEntity
  8
0
100
AcDbMText
 62
2
  6
CONTINUOUS
  7
STANDARD
 71
2
 72
1
 10
2.3
 20
-0.75025
 30
0.0
 11
1.0
 21
0.0
 31
0.0
 44
0.9
  1
Ports C1, C2, V1, V2
 40
0.125
 41
4.0
  0
MTEXT
  5
286
100
AcDbEntity
  8
0
100
AcDbMText
 62
2
  6
CONTINUOUS
  7
STANDARD
 71
2
 72
1
 10
3.95
 20
-0.75025
 30
0.0
 11
1.0
 21
0.0
 31
0.0
 44
0.9
  1
SAE 10
 40
0.125
 41
1.2
  0
MTEXT
  5
287
100
AcDbEntity
  8
0
100
AcDbMText
 62
2
  6
CONTINUOUS
  7
STANDARD
 71
2
 72
1
 10
0.65
 20
-1.00025
 30
0.0
 11
1.0
 21
0.0
 31
0.0
 44
0.9
  1
YHK
 40
0.125
 41
0.6
  0
MTEXT
  5
288
100
AcDbEntity
  8
0
100
AcDbMText
 62
2
  6
CONTINUOUS
  7
STANDARD
 71
2
 72
1
 10
2.3
 20
-1.00025
 30
0.0
 11
1.0
 21
0.0
 31
0.0
 44
0.9
  1
Port S
 40
0.125
 41
1.2
  0
MTEXT
  5
289
100
AcDbEntity
  8
0
100
AcDbMText
 62
2
  6
CONTINUOUS
  7
STANDARD
 71
2
 72
1
 10
3.95
 20
-1.00025
 30
0.0
 11
1.0
 21
0.0
 31
0.0
 44
0.9
  1
SAE 4
 40
0.125
 41
1.0
  0
ENDBLK
  5
28A
100
AcDbEntity
  8
0
  6
BYBLOCK
 62
0
100
AcDbBlockEnd
  0
ENDSEC
  0
SECTION
  2
ENTITIES
  0
IMAGE
  5
28B
100
AcDbEntity
  8
0
100
AcDbRasterImage
 62
7
  6
CONTINUOUS
 10
19.2297077316
 20
0.3094318264
 30
0.0
 11
0.0066666667
 21
0.0
 31
0.0
 12
0.0
 22
0.0066666667
 32
0.0
 13
369.0
 23
92.0
340
       3A3
 70
9
280
0
281
50
282
50
283
0
360
       39D
 71
1
 91
2
 14
-0.5
 24
-0.5
 14
368.5
 24
91.5
  0
INSERT
  5
28C
100
AcDbEntity
  8
0
100
AcDbBlockReference
 62
2
  6
CONTINUOUS
  2
SUN_FIRST_THIRD_ANGLE_BL0
 10
20.4816717061
 20
1.2289683772
  0
ACAD_TABLE
  5
28D
100
AcDbEntity
  8
0
 62
2
  6
CONTINUOUS
100
AcDbBlockReference
  2
*T1
 10
12.42375
 20
0.30125
 30
0.0
100
AcDbTable
342
       3A5
343
20F
 11
1.0
 21
0.0
 31
0.0
 90
6
 91
4
 92
6
 93
20
 94
0
 95
0
 96
0
 70
1
 41
0.0
141
0.525
141
0.1
141
0.525
141
0.1
142
4.1
142
1.1
142
0.7
142
0.5
142
0.4
142
2.475
171
1
172
0
173
0
174
0
175
1
176
1
 91
33
178
0
145
0.0
301
CELL_VALUE
 90
4
  1
T-2A Line mount\PCross pilot with shuttle
304
ACVALUE_END
170
2
140
0.125
171
1
172
0
173
0
174
0
175
1
176
1
 91
33
178
0
145
0.0
301
CELL_VALUE
 90
4
  1
Dec-03-19
304
ACVALUE_END
170
5
140
0.125
171
1
172
0
173
0
174
0
175
1
176
1
 91
33
178
0
145
0.0
301
CELL_VALUE
 90
4
  1
1.000
304
ACVALUE_END
170
5
140
0.125
171
1
172
0
173
0
174
0
175
1
176
1
 91
33
178
0
145
0.0
301
CELL_VALUE
 90
4
  1
C
304
ACVALUE_END
170
5
140
0.125
171
1
172
0
173
0
174
0
175
1
176
1
 91
33
178
0
145
0.0
301
CELL_VALUE
 90
4
  1
2
304
ACVALUE_END
170
5
140
0.125
171
1
172
0
173
0
174
0
175
1
176
1
 91
33
178
0
145
0.0
301
CELL_VALUE
 90
4
  1
 
304
ACVALUE_END
170
1
140
0.125
171
1
172
0
173
0
174
0
175
1
176
1
 91
33
178
0
145
0.0
301
CELL_VALUE
 90
4
  1
DESCRIPTION
304
ACVALUE_END
170
1
140
0.06
171
1
172
0
173
0
174
0
175
1
176
1
 91
33
178
0
145
0.0
301
CELL_VALUE
 90
4
  1
DATE
304
ACVALUE_END
170
1
140
0.06
171
1
172
0
173
0
174
0
175
1
176
1
 91
33
178
0
145
0.0
301
CELL_VALUE
 90
4
  1
SCALE
304
ACVALUE_END
170
1
140
0.06
171
1
172
0
173
0
174
0
175
1
176
1
 91
33
178
0
145
0.0
301
CELL_VALUE
 90
4
  1
DWG SIZE
304
ACVALUE_END
170
1
140
0.06
171
1
172
0
173
0
174
0
175
1
176
1
 91
33
178
0
145
0.0
301
CELL_VALUE
 90
4
  1
SHEET
304
ACVALUE_END
170
1
140
0.06
171
1
172
0
173
0
174
0
175
1
176
1
 91
33
178
0
145
0.0
301
CELL_VALUE
 90
4
  1
 
304
ACVALUE_END
170
1
140
0.125
171
1
172
0
173
0
174
0
175
1
176
1
 91
33
178
0
145
0.0
301
CELL_VALUE
 90
4
  1
YHK
304
ACVALUE_END
170
5
140
0.125
171
1
172
0
173
0
174
0
175
4
176
1
 91
33
178
0
145
0.0
301
CELL_VALUE
 90
4
  1
ALL DIMENSIONS IN INCH\PVIEWS ARE THIRD ANGLE
304
ACVALUE_END
170
5
140
0.12
171
1
172
0
173
1
174
0
175
1
176
1
 91
1
178
0
145
0.0
170
1
171
1
172
0
173
1
174
0
175
1
176
1
 91
1
178
0
145
0.0
170
1
171
1
172
0
173
1
174
0
175
1
176
1
 91
1
178
0
145
0.0
170
5
171
1
172
0
173
0
174
0
175
1
176
1
 91
33
178
0
145
0.0
301
CELL_VALUE
 90
4
  1
 
304
ACVALUE_END
170
1
140
0.125
171
1
172
0
173
0
174
0
175
1
176
1
 91
33
178
0
145
0.0
301
CELL_VALUE
 90
4
  1
MODEL
304
ACVALUE_END
170
1
140
0.06
171
1
172
0
173
0
174
0
175
1
176
1
 91
33
178
0
145
0.0
301
CELL_VALUE
 90
4
  1
 
304
ACVALUE_END
170
1
140
0.125
171
1
172
0
173
0
174
0
175
1
176
1
 91
33
178
0
145
0.0
301
CELL_VALUE
 90
4
  1
 
304
ACVALUE_END
170
1
140
0.125
171
1
172
0
173
0
174
0
175
1
176
1
 91
33
178
0
145
0.0
301
CELL_VALUE
 90
4
  1
 
304
ACVALUE_END
170
1
140
0.125
171
1
172
0
173
0
174
0
175
1
176
1
 91
33
178
0
145
0.0
301
CELL_VALUE
 90
4
  1
 
304
ACVALUE_END
170
1
140
0.125
171
1
172
0
173
0
174
0
175
1
176
1
 91
33
178
0
145
0.0
301
CELL_VALUE
 90
4
  1
 
304
ACVALUE_END
170
1
140
0.125
  0
ACAD_TABLE
  5
28E
100
AcDbEntity
  8
0
 62
2
  6
CONTINUOUS
100
AcDbBlockReference
  2
*T2
 10
12.4237499994
 20
16.47875
 30
0.0
100
AcDbTable
342
       3A4
343
210
 11
1.0
 21
0.0
 31
0.0
 90
22
 91
10
 92
3
 93
16
 94
0
 95
0
 96
0
 41
0.028
141
0.344
141
0.25
141
0.25
141
0.25
141
0.25
141
0.25
141
0.25
141
0.25
141
0.25
141
0.25
142
3.055
142
3.0
142
3.0
171
1
172
0
173
0
174
0
175
1
176
1
 91
33
178
0
145
0.0
301
CELL_VALUE
 90
4
  1
Technical Data
304
ACVALUE_END
170
5
140
0.145
171
1
172
0
173
0
174
0
175
1
176
1
 91
33
178
0
145
0.0
301
CELL_VALUE
 90
4
  1
U.S. Units
304
ACVALUE_END
170
5
140
0.145
171
1
172
0
173
0
174
0
175
1
176
1
 91
33
178
0
145
0.0
301
CELL_VALUE
 90
4
  1
Metric Units
304
ACVALUE_END
170
5
140
0.145
171
1
172
0
173
0
174
0
175
1
176
1
 91
33
178
0
145
0.0
301
CELL_VALUE
 90
4
  1
Cavity
304
ACVALUE_END
170
5
140
0.125
171
1
172
0
173
0
174
0
175
2
176
1
 91
33
178
0
145
0.0
301
CELL_VALUE
 90
4
  1
T-2A
304
ACVALUE_END
170
5
140
0.125
171
1
172
0
173
1
174
0
175
1
176
1
 91
1
178
0
145
0.0
170
1
171
1
172
0
173
0
174
0
175
1
176
1
 91
33
178
0
145
0.0
301
CELL_VALUE
 90
4
  1
Body Features
304
ACVALUE_END
170
5
140
0.125
171
1
172
0
173
0
174
0
175
2
176
1
 91
33
178
0
145
0.0
301
CELL_VALUE
 90
4
  1
Cross pilot with shuttle
304
ACVALUE_END
170
5
140
0.125
171
1
172
0
173
1
174
0
175
1
176
1
 91
1
178
0
145
0.0
170
1
171
1
172
0
173
0
174
0
175
1
176
1
 91
33
178
0
145
0.0
301
CELL_VALUE
 90
4
  1
Body Type
304
ACVALUE_END
170
5
140
0.125
171
1
172
0
173
0
174
0
175
2
176
1
 91
33
178
0
145
0.0
301
CELL_VALUE
 90
4
  1
Line mount
304
ACVALUE_END
170
5
140
0.125
171
1
172
0
173
1
174
0
175
1
176
1
 91
1
178
0
145
0.0
170
1
171
1
172
0
173
0
174
0
175
1
176
1
 91
33
178
0
145
0.0
301
CELL_VALUE
 90
4
  1
Interface
304
ACVALUE_END
170
5
140
0.125
171
1
172
0
173
0
174
0
175
2
176
1
 91
33
178
0
145
0.0
301
CELL_VALUE
 90
4
  1
None
304
ACVALUE_END
170
5
140
0.125
171
1
172
0
173
1
174
0
175
1
176
1
 91
1
178
0
145
0.0
170
1
171
1
172
0
173
0
174
0
175
1
176
1
 91
33
178
0
145
0.0
301
CELL_VALUE
 90
4
  1
Open Cavity Quantity
304
ACVALUE_END
170
5
140
0.125
171
1
172
0
173
0
174
0
175
2
176
1
 91
33
178
0
145
0.0
301
CELL_VALUE
 90
4
  1
2
304
ACVALUE_END
170
5
140
0.125
171
1
172
0
173
1
174
0
175
1
176
1
 91
1
178
0
145
0.0
170
1
171
1
172
0
173
0
174
0
175
1
176
1
 91
33
178
0
145
0.0
301
CELL_VALUE
 90
4
  1
Weight
304
ACVALUE_END
170
5
140
0.125
171
1
172
0
173
0
174
0
175
1
176
1
 91
33
178
0
145
0.0
301
CELL_VALUE
 90
4
  1
1.741 lb.
304
ACVALUE_END
170
5
140
0.125
171
1
172
0
173
0
174
0
175
1
176
1
 91
33
178
0
145
0.0
301
CELL_VALUE
 90
4
  1
0,790 kg.
304
ACVALUE_END
170
5
140
0.125
171
1
172
0
173
0
174
0
175
1
176
1
 91
33
178
0
145
0.0
301
CELL_VALUE
 90
4
  1
Mounting Hole Diameter
304
ACVALUE_END
170
5
140
0.125
171
1
172
0
173
0
174
0
175
1
176
1
 91
33
178
0
145
0.0
301
CELL_VALUE
 90
4
  1
.41 in.
304
ACVALUE_END
170
5
140
0.125
171
1
172
0
173
0
174
0
175
1
176
1
 91
33
178
0
145
0.0
301
CELL_VALUE
 90
4
  1
10,4 mm
304
ACVALUE_END
170
5
140
0.125
171
1
172
0
173
0
174
0
175
1
176
1
 91
33
178
0
145
0.0
301
CELL_VALUE
 90
4
  1
Mounting Hole Depth
304
ACVALUE_END
170
5
140
0.125
171
1
172
0
173
0
174
0
175
2
176
1
 91
33
178
0
145
0.0
301
CELL_VALUE
 90
4
  1
Through
304
ACVALUE_END
170
5
140
0.125
171
1
172
0
173
1
174
0
175
1
176
1
 91
1
178
0
145
0.0
170
1
171
1
172
0
173
0
174
0
175
1
176
1
 91
33
178
0
145
0.0
301
CELL_VALUE
 90
4
  1
Mounting Hole Quantity
304
ACVALUE_END
170
5
140
0.125
171
1
172
0
173
0
174
0
175
2
176
1
 91
33
178
0
145
0.0
301
CELL_VALUE
 90
4
  1
2
304
ACVALUE_END
170
5
140
0.125
171
1
172
0
173
1
174
0
175
1
176
1
 91
1
178
0
145
0.0
170
1
  0
ACAD_TABLE
  5
28F
100
AcDbEntity
  8
0
 62
2
  6
CONTINUOUS
100
AcDbBlockReference
  2
*T3
 10
0.52125
 20
1.709
 30
0.0
100
AcDbTable
342
       3A4
343
211
 11
1.0
 21
0.0
 31
0.0
 90
22
 91
4
 92
3
 93
16
 94
0
 95
0
 96
0
 41
0.05
141
0.34375
141
0.344
141
0.25
141
0.25
142
1.3
142
2.0
142
1.3
171
1
172
0
173
0
174
0
175
3
176
1
 91
33
178
0
145
0.0
301
CELL_VALUE
 90
4
  1
Port Headings
304
ACVALUE_END
170
5
140
0.145
171
1
172
0
173
1
174
0
175
1
176
1
 91
1
178
0
145
0.0
170
1
171
1
172
0
173
1
174
0
175
1
176
1
 91
1
178
0
145
0.0
170
1
171
1
172
0
173
0
174
0
175
1
176
1
 91
33
178
0
145
0.0
301
CELL_VALUE
 90
4
  1
Product
304
ACVALUE_END
170
5
140
0.145
171
1
172
0
173
0
174
0
175
1
176
1
 91
33
178
0
145
0.0
301
CELL_VALUE
 90
4
  1
Port
304
ACVALUE_END
170
5
140
0.145
171
1
172
0
173
0
174
0
175
1
176
1
 91
33
178
0
145
0.0
301
CELL_VALUE
 90
4
  1
Size
304
ACVALUE_END
170
5
140
0.145
171
1
172
0
173
0
174
0
175
1
176
1
 91
33
178
0
145
0.0
301
CELL_VALUE
 90
4
  1
YHK
304
ACVALUE_END
170
5
140
0.125
171
1
172
0
173
0
174
0
175
1
176
1
 91
33
178
0
145
0.0
301
CELL_VALUE
 90
4
  1
Ports C1, C2, V1, V2
304
ACVALUE_END
170
5
140
0.125
171
1
172
0
173
0
174
0
175
1
176
1
 91
33
178
0
145
0.0
301
CELL_VALUE
 90
4
  1
SAE 10
304
ACVALUE_END
170
5
140
0.125
171
1
172
0
173
0
174
0
175
1
176
1
 91
33
178
0
145
0.0
301
CELL_VALUE
 90
4
  1
YHK
304
ACVALUE_END
170
5
140
0.125
171
1
172
0
173
0
174
0
175
1
176
1
 91
33
178
0
145
0.0
301
CELL_VALUE
 90
4
  1
Port S
304
ACVALUE_END
170
5
140
0.125
171
1
172
0
173
0
174
0
175
1
176
1
 91
33
178
0
145
0.0
301
CELL_VALUE
 90
4
  1
SAE 4
304
ACVALUE_END
170
5
140
0.125
  0
MTEXT
  5
290
100
AcDbEntity
  8
0
100
AcDbMText
 62
2
  6
CONTINUOUS
  7
STANDARD
 71
1
 72
1
 10
0.52125
 20
5.75995
 30
0.0
 11
1.0
 21
0.0
 31
0.0
 44
0.6
  3
Notes\P \P1. Important: Carefully consider\P   the maximum system pressure. The\P   pressure rating of the manifold is\P   dependent on the manifold material,\P   with the port type/size a secondary\P   consideration. Manifolds\P   constructed of alu
  1
minum are not\P   rated for pressures higher than\P   3000 psi (210 bar), regardless of\P   the port type/size specified.\P2. Shuttle is accessible through\P   the V2 port.
 40
0.1
 41
3.04
  0
LINE
  5
291
100
AcDbEntity
  8
0
100
AcDbLine
 62
7
  6
CONTINUOUS
 10
0.30125
 20
0.30125
 11
0.30125
 21
16.69875
  0
LINE
  5
292
100
AcDbEntity
  8
0
100
AcDbLine
 62
7
  6
CONTINUOUS
 10
0.30125
 20
0.30125
 11
21.69875
 21
0.30125
  0
LINE
  5
293
100
AcDbEntity
  8
0
100
AcDbLine
 62
7
  6
CONTINUOUS
 10
0.30125
 20
16.69875
 11
21.69875
 21
16.69875
  0
LINE
  5
294
100
AcDbEntity
  8
0
100
AcDbLine
 62
7
  6
CONTINUOUS
 10
21.69875
 20
0.30125
 11
21.69875
 21
16.69875
  0
LINE
  5
295
100
AcDbEntity
  8
0
100
AcDbLine
 62
7
  6
CONTINUOUS
 10
8.8396697825
 20
10.4204106867
 11
8.4514415353
 21
10.045410974
  0
LINE
  5
296
100
AcDbEntity
  8
0
100
AcDbLine
 62
7
  6
CONTINUOUS
 10
8.4514415353
 20
10.045410974
 11
8.4514415353
 21
6.9061518525
  0
LINE
  5
297
100
AcDbEntity
  8
0
100
AcDbLine
 62
4
  6
CONTINUOUS
 10
8.5842563453
 20
8.5873114103
 11
8.6204785652
 21
8.7007104943
  0
LINE
  5
298
100
AcDbEntity
  8
0
100
AcDbLine
 62
4
  6
CONTINUOUS
 10
8.7001674488
 20
8.6951840514
 11
8.7001674488
 21
8.579272948
  0
LINE
  5
299
100
AcDbEntity
  8
0
100
AcDbLine
 62
4
  6
CONTINUOUS
 10
8.5480341255
 20
8.7057345332
 11
8.5842563453
 21
8.5873114103
  0
LINE
  5
29A
100
AcDbEntity
  8
0
100
AcDbLine
 62
4
  6
CONTINUOUS
 10
9.8785970827
 20
6.9520671675
 11
9.8641081947
 21
6.9627312342
  0
LINE
  5
29B
100
AcDbEntity
  8
0
100
AcDbLine
 62
7
  6
CONTINUOUS
 10
8.4514415353
 20
6.9061518525
 11
13.1603302175
 21
6.5795893133
  0
LINE
  5
29C
100
AcDbEntity
  8
0
100
AcDbLine
 62
4
  6
CONTINUOUS
 10
9.8930859706
 20
7.0669734631
 11
9.9075748585
 21
7.056309399
  0
LINE
  5
29D
100
AcDbEntity
  8
0
100
AcDbLine
 62
4
  6
CONTINUOUS
 10
9.8641081947
 20
6.9627312342
 11
9.8496193068
 21
6.9830545589
  0
LINE
  5
29E
100
AcDbEntity
  8
0
100
AcDbLine
 62
4
  6
CONTINUOUS
 10
9.9075748585
 20
7.056309399
 11
9.9148193025
 21
7.0461477319
  0
LINE
  5
29F
100
AcDbEntity
  8
0
100
AcDbLine
 62
4
  6
CONTINUOUS
 10
11.7090265118
 20
6.8251264554
 11
11.6945376239
 21
6.8261312632
  0
LINE
  5
2A0
100
AcDbEntity
  8
0
100
AcDbLine
 62
4
  6
CONTINUOUS
 10
9.8930859706
 20
6.9510623597
 11
9.8785970827
 21
6.9520671675
  0
LINE
  5
2A1
100
AcDbEntity
  8
0
100
AcDbLine
 62
4
  6
CONTINUOUS
 10
11.7887153955
 20
6.8196000125
 11
11.8466709472
 21
6.8155807814
  0
LINE
  5
2A2
100
AcDbEntity
  8
0
100
AcDbLine
 62
4
  6
CONTINUOUS
 10
9.8785970827
 20
7.0679782709
 11
9.8930859706
 21
7.0669734631
  0
LINE
  5
2A3
100
AcDbEntity
  8
0
100
AcDbLine
 62
4
  6
CONTINUOUS
 10
11.6945376239
 20
6.9420423666
 11
11.7090265118
 21
6.9410375588
  0
LINE
  5
2A4
100
AcDbEntity
  8
0
100
AcDbLine
 62
4
  6
CONTINUOUS
 10
11.8104487274
 20
6.9340039043
 11
11.8249376153
 21
6.9329990965
  0
LINE
  5
2A5
100
AcDbEntity
  8
0
100
AcDbLine
 62
4
  6
CONTINUOUS
 10
9.8496193068
 20
6.9830545589
 11
9.8423748628
 21
7.0125347386
  0
LINE
  5
2A6
100
AcDbEntity
  8
0
100
AcDbLine
 62
7
  6
CONTINUOUS
 10
10.705875586
 20
10.0900271581
 11
10.7042963903
 21
10.0885303014
  0
LINE
  5
2A7
100
AcDbEntity
  8
0
100
AcDbLine
 62
4
  6
CONTINUOUS
 10
10.2660023811
 20
9.6228936084
 11
10.2825611109
 21
9.6383039847
  0
LINE
  5
2A8
100
AcDbEntity
  8
0
100
AcDbLine
 62
4
  6
CONTINUOUS
 10
10.3073992048
 20
9.5206703536
 11
10.3239579329
 21
9.5360807317
  0
LINE
  5
2A9
100
AcDbEntity
  8
0
100
AcDbLine
 62
4
  6
CONTINUOUS
 10
10.3984722196
 20
9.5143544186
 11
10.4150309407
 21
9.5297647972
  0
LINE
  5
2AA
100
AcDbEntity
  8
0
100
AcDbLine
 62
4
  6
CONTINUOUS
 10
10.7848425689
 20
9.5620738236
 11
10.8014012901
 21
9.5692048399
  0
LINE
  5
2AB
100
AcDbEntity
  8
0
100
AcDbLine
 62
4
  6
CONTINUOUS
 10
10.00175263
 20
7.0594374047
 11
10.00175263
 21
6.9435263012
  0
LINE
  5
2AC
100
AcDbEntity
  8
0
100
AcDbLine
 62
4
  6
CONTINUOUS
 10
10.9421505029
 20
9.5097676612
 11
10.9587092241
 21
9.516898674
  0
LINE
  5
2AD
100
AcDbEntity
  8
0
100
AcDbLine
 62
4
  6
CONTINUOUS
 10
11.6945376239
 20
6.8261312632
 11
11.680048736
 21
6.8367953299
  0
LINE
  5
2AE
100
AcDbEntity
  8
0
100
AcDbLine
 62
4
  6
CONTINUOUS
 10
11.7090265118
 20
6.9410375588
 11
11.7235153998
 21
6.9303734947
  0
LINE
  5
2AF
100
AcDbEntity
  8
0
100
AcDbLine
 62
4
  6
CONTINUOUS
 10
10.2660023811
 20
9.6063348804
 11
10.2660023811
 21
9.6228936084
  0
LINE
  5
2B0
100
AcDbEntity
  8
0
100
AcDbLine
 62
4
  6
CONTINUOUS
 10
10.3239579329
 20
9.5360807317
 11
10.3239579329
 21
9.5526394615
  0
LINE
  5
2B1
100
AcDbEntity
  8
0
100
AcDbLine
 62
4
  6
CONTINUOUS
 10
10.357075389
 20
9.633136402
 11
10.357075389
 21
9.5337840283
  0
LINE
  5
2B2
100
AcDbEntity
  8
0
100
AcDbLine
 62
4
  6
CONTINUOUS
 10
9.8423748628
 20
7.0125347386
 11
9.8496193068
 21
7.0410101106
  0
LINE
  5
2B3
100
AcDbEntity
  8
0
100
AcDbLine
 62
4
  6
CONTINUOUS
 10
10.7172277714
 20
9.2223413652
 11
10.750345231
 21
9.2697208458
  0
LINE
  5
2B4
100
AcDbEntity
  8
0
100
AcDbLine
 62
4
  6
CONTINUOUS
 10
10.4509081943
 20
8.9361300737
 11
10.4343494662
 21
8.9207196956
  0
LINE
  5
2B5
100
AcDbEntity
  8
0
100
AcDbLine
 62
4
  6
CONTINUOUS
 10
10.3708743419
 20
8.9968762056
 11
10.3267177303
 21
8.9778601695
  0
LINE
  5
2B6
100
AcDbEntity
  8
0
100
AcDbLine
 62
4
  6
CONTINUOUS
 10
10.8131304121
 20
7.8048866676
 11
10.7986415242
 21
7.8058914753
  0
LINE
  5
2B7
100
AcDbEntity
  8
0
100
AcDbLine
 62
4
  6
CONTINUOUS
 10
11.8249376153
 20
6.9329990965
 11
11.8394265032
 21
6.9223350324
  0
LINE
  5
2B8
100
AcDbEntity
  8
0
100
AcDbLine
 62
4
  6
CONTINUOUS
 10
10.7986415242
 20
7.8058914753
 11
10.7841526362
 21
7.816555542
  0
LINE
  5
2B9
100
AcDbEntity
  8
0
100
AcDbLine
 62
4
  6
CONTINUOUS
 10
10.7841526362
 20
7.8841703544
 11
10.8276193
 21
7.8521781517
  0
LINE
  5
2BA
100
AcDbEntity
  8
0
100
AcDbLine
 62
4
  6
CONTINUOUS
 10
10.3929526495
 20
8.9235905746
 11
10.3929526495
 21
9.039501678
  0
LINE
  5
2BB
100
AcDbEntity
  8
0
100
AcDbLine
 62
4
  6
CONTINUOUS
 10
10.4150309407
 20
9.5297647972
 11
10.4150309407
 21
9.6291171708
  0
LINE
  5
2BC
100
AcDbEntity
  8
0
100
AcDbLine
 62
4
  6
CONTINUOUS
 10
10.4481483969
 20
9.510909364
 11
10.4481483969
 21
9.6268204674
  0
LINE
  5
2BD
100
AcDbEntity
  8
0
100
AcDbLine
 62
4
  6
CONTINUOUS
 10
10.4509081943
 20
9.0189237192
 11
10.4509081943
 21
8.9361300737
  0
LINE
  5
2BE
100
AcDbEntity
  8
0
100
AcDbLine
 62
4
  6
CONTINUOUS
 10
10.5061039486
 20
9.5068901328
 11
10.5061039486
 21
9.6228012363
  0
LINE
  5
2BF
100
AcDbEntity
  8
0
100
AcDbLine
 62
4
  6
CONTINUOUS
 10
10.497824594
 20
8.9163176805
 11
10.5309420501
 21
9.0299320806
  0
LINE
  5
2C0
100
AcDbEntity
  8
0
100
AcDbLine
 62
4
  6
CONTINUOUS
 10
10.7296467949
 20
9.4637895019
 11
10.7627642372
 21
9.5718843286
  0
LINE
  5
2C1
100
AcDbEntity
  8
0
100
AcDbLine
 62
4
  6
CONTINUOUS
 10
10.8745357019
 20
9.1838341396
 11
10.9324912398
 21
9.2570889772
  0
LINE
  5
2C2
100
AcDbEntity
  8
0
100
AcDbLine
 62
4
  6
CONTINUOUS
 10
11.2264086509
 20
9.5314511118
 11
11.2346879839
 21
9.5391563056
  0
LINE
  5
2C3
100
AcDbEntity
  8
0
100
AcDbLine
 62
4
  6
CONTINUOUS
 10
11.3009229791
 20
9.5262835256
 11
11.309202312
 21
9.5339887194
  0
LINE
  5
2C4
100
AcDbEntity
  8
0
100
AcDbLine
 62
4
  6
CONTINUOUS
 10
11.3423197544
 20
9.4488983697
 11
11.3505990873
 21
9.4566035609
  0
LINE
  5
2C5
100
AcDbEntity
  8
0
100
AcDbLine
 62
4
  6
CONTINUOUS
 10
10.8703960275
 20
8.9898321392
 11
10.8869547486
 21
9.0052425161
  0
LINE
  5
2C6
100
AcDbEntity
  8
0
100
AcDbLine
 62
4
  6
CONTINUOUS
 10
10.8131304121
 20
7.920797771
 11
10.7986415242
 21
7.9218025788
  0
LINE
  5
2C7
100
AcDbEntity
  8
0
100
AcDbLine
 62
4
  6
CONTINUOUS
 10
10.8276193
 20
7.9101337069
 11
10.8131304121
 21
7.920797771
  0
LINE
  5
2C8
100
AcDbEntity
  8
0
100
AcDbLine
 62
4
  6
CONTINUOUS
 10
10.7841526362
 20
7.816555542
 11
10.7696637483
 21
7.8368788668
  0
LINE
  5
2C9
100
AcDbEntity
  8
0
100
AcDbLine
 62
4
  6
CONTINUOUS
 10
10.7769081923
 20
7.8943320146
 11
10.7841526362
 21
7.8841703544
  0
LINE
  5
2CA
100
AcDbEntity
  8
0
100
AcDbLine
 62
4
  6
CONTINUOUS
 10
10.8276193
 20
7.8521781517
 11
10.834863744
 21
7.8420164915
  0
LINE
  5
2CB
100
AcDbEntity
  8
0
100
AcDbLine
 62
4
  6
CONTINUOUS
 10
10.834863744
 20
7.8999720398
 11
10.8276193
 21
7.9101337069
  0
LINE
  5
2CC
100
AcDbEntity
  8
0
100
AcDbLine
 62
4
  6
CONTINUOUS
 10
11.680048736
 20
6.8367953299
 11
11.6655598481
 21
6.8571186546
  0
LINE
  5
2CD
100
AcDbEntity
  8
0
100
AcDbLine
 62
4
  6
CONTINUOUS
 10
10.6302944126
 20
9.4982774949
 11
10.6302944126
 21
9.6141885983
  0
LINE
  5
2CE
100
AcDbEntity
  8
0
100
AcDbLine
 62
4
  6
CONTINUOUS
 10
10.6302944324
 20
8.907130866
 11
10.6302944324
 21
9.0230419695
  0
LINE
  5
2CF
100
AcDbEntity
  8
0
100
AcDbLine
 62
4
  6
CONTINUOUS
 10
10.6799706037
 20
9.5693467191
 11
10.6799706037
 21
9.4948324393
  0
LINE
  5
2D0
100
AcDbEntity
  8
0
100
AcDbLine
 62
4
  6
CONTINUOUS
 10
10.6965293447
 20
8.9025374593
 11
10.6965293447
 21
9.0184485627
  0
LINE
  5
2D1
100
AcDbEntity
  8
0
100
AcDbLine
 62
4
  6
CONTINUOUS
 10
10.7172277714
 20
9.2223413652
 11
10.7172277714
 21
9.156106446
  0
LINE
  5
2D2
100
AcDbEntity
  8
0
100
AcDbLine
 62
4
  6
CONTINUOUS
 10
10.7769081923
 20
7.9039912709
 11
10.7769081923
 21
7.8943320146
  0
LINE
  5
2D3
100
AcDbEntity
  8
0
100
AcDbLine
 62
4
  6
CONTINUOUS
 10
10.7834626872
 20
9.151513039
 11
10.7834626872
 21
9.2674241425
  0
LINE
  5
2D4
100
AcDbEntity
  8
0
100
AcDbLine
 62
4
  6
CONTINUOUS
 10
10.7848425689
 20
9.4958389088
 11
10.7848425689
 21
9.5620738236
  0
LINE
  5
2D5
100
AcDbEntity
  8
0
100
AcDbLine
 62
4
  6
CONTINUOUS
 10
10.9669885768
 20
8.9831334232
 11
10.983547298
 21
8.9985438
  0
LINE
  5
2D6
100
AcDbEntity
  8
0
100
AcDbLine
 62
4
  6
CONTINUOUS
 10
11.0249441285
 20
8.8963205464
 11
11.0083854074
 21
8.8809101678
  0
LINE
  5
2D7
100
AcDbEntity
  8
0
100
AcDbLine
 62
4
  6
CONTINUOUS
 10
11.1160171226
 20
8.8900046128
 11
11.0994584014
 21
8.8745942343
  0
LINE
  5
2D8
100
AcDbEntity
  8
0
100
AcDbLine
 62
4
  6
CONTINUOUS
 10
11.2898837777
 20
8.9110643772
 11
11.2457271695
 21
8.8920483426
  0
LINE
  5
2D9
100
AcDbEntity
  8
0
100
AcDbLine
 62
4
  6
CONTINUOUS
 10
11.7235153998
 20
6.9303734947
 11
11.7307598437
 21
6.9202118276
  0
LINE
  5
2DA
100
AcDbEntity
  8
0
100
AcDbLine
 62
4
  6
CONTINUOUS
 10
11.8394265032
 20
6.9223350324
 11
11.8466709472
 21
6.9121733653
  0
LINE
  5
2DB
100
AcDbEntity
  8
0
100
AcDbLine
 62
4
  6
CONTINUOUS
 10
10.5309420501
 20
9.0299320806
 11
10.5640595201
 21
8.9117242728
  0
LINE
  5
2DC
100
AcDbEntity
  8
0
100
AcDbLine
 62
4
  6
CONTINUOUS
 10
10.8345187324
 20
9.6000255936
 11
10.8345187324
 21
9.4841144902
  0
LINE
  5
2DD
100
AcDbEntity
  8
0
100
AcDbLine
 62
4
  6
CONTINUOUS
 10
10.834863744
 20
7.8420164915
 11
10.834863744
 21
7.8226979737
  0
LINE
  5
2DE
100
AcDbEntity
  8
0
100
AcDbLine
 62
4
  6
CONTINUOUS
 10
10.841418232
 20
9.2634049118
 11
10.841418232
 21
9.1474938083
  0
LINE
  5
2DF
100
AcDbEntity
  8
0
100
AcDbLine
 62
4
  6
CONTINUOUS
 10
10.86763623
 20
9.481817784
 11
10.86763623
 21
9.5646114312
  0
LINE
  5
2E0
100
AcDbEntity
  8
0
100
AcDbLine
 62
4
  6
CONTINUOUS
 10
10.8703960275
 20
8.9070384936
 11
10.8703960275
 21
8.9898321392
  0
LINE
  5
2E1
100
AcDbEntity
  8
0
100
AcDbLine
 62
4
  6
CONTINUOUS
 10
10.8745357019
 20
9.145197104
 11
10.8745357019
 21
9.2611082074
  0
LINE
  5
2E2
100
AcDbEntity
  8
0
100
AcDbLine
 62
4
  6
CONTINUOUS
 10
10.9062732277
 20
9.5536525789
 11
10.9062732277
 21
9.5370938508
  0
LINE
  5
2E3
100
AcDbEntity
  8
0
100
AcDbLine
 62
4
  6
CONTINUOUS
 10
10.9421505029
 20
9.4849295665
 11
10.9421505029
 21
9.5097676612
  0
LINE
  5
2E4
100
AcDbEntity
  8
0
100
AcDbLine
 62
4
  6
CONTINUOUS
 10
10.9669885768
 20
8.9003397776
 11
10.9669885768
 21
8.9831334232
  0
LINE
  5
2E5
100
AcDbEntity
  8
0
100
AcDbLine
 62
4
  6
CONTINUOUS
 10
10.9918266664
 20
9.4732051479
 11
10.9918266664
 21
9.5394400671
  0
LINE
  5
2E6
100
AcDbEntity
  8
0
100
AcDbLine
 62
4
  6
CONTINUOUS
 10
11.0249441088
 20
9.5537020928
 11
11.0249441088
 21
9.4791878104
  0
LINE
  5
2E7
100
AcDbEntity
  8
0
100
AcDbLine
 62
4
  6
CONTINUOUS
 10
11.0249441285
 20
8.979114192
 11
11.0249441285
 21
8.8963205464
  0
LINE
  5
2E8
100
AcDbEntity
  8
0
100
AcDbLine
 62
4
  6
CONTINUOUS
 10
11.1850118204
 20
9.5757188154
 11
11.1822520427
 21
9.5676308392
  0
LINE
  5
2E9
100
AcDbEntity
  8
0
100
AcDbLine
 62
4
  6
CONTINUOUS
 10
9.8496193068
 20
7.0410101106
 11
9.8641081947
 21
7.0593238224
  0
LINE
  5
2EA
100
AcDbEntity
  8
0
100
AcDbLine
 62
7
  6
CONTINUOUS
 10
12.5169866176
 20
9.9644261815
 11
12.5154074219
 21
9.9629293247
  0
LINE
  5
2EB
100
AcDbEntity
  8
0
100
AcDbLine
 62
4
  6
CONTINUOUS
 10
12.998537556
 20
8.2811799686
 11
13.0564931077
 21
8.2771607375
  0
LINE
  5
2EC
100
AcDbEntity
  8
0
100
AcDbLine
 62
4
  6
CONTINUOUS
 10
10.4343494662
 20
9.036630799
 11
10.4509081943
 21
9.0189237192
  0
LINE
  5
2ED
100
AcDbEntity
  8
0
100
AcDbLine
 62
4
  6
CONTINUOUS
 10
10.4481483969
 20
9.6268204674
 11
10.5061039486
 21
9.5068901328
  0
LINE
  5
2EE
100
AcDbEntity
  8
0
100
AcDbLine
 62
4
  6
CONTINUOUS
 10
10.7130880737
 20
9.5753293823
 11
10.7379261831
 21
9.4908132063
  0
LINE
  5
2EF
100
AcDbEntity
  8
0
100
AcDbLine
 62
4
  6
CONTINUOUS
 10
11.0580615709
 20
8.8774651142
 11
11.0580615709
 21
8.9933762176
  0
LINE
  5
2F0
100
AcDbEntity
  8
0
100
AcDbLine
 62
4
  6
CONTINUOUS
 10
11.0746203275
 20
9.467463388
 11
11.0746203275
 21
9.5502570353
  0
LINE
  5
2F1
100
AcDbEntity
  8
0
100
AcDbLine
 62
4
  6
CONTINUOUS
 10
11.1077377699
 20
9.4734460505
 11
11.1077377699
 21
9.581077789
  0
LINE
  5
2F2
100
AcDbEntity
  8
0
100
AcDbLine
 62
4
  6
CONTINUOUS
 10
11.1160171226
 20
8.9727982584
 11
11.1160171226
 21
8.8900046128
  0
LINE
  5
2F3
100
AcDbEntity
  8
0
100
AcDbLine
 62
4
  6
CONTINUOUS
 10
11.1629335637
 20
8.8701922168
 11
11.1629335637
 21
8.9861033202
  0
LINE
  5
2F4
100
AcDbEntity
  8
0
100
AcDbLine
 62
4
  6
CONTINUOUS
 10
11.1822520427
 20
9.4599991032
 11
11.1822520427
 21
9.5427927505
  0
LINE
  5
2F5
100
AcDbEntity
  8
0
100
AcDbLine
 62
4
  6
CONTINUOUS
 10
11.1822520427
 20
9.5676308392
 11
11.1822520427
 21
9.5759102067
  0
LINE
  5
2F6
100
AcDbEntity
  8
0
100
AcDbLine
 62
4
  6
CONTINUOUS
 10
11.2264086509
 20
9.465216197
 11
11.2264086509
 21
9.5314511118
  0
LINE
  5
2F7
100
AcDbEntity
  8
0
100
AcDbLine
 62
4
  6
CONTINUOUS
 10
9.9148193025
 20
6.9688736658
 11
9.9075748585
 21
6.9597168108
  0
LINE
  5
2F8
100
AcDbEntity
  8
0
100
AcDbLine
 62
4
  6
CONTINUOUS
 10
10.7841526362
 20
7.9131481302
 11
10.7769081923
 21
7.9039912709
  0
LINE
  5
2F9
100
AcDbEntity
  8
0
100
AcDbLine
 62
4
  6
CONTINUOUS
 10
13.0202708879
 20
8.3955838604
 11
13.0347597758
 21
8.3945790526
  0
LINE
  5
2FA
100
AcDbEntity
  8
0
100
AcDbLine
 62
4
  6
CONTINUOUS
 10
10.3267177303
 20
8.9778601695
 11
10.3708743419
 21
8.9527195922
  0
LINE
  5
2FB
100
AcDbEntity
  8
0
100
AcDbLine
 62
4
  6
CONTINUOUS
 10
10.2660023811
 20
9.531820598
 11
10.274281746
 21
9.5229670572
  0
LINE
  5
2FC
100
AcDbEntity
  8
0
100
AcDbLine
 62
4
  6
CONTINUOUS
 10
10.8869547486
 20
8.8893314126
 11
10.8703960275
 21
8.9070384936
  0
LINE
  5
2FD
100
AcDbEntity
  8
0
100
AcDbLine
 62
4
  6
CONTINUOUS
 10
10.357075389
 20
9.5337840283
 11
10.3736341171
 21
9.5160769468
  0
LINE
  5
2FE
100
AcDbEntity
  8
0
100
AcDbLine
 62
4
  6
CONTINUOUS
 10
10.6841103118
 20
9.2743142531
 11
10.7172277714
 21
9.2223413652
  0
LINE
  5
2FF
100
AcDbEntity
  8
0
100
AcDbLine
 62
4
  6
CONTINUOUS
 10
10.8993737837
 20
9.2097094964
 11
10.9324912398
 21
9.1411778738
  0
LINE
  5
300
100
AcDbEntity
  8
0
100
AcDbLine
 62
4
  6
CONTINUOUS
 10
11.3009229791
 20
9.5014454335
 11
11.3009229791
 21
9.5262835256
  0
LINE
  5
301
100
AcDbEntity
  8
0
100
AcDbLine
 62
4
  6
CONTINUOUS
 10
11.3505990873
 20
9.4566035609
 11
11.3505990873
 21
9.4814416556
  0
LINE
  5
302
100
AcDbEntity
  8
0
100
AcDbLine
 62
4
  6
CONTINUOUS
 10
10.834863744
 20
7.8226979737
 11
10.8276193
 21
7.8135411187
  0
LINE
  5
303
100
AcDbEntity
  8
0
100
AcDbLine
 62
4
  6
CONTINUOUS
 10
10.7986415242
 20
7.9218025788
 11
10.7841526362
 21
7.9131481302
  0
LINE
  5
304
100
AcDbEntity
  8
0
100
AcDbLine
 62
4
  6
CONTINUOUS
 10
11.0994584014
 20
8.8745942343
 11
11.0580615709
 21
8.8774651142
  0
LINE
  5
305
100
AcDbEntity
  8
0
100
AcDbLine
 62
4
  6
CONTINUOUS
 10
11.0083854074
 20
8.8809101678
 11
10.983547298
 21
8.8826326966
  0
LINE
  5
306
100
AcDbEntity
  8
0
100
AcDbLine
 62
4
  6
CONTINUOUS
 10
10.920072191
 20
8.8870347102
 11
10.8869547486
 21
8.8893314126
  0
LINE
  5
307
100
AcDbEntity
  8
0
100
AcDbLine
 62
4
  6
CONTINUOUS
 10
10.4343494662
 20
8.9207196956
 11
10.3929526495
 21
8.9235905746
  0
LINE
  5
308
100
AcDbEntity
  8
0
100
AcDbLine
 62
4
  6
CONTINUOUS
 10
10.6965293447
 20
8.9025374593
 11
10.7462055358
 21
8.8990924037
  0
LINE
  5
309
100
AcDbEntity
  8
0
100
AcDbLine
 62
4
  6
CONTINUOUS
 10
11.1629335637
 20
8.8701922168
 11
11.2126097272
 21
8.8667471632
  0
LINE
  5
30A
100
AcDbEntity
  8
0
100
AcDbLine
 62
4
  6
CONTINUOUS
 10
10.508863746
 20
8.9486695723
 11
10.5530203542
 21
8.9456073011
  0
LINE
  5
30B
100
AcDbEntity
  8
0
100
AcDbLine
 62
4
  6
CONTINUOUS
 10
11.196051006
 20
8.9341304336
 11
11.1629335637
 21
8.936427136
  0
LINE
  5
30C
100
AcDbEntity
  8
0
100
AcDbLine
 62
4
  6
CONTINUOUS
 10
10.7296468147
 20
8.9664756741
 11
10.6965293447
 21
8.9687723785
  0
LINE
  5
30D
100
AcDbEntity
  8
0
100
AcDbLine
 62
4
  6
CONTINUOUS
 10
10.3239579329
 20
9.5526394615
 11
10.2660023811
 21
9.6063348804
  0
LINE
  5
30E
100
AcDbEntity
  8
0
100
AcDbLine
 62
4
  6
CONTINUOUS
 10
10.983547298
 20
8.8826326966
 11
10.9669885768
 21
8.9003397776
  0
LINE
  5
30F
100
AcDbEntity
  8
0
100
AcDbLine
 62
4
  6
CONTINUOUS
 10
10.3156785688
 20
9.6360072812
 11
10.3239579329
 21
9.6271537379
  0
LINE
  5
310
100
AcDbEntity
  8
0
100
AcDbLine
 62
4
  6
CONTINUOUS
 10
11.0083854074
 20
8.9968212713
 11
11.0249441285
 21
8.979114192
  0
LINE
  5
311
100
AcDbEntity
  8
0
100
AcDbLine
 62
4
  6
CONTINUOUS
 10
11.0994584014
 20
8.9905053377
 11
11.1160171226
 21
8.9727982584
  0
LINE
  5
312
100
AcDbEntity
  8
0
100
AcDbLine
 62
4
  6
CONTINUOUS
 10
10.9918266664
 20
9.5394400671
 11
10.9835473335
 21
9.5565729689
  0
LINE
  5
313
100
AcDbEntity
  8
0
100
AcDbLine
 62
4
  6
CONTINUOUS
 10
11.6655598481
 20
6.8571186546
 11
11.6583154041
 21
6.8865988344
  0
LINE
  5
314
100
AcDbEntity
  8
0
100
AcDbLine
 62
7
  6
CONTINUOUS
 10
13.5485584647
 20
10.0938481475
 11
13.1603302175
 21
9.7188484347
  0
LINE
  5
315
100
AcDbEntity
  8
0
100
AcDbLine
 62
4
  6
CONTINUOUS
 10
10.8276193
 20
7.8135411187
 11
10.8131304121
 21
7.8048866676
  0
LINE
  5
316
100
AcDbEntity
  8
0
100
AcDbLine
 62
4
  6
CONTINUOUS
 10
9.8641081947
 20
7.0593238224
 11
9.8785970827
 21
7.0679782709
  0
LINE
  5
317
100
AcDbEntity
  8
0
100
AcDbLine
 62
4
  6
CONTINUOUS
 10
10.3929526495
 20
9.039501678
 11
10.4343494662
 21
9.036630799
  0
LINE
  5
318
100
AcDbEntity
  8
0
100
AcDbLine
 62
4
  6
CONTINUOUS
 10
10.5971769624
 20
9.0253386738
 11
10.6634118747
 21
9.020745267
  0
LINE
  5
319
100
AcDbEntity
  8
0
100
AcDbLine
 62
4
  6
CONTINUOUS
 10
10.6965293447
 20
9.0184485627
 11
10.7462055358
 21
9.0150035071
  0
LINE
  5
31A
100
AcDbEntity
  8
0
100
AcDbLine
 62
4
  6
CONTINUOUS
 10
10.8869547486
 20
9.0052425161
 11
10.920072191
 21
9.0029458136
  0
LINE
  5
31B
100
AcDbEntity
  8
0
100
AcDbLine
 62
4
  6
CONTINUOUS
 10
10.983547298
 20
8.9985438
 11
11.0083854074
 21
8.9968212713
  0
LINE
  5
31C
100
AcDbEntity
  8
0
100
AcDbLine
 62
4
  6
CONTINUOUS
 10
11.0580615709
 20
8.9933762176
 11
11.0994584014
 21
8.9905053377
  0
LINE
  5
31D
100
AcDbEntity
  8
0
100
AcDbLine
 62
4
  6
CONTINUOUS
 10
11.1629335637
 20
8.9861033202
 11
11.2126097272
 21
8.9826582666
  0
LINE
  5
31E
100
AcDbEntity
  8
0
100
AcDbLine
 62
4
  6
CONTINUOUS
 10
11.2457271695
 20
8.936204956
 11
11.2898837777
 21
8.9110643772
  0
LINE
  5
31F
100
AcDbEntity
  8
0
100
AcDbLine
 62
4
  6
CONTINUOUS
 10
10.6716912432
 20
9.5782002622
 11
10.6799706037
 21
9.5693467191
  0
LINE
  5
320
100
AcDbEntity
  8
0
100
AcDbLine
 62
4
  6
CONTINUOUS
 10
10.9007536724
 20
9.5623147288
 11
10.9062732277
 21
9.5536525789
  0
LINE
  5
321
100
AcDbEntity
  8
0
100
AcDbLine
 62
4
  6
CONTINUOUS
 10
11.8466709472
 20
6.9121733653
 11
11.8466709472
 21
6.8928548526
  0
LINE
  5
322
100
AcDbEntity
  8
0
100
AcDbLine
 62
4
  6
CONTINUOUS
 10
9.9075748585
 20
6.9597168108
 11
9.8930859706
 21
6.9510623597
  0
LINE
  5
323
100
AcDbEntity
  8
0
100
AcDbLine
 62
4
  6
CONTINUOUS
 10
10.7834626872
 20
9.2177479582
 11
10.841418232
 21
9.2137287275
  0
LINE
  5
324
100
AcDbEntity
  8
0
100
AcDbLine
 62
4
  6
CONTINUOUS
 10
10.8014012901
 20
9.4864111926
 11
10.7848425689
 21
9.4958389088
  0
LINE
  5
325
100
AcDbEntity
  8
0
100
AcDbLine
 62
4
  6
CONTINUOUS
 10
10.9587092241
 20
9.4755018504
 11
10.9421505029
 21
9.4849295665
  0
LINE
  5
326
100
AcDbEntity
  8
0
100
AcDbLine
 62
4
  6
CONTINUOUS
 10
11.0249441088
 20
9.4791878104
 11
11.033223497
 21
9.470334268
  0
LINE
  5
327
100
AcDbEntity
  8
0
100
AcDbLine
 62
4
  6
CONTINUOUS
 10
11.1160171581
 20
9.4645925081
 11
11.1077377699
 21
9.4734460505
  0
LINE
  5
328
100
AcDbEntity
  8
0
100
AcDbLine
 62
4
  6
CONTINUOUS
 10
11.2346879839
 20
9.4563626584
 11
11.2264086509
 21
9.465216197
  0
LINE
  5
329
100
AcDbEntity
  8
0
100
AcDbLine
 62
4
  6
CONTINUOUS
 10
11.3009229791
 20
9.4600486107
 11
11.309202312
 21
9.4511950722
  0
LINE
  5
32A
100
AcDbEntity
  8
0
100
AcDbLine
 62
4
  6
CONTINUOUS
 10
11.6583154041
 20
6.8865988344
 11
11.6655598481
 21
6.9150742063
  0
LINE
  5
32B
100
AcDbEntity
  8
0
100
AcDbLine
 62
4
  6
CONTINUOUS
 10
10.7130880737
 20
9.4649378531
 11
10.7296467949
 21
9.4637895019
  0
LINE
  5
32C
100
AcDbEntity
  8
0
100
AcDbLine
 62
4
  6
CONTINUOUS
 10
11.2678055368
 20
9.4540659483
 11
11.2346879839
 21
9.4563626584
  0
LINE
  5
32D
100
AcDbEntity
  8
0
100
AcDbLine
 62
4
  6
CONTINUOUS
 10
11.1325758792
 20
9.4634441569
 11
11.1160171581
 21
9.4645925081
  0
LINE
  5
32E
100
AcDbEntity
  8
0
100
AcDbLine
 62
4
  6
CONTINUOUS
 10
10.9918266664
 20
9.4732051479
 11
10.9587092241
 21
9.4755018504
  0
LINE
  5
32F
100
AcDbEntity
  8
0
100
AcDbLine
 62
4
  6
CONTINUOUS
 10
10.8345187324
 20
9.4841144902
 11
10.8014012901
 21
9.4864111926
  0
LINE
  5
330
100
AcDbEntity
  8
0
100
AcDbLine
 62
4
  6
CONTINUOUS
 10
10.274281746
 20
9.5229670572
 11
10.3073992048
 21
9.5206703536
  0
LINE
  5
331
100
AcDbEntity
  8
0
100
AcDbLine
 62
4
  6
CONTINUOUS
 10
10.3736341171
 20
9.5160769468
 11
10.3984722196
 21
9.5143544186
  0
LINE
  5
332
100
AcDbEntity
  8
0
100
AcDbLine
 62
4
  6
CONTINUOUS
 10
11.033223497
 20
9.470334268
 11
11.0746203275
 21
9.467463388
  0
LINE
  5
333
100
AcDbEntity
  8
0
100
AcDbLine
 62
4
  6
CONTINUOUS
 10
11.309202312
 20
9.4511950722
 11
11.3423197544
 21
9.4488983697
  0
LINE
  5
334
100
AcDbEntity
  8
0
100
AcDbLine
 62
4
  6
CONTINUOUS
 10
10.9587092241
 20
9.516898674
 11
10.9918266664
 21
9.5146019716
  0
LINE
  5
335
100
AcDbEntity
  8
0
100
AcDbLine
 62
4
  6
CONTINUOUS
 10
10.9835473335
 20
9.5565729689
 11
10.9421505029
 21
9.5594438489
  0
LINE
  5
336
100
AcDbEntity
  8
0
100
AcDbLine
 62
4
  6
CONTINUOUS
 10
10.6302944126
 20
9.5810711422
 11
10.6716912432
 21
9.5782002622
  0
LINE
  5
337
100
AcDbEntity
  8
0
100
AcDbLine
 62
4
  6
CONTINUOUS
 10
10.8014012901
 20
9.5692048399
 11
10.8345187324
 21
9.5669081375
  0
LINE
  5
338
100
AcDbEntity
  8
0
100
AcDbLine
 62
4
  6
CONTINUOUS
 10
10.86763623
 20
9.5646114312
 11
10.9007536724
 21
9.5623147288
  0
LINE
  5
339
100
AcDbEntity
  8
0
100
AcDbLine
 62
4
  6
CONTINUOUS
 10
11.2346879839
 20
9.5391563056
 11
11.2678055368
 21
9.5368595956
  0
LINE
  5
33A
100
AcDbEntity
  8
0
100
AcDbLine
 62
4
  6
CONTINUOUS
 10
11.309202312
 20
9.5339887194
 11
11.3423197544
 21
9.531692017
  0
LINE
  5
33B
100
AcDbEntity
  8
0
100
AcDbLine
 62
4
  6
CONTINUOUS
 10
10.2825611109
 20
9.6383039847
 11
10.3156785688
 21
9.6360072812
  0
LINE
  5
33C
100
AcDbEntity
  8
0
100
AcDbLine
 62
4
  6
CONTINUOUS
 10
11.1822520427
 20
9.5759102067
 11
11.1850118204
 21
9.5757188154
  0
LINE
  5
33D
100
AcDbEntity
  8
0
100
AcDbLine
 62
4
  6
CONTINUOUS
 10
11.3423197544
 20
9.4875354054
 11
11.309202312
 21
9.4953516838
  0
LINE
  5
33E
100
AcDbEntity
  8
0
100
AcDbLine
 62
4
  6
CONTINUOUS
 10
11.309202312
 20
9.4953516838
 11
11.3009229791
 21
9.5014454335
  0
LINE
  5
33F
100
AcDbEntity
  8
0
100
AcDbLine
 62
4
  6
CONTINUOUS
 10
11.3505990873
 20
9.4814416556
 11
11.3423197544
 21
9.4875354054
  0
LINE
  5
340
100
AcDbEntity
  8
0
100
AcDbLine
 62
4
  6
CONTINUOUS
 10
11.3423197544
 20
9.531692017
 11
11.3505990873
 21
9.5228384758
  0
LINE
  5
341
100
AcDbEntity
  8
0
100
AcDbLine
 62
4
  6
CONTINUOUS
 10
11.7959598394
 20
6.8480753845
 11
11.7887153955
 21
6.8196000125
  0
LINE
  5
342
100
AcDbEntity
  8
0
100
AcDbLine
 62
4
  6
CONTINUOUS
 10
13.0057819999
 20
8.3869294118
 11
13.0202708879
 21
8.3955838604
  0
LINE
  5
343
100
AcDbEntity
  8
0
100
AcDbLine
 62
4
  6
CONTINUOUS
 10
13.0492486637
 20
8.3452779494
 11
13.0202708879
 21
8.3279690489
  0
LINE
  5
344
100
AcDbEntity
  8
0
100
AcDbLine
 62
4
  6
CONTINUOUS
 10
13.0347597758
 20
8.3945790526
 11
13.0492486637
 21
8.3839149885
  0
LINE
  5
345
100
AcDbEntity
  8
0
100
AcDbLine
 62
4
  6
CONTINUOUS
 10
11.6655598481
 20
6.9150742063
 11
11.680048736
 21
6.9333879181
  0
LINE
  5
346
100
AcDbEntity
  8
0
100
AcDbLine
 62
7
  6
CONTINUOUS
 10
13.1603302175
 20
9.7188484347
 11
8.4514415353
 21
10.045410974
  0
LINE
  5
347
100
AcDbEntity
  8
0
100
AcDbLine
 62
4
  6
CONTINUOUS
 10
11.7887153955
 20
6.9161925964
 11
11.7959598394
 21
6.9253494558
  0
LINE
  5
348
100
AcDbEntity
  8
0
100
AcDbLine
 62
4
  6
CONTINUOUS
 10
11.7307598437
 20
6.8429377615
 11
11.7235153998
 21
6.8337809065
  0
LINE
  5
349
100
AcDbEntity
  8
0
100
AcDbLine
 62
4
  6
CONTINUOUS
 10
12.998537556
 20
8.3777725525
 11
13.0057819999
 21
8.3869294118
  0
LINE
  5
34A
100
AcDbEntity
  8
0
100
AcDbLine
 62
4
  6
CONTINUOUS
 10
11.8104487274
 20
6.8663890928
 11
11.7959598394
 21
6.8480753845
  0
LINE
  5
34B
100
AcDbEntity
  8
0
100
AcDbLine
 62
4
  6
CONTINUOUS
 10
11.8466709472
 20
6.8928548526
 11
11.8394265032
 21
6.8836979933
  0
LINE
  5
34C
100
AcDbEntity
  8
0
100
AcDbLine
 62
4
  6
CONTINUOUS
 10
13.0202708879
 20
8.3279690489
 11
13.0057819999
 21
8.3096553406
  0
LINE
  5
34D
100
AcDbEntity
  8
0
100
AcDbLine
 62
4
  6
CONTINUOUS
 10
13.0564931077
 20
8.3544348087
 11
13.0492486637
 21
8.3452779494
  0
LINE
  5
34E
100
AcDbEntity
  8
0
100
AcDbLine
 62
4
  6
CONTINUOUS
 10
11.680048736
 20
6.9333879181
 11
11.6945376239
 21
6.9420423666
  0
LINE
  5
34F
100
AcDbEntity
  8
0
100
AcDbLine
 62
4
  6
CONTINUOUS
 10
13.0492486637
 20
8.3839149885
 11
13.0564931077
 21
8.3737533213
  0
LINE
  5
350
100
AcDbEntity
  8
0
100
AcDbLine
 62
4
  6
CONTINUOUS
 10
12.9116042284
 20
8.2872088154
 11
12.9478264482
 21
8.4006078993
  0
LINE
  5
351
100
AcDbEntity
  8
0
100
AcDbLine
 62
4
  6
CONTINUOUS
 10
11.7959598394
 20
6.9253494558
 11
11.8104487274
 21
6.9340039043
  0
LINE
  5
352
100
AcDbEntity
  8
0
100
AcDbLine
 62
4
  6
CONTINUOUS
 10
11.7235153998
 20
6.8337809065
 11
11.7090265118
 21
6.8251264554
  0
LINE
  5
353
100
AcDbEntity
  8
0
100
AcDbLine
 62
4
  6
CONTINUOUS
 10
11.8394265032
 20
6.8836979933
 11
11.8104487274
 21
6.8663890928
  0
LINE
  5
354
100
AcDbEntity
  8
0
100
AcDbLine
 62
7
  6
CONTINUOUS
 10
13.5485584647
 20
10.0938481475
 11
8.8396697825
 21
10.4204106867
  0
LINE
  5
355
100
AcDbEntity
  8
0
100
AcDbLine
 62
4
  6
CONTINUOUS
 10
12.8753820086
 20
8.4056319383
 11
12.9116042284
 21
8.2872088154
  0
LINE
  5
356
100
AcDbEntity
  8
0
100
AcDbLine
 62
4
  6
CONTINUOUS
 10
13.0564931077
 20
8.3737533213
 11
13.0564931077
 21
8.3544348087
  0
LINE
  5
357
100
AcDbEntity
  8
0
100
AcDbLine
 62
4
  6
CONTINUOUS
 10
13.0057819999
 20
8.3096553406
 11
12.998537556
 21
8.2811799686
  0
LINE
  5
358
100
AcDbEntity
  8
0
100
AcDbLine
 62
7
  6
CONTINUOUS
 10
13.1603302175
 20
6.5795893133
 11
13.1603302175
 21
9.7188484347
  0
LINE
  5
359
100
AcDbEntity
  8
0
100
AcDbLine
 62
7
  6
CONTINUOUS
 10
13.5485584647
 20
6.954589026
 11
13.5485584647
 21
10.0938481475
  0
LINE
  5
35A
100
AcDbEntity
  8
0
100
AcDbLine
 62
7
  6
CONTINUOUS
 10
13.5485584647
 20
6.954589026
 11
13.1603302175
 21
6.5795893133
  0
ARC
  5
35B
100
AcDbEntity
  8
0
100
AcDbCircle
 62
7
  6
CONTINUOUS
 10
10.7775111433
 20
8.4796590788
 40
0.3600406406
100
AcDbArc
 50
134.7903243697
 51
135.8394173804
  0
ARC
  5
35C
100
AcDbEntity
  8
0
100
AcDbCircle
 62
7
  6
CONTINUOUS
 10
10.8518494222
 20
8.4026968648
 40
0.3599576636
100
AcDbArc
 50
312.1758147136
 51
312.9228844525
  0
ARC
  5
35D
100
AcDbEntity
  8
0
100
AcDbCircle
 62
7
  6
CONTINUOUS
 10
10.8291715291
 20
8.4552291529
 40
0.2083598235
100
AcDbArc
 50
41.567683495
 51
42.6648169521
  0
ARC
  5
35E
100
AcDbEntity
  8
0
100
AcDbCircle
 62
7
  6
CONTINUOUS
 10
10.8291705296
 20
8.4552364784
 40
0.2083554474
100
AcDbArc
 50
45.4300773728
 51
46.5172936354
  0
ARC
  5
35F
100
AcDbEntity
  8
0
100
AcDbCircle
 62
7
  6
CONTINUOUS
 10
10.9527646774
 20
8.5945401472
 40
0.1024723303
100
AcDbArc
 50
141.3897285855
 51
149.490632183
  0
ARC
  5
360
100
AcDbEntity
  8
0
100
AcDbCircle
 62
7
  6
CONTINUOUS
 10
10.8316087661
 20
8.6097772399
 40
0.0813377293
100
AcDbArc
 50
293.8368266012
 51
313.9702404471
  0
ARC
  5
361
100
AcDbEntity
  8
0
100
AcDbCircle
 62
7
  6
CONTINUOUS
 10
10.8387568818
 20
8.5802570917
 40
0.0711207233
100
AcDbArc
 50
68.7964701748
 51
89.5719944649
  0
ARC
  5
362
100
AcDbEntity
  8
0
100
AcDbCircle
 62
7
  6
CONTINUOUS
 10
10.8397322239
 20
8.5975462167
 40
0.0669132081
100
AcDbArc
 50
269.6197514514
 51
291.7063108431
  0
SPLINE
  5
363
100
AcDbEntity
  8
0
100
AcDbSpline
 62
7
  6
CONTINUOUS
 70
0
 71
3
 72
42
 73
38
 74
0
 42
0.0000001
 43
0.0000001
 44
0.0000000001
 40
0.0
 40
0.0
 40
0.0
 40
0.0
 40
0.0311444347
 40
0.0467772112
 40
0.0624471461
 40
0.093891844
 40
0.1254739796
 40
0.1571813629
 40
0.1889992234
 40
0.2209106216
 40
0.2528967716
 40
0.2849374315
 40
0.3170113014
 40
0.34909644
 40
0.3811706886
 40
0.4132120984
 40
0.4451993552
 40
0.4771121951
 40
0.5089318057
 40
0.5406412074
 40
0.572225607
 40
0.6036727182
 40
0.6349730419
 40
0.6661200987
 40
0.6971106068
 40
0.7279445994
 40
0.7586254742
 40
0.7891599701
 40
0.8195580671
 40
0.8498328085
 40
0.864931571
 40
0.8800056544
 40
0.910083706
 40
0.9400929707
 40
0.9550814956
 40
0.9700611828
 40
1.0
 40
1.0
 40
1.0
 40
1.0
 10
8.934404477
 20
7.5517041549
 30
0.0
 10
8.9391926386
 20
7.5513720948
 30
0.0
 10
8.9463694698
 20
7.550610676
 30
0.0
 10
8.9558722322
 20
7.5490805354
 30
0.0
 10
8.9653599084
 20
7.5472019924
 30
0.0
 10
8.9771244628
 20
7.5442102408
 30
0.0
 10
8.9909953347
 20
7.5396181388
 30
0.0
 10
9.0045639994
 20
7.5340441096
 30
0.0
 10
9.0177577028
 20
7.5275180474
 30
0.0
 10
9.0305062601
 20
7.5200748083
 30
0.0
 10
9.0427417122
 20
7.5117541389
 30
0.0
 10
9.0543988755
 20
7.5026004373
 30
0.0
 10
9.0654156336
 20
7.4926625244
 30
0.0
 10
9.0757332783
 20
7.4819933843
 30
0.0
 10
9.0852968153
 20
7.4706498848
 30
0.0
 10
9.0940552561
 20
7.4586924769
 30
0.0
 10
9.1019618863
 20
7.4461848764
 30
0.0
 10
9.1089745133
 20
7.4331937276
 30
0.0
 10
9.1150556898
 20
7.419788253
 30
0.0
 10
9.1201729123
 20
7.4060398884
 30
0.0
 10
9.1242987955
 20
7.3920219074
 30
0.0
 10
9.1274112184
 20
7.3778090361
 30
0.0
 10
9.1294934452
 20
7.3634770602
 30
0.0
 10
9.1305342178
 20
7.3491024254
 30
0.0
 10
9.1305278224
 20
7.3347618387
 30
0.0
 10
9.129474119
 20
7.3205318482
 30
0.0
 10
9.1273785782
 20
7.3064884934
 30
0.0
 10
9.1242521568
 20
7.2927066952
 30
0.0
 10
9.120111634
 20
7.2792606156
 30
0.0
 10
9.1158296487
 20
7.2683835319
 30
0.0
 10
9.1119221301
 20
7.2599249163
 30
0.0
 10
9.1077051569
 20
7.2516502258
 30
0.0
 10
9.1018501434
 20
7.2416415564
 30
0.0
 10
9.0952420851
 20
7.2321292228
 30
0.0
 10
9.0895317545
 20
7.2248582374
 30
0.0
 10
9.0835490278
 20
7.2178245761
 30
0.0
 10
9.0787558052
 20
7.2128172282
 30
0.0
 10
9.0754372522
 20
7.2096117717
 30
0.0
  0
SPLINE
  5
364
100
AcDbEntity
  8
0
100
AcDbSpline
 62
7
  6
CONTINUOUS
 70
0
 71
3
 72
42
 73
38
 74
0
 42
0.0000001
 43
0.0000001
 44
0.0000000001
 40
0.0
 40
0.0
 40
0.0
 40
0.0
 40
0.0311444347
 40
0.0467772112
 40
0.0624471461
 40
0.093891844
 40
0.1254739796
 40
0.1571813629
 40
0.1889992234
 40
0.2209106216
 40
0.2528967716
 40
0.2849374315
 40
0.3170113014
 40
0.34909644
 40
0.3811706886
 40
0.4132120984
 40
0.4451993552
 40
0.4771121951
 40
0.5089318057
 40
0.5406412074
 40
0.572225607
 40
0.6036727182
 40
0.6349730419
 40
0.6661200987
 40
0.6971106068
 40
0.7279445994
 40
0.7586254742
 40
0.7891599701
 40
0.8195580671
 40
0.8498328085
 40
0.864931571
 40
0.8800056544
 40
0.910083706
 40
0.9400929707
 40
0.9550814956
 40
0.9700611828
 40
1.0
 40
1.0
 40
1.0
 40
1.0
 10
12.6773672757
 20
7.2921288032
 30
0.0
 10
12.6821554372
 20
7.291796743
 30
0.0
 10
12.6893322684
 20
7.2910353243
 30
0.0
 10
12.6988350308
 20
7.2895051837
 30
0.0
 10
12.708322707
 20
7.2876266407
 30
0.0
 10
12.7200872615
 20
7.2846348891
 30
0.0
 10
12.7339581334
 20
7.2800427871
 30
0.0
 10
12.747526798
 20
7.2744687579
 30
0.0
 10
12.7607205014
 20
7.2679426956
 30
0.0
 10
12.7734690588
 20
7.2604994566
 30
0.0
 10
12.7857045108
 20
7.2521787872
 30
0.0
 10
12.7973616742
 20
7.2430250856
 30
0.0
 10
12.8083784323
 20
7.2330871727
 30
0.0
 10
12.8186960769
 20
7.2224180326
 30
0.0
 10
12.828259614
 20
7.2110745331
 30
0.0
 10
12.8370180548
 20
7.1991171252
 30
0.0
 10
12.844924685
 20
7.1866095246
 30
0.0
 10
12.851937312
 20
7.1736183759
 30
0.0
 10
12.8580184884
 20
7.1602129013
 30
0.0
 10
12.863135711
 20
7.1464645367
 30
0.0
 10
12.8672615941
 20
7.1324465557
 30
0.0
 10
12.870374017
 20
7.1182336843
 30
0.0
 10
12.8724562439
 20
7.1039017084
 30
0.0
 10
12.8734970165
 20
7.0895270737
 30
0.0
 10
12.873490621
 20
7.0751864869
 30
0.0
 10
12.8724369176
 20
7.0609564965
 30
0.0
 10
12.8703413769
 20
7.0469131417
 30
0.0
 10
12.8672149555
 20
7.0331313434
 30
0.0
 10
12.8630744326
 20
7.0196852639
 30
0.0
 10
12.8587924474
 20
7.0088081802
 30
0.0
 10
12.8548849287
 20
7.0003495646
 30
0.0
 10
12.8506679556
 20
6.992074874
 30
0.0
 10
12.8448129421
 20
6.9820662047
 30
0.0
 10
12.8382048838
 20
6.972553871
 30
0.0
 10
12.8324945532
 20
6.9652828857
 30
0.0
 10
12.8265118265
 20
6.9582492244
 30
0.0
 10
12.8217186039
 20
6.9532418765
 30
0.0
 10
12.8184000509
 20
6.95003642
 30
0.0
  0
SPLINE
  5
365
100
AcDbEntity
  8
0
100
AcDbSpline
 62
7
  6
CONTINUOUS
 70
0
 71
3
 72
39
 73
35
 74
0
 42
0.0000001
 43
0.0000001
 44
0.0000000001
 40
0.0
 40
0.0
 40
0.0
 40
0.0
 40
0.0311450469
 40
0.0624431113
 40
0.09388834
 40
0.1254709884
 40
0.1571788814
 40
0.1889972579
 40
0.2209091718
 40
0.2528958393
 40
0.2849370182
 40
0.3170114084
 40
0.349097068
 40
0.3811718384
 40
0.4132137706
 40
0.4452015496
 40
0.4771149115
 40
0.5089350441
 40
0.5406449673
 40
0.5722298867
 40
0.6036775163
 40
0.6349783575
 40
0.6661259304
 40
0.6971169519
 40
0.7279514552
 40
0.7586328387
 40
0.7891678413
 40
0.8195664421
 40
0.8498416837
 40
0.8800094162
 40
0.9100879631
 40
0.9400977203
 40
0.9700606956
 40
1.0
 40
1.0
 40
1.0
 40
1.0
 10
10.8063688043
 20
8.8326177407
 30
0.0
 10
10.8161220364
 20
8.8319413518
 30
0.0
 10
10.8356341679
 20
8.8298713556
 30
0.0
 10
10.8646658054
 20
8.8246569588
 30
0.0
 10
10.8933864852
 20
8.8173531851
 30
0.0
 10
10.9216411072
 20
8.8079992779
 30
0.0
 10
10.9492795456
 20
8.7966453605
 30
0.0
 10
10.976154373
 20
8.7833521774
 30
0.0
 10
11.002122431
 20
8.7681907811
 30
0.0
 10
11.0270453479
 20
8.7512421222
 30
0.0
 10
11.0507903237
 20
8.732596621
 30
0.0
 10
11.0732308304
 20
8.7123537196
 30
0.0
 10
11.094247298
 20
8.6906213604
 30
0.0
 10
11.1137277099
 20
8.6675153786
 30
0.0
 10
11.1315681968
 20
8.6431589
 30
0.0
 10
11.1476735882
 20
8.6176816989
 30
0.0
 10
11.1619579608
 20
8.5912195399
 30
0.0
 10
11.1743450427
 20
8.563913425
 30
0.0
 10
11.1847686226
 20
8.5359088602
 30
0.0
 10
11.1931728926
 20
8.507355091
 30
0.0
 10
11.19951281
 20
8.4784043359
 30
0.0
 10
11.2037542979
 20
8.4492109663
 30
0.0
 10
11.2058744232
 20
8.4199306959
 30
0.0
 10
11.2058615202
 20
8.390719765
 30
0.0
 10
11.2037153155
 20
8.3617341185
 30
0.0
 10
11.1994469376
 20
8.3331285712
 30
0.0
 10
11.1930788365
 20
8.3050559893
 30
0.0
 10
11.1846446843
 20
8.2776664754
 30
0.0
 10
11.1741892479
 20
8.2511065714
 30
0.0
 10
11.1617681533
 20
8.2255183951
 30
0.0
 10
11.147447732
 20
8.2010390693
 30
0.0
 10
11.1313039837
 20
8.1777992854
 30
0.0
 10
11.1134248006
 20
8.1559251325
 30
0.0
 10
11.1004063936
 20
8.1423251729
 30
0.0
 10
11.0936467219
 20
8.1357958259
 30
0.0
  0
SPLINE
  5
366
100
AcDbEntity
  8
0
100
AcDbSpline
 62
7
  6
CONTINUOUS
 70
0
 71
3
 72
53
 73
49
 74
0
 42
0.0000001
 43
0.0000001
 44
0.0000000001
 40
0.0
 40
0.0
 40
0.0
 40
0.0
 40
0.0417740371
 40
0.0840369047
 40
0.1266584536
 40
0.1695064221
 40
0.212448016
 40
0.2553499502
 40
0.2980791306
 40
0.3405031348
 40
0.382490749
 40
0.4239124945
 40
0.4646411616
 40
0.5045523515
 40
0.5435250275
 40
0.5814420819
 40
0.6181909261
 40
0.6536641145
 40
0.6877600167
 40
0.72038356
 40
0.7361158328
 40
0.7514478069
 40
0.7663698229
 40
0.7808728747
 40
0.7949485304
 40
0.808589127
 40
0.8217876764
 40
0.8345380756
 40
0.8468350633
 40
0.8586743964
 40
0.8700529164
 40
0.8809686715
 40
0.8914211252
 40
0.901411244
 40
0.9109418555
 40
0.9200177659
 40
0.9286462506
 40
0.9368373022
 40
0.9446042293
 40
0.951964127
 40
0.9589385596
 40
0.9655542544
 40
0.9718437693
 40
0.9778461758
 40
0.9836073577
 40
0.9891800489
 40
0.9946230796
 40
1.0
 40
1.0
 40
1.0
 40
1.0
 10
13.1811651334
 20
8.290084594
 30
0.0
 10
13.1811651334
 20
8.3025747022
 30
0.0
 10
13.1813599912
 20
8.3277014677
 30
0.0
 10
13.182221429
 20
8.3655628639
 30
0.0
 10
13.1836511975
 20
8.4037284441
 30
0.0
 10
13.185644617
 20
8.4420719005
 30
0.0
 10
13.1881950957
 20
8.4804663519
 30
0.0
 10
13.1912942048
 20
8.5187847869
 30
0.0
 10
13.1949316777
 20
8.5569004302
 30
0.0
 10
13.1990954566
 20
8.5946871869
 30
0.0
 10
13.2037717271
 20
8.632020056
 30
0.0
 10
13.2089449652
 20
8.6687755487
 30
0.0
 10
13.2145979875
 20
8.7048321011
 30
0.0
 10
13.2207120054
 20
8.7400704819
 30
0.0
 10
13.227266688
 20
8.774374191
 30
0.0
 10
13.2342402267
 20
8.8076298593
 30
0.0
 10
13.2416094091
 20
8.8397276095
 30
0.0
 10
13.2493496836
 20
8.87056152
 30
0.0
 10
13.2574352807
 20
8.9000296862
 30
0.0
 10
13.2645215278
 20
8.9236446492
 30
0.0
 10
13.2703545385
 20
8.9417719318
 30
0.0
 10
13.274745743
 20
8.9548018895
 30
0.0
 10
13.2792027127
 20
8.9674203894
 30
0.0
 10
13.2837217394
 20
8.9796170347
 30
0.0
 10
13.2882991215
 20
8.9913817522
 30
0.0
 10
13.2929310133
 20
9.0027048543
 30
0.0
 10
13.2976136311
 20
9.0135770035
 30
0.0
 10
13.3023430557
 20
9.0239892644
 30
0.0
 10
13.3071154106
 20
9.033933073
 30
0.0
 10
13.3119267421
 20
9.043400275
 30
0.0
 10
13.3167730866
 20
9.0523831204
 30
0.0
 10
13.3216504899
 20
9.0608742629
 30
0.0
 10
13.3265549267
 20
9.0688668034
 30
0.0
 10
13.3314824724
 20
9.0763542293
 30
0.0
 10
13.3364290925
 20
9.0833305192
 30
0.0
 10
13.3413909242
 20
9.0897900155
 30
0.0
 10
13.3463640113
 20
9.0957275735
 30
0.0
 10
13.351344598
 20
9.1011383931
 30
0.0
 10
13.35632892
 20
9.1060181452
 30
0.0
 10
13.3613133945
 20
9.1103628214
 30
0.0
 10
13.36629454
 20
9.1141687322
 30
0.0
 10
13.3712689659
 20
9.1174324494
 30
0.0
 10
13.3762333779
 20
9.120150587
 30
0.0
 10
13.381184326
 20
9.1223199472
 30
0.0
 10
13.3861180591
 20
9.1239371671
 30
0.0
 10
13.3910304521
 20
9.124999254
 30
0.0
 10
13.3959155836
 20
9.1255035013
 30
0.0
 10
13.3991588971
 20
9.1254665235
 30
0.0
 10
13.4007627024
 20
9.1253553064
 30
0.0
  0
SPLINE
  5
367
100
AcDbEntity
  8
0
100
AcDbSpline
 62
7
  6
CONTINUOUS
 70
0
 71
3
 72
31
 73
27
 74
0
 42
0.0000001
 43
0.0000001
 44
0.0000000001
 40
0.0
 40
0.0
 40
0.0
 40
0.0
 40
0.0618524031
 40
0.1227371256
 40
0.152835966
 40
0.1827121391
 40
0.2418478058
 40
0.3003884656
 40
0.329560952
 40
0.358741427
 40
0.3880082038
 40
0.4174517417
 40
0.4471706387
 40
0.4772659298
 40
0.5078285164
 40
0.538921835
 40
0.5705643939
 40
0.6027216955
 40
0.6353131748
 40
0.6682306701
 40
0.7013629948
 40
0.7346149874
 40
0.8011807692
 40
0.8676479006
 40
0.9339208512
 40
1.0
 40
1.0
 40
1.0
 40
1.0
 10
10.864480034
 20
8.6465632211
 30
0.0
 10
10.8669267627
 20
8.6458680465
 30
0.0
 10
10.871719079
 20
8.6442549483
 30
0.0
 10
10.8774588632
 20
8.641667001
 30
0.0
 10
10.881820133
 20
8.6392790633
 30
0.0
 10
10.8859881881
 20
8.6367024616
 30
0.0
 10
10.8908845688
 20
8.6330962606
 30
0.0
 10
10.8953084482
 20
8.6289616651
 30
0.0
 10
10.8984920445
 20
8.6253559393
 30
0.0
 10
10.9006918944
 20
8.6224985017
 30
0.0
 10
10.902690341
 20
8.6194831071
 30
0.0
 10
10.904469222
 20
8.6163073192
 30
0.0
 10
10.9060075551
 20
8.6129702989
 30
0.0
 10
10.9072821417
 20
8.6094744515
 30
0.0
 10
10.9082685138
 20
8.6058276583
 30
0.0
 10
10.9089434501
 20
8.6020457081
 30
0.0
 10
10.9092884537
 20
8.598153619
 30
0.0
 10
10.9092933955
 20
8.5941847969
 30
0.0
 10
10.9089586534
 20
8.5901777936
 30
0.0
 10
10.9082950045
 20
8.5861717839
 30
0.0
 10
10.9073209573
 20
8.5822020685
 30
0.0
 10
10.9056386827
 20
8.5769959179
 30
0.0
 10
10.9028801567
 20
8.5707162757
 30
0.0
 10
10.8986927203
 20
8.5636500028
 30
0.0
 10
10.8937591573
 20
8.557110895
 30
0.0
 10
10.8900344164
 20
8.5531267242
 30
0.0
 10
10.8880799981
 20
8.5512387507
 30
0.0
  0
SPLINE
  5
368
100
AcDbEntity
  8
0
100
AcDbSpline
 62
7
  6
CONTINUOUS
 70
0
 71
3
 72
21
 73
17
 74
0
 42
0.0000001
 43
0.0000001
 44
0.0000000001
 40
0.0
 40
0.0
 40
0.0
 40
0.0
 40
0.06165322
 40
0.1233294719
 40
0.1850515326
 40
0.2468416528
 40
0.308721334
 40
0.3707110997
 40
0.4328302469
 40
0.4950966389
 40
0.5575265783
 40
0.620134583
 40
0.6829331586
 40
0.745933179
 40
0.8725262751
 40
1.0
 40
1.0
 40
1.0
 40
1.0
 10
8.7933717019
 20
7.5016306294
 30
0.0
 10
8.7956497705
 20
7.5038310613
 30
0.0
 10
8.8003261457
 20
7.5081110478
 30
0.0
 10
8.8076769852
 20
7.5141460373
 30
0.0
 10
8.8153470407
 20
7.5197821037
 30
0.0
 10
8.8233167137
 20
7.5250048053
 30
0.0
 10
8.831565966
 20
7.5298010964
 30
0.0
 10
8.8400740001
 20
7.5341588758
 30
0.0
 10
8.848819399
 20
7.5380671474
 30
0.0
 10
8.8577800977
 20
7.5415161302
 30
0.0
 10
8.866933542
 20
7.5444971646
 30
0.0
 10
8.8762566152
 20
7.5470027129
 30
0.0
 10
8.8857260961
 20
7.5490265368
 30
0.0
 10
8.898533487
 20
7.5510789709
 30
0.0
 10
8.9147968308
 20
7.552412382
 30
0.0
 10
8.9278715782
 20
7.552157213
 30
0.0
 10
8.934404477
 20
7.5517041549
 30
0.0
  0
SPLINE
  5
369
100
AcDbEntity
  8
0
100
AcDbSpline
 62
7
  6
CONTINUOUS
 70
0
 71
3
 72
21
 73
17
 74
0
 42
0.0000001
 43
0.0000001
 44
0.0000000001
 40
0.0
 40
0.0
 40
0.0
 40
0.0
 40
0.06165322
 40
0.1233294719
 40
0.1850515326
 40
0.2468416528
 40
0.308721334
 40
0.3707110997
 40
0.4328302469
 40
0.4950966389
 40
0.5575265783
 40
0.620134583
 40
0.6829331586
 40
0.745933179
 40
0.8725262751
 40
1.0
 40
1.0
 40
1.0
 40
1.0
 10
12.5363345005
 20
7.2420552776
 30
0.0
 10
12.5386125691
 20
7.2442557096
 30
0.0
 10
12.5432889443
 20
7.2485356961
 30
0.0
 10
12.5506397838
 20
7.2545706856
 30
0.0
 10
12.5583098394
 20
7.260206752
 30
0.0
 10
12.5662795124
 20
7.2654294536
 30
0.0
 10
12.5745287646
 20
7.2702257447
 30
0.0
 10
12.5830367987
 20
7.274583524
 30
0.0
 10
12.5917821976
 20
7.2784917956
 30
0.0
 10
12.6007428963
 20
7.2819407785
 30
0.0
 10
12.6098963406
 20
7.2849218129
 30
0.0
 10
12.6192194138
 20
7.2874273612
 30
0.0
 10
12.6286888948
 20
7.2894511851
 30
0.0
 10
12.6414962856
 20
7.2915036191
 30
0.0
 10
12.6577596294
 20
7.2928370303
 30
0.0
 10
12.6708343768
 20
7.2925818612
 30
0.0
 10
12.6773672757
 20
7.2921288032
 30
0.0
  0
SPLINE
  5
36A
100
AcDbEntity
  8
0
100
AcDbSpline
 62
7
  6
CONTINUOUS
 70
0
 71
3
 72
15
 73
11
 74
0
 42
0.0000001
 43
0.0000001
 44
0.0000000001
 40
0.0
 40
0.0
 40
0.0
 40
0.0
 40
0.1232579905
 40
0.247038949
 40
0.3713661602
 40
0.4962342203
 40
0.6216074958
 40
0.7474233471
 40
0.8735912209
 40
1.0
 40
1.0
 40
1.0
 40
1.0
 10
10.7933875792
 20
8.633563915
 30
0.0
 10
10.794878894
 20
8.6350044817
 30
0.0
 10
10.7980196939
 20
8.6377389463
 30
0.0
 10
10.8031320725
 20
8.6413468335
 30
0.0
 10
10.8086032744
 20
8.6444393312
 30
0.0
 10
10.81437589
 20
8.6469899817
 30
0.0
 10
10.820391254
 20
8.6489792756
 30
0.0
 10
10.8265894199
 20
8.6503935468
 30
0.0
 10
10.8329090235
 20
8.6512251898
 30
0.0
 10
10.8371617346
 20
8.6513897648
 30
0.0
 10
10.8392881525
 20
8.6513753336
 30
0.0
  0
SPLINE
  5
36B
100
AcDbEntity
  8
0
100
AcDbSpline
 62
7
  6
CONTINUOUS
 70
0
 71
3
 72
23
 73
19
 74
0
 42
0.0000001
 43
0.0000001
 44
0.0000000001
 40
0.0
 40
0.0
 40
0.0
 40
0.0
 40
0.0616482077
 40
0.1233194432
 40
0.1850364764
 40
0.2468215657
 40
0.3086962119
 40
0.3706809253
 40
0.4327950037
 40
0.4950563292
 40
0.5574811795
 40
0.6200840681
 40
0.6828776095
 40
0.745872322
 40
0.8090769221
 40
0.8724969185
 40
0.9361382339
 40
1.0
 40
1.0
 40
1.0
 40
1.0
 10
10.5190908867
 20
8.7306189499
 30
0.0
 10
10.523731211
 20
8.7351011628
 30
0.0
 10
10.5332567104
 20
8.7438194425
 30
0.0
 10
10.5482300446
 20
8.7561125488
 30
0.0
 10
10.5638535855
 20
8.7675930969
 30
0.0
 10
10.5800874337
 20
8.7782316547
 30
0.0
 10
10.5968908107
 20
8.7880015821
 30
0.0
 10
10.6142213279
 20
8.7968782589
 30
0.0
 10
10.6320353212
 20
8.8048393679
 30
0.0
 10
10.6502879017
 20
8.81186489
 30
0.0
 10
10.6689330847
 20
8.8179371708
 30
0.0
 10
10.687923905
 20
8.8230409579
 30
0.0
 10
10.7072125219
 20
8.8271634413
 30
0.0
 10
10.7267503892
 20
8.8302943262
 30
0.0
 10
10.7464882123
 20
8.8324257287
 30
0.0
 10
10.7663766087
 20
8.8335524448
 30
0.0
 10
10.7863647118
 20
8.8336715673
 30
0.0
 10
10.799701589
 20
8.8330801137
 30
0.0
 10
10.8063688043
 20
8.8326177407
 30
0.0
  0
SPLINE
  5
36C
100
AcDbEntity
  8
0
100
AcDbSpline
 62
7
  6
CONTINUOUS
 70
0
 71
3
 72
11
 73
7
 74
0
 42
0.0000001
 43
0.0000001
 44
0.0000000001
 40
0.0
 40
0.0
 40
0.0
 40
0.0
 40
0.2485999999
 40
0.4981173613
 40
0.7485881363
 40
1.0
 40
1.0
 40
1.0
 40
1.0
 10
10.7632343291
 20
8.6757718819
 30
0.0
 10
10.7674574414
 20
8.6764190148
 30
0.0
 10
10.7759576018
 20
8.6774778077
 30
0.0
 10
10.7887991946
 20
8.6783547874
 30
0.0
 10
10.8017179054
 20
8.6785209028
 30
0.0
 10
10.810340629
 20
8.6781581492
 30
0.0
 10
10.8146510071
 20
8.6778592234
 30
0.0
  0
SPLINE
  5
36D
100
AcDbEntity
  8
0
100
AcDbSpline
 62
7
  6
CONTINUOUS
 70
0
 71
3
 72
21
 73
17
 74
0
 42
0.0000001
 43
0.0000001
 44
0.0000000001
 40
0.0
 40
0.0
 40
0.0
 40
0.0
 40
0.061653231
 40
0.1233294833
 40
0.1850515395
 40
0.2468416632
 40
0.3087213442
 40
0.3707111022
 40
0.4328302462
 40
0.495096638
 40
0.5575265767
 40
0.6201345688
 40
0.6829331417
 40
0.7459332092
 40
0.8725262015
 40
1.0
 40
1.0
 40
1.0
 40
1.0
 10
10.7133812716
 20
8.6138071796
 30
0.0
 10
10.7155639633
 20
8.6159154962
 30
0.0
 10
10.7200445271
 20
8.6200163385
 30
0.0
 10
10.7270876091
 20
8.6257986893
 30
0.0
 10
10.7344365146
 20
8.6311988567
 30
0.0
 10
10.7420725106
 20
8.636202949
 30
0.0
 10
10.7499763954
 20
8.6407984611
 30
0.0
 10
10.7581282192
 20
8.6449738383
 30
0.0
 10
10.7665074711
 20
8.6487185324
 30
0.0
 10
10.7750930233
 20
8.6520231371
 30
0.0
 10
10.783863249
 20
8.6548793914
 30
0.0
 10
10.7927959998
 20
8.6572800807
 30
0.0
 10
10.801869039
 20
8.6592191872
 30
0.0
 10
10.8141402409
 20
8.6611857095
 30
0.0
 10
10.8297227159
 20
8.6624633251
 30
0.0
 10
10.842250086
 20
8.6622188399
 30
0.0
 10
10.8485094875
 20
8.6617847489
 30
0.0
  0
SPLINE
  5
36E
100
AcDbEntity
  8
0
100
AcDbSpline
 62
7
  6
CONTINUOUS
 70
0
 71
3
 72
37
 73
33
 74
0
 42
0.0000001
 43
0.0000001
 44
0.0000000001
 40
0.0
 40
0.0
 40
0.0
 40
0.0
 40
0.0303137639
 40
0.0607400981
 40
0.0912816229
 40
0.1219395532
 40
0.152713696
 40
0.183602467
 40
0.2146029329
 40
0.2457108593
 40
0.27692077
 40
0.3082260172
 40
0.3396188721
 40
0.3710906258
 40
0.4026316907
 40
0.4342317094
 40
0.4658796713
 40
0.4975640438
 40
0.5609732647
 40
0.6243823148
 40
0.6560664758
 40
0.6877141448
 40
0.7193137924
 40
0.7508544128
 40
0.7823256501
 40
0.8137179326
 40
0.8450225381
 40
0.8762317511
 40
0.9073390623
 40
0.9383383719
 40
0.9692272256
 40
1.0
 40
1.0
 40
1.0
 40
1.0
 10
11.0472928105
 20
8.3816929339
 30
0.0
 10
11.0480872802
 20
8.3858983586
 30
0.0
 10
11.0494419731
 20
8.3943715794
 30
0.0
 10
11.0507638273
 20
8.4071974393
 30
0.0
 10
11.051375573
 20
8.4201257078
 30
0.0
 10
11.0512753229
 20
8.4331169722
 30
0.0
 10
11.0504634286
 20
8.4461323071
 30
0.0
 10
11.0489423934
 20
8.4591325421
 30
0.0
 10
11.0467168453
 20
8.4720786107
 30
0.0
 10
11.0437935141
 20
8.4849316018
 30
0.0
 10
11.0401812074
 20
8.497652888
 30
0.0
 10
11.0358908089
 20
8.5102042392
 30
0.0
 10
11.0309352642
 20
8.522547953
 30
0.0
 10
11.0253295005
 20
8.5346469421
 30
0.0
 10
11.0190903614
 20
8.5464648818
 30
0.0
 10
11.0122366684
 20
8.5579661772
 30
0.0
 10
11.0047887572
 20
8.5691165889
 30
0.0
 10
10.9940955073
 20
8.5834720386
 30
0.0
 10
10.9793616447
 20
8.6003704111
 30
0.0
 10
10.9629786132
 20
8.6156752032
 30
0.0
 10
10.9489984561
 20
8.6268544845
 30
0.0
 10
10.9381101578
 20
8.6346803846
 30
0.0
 10
10.9268508249
 20
8.6419244264
 30
0.0
 10
10.9152539786
 20
8.648565111
 30
0.0
 10
10.903354547
 20
8.6545824098
 30
0.0
 10
10.8911882546
 20
8.6599582396
 30
0.0
 10
10.8787916593
 20
8.664676413
 30
0.0
 10
10.8662019724
 20
8.6687227142
 30
0.0
 10
10.8534571207
 20
8.6720848865
 30
0.0
 10
10.8405951208
 20
8.6747529757
 30
0.0
 10
10.8276553148
 20
8.6767186336
 30
0.0
 10
10.8189852124
 20
8.6775586453
 30
0.0
 10
10.8146510071
 20
8.6778592234
 30
0.0
  0
SPLINE
  5
36F
100
AcDbEntity
  8
0
100
AcDbSpline
 62
7
  6
CONTINUOUS
 70
0
 71
3
 72
29
 73
25
 74
0
 42
0.0000001
 43
0.0000001
 44
0.0000000001
 40
0.0
 40
0.0
 40
0.0
 40
0.0
 40
0.0301953779
 40
0.0604009334
 40
0.0906267523
 40
0.1208827054
 40
0.1511783607
 40
0.1815229009
 40
0.2119250097
 40
0.2423928003
 40
0.2729337528
 40
0.3035546169
 40
0.3342613694
 40
0.3650591743
 40
0.4269258539
 40
0.4891966572
 40
0.5518799787
 40
0.614969256
 40
0.6784434847
 40
0.742268199
 40
0.8063968998
 40
0.8707728054
 40
0.9353308655
 40
1.0
 40
1.0
 40
1.0
 40
1.0
 10
10.9836377035
 20
8.3340171496
 30
0.0
 10
10.985711254
 20
8.3360200439
 30
0.0
 10
10.9897574388
 20
8.3401332686
 30
0.0
 10
10.9955048518
 20
8.3466060567
 30
0.0
 10
11.0009184574
 20
8.3533682089
 30
0.0
 10
11.0059856904
 20
8.3604041738
 30
0.0
 10
11.0106951612
 20
8.3676979552
 30
0.0
 10
11.015036128
 20
8.3752329733
 30
0.0
 10
11.0189987007
 20
8.3829921141
 30
0.0
 10
11.0225739554
 20
8.3909576912
 30
0.0
 10
11.0257537345
 20
8.3991116368
 30
0.0
 10
11.0285308031
 20
8.4074353451
 30
0.0
 10
11.0308989606
 20
8.4159101378
 30
0.0
 10
11.0335076225
 20
8.4274005651
 30
0.0
 10
11.0357176845
 20
8.4420528788
 30
0.0
 10
11.0366642292
 20
8.4598913017
 30
0.0
 10
11.0359027026
 20
8.4778557511
 30
0.0
 10
11.0334402856
 20
8.4957821481
 30
0.0
 10
11.0292998934
 20
8.5135082974
 30
0.0
 10
11.0235195288
 20
8.5308736085
 30
0.0
 10
11.0161520446
 20
8.5477208186
 30
0.0
 10
11.0072640777
 20
8.5638978344
 30
0.0
 10
10.9969376403
 20
8.5792568934
 30
0.0
 10
10.9891572853
 20
8.5888573465
 30
0.0
 10
10.9850606077
 20
8.5934767973
 30
0.0
  0
SPLINE
  5
370
100
AcDbEntity
  8
0
100
AcDbSpline
 62
7
  6
CONTINUOUS
 70
0
 71
3
 72
17
 73
13
 74
0
 42
0.0000001
 43
0.0000001
 44
0.0000000001
 40
0.0
 40
0.0
 40
0.0
 40
0.0
 40
0.1264590498
 40
0.1896356478
 40
0.2527463264
 40
0.378680635
 40
0.5041748489
 40
0.6291267767
 40
0.7534510307
 40
0.8153702801
 40
0.877109282
 40
1.0
 40
1.0
 40
1.0
 40
1.0
 10
10.9725473312
 20
8.6064154624
 30
0.0
 10
10.9683107482
 20
8.6104333938
 30
0.0
 10
10.9616998165
 20
8.6161952951
 30
0.0
 10
10.9524334908
 20
8.6232930142
 30
0.0
 10
10.9428952314
 20
8.6299798328
 30
0.0
 10
10.9304828693
 20
8.6375558487
 30
0.0
 10
10.9149143982
 20
8.6453244514
 30
0.0
 10
10.8988063412
 20
8.6517029648
 30
0.0
 10
10.8850205095
 20
8.6558226446
 30
0.0
 10
10.8738550149
 20
8.6583736863
 30
0.0
 10
10.8626539424
 20
8.6604188452
 30
0.0
 10
10.8541700053
 20
8.6613921907
 30
0.0
 10
10.8485094875
 20
8.6617847489
 30
0.0
  0
SPLINE
  5
371
100
AcDbEntity
  8
0
100
AcDbSpline
 62
7
  6
CONTINUOUS
 70
0
 71
3
 72
72
 73
68
 74
0
 42
0.0000001
 43
0.0000001
 44
0.0000000001
 40
0.0
 40
0.0
 40
0.0
 40
0.0
 40
0.0038007381
 40
0.007741717
 40
0.0118259762
 40
0.0160561861
 40
0.0204346248
 40
0.0249631083
 40
0.0296429507
 40
0.034475139
 40
0.0445982624
 40
0.0553349859
 40
0.0666830763
 40
0.0786369214
 40
0.0911880266
 40
0.1043253873
 40
0.1180357756
 40
0.1323040022
 40
0.1471131281
 40
0.162444632
 40
0.1782785371
 40
0.1945935439
 40
0.2113671532
 40
0.2285757639
 40
0.2461947509
 40
0.2641985494
 40
0.2825607465
 40
0.3012541554
 40
0.3202508788
 40
0.339522374
 40
0.3787721111
 40
0.4187655094
 40
0.459257996
 40
0.5000010196
 40
0.5407440307
 40
0.5812364821
 40
0.6212298196
 40
0.6604794759
 40
0.6797509194
 40
0.6987475868
 40
0.7174409382
 40
0.7358030696
 40
0.7538067944
 40
0.7714257037
 40
0.7886342371
 40
0.8054077625
 40
0.8217226764
 40
0.8375564847
 40
0.8528878938
 40
0.8676969213
 40
0.8819650398
 40
0.8956753162
 40
0.9088125679
 40
0.9213635649
 40
0.9333172929
 40
0.9446652617
 40
0.9554018688
 40
0.9605403345
 40
0.9655254594
 40
0.9703575751
 40
0.9750373564
 40
0.9795657872
 40
0.983944203
 40
0.9881743821
 40
0.9922585089
 40
0.996199292
 40
1.0
 40
1.0
 40
1.0
 40
1.0
 10
10.7042965154
 20
10.0885302924
 30
0.0
 10
10.7031273982
 20
10.0874423447
 30
0.0
 10
10.7007016103
 20
10.0852736266
 30
0.0
 10
10.6968782464
 20
10.0820981779
 30
0.0
 10
10.6928068044
 20
10.0789436467
 30
0.0
 10
10.6884891025
 20
10.0758113653
 30
0.0
 10
10.6839268409
 20
10.0727025273
 30
0.0
 10
10.679121837
 20
10.0696183881
 30
0.0
 10
10.6740760538
 20
10.0665601068
 30
0.0
 10
10.6669186978
 20
10.0624548972
 30
0.0
 10
10.6573717192
 20
10.0574075635
 30
0.0
 10
10.6451614579
 20
10.0515643358
 30
0.0
 10
10.6320453994
 20
10.0458536792
 30
0.0
 10
10.6180449746
 20
10.0402849615
 30
0.0
 10
10.6031828325
 20
10.0348673063
 30
0.0
 10
10.587483201
 20
10.0296096577
 30
0.0
 10
10.5709717308
 20
10.024520694
 30
0.0
 10
10.5536754641
 20
10.0196088335
 30
0.0
 10
10.5356227627
 20
10.0148822124
 30
0.0
 10
10.5168432613
 20
10.0103486714
 30
0.0
 10
10.497367823
 20
10.0060157216
 30
0.0
 10
10.47722848
 20
10.0018905387
 30
0.0
 10
10.4564583681
 20
9.99797996
 30
0.0
 10
10.4350916707
 20
9.9942904718
 30
0.0
 10
10.4131635688
 20
9.9908281887
 30
0.0
 10
10.3907101817
 20
9.9875988394
 30
0.0
 10
10.367768495
 20
9.9846077706
 30
0.0
 10
10.3443763116
 20
9.9818599469
 30
0.0
 10
10.3205721419
 20
9.9793598947
 30
0.0
 10
10.2881394355
 20
9.9763441928
 30
0.0
 10
10.2468581282
 20
9.9732328565
 30
0.0
 10
10.1966138498
 20
9.9705639975
 30
0.0
 10
10.1456966654
 20
9.9689555463
 30
0.0
 10
10.0944420313
 20
9.9684182399
 30
0.0
 10
10.0431874131
 20
9.96895565
 30
0.0
 10
9.9922702774
 20
9.9705642006
 30
0.0
 10
9.942026079
 20
9.9732331648
 30
0.0
 10
9.9007448589
 20
9.9763445786
 30
0.0
 10
9.8683122386
 20
9.9793603503
 30
0.0
 10
9.8445081438
 20
9.9818604513
 30
0.0
 10
9.8211160412
 20
9.9846083172
 30
0.0
 10
9.798174444
 20
9.9875994328
 30
0.0
 10
9.7757211558
 20
9.9908288295
 30
0.0
 10
9.7537931585
 20
9.9942911586
 30
0.0
 10
9.7324265697
 20
9.9979806854
 30
0.0
 10
9.711656574
 20
10.0018913051
 30
0.0
 10
9.6915173571
 20
10.0060165308
 30
0.0
 10
9.6720420506
 20
10.0103495222
 30
0.0
 10
9.653262683
 20
10.0148830979
 30
0.0
 10
9.6352101212
 20
10.0196097525
 30
0.0
 10
9.6179140037
 20
10.0245216503
 30
0.0
 10
9.6014026903
 20
10.0296106497
 30
0.0
 10
9.5857032109
 20
10.0348683293
 30
0.0
 10
9.5708412412
 20
10.040286007
 30
0.0
 10
9.5568409369
 20
10.0458547633
 30
0.0
 10
9.543725221
 20
10.051565422
 30
0.0
 10
9.5334043193
 20
10.056504432
 30
0.0
 10
9.5256163296
 20
10.0605275005
 30
0.0
 10
9.5200953462
 20
10.0635301966
 30
0.0
 10
9.5148109433
 20
10.0665612913
 30
0.0
 10
9.5097652523
 20
10.0696195452
 30
0.0
 10
9.5049603297
 20
10.0727037125
 30
0.0
 10
9.5003981488
 20
10.0758125874
 30
0.0
 10
9.4960805404
 20
10.078944865
 30
0.0
 10
9.4920092611
 20
10.0820993596
 30
0.0
 10
9.4881860383
 20
10.0852747424
 30
0.0
 10
9.4857603509
 20
10.0874434311
 30
0.0
 10
9.4845912625
 20
10.0885313912
 30
0.0
  0
SPLINE
  5
372
100
AcDbEntity
  8
0
100
AcDbSpline
 62
7
  6
CONTINUOUS
 70
0
 71
3
 72
72
 73
68
 74
0
 42
0.0000001
 43
0.0000001
 44
0.0000000001
 40
0.0
 40
0.0
 40
0.0
 40
0.0
 40
0.0038007381
 40
0.007741717
 40
0.0118259762
 40
0.0160561861
 40
0.0204346248
 40
0.0249631083
 40
0.0296429507
 40
0.034475139
 40
0.0445982624
 40
0.0553349859
 40
0.0666830763
 40
0.0786369214
 40
0.0911880266
 40
0.1043253873
 40
0.1180357756
 40
0.1323040022
 40
0.1471131281
 40
0.162444632
 40
0.1782785371
 40
0.1945935439
 40
0.2113671532
 40
0.2285757639
 40
0.2461947509
 40
0.2641985494
 40
0.2825607465
 40
0.3012541554
 40
0.3202508788
 40
0.339522374
 40
0.3787721111
 40
0.4187655094
 40
0.459257996
 40
0.5000010196
 40
0.5407440307
 40
0.5812364821
 40
0.6212298196
 40
0.6604794759
 40
0.6797509194
 40
0.6987475868
 40
0.7174409382
 40
0.7358030696
 40
0.7538067944
 40
0.7714257037
 40
0.7886342371
 40
0.8054077625
 40
0.8217226764
 40
0.8375564847
 40
0.8528878938
 40
0.8676969213
 40
0.8819650398
 40
0.8956753162
 40
0.9088125679
 40
0.9213635649
 40
0.9333172929
 40
0.9446652617
 40
0.9554018688
 40
0.9605403345
 40
0.9655254594
 40
0.9703575751
 40
0.9750373564
 40
0.9795657872
 40
0.983944203
 40
0.9881743821
 40
0.9922585089
 40
0.996199292
 40
1.0
 40
1.0
 40
1.0
 40
1.0
 10
12.515407547
 20
9.9629293157
 30
0.0
 10
12.5142384298
 20
9.9618413681
 30
0.0
 10
12.5118126419
 20
9.9596726499
 30
0.0
 10
12.507989278
 20
9.9564972012
 30
0.0
 10
12.503917836
 20
9.95334267
 30
0.0
 10
12.4996001341
 20
9.9502103887
 30
0.0
 10
12.4950378726
 20
9.9471015507
 30
0.0
 10
12.4902328686
 20
9.9440174115
 30
0.0
 10
12.4851870854
 20
9.9409591302
 30
0.0
 10
12.4780297294
 20
9.9368539206
 30
0.0
 10
12.4684827508
 20
9.9318065868
 30
0.0
 10
12.4562724895
 20
9.9259633592
 30
0.0
 10
12.443156431
 20
9.9202527026
 30
0.0
 10
12.4291560062
 20
9.9146839849
 30
0.0
 10
12.4142938641
 20
9.9092663297
 30
0.0
 10
12.3985942326
 20
9.9040086811
 30
0.0
 10
12.3820827624
 20
9.8989197174
 30
0.0
 10
12.3647864957
 20
9.8940078569
 30
0.0
 10
12.3467337943
 20
9.8892812358
 30
0.0
 10
12.3279542929
 20
9.8847476947
 30
0.0
 10
12.3084788546
 20
9.8804147449
 30
0.0
 10
12.2883395116
 20
9.8762895621
 30
0.0
 10
12.2675693997
 20
9.8723789833
 30
0.0
 10
12.2462027023
 20
9.8686894951
 30
0.0
 10
12.2242746004
 20
9.8652272121
 30
0.0
 10
12.2018212133
 20
9.8619978628
 30
0.0
 10
12.1788795266
 20
9.8590067939
 30
0.0
 10
12.1554873432
 20
9.8562589703
 30
0.0
 10
12.1316831735
 20
9.853758918
 30
0.0
 10
12.0992504671
 20
9.8507432162
 30
0.0
 10
12.0579691598
 20
9.8476318799
 30
0.0
 10
12.0077248814
 20
9.8449630209
 30
0.0
 10
11.956807697
 20
9.8433545697
 30
0.0
 10
11.9055530629
 20
9.8428172633
 30
0.0
 10
11.8542984447
 20
9.8433546733
 30
0.0
 10
11.803381309
 20
9.8449632239
 30
0.0
 10
11.7531371106
 20
9.8476321882
 30
0.0
 10
11.7118558905
 20
9.8507436019
 30
0.0
 10
11.6794232702
 20
9.8537593736
 30
0.0
 10
11.6556191754
 20
9.8562594746
 30
0.0
 10
11.6322270728
 20
9.8590073405
 30
0.0
 10
11.6092854756
 20
9.8619984561
 30
0.0
 10
11.5868321874
 20
9.8652278529
 30
0.0
 10
11.5649041901
 20
9.868690182
 30
0.0
 10
11.5435376013
 20
9.8723797087
 30
0.0
 10
11.5227676056
 20
9.8762903284
 30
0.0
 10
11.5026283887
 20
9.8804155541
 30
0.0
 10
11.4831530822
 20
9.8847485456
 30
0.0
 10
11.4643737146
 20
9.8892821213
 30
0.0
 10
11.4463211528
 20
9.8940087759
 30
0.0
 10
11.4290250353
 20
9.8989206736
 30
0.0
 10
11.4125137219
 20
9.904009673
 30
0.0
 10
11.3968142425
 20
9.9092673527
 30
0.0
 10
11.3819522728
 20
9.9146850304
 30
0.0
 10
11.3679519685
 20
9.9202537866
 30
0.0
 10
11.3548362526
 20
9.9259644453
 30
0.0
 10
11.3445153509
 20
9.9309034554
 30
0.0
 10
11.3367273612
 20
9.9349265238
 30
0.0
 10
11.3312063778
 20
9.9379292199
 30
0.0
 10
11.3259219749
 20
9.9409603147
 30
0.0
 10
11.3208762839
 20
9.9440185685
 30
0.0
 10
11.3160713614
 20
9.9471027359
 30
0.0
 10
11.3115091804
 20
9.9502116108
 30
0.0
 10
11.307191572
 20
9.9533438883
 30
0.0
 10
11.3031202927
 20
9.956498383
 30
0.0
 10
11.2992970699
 20
9.9596737657
 30
0.0
 10
11.2968713825
 20
9.9618424545
 30
0.0
 10
11.2957022941
 20
9.9629304146
 30
0.0
  0
SPLINE
  5
373
100
AcDbEntity
  8
0
100
AcDbSpline
 62
7
  6
CONTINUOUS
 70
0
 71
3
 72
48
 73
44
 74
0
 42
0.0000001
 43
0.0000001
 44
0.0000000001
 40
0.0
 40
0.0
 40
0.0
 40
0.0
 40
0.0063158899
 40
0.0126706797
 40
0.0191025165
 40
0.025648058
 40
0.0323419221
 40
0.0392162652
 40
0.0536140552
 40
0.0611947659
 40
0.0690564915
 40
0.0772175997
 40
0.0856939645
 40
0.0944993396
 40
0.103645447
 40
0.1131421893
 40
0.122997946
 40
0.1332195527
 40
0.1438126331
 40
0.1547816545
 40
0.1661299881
 40
0.1778601838
 40
0.1899738557
 40
0.215353302
 40
0.2422691224
 40
0.2707113841
 40
0.3006623731
 40
0.332097648
 40
0.3649869327
 40
0.3992948208
 40
0.434981328
 40
0.4720023222
 40
0.5103099054
 40
0.5498527799
 40
0.590576537
 40
0.632423903
 40
0.6753349407
 40
0.7192473098
 40
0.7640964278
 40
0.8098157282
 40
0.8563368617
 40
0.9035891153
 40
1.0
 40
1.0
 40
1.0
 40
1.0
 10
13.3081259798
 20
7.7895636252
 30
0.0
 10
13.3069943975
 20
7.7896420956
 30
0.0
 10
13.3047296118
 20
7.7898921491
 30
0.0
 10
13.3013578023
 20
7.79054387
 30
0.0
 10
13.2980085398
 20
7.7914723115
 30
0.0
 10
13.2946837744
 20
7.7926766756
 30
0.0
 10
13.2913847982
 20
7.7941562599
 30
0.0
 10
13.2869551861
 20
7.7965307608
 30
0.0
 10
13.2826458362
 20
7.7994374688
 30
0.0
 10
13.2784755092
 20
7.8028059331
 30
0.0
 10
13.2753254865
 20
7.8056459302
 30
0.0
 10
13.2722091246
 20
7.8087543374
 30
0.0
 10
13.2691271606
 20
7.8121300084
 30
0.0
 10
13.2660808855
 20
7.8157715126
 30
0.0
 10
13.2630714137
 20
7.8196773632
 30
0.0
 10
13.2600998753
 20
7.8238459473
 30
0.0
 10
13.2571674787
 20
7.8282756081
 30
0.0
 10
13.2542753218
 20
7.832964518
 30
0.0
 10
13.2514245787
 20
7.8379107914
 30
0.0
 10
13.2486163999
 20
7.8431124247
 30
0.0
 10
13.2458518809
 20
7.8485672836
 30
0.0
 10
13.2431321638
 20
7.8542731791
 30
0.0
 10
13.2395107355
 20
7.8623383153
 30
0.0
 10
13.2351159451
 20
7.8730422083
 30
0.0
 10
13.2301169431
 20
7.8866563607
 30
0.0
 10
13.2253220847
 20
7.9012105533
 30
0.0
 10
13.2207392817
 20
7.9166809703
 30
0.0
 10
13.2163760993
 20
7.9330424955
 30
0.0
 10
13.2122397759
 20
7.9502683778
 30
0.0
 10
13.2083371892
 20
7.9683304157
 30
0.0
 10
13.2046748419
 20
7.9871989798
 30
0.0
 10
13.2012588361
 20
8.0068430712
 30
0.0
 10
13.1980948565
 20
8.0272303779
 30
0.0
 10
13.1951881757
 20
8.0483273429
 30
0.0
 10
13.1925436399
 20
8.0700992261
 30
0.0
 10
13.1901656633
 20
8.0925101581
 30
0.0
 10
13.1880582022
 20
8.115523201
 30
0.0
 10
13.1862247689
 20
8.1391004075
 30
0.0
 10
13.184668417
 20
8.1632029062
 30
0.0
 10
13.1833917538
 20
8.1877909489
 30
0.0
 10
13.1823968964
 20
8.2128239643
 30
0.0
 10
13.1814420973
 20
8.2469672349
 30
0.0
 10
13.1811651334
 20
8.2727697171
 30
0.0
 10
13.1811651334
 20
8.290084594
 30
0.0
  0
SPLINE
  5
374
100
AcDbEntity
  8
0
100
AcDbSpline
 62
7
  6
CONTINUOUS
 70
0
 71
3
 72
37
 73
33
 74
0
 42
0.0000001
 43
0.0000001
 44
0.0000000001
 40
0.0
 40
0.0
 40
0.0
 40
0.0
 40
0.0063859259
 40
0.012918515
 40
0.0265232753
 40
0.0410111338
 40
0.0565342899
 40
0.0732110744
 40
0.0911309476
 40
0.1103593644
 40
0.1309422776
 40
0.1529099916
 40
0.1762798933
 40
0.201058802
 40
0.227244885
 40
0.2548288091
 40
0.2837949043
 40
0.3141221253
 40
0.3457845021
 40
0.3787517957
 40
0.4129900341
 40
0.4484616719
 40
0.4851260315
 40
0.5229396363
 40
0.5618562561
 40
0.6018272486
 40
0.6428017899
 40
0.684726894
 40
0.727547655
 40
0.815646683
 40
0.9066280627
 40
1.0
 40
1.0
 40
1.0
 40
1.0
 10
13.2827704362
 20
7.989930172
 30
0.0
 10
13.2820239411
 20
7.9901941025
 30
0.0
 10
13.2805326678
 20
7.9907830543
 30
0.0
 10
13.2775625851
 20
7.9921997477
 30
0.0
 10
13.273880542
 20
7.9944313008
 30
0.0
 10
13.2696058965
 20
7.9977604288
 30
0.0
 10
13.2654180773
 20
8.0017696033
 30
0.0
 10
13.2613215217
 20
8.0064516333
 30
0.0
 10
13.2573201086
 20
8.011799675
 30
0.0
 10
13.2534183921
 20
8.01780619
 30
0.0
 10
13.2496211451
 20
8.0244628537
 30
0.0
 10
13.2459334222
 20
8.0317604105
 30
0.0
 10
13.2423602944
 20
8.0396885715
 30
0.0
 10
13.2389068138
 20
8.0482360385
 30
0.0
 10
13.2355780083
 20
8.0573905399
 30
0.0
 10
13.2323787346
 20
8.0671388187
 30
0.0
 10
13.229313695
 20
8.077466685
 30
0.0
 10
13.2263874616
 20
8.0883590572
 30
0.0
 10
13.2236043677
 20
8.0997999688
 30
0.0
 10
13.2209685455
 20
8.1117726143
 30
0.0
 10
13.2184839512
 20
8.124259386
 30
0.0
 10
13.2161542742
 20
8.1372418881
 30
0.0
 10
13.2139829815
 20
8.1507009787
 30
0.0
 10
13.2119733381
 20
8.1646168039
 30
0.0
 10
13.2101283262
 20
8.178968818
 30
0.0
 10
13.2084506912
 20
8.193735826
 30
0.0
 10
13.206942966
 20
8.2088960094
 30
0.0
 10
13.2056073586
 20
8.224426985
 30
0.0
 10
13.2040440137
 20
8.2458010868
 30
0.0
 10
13.2025458571
 20
8.2732762529
 30
0.0
 10
13.2014754017
 20
8.307042684
 30
0.0
 10
13.2012428142
 20
8.3299011323
 30
0.0
 10
13.2012428142
 20
8.3414781463
 30
0.0
  0
SPLINE
  5
375
100
AcDbEntity
  8
0
100
AcDbSpline
 62
7
  6
CONTINUOUS
 70
0
 71
3
 72
51
 73
47
 74
0
 42
0.0000001
 43
0.0000001
 44
0.0000000001
 40
0.0
 40
0.0
 40
0.0
 40
0.0
 40
0.0054989034
 40
0.0111937084
 40
0.0171298793
 40
0.0233469646
 40
0.0298785342
 40
0.0367527402
 40
0.0439926852
 40
0.0516171882
 40
0.059641201
 40
0.068076475
 40
0.0769319063
 40
0.0862140149
 40
0.0959272256
 40
0.1060741591
 40
0.1166558872
 40
0.1276720616
 40
0.1391211732
 40
0.1510005512
 40
0.1633066404
 40
0.176034902
 40
0.1891801097
 40
0.202736185
 40
0.2166964996
 40
0.2310536784
 40
0.2609259567
 40
0.2922844183
 40
0.3250520785
 40
0.359145258
 40
0.3944743252
 40
0.430944346
 40
0.4684556671
 40
0.5069044551
 40
0.5461832024
 40
0.5861812111
 40
0.6267850609
 40
0.6678790668
 40
0.7093457292
 40
0.7510661761
 40
0.7929206143
 40
0.8347887391
 40
0.8765502628
 40
0.9180851058
 40
0.9592744389
 40
1.0
 40
1.0
 40
1.0
 40
1.0
 10
13.3479929925
 20
8.9304068316
 30
0.0
 10
13.346870945
 20
8.9301777931
 30
0.0
 10
13.3446099562
 20
8.9295911837
 30
0.0
 10
13.3412557141
 20
8.9283621249
 30
0.0
 10
13.3378904147
 20
8.9267729369
 30
0.0
 10
13.3345169226
 20
8.9248255793
 30
0.0
 10
13.331137179
 20
8.9225221648
 30
0.0
 10
13.3277534281
 20
8.9198646865
 30
0.0
 10
13.3243677545
 20
8.9168554082
 30
0.0
 10
13.3209824564
 20
8.9134966105
 30
0.0
 10
13.3175997796
 20
8.9097908823
 30
0.0
 10
13.3142221331
 20
8.9057409579
 30
0.0
 10
13.3108519014
 20
8.9013498757
 30
0.0
 10
13.30749156
 20
8.8966208951
 30
0.0
 10
13.3041435845
 20
8.891557556
 30
0.0
 10
13.3008104698
 20
8.8861636573
 30
0.0
 10
13.2974947404
 20
8.8804432528
 30
0.0
 10
13.294198879
 20
8.8744006705
 30
0.0
 10
13.2909254266
 20
8.8680404729
 30
0.0
 10
13.2876768345
 20
8.8613674984
 30
0.0
 10
13.2844556359
 20
8.8543868049
 30
0.0
 10
13.2812642397
 20
8.8471037205
 30
0.0
 10
13.27810515
 20
8.8395237819
 30
0.0
 10
13.2749807328
 20
8.8316527867
 30
0.0
 10
13.2718934232
 20
8.8234967258
 30
0.0
 10
13.2677750941
 20
8.8120991378
 30
0.0
 10
13.2627476863
 20
8.7971795268
 30
0.0
 10
13.2569763097
 20
8.7784718245
 30
0.0
 10
13.251407298
 20
8.7587878437
 30
0.0
 10
13.246057823
 20
8.7381878001
 30
0.0
 10
13.2409443961
 20
8.7167345887
 30
0.0
 10
13.2360827872
 20
8.6944938208
 30
0.0
 10
13.2314879838
 20
8.6715335422
 30
0.0
 10
13.2271741436
 20
8.6479240353
 30
0.0
 10
13.2231545522
 20
8.6237375925
 30
0.0
 10
13.2194415832
 20
8.5990482908
 30
0.0
 10
13.2160466606
 20
8.573931761
 30
0.0
 10
13.212980225
 20
8.5484649529
 30
0.0
 10
13.2102517021
 20
8.5227258975
 30
0.0
 10
13.207869473
 20
8.496793464
 30
0.0
 10
13.2058408521
 20
8.4707471223
 30
0.0
 10
13.2041720572
 20
8.4446666811
 30
0.0
 10
13.2028682065
 20
8.4186320891
 30
0.0
 10
13.2019332725
 20
8.3927230647
 30
0.0
 10
13.2013701185
 20
8.3670191299
 30
0.0
 10
13.2012428142
 20
8.3499595304
 30
0.0
 10
13.2012428142
 20
8.3414781463
 30
0.0
  0
SPLINE
  5
376
100
AcDbEntity
  8
0
100
AcDbSpline
 62
7
  6
CONTINUOUS
 70
0
 71
3
 72
21
 73
17
 74
0
 42
0.0000001
 43
0.0000001
 44
0.0000000001
 40
0.0
 40
0.0
 40
0.0
 40
0.0
 40
0.06165322
 40
0.1233294719
 40
0.1850515326
 40
0.2468416528
 40
0.308721334
 40
0.3707110997
 40
0.4328302469
 40
0.4950966389
 40
0.5575265783
 40
0.620134583
 40
0.6829331586
 40
0.745933179
 40
0.8725262751
 40
1.0
 40
1.0
 40
1.0
 40
1.0
 10
12.8184000509
 20
6.95003642
 30
0.0
 10
12.8161219822
 20
6.9478359881
 30
0.0
 10
12.8114456071
 20
6.9435560015
 30
0.0
 10
12.8040947676
 20
6.937521012
 30
0.0
 10
12.796424712
 20
6.9318849456
 30
0.0
 10
12.788455039
 20
6.926662244
 30
0.0
 10
12.7802057868
 20
6.9218659529
 30
0.0
 10
12.7716977526
 20
6.9175081736
 30
0.0
 10
12.7629523538
 20
6.913599902
 30
0.0
 10
12.7539916551
 20
6.9101509191
 30
0.0
 10
12.7448382108
 20
6.9071698848
 30
0.0
 10
12.7355151376
 20
6.9046643364
 30
0.0
 10
12.7260456566
 20
6.9026405125
 30
0.0
 10
12.7132382658
 20
6.9005880785
 30
0.0
 10
12.696974922
 20
6.8992546674
 30
0.0
 10
12.6839001746
 20
6.8995098364
 30
0.0
 10
12.6773672757
 20
6.8999628945
 30
0.0
  0
SPLINE
  5
377
100
AcDbEntity
  8
0
100
AcDbSpline
 62
7
  6
CONTINUOUS
 70
0
 71
3
 72
23
 73
19
 74
0
 42
0.0000001
 43
0.0000001
 44
0.0000000001
 40
0.0
 40
0.0
 40
0.0
 40
0.0
 40
0.0638319248
 40
0.1274523714
 40
0.1908590307
 40
0.2540580606
 40
0.3170540485
 40
0.3798547368
 40
0.4424695212
 40
0.5049096226
 40
0.5671880236
 40
0.6293193017
 40
0.6913195182
 40
0.7532060638
 40
0.8149974905
 40
0.8767133254
 40
0.9383738714
 40
1.0
 40
1.0
 40
1.0
 40
1.0
 10
10.8146510071
 20
8.0417970291
 30
0.0
 10
10.821070987
 20
8.041351802
 30
0.0
 10
10.8339132007
 20
8.0407704053
 30
0.0
 10
10.8531623112
 20
8.0408311216
 30
0.0
 10
10.872322429
 20
8.0418260722
 30
0.0
 10
10.8913480473
 20
8.0437528088
 30
0.0
 10
10.9101950978
 20
8.0466070146
 30
0.0
 10
10.9288194731
 20
8.0503820323
 30
0.0
 10
10.947177727
 20
8.0550690925
 30
0.0
 10
10.9652269935
 20
8.0606572875
 30
0.0
 10
10.982925126
 20
8.0671336079
 30
0.0
 10
11.0002307885
 20
8.0744829802
 30
0.0
 10
11.017103548
 20
8.0826882878
 30
0.0
 10
11.0335040053
 20
8.0917303899
 30
0.0
 10
11.0493938166
 20
8.101588154
 30
0.0
 10
11.0647359874
 20
8.1122386973
 30
0.0
 10
11.0794941913
 20
8.1236567148
 30
0.0
 10
11.0889234243
 20
8.1317650645
 30
0.0
 10
11.0935278147
 20
8.1359365339
 30
0.0
  0
SPLINE
  5
378
100
AcDbEntity
  8
0
100
AcDbSpline
 62
7
  6
CONTINUOUS
 70
0
 71
3
 72
39
 73
35
 74
0
 42
0.0000001
 43
0.0000001
 44
0.0000000001
 40
0.0
 40
0.0
 40
0.0
 40
0.0
 40
0.031127141
 40
0.0624053285
 40
0.0938289388
 40
0.1253885405
 40
0.1570724085
 40
0.1888662891
 40
0.2207538148
 40
0.2527168213
 40
0.2847357086
 40
0.3167898198
 40
0.3488578341
 40
0.3809181694
 40
0.4129493879
 40
0.4449306003
 40
0.4768418614
 40
0.5086645542
 40
0.5403817558
 40
0.57197858
 40
0.6034424878
 40
0.634763562
 40
0.665934739
 40
0.6969519931
 40
0.7278144634
 40
0.7585245183
 40
0.789087753
 40
0.8195129167
 40
0.8498117682
 40
0.8799988559
 40
0.9100912255
 40
0.9401080612
 40
0.9700702671
 40
1.0
 40
1.0
 40
1.0
 40
1.0
 10
10.8146510071
 20
8.0417970291
 30
0.0
 10
10.8050224695
 20
8.0424647705
 30
0.0
 10
10.7857599328
 20
8.0444992083
 30
0.0
 10
10.7570946453
 20
8.0496070966
 30
0.0
 10
10.7287285749
 20
8.0567522191
 30
0.0
 10
10.7008110296
 20
8.0658971665
 30
0.0
 10
10.6734865874
 20
8.0769941499
 30
0.0
 10
10.6468973227
 20
8.0899853362
 30
0.0
 10
10.6211812957
 20
8.1048030428
 30
0.0
 10
10.5964720662
 20
8.1213701458
 30
0.0
 10
10.5728979534
 20
8.1396004779
 30
0.0
 10
10.550581394
 20
8.1593992708
 30
0.0
 10
10.5296383148
 20
8.1806636471
 30
0.0
 10
10.5101775122
 20
8.2032831235
 30
0.0
 10
10.4923001027
 20
8.2271401971
 30
0.0
 10
10.4760990148
 20
8.2521109584
 30
0.0
 10
10.4616585073
 20
8.2780657235
 30
0.0
 10
10.4490537417
 20
8.3048697013
 30
0.0
 10
10.4383503655
 20
8.3323836708
 30
0.0
 10
10.429604174
 20
8.3604647031
 30
0.0
 10
10.4228608421
 20
8.388966902
 30
0.0
 10
10.4181556774
 20
8.4177421477
 30
0.0
 10
10.4155134381
 20
8.4466408554
 30
0.0
 10
10.4149481718
 20
8.4755127396
 30
0.0
 10
10.4164631223
 20
8.5042075918
 30
0.0
 10
10.4200507324
 20
8.5325760569
 30
0.0
 10
10.4256926584
 20
8.5604704028
 30
0.0
 10
10.433359857
 20
8.5877452896
 30
0.0
 10
10.4430126901
 20
8.614258519
 30
0.0
 10
10.4546011406
 20
8.6398718454
 30
0.0
 10
10.46806492
 20
8.6644515132
 30
0.0
 10
10.4833344182
 20
8.6878696548
 30
0.0
 10
10.5003286242
 20
8.7100024317
 30
0.0
 10
10.512756188
 20
8.7238315606
 30
0.0
 10
10.5192215659
 20
8.7304892147
 30
0.0
  0
SPLINE
  5
379
100
AcDbEntity
  8
0
100
AcDbSpline
 62
7
  6
CONTINUOUS
 70
0
 71
3
 72
42
 73
38
 74
0
 42
0.0000001
 43
0.0000001
 44
0.0000000001
 40
0.0
 40
0.0
 40
0.0
 40
0.0
 40
0.0311444347
 40
0.0467772112
 40
0.0624471461
 40
0.093891844
 40
0.1254739796
 40
0.1571813629
 40
0.1889992234
 40
0.2209106216
 40
0.2528967716
 40
0.2849374315
 40
0.3170113014
 40
0.34909644
 40
0.3811706886
 40
0.4132120984
 40
0.4451993552
 40
0.4771121951
 40
0.5089318057
 40
0.5406412074
 40
0.572225607
 40
0.6036727182
 40
0.6349730419
 40
0.6661200987
 40
0.6971106068
 40
0.7279445994
 40
0.7586254742
 40
0.7891599701
 40
0.8195580671
 40
0.8498328085
 40
0.864931571
 40
0.8800056544
 40
0.910083706
 40
0.9400929707
 40
0.9550814956
 40
0.9700611828
 40
1.0
 40
1.0
 40
1.0
 40
1.0
 10
8.934404477
 20
7.1595382462
 30
0.0
 10
8.9296163155
 20
7.1598703063
 30
0.0
 10
8.9224394843
 20
7.160631725
 30
0.0
 10
8.9129367219
 20
7.1621618656
 30
0.0
 10
8.9034490457
 20
7.1640404086
 30
0.0
 10
8.8916844913
 20
7.1670321603
 30
0.0
 10
8.8778136194
 20
7.1716242622
 30
0.0
 10
8.8642449547
 20
7.1771982914
 30
0.0
 10
8.8510512513
 20
7.1837243537
 30
0.0
 10
8.8383026939
 20
7.1911675928
 30
0.0
 10
8.8260672419
 20
7.1994882622
 30
0.0
 10
8.8144100785
 20
7.2086419638
 30
0.0
 10
8.8033933205
 20
7.2185798767
 30
0.0
 10
8.7930756758
 20
7.2292490167
 30
0.0
 10
8.7835121387
 20
7.2405925162
 30
0.0
 10
8.774753698
 20
7.2525499241
 30
0.0
 10
8.7668470678
 20
7.2650575247
 30
0.0
 10
8.7598344408
 20
7.2780486734
 30
0.0
 10
8.7537532643
 20
7.291454148
 30
0.0
 10
8.7486360418
 20
7.3052025126
 30
0.0
 10
8.7445101586
 20
7.3192204936
 30
0.0
 10
8.7413977357
 20
7.333433365
 30
0.0
 10
8.7393155089
 20
7.3477653409
 30
0.0
 10
8.7382747363
 20
7.3621399757
 30
0.0
 10
8.7382811317
 20
7.3764805624
 30
0.0
 10
8.7393348351
 20
7.3907105529
 30
0.0
 10
8.7414303759
 20
7.4047539077
 30
0.0
 10
8.7445567973
 20
7.4185357059
 30
0.0
 10
8.7486973201
 20
7.4319817854
 30
0.0
 10
8.7529793054
 20
7.4428588691
 30
0.0
 10
8.756886824
 20
7.4513174848
 30
0.0
 10
8.7611037972
 20
7.4595921753
 30
0.0
 10
8.7669588107
 20
7.4696008447
 30
0.0
 10
8.773566869
 20
7.4791131783
 30
0.0
 10
8.7792771996
 20
7.4863841636
 30
0.0
 10
8.7852599263
 20
7.493417825
 30
0.0
 10
8.7900531489
 20
7.4984251728
 30
0.0
 10
8.7933717019
 20
7.5016306294
 30
0.0
  0
SPLINE
  5
37A
100
AcDbEntity
  8
0
100
AcDbSpline
 62
7
  6
CONTINUOUS
 70
0
 71
3
 72
51
 73
47
 74
0
 42
0.0000001
 43
0.0000001
 44
0.0000000001
 40
0.0
 40
0.0
 40
0.0
 40
0.0
 40
0.0313777371
 40
0.0629461967
 40
0.0946942488
 40
0.1266039234
 40
0.1586525693
 40
0.1908131864
 40
0.2230553455
 40
0.2553461437
 40
0.2876512091
 40
0.3199357409
 40
0.3521655563
 40
0.3843081265
 40
0.4163335725
 40
0.4482156067
 40
0.479932397
 40
0.5114673102
 40
0.5428095269
 40
0.5739545053
 40
0.6049042409
 40
0.6356673201
 40
0.6509876151
 40
0.6662673902
 40
0.6815094598
 40
0.6967169686
 40
0.7118933716
 40
0.7270424108
 40
0.7421680718
 40
0.7572745538
 40
0.7723662373
 40
0.7874476344
 40
0.8025233521
 40
0.8175980544
 40
0.8326764108
 40
0.8477630562
 40
0.8628625536
 40
0.8779793437
 40
0.8931177065
 40
0.9082817301
 40
0.9234752649
 40
0.9387018897
 40
0.9539648954
 40
0.9692672438
 40
0.9846115231
 40
1.0
 40
1.0
 40
1.0
 40
1.0
 10
10.8146510071
 20
8.2045555405
 30
0.0
 10
10.8074263483
 20
8.2050565723
 30
0.0
 10
10.792970694
 20
8.2067235988
 30
0.0
 10
10.7715440273
 20
8.2111695735
 30
0.0
 10
10.7504764849
 20
8.2175316132
 30
0.0
 10
10.7299455376
 20
8.22575636
 30
0.0
 10
10.7101212164
 20
8.2357749885
 30
0.0
 10
10.6911683742
 20
8.2475038785
 30
0.0
 10
10.6732444356
 20
8.2608453581
 30
0.0
 10
10.6564983216
 20
8.2756883896
 30
0.0
 10
10.6410691432
 20
8.2919095037
 30
0.0
 10
10.6270851755
 20
8.3093739
 30
0.0
 10
10.6146627542
 20
8.3279364802
 30
0.0
 10
10.603905243
 20
8.3474429966
 30
0.0
 10
10.5949023113
 20
8.3677314015
 30
0.0
 10
10.587729182
 20
8.388633134
 30
0.0
 10
10.5824458573
 20
8.4099744353
 30
0.0
 10
10.5790967651
 20
8.4315778663
 30
0.0
 10
10.5777103526
 20
8.4532635856
 30
0.0
 10
10.5782988371
 20
8.474851332
 30
0.0
 10
10.5808575039
 20
8.4961599594
 30
0.0
 10
10.584621118
 20
8.5135656652
 30
0.0
 10
10.5885898351
 20
8.5271654684
 30
0.0
 10
10.5920341506
 20
8.5371739817
 30
0.0
 10
10.5959426658
 20
8.5469822702
 30
0.0
 10
10.6003073611
 20
8.5565701322
 30
0.0
 10
10.6051191069
 20
8.5659174848
 30
0.0
 10
10.6103678357
 20
8.5750048646
 30
0.0
 10
10.6160426788
 20
8.5838132542
 30
0.0
 10
10.6221317615
 20
8.5923242888
 30
0.0
 10
10.6286223577
 20
8.6005202241
 30
0.0
 10
10.6355009934
 20
8.608383896
 30
0.0
 10
10.6427532649
 20
8.6158989286
 30
0.0
 10
10.6503640283
 20
8.6230496503
 30
0.0
 10
10.6583174536
 20
8.6298210747
 30
0.0
 10
10.6665968868
 20
8.6361991281
 30
0.0
 10
10.67518505
 20
8.642170504
 30
0.0
 10
10.6840640548
 20
8.647722684
 30
0.0
 10
10.6932153197
 20
8.6528441606
 30
0.0
 10
10.7026197569
 20
8.6575242398
 30
0.0
 10
10.712257758
 20
8.6617531134
 30
0.0
 10
10.7221091772
 20
8.6655220524
 30
0.0
 10
10.7321534525
 20
8.6688231714
 30
0.0
 10
10.7423697121
 20
8.6716495664
 30
0.0
 10
10.7527363143
 20
8.6739954135
 30
0.0
 10
10.7597236328
 20
8.6752339168
 30
0.0
 10
10.7632343291
 20
8.6757718819
 30
0.0
  0
SPLINE
  5
37B
100
AcDbEntity
  8
0
100
AcDbSpline
 62
7
  6
CONTINUOUS
 70
0
 71
3
 72
39
 73
35
 74
0
 42
0.0000001
 43
0.0000001
 44
0.0000000001
 40
0.0
 40
0.0
 40
0.0
 40
0.0
 40
0.0313656361
 40
0.0629173634
 40
0.0946449168
 40
0.1265314499
 40
0.1585558711
 40
0.1906929283
 40
0.2229140948
 40
0.2551884166
 40
0.2874834124
 40
0.3197660089
 40
0.3520034884
 40
0.3841644266
 40
0.416219605
 40
0.4481428822
 40
0.4799119929
 40
0.5115092602
 40
0.5429221985
 40
0.5741439892
 40
0.6051737913
 40
0.6360168753
 40
0.6666845657
 40
0.6971939794
 40
0.7275675434
 40
0.7578323082
 40
0.7880190732
 40
0.818161353
 40
0.848294219
 40
0.8784530724
 40
0.9086724041
 40
0.9389845928
 40
0.9694187964
 40
1.0
 40
1.0
 40
1.0
 40
1.0
 10
10.8410505279
 20
8.2509975372
 30
0.0
 10
10.8346302164
 20
8.2514427873
 30
0.0
 10
10.8217842243
 20
8.2529093202
 30
0.0
 10
10.8027336422
 20
8.2567955538
 30
0.0
 10
10.7839865145
 20
8.2623440188
 30
0.0
 10
10.7656929734
 20
8.2695104682
 30
0.0
 10
10.7479970985
 20
8.2782379236
 30
0.0
 10
10.7310388086
 20
8.2884571282
 30
0.0
 10
10.7149520067
 20
8.3000871175
 30
0.0
 10
10.6998637736
 20
8.3130358662
 30
0.0
 10
10.6858933279
 20
8.3272010053
 30
0.0
 10
10.6731510563
 20
8.3424705603
 30
0.0
 10
10.6617376947
 20
8.3587238827
 30
0.0
 10
10.6517435537
 20
8.3758325872
 30
0.0
 10
10.643247823
 20
8.3936615449
 30
0.0
 10
10.6363178725
 20
8.4120698942
 30
0.0
 10
10.6310087768
 20
8.4309121711
 30
0.0
 10
10.627362889
 20
8.4500394338
 30
0.0
 10
10.6254095048
 20
8.4693004081
 30
0.0
 10
10.6251645265
 20
8.4885426516
 30
0.0
 10
10.6266303725
 20
8.507613757
 30
0.0
 10
10.6297959429
 20
8.5263625377
 30
0.0
 10
10.6346366759
 20
8.5446402082
 30
0.0
 10
10.6411146153
 20
8.5623015889
 30
0.0
 10
10.6491787276
 20
8.5792062745
 30
0.0
 10
10.6587652927
 20
8.595219766
 30
0.0
 10
10.669798385
 20
8.6102145668
 30
0.0
 10
10.682190401
 20
8.6240712953
 30
0.0
 10
10.6958427958
 20
8.6366796627
 30
0.0
 10
10.7106469729
 20
8.6479393846
 30
0.0
 10
10.7264849515
 20
8.657760945
 30
0.0
 10
10.743231173
 20
8.6660665876
 30
0.0
 10
10.7607503344
 20
8.6727901709
 30
0.0
 10
10.7728255301
 20
8.6761747657
 30
0.0
 10
10.7789388714
 20
8.6775889475
 30
0.0
  0
SPLINE
  5
37C
100
AcDbEntity
  8
0
100
AcDbSpline
 62
7
  6
CONTINUOUS
 70
0
 71
3
 72
95
 73
91
 74
0
 42
0.0000001
 43
0.0000001
 44
0.0000000001
 40
0.0
 40
0.0
 40
0.0
 40
0.0
 40
0.0041939594
 40
0.0085762782
 40
0.0131520573
 40
0.0179256173
 40
0.0229004891
 40
0.0280792353
 40
0.0334636269
 40
0.0390547837
 40
0.0448532429
 40
0.0508590315
 40
0.0570716617
 40
0.0634902595
 40
0.0701135134
 40
0.0769398105
 40
0.09119284
 40
0.1062306851
 40
0.1220299823
 40
0.1385637575
 40
0.1558018515
 40
0.1737112679
 40
0.1922564673
 40
0.2113996207
 40
0.2311008356
 40
0.2513183603
 40
0.272008772
 40
0.2931271544
 40
0.3146272662
 40
0.3364617034
 40
0.3585820579
 40
0.380939072
 40
0.4034827908
 40
0.4261627133
 40
0.448927942
 40
0.4717273316
 40
0.4945096381
 40
0.5172236671
 40
0.539818422
 40
0.5622432532
 40
0.5844480073
 40
0.6063831771
 40
0.6280000543
 40
0.6492508828
 40
0.6700890155
 40
0.690469076
 40
0.710347124
 40
0.7296808303
 40
0.748429661
 40
0.7665550762
 40
0.7840207471
 40
0.8007927993
 40
0.816840092
 40
0.8321345465
 40
0.8466515423
 40
0.8536121205
 40
0.860370937
 40
0.8669261464
 40
0.8732762126
 40
0.8794199799
 40
0.8853566932
 40
0.8910860295
 40
0.8966081824
 40
0.9019238591
 40
0.9070344273
 40
0.9119418968
 40
0.9166491158
 40
0.9211597694
 40
0.9254786037
 40
0.9296114746
 40
0.9335655778
 40
0.9373495665
 40
0.9409737611
 40
0.9477890579
 40
0.9510148461
 40
0.9541417235
 40
0.9571900969
 40
0.9601821554
 40
0.9631415091
 40
0.9660926235
 40
0.9690601892
 40
0.9720684542
 40
0.9751406083
 40
0.9782982941
 40
0.9815612373
 40
0.98494706
 40
0.9884713247
 40
0.992147593
 40
0.9959873756
 40
1.0
 40
1.0
 40
1.0
 40
1.0
 10
11.294124414
 20
10.0492319633
 30
0.0
 10
11.2954945979
 20
10.0505554594
 30
0.0
 10
11.2983646345
 20
10.0531920608
 30
0.0
 10
11.3029420083
 20
10.0570335226
 30
0.0
 10
11.307881747
 20
10.0608444394
 30
0.0
 10
11.3131806471
 20
10.0646224778
 30
0.0
 10
11.3188356762
 20
10.0683655093
 30
0.0
 10
11.3248435007
 20
10.0720714202
 30
0.0
 10
11.3312005808
 20
10.075738009
 30
0.0
 10
11.337903134
 20
10.0793630988
 30
0.0
 10
11.3449471707
 20
10.0829445616
 30
0.0
 10
11.3523285109
 20
10.0864802327
 30
0.0
 10
11.3600427408
 20
10.0899680477
 30
0.0
 10
11.3680852641
 20
10.0934058496
 30
0.0
 10
11.3764512665
 20
10.0967916707
 30
0.0
 10
11.3882001882
 20
10.101298913
 30
0.0
 10
11.4036682438
 20
10.1067743771
 30
0.0
 10
11.4231783624
 20
10.1130149488
 30
0.0
 10
11.4438485211
 20
10.1190015064
 30
0.0
 10
11.4656291273
 20
10.1247195394
 30
0.0
 10
11.4884681066
 20
10.1301551739
 30
0.0
 10
11.5123106834
 20
10.1352952169
 30
0.0
 10
11.5370996342
 20
10.1401271928
 30
0.0
 10
11.5627754079
 20
10.1446393762
 30
0.0
 10
11.5892762873
 20
10.1488208205
 30
0.0
 10
11.6165385424
 20
10.1526613843
 30
0.0
 10
11.6444965904
 20
10.1561517558
 30
0.0
 10
11.6730831574
 20
10.1592834746
 30
0.0
 10
11.7022294436
 20
10.1620489515
 30
0.0
 10
11.7318652917
 20
10.1644414864
 30
0.0
 10
11.7619193575
 20
10.1664552838
 30
0.0
 10
11.7923192839
 20
10.1680854665
 30
0.0
 10
11.8229918761
 20
10.1693280866
 30
0.0
 10
11.8538632791
 20
10.1701801352
 30
0.0
 10
11.8848591564
 20
10.1706395491
 30
0.0
 10
11.9159048706
 20
10.170705216
 30
0.0
 10
11.9469256632
 20
10.1703769772
 30
0.0
 10
11.9778468366
 20
10.1696556276
 30
0.0
 10
12.0085939342
 20
10.1685429138
 30
0.0
 10
12.0390929207
 20
10.1670415301
 30
0.0
 10
12.0692703616
 20
10.165155112
 30
0.0
 10
12.0990536008
 20
10.1628882282
 30
0.0
 10
12.1283709371
 20
10.1602463692
 30
0.0
 10
12.1571517983
 20
10.1572359352
 30
0.0
 10
12.1853269129
 20
10.1538642208
 30
0.0
 10
12.2128284796
 20
10.1501393979
 30
0.0
 10
12.2395903333
 20
10.1460704969
 30
0.0
 10
12.2655481084
 20
10.1416673849
 30
0.0
 10
12.2906393997
 20
10.1369407434
 30
0.0
 10
12.3148039174
 20
10.1319020418
 30
0.0
 10
12.3379836476
 20
10.1265635091
 30
0.0
 10
12.3601229758
 20
10.1209381027
 30
0.0
 10
12.3811689341
 20
10.115039475
 30
0.0
 10
12.4010710046
 20
10.1088819249
 30
0.0
 10
12.4168774175
 20
10.1034742498
 30
0.0
 10
12.4289050296
 20
10.0990189992
 30
0.0
 10
12.4374839208
 20
10.095669013
 30
0.0
 10
12.4457426455
 20
10.0922656662
 30
0.0
 10
12.453676268
 20
10.0888109518
 30
0.0
 10
12.461280043
 20
10.0853069571
 30
0.0
 10
12.4685494357
 20
10.0817557875
 30
0.0
 10
12.4754801036
 20
10.0781595374
 30
0.0
 10
12.4820679391
 20
10.0745203896
 30
0.0
 10
12.4883090081
 20
10.0708404416
 30
0.0
 10
12.4941996432
 20
10.0671219301
 30
0.0
 10
12.4997363258
 20
10.0633669499
 30
0.0
 10
12.5049158301
 20
10.0595777566
 30
0.0
 10
12.5097350603
 20
10.0557564344
 30
0.0
 10
12.5141912066
 20
10.0519052225
 30
0.0
 10
12.518281615
 20
10.0480261468
 30
0.0
 10
12.5220037537
 20
10.044121528
 30
0.0
 10
12.5253556888
 20
10.0401928339
 30
0.0
 10
12.5292475292
 20
10.0350330008
 30
0.0
 10
12.5325048787
 20
10.0297196753
 30
0.0
 10
12.5350162967
 20
10.0242852007
 30
0.0
 10
12.5364856337
 20
10.020270181
 30
0.0
 10
12.5375731992
 20
10.0162450227
 30
0.0
 10
12.5382776348
 20
10.0122123102
 30
0.0
 10
12.5385980902
 20
10.0081752208
 30
0.0
 10
12.538533967
 20
10.0041370113
 30
0.0
 10
12.5380854838
 20
10.0001010233
 30
0.0
 10
12.5372531866
 20
9.9960704965
 30
0.0
 10
12.5360382425
 20
9.9920484304
 30
0.0
 10
12.5344420414
 20
9.9880375736
 30
0.0
 10
12.5324662555
 20
9.9840404174
 30
0.0
 10
12.5301127015
 20
9.9800592135
 30
0.0
 10
12.5273831701
 20
9.9760961095
 30
0.0
 10
12.5242795849
 20
9.9721530897
 30
0.0
 10
12.5208041655
 20
9.9682324827
 30
0.0
 10
12.5182975585
 20
9.9656924533
 30
0.0
 10
12.5169866176
 20
9.9644261815
 30
0.0
  0
SPLINE
  5
37D
100
AcDbEntity
  8
0
100
AcDbSpline
 62
7
  6
CONTINUOUS
 70
0
 71
3
 72
42
 73
38
 74
0
 42
0.0000001
 43
0.0000001
 44
0.0000000001
 40
0.0
 40
0.0
 40
0.0
 40
0.0
 40
0.0311443918
 40
0.0467772358
 40
0.0624471561
 40
0.093891822
 40
0.125473962
 40
0.1571813366
 40
0.1889991927
 40
0.2209105852
 40
0.2528967304
 40
0.2849373857
 40
0.3170112516
 40
0.3490963869
 40
0.3811706329
 40
0.413212041
 40
0.4451992971
 40
0.4771121372
 40
0.5089317491
 40
0.540641153
 40
0.5722255557
 40
0.603672671
 40
0.6349729995
 40
0.6661200617
 40
0.6971105757
 40
0.7279445745
 40
0.7586254556
 40
0.7891599574
 40
0.8195580601
 40
0.8498328063
 40
0.864931569
 40
0.8800056544
 40
0.9100837087
 40
0.9400929747
 40
0.9550814997
 40
0.970061185
 40
1.0
 40
1.0
 40
1.0
 40
1.0
 10
10.8485094875
 20
8.2860395802
 30
0.0
 10
10.8439218325
 20
8.2863577352
 30
0.0
 10
10.8370455215
 20
8.2870872717
 30
0.0
 10
10.8279406769
 20
8.288553335
 30
0.0
 10
10.8188502849
 20
8.2903532113
 30
0.0
 10
10.8075783669
 20
8.2932196837
 30
0.0
 10
10.7942883271
 20
8.2976194817
 30
0.0
 10
10.781287836
 20
8.3029600937
 30
0.0
 10
10.7686466035
 20
8.3092128683
 30
0.0
 10
10.7564318748
 20
8.3163444132
 30
0.0
 10
10.744708763
 20
8.3243166448
 30
0.0
 10
10.7335397219
 20
8.3330870252
 30
0.0
 10
10.7229842666
 20
8.342608778
 30
0.0
 10
10.7130986469
 20
8.352831138
 30
0.0
 10
10.7039355539
 20
8.3636996192
 30
0.0
 10
10.6955438411
 20
8.3751563023
 30
0.0
 10
10.6879682666
 20
8.38714014
 30
0.0
 10
10.6812492562
 20
8.3995872789
 30
0.0
 10
10.6754226892
 20
8.4124313957
 30
0.0
 10
10.6705197079
 20
8.4256040462
 30
0.0
 10
10.6665665512
 20
8.4390350256
 30
0.0
 10
10.6635844139
 20
8.4526527373
 30
0.0
 10
10.6615893309
 20
8.4663845693
 30
0.0
 10
10.6605920894
 20
8.4801572773
 30
0.0
 10
10.6605981642
 20
8.4938973669
 30
0.0
 10
10.6616076893
 20
8.5075314956
 30
0.0
 10
10.6636154245
 20
8.520986808
 30
0.0
 10
10.6666108687
 20
8.5341915224
 30
0.0
 10
10.6705779588
 20
8.5470745761
 30
0.0
 10
10.6746805635
 20
8.5574962249
 30
0.0
 10
10.6784244685
 20
8.5656006391
 30
0.0
 10
10.6824647675
 20
8.5735288815
 30
0.0
 10
10.6880745859
 20
8.5831184612
 30
0.0
 10
10.6944058633
 20
8.5922325265
 30
0.0
 10
10.6998770729
 20
8.5991990501
 30
0.0
 10
10.7056092073
 20
8.6059382414
 30
0.0
 10
10.7102016884
 20
8.6107359406
 30
0.0
 10
10.7133812716
 20
8.6138071796
 30
0.0
  0
SPLINE
  5
37E
100
AcDbEntity
  8
0
100
AcDbSpline
 62
7
  6
CONTINUOUS
 70
0
 71
3
 72
21
 73
17
 74
0
 42
0.0000001
 43
0.0000001
 44
0.0000000001
 40
0.0
 40
0.0
 40
0.0
 40
0.0
 40
0.0611962502
 40
0.1226670626
 40
0.1843996707
 40
0.2463823377
 40
0.3085959643
 40
0.3710189638
 40
0.4336259108
 40
0.4963885411
 40
0.6221956574
 40
0.7482338337
 40
0.8112817279
 40
0.8742809154
 40
0.9371991809
 40
1.0
 40
1.0
 40
1.0
 40
1.0
 10
10.9626489228
 20
8.4713453414
 30
0.0
 10
10.9601629058
 20
8.4715177473
 30
0.0
 10
10.9551895913
 20
8.4720274862
 30
0.0
 10
10.9477804023
 20
8.4732779813
 30
0.0
 10
10.9404357828
 20
8.4750108124
 30
0.0
 10
10.9331881344
 20
8.4772182519
 30
0.0
 10
10.9260687652
 20
8.4798907685
 30
0.0
 10
10.9191087209
 20
8.4830166087
 30
0.0
 10
10.9123379506
 20
8.4865823935
 30
0.0
 10
10.9035973565
 20
8.4919051448
 30
0.0
 10
10.8932935948
 20
8.4995767261
 30
0.0
 10
10.8840030545
 20
8.5084647785
 30
0.0
 10
10.8772672277
 20
8.5162181166
 30
0.0
 10
10.8725845579
 20
8.5223306895
 30
0.0
 10
10.8682938765
 20
8.5287117218
 30
0.0
 10
10.8657036523
 20
8.5331320565
 30
0.0
 10
10.864480034
 20
8.535377649
 30
0.0
  0
SPLINE
  5
37F
100
AcDbEntity
  8
0
100
AcDbSpline
 62
7
  6
CONTINUOUS
 70
0
 71
3
 72
23
 73
19
 74
0
 42
0.0000001
 43
0.0000001
 44
0.0000000001
 40
0.0
 40
0.0
 40
0.0
 40
0.0
 40
0.0616482077
 40
0.1233194432
 40
0.1850364764
 40
0.2468215657
 40
0.3086962119
 40
0.3706809253
 40
0.4327950037
 40
0.4950563292
 40
0.5574811795
 40
0.6200840681
 40
0.6828776095
 40
0.745872322
 40
0.8090769221
 40
0.8724969185
 40
0.9361382339
 40
1.0
 40
1.0
 40
1.0
 40
1.0
 10
11.0936467219
 20
8.1357958259
 30
0.0
 10
11.0890063976
 20
8.131313613
 30
0.0
 10
11.0794808982
 20
8.1225953333
 30
0.0
 10
11.064507564
 20
8.110302227
 30
0.0
 10
11.0488840231
 20
8.0988216789
 30
0.0
 10
11.0326501749
 20
8.0881831211
 30
0.0
 10
11.0158467979
 20
8.0784131937
 30
0.0
 10
10.9985162807
 20
8.0695365169
 30
0.0
 10
10.9807022874
 20
8.0615754079
 30
0.0
 10
10.9624497069
 20
8.0545498858
 30
0.0
 10
10.9438045239
 20
8.0484776051
 30
0.0
 10
10.9248137036
 20
8.0433738179
 30
0.0
 10
10.9055250867
 20
8.0392513345
 30
0.0
 10
10.8859872194
 20
8.0361204496
 30
0.0
 10
10.8662493963
 20
8.0339890471
 30
0.0
 10
10.8463609999
 20
8.032862331
 30
0.0
 10
10.8263728968
 20
8.0327432085
 30
0.0
 10
10.8130360196
 20
8.0333346621
 30
0.0
 10
10.8063688043
 20
8.0337970351
 30
0.0
  0
SPLINE
  5
380
100
AcDbEntity
  8
0
100
AcDbSpline
 62
7
  6
CONTINUOUS
 70
0
 71
3
 72
37
 73
33
 74
0
 42
0.0000001
 43
0.0000001
 44
0.0000000001
 40
0.0
 40
0.0
 40
0.0
 40
0.0
 40
0.0308687317
 40
0.0618635862
 40
0.0929784421
 40
0.1242096113
 40
0.1555495225
 40
0.1869899618
 40
0.2185211615
 40
0.2501321773
 40
0.2818110301
 40
0.3135448479
 40
0.3453200481
 40
0.3771225092
 40
0.4407265199
 40
0.5042648498
 40
0.535986094
 40
0.5676490586
 40
0.5992410796
 40
0.6307504218
 40
0.6621664373
 40
0.6934797138
 40
0.7246822123
 40
0.7557673955
 40
0.7867303316
 40
0.8175677794
 40
0.8482782512
 40
0.8788620545
 40
0.9093213147
 40
0.9396599683
 40
0.9698837247
 40
1.0
 40
1.0
 40
1.0
 40
1.0
 10
10.9572601833
 20
8.3910846921
 30
0.0
 10
10.953517
 20
8.3913442827
 30
0.0
 10
10.9460289681
 20
8.39208793
 30
0.0
 10
10.9348616665
 20
8.3938657305
 30
0.0
 10
10.9237738728
 20
8.3963021078
 30
0.0
 10
10.9128056594
 20
8.3993880897
 30
0.0
 10
10.9019957587
 20
8.4031128255
 30
0.0
 10
10.8913826759
 20
8.4074629727
 30
0.0
 10
10.8810041033
 20
8.4124230566
 30
0.0
 10
10.8708969247
 20
8.417975394
 30
0.0
 10
10.8610970283
 20
8.4241002455
 30
0.0
 10
10.8516393102
 20
8.4307757413
 30
0.0
 10
10.8425570915
 20
8.4379784654
 30
0.0
 10
10.8309934103
 20
8.4482486393
 30
0.0
 10
10.8176385912
 20
8.4622686742
 30
0.0
 10
10.8059305229
 20
8.4776784075
 30
0.0
 10
10.7976552447
 20
8.4907069905
 30
0.0
 10
10.7920183269
 20
8.5007891257
 30
0.0
 10
10.7869692768
 20
8.5111491625
 30
0.0
 10
10.7825257981
 20
8.5217506195
 30
0.0
 10
10.7787037891
 20
8.5325557379
 30
0.0
 10
10.7755168633
 20
8.5435261452
 30
0.0
 10
10.7729764065
 20
8.5546228444
 30
0.0
 10
10.7710914819
 20
8.565806387
 30
0.0
 10
10.7698688371
 20
8.5770370109
 30
0.0
 10
10.769312874
 20
8.5882747811
 30
0.0
 10
10.7694256312
 20
8.5994797239
 30
0.0
 10
10.7702067856
 20
8.6106119833
 30
0.0
 10
10.7716535971
 20
8.6216319016
 30
0.0
 10
10.7737610146
 20
8.632500396
 30
0.0
 10
10.7765214129
 20
8.6431782328
 30
0.0
 10
10.7787947556
 20
8.650157388
 30
0.0
 10
10.7800366496
 20
8.6536010057
 30
0.0
  0
SPLINE
  5
381
100
AcDbEntity
  8
0
100
AcDbSpline
 62
7
  6
CONTINUOUS
 70
0
 71
3
 72
39
 73
35
 74
0
 42
0.0000001
 43
0.0000001
 44
0.0000000001
 40
0.0
 40
0.0
 40
0.0
 40
0.0
 40
0.0318620992
 40
0.0637327807
 40
0.0956006359
 40
0.127463689
 40
0.1593142794
 40
0.1911452778
 40
0.2229490463
 40
0.2547174448
 40
0.2864423773
 40
0.3181158868
 40
0.3497302541
 40
0.3812783195
 40
0.4127538012
 40
0.4441514918
 40
0.4754676344
 40
0.5066999524
 40
0.5378478042
 40
0.5689125244
 40
0.5998974362
 40
0.6308079018
 40
0.6616512633
 40
0.6924367256
 40
0.7231752674
 40
0.7538793726
 40
0.7845627603
 40
0.815240033
 40
0.8459262565
 40
0.876636608
 40
0.9073858092
 40
0.9381878128
 40
0.9690554874
 40
1.0
 40
1.0
 40
1.0
 40
1.0
 10
10.8392881525
 20
8.5306345982
 30
0.0
 10
10.8377534893
 20
8.5306450134
 30
0.0
 10
10.8346834127
 20
8.5307718764
 30
0.0
 10
10.8301031955
 20
8.5312797467
 30
0.0
 10
10.8255688857
 20
8.5321037875
 30
0.0
 10
10.8211037346
 20
8.5332405187
 30
0.0
 10
10.8167303288
 20
8.5346851952
 30
0.0
 10
10.8124713281
 20
8.5364312146
 30
0.0
 10
10.8083490224
 20
8.5384703633
 30
0.0
 10
10.8043852991
 20
8.5407928129
 30
0.0
 10
10.8006014783
 20
8.5433870946
 30
0.0
 10
10.7970181423
 20
8.5462400985
 30
0.0
 10
10.7936550249
 20
8.5493371581
 30
0.0
 10
10.7905308788
 20
8.5526621137
 30
0.0
 10
10.7876633356
 20
8.5561973804
 30
0.0
 10
10.7850687096
 20
8.5599239984
 30
0.0
 10
10.7827619068
 20
8.5638217709
 30
0.0
 10
10.7807563027
 20
8.5678693751
 30
0.0
 10
10.7790636487
 20
8.5720444971
 30
0.0
 10
10.7776939211
 20
8.5763239531
 30
0.0
 10
10.7766552142
 20
8.580683855
 30
0.0
 10
10.7759537172
 20
8.5850997859
 30
0.0
 10
10.7755936422
 20
8.5895469622
 30
0.0
 10
10.7755771933
 20
8.5940004073
 30
0.0
 10
10.7759044783
 20
8.5984351333
 30
0.0
 10
10.7765735537
 20
8.6028263333
 30
0.0
 10
10.7775804542
 20
8.6071495554
 30
0.0
 10
10.7789192272
 20
8.6113808747
 30
0.0
 10
10.7805819634
 20
8.6154970652
 30
0.0
 10
10.7825588531
 20
8.6194757785
 30
0.0
 10
10.7848382948
 20
8.6232956561
 30
0.0
 10
10.7874071072
 20
8.6269365552
 30
0.0
 10
10.7902502546
 20
8.6303793151
 30
0.0
 10
10.7923155536
 20
8.6325283694
 30
0.0
 10
10.7933875792
 20
8.633563915
 30
0.0
  0
SPLINE
  5
382
100
AcDbEntity
  8
0
100
AcDbSpline
 62
7
  6
CONTINUOUS
 70
0
 71
3
 72
42
 73
38
 74
0
 42
0.0000001
 43
0.0000001
 44
0.0000000001
 40
0.0
 40
0.0
 40
0.0
 40
0.0
 40
0.0923275019
 40
0.1823465034
 40
0.2263439713
 40
0.2695897507
 40
0.3120283829
 40
0.3536057418
 40
0.3942694137
 40
0.4339687376
 40
0.4726549201
 40
0.5102812784
 40
0.5468033802
 40
0.5821791728
 40
0.6163692374
 40
0.6493370788
 40
0.6810493081
 40
0.7114759622
 40
0.7405909845
 40
0.7683726219
 40
0.7948039421
 40
0.8198736144
 40
0.8435768249
 40
0.865916313
 40
0.8765786996
 40
0.8869054804
 40
0.8968998473
 40
0.9065657977
 40
0.9159083366
 40
0.9249334012
 40
0.9336480732
 40
0.9420607455
 40
0.9580167042
 40
0.972901246
 40
0.9868404091
 40
0.9935070318
 40
1.0
 40
1.0
 40
1.0
 40
1.0
 10
13.4968139198
 20
8.6269779276
 30
0.0
 10
13.4968139198
 20
8.6430712733
 30
0.0
 10
13.4964965494
 20
8.6748565479
 30
0.0
 10
13.4952710561
 20
8.7142941733
 30
0.0
 10
13.4937904383
 20
8.7451573453
 30
0.0
 10
13.4924464063
 20
8.7677223713
 30
0.0
 10
13.4908623948
 20
8.789848931
 30
0.0
 10
13.489040636
 20
8.8115055889
 30
0.0
 10
13.4869837674
 20
8.8326615392
 30
0.0
 10
13.4846947418
 20
8.8532867053
 30
0.0
 10
13.4821768302
 20
8.8733517657
 30
0.0
 10
13.4794336527
 20
8.8928282082
 30
0.0
 10
13.4764691563
 20
8.9116883707
 30
0.0
 10
13.473287587
 20
8.9299054721
 30
0.0
 10
13.4698935016
 20
8.9474536614
 30
0.0
 10
13.4662917854
 20
8.9643080661
 30
0.0
 10
13.4624876038
 20
8.980444817
 30
0.0
 10
13.458486389
 20
8.9958410875
 30
0.0
 10
13.4542938776
 20
9.0104751486
 30
0.0
 10
13.4499160617
 20
9.0243264087
 30
0.0
 10
13.4453591559
 20
9.0373754047
 30
0.0
 10
13.4406295814
 20
9.0496039773
 30
0.0
 10
13.4357340229
 20
9.0609949153
 30
0.0
 10
13.4314577306
 20
9.0699100463
 30
0.0
 10
13.4279506779
 20
9.0765996414
 30
0.0
 10
13.4253241533
 20
9.0813192836
 30
0.0
 10
13.4226613999
 20
9.0858179249
 30
0.0
 10
13.4199632761
 20
9.0900939752
 30
0.0
 10
13.4172307558
 20
9.0941459716
 30
0.0
 10
13.4144647651
 20
9.0979724417
 30
0.0
 10
13.4116661382
 20
9.1015721708
 30
0.0
 10
13.4079578628
 20
9.1059896873
 30
0.0
 10
13.4032502912
 20
9.1109674514
 30
0.0
 10
13.397377783
 20
9.1161274009
 30
0.0
 10
13.3923120025
 20
9.1197040025
 30
0.0
 10
13.3882180974
 20
9.1220652382
 30
0.0
 10
13.3861604424
 20
9.1230834485
 30
0.0
 10
13.3851296701
 20
9.1235507962
 30
0.0
  0
SPLINE
  5
383
100
AcDbEntity
  8
0
100
AcDbSpline
 62
7
  6
CONTINUOUS
 70
0
 71
3
 72
51
 73
47
 74
0
 42
0.0000001
 43
0.0000001
 44
0.0000000001
 40
0.0
 40
0.0
 40
0.0
 40
0.0
 40
0.0403800288
 40
0.0812151927
 40
0.1223918013
 40
0.1637946938
 40
0.2053080449
 40
0.2468155807
 40
0.2882010676
 40
0.3293486992
 40
0.3701435188
 40
0.4104718322
 40
0.4502216268
 40
0.4892829948
 40
0.5275485619
 40
0.5649139267
 40
0.6012781131
 40
0.6365440431
 40
0.6706190365
 40
0.7034153513
 40
0.7348507798
 40
0.7648493247
 40
0.7792882767
 40
0.7933427406
 40
0.8070053868
 40
0.8202693761
 40
0.8331285613
 40
0.845577386
 40
0.8576110896
 40
0.8692256373
 40
0.8804179302
 40
0.8911857801
 40
0.9015281301
 40
0.911445093
 40
0.920938193
 40
0.9300104902
 40
0.9386668639
 40
0.946914251
 40
0.9547619978
 40
0.96222224
 40
0.9693103485
 40
0.9760454567
 40
0.9824509818
 40
0.9885552196
 40
0.9943917876
 40
1.0
 40
1.0
 40
1.0
 40
1.0
 10
13.4968139198
 20
8.6269779276
 30
0.0
 10
13.4968139198
 20
8.6151162641
 30
0.0
 10
13.4966381971
 20
8.5912589029
 30
0.0
 10
13.4958606588
 20
8.5553134985
 30
0.0
 10
13.4945697329
 20
8.5190821575
 30
0.0
 10
13.4927692423
 20
8.4826731403
 30
0.0
 10
13.4904645534
 20
8.4461951575
 30
0.0
 10
13.4876625408
 20
8.4097571316
 30
0.0
 10
13.4843715782
 20
8.3734678679
 30
0.0
 10
13.4806015075
 20
8.3374357231
 30
0.0
 10
13.4763636124
 20
8.301768282
 30
0.0
 10
13.4716705838
 20
8.2665720336
 30
0.0
 10
13.4665364828
 20
8.2319520502
 30
0.0
 10
13.4609766991
 20
8.1980116713
 30
0.0
 10
13.4550079061
 20
8.1648521907
 30
0.0
 10
13.4486480122
 20
8.1325725495
 30
0.0
 10
13.4419161077
 20
8.101269036
 30
0.0
 10
13.4348324097
 20
8.0710349839
 30
0.0
 10
13.4274182003
 20
8.0419605076
 30
0.0
 10
13.4196957693
 20
8.0141321317
 30
0.0
 10
13.4116883238
 20
7.9876328236
 30
0.0
 10
13.4047121643
 20
7.9664620356
 30
0.0
 10
13.3989955075
 20
7.950258327
 30
0.0
 10
13.3947064264
 20
7.9386409515
 30
0.0
 10
13.3903644019
 20
7.9274125197
 30
0.0
 10
13.3859725934
 20
7.9165813883
 30
0.0
 10
13.3815343476
 20
7.9061556056
 30
0.0
 10
13.3770529226
 20
7.896142931
 30
0.0
 10
13.3725317159
 20
7.8865507853
 30
0.0
 10
13.3679740466
 20
7.8773862939
 30
0.0
 10
13.3633833531
 20
7.8686562271
 30
0.0
 10
13.3587629985
 20
7.8603670495
 30
0.0
 10
13.3541164405
 20
7.8525248573
 30
0.0
 10
13.3494470656
 20
7.8451354299
 30
0.0
 10
13.3447583212
 20
7.8382041699
 30
0.0
 10
13.3400535865
 20
7.8317361519
 30
0.0
 10
13.3353362573
 20
7.8257360754
 30
0.0
 10
13.3306096593
 20
7.8202083051
 30
0.0
 10
13.3258770796
 20
7.8151568531
 30
0.0
 10
13.3211417284
 20
7.810585405
 30
0.0
 10
13.3164067241
 20
7.8064973598
 30
0.0
 10
13.3116750977
 20
7.8028958293
 30
0.0
 10
13.3069498317
 20
7.7997837871
 30
0.0
 10
13.3022336863
 20
7.7971639508
 30
0.0
 10
13.2975302507
 20
7.7950392653
 30
0.0
 10
13.2943486003
 20
7.793935132
 30
0.0
 10
13.2927674655
 20
7.7934725369
 30
0.0
  0
SPLINE
  5
384
100
AcDbEntity
  8
0
100
AcDbSpline
 62
7
  6
CONTINUOUS
 70
0
 71
3
 72
53
 73
49
 74
0
 42
0.0000001
 43
0.0000001
 44
0.0000000001
 40
0.0
 40
0.0
 40
0.0
 40
0.0
 40
0.0427961252
 40
0.086106703
 40
0.1297878347
 40
0.173693731
 40
0.2176778248
 40
0.2615931479
 40
0.3052930477
 40
0.3486317782
 40
0.3914651355
 40
0.4336510843
 40
0.4750503942
 40
0.5155272859
 40
0.554950092
 40
0.5931919418
 40
0.6301314788
 40
0.6656536286
 40
0.6996504389
 40
0.7320220263
 40
0.7475700691
 40
0.7626785847
 40
0.7773379514
 40
0.791539187
 40
0.8052742532
 40
0.818535886
 40
0.8313179236
 40
0.8436151673
 40
0.855423736
 40
0.8667409819
 40
0.8775658805
 40
0.8878990342
 40
0.8977431186
 40
0.9071030169
 40
0.9159863575
 40
0.9244038347
 40
0.9323698829
 40
0.9399032333
 40
0.9470277466
 40
0.9537731813
 40
0.9601760645
 40
0.9662803849
 40
0.9721379981
 40
0.9778084666
 40
0.9833580671
 40
0.9888578952
 40
0.9943811421
 40
1.0
 40
1.0
 40
1.0
 40
1.0
 10
13.44582661
 20
8.5777279654
 30
0.0
 10
13.44582661
 20
8.568579419
 30
0.0
 10
13.4456784677
 20
8.5501720429
 30
0.0
 10
13.4450240072
 20
8.5224339265
 30
0.0
 10
13.4439380215
 20
8.4944718875
 30
0.0
 10
13.4424243471
 20
8.4663855856
 30
0.0
 10
13.4404883677
 20
8.4382750482
 30
0.0
 10
13.4381369753
 20
8.4102403946
 30
0.0
 10
13.4353785578
 20
8.3823814743
 30
0.0
 10
13.4322229633
 20
8.3547975048
 30
0.0
 10
13.4286814674
 20
8.3275867177
 30
0.0
 10
13.4247667332
 20
8.3008460048
 30
0.0
 10
13.420492767
 20
8.2746705697
 30
0.0
 10
13.4158748696
 20
8.2491535831
 30
0.0
 10
13.4109295827
 20
8.224385847
 30
0.0
 10
13.4056746318
 20
8.2004554569
 30
0.0
 10
13.4001288624
 20
8.1774474995
 30
0.0
 10
13.3943121812
 20
8.1554436562
 30
0.0
 10
13.3882454556
 20
8.13452217
 30
0.0
 10
13.3829307182
 20
8.1178342697
 30
0.0
 10
13.3785603028
 20
8.1050887599
 30
0.0
 10
13.3752777053
 20
8.0959742378
 30
0.0
 10
13.3719492193
 20
8.0871835495
 30
0.0
 10
13.3685777244
 20
8.0787244992
 30
0.0
 10
13.3651662992
 20
8.0706045793
 30
0.0
 10
13.3617179167
 20
8.0628309968
 30
0.0
 10
13.3582357132
 20
8.0554106142
 30
0.0
 10
13.3547227176
 20
8.0483500037
 30
0.0
 10
13.3511821106
 20
8.0416553699
 30
0.0
 10
13.3476169578
 20
8.0353326208
 30
0.0
 10
13.3440304585
 20
8.0293872761
 30
0.0
 10
13.3404256889
 20
8.0238245529
 30
0.0
 10
13.3368058295
 20
8.0186492636
 30
0.0
 10
13.3331739264
 20
8.0138659165
 30
0.0
 10
13.3295330853
 20
8.0094786101
 30
0.0
 10
13.3258862596
 20
8.0054911507
 30
0.0
 10
13.3222364017
 20
8.0019069605
 30
0.0
 10
13.3185862946
 20
7.9987292175
 30
0.0
 10
13.3149386665
 20
7.9959608083
 30
0.0
 10
13.3112961097
 20
7.9936044902
 30
0.0
 10
13.3076612117
 20
7.9916629108
 30
0.0
 10
13.3040366456
 20
7.9901387271
 30
0.0
 10
13.3004254022
 20
7.9890345959
 30
0.0
 10
13.2968310174
 20
7.9883530088
 30
0.0
 10
13.2932577824
 20
7.9880960194
 30
0.0
 10
13.2897104474
 20
7.9882647596
 30
0.0
 10
13.2861947144
 20
7.9888589866
 30
0.0
 10
13.283902885
 20
7.989529784
 30
0.0
 10
13.2827704362
 20
7.989930172
 30
0.0
  0
SPLINE
  5
385
100
AcDbEntity
  8
0
100
AcDbSpline
 62
7
  6
CONTINUOUS
 70
0
 71
3
 72
33
 73
29
 74
0
 42
0.0000001
 43
0.0000001
 44
0.0000000001
 40
0.0
 40
0.0
 40
0.0
 40
0.0
 40
0.0726835667
 40
0.1464931003
 40
0.2208710028
 40
0.2952530719
 40
0.369075308
 40
0.4417791477
 40
0.477540596
 40
0.5128182266
 40
0.5475462002
 40
0.5816600504
 40
0.6150968581
 40
0.6477954605
 40
0.6796966623
 40
0.7107434079
 40
0.7408809884
 40
0.7700572962
 40
0.7982231115
 40
0.8253323441
 40
0.8513423465
 40
0.8762143104
 40
0.8999137653
 40
0.9224110799
 40
0.943682134
 40
0.9637092087
 40
0.9824821846
 40
1.0
 40
1.0
 40
1.0
 40
1.0
 10
13.3360873348
 20
8.5777279591
 30
0.0
 10
13.3360873348
 20
8.5647287364
 30
0.0
 10
13.3357689659
 20
8.5385279638
 30
0.0
 10
13.3343760315
 20
8.4990472203
 30
0.0
 10
13.3320738463
 20
8.459304607
 30
0.0
 10
13.3288809851
 20
8.4196213675
 30
0.0
 10
13.3248232348
 20
8.3803182404
 30
0.0
 10
13.3207265395
 20
8.3479717746
 30
0.0
 10
13.3170346466
 20
8.3225297474
 30
0.0
 10
13.3140872104
 20
8.3038441699
 30
0.0
 10
13.3109521967
 20
8.2854880144
 30
0.0
 10
13.3076359399
 20
8.267498372
 30
0.0
 10
13.3041451723
 20
8.2499116263
 30
0.0
 10
13.3004869769
 20
8.232763328
 30
0.0
 10
13.2966687909
 20
8.216088131
 30
0.0
 10
13.2926983705
 20
8.1999197252
 30
0.0
 10
13.2885837787
 20
8.1842907711
 30
0.0
 10
13.2843333722
 20
8.1692328218
 30
0.0
 10
13.2799557995
 20
8.1547762499
 30
0.0
 10
13.2754599601
 20
8.1409501915
 30
0.0
 10
13.2708549897
 20
8.127782488
 30
0.0
 10
13.2661502349
 20
8.115299612
 30
0.0
 10
13.2613552559
 20
8.1035265968
 30
0.0
 10
13.2564797625
 20
8.0924869685
 30
0.0
 10
13.2515336161
 20
8.0822027454
 30
0.0
 10
13.2465266657
 20
8.0726941816
 30
0.0
 10
13.2414690935
 20
8.0639803141
 30
0.0
 10
13.237948596
 20
8.0585235633
 30
0.0
 10
13.236176653
 20
8.0559397795
 30
0.0
  0
SPLINE
  5
386
100
AcDbEntity
  8
0
100
AcDbSpline
 62
7
  6
CONTINUOUS
 70
0
 71
3
 72
28
 73
24
 74
0
 42
0.0000001
 43
0.0000001
 44
0.0000000001
 40
0.0
 40
0.0
 40
0.0
 40
0.0
 40
0.0683073229
 40
0.1375841489
 40
0.2074499463
 40
0.2775179976
 40
0.3474009881
 40
0.4167127496
 40
0.485071153
 40
0.5521008264
 40
0.6174359181
 40
0.6807229682
 40
0.7416238169
 40
0.7710793435
 40
0.7998200854
 40
0.8278094506
 40
0.8550125537
 40
0.8813961448
 40
0.9069288646
 40
0.9315814649
 40
0.9553267998
 40
0.9781402826
 40
1.0
 40
1.0
 40
1.0
 40
1.0
 10
13.285753529
 20
8.5702066188
 30
0.0
 10
13.285753529
 20
8.5601485477
 30
0.0
 10
13.2855435019
 20
8.5398891011
 30
0.0
 10
13.2846206591
 20
8.5093547435
 30
0.0
 10
13.2830925876
 20
8.4785850124
 30
0.0
 10
13.2809682108
 20
8.4477612781
 30
0.0
 10
13.2782600533
 20
8.4170652115
 30
0.0
 10
13.2749841219
 20
8.3866776816
 30
0.0
 10
13.2711598186
 20
8.3567777172
 30
0.0
 10
13.2668098166
 20
8.3275414592
 30
0.0
 10
13.2619599477
 20
8.2991410205
 30
0.0
 10
13.2566390116
 20
8.2717437246
 30
0.0
 10
13.2517865026
 20
8.2496439065
 30
0.0
 10
13.2476823139
 20
8.2325937129
 30
0.0
 10
13.2445409436
 20
8.2202975963
 30
0.0
 10
13.241306813
 20
8.2083688396
 30
0.0
 10
13.2379847131
 20
8.1968249862
 30
0.0
 10
13.23457955
 20
8.1856830323
 30
0.0
 10
13.2310963534
 20
8.1749593647
 30
0.0
 10
13.2275403124
 20
8.1646697458
 30
0.0
 10
13.2239166407
 20
8.1548292683
 30
0.0
 10
13.2202307562
 20
8.1454524436
 30
0.0
 10
13.2176804034
 20
8.1393880883
 30
0.0
 10
13.2163936671
 20
8.1364376837
 30
0.0
  0
SPLINE
  5
387
100
AcDbEntity
  8
0
100
AcDbSpline
 62
7
  6
CONTINUOUS
 70
0
 71
3
 72
23
 73
19
 74
0
 42
0.0000001
 43
0.0000001
 44
0.0000000001
 40
0.0
 40
0.0
 40
0.0
 40
0.0
 40
0.0639437083
 40
0.1275045299
 40
0.1906968448
 40
0.2535439333
 40
0.3160809001
 40
0.3783525407
 40
0.4404122346
 40
0.5023202862
 40
0.5641419975
 40
0.625945536
 40
0.6877996719
 40
0.7497714946
 40
0.8119242021
 40
0.8743150516
 40
0.9369935559
 40
1.0
 40
1.0
 40
1.0
 40
1.0
 10
10.8146510071
 20
8.2045555405
 30
0.0
 10
10.8214639533
 20
8.2040830611
 30
0.0
 10
10.8350971587
 20
8.2037249324
 30
0.0
 10
10.8554509315
 20
8.2049688283
 30
0.0
 10
10.8755018486
 20
8.2079859095
 30
0.0
 10
10.8950973619
 20
8.2127542701
 30
0.0
 10
10.9140905399
 20
8.2192384669
 30
0.0
 10
10.9323382927
 20
8.2273901507
 30
0.0
 10
10.9497032116
 20
8.237148302
 30
0.0
 10
10.9660544232
 20
8.2484397201
 30
0.0
 10
10.9812686637
 20
8.2611795565
 30
0.0
 10
10.9952312859
 20
8.2752719045
 30
0.0
 10
11.0078371475
 20
8.2906105674
 30
0.0
 10
11.0189914184
 20
8.307079974
 30
0.0
 10
11.0286102582
 20
8.3245558549
 30
0.0
 10
11.0366216626
 20
8.3429070573
 30
0.0
 10
11.0429653835
 20
8.3619933301
 30
0.0
 10
11.0460436543
 20
8.3750806838
 30
0.0
 10
11.0472928105
 20
8.3816929339
 30
0.0
  0
SPLINE
  5
388
100
AcDbEntity
  8
0
100
AcDbSpline
 62
7
  6
CONTINUOUS
 70
0
 71
3
 72
29
 73
25
 74
0
 42
0.0000001
 43
0.0000001
 44
0.0000000001
 40
0.0
 40
0.0
 40
0.0
 40
0.0
 40
0.0749503488
 40
0.1455452737
 40
0.2121261891
 40
0.2751192851
 40
0.3350448404
 40
0.3640583593
 40
0.3925449884
 40
0.4205963601
 40
0.4483089338
 40
0.4757832092
 40
0.5031225081
 40
0.530431847
 40
0.5578166247
 40
0.5853812653
 40
0.6132280351
 40
0.6414557868
 40
0.6701590145
 40
0.7293218109
 40
0.7913860629
 40
0.8569001023
 40
0.9263189548
 40
1.0
 40
1.0
 40
1.0
 40
1.0
 10
9.4845912625
 20
10.0885313912
 30
0.0
 10
9.4827633972
 20
10.0902324126
 30
0.0
 10
9.4793152489
 20
10.0936475107
 30
0.0
 10
9.4746625751
 20
10.0989754283
 30
0.0
 10
9.4706950775
 20
10.1043457318
 30
0.0
 10
9.4674187793
 20
10.1097530863
 30
0.0
 10
9.4652456635
 20
10.1143362271
 30
0.0
 10
9.4638744855
 20
10.1180019795
 30
0.0
 10
9.4630322464
 20
10.1207265644
 30
0.0
 10
9.4623656695
 20
10.123454786
 30
0.0
 10
9.4618750296
 20
10.1261858928
 30
0.0
 10
9.461560499
 20
10.1289190031
 30
0.0
 10
9.4614222226
 20
10.1316532549
 30
0.0
 10
9.4614603198
 20
10.1343877603
 30
0.0
 10
9.461674719
 20
10.137121626
 30
0.0
 10
9.4620653155
 20
10.1398539809
 30
0.0
 10
9.4626319768
 20
10.142583932
 30
0.0
 10
9.4633744725
 20
10.1453107159
 30
0.0
 10
9.4646106055
 20
10.1489774454
 30
0.0
 10
9.4666148511
 20
10.1535646666
 30
0.0
 10
9.4696938367
 20
10.1589818177
 30
0.0
 10
9.4734656303
 20
10.1643633121
 30
0.0
 10
9.4779241971
 20
10.1697035868
 30
0.0
 10
9.4812478819
 20
10.1731275973
 30
0.0
 10
9.4830133824
 20
10.17483294
 30
0.0
  0
SPLINE
  5
389
100
AcDbEntity
  8
0
100
AcDbSpline
 62
7
  6
CONTINUOUS
 70
0
 71
3
 72
49
 73
45
 74
0
 42
0.0000001
 43
0.0000001
 44
0.0000000001
 40
0.0
 40
0.0
 40
0.0
 40
0.0
 40
0.0993149735
 40
0.147926981
 40
0.1957330242
 40
0.2426525814
 40
0.2886078851
 40
0.3335235512
 40
0.377326532
 40
0.4199466199
 40
0.4613166609
 40
0.5013727725
 40
0.5400546525
 40
0.5773060047
 40
0.61307492
 40
0.6473142732
 40
0.6799822882
 40
0.7110433149
 40
0.740468599
 40
0.7682372936
 40
0.7943378637
 40
0.8187699615
 40
0.8303648838
 40
0.8415489047
 40
0.8523262958
 40
0.8627026725
 40
0.8726849662
 40
0.8822818645
 40
0.8915038482
 40
0.9003633831
 40
0.9088753726
 40
0.9170571867
 40
0.9249290358
 40
0.9325142852
 40
0.9398394908
 40
0.9469347004
 40
0.9538334061
 40
0.9605723516
 40
0.9671913054
 40
0.9737324153
 40
0.9802394893
 40
0.9867570905
 40
0.993329547
 40
1.0
 40
1.0
 40
1.0
 40
1.0
 10
13.44582661
 20
8.5777279654
 30
0.0
 10
13.44582661
 20
8.5905899406
 30
0.0
 10
13.4456102195
 20
8.6097486318
 30
0.0
 10
13.4448627196
 20
8.6350868409
 30
0.0
 10
13.4440843118
 20
8.6536342555
 30
0.0
 10
13.4430856387
 20
8.6718265293
 30
0.0
 10
13.441868544
 20
8.6896303624
 30
0.0
 10
13.4404352938
 20
8.7070131793
 30
0.0
 10
13.4387885274
 20
8.7239431961
 30
0.0
 10
13.4369312929
 20
8.7403894514
 30
0.0
 10
13.4348670372
 20
8.7563218914
 30
0.0
 10
13.4325995808
 20
8.7717114085
 30
0.0
 10
13.4301331085
 20
8.786529899
 30
0.0
 10
13.427472188
 20
8.8007503301
 30
0.0
 10
13.4246217503
 20
8.8143467928
 30
0.0
 10
13.4215870643
 20
8.8272945447
 30
0.0
 10
13.41837372
 20
8.8395700642
 30
0.0
 10
13.4149876475
 20
8.8511511317
 30
0.0
 10
13.4114350726
 20
8.8620168408
 30
0.0
 10
13.4077224596
 20
8.8721477664
 30
0.0
 10
13.4038565344
 20
8.8815256033
 30
0.0
 10
13.4004560533
 20
8.8888215602
 30
0.0
 10
13.3976558659
 20
8.8942575483
 30
0.0
 10
13.3955584743
 20
8.8980643985
 30
0.0
 10
13.3934280816
 20
8.9016707989
 30
0.0
 10
13.3912656356
 20
8.905075159
 30
0.0
 10
13.389072035
 20
8.9082759203
 30
0.0
 10
13.3868482541
 20
8.9112716629
 30
0.0
 10
13.3845952498
 20
8.9140610503
 30
0.0
 10
13.3823139142
 20
8.91664278
 30
0.0
 10
13.3800052376
 20
8.9190157087
 30
0.0
 10
13.3776701299
 20
8.9211787086
 30
0.0
 10
13.3753095034
 20
8.9231307018
 30
0.0
 10
13.3729243465
 20
8.9248707476
 30
0.0
 10
13.3705155752
 20
8.9263978397
 30
0.0
 10
13.3680842086
 20
8.9277110788
 30
0.0
 10
13.3656313334
 20
8.9288096457
 30
0.0
 10
13.3631580718
 20
8.9296926556
 30
0.0
 10
13.3606657254
 20
8.9303594725
 30
0.0
 10
13.3581556609
 20
8.9308095262
 30
0.0
 10
13.3556293645
 20
8.9310423694
 30
0.0
 10
13.3530883217
 20
8.9310579214
 30
0.0
 10
13.3505342669
 20
8.9308562174
 30
0.0
 10
13.3488394083
 20
8.9305796066
 30
0.0
 10
13.3479929925
 20
8.9304068316
 30
0.0
  0
SPLINE
  5
38A
100
AcDbEntity
  8
0
100
AcDbSpline
 62
7
  6
CONTINUOUS
 70
0
 71
3
 72
26
 73
22
 74
0
 42
0.0000001
 43
0.0000001
 44
0.0000000001
 40
0.0
 40
0.0
 40
0.0
 40
0.0
 40
0.0639795391
 40
0.0958392605
 40
0.1276087353
 40
0.1908722279
 40
0.2538034374
 40
0.2851607452
 40
0.3164469783
 40
0.3476672173
 40
0.3788270365
 40
0.4409749834
 40
0.5029580556
 40
0.5648337326
 40
0.6266627016
 40
0.6885070502
 40
0.7504284046
 40
0.8124860857
 40
0.8747353541
 40
0.9372258092
 40
1.0
 40
1.0
 40
1.0
 40
1.0
 10
10.8410505279
 20
8.2509975372
 30
0.0
 10
10.846950259
 20
8.2505883895
 30
0.0
 10
10.8558187272
 20
8.2503364608
 30
0.0
 10
10.8676098478
 20
8.2507356091
 30
0.0
 10
10.8793087596
 20
8.2516203819
 30
0.0
 10
10.8937888232
 20
8.2536348964
 30
0.0
 10
10.9080098459
 20
8.25685966
 30
0.0
 10
10.9191445618
 20
8.2601489805
 30
0.0
 10
10.9273546282
 20
8.2629631792
 30
0.0
 10
10.9354185905
 20
8.2661225532
 30
0.0
 10
10.9459467556
 20
8.2707831186
 30
0.0
 10
10.9586833848
 20
8.27744588
 30
0.0
 10
10.9731806052
 20
8.2867295346
 30
0.0
 10
10.9867833627
 20
8.2972334701
 30
0.0
 10
10.9993984183
 20
8.3088860849
 30
0.0
 10
11.0109402578
 20
8.3216083005
 30
0.0
 10
11.0213304605
 20
8.3353136557
 30
0.0
 10
11.0304985317
 20
8.3499088731
 30
0.0
 10
11.038382479
 20
8.3652951627
 30
0.0
 10
11.0449285898
 20
8.3813663793
 30
0.0
 10
11.0483640054
 20
8.3924412307
 30
0.0
 10
11.0498462872
 20
8.3980511935
 30
0.0
  0
SPLINE
  5
38B
100
AcDbEntity
  8
0
100
AcDbSpline
 62
7
  6
CONTINUOUS
 70
0
 71
3
 72
28
 73
24
 74
0
 42
0.0000001
 43
0.0000001
 44
0.0000000001
 40
0.0
 40
0.0
 40
0.0
 40
0.0
 40
0.0799474449
 40
0.1584916007
 40
0.2354036878
 40
0.310462967
 40
0.3834551618
 40
0.454174904
 40
0.5224262812
 40
0.5880242576
 40
0.6507959477
 40
0.7105821737
 40
0.7672392669
 40
0.7943552259
 40
0.8206432355
 40
0.8460908904
 40
0.8706871077
 40
0.8944225975
 40
0.91728977
 40
0.9392831099
 40
0.9603993145
 40
0.9806375763
 40
1.0
 40
1.0
 40
1.0
 40
1.0
 10
13.3360873348
 20
8.5777279591
 30
0.0
 10
13.3360873348
 20
8.585693738
 30
0.0
 10
13.3359695855
 20
8.6014857585
 30
0.0
 10
13.3354308979
 20
8.6249355845
 30
0.0
 10
13.3345332786
 20
8.6478871232
 30
0.0
 10
13.3332796447
 20
8.6702680044
 30
0.0
 10
13.3316740157
 20
8.6920078658
 30
0.0
 10
13.3297215582
 20
8.7130382956
 30
0.0
 10
13.3274285364
 20
8.7332931915
 30
0.0
 10
13.3248023084
 20
8.7527089071
 30
0.0
 10
13.3218513113
 20
8.7712245671
 30
0.0
 10
13.3185849796
 20
8.7887819911
 30
0.0
 10
13.3155665822
 20
8.8027663248
 30
0.0
 10
13.3129916016
 20
8.813426412
 30
0.0
 10
13.3110163966
 20
8.8210310946
 30
0.0
 10
13.3089705771
 20
8.8283567705
 30
0.0
 10
13.3068556925
 20
8.8353977077
 30
0.0
 10
13.3046734485
 20
8.8421483953
 30
0.0
 10
13.3024255389
 20
8.8486035588
 30
0.0
 10
13.3001137422
 20
8.8547581569
 30
0.0
 10
13.2977398577
 20
8.8606074277
 30
0.0
 10
13.2953057574
 20
8.8661467385
 30
0.0
 10
13.2936066331
 20
8.8697087981
 30
0.0
 10
13.2927458746
 20
8.871435359
 30
0.0
  0
SPLINE
  5
38C
100
AcDbEntity
  8
0
100
AcDbSpline
 62
7
  6
CONTINUOUS
 70
0
 71
3
 72
22
 73
18
 74
0
 42
0.0000001
 43
0.0000001
 44
0.0000000001
 40
0.0
 40
0.0
 40
0.0
 40
0.0
 40
0.1462387802
 40
0.2178087042
 40
0.2881835581
 40
0.3572438221
 40
0.4248735476
 40
0.4909607147
 40
0.5553967564
 40
0.6180774207
 40
0.6789029312
 40
0.737778396
 40
0.7946145167
 40
0.8493279021
 40
0.9018416088
 40
0.9520861045
 40
1.0
 40
1.0
 40
1.0
 40
1.0
 10
13.285753529
 20
8.5702066188
 30
0.0
 10
13.285753529
 20
8.581234025
 30
0.0
 10
13.2855670475
 20
8.5976592698
 30
0.0
 10
13.2849227357
 20
8.619381125
 30
0.0
 10
13.2842518138
 20
8.6352786609
 30
0.0
 10
13.2833910738
 20
8.6508694745
 30
0.0
 10
13.2823421147
 20
8.6661247275
 30
0.0
 10
13.2811069033
 20
8.6810161943
 30
0.0
 10
13.279687739
 20
8.6955163676
 30
0.0
 10
13.278087294
 20
8.7095984521
 30
0.0
 10
13.2763085587
 20
8.7232364362
 30
0.0
 10
13.2743548436
 20
8.7364051373
 30
0.0
 10
13.2722298197
 20
8.7490802651
 30
0.0
 10
13.2699374675
 20
8.7612384436
 30
0.0
 10
13.2674820463
 20
8.7728573158
 30
0.0
 10
13.2648681777
 20
8.7839153896
 30
0.0
 10
13.2629776101
 20
8.7910728446
 30
0.0
 10
13.2620033683
 20
8.7945520518
 30
0.0
  0
SPLINE
  5
38D
100
AcDbEntity
  8
0
100
AcDbSpline
 62
7
  6
CONTINUOUS
 70
0
 71
3
 72
21
 73
17
 74
0
 42
0.0000001
 43
0.0000001
 44
0.0000000001
 40
0.0
 40
0.0
 40
0.0
 40
0.0
 40
0.1274737985
 40
0.2540667908
 40
0.3170668583
 40
0.3798654312
 40
0.4424734233
 40
0.504903362
 40
0.5671697538
 40
0.6292888978
 40
0.6912786558
 40
0.7531583368
 40
0.8149484605
 40
0.8766705167
 40
0.938346769
 40
1.0
 40
1.0
 40
1.0
 40
1.0
 10
10.8485094875
 20
8.2860395802
 30
0.0
 10
10.8547688891
 20
8.2856054893
 30
0.0
 10
10.8672962592
 20
8.2853610041
 30
0.0
 10
10.8828787342
 20
8.2866386197
 30
0.0
 10
10.8951499361
 20
8.2886051419
 30
0.0
 10
10.9042229753
 20
8.2905442485
 30
0.0
 10
10.9131557261
 20
8.2929449378
 30
0.0
 10
10.9219259518
 20
8.2958011921
 30
0.0
 10
10.930511504
 20
8.2991057968
 30
0.0
 10
10.9388907559
 20
8.3028504909
 30
0.0
 10
10.9470425797
 20
8.3070258681
 30
0.0
 10
10.9549464645
 20
8.3116213802
 30
0.0
 10
10.9625824604
 20
8.3166254725
 30
0.0
 10
10.969931366
 20
8.3220256399
 30
0.0
 10
10.976974448
 20
8.3278079907
 30
0.0
 10
10.9814550118
 20
8.331908833
 30
0.0
 10
10.9836377035
 20
8.3340171496
 30
0.0
  0
SPLINE
  5
38E
100
AcDbEntity
  8
0
100
AcDbSpline
 62
7
  6
CONTINUOUS
 70
0
 71
3
 72
15
 73
11
 74
0
 42
0.0000001
 43
0.0000001
 44
0.0000000001
 40
0.0
 40
0.0
 40
0.0
 40
0.0
 40
0.1232438819
 40
0.2467981588
 40
0.3707780448
 40
0.4952853428
 40
0.620405138
 40
0.7462043058
 40
0.8727271939
 40
1.0
 40
1.0
 40
1.0
 40
1.0
 10
11.0338184293
 20
8.4916905726
 30
0.0
 10
11.0313271832
 20
8.4898378826
 30
0.0
 10
11.0261657845
 20
8.486353784
 30
0.0
 10
11.0179709153
 20
8.4818468546
 30
0.0
 10
11.0093729892
 20
8.4780848529
 30
0.0
 10
11.0004356027
 20
8.4750956907
 30
0.0
 10
10.99122382
 20
8.4729007955
 30
0.0
 10
10.9818046583
 20
8.4715160545
 30
0.0
 10
10.9722476036
 20
8.4709512129
 30
0.0
 10
10.9658473698
 20
8.4711235284
 30
0.0
 10
10.9626489228
 20
8.4713453414
 30
0.0
  0
SPLINE
  5
38F
100
AcDbEntity
  8
0
100
AcDbSpline
 62
7
  6
CONTINUOUS
 70
0
 71
3
 72
95
 73
91
 74
0
 42
0.0000001
 43
0.0000001
 44
0.0000000001
 40
0.0
 40
0.0
 40
0.0
 40
0.0
 40
0.0041939594
 40
0.0085762782
 40
0.0131520573
 40
0.0179256173
 40
0.0229004891
 40
0.0280792353
 40
0.0334636269
 40
0.0390547837
 40
0.0448532429
 40
0.0508590315
 40
0.0570716617
 40
0.0634902595
 40
0.0701135134
 40
0.0769398105
 40
0.09119284
 40
0.1062306851
 40
0.1220299823
 40
0.1385637575
 40
0.1558018515
 40
0.1737112679
 40
0.1922564673
 40
0.2113996207
 40
0.2311008356
 40
0.2513183603
 40
0.272008772
 40
0.2931271544
 40
0.3146272662
 40
0.3364617034
 40
0.3585820579
 40
0.380939072
 40
0.4034827908
 40
0.4261627133
 40
0.448927942
 40
0.4717273316
 40
0.4945096381
 40
0.5172236671
 40
0.539818422
 40
0.5622432532
 40
0.5844480073
 40
0.6063831771
 40
0.6280000543
 40
0.6492508828
 40
0.6700890155
 40
0.690469076
 40
0.710347124
 40
0.7296808303
 40
0.748429661
 40
0.7665550762
 40
0.7840207471
 40
0.8007927993
 40
0.816840092
 40
0.8321345465
 40
0.8466515423
 40
0.8536121205
 40
0.860370937
 40
0.8669261464
 40
0.8732762126
 40
0.8794199799
 40
0.8853566932
 40
0.8910860295
 40
0.8966081824
 40
0.9019238591
 40
0.9070344273
 40
0.9119418968
 40
0.9166491158
 40
0.9211597694
 40
0.9254786037
 40
0.9296114746
 40
0.9335655778
 40
0.9373495665
 40
0.9409737611
 40
0.9477890579
 40
0.9510148461
 40
0.9541417235
 40
0.9571900969
 40
0.9601821554
 40
0.9631415091
 40
0.9660926235
 40
0.9690601892
 40
0.9720684542
 40
0.9751406083
 40
0.9782982941
 40
0.9815612373
 40
0.98494706
 40
0.9884713247
 40
0.992147593
 40
0.9959873756
 40
1.0
 40
1.0
 40
1.0
 40
1.0
 10
9.4830133824
 20
10.17483294
 30
0.0
 10
9.4843835663
 20
10.176156436
 30
0.0
 10
9.4872536029
 20
10.1787930374
 30
0.0
 10
9.4918309767
 20
10.1826344992
 30
0.0
 10
9.4967707154
 20
10.186445416
 30
0.0
 10
9.5020696155
 20
10.1902234544
 30
0.0
 10
9.5077246446
 20
10.1939664859
 30
0.0
 10
9.5137324691
 20
10.1976723968
 30
0.0
 10
9.5200895492
 20
10.2013389856
 30
0.0
 10
9.5267921024
 20
10.2049640755
 30
0.0
 10
9.5338361391
 20
10.2085455382
 30
0.0
 10
9.5412174792
 20
10.2120812093
 30
0.0
 10
9.5489317092
 20
10.2155690244
 30
0.0
 10
9.5569742325
 20
10.2190068263
 30
0.0
 10
9.5653402349
 20
10.2223926474
 30
0.0
 10
9.5770891566
 20
10.2268998897
 30
0.0
 10
9.5925572122
 20
10.2323753537
 30
0.0
 10
9.6120673308
 20
10.2386159254
 30
0.0
 10
9.6327374895
 20
10.244602483
 30
0.0
 10
9.6545180957
 20
10.2503205161
 30
0.0
 10
9.677357075
 20
10.2557561505
 30
0.0
 10
9.7011996518
 20
10.2608961935
 30
0.0
 10
9.7259886026
 20
10.2657281694
 30
0.0
 10
9.7516643763
 20
10.2702403529
 30
0.0
 10
9.7781652557
 20
10.2744217971
 30
0.0
 10
9.8054275108
 20
10.278262361
 30
0.0
 10
9.8333855588
 20
10.2817527325
 30
0.0
 10
9.8619721258
 20
10.2848844512
 30
0.0
 10
9.891118412
 20
10.2876499281
 30
0.0
 10
9.92075426
 20
10.2900424631
 30
0.0
 10
9.9508083259
 20
10.2920562605
 30
0.0
 10
9.9812082523
 20
10.2936864431
 30
0.0
 10
10.0118808445
 20
10.2949290632
 30
0.0
 10
10.0427522474
 20
10.2957811119
 30
0.0
 10
10.0737481248
 20
10.2962405258
 30
0.0
 10
10.104793839
 20
10.2963061926
 30
0.0
 10
10.1358146316
 20
10.2959779538
 30
0.0
 10
10.166735805
 20
10.2952566042
 30
0.0
 10
10.1974829026
 20
10.2941438904
 30
0.0
 10
10.2279818891
 20
10.2926425067
 30
0.0
 10
10.25815933
 20
10.2907560887
 30
0.0
 10
10.2879425692
 20
10.2884892048
 30
0.0
 10
10.3172599055
 20
10.2858473458
 30
0.0
 10
10.3460407667
 20
10.2828369118
 30
0.0
 10
10.3742158813
 20
10.2794651974
 30
0.0
 10
10.401717448
 20
10.2757403745
 30
0.0
 10
10.4284793017
 20
10.2716714735
 30
0.0
 10
10.4544370768
 20
10.2672683616
 30
0.0
 10
10.4795283681
 20
10.2625417201
 30
0.0
 10
10.5036928858
 20
10.2575030184
 30
0.0
 10
10.526872616
 20
10.2521644858
 30
0.0
 10
10.5490119442
 20
10.2465390794
 30
0.0
 10
10.5700579025
 20
10.2406404516
 30
0.0
 10
10.5899599729
 20
10.2344829015
 30
0.0
 10
10.6057663859
 20
10.2290752265
 30
0.0
 10
10.617793998
 20
10.2246199758
 30
0.0
 10
10.6263728892
 20
10.2212699896
 30
0.0
 10
10.6346316139
 20
10.2178666429
 30
0.0
 10
10.6425652364
 20
10.2144119285
 30
0.0
 10
10.6501690114
 20
10.2109079337
 30
0.0
 10
10.6574384041
 20
10.2073567641
 30
0.0
 10
10.664369072
 20
10.2037605141
 30
0.0
 10
10.6709569075
 20
10.2001213662
 30
0.0
 10
10.6771979765
 20
10.1964414182
 30
0.0
 10
10.6830886116
 20
10.1927229068
 30
0.0
 10
10.6886252942
 20
10.1889679265
 30
0.0
 10
10.6938047985
 20
10.1851787333
 30
0.0
 10
10.6986240287
 20
10.1813574111
 30
0.0
 10
10.703080175
 20
10.1775061991
 30
0.0
 10
10.7071705834
 20
10.1736271235
 30
0.0
 10
10.7108927221
 20
10.1697225046
 30
0.0
 10
10.7142446572
 20
10.1657938105
 30
0.0
 10
10.7181364976
 20
10.1606339774
 30
0.0
 10
10.7213938471
 20
10.1553206519
 30
0.0
 10
10.723905265
 20
10.1498861773
 30
0.0
 10
10.7253746021
 20
10.1458711576
 30
0.0
 10
10.7264621676
 20
10.1418459993
 30
0.0
 10
10.7271666032
 20
10.1378132868
 30
0.0
 10
10.7274870586
 20
10.1337761975
 30
0.0
 10
10.7274229354
 20
10.1297379879
 30
0.0
 10
10.7269744522
 20
10.1257019999
 30
0.0
 10
10.726142155
 20
10.1216714732
 30
0.0
 10
10.7249272109
 20
10.117649407
 30
0.0
 10
10.7233310098
 20
10.1136385503
 30
0.0
 10
10.7213552239
 20
10.109641394
 30
0.0
 10
10.7190016699
 20
10.1056601901
 30
0.0
 10
10.7162721385
 20
10.1016970861
 30
0.0
 10
10.7131685533
 20
10.0977540663
 30
0.0
 10
10.7096931339
 20
10.0938334594
 30
0.0
 10
10.7071865269
 20
10.0912934299
 30
0.0
 10
10.705875586
 20
10.0900271581
 30
0.0
  0
SPLINE
  5
390
100
AcDbEntity
  8
0
100
AcDbSpline
 62
7
  6
CONTINUOUS
 70
0
 71
3
 72
11
 73
7
 74
0
 42
0.0000001
 43
0.0000001
 44
0.0000000001
 40
0.0
 40
0.0
 40
0.0
 40
0.0
 40
0.2523523548
 40
0.503081495
 40
0.7522586029
 40
1.0
 40
1.0
 40
1.0
 40
1.0
 10
10.9572601833
 20
8.3910846921
 30
0.0
 10
10.9630766247
 20
8.3906813205
 30
0.0
 10
10.9747167302
 20
8.3904132645
 30
0.0
 10
10.9920783513
 20
8.3916476718
 30
0.0
 10
11.0091394363
 20
8.3945083798
 30
0.0
 10
11.0202475392
 20
8.39749325
 30
0.0
 10
11.0256962537
 20
8.399246618
 30
0.0
  0
SPLINE
  5
391
100
AcDbEntity
  8
0
100
AcDbSpline
 62
7
  6
CONTINUOUS
 70
0
 71
3
 72
82
 73
78
 74
0
 42
0.0000001
 43
0.0000001
 44
0.0000000001
 40
0.0
 40
0.0
 40
0.0
 40
0.0
 40
0.0039519233
 40
0.0080647395
 40
0.012342495
 40
0.0167886289
 40
0.0214060732
 40
0.026197185
 40
0.0311636264
 40
0.0363065606
 40
0.0416267229
 40
0.0471244157
 40
0.0527996369
 40
0.0586519991
 40
0.0708846929
 40
0.0838144675
 40
0.0974289457
 40
0.1117124918
 40
0.1266466061
 40
0.142210273
 40
0.1583802366
 40
0.175131224
 40
0.1924361227
 40
0.2102661481
 40
0.228591009
 40
0.2473790421
 40
0.2665973324
 40
0.2862118179
 40
0.3061874145
 40
0.3264881266
 40
0.3470771474
 40
0.3679169529
 40
0.4101950861
 40
0.4530126005
 40
0.4960535846
 40
0.5389999985
 40
0.5815346968
 40
0.6025499267
 40
0.6233452672
 40
0.6438826847
 40
0.6641247832
 40
0.6840349017
 40
0.7035772094
 40
0.7227168067
 40
0.7414198382
 40
0.7596536168
 40
0.7773867292
 40
0.7945891587
 40
0.8112324227
 40
0.8272897426
 40
0.8427362119
 40
0.8575489803
 40
0.8717074848
 40
0.8851937372
 40
0.8979926842
 40
0.910092616
 40
0.9158781207
 40
0.9214863113
 40
0.9269169182
 40
0.9321700684
 40
0.9372462095
 40
0.9421462506
 40
0.9468715666
 40
0.9514240184
 40
0.9558061123
 40
0.96002096
 40
0.9640724357
 40
0.9679652593
 40
0.9717050387
 40
0.9752984775
 40
0.9787533994
 40
0.9820789031
 40
0.9883814967
 40
0.9913875045
 40
0.9943148566
 40
0.9971798486
 40
1.0
 40
1.0
 40
1.0
 40
1.0
 10
9.5728445071
 20
10.0787720056
 30
0.0
 10
9.5739023258
 20
10.0797937801
 30
0.0
 10
9.5761085367
 20
10.0818302064
 30
0.0
 10
9.5796094523
 20
10.0848054424
 30
0.0
 10
9.5833650702
 20
10.0877596418
 30
0.0
 10
9.587373372
 20
10.0906911985
 30
0.0
 10
9.5916323999
 20
10.0935988052
 30
0.0
 10
9.5961401468
 20
10.0964810502
 30
0.0
 10
9.6008944068
 20
10.0993366078
 30
0.0
 10
9.6058928599
 20
10.1021640624
 30
0.0
 10
9.6111330628
 20
10.1049620005
 30
0.0
 10
9.6166124228
 20
10.1077290996
 30
0.0
 10
9.6223282838
 20
10.1104639759
 30
0.0
 10
9.6303801571
 20
10.1141197486
 30
0.0
 10
9.6410249838
 20
10.1185889428
 30
0.0
 10
9.6545129613
 20
10.1237263141
 30
0.0
 10
9.6688708267
 20
10.1287040435
 30
0.0
 10
9.6840702992
 20
10.1335122354
 30
0.0
 10
9.7000815901
 20
10.138141339
 30
0.0
 10
9.7168731761
 20
10.1425821369
 30
0.0
 10
9.7344119721
 20
10.1468257791
 30
0.0
 10
9.7526633762
 20
10.1508638001
 30
0.0
 10
9.7715913443
 20
10.1546881485
 30
0.0
 10
9.7911584651
 20
10.1582912086
 30
0.0
 10
9.8113260477
 20
10.1616657997
 30
0.0
 10
9.8320542042
 20
10.164805196
 30
0.0
 10
9.8533019245
 20
10.1677031363
 30
0.0
 10
9.875027155
 20
10.1703538542
 30
0.0
 10
9.8971868916
 20
10.1727520764
 30
0.0
 10
9.9197372557
 20
10.1748930208
 30
0.0
 10
9.942633639
 20
10.1767724493
 30
0.0
 10
9.9737108537
 20
10.178934826
 30
0.0
 10
10.0130874196
 20
10.1809516901
 30
0.0
 10
10.0607595361
 20
10.1822731179
 30
0.0
 10
10.1086982844
 20
10.1824963084
 30
0.0
 10
10.1565240928
 20
10.1816194914
 30
0.0
 10
10.1961266614
 20
10.1799716265
 30
0.0
 10
10.2274608248
 20
10.1781021674
 30
0.0
 10
10.2506045742
 20
10.1764376522
 30
0.0
 10
10.2734390287
 20
10.1745085427
 30
0.0
 10
10.2959190125
 20
10.1723186547
 30
0.0
 10
10.3180000106
 20
10.1698723593
 30
0.0
 10
10.3396383133
 20
10.1671745251
 30
0.0
 10
10.3607910864
 20
10.1642305209
 30
0.0
 10
10.3814164669
 20
10.1610462055
 30
0.0
 10
10.4014736506
 20
10.1576279303
 30
0.0
 10
10.4209229702
 20
10.153982508
 30
0.0
 10
10.4397259705
 20
10.1501172035
 30
0.0
 10
10.4578454915
 20
10.1460397142
 30
0.0
 10
10.4752457556
 20
10.1417581714
 30
0.0
 10
10.4918924413
 20
10.1372811154
 30
0.0
 10
10.5077527574
 20
10.1326174675
 30
0.0
 10
10.5227954882
 20
10.1277765112
 30
0.0
 10
10.536991171
 20
10.1227678599
 30
0.0
 10
10.5503118543
 20
10.1176014654
 30
0.0
 10
10.5608131666
 20
10.1131085614
 30
0.0
 10
10.5687475934
 20
10.1094346903
 30
0.0
 10
10.5743744423
 20
10.1066874833
 30
0.0
 10
10.5797637585
 20
10.1039085633
 30
0.0
 10
10.5849129298
 20
10.1010993239
 30
0.0
 10
10.589819413
 20
10.0982610962
 30
0.0
 10
10.5944808164
 20
10.0953952795
 30
0.0
 10
10.598894878
 20
10.092503285
 30
0.0
 10
10.6030594149
 20
10.0895864492
 30
0.0
 10
10.6069724358
 20
10.0866462279
 30
0.0
 10
10.610632013
 20
10.0836839716
 30
0.0
 10
10.6140363592
 20
10.0807010635
 30
0.0
 10
10.617183837
 20
10.0776989311
 30
0.0
 10
10.6200728501
 20
10.0746788436
 30
0.0
 10
10.622701938
 20
10.0716423279
 30
0.0
 10
10.6250699292
 20
10.0685903095
 30
0.0
 10
10.6278273021
 20
10.0645754103
 30
0.0
 10
10.6301288928
 20
10.060455916
 30
0.0
 10
10.6319040809
 20
10.0562587043
 30
0.0
 10
10.6329479269
 20
10.0531515539
 30
0.0
 10
10.6337237729
 20
10.0500382813
 30
0.0
 10
10.6340640092
 20
10.0479470821
 30
0.0
 10
10.6341881304
 20
10.0469049231
 30
0.0
  0
SPLINE
  5
392
100
AcDbEntity
  8
0
100
AcDbSpline
 62
7
  6
CONTINUOUS
 70
0
 71
3
 72
42
 73
38
 74
0
 42
0.0000001
 43
0.0000001
 44
0.0000000001
 40
0.0
 40
0.0
 40
0.0
 40
0.0
 40
0.0311444347
 40
0.0467772112
 40
0.0624471461
 40
0.093891844
 40
0.1254739796
 40
0.1571813629
 40
0.1889992234
 40
0.2209106216
 40
0.2528967716
 40
0.2849374315
 40
0.3170113014
 40
0.34909644
 40
0.3811706886
 40
0.4132120984
 40
0.4451993552
 40
0.4771121951
 40
0.5089318057
 40
0.5406412074
 40
0.572225607
 40
0.6036727182
 40
0.6349730419
 40
0.6661200987
 40
0.6971106068
 40
0.7279445994
 40
0.7586254742
 40
0.7891599701
 40
0.8195580671
 40
0.8498328085
 40
0.864931571
 40
0.8800056544
 40
0.910083706
 40
0.9400929707
 40
0.9550814956
 40
0.9700611828
 40
1.0
 40
1.0
 40
1.0
 40
1.0
 10
12.6773672757
 20
6.8999628945
 30
0.0
 10
12.6725791142
 20
6.9002949546
 30
0.0
 10
12.665402283
 20
6.9010563733
 30
0.0
 10
12.6558995206
 20
6.9025865139
 30
0.0
 10
12.6464118444
 20
6.9044650569
 30
0.0
 10
12.6346472899
 20
6.9074568085
 30
0.0
 10
12.620776418
 20
6.9120489105
 30
0.0
 10
12.6072077534
 20
6.9176229397
 30
0.0
 10
12.59401405
 20
6.924149002
 30
0.0
 10
12.5812654926
 20
6.9315922411
 30
0.0
 10
12.5690300406
 20
6.9399129105
 30
0.0
 10
12.5573728772
 20
6.9490666121
 30
0.0
 10
12.5463561191
 20
6.9590045249
 30
0.0
 10
12.5360384745
 20
6.969673665
 30
0.0
 10
12.5264749374
 20
6.9810171645
 30
0.0
 10
12.5177164966
 20
6.9929745724
 30
0.0
 10
12.5098098664
 20
7.005482173
 30
0.0
 10
12.5027972394
 20
7.0184733217
 30
0.0
 10
12.496716063
 20
7.0318787963
 30
0.0
 10
12.4915988404
 20
7.0456271609
 30
0.0
 10
12.4874729573
 20
7.0596451419
 30
0.0
 10
12.4843605344
 20
7.0738580133
 30
0.0
 10
12.4822783075
 20
7.0881899892
 30
0.0
 10
12.4812375349
 20
7.102564624
 30
0.0
 10
12.4812439304
 20
7.1169052107
 30
0.0
 10
12.4822976337
 20
7.1311352011
 30
0.0
 10
12.4843931745
 20
7.1451785559
 30
0.0
 10
12.4875195959
 20
7.1589603542
 30
0.0
 10
12.4916601188
 20
7.1724064337
 30
0.0
 10
12.495942104
 20
7.1832835174
 30
0.0
 10
12.4998496227
 20
7.191742133
 30
0.0
 10
12.5040665958
 20
7.2000168236
 30
0.0
 10
12.5099216093
 20
7.2100254929
 30
0.0
 10
12.5165296676
 20
7.2195378266
 30
0.0
 10
12.5222399982
 20
7.2268088119
 30
0.0
 10
12.5282227249
 20
7.2338424733
 30
0.0
 10
12.5330159475
 20
7.2388498211
 30
0.0
 10
12.5363345005
 20
7.2420552776
 30
0.0
  0
SPLINE
  5
393
100
AcDbEntity
  8
0
100
AcDbSpline
 62
7
  6
CONTINUOUS
 70
0
 71
3
 72
15
 73
11
 74
0
 42
0.0000001
 43
0.0000001
 44
0.0000000001
 40
0.0
 40
0.0
 40
0.0
 40
0.0
 40
0.1462013888
 40
0.2850350028
 40
0.4169986302
 40
0.542720502
 40
0.6629498546
 40
0.7785580727
 40
0.8905389312
 40
1.0
 40
1.0
 40
1.0
 40
1.0
 10
11.3839555387
 20
9.953171029
 30
0.0
 10
11.3826451987
 20
9.9519053377
 30
0.0
 10
11.3801589733
 20
9.9493652589
 30
0.0
 10
11.3767662931
 20
9.9454245403
 30
0.0
 10
11.3738130578
 20
9.9414575222
 30
0.0
 10
11.3713023372
 20
9.9374672381
 30
0.0
 10
11.3692369805
 20
9.9334563764
 30
0.0
 10
11.3676196238
 20
9.9294278223
 30
0.0
 10
11.3664531853
 20
9.9253856479
 30
0.0
 10
11.3659736937
 20
9.9226617118
 30
0.0
 10
11.3658122687
 20
9.9213073128
 30
0.0
  0
SPLINE
  5
394
100
AcDbEntity
  8
0
100
AcDbSpline
 62
7
  6
CONTINUOUS
 70
0
 71
3
 72
29
 73
25
 74
0
 42
0.0000001
 43
0.0000001
 44
0.0000000001
 40
0.0
 40
0.0
 40
0.0
 40
0.0
 40
0.0749503488
 40
0.1455452737
 40
0.2121261891
 40
0.2751192851
 40
0.3350448404
 40
0.3640583593
 40
0.3925449884
 40
0.4205963601
 40
0.4483089338
 40
0.4757832092
 40
0.5031225081
 40
0.530431847
 40
0.5578166247
 40
0.5853812653
 40
0.6132280351
 40
0.6414557868
 40
0.6701590145
 40
0.7293218109
 40
0.7913860629
 40
0.8569001023
 40
0.9263189548
 40
1.0
 40
1.0
 40
1.0
 40
1.0
 10
11.2957022941
 20
9.9629304146
 30
0.0
 10
11.2938744288
 20
9.964631436
 30
0.0
 10
11.2904262805
 20
9.9680465341
 30
0.0
 10
11.2857736067
 20
9.9733744517
 30
0.0
 10
11.2818061091
 20
9.9787447552
 30
0.0
 10
11.2785298109
 20
9.9841521097
 30
0.0
 10
11.2763566951
 20
9.9887352505
 30
0.0
 10
11.2749855171
 20
9.9924010028
 30
0.0
 10
11.274143278
 20
9.9951255877
 30
0.0
 10
11.2734767011
 20
9.9978538094
 30
0.0
 10
11.2729860612
 20
10.0005849161
 30
0.0
 10
11.2726715306
 20
10.0033180265
 30
0.0
 10
11.2725332542
 20
10.0060522782
 30
0.0
 10
11.2725713514
 20
10.0087867837
 30
0.0
 10
11.2727857506
 20
10.0115206493
 30
0.0
 10
11.2731763471
 20
10.0142530043
 30
0.0
 10
11.2737430084
 20
10.0169829554
 30
0.0
 10
11.2744855041
 20
10.0197097392
 30
0.0
 10
11.2757216371
 20
10.0233764688
 30
0.0
 10
11.2777258828
 20
10.02796369
 30
0.0
 10
11.2808048683
 20
10.033380841
 30
0.0
 10
11.2845766619
 20
10.0387623354
 30
0.0
 10
11.2890352287
 20
10.0441026102
 30
0.0
 10
11.2923589135
 20
10.0475266207
 30
0.0
 10
11.294124414
 20
10.0492319633
 30
0.0
  0
SPLINE
  5
395
100
AcDbEntity
  8
0
100
AcDbSpline
 62
7
  6
CONTINUOUS
 70
0
 71
3
 72
15
 73
11
 74
0
 42
0.0000001
 43
0.0000001
 44
0.0000000001
 40
0.0
 40
0.0
 40
0.0
 40
0.0
 40
0.1462013888
 40
0.2850350028
 40
0.4169986302
 40
0.542720502
 40
0.6629498546
 40
0.7785580727
 40
0.8905389312
 40
1.0
 40
1.0
 40
1.0
 40
1.0
 10
9.5728445071
 20
10.0787720056
 30
0.0
 10
9.5715341671
 20
10.0775063143
 30
0.0
 10
9.5690479417
 20
10.0749662356
 30
0.0
 10
9.5656552615
 20
10.0710255169
 30
0.0
 10
9.5627020262
 20
10.0670584989
 30
0.0
 10
9.5601913056
 20
10.0630682147
 30
0.0
 10
9.5581259489
 20
10.059057353
 30
0.0
 10
9.5565085922
 20
10.055028799
 30
0.0
 10
9.5553421537
 20
10.0509866246
 30
0.0
 10
9.5548626621
 20
10.0482626885
 30
0.0
 10
9.5547012371
 20
10.0469082895
 30
0.0
  0
SPLINE
  5
396
100
AcDbEntity
  8
0
100
AcDbSpline
 62
7
  6
CONTINUOUS
 70
0
 71
3
 72
82
 73
78
 74
0
 42
0.0000001
 43
0.0000001
 44
0.0000000001
 40
0.0
 40
0.0
 40
0.0
 40
0.0
 40
0.0039519233
 40
0.0080647395
 40
0.012342495
 40
0.0167886289
 40
0.0214060732
 40
0.026197185
 40
0.0311636264
 40
0.0363065606
 40
0.0416267229
 40
0.0471244157
 40
0.0527996369
 40
0.0586519991
 40
0.0708846929
 40
0.0838144675
 40
0.0974289457
 40
0.1117124918
 40
0.1266466061
 40
0.142210273
 40
0.1583802366
 40
0.175131224
 40
0.1924361227
 40
0.2102661481
 40
0.228591009
 40
0.2473790421
 40
0.2665973324
 40
0.2862118179
 40
0.3061874145
 40
0.3264881266
 40
0.3470771474
 40
0.3679169529
 40
0.4101950861
 40
0.4530126005
 40
0.4960535846
 40
0.5389999985
 40
0.5815346968
 40
0.6025499267
 40
0.6233452672
 40
0.6438826847
 40
0.6641247832
 40
0.6840349017
 40
0.7035772094
 40
0.7227168067
 40
0.7414198382
 40
0.7596536168
 40
0.7773867292
 40
0.7945891587
 40
0.8112324227
 40
0.8272897426
 40
0.8427362119
 40
0.8575489803
 40
0.8717074848
 40
0.8851937372
 40
0.8979926842
 40
0.910092616
 40
0.9158781207
 40
0.9214863113
 40
0.9269169182
 40
0.9321700684
 40
0.9372462095
 40
0.9421462506
 40
0.9468715666
 40
0.9514240184
 40
0.9558061123
 40
0.96002096
 40
0.9640724357
 40
0.9679652593
 40
0.9717050387
 40
0.9752984775
 40
0.9787533994
 40
0.9820789031
 40
0.9883814967
 40
0.9913875045
 40
0.9943148566
 40
0.9971798486
 40
1.0
 40
1.0
 40
1.0
 40
1.0
 10
11.3839555387
 20
9.953171029
 30
0.0
 10
11.3850133574
 20
9.9541928035
 30
0.0
 10
11.3872195683
 20
9.9562292297
 30
0.0
 10
11.3907204839
 20
9.9592044658
 30
0.0
 10
11.3944761018
 20
9.9621586652
 30
0.0
 10
11.3984844036
 20
9.9650902218
 30
0.0
 10
11.4027434315
 20
9.9679978286
 30
0.0
 10
11.4072511784
 20
9.9708800735
 30
0.0
 10
11.4120054384
 20
9.9737356311
 30
0.0
 10
11.4170038915
 20
9.9765630857
 30
0.0
 10
11.4222440944
 20
9.9793610238
 30
0.0
 10
11.4277234545
 20
9.982128123
 30
0.0
 10
11.4334393154
 20
9.9848629993
 30
0.0
 10
11.4414911887
 20
9.988518772
 30
0.0
 10
11.4521360155
 20
9.9929879661
 30
0.0
 10
11.4656239929
 20
9.9981253375
 30
0.0
 10
11.4799818583
 20
10.0031030668
 30
0.0
 10
11.4951813308
 20
10.0079112587
 30
0.0
 10
11.5111926217
 20
10.0125403623
 30
0.0
 10
11.5279842077
 20
10.0169811603
 30
0.0
 10
11.5455230037
 20
10.0212248025
 30
0.0
 10
11.5637744078
 20
10.0252628234
 30
0.0
 10
11.5827023759
 20
10.0290871719
 30
0.0
 10
11.6022694967
 20
10.0326902319
 30
0.0
 10
11.6224370793
 20
10.0360648231
 30
0.0
 10
11.6431652358
 20
10.0392042194
 30
0.0
 10
11.6644129561
 20
10.0421021597
 30
0.0
 10
11.6861381866
 20
10.0447528775
 30
0.0
 10
11.7082979232
 20
10.0471510998
 30
0.0
 10
11.7308482873
 20
10.0492920442
 30
0.0
 10
11.7537446706
 20
10.0511714727
 30
0.0
 10
11.7848218853
 20
10.0533338493
 30
0.0
 10
11.8241984512
 20
10.0553507134
 30
0.0
 10
11.8718705677
 20
10.0566721412
 30
0.0
 10
11.919809316
 20
10.0568953318
 30
0.0
 10
11.9676351244
 20
10.0560185148
 30
0.0
 10
12.007237693
 20
10.0543706499
 30
0.0
 10
12.0385718564
 20
10.0525011908
 30
0.0
 10
12.0617156058
 20
10.0508366756
 30
0.0
 10
12.0845500603
 20
10.048907566
 30
0.0
 10
12.1070300441
 20
10.0467176781
 30
0.0
 10
12.1291110422
 20
10.0442713827
 30
0.0
 10
12.1507493449
 20
10.0415735485
 30
0.0
 10
12.171902118
 20
10.0386295442
 30
0.0
 10
12.1925274985
 20
10.0354452289
 30
0.0
 10
12.2125846822
 20
10.0320269537
 30
0.0
 10
12.2320340018
 20
10.0283815313
 30
0.0
 10
12.2508370021
 20
10.0245162269
 30
0.0
 10
12.2689565231
 20
10.0204387375
 30
0.0
 10
12.2863567872
 20
10.0161571947
 30
0.0
 10
12.3030034729
 20
10.0116801387
 30
0.0
 10
12.318863789
 20
10.0070164908
 30
0.0
 10
12.3339065198
 20
10.0021755346
 30
0.0
 10
12.3481022026
 20
9.9971668833
 30
0.0
 10
12.3614228859
 20
9.9920004888
 30
0.0
 10
12.3719241982
 20
9.9875075848
 30
0.0
 10
12.379858625
 20
9.9838337137
 30
0.0
 10
12.3854854739
 20
9.9810865066
 30
0.0
 10
12.3908747902
 20
9.9783075867
 30
0.0
 10
12.3960239614
 20
9.9754983473
 30
0.0
 10
12.4009304446
 20
9.9726601195
 30
0.0
 10
12.405591848
 20
9.9697943028
 30
0.0
 10
12.4100059096
 20
9.9669023083
 30
0.0
 10
12.4141704465
 20
9.9639854725
 30
0.0
 10
12.4180834674
 20
9.9610452512
 30
0.0
 10
12.4217430446
 20
9.958082995
 30
0.0
 10
12.4251473908
 20
9.9551000869
 30
0.0
 10
12.4282948686
 20
9.9520979544
 30
0.0
 10
12.4311838817
 20
9.949077867
 30
0.0
 10
12.4338129697
 20
9.9460413513
 30
0.0
 10
12.4361809608
 20
9.9429893328
 30
0.0
 10
12.4389383337
 20
9.9389744337
 30
0.0
 10
12.4412399244
 20
9.9348549393
 30
0.0
 10
12.4430151125
 20
9.9306577277
 30
0.0
 10
12.4440589585
 20
9.9275505773
 30
0.0
 10
12.4448348045
 20
9.9244373047
 30
0.0
 10
12.4451750408
 20
9.9223461054
 30
0.0
 10
12.445299162
 20
9.9213039464
 30
0.0
  0
SPLINE
  5
397
100
AcDbEntity
  8
0
100
AcDbSpline
 62
7
  6
CONTINUOUS
 70
0
 71
3
 72
39
 73
35
 74
0
 42
0.0000001
 43
0.0000001
 44
0.0000000001
 40
0.0
 40
0.0
 40
0.0
 40
0.0
 40
0.0311450469
 40
0.0624431113
 40
0.09388834
 40
0.1254709884
 40
0.1571788814
 40
0.1889972579
 40
0.2209091718
 40
0.2528958393
 40
0.2849370182
 40
0.3170114084
 40
0.349097068
 40
0.3811718384
 40
0.4132137706
 40
0.4452015496
 40
0.4771149115
 40
0.5089350441
 40
0.5406449673
 40
0.5722298867
 40
0.6036775163
 40
0.6349783575
 40
0.6661259304
 40
0.6971169519
 40
0.7279514552
 40
0.7586328387
 40
0.7891678413
 40
0.8195664421
 40
0.8498416837
 40
0.8800094162
 40
0.9100879631
 40
0.9400977203
 40
0.9700606956
 40
1.0
 40
1.0
 40
1.0
 40
1.0
 10
10.8063688043
 20
8.0337970351
 30
0.0
 10
10.7966155722
 20
8.034473424
 30
0.0
 10
10.7771034407
 20
8.0365434202
 30
0.0
 10
10.7480718032
 20
8.041757817
 30
0.0
 10
10.7193511234
 20
8.0490615907
 30
0.0
 10
10.6910965015
 20
8.0584154979
 30
0.0
 10
10.663458063
 20
8.0697694153
 30
0.0
 10
10.6365832356
 20
8.0830625984
 30
0.0
 10
10.6106151776
 20
8.0982239947
 30
0.0
 10
10.5856922607
 20
8.1151726536
 30
0.0
 10
10.561947285
 20
8.1338181548
 30
0.0
 10
10.5395067782
 20
8.1540610562
 30
0.0
 10
10.5184903106
 20
8.1757934154
 30
0.0
 10
10.4990098988
 20
8.1988993972
 30
0.0
 10
10.4811694118
 20
8.2232558759
 30
0.0
 10
10.4650640205
 20
8.2487330769
 30
0.0
 10
10.4507796478
 20
8.2751952359
 30
0.0
 10
10.4383925659
 20
8.3025013508
 30
0.0
 10
10.427968986
 20
8.3305059156
 30
0.0
 10
10.4195647161
 20
8.3590596848
 30
0.0
 10
10.4132247987
 20
8.3880104399
 30
0.0
 10
10.4089833107
 20
8.4172038095
 30
0.0
 10
10.4068631855
 20
8.4464840799
 30
0.0
 10
10.4068760884
 20
8.4756950108
 30
0.0
 10
10.4090222931
 20
8.5046806573
 30
0.0
 10
10.4132906711
 20
8.5332862046
 30
0.0
 10
10.4196587721
 20
8.5613587865
 30
0.0
 10
10.4280929244
 20
8.5887483004
 30
0.0
 10
10.4385483607
 20
8.6153082044
 30
0.0
 10
10.4509694554
 20
8.6408963807
 30
0.0
 10
10.4652898766
 20
8.6653757065
 30
0.0
 10
10.4814336249
 20
8.6886154905
 30
0.0
 10
10.499312808
 20
8.7104896434
 30
0.0
 10
10.512331215
 20
8.7240896029
 30
0.0
 10
10.5190908867
 20
8.7306189499
 30
0.0
  0
SPLINE
  5
398
100
AcDbEntity
  8
0
100
AcDbSpline
 62
7
  6
CONTINUOUS
 70
0
 71
3
 72
21
 73
17
 74
0
 42
0.0000001
 43
0.0000001
 44
0.0000000001
 40
0.0
 40
0.0
 40
0.0
 40
0.0
 40
0.06165322
 40
0.1233294719
 40
0.1850515326
 40
0.2468416528
 40
0.308721334
 40
0.3707110997
 40
0.4328302469
 40
0.4950966389
 40
0.5575265783
 40
0.620134583
 40
0.6829331586
 40
0.745933179
 40
0.8725262751
 40
1.0
 40
1.0
 40
1.0
 40
1.0
 10
9.0754372522
 20
7.2096117717
 30
0.0
 10
9.0731591836
 20
7.2074113398
 30
0.0
 10
9.0684828084
 20
7.2031313532
 30
0.0
 10
9.0611319689
 20
7.1970963637
 30
0.0
 10
9.0534619133
 20
7.1914602973
 30
0.0
 10
9.0454922404
 20
7.1862375958
 30
0.0
 10
9.0372429881
 20
7.1814413047
 30
0.0
 10
9.028734954
 20
7.1770835253
 30
0.0
 10
9.0199895551
 20
7.1731752537
 30
0.0
 10
9.0110288564
 20
7.1697262709
 30
0.0
 10
9.0018754121
 20
7.1667452365
 30
0.0
 10
8.9925523389
 20
7.1642396881
 30
0.0
 10
8.983082858
 20
7.1622158642
 30
0.0
 10
8.9702754671
 20
7.1601634302
 30
0.0
 10
8.9540121233
 20
7.1588300191
 30
0.0
 10
8.9409373759
 20
7.1590851881
 30
0.0
 10
8.934404477
 20
7.1595382462
 30
0.0
  0
SPLINE
  5
399
100
AcDbEntity
  8
0
100
AcDbSpline
 62
7
  6
CONTINUOUS
 70
0
 71
3
 72
48
 73
44
 74
0
 42
0.0000001
 43
0.0000001
 44
0.0000000001
 40
0.0
 40
0.0
 40
0.0
 40
0.0
 40
0.0063158899
 40
0.0126706797
 40
0.0191025165
 40
0.025648058
 40
0.0323419221
 40
0.0392162652
 40
0.0536140552
 40
0.0611947659
 40
0.0690564915
 40
0.0772175997
 40
0.0856939645
 40
0.0944993396
 40
0.103645447
 40
0.1131421893
 40
0.122997946
 40
0.1332195527
 40
0.1438126331
 40
0.1547816545
 40
0.1661299881
 40
0.1778601838
 40
0.1899738557
 40
0.215353302
 40
0.2422691224
 40
0.2707113841
 40
0.3006623731
 40
0.332097648
 40
0.3649869327
 40
0.3992948208
 40
0.434981328
 40
0.4720023222
 40
0.5103099054
 40
0.5498527799
 40
0.590576537
 40
0.632423903
 40
0.6753349407
 40
0.7192473098
 40
0.7640964278
 40
0.8098157282
 40
0.8563368617
 40
0.9035891153
 40
1.0
 40
1.0
 40
1.0
 40
1.0
 10
13.4007627024
 20
9.1253553064
 30
0.0
 10
13.4018942847
 20
9.125276836
 30
0.0
 10
13.4041590704
 20
9.1250267825
 30
0.0
 10
13.4075308799
 20
9.1243750616
 30
0.0
 10
13.4108801423
 20
9.1234466201
 30
0.0
 10
13.4142049078
 20
9.122242256
 30
0.0
 10
13.417503884
 20
9.1207626717
 30
0.0
 10
13.4219334961
 20
9.1183881708
 30
0.0
 10
13.426242846
 20
9.1154814628
 30
0.0
 10
13.430413173
 20
9.1121129985
 30
0.0
 10
13.4335631957
 20
9.1092730014
 30
0.0
 10
13.4366795576
 20
9.1061645942
 30
0.0
 10
13.4397615215
 20
9.1027889232
 30
0.0
 10
13.4428077967
 20
9.099147419
 30
0.0
 10
13.4458172685
 20
9.0952415684
 30
0.0
 10
13.4487888069
 20
9.0910729844
 30
0.0
 10
13.4517212034
 20
9.0866433235
 30
0.0
 10
13.4546133604
 20
9.0819544136
 30
0.0
 10
13.4574641035
 20
9.0770081402
 30
0.0
 10
13.4602722823
 20
9.0718065069
 30
0.0
 10
13.4630368013
 20
9.066351648
 30
0.0
 10
13.4657565184
 20
9.0606457525
 30
0.0
 10
13.4693779467
 20
9.0525806164
 30
0.0
 10
13.4737727371
 20
9.0418767233
 30
0.0
 10
13.4787717391
 20
9.0282625709
 30
0.0
 10
13.4835665974
 20
9.0137083783
 30
0.0
 10
13.4881494004
 20
8.9982379613
 30
0.0
 10
13.4925125829
 20
8.9818764361
 30
0.0
 10
13.4966489063
 20
8.9646505539
 30
0.0
 10
13.500551493
 20
8.9465885159
 30
0.0
 10
13.5042138403
 20
8.9277199518
 30
0.0
 10
13.5076298461
 20
8.9080758604
 30
0.0
 10
13.5107938257
 20
8.8876885537
 30
0.0
 10
13.5137005064
 20
8.8665915888
 30
0.0
 10
13.5163450422
 20
8.8448197055
 30
0.0
 10
13.5187230189
 20
8.8224087735
 30
0.0
 10
13.5208304799
 20
8.7993957307
 30
0.0
 10
13.5226639133
 20
8.7758185241
 30
0.0
 10
13.5242202652
 20
8.7517160254
 30
0.0
 10
13.5254969284
 20
8.7271279828
 30
0.0
 10
13.5264917857
 20
8.7020949673
 30
0.0
 10
13.5274465849
 20
8.6679516967
 30
0.0
 10
13.5277235488
 20
8.6421492145
 30
0.0
 10
13.5277235488
 20
8.6248343376
 30
0.0
  0
SPLINE
  5
39A
100
AcDbEntity
  8
0
100
AcDbSpline
 62
7
  6
CONTINUOUS
 70
0
 71
3
 72
53
 73
49
 74
0
 42
0.0000001
 43
0.0000001
 44
0.0000000001
 40
0.0
 40
0.0
 40
0.0
 40
0.0
 40
0.0417740371
 40
0.0840369047
 40
0.1266584536
 40
0.1695064221
 40
0.212448016
 40
0.2553499502
 40
0.2980791306
 40
0.3405031348
 40
0.382490749
 40
0.4239124945
 40
0.4646411616
 40
0.5045523515
 40
0.5435250275
 40
0.5814420819
 40
0.6181909261
 40
0.6536641145
 40
0.6877600167
 40
0.72038356
 40
0.7361158328
 40
0.7514478069
 40
0.7663698229
 40
0.7808728747
 40
0.7949485304
 40
0.808589127
 40
0.8217876764
 40
0.8345380756
 40
0.8468350633
 40
0.8586743964
 40
0.8700529164
 40
0.8809686715
 40
0.8914211252
 40
0.901411244
 40
0.9109418555
 40
0.9200177659
 40
0.9286462506
 40
0.9368373022
 40
0.9446042293
 40
0.951964127
 40
0.9589385596
 40
0.9655542544
 40
0.9718437693
 40
0.9778461758
 40
0.9836073577
 40
0.9891800489
 40
0.9946230796
 40
1.0
 40
1.0
 40
1.0
 40
1.0
 10
13.5277235488
 20
8.6248343376
 30
0.0
 10
13.5277235488
 20
8.6123442294
 30
0.0
 10
13.527528691
 20
8.5872174639
 30
0.0
 10
13.5266672532
 20
8.5493560677
 30
0.0
 10
13.5252374847
 20
8.5111904875
 30
0.0
 10
13.5232440652
 20
8.4728470311
 30
0.0
 10
13.5206935865
 20
8.4344525797
 30
0.0
 10
13.5175944774
 20
8.3961341447
 30
0.0
 10
13.5139570044
 20
8.3580185014
 30
0.0
 10
13.5097932256
 20
8.3202317447
 30
0.0
 10
13.5051169551
 20
8.2828988757
 30
0.0
 10
13.499943717
 20
8.2461433829
 30
0.0
 10
13.4942906947
 20
8.2100868305
 30
0.0
 10
13.4881766768
 20
8.1748484497
 30
0.0
 10
13.4816219941
 20
8.1405447406
 30
0.0
 10
13.4746484555
 20
8.1072890723
 30
0.0
 10
13.4672792731
 20
8.0751913221
 30
0.0
 10
13.4595389985
 20
8.0443574116
 30
0.0
 10
13.4514534015
 20
8.0148892454
 30
0.0
 10
13.4443671544
 20
7.9912742824
 30
0.0
 10
13.4385341437
 20
7.9731469998
 30
0.0
 10
13.4341429391
 20
7.9601170421
 30
0.0
 10
13.4296859695
 20
7.9474985422
 30
0.0
 10
13.4251669427
 20
7.9353018969
 30
0.0
 10
13.4205895607
 20
7.9235371794
 30
0.0
 10
13.4159576689
 20
7.9122140773
 30
0.0
 10
13.4112750511
 20
7.9013419281
 30
0.0
 10
13.4065456264
 20
7.8909296672
 30
0.0
 10
13.4017732716
 20
7.8809858586
 30
0.0
 10
13.3969619401
 20
7.8715186566
 30
0.0
 10
13.3921155955
 20
7.8625358112
 30
0.0
 10
13.3872381922
 20
7.8540446688
 30
0.0
 10
13.3823337554
 20
7.8460521282
 30
0.0
 10
13.3774062098
 20
7.8385647023
 30
0.0
 10
13.3724595897
 20
7.8315884124
 30
0.0
 10
13.367497758
 20
7.8251289161
 30
0.0
 10
13.3625246709
 20
7.8191913582
 30
0.0
 10
13.3575440842
 20
7.8137805385
 30
0.0
 10
13.3525597622
 20
7.8089007864
 30
0.0
 10
13.3475752877
 20
7.8045561102
 30
0.0
 10
13.3425941422
 20
7.8007501994
 30
0.0
 10
13.3376197163
 20
7.7974864822
 30
0.0
 10
13.3326553043
 20
7.7947683446
 30
0.0
 10
13.3277043562
 20
7.7925989844
 30
0.0
 10
13.3227706231
 20
7.7909817645
 30
0.0
 10
13.3178582301
 20
7.7899196776
 30
0.0
 10
13.3129730986
 20
7.7894154303
 30
0.0
 10
13.3097297851
 20
7.7894524081
 30
0.0
 10
13.3081259798
 20
7.7895636252
 30
0.0
  0
SPLINE
  5
39B
100
AcDbEntity
  8
0
100
AcDbSpline
 62
4
  6
CONTINUOUS
 70
0
 71
3
 72
455
 73
451
 74
0
 42
0.0000001
 43
0.0000001
 44
0.0000000001
 40
0.0
 40
0.0
 40
0.0
 40
0.0
 40
0.015625
 40
0.0234375
 40
0.03125
 40
0.0390625
 40
0.04296875
 40
0.046875
 40
0.05078125
 40
0.052734375
 40
0.0546875
 40
0.056640625
 40
0.05859375
 40
0.0595703125
 40
0.060546875
 40
0.0615234375
 40
0.0620117188
 40
0.0622558594
 40
0.0625
 40
0.0627441406
 40
0.0629882812
 40
0.0634765625
 40
0.064453125
 40
0.0654296875
 40
0.06640625
 40
0.068359375
 40
0.0703125
 40
0.072265625
 40
0.07421875
 40
0.078125
 40
0.08203125
 40
0.0859375
 40
0.09375
 40
0.1015625
 40
0.10546875
 40
0.109375
 40
0.11328125
 40
0.115234375
 40
0.1171875
 40
0.119140625
 40
0.12109375
 40
0.1220703125
 40
0.123046875
 40
0.1240234375
 40
0.1245117188
 40
0.1247558594
 40
0.125
 40
0.1252441406
 40
0.1254882812
 40
0.1259765625
 40
0.126953125
 40
0.1279296875
 40
0.12890625
 40
0.130859375
 40
0.1328125
 40
0.134765625
 40
0.13671875
 40
0.140625
 40
0.14453125
 40
0.1484375
 40
0.15625
 40
0.1640625
 40
0.16796875
 40
0.171875
 40
0.17578125
 40
0.177734375
 40
0.1796875
 40
0.181640625
 40
0.18359375
 40
0.1845703125
 40
0.185546875
 40
0.1860351562
 40
0.1865234375
 40
0.1870117188
 40
0.1872558594
 40
0.1875
 40
0.1877441406
 40
0.1879882812
 40
0.1884765625
 40
0.1889648438
 40
0.189453125
 40
0.1904296875
 40
0.19140625
 40
0.193359375
 40
0.1953125
 40
0.197265625
 40
0.19921875
 40
0.203125
 40
0.20703125
 40
0.2109375
 40
0.21875
 40
0.2265625
 40
0.23046875
 40
0.234375
 40
0.23828125
 40
0.240234375
 40
0.2421875
 40
0.244140625
 40
0.24609375
 40
0.2470703125
 40
0.248046875
 40
0.2490234375
 40
0.2495117188
 40
0.2497558594
 40
0.25
 40
0.2502441406
 40
0.2504882812
 40
0.2509765625
 40
0.251953125
 40
0.2529296875
 40
0.25390625
 40
0.255859375
 40
0.2578125
 40
0.259765625
 40
0.26171875
 40
0.265625
 40
0.26953125
 40
0.2734375
 40
0.28125
 40
0.2890625
 40
0.29296875
 40
0.296875
 40
0.30078125
 40
0.302734375
 40
0.3046875
 40
0.306640625
 40
0.30859375
 40
0.3095703125
 40
0.310546875
 40
0.3115234375
 40
0.3120117188
 40
0.3122558594
 40
0.3125
 40
0.3127441406
 40
0.3129882812
 40
0.3134765625
 40
0.314453125
 40
0.3154296875
 40
0.31640625
 40
0.318359375
 40
0.3203125
 40
0.322265625
 40
0.32421875
 40
0.328125
 40
0.33203125
 40
0.3359375
 40
0.34375
 40
0.3515625
 40
0.35546875
 40
0.359375
 40
0.36328125
 40
0.365234375
 40
0.3671875
 40
0.369140625
 40
0.37109375
 40
0.3720703125
 40
0.373046875
 40
0.3740234375
 40
0.3745117188
 40
0.3747558594
 40
0.375
 40
0.3752441406
 40
0.3754882812
 40
0.3759765625
 40
0.376953125
 40
0.3779296875
 40
0.37890625
 40
0.380859375
 40
0.3828125
 40
0.384765625
 40
0.38671875
 40
0.390625
 40
0.39453125
 40
0.3984375
 40
0.40625
 40
0.4140625
 40
0.41796875
 40
0.421875
 40
0.42578125
 40
0.427734375
 40
0.4296875
 40
0.431640625
 40
0.43359375
 40
0.4345703125
 40
0.435546875
 40
0.4360351562
 40
0.4365234375
 40
0.4370117188
 40
0.4372558594
 40
0.4375
 40
0.4377441406
 40
0.4379882812
 40
0.4384765625
 40
0.4389648438
 40
0.439453125
 40
0.4404296875
 40
0.44140625
 40
0.443359375
 40
0.4453125
 40
0.447265625
 40
0.44921875
 40
0.453125
 40
0.45703125
 40
0.4609375
 40
0.46875
 40
0.4765625
 40
0.48046875
 40
0.484375
 40
0.48828125
 40
0.490234375
 40
0.4921875
 40
0.494140625
 40
0.49609375
 40
0.4970703125
 40
0.498046875
 40
0.4985351562
 40
0.4990234375
 40
0.4995117188
 40
0.4997558594
 40
0.5
 40
0.5002441406
 40
0.5004882812
 40
0.5009765625
 40
0.5014648438
 40
0.501953125
 40
0.5029296875
 40
0.50390625
 40
0.505859375
 40
0.5078125
 40
0.509765625
 40
0.51171875
 40
0.515625
 40
0.51953125
 40
0.5234375
 40
0.53125
 40
0.5390625
 40
0.54296875
 40
0.546875
 40
0.55078125
 40
0.552734375
 40
0.5546875
 40
0.556640625
 40
0.55859375
 40
0.5595703125
 40
0.560546875
 40
0.5610351562
 40
0.5615234375
 40
0.5620117188
 40
0.5622558594
 40
0.5625
 40
0.5627441406
 40
0.5629882812
 40
0.5634765625
 40
0.5639648438
 40
0.564453125
 40
0.5654296875
 40
0.56640625
 40
0.568359375
 40
0.5703125
 40
0.572265625
 40
0.57421875
 40
0.578125
 40
0.58203125
 40
0.5859375
 40
0.59375
 40
0.6015625
 40
0.60546875
 40
0.609375
 40
0.61328125
 40
0.615234375
 40
0.6171875
 40
0.619140625
 40
0.62109375
 40
0.6220703125
 40
0.623046875
 40
0.6235351562
 40
0.6240234375
 40
0.6245117188
 40
0.6247558594
 40
0.625
 40
0.6252441406
 40
0.6254882812
 40
0.6259765625
 40
0.6264648438
 40
0.626953125
 40
0.6279296875
 40
0.62890625
 40
0.630859375
 40
0.6328125
 40
0.634765625
 40
0.63671875
 40
0.640625
 40
0.64453125
 40
0.6484375
 40
0.65625
 40
0.6640625
 40
0.66796875
 40
0.671875
 40
0.67578125
 40
0.677734375
 40
0.6796875
 40
0.681640625
 40
0.68359375
 40
0.6845703125
 40
0.685546875
 40
0.6860351562
 40
0.6865234375
 40
0.6870117188
 40
0.6872558594
 40
0.6875
 40
0.6877441406
 40
0.6879882812
 40
0.6884765625
 40
0.6889648438
 40
0.689453125
 40
0.6904296875
 40
0.69140625
 40
0.693359375
 40
0.6953125
 40
0.697265625
 40
0.69921875
 40
0.703125
 40
0.70703125
 40
0.7109375
 40
0.71875
 40
0.7265625
 40
0.73046875
 40
0.734375
 40
0.73828125
 40
0.740234375
 40
0.7421875
 40
0.744140625
 40
0.74609375
 40
0.7470703125
 40
0.748046875
 40
0.7485351562
 40
0.7490234375
 40
0.7495117188
 40
0.7497558594
 40
0.7498779297
 40
0.75
 40
0.7501220703
 40
0.7502441406
 40
0.7504882812
 40
0.7509765625
 40
0.7514648438
 40
0.751953125
 40
0.7529296875
 40
0.75390625
 40
0.755859375
 40
0.7578125
 40
0.759765625
 40
0.76171875
 40
0.765625
 40
0.76953125
 40
0.7734375
 40
0.78125
 40
0.7890625
 40
0.79296875
 40
0.796875
 40
0.80078125
 40
0.802734375
 40
0.8046875
 40
0.806640625
 40
0.80859375
 40
0.8095703125
 40
0.810546875
 40
0.8110351562
 40
0.8115234375
 40
0.8120117188
 40
0.8122558594
 40
0.8125
 40
0.8127441406
 40
0.8129882812
 40
0.8134765625
 40
0.8139648438
 40
0.814453125
 40
0.8154296875
 40
0.81640625
 40
0.818359375
 40
0.8203125
 40
0.822265625
 40
0.82421875
 40
0.828125
 40
0.83203125
 40
0.8359375
 40
0.84375
 40
0.8515625
 40
0.85546875
 40
0.859375
 40
0.86328125
 40
0.865234375
 40
0.8671875
 40
0.869140625
 40
0.87109375
 40
0.8720703125
 40
0.873046875
 40
0.8735351562
 40
0.8740234375
 40
0.8745117188
 40
0.8747558594
 40
0.875
 40
0.8752441406
 40
0.8754882812
 40
0.8759765625
 40
0.8764648438
 40
0.876953125
 40
0.8779296875
 40
0.87890625
 40
0.880859375
 40
0.8828125
 40
0.884765625
 40
0.88671875
 40
0.890625
 40
0.89453125
 40
0.8984375
 40
0.90625
 40
0.9140625
 40
0.91796875
 40
0.921875
 40
0.92578125
 40
0.927734375
 40
0.9296875
 40
0.931640625
 40
0.93359375
 40
0.9345703125
 40
0.935546875
 40
0.9360351562
 40
0.9365234375
 40
0.9370117188
 40
0.9372558594
 40
0.9375
 40
0.9377441406
 40
0.9379882812
 40
0.9384765625
 40
0.9389648438
 40
0.939453125
 40
0.9404296875
 40
0.94140625
 40
0.943359375
 40
0.9453125
 40
0.947265625
 40
0.94921875
 40
0.953125
 40
0.95703125
 40
0.9609375
 40
0.96875
 40
0.9765625
 40
0.984375
 40
1.0
 40
1.0
 40
1.0
 40
1.0
 10
10.189335454
 20
9.5868136543
 30
0.0
 10
10.1896426657
 20
9.5836591621
 30
0.0
 10
10.1901034832
 20
9.578927424
 30
0.0
 10
10.1907179065
 20
9.5726184397
 30
0.0
 10
10.191178724
 20
9.5678867015
 30
0.0
 10
10.1915627386
 20
9.5639435864
 30
0.0
 10
10.1918699502
 20
9.5607890943
 30
0.0
 10
10.1921003592
 20
9.5584232252
 30
0.0
 10
10.1922923657
 20
9.5564516675
 30
0.0
 10
10.1924459732
 20
9.5548744217
 30
0.0
 10
10.1925611724
 20
9.5536914865
 30
0.0
 10
10.192676396
 20
9.5525085544
 30
0.0
 10
10.1927723398
 20
9.5515227679
 30
0.0
 10
10.1928492648
 20
9.5507341606
 30
0.0
 10
10.1929064941
 20
9.5501426453
 30
0.0
 10
10.1929556628
 20
9.5496499061
 30
0.0
 10
10.192987181
 20
9.5493046155
 30
0.0
 10
10.1930097193
 20
9.5491078891
 30
0.0
 10
10.1930138679
 20
9.5489587034
 30
0.0
 10
10.193066773
 20
9.5488157903
 30
0.0
 10
10.1931203062
 20
9.5486230516
 30
0.0
 10
10.1932219132
 20
9.5482867784
 30
0.0
 10
10.1933629235
 20
9.547805855
 30
0.0
 10
10.1935339089
 20
9.547228975
 30
0.0
 10
10.1937612702
 20
9.5464597221
 30
0.0
 10
10.1940456842
 20
9.5454981833
 30
0.0
 10
10.19438689
 20
9.544344325
 30
0.0
 10
10.1947281202
 20
9.5431904698
 30
0.0
 10
10.1951830852
 20
9.5416519951
 30
0.0
 10
10.1957517944
 20
9.5397289022
 30
0.0
 10
10.1964342442
 20
9.5374211905
 30
0.0
 10
10.1973441776
 20
9.5343442416
 30
0.0
 10
10.1984815943
 20
9.5304980554
 30
0.0
 10
10.1996190111
 20
9.5266518693
 30
0.0
 10
10.2005289444
 20
9.5235749204
 30
0.0
 10
10.2012113947
 20
9.5212672088
 30
0.0
 10
10.2017801023
 20
9.5193441155
 30
0.0
 10
10.2022350706
 20
9.5178056416
 30
0.0
 10
10.2025762908
 20
9.5166517841
 30
0.0
 10
10.2029175339
 20
9.5154979345
 30
0.0
 10
10.2032018317
 20
9.5145363686
 30
0.0
 10
10.2034294301
 20
9.5137671708
 30
0.0
 10
10.2035996911
 20
9.5131901224
 30
0.0
 10
10.203742968
 20
9.5127097262
 30
0.0
 10
10.2038405287
 20
9.5123725118
 30
0.0
 10
10.2039005452
 20
9.5121812809
 30
0.0
 10
10.2039335359
 20
9.5120337365
 30
0.0
 10
10.2040124794
 20
9.5119019455
 30
0.0
 10
10.2041017085
 20
9.5117207293
 30
0.0
 10
10.2042653276
 20
9.5114061611
 30
0.0
 10
10.2044951647
 20
9.5109554395
 30
0.0
 10
10.2047726405
 20
9.5104151464
 30
0.0
 10
10.2051420244
 20
9.5096945555
 30
0.0
 10
10.2056039546
 20
9.5087938856
 30
0.0
 10
10.2061581849
 20
9.5077130523
 30
0.0
 10
10.2067124383
 20
9.5066322268
 30
0.0
 10
10.2074514347
 20
9.5051911234
 30
0.0
 10
10.208375183
 20
9.5033897452
 30
0.0
 10
10.2094836798
 20
9.5012280909
 30
0.0
 10
10.2109616759
 20
9.4983458852
 30
0.0
 10
10.212809171
 20
9.4947431282
 30
0.0
 10
10.214656666
 20
9.4911403711
 30
0.0
 10
10.2161346621
 20
9.4882581655
 30
0.0
 10
10.217243159
 20
9.4860965112
 30
0.0
 10
10.2181669068
 20
9.4842951328
 30
0.0
 10
10.2189059044
 20
9.4828540298
 30
0.0
 10
10.2194601542
 20
9.4817732032
 30
0.0
 10
10.2200143979
 20
9.4806923739
 30
0.0
 10
10.2204762865
 20
9.4797916916
 30
0.0
 10
10.2208457553
 20
9.4790711259
 30
0.0
 10
10.221076769
 20
9.4786208177
 30
0.0
 10
10.2212613609
 20
9.4782604672
 30
0.0
 10
10.2214004045
 20
9.477990489
 30
0.0
 10
10.2215143665
 20
9.4777646014
 30
0.0
 10
10.2216098146
 20
9.4775859229
 30
0.0
 10
10.22166971
 20
9.4774463627
 30
0.0
 10
10.2217742289
 20
9.4773279919
 30
0.0
 10
10.2218979998
 20
9.4771627625
 30
0.0
 10
10.2220580615
 20
9.4769587652
 30
0.0
 10
10.2222478465
 20
9.4767128814
 30
0.0
 10
10.2225016926
 20
9.4763854161
 30
0.0
 10
10.2228187265
 20
9.4759759544
 30
0.0
 10
10.2233261337
 20
9.4753208884
 30
0.0
 10
10.2239603403
 20
9.4745020309
 30
0.0
 10
10.2247214106
 20
9.4735194126
 30
0.0
 10
10.2254824749
 20
9.4725367915
 30
0.0
 10
10.2264972295
 20
9.471226631
 30
0.0
 10
10.2277656719
 20
9.46958893
 30
0.0
 10
10.2292878032
 20
9.467623689
 30
0.0
 10
10.2313173114
 20
9.4650033675
 30
0.0
 10
10.2338541967
 20
9.4617279657
 30
0.0
 10
10.2363910821
 20
9.458452564
 30
0.0
 10
10.2384205903
 20
9.4558322425
 30
0.0
 10
10.2399427216
 20
9.4538670016
 30
0.0
 10
10.2412111637
 20
9.4522293001
 30
0.0
 10
10.242225919
 20
9.4509191407
 30
0.0
 10
10.2429869811
 20
9.4499365163
 30
0.0
 10
10.2437480596
 20
9.4489539102
 30
0.0
 10
10.2443822409
 20
9.4481350147
 30
0.0
 10
10.2448896997
 20
9.4474800262
 30
0.0
 10
10.2452699829
 20
9.4469884354
 30
0.0
 10
10.2455878742
 20
9.4465798879
 30
0.0
 10
10.2458084581
 20
9.4462917234
 30
0.0
 10
10.2459375352
 20
9.4461304637
 30
0.0
 10
10.2460258099
 20
9.4459999251
 30
0.0
 10
10.2461467026
 20
9.4459060592
 30
0.0
 10
10.2462965154
 20
9.4457681127
 30
0.0
 10
10.2465639887
 20
9.4455326664
 30
0.0
 10
10.246943322
 20
9.4451931987
 30
0.0
 10
10.2473997082
 20
9.4447871711
 30
0.0
 10
10.2480078088
 20
9.4442453351
 30
0.0
 10
10.2487680767
 20
9.4435681999
 30
0.0
 10
10.2496803373
 20
9.4427555692
 30
0.0
 10
10.2505926141
 20
9.4419429569
 30
0.0
 10
10.2518089776
 20
9.4408594673
 30
0.0
 10
10.2533294339
 20
9.4395051075
 30
0.0
 10
10.2551539806
 20
9.4378798749
 30
0.0
 10
10.2575867098
 20
9.4357128983
 30
0.0
 10
10.2606276212
 20
9.4330041775
 30
0.0
 10
10.2636685327
 20
9.4302954568
 30
0.0
 10
10.2661012618
 20
9.4281284801
 30
0.0
 10
10.2679258089
 20
9.4265032479
 30
0.0
 10
10.2694462641
 20
9.4251488869
 30
0.0
 10
10.2706626297
 20
9.4240653999
 30
0.0
 10
10.2715749002
 20
9.4232527795
 30
0.0
 10
10.2724871845
 20
9.4224401789
 30
0.0
 10
10.2732473785
 20
9.4217629503
 30
0.0
 10
10.27385563
 20
9.4212213048
 30
0.0
 10
10.2743115552
 20
9.4208146954
 30
0.0
 10
10.2746923309
 20
9.4204770479
 30
0.0
 10
10.2749572293
 20
9.4202383522
 30
0.0
 10
10.2751111676
 20
9.4201056122
 30
0.0
 10
10.275219388
 20
9.4199957538
 30
0.0
 10
10.2753552579
 20
9.4199252803
 30
0.0
 10
10.2755267733
 20
9.4198175777
 30
0.0
 10
10.2758314189
 20
9.4196354989
 30
0.0
 10
10.2762642775
 20
9.4193720401
 30
0.0
 10
10.2767847134
 20
9.4190573218
 30
0.0
 10
10.2774782767
 20
9.418637197
 30
0.0
 10
10.2783453513
 20
9.4181122128
 30
0.0
 10
10.2793857892
 20
9.4174821581
 30
0.0
 10
10.2804262409
 20
9.4168521231
 30
0.0
 10
10.2818135051
 20
9.4160120696
 30
0.0
 10
10.2835475869
 20
9.4149620051
 30
0.0
 10
10.2856284844
 20
9.4137019266
 30
0.0
 10
10.2884030146
 20
9.4120218223
 30
0.0
 10
10.2918711773
 20
9.4099216918
 30
0.0
 10
10.29533934
 20
9.4078215614
 30
0.0
 10
10.2981138701
 20
9.406141457
 30
0.0
 10
10.3001947679
 20
9.404881379
 30
0.0
 10
10.3019288489
 20
9.403831313
 30
0.0
 10
10.3033161146
 20
9.4029912624
 30
0.0
 10
10.3043565614
 20
9.4023612186
 30
0.0
 10
10.3053970178
 20
9.401731197
 30
0.0
 10
10.306264035
 20
9.4012061097
 30
0.0
 10
10.3069577154
 20
9.4007861952
 30
0.0
 10
10.3074777937
 20
9.4004708348
 30
0.0
 10
10.3079117712
 20
9.400209385
 30
0.0
 10
10.3082144194
 20
9.4000237197
 30
0.0
 10
10.308389135
 20
9.3999217636
 30
0.0
 10
10.3085151748
 20
9.3998336388
 30
0.0
 10
10.3086603153
 20
9.3997900757
 30
0.0
 10
10.3088471735
 20
9.399716448
 30
0.0
 10
10.3091772794
 20
9.3995948415
 30
0.0
 10
10.3096472363
 20
9.3994173316
 30
0.0
 10
10.3102118793
 20
9.3992059405
 30
0.0
 10
10.310964494
 20
9.3989235195
 30
0.0
 10
10.3119053457
 20
9.3985706875
 30
0.0
 10
10.313034332
 20
9.3981472059
 30
0.0
 10
10.3141633278
 20
9.3977237466
 30
0.0
 10
10.3156686522
 20
9.3971591263
 30
0.0
 10
10.3175503089
 20
9.3964533537
 30
0.0
 10
10.3198082964
 20
9.3956064254
 30
0.0
 10
10.3228189467
 20
9.394477188
 30
0.0
 10
10.3265822594
 20
9.3930656412
 30
0.0
 10
10.3303455721
 20
9.3916540944
 30
0.0
 10
10.3333562223
 20
9.390524857
 30
0.0
 10
10.3356142099
 20
9.3896779289
 30
0.0
 10
10.3374958663
 20
9.3889721557
 30
0.0
 10
10.3390011913
 20
9.3884075365
 30
0.0
 10
10.3401301855
 20
9.3879840738
 30
0.0
 10
10.3412591778
 20
9.3875606047
 30
0.0
 10
10.3422000107
 20
9.3872077338
 30
0.0
 10
10.3429526636
 20
9.3869253922
 30
0.0
 10
10.3434231024
 20
9.386749031
 30
0.0
 10
10.3437993829
 20
9.3866077077
 30
0.0
 10
10.3440817865
 20
9.3865023567
 30
0.0
 10
10.344316508
 20
9.3864125238
 30
0.0
 10
10.3445056642
 20
9.3863452336
 30
0.0
 10
10.3446437634
 20
9.386282262
 30
0.0
 10
10.3447962448
 20
9.386267018
 30
0.0
 10
10.3449945295
 20
9.3862300208
 30
0.0
 10
10.345244109
 20
9.3861894944
 30
0.0
 10
10.3455428666
 20
9.3861384143
 30
0.0
 10
10.3459414678
 20
9.3860711627
 30
0.0
 10
10.346439631
 20
9.3859868054
 30
0.0
 10
10.3472367415
 20
9.3858519973
 30
0.0
 10
10.3482331126
 20
9.385683431
 30
0.0
 10
10.3494287653
 20
9.3854811755
 30
0.0
 10
10.350624416
 20
9.3852789136
 30
0.0
 10
10.3522186177
 20
9.3850092334
 30
0.0
 10
10.3542113695
 20
9.3846721323
 30
0.0
 10
10.3566026718
 20
9.3842676113
 30
0.0
 10
10.3597910748
 20
9.3837282498
 30
0.0
 10
10.3637765786
 20
9.383054048
 30
0.0
 10
10.3677620824
 20
9.3823798462
 30
0.0
 10
10.3709504854
 20
9.3818404848
 30
0.0
 10
10.3733417877
 20
9.3814359637
 30
0.0
 10
10.3753345396
 20
9.381098863
 30
0.0
 10
10.3769287411
 20
9.3808291818
 30
0.0
 10
10.3781243921
 20
9.3806269227
 30
0.0
 10
10.3793200437
 20
9.3804246568
 30
0.0
 10
10.3803164182
 20
9.3802561232
 30
0.0
 10
10.381113522
 20
9.3801212484
 30
0.0
 10
10.3816117023
 20
9.3800370608
 30
0.0
 10
10.3820102684
 20
9.3799694608
 30
0.0
 10
10.382309133
 20
9.379919445
 30
0.0
 10
10.3825583778
 20
9.3798755886
 30
0.0
 10
10.3827573453
 20
9.3798453852
 30
0.0
 10
10.3829077414
 20
9.3798093934
 30
0.0
 10
10.3830536698
 20
9.3798243179
 30
0.0
 10
10.3832498017
 20
9.3798264314
 30
0.0
 10
10.3834944311
 20
9.3798351756
 30
0.0
 10
10.3837882156
 20
9.3798430566
 30
0.0
 10
10.3841798482
 20
9.379854477
 30
0.0
 10
10.3846694163
 20
9.3798684401
 30
0.0
 10
10.38545271
 20
9.3798909556
 30
0.0
 10
10.3864318324
 20
9.3799190401
 30
0.0
 10
10.387606777
 20
9.3799527672
 30
0.0
 10
10.3887817223
 20
9.3799864874
 30
0.0
 10
10.3903483157
 20
9.3800314501
 30
0.0
 10
10.3923065575
 20
9.3800876526
 30
0.0
 10
10.3946564477
 20
9.380155096
 30
0.0
 10
10.3977896346
 20
9.3802450204
 30
0.0
 10
10.4017061183
 20
9.3803574259
 30
0.0
 10
10.4056226019
 20
9.3804698314
 30
0.0
 10
10.4087557888
 20
9.3805597559
 30
0.0
 10
10.411105679
 20
9.3806271991
 30
0.0
 10
10.4130639208
 20
9.3806834021
 30
0.0
 10
10.4146305144
 20
9.3807283638
 30
0.0
 10
10.4158054592
 20
9.3807620869
 30
0.0
 10
10.4169804053
 20
9.3807958033
 30
0.0
 10
10.417959523
 20
9.380823921
 30
0.0
 10
10.4187428263
 20
9.3808463687
 30
0.0
 10
10.4192323701
 20
9.3808605045
 30
0.0
 10
10.4196240526
 20
9.3808715704
 30
0.0
 10
10.4199176847
 20
9.3808805342
 30
0.0
 10
10.4201627909
 20
9.3808858907
 30
0.0
 10
10.42035795
 20
9.3808949158
 30
0.0
 10
10.4205068491
 20
9.380888733
 30
0.0
 10
10.4206460921
 20
9.3809319867
 30
0.0
 10
10.4208351225
 20
9.3809723896
 30
0.0
 10
10.4210702531
 20
9.381028818
 30
0.0
 10
10.4213529053
 20
9.3810939961
 30
0.0
 10
10.4217296017
 20
9.381181786
 30
0.0
 10
10.4222005316
 20
9.3812912201
 30
0.0
 10
10.4229539863
 20
9.3814664842
 30
0.0
 10
10.423895816
 20
9.3816855061
 30
0.0
 10
10.4250260068
 20
9.3819483573
 30
0.0
 10
10.4261561988
 20
9.3822112019
 30
0.0
 10
10.4276631211
 20
9.3825616636
 30
0.0
 10
10.4295467742
 20
9.38299974
 30
0.0
 10
10.4318071578
 20
9.383525432
 30
0.0
 10
10.4348210026
 20
9.3842263545
 30
0.0
 10
10.4385883086
 20
9.3851025077
 30
0.0
 10
10.4423556146
 20
9.3859786608
 30
0.0
 10
10.4453694594
 20
9.3866795834
 30
0.0
 10
10.447629843
 20
9.3872052753
 30
0.0
 10
10.4495134959
 20
9.3876433521
 30
0.0
 10
10.4510204185
 20
9.3879938129
 30
0.0
 10
10.4521506098
 20
9.3882566602
 30
0.0
 10
10.4532808036
 20
9.3885195011
 30
0.0
 10
10.4542226238
 20
9.3887385551
 30
0.0
 10
10.4549760978
 20
9.3889137538
 30
0.0
 10
10.4554469785
 20
9.3890233542
 30
0.0
 10
10.455823776
 20
9.3891108026
 30
0.0
 10
10.4561061195
 20
9.3891770242
 30
0.0
 10
10.4563422157
 20
9.3892301878
 30
0.0
 10
10.4565292762
 20
9.3892772515
 30
0.0
 10
10.4566745348
 20
9.3893001635
 30
0.0
 10
10.4568008489
 20
9.389370352
 30
0.0
 10
10.4569758853
 20
9.3894474224
 30
0.0
 10
10.4571924104
 20
9.3895494264
 30
0.0
 10
10.4574532122
 20
9.389669406
 30
0.0
 10
10.4578006086
 20
9.3898302258
 30
0.0
 10
10.4582349703
 20
9.3900309605
 30
0.0
 10
10.4589298841
 20
9.3903522981
 30
0.0
 10
10.4597985485
 20
9.3907539146
 30
0.0
 10
10.4608409364
 20
9.3912358781
 30
0.0
 10
10.4618833268
 20
9.3917178353
 30
0.0
 10
10.4632731797
 20
9.3923604472
 30
0.0
 10
10.4650104962
 20
9.3931637112
 30
0.0
 10
10.4670952759
 20
9.3941276283
 30
0.0
 10
10.4698749822
 20
9.395412851
 30
0.0
 10
10.473349615
 20
9.3970193795
 30
0.0
 10
10.4768242479
 20
9.3986259079
 30
0.0
 10
10.4796039541
 20
9.3999111307
 30
0.0
 10
10.4816887339
 20
9.4008750477
 30
0.0
 10
10.4834260502
 20
9.4016783121
 30
0.0
 10
10.4848159036
 20
9.4023209231
 30
0.0
 10
10.4858582927
 20
9.4028028829
 30
0.0
 10
10.4869006852
 20
9.4032848365
 30
0.0
 10
10.4877693353
 20
9.403686484
 30
0.0
 10
10.4884642783
 20
9.4040077584
 30
0.0
 10
10.4888985656
 20
9.4042086541
 30
0.0
 10
10.4892461147
 20
9.4043691434
 30
0.0
 10
10.4895064501
 20
9.4044901327
 30
0.0
 10
10.4897244345
 20
9.4045889775
 30
0.0
 10
10.4898964936
 20
9.4046724932
 30
0.0
 10
10.4900319
 20
9.4047229981
 30
0.0
 10
10.4901430224
 20
9.4048198106
 30
0.0
 10
10.4902996683
 20
9.4049327182
 30
0.0
 10
10.4904925653
 20
9.4050794024
 30
0.0
 10
10.4907252874
 20
9.405253048
 30
0.0
 10
10.4910351485
 20
9.4054854052
 30
0.0
 10
10.4914226238
 20
9.4057755676
 30
0.0
 10
10.492042501
 20
9.4062399862
 30
0.0
 10
10.4928173761
 20
9.406820455
 30
0.0
 10
10.493747214
 20
9.4075170408
 30
0.0
 10
10.4946770551
 20
9.4082136205
 30
0.0
 10
10.4959168421
 20
9.4091423955
 30
0.0
 10
10.4974665764
 20
9.4103033635
 30
0.0
 10
10.4993262572
 20
9.4116965255
 30
0.0
 10
10.5018058318
 20
9.4135540746
 30
0.0
 10
10.5049053
 20
9.4158760111
 30
0.0
 10
10.5080047682
 20
9.4181979476
 30
0.0
 10
10.5104843427
 20
9.4200554967
 30
0.0
 10
10.5123440236
 20
9.4214486586
 30
0.0
 10
10.5138937578
 20
9.4226096268
 30
0.0
 10
10.5151335449
 20
9.4235384015
 30
0.0
 10
10.5160633858
 20
9.4242349821
 30
0.0
 10
10.5169932247
 20
9.4249315644
 30
0.0
 10
10.5177680964
 20
9.4255120443
 30
0.0
 10
10.5183879807
 20
9.4259764401
 30
0.0
 10
10.5187754379
 20
9.4262666606
 30
0.0
 10
10.519085336
 20
9.4264988985
 30
0.0
 10
10.519317945
 20
9.4266729086
 30
0.0
 10
10.5195111959
 20
9.4268184523
 30
0.0
 10
10.5196476293
 20
9.4269192825
 30
0.0
 10
10.5197237834
 20
9.4269785398
 30
0.0
 10
10.5197859918
 20
9.4270183629
 30
0.0
 10
10.5198287328
 20
9.4270758452
 30
0.0
 10
10.5198925113
 20
9.4271463285
 30
0.0
 10
10.5200009597
 20
9.4272725442
 30
0.0
 10
10.5201575402
 20
9.427451352
 30
0.0
 10
10.5203447287
 20
9.4276665635
 30
0.0
 10
10.5205945608
 20
9.427953288
 30
0.0
 10
10.5209067661
 20
9.4283117703
 30
0.0
 10
10.521406342
 20
9.428885299
 30
0.0
 10
10.5220307957
 20
9.4296022247
 30
0.0
 10
10.522780147
 20
9.4304625292
 30
0.0
 10
10.5235294964
 20
9.4313228354
 30
0.0
 10
10.5245286297
 20
9.4324699098
 30
0.0
 10
10.525777546
 20
9.4339037529
 30
0.0
 10
10.5272762458
 20
9.4356243646
 30
0.0
 10
10.529274512
 20
9.4379185135
 30
0.0
 10
10.5317723449
 20
9.4407861997
 30
0.0
 10
10.5342701777
 20
9.4436538859
 30
0.0
 10
10.5362684439
 20
9.4459480348
 30
0.0
 10
10.5377671437
 20
9.4476686465
 30
0.0
 10
10.5390160599
 20
9.4491024897
 30
0.0
 10
10.5400151935
 20
9.4502495639
 30
0.0
 10
10.5407645421
 20
9.4511098706
 30
0.0
 10
10.5415138964
 20
9.4519701732
 30
0.0
 10
10.5421383409
 20
9.4526871048
 30
0.0
 10
10.5426379354
 20
9.4532606214
 30
0.0
 10
10.5429500934
 20
9.4536191347
 30
0.0
 10
10.5432000226
 20
9.4539057955
 30
0.0
 10
10.5433869143
 20
9.4541212013
 30
0.0
 10
10.5435444235
 20
9.4542994014
 30
0.0
 10
10.5436664699
 20
9.4544448877
 30
0.0
 10
10.5437688277
 20
9.4545460065
 30
0.0
 10
10.5438298741
 20
9.4546776459
 30
0.0
 10
10.5439256999
 20
9.4548425038
 30
0.0
 10
10.5440405311
 20
9.455052234
 30
0.0
 10
10.5441804478
 20
9.4553023445
 30
0.0
 10
10.5443662632
 20
9.4556363721
 30
0.0
 10
10.5445987858
 20
9.4560537194
 30
0.0
 10
10.5449706804
 20
9.4567215796
 30
0.0
 10
10.5454355972
 20
9.4575563691
 30
0.0
 10
10.5459934766
 20
9.4585581318
 30
0.0
 10
10.5465513615
 20
9.4595598903
 30
0.0
 10
10.5472952061
 20
9.4608955699
 30
0.0
 10
10.5482250126
 20
9.4625651688
 30
0.0
 10
10.54934078
 20
9.4645686877
 30
0.0
 10
10.5508284701
 20
9.4672400462
 30
0.0
 10
10.5526880826
 20
9.4705792444
 30
0.0
 10
10.5545476951
 20
9.4739184425
 30
0.0
 10
10.5560353851
 20
9.4765898011
 30
0.0
 10
10.5571511527
 20
9.4785933199
 30
0.0
 10
10.5580809588
 20
9.4802629191
 30
0.0
 10
10.5588248042
 20
9.4815985981
 30
0.0
 10
10.5593826867
 20
9.4826003582
 30
0.0
 10
10.5599405753
 20
9.4836021153
 30
0.0
 10
10.5604054632
 20
9.4844369222
 30
0.0
 10
10.5607774168
 20
9.4851047468
 30
0.0
 10
10.5610097894
 20
9.4855221849
 30
0.0
 10
10.5611959127
 20
9.485856026
 30
0.0
 10
10.5613348885
 20
9.4861067063
 30
0.0
 10
10.5614526636
 20
9.4863146538
 30
0.0
 10
10.5615424833
 20
9.4864831487
 30
0.0
 10
10.5616218721
 20
9.4866036809
 30
0.0
 10
10.5616553647
 20
9.4867465007
 30
0.0
 10
10.5617160537
 20
9.4869291418
 30
0.0
 10
10.5617864144
 20
9.4871601142
 30
0.0
 10
10.5618732016
 20
9.4874361378
 30
0.0
 10
10.5619880955
 20
9.4878045686
 30
0.0
 10
10.5621319945
 20
9.4882649704
 30
0.0
 10
10.5623620755
 20
9.4890016897
 30
0.0
 10
10.5626497308
 20
9.4899225626
 30
0.0
 10
10.5629948939
 20
9.4910276213
 30
0.0
 10
10.5633400633
 20
9.492132677
 30
0.0
 10
10.5638002869
 20
9.4936060857
 30
0.0
 10
10.5643755672
 20
9.4954478461
 30
0.0
 10
10.5650659032
 20
9.4976579588
 30
0.0
 10
10.5659863514
 20
9.5006047757
 30
0.0
 10
10.5671369115
 20
9.5042882968
 30
0.0
 10
10.5682874717
 20
9.5079718179
 30
0.0
 10
10.5692079198
 20
9.5109186348
 30
0.0
 10
10.569898256
 20
9.5131287474
 30
0.0
 10
10.5704735358
 20
9.5149705081
 30
0.0
 10
10.5709337604
 20
9.5164439163
 30
0.0
 10
10.571278927
 20
9.5175489732
 30
0.0
 10
10.5716241003
 20
9.5186540276
 30
0.0
 10
10.5719117242
 20
9.5195749138
 30
0.0
 10
10.5721418691
 20
9.520311606
 30
0.0
 10
10.5722856053
 20
9.5207720767
 30
0.0
 10
10.5724008334
 20
9.5211403661
 30
0.0
 10
10.5724865997
 20
9.5214168218
 30
0.0
 10
10.5725601546
 20
9.5216464423
 30
0.0
 10
10.5726143268
 20
9.5218318416
 30
0.0
 10
10.5726677212
 20
9.5219662379
 30
0.0
 10
10.5726723905
 20
9.5221183956
 30
0.0
 10
10.5726956366
 20
9.5223150682
 30
0.0
 10
10.5727188547
 20
9.5225630376
 30
0.0
 10
10.5727492158
 20
9.5228596898
 30
0.0
 10
10.5727888244
 20
9.5232555443
 30
0.0
 10
10.572838634
 20
9.5237502534
 30
0.0
 10
10.5729181623
 20
9.5245418489
 30
0.0
 10
10.57301763
 20
9.5255313225
 30
0.0
 10
10.5731369666
 20
9.5267186996
 30
0.0
 10
10.5732563099
 20
9.5279060744
 30
0.0
 10
10.5734154319
 20
9.5294892416
 30
0.0
 10
10.5736143352
 20
9.5314682003
 30
0.0
 10
10.5738530188
 20
9.5338429509
 30
0.0
 10
10.5741712638
 20
9.537009285
 30
0.0
 10
10.5745690699
 20
9.5409672026
 30
0.0
 10
10.5750464373
 20
9.5457167037
 30
0.0
 10
10.5756829272
 20
9.5520493718
 30
0.0
 10
10.5761602946
 20
9.5567988729
 30
0.0
 10
10.5764785395
 20
9.559965207
 30
0.0
  0
SPLINE
  5
39C
100
AcDbEntity
  8
0
100
AcDbSpline
 62
4
  6
CONTINUOUS
 70
0
 71
3
 72
455
 73
451
 74
0
 42
0.0000001
 43
0.0000001
 44
0.0000000001
 40
0.0
 40
0.0
 40
0.0
 40
0.0
 40
0.015625
 40
0.0234375
 40
0.03125
 40
0.0390625
 40
0.04296875
 40
0.046875
 40
0.05078125
 40
0.052734375
 40
0.0546875
 40
0.056640625
 40
0.05859375
 40
0.0595703125
 40
0.060546875
 40
0.0615234375
 40
0.0620117188
 40
0.0622558594
 40
0.0625
 40
0.0627441406
 40
0.0629882812
 40
0.0634765625
 40
0.064453125
 40
0.0654296875
 40
0.06640625
 40
0.068359375
 40
0.0703125
 40
0.072265625
 40
0.07421875
 40
0.078125
 40
0.08203125
 40
0.0859375
 40
0.09375
 40
0.1015625
 40
0.10546875
 40
0.109375
 40
0.11328125
 40
0.115234375
 40
0.1171875
 40
0.119140625
 40
0.12109375
 40
0.1220703125
 40
0.123046875
 40
0.1240234375
 40
0.1245117188
 40
0.1247558594
 40
0.125
 40
0.1252441406
 40
0.1254882812
 40
0.1259765625
 40
0.126953125
 40
0.1279296875
 40
0.12890625
 40
0.130859375
 40
0.1328125
 40
0.134765625
 40
0.13671875
 40
0.140625
 40
0.14453125
 40
0.1484375
 40
0.15625
 40
0.1640625
 40
0.16796875
 40
0.171875
 40
0.17578125
 40
0.177734375
 40
0.1796875
 40
0.181640625
 40
0.18359375
 40
0.1845703125
 40
0.185546875
 40
0.1860351562
 40
0.1865234375
 40
0.1870117188
 40
0.1872558594
 40
0.1875
 40
0.1877441406
 40
0.1879882812
 40
0.1884765625
 40
0.1889648438
 40
0.189453125
 40
0.1904296875
 40
0.19140625
 40
0.193359375
 40
0.1953125
 40
0.197265625
 40
0.19921875
 40
0.203125
 40
0.20703125
 40
0.2109375
 40
0.21875
 40
0.2265625
 40
0.23046875
 40
0.234375
 40
0.23828125
 40
0.240234375
 40
0.2421875
 40
0.244140625
 40
0.24609375
 40
0.2470703125
 40
0.248046875
 40
0.2490234375
 40
0.2495117188
 40
0.2497558594
 40
0.25
 40
0.2502441406
 40
0.2504882812
 40
0.2509765625
 40
0.251953125
 40
0.2529296875
 40
0.25390625
 40
0.255859375
 40
0.2578125
 40
0.259765625
 40
0.26171875
 40
0.265625
 40
0.26953125
 40
0.2734375
 40
0.28125
 40
0.2890625
 40
0.29296875
 40
0.296875
 40
0.30078125
 40
0.302734375
 40
0.3046875
 40
0.306640625
 40
0.30859375
 40
0.3095703125
 40
0.310546875
 40
0.3115234375
 40
0.3120117188
 40
0.3122558594
 40
0.3125
 40
0.3127441406
 40
0.3129882812
 40
0.3134765625
 40
0.314453125
 40
0.3154296875
 40
0.31640625
 40
0.318359375
 40
0.3203125
 40
0.322265625
 40
0.32421875
 40
0.328125
 40
0.33203125
 40
0.3359375
 40
0.34375
 40
0.3515625
 40
0.35546875
 40
0.359375
 40
0.36328125
 40
0.365234375
 40
0.3671875
 40
0.369140625
 40
0.37109375
 40
0.3720703125
 40
0.373046875
 40
0.3740234375
 40
0.3745117188
 40
0.3747558594
 40
0.375
 40
0.3752441406
 40
0.3754882812
 40
0.3759765625
 40
0.376953125
 40
0.3779296875
 40
0.37890625
 40
0.380859375
 40
0.3828125
 40
0.384765625
 40
0.38671875
 40
0.390625
 40
0.39453125
 40
0.3984375
 40
0.40625
 40
0.4140625
 40
0.41796875
 40
0.421875
 40
0.42578125
 40
0.427734375
 40
0.4296875
 40
0.431640625
 40
0.43359375
 40
0.4345703125
 40
0.435546875
 40
0.4360351562
 40
0.4365234375
 40
0.4370117188
 40
0.4372558594
 40
0.4375
 40
0.4377441406
 40
0.4379882812
 40
0.4384765625
 40
0.4389648438
 40
0.439453125
 40
0.4404296875
 40
0.44140625
 40
0.443359375
 40
0.4453125
 40
0.447265625
 40
0.44921875
 40
0.453125
 40
0.45703125
 40
0.4609375
 40
0.46875
 40
0.4765625
 40
0.48046875
 40
0.484375
 40
0.48828125
 40
0.490234375
 40
0.4921875
 40
0.494140625
 40
0.49609375
 40
0.4970703125
 40
0.498046875
 40
0.4985351562
 40
0.4990234375
 40
0.4995117188
 40
0.4997558594
 40
0.5
 40
0.5002441406
 40
0.5004882812
 40
0.5009765625
 40
0.5014648438
 40
0.501953125
 40
0.5029296875
 40
0.50390625
 40
0.505859375
 40
0.5078125
 40
0.509765625
 40
0.51171875
 40
0.515625
 40
0.51953125
 40
0.5234375
 40
0.53125
 40
0.5390625
 40
0.54296875
 40
0.546875
 40
0.55078125
 40
0.552734375
 40
0.5546875
 40
0.556640625
 40
0.55859375
 40
0.5595703125
 40
0.560546875
 40
0.5610351562
 40
0.5615234375
 40
0.5620117188
 40
0.5622558594
 40
0.5625
 40
0.5627441406
 40
0.5629882812
 40
0.5634765625
 40
0.5639648438
 40
0.564453125
 40
0.5654296875
 40
0.56640625
 40
0.568359375
 40
0.5703125
 40
0.572265625
 40
0.57421875
 40
0.578125
 40
0.58203125
 40
0.5859375
 40
0.59375
 40
0.6015625
 40
0.60546875
 40
0.609375
 40
0.61328125
 40
0.615234375
 40
0.6171875
 40
0.619140625
 40
0.62109375
 40
0.6220703125
 40
0.623046875
 40
0.6235351562
 40
0.6240234375
 40
0.6245117188
 40
0.6247558594
 40
0.625
 40
0.6252441406
 40
0.6254882812
 40
0.6259765625
 40
0.6264648438
 40
0.626953125
 40
0.6279296875
 40
0.62890625
 40
0.630859375
 40
0.6328125
 40
0.634765625
 40
0.63671875
 40
0.640625
 40
0.64453125
 40
0.6484375
 40
0.65625
 40
0.6640625
 40
0.66796875
 40
0.671875
 40
0.67578125
 40
0.677734375
 40
0.6796875
 40
0.681640625
 40
0.68359375
 40
0.6845703125
 40
0.685546875
 40
0.6860351562
 40
0.6865234375
 40
0.6870117188
 40
0.6872558594
 40
0.6875
 40
0.6877441406
 40
0.6879882812
 40
0.6884765625
 40
0.6889648438
 40
0.689453125
 40
0.6904296875
 40
0.69140625
 40
0.693359375
 40
0.6953125
 40
0.697265625
 40
0.69921875
 40
0.703125
 40
0.70703125
 40
0.7109375
 40
0.71875
 40
0.7265625
 40
0.73046875
 40
0.734375
 40
0.73828125
 40
0.740234375
 40
0.7421875
 40
0.744140625
 40
0.74609375
 40
0.7470703125
 40
0.748046875
 40
0.7485351562
 40
0.7490234375
 40
0.7495117188
 40
0.7497558594
 40
0.7498779297
 40
0.75
 40
0.7501220703
 40
0.7502441406
 40
0.7504882812
 40
0.7509765625
 40
0.7514648438
 40
0.751953125
 40
0.7529296875
 40
0.75390625
 40
0.755859375
 40
0.7578125
 40
0.759765625
 40
0.76171875
 40
0.765625
 40
0.76953125
 40
0.7734375
 40
0.78125
 40
0.7890625
 40
0.79296875
 40
0.796875
 40
0.80078125
 40
0.802734375
 40
0.8046875
 40
0.806640625
 40
0.80859375
 40
0.8095703125
 40
0.810546875
 40
0.8110351562
 40
0.8115234375
 40
0.8120117188
 40
0.8122558594
 40
0.8125
 40
0.8127441406
 40
0.8129882812
 40
0.8134765625
 40
0.8139648438
 40
0.814453125
 40
0.8154296875
 40
0.81640625
 40
0.818359375
 40
0.8203125
 40
0.822265625
 40
0.82421875
 40
0.828125
 40
0.83203125
 40
0.8359375
 40
0.84375
 40
0.8515625
 40
0.85546875
 40
0.859375
 40
0.86328125
 40
0.865234375
 40
0.8671875
 40
0.869140625
 40
0.87109375
 40
0.8720703125
 40
0.873046875
 40
0.8735351562
 40
0.8740234375
 40
0.8745117188
 40
0.8747558594
 40
0.875
 40
0.8752441406
 40
0.8754882812
 40
0.8759765625
 40
0.8764648438
 40
0.876953125
 40
0.8779296875
 40
0.87890625
 40
0.880859375
 40
0.8828125
 40
0.884765625
 40
0.88671875
 40
0.890625
 40
0.89453125
 40
0.8984375
 40
0.90625
 40
0.9140625
 40
0.91796875
 40
0.921875
 40
0.92578125
 40
0.927734375
 40
0.9296875
 40
0.931640625
 40
0.93359375
 40
0.9345703125
 40
0.935546875
 40
0.9360351562
 40
0.9365234375
 40
0.9370117188
 40
0.9372558594
 40
0.9375
 40
0.9377441406
 40
0.9379882812
 40
0.9384765625
 40
0.9389648438
 40
0.939453125
 40
0.9404296875
 40
0.94140625
 40
0.943359375
 40
0.9453125
 40
0.947265625
 40
0.94921875
 40
0.953125
 40
0.95703125
 40
0.9609375
 40
0.96875
 40
0.9765625
 40
0.984375
 40
1.0
 40
1.0
 40
1.0
 40
1.0
 10
10.5764785395
 20
9.5599651901
 30
0.0
 10
10.5761713278
 20
9.5631196822
 30
0.0
 10
10.5757105103
 20
9.5678514204
 30
0.0
 10
10.575096087
 20
9.5741604046
 30
0.0
 10
10.5746352695
 20
9.5788921428
 30
0.0
 10
10.5742512549
 20
9.5828352579
 30
0.0
 10
10.5739440433
 20
9.5859897501
 30
0.0
 10
10.5737136343
 20
9.5883556191
 30
0.0
 10
10.5735216278
 20
9.5903271768
 30
0.0
 10
10.5733680203
 20
9.5919044227
 30
0.0
 10
10.5732528211
 20
9.5930873579
 30
0.0
 10
10.5731375975
 20
9.5942702899
 30
0.0
 10
10.5730416537
 20
9.5952560764
 30
0.0
 10
10.5729647287
 20
9.5960446837
 30
0.0
 10
10.5729074994
 20
9.596636199
 30
0.0
 10
10.5728583307
 20
9.5971289383
 30
0.0
 10
10.5728268125
 20
9.5974742288
 30
0.0
 10
10.5728042742
 20
9.5976709552
 30
0.0
 10
10.5728001256
 20
9.597820141
 30
0.0
 10
10.5727472206
 20
9.597963054
 30
0.0
 10
10.5726936873
 20
9.5981557927
 30
0.0
 10
10.5725920803
 20
9.598492066
 30
0.0
 10
10.57245107
 20
9.5989729894
 30
0.0
 10
10.5722800846
 20
9.5995498693
 30
0.0
 10
10.5720527233
 20
9.6003191222
 30
0.0
 10
10.5717683093
 20
9.6012806611
 30
0.0
 10
10.5714271035
 20
9.6024345194
 30
0.0
 10
10.5710858734
 20
9.6035883746
 30
0.0
 10
10.5706309083
 20
9.6051268492
 30
0.0
 10
10.5700621991
 20
9.6070499422
 30
0.0
 10
10.5693797494
 20
9.6093576539
 30
0.0
 10
10.5684698159
 20
9.6124346028
 30
0.0
 10
10.5673323992
 20
9.6162807889
 30
0.0
 10
10.5661949824
 20
9.620126975
 30
0.0
 10
10.5652850491
 20
9.6232039239
 30
0.0
 10
10.5646025988
 20
9.6255116355
 30
0.0
 10
10.5640338912
 20
9.6274347289
 30
0.0
 10
10.5635789229
 20
9.6289732028
 30
0.0
 10
10.5632377027
 20
9.6301270603
 30
0.0
 10
10.5628964596
 20
9.6312809099
 30
0.0
 10
10.5626121618
 20
9.6322424757
 30
0.0
 10
10.5623845634
 20
9.6330116735
 30
0.0
 10
10.5622143024
 20
9.6335887219
 30
0.0
 10
10.5620710255
 20
9.6340691182
 30
0.0
 10
10.5619734648
 20
9.6344063325
 30
0.0
 10
10.5619134483
 20
9.6345975634
 30
0.0
 10
10.5618804576
 20
9.6347451079
 30
0.0
 10
10.5618015141
 20
9.6348768988
 30
0.0
 10
10.561712285
 20
9.635058115
 30
0.0
 10
10.5615486659
 20
9.6353726832
 30
0.0
 10
10.5613188288
 20
9.6358234049
 30
0.0
 10
10.5610413531
 20
9.6363636979
 30
0.0
 10
10.5606719692
 20
9.6370842888
 30
0.0
 10
10.5602100389
 20
9.6379849587
 30
0.0
 10
10.5596558086
 20
9.6390657921
 30
0.0
 10
10.5591015552
 20
9.6401466175
 30
0.0
 10
10.5583625588
 20
9.6415877209
 30
0.0
 10
10.5574388105
 20
9.6433890992
 30
0.0
 10
10.5563303137
 20
9.6455507535
 30
0.0
 10
10.5548523176
 20
9.6484329591
 30
0.0
 10
10.5530048226
 20
9.6520357162
 30
0.0
 10
10.5511573275
 20
9.6556384732
 30
0.0
 10
10.5496793314
 20
9.6585206789
 30
0.0
 10
10.5485708345
 20
9.6606823331
 30
0.0
 10
10.5476470867
 20
9.6624837116
 30
0.0
 10
10.5469080891
 20
9.6639248146
 30
0.0
 10
10.5463538394
 20
9.6650056411
 30
0.0
 10
10.5457995956
 20
9.6660864705
 30
0.0
 10
10.545337707
 20
9.6669871527
 30
0.0
 10
10.5449682382
 20
9.6677077185
 30
0.0
 10
10.5447372245
 20
9.6681580266
 30
0.0
 10
10.5445526326
 20
9.6685183772
 30
0.0
 10
10.544413589
 20
9.6687883553
 30
0.0
 10
10.544299627
 20
9.6690142429
 30
0.0
 10
10.5442041789
 20
9.6691929214
 30
0.0
 10
10.5441442836
 20
9.6693324816
 30
0.0
 10
10.5440397646
 20
9.6694508524
 30
0.0
 10
10.5439159937
 20
9.6696160818
 30
0.0
 10
10.543755932
 20
9.6698200792
 30
0.0
 10
10.543566147
 20
9.6700659629
 30
0.0
 10
10.5433123009
 20
9.6703934283
 30
0.0
 10
10.542995267
 20
9.6708028899
 30
0.0
 10
10.5424878598
 20
9.671457956
 30
0.0
 10
10.5418536533
 20
9.6722768134
 30
0.0
 10
10.5410925829
 20
9.6732594317
 30
0.0
 10
10.5403315186
 20
9.6742420528
 30
0.0
 10
10.539316764
 20
9.6755522134
 30
0.0
 10
10.5380483216
 20
9.6771899143
 30
0.0
 10
10.5365261903
 20
9.6791551554
 30
0.0
 10
10.5344966821
 20
9.6817754768
 30
0.0
 10
10.5319597968
 20
9.6850508786
 30
0.0
 10
10.5294229114
 20
9.6883262804
 30
0.0
 10
10.5273934032
 20
9.6909466018
 30
0.0
 10
10.5258712719
 20
9.6929118427
 30
0.0
 10
10.5246028298
 20
9.6945495442
 30
0.0
 10
10.5235880745
 20
9.6958597037
 30
0.0
 10
10.5228270124
 20
9.6968423281
 30
0.0
 10
10.5220659339
 20
9.6978249341
 30
0.0
 10
10.5214317526
 20
9.6986438296
 30
0.0
 10
10.5209242939
 20
9.6992988181
 30
0.0
 10
10.5205440106
 20
9.6997904089
 30
0.0
 10
10.5202261193
 20
9.7001989564
 30
0.0
 10
10.5200055354
 20
9.7004871209
 30
0.0
 10
10.5198764583
 20
9.7006483806
 30
0.0
 10
10.5197881836
 20
9.7007789193
 30
0.0
 10
10.5196672909
 20
9.7008727852
 30
0.0
 10
10.5195174781
 20
9.7010107316
 30
0.0
 10
10.5192500048
 20
9.7012461779
 30
0.0
 10
10.5188706715
 20
9.7015856457
 30
0.0
 10
10.5184142853
 20
9.7019916732
 30
0.0
 10
10.5178061847
 20
9.7025335093
 30
0.0
 10
10.5170459168
 20
9.7032106444
 30
0.0
 10
10.5161336562
 20
9.7040232751
 30
0.0
 10
10.5152213794
 20
9.7048358875
 30
0.0
 10
10.5140050159
 20
9.705919377
 30
0.0
 10
10.5124845596
 20
9.7072737368
 30
0.0
 10
10.5106600129
 20
9.7088989695
 30
0.0
 10
10.5082272837
 20
9.711065946
 30
0.0
 10
10.5051863723
 20
9.7137746668
 30
0.0
 10
10.5021454608
 20
9.7164833875
 30
0.0
 10
10.4997127317
 20
9.7186503642
 30
0.0
 10
10.4978881846
 20
9.7202755964
 30
0.0
 10
10.4963677294
 20
9.7216299575
 30
0.0
 10
10.4951513638
 20
9.7227134444
 30
0.0
 10
10.4942390933
 20
9.7235260648
 30
0.0
 10
10.493326809
 20
9.7243386655
 30
0.0
 10
10.4925666151
 20
9.725015894
 30
0.0
 10
10.4919583635
 20
9.7255575395
 30
0.0
 10
10.4915024383
 20
9.7259641489
 30
0.0
 10
10.4911216626
 20
9.7263017964
 30
0.0
 10
10.4908567642
 20
9.7265404922
 30
0.0
 10
10.4907028259
 20
9.7266732322
 30
0.0
 10
10.4905946055
 20
9.7267830906
 30
0.0
 10
10.4904587356
 20
9.7268535641
 30
0.0
 10
10.4902872202
 20
9.7269612666
 30
0.0
 10
10.4899825747
 20
9.7271433454
 30
0.0
 10
10.489549716
 20
9.7274068043
 30
0.0
 10
10.4890292801
 20
9.7277215226
 30
0.0
 10
10.4883357169
 20
9.7281416473
 30
0.0
 10
10.4874686422
 20
9.7286666315
 30
0.0
 10
10.4864282043
 20
9.7292966862
 30
0.0
 10
10.4853877526
 20
9.7299267212
 30
0.0
 10
10.4840004885
 20
9.7307667747
 30
0.0
 10
10.4822664066
 20
9.7318168393
 30
0.0
 10
10.4801855092
 20
9.7330769178
 30
0.0
 10
10.4774109789
 20
9.734757022
 30
0.0
 10
10.4739428163
 20
9.7368571525
 30
0.0
 10
10.4704746535
 20
9.7389572829
 30
0.0
 10
10.4677001234
 20
9.7406373873
 30
0.0
 10
10.4656192257
 20
9.7418974653
 30
0.0
 10
10.4638851446
 20
9.7429475313
 30
0.0
 10
10.4624978789
 20
9.7437875819
 30
0.0
 10
10.4614574321
 20
9.7444176258
 30
0.0
 10
10.4604169757
 20
9.7450476473
 30
0.0
 10
10.4595499585
 20
9.7455727346
 30
0.0
 10
10.4588562781
 20
9.7459926491
 30
0.0
 10
10.4583361998
 20
9.7463080095
 30
0.0
 10
10.4579022224
 20
9.7465694594
 30
0.0
 10
10.4575995742
 20
9.7467551246
 30
0.0
 10
10.4574248585
 20
9.7468570807
 30
0.0
 10
10.4572988187
 20
9.7469452055
 30
0.0
 10
10.4571536782
 20
9.7469887686
 30
0.0
 10
10.4569668201
 20
9.7470623964
 30
0.0
 10
10.4566367142
 20
9.7471840029
 30
0.0
 10
10.4561667572
 20
9.7473615127
 30
0.0
 10
10.4556021142
 20
9.7475729039
 30
0.0
 10
10.4548494995
 20
9.7478553248
 30
0.0
 10
10.4539086478
 20
9.7482081568
 30
0.0
 10
10.4527796615
 20
9.7486316384
 30
0.0
 10
10.4516506657
 20
9.7490550978
 30
0.0
 10
10.4501453413
 20
9.749619718
 30
0.0
 10
10.4482636846
 20
9.7503254907
 30
0.0
 10
10.4460056971
 20
9.751172419
 30
0.0
 10
10.4429950469
 20
9.7523016563
 30
0.0
 10
10.4392317341
 20
9.7537132032
 30
0.0
 10
10.4354684214
 20
9.7551247499
 30
0.0
 10
10.4324577712
 20
9.7562539873
 30
0.0
 10
10.4301997836
 20
9.7571009155
 30
0.0
 10
10.4283181272
 20
9.7578066887
 30
0.0
 10
10.4268128022
 20
9.7583713078
 30
0.0
 10
10.425683808
 20
9.7587947705
 30
0.0
 10
10.4245548157
 20
9.7592182396
 30
0.0
 10
10.4236139828
 20
9.7595711105
 30
0.0
 10
10.42286133
 20
9.7598534521
 30
0.0
 10
10.4223908911
 20
9.7600298134
 30
0.0
 10
10.4220146106
 20
9.7601711366
 30
0.0
 10
10.421732207
 20
9.7602764876
 30
0.0
 10
10.4214974855
 20
9.7603663205
 30
0.0
 10
10.4213083293
 20
9.7604336107
 30
0.0
 10
10.4211702301
 20
9.7604965823
 30
0.0
 10
10.4210177487
 20
9.7605118263
 30
0.0
 10
10.420819464
 20
9.7605488235
 30
0.0
 10
10.4205698845
 20
9.7605893499
 30
0.0
 10
10.4202711269
 20
9.76064043
 30
0.0
 10
10.4198725258
 20
9.7607076816
 30
0.0
 10
10.4193743625
 20
9.760792039
 30
0.0
 10
10.418577252
 20
9.7609268471
 30
0.0
 10
10.4175808809
 20
9.7610954133
 30
0.0
 10
10.4163852282
 20
9.7612976688
 30
0.0
 10
10.4151895775
 20
9.7614999307
 30
0.0
 10
10.4135953758
 20
9.761769611
 30
0.0
 10
10.411602624
 20
9.7621067121
 30
0.0
 10
10.4092113217
 20
9.7625112331
 30
0.0
 10
10.4060229187
 20
9.7630505945
 30
0.0
 10
10.4020374149
 20
9.7637247963
 30
0.0
 10
10.3980519111
 20
9.7643989981
 30
0.0
 10
10.3948635081
 20
9.7649383595
 30
0.0
 10
10.3924722058
 20
9.7653428807
 30
0.0
 10
10.390479454
 20
9.7656799813
 30
0.0
 10
10.3888852524
 20
9.7659496625
 30
0.0
 10
10.3876896014
 20
9.7661519216
 30
0.0
 10
10.3864939498
 20
9.7663541876
 30
0.0
 10
10.3854975753
 20
9.7665227211
 30
0.0
 10
10.3847004715
 20
9.7666575959
 30
0.0
 10
10.3842022913
 20
9.7667417835
 30
0.0
 10
10.3838037251
 20
9.7668093835
 30
0.0
 10
10.3835048605
 20
9.7668593993
 30
0.0
 10
10.3832556157
 20
9.7669032557
 30
0.0
 10
10.3830566482
 20
9.7669334591
 30
0.0
 10
10.3829062522
 20
9.766969451
 30
0.0
 10
10.3827603237
 20
9.7669545265
 30
0.0
 10
10.3825641918
 20
9.7669524129
 30
0.0
 10
10.3823195624
 20
9.7669436688
 30
0.0
 10
10.3820257779
 20
9.7669357877
 30
0.0
 10
10.3816341453
 20
9.7669243673
 30
0.0
 10
10.3811445772
 20
9.7669104042
 30
0.0
 10
10.3803612835
 20
9.7668878887
 30
0.0
 10
10.3793821611
 20
9.7668598042
 30
0.0
 10
10.3782072165
 20
9.7668260771
 30
0.0
 10
10.3770322713
 20
9.7667923569
 30
0.0
 10
10.3754656778
 20
9.7667473942
 30
0.0
 10
10.373507436
 20
9.7666911917
 30
0.0
 10
10.3711575458
 20
9.7666237483
 30
0.0
 10
10.3680243589
 20
9.766533824
 30
0.0
 10
10.3641078752
 20
9.7664214184
 30
0.0
 10
10.3601913916
 20
9.7663090129
 30
0.0
 10
10.3570582047
 20
9.7662190885
 30
0.0
 10
10.3547083145
 20
9.7661516452
 30
0.0
 10
10.3527500727
 20
9.7660954423
 30
0.0
 10
10.3511834792
 20
9.7660504805
 30
0.0
 10
10.3500085343
 20
9.7660167575
 30
0.0
 10
10.3488335882
 20
9.7659830411
 30
0.0
 10
10.3478544705
 20
9.7659549233
 30
0.0
 10
10.3470711672
 20
9.7659324756
 30
0.0
 10
10.3465816234
 20
9.7659183399
 30
0.0
 10
10.3461899409
 20
9.7659072739
 30
0.0
 10
10.3458963088
 20
9.7658983101
 30
0.0
 10
10.3456512026
 20
9.7658929536
 30
0.0
 10
10.3454560435
 20
9.7658839286
 30
0.0
 10
10.3453071444
 20
9.7658901114
 30
0.0
 10
10.3451679014
 20
9.7658468576
 30
0.0
 10
10.3449788711
 20
9.7658064547
 30
0.0
 10
10.3447437404
 20
9.7657500263
 30
0.0
 10
10.3444610883
 20
9.7656848482
 30
0.0
 10
10.3440843918
 20
9.7655970583
 30
0.0
 10
10.3436134619
 20
9.7654876242
 30
0.0
 10
10.3428600072
 20
9.7653123601
 30
0.0
 10
10.3419181775
 20
9.7650933382
 30
0.0
 10
10.3407879868
 20
9.764830487
 30
0.0
 10
10.3396577947
 20
9.7645676425
 30
0.0
 10
10.3381508724
 20
9.7642171807
 30
0.0
 10
10.3362672193
 20
9.7637791044
 30
0.0
 10
10.3340068357
 20
9.7632534124
 30
0.0
 10
10.3309929909
 20
9.7625524899
 30
0.0
 10
10.3272256849
 20
9.7616763367
 30
0.0
 10
10.3234583789
 20
9.7608001835
 30
0.0
 10
10.3204445341
 20
9.7600992609
 30
0.0
 10
10.3181841505
 20
9.7595735691
 30
0.0
 10
10.3163004976
 20
9.7591354923
 30
0.0
 10
10.314793575
 20
9.7587850314
 30
0.0
 10
10.3136633837
 20
9.7585221842
 30
0.0
 10
10.3125331899
 20
9.7582593432
 30
0.0
 10
10.3115913697
 20
9.7580402893
 30
0.0
 10
10.3108378957
 20
9.7578650906
 30
0.0
 10
10.310367015
 20
9.7577554901
 30
0.0
 10
10.3099902175
 20
9.7576680417
 30
0.0
 10
10.309707874
 20
9.7576018202
 30
0.0
 10
10.3094717778
 20
9.7575486565
 30
0.0
 10
10.3092847173
 20
9.7575015929
 30
0.0
 10
10.3091394587
 20
9.7574786808
 30
0.0
 10
10.3090131446
 20
9.7574084923
 30
0.0
 10
10.3088381082
 20
9.7573314219
 30
0.0
 10
10.3086215832
 20
9.7572294179
 30
0.0
 10
10.3083607813
 20
9.7571094384
 30
0.0
 10
10.3080133849
 20
9.7569486186
 30
0.0
 10
10.3075790232
 20
9.7567478839
 30
0.0
 10
10.3068841095
 20
9.7564265462
 30
0.0
 10
10.306015445
 20
9.7560249298
 30
0.0
 10
10.3049730571
 20
9.7555429662
 30
0.0
 10
10.3039306667
 20
9.755061009
 30
0.0
 10
10.3025408138
 20
9.7544183972
 30
0.0
 10
10.3008034973
 20
9.7536151332
 30
0.0
 10
10.2987187176
 20
9.752651216
 30
0.0
 10
10.2959390113
 20
9.7513659933
 30
0.0
 10
10.2924643785
 20
9.7497594648
 30
0.0
 10
10.2889897456
 20
9.7481529364
 30
0.0
 10
10.2862100394
 20
9.7468677136
 30
0.0
 10
10.2841252596
 20
9.7459037966
 30
0.0
 10
10.2823879433
 20
9.7451005322
 30
0.0
 10
10.28099809
 20
9.7444579212
 30
0.0
 10
10.2799557008
 20
9.7439759614
 30
0.0
 10
10.2789133084
 20
9.7434940078
 30
0.0
 10
10.2780446582
 20
9.7430923603
 30
0.0
 10
10.2773497152
 20
9.7427710859
 30
0.0
 10
10.2769154279
 20
9.7425701902
 30
0.0
 10
10.2765678788
 20
9.7424097009
 30
0.0
 10
10.2763075434
 20
9.7422887116
 30
0.0
 10
10.2760895591
 20
9.7421898669
 30
0.0
 10
10.2759174999
 20
9.7421063511
 30
0.0
 10
10.2757820935
 20
9.7420558462
 30
0.0
 10
10.2756709711
 20
9.7419590337
 30
0.0
 10
10.2755143252
 20
9.7418461262
 30
0.0
 10
10.2753214282
 20
9.7416994419
 30
0.0
 10
10.2750887061
 20
9.7415257963
 30
0.0
 10
10.274778845
 20
9.7412934391
 30
0.0
 10
10.2743913697
 20
9.7410032767
 30
0.0
 10
10.2737714925
 20
9.7405388581
 30
0.0
 10
10.2729966174
 20
9.7399583894
 30
0.0
 10
10.2720667796
 20
9.7392618035
 30
0.0
 10
10.2711369384
 20
9.7385652239
 30
0.0
 10
10.2698971514
 20
9.7376364489
 30
0.0
 10
10.2683474172
 20
9.7364754808
 30
0.0
 10
10.2664877363
 20
9.7350823189
 30
0.0
 10
10.2640081617
 20
9.7332247697
 30
0.0
 10
10.2609086935
 20
9.7309028333
 30
0.0
 10
10.2578092254
 20
9.7285808968
 30
0.0
 10
10.2553296508
 20
9.7267233476
 30
0.0
 10
10.2534699699
 20
9.7253301857
 30
0.0
 10
10.2519202358
 20
9.7241692175
 30
0.0
 10
10.2506804486
 20
9.7232404428
 30
0.0
 10
10.2497506078
 20
9.7225438623
 30
0.0
 10
10.2488207688
 20
9.72184728
 30
0.0
 10
10.2480458972
 20
9.7212668
 30
0.0
 10
10.2474260128
 20
9.7208024043
 30
0.0
 10
10.2470385556
 20
9.7205121837
 30
0.0
 10
10.2467286575
 20
9.7202799459
 30
0.0
 10
10.2464960485
 20
9.7201059357
 30
0.0
 10
10.2463027976
 20
9.7199603921
 30
0.0
 10
10.2461663642
 20
9.7198595618
 30
0.0
 10
10.2460902101
 20
9.7198003046
 30
0.0
 10
10.2460280017
 20
9.7197604814
 30
0.0
 10
10.2459852607
 20
9.7197029991
 30
0.0
 10
10.2459214822
 20
9.7196325158
 30
0.0
 10
10.2458130338
 20
9.7195063001
 30
0.0
 10
10.2456564533
 20
9.7193274923
 30
0.0
 10
10.2454692648
 20
9.7191122808
 30
0.0
 10
10.2452194327
 20
9.7188255564
 30
0.0
 10
10.2449072274
 20
9.7184670741
 30
0.0
 10
10.2444076515
 20
9.7178935453
 30
0.0
 10
10.2437831979
 20
9.7171766196
 30
0.0
 10
10.2430338465
 20
9.7163163151
 30
0.0
 10
10.2422844971
 20
9.7154560089
 30
0.0
 10
10.2412853638
 20
9.7143089346
 30
0.0
 10
10.2400364475
 20
9.7128750914
 30
0.0
 10
10.2385377477
 20
9.7111544797
 30
0.0
 10
10.2365394815
 20
9.7088603308
 30
0.0
 10
10.2340416487
 20
9.7059926446
 30
0.0
 10
10.2315438158
 20
9.7031249585
 30
0.0
 10
10.2295455496
 20
9.7008308095
 30
0.0
 10
10.2280468498
 20
9.6991101979
 30
0.0
 10
10.2267979336
 20
9.6976763547
 30
0.0
 10
10.2257988001
 20
9.6965292805
 30
0.0
 10
10.2250494514
 20
9.6956689738
 30
0.0
 10
10.2243000971
 20
9.6948086712
 30
0.0
 10
10.2236756526
 20
9.6940917395
 30
0.0
 10
10.2231760581
 20
9.6935182229
 30
0.0
 10
10.2228639001
 20
9.6931597096
 30
0.0
 10
10.2226139709
 20
9.6928730488
 30
0.0
 10
10.2224270792
 20
9.692657643
 30
0.0
 10
10.2222695701
 20
9.6924794429
 30
0.0
 10
10.2221475236
 20
9.6923339566
 30
0.0
 10
10.2220451658
 20
9.6922328378
 30
0.0
 10
10.2219841194
 20
9.6921011985
 30
0.0
 10
10.2218882936
 20
9.6919363406
 30
0.0
 10
10.2217734624
 20
9.6917266104
 30
0.0
 10
10.2216335457
 20
9.6914764998
 30
0.0
 10
10.2214477304
 20
9.6911424722
 30
0.0
 10
10.2212152077
 20
9.690725125
 30
0.0
 10
10.2208433131
 20
9.6900572647
 30
0.0
 10
10.2203783963
 20
9.6892224753
 30
0.0
 10
10.2198205169
 20
9.6882207126
 30
0.0
 10
10.219262632
 20
9.687218954
 30
0.0
 10
10.2185187874
 20
9.6858832745
 30
0.0
 10
10.2175889809
 20
9.6842136755
 30
0.0
 10
10.2164732135
 20
9.6822101566
 30
0.0
 10
10.2149855234
 20
9.6795387981
 30
0.0
 10
10.2131259109
 20
9.6761996
 30
0.0
 10
10.2112662984
 20
9.6728604018
 30
0.0
 10
10.2097786084
 20
9.6701890433
 30
0.0
 10
10.2086628408
 20
9.6681855244
 30
0.0
 10
10.2077330347
 20
9.6665159253
 30
0.0
 10
10.2069891893
 20
9.6651802462
 30
0.0
 10
10.2064313068
 20
9.6641784861
 30
0.0
 10
10.2058734182
 20
9.6631767291
 30
0.0
 10
10.2054085303
 20
9.6623419221
 30
0.0
 10
10.2050365767
 20
9.6616740976
 30
0.0
 10
10.2048042041
 20
9.6612566595
 30
0.0
 10
10.2046180808
 20
9.6609228184
 30
0.0
 10
10.204479105
 20
9.660672138
 30
0.0
 10
10.2043613299
 20
9.6604641905
 30
0.0
 10
10.2042715103
 20
9.6602956956
 30
0.0
 10
10.2041921214
 20
9.6601751635
 30
0.0
 10
10.2041586288
 20
9.6600323436
 30
0.0
 10
10.2040979398
 20
9.6598497026
 30
0.0
 10
10.2040275791
 20
9.6596187301
 30
0.0
 10
10.2039407919
 20
9.6593427065
 30
0.0
 10
10.203825898
 20
9.6589742757
 30
0.0
 10
10.203681999
 20
9.6585138739
 30
0.0
 10
10.203451918
 20
9.6577771546
 30
0.0
 10
10.2031642628
 20
9.6568562817
 30
0.0
 10
10.2028190996
 20
9.655751223
 30
0.0
 10
10.2024739302
 20
9.6546461673
 30
0.0
 10
10.2020137066
 20
9.6531727587
 30
0.0
 10
10.2014384263
 20
9.6513309982
 30
0.0
 10
10.2007480903
 20
9.6491208855
 30
0.0
 10
10.1998276421
 20
9.6461740687
 30
0.0
 10
10.198677082
 20
9.6424905475
 30
0.0
 10
10.1975265218
 20
9.6388070264
 30
0.0
 10
10.1966060737
 20
9.6358602095
 30
0.0
 10
10.1959157375
 20
9.6336500969
 30
0.0
 10
10.1953404577
 20
9.6318083363
 30
0.0
 10
10.1948802331
 20
9.630334928
 30
0.0
 10
10.1945350665
 20
9.6292298712
 30
0.0
 10
10.1941898932
 20
9.6281248167
 30
0.0
 10
10.1939022694
 20
9.6272039306
 30
0.0
 10
10.1936721244
 20
9.6264672383
 30
0.0
 10
10.1935283882
 20
9.6260067676
 30
0.0
 10
10.1934131601
 20
9.6256384783
 30
0.0
 10
10.1933273938
 20
9.6253620225
 30
0.0
 10
10.193253839
 20
9.6251324021
 30
0.0
 10
10.1931996667
 20
9.6249470027
 30
0.0
 10
10.1931462724
 20
9.6248126065
 30
0.0
 10
10.193141603
 20
9.6246604488
 30
0.0
 10
10.1931183569
 20
9.6244637762
 30
0.0
 10
10.1930951389
 20
9.6242158067
 30
0.0
 10
10.1930647777
 20
9.6239191546
 30
0.0
 10
10.1930251691
 20
9.6235233001
 30
0.0
 10
10.1929753595
 20
9.6230285909
 30
0.0
 10
10.1928958312
 20
9.6222369954
 30
0.0
 10
10.1927963635
 20
9.6212475219
 30
0.0
 10
10.1926770269
 20
9.6200601447
 30
0.0
 10
10.1925576837
 20
9.6188727699
 30
0.0
 10
10.1923985616
 20
9.6172896027
 30
0.0
 10
10.1921996583
 20
9.615310644
 30
0.0
 10
10.1919609747
 20
9.6129358934
 30
0.0
 10
10.1916427298
 20
9.6097695594
 30
0.0
 10
10.1912449236
 20
9.6058116418
 30
0.0
 10
10.1907675562
 20
9.6010621407
 30
0.0
 10
10.1901310664
 20
9.5947294725
 30
0.0
 10
10.189653699
 20
9.5899799714
 30
0.0
 10
10.189335454
 20
9.5868136373
 30
0.0
  0
ENDSEC
  0
SECTION
  2
OBJECTS
  0
DICTIONARY
  5
C
100
AcDbDictionary
280
0
281
1
  3
ACAD_GROUP
350
D
  3
ACAD_MLINESTYLE
350
17
  3
ACAD_LAYOUT
350
1A
  3
ACAD_PLOTSETTINGS
350
19
  3
ACAD_PLOTSTYLENAME
350
E
  3
ACAD_IMAGE_DICT
350
       39E
  3
ACAD_IMAGE_VARS
350
       39F
  3
ACAD_TABLESTYLE
350
       3A0
  0
IMAGEDEF_REACTOR
  5
39D
100
AcDbRasterImageDefReactor
 90
2
330
28B
  0
DICTIONARY
  5
D
102
{ACAD_REACTORS
330
C
102
}
100
AcDbDictionary
280
0
281
1
  0
ACDBDICTIONARYWDFLT
  5
E
102
{ACAD_REACTORS
330
C
102
}
100
AcDbDictionary
281
1
  3
Normal
350
F
100
AcDbDictionaryWithDefault
340
F
  0
DICTIONARY
  5
39E
330
C
100
AcDbDictionary
281
1
  3
YHK_assy_2_img_1
350
       3A3
  0
RASTERVARIABLES
  5
39F
330
C
100
AcDbRasterVariables
 90
0
 70
0
 71
1
 72
5
  0
DICTIONARY
  5
17
102
{ACAD_REACTORS
330
C
102
}
100
AcDbDictionary
280
0
281
1
  3
Standard
350
18
  0
DICTIONARY
  5
3A0
330
C
100
AcDbDictionary
281
1
  3
Standard
350
       3A4
  3
Standard1
350
       3A5
  0
DICTIONARY
  5
19
102
{ACAD_REACTORS
330
C
102
}
100
AcDbDictionary
281
1
  0
DICTIONARY
  5
1A
102
{ACAD_REACTORS
330
C
102
}
100
AcDbDictionary
281
1
  3
Model
350
3A1
  3
Layout1
350
3A2
  0
ACDBPLACEHOLDER
  5
F
102
{ACAD_REACTORS
330
E
102
}
  0
MLINESTYLE
  5
18
102
{ACAD_REACTORS
330
17
102
}
100
AcDbMlineStyle
  2
STANDARD
 70
0
  3

 62
256
 51
90.0
 52
90.0
 71
2
 49
0.5
 62
256
  6
BYLAYER
 49
-0.5
 62
256
  6
BYLAYER
  0
LAYOUT
  5
3A1
102
{ACAD_REACTORS
330
1A
102
}
100
AcDbPlotSettings
  1

  2
none_device
  4
ANSI_C_(22.00_x_17.00_Inches)
  6

 40
0.0
 41
0.0
 42
0.0
 43
0.0
 44
558.8
 45
431.8
 46
0.0
 47
0.0
 48
0.0
 49
0.0
140
0.0
141
0.0
142
1.0
143
1.0
 70
1024
 72
0
 73
0
 74
0
  7

 75
0
147
1.0
148
0.0
149
0.0
100
AcDbLayout
  1
Model
 70
0
 71
0
 10
0.0
 20
0.0
 11
22.0
 21
17.0
 12
0.0
 22
0.0
 32
0.0
 14
0.0
 24
0.0
 34
0.0
 15
0.0
 25
0.0
 35
0.0
146
0.0
 13
0.0
 23
0.0
 33
0.0
 16
1.0
 26
0.0
 36
0.0
 17
0.0
 27
1.0
 37
0.0
 76
0
330
20C
345
0
346
0
  0
LAYOUT
  5
3A2
102
{ACAD_REACTORS
330
1A
102
}
100
AcDbPlotSettings
  1

  2
none_device
  4
ANSI_C_(22.00_x_17.00_Inches)
  6

 40
0.0
 41
0.0
 42
0.0
 43
0.0
 44
558.8
 45
431.8
 46
0.0
 47
0.0
 48
0.0
 49
0.0
140
0.0
141
0.0
142
1.0
143
1.0
 70
0
 72
0
 73
0
 74
0
  7

 75
0
147
1.0
148
0.0
149
0.0
100
AcDbLayout
  1
Layout1
 70
0
 71
1
 10
0.0
 20
0.0
 11
22.0
 21
17.0
 12
0.0
 22
0.0
 32
0.0
 14
0.0
 24
0.0
 34
0.0
 15
0.0
 25
0.0
 35
0.0
146
0.0
 13
0.0
 23
0.0
 33
0.0
 16
1.0
 26
0.0
 36
0.0
 17
0.0
 27
1.0
 37
0.0
 76
0
330
20D
345
0
346
0
  0
IMAGEDEF
  5
3A3
102
{ACAD_REACTORS
330
39E
330
39D
102
}
100
AcDbRasterImageDef
 90
0
  1
YHK_assy_2_img_1.png
 10
369.0
 20
92.0
 11
0.0066666667
 21
0.0066666667
280
1
281
0
  0
TABLESTYLE
  5
3A4
102
{ACAD_REACTORS
330
3A0
330
28E
330
28F
102
}
330
3A0
100
AcDbTableStyle
  3
Standard
 70
0
 71
0
 40
0.06
 41
0.06
280
1
281
1
  7
Standard
140
0.18
170
1
 62
0
 63
7
283
0
  7
Standard
140
0.18
170
1
 62
0
 63
7
283
0
  7
Standard
140
0.18
170
1
 62
0
 63
7
283
0
  0
TABLESTYLE
  5
3A5
102
{ACAD_REACTORS
330
3A0
330
28D
102
}
330
3A0
100
AcDbTableStyle
  3
Standard1
 70
1
 71
0
 40
0.06
 41
0.06
280
1
281
1
  7
Standard
140
0.18
170
1
 62
0
 63
7
283
0
  7
Standard
140
0.18
170
1
 62
0
 63
7
283
0
  7
Standard
140
0.18
170
1
 62
0
 63
7
283
0
  0
ENDSEC
  0
EOF
