999
DXF file: YHC_assy_2.dxf
999
Pro/ENGINEER 2014200 by Parametric Technology Corporation
  0
SECTION
  2
HEADER
  9
$ACADVER
  1
AC1021
  9
$DWGCODEPAGE
  3
ANSI_1252
  9
$EXTMAX
 10
22.0
 20
17.0
 30
0.0
  9
$EXTMIN
 10
0.0
 20
0.0
 30
0.0
  9
$LIMMIN
 10
0.0
 20
0.0
  9
$LIMMAX
 10
22.0
 20
17.0
  9
$VIEWCTR
 10
11.0
 20
8.5
  9
$VIEWSIZE
 40
17.0
  9
$CLAYER
  8
0
  9
$LTSCALE
 40
1.21
  9
$CELTYPE
  6
BYLAYER
  9
$DIMSCALE
 40
1.0
  9
$DIMASZ
 40
0.1875
  9
$DIMEXO
 40
0.0625
  9
$DIMDLI
 40
0.836
  9
$DIMEXE
 40
0.125
  9
$DIMCEN
 40
0.198
  9
$DIMLFAC
 40
1.0
  9
$DIMBLK
  1
_FILLED
  9
$DIMTXT
 40
0.1
  9
$DIMTOL
 70
0
  9
$DIMLIM
 70
0
  9
$DIMTFAC
 40
1.0
  9
$DIMGAP
 40
0.09
  9
$DIMDSEP
 70
46
  9
$AUNITS
 70
0
  9
$PDMODE
 70
3
  9
$PDSIZE
 40
0.3125
  9
$HANDSEED
  5
38D
  9
$TILEMODE
 70
1
  9
$MEASUREMENT
 70
0
  9
$INSUNITS
 70
1
  0
ENDSEC
  0
SECTION
  2
CLASSES
  0
CLASS
  1
ACDBDICTIONARYWDFLT
  2
AcDbDictionaryWithDefault
  3
AutoCAD 2000
 90
0
 91
1
280
0
281
0
  0
CLASS
  1
ACDBPLACEHOLDER
  2
AcDbPlaceHolder
  3
AutoCAD 2000
 90
0
 91
1
280
0
281
0
  0
CLASS
  1
LAYOUT
  2
AcDbLayout
  3
AutoCAD 2000
 90
0
 91
0
280
0
281
0
  0
CLASS
  1
RASTERVARIABLES
  2
AcDbRasterVariables
  3
ISM
 90
0
 91
1
280
0
281
0
  0
CLASS
  1
IMAGEDEF
  2
AcDbRasterImageDef
  3
ISM
 90
0
 91
1
280
0
281
0
  0
CLASS
  1
IMAGEDEF_REACTOR
  2
AcDbRasterImageDefReactor
  3
ISM
 90
0
 91
1
280
0
281
0
  0
CLASS
  1
IMAGE
  2
AcDbRasterImage
  3
ISM
 90
127
 91
1
280
0
281
1
  0
CLASS
  1
TABLESTYLE
  2
AcDbTableStyle
  3
ObjectDBX Classes
 90
2047
 91
1
280
0
281
0
  0
CLASS
  1
ACAD_TABLE
  2
AcDbTable
  3
ObjectDBX Classes
 90
1025
 91
3
280
0
281
1
  0
ENDSEC
  0
SECTION
  2
TABLES
  0
TABLE
  2
VPORT
  5
8
100
AcDbSymbolTable
 70
2
  0
VPORT
  5
1F4
100
AcDbSymbolTableRecord
100
AcDbViewportTableRecord
  2
*ACTIVE
 70
0
 10
0.0
 20
0.0
 11
1.0
 21
1.0
 12
11.0
 22
8.5
 13
0.0
 23
0.0
 14
1.0
 24
1.0
 15
0.0
 25
0.0
 16
0.0
 26
0.0
 36
1.0
 17
0.0
 27
0.0
 37
0.0
 40
17.0
 41
1.2941176471
 42
50.0
 43
0.0
 44
0.0
 50
0.0
 51
0.0
 71
0
 72
100
 73
1
 74
1
 75
0
 76
0
 77
0
 78
0
  0
ENDTAB
  0
TABLE
  2
LTYPE
  5
5
100
AcDbSymbolTable
 70
6
  0
LTYPE
  5
14
100
AcDbSymbolTableRecord
100
AcDbLinetypeTableRecord
  2
BYBLOCK
 70
0
  3

 72
65
 73
0
 40
0.0
  0
LTYPE
  5
15
100
AcDbSymbolTableRecord
100
AcDbLinetypeTableRecord
  2
BYLAYER
 70
0
  3

 72
65
 73
0
 40
0.0
  0
LTYPE
  5
16
100
AcDbSymbolTableRecord
100
AcDbLinetypeTableRecord
  2
CONTINUOUS
 70
64
  3
Solid line
 72
65
 73
0
 40
0.0
  0
LTYPE
  5
1F5
100
AcDbSymbolTableRecord
100
AcDbLinetypeTableRecord
  2
CENTER
 70
64
  3
____ _ ____ _ ____ _ ____ _ ____ _ ____ _ ____
 72
65
 73
4
 40
0.6
 49
0.375
 74
0
 49
-0.075
 74
0
 49
0.075
 74
0
 49
-0.075
 74
0
  0
LTYPE
  5
1F6
100
AcDbSymbolTableRecord
100
AcDbLinetypeTableRecord
  2
HIDDEN
 70
64
  3
- - - - - - - - - - - - - - - - - - - -
 72
65
 73
2
 40
0.2
 49
0.1
 74
0
 49
-0.1
 74
0
  0
LTYPE
  5
1F7
100
AcDbSymbolTableRecord
100
AcDbLinetypeTableRecord
  2
PHANTOM
 70
64
  3
_____ _ _ _____ _ _ _____ _ _ _____
 72
65
 73
6
 40
0.8
 49
0.45
 74
0
 49
-0.05
 74
0
 49
0.1
 74
0
 49
-0.05
 74
0
 49
0.1
 74
0
 49
-0.05
 74
0
  0
LTYPE
  5
1F8
100
AcDbSymbolTableRecord
100
AcDbLinetypeTableRecord
  2
DOT
 70
64
  3
. . . . . . . . . . . . . . . . . . . .
 72
65
 73
2
 40
0.2
 49
0.1
 74
0
 49
-0.1
 74
0
  0
LTYPE
  5
1F9
100
AcDbSymbolTableRecord
100
AcDbLinetypeTableRecord
  2
DASHED
 70
64
  3
- - - - - - - - - - - - - - - - - - - -
 72
65
 73
2
 40
0.2
 49
0.1
 74
0
 49
-0.1
 74
0
  0
ENDTAB
  0
TABLE
  2
LAYER
  5
2
100
AcDbSymbolTable
 70
36
  0
LAYER
  5
10
100
AcDbSymbolTableRecord
100
AcDbLayerTableRecord
  2
0
 70
0
 62
7
  6
CONTINUOUS
370
-3
390
F
  0
LAYER
  5
1FA
100
AcDbSymbolTableRecord
100
AcDbLayerTableRecord
  2
DEFAULT_1
 70
0
 62
7
  6
CENTER
370
-3
390
F
  0
LAYER
  5
1FB
100
AcDbSymbolTableRecord
100
AcDbLayerTableRecord
  2
DEFAULT_2
 70
0
 62
8
  6
HIDDEN
370
-3
390
F
  0
LAYER
  5
1FC
100
AcDbSymbolTableRecord
100
AcDbLayerTableRecord
  2
DEFAULT_3
 70
0
 62
7
  6
PHANTOM
370
-3
390
F
  0
LAYER
  5
1FD
100
AcDbSymbolTableRecord
100
AcDbLayerTableRecord
  2
01___PRT_ALL_DTM_PLN
 70
0
 62
7
  6
CONTINUOUS
370
-3
390
F
  0
LAYER
  5
1FE
100
AcDbSymbolTableRecord
100
AcDbLayerTableRecord
  2
01___PRT_DEF_DTM_PLN
 70
0
 62
7
  6
CONTINUOUS
370
-3
390
F
  0
LAYER
  5
1FF
100
AcDbSymbolTableRecord
100
AcDbLayerTableRecord
  2
02___PRT_ALL_AXES
 70
0
 62
7
  6
CONTINUOUS
370
-3
390
F
  0
LAYER
  5
200
100
AcDbSymbolTableRecord
100
AcDbLayerTableRecord
  2
03___PRT_ALL_CURVES
 70
0
 62
7
  6
CONTINUOUS
370
-3
390
F
  0
LAYER
  5
201
100
AcDbSymbolTableRecord
100
AcDbLayerTableRecord
  2
04___PRT_ALL_DTM_PNT
 70
0
 62
7
  6
CONTINUOUS
370
-3
390
F
  0
LAYER
  5
202
100
AcDbSymbolTableRecord
100
AcDbLayerTableRecord
  2
05___PRT_ALL_DTM_CSYS
 70
0
 62
7
  6
CONTINUOUS
370
-3
390
F
  0
LAYER
  5
203
100
AcDbSymbolTableRecord
100
AcDbLayerTableRecord
  2
05___PRT_DEF_DTM_CSYS
 70
0
 62
7
  6
CONTINUOUS
370
-3
390
F
  0
LAYER
  5
204
100
AcDbSymbolTableRecord
100
AcDbLayerTableRecord
  2
06___PRT_ALL_SURFS
 70
0
 62
7
  6
CONTINUOUS
370
-3
390
F
  0
LAYER
  5
205
100
AcDbSymbolTableRecord
100
AcDbLayerTableRecord
  2
DATUM_PLANES
 70
0
 62
7
  6
CONTINUOUS
370
-3
390
F
  0
LAYER
  5
206
100
AcDbSymbolTableRecord
100
AcDbLayerTableRecord
  2
PORT_AREAS
 70
0
 62
7
  6
CONTINUOUS
370
-3
390
F
  0
LAYER
  5
207
100
AcDbSymbolTableRecord
100
AcDbLayerTableRecord
  2
SUNNBOMCOSMETIC
 70
0
 62
7
  6
CONTINUOUS
370
-3
390
F
  0
LAYER
  5
208
100
AcDbSymbolTableRecord
100
AcDbLayerTableRecord
  2
SUNNBOMSTAMPING
 70
0
 62
7
  6
CONTINUOUS
370
-3
390
F
  0
LAYER
  5
209
100
AcDbSymbolTableRecord
100
AcDbLayerTableRecord
  2
THREADS
 70
0
 62
7
  6
CONTINUOUS
370
-3
390
F
  0
ENDTAB
  0
TABLE
  2
STYLE
  5
3
100
AcDbSymbolTable
 70
1
  0
STYLE
  5
11
100
AcDbSymbolTableRecord
100
AcDbTextStyleTableRecord
  2
STANDARD
 70
0
 40
0.0
 41
0.8
 50
0.0
 71
0
 42
0.2
  3
txt
  4

  0
STYLE
  5
20A
100
AcDbSymbolTableRecord
100
AcDbTextStyleTableRecord
  2
TEXTSTYLE_1
 70
0
 40
0.0
 41
0.8
 50
0.0
 71
0
 42
0.2
  3
gdt
  4

  0
ENDTAB
  0
TABLE
  2
VIEW
  5
6
100
AcDbSymbolTable
 70
0
  0
ENDTAB
  0
TABLE
  2
UCS
  5
7
100
AcDbSymbolTable
 70
0
  0
ENDTAB
  0
TABLE
  2
APPID
  5
9
100
AcDbSymbolTable
 70
1
  0
APPID
  5
20B
100
AcDbSymbolTableRecord
100
AcDbRegAppTableRecord
  2
ACAD
 70
0
  0
ENDTAB
  0
TABLE
  2
BLOCK_RECORD
  5
1
100
AcDbSymbolTable
 70
0
  0
BLOCK_RECORD
  5
20C
100
AcDbSymbolTableRecord
100
AcDbBlockTableRecord
  2
*Model_Space
  0
BLOCK_RECORD
  5
20D
100
AcDbSymbolTableRecord
100
AcDbBlockTableRecord
  2
*Paper_Space
  0
BLOCK_RECORD
  5
20E
100
AcDbSymbolTableRecord
100
AcDbBlockTableRecord
  2
SUN_FIRST_THIRD_ANGLE_BL0
  0
BLOCK_RECORD
  5
20F
100
AcDbSymbolTableRecord
100
AcDbBlockTableRecord
  2
*T1
  0
BLOCK_RECORD
  5
210
100
AcDbSymbolTableRecord
100
AcDbBlockTableRecord
  2
*T2
  0
BLOCK_RECORD
  5
211
100
AcDbSymbolTableRecord
100
AcDbBlockTableRecord
  2
*T3
  0
ENDTAB
  0
TABLE
  2
DIMSTYLE
  5
A
100
AcDbSymbolTable
 70
1
100
AcDbDimStyleTable
 71
0
  0
DIMSTYLE
105
212
100
AcDbSymbolTableRecord
100
AcDbDimStyleTableRecord
  2
STANDARD
 70
0
  3

  4

 40
1.0
 41
0.1875
 42
0.0625
 43
0.38
 44
0.125
 45
0.0
 46
0.0
 47
0.001
 48
0.001
140
0.1
141
0.09
142
0.0
143
25.4
144
1.0
145
0.0
146
1.0
147
0.09
 71
0.0
 72
0.0
 73
1
 74
1
 75
0
 76
0
 77
0
 78
4
170
0
171
2
172
0
173
0
174
0
175
0
176
0
177
0
178
0
270
2
271
3
272
3
273
2
274
2
275
0
280
0
281
0
282
0
283
1
284
4
285
0
286
0
287
3
288
0
340
11
278
46
  0
ENDTAB
  0
ENDSEC
  0
SECTION
  2
BLOCKS
  0
BLOCK
  5
20
100
AcDbEntity
  8
0
100
AcDbBlockBegin
  2
*Model_Space
 70
0
 10
0.0
 20
0.0
 30
0.0
  3
*Model_Space
  1

  0
ENDBLK
  5
21
100
AcDbEntity
  8
0
100
AcDbBlockEnd
  0
BLOCK
  5
1C
100
AcDbEntity
  8
0
100
AcDbBlockBegin
  2
*Paper_Space
 70
0
 10
0.0
 20
0.0
 30
0.0
  3
*Paper_Space
  1

  0
ENDBLK
  5
1D
100
AcDbEntity
  8
0
100
AcDbBlockEnd
  0
BLOCK
  5
213
100
AcDbEntity
  8
0
100
AcDbBlockBegin
 62
2
  6
CONTINUOUS
  2
SUN_FIRST_THIRD_ANGLE_BL0
 70
64
 10
20.4816717061
 20
1.2289683772
  3
SUN_FIRST_THIRD_ANGLE_BL0
  1

  0
TEXT
  5
214
100
AcDbEntity
  8
0
100
AcDbText
 62
2
  6
CONTINUOUS
 10
19.4750896608
 20
1.4136269581
  7
STANDARD
 40
0.08
  1
FIRST ANGLE
 41
0.8
 72
0
100
AcDbText
  0
TEXT
  5
215
100
AcDbEntity
  8
0
100
AcDbText
 62
2
  6
CONTINUOUS
 10
20.7842537513
 20
1.4047600029
  7
STANDARD
 40
0.08
  1
THIRD ANGLE
 41
0.8
 72
0
100
AcDbText
  0
LINE
  5
216
100
AcDbEntity
  8
0
100
AcDbLine
 62
7
  6
CONTINUOUS
 10
19.4767170086
 20
1.1727031207
 11
19.6334271527
 21
1.1717972817
  0
LINE
  5
217
100
AcDbEntity
  8
0
100
AcDbLine
 62
7
  6
CONTINUOUS
 10
19.6596964832
 20
1.1717972817
 11
19.6950230232
 21
1.171593082
  0
LINE
  5
218
100
AcDbEntity
  8
0
100
AcDbLine
 62
7
  6
CONTINUOUS
 10
19.7194818561
 20
1.1708914427
 11
19.8852396156
 21
1.1699333054
  0
LINE
  5
219
100
AcDbEntity
  8
0
100
AcDbLine
 62
7
  6
CONTINUOUS
 10
19.4758111696
 20
1.2723454088
 11
19.88525039
 21
1.3511534004
  0
LINE
  5
21A
100
AcDbEntity
  8
0
100
AcDbLine
 62
7
  6
CONTINUOUS
 10
19.88525039
 20
1.3511534004
 11
19.8831348489
 21
0.9851647912
  0
LINE
  5
21B
100
AcDbEntity
  8
0
100
AcDbLine
 62
7
  6
CONTINUOUS
 10
19.8831348489
 20
0.9851647912
 11
19.4767170086
 21
1.0658141206
  0
LINE
  5
21C
100
AcDbEntity
  8
0
100
AcDbLine
 62
7
  6
CONTINUOUS
 10
19.4767170086
 20
1.0658141206
 11
19.4779056764
 21
1.2714536432
  0
CIRCLE
  5
21D
100
AcDbEntity
  8
0
100
AcDbCircle
 62
7
  6
CONTINUOUS
 10
20.2068232291
 20
1.1717972817
 40
0.175742101
  0
CIRCLE
  5
21E
100
AcDbEntity
  8
0
100
AcDbCircle
 62
7
  6
CONTINUOUS
 10
20.2068232291
 20
1.1717972817
 40
0.1005522074
  0
LINE
  5
21F
100
AcDbEntity
  8
0
100
AcDbLine
 62
7
  6
CONTINUOUS
 10
20.2077290681
 20
1.3756110529
 11
20.2071171714
 21
1.2379342989
  0
LINE
  5
220
100
AcDbEntity
  8
0
100
AcDbLine
 62
7
  6
CONTINUOUS
 10
20.2077290681
 20
1.2016899681
 11
20.2074674401
 21
1.1428236749
  0
LINE
  5
221
100
AcDbEntity
  8
0
100
AcDbLine
 62
7
  6
CONTINUOUS
 10
20.208634907
 20
1.101141841
 11
20.2080230104
 21
0.963465087
  0
LINE
  5
222
100
AcDbEntity
  8
0
100
AcDbLine
 62
7
  6
CONTINUOUS
 10
20.0066328138
 20
1.1745147986
 11
20.1443095678
 21
1.1739029019
  0
LINE
  5
223
100
AcDbEntity
  8
0
100
AcDbLine
 62
7
  6
CONTINUOUS
 10
20.1832714155
 20
1.1727031207
 11
20.238153505
 21
1.172335442
  0
LINE
  5
224
100
AcDbEntity
  8
0
100
AcDbLine
 62
7
  6
CONTINUOUS
 10
20.2756669918
 20
1.1717972817
 11
20.407916871
 21
1.1712095044
  0
CIRCLE
  5
225
100
AcDbEntity
  8
0
100
AcDbCircle
 62
7
  6
CONTINUOUS
 10
20.7509457401
 20
1.1693297793
 40
0.1722024983
  0
CIRCLE
  5
226
100
AcDbEntity
  8
0
100
AcDbCircle
 62
7
  6
CONTINUOUS
 10
20.7509457401
 20
1.1693297793
 40
0.0985164967
  0
LINE
  5
227
100
AcDbEntity
  8
0
100
AcDbLine
 62
7
  6
CONTINUOUS
 10
20.7169767782
 20
1.170462078
 11
20.7825395137
 21
1.1682766535
  0
LINE
  5
228
100
AcDbEntity
  8
0
100
AcDbLine
 62
7
  6
CONTINUOUS
 10
20.8177513651
 20
1.1693297793
 11
20.947965719
 21
1.1693297793
  0
LINE
  5
229
100
AcDbEntity
  8
0
100
AcDbLine
 62
7
  6
CONTINUOUS
 10
20.6875370113
 20
1.170462078
 11
20.5573226574
 21
1.170462078
  0
LINE
  5
22A
100
AcDbEntity
  8
0
100
AcDbLine
 62
7
  6
CONTINUOUS
 10
20.7486811426
 20
1.1987695462
 11
20.7486811426
 21
1.1432869085
  0
LINE
  5
22B
100
AcDbEntity
  8
0
100
AcDbLine
 62
7
  6
CONTINUOUS
 10
20.7498134414
 20
1.1059210505
 11
20.7498134414
 21
0.9757066966
  0
LINE
  5
22C
100
AcDbEntity
  8
0
100
AcDbLine
 62
7
  6
CONTINUOUS
 10
20.7486811426
 20
1.2338708068
 11
20.7486811426
 21
1.3640851607
  0
LINE
  5
22D
100
AcDbEntity
  8
0
100
AcDbLine
 62
7
  6
CONTINUOUS
 10
21.0702539817
 20
1.2701043662
 11
21.4790138229
 21
1.3448360823
  0
LINE
  5
22E
100
AcDbEntity
  8
0
100
AcDbLine
 62
7
  6
CONTINUOUS
 10
21.4790138229
 20
1.3448360823
 11
21.4790138229
 21
0.9779712941
  0
LINE
  5
22F
100
AcDbEntity
  8
0
100
AcDbLine
 62
7
  6
CONTINUOUS
 10
21.4790138229
 20
0.9779712941
 11
21.069121683
 21
1.0617614
  0
LINE
  5
230
100
AcDbEntity
  8
0
100
AcDbLine
 62
7
  6
CONTINUOUS
 10
21.0702539817
 20
1.2701043662
 11
21.069121683
 21
1.0617614
  0
LINE
  5
231
100
AcDbEntity
  8
0
100
AcDbLine
 62
7
  6
CONTINUOUS
 10
21.4790138229
 20
1.1693297793
 11
21.3159628059
 21
1.1693297793
  0
LINE
  5
232
100
AcDbEntity
  8
0
100
AcDbLine
 62
7
  6
CONTINUOUS
 10
21.2876553377
 20
1.1693297793
 11
21.2502894796
 21
1.1693297793
  0
LINE
  5
233
100
AcDbEntity
  8
0
100
AcDbLine
 62
7
  6
CONTINUOUS
 10
21.2208497126
 20
1.1659328831
 11
21.0713862804
 21
1.1659328831
  0
LINE
  5
234
100
AcDbEntity
  8
0
100
AcDbLine
 62
7
  6
CONTINUOUS
 10
20.4796138713
 20
1.5284908897
 11
20.4766766948
 21
0.9294458646
  0
ENDBLK
  5
235
100
AcDbEntity
  8
0
  6
BYBLOCK
 62
0
100
AcDbBlockEnd
  0
BLOCK
  5
236
100
AcDbEntity
  8
0
100
AcDbBlockBegin
  2
*T1
 70
1
 10
0.0
 20
0.0
  3
*T1
  1

  0
LINE
  5
237
100
AcDbEntity
  8
0
100
AcDbLine
 62
2
  6
CONTINUOUS
 10
9.275
 20
0.0
 11
-0.0
 21
0.0
  0
LINE
  5
238
100
AcDbEntity
  8
0
100
AcDbLine
 62
2
  6
CONTINUOUS
 10
9.275
 20
0.0
 11
9.275
 21
1.25
  0
LINE
  5
239
100
AcDbEntity
  8
0
100
AcDbLine
 62
2
  6
CONTINUOUS
 10
9.275
 20
0.625
 11
-0.0
 21
0.625
  0
LINE
  5
23A
100
AcDbEntity
  8
0
100
AcDbLine
 62
2
  6
CONTINUOUS
 10
9.275
 20
1.25
 11
-0.0
 21
1.25
  0
LINE
  5
23B
100
AcDbEntity
  8
0
100
AcDbLine
 62
2
  6
CONTINUOUS
 10
6.8
 20
0.0
 11
6.8
 21
1.25
  0
LINE
  5
23C
100
AcDbEntity
  8
0
100
AcDbLine
 62
2
  6
CONTINUOUS
 10
6.4
 20
0.0
 11
6.4
 21
0.625
  0
LINE
  5
23D
100
AcDbEntity
  8
0
100
AcDbLine
 62
2
  6
CONTINUOUS
 10
5.9
 20
0.0
 11
5.9
 21
0.625
  0
LINE
  5
23E
100
AcDbEntity
  8
0
100
AcDbLine
 62
2
  6
CONTINUOUS
 10
5.2
 20
0.0
 11
5.2
 21
0.625
  0
LINE
  5
23F
100
AcDbEntity
  8
0
100
AcDbLine
 62
2
  6
CONTINUOUS
 10
4.1
 20
0.0
 11
4.1
 21
1.25
  0
LINE
  5
240
100
AcDbEntity
  8
0
100
AcDbLine
 62
2
  6
CONTINUOUS
 10
-0.0
 20
0.0
 11
-0.0
 21
1.25
  0
MTEXT
  5
241
100
AcDbEntity
  8
0
100
AcDbMText
 62
2
  6
CONTINUOUS
  7
STANDARD
 71
2
 72
1
 10
6.6
 20
0.325
 30
0.0
 11
1.0
 21
0.0
 31
0.0
 44
0.9
  1
2
 40
0.125
 41
0.2
  0
MTEXT
  5
242
100
AcDbEntity
  8
0
100
AcDbMText
 62
2
  6
CONTINUOUS
  7
STANDARD
 71
2
 72
1
 10
6.15
 20
0.325
 30
0.0
 11
1.0
 21
0.0
 31
0.0
 44
0.9
  1
C
 40
0.125
 41
0.2
  0
MTEXT
  5
243
100
AcDbEntity
  8
0
100
AcDbMText
 62
2
  6
CONTINUOUS
  7
STANDARD
 71
2
 72
1
 10
5.55
 20
0.325
 30
0.0
 11
1.0
 21
0.0
 31
0.0
 44
0.9
  1
1.000
 40
0.125
 41
1.0
  0
MTEXT
  5
244
100
AcDbEntity
  8
0
100
AcDbMText
 62
2
  6
CONTINUOUS
  7
STANDARD
 71
2
 72
1
 10
4.65
 20
0.325
 30
0.0
 11
1.0
 21
0.0
 31
0.0
 44
0.9
  1
Mar-26-20
 40
0.125
 41
1.8
  0
MTEXT
  5
245
100
AcDbEntity
  8
0
100
AcDbMText
 62
2
  6
CONTINUOUS
  7
STANDARD
 71
2
 72
1
 10
2.05
 20
0.4625
 30
0.0
 11
1.0
 21
0.0
 31
0.0
 44
0.9
  1
T-2A Line mount\PCross pilot with shuttle
 40
0.125
 41
4.8
  0
MTEXT
  5
246
100
AcDbEntity
  8
0
100
AcDbMText
 62
2
  6
CONTINUOUS
  7
STANDARD
 71
1
 72
1
 10
6.45
 20
0.5625
 30
0.0
 11
1.0
 21
0.0
 31
0.0
 44
0.9
  1
SHEET
 40
0.06
 41
0.48
  0
MTEXT
  5
247
100
AcDbEntity
  8
0
100
AcDbMText
 62
2
  6
CONTINUOUS
  7
STANDARD
 71
1
 72
1
 10
5.95
 20
0.5625
 30
0.0
 11
1.0
 21
0.0
 31
0.0
 44
0.9
  1
DWG SIZE
 40
0.06
 41
0.768
  0
MTEXT
  5
248
100
AcDbEntity
  8
0
100
AcDbMText
 62
2
  6
CONTINUOUS
  7
STANDARD
 71
1
 72
1
 10
5.25
 20
0.5625
 30
0.0
 11
1.0
 21
0.0
 31
0.0
 44
0.9
  1
SCALE
 40
0.06
 41
0.48
  0
MTEXT
  5
249
100
AcDbEntity
  8
0
100
AcDbMText
 62
2
  6
CONTINUOUS
  7
STANDARD
 71
1
 72
1
 10
4.15
 20
0.5625
 30
0.0
 11
1.0
 21
0.0
 31
0.0
 44
0.9
  1
DATE
 40
0.06
 41
0.384
  0
MTEXT
  5
24A
100
AcDbEntity
  8
0
100
AcDbMText
 62
2
  6
CONTINUOUS
  7
STANDARD
 71
1
 72
1
 10
0.05
 20
0.5625
 30
0.0
 11
1.0
 21
0.0
 31
0.0
 44
0.9
  1
DESCRIPTION
 40
0.06
 41
1.056
  0
MTEXT
  5
24B
100
AcDbEntity
  8
0
100
AcDbMText
 62
2
  6
CONTINUOUS
  7
STANDARD
 71
2
 72
1
 10
5.45
 20
1.0375
 30
0.0
 11
1.0
 21
0.0
 31
0.0
 44
0.9
  1
ALL DIMENSIONS IN INCH\PVIEWS ARE THIRD ANGLE
 40
0.12
 41
4.224
  0
MTEXT
  5
24C
100
AcDbEntity
  8
0
100
AcDbMText
 62
2
  6
CONTINUOUS
  7
STANDARD
 71
2
 72
1
 10
2.05
 20
0.95
 30
0.0
 11
1.0
 21
0.0
 31
0.0
 44
0.9
  1
YHC
 40
0.125
 41
0.6
  0
MTEXT
  5
24D
100
AcDbEntity
  8
0
100
AcDbMText
 62
2
  6
CONTINUOUS
  7
STANDARD
 71
1
 72
1
 10
0.05
 20
1.1875
 30
0.0
 11
1.0
 21
0.0
 31
0.0
 44
0.9
  1
MODEL
 40
0.06
 41
0.48
  0
ENDBLK
  5
24E
100
AcDbEntity
  8
0
  6
BYBLOCK
 62
0
100
AcDbBlockEnd
  0
BLOCK
  5
24F
100
AcDbEntity
  8
0
100
AcDbBlockBegin
  2
*T2
 70
1
 10
0.0
 20
0.0
  3
*T2
  1

  0
LINE
  5
250
100
AcDbEntity
  8
0
100
AcDbLine
 62
2
  6
CONTINUOUS
 10
0.0
 20
0.0
 11
9.055
 21
0.0
  0
LINE
  5
251
100
AcDbEntity
  8
0
100
AcDbLine
 62
2
  6
CONTINUOUS
 10
0.0
 20
0.0
 11
0.0
 21
-2.594
  0
LINE
  5
252
100
AcDbEntity
  8
0
100
AcDbLine
 62
2
  6
CONTINUOUS
 10
0.0
 20
-0.344
 11
9.055
 21
-0.344
  0
LINE
  5
253
100
AcDbEntity
  8
0
100
AcDbLine
 62
2
  6
CONTINUOUS
 10
0.0
 20
-0.594
 11
9.055
 21
-0.594
  0
LINE
  5
254
100
AcDbEntity
  8
0
100
AcDbLine
 62
2
  6
CONTINUOUS
 10
0.0
 20
-0.844
 11
9.055
 21
-0.844
  0
LINE
  5
255
100
AcDbEntity
  8
0
100
AcDbLine
 62
2
  6
CONTINUOUS
 10
0.0
 20
-1.094
 11
9.055
 21
-1.094
  0
LINE
  5
256
100
AcDbEntity
  8
0
100
AcDbLine
 62
2
  6
CONTINUOUS
 10
0.0
 20
-1.344
 11
9.055
 21
-1.344
  0
LINE
  5
257
100
AcDbEntity
  8
0
100
AcDbLine
 62
2
  6
CONTINUOUS
 10
0.0
 20
-1.594
 11
9.055
 21
-1.594
  0
LINE
  5
258
100
AcDbEntity
  8
0
100
AcDbLine
 62
2
  6
CONTINUOUS
 10
0.0
 20
-1.844
 11
9.055
 21
-1.844
  0
LINE
  5
259
100
AcDbEntity
  8
0
100
AcDbLine
 62
2
  6
CONTINUOUS
 10
0.0
 20
-2.094
 11
9.055
 21
-2.094
  0
LINE
  5
25A
100
AcDbEntity
  8
0
100
AcDbLine
 62
2
  6
CONTINUOUS
 10
0.0
 20
-2.344
 11
9.055
 21
-2.344
  0
LINE
  5
25B
100
AcDbEntity
  8
0
100
AcDbLine
 62
2
  6
CONTINUOUS
 10
0.0
 20
-2.594
 11
9.055
 21
-2.594
  0
LINE
  5
25C
100
AcDbEntity
  8
0
100
AcDbLine
 62
2
  6
CONTINUOUS
 10
3.055
 20
0.0
 11
3.055
 21
-2.594
  0
LINE
  5
25D
100
AcDbEntity
  8
0
100
AcDbLine
 62
2
  6
CONTINUOUS
 10
9.055
 20
0.0
 11
9.055
 21
-2.594
  0
MTEXT
  5
25E
100
AcDbEntity
  8
0
100
AcDbMText
 62
2
  6
CONTINUOUS
  7
STANDARD
 71
2
 72
1
 10
1.5275
 20
-0.0995
 30
0.0
 11
1.0
 21
0.0
 31
0.0
 44
0.9
  1
Technical Data
 40
0.145
 41
3.248
  0
MTEXT
  5
25F
100
AcDbEntity
  8
0
100
AcDbMText
 62
2
  6
CONTINUOUS
  7
STANDARD
 71
2
 72
1
 10
4.555
 20
-0.0995
 30
0.0
 11
1.0
 21
0.0
 31
0.0
 44
0.9
  1
U.S. Units
 40
0.145
 41
2.32
  0
MTEXT
  5
260
100
AcDbEntity
  8
0
100
AcDbMText
 62
2
  6
CONTINUOUS
  7
STANDARD
 71
2
 72
1
 10
7.555
 20
-0.0995
 30
0.0
 11
1.0
 21
0.0
 31
0.0
 44
0.9
  1
Metric Units
 40
0.145
 41
2.784
  0
MTEXT
  5
261
100
AcDbEntity
  8
0
100
AcDbMText
 62
2
  6
CONTINUOUS
  7
STANDARD
 71
2
 72
1
 10
1.5275
 20
-0.4065
 30
0.0
 11
1.0
 21
0.0
 31
0.0
 44
0.9
  1
Cavity
 40
0.125
 41
1.2
  0
MTEXT
  5
262
100
AcDbEntity
  8
0
100
AcDbMText
 62
2
  6
CONTINUOUS
  7
STANDARD
 71
2
 72
1
 10
6.055
 20
-0.4065
 30
0.0
 11
1.0
 21
0.0
 31
0.0
 44
0.9
  1
T-2A
 40
0.125
 41
0.8
  0
MTEXT
  5
263
100
AcDbEntity
  8
0
100
AcDbMText
 62
2
  6
CONTINUOUS
  7
STANDARD
 71
2
 72
1
 10
1.5275
 20
-0.6565
 30
0.0
 11
1.0
 21
0.0
 31
0.0
 44
0.9
  1
Body Features
 40
0.125
 41
2.6
  0
MTEXT
  5
264
100
AcDbEntity
  8
0
100
AcDbMText
 62
2
  6
CONTINUOUS
  7
STANDARD
 71
2
 72
1
 10
6.055
 20
-0.6565
 30
0.0
 11
1.0
 21
0.0
 31
0.0
 44
0.9
  1
Cross pilot with shuttle
 40
0.125
 41
4.8
  0
MTEXT
  5
265
100
AcDbEntity
  8
0
100
AcDbMText
 62
2
  6
CONTINUOUS
  7
STANDARD
 71
2
 72
1
 10
1.5275
 20
-0.9065
 30
0.0
 11
1.0
 21
0.0
 31
0.0
 44
0.9
  1
Body Type
 40
0.125
 41
1.8
  0
MTEXT
  5
266
100
AcDbEntity
  8
0
100
AcDbMText
 62
2
  6
CONTINUOUS
  7
STANDARD
 71
2
 72
1
 10
6.055
 20
-0.9065
 30
0.0
 11
1.0
 21
0.0
 31
0.0
 44
0.9
  1
Line mount
 40
0.125
 41
2.0
  0
MTEXT
  5
267
100
AcDbEntity
  8
0
100
AcDbMText
 62
2
  6
CONTINUOUS
  7
STANDARD
 71
2
 72
1
 10
1.5275
 20
-1.1565
 30
0.0
 11
1.0
 21
0.0
 31
0.0
 44
0.9
  1
Interface
 40
0.125
 41
1.8
  0
MTEXT
  5
268
100
AcDbEntity
  8
0
100
AcDbMText
 62
2
  6
CONTINUOUS
  7
STANDARD
 71
2
 72
1
 10
6.055
 20
-1.1565
 30
0.0
 11
1.0
 21
0.0
 31
0.0
 44
0.9
  1
None
 40
0.125
 41
0.8
  0
MTEXT
  5
269
100
AcDbEntity
  8
0
100
AcDbMText
 62
2
  6
CONTINUOUS
  7
STANDARD
 71
2
 72
1
 10
1.5275
 20
-1.4065
 30
0.0
 11
1.0
 21
0.0
 31
0.0
 44
0.9
  1
Open Cavity Quantity
 40
0.125
 41
4.0
  0
MTEXT
  5
26A
100
AcDbEntity
  8
0
100
AcDbMText
 62
2
  6
CONTINUOUS
  7
STANDARD
 71
2
 72
1
 10
6.055
 20
-1.4065
 30
0.0
 11
1.0
 21
0.0
 31
0.0
 44
0.9
  1
2
 40
0.125
 41
0.2
  0
MTEXT
  5
26B
100
AcDbEntity
  8
0
100
AcDbMText
 62
2
  6
CONTINUOUS
  7
STANDARD
 71
2
 72
1
 10
1.5275
 20
-1.6565
 30
0.0
 11
1.0
 21
0.0
 31
0.0
 44
0.9
  1
Weight
 40
0.125
 41
1.2
  0
MTEXT
  5
26C
100
AcDbEntity
  8
0
100
AcDbMText
 62
2
  6
CONTINUOUS
  7
STANDARD
 71
2
 72
1
 10
4.555
 20
-1.6565
 30
0.0
 11
1.0
 21
0.0
 31
0.0
 44
0.9
  1
1.838 lb.
 40
0.125
 41
1.8
  0
MTEXT
  5
26D
100
AcDbEntity
  8
0
100
AcDbMText
 62
2
  6
CONTINUOUS
  7
STANDARD
 71
2
 72
1
 10
7.555
 20
-1.6565
 30
0.0
 11
1.0
 21
0.0
 31
0.0
 44
0.9
  1
0,834 kg.
 40
0.125
 41
1.8
  0
MTEXT
  5
26E
100
AcDbEntity
  8
0
100
AcDbMText
 62
2
  6
CONTINUOUS
  7
STANDARD
 71
2
 72
1
 10
1.5275
 20
-1.9065
 30
0.0
 11
1.0
 21
0.0
 31
0.0
 44
0.9
  1
Mounting Hole Diameter
 40
0.125
 41
4.4
  0
MTEXT
  5
26F
100
AcDbEntity
  8
0
100
AcDbMText
 62
2
  6
CONTINUOUS
  7
STANDARD
 71
2
 72
1
 10
4.555
 20
-1.9065
 30
0.0
 11
1.0
 21
0.0
 31
0.0
 44
0.9
  1
.41 in.
 40
0.125
 41
1.4
  0
MTEXT
  5
270
100
AcDbEntity
  8
0
100
AcDbMText
 62
2
  6
CONTINUOUS
  7
STANDARD
 71
2
 72
1
 10
7.555
 20
-1.9065
 30
0.0
 11
1.0
 21
0.0
 31
0.0
 44
0.9
  1
10,4 mm
 40
0.125
 41
1.4
  0
MTEXT
  5
271
100
AcDbEntity
  8
0
100
AcDbMText
 62
2
  6
CONTINUOUS
  7
STANDARD
 71
2
 72
1
 10
1.5275
 20
-2.1565
 30
0.0
 11
1.0
 21
0.0
 31
0.0
 44
0.9
  1
Mounting Hole Depth
 40
0.125
 41
3.8
  0
MTEXT
  5
272
100
AcDbEntity
  8
0
100
AcDbMText
 62
2
  6
CONTINUOUS
  7
STANDARD
 71
2
 72
1
 10
6.055
 20
-2.1565
 30
0.0
 11
1.0
 21
0.0
 31
0.0
 44
0.9
  1
Through
 40
0.125
 41
1.4
  0
MTEXT
  5
273
100
AcDbEntity
  8
0
100
AcDbMText
 62
2
  6
CONTINUOUS
  7
STANDARD
 71
2
 72
1
 10
1.5275
 20
-2.4065
 30
0.0
 11
1.0
 21
0.0
 31
0.0
 44
0.9
  1
Mounting Hole Quantity
 40
0.125
 41
4.4
  0
MTEXT
  5
274
100
AcDbEntity
  8
0
100
AcDbMText
 62
2
  6
CONTINUOUS
  7
STANDARD
 71
2
 72
1
 10
6.055
 20
-2.4065
 30
0.0
 11
1.0
 21
0.0
 31
0.0
 44
0.9
  1
2
 40
0.125
 41
0.2
  0
ENDBLK
  5
275
100
AcDbEntity
  8
0
  6
BYBLOCK
 62
0
100
AcDbBlockEnd
  0
BLOCK
  5
276
100
AcDbEntity
  8
0
100
AcDbBlockBegin
  2
*T3
 70
1
 10
0.0
 20
0.0
  3
*T3
  1

  0
LINE
  5
277
100
AcDbEntity
  8
0
100
AcDbLine
 62
2
  6
CONTINUOUS
 10
0.0
 20
0.0
 11
4.6
 21
0.0
  0
LINE
  5
278
100
AcDbEntity
  8
0
100
AcDbLine
 62
2
  6
CONTINUOUS
 10
0.0
 20
0.0
 11
0.0
 21
-1.18775
  0
LINE
  5
279
100
AcDbEntity
  8
0
100
AcDbLine
 62
2
  6
CONTINUOUS
 10
0.0
 20
-0.34375
 11
4.6
 21
-0.34375
  0
LINE
  5
27A
100
AcDbEntity
  8
0
100
AcDbLine
 62
2
  6
CONTINUOUS
 10
0.0
 20
-0.68775
 11
4.6
 21
-0.68775
  0
LINE
  5
27B
100
AcDbEntity
  8
0
100
AcDbLine
 62
2
  6
CONTINUOUS
 10
0.0
 20
-0.93775
 11
4.6
 21
-0.93775
  0
LINE
  5
27C
100
AcDbEntity
  8
0
100
AcDbLine
 62
2
  6
CONTINUOUS
 10
0.0
 20
-1.18775
 11
4.6
 21
-1.18775
  0
LINE
  5
27D
100
AcDbEntity
  8
0
100
AcDbLine
 62
2
  6
CONTINUOUS
 10
1.3
 20
-0.34375
 11
1.3
 21
-1.18775
  0
LINE
  5
27E
100
AcDbEntity
  8
0
100
AcDbLine
 62
2
  6
CONTINUOUS
 10
3.3
 20
-0.34375
 11
3.3
 21
-1.18775
  0
LINE
  5
27F
100
AcDbEntity
  8
0
100
AcDbLine
 62
2
  6
CONTINUOUS
 10
4.6
 20
0.0
 11
4.6
 21
-1.18775
  0
MTEXT
  5
280
100
AcDbEntity
  8
0
100
AcDbMText
 62
2
  6
CONTINUOUS
  7
STANDARD
 71
2
 72
1
 10
2.3
 20
-0.099375
 30
0.0
 11
1.0
 21
0.0
 31
0.0
 44
0.9
  1
Port Headings
 40
0.145
 41
3.016
  0
MTEXT
  5
281
100
AcDbEntity
  8
0
100
AcDbMText
 62
2
  6
CONTINUOUS
  7
STANDARD
 71
2
 72
1
 10
0.65
 20
-0.44325
 30
0.0
 11
1.0
 21
0.0
 31
0.0
 44
0.9
  1
Product
 40
0.145
 41
1.624
  0
MTEXT
  5
282
100
AcDbEntity
  8
0
100
AcDbMText
 62
2
  6
CONTINUOUS
  7
STANDARD
 71
2
 72
1
 10
2.3
 20
-0.44325
 30
0.0
 11
1.0
 21
0.0
 31
0.0
 44
0.9
  1
Port
 40
0.145
 41
0.928
  0
MTEXT
  5
283
100
AcDbEntity
  8
0
100
AcDbMText
 62
2
  6
CONTINUOUS
  7
STANDARD
 71
2
 72
1
 10
3.95
 20
-0.44325
 30
0.0
 11
1.0
 21
0.0
 31
0.0
 44
0.9
  1
Size
 40
0.145
 41
0.928
  0
MTEXT
  5
284
100
AcDbEntity
  8
0
100
AcDbMText
 62
2
  6
CONTINUOUS
  7
STANDARD
 71
2
 72
1
 10
0.65
 20
-0.75025
 30
0.0
 11
1.0
 21
0.0
 31
0.0
 44
0.9
  1
YHC
 40
0.125
 41
0.6
  0
MTEXT
  5
285
100
AcDbEntity
  8
0
100
AcDbMText
 62
2
  6
CONTINUOUS
  7
STANDARD
 71
2
 72
1
 10
2.3
 20
-0.75025
 30
0.0
 11
1.0
 21
0.0
 31
0.0
 44
0.9
  1
Ports C1, C2, V1, V2
 40
0.125
 41
4.0
  0
MTEXT
  5
286
100
AcDbEntity
  8
0
100
AcDbMText
 62
2
  6
CONTINUOUS
  7
STANDARD
 71
2
 72
1
 10
3.95
 20
-0.75025
 30
0.0
 11
1.0
 21
0.0
 31
0.0
 44
0.9
  1
1/2" NPTF
 40
0.125
 41
1.8
  0
MTEXT
  5
287
100
AcDbEntity
  8
0
100
AcDbMText
 62
2
  6
CONTINUOUS
  7
STANDARD
 71
2
 72
1
 10
0.65
 20
-1.00025
 30
0.0
 11
1.0
 21
0.0
 31
0.0
 44
0.9
  1
YHC
 40
0.125
 41
0.6
  0
MTEXT
  5
288
100
AcDbEntity
  8
0
100
AcDbMText
 62
2
  6
CONTINUOUS
  7
STANDARD
 71
2
 72
1
 10
2.3
 20
-1.00025
 30
0.0
 11
1.0
 21
0.0
 31
0.0
 44
0.9
  1
Port S
 40
0.125
 41
1.2
  0
MTEXT
  5
289
100
AcDbEntity
  8
0
100
AcDbMText
 62
2
  6
CONTINUOUS
  7
STANDARD
 71
2
 72
1
 10
3.95
 20
-1.00025
 30
0.0
 11
1.0
 21
0.0
 31
0.0
 44
0.9
  1
1/4" NPTF
 40
0.125
 41
1.8
  0
ENDBLK
  5
28A
100
AcDbEntity
  8
0
  6
BYBLOCK
 62
0
100
AcDbBlockEnd
  0
ENDSEC
  0
SECTION
  2
ENTITIES
  0
IMAGE
  5
28B
100
AcDbEntity
  8
0
100
AcDbRasterImage
 62
7
  6
CONTINUOUS
 10
19.2297077316
 20
0.3094318264
 30
0.0
 11
0.0066666667
 21
0.0
 31
0.0
 12
0.0
 22
0.0066666667
 32
0.0
 13
369.0
 23
92.0
340
       38A
 70
9
280
0
281
50
282
50
283
0
360
       384
 71
1
 91
2
 14
-0.5
 24
-0.5
 14
368.5
 24
91.5
  0
INSERT
  5
28C
100
AcDbEntity
  8
0
100
AcDbBlockReference
 62
2
  6
CONTINUOUS
  2
SUN_FIRST_THIRD_ANGLE_BL0
 10
20.4816717061
 20
1.2289683772
  0
ACAD_TABLE
  5
28D
100
AcDbEntity
  8
0
 62
2
  6
CONTINUOUS
100
AcDbBlockReference
  2
*T1
 10
12.42375
 20
0.30125
 30
0.0
100
AcDbTable
342
       38C
343
20F
 11
1.0
 21
0.0
 31
0.0
 90
6
 91
4
 92
6
 93
20
 94
0
 95
0
 96
0
 70
1
 41
0.0
141
0.525
141
0.1
141
0.525
141
0.1
142
4.1
142
1.1
142
0.7
142
0.5
142
0.4
142
2.475
171
1
172
0
173
0
174
0
175
1
176
1
 91
33
178
0
145
0.0
301
CELL_VALUE
 90
4
  1
T-2A Line mount\PCross pilot with shuttle
304
ACVALUE_END
170
2
140
0.125
171
1
172
0
173
0
174
0
175
1
176
1
 91
33
178
0
145
0.0
301
CELL_VALUE
 90
4
  1
Mar-26-20
304
ACVALUE_END
170
5
140
0.125
171
1
172
0
173
0
174
0
175
1
176
1
 91
33
178
0
145
0.0
301
CELL_VALUE
 90
4
  1
1.000
304
ACVALUE_END
170
5
140
0.125
171
1
172
0
173
0
174
0
175
1
176
1
 91
33
178
0
145
0.0
301
CELL_VALUE
 90
4
  1
C
304
ACVALUE_END
170
5
140
0.125
171
1
172
0
173
0
174
0
175
1
176
1
 91
33
178
0
145
0.0
301
CELL_VALUE
 90
4
  1
2
304
ACVALUE_END
170
5
140
0.125
171
1
172
0
173
0
174
0
175
1
176
1
 91
33
178
0
145
0.0
301
CELL_VALUE
 90
4
  1
 
304
ACVALUE_END
170
1
140
0.125
171
1
172
0
173
0
174
0
175
1
176
1
 91
33
178
0
145
0.0
301
CELL_VALUE
 90
4
  1
DESCRIPTION
304
ACVALUE_END
170
1
140
0.06
171
1
172
0
173
0
174
0
175
1
176
1
 91
33
178
0
145
0.0
301
CELL_VALUE
 90
4
  1
DATE
304
ACVALUE_END
170
1
140
0.06
171
1
172
0
173
0
174
0
175
1
176
1
 91
33
178
0
145
0.0
301
CELL_VALUE
 90
4
  1
SCALE
304
ACVALUE_END
170
1
140
0.06
171
1
172
0
173
0
174
0
175
1
176
1
 91
33
178
0
145
0.0
301
CELL_VALUE
 90
4
  1
DWG SIZE
304
ACVALUE_END
170
1
140
0.06
171
1
172
0
173
0
174
0
175
1
176
1
 91
33
178
0
145
0.0
301
CELL_VALUE
 90
4
  1
SHEET
304
ACVALUE_END
170
1
140
0.06
171
1
172
0
173
0
174
0
175
1
176
1
 91
33
178
0
145
0.0
301
CELL_VALUE
 90
4
  1
 
304
ACVALUE_END
170
1
140
0.125
171
1
172
0
173
0
174
0
175
1
176
1
 91
33
178
0
145
0.0
301
CELL_VALUE
 90
4
  1
YHC
304
ACVALUE_END
170
5
140
0.125
171
1
172
0
173
0
174
0
175
4
176
1
 91
33
178
0
145
0.0
301
CELL_VALUE
 90
4
  1
ALL DIMENSIONS IN INCH\PVIEWS ARE THIRD ANGLE
304
ACVALUE_END
170
5
140
0.12
171
1
172
0
173
1
174
0
175
1
176
1
 91
1
178
0
145
0.0
170
1
171
1
172
0
173
1
174
0
175
1
176
1
 91
1
178
0
145
0.0
170
1
171
1
172
0
173
1
174
0
175
1
176
1
 91
1
178
0
145
0.0
170
5
171
1
172
0
173
0
174
0
175
1
176
1
 91
33
178
0
145
0.0
301
CELL_VALUE
 90
4
  1
 
304
ACVALUE_END
170
1
140
0.125
171
1
172
0
173
0
174
0
175
1
176
1
 91
33
178
0
145
0.0
301
CELL_VALUE
 90
4
  1
MODEL
304
ACVALUE_END
170
1
140
0.06
171
1
172
0
173
0
174
0
175
1
176
1
 91
33
178
0
145
0.0
301
CELL_VALUE
 90
4
  1
 
304
ACVALUE_END
170
1
140
0.125
171
1
172
0
173
0
174
0
175
1
176
1
 91
33
178
0
145
0.0
301
CELL_VALUE
 90
4
  1
 
304
ACVALUE_END
170
1
140
0.125
171
1
172
0
173
0
174
0
175
1
176
1
 91
33
178
0
145
0.0
301
CELL_VALUE
 90
4
  1
 
304
ACVALUE_END
170
1
140
0.125
171
1
172
0
173
0
174
0
175
1
176
1
 91
33
178
0
145
0.0
301
CELL_VALUE
 90
4
  1
 
304
ACVALUE_END
170
1
140
0.125
171
1
172
0
173
0
174
0
175
1
176
1
 91
33
178
0
145
0.0
301
CELL_VALUE
 90
4
  1
 
304
ACVALUE_END
170
1
140
0.125
  0
ACAD_TABLE
  5
28E
100
AcDbEntity
  8
0
 62
2
  6
CONTINUOUS
100
AcDbBlockReference
  2
*T2
 10
12.4237499994
 20
16.47875
 30
0.0
100
AcDbTable
342
       38B
343
210
 11
1.0
 21
0.0
 31
0.0
 90
22
 91
10
 92
3
 93
16
 94
0
 95
0
 96
0
 41
0.028
141
0.344
141
0.25
141
0.25
141
0.25
141
0.25
141
0.25
141
0.25
141
0.25
141
0.25
141
0.25
142
3.055
142
3.0
142
3.0
171
1
172
0
173
0
174
0
175
1
176
1
 91
33
178
0
145
0.0
301
CELL_VALUE
 90
4
  1
Technical Data
304
ACVALUE_END
170
5
140
0.145
171
1
172
0
173
0
174
0
175
1
176
1
 91
33
178
0
145
0.0
301
CELL_VALUE
 90
4
  1
U.S. Units
304
ACVALUE_END
170
5
140
0.145
171
1
172
0
173
0
174
0
175
1
176
1
 91
33
178
0
145
0.0
301
CELL_VALUE
 90
4
  1
Metric Units
304
ACVALUE_END
170
5
140
0.145
171
1
172
0
173
0
174
0
175
1
176
1
 91
33
178
0
145
0.0
301
CELL_VALUE
 90
4
  1
Cavity
304
ACVALUE_END
170
5
140
0.125
171
1
172
0
173
0
174
0
175
2
176
1
 91
33
178
0
145
0.0
301
CELL_VALUE
 90
4
  1
T-2A
304
ACVALUE_END
170
5
140
0.125
171
1
172
0
173
1
174
0
175
1
176
1
 91
1
178
0
145
0.0
170
1
171
1
172
0
173
0
174
0
175
1
176
1
 91
33
178
0
145
0.0
301
CELL_VALUE
 90
4
  1
Body Features
304
ACVALUE_END
170
5
140
0.125
171
1
172
0
173
0
174
0
175
2
176
1
 91
33
178
0
145
0.0
301
CELL_VALUE
 90
4
  1
Cross pilot with shuttle
304
ACVALUE_END
170
5
140
0.125
171
1
172
0
173
1
174
0
175
1
176
1
 91
1
178
0
145
0.0
170
1
171
1
172
0
173
0
174
0
175
1
176
1
 91
33
178
0
145
0.0
301
CELL_VALUE
 90
4
  1
Body Type
304
ACVALUE_END
170
5
140
0.125
171
1
172
0
173
0
174
0
175
2
176
1
 91
33
178
0
145
0.0
301
CELL_VALUE
 90
4
  1
Line mount
304
ACVALUE_END
170
5
140
0.125
171
1
172
0
173
1
174
0
175
1
176
1
 91
1
178
0
145
0.0
170
1
171
1
172
0
173
0
174
0
175
1
176
1
 91
33
178
0
145
0.0
301
CELL_VALUE
 90
4
  1
Interface
304
ACVALUE_END
170
5
140
0.125
171
1
172
0
173
0
174
0
175
2
176
1
 91
33
178
0
145
0.0
301
CELL_VALUE
 90
4
  1
None
304
ACVALUE_END
170
5
140
0.125
171
1
172
0
173
1
174
0
175
1
176
1
 91
1
178
0
145
0.0
170
1
171
1
172
0
173
0
174
0
175
1
176
1
 91
33
178
0
145
0.0
301
CELL_VALUE
 90
4
  1
Open Cavity Quantity
304
ACVALUE_END
170
5
140
0.125
171
1
172
0
173
0
174
0
175
2
176
1
 91
33
178
0
145
0.0
301
CELL_VALUE
 90
4
  1
2
304
ACVALUE_END
170
5
140
0.125
171
1
172
0
173
1
174
0
175
1
176
1
 91
1
178
0
145
0.0
170
1
171
1
172
0
173
0
174
0
175
1
176
1
 91
33
178
0
145
0.0
301
CELL_VALUE
 90
4
  1
Weight
304
ACVALUE_END
170
5
140
0.125
171
1
172
0
173
0
174
0
175
1
176
1
 91
33
178
0
145
0.0
301
CELL_VALUE
 90
4
  1
1.838 lb.
304
ACVALUE_END
170
5
140
0.125
171
1
172
0
173
0
174
0
175
1
176
1
 91
33
178
0
145
0.0
301
CELL_VALUE
 90
4
  1
0,834 kg.
304
ACVALUE_END
170
5
140
0.125
171
1
172
0
173
0
174
0
175
1
176
1
 91
33
178
0
145
0.0
301
CELL_VALUE
 90
4
  1
Mounting Hole Diameter
304
ACVALUE_END
170
5
140
0.125
171
1
172
0
173
0
174
0
175
1
176
1
 91
33
178
0
145
0.0
301
CELL_VALUE
 90
4
  1
.41 in.
304
ACVALUE_END
170
5
140
0.125
171
1
172
0
173
0
174
0
175
1
176
1
 91
33
178
0
145
0.0
301
CELL_VALUE
 90
4
  1
10,4 mm
304
ACVALUE_END
170
5
140
0.125
171
1
172
0
173
0
174
0
175
1
176
1
 91
33
178
0
145
0.0
301
CELL_VALUE
 90
4
  1
Mounting Hole Depth
304
ACVALUE_END
170
5
140
0.125
171
1
172
0
173
0
174
0
175
2
176
1
 91
33
178
0
145
0.0
301
CELL_VALUE
 90
4
  1
Through
304
ACVALUE_END
170
5
140
0.125
171
1
172
0
173
1
174
0
175
1
176
1
 91
1
178
0
145
0.0
170
1
171
1
172
0
173
0
174
0
175
1
176
1
 91
33
178
0
145
0.0
301
CELL_VALUE
 90
4
  1
Mounting Hole Quantity
304
ACVALUE_END
170
5
140
0.125
171
1
172
0
173
0
174
0
175
2
176
1
 91
33
178
0
145
0.0
301
CELL_VALUE
 90
4
  1
2
304
ACVALUE_END
170
5
140
0.125
171
1
172
0
173
1
174
0
175
1
176
1
 91
1
178
0
145
0.0
170
1
  0
ACAD_TABLE
  5
28F
100
AcDbEntity
  8
0
 62
2
  6
CONTINUOUS
100
AcDbBlockReference
  2
*T3
 10
0.52125
 20
1.709
 30
0.0
100
AcDbTable
342
       38B
343
211
 11
1.0
 21
0.0
 31
0.0
 90
22
 91
4
 92
3
 93
16
 94
0
 95
0
 96
0
 41
0.05
141
0.34375
141
0.344
141
0.25
141
0.25
142
1.3
142
2.0
142
1.3
171
1
172
0
173
0
174
0
175
3
176
1
 91
33
178
0
145
0.0
301
CELL_VALUE
 90
4
  1
Port Headings
304
ACVALUE_END
170
5
140
0.145
171
1
172
0
173
1
174
0
175
1
176
1
 91
1
178
0
145
0.0
170
1
171
1
172
0
173
1
174
0
175
1
176
1
 91
1
178
0
145
0.0
170
1
171
1
172
0
173
0
174
0
175
1
176
1
 91
33
178
0
145
0.0
301
CELL_VALUE
 90
4
  1
Product
304
ACVALUE_END
170
5
140
0.145
171
1
172
0
173
0
174
0
175
1
176
1
 91
33
178
0
145
0.0
301
CELL_VALUE
 90
4
  1
Port
304
ACVALUE_END
170
5
140
0.145
171
1
172
0
173
0
174
0
175
1
176
1
 91
33
178
0
145
0.0
301
CELL_VALUE
 90
4
  1
Size
304
ACVALUE_END
170
5
140
0.145
171
1
172
0
173
0
174
0
175
1
176
1
 91
33
178
0
145
0.0
301
CELL_VALUE
 90
4
  1
YHC
304
ACVALUE_END
170
5
140
0.125
171
1
172
0
173
0
174
0
175
1
176
1
 91
33
178
0
145
0.0
301
CELL_VALUE
 90
4
  1
Ports C1, C2, V1, V2
304
ACVALUE_END
170
5
140
0.125
171
1
172
0
173
0
174
0
175
1
176
1
 91
33
178
0
145
0.0
301
CELL_VALUE
 90
4
  1
1/2" NPTF
304
ACVALUE_END
170
5
140
0.125
171
1
172
0
173
0
174
0
175
1
176
1
 91
33
178
0
145
0.0
301
CELL_VALUE
 90
4
  1
YHC
304
ACVALUE_END
170
5
140
0.125
171
1
172
0
173
0
174
0
175
1
176
1
 91
33
178
0
145
0.0
301
CELL_VALUE
 90
4
  1
Port S
304
ACVALUE_END
170
5
140
0.125
171
1
172
0
173
0
174
0
175
1
176
1
 91
33
178
0
145
0.0
301
CELL_VALUE
 90
4
  1
1/4" NPTF
304
ACVALUE_END
170
5
140
0.125
  0
MTEXT
  5
290
100
AcDbEntity
  8
0
100
AcDbMText
 62
2
  6
CONTINUOUS
  7
STANDARD
 71
1
 72
1
 10
0.52125
 20
5.75995
 30
0.0
 11
1.0
 21
0.0
 31
0.0
 44
0.6
  3
Notes\P \P1. Important: Carefully consider\P   the maximum system pressure. The\P   pressure rating of the manifold is\P   dependent on the manifold material,\P   with the port type/size a secondary\P   consideration. Manifolds\P   constructed of alu
  1
minum are not\P   rated for pressures higher than\P   3000 psi (210 bar), regardless of\P   the port type/size specified.\P2. Shuttle is accessible through\P   the V2 port.
 40
0.1
 41
3.04
  0
LINE
  5
291
100
AcDbEntity
  8
0
100
AcDbLine
 62
7
  6
CONTINUOUS
 10
0.30125
 20
0.30125
 11
0.30125
 21
16.69875
  0
LINE
  5
292
100
AcDbEntity
  8
0
100
AcDbLine
 62
7
  6
CONTINUOUS
 10
0.30125
 20
0.30125
 11
21.69875
 21
0.30125
  0
LINE
  5
293
100
AcDbEntity
  8
0
100
AcDbLine
 62
7
  6
CONTINUOUS
 10
0.30125
 20
16.69875
 11
21.69875
 21
16.69875
  0
LINE
  5
294
100
AcDbEntity
  8
0
100
AcDbLine
 62
7
  6
CONTINUOUS
 10
21.69875
 20
0.30125
 11
21.69875
 21
16.69875
  0
LINE
  5
295
100
AcDbEntity
  8
0
100
AcDbLine
 62
7
  6
CONTINUOUS
 10
8.8396697825
 20
10.4204106867
 11
8.4514415353
 21
10.045410974
  0
LINE
  5
296
100
AcDbEntity
  8
0
100
AcDbLine
 62
7
  6
CONTINUOUS
 10
8.4514415353
 20
10.045410974
 11
8.4514415353
 21
6.9061518525
  0
LINE
  5
297
100
AcDbEntity
  8
0
100
AcDbLine
 62
4
  6
CONTINUOUS
 10
8.5842563453
 20
8.5873114103
 11
8.6204785652
 21
8.7007104943
  0
LINE
  5
298
100
AcDbEntity
  8
0
100
AcDbLine
 62
4
  6
CONTINUOUS
 10
8.7001674488
 20
8.6951840514
 11
8.7001674488
 21
8.579272948
  0
LINE
  5
299
100
AcDbEntity
  8
0
100
AcDbLine
 62
4
  6
CONTINUOUS
 10
8.5480341255
 20
8.7057345332
 11
8.5842563453
 21
8.5873114103
  0
LINE
  5
29A
100
AcDbEntity
  8
0
100
AcDbLine
 62
4
  6
CONTINUOUS
 10
9.8785970827
 20
6.9520671675
 11
9.8641081947
 21
6.9627312342
  0
LINE
  5
29B
100
AcDbEntity
  8
0
100
AcDbLine
 62
7
  6
CONTINUOUS
 10
8.4514415353
 20
6.9061518525
 11
13.1603302175
 21
6.5795893133
  0
LINE
  5
29C
100
AcDbEntity
  8
0
100
AcDbLine
 62
4
  6
CONTINUOUS
 10
9.8930859706
 20
7.0669734631
 11
9.9075748585
 21
7.056309399
  0
LINE
  5
29D
100
AcDbEntity
  8
0
100
AcDbLine
 62
4
  6
CONTINUOUS
 10
9.8641081947
 20
6.9627312342
 11
9.8496193068
 21
6.9830545589
  0
LINE
  5
29E
100
AcDbEntity
  8
0
100
AcDbLine
 62
4
  6
CONTINUOUS
 10
9.9075748585
 20
7.056309399
 11
9.9148193025
 21
7.0461477319
  0
LINE
  5
29F
100
AcDbEntity
  8
0
100
AcDbLine
 62
4
  6
CONTINUOUS
 10
11.7090265118
 20
6.8251264554
 11
11.6945376239
 21
6.8261312632
  0
LINE
  5
2A0
100
AcDbEntity
  8
0
100
AcDbLine
 62
4
  6
CONTINUOUS
 10
9.8930859706
 20
6.9510623597
 11
9.8785970827
 21
6.9520671675
  0
LINE
  5
2A1
100
AcDbEntity
  8
0
100
AcDbLine
 62
4
  6
CONTINUOUS
 10
11.7887153955
 20
6.8196000125
 11
11.8466709472
 21
6.8155807814
  0
LINE
  5
2A2
100
AcDbEntity
  8
0
100
AcDbLine
 62
4
  6
CONTINUOUS
 10
9.8785970827
 20
7.0679782709
 11
9.8930859706
 21
7.0669734631
  0
LINE
  5
2A3
100
AcDbEntity
  8
0
100
AcDbLine
 62
4
  6
CONTINUOUS
 10
11.6945376239
 20
6.9420423666
 11
11.7090265118
 21
6.9410375588
  0
LINE
  5
2A4
100
AcDbEntity
  8
0
100
AcDbLine
 62
4
  6
CONTINUOUS
 10
11.8104487274
 20
6.9340039043
 11
11.8249376153
 21
6.9329990965
  0
LINE
  5
2A5
100
AcDbEntity
  8
0
100
AcDbLine
 62
4
  6
CONTINUOUS
 10
9.8496193068
 20
6.9830545589
 11
9.8423748628
 21
7.0125347386
  0
LINE
  5
2A6
100
AcDbEntity
  8
0
100
AcDbLine
 62
7
  6
CONTINUOUS
 10
10.705875586
 20
10.0900271581
 11
10.7042963903
 21
10.0885303014
  0
LINE
  5
2A7
100
AcDbEntity
  8
0
100
AcDbLine
 62
4
  6
CONTINUOUS
 10
10.2660023811
 20
9.5263008819
 11
10.2825611109
 21
9.5417112582
  0
LINE
  5
2A8
100
AcDbEntity
  8
0
100
AcDbLine
 62
4
  6
CONTINUOUS
 10
10.3073992048
 20
9.4240776271
 11
10.3239579329
 21
9.4394880052
  0
LINE
  5
2A9
100
AcDbEntity
  8
0
100
AcDbLine
 62
4
  6
CONTINUOUS
 10
10.3984722196
 20
9.4177616921
 11
10.4150309407
 21
9.4331720706
  0
LINE
  5
2AA
100
AcDbEntity
  8
0
100
AcDbLine
 62
4
  6
CONTINUOUS
 10
10.00175263
 20
7.0594374047
 11
10.00175263
 21
6.9435263012
  0
LINE
  5
2AB
100
AcDbEntity
  8
0
100
AcDbLine
 62
4
  6
CONTINUOUS
 10
10.7848425689
 20
9.4654810971
 11
10.8014012901
 21
9.4726121134
  0
LINE
  5
2AC
100
AcDbEntity
  8
0
100
AcDbLine
 62
4
  6
CONTINUOUS
 10
10.9421505029
 20
9.4131749346
 11
10.9587092241
 21
9.4203059475
  0
LINE
  5
2AD
100
AcDbEntity
  8
0
100
AcDbLine
 62
4
  6
CONTINUOUS
 10
11.6945376239
 20
6.8261312632
 11
11.680048736
 21
6.8367953299
  0
LINE
  5
2AE
100
AcDbEntity
  8
0
100
AcDbLine
 62
4
  6
CONTINUOUS
 10
11.7090265118
 20
6.9410375588
 11
11.7235153998
 21
6.9303734947
  0
LINE
  5
2AF
100
AcDbEntity
  8
0
100
AcDbLine
 62
4
  6
CONTINUOUS
 10
10.2660023811
 20
9.5097421538
 11
10.2660023811
 21
9.5263008819
  0
LINE
  5
2B0
100
AcDbEntity
  8
0
100
AcDbLine
 62
4
  6
CONTINUOUS
 10
10.3239579329
 20
9.4394880052
 11
10.3239579329
 21
9.456046735
  0
LINE
  5
2B1
100
AcDbEntity
  8
0
100
AcDbLine
 62
4
  6
CONTINUOUS
 10
10.357075389
 20
9.5365436754
 11
10.357075389
 21
9.4371913018
  0
LINE
  5
2B2
100
AcDbEntity
  8
0
100
AcDbLine
 62
4
  6
CONTINUOUS
 10
9.8423748628
 20
7.0125347386
 11
9.8496193068
 21
7.0410101106
  0
LINE
  5
2B3
100
AcDbEntity
  8
0
100
AcDbLine
 62
4
  6
CONTINUOUS
 10
10.4509081943
 20
8.8395373472
 11
10.4343494662
 21
8.824126969
  0
LINE
  5
2B4
100
AcDbEntity
  8
0
100
AcDbLine
 62
4
  6
CONTINUOUS
 10
10.3708743419
 20
8.9002834791
 11
10.3267177303
 21
8.881267443
  0
LINE
  5
2B5
100
AcDbEntity
  8
0
100
AcDbLine
 62
4
  6
CONTINUOUS
 10
10.8445229932
 20
7.8510058328
 11
10.8300341052
 21
7.8520106406
  0
LINE
  5
2B6
100
AcDbEntity
  8
0
100
AcDbLine
 62
4
  6
CONTINUOUS
 10
11.8249376153
 20
6.9329990965
 11
11.8394265032
 21
6.9223350324
  0
LINE
  5
2B7
100
AcDbEntity
  8
0
100
AcDbLine
 62
4
  6
CONTINUOUS
 10
10.8300341052
 20
7.8520106406
 11
10.8155452173
 21
7.8626747073
  0
LINE
  5
2B8
100
AcDbEntity
  8
0
100
AcDbLine
 62
4
  6
CONTINUOUS
 10
10.3929526495
 20
8.826997848
 11
10.3929526495
 21
8.9429089515
  0
LINE
  5
2B9
100
AcDbEntity
  8
0
100
AcDbLine
 62
4
  6
CONTINUOUS
 10
10.4150309407
 20
9.4331720706
 11
10.4150309407
 21
9.5325244443
  0
LINE
  5
2BA
100
AcDbEntity
  8
0
100
AcDbLine
 62
4
  6
CONTINUOUS
 10
10.4481483969
 20
9.4143166375
 11
10.4481483969
 21
9.5302277409
  0
LINE
  5
2BB
100
AcDbEntity
  8
0
100
AcDbLine
 62
4
  6
CONTINUOUS
 10
10.4509081943
 20
8.9223309927
 11
10.4509081943
 21
8.8395373472
  0
LINE
  5
2BC
100
AcDbEntity
  8
0
100
AcDbLine
 62
4
  6
CONTINUOUS
 10
10.5061039486
 20
9.4102974063
 11
10.5061039486
 21
9.5262085097
  0
LINE
  5
2BD
100
AcDbEntity
  8
0
100
AcDbLine
 62
4
  6
CONTINUOUS
 10
10.497824594
 20
8.819724954
 11
10.5309420501
 21
8.933339354
  0
LINE
  5
2BE
100
AcDbEntity
  8
0
100
AcDbLine
 62
4
  6
CONTINUOUS
 10
10.7296467949
 20
9.3671967754
 11
10.7627642372
 21
9.4752916021
  0
LINE
  5
2BF
100
AcDbEntity
  8
0
100
AcDbLine
 62
4
  6
CONTINUOUS
 10
10.7213674334
 20
9.1254615522
 11
10.754484893
 21
9.1728410328
  0
LINE
  5
2C0
100
AcDbEntity
  8
0
100
AcDbLine
 62
4
  6
CONTINUOUS
 10
10.8786753639
 20
9.1476696663
 11
10.8952340851
 21
9.1630800432
  0
LINE
  5
2C1
100
AcDbEntity
  8
0
100
AcDbLine
 62
4
  6
CONTINUOUS
 10
11.2264086509
 20
9.4348583853
 11
11.2346879839
 21
9.4425635791
  0
LINE
  5
2C2
100
AcDbEntity
  8
0
100
AcDbLine
 62
4
  6
CONTINUOUS
 10
11.3009229791
 20
9.4296907991
 11
11.309202312
 21
9.4373959929
  0
LINE
  5
2C3
100
AcDbEntity
  8
0
100
AcDbLine
 62
4
  6
CONTINUOUS
 10
10.8445229932
 20
7.9669169362
 11
10.8300341052
 21
7.967921744
  0
LINE
  5
2C4
100
AcDbEntity
  8
0
100
AcDbLine
 62
4
  6
CONTINUOUS
 10
10.8155452173
 20
7.9302895196
 11
10.8590118811
 21
7.8982973169
  0
LINE
  5
2C5
100
AcDbEntity
  8
0
100
AcDbLine
 62
4
  6
CONTINUOUS
 10
10.8590118811
 20
7.9562528721
 11
10.8445229932
 21
7.9669169362
  0
LINE
  5
2C6
100
AcDbEntity
  8
0
100
AcDbLine
 62
4
  6
CONTINUOUS
 10
10.8155452173
 20
7.8626747073
 11
10.8010563294
 21
7.882998032
  0
LINE
  5
2C7
100
AcDbEntity
  8
0
100
AcDbLine
 62
4
  6
CONTINUOUS
 10
10.8083007733
 20
7.9404511798
 11
10.8155452173
 21
7.9302895196
  0
LINE
  5
2C8
100
AcDbEntity
  8
0
100
AcDbLine
 62
4
  6
CONTINUOUS
 10
10.8590118811
 20
7.8982973169
 11
10.8662563251
 21
7.8881356567
  0
LINE
  5
2C9
100
AcDbEntity
  8
0
100
AcDbLine
 62
4
  6
CONTINUOUS
 10
10.8662563251
 20
7.946091205
 11
10.8590118811
 21
7.9562528721
  0
LINE
  5
2CA
100
AcDbEntity
  8
0
100
AcDbLine
 62
4
  6
CONTINUOUS
 10
11.680048736
 20
6.8367953299
 11
11.6655598481
 21
6.8571186546
  0
LINE
  5
2CB
100
AcDbEntity
  8
0
100
AcDbLine
 62
4
  6
CONTINUOUS
 10
10.6302944126
 20
9.4016847684
 11
10.6302944126
 21
9.5175958718
  0
LINE
  5
2CC
100
AcDbEntity
  8
0
100
AcDbLine
 62
4
  6
CONTINUOUS
 10
10.6302944324
 20
8.8105381395
 11
10.6302944324
 21
8.9264492429
  0
LINE
  5
2CD
100
AcDbEntity
  8
0
100
AcDbLine
 62
4
  6
CONTINUOUS
 10
10.6799706037
 20
9.4727539926
 11
10.6799706037
 21
9.3982397128
  0
LINE
  5
2CE
100
AcDbEntity
  8
0
100
AcDbLine
 62
4
  6
CONTINUOUS
 10
10.6965293447
 20
8.8059447327
 11
10.6965293447
 21
8.9218558362
  0
LINE
  5
2CF
100
AcDbEntity
  8
0
100
AcDbLine
 62
4
  6
CONTINUOUS
 10
10.7213674334
 20
9.1254615522
 11
10.7213674334
 21
9.059226633
  0
LINE
  5
2D0
100
AcDbEntity
  8
0
100
AcDbLine
 62
4
  6
CONTINUOUS
 10
10.7848425689
 20
9.3992461822
 11
10.7848425689
 21
9.4654810971
  0
LINE
  5
2D1
100
AcDbEntity
  8
0
100
AcDbLine
 62
4
  6
CONTINUOUS
 10
10.7876023491
 20
9.054633226
 11
10.7876023491
 21
9.1705443294
  0
LINE
  5
2D2
100
AcDbEntity
  8
0
100
AcDbLine
 62
4
  6
CONTINUOUS
 10
10.8083007733
 20
7.9501104361
 11
10.8083007733
 21
7.9404511798
  0
LINE
  5
2D3
100
AcDbEntity
  8
0
100
AcDbLine
 62
4
  6
CONTINUOUS
 10
11.3423197544
 20
9.3523056432
 11
11.3505990873
 21
9.3600108344
  0
LINE
  5
2D4
100
AcDbEntity
  8
0
100
AcDbLine
 62
4
  6
CONTINUOUS
 10
10.8703960275
 20
8.8932394127
 11
10.8869547486
 21
8.9086497895
  0
LINE
  5
2D5
100
AcDbEntity
  8
0
100
AcDbLine
 62
4
  6
CONTINUOUS
 10
10.9669885768
 20
8.8865406966
 11
10.983547298
 21
8.9019510735
  0
LINE
  5
2D6
100
AcDbEntity
  8
0
100
AcDbLine
 62
4
  6
CONTINUOUS
 10
11.0249441285
 20
8.7997278199
 11
11.0083854074
 21
8.7843174413
  0
LINE
  5
2D7
100
AcDbEntity
  8
0
100
AcDbLine
 62
4
  6
CONTINUOUS
 10
11.7235153998
 20
6.9303734947
 11
11.7307598437
 21
6.9202118276
  0
LINE
  5
2D8
100
AcDbEntity
  8
0
100
AcDbLine
 62
4
  6
CONTINUOUS
 10
11.8394265032
 20
6.9223350324
 11
11.8466709472
 21
6.9121733653
  0
LINE
  5
2D9
100
AcDbEntity
  8
0
100
AcDbLine
 62
4
  6
CONTINUOUS
 10
10.5309420501
 20
8.933339354
 11
10.5640595201
 21
8.8151315463
  0
LINE
  5
2DA
100
AcDbEntity
  8
0
100
AcDbLine
 62
4
  6
CONTINUOUS
 10
10.8345187324
 20
9.5034328671
 11
10.8345187324
 21
9.3875217637
  0
LINE
  5
2DB
100
AcDbEntity
  8
0
100
AcDbLine
 62
4
  6
CONTINUOUS
 10
10.8455578939
 20
9.1665250987
 11
10.8455578939
 21
9.0506139953
  0
LINE
  5
2DC
100
AcDbEntity
  8
0
100
AcDbLine
 62
4
  6
CONTINUOUS
 10
10.8662563251
 20
7.8881356567
 11
10.8662563251
 21
7.8688171389
  0
LINE
  5
2DD
100
AcDbEntity
  8
0
100
AcDbLine
 62
4
  6
CONTINUOUS
 10
10.86763623
 20
9.3852250574
 11
10.86763623
 21
9.4680187047
  0
LINE
  5
2DE
100
AcDbEntity
  8
0
100
AcDbLine
 62
4
  6
CONTINUOUS
 10
10.8703960275
 20
8.8104457671
 11
10.8703960275
 21
8.8932394127
  0
LINE
  5
2DF
100
AcDbEntity
  8
0
100
AcDbLine
 62
4
  6
CONTINUOUS
 10
10.8786753639
 20
9.0648760207
 11
10.8786753639
 21
9.1476696663
  0
LINE
  5
2E0
100
AcDbEntity
  8
0
100
AcDbLine
 62
4
  6
CONTINUOUS
 10
10.9062732277
 20
9.4570598523
 11
10.9062732277
 21
9.4405011243
  0
LINE
  5
2E1
100
AcDbEntity
  8
0
100
AcDbLine
 62
4
  6
CONTINUOUS
 10
10.9421505029
 20
9.3883368399
 11
10.9421505029
 21
9.4131749346
  0
LINE
  5
2E2
100
AcDbEntity
  8
0
100
AcDbLine
 62
4
  6
CONTINUOUS
 10
10.9669885768
 20
8.8037470511
 11
10.9669885768
 21
8.8865406966
  0
LINE
  5
2E3
100
AcDbEntity
  8
0
100
AcDbLine
 62
4
  6
CONTINUOUS
 10
10.9918266664
 20
9.3766124214
 11
10.9918266664
 21
9.4428473406
  0
LINE
  5
2E4
100
AcDbEntity
  8
0
100
AcDbLine
 62
4
  6
CONTINUOUS
 10
11.0249441088
 20
9.4571093663
 11
11.0249441088
 21
9.3825950839
  0
LINE
  5
2E5
100
AcDbEntity
  8
0
100
AcDbLine
 62
4
  6
CONTINUOUS
 10
11.0249441285
 20
8.8825214655
 11
11.0249441285
 21
8.7997278199
  0
LINE
  5
2E6
100
AcDbEntity
  8
0
100
AcDbLine
 62
4
  6
CONTINUOUS
 10
11.1850118204
 20
9.4791260889
 11
11.1822520427
 21
9.4710381126
  0
LINE
  5
2E7
100
AcDbEntity
  8
0
100
AcDbLine
 62
4
  6
CONTINUOUS
 10
9.8496193068
 20
7.0410101106
 11
9.8641081947
 21
7.0593238224
  0
LINE
  5
2E8
100
AcDbEntity
  8
0
100
AcDbLine
 62
7
  6
CONTINUOUS
 10
12.5169866176
 20
9.9644261815
 11
12.5154074219
 21
9.9629293247
  0
LINE
  5
2E9
100
AcDbEntity
  8
0
100
AcDbLine
 62
4
  6
CONTINUOUS
 10
11.1160171226
 20
8.7934118863
 11
11.0994584014
 21
8.7780015077
  0
LINE
  5
2EA
100
AcDbEntity
  8
0
100
AcDbLine
 62
4
  6
CONTINUOUS
 10
11.2898837777
 20
8.8144716507
 11
11.2457271695
 21
8.7954556161
  0
LINE
  5
2EB
100
AcDbEntity
  8
0
100
AcDbLine
 62
4
  6
CONTINUOUS
 10
12.998537556
 20
8.2811799686
 11
13.0564931077
 21
8.2771607375
  0
LINE
  5
2EC
100
AcDbEntity
  8
0
100
AcDbLine
 62
4
  6
CONTINUOUS
 10
10.3267177303
 20
8.881267443
 11
10.3708743419
 21
8.8561268657
  0
LINE
  5
2ED
100
AcDbEntity
  8
0
100
AcDbLine
 62
4
  6
CONTINUOUS
 10
10.4343494662
 20
8.9400380725
 11
10.4509081943
 21
8.9223309927
  0
LINE
  5
2EE
100
AcDbEntity
  8
0
100
AcDbLine
 62
4
  6
CONTINUOUS
 10
10.4481483969
 20
9.5302277409
 11
10.5061039486
 21
9.4102974063
  0
LINE
  5
2EF
100
AcDbEntity
  8
0
100
AcDbLine
 62
4
  6
CONTINUOUS
 10
10.7130880737
 20
9.4787366557
 11
10.7379261831
 21
9.3942204797
  0
LINE
  5
2F0
100
AcDbEntity
  8
0
100
AcDbLine
 62
4
  6
CONTINUOUS
 10
11.0580615709
 20
8.7808723877
 11
11.0580615709
 21
8.8967834911
  0
LINE
  5
2F1
100
AcDbEntity
  8
0
100
AcDbLine
 62
4
  6
CONTINUOUS
 10
11.0746203275
 20
9.3708706615
 11
11.0746203275
 21
9.4536643088
  0
LINE
  5
2F2
100
AcDbEntity
  8
0
100
AcDbLine
 62
4
  6
CONTINUOUS
 10
11.1077377699
 20
9.376853324
 11
11.1077377699
 21
9.4844850625
  0
LINE
  5
2F3
100
AcDbEntity
  8
0
100
AcDbLine
 62
4
  6
CONTINUOUS
 10
11.1160171226
 20
8.8762055319
 11
11.1160171226
 21
8.7934118863
  0
LINE
  5
2F4
100
AcDbEntity
  8
0
100
AcDbLine
 62
4
  6
CONTINUOUS
 10
11.1629335637
 20
8.7735994903
 11
11.1629335637
 21
8.8895105937
  0
LINE
  5
2F5
100
AcDbEntity
  8
0
100
AcDbLine
 62
4
  6
CONTINUOUS
 10
11.1822520427
 20
9.3634063767
 11
11.1822520427
 21
9.446200024
  0
LINE
  5
2F6
100
AcDbEntity
  8
0
100
AcDbLine
 62
4
  6
CONTINUOUS
 10
11.1822520427
 20
9.4710381126
 11
11.1822520427
 21
9.4793174801
  0
LINE
  5
2F7
100
AcDbEntity
  8
0
100
AcDbLine
 62
4
  6
CONTINUOUS
 10
11.2264086509
 20
9.3686234704
 11
11.2264086509
 21
9.4348583853
  0
LINE
  5
2F8
100
AcDbEntity
  8
0
100
AcDbLine
 62
4
  6
CONTINUOUS
 10
9.9148193025
 20
6.9688736658
 11
9.9075748585
 21
6.9597168108
  0
LINE
  5
2F9
100
AcDbEntity
  8
0
100
AcDbLine
 62
4
  6
CONTINUOUS
 10
10.8155452173
 20
7.9592672955
 11
10.8083007733
 21
7.9501104361
  0
LINE
  5
2FA
100
AcDbEntity
  8
0
100
AcDbLine
 62
4
  6
CONTINUOUS
 10
13.0202708879
 20
8.3955838604
 11
13.0347597758
 21
8.3945790526
  0
LINE
  5
2FB
100
AcDbEntity
  8
0
100
AcDbLine
 62
4
  6
CONTINUOUS
 10
10.2660023811
 20
9.4352278715
 11
10.274281746
 21
9.4263743306
  0
LINE
  5
2FC
100
AcDbEntity
  8
0
100
AcDbLine
 62
4
  6
CONTINUOUS
 10
10.8869547486
 20
8.7927386861
 11
10.8703960275
 21
8.8104457671
  0
LINE
  5
2FD
100
AcDbEntity
  8
0
100
AcDbLine
 62
4
  6
CONTINUOUS
 10
10.357075389
 20
9.4371913018
 11
10.3736341171
 21
9.4194842203
  0
LINE
  5
2FE
100
AcDbEntity
  8
0
100
AcDbLine
 62
4
  6
CONTINUOUS
 10
10.983547298
 20
8.7860399701
 11
10.9669885768
 21
8.8037470511
  0
LINE
  5
2FF
100
AcDbEntity
  8
0
100
AcDbLine
 62
4
  6
CONTINUOUS
 10
10.3156785688
 20
9.5394145547
 11
10.3239579329
 21
9.5305610113
  0
LINE
  5
300
100
AcDbEntity
  8
0
100
AcDbLine
 62
4
  6
CONTINUOUS
 10
10.6882499738
 20
9.17743444
 11
10.7213674334
 21
9.1254615522
  0
LINE
  5
301
100
AcDbEntity
  8
0
100
AcDbLine
 62
4
  6
CONTINUOUS
 10
11.3009229791
 20
9.404852707
 11
11.3009229791
 21
9.4296907991
  0
LINE
  5
302
100
AcDbEntity
  8
0
100
AcDbLine
 62
4
  6
CONTINUOUS
 10
11.3505990873
 20
9.3600108344
 11
11.3505990873
 21
9.3848489291
  0
LINE
  5
303
100
AcDbEntity
  8
0
100
AcDbLine
 62
4
  6
CONTINUOUS
 10
10.8662563251
 20
7.8688171389
 11
10.8590118811
 21
7.8596602839
  0
LINE
  5
304
100
AcDbEntity
  8
0
100
AcDbLine
 62
4
  6
CONTINUOUS
 10
10.8300341052
 20
7.967921744
 11
10.8155452173
 21
7.9592672955
  0
LINE
  5
305
100
AcDbEntity
  8
0
100
AcDbLine
 62
4
  6
CONTINUOUS
 10
11.0994584014
 20
8.7780015077
 11
11.0580615709
 21
8.7808723877
  0
LINE
  5
306
100
AcDbEntity
  8
0
100
AcDbLine
 62
4
  6
CONTINUOUS
 10
11.0083854074
 20
8.7843174413
 11
10.983547298
 21
8.7860399701
  0
LINE
  5
307
100
AcDbEntity
  8
0
100
AcDbLine
 62
4
  6
CONTINUOUS
 10
10.920072191
 20
8.7904419837
 11
10.8869547486
 21
8.7927386861
  0
LINE
  5
308
100
AcDbEntity
  8
0
100
AcDbLine
 62
4
  6
CONTINUOUS
 10
10.4343494662
 20
8.824126969
 11
10.3929526495
 21
8.826997848
  0
LINE
  5
309
100
AcDbEntity
  8
0
100
AcDbLine
 62
4
  6
CONTINUOUS
 10
10.6965293447
 20
8.8059447327
 11
10.7462055358
 21
8.8024996772
  0
LINE
  5
30A
100
AcDbEntity
  8
0
100
AcDbLine
 62
4
  6
CONTINUOUS
 10
11.1629335637
 20
8.7735994903
 11
11.2126097272
 21
8.7701544366
  0
LINE
  5
30B
100
AcDbEntity
  8
0
100
AcDbLine
 62
4
  6
CONTINUOUS
 10
10.508863746
 20
8.8520768458
 11
10.5530203542
 21
8.8490145746
  0
LINE
  5
30C
100
AcDbEntity
  8
0
100
AcDbLine
 62
4
  6
CONTINUOUS
 10
11.196051006
 20
8.8375377071
 11
11.1629335637
 21
8.8398344095
  0
LINE
  5
30D
100
AcDbEntity
  8
0
100
AcDbLine
 62
4
  6
CONTINUOUS
 10
10.7296468147
 20
8.8698829476
 11
10.6965293447
 21
8.8721796519
  0
LINE
  5
30E
100
AcDbEntity
  8
0
100
AcDbLine
 62
4
  6
CONTINUOUS
 10
10.3929526495
 20
8.9429089515
 11
10.4343494662
 21
8.9400380725
  0
LINE
  5
30F
100
AcDbEntity
  8
0
100
AcDbLine
 62
4
  6
CONTINUOUS
 10
10.5971769624
 20
8.9287459473
 11
10.6634118747
 21
8.9241525405
  0
LINE
  5
310
100
AcDbEntity
  8
0
100
AcDbLine
 62
4
  6
CONTINUOUS
 10
10.6965293447
 20
8.9218558362
 11
10.7462055358
 21
8.9184107806
  0
LINE
  5
311
100
AcDbEntity
  8
0
100
AcDbLine
 62
4
  6
CONTINUOUS
 10
10.8869547486
 20
8.9086497895
 11
10.920072191
 21
8.9063530871
  0
LINE
  5
312
100
AcDbEntity
  8
0
100
AcDbLine
 62
4
  6
CONTINUOUS
 10
10.983547298
 20
8.9019510735
 11
11.0083854074
 21
8.9002285448
  0
LINE
  5
313
100
AcDbEntity
  8
0
100
AcDbLine
 62
4
  6
CONTINUOUS
 10
11.0580615709
 20
8.8967834911
 11
11.0994584014
 21
8.8939126112
  0
LINE
  5
314
100
AcDbEntity
  8
0
100
AcDbLine
 62
4
  6
CONTINUOUS
 10
11.1629335637
 20
8.8895105937
 11
11.2126097272
 21
8.8860655401
  0
LINE
  5
315
100
AcDbEntity
  8
0
100
AcDbLine
 62
4
  6
CONTINUOUS
 10
11.2457271695
 20
8.8396122294
 11
11.2898837777
 21
8.8144716507
  0
LINE
  5
316
100
AcDbEntity
  8
0
100
AcDbLine
 62
4
  6
CONTINUOUS
 10
10.3239579329
 20
9.456046735
 11
10.2660023811
 21
9.5097421538
  0
LINE
  5
317
100
AcDbEntity
  8
0
100
AcDbLine
 62
4
  6
CONTINUOUS
 10
11.0083854074
 20
8.9002285448
 11
11.0249441285
 21
8.8825214655
  0
LINE
  5
318
100
AcDbEntity
  8
0
100
AcDbLine
 62
4
  6
CONTINUOUS
 10
10.8952340851
 20
9.0471689397
 11
10.8786753639
 21
9.0648760207
  0
LINE
  5
319
100
AcDbEntity
  8
0
100
AcDbLine
 62
4
  6
CONTINUOUS
 10
11.0994584014
 20
8.8939126112
 11
11.1160171226
 21
8.8762055319
  0
LINE
  5
31A
100
AcDbEntity
  8
0
100
AcDbLine
 62
4
  6
CONTINUOUS
 10
10.6716912432
 20
9.4816075357
 11
10.6799706037
 21
9.4727539926
  0
LINE
  5
31B
100
AcDbEntity
  8
0
100
AcDbLine
 62
4
  6
CONTINUOUS
 10
10.9007536724
 20
9.4657220023
 11
10.9062732277
 21
9.4570598523
  0
LINE
  5
31C
100
AcDbEntity
  8
0
100
AcDbLine
 62
4
  6
CONTINUOUS
 10
10.9918266664
 20
9.4428473406
 11
10.9835473335
 21
9.4599802424
  0
LINE
  5
31D
100
AcDbEntity
  8
0
100
AcDbLine
 62
4
  6
CONTINUOUS
 10
11.6655598481
 20
6.8571186546
 11
11.6583154041
 21
6.8865988344
  0
LINE
  5
31E
100
AcDbEntity
  8
0
100
AcDbLine
 62
7
  6
CONTINUOUS
 10
13.5485584647
 20
10.0938481475
 11
13.1603302175
 21
9.7188484347
  0
LINE
  5
31F
100
AcDbEntity
  8
0
100
AcDbLine
 62
4
  6
CONTINUOUS
 10
10.8590118811
 20
7.8596602839
 11
10.8445229932
 21
7.8510058328
  0
LINE
  5
320
100
AcDbEntity
  8
0
100
AcDbLine
 62
4
  6
CONTINUOUS
 10
9.8641081947
 20
7.0593238224
 11
9.8785970827
 21
7.0679782709
  0
LINE
  5
321
100
AcDbEntity
  8
0
100
AcDbLine
 62
4
  6
CONTINUOUS
 10
10.9283515412
 20
9.0448722363
 11
10.8952340851
 21
9.0471689397
  0
LINE
  5
322
100
AcDbEntity
  8
0
100
AcDbLine
 62
4
  6
CONTINUOUS
 10
10.7876023491
 20
9.1208681452
 11
10.8455578939
 21
9.1168489145
  0
LINE
  5
323
100
AcDbEntity
  8
0
100
AcDbLine
 62
4
  6
CONTINUOUS
 10
10.8952340851
 20
9.1630800432
 11
10.9283515412
 21
9.1607833398
  0
LINE
  5
324
100
AcDbEntity
  8
0
100
AcDbLine
 62
4
  6
CONTINUOUS
 10
11.0249441088
 20
9.3825950839
 11
11.033223497
 21
9.3737415415
  0
LINE
  5
325
100
AcDbEntity
  8
0
100
AcDbLine
 62
4
  6
CONTINUOUS
 10
11.8466709472
 20
6.9121733653
 11
11.8466709472
 21
6.8928548526
  0
LINE
  5
326
100
AcDbEntity
  8
0
100
AcDbLine
 62
4
  6
CONTINUOUS
 10
9.9075748585
 20
6.9597168108
 11
9.8930859706
 21
6.9510623597
  0
LINE
  5
327
100
AcDbEntity
  8
0
100
AcDbLine
 62
4
  6
CONTINUOUS
 10
10.7130880737
 20
9.3683451266
 11
10.7296467949
 21
9.3671967754
  0
LINE
  5
328
100
AcDbEntity
  8
0
100
AcDbLine
 62
4
  6
CONTINUOUS
 10
11.2678055368
 20
9.3574732217
 11
11.2346879839
 21
9.3597699318
  0
LINE
  5
329
100
AcDbEntity
  8
0
100
AcDbLine
 62
4
  6
CONTINUOUS
 10
11.1325758792
 20
9.3668514303
 11
11.1160171581
 21
9.3679997816
  0
LINE
  5
32A
100
AcDbEntity
  8
0
100
AcDbLine
 62
4
  6
CONTINUOUS
 10
10.9918266664
 20
9.3766124214
 11
10.9587092241
 21
9.3789091238
  0
LINE
  5
32B
100
AcDbEntity
  8
0
100
AcDbLine
 62
4
  6
CONTINUOUS
 10
10.8345187324
 20
9.3875217637
 11
10.8014012901
 21
9.3898184661
  0
LINE
  5
32C
100
AcDbEntity
  8
0
100
AcDbLine
 62
4
  6
CONTINUOUS
 10
10.274281746
 20
9.4263743306
 11
10.3073992048
 21
9.4240776271
  0
LINE
  5
32D
100
AcDbEntity
  8
0
100
AcDbLine
 62
4
  6
CONTINUOUS
 10
10.3736341171
 20
9.4194842203
 11
10.3984722196
 21
9.4177616921
  0
LINE
  5
32E
100
AcDbEntity
  8
0
100
AcDbLine
 62
4
  6
CONTINUOUS
 10
11.033223497
 20
9.3737415415
 11
11.0746203275
 21
9.3708706615
  0
LINE
  5
32F
100
AcDbEntity
  8
0
100
AcDbLine
 62
4
  6
CONTINUOUS
 10
11.309202312
 20
9.3546023456
 11
11.3423197544
 21
9.3523056432
  0
LINE
  5
330
100
AcDbEntity
  8
0
100
AcDbLine
 62
4
  6
CONTINUOUS
 10
10.8014012901
 20
9.3898184661
 11
10.7848425689
 21
9.3992461822
  0
LINE
  5
331
100
AcDbEntity
  8
0
100
AcDbLine
 62
4
  6
CONTINUOUS
 10
10.9587092241
 20
9.3789091238
 11
10.9421505029
 21
9.3883368399
  0
LINE
  5
332
100
AcDbEntity
  8
0
100
AcDbLine
 62
4
  6
CONTINUOUS
 10
11.1160171581
 20
9.3679997816
 11
11.1077377699
 21
9.376853324
  0
LINE
  5
333
100
AcDbEntity
  8
0
100
AcDbLine
 62
4
  6
CONTINUOUS
 10
11.2346879839
 20
9.3597699318
 11
11.2264086509
 21
9.3686234704
  0
LINE
  5
334
100
AcDbEntity
  8
0
100
AcDbLine
 62
4
  6
CONTINUOUS
 10
11.3009229791
 20
9.3634558842
 11
11.309202312
 21
9.3546023456
  0
LINE
  5
335
100
AcDbEntity
  8
0
100
AcDbLine
 62
4
  6
CONTINUOUS
 10
11.6583154041
 20
6.8865988344
 11
11.6655598481
 21
6.9150742063
  0
LINE
  5
336
100
AcDbEntity
  8
0
100
AcDbLine
 62
4
  6
CONTINUOUS
 10
10.9587092241
 20
9.4203059475
 11
10.9918266664
 21
9.418009245
  0
LINE
  5
337
100
AcDbEntity
  8
0
100
AcDbLine
 62
4
  6
CONTINUOUS
 10
10.9835473335
 20
9.4599802424
 11
10.9421505029
 21
9.4628511223
  0
LINE
  5
338
100
AcDbEntity
  8
0
100
AcDbLine
 62
4
  6
CONTINUOUS
 10
10.6302944126
 20
9.4844784156
 11
10.6716912432
 21
9.4816075357
  0
LINE
  5
339
100
AcDbEntity
  8
0
100
AcDbLine
 62
4
  6
CONTINUOUS
 10
10.8014012901
 20
9.4726121134
 11
10.8345187324
 21
9.470315411
  0
LINE
  5
33A
100
AcDbEntity
  8
0
100
AcDbLine
 62
4
  6
CONTINUOUS
 10
10.86763623
 20
9.4680187047
 11
10.9007536724
 21
9.4657220023
  0
LINE
  5
33B
100
AcDbEntity
  8
0
100
AcDbLine
 62
4
  6
CONTINUOUS
 10
11.2346879839
 20
9.4425635791
 11
11.2678055368
 21
9.440266869
  0
LINE
  5
33C
100
AcDbEntity
  8
0
100
AcDbLine
 62
4
  6
CONTINUOUS
 10
11.309202312
 20
9.4373959929
 11
11.3423197544
 21
9.4350992905
  0
LINE
  5
33D
100
AcDbEntity
  8
0
100
AcDbLine
 62
4
  6
CONTINUOUS
 10
10.2825611109
 20
9.5417112582
 11
10.3156785688
 21
9.5394145547
  0
LINE
  5
33E
100
AcDbEntity
  8
0
100
AcDbLine
 62
4
  6
CONTINUOUS
 10
11.1822520427
 20
9.4793174801
 11
11.1850118204
 21
9.4791260889
  0
LINE
  5
33F
100
AcDbEntity
  8
0
100
AcDbLine
 62
4
  6
CONTINUOUS
 10
11.3423197544
 20
9.3909426788
 11
11.309202312
 21
9.3987589573
  0
LINE
  5
340
100
AcDbEntity
  8
0
100
AcDbLine
 62
4
  6
CONTINUOUS
 10
11.309202312
 20
9.3987589573
 11
11.3009229791
 21
9.404852707
  0
LINE
  5
341
100
AcDbEntity
  8
0
100
AcDbLine
 62
4
  6
CONTINUOUS
 10
11.3505990873
 20
9.3848489291
 11
11.3423197544
 21
9.3909426788
  0
LINE
  5
342
100
AcDbEntity
  8
0
100
AcDbLine
 62
4
  6
CONTINUOUS
 10
11.3423197544
 20
9.4350992905
 11
11.3505990873
 21
9.4262457493
  0
LINE
  5
343
100
AcDbEntity
  8
0
100
AcDbLine
 62
4
  6
CONTINUOUS
 10
11.7959598394
 20
6.8480753845
 11
11.7887153955
 21
6.8196000125
  0
LINE
  5
344
100
AcDbEntity
  8
0
100
AcDbLine
 62
4
  6
CONTINUOUS
 10
13.0057819999
 20
8.3869294118
 11
13.0202708879
 21
8.3955838604
  0
LINE
  5
345
100
AcDbEntity
  8
0
100
AcDbLine
 62
4
  6
CONTINUOUS
 10
13.0492486637
 20
8.3452779494
 11
13.0202708879
 21
8.3279690489
  0
LINE
  5
346
100
AcDbEntity
  8
0
100
AcDbLine
 62
4
  6
CONTINUOUS
 10
13.0347597758
 20
8.3945790526
 11
13.0492486637
 21
8.3839149885
  0
LINE
  5
347
100
AcDbEntity
  8
0
100
AcDbLine
 62
4
  6
CONTINUOUS
 10
11.6655598481
 20
6.9150742063
 11
11.680048736
 21
6.9333879181
  0
LINE
  5
348
100
AcDbEntity
  8
0
100
AcDbLine
 62
7
  6
CONTINUOUS
 10
13.1603302175
 20
9.7188484347
 11
8.4514415353
 21
10.045410974
  0
LINE
  5
349
100
AcDbEntity
  8
0
100
AcDbLine
 62
4
  6
CONTINUOUS
 10
11.7887153955
 20
6.9161925964
 11
11.7959598394
 21
6.9253494558
  0
LINE
  5
34A
100
AcDbEntity
  8
0
100
AcDbLine
 62
4
  6
CONTINUOUS
 10
11.7307598437
 20
6.8429377615
 11
11.7235153998
 21
6.8337809065
  0
LINE
  5
34B
100
AcDbEntity
  8
0
100
AcDbLine
 62
4
  6
CONTINUOUS
 10
12.998537556
 20
8.3777725525
 11
13.0057819999
 21
8.3869294118
  0
LINE
  5
34C
100
AcDbEntity
  8
0
100
AcDbLine
 62
4
  6
CONTINUOUS
 10
11.8104487274
 20
6.8663890928
 11
11.7959598394
 21
6.8480753845
  0
LINE
  5
34D
100
AcDbEntity
  8
0
100
AcDbLine
 62
4
  6
CONTINUOUS
 10
11.8466709472
 20
6.8928548526
 11
11.8394265032
 21
6.8836979933
  0
LINE
  5
34E
100
AcDbEntity
  8
0
100
AcDbLine
 62
4
  6
CONTINUOUS
 10
13.0202708879
 20
8.3279690489
 11
13.0057819999
 21
8.3096553406
  0
LINE
  5
34F
100
AcDbEntity
  8
0
100
AcDbLine
 62
4
  6
CONTINUOUS
 10
13.0564931077
 20
8.3544348087
 11
13.0492486637
 21
8.3452779494
  0
LINE
  5
350
100
AcDbEntity
  8
0
100
AcDbLine
 62
4
  6
CONTINUOUS
 10
11.680048736
 20
6.9333879181
 11
11.6945376239
 21
6.9420423666
  0
LINE
  5
351
100
AcDbEntity
  8
0
100
AcDbLine
 62
4
  6
CONTINUOUS
 10
13.0492486637
 20
8.3839149885
 11
13.0564931077
 21
8.3737533213
  0
LINE
  5
352
100
AcDbEntity
  8
0
100
AcDbLine
 62
4
  6
CONTINUOUS
 10
12.9116042284
 20
8.2872088154
 11
12.9478264482
 21
8.4006078993
  0
LINE
  5
353
100
AcDbEntity
  8
0
100
AcDbLine
 62
4
  6
CONTINUOUS
 10
11.7959598394
 20
6.9253494558
 11
11.8104487274
 21
6.9340039043
  0
LINE
  5
354
100
AcDbEntity
  8
0
100
AcDbLine
 62
4
  6
CONTINUOUS
 10
11.7235153998
 20
6.8337809065
 11
11.7090265118
 21
6.8251264554
  0
LINE
  5
355
100
AcDbEntity
  8
0
100
AcDbLine
 62
4
  6
CONTINUOUS
 10
11.8394265032
 20
6.8836979933
 11
11.8104487274
 21
6.8663890928
  0
LINE
  5
356
100
AcDbEntity
  8
0
100
AcDbLine
 62
7
  6
CONTINUOUS
 10
13.5485584647
 20
10.0938481475
 11
8.8396697825
 21
10.4204106867
  0
LINE
  5
357
100
AcDbEntity
  8
0
100
AcDbLine
 62
4
  6
CONTINUOUS
 10
12.8753820086
 20
8.4056319383
 11
12.9116042284
 21
8.2872088154
  0
LINE
  5
358
100
AcDbEntity
  8
0
100
AcDbLine
 62
4
  6
CONTINUOUS
 10
13.0564931077
 20
8.3737533213
 11
13.0564931077
 21
8.3544348087
  0
LINE
  5
359
100
AcDbEntity
  8
0
100
AcDbLine
 62
4
  6
CONTINUOUS
 10
13.0057819999
 20
8.3096553406
 11
12.998537556
 21
8.2811799686
  0
LINE
  5
35A
100
AcDbEntity
  8
0
100
AcDbLine
 62
7
  6
CONTINUOUS
 10
13.1603302175
 20
6.5795893133
 11
13.1603302175
 21
9.7188484347
  0
LINE
  5
35B
100
AcDbEntity
  8
0
100
AcDbLine
 62
7
  6
CONTINUOUS
 10
13.5485584647
 20
6.954589026
 11
13.5485584647
 21
10.0938481475
  0
LINE
  5
35C
100
AcDbEntity
  8
0
100
AcDbLine
 62
7
  6
CONTINUOUS
 10
13.5485584647
 20
6.954589026
 11
13.1603302175
 21
6.5795893133
  0
SPLINE
  5
35D
100
AcDbEntity
  8
0
100
AcDbSpline
 62
7
  6
CONTINUOUS
 70
0
 71
3
 72
42
 73
38
 74
0
 42
0.0000001
 43
0.0000001
 44
0.0000000001
 40
0.0
 40
0.0
 40
0.0
 40
0.0
 40
0.0311444347
 40
0.0467772112
 40
0.0624471461
 40
0.093891844
 40
0.1254739796
 40
0.1571813629
 40
0.1889992234
 40
0.2209106216
 40
0.2528967716
 40
0.2849374315
 40
0.3170113014
 40
0.34909644
 40
0.3811706886
 40
0.4132120984
 40
0.4451993552
 40
0.4771121951
 40
0.5089318057
 40
0.5406412074
 40
0.572225607
 40
0.6036727182
 40
0.6349730419
 40
0.6661200987
 40
0.6971106068
 40
0.7279445994
 40
0.7586254742
 40
0.7891599701
 40
0.8195580671
 40
0.8498328085
 40
0.864931571
 40
0.8800056544
 40
0.910083706
 40
0.9400929707
 40
0.9550814956
 40
0.9700611828
 40
1.0
 40
1.0
 40
1.0
 40
1.0
 10
8.934404477
 20
7.5517041549
 30
0.0
 10
8.9391926386
 20
7.5513720948
 30
0.0
 10
8.9463694698
 20
7.550610676
 30
0.0
 10
8.9558722322
 20
7.5490805354
 30
0.0
 10
8.9653599084
 20
7.5472019924
 30
0.0
 10
8.9771244628
 20
7.5442102408
 30
0.0
 10
8.9909953347
 20
7.5396181388
 30
0.0
 10
9.0045639994
 20
7.5340441096
 30
0.0
 10
9.0177577028
 20
7.5275180474
 30
0.0
 10
9.0305062601
 20
7.5200748083
 30
0.0
 10
9.0427417122
 20
7.5117541389
 30
0.0
 10
9.0543988755
 20
7.5026004373
 30
0.0
 10
9.0654156336
 20
7.4926625244
 30
0.0
 10
9.0757332783
 20
7.4819933843
 30
0.0
 10
9.0852968153
 20
7.4706498848
 30
0.0
 10
9.0940552561
 20
7.4586924769
 30
0.0
 10
9.1019618863
 20
7.4461848764
 30
0.0
 10
9.1089745133
 20
7.4331937276
 30
0.0
 10
9.1150556898
 20
7.419788253
 30
0.0
 10
9.1201729123
 20
7.4060398884
 30
0.0
 10
9.1242987955
 20
7.3920219074
 30
0.0
 10
9.1274112184
 20
7.3778090361
 30
0.0
 10
9.1294934452
 20
7.3634770602
 30
0.0
 10
9.1305342178
 20
7.3491024254
 30
0.0
 10
9.1305278224
 20
7.3347618387
 30
0.0
 10
9.129474119
 20
7.3205318482
 30
0.0
 10
9.1273785782
 20
7.3064884934
 30
0.0
 10
9.1242521568
 20
7.2927066952
 30
0.0
 10
9.120111634
 20
7.2792606156
 30
0.0
 10
9.1158296487
 20
7.2683835319
 30
0.0
 10
9.1119221301
 20
7.2599249163
 30
0.0
 10
9.1077051569
 20
7.2516502258
 30
0.0
 10
9.1018501434
 20
7.2416415564
 30
0.0
 10
9.0952420851
 20
7.2321292228
 30
0.0
 10
9.0895317545
 20
7.2248582374
 30
0.0
 10
9.0835490278
 20
7.2178245761
 30
0.0
 10
9.0787558052
 20
7.2128172282
 30
0.0
 10
9.0754372522
 20
7.2096117717
 30
0.0
  0
SPLINE
  5
35E
100
AcDbEntity
  8
0
100
AcDbSpline
 62
7
  6
CONTINUOUS
 70
0
 71
3
 72
42
 73
38
 74
0
 42
0.0000001
 43
0.0000001
 44
0.0000000001
 40
0.0
 40
0.0
 40
0.0
 40
0.0
 40
0.0311444347
 40
0.0467772112
 40
0.0624471461
 40
0.093891844
 40
0.1254739796
 40
0.1571813629
 40
0.1889992234
 40
0.2209106216
 40
0.2528967716
 40
0.2849374315
 40
0.3170113014
 40
0.34909644
 40
0.3811706886
 40
0.4132120984
 40
0.4451993552
 40
0.4771121951
 40
0.5089318057
 40
0.5406412074
 40
0.572225607
 40
0.6036727182
 40
0.6349730419
 40
0.6661200987
 40
0.6971106068
 40
0.7279445994
 40
0.7586254742
 40
0.7891599701
 40
0.8195580671
 40
0.8498328085
 40
0.864931571
 40
0.8800056544
 40
0.910083706
 40
0.9400929707
 40
0.9550814956
 40
0.9700611828
 40
1.0
 40
1.0
 40
1.0
 40
1.0
 10
12.6773672757
 20
7.2921288032
 30
0.0
 10
12.6821554372
 20
7.291796743
 30
0.0
 10
12.6893322684
 20
7.2910353243
 30
0.0
 10
12.6988350308
 20
7.2895051837
 30
0.0
 10
12.708322707
 20
7.2876266407
 30
0.0
 10
12.7200872615
 20
7.2846348891
 30
0.0
 10
12.7339581334
 20
7.2800427871
 30
0.0
 10
12.747526798
 20
7.2744687579
 30
0.0
 10
12.7607205014
 20
7.2679426956
 30
0.0
 10
12.7734690588
 20
7.2604994566
 30
0.0
 10
12.7857045108
 20
7.2521787872
 30
0.0
 10
12.7973616742
 20
7.2430250856
 30
0.0
 10
12.8083784323
 20
7.2330871727
 30
0.0
 10
12.8186960769
 20
7.2224180326
 30
0.0
 10
12.828259614
 20
7.2110745331
 30
0.0
 10
12.8370180548
 20
7.1991171252
 30
0.0
 10
12.844924685
 20
7.1866095246
 30
0.0
 10
12.851937312
 20
7.1736183759
 30
0.0
 10
12.8580184884
 20
7.1602129013
 30
0.0
 10
12.863135711
 20
7.1464645367
 30
0.0
 10
12.8672615941
 20
7.1324465557
 30
0.0
 10
12.870374017
 20
7.1182336843
 30
0.0
 10
12.8724562439
 20
7.1039017084
 30
0.0
 10
12.8734970165
 20
7.0895270737
 30
0.0
 10
12.873490621
 20
7.0751864869
 30
0.0
 10
12.8724369176
 20
7.0609564965
 30
0.0
 10
12.8703413769
 20
7.0469131417
 30
0.0
 10
12.8672149555
 20
7.0331313434
 30
0.0
 10
12.8630744326
 20
7.0196852639
 30
0.0
 10
12.8587924474
 20
7.0088081802
 30
0.0
 10
12.8548849287
 20
7.0003495646
 30
0.0
 10
12.8506679556
 20
6.992074874
 30
0.0
 10
12.8448129421
 20
6.9820662047
 30
0.0
 10
12.8382048838
 20
6.972553871
 30
0.0
 10
12.8324945532
 20
6.9652828857
 30
0.0
 10
12.8265118265
 20
6.9582492244
 30
0.0
 10
12.8217186039
 20
6.9532418765
 30
0.0
 10
12.8184000509
 20
6.95003642
 30
0.0
  0
SPLINE
  5
35F
100
AcDbEntity
  8
0
100
AcDbSpline
 62
7
  6
CONTINUOUS
 70
0
 71
3
 72
41
 73
37
 74
0
 42
0.0000001
 43
0.0000001
 44
0.0000000001
 40
0.0
 40
0.0
 40
0.0
 40
0.0
 40
0.0762759759
 40
0.1537856187
 40
0.231822705
 40
0.3096741955
 40
0.3483086823
 40
0.3866308768
 40
0.42455364
 40
0.4619910041
 40
0.4988584389
 40
0.5350731291
 40
0.5705542431
 40
0.6052232097
 40
0.6390040061
 40
0.6718234602
 40
0.7036115753
 40
0.7343018918
 40
0.7638318586
 40
0.7921432577
 40
0.8191826982
 40
0.8449022027
 40
0.8692599278
 40
0.8922210777
 40
0.9031698056
 40
0.913760149
 40
0.9239903815
 40
0.9338593769
 40
0.9433669311
 40
0.9525136802
 40
0.9613012718
 40
0.9697325642
 40
0.9778116005
 40
0.9855440311
 40
0.9929370887
 40
1.0
 40
1.0
 40
1.0
 40
1.0
 10
13.2431522435
 20
8.3499595482
 30
0.0
 10
13.2431522435
 20
8.3637871161
 30
0.0
 10
13.2435242453
 20
8.3916670931
 30
0.0
 10
13.2451472135
 20
8.4336654986
 30
0.0
 10
13.2478258801
 20
8.4758960779
 30
0.0
 10
13.2509238057
 20
8.5110274928
 30
0.0
 10
13.2539138235
 20
8.5389325284
 30
0.0
 10
13.2563953053
 20
8.5596104936
 30
0.0
 10
13.2591151949
 20
8.5800395255
 30
0.0
 10
13.2620668768
 20
8.6001698812
 30
0.0
 10
13.2652431299
 20
8.6199525039
 30
0.0
 10
13.2686361859
 20
8.6393392036
 30
0.0
 10
13.2722377424
 20
8.6582827604
 30
0.0
 10
13.2760389858
 20
8.6767370432
 30
0.0
 10
13.2800306108
 20
8.6946571217
 30
0.0
 10
13.2842028437
 20
8.7119993792
 30
0.0
 10
13.2885454663
 20
8.7287216249
 30
0.0
 10
13.2930478345
 20
8.744783205
 30
0.0
 10
13.2976989113
 20
8.7601451047
 30
0.0
 10
13.3024872955
 20
8.7747700548
 30
0.0
 10
13.3074012507
 20
8.7886226085
 30
0.0
 10
13.3124287462
 20
8.8016693285
 30
0.0
 10
13.3175574784
 20
8.8138785939
 30
0.0
 10
13.3219726037
 20
8.8234773155
 30
0.0
 10
13.3255538648
 20
8.8307064882
 30
0.0
 10
13.3282146958
 20
8.8358147045
 30
0.0
 10
13.3308914084
 20
8.8406925123
 30
0.0
 10
13.3335824646
 20
8.8453369531
 30
0.0
 10
13.3362861947
 20
8.8497452434
 30
0.0
 10
13.3390009867
 20
8.8539147319
 30
0.0
 10
13.3417252371
 20
8.8578429057
 30
0.0
 10
13.3444572819
 20
8.8615274454
 30
0.0
 10
13.3471955693
 20
8.8649661065
 30
0.0
 10
13.349938471
 20
8.8681569065
 30
0.0
 10
13.3526843559
 20
8.8710978242
 30
0.0
 10
13.3545579272
 20
8.8729318104
 30
0.0
 10
13.355495197
 20
8.8738041178
 30
0.0
  0
SPLINE
  5
360
100
AcDbEntity
  8
0
100
AcDbSpline
 62
7
  6
CONTINUOUS
 70
0
 71
3
 72
14
 73
10
 74
0
 42
0.0000001
 43
0.0000001
 44
0.0000000001
 40
0.0
 40
0.0
 40
0.0
 40
0.0
 40
0.2455328708
 40
0.3705214335
 40
0.4962963515
 40
0.6224354122
 40
0.7485933644
 40
0.8745084962
 40
1.0
 40
1.0
 40
1.0
 40
1.0
 10
10.9200868119
 20
8.6200599984
 30
0.0
 10
10.9169060258
 20
8.6209215393
 30
0.0
 10
10.9121871361
 20
8.6225505917
 30
0.0
 10
10.9061308254
 20
8.6253311107
 30
0.0
 10
10.9016794153
 20
8.6277425957
 30
0.0
 10
10.8973859438
 20
8.6304540602
 30
0.0
 10
10.8932846223
 20
8.6334520151
 30
0.0
 10
10.8894078886
 20
8.6367215745
 30
0.0
 10
10.8869874113
 20
8.639077479
 30
0.0
 10
10.8858243691
 20
8.6402957198
 30
0.0
  0
SPLINE
  5
361
100
AcDbEntity
  8
0
100
AcDbSpline
 62
7
  6
CONTINUOUS
 70
0
 71
3
 72
21
 73
17
 74
0
 42
0.0000001
 43
0.0000001
 44
0.0000000001
 40
0.0
 40
0.0
 40
0.0
 40
0.0
 40
0.0577247789
 40
0.1165070865
 40
0.1764681915
 40
0.2376093805
 40
0.299803057
 40
0.362821673
 40
0.4263985891
 40
0.4902881432
 40
0.5543028054
 40
0.6183138187
 40
0.746008346
 40
0.8097003362
 40
0.8732647511
 40
1.0
 40
1.0
 40
1.0
 40
1.0
 10
10.9186287693
 20
8.6244897526
 30
0.0
 10
10.9191170971
 20
8.6232785353
 30
0.0
 10
10.9199942731
 20
8.6207884862
 30
0.0
 10
10.9209708103
 20
8.6169116738
 30
0.0
 10
10.9215909507
 20
8.6128833334
 30
0.0
 10
10.9218338557
 20
8.6087375528
 30
0.0
 10
10.9216912699
 20
8.6045181479
 30
0.0
 10
10.9211692782
 20
8.6002737006
 30
0.0
 10
10.9202865799
 20
8.5960507432
 30
0.0
 10
10.9190698964
 20
8.5918888152
 30
0.0
 10
10.9175488216
 20
8.5878180874
 30
0.0
 10
10.9151560258
 20
8.5825469462
 30
0.0
 10
10.9122626366
 20
8.577525457
 30
0.0
 10
10.9089535925
 20
8.5727982209
 30
0.0
 10
10.9053959132
 20
8.5682827769
 30
0.0
 10
10.9024546308
 20
8.565123861
 30
0.0
 10
10.9003925025
 20
8.5631317184
 30
0.0
  0
SPLINE
  5
362
100
AcDbEntity
  8
0
100
AcDbSpline
 62
7
  6
CONTINUOUS
 70
0
 71
3
 72
21
 73
17
 74
0
 42
0.0000001
 43
0.0000001
 44
0.0000000001
 40
0.0
 40
0.0
 40
0.0
 40
0.0
 40
0.06165322
 40
0.1233294719
 40
0.1850515326
 40
0.2468416528
 40
0.308721334
 40
0.3707110997
 40
0.4328302469
 40
0.4950966389
 40
0.5575265783
 40
0.620134583
 40
0.6829331586
 40
0.745933179
 40
0.8725262751
 40
1.0
 40
1.0
 40
1.0
 40
1.0
 10
8.7933717019
 20
7.5016306294
 30
0.0
 10
8.7956497705
 20
7.5038310613
 30
0.0
 10
8.8003261457
 20
7.5081110478
 30
0.0
 10
8.8076769852
 20
7.5141460373
 30
0.0
 10
8.8153470407
 20
7.5197821037
 30
0.0
 10
8.8233167137
 20
7.5250048053
 30
0.0
 10
8.831565966
 20
7.5298010964
 30
0.0
 10
8.8400740001
 20
7.5341588758
 30
0.0
 10
8.848819399
 20
7.5380671474
 30
0.0
 10
8.8577800977
 20
7.5415161302
 30
0.0
 10
8.866933542
 20
7.5444971646
 30
0.0
 10
8.8762566152
 20
7.5470027129
 30
0.0
 10
8.8857260961
 20
7.5490265368
 30
0.0
 10
8.898533487
 20
7.5510789709
 30
0.0
 10
8.9147968308
 20
7.552412382
 30
0.0
 10
8.9278715782
 20
7.552157213
 30
0.0
 10
8.934404477
 20
7.5517041549
 30
0.0
  0
SPLINE
  5
363
100
AcDbEntity
  8
0
100
AcDbSpline
 62
7
  6
CONTINUOUS
 70
0
 71
3
 72
21
 73
17
 74
0
 42
0.0000001
 43
0.0000001
 44
0.0000000001
 40
0.0
 40
0.0
 40
0.0
 40
0.0
 40
0.06165322
 40
0.1233294719
 40
0.1850515326
 40
0.2468416528
 40
0.308721334
 40
0.3707110997
 40
0.4328302469
 40
0.4950966389
 40
0.5575265783
 40
0.620134583
 40
0.6829331586
 40
0.745933179
 40
0.8725262751
 40
1.0
 40
1.0
 40
1.0
 40
1.0
 10
12.5363345005
 20
7.2420552776
 30
0.0
 10
12.5386125691
 20
7.2442557096
 30
0.0
 10
12.5432889443
 20
7.2485356961
 30
0.0
 10
12.5506397838
 20
7.2545706856
 30
0.0
 10
12.5583098394
 20
7.260206752
 30
0.0
 10
12.5662795124
 20
7.2654294536
 30
0.0
 10
12.5745287646
 20
7.2702257447
 30
0.0
 10
12.5830367987
 20
7.274583524
 30
0.0
 10
12.5917821976
 20
7.2784917956
 30
0.0
 10
12.6007428963
 20
7.2819407785
 30
0.0
 10
12.6098963406
 20
7.2849218129
 30
0.0
 10
12.6192194138
 20
7.2874273612
 30
0.0
 10
12.6286888948
 20
7.2894511851
 30
0.0
 10
12.6414962856
 20
7.2915036191
 30
0.0
 10
12.6577596294
 20
7.2928370303
 30
0.0
 10
12.6708343768
 20
7.2925818612
 30
0.0
 10
12.6773672757
 20
7.2921288032
 30
0.0
  0
SPLINE
  5
364
100
AcDbEntity
  8
0
100
AcDbSpline
 62
7
  6
CONTINUOUS
 70
0
 71
3
 72
11
 73
7
 74
0
 42
0.0000001
 43
0.0000001
 44
0.0000000001
 40
0.0
 40
0.0
 40
0.0
 40
0.0
 40
0.2497289982
 40
0.4998330934
 40
0.750026118
 40
1.0
 40
1.0
 40
1.0
 40
1.0
 10
10.8003734399
 20
8.6403117396
 30
0.0
 10
10.8019031924
 20
8.6417896031
 30
0.0
 10
10.8051063773
 20
8.6446047725
 30
0.0
 10
10.8102748484
 20
8.6483731241
 30
0.0
 10
10.8157556288
 20
8.6516740224
 30
0.0
 10
10.8195837994
 20
8.6535563573
 30
0.0
 10
10.8215315465
 20
8.6544162301
 30
0.0
  0
SPLINE
  5
365
100
AcDbEntity
  8
0
100
AcDbSpline
 62
7
  6
CONTINUOUS
 70
0
 71
3
 72
21
 73
17
 74
0
 42
0.0000001
 43
0.0000001
 44
0.0000000001
 40
0.0
 40
0.0
 40
0.0
 40
0.0
 40
0.0616532248
 40
0.1233294793
 40
0.1850515406
 40
0.2468416599
 40
0.308721339
 40
0.3707111018
 40
0.4328302458
 40
0.4950966345
 40
0.5575265709
 40
0.6201345732
 40
0.6829331473
 40
0.7459331674
 40
0.8725262663
 40
1.0
 40
1.0
 40
1.0
 40
1.0
 10
10.6776357739
 20
8.6022200847
 30
0.0
 10
10.6800036215
 20
8.604507264
 30
0.0
 10
10.6848642954
 20
8.6089559806
 30
0.0
 10
10.6925048424
 20
8.6152288893
 30
0.0
 10
10.7004771922
 20
8.6210871494
 30
0.0
 10
10.7087609734
 20
8.6265157496
 30
0.0
 10
10.7173353576
 20
8.6315011297
 30
0.0
 10
10.7261787277
 20
8.6360307113
 30
0.0
 10
10.7352688219
 20
8.6400930646
 30
0.0
 10
10.7445827053
 20
8.6436780229
 30
0.0
 10
10.7540969345
 20
8.6467765849
 30
0.0
 10
10.7637874811
 20
8.6493809159
 30
0.0
 10
10.7736302085
 20
8.6514845312
 30
0.0
 10
10.7869424146
 20
8.6536178865
 30
0.0
 10
10.803846797
 20
8.6550038741
 30
0.0
 10
10.8174369023
 20
8.654738652
 30
0.0
 10
10.8242273037
 20
8.6542677361
 30
0.0
  0
SPLINE
  5
366
100
AcDbEntity
  8
0
100
AcDbSpline
 62
7
  6
CONTINUOUS
 70
0
 71
3
 72
42
 73
38
 74
0
 42
0.0000001
 43
0.0000001
 44
0.0000000001
 40
0.0
 40
0.0
 40
0.0
 40
0.0
 40
0.029938815
 40
0.0449185018
 40
0.0599070267
 40
0.0899162924
 40
0.1199943465
 40
0.1350684316
 40
0.150167196
 40
0.1804419417
 40
0.2108400438
 40
0.241374545
 40
0.2720554253
 40
0.3028894234
 40
0.3338799366
 40
0.3650269979
 40
0.3963273256
 40
0.4277744401
 40
0.459358842
 40
0.4910682452
 40
0.5228878564
 40
0.554800696
 40
0.5867879517
 40
0.6188293596
 40
0.6509036054
 40
0.6829887407
 40
0.7150626068
 40
0.7471032625
 40
0.779089408
 40
0.8110008015
 40
0.8428186574
 40
0.8745260361
 40
0.9061081673
 40
0.9375528611
 40
0.9532227941
 40
0.9688555687
 40
1.0
 40
1.0
 40
1.0
 40
1.0
 10
10.9708188334
 20
8.2986946647
 30
0.0
 10
10.974268138
 20
8.3020264578
 30
0.0
 10
10.9792502125
 20
8.3072311571
 30
0.0
 10
10.9854686537
 20
8.3145420263
 30
0.0
 10
10.9914039641
 20
8.3220995697
 30
0.0
 10
10.9982723669
 20
8.3319867896
 30
0.0
 10
11.0043580494
 20
8.3423898985
 30
0.0
 10
11.0087411536
 20
8.3509906889
 30
0.0
 10
11.0128026088
 20
8.3597826504
 30
0.0
 10
11.0172532761
 20
8.3710883849
 30
0.0
 10
11.0215568964
 20
8.385064349
 30
0.0
 10
11.0248064546
 20
8.3993892557
 30
0.0
 10
11.0269845107
 20
8.4139860208
 30
0.0
 10
11.0280796767
 20
8.4287767712
 30
0.0
 10
11.0280862667
 20
8.4436824716
 30
0.0
 10
11.0270044265
 20
8.4586235575
 30
0.0
 10
11.0248400952
 20
8.4735202997
 30
0.0
 10
11.0216049749
 20
8.4882932405
 30
0.0
 10
11.0173164612
 20
8.5028636081
 30
0.0
 10
11.0119975465
 20
8.5171537322
 30
0.0
 10
11.0056766959
 20
8.5310874522
 30
0.0
 10
10.9983876933
 20
8.5445905176
 30
0.0
 10
10.9901694618
 20
8.5575909788
 30
0.0
 10
10.9810658568
 20
8.5700195655
 30
0.0
 10
10.9711254331
 20
8.5818100516
 30
0.0
 10
10.9604011886
 20
8.5928996043
 30
0.0
 10
10.9489502844
 20
8.6032291153
 30
0.0
 10
10.936833742
 20
8.612743513
 30
0.0
 10
10.9241161254
 20
8.621392053
 30
0.0
 10
10.9108651864
 20
8.6291285877
 30
0.0
 10
10.8971515621
 20
8.635911805
 30
0.0
 10
10.8830482024
 20
8.641705475
 30
0.0
 10
10.8686307282
 20
8.6464785259
 30
0.0
 10
10.8564025751
 20
8.649588166
 30
0.0
 10
10.8465410242
 20
8.6515407323
 30
0.0
 10
10.8366637926
 20
8.653131168
 30
0.0
 10
10.829204149
 20
8.6539225907
 30
0.0
 10
10.8242273037
 20
8.6542677361
 30
0.0
  0
SPLINE
  5
367
100
AcDbEntity
  8
0
100
AcDbSpline
 62
7
  6
CONTINUOUS
 70
0
 71
3
 72
72
 73
68
 74
0
 42
0.0000001
 43
0.0000001
 44
0.0000000001
 40
0.0
 40
0.0
 40
0.0
 40
0.0
 40
0.0038007381
 40
0.007741717
 40
0.0118259762
 40
0.0160561861
 40
0.0204346248
 40
0.0249631083
 40
0.0296429507
 40
0.034475139
 40
0.0445982624
 40
0.0553349859
 40
0.0666830763
 40
0.0786369214
 40
0.0911880266
 40
0.1043253873
 40
0.1180357756
 40
0.1323040022
 40
0.1471131281
 40
0.162444632
 40
0.1782785371
 40
0.1945935439
 40
0.2113671532
 40
0.2285757639
 40
0.2461947509
 40
0.2641985494
 40
0.2825607465
 40
0.3012541554
 40
0.3202508788
 40
0.339522374
 40
0.3787721111
 40
0.4187655094
 40
0.459257996
 40
0.5000010196
 40
0.5407440307
 40
0.5812364821
 40
0.6212298196
 40
0.6604794759
 40
0.6797509194
 40
0.6987475868
 40
0.7174409382
 40
0.7358030696
 40
0.7538067944
 40
0.7714257037
 40
0.7886342371
 40
0.8054077625
 40
0.8217226764
 40
0.8375564847
 40
0.8528878938
 40
0.8676969213
 40
0.8819650398
 40
0.8956753162
 40
0.9088125679
 40
0.9213635649
 40
0.9333172929
 40
0.9446652617
 40
0.9554018688
 40
0.9605403345
 40
0.9655254594
 40
0.9703575751
 40
0.9750373564
 40
0.9795657872
 40
0.983944203
 40
0.9881743821
 40
0.9922585089
 40
0.996199292
 40
1.0
 40
1.0
 40
1.0
 40
1.0
 10
10.7042965154
 20
10.0885302924
 30
0.0
 10
10.7031273982
 20
10.0874423447
 30
0.0
 10
10.7007016103
 20
10.0852736266
 30
0.0
 10
10.6968782464
 20
10.0820981779
 30
0.0
 10
10.6928068044
 20
10.0789436467
 30
0.0
 10
10.6884891025
 20
10.0758113653
 30
0.0
 10
10.6839268409
 20
10.0727025273
 30
0.0
 10
10.679121837
 20
10.0696183881
 30
0.0
 10
10.6740760538
 20
10.0665601068
 30
0.0
 10
10.6669186978
 20
10.0624548972
 30
0.0
 10
10.6573717192
 20
10.0574075635
 30
0.0
 10
10.6451614579
 20
10.0515643358
 30
0.0
 10
10.6320453994
 20
10.0458536792
 30
0.0
 10
10.6180449746
 20
10.0402849615
 30
0.0
 10
10.6031828325
 20
10.0348673063
 30
0.0
 10
10.587483201
 20
10.0296096577
 30
0.0
 10
10.5709717308
 20
10.024520694
 30
0.0
 10
10.5536754641
 20
10.0196088335
 30
0.0
 10
10.5356227627
 20
10.0148822124
 30
0.0
 10
10.5168432613
 20
10.0103486714
 30
0.0
 10
10.497367823
 20
10.0060157216
 30
0.0
 10
10.47722848
 20
10.0018905387
 30
0.0
 10
10.4564583681
 20
9.99797996
 30
0.0
 10
10.4350916707
 20
9.9942904718
 30
0.0
 10
10.4131635688
 20
9.9908281887
 30
0.0
 10
10.3907101817
 20
9.9875988394
 30
0.0
 10
10.367768495
 20
9.9846077706
 30
0.0
 10
10.3443763116
 20
9.9818599469
 30
0.0
 10
10.3205721419
 20
9.9793598947
 30
0.0
 10
10.2881394355
 20
9.9763441928
 30
0.0
 10
10.2468581282
 20
9.9732328565
 30
0.0
 10
10.1966138498
 20
9.9705639975
 30
0.0
 10
10.1456966654
 20
9.9689555463
 30
0.0
 10
10.0944420313
 20
9.9684182399
 30
0.0
 10
10.0431874131
 20
9.96895565
 30
0.0
 10
9.9922702774
 20
9.9705642006
 30
0.0
 10
9.942026079
 20
9.9732331648
 30
0.0
 10
9.9007448589
 20
9.9763445786
 30
0.0
 10
9.8683122386
 20
9.9793603503
 30
0.0
 10
9.8445081438
 20
9.9818604513
 30
0.0
 10
9.8211160412
 20
9.9846083172
 30
0.0
 10
9.798174444
 20
9.9875994328
 30
0.0
 10
9.7757211558
 20
9.9908288295
 30
0.0
 10
9.7537931585
 20
9.9942911586
 30
0.0
 10
9.7324265697
 20
9.9979806854
 30
0.0
 10
9.711656574
 20
10.0018913051
 30
0.0
 10
9.6915173571
 20
10.0060165308
 30
0.0
 10
9.6720420506
 20
10.0103495222
 30
0.0
 10
9.653262683
 20
10.0148830979
 30
0.0
 10
9.6352101212
 20
10.0196097525
 30
0.0
 10
9.6179140037
 20
10.0245216503
 30
0.0
 10
9.6014026903
 20
10.0296106497
 30
0.0
 10
9.5857032109
 20
10.0348683293
 30
0.0
 10
9.5708412412
 20
10.040286007
 30
0.0
 10
9.5568409369
 20
10.0458547633
 30
0.0
 10
9.543725221
 20
10.051565422
 30
0.0
 10
9.5334043193
 20
10.056504432
 30
0.0
 10
9.5256163296
 20
10.0605275005
 30
0.0
 10
9.5200953462
 20
10.0635301966
 30
0.0
 10
9.5148109433
 20
10.0665612913
 30
0.0
 10
9.5097652523
 20
10.0696195452
 30
0.0
 10
9.5049603297
 20
10.0727037125
 30
0.0
 10
9.5003981488
 20
10.0758125874
 30
0.0
 10
9.4960805404
 20
10.078944865
 30
0.0
 10
9.4920092611
 20
10.0820993596
 30
0.0
 10
9.4881860383
 20
10.0852747424
 30
0.0
 10
9.4857603509
 20
10.0874434311
 30
0.0
 10
9.4845912625
 20
10.0885313912
 30
0.0
  0
SPLINE
  5
368
100
AcDbEntity
  8
0
100
AcDbSpline
 62
7
  6
CONTINUOUS
 70
0
 71
3
 72
72
 73
68
 74
0
 42
0.0000001
 43
0.0000001
 44
0.0000000001
 40
0.0
 40
0.0
 40
0.0
 40
0.0
 40
0.0038007381
 40
0.007741717
 40
0.0118259762
 40
0.0160561861
 40
0.0204346248
 40
0.0249631083
 40
0.0296429507
 40
0.034475139
 40
0.0445982624
 40
0.0553349859
 40
0.0666830763
 40
0.0786369214
 40
0.0911880266
 40
0.1043253873
 40
0.1180357756
 40
0.1323040022
 40
0.1471131281
 40
0.162444632
 40
0.1782785371
 40
0.1945935439
 40
0.2113671532
 40
0.2285757639
 40
0.2461947509
 40
0.2641985494
 40
0.2825607465
 40
0.3012541554
 40
0.3202508788
 40
0.339522374
 40
0.3787721111
 40
0.4187655094
 40
0.459257996
 40
0.5000010196
 40
0.5407440307
 40
0.5812364821
 40
0.6212298196
 40
0.6604794759
 40
0.6797509194
 40
0.6987475868
 40
0.7174409382
 40
0.7358030696
 40
0.7538067944
 40
0.7714257037
 40
0.7886342371
 40
0.8054077625
 40
0.8217226764
 40
0.8375564847
 40
0.8528878938
 40
0.8676969213
 40
0.8819650398
 40
0.8956753162
 40
0.9088125679
 40
0.9213635649
 40
0.9333172929
 40
0.9446652617
 40
0.9554018688
 40
0.9605403345
 40
0.9655254594
 40
0.9703575751
 40
0.9750373564
 40
0.9795657872
 40
0.983944203
 40
0.9881743821
 40
0.9922585089
 40
0.996199292
 40
1.0
 40
1.0
 40
1.0
 40
1.0
 10
12.515407547
 20
9.9629293157
 30
0.0
 10
12.5142384298
 20
9.9618413681
 30
0.0
 10
12.5118126419
 20
9.9596726499
 30
0.0
 10
12.507989278
 20
9.9564972012
 30
0.0
 10
12.503917836
 20
9.95334267
 30
0.0
 10
12.4996001341
 20
9.9502103887
 30
0.0
 10
12.4950378726
 20
9.9471015507
 30
0.0
 10
12.4902328686
 20
9.9440174115
 30
0.0
 10
12.4851870854
 20
9.9409591302
 30
0.0
 10
12.4780297294
 20
9.9368539206
 30
0.0
 10
12.4684827508
 20
9.9318065868
 30
0.0
 10
12.4562724895
 20
9.9259633592
 30
0.0
 10
12.443156431
 20
9.9202527026
 30
0.0
 10
12.4291560062
 20
9.9146839849
 30
0.0
 10
12.4142938641
 20
9.9092663297
 30
0.0
 10
12.3985942326
 20
9.9040086811
 30
0.0
 10
12.3820827624
 20
9.8989197174
 30
0.0
 10
12.3647864957
 20
9.8940078569
 30
0.0
 10
12.3467337943
 20
9.8892812358
 30
0.0
 10
12.3279542929
 20
9.8847476947
 30
0.0
 10
12.3084788546
 20
9.8804147449
 30
0.0
 10
12.2883395116
 20
9.8762895621
 30
0.0
 10
12.2675693997
 20
9.8723789833
 30
0.0
 10
12.2462027023
 20
9.8686894951
 30
0.0
 10
12.2242746004
 20
9.8652272121
 30
0.0
 10
12.2018212133
 20
9.8619978628
 30
0.0
 10
12.1788795266
 20
9.8590067939
 30
0.0
 10
12.1554873432
 20
9.8562589703
 30
0.0
 10
12.1316831735
 20
9.853758918
 30
0.0
 10
12.0992504671
 20
9.8507432162
 30
0.0
 10
12.0579691598
 20
9.8476318799
 30
0.0
 10
12.0077248814
 20
9.8449630209
 30
0.0
 10
11.956807697
 20
9.8433545697
 30
0.0
 10
11.9055530629
 20
9.8428172633
 30
0.0
 10
11.8542984447
 20
9.8433546733
 30
0.0
 10
11.803381309
 20
9.8449632239
 30
0.0
 10
11.7531371106
 20
9.8476321882
 30
0.0
 10
11.7118558905
 20
9.8507436019
 30
0.0
 10
11.6794232702
 20
9.8537593736
 30
0.0
 10
11.6556191754
 20
9.8562594746
 30
0.0
 10
11.6322270728
 20
9.8590073405
 30
0.0
 10
11.6092854756
 20
9.8619984561
 30
0.0
 10
11.5868321874
 20
9.8652278529
 30
0.0
 10
11.5649041901
 20
9.868690182
 30
0.0
 10
11.5435376013
 20
9.8723797087
 30
0.0
 10
11.5227676056
 20
9.8762903284
 30
0.0
 10
11.5026283887
 20
9.8804155541
 30
0.0
 10
11.4831530822
 20
9.8847485456
 30
0.0
 10
11.4643737146
 20
9.8892821213
 30
0.0
 10
11.4463211528
 20
9.8940087759
 30
0.0
 10
11.4290250353
 20
9.8989206736
 30
0.0
 10
11.4125137219
 20
9.904009673
 30
0.0
 10
11.3968142425
 20
9.9092673527
 30
0.0
 10
11.3819522728
 20
9.9146850304
 30
0.0
 10
11.3679519685
 20
9.9202537866
 30
0.0
 10
11.3548362526
 20
9.9259644453
 30
0.0
 10
11.3445153509
 20
9.9309034554
 30
0.0
 10
11.3367273612
 20
9.9349265238
 30
0.0
 10
11.3312063778
 20
9.9379292199
 30
0.0
 10
11.3259219749
 20
9.9409603147
 30
0.0
 10
11.3208762839
 20
9.9440185685
 30
0.0
 10
11.3160713614
 20
9.9471027359
 30
0.0
 10
11.3115091804
 20
9.9502116108
 30
0.0
 10
11.307191572
 20
9.9533438883
 30
0.0
 10
11.3031202927
 20
9.956498383
 30
0.0
 10
11.2992970699
 20
9.9596737657
 30
0.0
 10
11.2968713825
 20
9.9618424545
 30
0.0
 10
11.2957022941
 20
9.9629304146
 30
0.0
  0
SPLINE
  5
369
100
AcDbEntity
  8
0
100
AcDbSpline
 62
7
  6
CONTINUOUS
 70
0
 71
3
 72
32
 73
28
 74
0
 42
0.0000001
 43
0.0000001
 44
0.0000000001
 40
0.0
 40
0.0
 40
0.0
 40
0.0
 40
0.0162143759
 40
0.0334274997
 40
0.051671892
 40
0.0709710677
 40
0.0913406249
 40
0.1127897736
 40
0.1353221186
 40
0.1589365092
 40
0.1836277576
 40
0.2093869357
 40
0.2362021308
 40
0.2640583681
 40
0.2929383657
 40
0.322822303
 40
0.3536884524
 40
0.3855130039
 40
0.4182704582
 40
0.4519336358
 40
0.5218593368
 40
0.5950455271
 40
0.6712259325
 40
0.7501167607
 40
0.8314193771
 40
0.9148211196
 40
1.0
 40
1.0
 40
1.0
 40
1.0
 10
13.2980141515
 20
8.0449556066
 30
0.0
 10
13.2969440458
 20
8.0462713562
 30
0.0
 10
13.2948279815
 20
8.0490580075
 30
0.0
 10
13.2918102676
 20
8.0535447238
 30
0.0
 10
13.2888588548
 20
8.0584557201
 30
0.0
 10
13.285976848
 20
8.0637858296
 30
0.0
 10
13.2831669793
 20
8.0695296992
 30
0.0
 10
13.2804321381
 20
8.0756814584
 30
0.0
 10
13.2777751143
 20
8.0822347908
 30
0.0
 10
13.2751986535
 20
8.0891829264
 30
0.0
 10
13.2727054786
 20
8.0965186652
 30
0.0
 10
13.2702981607
 20
8.1042343663
 30
0.0
 10
13.2679792949
 20
8.1123219857
 30
0.0
 10
13.2657512678
 20
8.1207730601
 30
0.0
 10
13.2636164982
 20
8.1295787425
 30
0.0
 10
13.2615771923
 20
8.1387297946
 30
0.0
 10
13.2596355538
 20
8.1482166119
 30
0.0
 10
13.2577936176
 20
8.1580292233
 30
0.0
 10
13.2560533267
 20
8.1681573263
 30
0.0
 10
13.2538429794
 20
8.1822468174
 30
0.0
 10
13.2513596996
 20
8.2005718055
 30
0.0
 10
13.2488477332
 20
8.2233732298
 30
0.0
 10
13.2467782425
 20
8.2471603471
 30
0.0
 10
13.2451601152
 20
8.271833037
 30
0.0
 10
13.2440003849
 20
8.297287536
 30
0.0
 10
13.243304061
 20
8.3234166737
 30
0.0
 10
13.2431522435
 20
8.3410501056
 30
0.0
 10
13.2431522435
 20
8.3499595482
 30
0.0
  0
SPLINE
  5
36A
100
AcDbEntity
  8
0
100
AcDbSpline
 62
7
  6
CONTINUOUS
 70
0
 71
3
 72
34
 73
30
 74
0
 42
0.0000001
 43
0.0000001
 44
0.0000000001
 40
0.0
 40
0.0
 40
0.0
 40
0.0
 40
0.0899842035
 40
0.1778385554
 40
0.2631455907
 40
0.3455019212
 40
0.4245253827
 40
0.4626749096
 40
0.4998586746
 40
0.5360360111
 40
0.5711684084
 40
0.6052192631
 40
0.6381545144
 40
0.6699424339
 40
0.7005541299
 40
0.7299637533
 40
0.7581486585
 40
0.7850901604
 40
0.8107735059
 40
0.8351889938
 40
0.8583322557
 40
0.8802054416
 40
0.9008183585
 40
0.920189739
 40
0.9383495338
 40
0.955340768
 40
0.9712229558
 40
0.9860751662
 40
1.0
 40
1.0
 40
1.0
 40
1.0
 10
13.3695939785
 20
8.5505928927
 30
0.0
 10
13.3695939785
 20
8.5586723842
 30
0.0
 10
13.3694415122
 20
8.5746406195
 30
0.0
 10
13.3687407841
 20
8.5982591089
 30
0.0
 10
13.3675742717
 20
8.6211737003
 30
0.0
 10
13.3659481737
 20
8.6432653669
 30
0.0
 10
13.3641976224
 20
8.6610971285
 30
0.0
 10
13.362564502
 20
8.6748603211
 30
0.0
 10
13.3612450942
 20
8.6847856695
 30
0.0
 10
13.3598185015
 20
8.6944224232
 30
0.0
 10
13.3582866127
 20
8.7037580904
 30
0.0
 10
13.3566513922
 20
8.7127805604
 30
0.0
 10
13.3549150243
 20
8.7214781403
 30
0.0
 10
13.3530797539
 20
8.7298395655
 30
0.0
 10
13.3511479905
 20
8.737854018
 30
0.0
 10
13.3491222776
 20
8.7455111444
 30
0.0
 10
13.3470052201
 20
8.7528010644
 30
0.0
 10
13.3447996328
 20
8.7597144044
 30
0.0
 10
13.3425083179
 20
8.7662422864
 30
0.0
 10
13.3401342871
 20
8.7723763787
 30
0.0
 10
13.3376805495
 20
8.7781088799
 30
0.0
 10
13.33515021
 20
8.7834325506
 30
0.0
 10
13.3325464386
 20
8.7883407391
 30
0.0
 10
13.3298723206
 20
8.7928273278
 30
0.0
 10
13.3271310123
 20
8.7968868436
 30
0.0
 10
13.3243254721
 20
8.8005142272
 30
0.0
 10
13.3214584099
 20
8.8037050953
 30
0.0
 10
13.3185329704
 20
8.8064548339
 30
0.0
 10
13.3164842293
 20
8.8080382412
 30
0.0
 10
13.3154535294
 20
8.8087459568
 30
0.0
  0
SPLINE
  5
36B
100
AcDbEntity
  8
0
100
AcDbSpline
 62
7
  6
CONTINUOUS
 70
0
 71
3
 72
56
 73
52
 74
0
 42
0.0000001
 43
0.0000001
 44
0.0000000001
 40
0.0
 40
0.0
 40
0.0
 40
0.0
 40
0.045211094
 40
0.0910028914
 40
0.1371914718
 40
0.1835898594
 40
0.2300105205
 40
0.2762656347
 40
0.3221682796
 40
0.3675333364
 40
0.4121784765
 40
0.4559251396
 40
0.4985995345
 40
0.5400336616
 40
0.5800663739
 40
0.6185444995
 40
0.6553240556
 40
0.6730351632
 40
0.6902725212
 40
0.7070213708
 40
0.7232678219
 40
0.7389988944
 40
0.7542026969
 40
0.7688683543
 40
0.7829863267
 40
0.7965482981
 40
0.8095475604
 40
0.8219789918
 40
0.8338394244
 40
0.8451278411
 40
0.855845703
 40
0.8659974544
 40
0.8755908812
 40
0.8846379673
 40
0.8931554512
 40
0.9011660221
 40
0.9086992543
 40
0.9157930177
 40
0.9224946822
 40
0.9288622031
 40
0.9349646412
 40
0.9408815128
 40
0.9467008114
 40
0.9525153656
 40
0.9584182501
 40
0.9644981308
 40
0.9708355081
 40
0.9775005384
 40
0.9845523083
 40
0.992039197
 40
1.0
 40
1.0
 40
1.0
 40
1.0
 10
13.4657364386
 20
8.5649593835
 30
0.0
 10
13.4657364386
 20
8.555791455
 30
0.0
 10
13.4655729342
 20
8.5373374717
 30
0.0
 10
13.464851963
 20
8.5095258125
 30
0.0
 10
13.463656458
 20
8.4814894698
 30
0.0
 10
13.4619915208
 20
8.4533493811
 30
0.0
 10
13.4598643337
 20
8.4252269207
 30
0.0
 10
13.4572840702
 20
8.3972433463
 30
0.0
 10
13.4542618867
 20
8.3695193285
 30
0.0
 10
13.4508108611
 20
8.3421744041
 30
0.0
 10
13.446945943
 20
8.3153264612
 30
0.0
 10
13.4426838875
 20
8.2890912246
 30
0.0
 10
13.4380431886
 20
8.2635817415
 30
0.0
 10
13.4330439965
 20
8.238907905
 30
0.0
 10
13.4277080447
 20
8.215175891
 30
0.0
 10
13.4220585148
 20
8.1924879443
 30
0.0
 10
13.4170488791
 20
8.1743109971
 30
0.0
 10
13.4128930071
 20
8.1603718665
 30
0.0
 10
13.4097524363
 20
8.1503697265
 30
0.0
 10
13.4065524094
 20
8.1406987854
 30
0.0
 10
13.403296367
 20
8.1313694382
 30
0.0
 10
13.3999878143
 20
8.1223917236
 30
0.0
 10
13.3966303654
 20
8.1137752806
 30
0.0
 10
13.3932275971
 20
8.1055293683
 30
0.0
 10
13.3897832414
 20
8.0976628136
 30
0.0
 10
13.386300953
 20
8.0901840497
 30
0.0
 10
13.382784531
 20
8.0831010501
 30
0.0
 10
13.3792377096
 20
8.0764213697
 30
0.0
 10
13.3756642968
 20
8.070152094
 30
0.0
 10
13.3720680888
 20
8.0642998474
 30
0.0
 10
13.3684528417
 20
8.0588707982
 30
0.0
 10
13.3648223562
 20
8.0538705982
 30
0.0
 10
13.3611802645
 20
8.0493044841
 30
0.0
 10
13.3575302556
 20
8.0451771359
 30
0.0
 10
13.3538757442
 20
8.0414928923
 30
0.0
 10
13.3502201358
 20
8.0382555862
 30
0.0
 10
13.3465665385
 20
8.0354688418
 30
0.0
 10
13.3429179872
 20
8.0331360304
 30
0.0
 10
13.3392774355
 20
8.0312605245
 30
0.0
 10
13.3356480327
 20
8.029845839
 30
0.0
 10
13.3320335601
 20
8.0288954459
 30
0.0
 10
13.3284387555
 20
8.0284127355
 30
0.0
 10
13.3248695562
 20
8.0283998984
 30
0.0
 10
13.32133265
 20
8.0288577176
 30
0.0
 10
13.3178346217
 20
8.0297846975
 30
0.0
 10
13.31438116
 20
8.0311779433
 30
0.0
 10
13.3109766341
 20
8.0330335325
 30
0.0
 10
13.3076243741
 20
8.0353474388
 30
0.0
 10
13.3043270487
 20
8.0381158225
 30
0.0
 10
13.3010872454
 20
8.0413346933
 30
0.0
 10
13.2990327216
 20
8.0437032227
 30
0.0
 10
13.2980141515
 20
8.0449556066
 30
0.0
  0
SPLINE
  5
36C
100
AcDbEntity
  8
0
100
AcDbSpline
 62
7
  6
CONTINUOUS
 70
0
 71
3
 72
21
 73
17
 74
0
 42
0.0000001
 43
0.0000001
 44
0.0000000001
 40
0.0
 40
0.0
 40
0.0
 40
0.0
 40
0.1274737337
 40
0.2540668326
 40
0.3170668527
 40
0.3798654268
 40
0.4424734291
 40
0.5049033655
 40
0.5671697542
 40
0.6292888982
 40
0.691278661
 40
0.7531583401
 40
0.8149484594
 40
0.8766705207
 40
0.9383467752
 40
1.0
 40
1.0
 40
1.0
 40
1.0
 10
10.8242273037
 20
8.2466470133
 30
0.0
 10
10.8310177051
 20
8.2461760973
 30
0.0
 10
10.8446078103
 20
8.2459108753
 30
0.0
 10
10.8615121928
 20
8.2472968629
 30
0.0
 10
10.8748243988
 20
8.2494302182
 30
0.0
 10
10.8846671262
 20
8.2515338335
 30
0.0
 10
10.8943576729
 20
8.2541381644
 30
0.0
 10
10.9038719021
 20
8.2572367265
 30
0.0
 10
10.9131857855
 20
8.2608216848
 30
0.0
 10
10.9222758797
 20
8.2648840381
 30
0.0
 10
10.9311192497
 20
8.2694136196
 30
0.0
 10
10.939693634
 20
8.2743989998
 30
0.0
 10
10.9479774151
 20
8.2798276
 30
0.0
 10
10.9559497649
 20
8.2856858601
 30
0.0
 10
10.963590312
 20
8.2919587688
 30
0.0
 10
10.9684509859
 20
8.2964074854
 30
0.0
 10
10.9708188334
 20
8.2986946647
 30
0.0
  0
SPLINE
  5
36D
100
AcDbEntity
  8
0
100
AcDbSpline
 62
7
  6
CONTINUOUS
 70
0
 71
3
 72
11
 73
7
 74
0
 42
0.0000001
 43
0.0000001
 44
0.0000000001
 40
0.0
 40
0.0
 40
0.0
 40
0.0
 40
0.2519323955
 40
0.5025493334
 40
0.7518854635
 40
1.0
 40
1.0
 40
1.0
 40
1.0
 10
10.9601071902
 20
8.3778969127
 30
0.0
 10
10.96522184
 20
8.3775422106
 30
0.0
 10
10.9754552143
 20
8.3772169048
 30
0.0
 10
10.9907558448
 20
8.3778931341
 30
0.0
 10
11.0058826877
 20
8.3797305574
 30
0.0
 10
11.0158192917
 20
8.3817282322
 30
0.0
 10
11.0207266667
 20
8.3829167133
 30
0.0
  0
SPLINE
  5
36E
100
AcDbEntity
  8
0
100
AcDbSpline
 62
7
  6
CONTINUOUS
 70
0
 71
3
 72
95
 73
91
 74
0
 42
0.0000001
 43
0.0000001
 44
0.0000000001
 40
0.0
 40
0.0
 40
0.0
 40
0.0
 40
0.0041939594
 40
0.0085762782
 40
0.0131520573
 40
0.0179256173
 40
0.0229004891
 40
0.0280792353
 40
0.0334636269
 40
0.0390547837
 40
0.0448532429
 40
0.0508590315
 40
0.0570716617
 40
0.0634902595
 40
0.0701135134
 40
0.0769398105
 40
0.09119284
 40
0.1062306851
 40
0.1220299823
 40
0.1385637575
 40
0.1558018515
 40
0.1737112679
 40
0.1922564673
 40
0.2113996207
 40
0.2311008356
 40
0.2513183603
 40
0.272008772
 40
0.2931271544
 40
0.3146272662
 40
0.3364617034
 40
0.3585820579
 40
0.380939072
 40
0.4034827908
 40
0.4261627133
 40
0.448927942
 40
0.4717273316
 40
0.4945096381
 40
0.5172236671
 40
0.539818422
 40
0.5622432532
 40
0.5844480073
 40
0.6063831771
 40
0.6280000543
 40
0.6492508828
 40
0.6700890155
 40
0.690469076
 40
0.710347124
 40
0.7296808303
 40
0.748429661
 40
0.7665550762
 40
0.7840207471
 40
0.8007927993
 40
0.816840092
 40
0.8321345465
 40
0.8466515423
 40
0.8536121205
 40
0.860370937
 40
0.8669261464
 40
0.8732762126
 40
0.8794199799
 40
0.8853566932
 40
0.8910860295
 40
0.8966081824
 40
0.9019238591
 40
0.9070344273
 40
0.9119418968
 40
0.9166491158
 40
0.9211597694
 40
0.9254786037
 40
0.9296114746
 40
0.9335655778
 40
0.9373495665
 40
0.9409737611
 40
0.9477890579
 40
0.9510148461
 40
0.9541417235
 40
0.9571900969
 40
0.9601821554
 40
0.9631415091
 40
0.9660926235
 40
0.9690601892
 40
0.9720684542
 40
0.9751406083
 40
0.9782982941
 40
0.9815612373
 40
0.98494706
 40
0.9884713247
 40
0.992147593
 40
0.9959873756
 40
1.0
 40
1.0
 40
1.0
 40
1.0
 10
9.4830133824
 20
10.17483294
 30
0.0
 10
9.4843835663
 20
10.176156436
 30
0.0
 10
9.4872536029
 20
10.1787930374
 30
0.0
 10
9.4918309767
 20
10.1826344992
 30
0.0
 10
9.4967707154
 20
10.186445416
 30
0.0
 10
9.5020696155
 20
10.1902234544
 30
0.0
 10
9.5077246446
 20
10.1939664859
 30
0.0
 10
9.5137324691
 20
10.1976723968
 30
0.0
 10
9.5200895492
 20
10.2013389856
 30
0.0
 10
9.5267921024
 20
10.2049640755
 30
0.0
 10
9.5338361391
 20
10.2085455382
 30
0.0
 10
9.5412174792
 20
10.2120812093
 30
0.0
 10
9.5489317092
 20
10.2155690244
 30
0.0
 10
9.5569742325
 20
10.2190068263
 30
0.0
 10
9.5653402349
 20
10.2223926474
 30
0.0
 10
9.5770891566
 20
10.2268998897
 30
0.0
 10
9.5925572122
 20
10.2323753537
 30
0.0
 10
9.6120673308
 20
10.2386159254
 30
0.0
 10
9.6327374895
 20
10.244602483
 30
0.0
 10
9.6545180957
 20
10.2503205161
 30
0.0
 10
9.677357075
 20
10.2557561505
 30
0.0
 10
9.7011996518
 20
10.2608961935
 30
0.0
 10
9.7259886026
 20
10.2657281694
 30
0.0
 10
9.7516643763
 20
10.2702403529
 30
0.0
 10
9.7781652557
 20
10.2744217971
 30
0.0
 10
9.8054275108
 20
10.278262361
 30
0.0
 10
9.8333855588
 20
10.2817527325
 30
0.0
 10
9.8619721258
 20
10.2848844512
 30
0.0
 10
9.891118412
 20
10.2876499281
 30
0.0
 10
9.92075426
 20
10.2900424631
 30
0.0
 10
9.9508083259
 20
10.2920562605
 30
0.0
 10
9.9812082523
 20
10.2936864431
 30
0.0
 10
10.0118808445
 20
10.2949290632
 30
0.0
 10
10.0427522474
 20
10.2957811119
 30
0.0
 10
10.0737481248
 20
10.2962405258
 30
0.0
 10
10.104793839
 20
10.2963061926
 30
0.0
 10
10.1358146316
 20
10.2959779538
 30
0.0
 10
10.166735805
 20
10.2952566042
 30
0.0
 10
10.1974829026
 20
10.2941438904
 30
0.0
 10
10.2279818891
 20
10.2926425067
 30
0.0
 10
10.25815933
 20
10.2907560887
 30
0.0
 10
10.2879425692
 20
10.2884892048
 30
0.0
 10
10.3172599055
 20
10.2858473458
 30
0.0
 10
10.3460407667
 20
10.2828369118
 30
0.0
 10
10.3742158813
 20
10.2794651974
 30
0.0
 10
10.401717448
 20
10.2757403745
 30
0.0
 10
10.4284793017
 20
10.2716714735
 30
0.0
 10
10.4544370768
 20
10.2672683616
 30
0.0
 10
10.4795283681
 20
10.2625417201
 30
0.0
 10
10.5036928858
 20
10.2575030184
 30
0.0
 10
10.526872616
 20
10.2521644858
 30
0.0
 10
10.5490119442
 20
10.2465390794
 30
0.0
 10
10.5700579025
 20
10.2406404516
 30
0.0
 10
10.5899599729
 20
10.2344829015
 30
0.0
 10
10.6057663859
 20
10.2290752265
 30
0.0
 10
10.617793998
 20
10.2246199758
 30
0.0
 10
10.6263728892
 20
10.2212699896
 30
0.0
 10
10.6346316139
 20
10.2178666429
 30
0.0
 10
10.6425652364
 20
10.2144119285
 30
0.0
 10
10.6501690114
 20
10.2109079337
 30
0.0
 10
10.6574384041
 20
10.2073567641
 30
0.0
 10
10.664369072
 20
10.2037605141
 30
0.0
 10
10.6709569075
 20
10.2001213662
 30
0.0
 10
10.6771979765
 20
10.1964414182
 30
0.0
 10
10.6830886116
 20
10.1927229068
 30
0.0
 10
10.6886252942
 20
10.1889679265
 30
0.0
 10
10.6938047985
 20
10.1851787333
 30
0.0
 10
10.6986240287
 20
10.1813574111
 30
0.0
 10
10.703080175
 20
10.1775061991
 30
0.0
 10
10.7071705834
 20
10.1736271235
 30
0.0
 10
10.7108927221
 20
10.1697225046
 30
0.0
 10
10.7142446572
 20
10.1657938105
 30
0.0
 10
10.7181364976
 20
10.1606339774
 30
0.0
 10
10.7213938471
 20
10.1553206519
 30
0.0
 10
10.723905265
 20
10.1498861773
 30
0.0
 10
10.7253746021
 20
10.1458711576
 30
0.0
 10
10.7264621676
 20
10.1418459993
 30
0.0
 10
10.7271666032
 20
10.1378132868
 30
0.0
 10
10.7274870586
 20
10.1337761975
 30
0.0
 10
10.7274229354
 20
10.1297379879
 30
0.0
 10
10.7269744522
 20
10.1257019999
 30
0.0
 10
10.726142155
 20
10.1216714732
 30
0.0
 10
10.7249272109
 20
10.117649407
 30
0.0
 10
10.7233310098
 20
10.1136385503
 30
0.0
 10
10.7213552239
 20
10.109641394
 30
0.0
 10
10.7190016699
 20
10.1056601901
 30
0.0
 10
10.7162721385
 20
10.1016970861
 30
0.0
 10
10.7131685533
 20
10.0977540663
 30
0.0
 10
10.7096931339
 20
10.0938334594
 30
0.0
 10
10.7071865269
 20
10.0912934299
 30
0.0
 10
10.705875586
 20
10.0900271581
 30
0.0
  0
SPLINE
  5
36F
100
AcDbEntity
  8
0
100
AcDbSpline
 62
7
  6
CONTINUOUS
 70
0
 71
3
 72
82
 73
78
 74
0
 42
0.0000001
 43
0.0000001
 44
0.0000000001
 40
0.0
 40
0.0
 40
0.0
 40
0.0
 40
0.0039519233
 40
0.0080647395
 40
0.012342495
 40
0.0167886289
 40
0.0214060732
 40
0.026197185
 40
0.0311636264
 40
0.0363065606
 40
0.0416267229
 40
0.0471244157
 40
0.0527996369
 40
0.0586519991
 40
0.0708846929
 40
0.0838144675
 40
0.0974289457
 40
0.1117124918
 40
0.1266466061
 40
0.142210273
 40
0.1583802366
 40
0.175131224
 40
0.1924361227
 40
0.2102661481
 40
0.228591009
 40
0.2473790421
 40
0.2665973324
 40
0.2862118179
 40
0.3061874145
 40
0.3264881266
 40
0.3470771474
 40
0.3679169529
 40
0.4101950861
 40
0.4530126005
 40
0.4960535846
 40
0.5389999985
 40
0.5815346968
 40
0.6025499267
 40
0.6233452672
 40
0.6438826847
 40
0.6641247832
 40
0.6840349017
 40
0.7035772094
 40
0.7227168067
 40
0.7414198382
 40
0.7596536168
 40
0.7773867292
 40
0.7945891587
 40
0.8112324227
 40
0.8272897426
 40
0.8427362119
 40
0.8575489803
 40
0.8717074848
 40
0.8851937372
 40
0.8979926842
 40
0.910092616
 40
0.9158781207
 40
0.9214863113
 40
0.9269169182
 40
0.9321700684
 40
0.9372462095
 40
0.9421462506
 40
0.9468715666
 40
0.9514240184
 40
0.9558061123
 40
0.96002096
 40
0.9640724357
 40
0.9679652593
 40
0.9717050387
 40
0.9752984775
 40
0.9787533994
 40
0.9820789031
 40
0.9883814967
 40
0.9913875045
 40
0.9943148566
 40
0.9971798486
 40
1.0
 40
1.0
 40
1.0
 40
1.0
 10
9.5728445071
 20
10.0787720056
 30
0.0
 10
9.5739023258
 20
10.0797937801
 30
0.0
 10
9.5761085367
 20
10.0818302064
 30
0.0
 10
9.5796094523
 20
10.0848054424
 30
0.0
 10
9.5833650702
 20
10.0877596418
 30
0.0
 10
9.587373372
 20
10.0906911985
 30
0.0
 10
9.5916323999
 20
10.0935988052
 30
0.0
 10
9.5961401468
 20
10.0964810502
 30
0.0
 10
9.6008944068
 20
10.0993366078
 30
0.0
 10
9.6058928599
 20
10.1021640624
 30
0.0
 10
9.6111330628
 20
10.1049620005
 30
0.0
 10
9.6166124228
 20
10.1077290996
 30
0.0
 10
9.6223282838
 20
10.1104639759
 30
0.0
 10
9.6303801571
 20
10.1141197486
 30
0.0
 10
9.6410249838
 20
10.1185889428
 30
0.0
 10
9.6545129613
 20
10.1237263141
 30
0.0
 10
9.6688708267
 20
10.1287040435
 30
0.0
 10
9.6840702992
 20
10.1335122354
 30
0.0
 10
9.7000815901
 20
10.138141339
 30
0.0
 10
9.7168731761
 20
10.1425821369
 30
0.0
 10
9.7344119721
 20
10.1468257791
 30
0.0
 10
9.7526633762
 20
10.1508638001
 30
0.0
 10
9.7715913443
 20
10.1546881485
 30
0.0
 10
9.7911584651
 20
10.1582912086
 30
0.0
 10
9.8113260477
 20
10.1616657997
 30
0.0
 10
9.8320542042
 20
10.164805196
 30
0.0
 10
9.8533019245
 20
10.1677031363
 30
0.0
 10
9.875027155
 20
10.1703538542
 30
0.0
 10
9.8971868916
 20
10.1727520764
 30
0.0
 10
9.9197372557
 20
10.1748930208
 30
0.0
 10
9.942633639
 20
10.1767724493
 30
0.0
 10
9.9737108537
 20
10.178934826
 30
0.0
 10
10.0130874196
 20
10.1809516901
 30
0.0
 10
10.0607595361
 20
10.1822731179
 30
0.0
 10
10.1086982844
 20
10.1824963084
 30
0.0
 10
10.1565240928
 20
10.1816194914
 30
0.0
 10
10.1961266614
 20
10.1799716265
 30
0.0
 10
10.2274608248
 20
10.1781021674
 30
0.0
 10
10.2506045742
 20
10.1764376522
 30
0.0
 10
10.2734390287
 20
10.1745085427
 30
0.0
 10
10.2959190125
 20
10.1723186547
 30
0.0
 10
10.3180000106
 20
10.1698723593
 30
0.0
 10
10.3396383133
 20
10.1671745251
 30
0.0
 10
10.3607910864
 20
10.1642305209
 30
0.0
 10
10.3814164669
 20
10.1610462055
 30
0.0
 10
10.4014736506
 20
10.1576279303
 30
0.0
 10
10.4209229702
 20
10.153982508
 30
0.0
 10
10.4397259705
 20
10.1501172035
 30
0.0
 10
10.4578454915
 20
10.1460397142
 30
0.0
 10
10.4752457556
 20
10.1417581714
 30
0.0
 10
10.4918924413
 20
10.1372811154
 30
0.0
 10
10.5077527574
 20
10.1326174675
 30
0.0
 10
10.5227954882
 20
10.1277765112
 30
0.0
 10
10.536991171
 20
10.1227678599
 30
0.0
 10
10.5503118543
 20
10.1176014654
 30
0.0
 10
10.5608131666
 20
10.1131085614
 30
0.0
 10
10.5687475934
 20
10.1094346903
 30
0.0
 10
10.5743744423
 20
10.1066874833
 30
0.0
 10
10.5797637585
 20
10.1039085633
 30
0.0
 10
10.5849129298
 20
10.1010993239
 30
0.0
 10
10.589819413
 20
10.0982610962
 30
0.0
 10
10.5944808164
 20
10.0953952795
 30
0.0
 10
10.598894878
 20
10.092503285
 30
0.0
 10
10.6030594149
 20
10.0895864492
 30
0.0
 10
10.6069724358
 20
10.0866462279
 30
0.0
 10
10.610632013
 20
10.0836839716
 30
0.0
 10
10.6140363592
 20
10.0807010635
 30
0.0
 10
10.617183837
 20
10.0776989311
 30
0.0
 10
10.6200728501
 20
10.0746788436
 30
0.0
 10
10.622701938
 20
10.0716423279
 30
0.0
 10
10.6250699292
 20
10.0685903095
 30
0.0
 10
10.6278273021
 20
10.0645754103
 30
0.0
 10
10.6301288928
 20
10.060455916
 30
0.0
 10
10.6319040809
 20
10.0562587043
 30
0.0
 10
10.6329479269
 20
10.0531515539
 30
0.0
 10
10.6337237729
 20
10.0500382813
 30
0.0
 10
10.6340640092
 20
10.0479470821
 30
0.0
 10
10.6341881304
 20
10.0469049231
 30
0.0
  0
SPLINE
  5
370
100
AcDbEntity
  8
0
100
AcDbSpline
 62
7
  6
CONTINUOUS
 70
0
 71
3
 72
63
 73
59
 74
0
 42
0.0000001
 43
0.0000001
 44
0.0000000001
 40
0.0
 40
0.0
 40
0.0
 40
0.0
 40
0.0156756347
 40
0.0314044409
 40
0.047183856
 40
0.0630132003
 40
0.078890152
 40
0.0948122402
 40
0.1107765924
 40
0.1267799109
 40
0.1588799654
 40
0.1910885168
 40
0.2233690933
 40
0.2556827025
 40
0.2879892036
 40
0.3202487034
 40
0.3524229442
 40
0.3844766597
 40
0.4004528187
 40
0.416387651
 40
0.4322781425
 40
0.4481216813
 40
0.4639160841
 40
0.4796596248
 40
0.4953510546
 40
0.510989615
 40
0.5265750487
 40
0.5421076132
 40
0.5575880814
 40
0.5730177369
 40
0.5883983652
 40
0.6037322458
 40
0.6190221329
 40
0.6342712282
 40
0.6494831517
 40
0.6646619109
 40
0.6798118613
 40
0.6949376607
 40
0.7100442204
 40
0.725136657
 40
0.740220239
 40
0.7553003294
 40
0.7703823268
 40
0.7854716094
 40
0.8005734791
 40
0.815693104
 40
0.8308354619
 40
0.8460052887
 40
0.861207033
 40
0.8764448095
 40
0.8917223568
 40
0.9070430063
 40
0.9224096287
 40
0.937824673
 40
0.9532900932
 40
0.9688070473
 40
0.9843773647
 40
1.0
 40
1.0
 40
1.0
 40
1.0
 10
10.8063688043
 20
8.7036666353
 30
0.0
 10
10.8108011303
 20
8.7033592524
 30
0.0
 10
10.8196672371
 20
8.7025259825
 30
0.0
 10
10.8329105082
 20
8.7006296364
 30
0.0
 10
10.8460900623
 20
8.6980889995
 30
0.0
 10
10.8591735445
 20
8.6949104699
 30
0.0
 10
10.8721297471
 20
8.6911015447
 30
0.0
 10
10.8849273116
 20
8.6866715396
 30
0.0
 10
10.8975357793
 20
8.6816309597
 30
0.0
 10
10.9140681567
 20
8.6741062682
 30
0.0
 10
10.9341075562
 20
8.6632341605
 30
0.0
 10
10.9568938306
 20
8.647991887
 30
0.0
 10
10.9782325076
 20
8.6306835865
 30
0.0
 10
10.9979175021
 20
8.6114762805
 30
0.0
 10
11.0157601352
 20
8.5905542138
 30
0.0
 10
11.0315892027
 20
8.5681178982
 30
0.0
 10
11.0452519187
 20
8.5443840001
 30
0.0
 10
11.0547356756
 20
8.5236848755
 30
0.0
 10
11.0611144866
 20
8.5067086418
 30
0.0
 10
11.065280747
 20
8.4938111584
 30
0.0
 10
11.0688233054
 20
8.4807678165
 30
0.0
 10
11.0717337719
 20
8.4676096761
 30
0.0
 10
11.0740050388
 20
8.4543685012
 30
0.0
 10
11.0756316496
 20
8.4410761558
 30
0.0
 10
11.0766096651
 20
8.4277646543
 30
0.0
 10
11.0769366908
 20
8.4144660513
 30
0.0
 10
11.076611878
 20
8.4012123805
 30
0.0
 10
11.075636006
 20
8.3880355708
 30
0.0
 10
11.0740114028
 20
8.3749673675
 30
0.0
 10
11.0717419401
 20
8.3620392617
 30
0.0
 10
11.0688330252
 20
8.3492824194
 30
0.0
 10
11.0652916662
 20
8.3367275869
 30
0.0
 10
11.0611263775
 20
8.3244050285
 30
0.0
 10
11.0563471613
 20
8.3123444597
 30
0.0
 10
11.050965486
 20
8.3005749797
 30
0.0
 10
11.0449943314
 20
8.2891249655
 30
0.0
 10
11.0384480832
 20
8.2780220307
 30
0.0
 10
11.0313425009
 20
8.2672929643
 30
0.0
 10
11.0236946829
 20
8.256963669
 30
0.0
 10
11.0155230894
 20
8.2470590487
 30
0.0
 10
11.0068474296
 20
8.2376029909
 30
0.0
 10
10.9976886171
 20
8.2286183126
 30
0.0
 10
10.9880687232
 20
8.2201267086
 30
0.0
 10
10.9780109755
 20
8.2121486369
 30
0.0
 10
10.9675396427
 20
8.2047033255
 30
0.0
 10
10.9566799798
 20
8.1978087289
 30
0.0
 10
10.9454581714
 20
8.1914814882
 30
0.0
 10
10.9339013057
 20
8.18573682
 30
0.0
 10
10.9220372635
 20
8.1805885472
 30
0.0
 10
10.9098946549
 20
8.1760490683
 30
0.0
 10
10.8975027547
 20
8.1721293285
 30
0.0
 10
10.8848914564
 20
8.1688387263
 30
0.0
 10
10.8720911671
 20
8.1661851429
 30
0.0
 10
10.8591327201
 20
8.164174957
 30
0.0
 10
10.8460474375
 20
8.1628130382
 30
0.0
 10
10.8328665671
 20
8.1621025028
 30
0.0
 10
10.8196225043
 20
8.1620451949
 30
0.0
 10
10.8107861446
 20
8.1624417969
 30
0.0
 10
10.8063688043
 20
8.1627481405
 30
0.0
  0
SPLINE
  5
371
100
AcDbEntity
  8
0
100
AcDbSpline
 62
7
  6
CONTINUOUS
 70
0
 71
3
 72
15
 73
11
 74
0
 42
0.0000001
 43
0.0000001
 44
0.0000000001
 40
0.0
 40
0.0
 40
0.0
 40
0.0
 40
0.1462013888
 40
0.2850350028
 40
0.4169986302
 40
0.542720502
 40
0.6629498546
 40
0.7785580727
 40
0.8905389312
 40
1.0
 40
1.0
 40
1.0
 40
1.0
 10
11.3839555387
 20
9.953171029
 30
0.0
 10
11.3826451987
 20
9.9519053377
 30
0.0
 10
11.3801589733
 20
9.9493652589
 30
0.0
 10
11.3767662931
 20
9.9454245403
 30
0.0
 10
11.3738130578
 20
9.9414575222
 30
0.0
 10
11.3713023372
 20
9.9374672381
 30
0.0
 10
11.3692369805
 20
9.9334563764
 30
0.0
 10
11.3676196238
 20
9.9294278223
 30
0.0
 10
11.3664531853
 20
9.9253856479
 30
0.0
 10
11.3659736937
 20
9.9226617118
 30
0.0
 10
11.3658122687
 20
9.9213073128
 30
0.0
  0
SPLINE
  5
372
100
AcDbEntity
  8
0
100
AcDbSpline
 62
7
  6
CONTINUOUS
 70
0
 71
3
 72
95
 73
91
 74
0
 42
0.0000001
 43
0.0000001
 44
0.0000000001
 40
0.0
 40
0.0
 40
0.0
 40
0.0
 40
0.0041939594
 40
0.0085762782
 40
0.0131520573
 40
0.0179256173
 40
0.0229004891
 40
0.0280792353
 40
0.0334636269
 40
0.0390547837
 40
0.0448532429
 40
0.0508590315
 40
0.0570716617
 40
0.0634902595
 40
0.0701135134
 40
0.0769398105
 40
0.09119284
 40
0.1062306851
 40
0.1220299823
 40
0.1385637575
 40
0.1558018515
 40
0.1737112679
 40
0.1922564673
 40
0.2113996207
 40
0.2311008356
 40
0.2513183603
 40
0.272008772
 40
0.2931271544
 40
0.3146272662
 40
0.3364617034
 40
0.3585820579
 40
0.380939072
 40
0.4034827908
 40
0.4261627133
 40
0.448927942
 40
0.4717273316
 40
0.4945096381
 40
0.5172236671
 40
0.539818422
 40
0.5622432532
 40
0.5844480073
 40
0.6063831771
 40
0.6280000543
 40
0.6492508828
 40
0.6700890155
 40
0.690469076
 40
0.710347124
 40
0.7296808303
 40
0.748429661
 40
0.7665550762
 40
0.7840207471
 40
0.8007927993
 40
0.816840092
 40
0.8321345465
 40
0.8466515423
 40
0.8536121205
 40
0.860370937
 40
0.8669261464
 40
0.8732762126
 40
0.8794199799
 40
0.8853566932
 40
0.8910860295
 40
0.8966081824
 40
0.9019238591
 40
0.9070344273
 40
0.9119418968
 40
0.9166491158
 40
0.9211597694
 40
0.9254786037
 40
0.9296114746
 40
0.9335655778
 40
0.9373495665
 40
0.9409737611
 40
0.9477890579
 40
0.9510148461
 40
0.9541417235
 40
0.9571900969
 40
0.9601821554
 40
0.9631415091
 40
0.9660926235
 40
0.9690601892
 40
0.9720684542
 40
0.9751406083
 40
0.9782982941
 40
0.9815612373
 40
0.98494706
 40
0.9884713247
 40
0.992147593
 40
0.9959873756
 40
1.0
 40
1.0
 40
1.0
 40
1.0
 10
11.294124414
 20
10.0492319633
 30
0.0
 10
11.2954945979
 20
10.0505554594
 30
0.0
 10
11.2983646345
 20
10.0531920608
 30
0.0
 10
11.3029420083
 20
10.0570335226
 30
0.0
 10
11.307881747
 20
10.0608444394
 30
0.0
 10
11.3131806471
 20
10.0646224778
 30
0.0
 10
11.3188356762
 20
10.0683655093
 30
0.0
 10
11.3248435007
 20
10.0720714202
 30
0.0
 10
11.3312005808
 20
10.075738009
 30
0.0
 10
11.337903134
 20
10.0793630988
 30
0.0
 10
11.3449471707
 20
10.0829445616
 30
0.0
 10
11.3523285109
 20
10.0864802327
 30
0.0
 10
11.3600427408
 20
10.0899680477
 30
0.0
 10
11.3680852641
 20
10.0934058496
 30
0.0
 10
11.3764512665
 20
10.0967916707
 30
0.0
 10
11.3882001882
 20
10.101298913
 30
0.0
 10
11.4036682438
 20
10.1067743771
 30
0.0
 10
11.4231783624
 20
10.1130149488
 30
0.0
 10
11.4438485211
 20
10.1190015064
 30
0.0
 10
11.4656291273
 20
10.1247195394
 30
0.0
 10
11.4884681066
 20
10.1301551739
 30
0.0
 10
11.5123106834
 20
10.1352952169
 30
0.0
 10
11.5370996342
 20
10.1401271928
 30
0.0
 10
11.5627754079
 20
10.1446393762
 30
0.0
 10
11.5892762873
 20
10.1488208205
 30
0.0
 10
11.6165385424
 20
10.1526613843
 30
0.0
 10
11.6444965904
 20
10.1561517558
 30
0.0
 10
11.6730831574
 20
10.1592834746
 30
0.0
 10
11.7022294436
 20
10.1620489515
 30
0.0
 10
11.7318652917
 20
10.1644414864
 30
0.0
 10
11.7619193575
 20
10.1664552838
 30
0.0
 10
11.7923192839
 20
10.1680854665
 30
0.0
 10
11.8229918761
 20
10.1693280866
 30
0.0
 10
11.8538632791
 20
10.1701801352
 30
0.0
 10
11.8848591564
 20
10.1706395491
 30
0.0
 10
11.9159048706
 20
10.170705216
 30
0.0
 10
11.9469256632
 20
10.1703769772
 30
0.0
 10
11.9778468366
 20
10.1696556276
 30
0.0
 10
12.0085939342
 20
10.1685429138
 30
0.0
 10
12.0390929207
 20
10.1670415301
 30
0.0
 10
12.0692703616
 20
10.165155112
 30
0.0
 10
12.0990536008
 20
10.1628882282
 30
0.0
 10
12.1283709371
 20
10.1602463692
 30
0.0
 10
12.1571517983
 20
10.1572359352
 30
0.0
 10
12.1853269129
 20
10.1538642208
 30
0.0
 10
12.2128284796
 20
10.1501393979
 30
0.0
 10
12.2395903333
 20
10.1460704969
 30
0.0
 10
12.2655481084
 20
10.1416673849
 30
0.0
 10
12.2906393997
 20
10.1369407434
 30
0.0
 10
12.3148039174
 20
10.1319020418
 30
0.0
 10
12.3379836476
 20
10.1265635091
 30
0.0
 10
12.3601229758
 20
10.1209381027
 30
0.0
 10
12.3811689341
 20
10.115039475
 30
0.0
 10
12.4010710046
 20
10.1088819249
 30
0.0
 10
12.4168774175
 20
10.1034742498
 30
0.0
 10
12.4289050296
 20
10.0990189992
 30
0.0
 10
12.4374839208
 20
10.095669013
 30
0.0
 10
12.4457426455
 20
10.0922656662
 30
0.0
 10
12.453676268
 20
10.0888109518
 30
0.0
 10
12.461280043
 20
10.0853069571
 30
0.0
 10
12.4685494357
 20
10.0817557875
 30
0.0
 10
12.4754801036
 20
10.0781595374
 30
0.0
 10
12.4820679391
 20
10.0745203896
 30
0.0
 10
12.4883090081
 20
10.0708404416
 30
0.0
 10
12.4941996432
 20
10.0671219301
 30
0.0
 10
12.4997363258
 20
10.0633669499
 30
0.0
 10
12.5049158301
 20
10.0595777566
 30
0.0
 10
12.5097350603
 20
10.0557564344
 30
0.0
 10
12.5141912066
 20
10.0519052225
 30
0.0
 10
12.518281615
 20
10.0480261468
 30
0.0
 10
12.5220037537
 20
10.044121528
 30
0.0
 10
12.5253556888
 20
10.0401928339
 30
0.0
 10
12.5292475292
 20
10.0350330008
 30
0.0
 10
12.5325048787
 20
10.0297196753
 30
0.0
 10
12.5350162967
 20
10.0242852007
 30
0.0
 10
12.5364856337
 20
10.020270181
 30
0.0
 10
12.5375731992
 20
10.0162450227
 30
0.0
 10
12.5382776348
 20
10.0122123102
 30
0.0
 10
12.5385980902
 20
10.0081752208
 30
0.0
 10
12.538533967
 20
10.0041370113
 30
0.0
 10
12.5380854838
 20
10.0001010233
 30
0.0
 10
12.5372531866
 20
9.9960704965
 30
0.0
 10
12.5360382425
 20
9.9920484304
 30
0.0
 10
12.5344420414
 20
9.9880375736
 30
0.0
 10
12.5324662555
 20
9.9840404174
 30
0.0
 10
12.5301127015
 20
9.9800592135
 30
0.0
 10
12.5273831701
 20
9.9760961095
 30
0.0
 10
12.5242795849
 20
9.9721530897
 30
0.0
 10
12.5208041655
 20
9.9682324827
 30
0.0
 10
12.5182975585
 20
9.9656924533
 30
0.0
 10
12.5169866176
 20
9.9644261815
 30
0.0
  0
SPLINE
  5
373
100
AcDbEntity
  8
0
100
AcDbSpline
 62
7
  6
CONTINUOUS
 70
0
 71
3
 72
29
 73
25
 74
0
 42
0.0000001
 43
0.0000001
 44
0.0000000001
 40
0.0
 40
0.0
 40
0.0
 40
0.0
 40
0.0749503488
 40
0.1455452737
 40
0.2121261891
 40
0.2751192851
 40
0.3350448404
 40
0.3640583593
 40
0.3925449884
 40
0.4205963601
 40
0.4483089338
 40
0.4757832092
 40
0.5031225081
 40
0.530431847
 40
0.5578166247
 40
0.5853812653
 40
0.6132280351
 40
0.6414557868
 40
0.6701590145
 40
0.7293218109
 40
0.7913860629
 40
0.8569001023
 40
0.9263189548
 40
1.0
 40
1.0
 40
1.0
 40
1.0
 10
11.2957022941
 20
9.9629304146
 30
0.0
 10
11.2938744288
 20
9.964631436
 30
0.0
 10
11.2904262805
 20
9.9680465341
 30
0.0
 10
11.2857736067
 20
9.9733744517
 30
0.0
 10
11.2818061091
 20
9.9787447552
 30
0.0
 10
11.2785298109
 20
9.9841521097
 30
0.0
 10
11.2763566951
 20
9.9887352505
 30
0.0
 10
11.2749855171
 20
9.9924010028
 30
0.0
 10
11.274143278
 20
9.9951255877
 30
0.0
 10
11.2734767011
 20
9.9978538094
 30
0.0
 10
11.2729860612
 20
10.0005849161
 30
0.0
 10
11.2726715306
 20
10.0033180265
 30
0.0
 10
11.2725332542
 20
10.0060522782
 30
0.0
 10
11.2725713514
 20
10.0087867837
 30
0.0
 10
11.2727857506
 20
10.0115206493
 30
0.0
 10
11.2731763471
 20
10.0142530043
 30
0.0
 10
11.2737430084
 20
10.0169829554
 30
0.0
 10
11.2744855041
 20
10.0197097392
 30
0.0
 10
11.2757216371
 20
10.0233764688
 30
0.0
 10
11.2777258828
 20
10.02796369
 30
0.0
 10
11.2808048683
 20
10.033380841
 30
0.0
 10
11.2845766619
 20
10.0387623354
 30
0.0
 10
11.2890352287
 20
10.0441026102
 30
0.0
 10
11.2923589135
 20
10.0475266207
 30
0.0
 10
11.294124414
 20
10.0492319633
 30
0.0
  0
SPLINE
  5
374
100
AcDbEntity
  8
0
100
AcDbSpline
 62
7
  6
CONTINUOUS
 70
0
 71
3
 72
15
 73
11
 74
0
 42
0.0000001
 43
0.0000001
 44
0.0000000001
 40
0.0
 40
0.0
 40
0.0
 40
0.0
 40
0.1462013888
 40
0.2850350028
 40
0.4169986302
 40
0.542720502
 40
0.6629498546
 40
0.7785580727
 40
0.8905389312
 40
1.0
 40
1.0
 40
1.0
 40
1.0
 10
9.5728445071
 20
10.0787720056
 30
0.0
 10
9.5715341671
 20
10.0775063143
 30
0.0
 10
9.5690479417
 20
10.0749662356
 30
0.0
 10
9.5656552615
 20
10.0710255169
 30
0.0
 10
9.5627020262
 20
10.0670584989
 30
0.0
 10
9.5601913056
 20
10.0630682147
 30
0.0
 10
9.5581259489
 20
10.059057353
 30
0.0
 10
9.5565085922
 20
10.055028799
 30
0.0
 10
9.5553421537
 20
10.0509866246
 30
0.0
 10
9.5548626621
 20
10.0482626885
 30
0.0
 10
9.5547012371
 20
10.0469082895
 30
0.0
  0
SPLINE
  5
375
100
AcDbEntity
  8
0
100
AcDbSpline
 62
7
  6
CONTINUOUS
 70
0
 71
3
 72
42
 73
38
 74
0
 42
0.0000001
 43
0.0000001
 44
0.0000000001
 40
0.0
 40
0.0
 40
0.0
 40
0.0
 40
0.0311444347
 40
0.0467772112
 40
0.0624471461
 40
0.093891844
 40
0.1254739796
 40
0.1571813629
 40
0.1889992234
 40
0.2209106216
 40
0.2528967716
 40
0.2849374315
 40
0.3170113014
 40
0.34909644
 40
0.3811706886
 40
0.4132120984
 40
0.4451993552
 40
0.4771121951
 40
0.5089318057
 40
0.5406412074
 40
0.572225607
 40
0.6036727182
 40
0.6349730419
 40
0.6661200987
 40
0.6971106068
 40
0.7279445994
 40
0.7586254742
 40
0.7891599701
 40
0.8195580671
 40
0.8498328085
 40
0.864931571
 40
0.8800056544
 40
0.910083706
 40
0.9400929707
 40
0.9550814956
 40
0.9700611828
 40
1.0
 40
1.0
 40
1.0
 40
1.0
 10
8.934404477
 20
7.1595382462
 30
0.0
 10
8.9296163155
 20
7.1598703063
 30
0.0
 10
8.9224394843
 20
7.160631725
 30
0.0
 10
8.9129367219
 20
7.1621618656
 30
0.0
 10
8.9034490457
 20
7.1640404086
 30
0.0
 10
8.8916844913
 20
7.1670321603
 30
0.0
 10
8.8778136194
 20
7.1716242622
 30
0.0
 10
8.8642449547
 20
7.1771982914
 30
0.0
 10
8.8510512513
 20
7.1837243537
 30
0.0
 10
8.8383026939
 20
7.1911675928
 30
0.0
 10
8.8260672419
 20
7.1994882622
 30
0.0
 10
8.8144100785
 20
7.2086419638
 30
0.0
 10
8.8033933205
 20
7.2185798767
 30
0.0
 10
8.7930756758
 20
7.2292490167
 30
0.0
 10
8.7835121387
 20
7.2405925162
 30
0.0
 10
8.774753698
 20
7.2525499241
 30
0.0
 10
8.7668470678
 20
7.2650575247
 30
0.0
 10
8.7598344408
 20
7.2780486734
 30
0.0
 10
8.7537532643
 20
7.291454148
 30
0.0
 10
8.7486360418
 20
7.3052025126
 30
0.0
 10
8.7445101586
 20
7.3192204936
 30
0.0
 10
8.7413977357
 20
7.333433365
 30
0.0
 10
8.7393155089
 20
7.3477653409
 30
0.0
 10
8.7382747363
 20
7.3621399757
 30
0.0
 10
8.7382811317
 20
7.3764805624
 30
0.0
 10
8.7393348351
 20
7.3907105529
 30
0.0
 10
8.7414303759
 20
7.4047539077
 30
0.0
 10
8.7445567973
 20
7.4185357059
 30
0.0
 10
8.7486973201
 20
7.4319817854
 30
0.0
 10
8.7529793054
 20
7.4428588691
 30
0.0
 10
8.756886824
 20
7.4513174848
 30
0.0
 10
8.7611037972
 20
7.4595921753
 30
0.0
 10
8.7669588107
 20
7.4696008447
 30
0.0
 10
8.773566869
 20
7.4791131783
 30
0.0
 10
8.7792771996
 20
7.4863841636
 30
0.0
 10
8.7852599263
 20
7.493417825
 30
0.0
 10
8.7900531489
 20
7.4984251728
 30
0.0
 10
8.7933717019
 20
7.5016306294
 30
0.0
  0
SPLINE
  5
376
100
AcDbEntity
  8
0
100
AcDbSpline
 62
7
  6
CONTINUOUS
 70
0
 71
3
 72
21
 73
17
 74
0
 42
0.0000001
 43
0.0000001
 44
0.0000000001
 40
0.0
 40
0.0
 40
0.0
 40
0.0
 40
0.06165322
 40
0.1233294719
 40
0.1850515326
 40
0.2468416528
 40
0.308721334
 40
0.3707110997
 40
0.4328302469
 40
0.4950966389
 40
0.5575265783
 40
0.620134583
 40
0.6829331586
 40
0.745933179
 40
0.8725262751
 40
1.0
 40
1.0
 40
1.0
 40
1.0
 10
9.0754372522
 20
7.2096117717
 30
0.0
 10
9.0731591836
 20
7.2074113398
 30
0.0
 10
9.0684828084
 20
7.2031313532
 30
0.0
 10
9.0611319689
 20
7.1970963637
 30
0.0
 10
9.0534619133
 20
7.1914602973
 30
0.0
 10
9.0454922404
 20
7.1862375958
 30
0.0
 10
9.0372429881
 20
7.1814413047
 30
0.0
 10
9.028734954
 20
7.1770835253
 30
0.0
 10
9.0199895551
 20
7.1731752537
 30
0.0
 10
9.0110288564
 20
7.1697262709
 30
0.0
 10
9.0018754121
 20
7.1667452365
 30
0.0
 10
8.9925523389
 20
7.1642396881
 30
0.0
 10
8.983082858
 20
7.1622158642
 30
0.0
 10
8.9702754671
 20
7.1601634302
 30
0.0
 10
8.9540121233
 20
7.1588300191
 30
0.0
 10
8.9409373759
 20
7.1590851881
 30
0.0
 10
8.934404477
 20
7.1595382462
 30
0.0
  0
SPLINE
  5
377
100
AcDbEntity
  8
0
100
AcDbSpline
 62
7
  6
CONTINUOUS
 70
0
 71
3
 72
21
 73
17
 74
0
 42
0.0000001
 43
0.0000001
 44
0.0000000001
 40
0.0
 40
0.0
 40
0.0
 40
0.0
 40
0.06165322
 40
0.1233294719
 40
0.1850515326
 40
0.2468416528
 40
0.308721334
 40
0.3707110997
 40
0.4328302469
 40
0.4950966389
 40
0.5575265783
 40
0.620134583
 40
0.6829331586
 40
0.745933179
 40
0.8725262751
 40
1.0
 40
1.0
 40
1.0
 40
1.0
 10
12.8184000509
 20
6.95003642
 30
0.0
 10
12.8161219822
 20
6.9478359881
 30
0.0
 10
12.8114456071
 20
6.9435560015
 30
0.0
 10
12.8040947676
 20
6.937521012
 30
0.0
 10
12.796424712
 20
6.9318849456
 30
0.0
 10
12.788455039
 20
6.926662244
 30
0.0
 10
12.7802057868
 20
6.9218659529
 30
0.0
 10
12.7716977526
 20
6.9175081736
 30
0.0
 10
12.7629523538
 20
6.913599902
 30
0.0
 10
12.7539916551
 20
6.9101509191
 30
0.0
 10
12.7448382108
 20
6.9071698848
 30
0.0
 10
12.7355151376
 20
6.9046643364
 30
0.0
 10
12.7260456566
 20
6.9026405125
 30
0.0
 10
12.7132382658
 20
6.9005880785
 30
0.0
 10
12.696974922
 20
6.8992546674
 30
0.0
 10
12.6839001746
 20
6.8995098364
 30
0.0
 10
12.6773672757
 20
6.8999628945
 30
0.0
  0
SPLINE
  5
378
100
AcDbEntity
  8
0
100
AcDbSpline
 62
7
  6
CONTINUOUS
 70
0
 71
3
 72
54
 73
50
 74
0
 42
0.0000001
 43
0.0000001
 44
0.0000000001
 40
0.0
 40
0.0
 40
0.0
 40
0.0
 40
0.0095825955
 40
0.018737162
 40
0.0274870374
 40
0.035859818
 40
0.0515982472
 40
0.0590560757
 40
0.0662988628
 40
0.0733800836
 40
0.0803573857
 40
0.0872912255
 40
0.0942433107
 40
0.1012748129
 40
0.1084447169
 40
0.115808315
 40
0.1234162913
 40
0.1313140429
 40
0.139541509
 40
0.1481333669
 40
0.1571191476
 40
0.1665239273
 40
0.1763685451
 40
0.1866702341
 40
0.19744306
 40
0.2086981551
 40
0.2204443654
 40
0.2326882167
 40
0.2454344592
 40
0.2586861594
 40
0.2724448339
 40
0.2867108433
 40
0.3014831886
 40
0.3325367943
 40
0.3655807121
 40
0.4005754353
 40
0.4374706198
 40
0.4762065606
 40
0.5167153328
 40
0.5589217154
 40
0.6027439936
 40
0.6480946089
 40
0.6948807403
 40
0.7430047938
 40
0.7923648178
 40
0.8428552408
 40
0.8943660896
 40
0.9467869008
 40
1.0
 40
1.0
 40
1.0
 40
1.0
 10
13.355495197
 20
8.8738041178
 30
0.0
 10
13.3563797237
 20
8.8746273376
 30
0.0
 10
13.3581479832
 20
8.8761962122
 30
0.0
 10
13.3608609792
 20
8.8783559467
 30
0.0
 10
13.3635714781
 20
8.8802659566
 30
0.0
 10
13.3671056886
 20
8.8824323943
 30
0.0
 10
13.3707112424
 20
8.8841623281
 30
0.0
 10
13.3743551621
 20
8.8853808252
 30
0.0
 10
13.3770295624
 20
8.8860229434
 30
0.0
 10
13.3796917603
 20
8.8864083006
 30
0.0
 10
13.3823398661
 20
8.8865364212
 30
0.0
 10
13.3849716759
 20
8.8864069101
 30
0.0
 10
13.3875849585
 20
8.8860198285
 30
0.0
 10
13.3901775634
 20
8.8853757212
 30
0.0
 10
13.3927474567
 20
8.88447529
 30
0.0
 10
13.3952928944
 20
8.8833197086
 30
0.0
 10
13.3978122751
 20
8.881910103
 30
0.0
 10
13.4003042112
 20
8.8802477906
 30
0.0
 10
13.4027674404
 20
8.8783341178
 30
0.0
 10
13.405200684
 20
8.8761703955
 30
0.0
 10
13.4076028089
 20
8.8737581145
 30
0.0
 10
13.4099725413
 20
8.871098708
 30
0.0
 10
13.4123087059
 20
8.8681938062
 30
0.0
 10
13.4146100634
 20
8.8650451042
 30
0.0
 10
13.4168753357
 20
8.8616544171
 30
0.0
 10
13.4191033321
 20
8.8580237419
 30
0.0
 10
13.4212927289
 20
8.8541551504
 30
0.0
 10
13.4234423366
 20
8.850050919
 30
0.0
 10
13.4255508854
 20
8.8457134266
 30
0.0
 10
13.4276171447
 20
8.8411452084
 30
0.0
 10
13.429639936
 20
8.8363489539
 30
0.0
 10
13.4316180402
 20
8.8313274576
 30
0.0
 10
13.4342381202
 20
8.8242168777
 30
0.0
 10
13.4373814619
 20
8.8147784813
 30
0.0
 10
13.4408973938
 20
8.8027856952
 30
0.0
 10
13.4442089719
 20
8.7899728021
 30
0.0
 10
13.4473082621
 20
8.7763700813
 30
0.0
 10
13.4501877952
 20
8.7620095208
 30
0.0
 10
13.4528406288
 20
8.7469250685
 30
0.0
 10
13.4552603668
 20
8.7311524317
 30
0.0
 10
13.4574411711
 20
8.7147290038
 30
0.0
 10
13.4593777794
 20
8.6976937529
 30
0.0
 10
13.4610655169
 20
8.6800871255
 30
0.0
 10
13.4625003047
 20
8.6619509524
 30
0.0
 10
13.4636786866
 20
8.6433283152
 30
0.0
 10
13.4645977988
 20
8.624263561
 30
0.0
 10
13.4652554563
 20
8.6048018475
 30
0.0
 10
13.4656500055
 20
8.5849896999
 30
0.0
 10
13.4657364386
 20
8.5716693979
 30
0.0
 10
13.4657364386
 20
8.5649593835
 30
0.0
  0
SPLINE
  5
379
100
AcDbEntity
  8
0
100
AcDbSpline
 62
7
  6
CONTINUOUS
 70
0
 71
3
 72
13
 73
9
 74
0
 42
0.0000001
 43
0.0000001
 44
0.0000000001
 40
0.0
 40
0.0
 40
0.0
 40
0.0
 40
0.2511614231
 40
0.5013874706
 40
0.626325836
 40
0.7510785303
 40
0.8756396961
 40
1.0
 40
1.0
 40
1.0
 40
1.0
 10
10.9003925025
 20
8.5631317184
 30
0.0
 10
10.8969612095
 20
8.5598168786
 30
0.0
 10
10.889514178
 20
8.5537909869
 30
0.0
 10
10.8790643502
 20
8.5479758536
 30
0.0
 10
10.8702269113
 20
8.5444722931
 30
0.0
 10
10.8634039102
 20
8.5424410529
 30
0.0
 10
10.8564379692
 20
8.5410308911
 30
0.0
 10
10.8517292581
 20
8.5405192028
 30
0.0
 10
10.8493714163
 20
8.5403742837
 30
0.0
  0
SPLINE
  5
37A
100
AcDbEntity
  8
0
100
AcDbSpline
 62
7
  6
CONTINUOUS
 70
0
 71
3
 72
42
 73
38
 74
0
 42
0.0000001
 43
0.0000001
 44
0.0000000001
 40
0.0
 40
0.0
 40
0.0
 40
0.0
 40
0.0311444347
 40
0.0467772112
 40
0.0624471461
 40
0.093891844
 40
0.1254739796
 40
0.1571813629
 40
0.1889992234
 40
0.2209106216
 40
0.2528967716
 40
0.2849374315
 40
0.3170113014
 40
0.34909644
 40
0.3811706886
 40
0.4132120984
 40
0.4451993552
 40
0.4771121951
 40
0.5089318057
 40
0.5406412074
 40
0.572225607
 40
0.6036727182
 40
0.6349730419
 40
0.6661200987
 40
0.6971106068
 40
0.7279445994
 40
0.7586254742
 40
0.7891599701
 40
0.8195580671
 40
0.8498328085
 40
0.864931571
 40
0.8800056544
 40
0.910083706
 40
0.9400929707
 40
0.9550814956
 40
0.9700611828
 40
1.0
 40
1.0
 40
1.0
 40
1.0
 10
12.6773672757
 20
6.8999628945
 30
0.0
 10
12.6725791142
 20
6.9002949546
 30
0.0
 10
12.665402283
 20
6.9010563733
 30
0.0
 10
12.6558995206
 20
6.9025865139
 30
0.0
 10
12.6464118444
 20
6.9044650569
 30
0.0
 10
12.6346472899
 20
6.9074568085
 30
0.0
 10
12.620776418
 20
6.9120489105
 30
0.0
 10
12.6072077534
 20
6.9176229397
 30
0.0
 10
12.59401405
 20
6.924149002
 30
0.0
 10
12.5812654926
 20
6.9315922411
 30
0.0
 10
12.5690300406
 20
6.9399129105
 30
0.0
 10
12.5573728772
 20
6.9490666121
 30
0.0
 10
12.5463561191
 20
6.9590045249
 30
0.0
 10
12.5360384745
 20
6.969673665
 30
0.0
 10
12.5264749374
 20
6.9810171645
 30
0.0
 10
12.5177164966
 20
6.9929745724
 30
0.0
 10
12.5098098664
 20
7.005482173
 30
0.0
 10
12.5027972394
 20
7.0184733217
 30
0.0
 10
12.496716063
 20
7.0318787963
 30
0.0
 10
12.4915988404
 20
7.0456271609
 30
0.0
 10
12.4874729573
 20
7.0596451419
 30
0.0
 10
12.4843605344
 20
7.0738580133
 30
0.0
 10
12.4822783075
 20
7.0881899892
 30
0.0
 10
12.4812375349
 20
7.102564624
 30
0.0
 10
12.4812439304
 20
7.1169052107
 30
0.0
 10
12.4822976337
 20
7.1311352011
 30
0.0
 10
12.4843931745
 20
7.1451785559
 30
0.0
 10
12.4875195959
 20
7.1589603542
 30
0.0
 10
12.4916601188
 20
7.1724064337
 30
0.0
 10
12.495942104
 20
7.1832835174
 30
0.0
 10
12.4998496227
 20
7.191742133
 30
0.0
 10
12.5040665958
 20
7.2000168236
 30
0.0
 10
12.5099216093
 20
7.2100254929
 30
0.0
 10
12.5165296676
 20
7.2195378266
 30
0.0
 10
12.5222399982
 20
7.2268088119
 30
0.0
 10
12.5282227249
 20
7.2338424733
 30
0.0
 10
12.5330159475
 20
7.2388498211
 30
0.0
 10
12.5363345005
 20
7.2420552776
 30
0.0
  0
SPLINE
  5
37B
100
AcDbEntity
  8
0
100
AcDbSpline
 62
7
  6
CONTINUOUS
 70
0
 71
3
 72
42
 73
38
 74
0
 42
0.0000001
 43
0.0000001
 44
0.0000000001
 40
0.0
 40
0.0
 40
0.0
 40
0.0
 40
0.0311444313
 40
0.0467772059
 40
0.0624471389
 40
0.0938918327
 40
0.1254739639
 40
0.1571813426
 40
0.1889991985
 40
0.220910592
 40
0.2528967375
 40
0.2849373932
 40
0.3170112593
 40
0.3490963946
 40
0.3811706404
 40
0.4132120483
 40
0.445199304
 40
0.4771121436
 40
0.5089317548
 40
0.540641158
 40
0.5722255599
 40
0.6036726744
 40
0.6349730021
 40
0.6661200634
 40
0.6971105766
 40
0.7279445747
 40
0.758625455
 40
0.7891599562
 40
0.8195580583
 40
0.849832804
 40
0.8649315684
 40
0.8800056535
 40
0.9100837076
 40
0.9400929733
 40
0.9550814982
 40
0.970061185
 40
1.0
 40
1.0
 40
1.0
 40
1.0
 10
10.8242273037
 20
8.2466470133
 30
0.0
 10
10.8192504584
 20
8.2469921587
 30
0.0
 10
10.8117908147
 20
8.2477835814
 30
0.0
 10
10.8019135832
 20
8.249374017
 30
0.0
 10
10.7920520323
 20
8.2513265834
 30
0.0
 10
10.7798238791
 20
8.2544362235
 30
0.0
 10
10.7654064049
 20
8.2592092744
 30
0.0
 10
10.7513030453
 20
8.2650029444
 30
0.0
 10
10.7375894209
 20
8.2717861616
 30
0.0
 10
10.7243384819
 20
8.2795226964
 30
0.0
 10
10.7116208654
 20
8.2881712364
 30
0.0
 10
10.6995043229
 20
8.2976856341
 30
0.0
 10
10.6880534188
 20
8.3080151451
 30
0.0
 10
10.6773291743
 20
8.3191046978
 30
0.0
 10
10.6673887506
 20
8.3308951839
 30
0.0
 10
10.6582851455
 20
8.3433237706
 30
0.0
 10
10.6500669141
 20
8.3563242318
 30
0.0
 10
10.6427779115
 20
8.3698272972
 30
0.0
 10
10.6364570608
 20
8.3837610172
 30
0.0
 10
10.6311381462
 20
8.3980511413
 30
0.0
 10
10.6268496324
 20
8.4126215089
 30
0.0
 10
10.6236145122
 20
8.4273944497
 30
0.0
 10
10.6214501809
 20
8.4422911919
 30
0.0
 10
10.6203683407
 20
8.4572322778
 30
0.0
 10
10.6203749307
 20
8.4721379781
 30
0.0
 10
10.6214700966
 20
8.4869287286
 30
0.0
 10
10.6236481528
 20
8.5015254937
 30
0.0
 10
10.626897711
 20
8.5158504004
 30
0.0
 10
10.6312013312
 20
8.5298263645
 30
0.0
 10
10.6356519985
 20
8.541132099
 30
0.0
 10
10.6397134538
 20
8.5499240605
 30
0.0
 10
10.6440965579
 20
8.5585248509
 30
0.0
 10
10.6501822405
 20
8.5689279598
 30
0.0
 10
10.6570506432
 20
8.5788151797
 30
0.0
 10
10.6629859537
 20
8.5863727231
 30
0.0
 10
10.6692043949
 20
8.5936835922
 30
0.0
 10
10.6741864694
 20
8.5988882916
 30
0.0
 10
10.6776357739
 20
8.6022200847
 30
0.0
  0
SPLINE
  5
37C
100
AcDbEntity
  8
0
100
AcDbSpline
 62
7
  6
CONTINUOUS
 70
0
 71
3
 72
37
 73
33
 74
0
 42
0.0000001
 43
0.0000001
 44
0.0000000001
 40
0.0
 40
0.0
 40
0.0
 40
0.0
 40
0.030823463
 40
0.0617683955
 40
0.0928289583
 40
0.1240020343
 40
0.1552807572
 40
0.1866577369
 40
0.2181241826
 40
0.2496702122
 40
0.2812849931
 40
0.3129568489
 40
0.3446734163
 40
0.3764217924
 40
0.4399378161
 40
0.5034197864
 40
0.535126016
 40
0.5667842818
 40
0.5983823865
 40
0.6299088574
 40
0.6613530882
 40
0.6927054771
 40
0.7239575583
 40
0.7551021148
 40
0.7861332787
 40
0.8170466174
 40
0.8478392093
 40
0.8785097042
 40
0.9090583562
 40
0.9394870374
 40
0.9697992301
 40
1.0
 40
1.0
 40
1.0
 40
1.0
 10
10.9601071902
 20
8.3778969127
 30
0.0
 10
10.9561975421
 20
8.3781680477
 30
0.0
 10
10.9483766095
 20
8.378936017
 30
0.0
 10
10.9367087676
 20
8.3807543162
 30
0.0
 10
10.9251179143
 20
8.3832355316
 30
0.0
 10
10.9136429065
 20
8.3863711749
 30
0.0
 10
10.9023213033
 20
8.3901510381
 30
0.0
 10
10.8911905043
 20
8.39456257
 30
0.0
 10
10.8802871577
 20
8.3995912077
 30
0.0
 10
10.8696471934
 20
8.4052203336
 30
0.0
 10
10.8593056418
 20
8.4114313927
 30
0.0
 10
10.8492966511
 20
8.4182038249
 30
0.0
 10
10.8396529198
 20
8.4255156097
 30
0.0
 10
10.8273249033
 20
8.4359505798
 30
0.0
 10
10.8129872111
 20
8.4502151797
 30
0.0
 10
10.8002612167
 20
8.465927755
 30
0.0
 10
10.7911490795
 20
8.4792426581
 30
0.0
 10
10.784873356
 20
8.4895646825
 30
0.0
 10
10.7791756274
 20
8.500190416
 30
0.0
 10
10.7740744256
 20
8.5110851668
 30
0.0
 10
10.7695866732
 20
8.5222129629
 30
0.0
 10
10.7657271709
 20
8.5335371594
 30
0.0
 10
10.7625086637
 20
8.5450204305
 30
0.0
 10
10.7599417943
 20
8.5566249351
 30
0.0
 10
10.7580350687
 20
8.5683124263
 30
0.0
 10
10.7567948339
 20
8.5800443793
 30
0.0
 10
10.7562252306
 20
8.591782108
 30
0.0
 10
10.7563281747
 20
8.6034869133
 30
0.0
 10
10.7571033644
 20
8.6151201507
 30
0.0
 10
10.7585483411
 20
8.626643579
 30
0.0
 10
10.7606582463
 20
8.6380186509
 30
0.0
 10
10.7625071958
 20
8.6454925875
 30
0.0
 10
10.7635400125
 20
8.6491909471
 30
0.0
  0
SPLINE
  5
37D
100
AcDbEntity
  8
0
100
AcDbSpline
 62
7
  6
CONTINUOUS
 70
0
 71
3
 72
39
 73
35
 74
0
 42
0.0000001
 43
0.0000001
 44
0.0000000001
 40
0.0
 40
0.0
 40
0.0
 40
0.0
 40
0.0313949349
 40
0.0627566116
 40
0.094076284
 40
0.125356068
 40
0.1565939035
 40
0.1877883436
 40
0.2189388457
 40
0.2500448565
 40
0.281106679
 40
0.312126191
 40
0.3431063758
 40
0.3740508114
 40
0.4049646602
 40
0.4358546928
 40
0.4667296431
 40
0.4975998857
 40
0.5284762319
 40
0.5593712297
 40
0.5902983675
 40
0.6212716766
 40
0.6523050968
 40
0.6834117659
 40
0.7146038353
 40
0.745891667
 40
0.7772833041
 40
0.8087843141
 40
0.8403972872
 40
0.8721214384
 40
0.9039525648
 40
0.9358832077
 40
0.9679033587
 40
1.0
 40
1.0
 40
1.0
 40
1.0
 10
10.8493714163
 20
8.5403742837
 30
0.0
 10
10.8478307117
 20
8.5402795879
 30
0.0
 10
10.8447442656
 20
8.5401846478
 30
0.0
 10
10.840118163
 20
8.540330703
 30
0.0
 10
10.8355159859
 20
8.5407693676
 30
0.0
 10
10.8309577054
 20
8.541503481
 30
0.0
 10
10.826463552
 20
8.542534943
 30
0.0
 10
10.8220548476
 20
8.5438643399
 30
0.0
 10
10.8177536575
 20
8.5454908185
 30
0.0
 10
10.8135827701
 20
8.547411974
 30
0.0
 10
10.8095654911
 20
8.5496235237
 30
0.0
 10
10.8057255273
 20
8.552119313
 30
0.0
 10
10.8020867906
 20
8.5548910612
 30
0.0
 10
10.7986732031
 20
8.5579282399
 30
0.0
 10
10.7955083388
 20
8.5612178742
 30
0.0
 10
10.7926151034
 20
8.5647445647
 30
0.0
 10
10.7900154103
 20
8.5684904678
 30
0.0
 10
10.787729777
 20
8.5724352381
 30
0.0
 10
10.78577696
 20
8.5765561529
 30
0.0
 10
10.7841734858
 20
8.5808282402
 30
0.0
 10
10.7829332926
 20
8.5852246013
 30
0.0
 10
10.7820674149
 20
8.5897167012
 30
0.0
 10
10.7815836669
 20
8.5942747339
 30
0.0
 10
10.7814864656
 20
8.5988680739
 30
0.0
 10
10.7817766779
 20
8.603465749
 30
0.0
 10
10.7824515964
 20
8.6080369464
 30
0.0
 10
10.7835050238
 20
8.612551503
 30
0.0
 10
10.7849274658
 20
8.6169803622
 30
0.0
 10
10.7867063606
 20
8.6212959794
 30
0.0
 10
10.7888264136
 20
8.6254726524
 30
0.0
 10
10.7912699289
 20
8.6294867669
 30
0.0
 10
10.7940172921
 20
8.6333171258
 30
0.0
 10
10.7970470431
 20
8.6369447147
 30
0.0
 10
10.7992384622
 20
8.6392152603
 30
0.0
 10
10.8003734399
 20
8.6403117396
 30
0.0
  0
SPLINE
  5
37E
100
AcDbEntity
  8
0
100
AcDbSpline
 62
7
  6
CONTINUOUS
 70
0
 71
3
 72
63
 73
59
 74
0
 42
0.0000001
 43
0.0000001
 44
0.0000000001
 40
0.0
 40
0.0
 40
0.0
 40
0.0
 40
0.0156756347
 40
0.0314044409
 40
0.047183856
 40
0.0630132003
 40
0.078890152
 40
0.0948122402
 40
0.1107765924
 40
0.1267799109
 40
0.1588799654
 40
0.1910885168
 40
0.2233690933
 40
0.2556827025
 40
0.2879892036
 40
0.3202487034
 40
0.3524229442
 40
0.3844766597
 40
0.4004528187
 40
0.416387651
 40
0.4322781425
 40
0.4481216813
 40
0.4639160841
 40
0.4796596248
 40
0.4953510546
 40
0.510989615
 40
0.5265750487
 40
0.5421076132
 40
0.5575880814
 40
0.5730177369
 40
0.5883983652
 40
0.6037322458
 40
0.6190221329
 40
0.6342712282
 40
0.6494831517
 40
0.6646619109
 40
0.6798118613
 40
0.6949376607
 40
0.7100442204
 40
0.725136657
 40
0.740220239
 40
0.7553003294
 40
0.7703823268
 40
0.7854716094
 40
0.8005734791
 40
0.815693104
 40
0.8308354619
 40
0.8460052887
 40
0.861207033
 40
0.8764448095
 40
0.8917223568
 40
0.9070430063
 40
0.9224096287
 40
0.937824673
 40
0.9532900932
 40
0.9688070473
 40
0.9843773647
 40
1.0
 40
1.0
 40
1.0
 40
1.0
 10
10.8063688043
 20
8.1627481405
 30
0.0
 10
10.8019364783
 20
8.1630555234
 30
0.0
 10
10.7930703715
 20
8.1638887933
 30
0.0
 10
10.7798271004
 20
8.1657851394
 30
0.0
 10
10.7666475463
 20
8.1683257763
 30
0.0
 10
10.7535640641
 20
8.1715043059
 30
0.0
 10
10.7406078615
 20
8.1753132311
 30
0.0
 10
10.727810297
 20
8.1797432362
 30
0.0
 10
10.7152018293
 20
8.1847838161
 30
0.0
 10
10.6986694519
 20
8.1923085076
 30
0.0
 10
10.6786300524
 20
8.2031806153
 30
0.0
 10
10.655843778
 20
8.2184228888
 30
0.0
 10
10.6345051011
 20
8.2357311893
 30
0.0
 10
10.6148201065
 20
8.2549384953
 30
0.0
 10
10.5969774734
 20
8.275860562
 30
0.0
 10
10.5811484059
 20
8.2982968776
 30
0.0
 10
10.56748569
 20
8.3220307757
 30
0.0
 10
10.558001933
 20
8.3427299003
 30
0.0
 10
10.551623122
 20
8.3597061341
 30
0.0
 10
10.5474568616
 20
8.3726036174
 30
0.0
 10
10.5439143032
 20
8.3856469593
 30
0.0
 10
10.5410038367
 20
8.3988050997
 30
0.0
 10
10.5387325699
 20
8.4120462747
 30
0.0
 10
10.537105959
 20
8.42533862
 30
0.0
 10
10.5361279435
 20
8.4386501216
 30
0.0
 10
10.5358009178
 20
8.4519487245
 30
0.0
 10
10.5361257306
 20
8.4652023953
 30
0.0
 10
10.5371016026
 20
8.478379205
 30
0.0
 10
10.5387262058
 20
8.4914474083
 30
0.0
 10
10.5409956686
 20
8.5043755141
 30
0.0
 10
10.5439045834
 20
8.5171323564
 30
0.0
 10
10.5474459424
 20
8.529687189
 30
0.0
 10
10.5516112311
 20
8.5420097473
 30
0.0
 10
10.5563904474
 20
8.5540703161
 30
0.0
 10
10.5617721226
 20
8.5658397961
 30
0.0
 10
10.5677432772
 20
8.5772898103
 30
0.0
 10
10.5742895254
 20
8.5883927451
 30
0.0
 10
10.5813951077
 20
8.5991218115
 30
0.0
 10
10.5890429257
 20
8.6094511068
 30
0.0
 10
10.5972145192
 20
8.6193557271
 30
0.0
 10
10.605890179
 20
8.6288117849
 30
0.0
 10
10.6150489916
 20
8.6377964632
 30
0.0
 10
10.6246688854
 20
8.6462880673
 30
0.0
 10
10.6347266331
 20
8.6542661389
 30
0.0
 10
10.645197966
 20
8.6617114504
 30
0.0
 10
10.6560576288
 20
8.668606047
 30
0.0
 10
10.6672794372
 20
8.6749332876
 30
0.0
 10
10.6788363029
 20
8.6806779558
 30
0.0
 10
10.6907003451
 20
8.6858262286
 30
0.0
 10
10.7028429537
 20
8.6903657075
 30
0.0
 10
10.7152348539
 20
8.6942854473
 30
0.0
 10
10.7278461522
 20
8.6975760495
 30
0.0
 10
10.7406464415
 20
8.7002296329
 30
0.0
 10
10.7536048885
 20
8.7022398188
 30
0.0
 10
10.7666901711
 20
8.7036017376
 30
0.0
 10
10.7798710415
 20
8.704312273
 30
0.0
 10
10.7931151043
 20
8.7043695809
 30
0.0
 10
10.801951464
 20
8.7039729789
 30
0.0
 10
10.8063688043
 20
8.7036666353
 30
0.0
  0
SPLINE
  5
37F
100
AcDbEntity
  8
0
100
AcDbSpline
 62
7
  6
CONTINUOUS
 70
0
 71
3
 72
43
 73
39
 74
0
 42
0.0000001
 43
0.0000001
 44
0.0000000001
 40
0.0
 40
0.0
 40
0.0
 40
0.0
 40
0.0795669096
 40
0.1604560433
 40
0.2418194316
 40
0.2824125974
 40
0.3228038379
 40
0.3628871842
 40
0.4025576996
 40
0.4417118431
 40
0.4802478275
 40
0.5180659881
 40
0.5550691621
 40
0.5911630836
 40
0.626256775
 40
0.6602629646
 40
0.6930985322
 40
0.7246849953
 40
0.7549490546
 40
0.7838232326
 40
0.8112465947
 40
0.8371656324
 40
0.861535379
 40
0.8731284883
 40
0.8843221272
 40
0.8951137502
 40
0.9055018604
 40
0.9154858077
 40
0.9250662175
 40
0.934244908
 40
0.9430251665
 40
0.9514120108
 40
0.9594122508
 40
0.9670350648
 40
0.9742920456
 40
0.9811978458
 40
0.9877704847
 40
1.0
 40
1.0
 40
1.0
 40
1.0
 10
13.3695939785
 20
8.5505928927
 30
0.0
 10
13.3695939785
 20
8.5384619
 30
0.0
 10
13.3692437907
 20
8.513997096
 30
0.0
 10
13.3677194852
 20
8.4771561422
 30
0.0
 10
13.3656240987
 20
8.4462967874
 30
0.0
 10
13.3634571205
 20
8.4216392384
 30
0.0
 10
13.3615957001
 20
8.4032744225
 30
0.0
 10
13.3595022648
 20
8.3850762193
 30
0.0
 10
13.3571826674
 20
8.3670955891
 30
0.0
 10
13.3546434378
 20
8.3493829327
 30
0.0
 10
13.3518917152
 20
8.3319878816
 30
0.0
 10
13.3489352418
 20
8.3149591757
 30
0.0
 10
13.345782339
 20
8.2983445181
 30
0.0
 10
13.3424418888
 20
8.2821904389
 30
0.0
 10
13.3389233038
 20
8.2665421626
 30
0.0
 10
13.335236502
 20
8.2514434796
 30
0.0
 10
13.3313918795
 20
8.2369366191
 30
0.0
 10
13.3274002809
 20
8.223062126
 30
0.0
 10
13.3232729664
 20
8.2098587285
 30
0.0
 10
13.319021584
 20
8.1973632393
 30
0.0
 10
13.3146581257
 20
8.1856103488
 30
0.0
 10
13.3101948805
 20
8.1746328102
 30
0.0
 10
13.3063413596
 20
8.1660183518
 30
0.0
 10
13.3032102047
 20
8.1595458895
 30
0.0
 10
13.3008838651
 20
8.1549850562
 30
0.0
 10
13.2985419716
 20
8.1506397758
 30
0.0
 10
13.2961861884
 20
8.1465130349
 30
0.0
 10
13.2938180963
 20
8.142607713
 30
0.0
 10
13.2914393736
 20
8.1389264869
 30
0.0
 10
13.2890516356
 20
8.1354718947
 30
0.0
 10
13.2866564929
 20
8.1322463177
 30
0.0
 10
13.2842556009
 20
8.1292519312
 30
0.0
 10
13.2818504979
 20
8.1264908319
 30
0.0
 10
13.2794427845
 20
8.1239648288
 30
0.0
 10
13.2770340729
 20
8.1216757956
 30
0.0
 10
13.2746254234
 20
8.1196249827
 30
0.0
 10
13.2714926361
 20
8.1172677529
 30
0.0
 10
13.2690339209
 20
8.115767955
 30
0.0
 10
13.2673667192
 20
8.1149331076
 30
0.0
  0
SPLINE
  5
380
100
AcDbEntity
  8
0
100
AcDbSpline
 62
7
  6
CONTINUOUS
 70
0
 71
3
 72
29
 73
25
 74
0
 42
0.0000001
 43
0.0000001
 44
0.0000000001
 40
0.0
 40
0.0
 40
0.0
 40
0.0
 40
0.0749503488
 40
0.1455452737
 40
0.2121261891
 40
0.2751192851
 40
0.3350448404
 40
0.3640583593
 40
0.3925449884
 40
0.4205963601
 40
0.4483089338
 40
0.4757832092
 40
0.5031225081
 40
0.530431847
 40
0.5578166247
 40
0.5853812653
 40
0.6132280351
 40
0.6414557868
 40
0.6701590145
 40
0.7293218109
 40
0.7913860629
 40
0.8569001023
 40
0.9263189548
 40
1.0
 40
1.0
 40
1.0
 40
1.0
 10
9.4845912625
 20
10.0885313912
 30
0.0
 10
9.4827633972
 20
10.0902324126
 30
0.0
 10
9.4793152489
 20
10.0936475107
 30
0.0
 10
9.4746625751
 20
10.0989754283
 30
0.0
 10
9.4706950775
 20
10.1043457318
 30
0.0
 10
9.4674187793
 20
10.1097530863
 30
0.0
 10
9.4652456635
 20
10.1143362271
 30
0.0
 10
9.4638744855
 20
10.1180019795
 30
0.0
 10
9.4630322464
 20
10.1207265644
 30
0.0
 10
9.4623656695
 20
10.123454786
 30
0.0
 10
9.4618750296
 20
10.1261858928
 30
0.0
 10
9.461560499
 20
10.1289190031
 30
0.0
 10
9.4614222226
 20
10.1316532549
 30
0.0
 10
9.4614603198
 20
10.1343877603
 30
0.0
 10
9.461674719
 20
10.137121626
 30
0.0
 10
9.4620653155
 20
10.1398539809
 30
0.0
 10
9.4626319768
 20
10.142583932
 30
0.0
 10
9.4633744725
 20
10.1453107159
 30
0.0
 10
9.4646106055
 20
10.1489774454
 30
0.0
 10
9.4666148511
 20
10.1535646666
 30
0.0
 10
9.4696938367
 20
10.1589818177
 30
0.0
 10
9.4734656303
 20
10.1643633121
 30
0.0
 10
9.4779241971
 20
10.1697035868
 30
0.0
 10
9.4812478819
 20
10.1731275973
 30
0.0
 10
9.4830133824
 20
10.17483294
 30
0.0
  0
SPLINE
  5
381
100
AcDbEntity
  8
0
100
AcDbSpline
 62
7
  6
CONTINUOUS
 70
0
 71
3
 72
82
 73
78
 74
0
 42
0.0000001
 43
0.0000001
 44
0.0000000001
 40
0.0
 40
0.0
 40
0.0
 40
0.0
 40
0.0039519233
 40
0.0080647395
 40
0.012342495
 40
0.0167886289
 40
0.0214060732
 40
0.026197185
 40
0.0311636264
 40
0.0363065606
 40
0.0416267229
 40
0.0471244157
 40
0.0527996369
 40
0.0586519991
 40
0.0708846929
 40
0.0838144675
 40
0.0974289457
 40
0.1117124918
 40
0.1266466061
 40
0.142210273
 40
0.1583802366
 40
0.175131224
 40
0.1924361227
 40
0.2102661481
 40
0.228591009
 40
0.2473790421
 40
0.2665973324
 40
0.2862118179
 40
0.3061874145
 40
0.3264881266
 40
0.3470771474
 40
0.3679169529
 40
0.4101950861
 40
0.4530126005
 40
0.4960535846
 40
0.5389999985
 40
0.5815346968
 40
0.6025499267
 40
0.6233452672
 40
0.6438826847
 40
0.6641247832
 40
0.6840349017
 40
0.7035772094
 40
0.7227168067
 40
0.7414198382
 40
0.7596536168
 40
0.7773867292
 40
0.7945891587
 40
0.8112324227
 40
0.8272897426
 40
0.8427362119
 40
0.8575489803
 40
0.8717074848
 40
0.8851937372
 40
0.8979926842
 40
0.910092616
 40
0.9158781207
 40
0.9214863113
 40
0.9269169182
 40
0.9321700684
 40
0.9372462095
 40
0.9421462506
 40
0.9468715666
 40
0.9514240184
 40
0.9558061123
 40
0.96002096
 40
0.9640724357
 40
0.9679652593
 40
0.9717050387
 40
0.9752984775
 40
0.9787533994
 40
0.9820789031
 40
0.9883814967
 40
0.9913875045
 40
0.9943148566
 40
0.9971798486
 40
1.0
 40
1.0
 40
1.0
 40
1.0
 10
11.3839555387
 20
9.953171029
 30
0.0
 10
11.3850133574
 20
9.9541928035
 30
0.0
 10
11.3872195683
 20
9.9562292297
 30
0.0
 10
11.3907204839
 20
9.9592044658
 30
0.0
 10
11.3944761018
 20
9.9621586652
 30
0.0
 10
11.3984844036
 20
9.9650902218
 30
0.0
 10
11.4027434315
 20
9.9679978286
 30
0.0
 10
11.4072511784
 20
9.9708800735
 30
0.0
 10
11.4120054384
 20
9.9737356311
 30
0.0
 10
11.4170038915
 20
9.9765630857
 30
0.0
 10
11.4222440944
 20
9.9793610238
 30
0.0
 10
11.4277234545
 20
9.982128123
 30
0.0
 10
11.4334393154
 20
9.9848629993
 30
0.0
 10
11.4414911887
 20
9.988518772
 30
0.0
 10
11.4521360155
 20
9.9929879661
 30
0.0
 10
11.4656239929
 20
9.9981253375
 30
0.0
 10
11.4799818583
 20
10.0031030668
 30
0.0
 10
11.4951813308
 20
10.0079112587
 30
0.0
 10
11.5111926217
 20
10.0125403623
 30
0.0
 10
11.5279842077
 20
10.0169811603
 30
0.0
 10
11.5455230037
 20
10.0212248025
 30
0.0
 10
11.5637744078
 20
10.0252628234
 30
0.0
 10
11.5827023759
 20
10.0290871719
 30
0.0
 10
11.6022694967
 20
10.0326902319
 30
0.0
 10
11.6224370793
 20
10.0360648231
 30
0.0
 10
11.6431652358
 20
10.0392042194
 30
0.0
 10
11.6644129561
 20
10.0421021597
 30
0.0
 10
11.6861381866
 20
10.0447528775
 30
0.0
 10
11.7082979232
 20
10.0471510998
 30
0.0
 10
11.7308482873
 20
10.0492920442
 30
0.0
 10
11.7537446706
 20
10.0511714727
 30
0.0
 10
11.7848218853
 20
10.0533338493
 30
0.0
 10
11.8241984512
 20
10.0553507134
 30
0.0
 10
11.8718705677
 20
10.0566721412
 30
0.0
 10
11.919809316
 20
10.0568953318
 30
0.0
 10
11.9676351244
 20
10.0560185148
 30
0.0
 10
12.007237693
 20
10.0543706499
 30
0.0
 10
12.0385718564
 20
10.0525011908
 30
0.0
 10
12.0617156058
 20
10.0508366756
 30
0.0
 10
12.0845500603
 20
10.048907566
 30
0.0
 10
12.1070300441
 20
10.0467176781
 30
0.0
 10
12.1291110422
 20
10.0442713827
 30
0.0
 10
12.1507493449
 20
10.0415735485
 30
0.0
 10
12.171902118
 20
10.0386295442
 30
0.0
 10
12.1925274985
 20
10.0354452289
 30
0.0
 10
12.2125846822
 20
10.0320269537
 30
0.0
 10
12.2320340018
 20
10.0283815313
 30
0.0
 10
12.2508370021
 20
10.0245162269
 30
0.0
 10
12.2689565231
 20
10.0204387375
 30
0.0
 10
12.2863567872
 20
10.0161571947
 30
0.0
 10
12.3030034729
 20
10.0116801387
 30
0.0
 10
12.318863789
 20
10.0070164908
 30
0.0
 10
12.3339065198
 20
10.0021755346
 30
0.0
 10
12.3481022026
 20
9.9971668833
 30
0.0
 10
12.3614228859
 20
9.9920004888
 30
0.0
 10
12.3719241982
 20
9.9875075848
 30
0.0
 10
12.379858625
 20
9.9838337137
 30
0.0
 10
12.3854854739
 20
9.9810865066
 30
0.0
 10
12.3908747902
 20
9.9783075867
 30
0.0
 10
12.3960239614
 20
9.9754983473
 30
0.0
 10
12.4009304446
 20
9.9726601195
 30
0.0
 10
12.405591848
 20
9.9697943028
 30
0.0
 10
12.4100059096
 20
9.9669023083
 30
0.0
 10
12.4141704465
 20
9.9639854725
 30
0.0
 10
12.4180834674
 20
9.9610452512
 30
0.0
 10
12.4217430446
 20
9.958082995
 30
0.0
 10
12.4251473908
 20
9.9551000869
 30
0.0
 10
12.4282948686
 20
9.9520979544
 30
0.0
 10
12.4311838817
 20
9.949077867
 30
0.0
 10
12.4338129697
 20
9.9460413513
 30
0.0
 10
12.4361809608
 20
9.9429893328
 30
0.0
 10
12.4389383337
 20
9.9389744337
 30
0.0
 10
12.4412399244
 20
9.9348549393
 30
0.0
 10
12.4430151125
 20
9.9306577277
 30
0.0
 10
12.4440589585
 20
9.9275505773
 30
0.0
 10
12.4448348045
 20
9.9244373047
 30
0.0
 10
12.4451750408
 20
9.9223461054
 30
0.0
 10
12.445299162
 20
9.9213039464
 30
0.0
  0
SPLINE
  5
382
100
AcDbEntity
  8
0
100
AcDbSpline
 62
4
  6
CONTINUOUS
 70
0
 71
3
 72
455
 73
451
 74
0
 42
0.0000001
 43
0.0000001
 44
0.0000000001
 40
0.0
 40
0.0
 40
0.0
 40
0.0
 40
0.015625
 40
0.0234375
 40
0.03125
 40
0.0390625
 40
0.04296875
 40
0.046875
 40
0.05078125
 40
0.052734375
 40
0.0546875
 40
0.056640625
 40
0.05859375
 40
0.0595703125
 40
0.060546875
 40
0.0615234375
 40
0.0620117188
 40
0.0622558594
 40
0.0625
 40
0.0627441406
 40
0.0629882812
 40
0.0634765625
 40
0.064453125
 40
0.0654296875
 40
0.06640625
 40
0.068359375
 40
0.0703125
 40
0.072265625
 40
0.07421875
 40
0.078125
 40
0.08203125
 40
0.0859375
 40
0.09375
 40
0.1015625
 40
0.10546875
 40
0.109375
 40
0.11328125
 40
0.115234375
 40
0.1171875
 40
0.119140625
 40
0.12109375
 40
0.1220703125
 40
0.123046875
 40
0.1240234375
 40
0.1245117188
 40
0.1247558594
 40
0.125
 40
0.1252441406
 40
0.1254882812
 40
0.1259765625
 40
0.126953125
 40
0.1279296875
 40
0.12890625
 40
0.130859375
 40
0.1328125
 40
0.134765625
 40
0.13671875
 40
0.140625
 40
0.14453125
 40
0.1484375
 40
0.15625
 40
0.1640625
 40
0.16796875
 40
0.171875
 40
0.17578125
 40
0.177734375
 40
0.1796875
 40
0.181640625
 40
0.18359375
 40
0.1845703125
 40
0.185546875
 40
0.1860351562
 40
0.1865234375
 40
0.1870117188
 40
0.1872558594
 40
0.1875
 40
0.1877441406
 40
0.1879882812
 40
0.1884765625
 40
0.1889648438
 40
0.189453125
 40
0.1904296875
 40
0.19140625
 40
0.193359375
 40
0.1953125
 40
0.197265625
 40
0.19921875
 40
0.203125
 40
0.20703125
 40
0.2109375
 40
0.21875
 40
0.2265625
 40
0.23046875
 40
0.234375
 40
0.23828125
 40
0.240234375
 40
0.2421875
 40
0.244140625
 40
0.24609375
 40
0.2470703125
 40
0.248046875
 40
0.2490234375
 40
0.2495117188
 40
0.2497558594
 40
0.25
 40
0.2502441406
 40
0.2504882812
 40
0.2509765625
 40
0.251953125
 40
0.2529296875
 40
0.25390625
 40
0.255859375
 40
0.2578125
 40
0.259765625
 40
0.26171875
 40
0.265625
 40
0.26953125
 40
0.2734375
 40
0.28125
 40
0.2890625
 40
0.29296875
 40
0.296875
 40
0.30078125
 40
0.302734375
 40
0.3046875
 40
0.306640625
 40
0.30859375
 40
0.3095703125
 40
0.310546875
 40
0.3115234375
 40
0.3120117188
 40
0.3122558594
 40
0.3125
 40
0.3127441406
 40
0.3129882812
 40
0.3134765625
 40
0.314453125
 40
0.3154296875
 40
0.31640625
 40
0.318359375
 40
0.3203125
 40
0.322265625
 40
0.32421875
 40
0.328125
 40
0.33203125
 40
0.3359375
 40
0.34375
 40
0.3515625
 40
0.35546875
 40
0.359375
 40
0.36328125
 40
0.365234375
 40
0.3671875
 40
0.369140625
 40
0.37109375
 40
0.3720703125
 40
0.373046875
 40
0.3740234375
 40
0.3745117188
 40
0.3747558594
 40
0.375
 40
0.3752441406
 40
0.3754882812
 40
0.3759765625
 40
0.376953125
 40
0.3779296875
 40
0.37890625
 40
0.380859375
 40
0.3828125
 40
0.384765625
 40
0.38671875
 40
0.390625
 40
0.39453125
 40
0.3984375
 40
0.40625
 40
0.4140625
 40
0.41796875
 40
0.421875
 40
0.42578125
 40
0.427734375
 40
0.4296875
 40
0.431640625
 40
0.43359375
 40
0.4345703125
 40
0.435546875
 40
0.4360351562
 40
0.4365234375
 40
0.4370117188
 40
0.4372558594
 40
0.4375
 40
0.4377441406
 40
0.4379882812
 40
0.4384765625
 40
0.4389648438
 40
0.439453125
 40
0.4404296875
 40
0.44140625
 40
0.443359375
 40
0.4453125
 40
0.447265625
 40
0.44921875
 40
0.453125
 40
0.45703125
 40
0.4609375
 40
0.46875
 40
0.4765625
 40
0.48046875
 40
0.484375
 40
0.48828125
 40
0.490234375
 40
0.4921875
 40
0.494140625
 40
0.49609375
 40
0.4970703125
 40
0.498046875
 40
0.4985351562
 40
0.4990234375
 40
0.4995117188
 40
0.4997558594
 40
0.5
 40
0.5002441406
 40
0.5004882812
 40
0.5009765625
 40
0.5014648438
 40
0.501953125
 40
0.5029296875
 40
0.50390625
 40
0.505859375
 40
0.5078125
 40
0.509765625
 40
0.51171875
 40
0.515625
 40
0.51953125
 40
0.5234375
 40
0.53125
 40
0.5390625
 40
0.54296875
 40
0.546875
 40
0.55078125
 40
0.552734375
 40
0.5546875
 40
0.556640625
 40
0.55859375
 40
0.5595703125
 40
0.560546875
 40
0.5610351562
 40
0.5615234375
 40
0.5620117188
 40
0.5622558594
 40
0.5625
 40
0.5627441406
 40
0.5629882812
 40
0.5634765625
 40
0.5639648438
 40
0.564453125
 40
0.5654296875
 40
0.56640625
 40
0.568359375
 40
0.5703125
 40
0.572265625
 40
0.57421875
 40
0.578125
 40
0.58203125
 40
0.5859375
 40
0.59375
 40
0.6015625
 40
0.60546875
 40
0.609375
 40
0.61328125
 40
0.615234375
 40
0.6171875
 40
0.619140625
 40
0.62109375
 40
0.6220703125
 40
0.623046875
 40
0.6235351562
 40
0.6240234375
 40
0.6245117188
 40
0.6247558594
 40
0.625
 40
0.6252441406
 40
0.6254882812
 40
0.6259765625
 40
0.6264648438
 40
0.626953125
 40
0.6279296875
 40
0.62890625
 40
0.630859375
 40
0.6328125
 40
0.634765625
 40
0.63671875
 40
0.640625
 40
0.64453125
 40
0.6484375
 40
0.65625
 40
0.6640625
 40
0.66796875
 40
0.671875
 40
0.67578125
 40
0.677734375
 40
0.6796875
 40
0.681640625
 40
0.68359375
 40
0.6845703125
 40
0.685546875
 40
0.6860351562
 40
0.6865234375
 40
0.6870117188
 40
0.6872558594
 40
0.6875
 40
0.6877441406
 40
0.6879882812
 40
0.6884765625
 40
0.6889648438
 40
0.689453125
 40
0.6904296875
 40
0.69140625
 40
0.693359375
 40
0.6953125
 40
0.697265625
 40
0.69921875
 40
0.703125
 40
0.70703125
 40
0.7109375
 40
0.71875
 40
0.7265625
 40
0.73046875
 40
0.734375
 40
0.73828125
 40
0.740234375
 40
0.7421875
 40
0.744140625
 40
0.74609375
 40
0.7470703125
 40
0.748046875
 40
0.7485351562
 40
0.7490234375
 40
0.7495117188
 40
0.7497558594
 40
0.7498779297
 40
0.75
 40
0.7501220703
 40
0.7502441406
 40
0.7504882812
 40
0.7509765625
 40
0.7514648438
 40
0.751953125
 40
0.7529296875
 40
0.75390625
 40
0.755859375
 40
0.7578125
 40
0.759765625
 40
0.76171875
 40
0.765625
 40
0.76953125
 40
0.7734375
 40
0.78125
 40
0.7890625
 40
0.79296875
 40
0.796875
 40
0.80078125
 40
0.802734375
 40
0.8046875
 40
0.806640625
 40
0.80859375
 40
0.8095703125
 40
0.810546875
 40
0.8110351562
 40
0.8115234375
 40
0.8120117188
 40
0.8122558594
 40
0.8125
 40
0.8127441406
 40
0.8129882812
 40
0.8134765625
 40
0.8139648438
 40
0.814453125
 40
0.8154296875
 40
0.81640625
 40
0.818359375
 40
0.8203125
 40
0.822265625
 40
0.82421875
 40
0.828125
 40
0.83203125
 40
0.8359375
 40
0.84375
 40
0.8515625
 40
0.85546875
 40
0.859375
 40
0.86328125
 40
0.865234375
 40
0.8671875
 40
0.869140625
 40
0.87109375
 40
0.8720703125
 40
0.873046875
 40
0.8735351562
 40
0.8740234375
 40
0.8745117188
 40
0.8747558594
 40
0.875
 40
0.8752441406
 40
0.8754882812
 40
0.8759765625
 40
0.8764648438
 40
0.876953125
 40
0.8779296875
 40
0.87890625
 40
0.880859375
 40
0.8828125
 40
0.884765625
 40
0.88671875
 40
0.890625
 40
0.89453125
 40
0.8984375
 40
0.90625
 40
0.9140625
 40
0.91796875
 40
0.921875
 40
0.92578125
 40
0.927734375
 40
0.9296875
 40
0.931640625
 40
0.93359375
 40
0.9345703125
 40
0.935546875
 40
0.9360351562
 40
0.9365234375
 40
0.9370117188
 40
0.9372558594
 40
0.9375
 40
0.9377441406
 40
0.9379882812
 40
0.9384765625
 40
0.9389648438
 40
0.939453125
 40
0.9404296875
 40
0.94140625
 40
0.943359375
 40
0.9453125
 40
0.947265625
 40
0.94921875
 40
0.953125
 40
0.95703125
 40
0.9609375
 40
0.96875
 40
0.9765625
 40
0.984375
 40
1.0
 40
1.0
 40
1.0
 40
1.0
 10
10.189335454
 20
9.4902209277
 30
0.0
 10
10.1896426657
 20
9.4870664356
 30
0.0
 10
10.1901034832
 20
9.4823346974
 30
0.0
 10
10.1907179065
 20
9.4760257132
 30
0.0
 10
10.191178724
 20
9.471293975
 30
0.0
 10
10.1915627386
 20
9.4673508599
 30
0.0
 10
10.1918699502
 20
9.4641963677
 30
0.0
 10
10.1921003592
 20
9.4618304987
 30
0.0
 10
10.1922923657
 20
9.459858941
 30
0.0
 10
10.1924459732
 20
9.4582816952
 30
0.0
 10
10.1925611724
 20
9.4570987599
 30
0.0
 10
10.192676396
 20
9.4559158279
 30
0.0
 10
10.1927723398
 20
9.4549300414
 30
0.0
 10
10.1928492648
 20
9.4541414341
 30
0.0
 10
10.1929064941
 20
9.4535499188
 30
0.0
 10
10.1929556628
 20
9.4530571795
 30
0.0
 10
10.192987181
 20
9.452711889
 30
0.0
 10
10.1930097193
 20
9.4525151626
 30
0.0
 10
10.1930138679
 20
9.4523659768
 30
0.0
 10
10.193066773
 20
9.4522230638
 30
0.0
 10
10.1931203062
 20
9.4520303251
 30
0.0
 10
10.1932219132
 20
9.4516940518
 30
0.0
 10
10.1933629235
 20
9.4512131284
 30
0.0
 10
10.1935339089
 20
9.4506362485
 30
0.0
 10
10.1937612702
 20
9.4498669956
 30
0.0
 10
10.1940456842
 20
9.4489054567
 30
0.0
 10
10.19438689
 20
9.4477515984
 30
0.0
 10
10.1947281202
 20
9.4465977432
 30
0.0
 10
10.1951830852
 20
9.4450592686
 30
0.0
 10
10.1957517944
 20
9.4431361756
 30
0.0
 10
10.1964342442
 20
9.4408284639
 30
0.0
 10
10.1973441776
 20
9.437751515
 30
0.0
 10
10.1984815943
 20
9.4339053289
 30
0.0
 10
10.1996190111
 20
9.4300591428
 30
0.0
 10
10.2005289444
 20
9.4269821939
 30
0.0
 10
10.2012113947
 20
9.4246744823
 30
0.0
 10
10.2017801023
 20
9.422751389
 30
0.0
 10
10.2022350706
 20
9.4212129151
 30
0.0
 10
10.2025762908
 20
9.4200590576
 30
0.0
 10
10.2029175339
 20
9.4189052079
 30
0.0
 10
10.2032018317
 20
9.4179436421
 30
0.0
 10
10.2034294301
 20
9.4171744443
 30
0.0
 10
10.2035996911
 20
9.4165973959
 30
0.0
 10
10.203742968
 20
9.4161169996
 30
0.0
 10
10.2038405287
 20
9.4157797853
 30
0.0
 10
10.2039005452
 20
9.4155885544
 30
0.0
 10
10.2039335359
 20
9.4154410099
 30
0.0
 10
10.2040124794
 20
9.415309219
 30
0.0
 10
10.2041017085
 20
9.4151280028
 30
0.0
 10
10.2042653276
 20
9.4148134346
 30
0.0
 10
10.2044951647
 20
9.4143627129
 30
0.0
 10
10.2047726405
 20
9.4138224199
 30
0.0
 10
10.2051420244
 20
9.413101829
 30
0.0
 10
10.2056039546
 20
9.4122011591
 30
0.0
 10
10.2061581849
 20
9.4111203257
 30
0.0
 10
10.2067124383
 20
9.4100395003
 30
0.0
 10
10.2074514347
 20
9.4085983969
 30
0.0
 10
10.208375183
 20
9.4067970187
 30
0.0
 10
10.2094836798
 20
9.4046353643
 30
0.0
 10
10.2109616759
 20
9.4017531587
 30
0.0
 10
10.212809171
 20
9.3981504016
 30
0.0
 10
10.214656666
 20
9.3945476446
 30
0.0
 10
10.2161346621
 20
9.3916654389
 30
0.0
 10
10.217243159
 20
9.3895037847
 30
0.0
 10
10.2181669068
 20
9.3877024062
 30
0.0
 10
10.2189059044
 20
9.3862613032
 30
0.0
 10
10.2194601542
 20
9.3851804767
 30
0.0
 10
10.2200143979
 20
9.3840996473
 30
0.0
 10
10.2204762865
 20
9.3831989651
 30
0.0
 10
10.2208457553
 20
9.3824783994
 30
0.0
 10
10.221076769
 20
9.3820280912
 30
0.0
 10
10.2212613609
 20
9.3816677406
 30
0.0
 10
10.2214004045
 20
9.3813977625
 30
0.0
 10
10.2215143665
 20
9.3811718749
 30
0.0
 10
10.2216098146
 20
9.3809931964
 30
0.0
 10
10.22166971
 20
9.3808536362
 30
0.0
 10
10.2217742289
 20
9.3807352654
 30
0.0
 10
10.2218979998
 20
9.380570036
 30
0.0
 10
10.2220580615
 20
9.3803660387
 30
0.0
 10
10.2222478465
 20
9.3801201549
 30
0.0
 10
10.2225016926
 20
9.3797926896
 30
0.0
 10
10.2228187265
 20
9.3793832279
 30
0.0
 10
10.2233261337
 20
9.3787281618
 30
0.0
 10
10.2239603403
 20
9.3779093044
 30
0.0
 10
10.2247214106
 20
9.3769266861
 30
0.0
 10
10.2254824749
 20
9.375944065
 30
0.0
 10
10.2264972295
 20
9.3746339045
 30
0.0
 10
10.2277656719
 20
9.3729962035
 30
0.0
 10
10.2292878032
 20
9.3710309624
 30
0.0
 10
10.2313173114
 20
9.368410641
 30
0.0
 10
10.2338541967
 20
9.3651352392
 30
0.0
 10
10.2363910821
 20
9.3618598375
 30
0.0
 10
10.2384205903
 20
9.359239516
 30
0.0
 10
10.2399427216
 20
9.3572742751
 30
0.0
 10
10.2412111637
 20
9.3556365736
 30
0.0
 10
10.242225919
 20
9.3543264141
 30
0.0
 10
10.2429869811
 20
9.3533437898
 30
0.0
 10
10.2437480596
 20
9.3523611837
 30
0.0
 10
10.2443822409
 20
9.3515422882
 30
0.0
 10
10.2448896997
 20
9.3508872997
 30
0.0
 10
10.2452699829
 20
9.3503957089
 30
0.0
 10
10.2455878742
 20
9.3499871614
 30
0.0
 10
10.2458084581
 20
9.3496989969
 30
0.0
 10
10.2459375352
 20
9.3495377372
 30
0.0
 10
10.2460258099
 20
9.3494071985
 30
0.0
 10
10.2461467026
 20
9.3493133326
 30
0.0
 10
10.2462965154
 20
9.3491753862
 30
0.0
 10
10.2465639887
 20
9.3489399399
 30
0.0
 10
10.246943322
 20
9.3486004722
 30
0.0
 10
10.2473997082
 20
9.3481944446
 30
0.0
 10
10.2480078088
 20
9.3476526086
 30
0.0
 10
10.2487680767
 20
9.3469754734
 30
0.0
 10
10.2496803373
 20
9.3461628427
 30
0.0
 10
10.2505926141
 20
9.3453502303
 30
0.0
 10
10.2518089776
 20
9.3442667408
 30
0.0
 10
10.2533294339
 20
9.342912381
 30
0.0
 10
10.2551539806
 20
9.3412871484
 30
0.0
 10
10.2575867098
 20
9.3391201718
 30
0.0
 10
10.2606276212
 20
9.336411451
 30
0.0
 10
10.2636685327
 20
9.3337027303
 30
0.0
 10
10.2661012618
 20
9.3315357536
 30
0.0
 10
10.2679258089
 20
9.3299105214
 30
0.0
 10
10.2694462641
 20
9.3285561603
 30
0.0
 10
10.2706626297
 20
9.3274726734
 30
0.0
 10
10.2715749002
 20
9.326660053
 30
0.0
 10
10.2724871845
 20
9.3258474523
 30
0.0
 10
10.2732473785
 20
9.3251702238
 30
0.0
 10
10.27385563
 20
9.3246285783
 30
0.0
 10
10.2743115552
 20
9.3242219689
 30
0.0
 10
10.2746923309
 20
9.3238843214
 30
0.0
 10
10.2749572293
 20
9.3236456256
 30
0.0
 10
10.2751111676
 20
9.3235128857
 30
0.0
 10
10.275219388
 20
9.3234030272
 30
0.0
 10
10.2753552579
 20
9.3233325537
 30
0.0
 10
10.2755267733
 20
9.3232248512
 30
0.0
 10
10.2758314189
 20
9.3230427724
 30
0.0
 10
10.2762642775
 20
9.3227793135
 30
0.0
 10
10.2767847134
 20
9.3224645952
 30
0.0
 10
10.2774782767
 20
9.3220444705
 30
0.0
 10
10.2783453513
 20
9.3215194863
 30
0.0
 10
10.2793857892
 20
9.3208894316
 30
0.0
 10
10.2804262409
 20
9.3202593966
 30
0.0
 10
10.2818135051
 20
9.3194193431
 30
0.0
 10
10.2835475869
 20
9.3183692785
 30
0.0
 10
10.2856284844
 20
9.3171092001
 30
0.0
 10
10.2884030146
 20
9.3154290958
 30
0.0
 10
10.2918711773
 20
9.3133289653
 30
0.0
 10
10.29533934
 20
9.3112288349
 30
0.0
 10
10.2981138701
 20
9.3095487305
 30
0.0
 10
10.3001947679
 20
9.3082886525
 30
0.0
 10
10.3019288489
 20
9.3072385865
 30
0.0
 10
10.3033161146
 20
9.3063985359
 30
0.0
 10
10.3043565614
 20
9.3057684921
 30
0.0
 10
10.3053970178
 20
9.3051384705
 30
0.0
 10
10.306264035
 20
9.3046133832
 30
0.0
 10
10.3069577154
 20
9.3041934687
 30
0.0
 10
10.3074777937
 20
9.3038781083
 30
0.0
 10
10.3079117712
 20
9.3036166584
 30
0.0
 10
10.3082144194
 20
9.3034309932
 30
0.0
 10
10.308389135
 20
9.3033290371
 30
0.0
 10
10.3085151748
 20
9.3032409123
 30
0.0
 10
10.3086603153
 20
9.3031973492
 30
0.0
 10
10.3088471735
 20
9.3031237214
 30
0.0
 10
10.3091772794
 20
9.3030021149
 30
0.0
 10
10.3096472363
 20
9.3028246051
 30
0.0
 10
10.3102118793
 20
9.302613214
 30
0.0
 10
10.310964494
 20
9.302330793
 30
0.0
 10
10.3119053457
 20
9.301977961
 30
0.0
 10
10.313034332
 20
9.3015544794
 30
0.0
 10
10.3141633278
 20
9.30113102
 30
0.0
 10
10.3156686522
 20
9.3005663998
 30
0.0
 10
10.3175503089
 20
9.2998606271
 30
0.0
 10
10.3198082964
 20
9.2990136988
 30
0.0
 10
10.3228189467
 20
9.2978844615
 30
0.0
 10
10.3265822594
 20
9.2964729147
 30
0.0
 10
10.3303455721
 20
9.2950613679
 30
0.0
 10
10.3333562223
 20
9.2939321305
 30
0.0
 10
10.3356142099
 20
9.2930852023
 30
0.0
 10
10.3374958663
 20
9.2923794291
 30
0.0
 10
10.3390011913
 20
9.29181481
 30
0.0
 10
10.3401301855
 20
9.2913913473
 30
0.0
 10
10.3412591778
 20
9.2909678782
 30
0.0
 10
10.3422000107
 20
9.2906150073
 30
0.0
 10
10.3429526636
 20
9.2903326657
 30
0.0
 10
10.3434231024
 20
9.2901563045
 30
0.0
 10
10.3437993829
 20
9.2900149812
 30
0.0
 10
10.3440817865
 20
9.2899096302
 30
0.0
 10
10.344316508
 20
9.2898197973
 30
0.0
 10
10.3445056642
 20
9.2897525071
 30
0.0
 10
10.3446437634
 20
9.2896895355
 30
0.0
 10
10.3447962448
 20
9.2896742915
 30
0.0
 10
10.3449945295
 20
9.2896372943
 30
0.0
 10
10.345244109
 20
9.2895967679
 30
0.0
 10
10.3455428666
 20
9.2895456878
 30
0.0
 10
10.3459414678
 20
9.2894784362
 30
0.0
 10
10.346439631
 20
9.2893940788
 30
0.0
 10
10.3472367415
 20
9.2892592707
 30
0.0
 10
10.3482331126
 20
9.2890907045
 30
0.0
 10
10.3494287653
 20
9.288888449
 30
0.0
 10
10.350624416
 20
9.2886861871
 30
0.0
 10
10.3522186177
 20
9.2884165068
 30
0.0
 10
10.3542113695
 20
9.2880794057
 30
0.0
 10
10.3566026718
 20
9.2876748847
 30
0.0
 10
10.3597910748
 20
9.2871355233
 30
0.0
 10
10.3637765786
 20
9.2864613215
 30
0.0
 10
10.3677620824
 20
9.2857871197
 30
0.0
 10
10.3709504854
 20
9.2852477583
 30
0.0
 10
10.3733417877
 20
9.2848432371
 30
0.0
 10
10.3753345396
 20
9.2845061365
 30
0.0
 10
10.3769287411
 20
9.2842364553
 30
0.0
 10
10.3781243921
 20
9.2840341962
 30
0.0
 10
10.3793200437
 20
9.2838319302
 30
0.0
 10
10.3803164182
 20
9.2836633967
 30
0.0
 10
10.381113522
 20
9.2835285219
 30
0.0
 10
10.3816117023
 20
9.2834443343
 30
0.0
 10
10.3820102684
 20
9.2833767343
 30
0.0
 10
10.382309133
 20
9.2833267185
 30
0.0
 10
10.3825583778
 20
9.2832828621
 30
0.0
 10
10.3827573453
 20
9.2832526587
 30
0.0
 10
10.3829077414
 20
9.2832166669
 30
0.0
 10
10.3830536698
 20
9.2832315913
 30
0.0
 10
10.3832498017
 20
9.2832337049
 30
0.0
 10
10.3834944311
 20
9.2832424491
 30
0.0
 10
10.3837882156
 20
9.2832503301
 30
0.0
 10
10.3841798482
 20
9.2832617505
 30
0.0
 10
10.3846694163
 20
9.2832757136
 30
0.0
 10
10.38545271
 20
9.2832982291
 30
0.0
 10
10.3864318324
 20
9.2833263136
 30
0.0
 10
10.387606777
 20
9.2833600407
 30
0.0
 10
10.3887817223
 20
9.2833937609
 30
0.0
 10
10.3903483157
 20
9.2834387236
 30
0.0
 10
10.3923065575
 20
9.2834949261
 30
0.0
 10
10.3946564477
 20
9.2835623695
 30
0.0
 10
10.3977896346
 20
9.2836522939
 30
0.0
 10
10.4017061183
 20
9.2837646994
 30
0.0
 10
10.4056226019
 20
9.2838771049
 30
0.0
 10
10.4087557888
 20
9.2839670293
 30
0.0
 10
10.411105679
 20
9.2840344726
 30
0.0
 10
10.4130639208
 20
9.2840906755
 30
0.0
 10
10.4146305144
 20
9.2841356373
 30
0.0
 10
10.4158054592
 20
9.2841693604
 30
0.0
 10
10.4169804053
 20
9.2842030767
 30
0.0
 10
10.417959523
 20
9.2842311945
 30
0.0
 10
10.4187428263
 20
9.2842536422
 30
0.0
 10
10.4192323701
 20
9.2842677779
 30
0.0
 10
10.4196240526
 20
9.2842788439
 30
0.0
 10
10.4199176847
 20
9.2842878077
 30
0.0
 10
10.4201627909
 20
9.2842931642
 30
0.0
 10
10.42035795
 20
9.2843021893
 30
0.0
 10
10.4205068491
 20
9.2842960064
 30
0.0
 10
10.4206460921
 20
9.2843392602
 30
0.0
 10
10.4208351225
 20
9.2843796631
 30
0.0
 10
10.4210702531
 20
9.2844360915
 30
0.0
 10
10.4213529053
 20
9.2845012696
 30
0.0
 10
10.4217296017
 20
9.2845890595
 30
0.0
 10
10.4222005316
 20
9.2846984936
 30
0.0
 10
10.4229539863
 20
9.2848737577
 30
0.0
 10
10.423895816
 20
9.2850927796
 30
0.0
 10
10.4250260068
 20
9.2853556308
 30
0.0
 10
10.4261561988
 20
9.2856184753
 30
0.0
 10
10.4276631211
 20
9.2859689371
 30
0.0
 10
10.4295467742
 20
9.2864070134
 30
0.0
 10
10.4318071578
 20
9.2869327054
 30
0.0
 10
10.4348210026
 20
9.2876336279
 30
0.0
 10
10.4385883086
 20
9.2885097811
 30
0.0
 10
10.4423556146
 20
9.2893859343
 30
0.0
 10
10.4453694594
 20
9.2900868569
 30
0.0
 10
10.447629843
 20
9.2906125487
 30
0.0
 10
10.4495134959
 20
9.2910506255
 30
0.0
 10
10.4510204185
 20
9.2914010864
 30
0.0
 10
10.4521506098
 20
9.2916639337
 30
0.0
 10
10.4532808036
 20
9.2919267746
 30
0.0
 10
10.4542226238
 20
9.2921458285
 30
0.0
 10
10.4549760978
 20
9.2923210272
 30
0.0
 10
10.4554469785
 20
9.2924306277
 30
0.0
 10
10.455823776
 20
9.2925180761
 30
0.0
 10
10.4561061195
 20
9.2925842976
 30
0.0
 10
10.4563422157
 20
9.2926374613
 30
0.0
 10
10.4565292762
 20
9.292684525
 30
0.0
 10
10.4566745348
 20
9.292707437
 30
0.0
 10
10.4568008489
 20
9.2927776255
 30
0.0
 10
10.4569758853
 20
9.2928546959
 30
0.0
 10
10.4571924104
 20
9.2929566999
 30
0.0
 10
10.4574532122
 20
9.2930766794
 30
0.0
 10
10.4578006086
 20
9.2932374992
 30
0.0
 10
10.4582349703
 20
9.293438234
 30
0.0
 10
10.4589298841
 20
9.2937595716
 30
0.0
 10
10.4597985485
 20
9.294161188
 30
0.0
 10
10.4608409364
 20
9.2946431516
 30
0.0
 10
10.4618833268
 20
9.2951251088
 30
0.0
 10
10.4632731797
 20
9.2957677206
 30
0.0
 10
10.4650104962
 20
9.2965709846
 30
0.0
 10
10.4670952759
 20
9.2975349018
 30
0.0
 10
10.4698749822
 20
9.2988201245
 30
0.0
 10
10.473349615
 20
9.300426653
 30
0.0
 10
10.4768242479
 20
9.3020331814
 30
0.0
 10
10.4796039541
 20
9.3033184042
 30
0.0
 10
10.4816887339
 20
9.3042823212
 30
0.0
 10
10.4834260502
 20
9.3050855856
 30
0.0
 10
10.4848159036
 20
9.3057281966
 30
0.0
 10
10.4858582927
 20
9.3062101564
 30
0.0
 10
10.4869006852
 20
9.30669211
 30
0.0
 10
10.4877693353
 20
9.3070937575
 30
0.0
 10
10.4884642783
 20
9.3074150319
 30
0.0
 10
10.4888985656
 20
9.3076159276
 30
0.0
 10
10.4892461147
 20
9.3077764169
 30
0.0
 10
10.4895064501
 20
9.3078974062
 30
0.0
 10
10.4897244345
 20
9.307996251
 30
0.0
 10
10.4898964936
 20
9.3080797667
 30
0.0
 10
10.4900319
 20
9.3081302716
 30
0.0
 10
10.4901430224
 20
9.3082270841
 30
0.0
 10
10.4902996683
 20
9.3083399916
 30
0.0
 10
10.4904925653
 20
9.3084866759
 30
0.0
 10
10.4907252874
 20
9.3086603215
 30
0.0
 10
10.4910351485
 20
9.3088926787
 30
0.0
 10
10.4914226238
 20
9.3091828411
 30
0.0
 10
10.492042501
 20
9.3096472597
 30
0.0
 10
10.4928173761
 20
9.3102277284
 30
0.0
 10
10.493747214
 20
9.3109243143
 30
0.0
 10
10.4946770551
 20
9.3116208939
 30
0.0
 10
10.4959168421
 20
9.312549669
 30
0.0
 10
10.4974665764
 20
9.313710637
 30
0.0
 10
10.4993262572
 20
9.3151037989
 30
0.0
 10
10.5018058318
 20
9.3169613481
 30
0.0
 10
10.5049053
 20
9.3192832846
 30
0.0
 10
10.5080047682
 20
9.321605221
 30
0.0
 10
10.5104843427
 20
9.3234627702
 30
0.0
 10
10.5123440236
 20
9.3248559321
 30
0.0
 10
10.5138937578
 20
9.3260169003
 30
0.0
 10
10.5151335449
 20
9.326945675
 30
0.0
 10
10.5160633858
 20
9.3276422556
 30
0.0
 10
10.5169932247
 20
9.3283388378
 30
0.0
 10
10.5177680964
 20
9.3289193178
 30
0.0
 10
10.5183879807
 20
9.3293837135
 30
0.0
 10
10.5187754379
 20
9.3296739341
 30
0.0
 10
10.519085336
 20
9.3299061719
 30
0.0
 10
10.519317945
 20
9.3300801821
 30
0.0
 10
10.5195111959
 20
9.3302257257
 30
0.0
 10
10.5196476293
 20
9.330326556
 30
0.0
 10
10.5197237834
 20
9.3303858132
 30
0.0
 10
10.5197859918
 20
9.3304256364
 30
0.0
 10
10.5198287328
 20
9.3304831187
 30
0.0
 10
10.5198925113
 20
9.330553602
 30
0.0
 10
10.5200009597
 20
9.3306798177
 30
0.0
 10
10.5201575402
 20
9.3308586255
 30
0.0
 10
10.5203447287
 20
9.331073837
 30
0.0
 10
10.5205945608
 20
9.3313605614
 30
0.0
 10
10.5209067661
 20
9.3317190437
 30
0.0
 10
10.521406342
 20
9.3322925725
 30
0.0
 10
10.5220307957
 20
9.3330094982
 30
0.0
 10
10.522780147
 20
9.3338698027
 30
0.0
 10
10.5235294964
 20
9.3347301089
 30
0.0
 10
10.5245286297
 20
9.3358771833
 30
0.0
 10
10.525777546
 20
9.3373110264
 30
0.0
 10
10.5272762458
 20
9.3390316381
 30
0.0
 10
10.529274512
 20
9.341325787
 30
0.0
 10
10.5317723449
 20
9.3441934732
 30
0.0
 10
10.5342701777
 20
9.3470611593
 30
0.0
 10
10.5362684439
 20
9.3493553083
 30
0.0
 10
10.5377671437
 20
9.3510759199
 30
0.0
 10
10.5390160599
 20
9.3525097632
 30
0.0
 10
10.5400151935
 20
9.3536568373
 30
0.0
 10
10.5407645421
 20
9.3545171441
 30
0.0
 10
10.5415138964
 20
9.3553774466
 30
0.0
 10
10.5421383409
 20
9.3560943783
 30
0.0
 10
10.5426379354
 20
9.3566678949
 30
0.0
 10
10.5429500934
 20
9.3570264082
 30
0.0
 10
10.5432000226
 20
9.357313069
 30
0.0
 10
10.5433869143
 20
9.3575284748
 30
0.0
 10
10.5435444235
 20
9.3577066749
 30
0.0
 10
10.5436664699
 20
9.3578521612
 30
0.0
 10
10.5437688277
 20
9.35795328
 30
0.0
 10
10.5438298741
 20
9.3580849193
 30
0.0
 10
10.5439256999
 20
9.3582497772
 30
0.0
 10
10.5440405311
 20
9.3584595074
 30
0.0
 10
10.5441804478
 20
9.358709618
 30
0.0
 10
10.5443662632
 20
9.3590436456
 30
0.0
 10
10.5445987858
 20
9.3594609928
 30
0.0
 10
10.5449706804
 20
9.3601288531
 30
0.0
 10
10.5454355972
 20
9.3609636425
 30
0.0
 10
10.5459934766
 20
9.3619654052
 30
0.0
 10
10.5465513615
 20
9.3629671638
 30
0.0
 10
10.5472952061
 20
9.3643028433
 30
0.0
 10
10.5482250126
 20
9.3659724423
 30
0.0
 10
10.54934078
 20
9.3679759612
 30
0.0
 10
10.5508284701
 20
9.3706473197
 30
0.0
 10
10.5526880826
 20
9.3739865179
 30
0.0
 10
10.5545476951
 20
9.377325716
 30
0.0
 10
10.5560353851
 20
9.3799970745
 30
0.0
 10
10.5571511527
 20
9.3820005934
 30
0.0
 10
10.5580809588
 20
9.3836701926
 30
0.0
 10
10.5588248042
 20
9.3850058716
 30
0.0
 10
10.5593826867
 20
9.3860076317
 30
0.0
 10
10.5599405753
 20
9.3870093887
 30
0.0
 10
10.5604054632
 20
9.3878441957
 30
0.0
 10
10.5607774168
 20
9.3885120202
 30
0.0
 10
10.5610097894
 20
9.3889294583
 30
0.0
 10
10.5611959127
 20
9.3892632995
 30
0.0
 10
10.5613348885
 20
9.3895139798
 30
0.0
 10
10.5614526636
 20
9.3897219273
 30
0.0
 10
10.5615424833
 20
9.3898904222
 30
0.0
 10
10.5616218721
 20
9.3900109543
 30
0.0
 10
10.5616553647
 20
9.3901537742
 30
0.0
 10
10.5617160537
 20
9.3903364152
 30
0.0
 10
10.5617864144
 20
9.3905673877
 30
0.0
 10
10.5618732016
 20
9.3908434113
 30
0.0
 10
10.5619880955
 20
9.3912118421
 30
0.0
 10
10.5621319945
 20
9.3916722439
 30
0.0
 10
10.5623620755
 20
9.3924089632
 30
0.0
 10
10.5626497308
 20
9.3933298361
 30
0.0
 10
10.5629948939
 20
9.3944348948
 30
0.0
 10
10.5633400633
 20
9.3955399505
 30
0.0
 10
10.5638002869
 20
9.3970133591
 30
0.0
 10
10.5643755672
 20
9.3988551196
 30
0.0
 10
10.5650659032
 20
9.4010652323
 30
0.0
 10
10.5659863514
 20
9.4040120492
 30
0.0
 10
10.5671369115
 20
9.4076955703
 30
0.0
 10
10.5682874717
 20
9.4113790914
 30
0.0
 10
10.5692079198
 20
9.4143259083
 30
0.0
 10
10.569898256
 20
9.4165360209
 30
0.0
 10
10.5704735358
 20
9.4183777815
 30
0.0
 10
10.5709337604
 20
9.4198511898
 30
0.0
 10
10.571278927
 20
9.4209562467
 30
0.0
 10
10.5716241003
 20
9.4220613011
 30
0.0
 10
10.5719117242
 20
9.4229821873
 30
0.0
 10
10.5721418691
 20
9.4237188795
 30
0.0
 10
10.5722856053
 20
9.4241793502
 30
0.0
 10
10.5724008334
 20
9.4245476396
 30
0.0
 10
10.5724865997
 20
9.4248240953
 30
0.0
 10
10.5725601546
 20
9.4250537158
 30
0.0
 10
10.5726143268
 20
9.4252391151
 30
0.0
 10
10.5726677212
 20
9.4253735113
 30
0.0
 10
10.5726723905
 20
9.425525669
 30
0.0
 10
10.5726956366
 20
9.4257223416
 30
0.0
 10
10.5727188547
 20
9.4259703111
 30
0.0
 10
10.5727492158
 20
9.4262669633
 30
0.0
 10
10.5727888244
 20
9.4266628177
 30
0.0
 10
10.572838634
 20
9.4271575269
 30
0.0
 10
10.5729181623
 20
9.4279491224
 30
0.0
 10
10.57301763
 20
9.4289385959
 30
0.0
 10
10.5731369666
 20
9.4301259731
 30
0.0
 10
10.5732563099
 20
9.4313133479
 30
0.0
 10
10.5734154319
 20
9.4328965151
 30
0.0
 10
10.5736143352
 20
9.4348754738
 30
0.0
 10
10.5738530188
 20
9.4372502244
 30
0.0
 10
10.5741712638
 20
9.4404165584
 30
0.0
 10
10.5745690699
 20
9.444374476
 30
0.0
 10
10.5750464373
 20
9.4491239771
 30
0.0
 10
10.5756829272
 20
9.4554566453
 30
0.0
 10
10.5761602946
 20
9.4602061464
 30
0.0
 10
10.5764785395
 20
9.4633724805
 30
0.0
  0
SPLINE
  5
383
100
AcDbEntity
  8
0
100
AcDbSpline
 62
4
  6
CONTINUOUS
 70
0
 71
3
 72
455
 73
451
 74
0
 42
0.0000001
 43
0.0000001
 44
0.0000000001
 40
0.0
 40
0.0
 40
0.0
 40
0.0
 40
0.015625
 40
0.0234375
 40
0.03125
 40
0.0390625
 40
0.04296875
 40
0.046875
 40
0.05078125
 40
0.052734375
 40
0.0546875
 40
0.056640625
 40
0.05859375
 40
0.0595703125
 40
0.060546875
 40
0.0615234375
 40
0.0620117188
 40
0.0622558594
 40
0.0625
 40
0.0627441406
 40
0.0629882812
 40
0.0634765625
 40
0.064453125
 40
0.0654296875
 40
0.06640625
 40
0.068359375
 40
0.0703125
 40
0.072265625
 40
0.07421875
 40
0.078125
 40
0.08203125
 40
0.0859375
 40
0.09375
 40
0.1015625
 40
0.10546875
 40
0.109375
 40
0.11328125
 40
0.115234375
 40
0.1171875
 40
0.119140625
 40
0.12109375
 40
0.1220703125
 40
0.123046875
 40
0.1240234375
 40
0.1245117188
 40
0.1247558594
 40
0.125
 40
0.1252441406
 40
0.1254882812
 40
0.1259765625
 40
0.126953125
 40
0.1279296875
 40
0.12890625
 40
0.130859375
 40
0.1328125
 40
0.134765625
 40
0.13671875
 40
0.140625
 40
0.14453125
 40
0.1484375
 40
0.15625
 40
0.1640625
 40
0.16796875
 40
0.171875
 40
0.17578125
 40
0.177734375
 40
0.1796875
 40
0.181640625
 40
0.18359375
 40
0.1845703125
 40
0.185546875
 40
0.1860351562
 40
0.1865234375
 40
0.1870117188
 40
0.1872558594
 40
0.1875
 40
0.1877441406
 40
0.1879882812
 40
0.1884765625
 40
0.1889648438
 40
0.189453125
 40
0.1904296875
 40
0.19140625
 40
0.193359375
 40
0.1953125
 40
0.197265625
 40
0.19921875
 40
0.203125
 40
0.20703125
 40
0.2109375
 40
0.21875
 40
0.2265625
 40
0.23046875
 40
0.234375
 40
0.23828125
 40
0.240234375
 40
0.2421875
 40
0.244140625
 40
0.24609375
 40
0.2470703125
 40
0.248046875
 40
0.2490234375
 40
0.2495117188
 40
0.2497558594
 40
0.25
 40
0.2502441406
 40
0.2504882812
 40
0.2509765625
 40
0.251953125
 40
0.2529296875
 40
0.25390625
 40
0.255859375
 40
0.2578125
 40
0.259765625
 40
0.26171875
 40
0.265625
 40
0.26953125
 40
0.2734375
 40
0.28125
 40
0.2890625
 40
0.29296875
 40
0.296875
 40
0.30078125
 40
0.302734375
 40
0.3046875
 40
0.306640625
 40
0.30859375
 40
0.3095703125
 40
0.310546875
 40
0.3115234375
 40
0.3120117188
 40
0.3122558594
 40
0.3125
 40
0.3127441406
 40
0.3129882812
 40
0.3134765625
 40
0.314453125
 40
0.3154296875
 40
0.31640625
 40
0.318359375
 40
0.3203125
 40
0.322265625
 40
0.32421875
 40
0.328125
 40
0.33203125
 40
0.3359375
 40
0.34375
 40
0.3515625
 40
0.35546875
 40
0.359375
 40
0.36328125
 40
0.365234375
 40
0.3671875
 40
0.369140625
 40
0.37109375
 40
0.3720703125
 40
0.373046875
 40
0.3740234375
 40
0.3745117188
 40
0.3747558594
 40
0.375
 40
0.3752441406
 40
0.3754882812
 40
0.3759765625
 40
0.376953125
 40
0.3779296875
 40
0.37890625
 40
0.380859375
 40
0.3828125
 40
0.384765625
 40
0.38671875
 40
0.390625
 40
0.39453125
 40
0.3984375
 40
0.40625
 40
0.4140625
 40
0.41796875
 40
0.421875
 40
0.42578125
 40
0.427734375
 40
0.4296875
 40
0.431640625
 40
0.43359375
 40
0.4345703125
 40
0.435546875
 40
0.4360351562
 40
0.4365234375
 40
0.4370117188
 40
0.4372558594
 40
0.4375
 40
0.4377441406
 40
0.4379882812
 40
0.4384765625
 40
0.4389648438
 40
0.439453125
 40
0.4404296875
 40
0.44140625
 40
0.443359375
 40
0.4453125
 40
0.447265625
 40
0.44921875
 40
0.453125
 40
0.45703125
 40
0.4609375
 40
0.46875
 40
0.4765625
 40
0.48046875
 40
0.484375
 40
0.48828125
 40
0.490234375
 40
0.4921875
 40
0.494140625
 40
0.49609375
 40
0.4970703125
 40
0.498046875
 40
0.4985351562
 40
0.4990234375
 40
0.4995117188
 40
0.4997558594
 40
0.5
 40
0.5002441406
 40
0.5004882812
 40
0.5009765625
 40
0.5014648438
 40
0.501953125
 40
0.5029296875
 40
0.50390625
 40
0.505859375
 40
0.5078125
 40
0.509765625
 40
0.51171875
 40
0.515625
 40
0.51953125
 40
0.5234375
 40
0.53125
 40
0.5390625
 40
0.54296875
 40
0.546875
 40
0.55078125
 40
0.552734375
 40
0.5546875
 40
0.556640625
 40
0.55859375
 40
0.5595703125
 40
0.560546875
 40
0.5610351562
 40
0.5615234375
 40
0.5620117188
 40
0.5622558594
 40
0.5625
 40
0.5627441406
 40
0.5629882812
 40
0.5634765625
 40
0.5639648438
 40
0.564453125
 40
0.5654296875
 40
0.56640625
 40
0.568359375
 40
0.5703125
 40
0.572265625
 40
0.57421875
 40
0.578125
 40
0.58203125
 40
0.5859375
 40
0.59375
 40
0.6015625
 40
0.60546875
 40
0.609375
 40
0.61328125
 40
0.615234375
 40
0.6171875
 40
0.619140625
 40
0.62109375
 40
0.6220703125
 40
0.623046875
 40
0.6235351562
 40
0.6240234375
 40
0.6245117188
 40
0.6247558594
 40
0.625
 40
0.6252441406
 40
0.6254882812
 40
0.6259765625
 40
0.6264648438
 40
0.626953125
 40
0.6279296875
 40
0.62890625
 40
0.630859375
 40
0.6328125
 40
0.634765625
 40
0.63671875
 40
0.640625
 40
0.64453125
 40
0.6484375
 40
0.65625
 40
0.6640625
 40
0.66796875
 40
0.671875
 40
0.67578125
 40
0.677734375
 40
0.6796875
 40
0.681640625
 40
0.68359375
 40
0.6845703125
 40
0.685546875
 40
0.6860351562
 40
0.6865234375
 40
0.6870117188
 40
0.6872558594
 40
0.6875
 40
0.6877441406
 40
0.6879882812
 40
0.6884765625
 40
0.6889648438
 40
0.689453125
 40
0.6904296875
 40
0.69140625
 40
0.693359375
 40
0.6953125
 40
0.697265625
 40
0.69921875
 40
0.703125
 40
0.70703125
 40
0.7109375
 40
0.71875
 40
0.7265625
 40
0.73046875
 40
0.734375
 40
0.73828125
 40
0.740234375
 40
0.7421875
 40
0.744140625
 40
0.74609375
 40
0.7470703125
 40
0.748046875
 40
0.7485351562
 40
0.7490234375
 40
0.7495117188
 40
0.7497558594
 40
0.7498779297
 40
0.75
 40
0.7501220703
 40
0.7502441406
 40
0.7504882812
 40
0.7509765625
 40
0.7514648438
 40
0.751953125
 40
0.7529296875
 40
0.75390625
 40
0.755859375
 40
0.7578125
 40
0.759765625
 40
0.76171875
 40
0.765625
 40
0.76953125
 40
0.7734375
 40
0.78125
 40
0.7890625
 40
0.79296875
 40
0.796875
 40
0.80078125
 40
0.802734375
 40
0.8046875
 40
0.806640625
 40
0.80859375
 40
0.8095703125
 40
0.810546875
 40
0.8110351562
 40
0.8115234375
 40
0.8120117188
 40
0.8122558594
 40
0.8125
 40
0.8127441406
 40
0.8129882812
 40
0.8134765625
 40
0.8139648438
 40
0.814453125
 40
0.8154296875
 40
0.81640625
 40
0.818359375
 40
0.8203125
 40
0.822265625
 40
0.82421875
 40
0.828125
 40
0.83203125
 40
0.8359375
 40
0.84375
 40
0.8515625
 40
0.85546875
 40
0.859375
 40
0.86328125
 40
0.865234375
 40
0.8671875
 40
0.869140625
 40
0.87109375
 40
0.8720703125
 40
0.873046875
 40
0.8735351562
 40
0.8740234375
 40
0.8745117188
 40
0.8747558594
 40
0.875
 40
0.8752441406
 40
0.8754882812
 40
0.8759765625
 40
0.8764648438
 40
0.876953125
 40
0.8779296875
 40
0.87890625
 40
0.880859375
 40
0.8828125
 40
0.884765625
 40
0.88671875
 40
0.890625
 40
0.89453125
 40
0.8984375
 40
0.90625
 40
0.9140625
 40
0.91796875
 40
0.921875
 40
0.92578125
 40
0.927734375
 40
0.9296875
 40
0.931640625
 40
0.93359375
 40
0.9345703125
 40
0.935546875
 40
0.9360351562
 40
0.9365234375
 40
0.9370117188
 40
0.9372558594
 40
0.9375
 40
0.9377441406
 40
0.9379882812
 40
0.9384765625
 40
0.9389648438
 40
0.939453125
 40
0.9404296875
 40
0.94140625
 40
0.943359375
 40
0.9453125
 40
0.947265625
 40
0.94921875
 40
0.953125
 40
0.95703125
 40
0.9609375
 40
0.96875
 40
0.9765625
 40
0.984375
 40
1.0
 40
1.0
 40
1.0
 40
1.0
 10
10.5764785395
 20
9.4633724636
 30
0.0
 10
10.5761713278
 20
9.4665269557
 30
0.0
 10
10.5757105103
 20
9.4712586939
 30
0.0
 10
10.575096087
 20
9.4775676781
 30
0.0
 10
10.5746352695
 20
9.4822994163
 30
0.0
 10
10.5742512549
 20
9.4862425314
 30
0.0
 10
10.5739440433
 20
9.4893970235
 30
0.0
 10
10.5737136343
 20
9.4917628926
 30
0.0
 10
10.5735216278
 20
9.4937344503
 30
0.0
 10
10.5733680203
 20
9.4953116961
 30
0.0
 10
10.5732528211
 20
9.4964946313
 30
0.0
 10
10.5731375975
 20
9.4976775634
 30
0.0
 10
10.5730416537
 20
9.4986633499
 30
0.0
 10
10.5729647287
 20
9.4994519572
 30
0.0
 10
10.5729074994
 20
9.5000434725
 30
0.0
 10
10.5728583307
 20
9.5005362117
 30
0.0
 10
10.5728268125
 20
9.5008815023
 30
0.0
 10
10.5728042742
 20
9.5010782287
 30
0.0
 10
10.5728001256
 20
9.5012274145
 30
0.0
 10
10.5727472206
 20
9.5013703275
 30
0.0
 10
10.5726936873
 20
9.5015630662
 30
0.0
 10
10.5725920803
 20
9.5018993395
 30
0.0
 10
10.57245107
 20
9.5023802628
 30
0.0
 10
10.5722800846
 20
9.5029571428
 30
0.0
 10
10.5720527233
 20
9.5037263957
 30
0.0
 10
10.5717683093
 20
9.5046879345
 30
0.0
 10
10.5714271035
 20
9.5058417929
 30
0.0
 10
10.5710858734
 20
9.506995648
 30
0.0
 10
10.5706309083
 20
9.5085341227
 30
0.0
 10
10.5700621991
 20
9.5104572157
 30
0.0
 10
10.5693797494
 20
9.5127649274
 30
0.0
 10
10.5684698159
 20
9.5158418762
 30
0.0
 10
10.5673323992
 20
9.5196880624
 30
0.0
 10
10.5661949824
 20
9.5235342485
 30
0.0
 10
10.5652850491
 20
9.5266111974
 30
0.0
 10
10.5646025988
 20
9.528918909
 30
0.0
 10
10.5640338912
 20
9.5308420023
 30
0.0
 10
10.5635789229
 20
9.5323804762
 30
0.0
 10
10.5632377027
 20
9.5335343337
 30
0.0
 10
10.5628964596
 20
9.5346881833
 30
0.0
 10
10.5626121618
 20
9.5356497492
 30
0.0
 10
10.5623845634
 20
9.536418947
 30
0.0
 10
10.5622143024
 20
9.5369959954
 30
0.0
 10
10.5620710255
 20
9.5374763916
 30
0.0
 10
10.5619734648
 20
9.537813606
 30
0.0
 10
10.5619134483
 20
9.5380048369
 30
0.0
 10
10.5618804576
 20
9.5381523813
 30
0.0
 10
10.5618015141
 20
9.5382841723
 30
0.0
 10
10.561712285
 20
9.5384653885
 30
0.0
 10
10.5615486659
 20
9.5387799567
 30
0.0
 10
10.5613188288
 20
9.5392306784
 30
0.0
 10
10.5610413531
 20
9.5397709714
 30
0.0
 10
10.5606719692
 20
9.5404915623
 30
0.0
 10
10.5602100389
 20
9.5413922322
 30
0.0
 10
10.5596558086
 20
9.5424730655
 30
0.0
 10
10.5591015552
 20
9.543553891
 30
0.0
 10
10.5583625588
 20
9.5449949944
 30
0.0
 10
10.5574388105
 20
9.5467963726
 30
0.0
 10
10.5563303137
 20
9.5489580269
 30
0.0
 10
10.5548523176
 20
9.5518402326
 30
0.0
 10
10.5530048226
 20
9.5554429896
 30
0.0
 10
10.5511573275
 20
9.5590457467
 30
0.0
 10
10.5496793314
 20
9.5619279523
 30
0.0
 10
10.5485708345
 20
9.5640896066
 30
0.0
 10
10.5476470867
 20
9.565890985
 30
0.0
 10
10.5469080891
 20
9.5673320881
 30
0.0
 10
10.5463538394
 20
9.5684129146
 30
0.0
 10
10.5457995956
 20
9.5694937439
 30
0.0
 10
10.545337707
 20
9.5703944262
 30
0.0
 10
10.5449682382
 20
9.5711149919
 30
0.0
 10
10.5447372245
 20
9.5715653001
 30
0.0
 10
10.5445526326
 20
9.5719256506
 30
0.0
 10
10.544413589
 20
9.5721956288
 30
0.0
 10
10.544299627
 20
9.5724215164
 30
0.0
 10
10.5442041789
 20
9.5726001949
 30
0.0
 10
10.5441442836
 20
9.5727397551
 30
0.0
 10
10.5440397646
 20
9.5728581259
 30
0.0
 10
10.5439159937
 20
9.5730233553
 30
0.0
 10
10.543755932
 20
9.5732273526
 30
0.0
 10
10.543566147
 20
9.5734732364
 30
0.0
 10
10.5433123009
 20
9.5738007017
 30
0.0
 10
10.542995267
 20
9.5742101634
 30
0.0
 10
10.5424878598
 20
9.5748652294
 30
0.0
 10
10.5418536533
 20
9.5756840869
 30
0.0
 10
10.5410925829
 20
9.5766667052
 30
0.0
 10
10.5403315186
 20
9.5776493263
 30
0.0
 10
10.539316764
 20
9.5789594868
 30
0.0
 10
10.5380483216
 20
9.5805971878
 30
0.0
 10
10.5365261903
 20
9.5825624289
 30
0.0
 10
10.5344966821
 20
9.5851827503
 30
0.0
 10
10.5319597968
 20
9.5884581521
 30
0.0
 10
10.5294229114
 20
9.5917335538
 30
0.0
 10
10.5273934032
 20
9.5943538753
 30
0.0
 10
10.5258712719
 20
9.5963191162
 30
0.0
 10
10.5246028298
 20
9.5979568177
 30
0.0
 10
10.5235880745
 20
9.5992669771
 30
0.0
 10
10.5228270124
 20
9.6002496015
 30
0.0
 10
10.5220659339
 20
9.6012322076
 30
0.0
 10
10.5214317526
 20
9.6020511031
 30
0.0
 10
10.5209242939
 20
9.6027060916
 30
0.0
 10
10.5205440106
 20
9.6031976824
 30
0.0
 10
10.5202261193
 20
9.6036062299
 30
0.0
 10
10.5200055354
 20
9.6038943944
 30
0.0
 10
10.5198764583
 20
9.6040556541
 30
0.0
 10
10.5197881836
 20
9.6041861927
 30
0.0
 10
10.5196672909
 20
9.6042800587
 30
0.0
 10
10.5195174781
 20
9.6044180051
 30
0.0
 10
10.5192500048
 20
9.6046534514
 30
0.0
 10
10.5188706715
 20
9.6049929191
 30
0.0
 10
10.5184142853
 20
9.6053989467
 30
0.0
 10
10.5178061847
 20
9.6059407827
 30
0.0
 10
10.5170459168
 20
9.6066179179
 30
0.0
 10
10.5161336562
 20
9.6074305486
 30
0.0
 10
10.5152213794
 20
9.608243161
 30
0.0
 10
10.5140050159
 20
9.6093266505
 30
0.0
 10
10.5124845596
 20
9.6106810103
 30
0.0
 10
10.5106600129
 20
9.6123062429
 30
0.0
 10
10.5082272837
 20
9.6144732195
 30
0.0
 10
10.5051863723
 20
9.6171819403
 30
0.0
 10
10.5021454608
 20
9.619890661
 30
0.0
 10
10.4997127317
 20
9.6220576377
 30
0.0
 10
10.4978881846
 20
9.6236828699
 30
0.0
 10
10.4963677294
 20
9.625037231
 30
0.0
 10
10.4951513638
 20
9.6261207179
 30
0.0
 10
10.4942390933
 20
9.6269333383
 30
0.0
 10
10.493326809
 20
9.6277459389
 30
0.0
 10
10.4925666151
 20
9.6284231675
 30
0.0
 10
10.4919583635
 20
9.628964813
 30
0.0
 10
10.4915024383
 20
9.6293714224
 30
0.0
 10
10.4911216626
 20
9.6297090699
 30
0.0
 10
10.4908567642
 20
9.6299477656
 30
0.0
 10
10.4907028259
 20
9.6300805056
 30
0.0
 10
10.4905946055
 20
9.630190364
 30
0.0
 10
10.4904587356
 20
9.6302608375
 30
0.0
 10
10.4902872202
 20
9.6303685401
 30
0.0
 10
10.4899825747
 20
9.6305506189
 30
0.0
 10
10.489549716
 20
9.6308140778
 30
0.0
 10
10.4890292801
 20
9.631128796
 30
0.0
 10
10.4883357169
 20
9.6315489208
 30
0.0
 10
10.4874686422
 20
9.632073905
 30
0.0
 10
10.4864282043
 20
9.6327039597
 30
0.0
 10
10.4853877526
 20
9.6333339947
 30
0.0
 10
10.4840004885
 20
9.6341740482
 30
0.0
 10
10.4822664066
 20
9.6352241128
 30
0.0
 10
10.4801855092
 20
9.6364841912
 30
0.0
 10
10.4774109789
 20
9.6381642955
 30
0.0
 10
10.4739428163
 20
9.640264426
 30
0.0
 10
10.4704746535
 20
9.6423645564
 30
0.0
 10
10.4677001234
 20
9.6440446608
 30
0.0
 10
10.4656192257
 20
9.6453047388
 30
0.0
 10
10.4638851446
 20
9.6463548048
 30
0.0
 10
10.4624978789
 20
9.6471948554
 30
0.0
 10
10.4614574321
 20
9.6478248992
 30
0.0
 10
10.4604169757
 20
9.6484549208
 30
0.0
 10
10.4595499585
 20
9.6489800081
 30
0.0
 10
10.4588562781
 20
9.6493999226
 30
0.0
 10
10.4583361998
 20
9.649715283
 30
0.0
 10
10.4579022224
 20
9.6499767328
 30
0.0
 10
10.4575995742
 20
9.6501623981
 30
0.0
 10
10.4574248585
 20
9.6502643542
 30
0.0
 10
10.4572988187
 20
9.650352479
 30
0.0
 10
10.4571536782
 20
9.6503960421
 30
0.0
 10
10.4569668201
 20
9.6504696698
 30
0.0
 10
10.4566367142
 20
9.6505912764
 30
0.0
 10
10.4561667572
 20
9.6507687862
 30
0.0
 10
10.4556021142
 20
9.6509801773
 30
0.0
 10
10.4548494995
 20
9.6512625983
 30
0.0
 10
10.4539086478
 20
9.6516154303
 30
0.0
 10
10.4527796615
 20
9.6520389119
 30
0.0
 10
10.4516506657
 20
9.6524623712
 30
0.0
 10
10.4501453413
 20
9.6530269915
 30
0.0
 10
10.4482636846
 20
9.6537327641
 30
0.0
 10
10.4460056971
 20
9.6545796924
 30
0.0
 10
10.4429950469
 20
9.6557089298
 30
0.0
 10
10.4392317341
 20
9.6571204766
 30
0.0
 10
10.4354684214
 20
9.6585320234
 30
0.0
 10
10.4324577712
 20
9.6596612608
 30
0.0
 10
10.4301997836
 20
9.660508189
 30
0.0
 10
10.4283181272
 20
9.6612139621
 30
0.0
 10
10.4268128022
 20
9.6617785813
 30
0.0
 10
10.425683808
 20
9.662202044
 30
0.0
 10
10.4245548157
 20
9.6626255131
 30
0.0
 10
10.4236139828
 20
9.662978384
 30
0.0
 10
10.42286133
 20
9.6632607256
 30
0.0
 10
10.4223908911
 20
9.6634370868
 30
0.0
 10
10.4220146106
 20
9.6635784101
 30
0.0
 10
10.421732207
 20
9.6636837611
 30
0.0
 10
10.4214974855
 20
9.663773594
 30
0.0
 10
10.4213083293
 20
9.6638408842
 30
0.0
 10
10.4211702301
 20
9.6639038558
 30
0.0
 10
10.4210177487
 20
9.6639190998
 30
0.0
 10
10.420819464
 20
9.663956097
 30
0.0
 10
10.4205698845
 20
9.6639966234
 30
0.0
 10
10.4202711269
 20
9.6640477035
 30
0.0
 10
10.4198725258
 20
9.6641149551
 30
0.0
 10
10.4193743625
 20
9.6641993125
 30
0.0
 10
10.418577252
 20
9.6643341206
 30
0.0
 10
10.4175808809
 20
9.6645026868
 30
0.0
 10
10.4163852282
 20
9.6647049423
 30
0.0
 10
10.4151895775
 20
9.6649072042
 30
0.0
 10
10.4135953758
 20
9.6651768844
 30
0.0
 10
10.411602624
 20
9.6655139855
 30
0.0
 10
10.4092113217
 20
9.6659185066
 30
0.0
 10
10.4060229187
 20
9.666457868
 30
0.0
 10
10.4020374149
 20
9.6671320698
 30
0.0
 10
10.3980519111
 20
9.6678062716
 30
0.0
 10
10.3948635081
 20
9.668345633
 30
0.0
 10
10.3924722058
 20
9.6687501541
 30
0.0
 10
10.390479454
 20
9.6690872548
 30
0.0
 10
10.3888852524
 20
9.669356936
 30
0.0
 10
10.3876896014
 20
9.6695591951
 30
0.0
 10
10.3864939498
 20
9.669761461
 30
0.0
 10
10.3854975753
 20
9.6699299946
 30
0.0
 10
10.3847004715
 20
9.6700648694
 30
0.0
 10
10.3842022913
 20
9.670149057
 30
0.0
 10
10.3838037251
 20
9.670216657
 30
0.0
 10
10.3835048605
 20
9.6702666728
 30
0.0
 10
10.3832556157
 20
9.6703105292
 30
0.0
 10
10.3830566482
 20
9.6703407326
 30
0.0
 10
10.3829062522
 20
9.6703767244
 30
0.0
 10
10.3827603237
 20
9.6703617999
 30
0.0
 10
10.3825641918
 20
9.6703596864
 30
0.0
 10
10.3823195624
 20
9.6703509422
 30
0.0
 10
10.3820257779
 20
9.6703430612
 30
0.0
 10
10.3816341453
 20
9.6703316408
 30
0.0
 10
10.3811445772
 20
9.6703176777
 30
0.0
 10
10.3803612835
 20
9.6702951622
 30
0.0
 10
10.3793821611
 20
9.6702670777
 30
0.0
 10
10.3782072165
 20
9.6702333506
 30
0.0
 10
10.3770322713
 20
9.6701996304
 30
0.0
 10
10.3754656778
 20
9.6701546677
 30
0.0
 10
10.373507436
 20
9.6700984652
 30
0.0
 10
10.3711575458
 20
9.6700310218
 30
0.0
 10
10.3680243589
 20
9.6699410974
 30
0.0
 10
10.3641078752
 20
9.6698286919
 30
0.0
 10
10.3601913916
 20
9.6697162864
 30
0.0
 10
10.3570582047
 20
9.669626362
 30
0.0
 10
10.3547083145
 20
9.6695589187
 30
0.0
 10
10.3527500727
 20
9.6695027157
 30
0.0
 10
10.3511834792
 20
9.669457754
 30
0.0
 10
10.3500085343
 20
9.6694240309
 30
0.0
 10
10.3488335882
 20
9.6693903145
 30
0.0
 10
10.3478544705
 20
9.6693621968
 30
0.0
 10
10.3470711672
 20
9.6693397491
 30
0.0
 10
10.3465816234
 20
9.6693256133
 30
0.0
 10
10.3461899409
 20
9.6693145474
 30
0.0
 10
10.3458963088
 20
9.6693055836
 30
0.0
 10
10.3456512026
 20
9.6693002271
 30
0.0
 10
10.3454560435
 20
9.669291202
 30
0.0
 10
10.3453071444
 20
9.6692973849
 30
0.0
 10
10.3451679014
 20
9.6692541311
 30
0.0
 10
10.3449788711
 20
9.6692137282
 30
0.0
 10
10.3447437404
 20
9.6691572998
 30
0.0
 10
10.3444610883
 20
9.6690921217
 30
0.0
 10
10.3440843918
 20
9.6690043318
 30
0.0
 10
10.3436134619
 20
9.6688948977
 30
0.0
 10
10.3428600072
 20
9.6687196336
 30
0.0
 10
10.3419181775
 20
9.6685006117
 30
0.0
 10
10.3407879868
 20
9.6682377605
 30
0.0
 10
10.3396577947
 20
9.6679749159
 30
0.0
 10
10.3381508724
 20
9.6676244542
 30
0.0
 10
10.3362672193
 20
9.6671863778
 30
0.0
 10
10.3340068357
 20
9.6666606859
 30
0.0
 10
10.3309929909
 20
9.6659597633
 30
0.0
 10
10.3272256849
 20
9.6650836101
 30
0.0
 10
10.3234583789
 20
9.664207457
 30
0.0
 10
10.3204445341
 20
9.6635065344
 30
0.0
 10
10.3181841505
 20
9.6629808426
 30
0.0
 10
10.3163004976
 20
9.6625427658
 30
0.0
 10
10.314793575
 20
9.6621923049
 30
0.0
 10
10.3136633837
 20
9.6619294576
 30
0.0
 10
10.3125331899
 20
9.6616666167
 30
0.0
 10
10.3115913697
 20
9.6614475627
 30
0.0
 10
10.3108378957
 20
9.6612723641
 30
0.0
 10
10.310367015
 20
9.6611627636
 30
0.0
 10
10.3099902175
 20
9.6610753152
 30
0.0
 10
10.309707874
 20
9.6610090936
 30
0.0
 10
10.3094717778
 20
9.66095593
 30
0.0
 10
10.3092847173
 20
9.6609088663
 30
0.0
 10
10.3091394587
 20
9.6608859543
 30
0.0
 10
10.3090131446
 20
9.6608157658
 30
0.0
 10
10.3088381082
 20
9.6607386954
 30
0.0
 10
10.3086215832
 20
9.6606366914
 30
0.0
 10
10.3083607813
 20
9.6605167119
 30
0.0
 10
10.3080133849
 20
9.660355892
 30
0.0
 10
10.3075790232
 20
9.6601551573
 30
0.0
 10
10.3068841095
 20
9.6598338197
 30
0.0
 10
10.306015445
 20
9.6594322032
 30
0.0
 10
10.3049730571
 20
9.6589502397
 30
0.0
 10
10.3039306667
 20
9.6584682825
 30
0.0
 10
10.3025408138
 20
9.6578256707
 30
0.0
 10
10.3008034973
 20
9.6570224066
 30
0.0
 10
10.2987187176
 20
9.6560584895
 30
0.0
 10
10.2959390113
 20
9.6547732668
 30
0.0
 10
10.2924643785
 20
9.6531667383
 30
0.0
 10
10.2889897456
 20
9.6515602099
 30
0.0
 10
10.2862100394
 20
9.6502749871
 30
0.0
 10
10.2841252596
 20
9.6493110701
 30
0.0
 10
10.2823879433
 20
9.6485078057
 30
0.0
 10
10.28099809
 20
9.6478651947
 30
0.0
 10
10.2799557008
 20
9.6473832349
 30
0.0
 10
10.2789133084
 20
9.6469012813
 30
0.0
 10
10.2780446582
 20
9.6464996338
 30
0.0
 10
10.2773497152
 20
9.6461783594
 30
0.0
 10
10.2769154279
 20
9.6459774637
 30
0.0
 10
10.2765678788
 20
9.6458169744
 30
0.0
 10
10.2763075434
 20
9.6456959851
 30
0.0
 10
10.2760895591
 20
9.6455971403
 30
0.0
 10
10.2759174999
 20
9.6455136246
 30
0.0
 10
10.2757820935
 20
9.6454631197
 30
0.0
 10
10.2756709711
 20
9.6453663072
 30
0.0
 10
10.2755143252
 20
9.6452533996
 30
0.0
 10
10.2753214282
 20
9.6451067154
 30
0.0
 10
10.2750887061
 20
9.6449330698
 30
0.0
 10
10.274778845
 20
9.6447007126
 30
0.0
 10
10.2743913697
 20
9.6444105502
 30
0.0
 10
10.2737714925
 20
9.6439461316
 30
0.0
 10
10.2729966174
 20
9.6433656628
 30
0.0
 10
10.2720667796
 20
9.642669077
 30
0.0
 10
10.2711369384
 20
9.6419724973
 30
0.0
 10
10.2698971514
 20
9.6410437223
 30
0.0
 10
10.2683474172
 20
9.6398827543
 30
0.0
 10
10.2664877363
 20
9.6384895924
 30
0.0
 10
10.2640081617
 20
9.6366320432
 30
0.0
 10
10.2609086935
 20
9.6343101067
 30
0.0
 10
10.2578092254
 20
9.6319881703
 30
0.0
 10
10.2553296508
 20
9.6301306211
 30
0.0
 10
10.2534699699
 20
9.6287374592
 30
0.0
 10
10.2519202358
 20
9.627576491
 30
0.0
 10
10.2506804486
 20
9.6266477163
 30
0.0
 10
10.2497506078
 20
9.6259511357
 30
0.0
 10
10.2488207688
 20
9.6252545535
 30
0.0
 10
10.2480458972
 20
9.6246740735
 30
0.0
 10
10.2474260128
 20
9.6242096777
 30
0.0
 10
10.2470385556
 20
9.6239194572
 30
0.0
 10
10.2467286575
 20
9.6236872194
 30
0.0
 10
10.2464960485
 20
9.6235132092
 30
0.0
 10
10.2463027976
 20
9.6233676655
 30
0.0
 10
10.2461663642
 20
9.6232668353
 30
0.0
 10
10.2460902101
 20
9.623207578
 30
0.0
 10
10.2460280017
 20
9.6231677549
 30
0.0
 10
10.2459852607
 20
9.6231102726
 30
0.0
 10
10.2459214822
 20
9.6230397893
 30
0.0
 10
10.2458130338
 20
9.6229135736
 30
0.0
 10
10.2456564533
 20
9.6227347658
 30
0.0
 10
10.2454692648
 20
9.6225195543
 30
0.0
 10
10.2452194327
 20
9.6222328299
 30
0.0
 10
10.2449072274
 20
9.6218743476
 30
0.0
 10
10.2444076515
 20
9.6213008188
 30
0.0
 10
10.2437831979
 20
9.6205838931
 30
0.0
 10
10.2430338465
 20
9.6197235886
 30
0.0
 10
10.2422844971
 20
9.6188632824
 30
0.0
 10
10.2412853638
 20
9.617716208
 30
0.0
 10
10.2400364475
 20
9.6162823649
 30
0.0
 10
10.2385377477
 20
9.6145617532
 30
0.0
 10
10.2365394815
 20
9.6122676043
 30
0.0
 10
10.2340416487
 20
9.6093999181
 30
0.0
 10
10.2315438158
 20
9.6065322319
 30
0.0
 10
10.2295455496
 20
9.604238083
 30
0.0
 10
10.2280468498
 20
9.6025174713
 30
0.0
 10
10.2267979336
 20
9.6010836281
 30
0.0
 10
10.2257988001
 20
9.5999365539
 30
0.0
 10
10.2250494514
 20
9.5990762472
 30
0.0
 10
10.2243000971
 20
9.5982159446
 30
0.0
 10
10.2236756526
 20
9.597499013
 30
0.0
 10
10.2231760581
 20
9.5969254964
 30
0.0
 10
10.2228639001
 20
9.5965669831
 30
0.0
 10
10.2226139709
 20
9.5962803223
 30
0.0
 10
10.2224270792
 20
9.5960649165
 30
0.0
 10
10.2222695701
 20
9.5958867164
 30
0.0
 10
10.2221475236
 20
9.5957412301
 30
0.0
 10
10.2220451658
 20
9.5956401113
 30
0.0
 10
10.2219841194
 20
9.5955084719
 30
0.0
 10
10.2218882936
 20
9.595343614
 30
0.0
 10
10.2217734624
 20
9.5951338839
 30
0.0
 10
10.2216335457
 20
9.5948837733
 30
0.0
 10
10.2214477304
 20
9.5945497457
 30
0.0
 10
10.2212152077
 20
9.5941323984
 30
0.0
 10
10.2208433131
 20
9.5934645382
 30
0.0
 10
10.2203783963
 20
9.5926297488
 30
0.0
 10
10.2198205169
 20
9.5916279861
 30
0.0
 10
10.219262632
 20
9.5906262275
 30
0.0
 10
10.2185187874
 20
9.5892905479
 30
0.0
 10
10.2175889809
 20
9.587620949
 30
0.0
 10
10.2164732135
 20
9.5856174301
 30
0.0
 10
10.2149855234
 20
9.5829460716
 30
0.0
 10
10.2131259109
 20
9.5796068734
 30
0.0
 10
10.2112662984
 20
9.5762676753
 30
0.0
 10
10.2097786084
 20
9.5735963168
 30
0.0
 10
10.2086628408
 20
9.5715927979
 30
0.0
 10
10.2077330347
 20
9.5699231987
 30
0.0
 10
10.2069891893
 20
9.5685875197
 30
0.0
 10
10.2064313068
 20
9.5675857596
 30
0.0
 10
10.2058734182
 20
9.5665840025
 30
0.0
 10
10.2054085303
 20
9.5657491956
 30
0.0
 10
10.2050365767
 20
9.565081371
 30
0.0
 10
10.2048042041
 20
9.5646639329
 30
0.0
 10
10.2046180808
 20
9.5643300918
 30
0.0
 10
10.204479105
 20
9.5640794115
 30
0.0
 10
10.2043613299
 20
9.563871464
 30
0.0
 10
10.2042715103
 20
9.5637029691
 30
0.0
 10
10.2041921214
 20
9.5635824369
 30
0.0
 10
10.2041586288
 20
9.5634396171
 30
0.0
 10
10.2040979398
 20
9.5632569761
 30
0.0
 10
10.2040275791
 20
9.5630260036
 30
0.0
 10
10.2039407919
 20
9.56274998
 30
0.0
 10
10.203825898
 20
9.5623815492
 30
0.0
 10
10.203681999
 20
9.5619211474
 30
0.0
 10
10.203451918
 20
9.5611844281
 30
0.0
 10
10.2031642628
 20
9.5602635552
 30
0.0
 10
10.2028190996
 20
9.5591584965
 30
0.0
 10
10.2024739302
 20
9.5580534408
 30
0.0
 10
10.2020137066
 20
9.5565800322
 30
0.0
 10
10.2014384263
 20
9.5547382717
 30
0.0
 10
10.2007480903
 20
9.552528159
 30
0.0
 10
10.1998276421
 20
9.5495813421
 30
0.0
 10
10.198677082
 20
9.545897821
 30
0.0
 10
10.1975265218
 20
9.5422142999
 30
0.0
 10
10.1966060737
 20
9.539267483
 30
0.0
 10
10.1959157375
 20
9.5370573704
 30
0.0
 10
10.1953404577
 20
9.5352156097
 30
0.0
 10
10.1948802331
 20
9.5337422015
 30
0.0
 10
10.1945350665
 20
9.5326371446
 30
0.0
 10
10.1941898932
 20
9.5315320902
 30
0.0
 10
10.1939022694
 20
9.530611204
 30
0.0
 10
10.1936721244
 20
9.5298745118
 30
0.0
 10
10.1935283882
 20
9.5294140411
 30
0.0
 10
10.1934131601
 20
9.5290457517
 30
0.0
 10
10.1933273938
 20
9.528769296
 30
0.0
 10
10.193253839
 20
9.5285396755
 30
0.0
 10
10.1931996667
 20
9.5283542762
 30
0.0
 10
10.1931462724
 20
9.5282198799
 30
0.0
 10
10.193141603
 20
9.5280677223
 30
0.0
 10
10.1931183569
 20
9.5278710496
 30
0.0
 10
10.1930951389
 20
9.5276230802
 30
0.0
 10
10.1930647777
 20
9.527326428
 30
0.0
 10
10.1930251691
 20
9.5269305735
 30
0.0
 10
10.1929753595
 20
9.5264358644
 30
0.0
 10
10.1928958312
 20
9.5256442689
 30
0.0
 10
10.1927963635
 20
9.5246547954
 30
0.0
 10
10.1926770269
 20
9.5234674182
 30
0.0
 10
10.1925576837
 20
9.5222800434
 30
0.0
 10
10.1923985616
 20
9.5206968762
 30
0.0
 10
10.1921996583
 20
9.5187179175
 30
0.0
 10
10.1919609747
 20
9.5163431669
 30
0.0
 10
10.1916427298
 20
9.5131768328
 30
0.0
 10
10.1912449236
 20
9.5092189153
 30
0.0
 10
10.1907675562
 20
9.5044694141
 30
0.0
 10
10.1901310664
 20
9.498136746
 30
0.0
 10
10.189653699
 20
9.4933872449
 30
0.0
 10
10.189335454
 20
9.4902209108
 30
0.0
  0
ENDSEC
  0
SECTION
  2
OBJECTS
  0
DICTIONARY
  5
C
100
AcDbDictionary
280
0
281
1
  3
ACAD_GROUP
350
D
  3
ACAD_MLINESTYLE
350
17
  3
ACAD_LAYOUT
350
1A
  3
ACAD_PLOTSETTINGS
350
19
  3
ACAD_PLOTSTYLENAME
350
E
  3
ACAD_IMAGE_DICT
350
       385
  3
ACAD_IMAGE_VARS
350
       386
  3
ACAD_TABLESTYLE
350
       387
  0
IMAGEDEF_REACTOR
  5
384
100
AcDbRasterImageDefReactor
 90
2
330
28B
  0
DICTIONARY
  5
D
102
{ACAD_REACTORS
330
C
102
}
100
AcDbDictionary
280
0
281
1
  0
ACDBDICTIONARYWDFLT
  5
E
102
{ACAD_REACTORS
330
C
102
}
100
AcDbDictionary
281
1
  3
Normal
350
F
100
AcDbDictionaryWithDefault
340
F
  0
DICTIONARY
  5
385
330
C
100
AcDbDictionary
281
1
  3
YHC_assy_2_img_1
350
       38A
  0
RASTERVARIABLES
  5
386
330
C
100
AcDbRasterVariables
 90
0
 70
0
 71
1
 72
5
  0
DICTIONARY
  5
17
102
{ACAD_REACTORS
330
C
102
}
100
AcDbDictionary
280
0
281
1
  3
Standard
350
18
  0
DICTIONARY
  5
387
330
C
100
AcDbDictionary
281
1
  3
Standard
350
       38B
  3
Standard1
350
       38C
  0
DICTIONARY
  5
19
102
{ACAD_REACTORS
330
C
102
}
100
AcDbDictionary
281
1
  0
DICTIONARY
  5
1A
102
{ACAD_REACTORS
330
C
102
}
100
AcDbDictionary
281
1
  3
Model
350
388
  3
Layout1
350
389
  0
ACDBPLACEHOLDER
  5
F
102
{ACAD_REACTORS
330
E
102
}
  0
MLINESTYLE
  5
18
102
{ACAD_REACTORS
330
17
102
}
100
AcDbMlineStyle
  2
STANDARD
 70
0
  3

 62
256
 51
90.0
 52
90.0
 71
2
 49
0.5
 62
256
  6
BYLAYER
 49
-0.5
 62
256
  6
BYLAYER
  0
LAYOUT
  5
388
102
{ACAD_REACTORS
330
1A
102
}
100
AcDbPlotSettings
  1

  2
none_device
  4
ANSI_C_(22.00_x_17.00_Inches)
  6

 40
0.0
 41
0.0
 42
0.0
 43
0.0
 44
558.8
 45
431.8
 46
0.0
 47
0.0
 48
0.0
 49
0.0
140
0.0
141
0.0
142
1.0
143
1.0
 70
1024
 72
0
 73
0
 74
0
  7

 75
0
147
1.0
148
0.0
149
0.0
100
AcDbLayout
  1
Model
 70
0
 71
0
 10
0.0
 20
0.0
 11
22.0
 21
17.0
 12
0.0
 22
0.0
 32
0.0
 14
0.0
 24
0.0
 34
0.0
 15
0.0
 25
0.0
 35
0.0
146
0.0
 13
0.0
 23
0.0
 33
0.0
 16
1.0
 26
0.0
 36
0.0
 17
0.0
 27
1.0
 37
0.0
 76
0
330
20C
345
0
346
0
  0
LAYOUT
  5
389
102
{ACAD_REACTORS
330
1A
102
}
100
AcDbPlotSettings
  1

  2
none_device
  4
ANSI_C_(22.00_x_17.00_Inches)
  6

 40
0.0
 41
0.0
 42
0.0
 43
0.0
 44
558.8
 45
431.8
 46
0.0
 47
0.0
 48
0.0
 49
0.0
140
0.0
141
0.0
142
1.0
143
1.0
 70
0
 72
0
 73
0
 74
0
  7

 75
0
147
1.0
148
0.0
149
0.0
100
AcDbLayout
  1
Layout1
 70
0
 71
1
 10
0.0
 20
0.0
 11
22.0
 21
17.0
 12
0.0
 22
0.0
 32
0.0
 14
0.0
 24
0.0
 34
0.0
 15
0.0
 25
0.0
 35
0.0
146
0.0
 13
0.0
 23
0.0
 33
0.0
 16
1.0
 26
0.0
 36
0.0
 17
0.0
 27
1.0
 37
0.0
 76
0
330
20D
345
0
346
0
  0
IMAGEDEF
  5
38A
102
{ACAD_REACTORS
330
385
330
384
102
}
100
AcDbRasterImageDef
 90
0
  1
YHC_assy_2_img_1.png
 10
369.0
 20
92.0
 11
0.0066666667
 21
0.0066666667
280
1
281
0
  0
TABLESTYLE
  5
38B
102
{ACAD_REACTORS
330
387
330
28E
330
28F
102
}
330
387
100
AcDbTableStyle
  3
Standard
 70
0
 71
0
 40
0.06
 41
0.06
280
1
281
1
  7
Standard
140
0.18
170
1
 62
0
 63
7
283
0
  7
Standard
140
0.18
170
1
 62
0
 63
7
283
0
  7
Standard
140
0.18
170
1
 62
0
 63
7
283
0
  0
TABLESTYLE
  5
38C
102
{ACAD_REACTORS
330
387
330
28D
102
}
330
387
100
AcDbTableStyle
  3
Standard1
 70
1
 71
0
 40
0.06
 41
0.06
280
1
281
1
  7
Standard
140
0.18
170
1
 62
0
 63
7
283
0
  7
Standard
140
0.18
170
1
 62
0
 63
7
283
0
  7
Standard
140
0.18
170
1
 62
0
 63
7
283
0
  0
ENDSEC
  0
EOF
