999
DXF file: YCL_assy_2.dxf
999
Pro/ENGINEER 2014200 by Parametric Technology Corporation
  0
SECTION
  2
HEADER
  9
$ACADVER
  1
AC1021
  9
$DWGCODEPAGE
  3
ANSI_1252
  9
$EXTMAX
 10
22.0
 20
17.0
 30
0.0
  9
$EXTMIN
 10
0.0
 20
0.0
 30
0.0
  9
$LIMMIN
 10
0.0
 20
0.0
  9
$LIMMAX
 10
22.0
 20
17.0
  9
$VIEWCTR
 10
11.0
 20
8.5
  9
$VIEWSIZE
 40
17.0
  9
$CLAYER
  8
0
  9
$LTSCALE
 40
1.21
  9
$CELTYPE
  6
BYLAYER
  9
$DIMSCALE
 40
1.0
  9
$DIMASZ
 40
0.1875
  9
$DIMEXO
 40
0.0625
  9
$DIMDLI
 40
0.836
  9
$DIMEXE
 40
0.125
  9
$DIMCEN
 40
0.198
  9
$DIMLFAC
 40
1.0
  9
$DIMBLK
  1
_FILLED
  9
$DIMTXT
 40
0.1
  9
$DIMTOL
 70
0
  9
$DIMLIM
 70
0
  9
$DIMTFAC
 40
1.0
  9
$DIMGAP
 40
0.09
  9
$DIMDSEP
 70
46
  9
$AUNITS
 70
0
  9
$PDMODE
 70
3
  9
$PDSIZE
 40
0.3125
  9
$HANDSEED
  5
36B
  9
$TILEMODE
 70
1
  9
$MEASUREMENT
 70
0
  9
$INSUNITS
 70
1
  0
ENDSEC
  0
SECTION
  2
CLASSES
  0
CLASS
  1
ACDBDICTIONARYWDFLT
  2
AcDbDictionaryWithDefault
  3
AutoCAD 2000
 90
0
 91
1
280
0
281
0
  0
CLASS
  1
ACDBPLACEHOLDER
  2
AcDbPlaceHolder
  3
AutoCAD 2000
 90
0
 91
1
280
0
281
0
  0
CLASS
  1
LAYOUT
  2
AcDbLayout
  3
AutoCAD 2000
 90
0
 91
0
280
0
281
0
  0
CLASS
  1
RASTERVARIABLES
  2
AcDbRasterVariables
  3
ISM
 90
0
 91
1
280
0
281
0
  0
CLASS
  1
IMAGEDEF
  2
AcDbRasterImageDef
  3
ISM
 90
0
 91
1
280
0
281
0
  0
CLASS
  1
IMAGEDEF_REACTOR
  2
AcDbRasterImageDefReactor
  3
ISM
 90
0
 91
1
280
0
281
0
  0
CLASS
  1
IMAGE
  2
AcDbRasterImage
  3
ISM
 90
127
 91
1
280
0
281
1
  0
CLASS
  1
TABLESTYLE
  2
AcDbTableStyle
  3
ObjectDBX Classes
 90
2047
 91
1
280
0
281
0
  0
CLASS
  1
ACAD_TABLE
  2
AcDbTable
  3
ObjectDBX Classes
 90
1025
 91
3
280
0
281
1
  0
ENDSEC
  0
SECTION
  2
TABLES
  0
TABLE
  2
VPORT
  5
8
100
AcDbSymbolTable
 70
2
  0
VPORT
  5
1F4
100
AcDbSymbolTableRecord
100
AcDbViewportTableRecord
  2
*ACTIVE
 70
0
 10
0.0
 20
0.0
 11
1.0
 21
1.0
 12
11.0
 22
8.5
 13
0.0
 23
0.0
 14
1.0
 24
1.0
 15
0.0
 25
0.0
 16
0.0
 26
0.0
 36
1.0
 17
0.0
 27
0.0
 37
0.0
 40
17.0
 41
1.2941176471
 42
50.0
 43
0.0
 44
0.0
 50
0.0
 51
0.0
 71
0
 72
100
 73
1
 74
1
 75
0
 76
0
 77
0
 78
0
  0
ENDTAB
  0
TABLE
  2
LTYPE
  5
5
100
AcDbSymbolTable
 70
6
  0
LTYPE
  5
14
100
AcDbSymbolTableRecord
100
AcDbLinetypeTableRecord
  2
BYBLOCK
 70
0
  3

 72
65
 73
0
 40
0.0
  0
LTYPE
  5
15
100
AcDbSymbolTableRecord
100
AcDbLinetypeTableRecord
  2
BYLAYER
 70
0
  3

 72
65
 73
0
 40
0.0
  0
LTYPE
  5
16
100
AcDbSymbolTableRecord
100
AcDbLinetypeTableRecord
  2
CONTINUOUS
 70
64
  3
Solid line
 72
65
 73
0
 40
0.0
  0
LTYPE
  5
1F5
100
AcDbSymbolTableRecord
100
AcDbLinetypeTableRecord
  2
CENTER
 70
64
  3
____ _ ____ _ ____ _ ____ _ ____ _ ____ _ ____
 72
65
 73
4
 40
0.6
 49
0.375
 74
0
 49
-0.075
 74
0
 49
0.075
 74
0
 49
-0.075
 74
0
  0
LTYPE
  5
1F6
100
AcDbSymbolTableRecord
100
AcDbLinetypeTableRecord
  2
HIDDEN
 70
64
  3
- - - - - - - - - - - - - - - - - - - -
 72
65
 73
2
 40
0.2
 49
0.1
 74
0
 49
-0.1
 74
0
  0
LTYPE
  5
1F7
100
AcDbSymbolTableRecord
100
AcDbLinetypeTableRecord
  2
PHANTOM
 70
64
  3
_____ _ _ _____ _ _ _____ _ _ _____
 72
65
 73
6
 40
0.8
 49
0.45
 74
0
 49
-0.05
 74
0
 49
0.1
 74
0
 49
-0.05
 74
0
 49
0.1
 74
0
 49
-0.05
 74
0
  0
LTYPE
  5
1F8
100
AcDbSymbolTableRecord
100
AcDbLinetypeTableRecord
  2
DOT
 70
64
  3
. . . . . . . . . . . . . . . . . . . .
 72
65
 73
2
 40
0.2
 49
0.1
 74
0
 49
-0.1
 74
0
  0
LTYPE
  5
1F9
100
AcDbSymbolTableRecord
100
AcDbLinetypeTableRecord
  2
DASHED
 70
64
  3
- - - - - - - - - - - - - - - - - - - -
 72
65
 73
2
 40
0.2
 49
0.1
 74
0
 49
-0.1
 74
0
  0
ENDTAB
  0
TABLE
  2
LAYER
  5
2
100
AcDbSymbolTable
 70
36
  0
LAYER
  5
10
100
AcDbSymbolTableRecord
100
AcDbLayerTableRecord
  2
0
 70
0
 62
7
  6
CONTINUOUS
370
-3
390
F
  0
LAYER
  5
1FA
100
AcDbSymbolTableRecord
100
AcDbLayerTableRecord
  2
DEFAULT_1
 70
0
 62
7
  6
CENTER
370
-3
390
F
  0
LAYER
  5
1FB
100
AcDbSymbolTableRecord
100
AcDbLayerTableRecord
  2
DEFAULT_2
 70
0
 62
8
  6
HIDDEN
370
-3
390
F
  0
LAYER
  5
1FC
100
AcDbSymbolTableRecord
100
AcDbLayerTableRecord
  2
DEFAULT_3
 70
0
 62
7
  6
PHANTOM
370
-3
390
F
  0
LAYER
  5
1FD
100
AcDbSymbolTableRecord
100
AcDbLayerTableRecord
  2
DATUM_PLANES
 70
0
 62
7
  6
CONTINUOUS
370
-3
390
F
  0
LAYER
  5
1FE
100
AcDbSymbolTableRecord
100
AcDbLayerTableRecord
  2
PORT_AREAS
 70
0
 62
7
  6
CONTINUOUS
370
-3
390
F
  0
LAYER
  5
1FF
100
AcDbSymbolTableRecord
100
AcDbLayerTableRecord
  2
SUNNBOMCOSMETIC
 70
0
 62
7
  6
CONTINUOUS
370
-3
390
F
  0
LAYER
  5
200
100
AcDbSymbolTableRecord
100
AcDbLayerTableRecord
  2
SUNNBOMSTAMPING
 70
0
 62
7
  6
CONTINUOUS
370
-3
390
F
  0
LAYER
  5
201
100
AcDbSymbolTableRecord
100
AcDbLayerTableRecord
  2
THREADS
 70
0
 62
7
  6
CONTINUOUS
370
-3
390
F
  0
ENDTAB
  0
TABLE
  2
STYLE
  5
3
100
AcDbSymbolTable
 70
1
  0
STYLE
  5
11
100
AcDbSymbolTableRecord
100
AcDbTextStyleTableRecord
  2
STANDARD
 70
0
 40
0.0
 41
0.8
 50
0.0
 71
0
 42
0.2
  3
txt
  4

  0
STYLE
  5
202
100
AcDbSymbolTableRecord
100
AcDbTextStyleTableRecord
  2
TEXTSTYLE_1
 70
0
 40
0.0
 41
0.8
 50
0.0
 71
0
 42
0.2
  3
gdt
  4

  0
ENDTAB
  0
TABLE
  2
VIEW
  5
6
100
AcDbSymbolTable
 70
0
  0
ENDTAB
  0
TABLE
  2
UCS
  5
7
100
AcDbSymbolTable
 70
0
  0
ENDTAB
  0
TABLE
  2
APPID
  5
9
100
AcDbSymbolTable
 70
1
  0
APPID
  5
203
100
AcDbSymbolTableRecord
100
AcDbRegAppTableRecord
  2
ACAD
 70
0
  0
ENDTAB
  0
TABLE
  2
BLOCK_RECORD
  5
1
100
AcDbSymbolTable
 70
0
  0
BLOCK_RECORD
  5
204
100
AcDbSymbolTableRecord
100
AcDbBlockTableRecord
  2
*Model_Space
  0
BLOCK_RECORD
  5
205
100
AcDbSymbolTableRecord
100
AcDbBlockTableRecord
  2
*Paper_Space
  0
BLOCK_RECORD
  5
206
100
AcDbSymbolTableRecord
100
AcDbBlockTableRecord
  2
SUN_FIRST_THIRD_ANGLE_BL0
  0
BLOCK_RECORD
  5
207
100
AcDbSymbolTableRecord
100
AcDbBlockTableRecord
  2
*T1
  0
BLOCK_RECORD
  5
208
100
AcDbSymbolTableRecord
100
AcDbBlockTableRecord
  2
*T2
  0
BLOCK_RECORD
  5
209
100
AcDbSymbolTableRecord
100
AcDbBlockTableRecord
  2
*T3
  0
ENDTAB
  0
TABLE
  2
DIMSTYLE
  5
A
100
AcDbSymbolTable
 70
1
100
AcDbDimStyleTable
 71
0
  0
DIMSTYLE
105
20A
100
AcDbSymbolTableRecord
100
AcDbDimStyleTableRecord
  2
STANDARD
 70
0
  3

  4

 40
1.0
 41
0.1875
 42
0.0625
 43
0.38
 44
0.125
 45
0.0
 46
0.0
 47
0.001
 48
0.001
140
0.1
141
0.09
142
0.0
143
25.4
144
1.0
145
0.0
146
1.0
147
0.09
 71
0.0
 72
0.0
 73
1
 74
1
 75
0
 76
0
 77
0
 78
4
170
0
171
2
172
0
173
0
174
0
175
0
176
0
177
0
178
0
270
2
271
3
272
3
273
2
274
2
275
0
280
0
281
0
282
0
283
1
284
4
285
0
286
0
287
3
288
0
340
11
278
46
  0
ENDTAB
  0
ENDSEC
  0
SECTION
  2
BLOCKS
  0
BLOCK
  5
20
100
AcDbEntity
  8
0
100
AcDbBlockBegin
  2
*Model_Space
 70
0
 10
0.0
 20
0.0
 30
0.0
  3
*Model_Space
  1

  0
ENDBLK
  5
21
100
AcDbEntity
  8
0
100
AcDbBlockEnd
  0
BLOCK
  5
1C
100
AcDbEntity
  8
0
100
AcDbBlockBegin
  2
*Paper_Space
 70
0
 10
0.0
 20
0.0
 30
0.0
  3
*Paper_Space
  1

  0
ENDBLK
  5
1D
100
AcDbEntity
  8
0
100
AcDbBlockEnd
  0
BLOCK
  5
20B
100
AcDbEntity
  8
0
100
AcDbBlockBegin
 62
2
  6
CONTINUOUS
  2
SUN_FIRST_THIRD_ANGLE_BL0
 70
64
 10
20.4816717061
 20
1.2289683772
  3
SUN_FIRST_THIRD_ANGLE_BL0
  1

  0
TEXT
  5
20C
100
AcDbEntity
  8
0
100
AcDbText
 62
2
  6
CONTINUOUS
 10
19.4750896608
 20
1.4136269581
  7
STANDARD
 40
0.08
  1
FIRST ANGLE
 41
0.8
 72
0
100
AcDbText
  0
TEXT
  5
20D
100
AcDbEntity
  8
0
100
AcDbText
 62
2
  6
CONTINUOUS
 10
20.7842537513
 20
1.4047600029
  7
STANDARD
 40
0.08
  1
THIRD ANGLE
 41
0.8
 72
0
100
AcDbText
  0
LINE
  5
20E
100
AcDbEntity
  8
0
100
AcDbLine
 62
7
  6
CONTINUOUS
 10
19.4767170086
 20
1.1727031207
 11
19.6334271527
 21
1.1717972817
  0
LINE
  5
20F
100
AcDbEntity
  8
0
100
AcDbLine
 62
7
  6
CONTINUOUS
 10
19.6596964832
 20
1.1717972817
 11
19.6950230232
 21
1.171593082
  0
LINE
  5
210
100
AcDbEntity
  8
0
100
AcDbLine
 62
7
  6
CONTINUOUS
 10
19.7194818561
 20
1.1708914427
 11
19.8852396156
 21
1.1699333054
  0
LINE
  5
211
100
AcDbEntity
  8
0
100
AcDbLine
 62
7
  6
CONTINUOUS
 10
19.4758111696
 20
1.2723454088
 11
19.88525039
 21
1.3511534004
  0
LINE
  5
212
100
AcDbEntity
  8
0
100
AcDbLine
 62
7
  6
CONTINUOUS
 10
19.88525039
 20
1.3511534004
 11
19.8831348489
 21
0.9851647912
  0
LINE
  5
213
100
AcDbEntity
  8
0
100
AcDbLine
 62
7
  6
CONTINUOUS
 10
19.8831348489
 20
0.9851647912
 11
19.4767170086
 21
1.0658141206
  0
LINE
  5
214
100
AcDbEntity
  8
0
100
AcDbLine
 62
7
  6
CONTINUOUS
 10
19.4767170086
 20
1.0658141206
 11
19.4779056764
 21
1.2714536432
  0
CIRCLE
  5
215
100
AcDbEntity
  8
0
100
AcDbCircle
 62
7
  6
CONTINUOUS
 10
20.2068232291
 20
1.1717972817
 40
0.175742101
  0
CIRCLE
  5
216
100
AcDbEntity
  8
0
100
AcDbCircle
 62
7
  6
CONTINUOUS
 10
20.2068232291
 20
1.1717972817
 40
0.1005522074
  0
LINE
  5
217
100
AcDbEntity
  8
0
100
AcDbLine
 62
7
  6
CONTINUOUS
 10
20.2077290681
 20
1.3756110529
 11
20.2071171714
 21
1.2379342989
  0
LINE
  5
218
100
AcDbEntity
  8
0
100
AcDbLine
 62
7
  6
CONTINUOUS
 10
20.2077290681
 20
1.2016899681
 11
20.2074674401
 21
1.1428236749
  0
LINE
  5
219
100
AcDbEntity
  8
0
100
AcDbLine
 62
7
  6
CONTINUOUS
 10
20.208634907
 20
1.101141841
 11
20.2080230104
 21
0.963465087
  0
LINE
  5
21A
100
AcDbEntity
  8
0
100
AcDbLine
 62
7
  6
CONTINUOUS
 10
20.0066328138
 20
1.1745147986
 11
20.1443095678
 21
1.1739029019
  0
LINE
  5
21B
100
AcDbEntity
  8
0
100
AcDbLine
 62
7
  6
CONTINUOUS
 10
20.1832714155
 20
1.1727031207
 11
20.238153505
 21
1.172335442
  0
LINE
  5
21C
100
AcDbEntity
  8
0
100
AcDbLine
 62
7
  6
CONTINUOUS
 10
20.2756669918
 20
1.1717972817
 11
20.407916871
 21
1.1712095044
  0
CIRCLE
  5
21D
100
AcDbEntity
  8
0
100
AcDbCircle
 62
7
  6
CONTINUOUS
 10
20.7509457401
 20
1.1693297793
 40
0.1722024983
  0
CIRCLE
  5
21E
100
AcDbEntity
  8
0
100
AcDbCircle
 62
7
  6
CONTINUOUS
 10
20.7509457401
 20
1.1693297793
 40
0.0985164967
  0
LINE
  5
21F
100
AcDbEntity
  8
0
100
AcDbLine
 62
7
  6
CONTINUOUS
 10
20.7169767782
 20
1.170462078
 11
20.7825395137
 21
1.1682766535
  0
LINE
  5
220
100
AcDbEntity
  8
0
100
AcDbLine
 62
7
  6
CONTINUOUS
 10
20.8177513651
 20
1.1693297793
 11
20.947965719
 21
1.1693297793
  0
LINE
  5
221
100
AcDbEntity
  8
0
100
AcDbLine
 62
7
  6
CONTINUOUS
 10
20.6875370113
 20
1.170462078
 11
20.5573226574
 21
1.170462078
  0
LINE
  5
222
100
AcDbEntity
  8
0
100
AcDbLine
 62
7
  6
CONTINUOUS
 10
20.7486811426
 20
1.1987695462
 11
20.7486811426
 21
1.1432869085
  0
LINE
  5
223
100
AcDbEntity
  8
0
100
AcDbLine
 62
7
  6
CONTINUOUS
 10
20.7498134414
 20
1.1059210505
 11
20.7498134414
 21
0.9757066966
  0
LINE
  5
224
100
AcDbEntity
  8
0
100
AcDbLine
 62
7
  6
CONTINUOUS
 10
20.7486811426
 20
1.2338708068
 11
20.7486811426
 21
1.3640851607
  0
LINE
  5
225
100
AcDbEntity
  8
0
100
AcDbLine
 62
7
  6
CONTINUOUS
 10
21.0702539817
 20
1.2701043662
 11
21.4790138229
 21
1.3448360823
  0
LINE
  5
226
100
AcDbEntity
  8
0
100
AcDbLine
 62
7
  6
CONTINUOUS
 10
21.4790138229
 20
1.3448360823
 11
21.4790138229
 21
0.9779712941
  0
LINE
  5
227
100
AcDbEntity
  8
0
100
AcDbLine
 62
7
  6
CONTINUOUS
 10
21.4790138229
 20
0.9779712941
 11
21.069121683
 21
1.0617614
  0
LINE
  5
228
100
AcDbEntity
  8
0
100
AcDbLine
 62
7
  6
CONTINUOUS
 10
21.0702539817
 20
1.2701043662
 11
21.069121683
 21
1.0617614
  0
LINE
  5
229
100
AcDbEntity
  8
0
100
AcDbLine
 62
7
  6
CONTINUOUS
 10
21.4790138229
 20
1.1693297793
 11
21.3159628059
 21
1.1693297793
  0
LINE
  5
22A
100
AcDbEntity
  8
0
100
AcDbLine
 62
7
  6
CONTINUOUS
 10
21.2876553377
 20
1.1693297793
 11
21.2502894796
 21
1.1693297793
  0
LINE
  5
22B
100
AcDbEntity
  8
0
100
AcDbLine
 62
7
  6
CONTINUOUS
 10
21.2208497126
 20
1.1659328831
 11
21.0713862804
 21
1.1659328831
  0
LINE
  5
22C
100
AcDbEntity
  8
0
100
AcDbLine
 62
7
  6
CONTINUOUS
 10
20.4796138713
 20
1.5284908897
 11
20.4766766948
 21
0.9294458646
  0
ENDBLK
  5
22D
100
AcDbEntity
  8
0
  6
BYBLOCK
 62
0
100
AcDbBlockEnd
  0
BLOCK
  5
22E
100
AcDbEntity
  8
0
100
AcDbBlockBegin
  2
*T1
 70
1
 10
0.0
 20
0.0
  3
*T1
  1

  0
LINE
  5
22F
100
AcDbEntity
  8
0
100
AcDbLine
 62
2
  6
CONTINUOUS
 10
9.275
 20
0.0
 11
-0.0
 21
0.0
  0
LINE
  5
230
100
AcDbEntity
  8
0
100
AcDbLine
 62
2
  6
CONTINUOUS
 10
9.275
 20
0.0
 11
9.275
 21
1.25
  0
LINE
  5
231
100
AcDbEntity
  8
0
100
AcDbLine
 62
2
  6
CONTINUOUS
 10
9.275
 20
0.625
 11
-0.0
 21
0.625
  0
LINE
  5
232
100
AcDbEntity
  8
0
100
AcDbLine
 62
2
  6
CONTINUOUS
 10
9.275
 20
1.25
 11
-0.0
 21
1.25
  0
LINE
  5
233
100
AcDbEntity
  8
0
100
AcDbLine
 62
2
  6
CONTINUOUS
 10
6.8
 20
0.0
 11
6.8
 21
1.25
  0
LINE
  5
234
100
AcDbEntity
  8
0
100
AcDbLine
 62
2
  6
CONTINUOUS
 10
6.4
 20
0.0
 11
6.4
 21
0.625
  0
LINE
  5
235
100
AcDbEntity
  8
0
100
AcDbLine
 62
2
  6
CONTINUOUS
 10
5.9
 20
0.0
 11
5.9
 21
0.625
  0
LINE
  5
236
100
AcDbEntity
  8
0
100
AcDbLine
 62
2
  6
CONTINUOUS
 10
5.2
 20
0.0
 11
5.2
 21
0.625
  0
LINE
  5
237
100
AcDbEntity
  8
0
100
AcDbLine
 62
2
  6
CONTINUOUS
 10
4.1
 20
0.0
 11
4.1
 21
1.25
  0
LINE
  5
238
100
AcDbEntity
  8
0
100
AcDbLine
 62
2
  6
CONTINUOUS
 10
-0.0
 20
0.0
 11
-0.0
 21
1.25
  0
MTEXT
  5
239
100
AcDbEntity
  8
0
100
AcDbMText
 62
2
  6
CONTINUOUS
  7
STANDARD
 71
2
 72
1
 10
6.6
 20
0.325
 30
0.0
 11
1.0
 21
0.0
 31
0.0
 44
0.9
  1
2
 40
0.125
 41
0.2
  0
MTEXT
  5
23A
100
AcDbEntity
  8
0
100
AcDbMText
 62
2
  6
CONTINUOUS
  7
STANDARD
 71
2
 72
1
 10
6.15
 20
0.325
 30
0.0
 11
1.0
 21
0.0
 31
0.0
 44
0.9
  1
C
 40
0.125
 41
0.2
  0
MTEXT
  5
23B
100
AcDbEntity
  8
0
100
AcDbMText
 62
2
  6
CONTINUOUS
  7
STANDARD
 71
2
 72
1
 10
5.55
 20
0.325
 30
0.0
 11
1.0
 21
0.0
 31
0.0
 44
0.9
  1
1.000
 40
0.125
 41
1.0
  0
MTEXT
  5
23C
100
AcDbEntity
  8
0
100
AcDbMText
 62
2
  6
CONTINUOUS
  7
STANDARD
 71
2
 72
1
 10
4.65
 20
0.325
 30
0.0
 11
1.0
 21
0.0
 31
0.0
 44
0.9
  1
Sep-19-23
 40
0.125
 41
1.8
  0
MTEXT
  5
23D
100
AcDbEntity
  8
0
100
AcDbMText
 62
2
  6
CONTINUOUS
  7
STANDARD
 71
2
 72
1
 10
2.05
 20
0.4625
 30
0.0
 11
1.0
 21
0.0
 31
0.0
 44
0.9
  1
T-3A Line mount\PCross port with gauge ports
 40
0.125
 41
5.4
  0
MTEXT
  5
23E
100
AcDbEntity
  8
0
100
AcDbMText
 62
2
  6
CONTINUOUS
  7
STANDARD
 71
1
 72
1
 10
6.45
 20
0.5625
 30
0.0
 11
1.0
 21
0.0
 31
0.0
 44
0.9
  1
SHEET
 40
0.06
 41
0.48
  0
MTEXT
  5
23F
100
AcDbEntity
  8
0
100
AcDbMText
 62
2
  6
CONTINUOUS
  7
STANDARD
 71
1
 72
1
 10
5.95
 20
0.5625
 30
0.0
 11
1.0
 21
0.0
 31
0.0
 44
0.9
  1
DWG SIZE
 40
0.06
 41
0.768
  0
MTEXT
  5
240
100
AcDbEntity
  8
0
100
AcDbMText
 62
2
  6
CONTINUOUS
  7
STANDARD
 71
1
 72
1
 10
5.25
 20
0.5625
 30
0.0
 11
1.0
 21
0.0
 31
0.0
 44
0.9
  1
SCALE
 40
0.06
 41
0.48
  0
MTEXT
  5
241
100
AcDbEntity
  8
0
100
AcDbMText
 62
2
  6
CONTINUOUS
  7
STANDARD
 71
1
 72
1
 10
4.15
 20
0.5625
 30
0.0
 11
1.0
 21
0.0
 31
0.0
 44
0.9
  1
DATE
 40
0.06
 41
0.384
  0
MTEXT
  5
242
100
AcDbEntity
  8
0
100
AcDbMText
 62
2
  6
CONTINUOUS
  7
STANDARD
 71
1
 72
1
 10
0.05
 20
0.5625
 30
0.0
 11
1.0
 21
0.0
 31
0.0
 44
0.9
  1
DESCRIPTION
 40
0.06
 41
1.056
  0
MTEXT
  5
243
100
AcDbEntity
  8
0
100
AcDbMText
 62
2
  6
CONTINUOUS
  7
STANDARD
 71
2
 72
1
 10
5.45
 20
1.0375
 30
0.0
 11
1.0
 21
0.0
 31
0.0
 44
0.9
  1
ALL DIMENSIONS IN INCH\PVIEWS ARE THIRD ANGLE
 40
0.12
 41
4.224
  0
MTEXT
  5
244
100
AcDbEntity
  8
0
100
AcDbMText
 62
2
  6
CONTINUOUS
  7
STANDARD
 71
2
 72
1
 10
2.05
 20
0.95
 30
0.0
 11
1.0
 21
0.0
 31
0.0
 44
0.9
  1
YCL
 40
0.125
 41
0.6
  0
MTEXT
  5
245
100
AcDbEntity
  8
0
100
AcDbMText
 62
2
  6
CONTINUOUS
  7
STANDARD
 71
1
 72
1
 10
0.05
 20
1.1875
 30
0.0
 11
1.0
 21
0.0
 31
0.0
 44
0.9
  1
MODEL
 40
0.06
 41
0.48
  0
ENDBLK
  5
246
100
AcDbEntity
  8
0
  6
BYBLOCK
 62
0
100
AcDbBlockEnd
  0
BLOCK
  5
247
100
AcDbEntity
  8
0
100
AcDbBlockBegin
  2
*T2
 70
1
 10
0.0
 20
0.0
  3
*T2
  1

  0
LINE
  5
248
100
AcDbEntity
  8
0
100
AcDbLine
 62
2
  6
CONTINUOUS
 10
0.0
 20
0.0
 11
9.055
 21
0.0
  0
LINE
  5
249
100
AcDbEntity
  8
0
100
AcDbLine
 62
2
  6
CONTINUOUS
 10
0.0
 20
0.0
 11
0.0
 21
-2.594
  0
LINE
  5
24A
100
AcDbEntity
  8
0
100
AcDbLine
 62
2
  6
CONTINUOUS
 10
0.0
 20
-0.344
 11
9.055
 21
-0.344
  0
LINE
  5
24B
100
AcDbEntity
  8
0
100
AcDbLine
 62
2
  6
CONTINUOUS
 10
0.0
 20
-0.594
 11
9.055
 21
-0.594
  0
LINE
  5
24C
100
AcDbEntity
  8
0
100
AcDbLine
 62
2
  6
CONTINUOUS
 10
0.0
 20
-0.844
 11
9.055
 21
-0.844
  0
LINE
  5
24D
100
AcDbEntity
  8
0
100
AcDbLine
 62
2
  6
CONTINUOUS
 10
0.0
 20
-1.094
 11
9.055
 21
-1.094
  0
LINE
  5
24E
100
AcDbEntity
  8
0
100
AcDbLine
 62
2
  6
CONTINUOUS
 10
0.0
 20
-1.344
 11
9.055
 21
-1.344
  0
LINE
  5
24F
100
AcDbEntity
  8
0
100
AcDbLine
 62
2
  6
CONTINUOUS
 10
0.0
 20
-1.594
 11
9.055
 21
-1.594
  0
LINE
  5
250
100
AcDbEntity
  8
0
100
AcDbLine
 62
2
  6
CONTINUOUS
 10
0.0
 20
-1.844
 11
9.055
 21
-1.844
  0
LINE
  5
251
100
AcDbEntity
  8
0
100
AcDbLine
 62
2
  6
CONTINUOUS
 10
0.0
 20
-2.094
 11
9.055
 21
-2.094
  0
LINE
  5
252
100
AcDbEntity
  8
0
100
AcDbLine
 62
2
  6
CONTINUOUS
 10
0.0
 20
-2.344
 11
9.055
 21
-2.344
  0
LINE
  5
253
100
AcDbEntity
  8
0
100
AcDbLine
 62
2
  6
CONTINUOUS
 10
0.0
 20
-2.594
 11
9.055
 21
-2.594
  0
LINE
  5
254
100
AcDbEntity
  8
0
100
AcDbLine
 62
2
  6
CONTINUOUS
 10
3.055
 20
0.0
 11
3.055
 21
-2.594
  0
LINE
  5
255
100
AcDbEntity
  8
0
100
AcDbLine
 62
2
  6
CONTINUOUS
 10
9.055
 20
0.0
 11
9.055
 21
-2.594
  0
MTEXT
  5
256
100
AcDbEntity
  8
0
100
AcDbMText
 62
2
  6
CONTINUOUS
  7
STANDARD
 71
2
 72
1
 10
1.5275
 20
-0.0995
 30
0.0
 11
1.0
 21
0.0
 31
0.0
 44
0.9
  1
Technical Data
 40
0.145
 41
3.248
  0
MTEXT
  5
257
100
AcDbEntity
  8
0
100
AcDbMText
 62
2
  6
CONTINUOUS
  7
STANDARD
 71
2
 72
1
 10
4.555
 20
-0.0995
 30
0.0
 11
1.0
 21
0.0
 31
0.0
 44
0.9
  1
U.S. Units
 40
0.145
 41
2.32
  0
MTEXT
  5
258
100
AcDbEntity
  8
0
100
AcDbMText
 62
2
  6
CONTINUOUS
  7
STANDARD
 71
2
 72
1
 10
7.555
 20
-0.0995
 30
0.0
 11
1.0
 21
0.0
 31
0.0
 44
0.9
  1
Metric Units
 40
0.145
 41
2.784
  0
MTEXT
  5
259
100
AcDbEntity
  8
0
100
AcDbMText
 62
2
  6
CONTINUOUS
  7
STANDARD
 71
2
 72
1
 10
1.5275
 20
-0.4065
 30
0.0
 11
1.0
 21
0.0
 31
0.0
 44
0.9
  1
Cavity
 40
0.125
 41
1.2
  0
MTEXT
  5
25A
100
AcDbEntity
  8
0
100
AcDbMText
 62
2
  6
CONTINUOUS
  7
STANDARD
 71
2
 72
1
 10
6.055
 20
-0.4065
 30
0.0
 11
1.0
 21
0.0
 31
0.0
 44
0.9
  1
T-3A
 40
0.125
 41
0.8
  0
MTEXT
  5
25B
100
AcDbEntity
  8
0
100
AcDbMText
 62
2
  6
CONTINUOUS
  7
STANDARD
 71
2
 72
1
 10
1.5275
 20
-0.6565
 30
0.0
 11
1.0
 21
0.0
 31
0.0
 44
0.9
  1
Body Features
 40
0.125
 41
2.6
  0
MTEXT
  5
25C
100
AcDbEntity
  8
0
100
AcDbMText
 62
2
  6
CONTINUOUS
  7
STANDARD
 71
2
 72
1
 10
6.055
 20
-0.6565
 30
0.0
 11
1.0
 21
0.0
 31
0.0
 44
0.9
  1
Cross port with gauge ports
 40
0.125
 41
5.4
  0
MTEXT
  5
25D
100
AcDbEntity
  8
0
100
AcDbMText
 62
2
  6
CONTINUOUS
  7
STANDARD
 71
2
 72
1
 10
1.5275
 20
-0.9065
 30
0.0
 11
1.0
 21
0.0
 31
0.0
 44
0.9
  1
Body Type
 40
0.125
 41
1.8
  0
MTEXT
  5
25E
100
AcDbEntity
  8
0
100
AcDbMText
 62
2
  6
CONTINUOUS
  7
STANDARD
 71
2
 72
1
 10
6.055
 20
-0.9065
 30
0.0
 11
1.0
 21
0.0
 31
0.0
 44
0.9
  1
Line mount
 40
0.125
 41
2.0
  0
MTEXT
  5
25F
100
AcDbEntity
  8
0
100
AcDbMText
 62
2
  6
CONTINUOUS
  7
STANDARD
 71
2
 72
1
 10
1.5275
 20
-1.1565
 30
0.0
 11
1.0
 21
0.0
 31
0.0
 44
0.9
  1
Interface
 40
0.125
 41
1.8
  0
MTEXT
  5
260
100
AcDbEntity
  8
0
100
AcDbMText
 62
2
  6
CONTINUOUS
  7
STANDARD
 71
2
 72
1
 10
6.055
 20
-1.1565
 30
0.0
 11
1.0
 21
0.0
 31
0.0
 44
0.9
  1
None
 40
0.125
 41
0.8
  0
MTEXT
  5
261
100
AcDbEntity
  8
0
100
AcDbMText
 62
2
  6
CONTINUOUS
  7
STANDARD
 71
2
 72
1
 10
1.5275
 20
-1.4065
 30
0.0
 11
1.0
 21
0.0
 31
0.0
 44
0.9
  1
Open Cavity Quantity
 40
0.125
 41
4.0
  0
MTEXT
  5
262
100
AcDbEntity
  8
0
100
AcDbMText
 62
2
  6
CONTINUOUS
  7
STANDARD
 71
2
 72
1
 10
6.055
 20
-1.4065
 30
0.0
 11
1.0
 21
0.0
 31
0.0
 44
0.9
  1
2
 40
0.125
 41
0.2
  0
MTEXT
  5
263
100
AcDbEntity
  8
0
100
AcDbMText
 62
2
  6
CONTINUOUS
  7
STANDARD
 71
2
 72
1
 10
1.5275
 20
-1.6565
 30
0.0
 11
1.0
 21
0.0
 31
0.0
 44
0.9
  1
Weight
 40
0.125
 41
1.2
  0
MTEXT
  5
264
100
AcDbEntity
  8
0
100
AcDbMText
 62
2
  6
CONTINUOUS
  7
STANDARD
 71
2
 72
1
 10
4.555
 20
-1.6565
 30
0.0
 11
1.0
 21
0.0
 31
0.0
 44
0.9
  1
5.919 lb.
 40
0.125
 41
1.8
  0
MTEXT
  5
265
100
AcDbEntity
  8
0
100
AcDbMText
 62
2
  6
CONTINUOUS
  7
STANDARD
 71
2
 72
1
 10
7.555
 20
-1.6565
 30
0.0
 11
1.0
 21
0.0
 31
0.0
 44
0.9
  1
2,685 kg.
 40
0.125
 41
1.8
  0
MTEXT
  5
266
100
AcDbEntity
  8
0
100
AcDbMText
 62
2
  6
CONTINUOUS
  7
STANDARD
 71
2
 72
1
 10
1.5275
 20
-1.9065
 30
0.0
 11
1.0
 21
0.0
 31
0.0
 44
0.9
  1
Mounting Hole Thread
 40
0.125
 41
4.0
  0
MTEXT
  5
267
100
AcDbEntity
  8
0
100
AcDbMText
 62
2
  6
CONTINUOUS
  7
STANDARD
 71
2
 72
1
 10
4.555
 20
-1.9065
 30
0.0
 11
1.0
 21
0.0
 31
0.0
 44
0.9
  1
.375-16 UNC - 2B in.
 40
0.125
 41
4.0
  0
MTEXT
  5
268
100
AcDbEntity
  8
0
100
AcDbMText
 62
2
  6
CONTINUOUS
  7
STANDARD
 71
2
 72
1
 10
1.5275
 20
-2.1565
 30
0.0
 11
1.0
 21
0.0
 31
0.0
 44
0.9
  1
Mounting Hole Depth
 40
0.125
 41
3.8
  0
MTEXT
  5
269
100
AcDbEntity
  8
0
100
AcDbMText
 62
2
  6
CONTINUOUS
  7
STANDARD
 71
2
 72
1
 10
4.555
 20
-2.1565
 30
0.0
 11
1.0
 21
0.0
 31
0.0
 44
0.9
  1
.62 in.
 40
0.125
 41
1.4
  0
MTEXT
  5
26A
100
AcDbEntity
  8
0
100
AcDbMText
 62
2
  6
CONTINUOUS
  7
STANDARD
 71
2
 72
1
 10
7.555
 20
-2.1565
 30
0.0
 11
1.0
 21
0.0
 31
0.0
 44
0.9
  1
15,7 mm
 40
0.125
 41
1.4
  0
MTEXT
  5
26B
100
AcDbEntity
  8
0
100
AcDbMText
 62
2
  6
CONTINUOUS
  7
STANDARD
 71
2
 72
1
 10
1.5275
 20
-2.4065
 30
0.0
 11
1.0
 21
0.0
 31
0.0
 44
0.9
  1
Mounting Hole Quantity
 40
0.125
 41
4.4
  0
MTEXT
  5
26C
100
AcDbEntity
  8
0
100
AcDbMText
 62
2
  6
CONTINUOUS
  7
STANDARD
 71
2
 72
1
 10
6.055
 20
-2.4065
 30
0.0
 11
1.0
 21
0.0
 31
0.0
 44
0.9
  1
2
 40
0.125
 41
0.2
  0
ENDBLK
  5
26D
100
AcDbEntity
  8
0
  6
BYBLOCK
 62
0
100
AcDbBlockEnd
  0
BLOCK
  5
26E
100
AcDbEntity
  8
0
100
AcDbBlockBegin
  2
*T3
 70
1
 10
0.0
 20
0.0
  3
*T3
  1

  0
LINE
  5
26F
100
AcDbEntity
  8
0
100
AcDbLine
 62
2
  6
CONTINUOUS
 10
0.0
 20
0.0
 11
4.6
 21
0.0
  0
LINE
  5
270
100
AcDbEntity
  8
0
100
AcDbLine
 62
2
  6
CONTINUOUS
 10
0.0
 20
0.0
 11
0.0
 21
-1.18775
  0
LINE
  5
271
100
AcDbEntity
  8
0
100
AcDbLine
 62
2
  6
CONTINUOUS
 10
0.0
 20
-0.34375
 11
4.6
 21
-0.34375
  0
LINE
  5
272
100
AcDbEntity
  8
0
100
AcDbLine
 62
2
  6
CONTINUOUS
 10
0.0
 20
-0.68775
 11
4.6
 21
-0.68775
  0
LINE
  5
273
100
AcDbEntity
  8
0
100
AcDbLine
 62
2
  6
CONTINUOUS
 10
0.0
 20
-0.93775
 11
4.6
 21
-0.93775
  0
LINE
  5
274
100
AcDbEntity
  8
0
100
AcDbLine
 62
2
  6
CONTINUOUS
 10
0.0
 20
-1.18775
 11
4.6
 21
-1.18775
  0
LINE
  5
275
100
AcDbEntity
  8
0
100
AcDbLine
 62
2
  6
CONTINUOUS
 10
1.3
 20
-0.34375
 11
1.3
 21
-1.18775
  0
LINE
  5
276
100
AcDbEntity
  8
0
100
AcDbLine
 62
2
  6
CONTINUOUS
 10
3.3
 20
-0.34375
 11
3.3
 21
-1.18775
  0
LINE
  5
277
100
AcDbEntity
  8
0
100
AcDbLine
 62
2
  6
CONTINUOUS
 10
4.6
 20
0.0
 11
4.6
 21
-1.18775
  0
MTEXT
  5
278
100
AcDbEntity
  8
0
100
AcDbMText
 62
2
  6
CONTINUOUS
  7
STANDARD
 71
2
 72
1
 10
2.3
 20
-0.099375
 30
0.0
 11
1.0
 21
0.0
 31
0.0
 44
0.9
  1
Port Headings
 40
0.145
 41
3.016
  0
MTEXT
  5
279
100
AcDbEntity
  8
0
100
AcDbMText
 62
2
  6
CONTINUOUS
  7
STANDARD
 71
2
 72
1
 10
0.65
 20
-0.44325
 30
0.0
 11
1.0
 21
0.0
 31
0.0
 44
0.9
  1
Product
 40
0.145
 41
1.624
  0
MTEXT
  5
27A
100
AcDbEntity
  8
0
100
AcDbMText
 62
2
  6
CONTINUOUS
  7
STANDARD
 71
2
 72
1
 10
2.3
 20
-0.44325
 30
0.0
 11
1.0
 21
0.0
 31
0.0
 44
0.9
  1
Port
 40
0.145
 41
0.928
  0
MTEXT
  5
27B
100
AcDbEntity
  8
0
100
AcDbMText
 62
2
  6
CONTINUOUS
  7
STANDARD
 71
2
 72
1
 10
3.95
 20
-0.44325
 30
0.0
 11
1.0
 21
0.0
 31
0.0
 44
0.9
  1
Size
 40
0.145
 41
0.928
  0
MTEXT
  5
27C
100
AcDbEntity
  8
0
100
AcDbMText
 62
2
  6
CONTINUOUS
  7
STANDARD
 71
2
 72
1
 10
0.65
 20
-0.75025
 30
0.0
 11
1.0
 21
0.0
 31
0.0
 44
0.9
  1
YCL
 40
0.125
 41
0.6
  0
MTEXT
  5
27D
100
AcDbEntity
  8
0
100
AcDbMText
 62
2
  6
CONTINUOUS
  7
STANDARD
 71
2
 72
1
 10
2.3
 20
-0.75025
 30
0.0
 11
1.0
 21
0.0
 31
0.0
 44
0.9
  1
Ports 1 &  2
 40
0.125
 41
2.4
  0
MTEXT
  5
27E
100
AcDbEntity
  8
0
100
AcDbMText
 62
2
  6
CONTINUOUS
  7
STANDARD
 71
2
 72
1
 10
3.95
 20
-0.75025
 30
0.0
 11
1.0
 21
0.0
 31
0.0
 44
0.9
  1
SAE 12
 40
0.125
 41
1.2
  0
MTEXT
  5
27F
100
AcDbEntity
  8
0
100
AcDbMText
 62
2
  6
CONTINUOUS
  7
STANDARD
 71
2
 72
1
 10
0.65
 20
-1.00025
 30
0.0
 11
1.0
 21
0.0
 31
0.0
 44
0.9
  1
YCL
 40
0.125
 41
0.6
  0
MTEXT
  5
280
100
AcDbEntity
  8
0
100
AcDbMText
 62
2
  6
CONTINUOUS
  7
STANDARD
 71
2
 72
1
 10
2.3
 20
-1.00025
 30
0.0
 11
1.0
 21
0.0
 31
0.0
 44
0.9
  1
Gage Ports
 40
0.125
 41
2.0
  0
MTEXT
  5
281
100
AcDbEntity
  8
0
100
AcDbMText
 62
2
  6
CONTINUOUS
  7
STANDARD
 71
2
 72
1
 10
3.95
 20
-1.00025
 30
0.0
 11
1.0
 21
0.0
 31
0.0
 44
0.9
  1
1/4" NPTF
 40
0.125
 41
1.8
  0
ENDBLK
  5
282
100
AcDbEntity
  8
0
  6
BYBLOCK
 62
0
100
AcDbBlockEnd
  0
ENDSEC
  0
SECTION
  2
ENTITIES
  0
IMAGE
  5
283
100
AcDbEntity
  8
0
100
AcDbRasterImage
 62
7
  6
CONTINUOUS
 10
19.2297077316
 20
0.3094318264
 30
0.0
 11
0.0066666667
 21
0.0
 31
0.0
 12
0.0
 22
0.0066666667
 32
0.0
 13
369.0
 23
92.0
340
       368
 70
9
280
0
281
50
282
50
283
0
360
       362
 71
1
 91
2
 14
-0.5
 24
-0.5
 14
368.5
 24
91.5
  0
INSERT
  5
284
100
AcDbEntity
  8
0
100
AcDbBlockReference
 62
2
  6
CONTINUOUS
  2
SUN_FIRST_THIRD_ANGLE_BL0
 10
20.4816717061
 20
1.2289683772
  0
ACAD_TABLE
  5
285
100
AcDbEntity
  8
0
 62
2
  6
CONTINUOUS
100
AcDbBlockReference
  2
*T1
 10
12.42375
 20
0.30125
 30
0.0
100
AcDbTable
342
       36A
343
207
 11
1.0
 21
0.0
 31
0.0
 90
6
 91
4
 92
6
 93
20
 94
0
 95
0
 96
0
 70
1
 41
0.0
141
0.525
141
0.1
141
0.525
141
0.1
142
4.1
142
1.1
142
0.7
142
0.5
142
0.4
142
2.475
171
1
172
0
173
0
174
0
175
1
176
1
 91
33
178
0
145
0.0
301
CELL_VALUE
 90
4
  1
T-3A Line mount\PCross port with gauge ports
304
ACVALUE_END
170
2
140
0.125
171
1
172
0
173
0
174
0
175
1
176
1
 91
33
178
0
145
0.0
301
CELL_VALUE
 90
4
  1
Sep-19-23
304
ACVALUE_END
170
5
140
0.125
171
1
172
0
173
0
174
0
175
1
176
1
 91
33
178
0
145
0.0
301
CELL_VALUE
 90
4
  1
1.000
304
ACVALUE_END
170
5
140
0.125
171
1
172
0
173
0
174
0
175
1
176
1
 91
33
178
0
145
0.0
301
CELL_VALUE
 90
4
  1
C
304
ACVALUE_END
170
5
140
0.125
171
1
172
0
173
0
174
0
175
1
176
1
 91
33
178
0
145
0.0
301
CELL_VALUE
 90
4
  1
2
304
ACVALUE_END
170
5
140
0.125
171
1
172
0
173
0
174
0
175
1
176
1
 91
33
178
0
145
0.0
301
CELL_VALUE
 90
4
  1
 
304
ACVALUE_END
170
1
140
0.125
171
1
172
0
173
0
174
0
175
1
176
1
 91
33
178
0
145
0.0
301
CELL_VALUE
 90
4
  1
DESCRIPTION
304
ACVALUE_END
170
1
140
0.06
171
1
172
0
173
0
174
0
175
1
176
1
 91
33
178
0
145
0.0
301
CELL_VALUE
 90
4
  1
DATE
304
ACVALUE_END
170
1
140
0.06
171
1
172
0
173
0
174
0
175
1
176
1
 91
33
178
0
145
0.0
301
CELL_VALUE
 90
4
  1
SCALE
304
ACVALUE_END
170
1
140
0.06
171
1
172
0
173
0
174
0
175
1
176
1
 91
33
178
0
145
0.0
301
CELL_VALUE
 90
4
  1
DWG SIZE
304
ACVALUE_END
170
1
140
0.06
171
1
172
0
173
0
174
0
175
1
176
1
 91
33
178
0
145
0.0
301
CELL_VALUE
 90
4
  1
SHEET
304
ACVALUE_END
170
1
140
0.06
171
1
172
0
173
0
174
0
175
1
176
1
 91
33
178
0
145
0.0
301
CELL_VALUE
 90
4
  1
 
304
ACVALUE_END
170
1
140
0.125
171
1
172
0
173
0
174
0
175
1
176
1
 91
33
178
0
145
0.0
301
CELL_VALUE
 90
4
  1
YCL
304
ACVALUE_END
170
5
140
0.125
171
1
172
0
173
0
174
0
175
4
176
1
 91
33
178
0
145
0.0
301
CELL_VALUE
 90
4
  1
ALL DIMENSIONS IN INCH\PVIEWS ARE THIRD ANGLE
304
ACVALUE_END
170
5
140
0.12
171
1
172
0
173
1
174
0
175
1
176
1
 91
1
178
0
145
0.0
170
1
171
1
172
0
173
1
174
0
175
1
176
1
 91
1
178
0
145
0.0
170
1
171
1
172
0
173
1
174
0
175
1
176
1
 91
1
178
0
145
0.0
170
5
171
1
172
0
173
0
174
0
175
1
176
1
 91
33
178
0
145
0.0
301
CELL_VALUE
 90
4
  1
 
304
ACVALUE_END
170
1
140
0.125
171
1
172
0
173
0
174
0
175
1
176
1
 91
33
178
0
145
0.0
301
CELL_VALUE
 90
4
  1
MODEL
304
ACVALUE_END
170
1
140
0.06
171
1
172
0
173
0
174
0
175
1
176
1
 91
33
178
0
145
0.0
301
CELL_VALUE
 90
4
  1
 
304
ACVALUE_END
170
1
140
0.125
171
1
172
0
173
0
174
0
175
1
176
1
 91
33
178
0
145
0.0
301
CELL_VALUE
 90
4
  1
 
304
ACVALUE_END
170
1
140
0.125
171
1
172
0
173
0
174
0
175
1
176
1
 91
33
178
0
145
0.0
301
CELL_VALUE
 90
4
  1
 
304
ACVALUE_END
170
1
140
0.125
171
1
172
0
173
0
174
0
175
1
176
1
 91
33
178
0
145
0.0
301
CELL_VALUE
 90
4
  1
 
304
ACVALUE_END
170
1
140
0.125
171
1
172
0
173
0
174
0
175
1
176
1
 91
33
178
0
145
0.0
301
CELL_VALUE
 90
4
  1
 
304
ACVALUE_END
170
1
140
0.125
  0
ACAD_TABLE
  5
286
100
AcDbEntity
  8
0
 62
2
  6
CONTINUOUS
100
AcDbBlockReference
  2
*T2
 10
12.4237499994
 20
16.47875
 30
0.0
100
AcDbTable
342
       369
343
208
 11
1.0
 21
0.0
 31
0.0
 90
22
 91
10
 92
3
 93
16
 94
0
 95
0
 96
0
 41
0.028
141
0.344
141
0.25
141
0.25
141
0.25
141
0.25
141
0.25
141
0.25
141
0.25
141
0.25
141
0.25
142
3.055
142
3.0
142
3.0
171
1
172
0
173
0
174
0
175
1
176
1
 91
33
178
0
145
0.0
301
CELL_VALUE
 90
4
  1
Technical Data
304
ACVALUE_END
170
5
140
0.145
171
1
172
0
173
0
174
0
175
1
176
1
 91
33
178
0
145
0.0
301
CELL_VALUE
 90
4
  1
U.S. Units
304
ACVALUE_END
170
5
140
0.145
171
1
172
0
173
0
174
0
175
1
176
1
 91
33
178
0
145
0.0
301
CELL_VALUE
 90
4
  1
Metric Units
304
ACVALUE_END
170
5
140
0.145
171
1
172
0
173
0
174
0
175
1
176
1
 91
33
178
0
145
0.0
301
CELL_VALUE
 90
4
  1
Cavity
304
ACVALUE_END
170
5
140
0.125
171
1
172
0
173
0
174
0
175
2
176
1
 91
33
178
0
145
0.0
301
CELL_VALUE
 90
4
  1
T-3A
304
ACVALUE_END
170
5
140
0.125
171
1
172
0
173
1
174
0
175
1
176
1
 91
1
178
0
145
0.0
170
1
171
1
172
0
173
0
174
0
175
1
176
1
 91
33
178
0
145
0.0
301
CELL_VALUE
 90
4
  1
Body Features
304
ACVALUE_END
170
5
140
0.125
171
1
172
0
173
0
174
0
175
2
176
1
 91
33
178
0
145
0.0
301
CELL_VALUE
 90
4
  1
Cross port with gauge ports
304
ACVALUE_END
170
5
140
0.125
171
1
172
0
173
1
174
0
175
1
176
1
 91
1
178
0
145
0.0
170
1
171
1
172
0
173
0
174
0
175
1
176
1
 91
33
178
0
145
0.0
301
CELL_VALUE
 90
4
  1
Body Type
304
ACVALUE_END
170
5
140
0.125
171
1
172
0
173
0
174
0
175
2
176
1
 91
33
178
0
145
0.0
301
CELL_VALUE
 90
4
  1
Line mount
304
ACVALUE_END
170
5
140
0.125
171
1
172
0
173
1
174
0
175
1
176
1
 91
1
178
0
145
0.0
170
1
171
1
172
0
173
0
174
0
175
1
176
1
 91
33
178
0
145
0.0
301
CELL_VALUE
 90
4
  1
Interface
304
ACVALUE_END
170
5
140
0.125
171
1
172
0
173
0
174
0
175
2
176
1
 91
33
178
0
145
0.0
301
CELL_VALUE
 90
4
  1
None
304
ACVALUE_END
170
5
140
0.125
171
1
172
0
173
1
174
0
175
1
176
1
 91
1
178
0
145
0.0
170
1
171
1
172
0
173
0
174
0
175
1
176
1
 91
33
178
0
145
0.0
301
CELL_VALUE
 90
4
  1
Open Cavity Quantity
304
ACVALUE_END
170
5
140
0.125
171
1
172
0
173
0
174
0
175
2
176
1
 91
33
178
0
145
0.0
301
CELL_VALUE
 90
4
  1
2
304
ACVALUE_END
170
5
140
0.125
171
1
172
0
173
1
174
0
175
1
176
1
 91
1
178
0
145
0.0
170
1
171
1
172
0
173
0
174
0
175
1
176
1
 91
33
178
0
145
0.0
301
CELL_VALUE
 90
4
  1
Weight
304
ACVALUE_END
170
5
140
0.125
171
1
172
0
173
0
174
0
175
1
176
1
 91
33
178
0
145
0.0
301
CELL_VALUE
 90
4
  1
5.919 lb.
304
ACVALUE_END
170
5
140
0.125
171
1
172
0
173
0
174
0
175
1
176
1
 91
33
178
0
145
0.0
301
CELL_VALUE
 90
4
  1
2,685 kg.
304
ACVALUE_END
170
5
140
0.125
171
1
172
0
173
0
174
0
175
1
176
1
 91
33
178
0
145
0.0
301
CELL_VALUE
 90
4
  1
Mounting Hole Thread
304
ACVALUE_END
170
5
140
0.125
171
1
172
0
173
0
174
0
175
1
176
1
 91
33
178
0
145
0.0
301
CELL_VALUE
 90
4
  1
.375-16 UNC - 2B in.
304
ACVALUE_END
170
5
140
0.125
171
1
172
0
173
0
174
0
175
1
176
1
 91
33
178
0
145
0.0
301
CELL_VALUE
 90
4
  1
 
304
ACVALUE_END
170
5
140
0.125
171
1
172
0
173
0
174
0
175
1
176
1
 91
33
178
0
145
0.0
301
CELL_VALUE
 90
4
  1
Mounting Hole Depth
304
ACVALUE_END
170
5
140
0.125
171
1
172
0
173
0
174
0
175
1
176
1
 91
33
178
0
145
0.0
301
CELL_VALUE
 90
4
  1
.62 in.
304
ACVALUE_END
170
5
140
0.125
171
1
172
0
173
0
174
0
175
1
176
1
 91
33
178
0
145
0.0
301
CELL_VALUE
 90
4
  1
15,7 mm
304
ACVALUE_END
170
5
140
0.125
171
1
172
0
173
0
174
0
175
1
176
1
 91
33
178
0
145
0.0
301
CELL_VALUE
 90
4
  1
Mounting Hole Quantity
304
ACVALUE_END
170
5
140
0.125
171
1
172
0
173
0
174
0
175
2
176
1
 91
33
178
0
145
0.0
301
CELL_VALUE
 90
4
  1
2
304
ACVALUE_END
170
5
140
0.125
171
1
172
0
173
1
174
0
175
1
176
1
 91
1
178
0
145
0.0
170
1
  0
ACAD_TABLE
  5
287
100
AcDbEntity
  8
0
 62
2
  6
CONTINUOUS
100
AcDbBlockReference
  2
*T3
 10
0.52125
 20
1.709
 30
0.0
100
AcDbTable
342
       369
343
209
 11
1.0
 21
0.0
 31
0.0
 90
22
 91
4
 92
3
 93
16
 94
0
 95
0
 96
0
 41
0.05
141
0.34375
141
0.344
141
0.25
141
0.25
142
1.3
142
2.0
142
1.3
171
1
172
0
173
0
174
0
175
3
176
1
 91
33
178
0
145
0.0
301
CELL_VALUE
 90
4
  1
Port Headings
304
ACVALUE_END
170
5
140
0.145
171
1
172
0
173
1
174
0
175
1
176
1
 91
1
178
0
145
0.0
170
1
171
1
172
0
173
1
174
0
175
1
176
1
 91
1
178
0
145
0.0
170
1
171
1
172
0
173
0
174
0
175
1
176
1
 91
33
178
0
145
0.0
301
CELL_VALUE
 90
4
  1
Product
304
ACVALUE_END
170
5
140
0.145
171
1
172
0
173
0
174
0
175
1
176
1
 91
33
178
0
145
0.0
301
CELL_VALUE
 90
4
  1
Port
304
ACVALUE_END
170
5
140
0.145
171
1
172
0
173
0
174
0
175
1
176
1
 91
33
178
0
145
0.0
301
CELL_VALUE
 90
4
  1
Size
304
ACVALUE_END
170
5
140
0.145
171
1
172
0
173
0
174
0
175
1
176
1
 91
33
178
0
145
0.0
301
CELL_VALUE
 90
4
  1
YCL
304
ACVALUE_END
170
5
140
0.125
171
1
172
0
173
0
174
0
175
1
176
1
 91
33
178
0
145
0.0
301
CELL_VALUE
 90
4
  1
Ports 1 &  2
304
ACVALUE_END
170
5
140
0.125
171
1
172
0
173
0
174
0
175
1
176
1
 91
33
178
0
145
0.0
301
CELL_VALUE
 90
4
  1
SAE 12
304
ACVALUE_END
170
5
140
0.125
171
1
172
0
173
0
174
0
175
1
176
1
 91
33
178
0
145
0.0
301
CELL_VALUE
 90
4
  1
YCL
304
ACVALUE_END
170
5
140
0.125
171
1
172
0
173
0
174
0
175
1
176
1
 91
33
178
0
145
0.0
301
CELL_VALUE
 90
4
  1
Gage Ports
304
ACVALUE_END
170
5
140
0.125
171
1
172
0
173
0
174
0
175
1
176
1
 91
33
178
0
145
0.0
301
CELL_VALUE
 90
4
  1
1/4" NPTF
304
ACVALUE_END
170
5
140
0.125
  0
MTEXT
  5
288
100
AcDbEntity
  8
0
100
AcDbMText
 62
2
  6
CONTINUOUS
  7
STANDARD
 71
1
 72
1
 10
0.52125
 20
5.75995
 30
0.0
 11
1.0
 21
0.0
 31
0.0
 44
0.6
  3
Notes\P \P1. Important: Carefully consider\P   the maximum system pressure. The\P   pressure rating of the manifold is\P   dependent on the manifold material,\P   with the port type/size a secondary\P   consideration. Manifolds\P   constructed of alu
  3
minum are not\P   rated for pressures higher than\P   3000 psi (210 bar), regardless of\P   the port type/size specified.\P2. This drawing is for reference\P   only. It is generated by an\P   automated process and does not fall\P   under Sun's docume
  1
nt control\P   process.
 40
0.1
 41
3.04
  0
LINE
  5
289
100
AcDbEntity
  8
0
100
AcDbLine
 62
7
  6
CONTINUOUS
 10
0.30125
 20
0.30125
 11
0.30125
 21
16.69875
  0
LINE
  5
28A
100
AcDbEntity
  8
0
100
AcDbLine
 62
7
  6
CONTINUOUS
 10
0.30125
 20
0.30125
 11
21.69875
 21
0.30125
  0
LINE
  5
28B
100
AcDbEntity
  8
0
100
AcDbLine
 62
7
  6
CONTINUOUS
 10
0.30125
 20
16.69875
 11
21.69875
 21
16.69875
  0
LINE
  5
28C
100
AcDbEntity
  8
0
100
AcDbLine
 62
7
  6
CONTINUOUS
 10
21.69875
 20
0.30125
 11
21.69875
 21
16.69875
  0
LINE
  5
28D
100
AcDbEntity
  8
0
100
AcDbLine
 62
7
  6
CONTINUOUS
 10
7.709659762
 20
6.5689049024
 11
7.709659762
 21
9.9496454947
  0
LINE
  5
28E
100
AcDbEntity
  8
0
100
AcDbLine
 62
7
  6
CONTINUOUS
 10
8.6155256723
 20
10.8246448244
 11
7.709659762
 21
9.9496454947
  0
LINE
  5
28F
100
AcDbEntity
  8
0
100
AcDbLine
 62
7
  6
CONTINUOUS
 10
7.709659762
 20
6.5689049024
 11
13.3844743277
 21
6.1753551756
  0
LINE
  5
290
100
AcDbEntity
  8
0
100
AcDbLine
 62
4
  6
CONTINUOUS
 10
9.1286049214
 20
9.785558386
 11
9.1286049214
 21
9.6696472826
  0
LINE
  5
291
100
AcDbEntity
  8
0
100
AcDbLine
 62
4
  6
CONTINUOUS
 10
9.1286049214
 20
6.6830044146
 11
9.1286049214
 21
6.5670933111
  0
LINE
  5
292
100
AcDbEntity
  8
0
100
AcDbLine
 62
4
  6
CONTINUOUS
 10
9.0851382576
 20
8.7347475391
 11
9.0923827016
 21
8.7632229111
  0
LINE
  5
293
100
AcDbEntity
  8
0
100
AcDbLine
 62
4
  6
CONTINUOUS
 10
11.9684269051
 20
6.3701509877
 11
12.0263824568
 21
6.3661317565
  0
LINE
  5
294
100
AcDbEntity
  8
0
100
AcDbLine
 62
4
  6
CONTINUOUS
 10
11.990160237
 20
6.4845548794
 11
12.0046491249
 21
6.4835500716
  0
LINE
  5
295
100
AcDbEntity
  8
0
100
AcDbLine
 62
4
  6
CONTINUOUS
 10
9.1575826972
 20
8.7297235002
 11
9.1575826972
 21
8.6910864663
  0
LINE
  5
296
100
AcDbEntity
  8
0
100
AcDbLine
 62
4
  6
CONTINUOUS
 10
9.0923827016
 20
8.7632229111
 11
9.1068715895
 21
8.7815366228
  0
LINE
  5
297
100
AcDbEntity
  8
0
100
AcDbLine
 62
4
  6
CONTINUOUS
 10
9.0923827016
 20
8.7052673594
 11
9.0851382576
 21
8.7347475391
  0
LINE
  5
298
100
AcDbEntity
  8
0
100
AcDbLine
 62
4
  6
CONTINUOUS
 10
9.1575826972
 20
8.6910864663
 11
9.1503382533
 21
8.6819296112
  0
LINE
  5
299
100
AcDbEntity
  8
0
100
AcDbLine
 62
4
  6
CONTINUOUS
 10
10.8406395584
 20
7.1515573476
 11
10.7992427269
 21
7.1544282276
  0
LINE
  5
29A
100
AcDbEntity
  8
0
100
AcDbLine
 62
4
  6
CONTINUOUS
 10
10.7495665623
 20
7.1578732813
 11
10.7247284524
 21
7.1595958101
  0
LINE
  5
29B
100
AcDbEntity
  8
0
100
AcDbLine
 62
4
  6
CONTINUOUS
 10
10.6612533439
 20
7.1639978238
 11
10.6281359009
 21
7.1662945263
  0
LINE
  5
29C
100
AcDbEntity
  8
0
100
AcDbLine
 62
4
  6
CONTINUOUS
 10
10.1755306083
 20
7.1976828099
 11
10.1341337907
 21
7.200553689
  0
LINE
  5
29D
100
AcDbEntity
  8
0
100
AcDbLine
 62
4
  6
CONTINUOUS
 10
10.4377104927
 20
7.1795005732
 11
10.4873866849
 21
7.1760555175
  0
LINE
  5
29E
100
AcDbEntity
  8
0
100
AcDbLine
 62
4
  6
CONTINUOUS
 10
10.9041147221
 20
7.14715533
 11
10.9537908867
 21
7.1437102763
  0
LINE
  5
29F
100
AcDbEntity
  8
0
100
AcDbLine
 62
4
  6
CONTINUOUS
 10
10.2500448898
 20
7.2256326873
 11
10.294201499
 21
7.222570416
  0
LINE
  5
2A0
100
AcDbEntity
  8
0
100
AcDbLine
 62
4
  6
CONTINUOUS
 10
10.06789887
 20
7.2548232851
 11
10.1120554826
 21
7.2296827073
  0
LINE
  5
2A1
100
AcDbEntity
  8
0
100
AcDbLine
 62
4
  6
CONTINUOUS
 10
10.1755306083
 20
7.3135939159
 11
10.1920893368
 21
7.2958868358
  0
LINE
  5
2A2
100
AcDbEntity
  8
0
100
AcDbLine
 62
4
  6
CONTINUOUS
 10
9.1068715895
 20
8.6849440346
 11
9.0923827016
 21
8.7052673594
  0
LINE
  5
2A3
100
AcDbEntity
  8
0
100
AcDbLine
 62
4
  6
CONTINUOUS
 10
9.1503382533
 20
8.7785221994
 11
9.1575826972
 21
8.7683605323
  0
LINE
  5
2A4
100
AcDbEntity
  8
0
100
AcDbLine
 62
4
  6
CONTINUOUS
 10
9.1068715895
 20
8.7815366228
 11
9.1213604774
 21
8.7901910713
  0
LINE
  5
2A5
100
AcDbEntity
  8
0
100
AcDbLine
 62
4
  6
CONTINUOUS
 10
9.1503382533
 20
8.6819296112
 11
9.1358493654
 21
8.6732751601
  0
LINE
  5
2A6
100
AcDbEntity
  8
0
100
AcDbLine
 62
4
  6
CONTINUOUS
 10
10.9372321652
 20
7.2110935482
 11
10.9041147221
 21
7.2133902507
  0
LINE
  5
2A7
100
AcDbEntity
  8
0
100
AcDbLine
 62
4
  6
CONTINUOUS
 10
10.4708279634
 20
7.2434387895
 11
10.4377104927
 21
7.2457354939
  0
LINE
  5
2A8
100
AcDbEntity
  8
0
100
AcDbLine
 62
4
  6
CONTINUOUS
 10
10.1341337907
 20
7.316464795
 11
10.1755306083
 21
7.3135939159
  0
LINE
  5
2A9
100
AcDbEntity
  8
0
100
AcDbLine
 62
4
  6
CONTINUOUS
 10
10.3383581082
 20
7.3023017905
 11
10.404593022
 21
7.2977083836
  0
LINE
  5
2AA
100
AcDbEntity
  8
0
100
AcDbLine
 62
4
  6
CONTINUOUS
 10
10.4377104927
 20
7.2954116792
 11
10.4873866849
 21
7.2919666236
  0
LINE
  5
2AB
100
AcDbEntity
  8
0
100
AcDbLine
 62
4
  6
CONTINUOUS
 10
10.6281359009
 20
7.2822056323
 11
10.6612533439
 21
7.2799089298
  0
LINE
  5
2AC
100
AcDbEntity
  8
0
100
AcDbLine
 62
4
  6
CONTINUOUS
 10
10.7247284524
 20
7.2755069161
 11
10.7495665623
 21
7.2737843873
  0
LINE
  5
2AD
100
AcDbEntity
  8
0
100
AcDbLine
 62
4
  6
CONTINUOUS
 10
10.7992427269
 20
7.2703393336
 11
10.8406395584
 21
7.2674684536
  0
LINE
  5
2AE
100
AcDbEntity
  8
0
100
AcDbLine
 62
4
  6
CONTINUOUS
 10
10.9041147221
 20
7.263066436
 11
10.9537908867
 21
7.2596213823
  0
LINE
  5
2AF
100
AcDbEntity
  8
0
100
AcDbLine
 62
4
  6
CONTINUOUS
 10
10.5798395805
 20
7.4246483207
 11
10.5467221236
 21
7.4269450241
  0
LINE
  5
2B0
100
AcDbEntity
  8
0
100
AcDbLine
 62
4
  6
CONTINUOUS
 10
10.6267559812
 20
7.4213946573
 11
10.6681528127
 21
7.4185237773
  0
LINE
  5
2B1
100
AcDbEntity
  8
0
100
AcDbLine
 62
4
  6
CONTINUOUS
 10
10.9869083298
 20
7.2131680707
 11
11.031064939
 21
7.1880274914
  0
LINE
  5
2B2
100
AcDbEntity
  8
0
100
AcDbLine
 62
4
  6
CONTINUOUS
 10
10.6281359009
 20
7.1662945263
 11
10.6115771793
 21
7.1840016077
  0
LINE
  5
2B3
100
AcDbEntity
  8
0
100
AcDbLine
 62
4
  6
CONTINUOUS
 10
10.7247284524
 20
7.1595958101
 11
10.7081697308
 21
7.1773028915
  0
LINE
  5
2B4
100
AcDbEntity
  8
0
100
AcDbLine
 62
4
  6
CONTINUOUS
 10
10.5467221236
 20
7.4269450241
 11
10.5301633952
 21
7.444652106
  0
LINE
  5
2B5
100
AcDbEntity
  8
0
100
AcDbLine
 62
4
  6
CONTINUOUS
 10
9.9998700871
 20
7.9169226552
 11
9.9998700871
 21
7.8589671022
  0
LINE
  5
2B6
100
AcDbEntity
  8
0
100
AcDbLine
 62
4
  6
CONTINUOUS
 10
10.0578256401
 20
7.8549478709
 11
10.0578256401
 21
7.7969923179
  0
LINE
  5
2B7
100
AcDbEntity
  8
0
100
AcDbLine
 62
4
  6
CONTINUOUS
 10
10.0868034166
 20
7.7949827023
 11
10.0868034166
 21
7.9108938083
  0
LINE
  5
2B8
100
AcDbEntity
  8
0
100
AcDbLine
 62
4
  6
CONTINUOUS
 10
10.1341337907
 20
7.200553689
 11
10.1341337907
 21
7.316464795
  0
LINE
  5
2B9
100
AcDbEntity
  8
0
100
AcDbLine
 62
4
  6
CONTINUOUS
 10
10.1447589697
 20
7.906874577
 11
10.1447589697
 21
7.790963471
  0
LINE
  5
2BA
100
AcDbEntity
  8
0
100
AcDbLine
 62
4
  6
CONTINUOUS
 10
10.1737367462
 20
7.9048649614
 11
10.1737367462
 21
7.7889538554
  0
LINE
  5
2BB
100
AcDbEntity
  8
0
100
AcDbLine
 62
4
  6
CONTINUOUS
 10
10.1920893368
 20
7.2958868358
 11
10.1920893368
 21
7.2130931884
  0
LINE
  5
2BC
100
AcDbEntity
  8
0
100
AcDbLine
 62
4
  6
CONTINUOUS
 10
10.5467221236
 20
7.5428561302
 11
10.5798395805
 21
7.5405594267
  0
LINE
  5
2BD
100
AcDbEntity
  8
0
100
AcDbLine
 62
4
  6
CONTINUOUS
 10
10.5108448795
 20
7.7076197739
 11
10.4722078442
 21
7.7102992614
  0
LINE
  5
2BE
100
AcDbEntity
  8
0
100
AcDbLine
 62
4
  6
CONTINUOUS
 10
12.0046491249
 20
6.4835500716
 11
12.0191380128
 21
6.4728860075
  0
LINE
  5
2BF
100
AcDbEntity
  8
0
100
AcDbLine
 62
4
  6
CONTINUOUS
 10
9.1213604774
 20
8.6742799679
 11
9.1068715895
 21
8.6849440346
  0
LINE
  5
2C0
100
AcDbEntity
  8
0
100
AcDbLine
 62
4
  6
CONTINUOUS
 10
9.1358493654
 20
8.7891862636
 11
9.1503382533
 21
8.7785221994
  0
LINE
  5
2C1
100
AcDbEntity
  8
0
100
AcDbLine
 62
4
  6
CONTINUOUS
 10
10.7495665623
 20
7.2737843873
 11
10.7661252838
 21
7.2560773076
  0
LINE
  5
2C2
100
AcDbEntity
  8
0
100
AcDbLine
 62
4
  6
CONTINUOUS
 10
10.8406395584
 20
7.2674684536
 11
10.8571982799
 21
7.2497613739
  0
LINE
  5
2C3
100
AcDbEntity
  8
0
100
AcDbLine
 62
4
  6
CONTINUOUS
 10
10.4308110176
 20
7.5508945927
 11
10.4639284779
 21
7.4989217037
  0
LINE
  5
2C4
100
AcDbEntity
  8
0
100
AcDbLine
 62
4
  6
CONTINUOUS
 10
10.2721231944
 20
7.3068951973
 11
10.3052406651
 21
7.1886873869
  0
LINE
  5
2C5
100
AcDbEntity
  8
0
100
AcDbLine
 62
4
  6
CONTINUOUS
 10
10.2316922992
 20
7.9008457302
 11
10.2316922992
 21
7.7849346241
  0
LINE
  5
2C6
100
AcDbEntity
  8
0
100
AcDbLine
 62
4
  6
CONTINUOUS
 10
10.3476034052
 20
7.7768961616
 11
10.3476034052
 21
7.8928072677
  0
LINE
  5
2C7
100
AcDbEntity
  8
0
100
AcDbLine
 62
4
  6
CONTINUOUS
 10
10.3714755789
 20
7.1840939801
 11
10.3714755789
 21
7.3000050861
  0
LINE
  5
2C8
100
AcDbEntity
  8
0
100
AcDbLine
 62
4
  6
CONTINUOUS
 10
10.4055589582
 20
7.7728769304
 11
10.4055589582
 21
7.8308324834
  0
LINE
  5
2C9
100
AcDbEntity
  8
0
100
AcDbLine
 62
4
  6
CONTINUOUS
 10
10.4377104927
 20
7.1795005732
 11
10.4377104927
 21
7.2954116792
  0
LINE
  5
2CA
100
AcDbEntity
  8
0
100
AcDbLine
 62
4
  6
CONTINUOUS
 10
10.4528893265
 20
7.7695945582
 11
10.4528893265
 21
7.8275501112
  0
LINE
  5
2CB
100
AcDbEntity
  8
0
100
AcDbLine
 62
4
  6
CONTINUOUS
 10
10.4639284779
 20
7.4989217037
 11
10.4639284779
 21
7.432686783
  0
LINE
  5
2CC
100
AcDbEntity
  8
0
100
AcDbLine
 62
4
  6
CONTINUOUS
 10
11.1676744803
 20
7.7200240394
 11
11.1097189273
 21
7.7240432707
  0
LINE
  5
2CD
100
AcDbEntity
  8
0
100
AcDbLine
 62
4
  6
CONTINUOUS
 10
10.8006226446
 20
7.7454791707
 11
10.7426670916
 21
7.7494984019
  0
LINE
  5
2CE
100
AcDbEntity
  8
0
100
AcDbLine
 62
4
  6
CONTINUOUS
 10
10.6074374679
 20
7.7588766082
 11
10.5494819148
 21
7.7628958394
  0
LINE
  5
2CF
100
AcDbEntity
  8
0
100
AcDbLine
 62
4
  6
CONTINUOUS
 10
10.5108448795
 20
7.7655753269
 11
10.4528893265
 21
7.7695945582
  0
LINE
  5
2D0
100
AcDbEntity
  8
0
100
AcDbLine
 62
4
  6
CONTINUOUS
 10
10.1447589697
 20
7.790963471
 11
10.0868034166
 21
7.7949827023
  0
LINE
  5
2D1
100
AcDbEntity
  8
0
100
AcDbLine
 62
4
  6
CONTINUOUS
 10
10.0578256401
 20
7.7969923179
 11
9.9998700871
 21
7.8010115492
  0
LINE
  5
2D2
100
AcDbEntity
  8
0
100
AcDbLine
 62
4
  6
CONTINUOUS
 10
10.8392596799
 20
7.7427996832
 11
10.8972152329
 21
7.7387804519
  0
LINE
  5
2D3
100
AcDbEntity
  8
0
100
AcDbLine
 62
4
  6
CONTINUOUS
 10
11.0131263389
 20
7.7307419894
 11
11.0710818919
 21
7.7267227582
  0
LINE
  5
2D4
100
AcDbEntity
  8
0
100
AcDbLine
 62
4
  6
CONTINUOUS
 10
11.1097189273
 20
7.7530210472
 11
11.1676744803
 21
7.7490018159
  0
LINE
  5
2D5
100
AcDbEntity
  8
0
100
AcDbLine
 62
4
  6
CONTINUOUS
 10
10.7426670916
 20
7.7881354373
 11
10.8006226446
 21
7.784116206
  0
LINE
  5
2D6
100
AcDbEntity
  8
0
100
AcDbLine
 62
4
  6
CONTINUOUS
 10
10.8006226446
 20
7.8034347237
 11
10.7619856092
 21
7.8061142112
  0
LINE
  5
2D7
100
AcDbEntity
  8
0
100
AcDbLine
 62
4
  6
CONTINUOUS
 10
10.4055589582
 20
7.8308324834
 11
10.3476034052
 21
7.8348517146
  0
LINE
  5
2D8
100
AcDbEntity
  8
0
100
AcDbLine
 62
4
  6
CONTINUOUS
 10
9.9998700871
 20
7.8589671022
 11
10.0578256401
 21
7.8549478709
  0
LINE
  5
2D9
100
AcDbEntity
  8
0
100
AcDbLine
 62
4
  6
CONTINUOUS
 10
10.5494819148
 20
7.8208513925
 11
10.6074374679
 21
7.8168321612
  0
LINE
  5
2DA
100
AcDbEntity
  8
0
100
AcDbLine
 62
4
  6
CONTINUOUS
 10
10.6460745032
 20
7.8141526737
 11
10.7040300562
 21
7.8101334424
  0
LINE
  5
2DB
100
AcDbEntity
  8
0
100
AcDbLine
 62
4
  6
CONTINUOUS
 10
11.0131263389
 20
7.7886975424
 11
11.0710818919
 21
7.7846783112
  0
LINE
  5
2DC
100
AcDbEntity
  8
0
100
AcDbLine
 62
4
  6
CONTINUOUS
 10
11.1097189273
 20
7.7819988237
 11
11.1676744803
 21
7.7779795924
  0
LINE
  5
2DD
100
AcDbEntity
  8
0
100
AcDbLine
 62
4
  6
CONTINUOUS
 10
10.9672448595
 20
7.8208572103
 11
10.9817337477
 21
7.8198524025
  0
LINE
  5
2DE
100
AcDbEntity
  8
0
100
AcDbLine
 62
4
  6
CONTINUOUS
 10
10.0578256401
 20
7.9129034239
 11
9.9998700871
 21
7.9169226552
  0
LINE
  5
2DF
100
AcDbEntity
  8
0
100
AcDbLine
 62
4
  6
CONTINUOUS
 10
10.1737367462
 20
7.9048649614
 11
10.2316922992
 21
7.9008457302
  0
LINE
  5
2E0
100
AcDbEntity
  8
0
100
AcDbLine
 62
4
  6
CONTINUOUS
 10
10.5108448795
 20
7.82353088
 11
10.5108448795
 21
7.7076197739
  0
LINE
  5
2E1
100
AcDbEntity
  8
0
100
AcDbLine
 62
4
  6
CONTINUOUS
 10
10.5301633952
 20
7.444652106
 11
10.5301633952
 21
7.5274457534
  0
LINE
  5
2E2
100
AcDbEntity
  8
0
100
AcDbLine
 62
4
  6
CONTINUOUS
 10
10.5494819148
 20
7.7628958394
 11
10.5494819148
 21
7.8208513925
  0
LINE
  5
2E3
100
AcDbEntity
  8
0
100
AcDbLine
 62
4
  6
CONTINUOUS
 10
10.6074374679
 20
7.8747877142
 11
10.6074374679
 21
7.7588766082
  0
LINE
  5
2E4
100
AcDbEntity
  8
0
100
AcDbLine
 62
4
  6
CONTINUOUS
 10
10.6115771793
 20
7.1840016077
 11
10.6115771793
 21
7.2667952551
  0
LINE
  5
2E5
100
AcDbEntity
  8
0
100
AcDbLine
 62
4
  6
CONTINUOUS
 10
10.6267559812
 20
7.5373057633
 11
10.6267559812
 21
7.4213946573
  0
LINE
  5
2E6
100
AcDbEntity
  8
0
100
AcDbLine
 62
4
  6
CONTINUOUS
 10
10.6460745032
 20
7.8141526737
 11
10.6460745032
 21
7.7561971207
  0
LINE
  5
2E7
100
AcDbEntity
  8
0
100
AcDbLine
 62
4
  6
CONTINUOUS
 10
10.7081697308
 20
7.1773028915
 11
10.7081697308
 21
7.2600965389
  0
LINE
  5
2E8
100
AcDbEntity
  8
0
100
AcDbLine
 62
4
  6
CONTINUOUS
 10
10.7426670916
 20
7.7494984019
 11
10.7426670916
 21
7.7881354373
  0
LINE
  5
2E9
100
AcDbEntity
  8
0
100
AcDbLine
 62
4
  6
CONTINUOUS
 10
10.7661252838
 20
7.2560773076
 11
10.7661252838
 21
7.1732836602
  0
LINE
  5
2EA
100
AcDbEntity
  8
0
100
AcDbLine
 62
4
  6
CONTINUOUS
 10
10.2390057375
 20
7.1932807948
 11
10.2721231944
 21
7.3068951973
  0
LINE
  5
2EB
100
AcDbEntity
  8
0
100
AcDbLine
 62
4
  6
CONTINUOUS
 10
11.9756713491
 20
9.5784544023
 11
11.990160237
 21
9.5871088508
  0
LINE
  5
2EC
100
AcDbEntity
  8
0
100
AcDbLine
 62
4
  6
CONTINUOUS
 10
12.0191380128
 20
9.5368029399
 11
11.990160237
 21
9.5194940394
  0
LINE
  5
2ED
100
AcDbEntity
  8
0
100
AcDbLine
 62
4
  6
CONTINUOUS
 10
12.0191380128
 20
6.4728860075
 11
12.0263824568
 21
6.4627243404
  0
LINE
  5
2EE
100
AcDbEntity
  8
0
100
AcDbLine
 62
4
  6
CONTINUOUS
 10
10.7992427269
 20
7.1544282276
 11
10.7992427269
 21
7.2703393336
  0
LINE
  5
2EF
100
AcDbEntity
  8
0
100
AcDbLine
 62
4
  6
CONTINUOUS
 10
10.8006226446
 20
7.8034347237
 11
10.8006226446
 21
7.7454791707
  0
LINE
  5
2F0
100
AcDbEntity
  8
0
100
AcDbLine
 62
4
  6
CONTINUOUS
 10
10.8392596799
 20
7.8007552362
 11
10.8392596799
 21
7.7427996832
  0
LINE
  5
2F1
100
AcDbEntity
  8
0
100
AcDbLine
 62
4
  6
CONTINUOUS
 10
10.8571982799
 20
7.2497613739
 11
10.8571982799
 21
7.1669677265
  0
LINE
  5
2F2
100
AcDbEntity
  8
0
100
AcDbLine
 62
4
  6
CONTINUOUS
 10
10.8972152329
 20
7.7387804519
 11
10.8972152329
 21
7.7967360049
  0
LINE
  5
2F3
100
AcDbEntity
  8
0
100
AcDbLine
 62
4
  6
CONTINUOUS
 10
10.9041147221
 20
7.14715533
 11
10.9041147221
 21
7.263066436
  0
LINE
  5
2F4
100
AcDbEntity
  8
0
100
AcDbLine
 62
4
  6
CONTINUOUS
 10
10.9358522683
 20
7.7361009644
 11
10.9358522683
 21
7.8520120704
  0
LINE
  5
2F5
100
AcDbEntity
  8
0
100
AcDbLine
 62
4
  6
CONTINUOUS
 10
10.9744893036
 20
7.7334214769
 11
10.9744893036
 21
7.7913770299
  0
LINE
  5
2F6
100
AcDbEntity
  8
0
100
AcDbLine
 62
4
  6
CONTINUOUS
 10
11.0131263389
 20
7.7886975424
 11
11.0131263389
 21
7.7307419894
  0
LINE
  5
2F7
100
AcDbEntity
  8
0
100
AcDbLine
 62
4
  6
CONTINUOUS
 10
11.1097189273
 20
7.7819988237
 11
11.1097189273
 21
7.7530210472
  0
LINE
  5
2F8
100
AcDbEntity
  8
0
100
AcDbLine
 62
4
  6
CONTINUOUS
 10
11.1676744803
 20
7.7490018159
 11
11.1676744803
 21
7.7200240394
  0
LINE
  5
2F9
100
AcDbEntity
  8
0
100
AcDbLine
 62
4
  6
CONTINUOUS
 10
10.4639284779
 20
7.4989217037
 11
10.4970459383
 21
7.5463011853
  0
LINE
  5
2FA
100
AcDbEntity
  8
0
100
AcDbLine
 62
4
  6
CONTINUOUS
 10
11.9684269051
 20
9.569297543
 11
11.9756713491
 21
9.5784544023
  0
LINE
  5
2FB
100
AcDbEntity
  8
0
100
AcDbLine
 62
4
  6
CONTINUOUS
 10
11.990160237
 20
9.5194940394
 11
11.9756713491
 21
9.5011803311
  0
LINE
  5
2FC
100
AcDbEntity
  8
0
100
AcDbLine
 62
4
  6
CONTINUOUS
 10
12.0263824568
 20
9.5459597992
 11
12.0191380128
 21
9.5368029399
  0
LINE
  5
2FD
100
AcDbEntity
  8
0
100
AcDbLine
 62
4
  6
CONTINUOUS
 10
12.0336269008
 20
8.4723136055
 11
12.0191380128
 21
8.4733184133
  0
LINE
  5
2FE
100
AcDbEntity
  8
0
100
AcDbLine
 62
4
  6
CONTINUOUS
 10
9.1358493654
 20
8.6732751601
 11
9.1213604774
 21
8.6742799679
  0
LINE
  5
2FF
100
AcDbEntity
  8
0
100
AcDbLine
 62
4
  6
CONTINUOUS
 10
9.1286049214
 20
8.7317331157
 11
9.1575826972
 21
8.7297235002
  0
LINE
  5
300
100
AcDbEntity
  8
0
100
AcDbLine
 62
4
  6
CONTINUOUS
 10
12.0263824568
 20
8.5307715611
 11
12.0553602327
 21
8.5287619455
  0
LINE
  5
301
100
AcDbEntity
  8
0
100
AcDbLine
 62
4
  6
CONTINUOUS
 10
9.1213604774
 20
8.7901910713
 11
9.1358493654
 21
8.7891862636
  0
LINE
  5
302
100
AcDbEntity
  8
0
100
AcDbLine
 62
4
  6
CONTINUOUS
 10
12.0191380128
 20
8.5892295167
 11
12.0336269008
 21
8.5882247089
  0
LINE
  5
303
100
AcDbEntity
  8
0
100
AcDbLine
 62
4
  6
CONTINUOUS
 10
10.1920893368
 20
7.2130931884
 11
10.1755306083
 21
7.1976828099
  0
LINE
  5
304
100
AcDbEntity
  8
0
100
AcDbLine
 62
4
  6
CONTINUOUS
 10
10.5301633952
 20
7.5274457534
 11
10.5467221236
 21
7.5428561302
  0
LINE
  5
305
100
AcDbEntity
  8
0
100
AcDbLine
 62
4
  6
CONTINUOUS
 10
12.0046491249
 20
8.5805750682
 11
12.0191380128
 21
8.5892295167
  0
LINE
  5
306
100
AcDbEntity
  8
0
100
AcDbLine
 62
4
  6
CONTINUOUS
 10
12.0481157887
 20
8.4809680566
 11
12.0336269008
 21
8.4723136055
  0
LINE
  5
307
100
AcDbEntity
  8
0
100
AcDbLine
 62
4
  6
CONTINUOUS
 10
11.9756713491
 20
9.5011803311
 11
11.9684269051
 21
9.4727049591
  0
LINE
  5
308
100
AcDbEntity
  8
0
100
AcDbLine
 62
4
  6
CONTINUOUS
 10
11.990160237
 20
8.5622613564
 11
12.0046491249
 21
8.5805750682
  0
LINE
  5
309
100
AcDbEntity
  8
0
100
AcDbLine
 62
4
  6
CONTINUOUS
 10
12.0553602327
 20
8.4901249116
 11
12.0481157887
 21
8.4809680566
  0
LINE
  5
30A
100
AcDbEntity
  8
0
100
AcDbLine
 62
4
  6
CONTINUOUS
 10
10.6115771793
 20
7.2667952551
 11
10.6281359009
 21
7.2822056323
  0
LINE
  5
30B
100
AcDbEntity
  8
0
100
AcDbLine
 62
4
  6
CONTINUOUS
 10
10.7081697308
 20
7.2600965389
 11
10.7247284524
 21
7.2755069161
  0
LINE
  5
30C
100
AcDbEntity
  8
0
100
AcDbLine
 62
4
  6
CONTINUOUS
 10
10.7661252838
 20
7.1732836602
 11
10.7495665623
 21
7.1578732813
  0
LINE
  5
30D
100
AcDbEntity
  8
0
100
AcDbLine
 62
4
  6
CONTINUOUS
 10
10.1120554826
 20
7.2738393217
 11
10.06789887
 21
7.2548232851
  0
LINE
  5
30E
100
AcDbEntity
  8
0
100
AcDbLine
 62
4
  6
CONTINUOUS
 10
12.0191380128
 20
8.4733184133
 11
12.0046491249
 21
8.48398248
  0
LINE
  5
30F
100
AcDbEntity
  8
0
100
AcDbLine
 62
4
  6
CONTINUOUS
 10
12.0336269008
 20
8.5882247089
 11
12.0481157887
 21
8.5775606448
  0
LINE
  5
310
100
AcDbEntity
  8
0
100
AcDbLine
 62
4
  6
CONTINUOUS
 10
12.0046491249
 20
8.48398248
 11
11.990160237
 21
8.5043058047
  0
LINE
  5
311
100
AcDbEntity
  8
0
100
AcDbLine
 62
4
  6
CONTINUOUS
 10
12.0263824568
 20
9.5652783118
 11
12.0263824568
 21
9.5459597992
  0
LINE
  5
312
100
AcDbEntity
  8
0
100
AcDbLine
 62
4
  6
CONTINUOUS
 10
12.0263824568
 20
6.4627243404
 11
12.0263824568
 21
6.4434058278
  0
LINE
  5
313
100
AcDbEntity
  8
0
100
AcDbLine
 62
4
  6
CONTINUOUS
 10
12.0553602327
 20
8.5287619455
 11
12.0553602327
 21
8.4901249116
  0
LINE
  5
314
100
AcDbEntity
  8
0
100
AcDbLine
 62
4
  6
CONTINUOUS
 10
11.982915793
 20
8.5337859845
 11
11.990160237
 21
8.5622613564
  0
LINE
  5
315
100
AcDbEntity
  8
0
100
AcDbLine
 62
7
  6
CONTINUOUS
 10
13.3844743277
 20
9.5560957679
 11
14.290340238
 21
10.4310950976
  0
LINE
  5
316
100
AcDbEntity
  8
0
100
AcDbLine
 62
4
  6
CONTINUOUS
 10
10.8571982799
 20
7.1669677265
 11
10.8406395584
 21
7.1515573476
  0
LINE
  5
317
100
AcDbEntity
  8
0
100
AcDbLine
 62
4
  6
CONTINUOUS
 10
11.9684269051
 20
9.4727049591
 11
12.0263824568
 21
9.4686857279
  0
LINE
  5
318
100
AcDbEntity
  8
0
100
AcDbLine
 62
4
  6
CONTINUOUS
 10
12.0481157887
 20
8.5775606448
 11
12.0553602327
 21
8.5673989777
  0
LINE
  5
319
100
AcDbEntity
  8
0
100
AcDbLine
 62
4
  6
CONTINUOUS
 10
11.990160237
 20
8.5043058047
 11
11.982915793
 21
8.5337859845
  0
LINE
  5
31A
100
AcDbEntity
  8
0
100
AcDbLine
 62
4
  6
CONTINUOUS
 10
11.031064939
 20
7.1880274914
 11
10.9869083298
 21
7.1690114563
  0
LINE
  5
31B
100
AcDbEntity
  8
0
100
AcDbLine
 62
4
  6
CONTINUOUS
 10
11.990160237
 20
9.5871088508
 11
12.0046491249
 21
9.5861040431
  0
LINE
  5
31C
100
AcDbEntity
  8
0
100
AcDbLine
 62
7
  6
CONTINUOUS
 10
7.709659762
 20
9.9496454947
 11
13.3844743277
 21
9.5560957679
  0
LINE
  5
31D
100
AcDbEntity
  8
0
100
AcDbLine
 62
4
  6
CONTINUOUS
 10
11.9756713491
 20
6.3986263596
 11
11.9684269051
 21
6.3701509877
  0
LINE
  5
31E
100
AcDbEntity
  8
0
100
AcDbLine
 62
4
  6
CONTINUOUS
 10
12.0046491249
 20
9.5861040431
 11
12.0191380128
 21
9.5754399789
  0
LINE
  5
31F
100
AcDbEntity
  8
0
100
AcDbLine
 62
4
  6
CONTINUOUS
 10
12.0191380128
 20
9.5754399789
 11
12.0263824568
 21
9.5652783118
  0
LINE
  5
320
100
AcDbEntity
  8
0
100
AcDbLine
 62
4
  6
CONTINUOUS
 10
11.9684269051
 20
6.4667435716
 11
11.9756713491
 21
6.4759004309
  0
LINE
  5
321
100
AcDbEntity
  8
0
100
AcDbLine
 62
4
  6
CONTINUOUS
 10
11.990160237
 20
6.4169400679
 11
11.9756713491
 21
6.3986263596
  0
LINE
  5
322
100
AcDbEntity
  8
0
100
AcDbLine
 62
4
  6
CONTINUOUS
 10
12.0263824568
 20
6.4434058278
 11
12.0191380128
 21
6.4342489684
  0
LINE
  5
323
100
AcDbEntity
  8
0
100
AcDbLine
 62
7
  6
CONTINUOUS
 10
14.290340238
 20
10.4310950976
 11
8.6155256723
 21
10.8246448244
  0
LINE
  5
324
100
AcDbEntity
  8
0
100
AcDbLine
 62
7
  6
CONTINUOUS
 10
13.3844743277
 20
6.1753551756
 11
13.3844743277
 21
9.5560957679
  0
LINE
  5
325
100
AcDbEntity
  8
0
100
AcDbLine
 62
4
  6
CONTINUOUS
 10
11.9756713491
 20
6.4759004309
 11
11.990160237
 21
6.4845548794
  0
LINE
  5
326
100
AcDbEntity
  8
0
100
AcDbLine
 62
4
  6
CONTINUOUS
 10
12.0191380128
 20
6.4342489684
 11
11.990160237
 21
6.4169400679
  0
LINE
  5
327
100
AcDbEntity
  8
0
100
AcDbLine
 62
7
  6
CONTINUOUS
 10
14.290340238
 20
7.0503545053
 11
14.290340238
 21
10.4310950976
  0
LINE
  5
328
100
AcDbEntity
  8
0
100
AcDbLine
 62
7
  6
CONTINUOUS
 10
13.3844743277
 20
6.1753551756
 11
14.290340238
 21
7.0503545053
  0
ARC
  5
329
100
AcDbEntity
  8
0
100
AcDbCircle
 62
7
  6
CONTINUOUS
 10
10.8899267825
 20
8.340163945
 40
2.6088099669
100
AcDbArc
 50
353.7834996873
 51
358.2994439265
  0
ARC
  5
32A
100
AcDbEntity
  8
0
100
AcDbCircle
 62
7
  6
CONTINUOUS
 10
11.3137805439
 20
8.3345369785
 40
2.2078035448
100
AcDbArc
 50
359.9713757126
 51
2.3967846719
  0
ARC
  5
32B
100
AcDbEntity
  8
0
100
AcDbCircle
 62
7
  6
CONTINUOUS
 10
9.3372147117
 20
8.4321012799
 40
0.2605771168
100
AcDbArc
 50
266.03281347
 51
266.2531621446
  0
ARC
  5
32C
100
AcDbEntity
  8
0
100
AcDbCircle
 62
7
  6
CONTINUOUS
 10
12.1479705897
 20
8.1400908132
 40
0.1854286437
100
AcDbArc
 50
167.329823841
 51
179.9522901256
  0
ARC
  5
32D
100
AcDbEntity
  8
0
100
AcDbCircle
 62
7
  6
CONTINUOUS
 10
9.2731486195
 20
8.3720711319
 40
0.1764191452
100
AcDbArc
 50
176.0187798987
 51
179.996544235
  0
SPLINE
  5
32E
100
AcDbEntity
  8
0
100
AcDbSpline
 62
7
  6
CONTINUOUS
 70
0
 71
3
 72
88
 73
84
 74
0
 42
0.0000001
 43
0.0000001
 44
0.0000000001
 40
0.0
 40
0.0
 40
0.0
 40
0.0
 40
0.0039801792
 40
0.0081241172
 40
0.01243598
 40
0.0169193385
 40
0.0215772134
 40
0.0264119561
 40
0.0314252255
 40
0.0366182092
 40
0.0419916017
 40
0.0475457243
 40
0.053280501
 40
0.0591955014
 40
0.0652900157
 40
0.0715630029
 40
0.0846386851
 40
0.0984100077
 40
0.1128605893
 40
0.1279711259
 40
0.1437197291
 40
0.1600822028
 40
0.1770322731
 40
0.1945417833
 40
0.2125808723
 40
0.2311181302
 40
0.2501207382
 40
0.2695545985
 40
0.2893844555
 40
0.3095740089
 40
0.3300860277
 40
0.35088246
 40
0.3719245384
 40
0.3931728831
 40
0.414587604
 40
0.4361284004
 40
0.4577546627
 40
0.5010994726
 40
0.5442955201
 40
0.5657361769
 40
0.587017759
 40
0.608100294
 40
0.6289443019
 40
0.6495108962
 40
0.669761887
 40
0.689659886
 40
0.7091684153
 40
0.7282520213
 40
0.7468763866
 40
0.7650084505
 40
0.7826165366
 40
0.799670491
 40
0.8161418345
 40
0.8320039374
 40
0.8472322097
 40
0.8618043242
 40
0.8757004836
 40
0.8889037463
 40
0.8952413481
 40
0.9014009118
 40
0.907381298
 40
0.9131816928
 40
0.9188015488
 40
0.924240662
 40
0.9294992036
 40
0.9345777127
 40
0.9394772236
 40
0.9441992168
 40
0.9487457712
 40
0.9531195672
 40
0.9573239867
 40
0.961363225
 40
0.9652423269
 40
0.9689673822
 40
0.972545554
 40
0.9759852689
 40
0.9824864512
 40
0.9855753166
 40
0.9885737897
 40
0.9914977186
 40
0.9943643246
 40
0.9971920049
 40
1.0
 40
1.0
 40
1.0
 40
1.0
 10
10.3310962907
 20
10.236758926
 30
0.0
 10
10.3294979785
 20
10.2352150749
 30
0.0
 10
10.3261630098
 20
10.2321382886
 30
0.0
 10
10.3208681013
 20
10.2276444049
 30
0.0
 10
10.3151843651
 20
10.223182748
 30
0.0
 10
10.3091149206
 20
10.2187557033
 30
0.0
 10
10.3026627369
 20
10.2143653277
 30
0.0
 10
10.2958309641
 20
10.2100137689
 30
0.0
 10
10.2886230238
 20
10.205703096
 30
0.0
 10
10.2810424888
 20
10.2014355533
 30
0.0
 10
10.273093187
 20
10.1972131971
 30
0.0
 10
10.2647790771
 20
10.1930381808
 30
0.0
 10
10.2561043288
 20
10.1889125848
 30
0.0
 10
10.2470733063
 20
10.1848384673
 30
0.0
 10
10.2376905223
 20
10.1808179038
 30
0.0
 10
10.224535039
 20
10.175456997
 30
0.0
 10
10.2072344717
 20
10.1689188586
 30
0.0
 10
10.1854269119
 20
10.1614227873
 30
0.0
 10
10.1623384152
 20
10.1541869909
 30
0.0
 10
10.1380155346
 20
10.1472261757
 30
0.0
 10
10.1125070976
 20
10.1405545093
 30
0.0
 10
10.0858644865
 20
10.1341855807
 30
0.0
 10
10.0581414097
 20
10.1281323667
 30
0.0
 10
10.0293938147
 20
10.1224071949
 30
0.0
 10
9.9996797535
 20
10.1170217258
 30
0.0
 10
9.9690592586
 20
10.1119869264
 30
0.0
 10
9.9375942149
 20
10.1073130481
 30
0.0
 10
9.9053482321
 20
10.1030096059
 30
0.0
 10
9.8723865143
 20
10.099085361
 30
0.0
 10
9.8387757273
 20
10.0955482971
 30
0.0
 10
9.8045838605
 20
10.0924056072
 30
0.0
 10
9.7698800848
 20
10.0896636825
 30
0.0
 10
9.7347346122
 20
10.0873280994
 30
0.0
 10
9.6992185475
 20
10.0854036058
 30
0.0
 10
9.6634037683
 20
10.0838941252
 30
0.0
 10
9.6273626891
 20
10.0828026954
 30
0.0
 10
9.5790695208
 20
10.0819073427
 30
0.0
 10
9.5186728491
 20
10.0818438002
 30
0.0
 10
9.4583945225
 20
10.0831820005
 30
0.0
 10
9.4104627075
 20
10.0850981059
 30
0.0
 10
9.3748869207
 20
10.0869474159
 30
0.0
 10
9.3396687486
 20
10.0892085628
 30
0.0
 10
9.3048793938
 20
10.0918769841
 30
0.0
 10
9.2705892557
 20
10.0949472437
 30
0.0
 10
9.2368677014
 20
10.0984131002
 30
0.0
 10
9.2037829467
 20
10.102267505
 30
0.0
 10
9.1714019081
 20
10.1065026174
 30
0.0
 10
9.1397900655
 20
10.1111098156
 30
0.0
 10
9.1090113281
 20
10.1160797206
 30
0.0
 10
9.0791279044
 20
10.1214022133
 30
0.0
 10
9.0502001734
 20
10.1270664555
 30
0.0
 10
9.0222865567
 20
10.1330609111
 30
0.0
 10
8.9954433942
 20
10.1393733722
 30
0.0
 10
8.9697248089
 20
10.1459909773
 30
0.0
 10
8.9451826186
 20
10.1529002465
 30
0.0
 10
8.9218661107
 20
10.1600871143
 30
0.0
 10
8.8998223085
 20
10.167536971
 30
0.0
 10
8.8823186818
 20
10.1740373312
 30
0.0
 10
8.8689966228
 20
10.1793692565
 30
0.0
 10
8.8594870675
 20
10.1833698384
 30
0.0
 10
8.8503275776
 20
10.1874247167
 30
0.0
 10
8.8415227306
 20
10.1915318211
 30
0.0
 10
8.8330769598
 20
10.1956891082
 30
0.0
 10
8.824994504
 20
10.1998944955
 30
0.0
 10
8.8172793953
 20
10.2041458355
 30
0.0
 10
8.8099355213
 20
10.2084410765
 30
0.0
 10
8.8029665119
 20
10.2127779999
 30
0.0
 10
8.7963758759
 20
10.2171545408
 30
0.0
 10
8.7901668677
 20
10.2215684978
 30
0.0
 10
8.7843425802
 20
10.2260177379
 30
0.0
 10
8.778905928
 20
10.2305001487
 30
0.0
 10
8.773859582
 20
10.2350135204
 30
0.0
 10
8.769206112
 20
10.2395558675
 30
0.0
 10
8.764947904
 20
10.2441248423
 30
0.0
 10
8.7610868704
 20
10.2487189837
 30
0.0
 10
8.7565574619
 20
10.2547597038
 30
0.0
 10
8.7527112887
 20
10.2609632805
 30
0.0
 10
8.7496575518
 20
10.267299296
 30
0.0
 10
8.7478125242
 20
10.2719852676
 30
0.0
 10
8.7463756867
 20
10.2766826244
 30
0.0
 10
8.7453483112
 20
10.2813891156
 30
0.0
 10
8.7447314443
 20
10.2861013624
 30
0.0
 10
8.7445941089
 20
10.2892495166
 30
0.0
 10
8.7445941044
 20
10.2908172518
 30
0.0
  0
SPLINE
  5
32F
100
AcDbEntity
  8
0
100
AcDbSpline
 62
7
  6
CONTINUOUS
 70
0
 71
3
 72
88
 73
84
 74
0
 42
0.0000001
 43
0.0000001
 44
0.0000000001
 40
0.0
 40
0.0
 40
0.0
 40
0.0
 40
0.0039801792
 40
0.0081241172
 40
0.01243598
 40
0.0169193385
 40
0.0215772134
 40
0.0264119561
 40
0.0314252255
 40
0.0366182092
 40
0.0419916017
 40
0.0475457243
 40
0.053280501
 40
0.0591955014
 40
0.0652900157
 40
0.0715630029
 40
0.0846386851
 40
0.0984100077
 40
0.1128605893
 40
0.1279711259
 40
0.1437197291
 40
0.1600822028
 40
0.1770322731
 40
0.1945417833
 40
0.2125808723
 40
0.2311181302
 40
0.2501207382
 40
0.2695545985
 40
0.2893844555
 40
0.3095740089
 40
0.3300860277
 40
0.35088246
 40
0.3719245384
 40
0.3931728831
 40
0.414587604
 40
0.4361284004
 40
0.4577546627
 40
0.5010994726
 40
0.5442955201
 40
0.5657361769
 40
0.587017759
 40
0.608100294
 40
0.6289443019
 40
0.6495108962
 40
0.669761887
 40
0.689659886
 40
0.7091684153
 40
0.7282520213
 40
0.7468763866
 40
0.7650084505
 40
0.7826165366
 40
0.799670491
 40
0.8161418345
 40
0.8320039374
 40
0.8472322097
 40
0.8618043242
 40
0.8757004836
 40
0.8889037463
 40
0.8952413481
 40
0.9014009118
 40
0.907381298
 40
0.9131816928
 40
0.9188015488
 40
0.924240662
 40
0.9294992036
 40
0.9345777127
 40
0.9394772236
 40
0.9441992168
 40
0.9487457712
 40
0.9531195672
 40
0.9573239867
 40
0.961363225
 40
0.9652423269
 40
0.9689673822
 40
0.972545554
 40
0.9759852689
 40
0.9824864512
 40
0.9855753166
 40
0.9885737897
 40
0.9914977186
 40
0.9943643246
 40
0.9971920049
 40
1.0
 40
1.0
 40
1.0
 40
1.0
 10
13.2288741715
 20
10.0357973474
 30
0.0
 10
13.2272758594
 20
10.0342534963
 30
0.0
 10
13.2239408907
 20
10.03117671
 30
0.0
 10
13.2186459822
 20
10.0266828263
 30
0.0
 10
13.212962246
 20
10.0222211694
 30
0.0
 10
13.2068928015
 20
10.0177941247
 30
0.0
 10
13.2004406178
 20
10.0134037491
 30
0.0
 10
13.193608845
 20
10.0090521903
 30
0.0
 10
13.1864009047
 20
10.0047415174
 30
0.0
 10
13.1788203697
 20
10.0004739747
 30
0.0
 10
13.1708710679
 20
9.9962516185
 30
0.0
 10
13.1625569579
 20
9.9920766023
 30
0.0
 10
13.1538822096
 20
9.9879510062
 30
0.0
 10
13.1448511871
 20
9.9838768887
 30
0.0
 10
13.1354684032
 20
9.9798563252
 30
0.0
 10
13.1223129199
 20
9.9744954184
 30
0.0
 10
13.1050123526
 20
9.96795728
 30
0.0
 10
13.0832047927
 20
9.9604612087
 30
0.0
 10
13.0601162961
 20
9.9532254123
 30
0.0
 10
13.0357934155
 20
9.9462645971
 30
0.0
 10
13.0102849784
 20
9.9395929307
 30
0.0
 10
12.9836423674
 20
9.9332240021
 30
0.0
 10
12.9559192906
 20
9.9271707881
 30
0.0
 10
12.9271716955
 20
9.9214456163
 30
0.0
 10
12.8974576344
 20
9.9160601472
 30
0.0
 10
12.8668371395
 20
9.9110253478
 30
0.0
 10
12.8353720958
 20
9.9063514695
 30
0.0
 10
12.803126113
 20
9.9020480273
 30
0.0
 10
12.7701643951
 20
9.8981237824
 30
0.0
 10
12.7365536082
 20
9.8945867185
 30
0.0
 10
12.7023617414
 20
9.8914440286
 30
0.0
 10
12.6676579657
 20
9.8887021039
 30
0.0
 10
12.6325124931
 20
9.8863665208
 30
0.0
 10
12.5969964284
 20
9.8844420272
 30
0.0
 10
12.5611816491
 20
9.8829325466
 30
0.0
 10
12.52514057
 20
9.8818411168
 30
0.0
 10
12.4768474016
 20
9.8809457641
 30
0.0
 10
12.41645073
 20
9.8808822216
 30
0.0
 10
12.3561724033
 20
9.8822204219
 30
0.0
 10
12.3082405884
 20
9.8841365273
 30
0.0
 10
12.2726648016
 20
9.8859858373
 30
0.0
 10
12.2374466294
 20
9.8882469843
 30
0.0
 10
12.2026572747
 20
9.8909154055
 30
0.0
 10
12.1683671365
 20
9.8939856651
 30
0.0
 10
12.1346455823
 20
9.8974515216
 30
0.0
 10
12.1015608276
 20
9.9013059264
 30
0.0
 10
12.0691797889
 20
9.9055410388
 30
0.0
 10
12.0375679463
 20
9.910148237
 30
0.0
 10
12.006789209
 20
9.915118142
 30
0.0
 10
11.9769057853
 20
9.9204406347
 30
0.0
 10
11.9479780542
 20
9.9261048769
 30
0.0
 10
11.9200644375
 20
9.9320993325
 30
0.0
 10
11.8932212751
 20
9.9384117936
 30
0.0
 10
11.8675026898
 20
9.9450293987
 30
0.0
 10
11.8429604995
 20
9.9519386679
 30
0.0
 10
11.8196439915
 20
9.9591255357
 30
0.0
 10
11.7976001894
 20
9.9665753924
 30
0.0
 10
11.7800965626
 20
9.9730757526
 30
0.0
 10
11.7667745037
 20
9.9784076779
 30
0.0
 10
11.7572649483
 20
9.9824082598
 30
0.0
 10
11.7481054584
 20
9.9864631381
 30
0.0
 10
11.7393006115
 20
9.9905702425
 30
0.0
 10
11.7308548407
 20
9.9947275296
 30
0.0
 10
11.7227723848
 20
9.9989329169
 30
0.0
 10
11.7150572762
 20
10.003184257
 30
0.0
 10
11.7077134021
 20
10.0074794979
 30
0.0
 10
11.7007443927
 20
10.0118164213
 30
0.0
 10
11.6941537567
 20
10.0161929622
 30
0.0
 10
11.6879447486
 20
10.0206069192
 30
0.0
 10
11.6821204611
 20
10.0250561593
 30
0.0
 10
11.6766838088
 20
10.0295385701
 30
0.0
 10
11.6716374629
 20
10.0340519418
 30
0.0
 10
11.6669839928
 20
10.0385942889
 30
0.0
 10
11.6627257848
 20
10.0431632637
 30
0.0
 10
11.6588647512
 20
10.0477574051
 30
0.0
 10
11.6543353428
 20
10.0537981253
 30
0.0
 10
11.6504891695
 20
10.0600017019
 30
0.0
 10
11.6474354327
 20
10.0663377174
 30
0.0
 10
11.6455904051
 20
10.071023689
 30
0.0
 10
11.6441535676
 20
10.0757210458
 30
0.0
 10
11.6431261921
 20
10.080427537
 30
0.0
 10
11.6425093252
 20
10.0851397838
 30
0.0
 10
11.6423719898
 20
10.088287938
 30
0.0
 10
11.6423719853
 20
10.0898556732
 30
0.0
  0
SPLINE
  5
330
100
AcDbEntity
  8
0
100
AcDbSpline
 62
7
  6
CONTINUOUS
 70
0
 71
3
 72
53
 73
49
 74
0
 42
0.0000001
 43
0.0000001
 44
0.0000000001
 40
0.0
 40
0.0
 40
0.0
 40
0.0
 40
0.0417740478
 40
0.0840369835
 40
0.1266585592
 40
0.1695065657
 40
0.2124481957
 40
0.2553501644
 40
0.2980793779
 40
0.3405034127
 40
0.3824910553
 40
0.4239128269
 40
0.4646415185
 40
0.5045527309
 40
0.5435254266
 40
0.5814424966
 40
0.6181913512
 40
0.6536645436
 40
0.6877604426
 40
0.7203839756
 40
0.7361162401
 40
0.7514482063
 40
0.7663702194
 40
0.7808732533
 40
0.7949489098
 40
0.808589482
 40
0.8217880323
 40
0.8345384043
 40
0.8468353889
 40
0.8586746951
 40
0.8700532057
 40
0.8809689358
 40
0.8914213732
 40
0.9014114696
 40
0.9109420597
 40
0.9200179488
 40
0.9286464106
 40
0.9368374402
 40
0.9446043453
 40
0.9519642202
 40
0.9589386335
 40
0.9655543067
 40
0.9718438059
 40
0.9778461959
 40
0.9836073668
 40
0.9891800504
 40
0.9946230772
 40
1.0
 40
1.0
 40
1.0
 40
1.0
 10
13.4815313895
 20
7.9594753999
 30
0.0
 10
13.4815313895
 20
7.9734673157
 30
0.0
 10
13.4817496779
 20
8.0016153365
 30
0.0
 10
13.4827146945
 20
8.0440292024
 30
0.0
 10
13.4843163818
 20
8.086783836
 30
0.0
 10
13.4865494931
 20
8.129737723
 30
0.0
 10
13.4894066464
 20
8.1727487389
 30
0.0
 10
13.4928783988
 20
8.2156745965
 30
0.0
 10
13.4969532489
 20
8.2583732767
 30
0.0
 10
13.5016176889
 20
8.3007035228
 30
0.0
 10
13.506856243
 20
8.3425253036
 30
0.0
 10
13.5126515201
 20
8.3837002824
 30
0.0
 10
13.51898427
 20
8.4240922787
 30
0.0
 10
13.5258334457
 20
8.4635677244
 30
0.0
 10
13.533176272
 20
8.5019961106
 30
0.0
 10
13.5409883182
 20
8.5392504358
 30
0.0
 10
13.5492435812
 20
8.5752076095
 30
0.0
 10
13.5579145572
 20
8.6097489732
 30
0.0
 10
13.5669723784
 20
8.6427603685
 30
0.0
 10
13.5749106856
 20
8.6692147705
 30
0.0
 10
13.5814450671
 20
8.6895216546
 30
0.0
 10
13.5863642775
 20
8.7041183174
 30
0.0
 10
13.5913571508
 20
8.7182540489
 30
0.0
 10
13.5964195637
 20
8.7319171975
 30
0.0
 10
13.6015473177
 20
8.7450964875
 30
0.0
 10
13.6067361735
 20
8.7577810536
 30
0.0
 10
13.6119818121
 20
8.7699604523
 30
0.0
 10
13.6172799293
 20
8.7816246538
 30
0.0
 10
13.6226260959
 20
8.7927640861
 30
0.0
 10
13.6280159644
 20
8.8033695919
 30
0.0
 10
13.6334450225
 20
8.813432511
 30
0.0
 10
13.6389089
 20
8.8229445943
 30
0.0
 10
13.6444030427
 20
8.8318981292
 30
0.0
 10
13.6499230836
 20
8.8402858088
 30
0.0
 10
13.6554644877
 20
8.8481008938
 30
0.0
 10
13.6610229322
 20
8.8553370452
 30
0.0
 10
13.6665939869
 20
8.8619884978
 30
0.0
 10
13.6721734415
 20
8.8680498767
 30
0.0
 10
13.6777570795
 20
8.8735163321
 30
0.0
 10
13.6833408917
 20
8.8783833687
 30
0.0
 10
13.6889209676
 20
8.8826468654
 30
0.0
 10
13.6944935248
 20
8.8863029619
 30
0.0
 10
13.7000548539
 20
8.889347892
 30
0.0
 10
13.7056011085
 20
8.8917780431
 30
0.0
 10
13.7111280721
 20
8.8935896751
 30
0.0
 10
13.7166311313
 20
8.8947794209
 30
0.0
 10
13.7221036514
 20
8.8953442437
 30
0.0
 10
13.7257369374
 20
8.895302787
 30
0.0
 10
13.7275335836
 20
8.8951781887
 30
0.0
  0
SPLINE
  5
331
100
AcDbEntity
  8
0
100
AcDbSpline
 62
7
  6
CONTINUOUS
 70
0
 71
3
 72
15
 73
11
 74
0
 42
0.0000001
 43
0.0000001
 44
0.0000000001
 40
0.0
 40
0.0
 40
0.0
 40
0.0
 40
0.1219437996
 40
0.2441179775
 40
0.3669182402
 40
0.490690224
 40
0.6157069805
 40
0.7421772879
 40
0.8702458362
 40
1.0
 40
1.0
 40
1.0
 40
1.0
 10
9.2043165581
 20
8.2592789351
 30
0.0
 10
9.208227056
 20
8.2557966677
 30
0.0
 10
9.2162947897
 20
8.2490894569
 30
0.0
 10
9.2290541165
 20
8.2398290205
 30
0.0
 10
9.2424349269
 20
8.2313448195
 30
0.0
 10
9.2563997572
 20
8.2236083625
 30
0.0
 10
9.2709121942
 20
8.2165882734
 30
0.0
 10
9.2859356661
 20
8.2102526714
 30
0.0
 10
9.3014338698
 20
8.2045705315
 30
0.0
 10
9.3119898134
 20
8.2012206334
 30
0.0
 10
9.3173335358
 20
8.1996434541
 30
0.0
  0
SPLINE
  5
332
100
AcDbEntity
  8
0
100
AcDbSpline
 62
7
  6
CONTINUOUS
 70
0
 71
3
 72
9
 73
5
 74
0
 42
0.0000001
 43
0.0000001
 44
0.0000000001
 40
0.0
 40
0.0
 40
0.0
 40
0.0
 40
0.5000412307
 40
1.0
 40
1.0
 40
1.0
 40
1.0
 10
9.1789488856
 20
8.3698160255
 30
0.0
 10
9.1822451302
 20
8.3511966922
 30
0.0
 10
9.1898508096
 20
8.314135044
 30
0.0
 10
9.199238839
 20
8.2774900211
 30
0.0
 10
9.2043165581
 20
8.2592789351
 30
0.0
  0
SPLINE
  5
333
100
AcDbEntity
  8
0
100
AcDbSpline
 62
7
  6
CONTINUOUS
 70
0
 71
3
 72
16
 73
12
 74
0
 42
0.0000001
 43
0.0000001
 44
0.0000000001
 40
0.0
 40
0.0
 40
0.0
 40
0.0
 40
0.1348227499
 40
0.2674049395
 40
0.3973384128
 40
0.5242894864
 40
0.6480305152
 40
0.7684736033
 40
0.8857000816
 40
0.9431938477
 40
1.0
 40
1.0
 40
1.0
 40
1.0
 10
11.98030683
 20
8.182451378
 30
0.0
 10
11.9810140731
 20
8.1740823817
 30
0.0
 10
11.9826070886
 20
8.1574985453
 30
0.0
 10
11.9856734683
 20
8.1329329439
 30
0.0
 10
11.9895089534
 20
8.1089701933
 30
0.0
 10
11.994224266
 20
8.0857244662
 30
0.0
 10
11.9999274165
 20
8.0633076417
 30
0.0
 10
12.0067182748
 20
8.041827922
 30
0.0
 10
12.0134010073
 20
8.0246802358
 30
0.0
 10
12.0193748055
 20
8.0115494342
 30
0.0
 10
12.0225717347
 20
8.0051846014
 30
0.0
 10
12.0242235485
 20
8.0020550141
 30
0.0
  0
SPLINE
  5
334
100
AcDbEntity
  8
0
100
AcDbSpline
 62
7
  6
CONTINUOUS
 70
0
 71
3
 72
31
 73
27
 74
0
 42
0.0000001
 43
0.0000001
 44
0.0000000001
 40
0.0
 40
0.0
 40
0.0
 40
0.0
 40
0.063458931
 40
0.0956042912
 40
0.1279105911
 40
0.1926860023
 40
0.2572821904
 40
0.3213637851
 40
0.3847619029
 40
0.4474368085
 40
0.5094406907
 40
0.5708876665
 40
0.6014588093
 40
0.6319516457
 40
0.662389611
 40
0.6927967155
 40
0.7231971432
 40
0.7536151498
 40
0.7840742379
 40
0.8145964598
 40
0.8452021468
 40
0.8759093585
 40
0.9067331686
 40
0.9376843755
 40
0.9687730634
 40
1.0
 40
1.0
 40
1.0
 40
1.0
 10
9.3191866436
 20
8.1721485485
 30
0.0
 10
9.312249627
 20
8.1726296323
 30
0.0
 10
9.3018221972
 20
8.1737710831
 30
0.0
 10
9.2879949774
 20
8.1760778416
 30
0.0
 10
9.2741210667
 20
8.1789265977
 30
0.0
 10
9.2569735559
 20
8.1834477787
 30
0.0
 10
9.2369098303
 20
8.1903476725
 30
0.0
 10
9.217554972
 20
8.1986682406
 30
0.0
 10
9.1990862767
 20
8.2083623252
 30
0.0
 10
9.1816525743
 20
8.2193979307
 30
0.0
 10
9.1653931361
 20
8.2317524556
 30
0.0
 10
9.1529141661
 20
8.2431557147
 30
0.0
 10
9.1436805659
 20
8.2529065233
 30
0.0
 10
9.1371522803
 20
8.2605223773
 30
0.0
 10
9.1310312969
 20
8.2684466256
 30
0.0
 10
9.1253389951
 20
8.2766722552
 30
0.0
 10
9.1200975156
 20
8.2851899331
 30
0.0
 10
9.1153292524
 20
8.2939880147
 30
0.0
 10
9.1110565614
 20
8.3030521327
 30
0.0
 10
9.1073011187
 20
8.3123648779
 30
0.0
 10
9.1040834906
 20
8.3219057115
 30
0.0
 10
9.1014225664
 20
8.3316509429
 30
0.0
 10
9.0993349273
 20
8.3415736196
 30
0.0
 10
9.0978339167
 20
8.3516442281
 30
0.0
 10
9.0969298359
 20
8.3618298564
 30
0.0
 10
9.0967294747
 20
8.3686599993
 30
0.0
 10
9.0967294747
 20
8.3720817725
 30
0.0
  0
SPLINE
  5
335
100
AcDbEntity
  8
0
100
AcDbSpline
 62
7
  6
CONTINUOUS
 70
0
 71
3
 72
29
 73
25
 74
0
 42
0.0000001
 43
0.0000001
 44
0.0000000001
 40
0.0
 40
0.0
 40
0.0
 40
0.0
 40
0.0625547793
 40
0.1259582963
 40
0.1898451527
 40
0.2538785148
 40
0.3177864654
 40
0.3813764048
 40
0.4445349926
 40
0.5072192347
 40
0.5694440675
 40
0.6312695663
 40
0.6620703077
 40
0.6928084121
 40
0.7234988398
 40
0.7541569221
 40
0.7847983041
 40
0.8154384967
 40
0.8460922195
 40
0.8767734872
 40
0.9074948755
 40
0.9382667748
 40
0.969100854
 40
1.0
 40
1.0
 40
1.0
 40
1.0
 10
12.1793474227
 20
7.9348516377
 30
0.0
 10
12.1725268409
 20
7.9353246466
 30
0.0
 10
12.1588276744
 20
7.9368673317
 30
0.0
 10
12.138447877
 20
7.9408786402
 30
0.0
 10
12.1182997033
 20
7.9465586362
 30
0.0
 10
12.0986172367
 20
7.9538459908
 30
0.0
 10
12.079611117
 20
7.9626741351
 30
0.0
 10
12.0614708369
 20
7.9729765859
 30
0.0
 10
12.0443678326
 20
7.9846894352
 30
0.0
 10
12.0284614919
 20
7.9977514295
 30
0.0
 10
12.0139064071
 20
8.0120988035
 30
0.0
 10
12.0030131489
 20
8.0250897052
 30
0.0
 10
11.9951379919
 20
8.0360398461
 30
0.0
 10
11.9896705119
 20
8.0445139222
 30
0.0
 10
11.9846544543
 20
8.0532447298
 30
0.0
 10
11.9801076947
 20
8.0622172609
 30
0.0
 10
11.9760477504
 20
8.071414456
 30
0.0
 10
11.9724912426
 20
8.0808174313
 30
0.0
 10
11.9694533824
 20
8.0904052333
 30
0.0
 10
11.9669478317
 20
8.1001549688
 30
0.0
 10
11.9649864337
 20
8.1100417851
 30
0.0
 10
11.9635785592
 20
8.120039468
 30
0.0
 10
11.9627313691
 20
8.1301193713
 30
0.0
 10
11.9625432298
 20
8.136868076
 30
0.0
 10
11.9625432298
 20
8.1402452175
 30
0.0
  0
SPLINE
  5
336
100
AcDbEntity
  8
0
100
AcDbSpline
 62
7
  6
CONTINUOUS
 70
0
 71
3
 72
21
 73
17
 74
0
 42
0.0000001
 43
0.0000001
 44
0.0000000001
 40
0.0
 40
0.0
 40
0.0
 40
0.0
 40
0.0616532241
 40
0.1233294867
 40
0.1850515422
 40
0.2468416559
 40
0.3087213462
 40
0.3707111072
 40
0.432830238
 40
0.4950966386
 40
0.5575265907
 40
0.620134545
 40
0.6829331365
 40
0.7459333042
 40
0.8725260869
 40
1.0
 40
1.0
 40
1.0
 40
1.0
 10
8.9699281249
 20
8.331960314
 30
0.0
 10
8.9722959783
 20
8.3342474871
 30
0.0
 10
8.9771566242
 20
8.3386962342
 30
0.0
 10
8.9847971867
 20
8.3449691266
 30
0.0
 10
8.9927695517
 20
8.3508273634
 30
0.0
 10
9.0010533061
 20
8.3562560037
 30
0.0
 10
9.0096276992
 20
8.3612413719
 30
0.0
 10
9.0184710855
 20
8.3657709183
 30
0.0
 10
9.0275611575
 20
8.3698333195
 30
0.0
 10
9.0368750473
 20
8.3734182675
 30
0.0
 10
9.0463892863
 20
8.3765167918
 30
0.0
 10
9.0560798193
 20
8.3791211684
 30
0.0
 10
9.0659225561
 20
8.3812247754
 30
0.0
 10
9.079234759
 20
8.3833580925
 30
0.0
 10
9.096139137
 20
8.3847441265
 30
0.0
 10
9.1097292361
 20
8.3844788901
 30
0.0
 10
9.1165196469
 20
8.3840079735
 30
0.0
  0
SPLINE
  5
337
100
AcDbEntity
  8
0
100
AcDbSpline
 62
7
  6
CONTINUOUS
 70
0
 71
3
 72
41
 73
37
 74
0
 42
0.0000001
 43
0.0000001
 44
0.0000000001
 40
0.0
 40
0.0
 40
0.0
 40
0.0
 40
0.0299389638
 40
0.044918725
 40
0.0599073257
 40
0.0899167412
 40
0.1199949456
 40
0.1350691073
 40
0.150167946
 40
0.180442844
 40
0.2108410996
 40
0.2413757554
 40
0.2720567917
 40
0.3028909468
 40
0.333881618
 40
0.3650288383
 40
0.3963293255
 40
0.4277765999
 40
0.4593611619
 40
0.4910707252
 40
0.5228904965
 40
0.5548034961
 40
0.5867909116
 40
0.6188324791
 40
0.6509068845
 40
0.6829921792
 40
0.7150662046
 40
0.7471070194
 40
0.7790933245
 40
0.8110048756
 40
0.8428228953
 40
0.8745304177
 40
0.9061127509
 40
0.9375574918
 40
0.9688555565
 40
1.0
 40
1.0
 40
1.0
 40
1.0
 10
9.2631111689
 20
8.0284349101
 30
0.0
 10
9.2665604819
 20
8.031766694
 30
0.0
 10
9.2715425365
 20
8.0369714114
 30
0.0
 10
9.2777610073
 20
8.0442822548
 30
0.0
 10
9.2836962918
 20
8.0518398189
 30
0.0
 10
9.2905647079
 20
8.0617270274
 30
0.0
 10
9.2966503954
 20
8.0721301346
 30
0.0
 10
9.3010334881
 20
8.0807309303
 30
0.0
 10
9.3050949591
 20
8.0895228843
 30
0.0
 10
9.3095456222
 20
8.1008286208
 30
0.0
 10
9.3138492478
 20
8.1148045832
 30
0.0
 10
9.3170988082
 20
8.1291294902
 30
0.0
 10
9.3192768667
 20
8.1437262556
 30
0.0
 10
9.3203720338
 20
8.158517007
 30
0.0
 10
9.3203786237
 20
8.1734227084
 30
0.0
 10
9.319296782
 20
8.1883637954
 30
0.0
 10
9.3171324484
 20
8.2032605383
 30
0.0
 10
9.3138973253
 20
8.2180334793
 30
0.0
 10
9.3096088085
 20
8.2326038467
 30
0.0
 10
9.3042898909
 20
8.24689397
 30
0.0
 10
9.2979690375
 20
8.2608276888
 30
0.0
 10
9.2906800326
 20
8.2743307528
 30
0.0
 10
9.2824617995
 20
8.2873312123
 30
0.0
 10
9.2733581933
 20
8.2997597974
 30
0.0
 10
9.2634177692
 20
8.3115502821
 30
0.0
 10
9.2526935249
 20
8.3226398336
 30
0.0
 10
9.2412426211
 20
8.3329693439
 30
0.0
 10
9.2291260801
 20
8.3424837415
 30
0.0
 10
9.2164084633
 20
8.3511322814
 30
0.0
 10
9.2031575304
 20
8.3588688179
 30
0.0
 10
9.18944389
 20
8.3656520356
 30
0.0
 10
9.1753405939
 20
8.3714457035
 30
0.0
 10
9.1609228885
 20
8.3762187874
 30
0.0
 10
9.146267317
 20
8.3799457896
 30
0.0
 10
9.1314530998
 20
8.3826065398
 30
0.0
 10
9.1214964691
 20
8.3836628297
 30
0.0
 10
9.1165196469
 20
8.3840079735
 30
0.0
  0
SPLINE
  5
338
100
AcDbEntity
  8
0
100
AcDbSpline
 62
7
  6
CONTINUOUS
 70
0
 71
3
 72
21
 73
17
 74
0
 42
0.0000001
 43
0.0000001
 44
0.0000000001
 40
0.0
 40
0.0
 40
0.0
 40
0.0
 40
0.0616532241
 40
0.1233294867
 40
0.1850515422
 40
0.2468416559
 40
0.3087213462
 40
0.3707111072
 40
0.432830238
 40
0.4950966386
 40
0.5575265907
 40
0.620134545
 40
0.6829331365
 40
0.7459333042
 40
0.8725260869
 40
1.0
 40
1.0
 40
1.0
 40
1.0
 10
11.8677060058
 20
8.1309987354
 30
0.0
 10
11.8700738592
 20
8.1332859085
 30
0.0
 10
11.8749345051
 20
8.1377346556
 30
0.0
 10
11.8825750676
 20
8.144007548
 30
0.0
 10
11.8905474326
 20
8.1498657848
 30
0.0
 10
11.898831187
 20
8.1552944251
 30
0.0
 10
11.90740558
 20
8.1602797933
 30
0.0
 10
11.9162489664
 20
8.1648093397
 30
0.0
 10
11.9253390384
 20
8.1688717409
 30
0.0
 10
11.9346529281
 20
8.1724566889
 30
0.0
 10
11.9441671672
 20
8.1755552132
 30
0.0
 10
11.9538577002
 20
8.1781595898
 30
0.0
 10
11.9637004369
 20
8.1802631968
 30
0.0
 10
11.9770126399
 20
8.1823965139
 30
0.0
 10
11.9939170178
 20
8.1837825479
 30
0.0
 10
12.0075071169
 20
8.1835173115
 30
0.0
 10
12.0142975278
 20
8.1830463949
 30
0.0
  0
SPLINE
  5
339
100
AcDbEntity
  8
0
100
AcDbSpline
 62
7
  6
CONTINUOUS
 70
0
 71
3
 72
41
 73
37
 74
0
 42
0.0000001
 43
0.0000001
 44
0.0000000001
 40
0.0
 40
0.0
 40
0.0
 40
0.0
 40
0.0299389638
 40
0.044918725
 40
0.0599073257
 40
0.0899167412
 40
0.1199949456
 40
0.1350691073
 40
0.150167946
 40
0.180442844
 40
0.2108410996
 40
0.2413757554
 40
0.2720567917
 40
0.3028909468
 40
0.333881618
 40
0.3650288383
 40
0.3963293255
 40
0.4277765999
 40
0.4593611619
 40
0.4910707252
 40
0.5228904965
 40
0.5548034961
 40
0.5867909116
 40
0.6188324791
 40
0.6509068845
 40
0.6829921792
 40
0.7150662046
 40
0.7471070194
 40
0.7790933245
 40
0.8110048756
 40
0.8428228953
 40
0.8745304177
 40
0.9061127509
 40
0.9375574918
 40
0.9688555565
 40
1.0
 40
1.0
 40
1.0
 40
1.0
 10
12.1608890497
 20
7.8274733315
 30
0.0
 10
12.1643383628
 20
7.8308051154
 30
0.0
 10
12.1693204174
 20
7.8360098328
 30
0.0
 10
12.1755388882
 20
7.8433206762
 30
0.0
 10
12.1814741727
 20
7.8508782403
 30
0.0
 10
12.1883425887
 20
7.8607654488
 30
0.0
 10
12.1944282762
 20
7.871168556
 30
0.0
 10
12.198811369
 20
7.8797693517
 30
0.0
 10
12.20287284
 20
7.8885613057
 30
0.0
 10
12.207323503
 20
7.8998670422
 30
0.0
 10
12.2116271286
 20
7.9138430046
 30
0.0
 10
12.2148766891
 20
7.9281679116
 30
0.0
 10
12.2170547476
 20
7.942764677
 30
0.0
 10
12.2181499147
 20
7.9575554284
 30
0.0
 10
12.2181565045
 20
7.9724611299
 30
0.0
 10
12.2170746628
 20
7.9874022168
 30
0.0
 10
12.2149103292
 20
8.0022989597
 30
0.0
 10
12.2116752062
 20
8.0170719008
 30
0.0
 10
12.2073866894
 20
8.0316422681
 30
0.0
 10
12.2020677717
 20
8.0459323914
 30
0.0
 10
12.1957469184
 20
8.0598661102
 30
0.0
 10
12.1884579135
 20
8.0733691742
 30
0.0
 10
12.1802396804
 20
8.0863696337
 30
0.0
 10
12.1711360742
 20
8.0987982188
 30
0.0
 10
12.16119565
 20
8.1105887035
 30
0.0
 10
12.1504714057
 20
8.121678255
 30
0.0
 10
12.139020502
 20
8.1320077653
 30
0.0
 10
12.126903961
 20
8.141522163
 30
0.0
 10
12.1141863442
 20
8.1501707028
 30
0.0
 10
12.1009354113
 20
8.1579072393
 30
0.0
 10
12.0872217708
 20
8.164690457
 30
0.0
 10
12.0731184747
 20
8.1704841249
 30
0.0
 10
12.0587007693
 20
8.1752572088
 30
0.0
 10
12.0440451979
 20
8.178984211
 30
0.0
 10
12.0292309806
 20
8.1816449612
 30
0.0
 10
12.01927435
 20
8.1827012511
 30
0.0
 10
12.0142975278
 20
8.1830463949
 30
0.0
  0
SPLINE
  5
33A
100
AcDbEntity
  8
0
100
AcDbSpline
 62
7
  6
CONTINUOUS
 70
0
 71
3
 72
9
 73
5
 74
0
 42
0.0000001
 43
0.0000001
 44
0.0000000001
 40
0.0
 40
0.0
 40
0.0
 40
0.0
 40
0.4945446069
 40
1.0
 40
1.0
 40
1.0
 40
1.0
 10
12.2157848616
 20
7.9352245245
 30
0.0
 10
12.2097990207
 20
7.934665323
 30
0.0
 10
12.1976421307
 20
7.9340531215
 30
0.0
 10
12.1854772408
 20
7.9344265333
 30
0.0
 10
12.1793474227
 20
7.9348516377
 30
0.0
  0
SPLINE
  5
33B
100
AcDbEntity
  8
0
100
AcDbSpline
 62
7
  6
CONTINUOUS
 70
0
 71
3
 72
74
 73
70
 74
0
 42
0.0000001
 43
0.0000001
 44
0.0000000001
 40
0.0
 40
0.0
 40
0.0
 40
0.0
 40
0.0028891574
 40
0.0058525163
 40
0.0120553002
 40
0.0153232205
 40
0.0187152901
 40
0.0222405952
 40
0.0259069657
 40
0.0297210948
 40
0.0336887057
 40
0.0378145516
 40
0.0421025967
 40
0.0465560993
 40
0.0511776113
 40
0.0559691634
 40
0.0609322486
 40
0.0713759398
 40
0.0825130237
 40
0.0943414806
 40
0.1068547162
 40
0.1200423028
 40
0.1338905397
 40
0.1483828634
 40
0.1635001544
 40
0.1792210531
 40
0.1955221961
 40
0.2123783893
 40
0.229762757
 40
0.2476469258
 40
0.2660011581
 40
0.2847944523
 40
0.3039946521
 40
0.3235685793
 40
0.3434821325
 40
0.3841868012
 40
0.4258216567
 40
0.4680900193
 40
0.5106892735
 40
0.5533137326
 40
0.5956574801
 40
0.6374171983
 40
0.6782950299
 40
0.6983127725
 40
0.7180023149
 40
0.7373292561
 40
0.7562600921
 40
0.7747623364
 40
0.7928046015
 40
0.8103567024
 40
0.8273897951
 40
0.8438765199
 40
0.8597911134
 40
0.8751095645
 40
0.8898098309
 40
0.9038720557
 40
0.917278795
 40
0.9300153347
 40
0.9420701273
 40
0.953435268
 40
0.9641071426
 40
0.9691837389
 40
0.9740880877
 40
0.9788213275
 40
0.9833851367
 40
0.987781827
 40
0.9920142316
 40
0.9960856546
 40
1.0
 40
1.0
 40
1.0
 40
1.0
 10
11.8758559959
 20
10.0482612235
 30
0.0
 10
11.8761611663
 20
10.0471639746
 30
0.0
 10
11.8768686288
 20
10.0449651005
 30
0.0
 10
11.8786630785
 20
10.040561044
 30
0.0
 10
11.8810036461
 20
10.0362342553
 30
0.0
 10
11.8838187281
 20
10.0320148883
 30
0.0
 10
11.8862389789
 20
10.0288083647
 30
0.0
 10
11.8889296717
 20
10.0256175381
 30
0.0
 10
11.8918896253
 20
10.0224433538
 30
0.0
 10
11.8951172972
 20
10.0192872758
 30
0.0
 10
11.8986112078
 20
10.0161507333
 30
0.0
 10
11.9023696346
 20
10.0130350821
 30
0.0
 10
11.906390808
 20
10.0099417416
 30
0.0
 10
11.9106728524
 20
10.006872173
 30
0.0
 10
11.9152136976
 20
10.0038277396
 30
0.0
 10
11.9200112324
 20
10.0008098725
 30
0.0
 10
11.9268640469
 20
9.9967543611
 30
0.0
 10
11.9360710879
 20
9.9917737158
 30
0.0
 10
11.9479229949
 20
9.9860230446
 30
0.0
 10
11.9607370786
 20
9.9804118059
 30
0.0
 10
11.9744889638
 20
9.9749507024
 30
0.0
 10
11.9891527491
 20
9.9696501626
 30
0.0
 10
12.0047005777
 20
9.9645203966
 30
0.0
 10
12.0211028455
 20
9.9595713173
 30
0.0
 10
12.0383282167
 20
9.9548124758
 30
0.0
 10
12.0563437304
 20
9.9502530782
 30
0.0
 10
12.0751148786
 20
9.9459019583
 30
0.0
 10
12.0946056661
 20
9.9417675505
 30
0.0
 10
12.1147786785
 20
9.9378578437
 30
0.0
 10
12.1355951752
 20
9.9341804055
 30
0.0
 10
12.1570151704
 20
9.9307423633
 30
0.0
 10
12.178997503
 20
9.9275503724
 30
0.0
 10
12.2014999019
 20
9.9246106045
 30
0.0
 10
12.2244791386
 20
9.9219287078
 30
0.0
 10
12.2559240116
 20
9.918680119
 30
0.0
 10
12.2960955813
 20
9.9153132466
 30
0.0
 10
12.3451334787
 20
9.9123980318
 30
0.0
 10
12.394972433
 20
9.9106020404
 30
0.0
 10
12.4452293143
 20
9.9099392182
 30
0.0
 10
12.495518027
 20
9.9104147881
 30
0.0
 10
12.5454522241
 20
9.9120249974
 30
0.0
 10
12.5946480384
 20
9.9147573341
 30
0.0
 10
12.6349909605
 20
9.9179733607
 30
0.0
 10
12.6666035292
 20
9.9211031975
 30
0.0
 10
12.6897301056
 20
9.9236990243
 30
0.0
 10
12.712394289
 20
9.9265544936
 30
0.0
 10
12.7345525357
 20
9.9296641266
 30
0.0
 10
12.7561622435
 20
9.9330218847
 30
0.0
 10
12.777181884
 20
9.9366212713
 30
0.0
 10
12.7975710639
 20
9.9404553297
 30
0.0
 10
12.8172906219
 20
9.9445166426
 30
0.0
 10
12.8363027113
 20
9.9487973337
 30
0.0
 10
12.8545708621
 20
9.9532891137
 30
0.0
 10
12.8720600539
 20
9.9579832997
 30
0.0
 10
12.8887368089
 20
9.962870806
 30
0.0
 10
12.9045692644
 20
9.9679421677
 30
0.0
 10
12.9195272384
 20
9.9731875912
 30
0.0
 10
12.9335822624
 20
9.978596985
 30
0.0
 10
12.9467078185
 20
9.9841599836
 30
0.0
 10
12.9588789331
 20
9.9898659275
 30
0.0
 10
12.9683593417
 20
9.9948101002
 30
0.0
 10
12.9754351411
 20
9.9988382222
 30
0.0
 10
12.9804004244
 20
10.0018378017
 30
0.0
 10
12.9851104969
 20
10.0048648487
 30
0.0
 10
12.9895631481
 20
10.0079180284
 30
0.0
 10
12.9937563422
 20
10.0109959008
 30
0.0
 10
12.9976880626
 20
10.0140971375
 30
0.0
 10
13.0013562572
 20
10.0172200579
 30
0.0
 10
13.0036695412
 20
10.0193567368
 30
0.0
 10
13.0047793665
 20
10.0204287459
 30
0.0
  0
SPLINE
  5
33C
100
AcDbEntity
  8
0
100
AcDbSpline
 62
7
  6
CONTINUOUS
 70
0
 71
3
 72
14
 73
10
 74
0
 42
0.0000001
 43
0.0000001
 44
0.0000000001
 40
0.0
 40
0.0
 40
0.0
 40
0.0
 40
0.1102063069
 40
0.2235240717
 40
0.3405959171
 40
0.4619986165
 40
0.7196516389
 40
0.8568421097
 40
1.0
 40
1.0
 40
1.0
 40
1.0
 10
13.0228879301
 20
10.0482610381
 30
0.0
 10
13.0225573289
 20
10.047072366
 30
0.0
 10
13.0217818505
 20
10.0446894793
 30
0.0
 10
13.0203089682
 20
10.0411683283
 30
0.0
 10
13.0185137052
 20
10.0376586534
 30
0.0
 10
13.0156353448
 20
10.0329039206
 30
0.0
 10
13.0121478251
 20
10.0282733675
 30
0.0
 10
13.0081395904
 20
10.0237757374
 30
0.0
 10
13.0059321105
 20
10.0215422111
 30
0.0
 10
13.0047793665
 20
10.0204287459
 30
0.0
  0
SPLINE
  5
33D
100
AcDbEntity
  8
0
100
AcDbSpline
 62
7
  6
CONTINUOUS
 70
0
 71
3
 72
18
 73
14
 74
0
 42
0.0000001
 43
0.0000001
 44
0.0000000001
 40
0.0
 40
0.0
 40
0.0
 40
0.0
 40
0.0548620934
 40
0.1099281175
 40
0.1653995415
 40
0.2214731583
 40
0.2783387419
 40
0.3361775034
 40
0.4554063124
 40
0.5804415574
 40
0.7123342032
 40
0.8519579354
 40
1.0
 40
1.0
 40
1.0
 40
1.0
 10
13.2563719818
 20
10.0898563423
 30
0.0
 10
13.2563719851
 20
10.0887166263
 30
0.0
 10
13.2562996483
 20
10.0864323032
 30
0.0
 10
13.2559744145
 20
10.083009533
 30
0.0
 10
13.2554325131
 20
10.0795887359
 30
0.0
 10
13.254674127
 20
10.0761711622
 30
0.0
 10
13.2536995704
 20
10.0727576691
 30
0.0
 10
13.2520966246
 20
10.068167438
 30
0.0
 10
13.2495287205
 20
10.0624262919
 30
0.0
 10
13.2456202063
 20
10.0556459714
 30
0.0
 10
13.2408598324
 20
10.0489095342
 30
0.0
 10
13.2352548432
 20
10.0422237538
 30
0.0
 10
13.2310862067
 20
10.0379340094
 30
0.0
 10
13.2288741715
 20
10.0357973474
 30
0.0
  0
SPLINE
  5
33E
100
AcDbEntity
  8
0
100
AcDbSpline
 62
7
  6
CONTINUOUS
 70
0
 71
3
 72
74
 73
70
 74
0
 42
0.0000001
 43
0.0000001
 44
0.0000000001
 40
0.0
 40
0.0
 40
0.0
 40
0.0
 40
0.0028891574
 40
0.0058525163
 40
0.0120553002
 40
0.0153232205
 40
0.0187152901
 40
0.0222405952
 40
0.0259069657
 40
0.0297210948
 40
0.0336887057
 40
0.0378145516
 40
0.0421025967
 40
0.0465560993
 40
0.0511776113
 40
0.0559691634
 40
0.0609322486
 40
0.0713759398
 40
0.0825130237
 40
0.0943414806
 40
0.1068547162
 40
0.1200423028
 40
0.1338905397
 40
0.1483828634
 40
0.1635001544
 40
0.1792210531
 40
0.1955221961
 40
0.2123783893
 40
0.229762757
 40
0.2476469258
 40
0.2660011581
 40
0.2847944523
 40
0.3039946521
 40
0.3235685793
 40
0.3434821325
 40
0.3841868012
 40
0.4258216567
 40
0.4680900193
 40
0.5106892735
 40
0.5533137326
 40
0.5956574801
 40
0.6374171983
 40
0.6782950299
 40
0.6983127725
 40
0.7180023149
 40
0.7373292561
 40
0.7562600921
 40
0.7747623364
 40
0.7928046015
 40
0.8103567024
 40
0.8273897951
 40
0.8438765199
 40
0.8597911134
 40
0.8751095645
 40
0.8898098309
 40
0.9038720557
 40
0.917278795
 40
0.9300153347
 40
0.9420701273
 40
0.953435268
 40
0.9641071426
 40
0.9691837389
 40
0.9740880877
 40
0.9788213275
 40
0.9833851367
 40
0.987781827
 40
0.9920142316
 40
0.9960856546
 40
1.0
 40
1.0
 40
1.0
 40
1.0
 10
8.978078115
 20
10.2492228021
 30
0.0
 10
8.9783832855
 20
10.2481255532
 30
0.0
 10
8.9790907479
 20
10.2459266791
 30
0.0
 10
8.9808851976
 20
10.2415226226
 30
0.0
 10
8.9832257652
 20
10.2371958339
 30
0.0
 10
8.9860408473
 20
10.2329764669
 30
0.0
 10
8.988461098
 20
10.2297699432
 30
0.0
 10
8.9911517908
 20
10.2265791167
 30
0.0
 10
8.9941117444
 20
10.2234049324
 30
0.0
 10
8.9973394164
 20
10.2202488544
 30
0.0
 10
9.0008333269
 20
10.2171123119
 30
0.0
 10
9.0045917537
 20
10.2139966607
 30
0.0
 10
9.0086129271
 20
10.2109033202
 30
0.0
 10
9.0128949715
 20
10.2078337516
 30
0.0
 10
9.0174358167
 20
10.2047893182
 30
0.0
 10
9.0222333516
 20
10.2017714511
 30
0.0
 10
9.029086166
 20
10.1977159397
 30
0.0
 10
9.038293207
 20
10.1927352944
 30
0.0
 10
9.050145114
 20
10.1869846232
 30
0.0
 10
9.0629591977
 20
10.1813733845
 30
0.0
 10
9.0767110829
 20
10.175912281
 30
0.0
 10
9.0913748683
 20
10.1706117412
 30
0.0
 10
9.1069226968
 20
10.1654819752
 30
0.0
 10
9.1233249647
 20
10.1605328959
 30
0.0
 10
9.1405503358
 20
10.1557740544
 30
0.0
 10
9.1585658495
 20
10.1512146568
 30
0.0
 10
9.1773369978
 20
10.1468635369
 30
0.0
 10
9.1968277853
 20
10.1427291291
 30
0.0
 10
9.2170007976
 20
10.1388194223
 30
0.0
 10
9.2378172944
 20
10.1351419841
 30
0.0
 10
9.2592372895
 20
10.1317039419
 30
0.0
 10
9.2812196221
 20
10.128511951
 30
0.0
 10
9.303722021
 20
10.1255721831
 30
0.0
 10
9.3267012578
 20
10.1228902864
 30
0.0
 10
9.3581461307
 20
10.1196416976
 30
0.0
 10
9.3983177004
 20
10.1162748252
 30
0.0
 10
9.4473555978
 20
10.1133596104
 30
0.0
 10
9.4971945521
 20
10.111563619
 30
0.0
 10
9.5474514334
 20
10.1109007968
 30
0.0
 10
9.5977401461
 20
10.1113763667
 30
0.0
 10
9.6476743432
 20
10.112986576
 30
0.0
 10
9.6968701575
 20
10.1157189127
 30
0.0
 10
9.7372130796
 20
10.1189349393
 30
0.0
 10
9.7688256483
 20
10.1220647761
 30
0.0
 10
9.7919522247
 20
10.1246606029
 30
0.0
 10
9.8146164081
 20
10.1275160722
 30
0.0
 10
9.8367746549
 20
10.1306257052
 30
0.0
 10
9.8583843627
 20
10.1339834633
 30
0.0
 10
9.8794040031
 20
10.1375828499
 30
0.0
 10
9.899793183
 20
10.1414169083
 30
0.0
 10
9.9195127411
 20
10.1454782212
 30
0.0
 10
9.9385248304
 20
10.1497589123
 30
0.0
 10
9.9567929813
 20
10.1542506923
 30
0.0
 10
9.974282173
 20
10.1589448783
 30
0.0
 10
9.9909589281
 20
10.1638323846
 30
0.0
 10
10.0067913836
 20
10.1689037462
 30
0.0
 10
10.0217493576
 20
10.1741491698
 30
0.0
 10
10.0358043815
 20
10.1795585636
 30
0.0
 10
10.0489299376
 20
10.1851215622
 30
0.0
 10
10.0611010523
 20
10.1908275061
 30
0.0
 10
10.0705814609
 20
10.1957716788
 30
0.0
 10
10.0776572602
 20
10.1997998008
 30
0.0
 10
10.0826225435
 20
10.2027993803
 30
0.0
 10
10.0873326161
 20
10.2058264273
 30
0.0
 10
10.0917852672
 20
10.208879607
 30
0.0
 10
10.0959784613
 20
10.2119574794
 30
0.0
 10
10.0999101817
 20
10.2150587161
 30
0.0
 10
10.1035783763
 20
10.2181816365
 30
0.0
 10
10.1058916603
 20
10.2203183154
 30
0.0
 10
10.1070014857
 20
10.2213903245
 30
0.0
  0
SPLINE
  5
33F
100
AcDbEntity
  8
0
100
AcDbSpline
 62
7
  6
CONTINUOUS
 70
0
 71
3
 72
14
 73
10
 74
0
 42
0.0000001
 43
0.0000001
 44
0.0000000001
 40
0.0
 40
0.0
 40
0.0
 40
0.0
 40
0.1102063069
 40
0.2235240717
 40
0.3405959171
 40
0.4619986165
 40
0.7196516389
 40
0.8568421097
 40
1.0
 40
1.0
 40
1.0
 40
1.0
 10
10.1251100493
 20
10.2492226167
 30
0.0
 10
10.124779448
 20
10.2480339446
 30
0.0
 10
10.1240039696
 20
10.2456510578
 30
0.0
 10
10.1225310874
 20
10.2421299069
 30
0.0
 10
10.1207358244
 20
10.238620232
 30
0.0
 10
10.1178574639
 20
10.2338654992
 30
0.0
 10
10.1143699443
 20
10.2292349461
 30
0.0
 10
10.1103617096
 20
10.224737316
 30
0.0
 10
10.1081542296
 20
10.2225037897
 30
0.0
 10
10.1070014857
 20
10.2213903245
 30
0.0
  0
SPLINE
  5
340
100
AcDbEntity
  8
0
100
AcDbSpline
 62
7
  6
CONTINUOUS
 70
0
 71
3
 72
18
 73
14
 74
0
 42
0.0000001
 43
0.0000001
 44
0.0000000001
 40
0.0
 40
0.0
 40
0.0
 40
0.0
 40
0.0548620934
 40
0.1099281175
 40
0.1653995415
 40
0.2214731583
 40
0.2783387419
 40
0.3361775034
 40
0.4554063124
 40
0.5804415574
 40
0.7123342032
 40
0.8519579354
 40
1.0
 40
1.0
 40
1.0
 40
1.0
 10
10.3585941009
 20
10.2908179209
 30
0.0
 10
10.3585941042
 20
10.2896782049
 30
0.0
 10
10.3585217674
 20
10.2873938818
 30
0.0
 10
10.3581965337
 20
10.2839711116
 30
0.0
 10
10.3576546323
 20
10.2805503145
 30
0.0
 10
10.3568962461
 20
10.2771327408
 30
0.0
 10
10.3559216895
 20
10.2737192477
 30
0.0
 10
10.3543187437
 20
10.2691290166
 30
0.0
 10
10.3517508396
 20
10.2633878704
 30
0.0
 10
10.3478423254
 20
10.25660755
 30
0.0
 10
10.3430819515
 20
10.2498711128
 30
0.0
 10
10.3374769623
 20
10.2431853324
 30
0.0
 10
10.3333083258
 20
10.238895588
 30
0.0
 10
10.3310962907
 20
10.236758926
 30
0.0
  0
SPLINE
  5
341
100
AcDbEntity
  8
0
100
AcDbSpline
 62
7
  6
CONTINUOUS
 70
0
 71
3
 72
47
 73
43
 74
0
 42
0.0000001
 43
0.0000001
 44
0.0000000001
 40
0.0
 40
0.0
 40
0.0
 40
0.0
 40
0.0063158953
 40
0.0126706964
 40
0.0191025413
 40
0.0256481068
 40
0.0323419887
 40
0.0392163511
 40
0.0536141938
 40
0.0611949453
 40
0.0690567093
 40
0.0772178306
 40
0.0856942536
 40
0.094499648
 40
0.1036457893
 40
0.1131425899
 40
0.1229983503
 40
0.1332200167
 40
0.1438131323
 40
0.1547821683
 40
0.1661305713
 40
0.1899729423
 40
0.2153524409
 40
0.2422683478
 40
0.2707106917
 40
0.3006617255
 40
0.3320970385
 40
0.3649863926
 40
0.3992943516
 40
0.4349809011
 40
0.4720019229
 40
0.5103095575
 40
0.5498524869
 40
0.5905762826
 40
0.6324236706
 40
0.6753347453
 40
0.7192471563
 40
0.7640962954
 40
0.8098156376
 40
0.856336788
 40
0.9035890146
 40
1.0
 40
1.0
 40
1.0
 40
1.0
 10
13.6237574427
 20
7.3987723238
 30
0.0
 10
13.6224898022
 20
7.3988602353
 30
0.0
 10
13.6199527062
 20
7.3991403886
 30
0.0
 10
13.6161754891
 20
7.3998705232
 30
0.0
 10
13.6124235128
 20
7.4009105938
 30
0.0
 10
13.6086990032
 20
7.4022598357
 30
0.0
 10
13.6050033652
 20
7.4039173371
 30
0.0
 10
13.6000411529
 20
7.4065773799
 30
0.0
 10
13.5952136595
 20
7.4098336171
 30
0.0
 10
13.5905419173
 20
7.413607149
 30
0.0
 10
13.587013159
 20
7.4167886568
 30
0.0
 10
13.5835220711
 20
7.4202708139
 30
0.0
 10
13.5800695772
 20
7.42405242
 30
0.0
 10
13.5766570097
 20
7.4281317779
 30
0.0
 10
13.5732856903
 20
7.432507284
 30
0.0
 10
13.5699568922
 20
7.4371771264
 30
0.0
 10
13.5666718813
 20
7.4421394008
 30
0.0
 10
13.5634320093
 20
7.4473921308
 30
0.0
 10
13.5602385082
 20
7.4529331488
 30
0.0
 10
13.5570926414
 20
7.4587602333
 30
0.0
 10
13.5528942025
 20
7.4670448195
 30
0.0
 10
13.5477886245
 20
7.4781149328
 30
0.0
 10
13.5419689971
 20
7.49228861
 30
0.0
 10
13.5363689245
 20
7.5075399533
 30
0.0
 10
13.5309975685
 20
7.5238440751
 30
0.0
 10
13.5258637418
 20
7.5411746525
 30
0.0
 10
13.5209759429
 20
7.5595034548
 30
0.0
 10
13.5163422939
 20
7.5788005571
 30
0.0
 10
13.5119704855
 20
7.5990343498
 30
0.0
 10
13.5078677928
 20
7.6201716322
 30
0.0
 10
13.504041054
 20
7.6421776832
 30
0.0
 10
13.5004966571
 20
7.6650163158
 30
0.0
 10
13.4972404961
 20
7.6886499353
 30
0.0
 10
13.494277995
 20
7.7130396162
 30
0.0
 10
13.4916140947
 20
7.7381451782
 30
0.0
 10
13.489253245
 20
7.7639252484
 30
0.0
 10
13.4871993724
 20
7.790337315
 30
0.0
 10
13.4854558923
 20
7.8173378336
 30
0.0
 10
13.4840257268
 20
7.844882271
 30
0.0
 10
13.4829112534
 20
7.8729251736
 30
0.0
 10
13.4818416545
 20
7.9111737279
 30
0.0
 10
13.4815313895
 20
7.9400786236
 30
0.0
 10
13.4815313895
 20
7.9594753999
 30
0.0
  0
SPLINE
  5
342
100
AcDbEntity
  8
0
100
AcDbSpline
 62
7
  6
CONTINUOUS
 70
0
 71
3
 72
15
 73
11
 74
0
 42
0.0000001
 43
0.0000001
 44
0.0000000001
 40
0.0
 40
0.0
 40
0.0
 40
0.0
 40
0.1429939929
 40
0.2800806231
 40
0.4115604475
 40
0.5378014005
 40
0.659237468
 40
0.7763647605
 40
0.8897437117
 40
1.0
 40
1.0
 40
1.0
 40
1.0
 10
11.6698697955
 20
10.1130050391
 30
0.0
 10
11.6682671228
 20
10.111456976
 30
0.0
 10
11.6651970363
 20
10.1083520403
 30
0.0
 10
11.6609245857
 20
10.1035652547
 30
0.0
 10
11.6570870888
 20
10.0987521773
 30
0.0
 10
11.6536870929
 20
10.0939154315
 30
0.0
 10
11.6507267025
 20
10.089057352
 30
0.0
 10
11.6482079374
 20
10.0841801473
 30
0.0
 10
11.6461328076
 20
10.079286866
 30
0.0
 10
11.645033067
 20
10.0759751214
 30
0.0
 10
11.6445618325
 20
10.0743229117
 30
0.0
  0
SPLINE
  5
343
100
AcDbEntity
  8
0
100
AcDbSpline
 62
7
  6
CONTINUOUS
 70
0
 71
3
 72
82
 73
78
 74
0
 42
0.0000001
 43
0.0000001
 44
0.0000000001
 40
0.0
 40
0.0
 40
0.0
 40
0.0
 40
0.0039117067
 40
0.0079801567
 40
0.0122092588
 40
0.0166023645
 40
0.0211623367
 40
0.0258914618
 40
0.030791364
 40
0.0358632204
 40
0.0411077694
 40
0.0465253693
 40
0.0521160606
 40
0.0578795085
 40
0.069921596
 40
0.0826443283
 40
0.0960362084
 40
0.1100826086
 40
0.1247661657
 40
0.1400670864
 40
0.1559634079
 40
0.1724312228
 40
0.1894448621
 40
0.2069770552
 40
0.2249990663
 40
0.2434808208
 40
0.262391033
 40
0.281697317
 40
0.3013662905
 40
0.3213636725
 40
0.341654377
 40
0.362202614
 40
0.3829719828
 40
0.4039255621
 40
0.4462348918
 40
0.4888289059
 40
0.5314025491
 40
0.5736509476
 40
0.594559019
 40
0.6152729852
 40
0.6357560515
 40
0.6559719693
 40
0.6758851314
 40
0.6954606611
 40
0.714664506
 40
0.7334635346
 40
0.7518256401
 40
0.7697198544
 40
0.7871164545
 40
0.8039870814
 40
0.8203048705
 40
0.8360446002
 40
0.8511828678
 40
0.8656982758
 40
0.8795716527
 40
0.8927863239
 40
0.9053284466
 40
0.9171874397
 40
0.9228587666
 40
0.9283571121
 40
0.9336823618
 40
0.9388346844
 40
0.9438146629
 40
0.9486232687
 40
0.9532619184
 40
0.9577325733
 40
0.9620377124
 40
0.966180499
 40
0.9701647842
 40
0.9739952192
 40
0.9776773804
 40
0.9812178025
 40
0.9879025711
 40
0.9910687483
 40
0.9941314977
 40
0.9971037846
 40
1.0
 40
1.0
 40
1.0
 40
1.0
 10
11.6698697955
 20
10.1130050391
 30
0.0
 10
11.6714257758
 20
10.1145080007
 30
0.0
 10
11.6746688396
 20
10.1175036288
 30
0.0
 10
11.6798110993
 20
10.1218820605
 30
0.0
 10
11.6853224269
 20
10.1262300649
 30
0.0
 10
11.6911999485
 20
10.1305453891
 30
0.0
 10
11.6974409065
 20
10.1348261508
 30
0.0
 10
11.7040424331
 20
10.1390703411
 30
0.0
 10
11.7110013867
 20
10.1432760673
 30
0.0
 10
11.7183144888
 20
10.1474412674
 30
0.0
 10
11.7259782503
 20
10.1515639855
 30
0.0
 10
11.7339890196
 20
10.1556422856
 30
0.0
 10
11.7423430229
 20
10.1596742079
 30
0.0
 10
11.7541065021
 20
10.1650646725
 30
0.0
 10
11.7696533846
 20
10.171658166
 30
0.0
 10
11.7893484881
 20
10.1792439751
 30
0.0
 10
11.8103087164
 20
10.186600277
 30
0.0
 10
11.832494042
 20
10.1937129153
 30
0.0
 10
11.8558623368
 20
10.2005681813
 30
0.0
 10
11.8803690126
 20
10.2071528447
 30
0.0
 10
11.9059672566
 20
10.2134541944
 30
0.0
 10
11.9326081064
 20
10.2194600565
 30
0.0
 10
11.960240567
 20
10.2251588268
 30
0.0
 10
11.9888117105
 20
10.2305394911
 30
0.0
 10
12.0182667783
 20
10.235591653
 30
0.0
 10
12.0485492903
 20
10.2403055614
 30
0.0
 10
12.0796011632
 20
10.2446721157
 30
0.0
 10
12.1113628283
 20
10.2486828858
 30
0.0
 10
12.1437733464
 20
10.2523301282
 30
0.0
 10
12.1767705206
 20
10.2556067989
 30
0.0
 10
12.2102910222
 20
10.2585065839
 30
0.0
 10
12.2442704943
 20
10.2610238822
 30
0.0
 10
12.2786437653
 20
10.263153874
 30
0.0
 10
12.3250595098
 20
10.2654792043
 30
0.0
 10
12.383577061
 20
10.2673850391
 30
0.0
 10
12.4540792369
 20
10.2680760129
 30
0.0
 10
12.5245453155
 20
10.2671724961
 30
0.0
 10
12.5829866937
 20
10.2650898426
 30
0.0
 10
12.629305548
 20
10.2626237419
 30
0.0
 10
12.6635801947
 20
10.2603899836
 30
0.0
 10
12.6974435587
 20
10.2577701371
 30
0.0
 10
12.7308306909
 20
10.2547692174
 30
0.0
 10
12.7636774957
 20
10.2513930291
 30
0.0
 10
12.79592094
 20
10.2476480854
 30
0.0
 10
12.8274991484
 20
10.2435416138
 30
0.0
 10
12.8583515293
 20
10.2390815375
 30
0.0
 10
12.8884188964
 20
10.2342764622
 30
0.0
 10
12.9176435885
 20
10.2291356722
 30
0.0
 10
12.9459695814
 20
10.2236690986
 30
0.0
 10
12.9733425933
 20
10.2178873016
 30
0.0
 10
12.9997101924
 20
10.2118014504
 30
0.0
 10
13.0250219105
 20
10.2054232967
 30
0.0
 10
13.0492293516
 20
10.1987651668
 30
0.0
 10
13.0722863057
 20
10.1918399206
 30
0.0
 10
13.0941488043
 20
10.1846609218
 30
0.0
 10
13.1147753566
 20
10.1772419884
 30
0.0
 10
13.1341265859
 20
10.1695973924
 30
0.0
 10
13.1493786332
 20
10.1629558262
 30
0.0
 10
13.1609009972
 20
10.1575287381
 30
0.0
 10
13.1690723395
 20
10.1534717894
 30
0.0
 10
13.1768984207
 20
10.1493695735
 30
0.0
 10
13.1843755051
 20
10.1452239266
 30
0.0
 10
13.1915000589
 20
10.1410368711
 30
0.0
 10
13.1982687074
 20
10.1368103753
 30
0.0
 10
13.2046782238
 20
10.1325463802
 30
0.0
 10
13.2107256204
 20
10.1282469505
 30
0.0
 10
13.2164079962
 20
10.1239139885
 30
0.0
 10
13.2217226966
 20
10.1195495517
 30
0.0
 10
13.2266672285
 20
10.1151555672
 30
0.0
 10
13.2312391088
 20
10.110734083
 30
0.0
 10
13.2354365585
 20
10.10628672
 30
0.0
 10
13.2404343346
 20
10.100438028
 30
0.0
 10
13.2448011491
 20
10.0944319852
 30
0.0
 10
13.2484385501
 20
10.0882809977
 30
0.0
 10
13.2507337587
 20
10.0837347018
 30
0.0
 10
13.252643394
 20
10.0791750092
 30
0.0
 10
13.2536703691
 20
10.0760922539
 30
0.0
 10
13.2541158135
 20
10.0745537222
 30
0.0
  0
SPLINE
  5
344
100
AcDbEntity
  8
0
100
AcDbSpline
 62
7
  6
CONTINUOUS
 70
0
 71
3
 72
82
 73
78
 74
0
 42
0.0000001
 43
0.0000001
 44
0.0000000001
 40
0.0
 40
0.0
 40
0.0
 40
0.0
 40
0.0040448529
 40
0.0082603888
 40
0.0126510012
 40
0.0172203915
 40
0.0219716858
 40
0.0269073693
 40
0.0320291528
 40
0.0373381926
 40
0.0428351729
 40
0.0485202967
 40
0.0604534148
 40
0.0731326977
 40
0.0865476644
 40
0.1006837131
 40
0.1155226803
 40
0.1310432739
 40
0.1472214583
 40
0.1640307566
 40
0.181442495
 40
0.1994259983
 40
0.2179487789
 40
0.2369767215
 40
0.2564742328
 40
0.2764043768
 40
0.2967289966
 40
0.3174088578
 40
0.338403774
 40
0.3596727225
 40
0.3811739532
 40
0.4247025304
 40
0.4686462878
 40
0.5126568792
 40
0.5563852818
 40
0.5994853537
 40
0.6206937162
 40
0.6416183531
 40
0.6622184176
 40
0.6824539375
 40
0.7022859296
 40
0.7216765161
 40
0.7405890511
 40
0.7589882681
 40
0.7768404309
 40
0.7941134728
 40
0.8107771642
 40
0.8268033079
 40
0.8421659826
 40
0.8568417837
 40
0.8708101231
 40
0.884053608
 40
0.8965585377
 40
0.9083155216
 40
0.9139123426
 40
0.9193210404
 40
0.9245420624
 40
0.9295763293
 40
0.934425239
 40
0.9390908471
 40
0.9435758133
 40
0.9478835617
 40
0.9520183826
 40
0.9559854592
 40
0.9597911062
 40
0.9634428001
 40
0.9669493498
 40
0.9703210665
 40
0.9767050786
 40
0.9797502036
 40
0.9827180476
 40
0.9856270511
 40
0.9884968943
 40
0.9913481644
 40
0.994201885
 40
0.9970790259
 40
1.0
 40
1.0
 40
1.0
 40
1.0
 10
11.8939646005
 20
10.0974640115
 30
0.0
 10
11.8951324105
 20
10.0985920294
 30
0.0
 10
11.897571727
 20
10.1008398674
 30
0.0
 10
11.9014494825
 20
10.1041208145
 30
0.0
 10
11.9056181684
 20
10.1073775866
 30
0.0
 10
11.9100753838
 20
10.110608285
 30
0.0
 10
11.9148187936
 20
10.1138113695
 30
0.0
 10
11.919846001
 20
10.1169851698
 30
0.0
 10
11.9251543684
 20
10.120128124
 30
0.0
 10
11.9307411147
 20
10.1232385517
 30
0.0
 10
11.9366033182
 20
10.1263148164
 30
0.0
 10
11.9449175233
 20
10.1304355205
 30
0.0
 10
11.9559894398
 20
10.1354763938
 30
0.0
 10
11.9701150486
 20
10.1412701294
 30
0.0
 10
11.9852573611
 20
10.1468901191
 30
0.0
 10
12.0013844367
 20
10.1523244101
 30
0.0
 10
12.0184624771
 20
10.1575614131
 30
0.0
 10
12.0364554588
 20
10.1625899482
 30
0.0
 10
12.0553253756
 20
10.1673992617
 30
0.0
 10
12.0750323052
 20
10.1719790593
 30
0.0
 10
12.0955345109
 20
10.1763195286
 30
0.0
 10
12.1167885255
 20
10.1804113783
 30
0.0
 10
12.138749253
 20
10.184245859
 30
0.0
 10
12.1613700801
 20
10.1878147655
 30
0.0
 10
12.1846029806
 20
10.1911104598
 30
0.0
 10
12.208398613
 20
10.1941258848
 30
0.0
 10
12.2327064225
 20
10.1968546004
 30
0.0
 10
12.2574747608
 20
10.1992907783
 30
0.0
 10
12.2826509851
 20
10.2014292025
 30
0.0
 10
12.3081816371
 20
10.2032653282
 30
0.0
 10
12.3427628755
 20
10.2053133469
 30
0.0
 10
12.3864746761
 20
10.2070854598
 30
0.0
 10
12.4392507854
 20
10.2079542528
 30
0.0
 10
12.4921130476
 20
10.207566142
 30
0.0
 10
12.5446122597
 20
10.2059244959
 30
0.0
 10
12.5879169195
 20
10.2035111238
 30
0.0
 10
12.6220353477
 20
10.2009543496
 30
0.0
 10
12.6471206558
 20
10.1987455926
 30
0.0
 10
12.6717855957
 20
10.196240272
 30
0.0
 10
12.6959778003
 20
10.1934437141
 30
0.0
 10
12.7196458621
 20
10.1903619108
 30
0.0
 10
12.7427395058
 20
10.1870014496
 30
0.0
 10
12.7652096798
 20
10.1833695115
 30
0.0
 10
12.787008676
 20
10.1794738652
 30
0.0
 10
12.808090236
 20
10.1753228559
 30
0.0
 10
12.8284096451
 20
10.1709253689
 30
0.0
 10
12.8479238272
 20
10.1662908161
 30
0.0
 10
12.8665914513
 20
10.1614291082
 30
0.0
 10
12.8843730372
 20
10.1563506587
 30
0.0
 10
12.9012310563
 20
10.1510663318
 30
0.0
 10
12.9171299769
 20
10.1455874164
 30
0.0
 10
12.9320364965
 20
10.1399255645
 30
0.0
 10
12.9459191897
 20
10.1340928128
 30
0.0
 10
12.9567826495
 20
10.1290200782
 30
0.0
 10
12.9649263427
 20
10.1248752602
 30
0.0
 10
12.9706596235
 20
10.12178274
 30
0.0
 10
12.9761160577
 20
10.1186568488
 30
0.0
 10
12.9812928105
 20
10.115499217
 30
0.0
 10
12.9861871336
 20
10.112311424
 30
0.0
 10
12.9907965085
 20
10.1090951863
 30
0.0
 10
12.995118509
 20
10.1058521069
 30
0.0
 10
12.9991508687
 20
10.1025838185
 30
0.0
 10
13.0028915244
 20
10.0992920088
 30
0.0
 10
13.0063384416
 20
10.0959782291
 30
0.0
 10
13.0094898602
 20
10.0926441126
 30
0.0
 10
13.0123439925
 20
10.0892913696
 30
0.0
 10
13.0148994342
 20
10.0859210557
 30
0.0
 10
13.0178519047
 20
10.0814887149
 30
0.0
 10
13.0202808102
 20
10.0769370997
 30
0.0
 10
13.0221032109
 20
10.0723018712
 30
0.0
 10
13.0231433333
 20
10.0688705191
 30
0.0
 10
13.0238768336
 20
10.0654326365
 30
0.0
 10
13.0243029141
 20
10.0619902058
 30
0.0
 10
13.02442109
 20
10.058545664
 30
0.0
 10
13.0242312655
 20
10.0551013369
 30
0.0
 10
13.0237336171
 20
10.0516599556
 30
0.0
 10
13.0232021095
 20
10.0493906656
 30
0.0
 10
13.0228879301
 20
10.0482610381
 30
0.0
  0
SPLINE
  5
345
100
AcDbEntity
  8
0
100
AcDbSpline
 62
7
  6
CONTINUOUS
 70
0
 71
3
 72
55
 73
51
 74
0
 42
0.0000001
 43
0.0000001
 44
0.0000000001
 40
0.0
 40
0.0
 40
0.0
 40
0.0
 40
0.0092956865
 40
0.0191064733
 40
0.0294324006
 40
0.0402710037
 40
0.0516177
 40
0.0634659489
 40
0.0758076349
 40
0.0886331056
 40
0.1019313882
 40
0.115690345
 40
0.1298966676
 40
0.1445361177
 40
0.1595934749
 40
0.1750526803
 40
0.1908969094
 40
0.2071085479
 40
0.2405598093
 40
0.2752538037
 40
0.311028532
 40
0.3477147449
 40
0.3851372221
 40
0.4231160003
 40
0.4614675801
 40
0.5000061184
 40
0.5385446015
 40
0.5768960141
 40
0.6148745115
 40
0.652296601
 40
0.6889823254
 40
0.7247564644
 40
0.7594497654
 40
0.7929002298
 40
0.8091114507
 40
0.8249552153
 40
0.8404139678
 40
0.8554708253
 40
0.8701097671
 40
0.8843155746
 40
0.8980739715
 40
0.9113717176
 40
0.9241966034
 40
0.9365377079
 40
0.948385373
 40
0.959731447
 40
0.9705694624
 40
0.9808947638
 40
0.9907049407
 40
1.0
 40
1.0
 40
1.0
 40
1.0
 10
11.9573485675
 20
9.981986571
 30
0.0
 10
11.960040029
 20
9.983561154
 30
0.0
 10
11.9656430307
 20
9.9866773996
 30
0.0
 10
11.9744487868
 20
9.9911466611
 30
0.0
 10
11.9838710905
 20
9.9955311203
 30
0.0
 10
11.9938977051
 20
9.9998250605
 30
0.0
 10
12.0045158697
 20
10.0040229119
 30
0.0
 10
12.0157118995
 20
10.0081192918
 30
0.0
 10
12.0274713848
 20
10.0121088189
 30
0.0
 10
12.0397791336
 20
10.0159863213
 30
0.0
 10
12.0526192277
 20
10.0197467531
 30
0.0
 10
12.0659750468
 20
10.0233851614
 30
0.0
 10
12.079829274
 20
10.0268968534
 30
0.0
 10
12.0941639446
 20
10.0302771903
 30
0.0
 10
12.1089604544
 20
10.0335217854
 30
0.0
 10
12.1241995868
 20
10.0366263978
 30
0.0
 10
12.1398615715
 20
10.0395869689
 30
0.0
 10
12.1615070891
 20
10.0433767099
 30
0.0
 10
12.1894736342
 20
10.047711815
 30
0.0
 10
12.2240421813
 20
10.0522308532
 30
0.0
 10
12.25978154
 20
10.0560956101
 30
0.0
 10
12.2965059729
 20
10.0592857772
 30
0.0
 10
12.3340247961
 20
10.0617845388
 30
0.0
 10
12.3721430685
 20
10.0635787501
 30
0.0
 10
12.4106627141
 20
10.0646589783
 30
0.0
 10
12.4493835435
 20
10.0650195447
 30
0.0
 10
12.488104313
 20
10.0646585526
 30
0.0
 10
12.5266237778
 20
10.0635778959
 30
0.0
 10
12.5647417493
 20
10.0617832541
 30
0.0
 10
12.6022601556
 20
10.0592840736
 30
0.0
 10
12.6389840602
 20
10.0560935031
 30
0.0
 10
12.6747227788
 20
10.0522283532
 30
0.0
 10
12.7092905732
 20
10.0477089366
 30
0.0
 10
12.7372564192
 20
10.0433734994
 30
0.0
 10
12.7589013259
 20
10.0395835342
 30
0.0
 10
12.7745628174
 20
10.0366227656
 30
0.0
 10
12.7898014352
 20
10.0335180081
 30
0.0
 10
12.804597404
 20
10.0302732329
 30
0.0
 10
12.818931512
 20
10.026892737
 30
0.0
 10
12.8327851564
 20
10.023380906
 30
0.0
 10
12.8461403676
 20
10.0197423231
 30
0.0
 10
12.8589798408
 20
10.0159817775
 30
0.0
 10
12.8712869416
 20
10.0121041184
 30
0.0
 10
12.8830457635
 20
10.0081144638
 30
0.0
 10
12.8942411154
 20
10.0040179747
 30
0.0
 10
12.9048585744
 20
9.9998199755
 30
0.0
 10
12.9148844873
 20
9.9955259603
 30
0.0
 10
12.9243060542
 20
9.9911413662
 30
0.0
 10
12.933111067
 20
9.9866720209
 30
0.0
 10
12.9387135571
 20
9.9835557086
 30
0.0
 10
12.9414047622
 20
9.9819811041
 30
0.0
  0
SPLINE
  5
346
100
AcDbEntity
  8
0
100
AcDbSpline
 62
7
  6
CONTINUOUS
 70
0
 71
3
 72
43
 73
39
 74
0
 42
0.0000001
 43
0.0000001
 44
0.0000000001
 40
0.0
 40
0.0
 40
0.0
 40
0.0
 40
0.0112393111
 40
0.0228617385
 40
0.0348608768
 40
0.0472296893
 40
0.0730439479
 40
0.1002364389
 40
0.1287297587
 40
0.158439129
 40
0.1892732868
 40
0.2211352572
 40
0.2539230439
 40
0.2875302666
 40
0.3218467581
 40
0.3567591373
 40
0.3921513636
 40
0.4279052796
 40
0.463901146
 40
0.5000181717
 40
0.5361350405
 40
0.572130437
 40
0.6078835719
 40
0.6432747095
 40
0.678185697
 40
0.7125004999
 40
0.7461057445
 40
0.7788912728
 40
0.8107507146
 40
0.8415820859
 40
0.8712884253
 40
0.8997784857
 40
0.9269675065
 40
0.9527781045
 40
0.9651450004
 40
0.9771422279
 40
0.9887626682
 40
1.0
 40
1.0
 40
1.0
 40
1.0
 10
12.0475102796
 20
9.9525357841
 30
0.0
 10
12.0503726562
 20
9.9535943538
 30
0.0
 10
12.0562178528
 20
9.955686166
 30
0.0
 10
12.0651908262
 20
9.9587025452
 30
0.0
 10
12.0745094865
 20
9.9616480972
 30
0.0
 10
12.087570719
 20
9.965532786
 30
0.0
 10
12.1047070786
 20
9.9701776017
 30
0.0
 10
12.1262262868
 20
9.975352142
 30
0.0
 10
12.1489071625
 20
9.9801850114
 30
0.0
 10
12.1726682589
 20
9.9846586442
 30
0.0
 10
12.1974244134
 20
9.98875675
 30
0.0
 10
12.2230867289
 20
9.9924644233
 30
0.0
 10
12.249563014
 20
9.9957681832
 30
0.0
 10
12.2767581002
 20
9.9986560241
 30
0.0
 10
12.3045742025
 20
10.0011174566
 30
0.0
 10
12.3329112773
 20
10.0031435437
 30
0.0
 10
12.3616673887
 20
10.0047269314
 30
0.0
 10
12.39073908
 20
10.005861874
 30
0.0
 10
12.4200217498
 20
10.006544254
 30
0.0
 10
12.4494100319
 20
10.006771596
 30
0.0
 10
12.4787981773
 20
10.0065430754
 30
0.0
 10
12.5080804374
 20
10.005859521
 30
0.0
 10
12.5371514474
 20
10.0047234126
 30
0.0
 10
12.5659066085
 20
10.0031388718
 30
0.0
 10
12.5942424673
 20
10.0011116484
 30
0.0
 10
12.6220570922
 20
9.9986491007
 30
0.0
 10
12.6492504449
 20
9.9957601695
 30
0.0
 10
12.6757247467
 20
9.9924553484
 30
0.0
 10
12.7013848362
 20
9.9887466466
 30
0.0
 10
12.7261385299
 20
9.9846475492
 30
0.0
 10
12.7498969397
 20
9.9801729645
 30
0.0
 10
12.7725749134
 20
9.9753391887
 30
0.0
 10
12.7940910124
 20
9.9701637829
 30
0.0
 10
12.8112246426
 20
9.9655182815
 30
0.0
 10
12.8242835855
 20
9.9616330263
 30
0.0
 10
12.8336004802
 20
9.9586871263
 30
0.0
 10
12.8425716417
 20
9.9556703646
 30
0.0
 10
12.8484156097
 20
9.9535783154
 30
0.0
 10
12.8512773707
 20
9.9525196306
 30
0.0
  0
SPLINE
  5
347
100
AcDbEntity
  8
0
100
AcDbSpline
 62
7
  6
CONTINUOUS
 70
0
 71
3
 72
20
 73
16
 74
0
 42
0.0000001
 43
0.0000001
 44
0.0000000001
 40
0.0
 40
0.0
 40
0.0
 40
0.0
 40
0.1505005022
 40
0.2902383493
 40
0.4204794849
 40
0.4825760308
 40
0.5429535645
 40
0.6018792827
 40
0.6596437318
 40
0.7165576947
 40
0.7729472187
 40
0.829148528
 40
0.8855014043
 40
0.9423427572
 40
1.0
 40
1.0
 40
1.0
 40
1.0
 10
11.8939646005
 20
10.0974640115
 30
0.0
 10
11.891972109
 20
10.0955394124
 30
0.0
 10
11.8882749858
 20
10.0916713494
 30
0.0
 10
11.8834830082
 20
10.0855773449
 30
0.0
 10
11.8802561224
 20
10.0803666478
 30
0.0
 10
11.8782025884
 20
10.0761894398
 30
0.0
 10
11.8769353471
 20
10.073097288
 30
0.0
 10
11.8759177156
 20
10.0699979342
 30
0.0
 10
11.8751503936
 20
10.0668927443
 30
0.0
 10
11.874633902
 20
10.0637833011
 30
0.0
 10
11.8743687647
 20
10.0606712
 30
0.0
 10
11.874355179
 20
10.0575581632
 30
0.0
 10
11.8745931108
 20
10.0544458408
 30
0.0
 10
11.8750824033
 20
10.0513361635
 30
0.0
 10
11.875571623
 20
10.0492836942
 30
0.0
 10
11.8758559959
 20
10.0482612235
 30
0.0
  0
SPLINE
  5
348
100
AcDbEntity
  8
0
100
AcDbSpline
 62
7
  6
CONTINUOUS
 70
0
 71
3
 72
39
 73
35
 74
0
 42
0.0000001
 43
0.0000001
 44
0.0000000001
 40
0.0
 40
0.0
 40
0.0
 40
0.0
 40
0.0314025546
 40
0.0630095408
 40
0.0948070962
 40
0.1267734469
 40
0.1588809717
 40
0.1910970219
 40
0.2233851129
 40
0.2557062438
 40
0.2880202662
 40
0.3202872752
 40
0.3524690058
 40
0.3845301834
 40
0.4164397919
 40
0.4481722495
 40
0.4797084082
 40
0.5110363786
 40
0.5421521204
 40
0.5730597414
 40
0.6037715192
 40
0.6343075557
 40
0.6646951109
 40
0.6949675898
 40
0.7251632178
 40
0.7553234777
 40
0.7854913538
 40
0.8157095099
 40
0.8460184679
 40
0.8764549221
 40
0.9070502461
 40
0.9378292796
 40
0.9688091728
 40
1.0
 40
1.0
 40
1.0
 40
1.0
 10
9.0986611475
 20
7.8924883779
 30
0.0
 10
9.0897840611
 20
7.8931040059
 30
0.0
 10
9.0720209836
 20
7.8952141119
 30
0.0
 10
9.0457343424
 20
7.9009450247
 30
0.0
 10
9.0199572293
 20
7.9091970153
 30
0.0
 10
8.9949404159
 20
7.919889953
 30
0.0
 10
8.9709230839
 20
7.9329205141
 30
0.0
 10
8.9481359545
 20
7.9481632399
 30
0.0
 10
8.9267974763
 20
7.9654713876
 30
0.0
 10
8.9071124564
 20
7.9846787395
 30
0.0
 10
8.8892697981
 20
8.0056008479
 30
0.0
 10
8.8734408195
 20
8.0280369171
 30
0.0
 10
8.8597777763
 20
8.0517717552
 30
0.0
 10
8.8484120703
 20
8.0765775893
 30
0.0
 10
8.8394534511
 20
8.1022164603
 30
0.0
 10
8.8329885532
 20
8.1284422375
 30
0.0
 10
8.8290802632
 20
8.1550030498
 30
0.0
 10
8.8277671505
 20
8.1816436069
 30
0.0
 10
8.8290626963
 20
8.2081075903
 30
0.0
 10
8.8329556046
 20
8.2341400872
 30
0.0
 10
8.8394093032
 20
8.2594900288
 30
0.0
 10
8.8483625367
 20
8.2839126134
 30
0.0
 10
8.8597297922
 20
8.3071716613
 30
0.0
 10
8.8734018065
 20
8.3290421145
 30
0.0
 10
8.8892469912
 20
8.3493120785
 30
0.0
 10
8.9071122166
 20
8.3677852826
 30
0.0
 10
8.9268246919
 20
8.3842828674
 30
0.0
 10
8.948193562
 20
8.3986452812
 30
0.0
 10
8.9710117844
 20
8.4107340498
 30
0.0
 10
8.9950585607
 20
8.4204327411
 30
0.0
 10
9.0201009697
 20
8.4276485788
 30
0.0
 10
9.045897842
 20
8.4323126824
 30
0.0
 10
9.0721970346
 20
8.4343814092
 30
0.0
 10
9.0898439136
 20
8.4340183499
 30
0.0
 10
9.0986611475
 20
8.4334068727
 30
0.0
  0
SPLINE
  5
349
100
AcDbEntity
  8
0
100
AcDbSpline
 62
7
  6
CONTINUOUS
 70
0
 71
3
 72
41
 73
37
 74
0
 42
0.0000001
 43
0.0000001
 44
0.0000000001
 40
0.0
 40
0.0
 40
0.0
 40
0.0
 40
0.0311444435
 40
0.0624425082
 40
0.0938872491
 40
0.1254695823
 40
0.1571771047
 40
0.1889951244
 40
0.2209066755
 40
0.2528929806
 40
0.2849337954
 40
0.3170078208
 40
0.3490931155
 40
0.3811675209
 40
0.4132090884
 40
0.4451965039
 40
0.4771095035
 40
0.5089292748
 40
0.5406388381
 40
0.5722234001
 40
0.6036706745
 40
0.6349711617
 40
0.666118382
 40
0.6971090532
 40
0.7279432083
 40
0.7586242446
 40
0.7891589004
 40
0.819557156
 40
0.849832054
 40
0.8649308927
 40
0.8800050544
 40
0.9100832588
 40
0.9400926743
 40
0.955081275
 40
0.9700610362
 40
1.0
 40
1.0
 40
1.0
 40
1.0
 10
12.0142975278
 20
7.775425672
 30
0.0
 10
12.0093207055
 20
7.7757708158
 30
0.0
 10
11.9993640749
 20
7.7768271057
 30
0.0
 10
11.9845498576
 20
7.779487856
 30
0.0
 10
11.9698942862
 20
7.7832148582
 30
0.0
 10
11.9554765808
 20
7.787987942
 30
0.0
 10
11.9413732847
 20
7.79378161
 30
0.0
 10
11.9276596442
 20
7.8005648277
 30
0.0
 10
11.9144087114
 20
7.8083013642
 30
0.0
 10
11.9016910945
 20
7.816949904
 30
0.0
 10
11.8895745535
 20
7.8264643017
 30
0.0
 10
11.8781236498
 20
7.8367938119
 30
0.0
 10
11.8673994055
 20
7.8478833635
 30
0.0
 10
11.8574589813
 20
7.8596738481
 30
0.0
 10
11.8483553752
 20
7.8721024332
 30
0.0
 10
11.840137142
 20
7.8851028928
 30
0.0
 10
11.8328481372
 20
7.8986059567
 30
0.0
 10
11.8265272838
 20
7.9125396755
 30
0.0
 10
11.8212083661
 20
7.9268297989
 30
0.0
 10
11.8169198493
 20
7.9414001662
 30
0.0
 10
11.8136847263
 20
7.9561731072
 30
0.0
 10
11.8115203927
 20
7.9710698502
 30
0.0
 10
11.810438551
 20
7.9860109371
 30
0.0
 10
11.8104451408
 20
8.0009166385
 30
0.0
 10
11.811540308
 20
8.0157073899
 30
0.0
 10
11.8137183664
 20
8.0303041554
 30
0.0
 10
11.8169679269
 20
8.0446290623
 30
0.0
 10
11.8212715525
 20
8.0586050248
 30
0.0
 10
11.8257222155
 20
8.0699107613
 30
0.0
 10
11.8297836865
 20
8.0787027153
 30
0.0
 10
11.8341667793
 20
8.0873035109
 30
0.0
 10
11.8402524668
 20
8.0977066182
 30
0.0
 10
11.8471208828
 20
8.1075938267
 30
0.0
 10
11.8530561673
 20
8.1151513907
 30
0.0
 10
11.8592746381
 20
8.1224622341
 30
0.0
 10
11.8642566927
 20
8.1276669515
 30
0.0
 10
11.8677060058
 20
8.1309987354
 30
0.0
  0
SPLINE
  5
34A
100
AcDbEntity
  8
0
100
AcDbSpline
 62
7
  6
CONTINUOUS
 70
0
 71
3
 72
88
 73
84
 74
0
 42
0.0000001
 43
0.0000001
 44
0.0000000001
 40
0.0
 40
0.0
 40
0.0
 40
0.0
 40
0.0039801792
 40
0.0081241172
 40
0.01243598
 40
0.0169193385
 40
0.0215772134
 40
0.0264119561
 40
0.0314252255
 40
0.0366182092
 40
0.0419916017
 40
0.0475457243
 40
0.053280501
 40
0.0591955014
 40
0.0652900157
 40
0.0715630029
 40
0.0846386851
 40
0.0984100077
 40
0.1128605893
 40
0.1279711259
 40
0.1437197291
 40
0.1600822028
 40
0.1770322731
 40
0.1945417833
 40
0.2125808723
 40
0.2311181302
 40
0.2501207382
 40
0.2695545985
 40
0.2893844555
 40
0.3095740089
 40
0.3300860277
 40
0.35088246
 40
0.3719245384
 40
0.3931728831
 40
0.414587604
 40
0.4361284004
 40
0.4577546627
 40
0.5010994726
 40
0.5442955201
 40
0.5657361769
 40
0.587017759
 40
0.608100294
 40
0.6289443019
 40
0.6495108962
 40
0.669761887
 40
0.689659886
 40
0.7091684153
 40
0.7282520213
 40
0.7468763866
 40
0.7650084505
 40
0.7826165366
 40
0.799670491
 40
0.8161418345
 40
0.8320039374
 40
0.8472322097
 40
0.8618043242
 40
0.8757004836
 40
0.8889037463
 40
0.8952413481
 40
0.9014009118
 40
0.907381298
 40
0.9131816928
 40
0.9188015488
 40
0.924240662
 40
0.9294992036
 40
0.9345777127
 40
0.9394772236
 40
0.9441992168
 40
0.9487457712
 40
0.9531195672
 40
0.9573239867
 40
0.961363225
 40
0.9652423269
 40
0.9689673822
 40
0.972545554
 40
0.9759852689
 40
0.9824864512
 40
0.9855753166
 40
0.9885737897
 40
0.9914977186
 40
0.9943643246
 40
0.9971920049
 40
1.0
 40
1.0
 40
1.0
 40
1.0
 10
11.6698697955
 20
10.1439146681
 30
0.0
 10
11.6714681077
 20
10.1454585191
 30
0.0
 10
11.6748030764
 20
10.1485353054
 30
0.0
 10
11.6800979849
 20
10.1530291891
 30
0.0
 10
11.685781721
 20
10.1574908461
 30
0.0
 10
11.6918511656
 20
10.1619178907
 30
0.0
 10
11.6983033493
 20
10.1663082663
 30
0.0
 10
11.705135122
 20
10.1706598251
 30
0.0
 10
11.7123430624
 20
10.174970498
 30
0.0
 10
11.7199235973
 20
10.1792380407
 30
0.0
 10
11.7278728991
 20
10.1834603969
 30
0.0
 10
11.7361870091
 20
10.1876354132
 30
0.0
 10
11.7448617574
 20
10.1917610092
 30
0.0
 10
11.7538927799
 20
10.1958351267
 30
0.0
 10
11.7632755639
 20
10.1998556902
 30
0.0
 10
11.7764310471
 20
10.2052165971
 30
0.0
 10
11.7937316145
 20
10.2117547354
 30
0.0
 10
11.8155391743
 20
10.2192508068
 30
0.0
 10
11.838627671
 20
10.2264866031
 30
0.0
 10
11.8629505515
 20
10.2334474183
 30
0.0
 10
11.8884589886
 20
10.2401190847
 30
0.0
 10
11.9151015997
 20
10.2464880133
 30
0.0
 10
11.9428246765
 20
10.2525412274
 30
0.0
 10
11.9715722715
 20
10.2582663991
 30
0.0
 10
12.0012863327
 20
10.2636518682
 30
0.0
 10
12.0319068276
 20
10.2686866676
 30
0.0
 10
12.0633718712
 20
10.273360546
 30
0.0
 10
12.0956178541
 20
10.2776639881
 30
0.0
 10
12.1285795719
 20
10.281588233
 30
0.0
 10
12.1621903589
 20
10.2851252969
 30
0.0
 10
12.1963822256
 20
10.2882679868
 30
0.0
 10
12.2310860014
 20
10.2910099116
 30
0.0
 10
12.266231474
 20
10.2933454946
 30
0.0
 10
12.3017475387
 20
10.2952699883
 30
0.0
 10
12.3375623179
 20
10.2967794688
 30
0.0
 10
12.3736033971
 20
10.2978708987
 30
0.0
 10
12.4218965654
 20
10.2987662513
 30
0.0
 10
12.482293237
 20
10.2988297939
 30
0.0
 10
12.5425715637
 20
10.2974915936
 30
0.0
 10
12.5905033787
 20
10.2955754882
 30
0.0
 10
12.6260791655
 20
10.2937261781
 30
0.0
 10
12.6612973376
 20
10.2914650312
 30
0.0
 10
12.6960866924
 20
10.2887966099
 30
0.0
 10
12.7303768305
 20
10.2857263504
 30
0.0
 10
12.7640983848
 20
10.2822604938
 30
0.0
 10
12.7971831395
 20
10.278406089
 30
0.0
 10
12.8295641781
 20
10.2741709766
 30
0.0
 10
12.8611760207
 20
10.2695637784
 30
0.0
 10
12.8919547581
 20
10.2645938734
 30
0.0
 10
12.9218381817
 20
10.2592713807
 30
0.0
 10
12.9507659128
 20
10.2536071385
 30
0.0
 10
12.9786795295
 20
10.2476126829
 30
0.0
 10
13.005522692
 20
10.2413002218
 30
0.0
 10
13.0312412773
 20
10.2346826167
 30
0.0
 10
13.0557834675
 20
10.2277733475
 30
0.0
 10
13.0790999755
 20
10.2205864797
 30
0.0
 10
13.1011437776
 20
10.213136623
 30
0.0
 10
13.1186474044
 20
10.2066362628
 30
0.0
 10
13.1319694633
 20
10.2013043376
 30
0.0
 10
13.1414790187
 20
10.1973037556
 30
0.0
 10
13.1506385086
 20
10.1932488774
 30
0.0
 10
13.1594433555
 20
10.189141773
 30
0.0
 10
13.1678891263
 20
10.1849844858
 30
0.0
 10
13.1759715822
 20
10.1807790985
 30
0.0
 10
13.1836866909
 20
10.1765277585
 30
0.0
 10
13.1910305649
 20
10.1722325176
 30
0.0
 10
13.1979995743
 20
10.1678955941
 30
0.0
 10
13.2045902103
 20
10.1635190532
 30
0.0
 10
13.2107992184
 20
10.1591050962
 30
0.0
 10
13.216623506
 20
10.1546558561
 30
0.0
 10
13.2220601582
 20
10.1501734454
 30
0.0
 10
13.2271065041
 20
10.1456600736
 30
0.0
 10
13.2317599742
 20
10.1411177266
 30
0.0
 10
13.2360181822
 20
10.1365487517
 30
0.0
 10
13.2398792158
 20
10.1319546103
 30
0.0
 10
13.2444086242
 20
10.1259138902
 30
0.0
 10
13.2482547975
 20
10.1197103136
 30
0.0
 10
13.2513085344
 20
10.113374298
 30
0.0
 10
13.253153562
 20
10.1086883265
 30
0.0
 10
13.2545903994
 20
10.1039909696
 30
0.0
 10
13.255617775
 20
10.0992844784
 30
0.0
 10
13.2562346419
 20
10.0945722317
 30
0.0
 10
13.2563719772
 20
10.0914240774
 30
0.0
 10
13.2563719818
 20
10.0898563423
 30
0.0
  0
SPLINE
  5
34B
100
AcDbEntity
  8
0
100
AcDbSpline
 62
7
  6
CONTINUOUS
 70
0
 71
3
 72
39
 73
35
 74
0
 42
0.0000001
 43
0.0000001
 44
0.0000000001
 40
0.0
 40
0.0
 40
0.0
 40
0.0
 40
0.0314025546
 40
0.0630095408
 40
0.0948070962
 40
0.1267734469
 40
0.1588809717
 40
0.1910970219
 40
0.2233851129
 40
0.2557062438
 40
0.2880202662
 40
0.3202872752
 40
0.3524690058
 40
0.3845301834
 40
0.4164397919
 40
0.4481722495
 40
0.4797084082
 40
0.5110363786
 40
0.5421521204
 40
0.5730597414
 40
0.6037715192
 40
0.6343075557
 40
0.6646951109
 40
0.6949675898
 40
0.7251632178
 40
0.7553234777
 40
0.7854913538
 40
0.8157095099
 40
0.8460184679
 40
0.8764549221
 40
0.9070502461
 40
0.9378292796
 40
0.9688091728
 40
1.0
 40
1.0
 40
1.0
 40
1.0
 10
9.0986611475
 20
8.4334068727
 30
0.0
 10
9.107538234
 20
8.4327912446
 30
0.0
 10
9.1253013115
 20
8.4306811387
 30
0.0
 10
9.1515879526
 20
8.4249502258
 30
0.0
 10
9.1773650658
 20
8.4166982353
 30
0.0
 10
9.2023818792
 20
8.4060052976
 30
0.0
 10
9.2263992112
 20
8.3929747365
 30
0.0
 10
9.2491863405
 20
8.3777320107
 30
0.0
 10
9.2705248188
 20
8.360423863
 30
0.0
 10
9.2902098386
 20
8.3412165111
 30
0.0
 10
9.3080524969
 20
8.3202944026
 30
0.0
 10
9.3238814756
 20
8.2978583334
 30
0.0
 10
9.3375445187
 20
8.2741234953
 30
0.0
 10
9.3489102247
 20
8.2493176613
 30
0.0
 10
9.357868844
 20
8.2236787902
 30
0.0
 10
9.3643337418
 20
8.197453013
 30
0.0
 10
9.3682420318
 20
8.1708922008
 30
0.0
 10
9.3695551445
 20
8.1442516437
 30
0.0
 10
9.3682595988
 20
8.1177876603
 30
0.0
 10
9.3643666905
 20
8.0917551634
 30
0.0
 10
9.3579129919
 20
8.0664052217
 30
0.0
 10
9.3489597583
 20
8.0419826371
 30
0.0
 10
9.3375925028
 20
8.0187235893
 30
0.0
 10
9.3239204885
 20
7.9968531361
 30
0.0
 10
9.3080753039
 20
7.976583172
 30
0.0
 10
9.2902100784
 20
7.9581099679
 30
0.0
 10
9.2704976031
 20
7.9416123832
 30
0.0
 10
9.249128733
 20
7.9272499693
 30
0.0
 10
9.2263105106
 20
7.9151612008
 30
0.0
 10
9.2022637343
 20
7.9054625095
 30
0.0
 10
9.1772213254
 20
7.8982466718
 30
0.0
 10
9.151424453
 20
7.8935825682
 30
0.0
 10
9.1251252604
 20
7.8915138414
 30
0.0
 10
9.1074783815
 20
7.8918769006
 30
0.0
 10
9.0986611475
 20
7.8924883779
 30
0.0
  0
SPLINE
  5
34C
100
AcDbEntity
  8
0
100
AcDbSpline
 62
7
  6
CONTINUOUS
 70
0
 71
3
 72
21
 73
17
 74
0
 42
0.0000001
 43
0.0000001
 44
0.0000000001
 40
0.0
 40
0.0
 40
0.0
 40
0.0
 40
0.1274739131
 40
0.2540666958
 40
0.3170668635
 40
0.379865455
 40
0.4424734093
 40
0.5049033614
 40
0.567169762
 40
0.6292888928
 40
0.6912786538
 40
0.7531583441
 40
0.8149484578
 40
0.8766705133
 40
0.9383467759
 40
1.0
 40
1.0
 40
1.0
 40
1.0
 10
12.0142975278
 20
7.775425672
 30
0.0
 10
12.0210879386
 20
7.7749547555
 30
0.0
 10
12.0346780377
 20
7.774689519
 30
0.0
 10
12.0515824156
 20
7.7760755531
 30
0.0
 10
12.0648946186
 20
7.7782088702
 30
0.0
 10
12.0747373553
 20
7.7803124771
 30
0.0
 10
12.0844278883
 20
7.7829168537
 30
0.0
 10
12.0939421274
 20
7.786015378
 30
0.0
 10
12.1032560171
 20
7.789600326
 30
0.0
 10
12.1123460891
 20
7.7936627272
 30
0.0
 10
12.1211894755
 20
7.7981922736
 30
0.0
 10
12.1297638685
 20
7.8031776419
 30
0.0
 10
12.1380476229
 20
7.8086062822
 30
0.0
 10
12.1460199879
 20
7.8144645189
 30
0.0
 10
12.1536605504
 20
7.8207374113
 30
0.0
 10
12.1585211963
 20
7.8251861584
 30
0.0
 10
12.1608890497
 20
7.8274733315
 30
0.0
  0
SPLINE
  5
34D
100
AcDbEntity
  8
0
100
AcDbSpline
 62
7
  6
CONTINUOUS
 70
0
 71
3
 72
15
 73
11
 74
0
 42
0.0000001
 43
0.0000001
 44
0.0000000001
 40
0.0
 40
0.0
 40
0.0
 40
0.0
 40
0.1245918615
 40
0.2510755869
 40
0.3785676841
 40
0.5061740686
 40
0.6329999763
 40
0.7581576332
 40
0.8807742306
 40
1.0
 40
1.0
 40
1.0
 40
1.0
 10
13.5215838132
 20
8.3334339862
 30
0.0
 10
13.5215838132
 20
8.3149767159
 30
0.0
 10
13.5211492905
 20
8.2777806551
 30
0.0
 10
13.5192460318
 20
8.2217269738
 30
0.0
 10
13.5160987833
 20
8.1652818735
 30
0.0
 10
13.5117309888
 20
8.1088673302
 30
0.0
 10
13.5061753155
 20
8.0529048021
 30
0.0
 10
13.499473486
 20
7.9978122293
 30
0.0
 10
13.491675993
 20
7.9440015344
 30
0.0
 10
13.4856888368
 20
7.90867393
 30
0.0
 10
13.4825113889
 20
7.8912997643
 30
0.0
  0
SPLINE
  5
34E
100
AcDbEntity
  8
0
100
AcDbSpline
 62
7
  6
CONTINUOUS
 70
0
 71
3
 72
23
 73
19
 74
0
 42
0.0000001
 43
0.0000001
 44
0.0000000001
 40
0.0
 40
0.0
 40
0.0
 40
0.0
 40
0.065206187
 40
0.1312380086
 40
0.1978412228
 40
0.2647572477
 40
0.3317266725
 40
0.3984896261
 40
0.4647872924
 40
0.5303631498
 40
0.5949642655
 40
0.6583425931
 40
0.7202562889
 40
0.7804710599
 40
0.8387615625
 40
0.8949128808
 40
0.9487220923
 40
1.0
 40
1.0
 40
1.0
 40
1.0
 10
13.5983344748
 20
8.3532985116
 30
0.0
 10
13.5983344748
 20
8.3376407877
 30
0.0
 10
13.5980610522
 20
8.306126474
 30
0.0
 10
13.5968548791
 20
8.2586328511
 30
0.0
 10
13.5948544974
 20
8.210755014
 30
0.0
 10
13.592068093
 20
8.1626910325
 30
0.0
 10
13.5885071904
 20
8.1146397494
 30
0.0
 10
13.5841865152
 20
8.0667998876
 30
0.0
 10
13.5791239765
 20
8.0193693097
 30
0.0
 10
13.5733405852
 20
7.9725441664
 30
0.0
 10
13.5668603645
 20
7.9265180814
 30
0.0
 10
13.5597102521
 20
7.8814813414
 30
0.0
 10
13.5519199918
 20
7.837620103
 30
0.0
 10
13.5435220106
 20
7.7951155919
 30
0.0
 10
13.5345513011
 20
7.7541433882
 30
0.0
 10
13.5250452376
 20
7.7148724618
 30
0.0
 10
13.515043595
 20
7.6774651692
 30
0.0
 10
13.5078929178
 20
7.6532613838
 30
0.0
 10
13.5042300072
 20
7.6415056442
 30
0.0
  0
SPLINE
  5
34F
100
AcDbEntity
  8
0
100
AcDbSpline
 62
7
  6
CONTINUOUS
 70
0
 71
3
 72
15
 73
11
 74
0
 42
0.0000001
 43
0.0000001
 44
0.0000000001
 40
0.0
 40
0.0
 40
0.0
 40
0.0
 40
0.1374055903
 40
0.2721476289
 40
0.4037661618
 40
0.5318131377
 40
0.6558589291
 40
0.7754930674
 40
0.8903276028
 40
1.0
 40
1.0
 40
1.0
 40
1.0
 10
13.5983344748
 20
8.3532985116
 30
0.0
 10
13.5983344748
 20
8.3679148564
 30
0.0
 10
13.5980999985
 20
8.3968648334
 30
0.0
 10
13.5970257431
 20
8.4398035485
 30
0.0
 10
13.5952361801
 20
8.4817222774
 30
0.0
 10
13.5927381258
 20
8.5224650501
 30
0.0
 10
13.5895411366
 20
8.5618802946
 30
0.0
 10
13.5856573671
 20
8.5998216602
 30
0.0
 10
13.5811016496
 20
8.6361478687
 30
0.0
 10
13.5775426354
 20
8.6597661038
 30
0.0
 10
13.5756427744
 20
8.6712766291
 30
0.0
  0
SPLINE
  5
350
100
AcDbEntity
  8
0
100
AcDbSpline
 62
7
  6
CONTINUOUS
 70
0
 71
3
 72
11
 73
7
 74
0
 42
0.0000001
 43
0.0000001
 44
0.0000000001
 40
0.0
 40
0.0
 40
0.0
 40
0.0
 40
0.2622468747
 40
0.5166191779
 40
0.7626627181
 40
1.0
 40
1.0
 40
1.0
 40
1.0
 10
9.2043165581
 20
8.2592789351
 30
0.0
 10
9.203318197
 20
8.2552308962
 30
0.0
 10
9.2012888841
 20
8.2472716209
 30
0.0
 10
9.1980955258
 20
8.2355738693
 30
0.0
 10
9.1948036689
 20
8.2243154432
 30
0.0
 10
9.1925051911
 20
8.2169815411
 30
0.0
 10
9.1913387462
 20
8.2133930508
 30
0.0
  0
SPLINE
  5
351
100
AcDbEntity
  8
0
100
AcDbSpline
 62
7
  6
CONTINUOUS
 70
0
 71
3
 72
39
 73
35
 74
0
 42
0.0000001
 43
0.0000001
 44
0.0000000001
 40
0.0
 40
0.0
 40
0.0
 40
0.0
 40
0.0314025546
 40
0.0630095408
 40
0.0948070962
 40
0.1267734469
 40
0.1588809717
 40
0.1910970219
 40
0.2233851129
 40
0.2557062438
 40
0.2880202662
 40
0.3202872752
 40
0.3524690058
 40
0.3845301834
 40
0.4164397919
 40
0.4481722495
 40
0.4797084082
 40
0.5110363786
 40
0.5421521204
 40
0.5730597414
 40
0.6037715192
 40
0.6343075557
 40
0.6646951109
 40
0.6949675898
 40
0.7251632178
 40
0.7553234777
 40
0.7854913538
 40
0.8157095099
 40
0.8460184679
 40
0.8764549221
 40
0.9070502461
 40
0.9378292796
 40
0.9688091728
 40
1.0
 40
1.0
 40
1.0
 40
1.0
 10
11.9964390284
 20
7.6915267993
 30
0.0
 10
11.9875619419
 20
7.6921424273
 30
0.0
 10
11.9697988644
 20
7.6942525333
 30
0.0
 10
11.9435122233
 20
7.6999834461
 30
0.0
 10
11.9177351101
 20
7.7082354367
 30
0.0
 10
11.8927182968
 20
7.7189283744
 30
0.0
 10
11.8687009647
 20
7.7319589355
 30
0.0
 10
11.8459138354
 20
7.7472016613
 30
0.0
 10
11.8245753571
 20
7.764509809
 30
0.0
 10
11.8048903373
 20
7.7837171609
 30
0.0
 10
11.787047679
 20
7.8046392693
 30
0.0
 10
11.7712187003
 20
7.8270753385
 30
0.0
 10
11.7575556572
 20
7.8508101766
 30
0.0
 10
11.7461899512
 20
7.8756160107
 30
0.0
 10
11.7372313319
 20
7.9012548817
 30
0.0
 10
11.7307664341
 20
7.9274806589
 30
0.0
 10
11.7268581441
 20
7.9540414712
 30
0.0
 10
11.7255450314
 20
7.9806820283
 30
0.0
 10
11.7268405771
 20
8.0071460117
 30
0.0
 10
11.7307334854
 20
8.0331785086
 30
0.0
 10
11.7371871841
 20
8.0585284502
 30
0.0
 10
11.7461404176
 20
8.0829510348
 30
0.0
 10
11.7575076731
 20
8.1062100827
 30
0.0
 10
11.7711796874
 20
8.1280805359
 30
0.0
 10
11.787024872
 20
8.1483504999
 30
0.0
 10
11.8048900975
 20
8.1668237041
 30
0.0
 10
11.8246025728
 20
8.1833212888
 30
0.0
 10
11.8459714429
 20
8.1976837026
 30
0.0
 10
11.8687896653
 20
8.2097724712
 30
0.0
 10
11.8928364416
 20
8.2194711625
 30
0.0
 10
11.9178788505
 20
8.2266870002
 30
0.0
 10
11.9436757229
 20
8.2313511038
 30
0.0
 10
11.9699749155
 20
8.2334198306
 30
0.0
 10
11.9876217944
 20
8.2330567713
 30
0.0
 10
11.9964390284
 20
8.2324452941
 30
0.0
  0
SPLINE
  5
352
100
AcDbEntity
  8
0
100
AcDbSpline
 62
7
  6
CONTINUOUS
 70
0
 71
3
 72
39
 73
35
 74
0
 42
0.0000001
 43
0.0000001
 44
0.0000000001
 40
0.0
 40
0.0
 40
0.0
 40
0.0
 40
0.0314025546
 40
0.0630095408
 40
0.0948070962
 40
0.1267734469
 40
0.1588809717
 40
0.1910970219
 40
0.2233851129
 40
0.2557062438
 40
0.2880202662
 40
0.3202872752
 40
0.3524690058
 40
0.3845301834
 40
0.4164397919
 40
0.4481722495
 40
0.4797084082
 40
0.5110363786
 40
0.5421521204
 40
0.5730597414
 40
0.6037715192
 40
0.6343075557
 40
0.6646951109
 40
0.6949675898
 40
0.7251632178
 40
0.7553234777
 40
0.7854913538
 40
0.8157095099
 40
0.8460184679
 40
0.8764549221
 40
0.9070502461
 40
0.9378292796
 40
0.9688091728
 40
1.0
 40
1.0
 40
1.0
 40
1.0
 10
11.9964390284
 20
8.2324452941
 30
0.0
 10
12.0053161148
 20
8.231829666
 30
0.0
 10
12.0230791923
 20
8.2297195601
 30
0.0
 10
12.0493658335
 20
8.2239886472
 30
0.0
 10
12.0751429466
 20
8.2157366567
 30
0.0
 10
12.10015976
 20
8.205043719
 30
0.0
 10
12.124177092
 20
8.1920131579
 30
0.0
 10
12.1469642214
 20
8.1767704321
 30
0.0
 10
12.1683026996
 20
8.1594622844
 30
0.0
 10
12.1879877195
 20
8.1402549325
 30
0.0
 10
12.2058303778
 20
8.119332824
 30
0.0
 10
12.2216593564
 20
8.0968967548
 30
0.0
 10
12.2353223996
 20
8.0731619168
 30
0.0
 10
12.2466881056
 20
8.0483560827
 30
0.0
 10
12.2556467248
 20
8.0227172116
 30
0.0
 10
12.2621116227
 20
7.9964914344
 30
0.0
 10
12.2660199127
 20
7.9699306222
 30
0.0
 10
12.2673330254
 20
7.9432900651
 30
0.0
 10
12.2660374796
 20
7.9168260817
 30
0.0
 10
12.2621445713
 20
7.8907935848
 30
0.0
 10
12.2556908727
 20
7.8654436431
 30
0.0
 10
12.2467376392
 20
7.8410210585
 30
0.0
 10
12.2353703837
 20
7.8177620107
 30
0.0
 10
12.2216983694
 20
7.7958915575
 30
0.0
 10
12.2058531847
 20
7.7756215934
 30
0.0
 10
12.1879879593
 20
7.7571483893
 30
0.0
 10
12.168275484
 20
7.7406508046
 30
0.0
 10
12.1469066139
 20
7.7262883907
 30
0.0
 10
12.1240883915
 20
7.7141996222
 30
0.0
 10
12.1000416152
 20
7.7045009309
 30
0.0
 10
12.0749992062
 20
7.6972850932
 30
0.0
 10
12.0492023339
 20
7.6926209896
 30
0.0
 10
12.0229031413
 20
7.6905522628
 30
0.0
 10
12.0052562623
 20
7.690915322
 30
0.0
 10
11.9964390284
 20
7.6915267993
 30
0.0
  0
SPLINE
  5
353
100
AcDbEntity
  8
0
100
AcDbSpline
 62
7
  6
CONTINUOUS
 70
0
 71
3
 72
53
 73
49
 74
0
 42
0.0000001
 43
0.0000001
 44
0.0000000001
 40
0.0
 40
0.0
 40
0.0
 40
0.0
 40
0.0417740478
 40
0.0840369835
 40
0.1266585592
 40
0.1695065657
 40
0.2124481957
 40
0.2553501644
 40
0.2980793779
 40
0.3405034127
 40
0.3824910553
 40
0.4239128269
 40
0.4646415185
 40
0.5045527309
 40
0.5435254266
 40
0.5814424966
 40
0.6181913512
 40
0.6536645436
 40
0.6877604426
 40
0.7203839756
 40
0.7361162401
 40
0.7514482063
 40
0.7663702194
 40
0.7808732533
 40
0.7949489098
 40
0.808589482
 40
0.8217880323
 40
0.8345384043
 40
0.8468353889
 40
0.8586746951
 40
0.8700532057
 40
0.8809689358
 40
0.8914213732
 40
0.9014114696
 40
0.9109420597
 40
0.9200179488
 40
0.9286464106
 40
0.9368374402
 40
0.9446043453
 40
0.9519642202
 40
0.9589386335
 40
0.9655543067
 40
0.9718438059
 40
0.9778461959
 40
0.9836073668
 40
0.9891800504
 40
0.9946230772
 40
1.0
 40
1.0
 40
1.0
 40
1.0
 10
13.8697596368
 20
8.3344751127
 30
0.0
 10
13.8697596368
 20
8.3204831969
 30
0.0
 10
13.8695413484
 20
8.2923351761
 30
0.0
 10
13.8685763319
 20
8.2499213102
 30
0.0
 10
13.8669746446
 20
8.2071666766
 30
0.0
 10
13.8647415332
 20
8.1642127896
 30
0.0
 10
13.8618843799
 20
8.1212017737
 30
0.0
 10
13.8584126275
 20
8.0782759161
 30
0.0
 10
13.8543377774
 20
8.0355772359
 30
0.0
 10
13.8496733374
 20
7.9932469897
 30
0.0
 10
13.8444347834
 20
7.951425209
 30
0.0
 10
13.8386395062
 20
7.9102502302
 30
0.0
 10
13.8323067563
 20
7.8698582339
 30
0.0
 10
13.8254575806
 20
7.8303827882
 30
0.0
 10
13.8181147543
 20
7.791954402
 30
0.0
 10
13.8103027081
 20
7.7547000768
 30
0.0
 10
13.8020474451
 20
7.718742903
 30
0.0
 10
13.7933764691
 20
7.6842015393
 30
0.0
 10
13.7843186479
 20
7.6511901441
 30
0.0
 10
13.7763803407
 20
7.6247357421
 30
0.0
 10
13.7698459592
 20
7.604428858
 30
0.0
 10
13.7649267488
 20
7.5898321952
 30
0.0
 10
13.7599338756
 20
7.5756964637
 30
0.0
 10
13.7548714626
 20
7.5620333151
 30
0.0
 10
13.7497437087
 20
7.5488540251
 30
0.0
 10
13.7445548528
 20
7.5361694589
 30
0.0
 10
13.7393092143
 20
7.5239900603
 30
0.0
 10
13.734011097
 20
7.5123258587
 30
0.0
 10
13.7286649304
 20
7.5011864265
 30
0.0
 10
13.7232750619
 20
7.4905809207
 30
0.0
 10
13.7178460038
 20
7.4805180016
 30
0.0
 10
13.7123821263
 20
7.4710059183
 30
0.0
 10
13.7068879836
 20
7.4620523834
 30
0.0
 10
13.7013679427
 20
7.4536647038
 30
0.0
 10
13.6958265387
 20
7.4458496188
 30
0.0
 10
13.6902680941
 20
7.4386134674
 30
0.0
 10
13.6846970394
 20
7.4319620148
 30
0.0
 10
13.6791175848
 20
7.4259006359
 30
0.0
 10
13.6735339469
 20
7.4204341805
 30
0.0
 10
13.6679501346
 20
7.4155671438
 30
0.0
 10
13.6623700587
 20
7.4113036471
 30
0.0
 10
13.6567975015
 20
7.4076475506
 30
0.0
 10
13.6512361724
 20
7.4046026206
 30
0.0
 10
13.6456899178
 20
7.4021724694
 30
0.0
 10
13.6401629542
 20
7.4003608375
 30
0.0
 10
13.634659895
 20
7.3991710916
 30
0.0
 10
13.6291873749
 20
7.3986062689
 30
0.0
 10
13.6255540889
 20
7.3986477256
 30
0.0
 10
13.6237574427
 20
7.3987723238
 30
0.0
  0
SPLINE
  5
354
100
AcDbEntity
  8
0
100
AcDbSpline
 62
7
  6
CONTINUOUS
 70
0
 71
3
 72
15
 73
11
 74
0
 42
0.0000001
 43
0.0000001
 44
0.0000000001
 40
0.0
 40
0.0
 40
0.0
 40
0.0
 40
0.1429939929
 40
0.2800806231
 40
0.4115604475
 40
0.5378014005
 40
0.659237468
 40
0.7763647605
 40
0.8897437117
 40
1.0
 40
1.0
 40
1.0
 40
1.0
 10
8.7720919147
 20
10.3139666176
 30
0.0
 10
8.7704892419
 20
10.3124185546
 30
0.0
 10
8.7674191554
 20
10.3093136189
 30
0.0
 10
8.7631467048
 20
10.3045268333
 30
0.0
 10
8.7593092079
 20
10.2997137559
 30
0.0
 10
8.7559092121
 20
10.2948770101
 30
0.0
 10
8.7529488217
 20
10.2900189306
 30
0.0
 10
8.7504300565
 20
10.2851417259
 30
0.0
 10
8.7483549267
 20
10.2802484446
 30
0.0
 10
8.7472551862
 20
10.2769367
 30
0.0
 10
8.7467839516
 20
10.2752844903
 30
0.0
  0
SPLINE
  5
355
100
AcDbEntity
  8
0
100
AcDbSpline
 62
7
  6
CONTINUOUS
 70
0
 71
3
 72
82
 73
78
 74
0
 42
0.0000001
 43
0.0000001
 44
0.0000000001
 40
0.0
 40
0.0
 40
0.0
 40
0.0
 40
0.0039117067
 40
0.0079801567
 40
0.0122092588
 40
0.0166023645
 40
0.0211623367
 40
0.0258914618
 40
0.030791364
 40
0.0358632204
 40
0.0411077694
 40
0.0465253693
 40
0.0521160606
 40
0.0578795085
 40
0.069921596
 40
0.0826443283
 40
0.0960362084
 40
0.1100826086
 40
0.1247661657
 40
0.1400670864
 40
0.1559634079
 40
0.1724312228
 40
0.1894448621
 40
0.2069770552
 40
0.2249990663
 40
0.2434808208
 40
0.262391033
 40
0.281697317
 40
0.3013662905
 40
0.3213636725
 40
0.341654377
 40
0.362202614
 40
0.3829719828
 40
0.4039255621
 40
0.4462348918
 40
0.4888289059
 40
0.5314025491
 40
0.5736509476
 40
0.594559019
 40
0.6152729852
 40
0.6357560515
 40
0.6559719693
 40
0.6758851314
 40
0.6954606611
 40
0.714664506
 40
0.7334635346
 40
0.7518256401
 40
0.7697198544
 40
0.7871164545
 40
0.8039870814
 40
0.8203048705
 40
0.8360446002
 40
0.8511828678
 40
0.8656982758
 40
0.8795716527
 40
0.8927863239
 40
0.9053284466
 40
0.9171874397
 40
0.9228587666
 40
0.9283571121
 40
0.9336823618
 40
0.9388346844
 40
0.9438146629
 40
0.9486232687
 40
0.9532619184
 40
0.9577325733
 40
0.9620377124
 40
0.966180499
 40
0.9701647842
 40
0.9739952192
 40
0.9776773804
 40
0.9812178025
 40
0.9879025711
 40
0.9910687483
 40
0.9941314977
 40
0.9971037846
 40
1.0
 40
1.0
 40
1.0
 40
1.0
 10
8.7720919147
 20
10.3139666176
 30
0.0
 10
8.773647895
 20
10.3154695793
 30
0.0
 10
8.7768909587
 20
10.3184652074
 30
0.0
 10
8.7820332184
 20
10.3228436391
 30
0.0
 10
8.787544546
 20
10.3271916435
 30
0.0
 10
8.7934220676
 20
10.3315069677
 30
0.0
 10
8.7996630256
 20
10.3357877294
 30
0.0
 10
8.8062645522
 20
10.3400319197
 30
0.0
 10
8.8132235059
 20
10.3442376459
 30
0.0
 10
8.8205366079
 20
10.348402846
 30
0.0
 10
8.8282003694
 20
10.3525255641
 30
0.0
 10
8.8362111388
 20
10.3566038642
 30
0.0
 10
8.8445651421
 20
10.3606357865
 30
0.0
 10
8.8563286212
 20
10.3660262511
 30
0.0
 10
8.8718755038
 20
10.3726197446
 30
0.0
 10
8.8915706073
 20
10.3802055537
 30
0.0
 10
8.9125308355
 20
10.3875618556
 30
0.0
 10
8.9347161611
 20
10.3946744939
 30
0.0
 10
8.958084456
 20
10.4015297599
 30
0.0
 10
8.9825911317
 20
10.4081144233
 30
0.0
 10
9.0081893758
 20
10.414415773
 30
0.0
 10
9.0348302255
 20
10.4204216351
 30
0.0
 10
9.0624626861
 20
10.4261204054
 30
0.0
 10
9.0910338296
 20
10.4315010697
 30
0.0
 10
9.1204888975
 20
10.4365532316
 30
0.0
 10
9.1507714095
 20
10.44126714
 30
0.0
 10
9.1818232824
 20
10.4456336943
 30
0.0
 10
9.2135849475
 20
10.4496444644
 30
0.0
 10
9.2459954655
 20
10.4532917068
 30
0.0
 10
9.2789926398
 20
10.4565683775
 30
0.0
 10
9.3125131413
 20
10.4594681625
 30
0.0
 10
9.3464926134
 20
10.4619854608
 30
0.0
 10
9.3808658844
 20
10.4641154526
 30
0.0
 10
9.4272816289
 20
10.4664407829
 30
0.0
 10
9.4857991802
 20
10.4683466177
 30
0.0
 10
9.5563013561
 20
10.4690375915
 30
0.0
 10
9.6267674346
 20
10.4681340746
 30
0.0
 10
9.6852088128
 20
10.4660514212
 30
0.0
 10
9.7315276671
 20
10.4635853205
 30
0.0
 10
9.7658023138
 20
10.4613515622
 30
0.0
 10
9.7996656779
 20
10.4587317157
 30
0.0
 10
9.83305281
 20
10.455730796
 30
0.0
 10
9.8658996149
 20
10.4523546077
 30
0.0
 10
9.8981430591
 20
10.448609664
 30
0.0
 10
9.9297212675
 20
10.4445031924
 30
0.0
 10
9.9605736485
 20
10.4400431161
 30
0.0
 10
9.9906410155
 20
10.4352380408
 30
0.0
 10
10.0198657077
 20
10.4300972508
 30
0.0
 10
10.0481917006
 20
10.4246306772
 30
0.0
 10
10.0755647124
 20
10.4188488802
 30
0.0
 10
10.1019323116
 20
10.412763029
 30
0.0
 10
10.1272440296
 20
10.4063848753
 30
0.0
 10
10.1514514708
 20
10.3997267454
 30
0.0
 10
10.1745084249
 20
10.3928014992
 30
0.0
 10
10.1963709235
 20
10.3856225004
 30
0.0
 10
10.2169974757
 20
10.378203567
 30
0.0
 10
10.236348705
 20
10.370558971
 30
0.0
 10
10.2516007523
 20
10.3639174047
 30
0.0
 10
10.2631231163
 20
10.3584903167
 30
0.0
 10
10.2712944587
 20
10.354433368
 30
0.0
 10
10.2791205398
 20
10.3503311521
 30
0.0
 10
10.2865976243
 20
10.3461855052
 30
0.0
 10
10.2937221781
 20
10.3419984497
 30
0.0
 10
10.3004908265
 20
10.3377719539
 30
0.0
 10
10.306900343
 20
10.3335079587
 30
0.0
 10
10.3129477395
 20
10.3292085291
 30
0.0
 10
10.3186301154
 20
10.3248755671
 30
0.0
 10
10.3239448158
 20
10.3205111303
 30
0.0
 10
10.3288893476
 20
10.3161171458
 30
0.0
 10
10.3334612279
 20
10.3116956616
 30
0.0
 10
10.3376586776
 20
10.3072482986
 30
0.0
 10
10.3426564538
 20
10.3013996066
 30
0.0
 10
10.3470232683
 20
10.2953935637
 30
0.0
 10
10.3506606692
 20
10.2892425763
 30
0.0
 10
10.3529558778
 20
10.2846962804
 30
0.0
 10
10.3548655132
 20
10.2801365878
 30
0.0
 10
10.3558924883
 20
10.2770538325
 30
0.0
 10
10.3563379327
 20
10.2755153008
 30
0.0
  0
SPLINE
  5
356
100
AcDbEntity
  8
0
100
AcDbSpline
 62
7
  6
CONTINUOUS
 70
0
 71
3
 72
82
 73
78
 74
0
 42
0.0000001
 43
0.0000001
 44
0.0000000001
 40
0.0
 40
0.0
 40
0.0
 40
0.0
 40
0.0040448529
 40
0.0082603888
 40
0.0126510012
 40
0.0172203915
 40
0.0219716858
 40
0.0269073693
 40
0.0320291528
 40
0.0373381926
 40
0.0428351729
 40
0.0485202967
 40
0.0604534148
 40
0.0731326977
 40
0.0865476644
 40
0.1006837131
 40
0.1155226803
 40
0.1310432739
 40
0.1472214583
 40
0.1640307566
 40
0.181442495
 40
0.1994259983
 40
0.2179487789
 40
0.2369767215
 40
0.2564742328
 40
0.2764043768
 40
0.2967289966
 40
0.3174088578
 40
0.338403774
 40
0.3596727225
 40
0.3811739532
 40
0.4247025304
 40
0.4686462878
 40
0.5126568792
 40
0.5563852818
 40
0.5994853537
 40
0.6206937162
 40
0.6416183531
 40
0.6622184176
 40
0.6824539375
 40
0.7022859296
 40
0.7216765161
 40
0.7405890511
 40
0.7589882681
 40
0.7768404309
 40
0.7941134728
 40
0.8107771642
 40
0.8268033079
 40
0.8421659826
 40
0.8568417837
 40
0.8708101231
 40
0.884053608
 40
0.8965585377
 40
0.9083155216
 40
0.9139123426
 40
0.9193210404
 40
0.9245420624
 40
0.9295763293
 40
0.934425239
 40
0.9390908471
 40
0.9435758133
 40
0.9478835617
 40
0.9520183826
 40
0.9559854592
 40
0.9597911062
 40
0.9634428001
 40
0.9669493498
 40
0.9703210665
 40
0.9767050786
 40
0.9797502036
 40
0.9827180476
 40
0.9856270511
 40
0.9884968943
 40
0.9913481644
 40
0.994201885
 40
0.9970790259
 40
1.0
 40
1.0
 40
1.0
 40
1.0
 10
8.9961867196
 20
10.2984255901
 30
0.0
 10
8.9973545296
 20
10.299553608
 30
0.0
 10
8.9997938462
 20
10.301801446
 30
0.0
 10
9.0036716017
 20
10.3050823931
 30
0.0
 10
9.0078402875
 20
10.3083391652
 30
0.0
 10
9.012297503
 20
10.3115698636
 30
0.0
 10
9.0170409127
 20
10.3147729481
 30
0.0
 10
9.0220681201
 20
10.3179467484
 30
0.0
 10
9.0273764875
 20
10.3210897026
 30
0.0
 10
9.0329632338
 20
10.3242001303
 30
0.0
 10
9.0388254373
 20
10.327276395
 30
0.0
 10
9.0471396424
 20
10.3313970991
 30
0.0
 10
9.0582115589
 20
10.3364379724
 30
0.0
 10
9.0723371677
 20
10.342231708
 30
0.0
 10
9.0874794803
 20
10.3478516977
 30
0.0
 10
9.1036065558
 20
10.3532859887
 30
0.0
 10
9.1206845962
 20
10.3585229917
 30
0.0
 10
9.1386775779
 20
10.3635515268
 30
0.0
 10
9.1575474948
 20
10.3683608403
 30
0.0
 10
9.1772544243
 20
10.3729406379
 30
0.0
 10
9.19775663
 20
10.3772811072
 30
0.0
 10
9.2190106446
 20
10.3813729569
 30
0.0
 10
9.2409713721
 20
10.3852074376
 30
0.0
 10
9.2635921992
 20
10.3887763441
 30
0.0
 10
9.2868250998
 20
10.3920720384
 30
0.0
 10
9.3106207322
 20
10.3950874634
 30
0.0
 10
9.3349285416
 20
10.397816179
 30
0.0
 10
9.35969688
 20
10.4002523569
 30
0.0
 10
9.3848731043
 20
10.4023907811
 30
0.0
 10
9.4104037562
 20
10.4042269068
 30
0.0
 10
9.4449849946
 20
10.4062749255
 30
0.0
 10
9.4886967952
 20
10.4080470384
 30
0.0
 10
9.5414729045
 20
10.4089158314
 30
0.0
 10
9.5943351667
 20
10.4085277206
 30
0.0
 10
9.6468343789
 20
10.4068860745
 30
0.0
 10
9.6901390386
 20
10.4044727024
 30
0.0
 10
9.7242574669
 20
10.4019159282
 30
0.0
 10
9.7493427749
 20
10.3997071712
 30
0.0
 10
9.7740077148
 20
10.3972018506
 30
0.0
 10
9.7981999195
 20
10.3944052927
 30
0.0
 10
9.8218679813
 20
10.3913234894
 30
0.0
 10
9.844961625
 20
10.3879630282
 30
0.0
 10
9.867431799
 20
10.3843310901
 30
0.0
 10
9.8892307952
 20
10.3804354438
 30
0.0
 10
9.9103123551
 20
10.3762844344
 30
0.0
 10
9.9306317643
 20
10.3718869475
 30
0.0
 10
9.9501459463
 20
10.3672523947
 30
0.0
 10
9.9688135704
 20
10.3623906868
 30
0.0
 10
9.9865951563
 20
10.3573122373
 30
0.0
 10
10.0034531755
 20
10.3520279104
 30
0.0
 10
10.0193520961
 20
10.346548995
 30
0.0
 10
10.0342586157
 20
10.3408871431
 30
0.0
 10
10.0481413089
 20
10.3350543914
 30
0.0
 10
10.0590047686
 20
10.3299816568
 30
0.0
 10
10.0671484619
 20
10.3258368388
 30
0.0
 10
10.0728817426
 20
10.3227443186
 30
0.0
 10
10.0783381768
 20
10.3196184274
 30
0.0
 10
10.0835149296
 20
10.3164607956
 30
0.0
 10
10.0884092527
 20
10.3132730026
 30
0.0
 10
10.0930186276
 20
10.3100567649
 30
0.0
 10
10.0973406281
 20
10.3068136855
 30
0.0
 10
10.1013729878
 20
10.3035453971
 30
0.0
 10
10.1051136435
 20
10.3002535874
 30
0.0
 10
10.1085605608
 20
10.2969398077
 30
0.0
 10
10.1117119793
 20
10.2936056912
 30
0.0
 10
10.1145661116
 20
10.2902529482
 30
0.0
 10
10.1171215533
 20
10.2868826343
 30
0.0
 10
10.1200740238
 20
10.2824502935
 30
0.0
 10
10.1225029294
 20
10.2778986783
 30
0.0
 10
10.12432533
 20
10.2732634498
 30
0.0
 10
10.1253654524
 20
10.2698320977
 30
0.0
 10
10.1260989527
 20
10.2663942151
 30
0.0
 10
10.1265250333
 20
10.2629517844
 30
0.0
 10
10.1266432091
 20
10.2595072426
 30
0.0
 10
10.1264533847
 20
10.2560629155
 30
0.0
 10
10.1259557362
 20
10.2526215342
 30
0.0
 10
10.1254242286
 20
10.2503522442
 30
0.0
 10
10.1251100493
 20
10.2492226167
 30
0.0
  0
SPLINE
  5
357
100
AcDbEntity
  8
0
100
AcDbSpline
 62
7
  6
CONTINUOUS
 70
0
 71
3
 72
55
 73
51
 74
0
 42
0.0000001
 43
0.0000001
 44
0.0000000001
 40
0.0
 40
0.0
 40
0.0
 40
0.0
 40
0.0092956865
 40
0.0191064733
 40
0.0294324006
 40
0.0402710037
 40
0.0516177
 40
0.0634659489
 40
0.0758076349
 40
0.0886331056
 40
0.1019313882
 40
0.115690345
 40
0.1298966676
 40
0.1445361177
 40
0.1595934749
 40
0.1750526803
 40
0.1908969094
 40
0.2071085479
 40
0.2405598093
 40
0.2752538037
 40
0.311028532
 40
0.3477147449
 40
0.3851372221
 40
0.4231160003
 40
0.4614675801
 40
0.5000061184
 40
0.5385446015
 40
0.5768960141
 40
0.6148745115
 40
0.652296601
 40
0.6889823254
 40
0.7247564644
 40
0.7594497654
 40
0.7929002298
 40
0.8091114507
 40
0.8249552153
 40
0.8404139678
 40
0.8554708253
 40
0.8701097671
 40
0.8843155746
 40
0.8980739715
 40
0.9113717176
 40
0.9241966034
 40
0.9365377079
 40
0.948385373
 40
0.959731447
 40
0.9705694624
 40
0.9808947638
 40
0.9907049407
 40
1.0
 40
1.0
 40
1.0
 40
1.0
 10
9.0595706867
 20
10.1829481496
 30
0.0
 10
9.0622621481
 20
10.1845227326
 30
0.0
 10
9.0678651499
 20
10.1876389782
 30
0.0
 10
9.0766709059
 20
10.1921082397
 30
0.0
 10
9.0860932096
 20
10.1964926989
 30
0.0
 10
9.0961198243
 20
10.200786639
 30
0.0
 10
9.1067379889
 20
10.2049844905
 30
0.0
 10
9.1179340186
 20
10.2090808704
 30
0.0
 10
9.129693504
 20
10.2130703975
 30
0.0
 10
9.1420012527
 20
10.2169478999
 30
0.0
 10
9.1548413468
 20
10.2207083317
 30
0.0
 10
9.1681971659
 20
10.22434674
 30
0.0
 10
9.1820513932
 20
10.227858432
 30
0.0
 10
9.1963860638
 20
10.2312387689
 30
0.0
 10
9.2111825736
 20
10.234483364
 30
0.0
 10
9.226421706
 20
10.2375879764
 30
0.0
 10
9.2420836906
 20
10.2405485475
 30
0.0
 10
9.2637292082
 20
10.2443382885
 30
0.0
 10
9.2916957534
 20
10.2486733936
 30
0.0
 10
9.3262643004
 20
10.2531924318
 30
0.0
 10
9.3620036591
 20
10.2570571887
 30
0.0
 10
9.398728092
 20
10.2602473558
 30
0.0
 10
9.4362469152
 20
10.2627461174
 30
0.0
 10
9.4743651876
 20
10.2645403287
 30
0.0
 10
9.5128848332
 20
10.2656205569
 30
0.0
 10
9.5516056627
 20
10.2659811232
 30
0.0
 10
9.5903264321
 20
10.2656201312
 30
0.0
 10
9.6288458969
 20
10.2645394745
 30
0.0
 10
9.6669638684
 20
10.2627448327
 30
0.0
 10
9.7044822748
 20
10.2602456522
 30
0.0
 10
9.7412061793
 20
10.2570550817
 30
0.0
 10
9.7769448979
 20
10.2531899318
 30
0.0
 10
9.8115126924
 20
10.2486705152
 30
0.0
 10
9.8394785383
 20
10.244335078
 30
0.0
 10
9.861123445
 20
10.2405451128
 30
0.0
 10
9.8767849366
 20
10.2375843442
 30
0.0
 10
9.8920235543
 20
10.2344795867
 30
0.0
 10
9.9068195231
 20
10.2312348115
 30
0.0
 10
9.9211536311
 20
10.2278543156
 30
0.0
 10
9.9350072755
 20
10.2243424845
 30
0.0
 10
9.9483624868
 20
10.2207039017
 30
0.0
 10
9.9612019599
 20
10.2169433561
 30
0.0
 10
9.9735090608
 20
10.213065697
 30
0.0
 10
9.9852678826
 20
10.2090760424
 30
0.0
 10
9.9964632346
 20
10.2049795533
 30
0.0
 10
10.0070806935
 20
10.2007815541
 30
0.0
 10
10.0171066064
 20
10.1964875389
 30
0.0
 10
10.0265281733
 20
10.1921029448
 30
0.0
 10
10.0353331861
 20
10.1876335995
 30
0.0
 10
10.0409356763
 20
10.1845172872
 30
0.0
 10
10.0436268813
 20
10.1829426827
 30
0.0
  0
SPLINE
  5
358
100
AcDbEntity
  8
0
100
AcDbSpline
 62
7
  6
CONTINUOUS
 70
0
 71
3
 72
43
 73
39
 74
0
 42
0.0000001
 43
0.0000001
 44
0.0000000001
 40
0.0
 40
0.0
 40
0.0
 40
0.0
 40
0.0112393111
 40
0.0228617385
 40
0.0348608768
 40
0.0472296893
 40
0.0730439479
 40
0.1002364389
 40
0.1287297587
 40
0.158439129
 40
0.1892732868
 40
0.2211352572
 40
0.2539230439
 40
0.2875302666
 40
0.3218467581
 40
0.3567591373
 40
0.3921513636
 40
0.4279052796
 40
0.463901146
 40
0.5000181717
 40
0.5361350405
 40
0.572130437
 40
0.6078835719
 40
0.6432747095
 40
0.678185697
 40
0.7125004999
 40
0.7461057445
 40
0.7788912728
 40
0.8107507146
 40
0.8415820859
 40
0.8712884253
 40
0.8997784857
 40
0.9269675065
 40
0.9527781045
 40
0.9651450004
 40
0.9771422279
 40
0.9887626682
 40
1.0
 40
1.0
 40
1.0
 40
1.0
 10
9.1497323987
 20
10.1534973627
 30
0.0
 10
9.1525947753
 20
10.1545559324
 30
0.0
 10
9.1584399719
 20
10.1566477446
 30
0.0
 10
9.1674129454
 20
10.1596641238
 30
0.0
 10
9.1767316056
 20
10.1626096758
 30
0.0
 10
9.1897928382
 20
10.1664943646
 30
0.0
 10
9.2069291978
 20
10.1711391803
 30
0.0
 10
9.228448406
 20
10.1763137206
 30
0.0
 10
9.2511292816
 20
10.18114659
 30
0.0
 10
9.2748903781
 20
10.1856202228
 30
0.0
 10
9.2996465325
 20
10.1897183286
 30
0.0
 10
9.325308848
 20
10.1934260019
 30
0.0
 10
9.3517851331
 20
10.1967297618
 30
0.0
 10
9.3789802193
 20
10.1996176027
 30
0.0
 10
9.4067963216
 20
10.2020790352
 30
0.0
 10
9.4351333965
 20
10.2041051223
 30
0.0
 10
9.4638895079
 20
10.20568851
 30
0.0
 10
9.4929611991
 20
10.2068234526
 30
0.0
 10
9.5222438689
 20
10.2075058326
 30
0.0
 10
9.551632151
 20
10.2077331746
 30
0.0
 10
9.5810202964
 20
10.207504654
 30
0.0
 10
9.6103025565
 20
10.2068210996
 30
0.0
 10
9.6393735665
 20
10.2056849912
 30
0.0
 10
9.6681287276
 20
10.2041004504
 30
0.0
 10
9.6964645864
 20
10.202073227
 30
0.0
 10
9.7242792113
 20
10.1996106792
 30
0.0
 10
9.7514725641
 20
10.1967217481
 30
0.0
 10
9.7779468659
 20
10.193416927
 30
0.0
 10
9.8036069553
 20
10.1897082252
 30
0.0
 10
9.8283606491
 20
10.1856091278
 30
0.0
 10
9.8521190589
 20
10.181134543
 30
0.0
 10
9.8747970325
 20
10.1763007673
 30
0.0
 10
9.8963131315
 20
10.1711253614
 30
0.0
 10
9.9134467617
 20
10.1664798601
 30
0.0
 10
9.9265057046
 20
10.1625946048
 30
0.0
 10
9.9358225993
 20
10.1596487049
 30
0.0
 10
9.9447937609
 20
10.1566319432
 30
0.0
 10
9.9506377289
 20
10.154539894
 30
0.0
 10
9.9534994898
 20
10.1534812092
 30
0.0
  0
SPLINE
  5
359
100
AcDbEntity
  8
0
100
AcDbSpline
 62
7
  6
CONTINUOUS
 70
0
 71
3
 72
18
 73
14
 74
0
 42
0.0000001
 43
0.0000001
 44
0.0000000001
 40
0.0
 40
0.0
 40
0.0
 40
0.0
 40
0.0548620934
 40
0.1099281175
 40
0.1653995415
 40
0.2214731583
 40
0.2783387419
 40
0.3361775034
 40
0.4554063124
 40
0.5804415574
 40
0.7123342032
 40
0.8519579354
 40
1.0
 40
1.0
 40
1.0
 40
1.0
 10
11.6423719853
 20
10.0898556732
 30
0.0
 10
11.642371982
 20
10.0909953891
 30
0.0
 10
11.6424443187
 20
10.0932797122
 30
0.0
 10
11.6427695525
 20
10.0967024824
 30
0.0
 10
11.6433114539
 20
10.1001232795
 30
0.0
 10
11.64406984
 20
10.1035408532
 30
0.0
 10
11.6450443966
 20
10.1069543464
 30
0.0
 10
11.6466473424
 20
10.1115445774
 30
0.0
 10
11.6492152466
 20
10.1172857236
 30
0.0
 10
11.6531237608
 20
10.124066044
 30
0.0
 10
11.6578841346
 20
10.1308024812
 30
0.0
 10
11.6634891239
 20
10.1374882616
 30
0.0
 10
11.6676577603
 20
10.141778006
 30
0.0
 10
11.6698697955
 20
10.1439146681
 30
0.0
  0
SPLINE
  5
35A
100
AcDbEntity
  8
0
100
AcDbSpline
 62
7
  6
CONTINUOUS
 70
0
 71
3
 72
18
 73
14
 74
0
 42
0.0000001
 43
0.0000001
 44
0.0000000001
 40
0.0
 40
0.0
 40
0.0
 40
0.0
 40
0.0548620934
 40
0.1099281175
 40
0.1653995415
 40
0.2214731583
 40
0.2783387419
 40
0.3361775034
 40
0.4554063124
 40
0.5804415574
 40
0.7123342032
 40
0.8519579354
 40
1.0
 40
1.0
 40
1.0
 40
1.0
 10
8.7445941044
 20
10.2908172518
 30
0.0
 10
8.7445941011
 20
10.2919569677
 30
0.0
 10
8.7446664379
 20
10.2942412908
 30
0.0
 10
8.7449916716
 20
10.297664061
 30
0.0
 10
8.745533573
 20
10.3010848581
 30
0.0
 10
8.7462919592
 20
10.3045024318
 30
0.0
 10
8.7472665158
 20
10.307915925
 30
0.0
 10
8.7488694616
 20
10.312506156
 30
0.0
 10
8.7514373657
 20
10.3182473022
 30
0.0
 10
8.7553458799
 20
10.3250276226
 30
0.0
 10
8.7601062538
 20
10.3317640598
 30
0.0
 10
8.765711243
 20
10.3384498402
 30
0.0
 10
8.7698798795
 20
10.3427395846
 30
0.0
 10
8.7720919147
 20
10.3448762467
 30
0.0
  0
SPLINE
  5
35B
100
AcDbEntity
  8
0
100
AcDbSpline
 62
7
  6
CONTINUOUS
 70
0
 71
3
 72
20
 73
16
 74
0
 42
0.0000001
 43
0.0000001
 44
0.0000000001
 40
0.0
 40
0.0
 40
0.0
 40
0.0
 40
0.1505005022
 40
0.2902383493
 40
0.4204794849
 40
0.4825760308
 40
0.5429535645
 40
0.6018792827
 40
0.6596437318
 40
0.7165576947
 40
0.7729472187
 40
0.829148528
 40
0.8855014043
 40
0.9423427572
 40
1.0
 40
1.0
 40
1.0
 40
1.0
 10
8.9961867196
 20
10.2984255901
 30
0.0
 10
8.9941942281
 20
10.296500991
 30
0.0
 10
8.990497105
 20
10.292632928
 30
0.0
 10
8.9857051274
 20
10.2865389235
 30
0.0
 10
8.9824782415
 20
10.2813282264
 30
0.0
 10
8.9804247075
 20
10.2771510184
 30
0.0
 10
8.9791574662
 20
10.2740588666
 30
0.0
 10
8.9781398348
 20
10.2709595128
 30
0.0
 10
8.9773725128
 20
10.2678543229
 30
0.0
 10
8.9768560212
 20
10.2647448797
 30
0.0
 10
8.9765908838
 20
10.2616327786
 30
0.0
 10
8.9765772982
 20
10.2585197418
 30
0.0
 10
8.9768152299
 20
10.2554074194
 30
0.0
 10
8.9773045224
 20
10.2522977421
 30
0.0
 10
8.9777937421
 20
10.2502452728
 30
0.0
 10
8.978078115
 20
10.2492228021
 30
0.0
  0
SPLINE
  5
35C
100
AcDbEntity
  8
0
100
AcDbSpline
 62
7
  6
CONTINUOUS
 70
0
 71
3
 72
88
 73
84
 74
0
 42
0.0000001
 43
0.0000001
 44
0.0000000001
 40
0.0
 40
0.0
 40
0.0
 40
0.0
 40
0.0039801792
 40
0.0081241172
 40
0.01243598
 40
0.0169193385
 40
0.0215772134
 40
0.0264119561
 40
0.0314252255
 40
0.0366182092
 40
0.0419916017
 40
0.0475457243
 40
0.053280501
 40
0.0591955014
 40
0.0652900157
 40
0.0715630029
 40
0.0846386851
 40
0.0984100077
 40
0.1128605893
 40
0.1279711259
 40
0.1437197291
 40
0.1600822028
 40
0.1770322731
 40
0.1945417833
 40
0.2125808723
 40
0.2311181302
 40
0.2501207382
 40
0.2695545985
 40
0.2893844555
 40
0.3095740089
 40
0.3300860277
 40
0.35088246
 40
0.3719245384
 40
0.3931728831
 40
0.414587604
 40
0.4361284004
 40
0.4577546627
 40
0.5010994726
 40
0.5442955201
 40
0.5657361769
 40
0.587017759
 40
0.608100294
 40
0.6289443019
 40
0.6495108962
 40
0.669761887
 40
0.689659886
 40
0.7091684153
 40
0.7282520213
 40
0.7468763866
 40
0.7650084505
 40
0.7826165366
 40
0.799670491
 40
0.8161418345
 40
0.8320039374
 40
0.8472322097
 40
0.8618043242
 40
0.8757004836
 40
0.8889037463
 40
0.8952413481
 40
0.9014009118
 40
0.907381298
 40
0.9131816928
 40
0.9188015488
 40
0.924240662
 40
0.9294992036
 40
0.9345777127
 40
0.9394772236
 40
0.9441992168
 40
0.9487457712
 40
0.9531195672
 40
0.9573239867
 40
0.961363225
 40
0.9652423269
 40
0.9689673822
 40
0.972545554
 40
0.9759852689
 40
0.9824864512
 40
0.9855753166
 40
0.9885737897
 40
0.9914977186
 40
0.9943643246
 40
0.9971920049
 40
1.0
 40
1.0
 40
1.0
 40
1.0
 10
8.7720919147
 20
10.3448762467
 30
0.0
 10
8.7736902268
 20
10.3464200977
 30
0.0
 10
8.7770251955
 20
10.349496884
 30
0.0
 10
8.782320104
 20
10.3539907677
 30
0.0
 10
8.7880038402
 20
10.3584524247
 30
0.0
 10
8.7940732847
 20
10.3628794693
 30
0.0
 10
8.8005254684
 20
10.3672698449
 30
0.0
 10
8.8073572412
 20
10.3716214037
 30
0.0
 10
8.8145651815
 20
10.3759320766
 30
0.0
 10
8.8221457165
 20
10.3801996193
 30
0.0
 10
8.8300950183
 20
10.3844219755
 30
0.0
 10
8.8384091282
 20
10.3885969918
 30
0.0
 10
8.8470838765
 20
10.3927225878
 30
0.0
 10
8.8561148991
 20
10.3967967053
 30
0.0
 10
8.865497683
 20
10.4008172688
 30
0.0
 10
8.8786531663
 20
10.4061781757
 30
0.0
 10
8.8959537336
 20
10.412716314
 30
0.0
 10
8.9177612935
 20
10.4202123854
 30
0.0
 10
8.9408497901
 20
10.4274481817
 30
0.0
 10
8.9651726707
 20
10.4344089969
 30
0.0
 10
8.9906811078
 20
10.4410806633
 30
0.0
 10
9.0173237188
 20
10.4474495919
 30
0.0
 10
9.0450467956
 20
10.453502806
 30
0.0
 10
9.0737943907
 20
10.4592279777
 30
0.0
 10
9.1035084518
 20
10.4646134468
 30
0.0
 10
9.1341289467
 20
10.4696482462
 30
0.0
 10
9.1655939904
 20
10.4743221245
 30
0.0
 10
9.1978399732
 20
10.4786255667
 30
0.0
 10
9.230801691
 20
10.4825498116
 30
0.0
 10
9.264412478
 20
10.4860868755
 30
0.0
 10
9.2986043448
 20
10.4892295654
 30
0.0
 10
9.3333081205
 20
10.4919714902
 30
0.0
 10
9.3684535931
 20
10.4943070732
 30
0.0
 10
9.4039696578
 20
10.4962315669
 30
0.0
 10
9.439784437
 20
10.4977410474
 30
0.0
 10
9.4758255162
 20
10.4988324773
 30
0.0
 10
9.5241186845
 20
10.4997278299
 30
0.0
 10
9.5845153562
 20
10.4997913724
 30
0.0
 10
9.6447936828
 20
10.4984531722
 30
0.0
 10
9.6927254978
 20
10.4965370668
 30
0.0
 10
9.7283012846
 20
10.4946877567
 30
0.0
 10
9.7635194568
 20
10.4924266098
 30
0.0
 10
9.7983088115
 20
10.4897581885
 30
0.0
 10
9.8325989496
 20
10.486687929
 30
0.0
 10
9.8663205039
 20
10.4832220724
 30
0.0
 10
9.8994052586
 20
10.4793676676
 30
0.0
 10
9.9317862972
 20
10.4751325552
 30
0.0
 10
9.9633981398
 20
10.470525357
 30
0.0
 10
9.9941768772
 20
10.465555452
 30
0.0
 10
10.0240603009
 20
10.4602329593
 30
0.0
 10
10.0529880319
 20
10.4545687171
 30
0.0
 10
10.0809016486
 20
10.4485742615
 30
0.0
 10
10.1077448111
 20
10.4422618004
 30
0.0
 10
10.1334633964
 20
10.4356441953
 30
0.0
 10
10.1580055867
 20
10.4287349261
 30
0.0
 10
10.1813220946
 20
10.4215480583
 30
0.0
 10
10.2033658968
 20
10.4140982016
 30
0.0
 10
10.2208695235
 20
10.4075978414
 30
0.0
 10
10.2341915825
 20
10.4022659162
 30
0.0
 10
10.2437011379
 20
10.3982653342
 30
0.0
 10
10.2528606278
 20
10.394210456
 30
0.0
 10
10.2616654747
 20
10.3901033516
 30
0.0
 10
10.2701112455
 20
10.3859460644
 30
0.0
 10
10.2781937013
 20
10.3817406771
 30
0.0
 10
10.28590881
 20
10.3774893371
 30
0.0
 10
10.293252684
 20
10.3731940962
 30
0.0
 10
10.3002216935
 20
10.3688571727
 30
0.0
 10
10.3068123294
 20
10.3644806318
 30
0.0
 10
10.3130213376
 20
10.3600666748
 30
0.0
 10
10.3188456251
 20
10.3556174347
 30
0.0
 10
10.3242822773
 20
10.351135024
 30
0.0
 10
10.3293286233
 20
10.3466216522
 30
0.0
 10
10.3339820933
 20
10.3420793052
 30
0.0
 10
10.3382403013
 20
10.3375103303
 30
0.0
 10
10.3421013349
 20
10.3329161889
 30
0.0
 10
10.3466307434
 20
10.3268754688
 30
0.0
 10
10.3504769166
 20
10.3206718922
 30
0.0
 10
10.3535306535
 20
10.3143358766
 30
0.0
 10
10.3553756811
 20
10.3096499051
 30
0.0
 10
10.3568125186
 20
10.3049525482
 30
0.0
 10
10.3578398941
 20
10.300246057
 30
0.0
 10
10.358456761
 20
10.2955338103
 30
0.0
 10
10.3585940964
 20
10.292385656
 30
0.0
 10
10.3585941009
 20
10.2908179209
 30
0.0
  0
SPLINE
  5
35D
100
AcDbEntity
  8
0
100
AcDbSpline
 62
7
  6
CONTINUOUS
 70
0
 71
3
 72
41
 73
37
 74
0
 42
0.0000001
 43
0.0000001
 44
0.0000000001
 40
0.0
 40
0.0
 40
0.0
 40
0.0
 40
0.0311444435
 40
0.0624425082
 40
0.0938872491
 40
0.1254695823
 40
0.1571771047
 40
0.1889951244
 40
0.2209066755
 40
0.2528929806
 40
0.2849337954
 40
0.3170078208
 40
0.3490931155
 40
0.3811675209
 40
0.4132090884
 40
0.4451965039
 40
0.4771095035
 40
0.5089292748
 40
0.5406388381
 40
0.5722234001
 40
0.6036706745
 40
0.6349711617
 40
0.666118382
 40
0.6971090532
 40
0.7279432083
 40
0.7586242446
 40
0.7891589004
 40
0.819557156
 40
0.849832054
 40
0.8649308927
 40
0.8800050544
 40
0.9100832588
 40
0.9400926743
 40
0.955081275
 40
0.9700610362
 40
1.0
 40
1.0
 40
1.0
 40
1.0
 10
9.1165196469
 20
7.9763872506
 30
0.0
 10
9.1115428247
 20
7.9767323944
 30
0.0
 10
9.101586194
 20
7.9777886843
 30
0.0
 10
9.0867719768
 20
7.9804494345
 30
0.0
 10
9.0721164053
 20
7.9841764368
 30
0.0
 10
9.0576986999
 20
7.9889495206
 30
0.0
 10
9.0435954038
 20
7.9947431886
 30
0.0
 10
9.0298817633
 20
8.0015264063
 30
0.0
 10
9.0166308305
 20
8.0092629428
 30
0.0
 10
9.0039132137
 20
8.0179114826
 30
0.0
 10
8.9917966726
 20
8.0274258802
 30
0.0
 10
8.9803457689
 20
8.0377553905
 30
0.0
 10
8.9696215246
 20
8.0488449421
 30
0.0
 10
8.9596811004
 20
8.0606354267
 30
0.0
 10
8.9505774943
 20
8.0730640118
 30
0.0
 10
8.9423592612
 20
8.0860644714
 30
0.0
 10
8.9350702563
 20
8.0995675353
 30
0.0
 10
8.9287494029
 20
8.1135012541
 30
0.0
 10
8.9234304853
 20
8.1277913775
 30
0.0
 10
8.9191419685
 20
8.1423617448
 30
0.0
 10
8.9159068454
 20
8.1571346858
 30
0.0
 10
8.9137425118
 20
8.1720314288
 30
0.0
 10
8.9126606701
 20
8.1869725157
 30
0.0
 10
8.91266726
 20
8.2018782171
 30
0.0
 10
8.9137624271
 20
8.2166689685
 30
0.0
 10
8.9159404856
 20
8.231265734
 30
0.0
 10
8.919190046
 20
8.2455906409
 30
0.0
 10
8.9234936716
 20
8.2595666034
 30
0.0
 10
8.9279443347
 20
8.2708723399
 30
0.0
 10
8.9320058057
 20
8.2796642939
 30
0.0
 10
8.9363888984
 20
8.2882650895
 30
0.0
 10
8.9424745859
 20
8.2986681968
 30
0.0
 10
8.949343002
 20
8.3085554053
 30
0.0
 10
8.9552782864
 20
8.3161129693
 30
0.0
 10
8.9614967572
 20
8.3234238127
 30
0.0
 10
8.9664788119
 20
8.3286285301
 30
0.0
 10
8.9699281249
 20
8.331960314
 30
0.0
  0
SPLINE
  5
35E
100
AcDbEntity
  8
0
100
AcDbSpline
 62
7
  6
CONTINUOUS
 70
0
 71
3
 72
47
 73
43
 74
0
 42
0.0000001
 43
0.0000001
 44
0.0000000001
 40
0.0
 40
0.0
 40
0.0
 40
0.0
 40
0.0063158953
 40
0.0126706964
 40
0.0191025413
 40
0.0256481068
 40
0.0323419887
 40
0.0392163511
 40
0.0536141938
 40
0.0611949453
 40
0.0690567093
 40
0.0772178306
 40
0.0856942536
 40
0.094499648
 40
0.1036457893
 40
0.1131425899
 40
0.1229983503
 40
0.1332200167
 40
0.1438131323
 40
0.1547821683
 40
0.1661305713
 40
0.1899729423
 40
0.2153524409
 40
0.2422683478
 40
0.2707106917
 40
0.3006617255
 40
0.3320970385
 40
0.3649863926
 40
0.3992943516
 40
0.4349809011
 40
0.4720019229
 40
0.5103095575
 40
0.5498524869
 40
0.5905762826
 40
0.6324236706
 40
0.6753347453
 40
0.7192471563
 40
0.7640962954
 40
0.8098156376
 40
0.856336788
 40
0.9035890146
 40
1.0
 40
1.0
 40
1.0
 40
1.0
 10
13.7275335836
 20
8.8951781887
 30
0.0
 10
13.7288012241
 20
8.8950902773
 30
0.0
 10
13.7313383201
 20
8.894810124
 30
0.0
 10
13.7351155372
 20
8.8940799894
 30
0.0
 10
13.7388675135
 20
8.8930399187
 30
0.0
 10
13.7425920231
 20
8.8916906769
 30
0.0
 10
13.7462876611
 20
8.8900331755
 30
0.0
 10
13.7512498735
 20
8.8873731326
 30
0.0
 10
13.7560773668
 20
8.8841168955
 30
0.0
 10
13.760749109
 20
8.8803433636
 30
0.0
 10
13.7642778673
 20
8.8771618558
 30
0.0
 10
13.7677689553
 20
8.8736796987
 30
0.0
 10
13.7712214491
 20
8.8698980926
 30
0.0
 10
13.7746340166
 20
8.8658187347
 30
0.0
 10
13.778005336
 20
8.8614432286
 30
0.0
 10
13.7813341342
 20
8.8567733862
 30
0.0
 10
13.784619145
 20
8.8518111118
 30
0.0
 10
13.787859017
 20
8.8465583817
 30
0.0
 10
13.7910525181
 20
8.8410173638
 30
0.0
 10
13.794198385
 20
8.8351902792
 30
0.0
 10
13.7983968238
 20
8.8269056931
 30
0.0
 10
13.8035024018
 20
8.8158355798
 30
0.0
 10
13.8093220292
 20
8.8016619026
 30
0.0
 10
13.8149221018
 20
8.7864105593
 30
0.0
 10
13.8202934579
 20
8.7701064375
 30
0.0
 10
13.8254272845
 20
8.7527758601
 30
0.0
 10
13.8303150834
 20
8.7344470578
 30
0.0
 10
13.8349487324
 20
8.7151499554
 30
0.0
 10
13.8393205408
 20
8.6949161627
 30
0.0
 10
13.8434232335
 20
8.6737788804
 30
0.0
 10
13.8472499723
 20
8.6517728294
 30
0.0
 10
13.8507943692
 20
8.6289341968
 30
0.0
 10
13.8540505302
 20
8.6053005773
 30
0.0
 10
13.8570130313
 20
8.5809108964
 30
0.0
 10
13.8596769316
 20
8.5558053343
 30
0.0
 10
13.8620377813
 20
8.5300252642
 30
0.0
 10
13.8640916539
 20
8.5036131976
 30
0.0
 10
13.865835134
 20
8.476612679
 30
0.0
 10
13.8672652995
 20
8.4490682416
 30
0.0
 10
13.8683797729
 20
8.4210253389
 30
0.0
 10
13.8694493718
 20
8.3827767847
 30
0.0
 10
13.8697596368
 20
8.353871889
 30
0.0
 10
13.8697596368
 20
8.3344751127
 30
0.0
  0
SPLINE
  5
35F
100
AcDbEntity
  8
0
100
AcDbSpline
 62
7
  6
CONTINUOUS
 70
0
 71
3
 72
21
 73
17
 74
0
 42
0.0000001
 43
0.0000001
 44
0.0000000001
 40
0.0
 40
0.0
 40
0.0
 40
0.0
 40
0.1274739131
 40
0.2540666958
 40
0.3170668635
 40
0.379865455
 40
0.4424734093
 40
0.5049033614
 40
0.567169762
 40
0.6292888928
 40
0.6912786538
 40
0.7531583441
 40
0.8149484578
 40
0.8766705133
 40
0.9383467759
 40
1.0
 40
1.0
 40
1.0
 40
1.0
 10
9.1165196469
 20
7.9763872506
 30
0.0
 10
9.1233100577
 20
7.9759163341
 30
0.0
 10
9.1369001568
 20
7.9756510976
 30
0.0
 10
9.1538045348
 20
7.9770371317
 30
0.0
 10
9.1671167377
 20
7.9791704488
 30
0.0
 10
9.1769594745
 20
7.9812740557
 30
0.0
 10
9.1866500075
 20
7.9838784323
 30
0.0
 10
9.1961642465
 20
7.9869769566
 30
0.0
 10
9.2054781363
 20
7.9905619046
 30
0.0
 10
9.2145682083
 20
7.9946243058
 30
0.0
 10
9.2234115946
 20
7.9991538522
 30
0.0
 10
9.2319859877
 20
8.0041392205
 30
0.0
 10
9.2402697421
 20
8.0095678608
 30
0.0
 10
9.248242107
 20
8.0154260975
 30
0.0
 10
9.2558826696
 20
8.0216989899
 30
0.0
 10
9.2607433155
 20
8.026147737
 30
0.0
 10
9.2631111689
 20
8.0284349101
 30
0.0
  0
SPLINE
  5
360
100
AcDbEntity
  8
0
100
AcDbSpline
 62
4
  6
CONTINUOUS
 70
0
 71
3
 72
313
 73
309
 74
0
 42
0.0000001
 43
0.0000001
 44
0.0000000001
 40
0.0
 40
0.0
 40
0.0
 40
0.0
 40
0.015625
 40
0.0234375
 40
0.03125
 40
0.0390625
 40
0.046875
 40
0.05078125
 40
0.0546875
 40
0.056640625
 40
0.05859375
 40
0.060546875
 40
0.0615234375
 40
0.0620117188
 40
0.0625
 40
0.0629882812
 40
0.0634765625
 40
0.064453125
 40
0.06640625
 40
0.068359375
 40
0.0703125
 40
0.07421875
 40
0.078125
 40
0.0859375
 40
0.09375
 40
0.1015625
 40
0.109375
 40
0.11328125
 40
0.1171875
 40
0.119140625
 40
0.12109375
 40
0.123046875
 40
0.1240234375
 40
0.1245117188
 40
0.125
 40
0.1254882812
 40
0.1259765625
 40
0.126953125
 40
0.12890625
 40
0.130859375
 40
0.1328125
 40
0.13671875
 40
0.140625
 40
0.1484375
 40
0.15625
 40
0.1640625
 40
0.171875
 40
0.17578125
 40
0.1796875
 40
0.181640625
 40
0.18359375
 40
0.185546875
 40
0.1865234375
 40
0.1870117188
 40
0.1875
 40
0.1879882812
 40
0.1884765625
 40
0.189453125
 40
0.19140625
 40
0.193359375
 40
0.1953125
 40
0.19921875
 40
0.203125
 40
0.2109375
 40
0.21875
 40
0.2265625
 40
0.234375
 40
0.23828125
 40
0.2421875
 40
0.244140625
 40
0.24609375
 40
0.248046875
 40
0.2490234375
 40
0.2495117188
 40
0.25
 40
0.2504882812
 40
0.2509765625
 40
0.251953125
 40
0.25390625
 40
0.255859375
 40
0.2578125
 40
0.26171875
 40
0.265625
 40
0.2734375
 40
0.28125
 40
0.2890625
 40
0.296875
 40
0.30078125
 40
0.3046875
 40
0.306640625
 40
0.30859375
 40
0.310546875
 40
0.3115234375
 40
0.3120117188
 40
0.3125
 40
0.3129882812
 40
0.3134765625
 40
0.314453125
 40
0.31640625
 40
0.318359375
 40
0.3203125
 40
0.32421875
 40
0.328125
 40
0.3359375
 40
0.34375
 40
0.3515625
 40
0.359375
 40
0.36328125
 40
0.3671875
 40
0.369140625
 40
0.37109375
 40
0.373046875
 40
0.3740234375
 40
0.3745117188
 40
0.375
 40
0.3754882812
 40
0.3759765625
 40
0.376953125
 40
0.37890625
 40
0.380859375
 40
0.3828125
 40
0.38671875
 40
0.390625
 40
0.3984375
 40
0.40625
 40
0.4140625
 40
0.421875
 40
0.42578125
 40
0.4296875
 40
0.431640625
 40
0.43359375
 40
0.435546875
 40
0.4365234375
 40
0.4370117188
 40
0.4375
 40
0.4379882812
 40
0.4384765625
 40
0.439453125
 40
0.44140625
 40
0.443359375
 40
0.4453125
 40
0.44921875
 40
0.453125
 40
0.4609375
 40
0.46875
 40
0.4765625
 40
0.484375
 40
0.48828125
 40
0.4921875
 40
0.494140625
 40
0.49609375
 40
0.498046875
 40
0.4990234375
 40
0.4995117188
 40
0.5
 40
0.5004882812
 40
0.5009765625
 40
0.501953125
 40
0.50390625
 40
0.505859375
 40
0.5078125
 40
0.51171875
 40
0.515625
 40
0.5234375
 40
0.53125
 40
0.5390625
 40
0.546875
 40
0.55078125
 40
0.5546875
 40
0.556640625
 40
0.55859375
 40
0.560546875
 40
0.5615234375
 40
0.5620117188
 40
0.5625
 40
0.5629882812
 40
0.5634765625
 40
0.564453125
 40
0.56640625
 40
0.568359375
 40
0.5703125
 40
0.57421875
 40
0.578125
 40
0.5859375
 40
0.59375
 40
0.6015625
 40
0.609375
 40
0.61328125
 40
0.6171875
 40
0.619140625
 40
0.62109375
 40
0.623046875
 40
0.6240234375
 40
0.6245117188
 40
0.625
 40
0.6254882812
 40
0.6259765625
 40
0.626953125
 40
0.62890625
 40
0.630859375
 40
0.6328125
 40
0.63671875
 40
0.640625
 40
0.6484375
 40
0.65625
 40
0.6640625
 40
0.671875
 40
0.67578125
 40
0.6796875
 40
0.681640625
 40
0.68359375
 40
0.685546875
 40
0.6865234375
 40
0.6870117188
 40
0.6875
 40
0.6879882812
 40
0.6884765625
 40
0.689453125
 40
0.69140625
 40
0.693359375
 40
0.6953125
 40
0.69921875
 40
0.703125
 40
0.7109375
 40
0.71875
 40
0.7265625
 40
0.734375
 40
0.73828125
 40
0.7421875
 40
0.744140625
 40
0.74609375
 40
0.748046875
 40
0.7490234375
 40
0.7495117188
 40
0.75
 40
0.7504882812
 40
0.7509765625
 40
0.751953125
 40
0.75390625
 40
0.755859375
 40
0.7578125
 40
0.76171875
 40
0.765625
 40
0.7734375
 40
0.78125
 40
0.7890625
 40
0.796875
 40
0.80078125
 40
0.8046875
 40
0.806640625
 40
0.80859375
 40
0.810546875
 40
0.8115234375
 40
0.8120117188
 40
0.8125
 40
0.8129882812
 40
0.8134765625
 40
0.814453125
 40
0.81640625
 40
0.818359375
 40
0.8203125
 40
0.82421875
 40
0.828125
 40
0.8359375
 40
0.84375
 40
0.8515625
 40
0.859375
 40
0.86328125
 40
0.8671875
 40
0.869140625
 40
0.87109375
 40
0.873046875
 40
0.8740234375
 40
0.8745117188
 40
0.875
 40
0.8754882812
 40
0.8759765625
 40
0.876953125
 40
0.87890625
 40
0.880859375
 40
0.8828125
 40
0.88671875
 40
0.890625
 40
0.8984375
 40
0.90625
 40
0.9140625
 40
0.921875
 40
0.92578125
 40
0.9296875
 40
0.931640625
 40
0.93359375
 40
0.935546875
 40
0.9365234375
 40
0.9370117188
 40
0.9375
 40
0.9379882812
 40
0.9384765625
 40
0.939453125
 40
0.94140625
 40
0.943359375
 40
0.9453125
 40
0.94921875
 40
0.953125
 40
0.9609375
 40
0.96875
 40
0.9765625
 40
0.984375
 40
1.0
 40
1.0
 40
1.0
 40
1.0
 10
9.9419145341
 20
7.8629863334
 30
0.0
 10
9.9421904727
 20
7.8601529572
 30
0.0
 10
9.9426043805
 20
7.8559028928
 30
0.0
 10
9.9431562583
 20
7.8502361405
 30
0.0
 10
9.9435701645
 20
7.8459860759
 30
0.0
 10
9.943984079
 20
7.8417360125
 30
0.0
 10
9.9443289817
 20
7.8381942895
 30
0.0
 10
9.9446049623
 20
7.8353609187
 30
0.0
 10
9.9447773171
 20
7.8335900448
 30
0.0
 10
9.9449155057
 20
7.8321733849
 30
0.0
 10
9.9450183128
 20
7.8311107827
 30
0.0
 10
9.9451066397
 20
7.8302256223
 30
0.0
 10
9.9451632593
 20
7.8296053398
 30
0.0
 10
9.9452037473
 20
7.8292519391
 30
0.0
 10
9.9452111999
 20
7.8289839407
 30
0.0
 10
9.9453062389
 20
7.8287272107
 30
0.0
 10
9.9454024065
 20
7.8283809736
 30
0.0
 10
9.945584934
 20
7.8277768898
 30
0.0
 10
9.9458382458
 20
7.8269129555
 30
0.0
 10
9.9461454053
 20
7.8258766442
 30
0.0
 10
9.9465538388
 20
7.8244947527
 30
0.0
 10
9.9470647615
 20
7.8227674373
 30
0.0
 10
9.947882025
 20
7.8200037053
 30
0.0
 10
9.9489036778
 20
7.8165490498
 30
0.0
 10
9.9501296277
 20
7.8124034585
 30
0.0
 10
9.9513555939
 20
7.8082578709
 30
0.0
 10
9.9523772059
 20
7.8048032059
 30
0.0
 10
9.953194551
 20
7.8020394929
 30
0.0
 10
9.9537052662
 20
7.8003121292
 30
0.0
 10
9.9541141256
 20
7.7989303368
 30
0.0
 10
9.9544199837
 20
7.7978937228
 30
0.0
 10
9.9546773673
 20
7.7970307355
 30
0.0
 10
9.954852626
 20
7.7964249613
 30
0.0
 10
9.9549604401
 20
7.7960814327
 30
0.0
 10
9.9550197049
 20
7.7958163828
 30
0.0
 10
9.9551615194
 20
7.7955796326
 30
0.0
 10
9.9553218113
 20
7.7952540944
 30
0.0
 10
9.9556157378
 20
7.7946890019
 30
0.0
 10
9.9560286188
 20
7.7938793222
 30
0.0
 10
9.9565270783
 20
7.7929087359
 30
0.0
 10
9.9571906423
 20
7.7916142613
 30
0.0
 10
9.9580204564
 20
7.7899962911
 30
0.0
 10
9.9593479581
 20
7.78740747
 30
0.0
 10
9.9610074047
 20
7.7841714674
 30
0.0
 10
9.9629987089
 20
7.7802882532
 30
0.0
 10
9.9649900287
 20
7.7764050454
 30
0.0
 10
9.9666494362
 20
7.7731690269
 30
0.0
 10
9.967977016
 20
7.7705802376
 30
0.0
 10
9.9688066316
 20
7.7689621865
 30
0.0
 10
9.969470603
 20
7.767667878
 30
0.0
 10
9.969967818
 20
7.7666967841
 30
0.0
 10
9.9703845927
 20
7.7658886925
 30
0.0
 10
9.9706715683
 20
7.765320765
 30
0.0
 10
9.9708429972
 20
7.7649997691
 30
0.0
 10
9.9709506023
 20
7.7647490663
 30
0.0
 10
9.9711383522
 20
7.7645364201
 30
0.0
 10
9.9713607299
 20
7.7642396172
 30
0.0
 10
9.9717629159
 20
7.763726397
 30
0.0
 10
9.9723306577
 20
7.7629899918
 30
0.0
 10
9.9730148626
 20
7.7621076896
 30
0.0
 10
9.9739261178
 20
7.7609308032
 30
0.0
 10
9.9750655353
 20
7.7594598608
 30
0.0
 10
9.9768884085
 20
7.7571062603
 30
0.0
 10
9.9791670672
 20
7.7541642919
 30
0.0
 10
9.9819014274
 20
7.7506339144
 30
0.0
 10
9.984635801
 20
7.7471035469
 30
0.0
 10
9.9869144264
 20
7.7441615535
 30
0.0
 10
9.9887373661
 20
7.741808003
 30
0.0
 10
9.9898766144
 20
7.7403369337
 30
0.0
 10
9.990788217
 20
7.7391603076
 30
0.0
 10
9.9914713606
 20
7.7382772104
 30
0.0
 10
9.9920424228
 20
7.7375432926
 30
0.0
 10
9.9924386814
 20
7.7370256319
 30
0.0
 10
9.9926705564
 20
7.7367359438
 30
0.0
 10
9.9928291336
 20
7.7365014432
 30
0.0
 10
9.9930463062
 20
7.7363328218
 30
0.0
 10
9.9933154309
 20
7.7360850138
 30
0.0
 10
9.9937959219
 20
7.7356620564
 30
0.0
 10
9.9944773589
 20
7.7350522341
 30
0.0
 10
9.9952972145
 20
7.7343228432
 30
0.0
 10
9.9963896108
 20
7.7333494851
 30
0.0
 10
9.9977553611
 20
7.7321330741
 30
0.0
 10
9.9999404191
 20
7.7301866563
 30
0.0
 10
10.0026717908
 20
7.7277536893
 30
0.0
 10
10.0059494145
 20
7.7248341036
 30
0.0
 10
10.0092270487
 20
7.7219145309
 30
0.0
 10
10.0119583944
 20
7.7194815312
 30
0.0
 10
10.0141435044
 20
7.7175351789
 30
0.0
 10
10.0155091226
 20
7.7163186013
 30
0.0
 10
10.01660179
 20
7.7153455853
 30
0.0
 10
10.0174208174
 20
7.7146151493
 30
0.0
 10
10.0181048455
 20
7.7140085968
 30
0.0
 10
10.018580711
 20
7.7135798021
 30
0.0
 10
10.0188572469
 20
7.713341347
 30
0.0
 10
10.0190516547
 20
7.7131439966
 30
0.0
 10
10.0192957324
 20
7.7130173975
 30
0.0
 10
10.019603844
 20
7.7128239198
 30
0.0
 10
10.0201511114
 20
7.7124968322
 30
0.0
 10
10.0209287017
 20
7.7120235528
 30
0.0
 10
10.0218636166
 20
7.7114581905
 30
0.0
 10
10.0231095387
 20
7.7107034755
 30
0.0
 10
10.0246671574
 20
7.7097603894
 30
0.0
 10
10.0271592266
 20
7.7082512797
 30
0.0
 10
10.0302743548
 20
7.706364952
 30
0.0
 10
10.0340124898
 20
7.7041013313
 30
0.0
 10
10.037750633
 20
7.7018377251
 30
0.0
 10
10.0408657409
 20
7.6999513612
 30
0.0
 10
10.0433578504
 20
7.6984423238
 30
0.0
 10
10.0449153667
 20
7.6974990538
 30
0.0
 10
10.0461614991
 20
7.6967447163
 30
0.0
 10
10.0470957716
 20
7.6961782006
 30
0.0
 10
10.0478753718
 20
7.6957085302
 30
0.0
 10
10.0484190512
 20
7.6953749998
 30
0.0
 10
10.0487329117
 20
7.6951918451
 30
0.0
 10
10.0489593306
 20
7.6950335371
 30
0.0
 10
10.049220062
 20
7.69495528
 30
0.0
 10
10.0495557353
 20
7.6948230146
 30
0.0
 10
10.0501487399
 20
7.6946045598
 30
0.0
 10
10.050992974
 20
7.6942856799
 30
0.0
 10
10.0520073028
 20
7.6939059353
 30
0.0
 10
10.0533593053
 20
7.6933985923
 30
0.0
 10
10.0550494577
 20
7.6927647617
 30
0.0
 10
10.0577536181
 20
7.6917504381
 30
0.0
 10
10.0611338474
 20
7.690482601
 30
0.0
 10
10.0651901096
 20
7.6889611654
 30
0.0
 10
10.0692463775
 20
7.6874397458
 30
0.0
 10
10.0726265924
 20
7.6861718689
 30
0.0
 10
10.0753307816
 20
7.6851576249
 30
0.0
 10
10.0770208607
 20
7.6845235921
 30
0.0
 10
10.0783730138
 20
7.6840166642
 30
0.0
 10
10.0793868825
 20
7.6836356515
 30
0.0
 10
10.080232556
 20
7.6833207389
 30
0.0
 10
10.0808229911
 20
7.6830952018
 30
0.0
 10
10.0811627814
 20
7.682974284
 30
0.0
 10
10.0814108666
 20
7.6828611707
 30
0.0
 10
10.0816847825
 20
7.682833777
 30
0.0
 10
10.0820409937
 20
7.6827673521
 30
0.0
 10
10.0826685612
 20
7.6826650395
 30
0.0
 10
10.0835628915
 20
7.6825115954
 30
0.0
 10
10.0846370273
 20
7.6823305799
 30
0.0
 10
10.0860688801
 20
7.6820881371
 30
0.0
 10
10.0878588086
 20
7.6817854564
 30
0.0
 10
10.0907226313
 20
7.6813009589
 30
0.0
 10
10.0943024313
 20
7.680695409
 30
0.0
 10
10.0985981822
 20
7.6799687161
 30
0.0
 10
10.1028939348
 20
7.6792420402
 30
0.0
 10
10.1064737304
 20
7.6786364478
 30
0.0
 10
10.1093375617
 20
7.6781520353
 30
0.0
 10
10.1111274684
 20
7.6778491385
 30
0.0
 10
10.1125593659
 20
7.6776071393
 30
0.0
 10
10.1136333654
 20
7.6774247686
 30
0.0
 10
10.1145281219
 20
7.6772755645
 30
0.0
 10
10.1151549286
 20
7.6771656828
 30
0.0
 10
10.1155123587
 20
7.6771113856
 30
0.0
 10
10.1157825305
 20
7.6770467395
 30
0.0
 10
10.1160446783
 20
7.6770735401
 30
0.0
 10
10.1163970075
 20
7.6770773765
 30
0.0
 10
10.1170122797
 20
7.6770989519
 30
0.0
 10
10.1178919216
 20
7.6771220042
 30
0.0
 10
10.1189472002
 20
7.6771529926
 30
0.0
 10
10.1203543402
 20
7.6771931488
 30
0.0
 10
10.1221132303
 20
7.6772437419
 30
0.0
 10
10.1249274739
 20
7.6773244684
 30
0.0
 10
10.1284452717
 20
7.6774254534
 30
0.0
 10
10.1326666324
 20
7.6775466003
 30
0.0
 10
10.1368879906
 20
7.6776677646
 30
0.0
 10
10.1404057945
 20
7.6777687063
 30
0.0
 10
10.143220026
 20
7.6778495193
 30
0.0
 10
10.1449789471
 20
7.6778998925
 30
0.0
 10
10.1463860235
 20
7.6779405001
 30
0.0
 10
10.1474414961
 20
7.6779701098
 30
0.0
 10
10.148320531
 20
7.6779974755
 30
0.0
 10
10.1489368869
 20
7.6780113507
 30
0.0
 10
10.1492874797
 20
7.6780275249
 30
0.0
 10
10.1495549613
 20
7.6780164276
 30
0.0
 10
10.1498051003
 20
7.6780941194
 30
0.0
 10
10.1501446682
 20
7.6781667379
 30
0.0
 10
10.1507360937
 20
7.67830825
 30
0.0
 10
10.1515824607
 20
7.678502866
 30
0.0
 10
10.1525974704
 20
7.6787396344
 30
0.0
 10
10.153951037
 20
7.6790541976
 30
0.0
 10
10.1556429197
 20
7.6794477879
 30
0.0
 10
10.1583499744
 20
7.6800773165
 30
0.0
 10
10.161733778
 20
7.6808643017
 30
0.0
 10
10.1657943494
 20
7.68180865
 30
0.0
 10
10.1698549159
 20
7.682753015
 30
0.0
 10
10.1732387319
 20
7.6835399585
 30
0.0
 10
10.1759457618
 20
7.6841695705
 30
0.0
 10
10.1776377073
 20
7.6845629489
 30
0.0
 10
10.1789911452
 20
7.684877947
 30
0.0
 10
10.1800065479
 20
7.6851133867
 30
0.0
 10
10.1808516855
 20
7.6853121598
 30
0.0
 10
10.1814453056
 20
7.6854462509
 30
0.0
 10
10.1817813572
 20
7.6855307596
 30
0.0
 10
10.1820422971
 20
7.6855719282
 30
0.0
 10
10.1822692124
 20
7.6856980062
 30
0.0
 10
10.1825836343
 20
7.6858364928
 30
0.0
 10
10.183128343
 20
7.6860926436
 30
0.0
 10
10.1839093892
 20
7.6864513589
 30
0.0
 10
10.1848454073
 20
7.6868849053
 30
0.0
 10
10.1860938636
 20
7.6874618886
 30
0.0
 10
10.187654286
 20
7.688183487
 30
0.0
 10
10.1901510445
 20
7.6893378379
 30
0.0
 10
10.1932719641
 20
7.690780848
 30
0.0
 10
10.1970170809
 20
7.6925124274
 30
0.0
 10
10.2007621902
 20
7.694244023
 30
0.0
 10
10.2038831284
 20
7.6956869927
 30
0.0
 10
10.2063798497
 20
7.6968414244
 30
0.0
 10
10.2079403668
 20
7.6975628177
 30
0.0
 10
10.2091886287
 20
7.6981402218
 30
0.0
 10
10.2101252406
 20
7.6985724826
 30
0.0
 10
10.2109044288
 20
7.6989352204
 30
0.0
 10
10.2114524545
 20
7.6991841903
 30
0.0
 10
10.2117615617
 20
7.6993341825
 30
0.0
 10
10.212004802
 20
7.6994249189
 30
0.0
 10
10.2122044278
 20
7.6995988247
 30
0.0
 10
10.2124858087
 20
7.6998016886
 30
0.0
 10
10.2129711372
 20
7.7001702169
 30
0.0
 10
10.2136681694
 20
7.7006896194
 30
0.0
 10
10.2145030219
 20
7.7013159271
 30
0.0
 10
10.2156167125
 20
7.7021499475
 30
0.0
 10
10.217008636
 20
7.7031928349
 30
0.0
 10
10.2192358198
 20
7.7048612523
 30
0.0
 10
10.2220197627
 20
7.7069468439
 30
0.0
 10
10.2253605117
 20
7.7094495224
 30
0.0
 10
10.2287012497
 20
7.711952215
 30
0.0
 10
10.2314852199
 20
7.7140377714
 30
0.0
 10
10.2337123492
 20
7.7157062592
 30
0.0
 10
10.2351044113
 20
7.7167489677
 30
0.0
 10
10.2362178175
 20
7.7175833552
 30
0.0
 10
10.2370535386
 20
7.7182085414
 30
0.0
 10
10.2377478531
 20
7.7187314528
 30
0.0
 10
10.2382380331
 20
7.7190937172
 30
0.0
 10
10.2385116407
 20
7.7193066175
 30
0.0
 10
10.2387351439
 20
7.7194496947
 30
0.0
 10
10.2388887044
 20
7.7196562178
 30
0.0
 10
10.2391178484
 20
7.7199094513
 30
0.0
 10
10.2395074837
 20
7.720362921
 30
0.0
 10
10.2400700482
 20
7.7210053441
 30
0.0
 10
10.2407425819
 20
7.7217785592
 30
0.0
 10
10.241640182
 20
7.7228087068
 30
0.0
 10
10.242761878
 20
7.7240966672
 30
0.0
 10
10.2445567615
 20
7.7261572496
 30
0.0
 10
10.2468003072
 20
7.7287330309
 30
0.0
 10
10.249492589
 20
7.7318239443
 30
0.0
 10
10.2521848569
 20
7.734914869
 30
0.0
 10
10.2544284371
 20
7.7374906219
 30
0.0
 10
10.2562232515
 20
7.739551261
 30
0.0
 10
10.2573451233
 20
7.7408390772
 30
0.0
 10
10.2582423625
 20
7.7418695209
 30
0.0
 10
10.2589159988
 20
7.7426418314
 30
0.0
 10
10.2594751137
 20
7.7432870848
 30
0.0
 10
10.259870907
 20
7.743735502
 30
0.0
 10
10.2600901843
 20
7.7439968309
 30
0.0
 10
10.2602740525
 20
7.7441784874
 30
0.0
 10
10.2603837248
 20
7.7444149593
 30
0.0
 10
10.2605558348
 20
7.744711135
 30
0.0
 10
10.2608449693
 20
7.7452383509
 30
0.0
 10
10.2612643227
 20
7.745986859
 30
0.0
 10
10.2617648483
 20
7.7468870622
 30
0.0
 10
10.2624331584
 20
7.7480866369
 30
0.0
 10
10.2632682232
 20
7.7495863437
 30
0.0
 10
10.2646045074
 20
7.7519857413
 30
0.0
 10
10.2662748002
 20
7.7549850342
 30
0.0
 10
10.2682791804
 20
7.758584165
 30
0.0
 10
10.2702835454
 20
7.762183305
 30
0.0
 10
10.2719538759
 20
7.7651825751
 30
0.0
 10
10.2732900849
 20
7.7675820182
 30
0.0
 10
10.2741253408
 20
7.7690816093
 30
0.0
 10
10.2747932587
 20
7.7702814215
 30
0.0
 10
10.2752949824
 20
7.7711808992
 30
0.0
 10
10.2757105873
 20
7.7719316772
 30
0.0
 10
10.2760064134
 20
7.772454841
 30
0.0
 10
10.2761678018
 20
7.7727575091
 30
0.0
 10
10.2763104076
 20
7.7729740382
 30
0.0
 10
10.2763705829
 20
7.7732305965
 30
0.0
 10
10.2764795693
 20
7.7735587115
 30
0.0
 10
10.2766568991
 20
7.7741394183
 30
0.0
 10
10.2769172312
 20
7.7749655983
 30
0.0
 10
10.2772266319
 20
7.7759584701
 30
0.0
 10
10.2776402132
 20
7.7772817906
 30
0.0
 10
10.2781568313
 20
7.7789361155
 30
0.0
 10
10.2789836207
 20
7.7815829378
 30
0.0
 10
10.2800170381
 20
7.7848914994
 30
0.0
 10
10.2812571709
 20
7.788861758
 30
0.0
 10
10.2824972874
 20
7.7928320236
 30
0.0
 10
10.2835307457
 20
7.7961405679
 30
0.0
 10
10.2843574535
 20
7.7987874248
 30
0.0
 10
10.2848742789
 20
7.8004416619
 30
0.0
 10
10.2852874347
 20
7.8017651625
 30
0.0
 10
10.2855981353
 20
7.8027574841
 30
0.0
 10
10.2858544002
 20
7.8035853855
 30
0.0
 10
10.2860389906
 20
7.8041630193
 30
0.0
 10
10.2861363438
 20
7.8044960581
 30
0.0
 10
10.2862322524
 20
7.804737492
 30
0.0
 10
10.2862406499
 20
7.8050108257
 30
0.0
 10
10.2862823715
 20
7.8053641436
 30
0.0
 10
10.2863411621
 20
7.8059876343
 30
0.0
 10
10.2864325842
 20
7.8068756248
 30
0.0
 10
10.2865391081
 20
7.8079423736
 30
0.0
 10
10.2866822516
 20
7.8093643001
 30
0.0
 10
10.2868608003
 20
7.8111418469
 30
0.0
 10
10.287146691
 20
7.8139858443
 30
0.0
 10
10.2875039814
 20
7.8175408677
 30
0.0
 10
10.2879327611
 20
7.8218068844
 30
0.0
 10
10.2883615325
 20
7.8260729041
 30
0.0
 10
10.2889332305
 20
7.8317609293
 30
0.0
 10
10.2893620034
 20
7.8360269484
 30
0.0
 10
10.2896478522
 20
7.8388709611
 30
0.0
  0
SPLINE
  5
361
100
AcDbEntity
  8
0
100
AcDbSpline
 62
4
  6
CONTINUOUS
 70
0
 71
3
 72
313
 73
309
 74
0
 42
0.0000001
 43
0.0000001
 44
0.0000000001
 40
0.0
 40
0.0
 40
0.0
 40
0.0
 40
0.015625
 40
0.0234375
 40
0.03125
 40
0.0390625
 40
0.046875
 40
0.05078125
 40
0.0546875
 40
0.056640625
 40
0.05859375
 40
0.060546875
 40
0.0615234375
 40
0.0620117188
 40
0.0625
 40
0.0629882812
 40
0.0634765625
 40
0.064453125
 40
0.06640625
 40
0.068359375
 40
0.0703125
 40
0.07421875
 40
0.078125
 40
0.0859375
 40
0.09375
 40
0.1015625
 40
0.109375
 40
0.11328125
 40
0.1171875
 40
0.119140625
 40
0.12109375
 40
0.123046875
 40
0.1240234375
 40
0.1245117188
 40
0.125
 40
0.1254882812
 40
0.1259765625
 40
0.126953125
 40
0.12890625
 40
0.130859375
 40
0.1328125
 40
0.13671875
 40
0.140625
 40
0.1484375
 40
0.15625
 40
0.1640625
 40
0.171875
 40
0.17578125
 40
0.1796875
 40
0.181640625
 40
0.18359375
 40
0.185546875
 40
0.1865234375
 40
0.1870117188
 40
0.1875
 40
0.1879882812
 40
0.1884765625
 40
0.189453125
 40
0.19140625
 40
0.193359375
 40
0.1953125
 40
0.19921875
 40
0.203125
 40
0.2109375
 40
0.21875
 40
0.2265625
 40
0.234375
 40
0.23828125
 40
0.2421875
 40
0.244140625
 40
0.24609375
 40
0.248046875
 40
0.2490234375
 40
0.2495117188
 40
0.25
 40
0.2504882812
 40
0.2509765625
 40
0.251953125
 40
0.25390625
 40
0.255859375
 40
0.2578125
 40
0.26171875
 40
0.265625
 40
0.2734375
 40
0.28125
 40
0.2890625
 40
0.296875
 40
0.30078125
 40
0.3046875
 40
0.306640625
 40
0.30859375
 40
0.310546875
 40
0.3115234375
 40
0.3120117188
 40
0.3125
 40
0.3129882812
 40
0.3134765625
 40
0.314453125
 40
0.31640625
 40
0.318359375
 40
0.3203125
 40
0.32421875
 40
0.328125
 40
0.3359375
 40
0.34375
 40
0.3515625
 40
0.359375
 40
0.36328125
 40
0.3671875
 40
0.369140625
 40
0.37109375
 40
0.373046875
 40
0.3740234375
 40
0.3745117188
 40
0.375
 40
0.3754882812
 40
0.3759765625
 40
0.376953125
 40
0.37890625
 40
0.380859375
 40
0.3828125
 40
0.38671875
 40
0.390625
 40
0.3984375
 40
0.40625
 40
0.4140625
 40
0.421875
 40
0.42578125
 40
0.4296875
 40
0.431640625
 40
0.43359375
 40
0.435546875
 40
0.4365234375
 40
0.4370117188
 40
0.4375
 40
0.4379882812
 40
0.4384765625
 40
0.439453125
 40
0.44140625
 40
0.443359375
 40
0.4453125
 40
0.44921875
 40
0.453125
 40
0.4609375
 40
0.46875
 40
0.4765625
 40
0.484375
 40
0.48828125
 40
0.4921875
 40
0.494140625
 40
0.49609375
 40
0.498046875
 40
0.4990234375
 40
0.4995117188
 40
0.5
 40
0.5004882812
 40
0.5009765625
 40
0.501953125
 40
0.50390625
 40
0.505859375
 40
0.5078125
 40
0.51171875
 40
0.515625
 40
0.5234375
 40
0.53125
 40
0.5390625
 40
0.546875
 40
0.55078125
 40
0.5546875
 40
0.556640625
 40
0.55859375
 40
0.560546875
 40
0.5615234375
 40
0.5620117188
 40
0.5625
 40
0.5629882812
 40
0.5634765625
 40
0.564453125
 40
0.56640625
 40
0.568359375
 40
0.5703125
 40
0.57421875
 40
0.578125
 40
0.5859375
 40
0.59375
 40
0.6015625
 40
0.609375
 40
0.61328125
 40
0.6171875
 40
0.619140625
 40
0.62109375
 40
0.623046875
 40
0.6240234375
 40
0.6245117188
 40
0.625
 40
0.6254882812
 40
0.6259765625
 40
0.626953125
 40
0.62890625
 40
0.630859375
 40
0.6328125
 40
0.63671875
 40
0.640625
 40
0.6484375
 40
0.65625
 40
0.6640625
 40
0.671875
 40
0.67578125
 40
0.6796875
 40
0.681640625
 40
0.68359375
 40
0.685546875
 40
0.6865234375
 40
0.6870117188
 40
0.6875
 40
0.6879882812
 40
0.6884765625
 40
0.689453125
 40
0.69140625
 40
0.693359375
 40
0.6953125
 40
0.69921875
 40
0.703125
 40
0.7109375
 40
0.71875
 40
0.7265625
 40
0.734375
 40
0.73828125
 40
0.7421875
 40
0.744140625
 40
0.74609375
 40
0.748046875
 40
0.7490234375
 40
0.7495117188
 40
0.75
 40
0.7504882812
 40
0.7509765625
 40
0.751953125
 40
0.75390625
 40
0.755859375
 40
0.7578125
 40
0.76171875
 40
0.765625
 40
0.7734375
 40
0.78125
 40
0.7890625
 40
0.796875
 40
0.80078125
 40
0.8046875
 40
0.806640625
 40
0.80859375
 40
0.810546875
 40
0.8115234375
 40
0.8120117188
 40
0.8125
 40
0.8129882812
 40
0.8134765625
 40
0.814453125
 40
0.81640625
 40
0.818359375
 40
0.8203125
 40
0.82421875
 40
0.828125
 40
0.8359375
 40
0.84375
 40
0.8515625
 40
0.859375
 40
0.86328125
 40
0.8671875
 40
0.869140625
 40
0.87109375
 40
0.873046875
 40
0.8740234375
 40
0.8745117188
 40
0.875
 40
0.8754882812
 40
0.8759765625
 40
0.876953125
 40
0.87890625
 40
0.880859375
 40
0.8828125
 40
0.88671875
 40
0.890625
 40
0.8984375
 40
0.90625
 40
0.9140625
 40
0.921875
 40
0.92578125
 40
0.9296875
 40
0.931640625
 40
0.93359375
 40
0.935546875
 40
0.9365234375
 40
0.9370117188
 40
0.9375
 40
0.9379882812
 40
0.9384765625
 40
0.939453125
 40
0.94140625
 40
0.943359375
 40
0.9453125
 40
0.94921875
 40
0.953125
 40
0.9609375
 40
0.96875
 40
0.9765625
 40
0.984375
 40
1.0
 40
1.0
 40
1.0
 40
1.0
 10
10.2896478522
 20
7.8388709459
 30
0.0
 10
10.2893719136
 20
7.8417043221
 30
0.0
 10
10.2889580058
 20
7.8459543865
 30
0.0
 10
10.288406128
 20
7.8516211388
 30
0.0
 10
10.2879922218
 20
7.8558712034
 30
0.0
 10
10.2875783073
 20
7.8601212669
 30
0.0
 10
10.2872334046
 20
7.8636629898
 30
0.0
 10
10.286957424
 20
7.8664963606
 30
0.0
 10
10.2867850692
 20
7.8682672345
 30
0.0
 10
10.2866468805
 20
7.8696838944
 30
0.0
 10
10.2865440735
 20
7.8707464967
 30
0.0
 10
10.2864557465
 20
7.871631657
 30
0.0
 10
10.286399127
 20
7.8722519395
 30
0.0
 10
10.286358639
 20
7.8726053402
 30
0.0
 10
10.2863511864
 20
7.8728733386
 30
0.0
 10
10.2862561474
 20
7.8731300686
 30
0.0
 10
10.2861599798
 20
7.8734763058
 30
0.0
 10
10.2859774523
 20
7.8740803895
 30
0.0
 10
10.2857241405
 20
7.8749443238
 30
0.0
 10
10.285416981
 20
7.8759806351
 30
0.0
 10
10.2850085475
 20
7.8773625266
 30
0.0
 10
10.2844976248
 20
7.879089842
 30
0.0
 10
10.2836803613
 20
7.881853574
 30
0.0
 10
10.2826587085
 20
7.8853082295
 30
0.0
 10
10.2814327586
 20
7.8894538209
 30
0.0
 10
10.2802067924
 20
7.8935994084
 30
0.0
 10
10.2791851804
 20
7.8970540734
 30
0.0
 10
10.2783678353
 20
7.8998177864
 30
0.0
 10
10.2778571201
 20
7.9015451501
 30
0.0
 10
10.2774482607
 20
7.9029269425
 30
0.0
 10
10.2771424026
 20
7.9039635565
 30
0.0
 10
10.276885019
 20
7.9048265438
 30
0.0
 10
10.2767097603
 20
7.905432318
 30
0.0
 10
10.2766019462
 20
7.9057758466
 30
0.0
 10
10.2765426814
 20
7.9060408965
 30
0.0
 10
10.2764008668
 20
7.9062776467
 30
0.0
 10
10.276240575
 20
7.9066031849
 30
0.0
 10
10.2759466485
 20
7.9071682775
 30
0.0
 10
10.2755337675
 20
7.9079779571
 30
0.0
 10
10.275035308
 20
7.9089485434
 30
0.0
 10
10.274371744
 20
7.9102430181
 30
0.0
 10
10.2735419299
 20
7.9118609882
 30
0.0
 10
10.2722144282
 20
7.9144498094
 30
0.0
 10
10.2705549816
 20
7.9176858119
 30
0.0
 10
10.2685636774
 20
7.9215690261
 30
0.0
 10
10.2665723576
 20
7.925452234
 30
0.0
 10
10.2649129501
 20
7.9286882525
 30
0.0
 10
10.2635853703
 20
7.9312770417
 30
0.0
 10
10.2627557547
 20
7.9328950928
 30
0.0
 10
10.2620917833
 20
7.9341894013
 30
0.0
 10
10.2615945683
 20
7.9351604953
 30
0.0
 10
10.2611777936
 20
7.9359685868
 30
0.0
 10
10.260890818
 20
7.9365365144
 30
0.0
 10
10.2607193891
 20
7.9368575102
 30
0.0
 10
10.260611784
 20
7.937108213
 30
0.0
 10
10.2604240341
 20
7.9373208592
 30
0.0
 10
10.2602016564
 20
7.9376176621
 30
0.0
 10
10.2597994704
 20
7.9381308823
 30
0.0
 10
10.2592317286
 20
7.9388672875
 30
0.0
 10
10.2585475236
 20
7.9397495897
 30
0.0
 10
10.2576362685
 20
7.9409264761
 30
0.0
 10
10.2564968509
 20
7.9423974185
 30
0.0
 10
10.2546739778
 20
7.944751019
 30
0.0
 10
10.2523953191
 20
7.9476929874
 30
0.0
 10
10.2496609589
 20
7.9512233649
 30
0.0
 10
10.2469265853
 20
7.9547537324
 30
0.0
 10
10.2446479599
 20
7.9576957258
 30
0.0
 10
10.2428250202
 20
7.9600492764
 30
0.0
 10
10.2416857719
 20
7.9615203456
 30
0.0
 10
10.2407741693
 20
7.9626969717
 30
0.0
 10
10.2400910257
 20
7.963580069
 30
0.0
 10
10.2395199635
 20
7.9643139867
 30
0.0
 10
10.2391237049
 20
7.9648316474
 30
0.0
 10
10.2388918299
 20
7.9651213355
 30
0.0
 10
10.2387332527
 20
7.9653558361
 30
0.0
 10
10.2385160801
 20
7.9655244575
 30
0.0
 10
10.2382469554
 20
7.9657722655
 30
0.0
 10
10.2377664644
 20
7.9661952229
 30
0.0
 10
10.2370850273
 20
7.9668050452
 30
0.0
 10
10.2362651718
 20
7.9675344362
 30
0.0
 10
10.2351727755
 20
7.9685077942
 30
0.0
 10
10.2338070252
 20
7.9697242052
 30
0.0
 10
10.2316219672
 20
7.9716706231
 30
0.0
 10
10.2288905955
 20
7.97410359
 30
0.0
 10
10.2256129717
 20
7.9770231758
 30
0.0
 10
10.2223353376
 20
7.9799427484
 30
0.0
 10
10.2196039919
 20
7.9823757481
 30
0.0
 10
10.2174188819
 20
7.9843221004
 30
0.0
 10
10.2160532637
 20
7.9855386781
 30
0.0
 10
10.2149605963
 20
7.986511694
 30
0.0
 10
10.2141415689
 20
7.9872421301
 30
0.0
 10
10.2134575408
 20
7.9878486825
 30
0.0
 10
10.2129816753
 20
7.9882774772
 30
0.0
 10
10.2127051394
 20
7.9885159323
 30
0.0
 10
10.2125107316
 20
7.9887132828
 30
0.0
 10
10.2122666538
 20
7.9888398819
 30
0.0
 10
10.2119585423
 20
7.9890333595
 30
0.0
 10
10.2114112749
 20
7.9893604471
 30
0.0
 10
10.2106336845
 20
7.9898337266
 30
0.0
 10
10.2096987697
 20
7.9903990888
 30
0.0
 10
10.2084528476
 20
7.9911538038
 30
0.0
 10
10.2068952288
 20
7.9920968899
 30
0.0
 10
10.2044031597
 20
7.9936059997
 30
0.0
 10
10.2012880315
 20
7.9954923274
 30
0.0
 10
10.1975498965
 20
7.997755948
 30
0.0
 10
10.1938117533
 20
8.0000195542
 30
0.0
 10
10.1906966453
 20
8.0019059181
 30
0.0
 10
10.1882045358
 20
8.0034149555
 30
0.0
 10
10.1866470196
 20
8.0043582255
 30
0.0
 10
10.1854008871
 20
8.005112563
 30
0.0
 10
10.1844666147
 20
8.0056790788
 30
0.0
 10
10.1836870145
 20
8.0061487491
 30
0.0
 10
10.1831433351
 20
8.0064822795
 30
0.0
 10
10.1828294746
 20
8.0066654342
 30
0.0
 10
10.1826030557
 20
8.0068237422
 30
0.0
 10
10.1823423243
 20
8.0069019993
 30
0.0
 10
10.182006651
 20
8.0070342647
 30
0.0
 10
10.1814136464
 20
8.0072527195
 30
0.0
 10
10.1805694123
 20
8.0075715995
 30
0.0
 10
10.1795550835
 20
8.0079513441
 30
0.0
 10
10.178203081
 20
8.0084586871
 30
0.0
 10
10.1765129286
 20
8.0090925176
 30
0.0
 10
10.1738087682
 20
8.0101068412
 30
0.0
 10
10.1704285389
 20
8.0113746784
 30
0.0
 10
10.1663722767
 20
8.0128961139
 30
0.0
 10
10.1623160088
 20
8.0144175335
 30
0.0
 10
10.1589357939
 20
8.0156854104
 30
0.0
 10
10.1562316047
 20
8.0166996544
 30
0.0
 10
10.1545415256
 20
8.0173336872
 30
0.0
 10
10.1531893725
 20
8.0178406152
 30
0.0
 10
10.1521755038
 20
8.0182216278
 30
0.0
 10
10.1513298303
 20
8.0185365404
 30
0.0
 10
10.1507393952
 20
8.0187620775
 30
0.0
 10
10.1503996049
 20
8.0188829953
 30
0.0
 10
10.1501515197
 20
8.0189961087
 30
0.0
 10
10.1498776038
 20
8.0190235023
 30
0.0
 10
10.1495213926
 20
8.0190899272
 30
0.0
 10
10.1488938251
 20
8.0191922398
 30
0.0
 10
10.1479994948
 20
8.0193456839
 30
0.0
 10
10.146925359
 20
8.0195266994
 30
0.0
 10
10.1454935061
 20
8.0197691422
 30
0.0
 10
10.1437035777
 20
8.0200718229
 30
0.0
 10
10.1408397549
 20
8.0205563204
 30
0.0
 10
10.137259955
 20
8.0211618703
 30
0.0
 10
10.1329642041
 20
8.0218885632
 30
0.0
 10
10.1286684515
 20
8.0226152391
 30
0.0
 10
10.1250886559
 20
8.0232208315
 30
0.0
 10
10.1222248246
 20
8.023705244
 30
0.0
 10
10.1204349179
 20
8.0240081408
 30
0.0
 10
10.1190030204
 20
8.0242501401
 30
0.0
 10
10.1179290208
 20
8.0244325107
 30
0.0
 10
10.1170342644
 20
8.0245817148
 30
0.0
 10
10.1164074577
 20
8.0246915965
 30
0.0
 10
10.1160500275
 20
8.0247458937
 30
0.0
 10
10.1157798558
 20
8.0248105398
 30
0.0
 10
10.115517708
 20
8.0247837393
 30
0.0
 10
10.1151653788
 20
8.0247799028
 30
0.0
 10
10.1145501066
 20
8.0247583274
 30
0.0
 10
10.1136704647
 20
8.0247352752
 30
0.0
 10
10.1126151861
 20
8.0247042868
 30
0.0
 10
10.1112080461
 20
8.0246641305
 30
0.0
 10
10.109449156
 20
8.0246135374
 30
0.0
 10
10.1066349123
 20
8.0245328109
 30
0.0
 10
10.1031171146
 20
8.0244318259
 30
0.0
 10
10.0988957539
 20
8.024310679
 30
0.0
 10
10.0946743956
 20
8.0241895148
 30
0.0
 10
10.0911565918
 20
8.024088573
 30
0.0
 10
10.0883423603
 20
8.02400776
 30
0.0
 10
10.0865834392
 20
8.0239573868
 30
0.0
 10
10.0851763628
 20
8.0239167793
 30
0.0
 10
10.0841208902
 20
8.0238871695
 30
0.0
 10
10.0832418553
 20
8.0238598038
 30
0.0
 10
10.0826254994
 20
8.0238459287
 30
0.0
 10
10.0822749066
 20
8.0238297544
 30
0.0
 10
10.082007425
 20
8.0238408517
 30
0.0
 10
10.081757286
 20
8.0237631599
 30
0.0
 10
10.081417718
 20
8.0236905414
 30
0.0
 10
10.0808262926
 20
8.0235490294
 30
0.0
 10
10.0799799256
 20
8.0233544133
 30
0.0
 10
10.0789649159
 20
8.023117645
 30
0.0
 10
10.0776113493
 20
8.0228030817
 30
0.0
 10
10.0759194665
 20
8.0224094914
 30
0.0
 10
10.0732124119
 20
8.0217799628
 30
0.0
 10
10.0698286083
 20
8.0209929776
 30
0.0
 10
10.0657680369
 20
8.0200486293
 30
0.0
 10
10.0617074704
 20
8.0191042643
 30
0.0
 10
10.0583236544
 20
8.0183173208
 30
0.0
 10
10.0556166244
 20
8.0176877089
 30
0.0
 10
10.053924679
 20
8.0172943305
 30
0.0
 10
10.0525712411
 20
8.0169793323
 30
0.0
 10
10.0515558384
 20
8.0167438926
 30
0.0
 10
10.0507107008
 20
8.0165451195
 30
0.0
 10
10.0501170807
 20
8.0164110284
 30
0.0
 10
10.0497810291
 20
8.0163265197
 30
0.0
 10
10.0495200892
 20
8.0162853511
 30
0.0
 10
10.0492931739
 20
8.0161592732
 30
0.0
 10
10.048978752
 20
8.0160207866
 30
0.0
 10
10.0484340433
 20
8.0157646357
 30
0.0
 10
10.0476529971
 20
8.0154059204
 30
0.0
 10
10.046716979
 20
8.014972374
 30
0.0
 10
10.0454685227
 20
8.0143953908
 30
0.0
 10
10.0439081003
 20
8.0136737924
 30
0.0
 10
10.0414113418
 20
8.0125194414
 30
0.0
 10
10.0382904222
 20
8.0110764314
 30
0.0
 10
10.0345453054
 20
8.0093448519
 30
0.0
 10
10.0308001961
 20
8.0076132563
 30
0.0
 10
10.0276792579
 20
8.0061702866
 30
0.0
 10
10.0251825366
 20
8.0050158549
 30
0.0
 10
10.0236220195
 20
8.0042944616
 30
0.0
 10
10.0223737576
 20
8.0037170575
 30
0.0
 10
10.0214371456
 20
8.0032847968
 30
0.0
 10
10.0206579575
 20
8.0029220589
 30
0.0
 10
10.0201099318
 20
8.002673089
 30
0.0
 10
10.0198008246
 20
8.0025230968
 30
0.0
 10
10.0195575842
 20
8.0024323604
 30
0.0
 10
10.0193579585
 20
8.0022584547
 30
0.0
 10
10.0190765775
 20
8.0020555908
 30
0.0
 10
10.018591249
 20
8.0016870624
 30
0.0
 10
10.0178942169
 20
8.0011676599
 30
0.0
 10
10.0170593644
 20
8.0005413522
 30
0.0
 10
10.0159456738
 20
7.9997073318
 30
0.0
 10
10.0145537503
 20
7.9986644445
 30
0.0
 10
10.0123265665
 20
7.996996027
 30
0.0
 10
10.0095426236
 20
7.9949104354
 30
0.0
 10
10.0062018746
 20
7.9924077569
 30
0.0
 10
10.0028611366
 20
7.9899050644
 30
0.0
 10
10.0000771664
 20
7.987819508
 30
0.0
 10
9.9978500371
 20
7.9861510201
 30
0.0
 10
9.996457975
 20
7.9851083117
 30
0.0
 10
9.9953445687
 20
7.9842739241
 30
0.0
 10
9.9945088477
 20
7.9836487379
 30
0.0
 10
9.9938145332
 20
7.9831258266
 30
0.0
 10
9.9933243531
 20
7.9827635621
 30
0.0
 10
9.9930507456
 20
7.9825506619
 30
0.0
 10
9.9928272424
 20
7.9824075846
 30
0.0
 10
9.9926736819
 20
7.9822010615
 30
0.0
 10
9.9924445378
 20
7.981947828
 30
0.0
 10
9.9920549026
 20
7.9814943583
 30
0.0
 10
9.9914923381
 20
7.9808519352
 30
0.0
 10
9.9908198043
 20
7.9800787201
 30
0.0
 10
9.9899222042
 20
7.9790485725
 30
0.0
 10
9.9888005083
 20
7.9777606121
 30
0.0
 10
9.9870056248
 20
7.9757000297
 30
0.0
 10
9.9847620791
 20
7.9731242484
 30
0.0
 10
9.9820697973
 20
7.9700333351
 30
0.0
 10
9.9793775294
 20
7.9669424103
 30
0.0
 10
9.9771339491
 20
7.9643666574
 30
0.0
 10
9.9753391348
 20
7.9623060183
 30
0.0
 10
9.974217263
 20
7.9610182021
 30
0.0
 10
9.9733200238
 20
7.9599877584
 30
0.0
 10
9.9726463875
 20
7.9592154479
 30
0.0
 10
9.9720872726
 20
7.9585701945
 30
0.0
 10
9.9716914792
 20
7.9581217774
 30
0.0
 10
9.971472202
 20
7.9578604484
 30
0.0
 10
9.9712883338
 20
7.9576787919
 30
0.0
 10
9.9711786615
 20
7.95744232
 30
0.0
 10
9.9710065514
 20
7.9571461443
 30
0.0
 10
9.970717417
 20
7.9566189285
 30
0.0
 10
9.9702980636
 20
7.9558704204
 30
0.0
 10
9.9697975379
 20
7.9549702171
 30
0.0
 10
9.9691292279
 20
7.9537706424
 30
0.0
 10
9.9682941631
 20
7.9522709356
 30
0.0
 10
9.9669578789
 20
7.9498715381
 30
0.0
 10
9.9652875861
 20
7.9468722451
 30
0.0
 10
9.9632832059
 20
7.9432731143
 30
0.0
 10
9.9612788408
 20
7.9396739744
 30
0.0
 10
9.9596085104
 20
7.9366747042
 30
0.0
 10
9.9582723014
 20
7.9342752611
 30
0.0
 10
9.9574370455
 20
7.93277567
 30
0.0
 10
9.9567691276
 20
7.9315758579
 30
0.0
 10
9.9562674039
 20
7.9306763801
 30
0.0
 10
9.955851799
 20
7.9299256021
 30
0.0
 10
9.9555559729
 20
7.9294024384
 30
0.0
 10
9.9553945845
 20
7.9290997702
 30
0.0
 10
9.9552519787
 20
7.9288832411
 30
0.0
 10
9.9551918034
 20
7.9286266828
 30
0.0
 10
9.955082817
 20
7.9282985678
 30
0.0
 10
9.9549054872
 20
7.927717861
 30
0.0
 10
9.9546451551
 20
7.926891681
 30
0.0
 10
9.9543357544
 20
7.9258988092
 30
0.0
 10
9.9539221731
 20
7.9245754887
 30
0.0
 10
9.953405555
 20
7.9229211639
 30
0.0
 10
9.9525787656
 20
7.9202743415
 30
0.0
 10
9.9515453481
 20
7.91696578
 30
0.0
 10
9.9503052154
 20
7.9129955213
 30
0.0
 10
9.9490650989
 20
7.9090252557
 30
0.0
 10
9.9480316406
 20
7.9057167114
 30
0.0
 10
9.9472049328
 20
7.9030698545
 30
0.0
 10
9.9466881074
 20
7.9014156175
 30
0.0
 10
9.9462749516
 20
7.9000921168
 30
0.0
 10
9.945964251
 20
7.8990997952
 30
0.0
 10
9.945707986
 20
7.8982718938
 30
0.0
 10
9.9455233957
 20
7.8976942601
 30
0.0
 10
9.9454260425
 20
7.8973612212
 30
0.0
 10
9.9453301339
 20
7.8971197873
 30
0.0
 10
9.9453217363
 20
7.8968464536
 30
0.0
 10
9.9452800148
 20
7.8964931357
 30
0.0
 10
9.9452212242
 20
7.895869645
 30
0.0
 10
9.9451298021
 20
7.8949816545
 30
0.0
 10
9.9450232782
 20
7.8939149057
 30
0.0
 10
9.9448801347
 20
7.8924929793
 30
0.0
 10
9.944701586
 20
7.8907154324
 30
0.0
 10
9.9444156953
 20
7.887871435
 30
0.0
 10
9.9440584049
 20
7.8843164116
 30
0.0
 10
9.9436296252
 20
7.880050395
 30
0.0
 10
9.9432008538
 20
7.8757843753
 30
0.0
 10
9.9426291558
 20
7.8700963501
 30
0.0
 10
9.9422003829
 20
7.8658303309
 30
0.0
 10
9.9419145341
 20
7.8629863182
 30
0.0
  0
ENDSEC
  0
SECTION
  2
OBJECTS
  0
DICTIONARY
  5
C
100
AcDbDictionary
280
0
281
1
  3
ACAD_GROUP
350
D
  3
ACAD_MLINESTYLE
350
17
  3
ACAD_LAYOUT
350
1A
  3
ACAD_PLOTSETTINGS
350
19
  3
ACAD_PLOTSTYLENAME
350
E
  3
ACAD_IMAGE_DICT
350
       363
  3
ACAD_IMAGE_VARS
350
       364
  3
ACAD_TABLESTYLE
350
       365
  0
IMAGEDEF_REACTOR
  5
362
100
AcDbRasterImageDefReactor
 90
2
330
283
  0
DICTIONARY
  5
D
102
{ACAD_REACTORS
330
C
102
}
100
AcDbDictionary
280
0
281
1
  0
ACDBDICTIONARYWDFLT
  5
E
102
{ACAD_REACTORS
330
C
102
}
100
AcDbDictionary
281
1
  3
Normal
350
F
100
AcDbDictionaryWithDefault
340
F
  0
DICTIONARY
  5
363
330
C
100
AcDbDictionary
281
1
  3
YCL_assy_2_img_1
350
       368
  0
RASTERVARIABLES
  5
364
330
C
100
AcDbRasterVariables
 90
0
 70
0
 71
1
 72
5
  0
DICTIONARY
  5
17
102
{ACAD_REACTORS
330
C
102
}
100
AcDbDictionary
280
0
281
1
  3
Standard
350
18
  0
DICTIONARY
  5
365
330
C
100
AcDbDictionary
281
1
  3
Standard
350
       369
  3
Standard1
350
       36A
  0
DICTIONARY
  5
19
102
{ACAD_REACTORS
330
C
102
}
100
AcDbDictionary
281
1
  0
DICTIONARY
  5
1A
102
{ACAD_REACTORS
330
C
102
}
100
AcDbDictionary
281
1
  3
Model
350
366
  3
Layout1
350
367
  0
ACDBPLACEHOLDER
  5
F
102
{ACAD_REACTORS
330
E
102
}
  0
MLINESTYLE
  5
18
102
{ACAD_REACTORS
330
17
102
}
100
AcDbMlineStyle
  2
STANDARD
 70
0
  3

 62
256
 51
90.0
 52
90.0
 71
2
 49
0.5
 62
256
  6
BYLAYER
 49
-0.5
 62
256
  6
BYLAYER
  0
LAYOUT
  5
366
102
{ACAD_REACTORS
330
1A
102
}
100
AcDbPlotSettings
  1

  2
none_device
  4
ANSI_C_(22.00_x_17.00_Inches)
  6

 40
0.0
 41
0.0
 42
0.0
 43
0.0
 44
558.8
 45
431.8
 46
0.0
 47
0.0
 48
0.0
 49
0.0
140
0.0
141
0.0
142
1.0
143
1.0
 70
1024
 72
0
 73
0
 74
0
  7

 75
0
147
1.0
148
0.0
149
0.0
100
AcDbLayout
  1
Model
 70
0
 71
0
 10
0.0
 20
0.0
 11
22.0
 21
17.0
 12
0.0
 22
0.0
 32
0.0
 14
0.0
 24
0.0
 34
0.0
 15
0.0
 25
0.0
 35
0.0
146
0.0
 13
0.0
 23
0.0
 33
0.0
 16
1.0
 26
0.0
 36
0.0
 17
0.0
 27
1.0
 37
0.0
 76
0
330
204
345
0
346
0
  0
LAYOUT
  5
367
102
{ACAD_REACTORS
330
1A
102
}
100
AcDbPlotSettings
  1

  2
none_device
  4
ANSI_C_(22.00_x_17.00_Inches)
  6

 40
0.0
 41
0.0
 42
0.0
 43
0.0
 44
558.8
 45
431.8
 46
0.0
 47
0.0
 48
0.0
 49
0.0
140
0.0
141
0.0
142
1.0
143
1.0
 70
0
 72
0
 73
0
 74
0
  7

 75
0
147
1.0
148
0.0
149
0.0
100
AcDbLayout
  1
Layout1
 70
0
 71
1
 10
0.0
 20
0.0
 11
22.0
 21
17.0
 12
0.0
 22
0.0
 32
0.0
 14
0.0
 24
0.0
 34
0.0
 15
0.0
 25
0.0
 35
0.0
146
0.0
 13
0.0
 23
0.0
 33
0.0
 16
1.0
 26
0.0
 36
0.0
 17
0.0
 27
1.0
 37
0.0
 76
0
330
205
345
0
346
0
  0
IMAGEDEF
  5
368
102
{ACAD_REACTORS
330
363
330
362
102
}
100
AcDbRasterImageDef
 90
0
  1
YCL_assy_2_img_1.png
 10
369.0
 20
92.0
 11
0.0066666667
 21
0.0066666667
280
1
281
0
  0
TABLESTYLE
  5
369
102
{ACAD_REACTORS
330
365
330
286
330
287
102
}
330
365
100
AcDbTableStyle
  3
Standard
 70
0
 71
0
 40
0.06
 41
0.06
280
1
281
1
  7
Standard
140
0.18
170
1
 62
0
 63
7
283
0
  7
Standard
140
0.18
170
1
 62
0
 63
7
283
0
  7
Standard
140
0.18
170
1
 62
0
 63
7
283
0
  0
TABLESTYLE
  5
36A
102
{ACAD_REACTORS
330
365
330
285
102
}
330
365
100
AcDbTableStyle
  3
Standard1
 70
1
 71
0
 40
0.06
 41
0.06
280
1
281
1
  7
Standard
140
0.18
170
1
 62
0
 63
7
283
0
  7
Standard
140
0.18
170
1
 62
0
 63
7
283
0
  7
Standard
140
0.18
170
1
 62
0
 63
7
283
0
  0
ENDSEC
  0
EOF
