999
DXF file: YBA_assy_2.dxf
999
Pro/ENGINEER 2014200 by Parametric Technology Corporation
  0
SECTION
  2
HEADER
  9
$ACADVER
  1
AC1021
  9
$DWGCODEPAGE
  3
ANSI_1252
  9
$EXTMAX
 10
22.0
 20
17.0
 30
0.0
  9
$EXTMIN
 10
0.0
 20
0.0
 30
0.0
  9
$LIMMIN
 10
0.0
 20
0.0
  9
$LIMMAX
 10
22.0
 20
17.0
  9
$VIEWCTR
 10
11.0
 20
8.5
  9
$VIEWSIZE
 40
17.0
  9
$CLAYER
  8
0
  9
$LTSCALE
 40
1.21
  9
$CELTYPE
  6
BYLAYER
  9
$DIMSCALE
 40
1.0
  9
$DIMASZ
 40
0.1875
  9
$DIMEXO
 40
0.0625
  9
$DIMDLI
 40
0.836
  9
$DIMEXE
 40
0.125
  9
$DIMCEN
 40
0.198
  9
$DIMLFAC
 40
1.0
  9
$DIMBLK
  1
_FILLED
  9
$DIMTXT
 40
0.1
  9
$DIMTOL
 70
0
  9
$DIMLIM
 70
0
  9
$DIMTFAC
 40
1.0
  9
$DIMGAP
 40
0.09
  9
$DIMDSEP
 70
46
  9
$AUNITS
 70
0
  9
$PDMODE
 70
3
  9
$PDSIZE
 40
0.3125
  9
$HANDSEED
  5
33D
  9
$TILEMODE
 70
1
  9
$MEASUREMENT
 70
0
  9
$INSUNITS
 70
1
  0
ENDSEC
  0
SECTION
  2
CLASSES
  0
CLASS
  1
ACDBDICTIONARYWDFLT
  2
AcDbDictionaryWithDefault
  3
AutoCAD 2000
 90
0
 91
1
280
0
281
0
  0
CLASS
  1
ACDBPLACEHOLDER
  2
AcDbPlaceHolder
  3
AutoCAD 2000
 90
0
 91
1
280
0
281
0
  0
CLASS
  1
LAYOUT
  2
AcDbLayout
  3
AutoCAD 2000
 90
0
 91
0
280
0
281
0
  0
CLASS
  1
RASTERVARIABLES
  2
AcDbRasterVariables
  3
ISM
 90
0
 91
1
280
0
281
0
  0
CLASS
  1
IMAGEDEF
  2
AcDbRasterImageDef
  3
ISM
 90
0
 91
1
280
0
281
0
  0
CLASS
  1
IMAGEDEF_REACTOR
  2
AcDbRasterImageDefReactor
  3
ISM
 90
0
 91
1
280
0
281
0
  0
CLASS
  1
IMAGE
  2
AcDbRasterImage
  3
ISM
 90
127
 91
1
280
0
281
1
  0
CLASS
  1
TABLESTYLE
  2
AcDbTableStyle
  3
ObjectDBX Classes
 90
2047
 91
1
280
0
281
0
  0
CLASS
  1
ACAD_TABLE
  2
AcDbTable
  3
ObjectDBX Classes
 90
1025
 91
3
280
0
281
1
  0
ENDSEC
  0
SECTION
  2
TABLES
  0
TABLE
  2
VPORT
  5
8
100
AcDbSymbolTable
 70
2
  0
VPORT
  5
1F4
100
AcDbSymbolTableRecord
100
AcDbViewportTableRecord
  2
*ACTIVE
 70
0
 10
0.0
 20
0.0
 11
1.0
 21
1.0
 12
11.0
 22
8.5
 13
0.0
 23
0.0
 14
1.0
 24
1.0
 15
0.0
 25
0.0
 16
0.0
 26
0.0
 36
1.0
 17
0.0
 27
0.0
 37
0.0
 40
17.0
 41
1.2941176471
 42
50.0
 43
0.0
 44
0.0
 50
0.0
 51
0.0
 71
0
 72
100
 73
1
 74
1
 75
0
 76
0
 77
0
 78
0
  0
ENDTAB
  0
TABLE
  2
LTYPE
  5
5
100
AcDbSymbolTable
 70
6
  0
LTYPE
  5
14
100
AcDbSymbolTableRecord
100
AcDbLinetypeTableRecord
  2
BYBLOCK
 70
0
  3

 72
65
 73
0
 40
0.0
  0
LTYPE
  5
15
100
AcDbSymbolTableRecord
100
AcDbLinetypeTableRecord
  2
BYLAYER
 70
0
  3

 72
65
 73
0
 40
0.0
  0
LTYPE
  5
16
100
AcDbSymbolTableRecord
100
AcDbLinetypeTableRecord
  2
CONTINUOUS
 70
64
  3
Solid line
 72
65
 73
0
 40
0.0
  0
LTYPE
  5
1F5
100
AcDbSymbolTableRecord
100
AcDbLinetypeTableRecord
  2
CENTER
 70
64
  3
____ _ ____ _ ____ _ ____ _ ____ _ ____ _ ____
 72
65
 73
4
 40
0.6
 49
0.375
 74
0
 49
-0.075
 74
0
 49
0.075
 74
0
 49
-0.075
 74
0
  0
LTYPE
  5
1F6
100
AcDbSymbolTableRecord
100
AcDbLinetypeTableRecord
  2
HIDDEN
 70
64
  3
- - - - - - - - - - - - - - - - - - - -
 72
65
 73
2
 40
0.2
 49
0.1
 74
0
 49
-0.1
 74
0
  0
LTYPE
  5
1F7
100
AcDbSymbolTableRecord
100
AcDbLinetypeTableRecord
  2
PHANTOM
 70
64
  3
_____ _ _ _____ _ _ _____ _ _ _____
 72
65
 73
6
 40
0.8
 49
0.45
 74
0
 49
-0.05
 74
0
 49
0.1
 74
0
 49
-0.05
 74
0
 49
0.1
 74
0
 49
-0.05
 74
0
  0
LTYPE
  5
1F8
100
AcDbSymbolTableRecord
100
AcDbLinetypeTableRecord
  2
DOT
 70
64
  3
. . . . . . . . . . . . . . . . . . . .
 72
65
 73
2
 40
0.2
 49
0.1
 74
0
 49
-0.1
 74
0
  0
LTYPE
  5
1F9
100
AcDbSymbolTableRecord
100
AcDbLinetypeTableRecord
  2
DASHED
 70
64
  3
- - - - - - - - - - - - - - - - - - - -
 72
65
 73
2
 40
0.2
 49
0.1
 74
0
 49
-0.1
 74
0
  0
ENDTAB
  0
TABLE
  2
LAYER
  5
2
100
AcDbSymbolTable
 70
36
  0
LAYER
  5
10
100
AcDbSymbolTableRecord
100
AcDbLayerTableRecord
  2
0
 70
0
 62
7
  6
CONTINUOUS
370
-3
390
F
  0
LAYER
  5
1FA
100
AcDbSymbolTableRecord
100
AcDbLayerTableRecord
  2
DEFAULT_1
 70
0
 62
7
  6
CENTER
370
-3
390
F
  0
LAYER
  5
1FB
100
AcDbSymbolTableRecord
100
AcDbLayerTableRecord
  2
DEFAULT_2
 70
0
 62
8
  6
HIDDEN
370
-3
390
F
  0
LAYER
  5
1FC
100
AcDbSymbolTableRecord
100
AcDbLayerTableRecord
  2
DEFAULT_3
 70
0
 62
7
  6
PHANTOM
370
-3
390
F
  0
LAYER
  5
1FD
100
AcDbSymbolTableRecord
100
AcDbLayerTableRecord
  2
DATUM_PLANES
 70
0
 62
7
  6
CONTINUOUS
370
-3
390
F
  0
LAYER
  5
1FE
100
AcDbSymbolTableRecord
100
AcDbLayerTableRecord
  2
PORT_AREAS
 70
0
 62
7
  6
CONTINUOUS
370
-3
390
F
  0
LAYER
  5
1FF
100
AcDbSymbolTableRecord
100
AcDbLayerTableRecord
  2
SUNNBOMCOSMETIC
 70
0
 62
7
  6
CONTINUOUS
370
-3
390
F
  0
LAYER
  5
200
100
AcDbSymbolTableRecord
100
AcDbLayerTableRecord
  2
SUNNBOMSTAMPING
 70
0
 62
7
  6
CONTINUOUS
370
-3
390
F
  0
LAYER
  5
201
100
AcDbSymbolTableRecord
100
AcDbLayerTableRecord
  2
THREADS
 70
0
 62
7
  6
CONTINUOUS
370
-3
390
F
  0
ENDTAB
  0
TABLE
  2
STYLE
  5
3
100
AcDbSymbolTable
 70
1
  0
STYLE
  5
11
100
AcDbSymbolTableRecord
100
AcDbTextStyleTableRecord
  2
STANDARD
 70
0
 40
0.0
 41
0.8
 50
0.0
 71
0
 42
0.2
  3
txt
  4

  0
STYLE
  5
202
100
AcDbSymbolTableRecord
100
AcDbTextStyleTableRecord
  2
TEXTSTYLE_1
 70
0
 40
0.0
 41
0.8
 50
0.0
 71
0
 42
0.2
  3
gdt
  4

  0
ENDTAB
  0
TABLE
  2
VIEW
  5
6
100
AcDbSymbolTable
 70
0
  0
ENDTAB
  0
TABLE
  2
UCS
  5
7
100
AcDbSymbolTable
 70
0
  0
ENDTAB
  0
TABLE
  2
APPID
  5
9
100
AcDbSymbolTable
 70
1
  0
APPID
  5
203
100
AcDbSymbolTableRecord
100
AcDbRegAppTableRecord
  2
ACAD
 70
0
  0
ENDTAB
  0
TABLE
  2
BLOCK_RECORD
  5
1
100
AcDbSymbolTable
 70
0
  0
BLOCK_RECORD
  5
204
100
AcDbSymbolTableRecord
100
AcDbBlockTableRecord
  2
*Model_Space
  0
BLOCK_RECORD
  5
205
100
AcDbSymbolTableRecord
100
AcDbBlockTableRecord
  2
*Paper_Space
  0
BLOCK_RECORD
  5
206
100
AcDbSymbolTableRecord
100
AcDbBlockTableRecord
  2
SUN_FIRST_THIRD_ANGLE_BL0
  0
BLOCK_RECORD
  5
207
100
AcDbSymbolTableRecord
100
AcDbBlockTableRecord
  2
*T1
  0
BLOCK_RECORD
  5
208
100
AcDbSymbolTableRecord
100
AcDbBlockTableRecord
  2
*T2
  0
BLOCK_RECORD
  5
209
100
AcDbSymbolTableRecord
100
AcDbBlockTableRecord
  2
*T3
  0
ENDTAB
  0
TABLE
  2
DIMSTYLE
  5
A
100
AcDbSymbolTable
 70
1
100
AcDbDimStyleTable
 71
0
  0
DIMSTYLE
105
20A
100
AcDbSymbolTableRecord
100
AcDbDimStyleTableRecord
  2
STANDARD
 70
0
  3

  4

 40
1.0
 41
0.1875
 42
0.0625
 43
0.38
 44
0.125
 45
0.0
 46
0.0
 47
0.001
 48
0.001
140
0.1
141
0.09
142
0.0
143
25.4
144
1.0
145
0.0
146
1.0
147
0.09
 71
0.0
 72
0.0
 73
1
 74
1
 75
0
 76
0
 77
0
 78
4
170
0
171
2
172
0
173
0
174
0
175
0
176
0
177
0
178
0
270
2
271
3
272
3
273
2
274
2
275
0
280
0
281
0
282
0
283
1
284
4
285
0
286
0
287
3
288
0
340
11
278
46
  0
ENDTAB
  0
ENDSEC
  0
SECTION
  2
BLOCKS
  0
BLOCK
  5
20
100
AcDbEntity
  8
0
100
AcDbBlockBegin
  2
*Model_Space
 70
0
 10
0.0
 20
0.0
 30
0.0
  3
*Model_Space
  1

  0
ENDBLK
  5
21
100
AcDbEntity
  8
0
100
AcDbBlockEnd
  0
BLOCK
  5
1C
100
AcDbEntity
  8
0
100
AcDbBlockBegin
  2
*Paper_Space
 70
0
 10
0.0
 20
0.0
 30
0.0
  3
*Paper_Space
  1

  0
ENDBLK
  5
1D
100
AcDbEntity
  8
0
100
AcDbBlockEnd
  0
BLOCK
  5
20B
100
AcDbEntity
  8
0
100
AcDbBlockBegin
 62
2
  6
CONTINUOUS
  2
SUN_FIRST_THIRD_ANGLE_BL0
 70
64
 10
20.4816717061
 20
1.2289683772
  3
SUN_FIRST_THIRD_ANGLE_BL0
  1

  0
TEXT
  5
20C
100
AcDbEntity
  8
0
100
AcDbText
 62
2
  6
CONTINUOUS
 10
19.4750896608
 20
1.4136269581
  7
STANDARD
 40
0.08
  1
FIRST ANGLE
 41
0.8
 72
0
100
AcDbText
  0
TEXT
  5
20D
100
AcDbEntity
  8
0
100
AcDbText
 62
2
  6
CONTINUOUS
 10
20.7842537513
 20
1.4047600029
  7
STANDARD
 40
0.08
  1
THIRD ANGLE
 41
0.8
 72
0
100
AcDbText
  0
LINE
  5
20E
100
AcDbEntity
  8
0
100
AcDbLine
 62
7
  6
CONTINUOUS
 10
19.4767170086
 20
1.1727031207
 11
19.6334271527
 21
1.1717972817
  0
LINE
  5
20F
100
AcDbEntity
  8
0
100
AcDbLine
 62
7
  6
CONTINUOUS
 10
19.6596964832
 20
1.1717972817
 11
19.6950230232
 21
1.171593082
  0
LINE
  5
210
100
AcDbEntity
  8
0
100
AcDbLine
 62
7
  6
CONTINUOUS
 10
19.7194818561
 20
1.1708914427
 11
19.8852396156
 21
1.1699333054
  0
LINE
  5
211
100
AcDbEntity
  8
0
100
AcDbLine
 62
7
  6
CONTINUOUS
 10
19.4758111696
 20
1.2723454088
 11
19.88525039
 21
1.3511534004
  0
LINE
  5
212
100
AcDbEntity
  8
0
100
AcDbLine
 62
7
  6
CONTINUOUS
 10
19.88525039
 20
1.3511534004
 11
19.8831348489
 21
0.9851647912
  0
LINE
  5
213
100
AcDbEntity
  8
0
100
AcDbLine
 62
7
  6
CONTINUOUS
 10
19.8831348489
 20
0.9851647912
 11
19.4767170086
 21
1.0658141206
  0
LINE
  5
214
100
AcDbEntity
  8
0
100
AcDbLine
 62
7
  6
CONTINUOUS
 10
19.4767170086
 20
1.0658141206
 11
19.4779056764
 21
1.2714536432
  0
CIRCLE
  5
215
100
AcDbEntity
  8
0
100
AcDbCircle
 62
7
  6
CONTINUOUS
 10
20.2068232291
 20
1.1717972817
 40
0.175742101
  0
CIRCLE
  5
216
100
AcDbEntity
  8
0
100
AcDbCircle
 62
7
  6
CONTINUOUS
 10
20.2068232291
 20
1.1717972817
 40
0.1005522074
  0
LINE
  5
217
100
AcDbEntity
  8
0
100
AcDbLine
 62
7
  6
CONTINUOUS
 10
20.2077290681
 20
1.3756110529
 11
20.2071171714
 21
1.2379342989
  0
LINE
  5
218
100
AcDbEntity
  8
0
100
AcDbLine
 62
7
  6
CONTINUOUS
 10
20.2077290681
 20
1.2016899681
 11
20.2074674401
 21
1.1428236749
  0
LINE
  5
219
100
AcDbEntity
  8
0
100
AcDbLine
 62
7
  6
CONTINUOUS
 10
20.208634907
 20
1.101141841
 11
20.2080230104
 21
0.963465087
  0
LINE
  5
21A
100
AcDbEntity
  8
0
100
AcDbLine
 62
7
  6
CONTINUOUS
 10
20.0066328138
 20
1.1745147986
 11
20.1443095678
 21
1.1739029019
  0
LINE
  5
21B
100
AcDbEntity
  8
0
100
AcDbLine
 62
7
  6
CONTINUOUS
 10
20.1832714155
 20
1.1727031207
 11
20.238153505
 21
1.172335442
  0
LINE
  5
21C
100
AcDbEntity
  8
0
100
AcDbLine
 62
7
  6
CONTINUOUS
 10
20.2756669918
 20
1.1717972817
 11
20.407916871
 21
1.1712095044
  0
CIRCLE
  5
21D
100
AcDbEntity
  8
0
100
AcDbCircle
 62
7
  6
CONTINUOUS
 10
20.7509457401
 20
1.1693297793
 40
0.1722024983
  0
CIRCLE
  5
21E
100
AcDbEntity
  8
0
100
AcDbCircle
 62
7
  6
CONTINUOUS
 10
20.7509457401
 20
1.1693297793
 40
0.0985164967
  0
LINE
  5
21F
100
AcDbEntity
  8
0
100
AcDbLine
 62
7
  6
CONTINUOUS
 10
20.7169767782
 20
1.170462078
 11
20.7825395137
 21
1.1682766535
  0
LINE
  5
220
100
AcDbEntity
  8
0
100
AcDbLine
 62
7
  6
CONTINUOUS
 10
20.8177513651
 20
1.1693297793
 11
20.947965719
 21
1.1693297793
  0
LINE
  5
221
100
AcDbEntity
  8
0
100
AcDbLine
 62
7
  6
CONTINUOUS
 10
20.6875370113
 20
1.170462078
 11
20.5573226574
 21
1.170462078
  0
LINE
  5
222
100
AcDbEntity
  8
0
100
AcDbLine
 62
7
  6
CONTINUOUS
 10
20.7486811426
 20
1.1987695462
 11
20.7486811426
 21
1.1432869085
  0
LINE
  5
223
100
AcDbEntity
  8
0
100
AcDbLine
 62
7
  6
CONTINUOUS
 10
20.7498134414
 20
1.1059210505
 11
20.7498134414
 21
0.9757066966
  0
LINE
  5
224
100
AcDbEntity
  8
0
100
AcDbLine
 62
7
  6
CONTINUOUS
 10
20.7486811426
 20
1.2338708068
 11
20.7486811426
 21
1.3640851607
  0
LINE
  5
225
100
AcDbEntity
  8
0
100
AcDbLine
 62
7
  6
CONTINUOUS
 10
21.0702539817
 20
1.2701043662
 11
21.4790138229
 21
1.3448360823
  0
LINE
  5
226
100
AcDbEntity
  8
0
100
AcDbLine
 62
7
  6
CONTINUOUS
 10
21.4790138229
 20
1.3448360823
 11
21.4790138229
 21
0.9779712941
  0
LINE
  5
227
100
AcDbEntity
  8
0
100
AcDbLine
 62
7
  6
CONTINUOUS
 10
21.4790138229
 20
0.9779712941
 11
21.069121683
 21
1.0617614
  0
LINE
  5
228
100
AcDbEntity
  8
0
100
AcDbLine
 62
7
  6
CONTINUOUS
 10
21.0702539817
 20
1.2701043662
 11
21.069121683
 21
1.0617614
  0
LINE
  5
229
100
AcDbEntity
  8
0
100
AcDbLine
 62
7
  6
CONTINUOUS
 10
21.4790138229
 20
1.1693297793
 11
21.3159628059
 21
1.1693297793
  0
LINE
  5
22A
100
AcDbEntity
  8
0
100
AcDbLine
 62
7
  6
CONTINUOUS
 10
21.2876553377
 20
1.1693297793
 11
21.2502894796
 21
1.1693297793
  0
LINE
  5
22B
100
AcDbEntity
  8
0
100
AcDbLine
 62
7
  6
CONTINUOUS
 10
21.2208497126
 20
1.1659328831
 11
21.0713862804
 21
1.1659328831
  0
LINE
  5
22C
100
AcDbEntity
  8
0
100
AcDbLine
 62
7
  6
CONTINUOUS
 10
20.4796138713
 20
1.5284908897
 11
20.4766766948
 21
0.9294458646
  0
ENDBLK
  5
22D
100
AcDbEntity
  8
0
  6
BYBLOCK
 62
0
100
AcDbBlockEnd
  0
BLOCK
  5
22E
100
AcDbEntity
  8
0
100
AcDbBlockBegin
  2
*T1
 70
1
 10
0.0
 20
0.0
  3
*T1
  1

  0
LINE
  5
22F
100
AcDbEntity
  8
0
100
AcDbLine
 62
2
  6
CONTINUOUS
 10
9.275
 20
0.0
 11
-0.0
 21
0.0
  0
LINE
  5
230
100
AcDbEntity
  8
0
100
AcDbLine
 62
2
  6
CONTINUOUS
 10
9.275
 20
0.0
 11
9.275
 21
1.25
  0
LINE
  5
231
100
AcDbEntity
  8
0
100
AcDbLine
 62
2
  6
CONTINUOUS
 10
9.275
 20
0.625
 11
-0.0
 21
0.625
  0
LINE
  5
232
100
AcDbEntity
  8
0
100
AcDbLine
 62
2
  6
CONTINUOUS
 10
9.275
 20
1.25
 11
-0.0
 21
1.25
  0
LINE
  5
233
100
AcDbEntity
  8
0
100
AcDbLine
 62
2
  6
CONTINUOUS
 10
6.8
 20
0.0
 11
6.8
 21
1.25
  0
LINE
  5
234
100
AcDbEntity
  8
0
100
AcDbLine
 62
2
  6
CONTINUOUS
 10
6.4
 20
0.0
 11
6.4
 21
0.625
  0
LINE
  5
235
100
AcDbEntity
  8
0
100
AcDbLine
 62
2
  6
CONTINUOUS
 10
5.9
 20
0.0
 11
5.9
 21
0.625
  0
LINE
  5
236
100
AcDbEntity
  8
0
100
AcDbLine
 62
2
  6
CONTINUOUS
 10
5.2
 20
0.0
 11
5.2
 21
0.625
  0
LINE
  5
237
100
AcDbEntity
  8
0
100
AcDbLine
 62
2
  6
CONTINUOUS
 10
4.1
 20
0.0
 11
4.1
 21
1.25
  0
LINE
  5
238
100
AcDbEntity
  8
0
100
AcDbLine
 62
2
  6
CONTINUOUS
 10
-0.0
 20
0.0
 11
-0.0
 21
1.25
  0
MTEXT
  5
239
100
AcDbEntity
  8
0
100
AcDbMText
 62
2
  6
CONTINUOUS
  7
STANDARD
 71
2
 72
1
 10
6.6
 20
0.325
 30
0.0
 11
1.0
 21
0.0
 31
0.0
 44
0.9
  1
2
 40
0.125
 41
0.2
  0
MTEXT
  5
23A
100
AcDbEntity
  8
0
100
AcDbMText
 62
2
  6
CONTINUOUS
  7
STANDARD
 71
2
 72
1
 10
6.15
 20
0.325
 30
0.0
 11
1.0
 21
0.0
 31
0.0
 44
0.9
  1
C
 40
0.125
 41
0.2
  0
MTEXT
  5
23B
100
AcDbEntity
  8
0
100
AcDbMText
 62
2
  6
CONTINUOUS
  7
STANDARD
 71
2
 72
1
 10
5.55
 20
0.325
 30
0.0
 11
1.0
 21
0.0
 31
0.0
 44
0.9
  1
2.000
 40
0.125
 41
1.0
  0
MTEXT
  5
23C
100
AcDbEntity
  8
0
100
AcDbMText
 62
2
  6
CONTINUOUS
  7
STANDARD
 71
2
 72
1
 10
4.65
 20
0.325
 30
0.0
 11
1.0
 21
0.0
 31
0.0
 44
0.9
  1
Sep-13-23
 40
0.125
 41
1.8
  0
MTEXT
  5
23D
100
AcDbEntity
  8
0
100
AcDbMText
 62
2
  6
CONTINUOUS
  7
STANDARD
 71
2
 72
1
 10
2.05
 20
0.4625
 30
0.0
 11
1.0
 21
0.0
 31
0.0
 44
0.9
  1
T-3A Line mount\PCross port
 40
0.125
 41
3.0
  0
MTEXT
  5
23E
100
AcDbEntity
  8
0
100
AcDbMText
 62
2
  6
CONTINUOUS
  7
STANDARD
 71
1
 72
1
 10
6.45
 20
0.5625
 30
0.0
 11
1.0
 21
0.0
 31
0.0
 44
0.9
  1
SHEET
 40
0.06
 41
0.48
  0
MTEXT
  5
23F
100
AcDbEntity
  8
0
100
AcDbMText
 62
2
  6
CONTINUOUS
  7
STANDARD
 71
1
 72
1
 10
5.95
 20
0.5625
 30
0.0
 11
1.0
 21
0.0
 31
0.0
 44
0.9
  1
DWG SIZE
 40
0.06
 41
0.768
  0
MTEXT
  5
240
100
AcDbEntity
  8
0
100
AcDbMText
 62
2
  6
CONTINUOUS
  7
STANDARD
 71
1
 72
1
 10
5.25
 20
0.5625
 30
0.0
 11
1.0
 21
0.0
 31
0.0
 44
0.9
  1
SCALE
 40
0.06
 41
0.48
  0
MTEXT
  5
241
100
AcDbEntity
  8
0
100
AcDbMText
 62
2
  6
CONTINUOUS
  7
STANDARD
 71
1
 72
1
 10
4.15
 20
0.5625
 30
0.0
 11
1.0
 21
0.0
 31
0.0
 44
0.9
  1
DATE
 40
0.06
 41
0.384
  0
MTEXT
  5
242
100
AcDbEntity
  8
0
100
AcDbMText
 62
2
  6
CONTINUOUS
  7
STANDARD
 71
1
 72
1
 10
0.05
 20
0.5625
 30
0.0
 11
1.0
 21
0.0
 31
0.0
 44
0.9
  1
DESCRIPTION
 40
0.06
 41
1.056
  0
MTEXT
  5
243
100
AcDbEntity
  8
0
100
AcDbMText
 62
2
  6
CONTINUOUS
  7
STANDARD
 71
2
 72
1
 10
5.45
 20
1.0375
 30
0.0
 11
1.0
 21
0.0
 31
0.0
 44
0.9
  1
ALL DIMENSIONS IN INCH\PVIEWS ARE THIRD ANGLE
 40
0.12
 41
4.224
  0
MTEXT
  5
244
100
AcDbEntity
  8
0
100
AcDbMText
 62
2
  6
CONTINUOUS
  7
STANDARD
 71
2
 72
1
 10
2.05
 20
0.95
 30
0.0
 11
1.0
 21
0.0
 31
0.0
 44
0.9
  1
YBA
 40
0.125
 41
0.6
  0
MTEXT
  5
245
100
AcDbEntity
  8
0
100
AcDbMText
 62
2
  6
CONTINUOUS
  7
STANDARD
 71
1
 72
1
 10
0.05
 20
1.1875
 30
0.0
 11
1.0
 21
0.0
 31
0.0
 44
0.9
  1
MODEL
 40
0.06
 41
0.48
  0
ENDBLK
  5
246
100
AcDbEntity
  8
0
  6
BYBLOCK
 62
0
100
AcDbBlockEnd
  0
BLOCK
  5
247
100
AcDbEntity
  8
0
100
AcDbBlockBegin
  2
*T2
 70
1
 10
0.0
 20
0.0
  3
*T2
  1

  0
LINE
  5
248
100
AcDbEntity
  8
0
100
AcDbLine
 62
2
  6
CONTINUOUS
 10
0.0
 20
0.0
 11
9.055
 21
0.0
  0
LINE
  5
249
100
AcDbEntity
  8
0
100
AcDbLine
 62
2
  6
CONTINUOUS
 10
0.0
 20
0.0
 11
0.0
 21
-2.594
  0
LINE
  5
24A
100
AcDbEntity
  8
0
100
AcDbLine
 62
2
  6
CONTINUOUS
 10
0.0
 20
-0.344
 11
9.055
 21
-0.344
  0
LINE
  5
24B
100
AcDbEntity
  8
0
100
AcDbLine
 62
2
  6
CONTINUOUS
 10
0.0
 20
-0.594
 11
9.055
 21
-0.594
  0
LINE
  5
24C
100
AcDbEntity
  8
0
100
AcDbLine
 62
2
  6
CONTINUOUS
 10
0.0
 20
-0.844
 11
9.055
 21
-0.844
  0
LINE
  5
24D
100
AcDbEntity
  8
0
100
AcDbLine
 62
2
  6
CONTINUOUS
 10
0.0
 20
-1.094
 11
9.055
 21
-1.094
  0
LINE
  5
24E
100
AcDbEntity
  8
0
100
AcDbLine
 62
2
  6
CONTINUOUS
 10
0.0
 20
-1.344
 11
9.055
 21
-1.344
  0
LINE
  5
24F
100
AcDbEntity
  8
0
100
AcDbLine
 62
2
  6
CONTINUOUS
 10
0.0
 20
-1.594
 11
9.055
 21
-1.594
  0
LINE
  5
250
100
AcDbEntity
  8
0
100
AcDbLine
 62
2
  6
CONTINUOUS
 10
0.0
 20
-1.844
 11
9.055
 21
-1.844
  0
LINE
  5
251
100
AcDbEntity
  8
0
100
AcDbLine
 62
2
  6
CONTINUOUS
 10
0.0
 20
-2.094
 11
9.055
 21
-2.094
  0
LINE
  5
252
100
AcDbEntity
  8
0
100
AcDbLine
 62
2
  6
CONTINUOUS
 10
0.0
 20
-2.344
 11
9.055
 21
-2.344
  0
LINE
  5
253
100
AcDbEntity
  8
0
100
AcDbLine
 62
2
  6
CONTINUOUS
 10
0.0
 20
-2.594
 11
9.055
 21
-2.594
  0
LINE
  5
254
100
AcDbEntity
  8
0
100
AcDbLine
 62
2
  6
CONTINUOUS
 10
3.055
 20
0.0
 11
3.055
 21
-2.594
  0
LINE
  5
255
100
AcDbEntity
  8
0
100
AcDbLine
 62
2
  6
CONTINUOUS
 10
9.055
 20
0.0
 11
9.055
 21
-2.594
  0
MTEXT
  5
256
100
AcDbEntity
  8
0
100
AcDbMText
 62
2
  6
CONTINUOUS
  7
STANDARD
 71
2
 72
1
 10
1.5275
 20
-0.0995
 30
0.0
 11
1.0
 21
0.0
 31
0.0
 44
0.9
  1
Technical Data
 40
0.145
 41
3.248
  0
MTEXT
  5
257
100
AcDbEntity
  8
0
100
AcDbMText
 62
2
  6
CONTINUOUS
  7
STANDARD
 71
2
 72
1
 10
4.555
 20
-0.0995
 30
0.0
 11
1.0
 21
0.0
 31
0.0
 44
0.9
  1
U.S. Units
 40
0.145
 41
2.32
  0
MTEXT
  5
258
100
AcDbEntity
  8
0
100
AcDbMText
 62
2
  6
CONTINUOUS
  7
STANDARD
 71
2
 72
1
 10
7.555
 20
-0.0995
 30
0.0
 11
1.0
 21
0.0
 31
0.0
 44
0.9
  1
Metric Units
 40
0.145
 41
2.784
  0
MTEXT
  5
259
100
AcDbEntity
  8
0
100
AcDbMText
 62
2
  6
CONTINUOUS
  7
STANDARD
 71
2
 72
1
 10
1.5275
 20
-0.4065
 30
0.0
 11
1.0
 21
0.0
 31
0.0
 44
0.9
  1
Cavity
 40
0.125
 41
1.2
  0
MTEXT
  5
25A
100
AcDbEntity
  8
0
100
AcDbMText
 62
2
  6
CONTINUOUS
  7
STANDARD
 71
2
 72
1
 10
6.055
 20
-0.4065
 30
0.0
 11
1.0
 21
0.0
 31
0.0
 44
0.9
  1
T-3A
 40
0.125
 41
0.8
  0
MTEXT
  5
25B
100
AcDbEntity
  8
0
100
AcDbMText
 62
2
  6
CONTINUOUS
  7
STANDARD
 71
2
 72
1
 10
1.5275
 20
-0.6565
 30
0.0
 11
1.0
 21
0.0
 31
0.0
 44
0.9
  1
Body Features
 40
0.125
 41
2.6
  0
MTEXT
  5
25C
100
AcDbEntity
  8
0
100
AcDbMText
 62
2
  6
CONTINUOUS
  7
STANDARD
 71
2
 72
1
 10
6.055
 20
-0.6565
 30
0.0
 11
1.0
 21
0.0
 31
0.0
 44
0.9
  1
Cross port
 40
0.125
 41
2.0
  0
MTEXT
  5
25D
100
AcDbEntity
  8
0
100
AcDbMText
 62
2
  6
CONTINUOUS
  7
STANDARD
 71
2
 72
1
 10
1.5275
 20
-0.9065
 30
0.0
 11
1.0
 21
0.0
 31
0.0
 44
0.9
  1
Body Type
 40
0.125
 41
1.8
  0
MTEXT
  5
25E
100
AcDbEntity
  8
0
100
AcDbMText
 62
2
  6
CONTINUOUS
  7
STANDARD
 71
2
 72
1
 10
6.055
 20
-0.9065
 30
0.0
 11
1.0
 21
0.0
 31
0.0
 44
0.9
  1
Line mount
 40
0.125
 41
2.0
  0
MTEXT
  5
25F
100
AcDbEntity
  8
0
100
AcDbMText
 62
2
  6
CONTINUOUS
  7
STANDARD
 71
2
 72
1
 10
1.5275
 20
-1.1565
 30
0.0
 11
1.0
 21
0.0
 31
0.0
 44
0.9
  1
Interface
 40
0.125
 41
1.8
  0
MTEXT
  5
260
100
AcDbEntity
  8
0
100
AcDbMText
 62
2
  6
CONTINUOUS
  7
STANDARD
 71
2
 72
1
 10
6.055
 20
-1.1565
 30
0.0
 11
1.0
 21
0.0
 31
0.0
 44
0.9
  1
None
 40
0.125
 41
0.8
  0
MTEXT
  5
261
100
AcDbEntity
  8
0
100
AcDbMText
 62
2
  6
CONTINUOUS
  7
STANDARD
 71
2
 72
1
 10
1.5275
 20
-1.4065
 30
0.0
 11
1.0
 21
0.0
 31
0.0
 44
0.9
  1
Open Cavity Quantity
 40
0.125
 41
4.0
  0
MTEXT
  5
262
100
AcDbEntity
  8
0
100
AcDbMText
 62
2
  6
CONTINUOUS
  7
STANDARD
 71
2
 72
1
 10
6.055
 20
-1.4065
 30
0.0
 11
1.0
 21
0.0
 31
0.0
 44
0.9
  1
2
 40
0.125
 41
0.2
  0
MTEXT
  5
263
100
AcDbEntity
  8
0
100
AcDbMText
 62
2
  6
CONTINUOUS
  7
STANDARD
 71
2
 72
1
 10
1.5275
 20
-1.6565
 30
0.0
 11
1.0
 21
0.0
 31
0.0
 44
0.9
  1
Weight
 40
0.125
 41
1.2
  0
MTEXT
  5
264
100
AcDbEntity
  8
0
100
AcDbMText
 62
2
  6
CONTINUOUS
  7
STANDARD
 71
2
 72
1
 10
4.555
 20
-1.6565
 30
0.0
 11
1.0
 21
0.0
 31
0.0
 44
0.9
  1
1.483 lb.
 40
0.125
 41
1.8
  0
MTEXT
  5
265
100
AcDbEntity
  8
0
100
AcDbMText
 62
2
  6
CONTINUOUS
  7
STANDARD
 71
2
 72
1
 10
7.555
 20
-1.6565
 30
0.0
 11
1.0
 21
0.0
 31
0.0
 44
0.9
  1
0,673 kg.
 40
0.125
 41
1.8
  0
MTEXT
  5
266
100
AcDbEntity
  8
0
100
AcDbMText
 62
2
  6
CONTINUOUS
  7
STANDARD
 71
2
 72
1
 10
1.5275
 20
-1.9065
 30
0.0
 11
1.0
 21
0.0
 31
0.0
 44
0.9
  1
Mounting Hole Diameter
 40
0.125
 41
4.4
  0
MTEXT
  5
267
100
AcDbEntity
  8
0
100
AcDbMText
 62
2
  6
CONTINUOUS
  7
STANDARD
 71
2
 72
1
 10
4.555
 20
-1.9065
 30
0.0
 11
1.0
 21
0.0
 31
0.0
 44
0.9
  1
.34 in.
 40
0.125
 41
1.4
  0
MTEXT
  5
268
100
AcDbEntity
  8
0
100
AcDbMText
 62
2
  6
CONTINUOUS
  7
STANDARD
 71
2
 72
1
 10
7.555
 20
-1.9065
 30
0.0
 11
1.0
 21
0.0
 31
0.0
 44
0.9
  1
8.6 mm
 40
0.125
 41
1.2
  0
MTEXT
  5
269
100
AcDbEntity
  8
0
100
AcDbMText
 62
2
  6
CONTINUOUS
  7
STANDARD
 71
2
 72
1
 10
1.5275
 20
-2.1565
 30
0.0
 11
1.0
 21
0.0
 31
0.0
 44
0.9
  1
Mounting Hole Depth
 40
0.125
 41
3.8
  0
MTEXT
  5
26A
100
AcDbEntity
  8
0
100
AcDbMText
 62
2
  6
CONTINUOUS
  7
STANDARD
 71
2
 72
1
 10
6.055
 20
-2.1565
 30
0.0
 11
1.0
 21
0.0
 31
0.0
 44
0.9
  1
Through
 40
0.125
 41
1.4
  0
MTEXT
  5
26B
100
AcDbEntity
  8
0
100
AcDbMText
 62
2
  6
CONTINUOUS
  7
STANDARD
 71
2
 72
1
 10
1.5275
 20
-2.4065
 30
0.0
 11
1.0
 21
0.0
 31
0.0
 44
0.9
  1
Mounting Hole Quantity
 40
0.125
 41
4.4
  0
MTEXT
  5
26C
100
AcDbEntity
  8
0
100
AcDbMText
 62
2
  6
CONTINUOUS
  7
STANDARD
 71
2
 72
1
 10
6.055
 20
-2.4065
 30
0.0
 11
1.0
 21
0.0
 31
0.0
 44
0.9
  1
2
 40
0.125
 41
0.2
  0
ENDBLK
  5
26D
100
AcDbEntity
  8
0
  6
BYBLOCK
 62
0
100
AcDbBlockEnd
  0
BLOCK
  5
26E
100
AcDbEntity
  8
0
100
AcDbBlockBegin
  2
*T3
 70
1
 10
0.0
 20
0.0
  3
*T3
  1

  0
LINE
  5
26F
100
AcDbEntity
  8
0
100
AcDbLine
 62
2
  6
CONTINUOUS
 10
0.0
 20
0.0
 11
4.6
 21
0.0
  0
LINE
  5
270
100
AcDbEntity
  8
0
100
AcDbLine
 62
2
  6
CONTINUOUS
 10
0.0
 20
0.0
 11
0.0
 21
-0.93775
  0
LINE
  5
271
100
AcDbEntity
  8
0
100
AcDbLine
 62
2
  6
CONTINUOUS
 10
0.0
 20
-0.34375
 11
4.6
 21
-0.34375
  0
LINE
  5
272
100
AcDbEntity
  8
0
100
AcDbLine
 62
2
  6
CONTINUOUS
 10
0.0
 20
-0.68775
 11
4.6
 21
-0.68775
  0
LINE
  5
273
100
AcDbEntity
  8
0
100
AcDbLine
 62
2
  6
CONTINUOUS
 10
0.0
 20
-0.93775
 11
4.6
 21
-0.93775
  0
LINE
  5
274
100
AcDbEntity
  8
0
100
AcDbLine
 62
2
  6
CONTINUOUS
 10
1.3
 20
-0.34375
 11
1.3
 21
-0.93775
  0
LINE
  5
275
100
AcDbEntity
  8
0
100
AcDbLine
 62
2
  6
CONTINUOUS
 10
3.3
 20
-0.34375
 11
3.3
 21
-0.93775
  0
LINE
  5
276
100
AcDbEntity
  8
0
100
AcDbLine
 62
2
  6
CONTINUOUS
 10
4.6
 20
0.0
 11
4.6
 21
-0.93775
  0
MTEXT
  5
277
100
AcDbEntity
  8
0
100
AcDbMText
 62
2
  6
CONTINUOUS
  7
STANDARD
 71
2
 72
1
 10
2.3
 20
-0.099375
 30
0.0
 11
1.0
 21
0.0
 31
0.0
 44
0.9
  1
Port Headings
 40
0.145
 41
3.016
  0
MTEXT
  5
278
100
AcDbEntity
  8
0
100
AcDbMText
 62
2
  6
CONTINUOUS
  7
STANDARD
 71
2
 72
1
 10
0.65
 20
-0.44325
 30
0.0
 11
1.0
 21
0.0
 31
0.0
 44
0.9
  1
Product
 40
0.145
 41
1.624
  0
MTEXT
  5
279
100
AcDbEntity
  8
0
100
AcDbMText
 62
2
  6
CONTINUOUS
  7
STANDARD
 71
2
 72
1
 10
2.3
 20
-0.44325
 30
0.0
 11
1.0
 21
0.0
 31
0.0
 44
0.9
  1
Port
 40
0.145
 41
0.928
  0
MTEXT
  5
27A
100
AcDbEntity
  8
0
100
AcDbMText
 62
2
  6
CONTINUOUS
  7
STANDARD
 71
2
 72
1
 10
3.95
 20
-0.44325
 30
0.0
 11
1.0
 21
0.0
 31
0.0
 44
0.9
  1
Size
 40
0.145
 41
0.928
  0
MTEXT
  5
27B
100
AcDbEntity
  8
0
100
AcDbMText
 62
2
  6
CONTINUOUS
  7
STANDARD
 71
2
 72
1
 10
0.65
 20
-0.75025
 30
0.0
 11
1.0
 21
0.0
 31
0.0
 44
0.9
  1
YBA
 40
0.125
 41
0.6
  0
MTEXT
  5
27C
100
AcDbEntity
  8
0
100
AcDbMText
 62
2
  6
CONTINUOUS
  7
STANDARD
 71
2
 72
1
 10
2.3
 20
-0.75025
 30
0.0
 11
1.0
 21
0.0
 31
0.0
 44
0.9
  1
All Ports
 40
0.125
 41
1.8
  0
MTEXT
  5
27D
100
AcDbEntity
  8
0
100
AcDbMText
 62
2
  6
CONTINUOUS
  7
STANDARD
 71
2
 72
1
 10
3.95
 20
-0.75025
 30
0.0
 11
1.0
 21
0.0
 31
0.0
 44
0.9
  1
1/4" NPTF
 40
0.125
 41
1.8
  0
ENDBLK
  5
27E
100
AcDbEntity
  8
0
  6
BYBLOCK
 62
0
100
AcDbBlockEnd
  0
ENDSEC
  0
SECTION
  2
ENTITIES
  0
IMAGE
  5
27F
100
AcDbEntity
  8
0
100
AcDbRasterImage
 62
7
  6
CONTINUOUS
 10
19.2297077316
 20
0.3094318264
 30
0.0
 11
0.0066666667
 21
0.0
 31
0.0
 12
0.0
 22
0.0066666667
 32
0.0
 13
369.0
 23
92.0
340
       33A
 70
9
280
0
281
50
282
50
283
0
360
       334
 71
1
 91
2
 14
-0.5
 24
-0.5
 14
368.5
 24
91.5
  0
INSERT
  5
280
100
AcDbEntity
  8
0
100
AcDbBlockReference
 62
2
  6
CONTINUOUS
  2
SUN_FIRST_THIRD_ANGLE_BL0
 10
20.4816717061
 20
1.2289683772
  0
ACAD_TABLE
  5
281
100
AcDbEntity
  8
0
 62
2
  6
CONTINUOUS
100
AcDbBlockReference
  2
*T1
 10
12.42375
 20
0.30125
 30
0.0
100
AcDbTable
342
       33C
343
207
 11
1.0
 21
0.0
 31
0.0
 90
6
 91
4
 92
6
 93
20
 94
0
 95
0
 96
0
 70
1
 41
0.0
141
0.525
141
0.1
141
0.525
141
0.1
142
4.1
142
1.1
142
0.7
142
0.5
142
0.4
142
2.475
171
1
172
0
173
0
174
0
175
1
176
1
 91
33
178
0
145
0.0
301
CELL_VALUE
 90
4
  1
T-3A Line mount\PCross port
304
ACVALUE_END
170
2
140
0.125
171
1
172
0
173
0
174
0
175
1
176
1
 91
33
178
0
145
0.0
301
CELL_VALUE
 90
4
  1
Sep-13-23
304
ACVALUE_END
170
5
140
0.125
171
1
172
0
173
0
174
0
175
1
176
1
 91
33
178
0
145
0.0
301
CELL_VALUE
 90
4
  1
2.000
304
ACVALUE_END
170
5
140
0.125
171
1
172
0
173
0
174
0
175
1
176
1
 91
33
178
0
145
0.0
301
CELL_VALUE
 90
4
  1
C
304
ACVALUE_END
170
5
140
0.125
171
1
172
0
173
0
174
0
175
1
176
1
 91
33
178
0
145
0.0
301
CELL_VALUE
 90
4
  1
2
304
ACVALUE_END
170
5
140
0.125
171
1
172
0
173
0
174
0
175
1
176
1
 91
33
178
0
145
0.0
301
CELL_VALUE
 90
4
  1
 
304
ACVALUE_END
170
1
140
0.125
171
1
172
0
173
0
174
0
175
1
176
1
 91
33
178
0
145
0.0
301
CELL_VALUE
 90
4
  1
DESCRIPTION
304
ACVALUE_END
170
1
140
0.06
171
1
172
0
173
0
174
0
175
1
176
1
 91
33
178
0
145
0.0
301
CELL_VALUE
 90
4
  1
DATE
304
ACVALUE_END
170
1
140
0.06
171
1
172
0
173
0
174
0
175
1
176
1
 91
33
178
0
145
0.0
301
CELL_VALUE
 90
4
  1
SCALE
304
ACVALUE_END
170
1
140
0.06
171
1
172
0
173
0
174
0
175
1
176
1
 91
33
178
0
145
0.0
301
CELL_VALUE
 90
4
  1
DWG SIZE
304
ACVALUE_END
170
1
140
0.06
171
1
172
0
173
0
174
0
175
1
176
1
 91
33
178
0
145
0.0
301
CELL_VALUE
 90
4
  1
SHEET
304
ACVALUE_END
170
1
140
0.06
171
1
172
0
173
0
174
0
175
1
176
1
 91
33
178
0
145
0.0
301
CELL_VALUE
 90
4
  1
 
304
ACVALUE_END
170
1
140
0.125
171
1
172
0
173
0
174
0
175
1
176
1
 91
33
178
0
145
0.0
301
CELL_VALUE
 90
4
  1
YBA
304
ACVALUE_END
170
5
140
0.125
171
1
172
0
173
0
174
0
175
4
176
1
 91
33
178
0
145
0.0
301
CELL_VALUE
 90
4
  1
ALL DIMENSIONS IN INCH\PVIEWS ARE THIRD ANGLE
304
ACVALUE_END
170
5
140
0.12
171
1
172
0
173
1
174
0
175
1
176
1
 91
1
178
0
145
0.0
170
1
171
1
172
0
173
1
174
0
175
1
176
1
 91
1
178
0
145
0.0
170
1
171
1
172
0
173
1
174
0
175
1
176
1
 91
1
178
0
145
0.0
170
5
171
1
172
0
173
0
174
0
175
1
176
1
 91
33
178
0
145
0.0
301
CELL_VALUE
 90
4
  1
 
304
ACVALUE_END
170
1
140
0.125
171
1
172
0
173
0
174
0
175
1
176
1
 91
33
178
0
145
0.0
301
CELL_VALUE
 90
4
  1
MODEL
304
ACVALUE_END
170
1
140
0.06
171
1
172
0
173
0
174
0
175
1
176
1
 91
33
178
0
145
0.0
301
CELL_VALUE
 90
4
  1
 
304
ACVALUE_END
170
1
140
0.125
171
1
172
0
173
0
174
0
175
1
176
1
 91
33
178
0
145
0.0
301
CELL_VALUE
 90
4
  1
 
304
ACVALUE_END
170
1
140
0.125
171
1
172
0
173
0
174
0
175
1
176
1
 91
33
178
0
145
0.0
301
CELL_VALUE
 90
4
  1
 
304
ACVALUE_END
170
1
140
0.125
171
1
172
0
173
0
174
0
175
1
176
1
 91
33
178
0
145
0.0
301
CELL_VALUE
 90
4
  1
 
304
ACVALUE_END
170
1
140
0.125
171
1
172
0
173
0
174
0
175
1
176
1
 91
33
178
0
145
0.0
301
CELL_VALUE
 90
4
  1
 
304
ACVALUE_END
170
1
140
0.125
  0
ACAD_TABLE
  5
282
100
AcDbEntity
  8
0
 62
2
  6
CONTINUOUS
100
AcDbBlockReference
  2
*T2
 10
12.4237499994
 20
16.47875
 30
0.0
100
AcDbTable
342
       33B
343
208
 11
1.0
 21
0.0
 31
0.0
 90
22
 91
10
 92
3
 93
16
 94
0
 95
0
 96
0
 41
0.028
141
0.344
141
0.25
141
0.25
141
0.25
141
0.25
141
0.25
141
0.25
141
0.25
141
0.25
141
0.25
142
3.055
142
3.0
142
3.0
171
1
172
0
173
0
174
0
175
1
176
1
 91
33
178
0
145
0.0
301
CELL_VALUE
 90
4
  1
Technical Data
304
ACVALUE_END
170
5
140
0.145
171
1
172
0
173
0
174
0
175
1
176
1
 91
33
178
0
145
0.0
301
CELL_VALUE
 90
4
  1
U.S. Units
304
ACVALUE_END
170
5
140
0.145
171
1
172
0
173
0
174
0
175
1
176
1
 91
33
178
0
145
0.0
301
CELL_VALUE
 90
4
  1
Metric Units
304
ACVALUE_END
170
5
140
0.145
171
1
172
0
173
0
174
0
175
1
176
1
 91
33
178
0
145
0.0
301
CELL_VALUE
 90
4
  1
Cavity
304
ACVALUE_END
170
5
140
0.125
171
1
172
0
173
0
174
0
175
2
176
1
 91
33
178
0
145
0.0
301
CELL_VALUE
 90
4
  1
T-3A
304
ACVALUE_END
170
5
140
0.125
171
1
172
0
173
1
174
0
175
1
176
1
 91
1
178
0
145
0.0
170
1
171
1
172
0
173
0
174
0
175
1
176
1
 91
33
178
0
145
0.0
301
CELL_VALUE
 90
4
  1
Body Features
304
ACVALUE_END
170
5
140
0.125
171
1
172
0
173
0
174
0
175
2
176
1
 91
33
178
0
145
0.0
301
CELL_VALUE
 90
4
  1
Cross port
304
ACVALUE_END
170
5
140
0.125
171
1
172
0
173
1
174
0
175
1
176
1
 91
1
178
0
145
0.0
170
1
171
1
172
0
173
0
174
0
175
1
176
1
 91
33
178
0
145
0.0
301
CELL_VALUE
 90
4
  1
Body Type
304
ACVALUE_END
170
5
140
0.125
171
1
172
0
173
0
174
0
175
2
176
1
 91
33
178
0
145
0.0
301
CELL_VALUE
 90
4
  1
Line mount
304
ACVALUE_END
170
5
140
0.125
171
1
172
0
173
1
174
0
175
1
176
1
 91
1
178
0
145
0.0
170
1
171
1
172
0
173
0
174
0
175
1
176
1
 91
33
178
0
145
0.0
301
CELL_VALUE
 90
4
  1
Interface
304
ACVALUE_END
170
5
140
0.125
171
1
172
0
173
0
174
0
175
2
176
1
 91
33
178
0
145
0.0
301
CELL_VALUE
 90
4
  1
None
304
ACVALUE_END
170
5
140
0.125
171
1
172
0
173
1
174
0
175
1
176
1
 91
1
178
0
145
0.0
170
1
171
1
172
0
173
0
174
0
175
1
176
1
 91
33
178
0
145
0.0
301
CELL_VALUE
 90
4
  1
Open Cavity Quantity
304
ACVALUE_END
170
5
140
0.125
171
1
172
0
173
0
174
0
175
2
176
1
 91
33
178
0
145
0.0
301
CELL_VALUE
 90
4
  1
2
304
ACVALUE_END
170
5
140
0.125
171
1
172
0
173
1
174
0
175
1
176
1
 91
1
178
0
145
0.0
170
1
171
1
172
0
173
0
174
0
175
1
176
1
 91
33
178
0
145
0.0
301
CELL_VALUE
 90
4
  1
Weight
304
ACVALUE_END
170
5
140
0.125
171
1
172
0
173
0
174
0
175
1
176
1
 91
33
178
0
145
0.0
301
CELL_VALUE
 90
4
  1
1.483 lb.
304
ACVALUE_END
170
5
140
0.125
171
1
172
0
173
0
174
0
175
1
176
1
 91
33
178
0
145
0.0
301
CELL_VALUE
 90
4
  1
0,673 kg.
304
ACVALUE_END
170
5
140
0.125
171
1
172
0
173
0
174
0
175
1
176
1
 91
33
178
0
145
0.0
301
CELL_VALUE
 90
4
  1
Mounting Hole Diameter
304
ACVALUE_END
170
5
140
0.125
171
1
172
0
173
0
174
0
175
1
176
1
 91
33
178
0
145
0.0
301
CELL_VALUE
 90
4
  1
.34 in.
304
ACVALUE_END
170
5
140
0.125
171
1
172
0
173
0
174
0
175
1
176
1
 91
33
178
0
145
0.0
301
CELL_VALUE
 90
4
  1
8.6 mm
304
ACVALUE_END
170
5
140
0.125
171
1
172
0
173
0
174
0
175
1
176
1
 91
33
178
0
145
0.0
301
CELL_VALUE
 90
4
  1
Mounting Hole Depth
304
ACVALUE_END
170
5
140
0.125
171
1
172
0
173
0
174
0
175
2
176
1
 91
33
178
0
145
0.0
301
CELL_VALUE
 90
4
  1
Through
304
ACVALUE_END
170
5
140
0.125
171
1
172
0
173
1
174
0
175
1
176
1
 91
1
178
0
145
0.0
170
1
171
1
172
0
173
0
174
0
175
1
176
1
 91
33
178
0
145
0.0
301
CELL_VALUE
 90
4
  1
Mounting Hole Quantity
304
ACVALUE_END
170
5
140
0.125
171
1
172
0
173
0
174
0
175
2
176
1
 91
33
178
0
145
0.0
301
CELL_VALUE
 90
4
  1
2
304
ACVALUE_END
170
5
140
0.125
171
1
172
0
173
1
174
0
175
1
176
1
 91
1
178
0
145
0.0
170
1
  0
ACAD_TABLE
  5
283
100
AcDbEntity
  8
0
 62
2
  6
CONTINUOUS
100
AcDbBlockReference
  2
*T3
 10
0.52125
 20
1.459
 30
0.0
100
AcDbTable
342
       33B
343
209
 11
1.0
 21
0.0
 31
0.0
 90
22
 91
3
 92
3
 93
16
 94
0
 95
0
 96
0
 41
0.05
141
0.34375
141
0.344
141
0.25
142
1.3
142
2.0
142
1.3
171
1
172
0
173
0
174
0
175
3
176
1
 91
33
178
0
145
0.0
301
CELL_VALUE
 90
4
  1
Port Headings
304
ACVALUE_END
170
5
140
0.145
171
1
172
0
173
1
174
0
175
1
176
1
 91
1
178
0
145
0.0
170
1
171
1
172
0
173
1
174
0
175
1
176
1
 91
1
178
0
145
0.0
170
1
171
1
172
0
173
0
174
0
175
1
176
1
 91
33
178
0
145
0.0
301
CELL_VALUE
 90
4
  1
Product
304
ACVALUE_END
170
5
140
0.145
171
1
172
0
173
0
174
0
175
1
176
1
 91
33
178
0
145
0.0
301
CELL_VALUE
 90
4
  1
Port
304
ACVALUE_END
170
5
140
0.145
171
1
172
0
173
0
174
0
175
1
176
1
 91
33
178
0
145
0.0
301
CELL_VALUE
 90
4
  1
Size
304
ACVALUE_END
170
5
140
0.145
171
1
172
0
173
0
174
0
175
1
176
1
 91
33
178
0
145
0.0
301
CELL_VALUE
 90
4
  1
YBA
304
ACVALUE_END
170
5
140
0.125
171
1
172
0
173
0
174
0
175
1
176
1
 91
33
178
0
145
0.0
301
CELL_VALUE
 90
4
  1
All Ports
304
ACVALUE_END
170
5
140
0.125
171
1
172
0
173
0
174
0
175
1
176
1
 91
33
178
0
145
0.0
301
CELL_VALUE
 90
4
  1
1/4" NPTF
304
ACVALUE_END
170
5
140
0.125
  0
MTEXT
  5
284
100
AcDbEntity
  8
0
100
AcDbMText
 62
2
  6
CONTINUOUS
  7
STANDARD
 71
1
 72
1
 10
0.52125
 20
5.75995
 30
0.0
 11
1.0
 21
0.0
 31
0.0
 44
0.6
  3
Notes\P \P1. Important: Carefully consider\P   the maximum system pressure. The\P   pressure rating of the manifold is\P   dependent on the manifold material,\P   with the port type/size a secondary\P   consideration. Manifolds\P   constructed of alu
  3
minum are not\P   rated for pressures higher than\P   3000 psi (210 bar), regardless of\P   the port type/size specified.\P2. This drawing is for reference\P   only. It is generated by an\P   automated process and does not fall\P   under Sun's docume
  1
nt control\P   process.
 40
0.1
 41
3.04
  0
LINE
  5
285
100
AcDbEntity
  8
0
100
AcDbLine
 62
7
  6
CONTINUOUS
 10
0.30125
 20
0.30125
 11
0.30125
 21
16.69875
  0
LINE
  5
286
100
AcDbEntity
  8
0
100
AcDbLine
 62
7
  6
CONTINUOUS
 10
0.30125
 20
0.30125
 11
21.69875
 21
0.30125
  0
LINE
  5
287
100
AcDbEntity
  8
0
100
AcDbLine
 62
7
  6
CONTINUOUS
 10
0.30125
 20
16.69875
 11
21.69875
 21
16.69875
  0
LINE
  5
288
100
AcDbEntity
  8
0
100
AcDbLine
 62
7
  6
CONTINUOUS
 10
21.69875
 20
0.30125
 11
21.69875
 21
16.69875
  0
LINE
  5
289
100
AcDbEntity
  8
0
100
AcDbLine
 62
7
  6
CONTINUOUS
 10
7.5245247132
 20
12.2223201446
 11
6.7480682187
 21
11.4723207191
  0
LINE
  5
28A
100
AcDbEntity
  8
0
100
AcDbLine
 62
7
  6
CONTINUOUS
 10
6.7480682187
 20
11.4723207191
 11
6.7480682187
 21
5.3135773558
  0
LINE
  5
28B
100
AcDbEntity
  8
0
100
AcDbLine
 62
7
  6
CONTINUOUS
 10
6.7480682187
 20
5.3135773558
 11
14.4754752868
 21
4.7776798554
  0
LINE
  5
28C
100
AcDbEntity
  8
0
100
AcDbLine
 62
4
  6
CONTINUOUS
 10
12.3639612004
 20
5.1655953256
 11
12.4798723039
 21
5.1575568632
  0
LINE
  5
28D
100
AcDbEntity
  8
0
100
AcDbLine
 62
4
  6
CONTINUOUS
 10
12.4074278642
 20
5.394403109
 11
12.4364056401
 21
5.3923934935
  0
LINE
  5
28E
100
AcDbEntity
  8
0
100
AcDbLine
 62
4
  6
CONTINUOUS
 10
8.8557182986
 20
11.0750139547
 11
8.8557182986
 21
10.8431917478
  0
LINE
  5
28F
100
AcDbEntity
  8
0
100
AcDbLine
 62
4
  6
CONTINUOUS
 10
8.8557182986
 20
5.640715004
 11
8.8557182986
 21
5.4088927971
  0
LINE
  5
290
100
AcDbEntity
  8
0
100
AcDbLine
 62
4
  6
CONTINUOUS
 10
9.5125480973
 20
9.5844376069
 11
9.5125480973
 21
9.4685265009
  0
LINE
  5
291
100
AcDbEntity
  8
0
100
AcDbLine
 62
4
  6
CONTINUOUS
 10
12.4364056401
 20
5.3923934935
 11
12.4653834159
 21
5.3710653653
  0
LINE
  5
292
100
AcDbEntity
  8
0
100
AcDbLine
 62
4
  6
CONTINUOUS
 10
9.6284592033
 20
9.4604880384
 11
9.6284592033
 21
9.3445769323
  0
LINE
  5
293
100
AcDbEntity
  8
0
100
AcDbLine
 62
4
  6
CONTINUOUS
 10
9.6864147563
 20
9.3405577011
 11
9.6864147563
 21
9.5723799131
  0
LINE
  5
294
100
AcDbEntity
  8
0
100
AcDbLine
 62
4
  6
CONTINUOUS
 10
9.7810755044
 20
8.1516996745
 11
9.7810755044
 21
8.3835218865
  0
LINE
  5
295
100
AcDbEntity
  8
0
100
AcDbLine
 62
4
  6
CONTINUOUS
 10
9.8023258624
 20
9.5643414506
 11
9.8023258624
 21
9.3325192386
  0
LINE
  5
296
100
AcDbEntity
  8
0
100
AcDbLine
 62
4
  6
CONTINUOUS
 10
9.8602814154
 20
9.5603222194
 11
9.8602814154
 21
9.3285000073
  0
LINE
  5
297
100
AcDbEntity
  8
0
100
AcDbLine
 62
4
  6
CONTINUOUS
 10
9.8969865966
 20
8.3423659681
 11
9.8969865966
 21
8.1767786733
  0
LINE
  5
298
100
AcDbEntity
  8
0
100
AcDbLine
 62
4
  6
CONTINUOUS
 10
12.3784500884
 20
10.8113931627
 11
12.4074278642
 21
10.8287020597
  0
LINE
  5
299
100
AcDbEntity
  8
0
100
AcDbLine
 62
4
  6
CONTINUOUS
 10
12.4653834159
 20
10.7280902378
 11
12.4074278642
 21
10.6934724368
  0
LINE
  5
29A
100
AcDbEntity
  8
0
100
AcDbLine
 62
4
  6
CONTINUOUS
 10
9.9761925214
 20
9.5522837569
 11
9.9761925214
 21
9.3204615448
  0
LINE
  5
29B
100
AcDbEntity
  8
0
100
AcDbLine
 62
4
  6
CONTINUOUS
 10
10.2080147334
 20
9.3043846198
 11
10.2080147334
 21
9.5362068319
  0
LINE
  5
29C
100
AcDbEntity
  8
0
100
AcDbLine
 62
4
  6
CONTINUOUS
 10
10.2557590808
 20
8.1187802566
 11
10.2557590808
 21
8.3506024687
  0
LINE
  5
29D
100
AcDbEntity
  8
0
100
AcDbLine
 62
4
  6
CONTINUOUS
 10
9.9908193981
 20
8.1371538861
 11
10.0570543118
 21
8.3643826912
  0
LINE
  5
29E
100
AcDbEntity
  8
0
100
AcDbLine
 62
4
  6
CONTINUOUS
 10
9.6486056631
 20
8.2602388668
 11
9.7369188883
 21
8.2099577111
  0
LINE
  5
29F
100
AcDbEntity
  8
0
100
AcDbLine
 62
4
  6
CONTINUOUS
 10
9.8638691397
 20
8.3777801284
 11
9.8969865966
 21
8.3423659681
  0
LINE
  5
2A0
100
AcDbEntity
  8
0
100
AcDbLine
 62
4
  6
CONTINUOUS
 10
10.0570543118
 20
8.3643826912
 11
10.1232892533
 21
8.1279670704
  0
LINE
  5
2A1
100
AcDbEntity
  8
0
100
AcDbLine
 62
4
  6
CONTINUOUS
 10
10.3239258395
 20
9.2963461573
 11
10.3239258395
 21
9.4122572633
  0
LINE
  5
2A2
100
AcDbEntity
  8
0
100
AcDbLine
 62
4
  6
CONTINUOUS
 10
10.3882289084
 20
8.1095934429
 11
10.3882289084
 21
8.3414156549
  0
LINE
  5
2A3
100
AcDbEntity
  8
0
100
AcDbLine
 62
4
  6
CONTINUOUS
 10
10.418586576
 20
9.2897814129
 11
10.418586576
 21
9.405692519
  0
LINE
  5
2A4
100
AcDbEntity
  8
0
100
AcDbLine
 62
4
  6
CONTINUOUS
 10
10.4213463653
 20
8.7497754473
 11
10.4213463653
 21
8.617305606
  0
LINE
  5
2A5
100
AcDbEntity
  8
0
100
AcDbLine
 62
4
  6
CONTINUOUS
 10
10.5344976821
 20
9.3976540564
 11
10.5344976821
 21
9.1658318444
  0
LINE
  5
2A6
100
AcDbEntity
  8
0
100
AcDbLine
 62
4
  6
CONTINUOUS
 10
10.5538161997
 20
8.6081187917
 11
10.5538161997
 21
8.8399410038
  0
LINE
  5
2A7
100
AcDbEntity
  8
0
100
AcDbLine
 62
4
  6
CONTINUOUS
 10
10.6117717527
 20
9.2763839754
 11
10.6117717527
 21
9.3922950814
  0
LINE
  5
2A8
100
AcDbEntity
  8
0
100
AcDbLine
 62
4
  6
CONTINUOUS
 10
10.6531685704
 20
8.7999334366
 11
10.6531685704
 21
8.7502572443
  0
LINE
  5
2A9
100
AcDbEntity
  8
0
100
AcDbLine
 62
4
  6
CONTINUOUS
 10
10.6697272919
 20
8.6828739793
 11
10.6697272919
 21
8.6331977905
  0
LINE
  5
2AA
100
AcDbEntity
  8
0
100
AcDbLine
 62
4
  6
CONTINUOUS
 10
10.4213463653
 20
8.7497754473
 11
10.487581286
 21
8.8445344107
  0
LINE
  5
2AB
100
AcDbEntity
  8
0
100
AcDbLine
 62
4
  6
CONTINUOUS
 10
12.3639612004
 20
10.793079444
 11
12.3784500884
 21
10.8113931627
  0
LINE
  5
2AC
100
AcDbEntity
  8
0
100
AcDbLine
 62
4
  6
CONTINUOUS
 10
9.8969865966
 20
8.1767786733
 11
9.8638691397
 21
8.1459579164
  0
LINE
  5
2AD
100
AcDbEntity
  8
0
100
AcDbLine
 62
4
  6
CONTINUOUS
 10
10.6531685704
 20
8.7502572443
 11
10.6200511273
 21
8.7194364899
  0
LINE
  5
2AE
100
AcDbEntity
  8
0
100
AcDbLine
 62
4
  6
CONTINUOUS
 10
11.1940870398
 20
8.0537069917
 11
11.1112933769
 21
8.0594487517
  0
LINE
  5
2AF
100
AcDbEntity
  8
0
100
AcDbLine
 62
4
  6
CONTINUOUS
 10
11.0119410477
 20
8.0663388591
 11
10.9622648278
 21
8.0697839167
  0
LINE
  5
2B0
100
AcDbEntity
  8
0
100
AcDbLine
 62
4
  6
CONTINUOUS
 10
10.8353146109
 20
8.0785879441
 11
10.7690797248
 21
8.0831813491
  0
LINE
  5
2B1
100
AcDbEntity
  8
0
100
AcDbLine
 62
4
  6
CONTINUOUS
 10
9.8638691397
 20
8.1459579164
 11
9.7810755044
 21
8.1516996745
  0
LINE
  5
2B2
100
AcDbEntity
  8
0
100
AcDbLine
 62
4
  6
CONTINUOUS
 10
10.3882289084
 20
8.1095934429
 11
10.4875812929
 21
8.1027033316
  0
LINE
  5
2B3
100
AcDbEntity
  8
0
100
AcDbLine
 62
4
  6
CONTINUOUS
 10
11.3210373672
 20
8.0449029566
 11
11.4203896965
 21
8.0380128491
  0
LINE
  5
2B4
100
AcDbEntity
  8
0
100
AcDbLine
 62
4
  6
CONTINUOUS
 10
10.0128977027
 20
8.2018576711
 11
10.101210921
 21
8.1957331286
  0
LINE
  5
2B5
100
AcDbEntity
  8
0
100
AcDbLine
 62
4
  6
CONTINUOUS
 10
10.7690797248
 20
8.0831813491
 11
10.7359622817
 21
8.1185955119
  0
LINE
  5
2B6
100
AcDbEntity
  8
0
100
AcDbLine
 62
4
  6
CONTINUOUS
 10
12.4653834159
 20
5.3710653653
 11
12.4798723039
 21
5.350742031
  0
LINE
  5
2B7
100
AcDbEntity
  8
0
100
AcDbLine
 62
4
  6
CONTINUOUS
 10
10.3551114446
 20
8.8537212254
 11
10.4213463653
 21
8.7497754473
  0
LINE
  5
2B8
100
AcDbEntity
  8
0
100
AcDbLine
 62
4
  6
CONTINUOUS
 10
10.7276828588
 20
9.500167725
 11
10.7276828588
 21
9.2683455129
  0
LINE
  5
2B9
100
AcDbEntity
  8
0
100
AcDbLine
 62
4
  6
CONTINUOUS
 10
10.7359622817
 20
8.1185955119
 11
10.7359622817
 21
8.2841828067
  0
LINE
  5
2BA
100
AcDbEntity
  8
0
100
AcDbLine
 62
4
  6
CONTINUOUS
 10
10.8049569294
 20
9.3788976439
 11
10.8049569294
 21
9.2629865379
  0
LINE
  5
2BB
100
AcDbEntity
  8
0
100
AcDbLine
 62
4
  6
CONTINUOUS
 10
10.9291473847
 20
8.1051980795
 11
10.9291473847
 21
8.2707853743
  0
LINE
  5
2BC
100
AcDbEntity
  8
0
100
AcDbLine
 62
4
  6
CONTINUOUS
 10
10.9981421062
 20
9.2495891004
 11
10.9981421062
 21
9.3268631711
  0
LINE
  5
2BD
100
AcDbEntity
  8
0
100
AcDbLine
 62
4
  6
CONTINUOUS
 10
11.0450584907
 20
8.2627469118
 11
11.0450584907
 21
8.097159617
  0
LINE
  5
2BE
100
AcDbEntity
  8
0
100
AcDbLine
 62
4
  6
CONTINUOUS
 10
10.7359622334
 20
8.5954869214
 11
10.8021971471
 21
8.8227157266
  0
LINE
  5
2BF
100
AcDbEntity
  8
0
100
AcDbLine
 62
4
  6
CONTINUOUS
 10
12.4074278642
 20
10.6934724368
 11
12.3784500884
 21
10.6568450202
  0
LINE
  5
2C0
100
AcDbEntity
  8
0
100
AcDbLine
 62
4
  6
CONTINUOUS
 10
12.4798723039
 20
10.7464039564
 11
12.4653834159
 21
10.7280902378
  0
LINE
  5
2C1
100
AcDbEntity
  8
0
100
AcDbLine
 62
4
  6
CONTINUOUS
 10
10.6697272919
 20
8.6331977905
 11
10.6366098489
 21
8.6023770327
  0
LINE
  5
2C2
100
AcDbEntity
  8
0
100
AcDbLine
 62
4
  6
CONTINUOUS
 10
10.7359622817
 20
8.2841828067
 11
10.7690797248
 21
8.3150035611
  0
LINE
  5
2C3
100
AcDbEntity
  8
0
100
AcDbLine
 62
4
  6
CONTINUOUS
 10
9.7369188883
 20
8.2982709399
 11
9.6486056631
 21
8.2602388668
  0
LINE
  5
2C4
100
AcDbEntity
  8
0
100
AcDbLine
 62
4
  6
CONTINUOUS
 10
11.3872722534
 20
8.172779393
 11
11.3210373672
 21
8.1773727979
  0
LINE
  5
2C5
100
AcDbEntity
  8
0
100
AcDbLine
 62
4
  6
CONTINUOUS
 10
10.4544638498
 20
8.2374698755
 11
10.3882289084
 21
8.2420632843
  0
LINE
  5
2C6
100
AcDbEntity
  8
0
100
AcDbLine
 62
4
  6
CONTINUOUS
 10
9.7810755044
 20
8.3835218865
 11
9.8638691397
 21
8.3777801284
  0
LINE
  5
2C7
100
AcDbEntity
  8
0
100
AcDbLine
 62
4
  6
CONTINUOUS
 10
10.1895241394
 20
8.3551958775
 11
10.321993967
 21
8.3460090637
  0
LINE
  5
2C8
100
AcDbEntity
  8
0
100
AcDbLine
 62
4
  6
CONTINUOUS
 10
10.3882289084
 20
8.3414156549
 11
10.4875812929
 21
8.3345255437
  0
LINE
  5
2C9
100
AcDbEntity
  8
0
100
AcDbLine
 62
4
  6
CONTINUOUS
 10
10.7690797248
 20
8.3150035611
 11
10.8353146109
 21
8.3104101562
  0
LINE
  5
2CA
100
AcDbEntity
  8
0
100
AcDbLine
 62
4
  6
CONTINUOUS
 10
10.9622648278
 20
8.3016061287
 11
11.0119410477
 21
8.2981610712
  0
LINE
  5
2CB
100
AcDbEntity
  8
0
100
AcDbLine
 62
4
  6
CONTINUOUS
 10
11.1112933769
 20
8.2912709637
 11
11.1940870398
 21
8.2855292037
  0
LINE
  5
2CC
100
AcDbEntity
  8
0
100
AcDbLine
 62
4
  6
CONTINUOUS
 10
11.3210373672
 20
8.2767251686
 11
11.4203896965
 21
8.2698350612
  0
LINE
  5
2CD
100
AcDbEntity
  8
0
100
AcDbLine
 62
4
  6
CONTINUOUS
 10
11.4866245826
 20
8.1769284378
 11
11.574937801
 21
8.1266472793
  0
LINE
  5
2CE
100
AcDbEntity
  8
0
100
AcDbLine
 62
4
  6
CONTINUOUS
 10
10.6200511273
 20
8.8298280129
 11
10.6531685704
 21
8.7999334366
  0
LINE
  5
2CF
100
AcDbEntity
  8
0
100
AcDbLine
 62
4
  6
CONTINUOUS
 10
10.9622648278
 20
8.0697839167
 11
10.9291473847
 21
8.1051980795
  0
LINE
  5
2D0
100
AcDbEntity
  8
0
100
AcDbLine
 62
4
  6
CONTINUOUS
 10
11.0119410477
 20
8.2981610712
 11
11.0450584907
 21
8.2627469118
  0
LINE
  5
2D1
100
AcDbEntity
  8
0
100
AcDbLine
 62
4
  6
CONTINUOUS
 10
10.6366098489
 20
8.7182881387
 11
10.6697272919
 21
8.6828739793
  0
LINE
  5
2D2
100
AcDbEntity
  8
0
100
AcDbLine
 62
4
  6
CONTINUOUS
 10
11.1940870398
 20
8.2855292037
 11
11.2272044829
 21
8.2501150443
  0
LINE
  5
2D3
100
AcDbEntity
  8
0
100
AcDbLine
 62
4
  6
CONTINUOUS
 10
10.8021971471
 20
8.8227157266
 11
10.8684320333
 21
8.5863001096
  0
LINE
  5
2D4
100
AcDbEntity
  8
0
100
AcDbLine
 62
4
  6
CONTINUOUS
 10
11.1112933769
 20
8.0594487517
 11
11.1112933769
 21
8.2912709637
  0
LINE
  5
2D5
100
AcDbEntity
  8
0
100
AcDbLine
 62
4
  6
CONTINUOUS
 10
11.1140532122
 20
9.3574617439
 11
11.1140532122
 21
9.2415506379
  0
LINE
  5
2D6
100
AcDbEntity
  8
0
100
AcDbLine
 62
4
  6
CONTINUOUS
 10
11.1913272829
 20
9.3521027689
 11
11.1913272829
 21
9.2361916629
  0
LINE
  5
2D7
100
AcDbEntity
  8
0
100
AcDbLine
 62
4
  6
CONTINUOUS
 10
11.2272044829
 20
8.2501150443
 11
11.2272044829
 21
8.0845277495
  0
LINE
  5
2D8
100
AcDbEntity
  8
0
100
AcDbLine
 62
4
  6
CONTINUOUS
 10
11.3072383889
 20
9.2281532004
 11
11.3072383889
 21
9.3440643064
  0
LINE
  5
2D9
100
AcDbEntity
  8
0
100
AcDbLine
 62
4
  6
CONTINUOUS
 10
11.3210373672
 20
8.0449029566
 11
11.3210373672
 21
8.2767251686
  0
LINE
  5
2DA
100
AcDbEntity
  8
0
100
AcDbLine
 62
4
  6
CONTINUOUS
 10
11.3845124596
 20
9.2227942254
 11
11.3845124596
 21
9.4546164374
  0
LINE
  5
2DB
100
AcDbEntity
  8
0
100
AcDbLine
 62
4
  6
CONTINUOUS
 10
10.9291473847
 20
8.2707853743
 11
10.9622648278
 21
8.3016061287
  0
LINE
  5
2DC
100
AcDbEntity
  8
0
100
AcDbLine
 62
4
  6
CONTINUOUS
 10
11.0450584907
 20
8.097159617
 11
11.0119410477
 21
8.0663388591
  0
LINE
  5
2DD
100
AcDbEntity
  8
0
100
AcDbLine
 62
4
  6
CONTINUOUS
 10
10.6366098489
 20
8.6023770327
 11
10.5538161997
 21
8.6081187917
  0
LINE
  5
2DE
100
AcDbEntity
  8
0
100
AcDbLine
 62
4
  6
CONTINUOUS
 10
10.7580405379
 20
8.6601907065
 11
10.8463537563
 21
8.654066164
  0
LINE
  5
2DF
100
AcDbEntity
  8
0
100
AcDbLine
 62
4
  6
CONTINUOUS
 10
10.5538161997
 20
8.7240298978
 11
10.6366098489
 21
8.7182881387
  0
LINE
  5
2E0
100
AcDbEntity
  8
0
100
AcDbLine
 62
4
  6
CONTINUOUS
 10
10.5538161997
 20
8.8399410038
 11
10.6034923782
 21
8.8364959491
  0
LINE
  5
2E1
100
AcDbEntity
  8
0
100
AcDbLine
 62
4
  6
CONTINUOUS
 10
10.6034923782
 20
8.8364959491
 11
10.6200511273
 21
8.8298280129
  0
LINE
  5
2E2
100
AcDbEntity
  8
0
100
AcDbLine
 62
4
  6
CONTINUOUS
 10
11.4617865302
 20
9.2174352504
 11
11.4617865302
 21
9.3333463564
  0
LINE
  5
2E3
100
AcDbEntity
  8
0
100
AcDbLine
 62
4
  6
CONTINUOUS
 10
11.5390606009
 20
9.3279873814
 11
11.5390606009
 21
9.2120762754
  0
LINE
  5
2E4
100
AcDbEntity
  8
0
100
AcDbLine
 62
4
  6
CONTINUOUS
 10
11.7322457776
 20
9.3145899439
 11
11.7322457776
 21
9.2566343909
  0
LINE
  5
2E5
100
AcDbEntity
  8
0
100
AcDbLine
 62
7
  6
CONTINUOUS
 10
15.2519317813
 20
11.6864226442
 11
14.4754752868
 21
10.9364232188
  0
LINE
  5
2E6
100
AcDbEntity
  8
0
100
AcDbLine
 62
4
  6
CONTINUOUS
 10
11.2272044829
 20
8.0845277495
 11
11.1940870398
 21
8.0537069917
  0
LINE
  5
2E7
100
AcDbEntity
  8
0
100
AcDbLine
 62
4
  6
CONTINUOUS
 10
11.574937801
 20
8.1266472793
 11
11.4866245826
 21
8.0886152091
  0
LINE
  5
2E8
100
AcDbEntity
  8
0
100
AcDbLine
 62
4
  6
CONTINUOUS
 10
10.5344976821
 20
9.1658318444
 11
10.4572236114
 21
9.1711908194
  0
LINE
  5
2E9
100
AcDbEntity
  8
0
100
AcDbLine
 62
4
  6
CONTINUOUS
 10
11.8481568837
 20
9.1906403754
 11
11.7322457776
 21
9.1986788379
  0
LINE
  5
2EA
100
AcDbEntity
  8
0
100
AcDbLine
 62
4
  6
CONTINUOUS
 10
11.1140532122
 20
9.2415506379
 11
10.9981421062
 21
9.2495891004
  0
LINE
  5
2EB
100
AcDbEntity
  8
0
100
AcDbLine
 62
4
  6
CONTINUOUS
 10
10.7276828588
 20
9.2683455129
 11
10.6117717527
 21
9.2763839754
  0
LINE
  5
2EC
100
AcDbEntity
  8
0
100
AcDbLine
 62
4
  6
CONTINUOUS
 10
10.5344976821
 20
9.2817429504
 11
10.418586576
 21
9.2897814129
  0
LINE
  5
2ED
100
AcDbEntity
  8
0
100
AcDbLine
 62
4
  6
CONTINUOUS
 10
9.8023258624
 20
9.3325192386
 11
9.6864147563
 21
9.3405577011
  0
LINE
  5
2EE
100
AcDbEntity
  8
0
100
AcDbLine
 62
4
  6
CONTINUOUS
 10
9.6284592033
 20
9.3445769323
 11
9.5125480973
 21
9.3526153948
  0
LINE
  5
2EF
100
AcDbEntity
  8
0
100
AcDbLine
 62
4
  6
CONTINUOUS
 10
11.1913272829
 20
9.2361916629
 11
11.3072383889
 21
9.2281532004
  0
LINE
  5
2F0
100
AcDbEntity
  8
0
100
AcDbLine
 62
4
  6
CONTINUOUS
 10
11.5390606009
 20
9.2120762754
 11
11.6549717069
 21
9.2040378129
  0
LINE
  5
2F1
100
AcDbEntity
  8
0
100
AcDbLine
 62
4
  6
CONTINUOUS
 10
11.8481568837
 20
9.2485959284
 11
11.8481568837
 21
9.1906403754
  0
LINE
  5
2F2
100
AcDbEntity
  8
0
100
AcDbLine
 62
4
  6
CONTINUOUS
 10
12.3784500884
 20
10.6568450202
 11
12.3639612004
 21
10.5998942762
  0
LINE
  5
2F3
100
AcDbEntity
  8
0
100
AcDbLine
 62
4
  6
CONTINUOUS
 10
11.7322457776
 20
9.2566343909
 11
11.8481568837
 21
9.2485959284
  0
LINE
  5
2F4
100
AcDbEntity
  8
0
100
AcDbLine
 62
4
  6
CONTINUOUS
 10
10.9981421062
 20
9.3268631711
 11
11.1140532122
 21
9.3188247086
  0
LINE
  5
2F5
100
AcDbEntity
  8
0
100
AcDbLine
 62
4
  6
CONTINUOUS
 10
11.1140532122
 20
9.3574617439
 11
11.0367791415
 21
9.3628207189
  0
LINE
  5
2F6
100
AcDbEntity
  8
0
100
AcDbLine
 62
4
  6
CONTINUOUS
 10
10.3239258395
 20
9.4122572633
 11
10.2080147334
 21
9.4202957258
  0
LINE
  5
2F7
100
AcDbEntity
  8
0
100
AcDbLine
 62
4
  6
CONTINUOUS
 10
9.5125480973
 20
9.4685265009
 11
9.6284592033
 21
9.4604880384
  0
LINE
  5
2F8
100
AcDbEntity
  8
0
100
AcDbLine
 62
4
  6
CONTINUOUS
 10
10.6117717527
 20
9.3922950814
 11
10.7276828588
 21
9.3842566189
  0
LINE
  5
2F9
100
AcDbEntity
  8
0
100
AcDbLine
 62
4
  6
CONTINUOUS
 10
10.8049569294
 20
9.3788976439
 11
10.9208680355
 21
9.3708591814
  0
LINE
  5
2FA
100
AcDbEntity
  8
0
100
AcDbLine
 62
4
  6
CONTINUOUS
 10
11.5390606009
 20
9.3279873814
 11
11.6549717069
 21
9.3199489189
  0
LINE
  5
2FB
100
AcDbEntity
  8
0
100
AcDbLine
 62
4
  6
CONTINUOUS
 10
11.7322457776
 20
9.3145899439
 11
11.8481568837
 21
9.3065514814
  0
LINE
  5
2FC
100
AcDbEntity
  8
0
100
AcDbLine
 62
4
  6
CONTINUOUS
 10
11.447297642
 20
9.3923067172
 11
11.4762754185
 21
9.3902971016
  0
LINE
  5
2FD
100
AcDbEntity
  8
0
100
AcDbLine
 62
4
  6
CONTINUOUS
 10
9.6284592033
 20
9.5763991444
 11
9.5125480973
 21
9.5844376069
  0
LINE
  5
2FE
100
AcDbEntity
  8
0
100
AcDbLine
 62
4
  6
CONTINUOUS
 10
9.8602814154
 20
9.5603222194
 11
9.9761925214
 21
9.5522837569
  0
LINE
  5
2FF
100
AcDbEntity
  8
0
100
AcDbLine
 62
4
  6
CONTINUOUS
 10
12.4798723039
 20
10.7850409817
 11
12.4798723039
 21
10.7464039564
  0
LINE
  5
300
100
AcDbEntity
  8
0
100
AcDbLine
 62
4
  6
CONTINUOUS
 10
12.4798723039
 20
5.350742031
 11
12.4798723039
 21
5.3121050057
  0
LINE
  5
301
100
AcDbEntity
  8
0
100
AcDbLine
 62
4
  6
CONTINUOUS
 10
12.3784500884
 20
5.2225460695
 11
12.3639612004
 21
5.1655953256
  0
LINE
  5
302
100
AcDbEntity
  8
0
100
AcDbLine
 62
4
  6
CONTINUOUS
 10
12.3639612004
 20
10.5998942762
 11
12.4798723039
 21
10.5918558139
  0
LINE
  5
303
100
AcDbEntity
  8
0
100
AcDbLine
 62
4
  6
CONTINUOUS
 10
12.4074278642
 20
10.8287020597
 11
12.4364056401
 21
10.8266924442
  0
LINE
  5
304
100
AcDbEntity
  8
0
100
AcDbLine
 62
7
  6
CONTINUOUS
 10
14.4754752868
 20
10.9364232188
 11
6.7480682187
 21
11.4723207191
  0
LINE
  5
305
100
AcDbEntity
  8
0
100
AcDbLine
 62
4
  6
CONTINUOUS
 10
12.4653834159
 20
10.8053643159
 11
12.4798723039
 21
10.7850409817
  0
LINE
  5
306
100
AcDbEntity
  8
0
100
AcDbLine
 62
4
  6
CONTINUOUS
 10
12.3639612004
 20
5.3587804933
 11
12.3784500884
 21
5.377094212
  0
LINE
  5
307
100
AcDbEntity
  8
0
100
AcDbLine
 62
4
  6
CONTINUOUS
 10
12.4364056401
 20
10.8266924442
 11
12.4653834159
 21
10.8053643159
  0
LINE
  5
308
100
AcDbEntity
  8
0
100
AcDbLine
 62
4
  6
CONTINUOUS
 10
12.4074278642
 20
5.2591734861
 11
12.3784500884
 21
5.2225460695
  0
LINE
  5
309
100
AcDbEntity
  8
0
100
AcDbLine
 62
4
  6
CONTINUOUS
 10
12.4798723039
 20
5.3121050057
 11
12.4653834159
 21
5.2937912871
  0
LINE
  5
30A
100
AcDbEntity
  8
0
100
AcDbLine
 62
4
  6
CONTINUOUS
 10
12.3784500884
 20
5.377094212
 11
12.4074278642
 21
5.394403109
  0
LINE
  5
30B
100
AcDbEntity
  8
0
100
AcDbLine
 62
7
  6
CONTINUOUS
 10
14.4754752868
 20
4.7776798554
 11
14.4754752868
 21
10.9364232188
  0
LINE
  5
30C
100
AcDbEntity
  8
0
100
AcDbLine
 62
4
  6
CONTINUOUS
 10
12.4653834159
 20
5.2937912871
 11
12.4074278642
 21
5.2591734861
  0
LINE
  5
30D
100
AcDbEntity
  8
0
100
AcDbLine
 62
7
  6
CONTINUOUS
 10
15.2519317813
 20
11.6864226442
 11
7.5245247132
 21
12.2223201446
  0
LINE
  5
30E
100
AcDbEntity
  8
0
100
AcDbLine
 62
7
  6
CONTINUOUS
 10
15.2519317813
 20
5.5276792809
 11
15.2519317813
 21
11.6864226442
  0
LINE
  5
30F
100
AcDbEntity
  8
0
100
AcDbLine
 62
7
  6
CONTINUOUS
 10
15.2519317813
 20
5.5276792809
 11
14.4754752868
 21
4.7776798554
  0
SPLINE
  5
310
100
AcDbEntity
  8
0
100
AcDbSpline
 62
7
  6
CONTINUOUS
 70
0
 71
3
 72
23
 73
19
 74
0
 42
0.0000001
 43
0.0000001
 44
0.0000000001
 40
0.0
 40
0.0
 40
0.0
 40
0.0
 40
0.0637757517
 40
0.1273453038
 40
0.1907021142
 40
0.2538559682
 40
0.3168132565
 40
0.3795821027
 40
0.442173382
 40
0.5045993411
 40
0.5668738656
 40
0.6290123776
 40
0.6910316412
 40
0.7529496359
 40
0.8147853464
 40
0.8765585919
 40
0.9382898467
 40
1.0
 40
1.0
 40
1.0
 40
1.0
 10
10.9440502567
 20
5.8069168079
 30
0.0
 10
10.9440502567
 20
5.8016093894
 30
0.0
 10
10.9437961658
 20
5.7910099154
 30
0.0
 10
10.9426496181
 20
5.7751752179
 30
0.0
 10
10.9407404946
 20
5.7594659597
 30
0.0
 10
10.9380733638
 20
5.7439192364
 30
0.0
 10
10.9346543348
 20
5.7285704282
 30
0.0
 10
10.9304912274
 20
5.713455018
 30
0.0
 10
10.9255935497
 20
5.6986078939
 30
0.0
 10
10.9199726278
 20
5.6840632545
 30
0.0
 10
10.9136414116
 20
5.6698546339
 30
0.0
 10
10.9066143746
 20
5.6560148529
 30
0.0
 10
10.8989077723
 20
5.6425758069
 30
0.0
 10
10.8905393775
 20
5.6295684697
 30
0.0
 10
10.8815284084
 20
5.6170229396
 30
0.0
 10
10.8718955896
 20
5.604968029
 30
0.0
 10
10.8616635634
 20
5.5934318739
 30
0.0
 10
10.8544570104
 20
5.5861034289
 30
0.0
 10
10.8507632535
 20
5.5825355555
 30
0.0
  0
SPLINE
  5
311
100
AcDbEntity
  8
0
100
AcDbSpline
 62
7
  6
CONTINUOUS
 70
0
 71
3
 72
23
 73
19
 74
0
 42
0.0000001
 43
0.0000001
 44
0.0000000001
 40
0.0
 40
0.0
 40
0.0
 40
0.0
 40
0.0637757517
 40
0.1273453038
 40
0.1907021142
 40
0.2538559682
 40
0.3168132565
 40
0.3795821027
 40
0.442173382
 40
0.5045993411
 40
0.5668738656
 40
0.6290123776
 40
0.6910316412
 40
0.7529496359
 40
0.8147853464
 40
0.8765585919
 40
0.9382898467
 40
1.0
 40
1.0
 40
1.0
 40
1.0
 10
10.9440502567
 20
10.3950645819
 30
0.0
 10
10.9440502567
 20
10.3897571634
 30
0.0
 10
10.9437961658
 20
10.3791576894
 30
0.0
 10
10.9426496181
 20
10.3633229919
 30
0.0
 10
10.9407404946
 20
10.3476137337
 30
0.0
 10
10.9380733638
 20
10.3320670104
 30
0.0
 10
10.9346543348
 20
10.3167182022
 30
0.0
 10
10.9304912274
 20
10.301602792
 30
0.0
 10
10.9255935497
 20
10.286755668
 30
0.0
 10
10.9199726278
 20
10.2722110285
 30
0.0
 10
10.9136414116
 20
10.2580024079
 30
0.0
 10
10.9066143746
 20
10.2441626269
 30
0.0
 10
10.8989077723
 20
10.2307235809
 30
0.0
 10
10.8905393775
 20
10.2177162437
 30
0.0
 10
10.8815284084
 20
10.2051707136
 30
0.0
 10
10.8718955896
 20
10.193115803
 30
0.0
 10
10.8616635634
 20
10.1815796479
 30
0.0
 10
10.8544570104
 20
10.1742512029
 30
0.0
 10
10.8507632535
 20
10.1706833295
 30
0.0
  0
SPLINE
  5
312
100
AcDbEntity
  8
0
100
AcDbSpline
 62
7
  6
CONTINUOUS
 70
0
 71
3
 72
60
 73
56
 74
0
 42
0.0000001
 43
0.0000001
 44
0.0000000001
 40
0.0
 40
0.0
 40
0.0
 40
0.0
 40
0.0417736946
 40
0.084036273
 40
0.1266574884
 40
0.1695051326
 40
0.2124463996
 40
0.2553480056
 40
0.2980768578
 40
0.340500534
 40
0.3824878216
 40
0.423909243
 40
0.4646375902
 40
0.5045484653
 40
0.5435208314
 40
0.5814375809
 40
0.5999649312
 40
0.618186568
 40
0.6360891978
 40
0.6536599534
 40
0.6708862834
 40
0.6877561191
 40
0.7042577531
 40
0.72038001
 40
0.7361121415
 40
0.751443978
 40
0.7663658649
 40
0.7808687762
 40
0.7949443138
 40
0.8085847706
 40
0.8217832093
 40
0.8345334736
 40
0.8468303542
 40
0.8586695603
 40
0.8700479747
 40
0.8809636125
 40
0.8914159615
 40
0.9014059734
 40
0.910936483
 40
0.9200122954
 40
0.9286406842
 40
0.9368316446
 40
0.9445984841
 40
0.9519582967
 40
0.958932651
 40
0.9655482683
 40
0.9718377143
 40
0.9778400536
 40
0.9836011758
 40
0.9864084793
 40
0.9891757987
 40
0.9919106634
 40
0.9946209114
 40
0.9973146136
 40
1.0
 40
1.0
 40
1.0
 40
1.0
 10
14.5841791961
 20
8.7463833091
 30
0.0
 10
14.5841791961
 20
8.7665316678
 30
0.0
 10
14.5844935313
 20
8.8070648178
 30
0.0
 10
14.5858831552
 20
8.8681407846
 30
0.0
 10
14.5881895849
 20
8.9297074571
 30
0.0
 10
14.5914052652
 20
8.9915610543
 30
0.0
 10
14.595519566
 20
9.0534969172
 30
0.0
 10
14.6005188894
 20
9.1153101522
 30
0.0
 10
14.6063866736
 20
9.1767962516
 30
0.0
 10
14.6131034671
 20
9.2377518062
 30
0.0
 10
14.6206469851
 20
9.2979751699
 30
0.0
 10
14.6289921839
 20
9.3572671415
 30
0.0
 10
14.6381113449
 20
9.4154316085
 30
0.0
 10
14.6479741539
 20
9.4722762778
 30
0.0
 10
14.6585478381
 20
9.5276130553
 30
0.0
 10
14.6679933686
 20
9.5726576931
 30
0.0
 10
14.6758894725
 20
9.6077947863
 30
0.0
 10
14.6819212609
 20
9.6334555171
 30
0.0
 10
14.6881032943
 20
9.658605601
 30
0.0
 10
14.6944303915
 20
9.6832242604
 30
0.0
 10
14.7008973862
 20
9.7072911253
 30
0.0
 10
14.707498829
 20
9.7307863032
 30
0.0
 10
14.7142293317
 20
9.7536903628
 30
0.0
 10
14.721083232
 20
9.7759843802
 30
0.0
 10
14.7280549179
 20
9.7976499254
 30
0.0
 10
14.735138548
 20
9.8186691078
 30
0.0
 10
14.742328294
 20
9.8390245642
 30
0.0
 10
14.7496181664
 20
9.8586994975
 30
0.0
 10
14.7570021327
 20
9.8776776752
 30
0.0
 10
14.764474085
 20
9.8959434504
 30
0.0
 10
14.7720278045
 20
9.9134817845
 30
0.0
 10
14.7796570933
 20
9.9302782347
 30
0.0
 10
14.7873555732
 20
9.9463190171
 30
0.0
 10
14.7951169839
 20
9.9615909455
 30
0.0
 10
14.8029348276
 20
9.976081549
 30
0.0
 10
14.8108028111
 20
9.989778949
 30
0.0
 10
14.8187143766
 20
10.0026720392
 30
0.0
 10
14.8266632355
 20
10.0147502978
 30
0.0
 10
14.8346428574
 20
10.0260040202
 30
0.0
 10
14.8426470175
 20
10.0364240782
 30
0.0
 10
14.8506693364
 20
10.04600217
 30
0.0
 10
14.8587037507
 20
10.0547305556
 30
0.0
 10
14.8667441903
 20
10.0626022515
 30
0.0
 10
14.8747848768
 20
10.0696107838
 30
0.0
 10
14.8828201967
 20
10.0757502206
 30
0.0
 10
14.8908446423
 20
10.0810149942
 30
0.0
 10
14.8988530838
 20
10.0853997123
 30
0.0
 10
14.9068392457
 20
10.088899064
 30
0.0
 10
14.9135298508
 20
10.0910918795
 30
0.0
 10
14.9188449794
 20
10.092382855
 30
0.0
 10
14.9227865424
 20
10.0931198594
 30
0.0
 10
14.9267161692
 20
10.0936334228
 30
0.0
 10
14.930633095
 20
10.0939234484
 30
0.0
 10
14.9345362148
 20
10.0939898597
 30
0.0
 10
14.9371302389
 20
10.0938849339
 30
0.0
 10
14.9384223555
 20
10.093795325
 30
0.0
  0
SPLINE
  5
313
100
AcDbEntity
  8
0
100
AcDbSpline
 62
7
  6
CONTINUOUS
 70
0
 71
3
 72
34
 73
30
 74
0
 42
0.0000001
 43
0.0000001
 44
0.0000000001
 40
0.0
 40
0.0
 40
0.0
 40
0.0
 40
0.0845012479
 40
0.1673000607
 40
0.2480783085
 40
0.3265283075
 40
0.4023553249
 40
0.4391977086
 40
0.4752807203
 40
0.5105719438
 40
0.5450404045
 40
0.5786562002
 40
0.6113910701
 40
0.6432180185
 40
0.6741119097
 40
0.7040491159
 40
0.7330081447
 40
0.7609693303
 40
0.7879155012
 40
0.8138317466
 40
0.8387061438
 40
0.8625296445
 40
0.8852968981
 40
0.9070063237
 40
0.9276610935
 40
0.9472694878
 40
0.9658461388
 40
0.983412804
 40
1.0
 40
1.0
 40
1.0
 40
1.0
 10
12.6671383418
 20
11.3137038299
 30
0.0
 10
12.6555460685
 20
11.3145077568
 30
0.0
 10
12.6326085856
 20
11.3163028739
 30
0.0
 10
12.5986515366
 20
11.3195945238
 30
0.0
 10
12.5655908911
 20
11.3234472908
 30
0.0
 10
12.5335656861
 20
11.3278448415
 30
0.0
 10
12.5076099334
 20
11.3319864449
 30
0.0
 10
12.4874698788
 20
11.335567703
 30
0.0
 10
12.4728509321
 20
11.3383519094
 30
0.0
 10
12.4585885574
 20
11.3412572033
 30
0.0
 10
12.4446977138
 20
11.3442804588
 30
0.0
 10
12.4311929913
 20
11.3474185664
 30
0.0
 10
12.4180885587
 20
11.3506681302
 30
0.0
 10
12.4053981687
 20
11.3540258086
 30
0.0
 10
12.3931351219
 20
11.3574879727
 30
0.0
 10
12.3813122772
 20
11.3610510586
 30
0.0
 10
12.3699420054
 20
11.364711223
 30
0.0
 10
12.3590362129
 20
11.3684646969
 30
0.0
 10
12.3486062816
 20
11.372307443
 30
0.0
 10
12.3386631085
 20
11.3762355091
 30
0.0
 10
12.3292170293
 20
11.3802446898
 30
0.0
 10
12.3202778766
 20
11.3843308781
 30
0.0
 10
12.3118548836
 20
11.3884897371
 30
0.0
 10
12.3039567689
 20
11.3927170458
 30
0.0
 10
12.2965916074
 20
11.3970083963
 30
0.0
 10
12.2897669841
 20
11.4013595017
 30
0.0
 10
12.2834897135
 20
11.4057660374
 30
0.0
 10
12.2777664976
 20
11.4102235339
 30
0.0
 10
12.2742247762
 20
11.4133131013
 30
0.0
 10
12.2725549812
 20
11.4148670083
 30
0.0
  0
SPLINE
  5
314
100
AcDbEntity
  8
0
100
AcDbSpline
 62
7
  6
CONTINUOUS
 70
0
 71
3
 72
34
 73
30
 74
0
 42
0.0000001
 43
0.0000001
 44
0.0000000001
 40
0.0
 40
0.0
 40
0.0
 40
0.0
 40
0.0845012479
 40
0.1673000607
 40
0.2480783085
 40
0.3265283075
 40
0.4023553249
 40
0.4391977086
 40
0.4752807203
 40
0.5105719438
 40
0.5450404045
 40
0.5786562002
 40
0.6113910701
 40
0.6432180185
 40
0.6741119097
 40
0.7040491159
 40
0.7330081447
 40
0.7609693303
 40
0.7879155012
 40
0.8138317466
 40
0.8387061438
 40
0.8625296445
 40
0.8852968981
 40
0.9070063237
 40
0.9276610935
 40
0.9472694878
 40
0.9658461388
 40
0.983412804
 40
1.0
 40
1.0
 40
1.0
 40
1.0
 10
9.0429845669
 20
11.5650397479
 30
0.0
 10
9.0313922935
 20
11.5658436748
 30
0.0
 10
9.0084548106
 20
11.5676387919
 30
0.0
 10
8.9744977616
 20
11.5709304417
 30
0.0
 10
8.9414371162
 20
11.5747832088
 30
0.0
 10
8.9094119111
 20
11.5791807595
 30
0.0
 10
8.8834561584
 20
11.5833223629
 30
0.0
 10
8.8633161039
 20
11.586903621
 30
0.0
 10
8.8486971571
 20
11.5896878274
 30
0.0
 10
8.8344347825
 20
11.5925931212
 30
0.0
 10
8.8205439389
 20
11.5956163767
 30
0.0
 10
8.8070392164
 20
11.5987544843
 30
0.0
 10
8.7939347838
 20
11.6020040481
 30
0.0
 10
8.7812443937
 20
11.6053617265
 30
0.0
 10
8.768981347
 20
11.6088238906
 30
0.0
 10
8.7571585022
 20
11.6123869765
 30
0.0
 10
8.7457882305
 20
11.6160471409
 30
0.0
 10
8.7348824379
 20
11.6198006148
 30
0.0
 10
8.7244525066
 20
11.623643361
 30
0.0
 10
8.7145093336
 20
11.6275714271
 30
0.0
 10
8.7050632543
 20
11.6315806077
 30
0.0
 10
8.6961241016
 20
11.6356667961
 30
0.0
 10
8.6877011087
 20
11.639825655
 30
0.0
 10
8.6798029939
 20
11.6440529637
 30
0.0
 10
8.6724378324
 20
11.6483443142
 30
0.0
 10
8.6656132091
 20
11.6526954197
 30
0.0
 10
8.6593359385
 20
11.6571019553
 30
0.0
 10
8.6536127226
 20
11.6615594518
 30
0.0
 10
8.6500710013
 20
11.6646490193
 30
0.0
 10
8.6484012063
 20
11.6662029262
 30
0.0
  0
SPLINE
  5
315
100
AcDbEntity
  8
0
100
AcDbSpline
 62
7
  6
CONTINUOUS
 70
0
 71
3
 72
39
 73
35
 74
0
 42
0.0000001
 43
0.0000001
 44
0.0000000001
 40
0.0
 40
0.0
 40
0.0
 40
0.0
 40
0.0299424689
 40
0.059909316
 40
0.0899243238
 40
0.120010106
 40
0.150187569
 40
0.1804754262
 40
0.2108897768
 40
0.2414437599
 40
0.2721472906
 40
0.3030068794
 40
0.3340255372
 40
0.3652027613
 40
0.3965346002
 40
0.4280137884
 40
0.4596299473
 40
0.4913698423
 40
0.5232176895
 40
0.5551555049
 40
0.5871634868
 40
0.6192204263
 40
0.6513041383
 40
0.683391905
 40
0.7154609283
 40
0.7474887827
 40
0.7794538622
 40
0.8113358179
 40
0.8431159726
 40
0.8747777271
 40
0.9063068788
 40
0.9376920781
 40
0.9689247389
 40
1.0
 40
1.0
 40
1.0
 40
1.0
 10
10.3727802519
 20
6.0773852454
 30
0.0
 10
10.3784871007
 20
6.0828976044
 30
0.0
 10
10.3903495927
 20
6.0934773903
 30
0.0
 10
10.4093550866
 20
6.1078905083
 30
0.0
 10
10.4294752523
 20
6.1207748729
 30
0.0
 10
10.4505976523
 20
6.1320582225
 30
0.0
 10
10.472606162
 20
6.141678909
 30
0.0
 10
10.4953793182
 20
6.1495840486
 30
0.0
 10
10.5187916282
 20
6.1557303884
 30
0.0
 10
10.5427141069
 20
6.1600843721
 30
0.0
 10
10.5670150419
 20
6.1626223497
 30
0.0
 10
10.5915607102
 20
6.1633306769
 30
0.0
 10
10.6162161174
 20
6.1622057756
 30
0.0
 10
10.6408457349
 20
6.1592541367
 30
0.0
 10
10.6653142384
 20
6.1544922703
 30
0.0
 10
10.6894872426
 20
6.1479466035
 30
0.0
 10
10.7132320295
 20
6.1396533271
 30
0.0
 10
10.7364182669
 20
6.1296581905
 30
0.0
 10
10.758918713
 20
6.1180162476
 30
0.0
 10
10.7806099058
 20
6.1047915526
 30
0.0
 10
10.8013728309
 20
6.0900568092
 30
0.0
 10
10.8210935664
 20
6.0738929731
 30
0.0
 10
10.8396639007
 20
6.0563888109
 30
0.0
 10
10.8569819194
 20
6.0376404167
 30
0.0
 10
10.8729525589
 20
6.0177506901
 30
0.0
 10
10.8874881228
 20
5.9968287765
 30
0.0
 10
10.90050876
 20
5.9749894765
 30
0.0
 10
10.9119428968
 20
5.952352618
 30
0.0
 10
10.9217276361
 20
5.9290424233
 30
0.0
 10
10.9298090805
 20
5.9051867807
 30
0.0
 10
10.9361426803
 20
5.8809167504
 30
0.0
 10
10.940693374
 20
5.8563651196
 30
0.0
 10
10.9434359742
 20
5.8316684885
 30
0.0
 10
10.9440502567
 20
5.8151513531
 30
0.0
 10
10.9440502567
 20
5.8069168079
 30
0.0
  0
SPLINE
  5
316
100
AcDbEntity
  8
0
100
AcDbSpline
 62
7
  6
CONTINUOUS
 70
0
 71
3
 72
39
 73
35
 74
0
 42
0.0000001
 43
0.0000001
 44
0.0000000001
 40
0.0
 40
0.0
 40
0.0
 40
0.0
 40
0.0299424689
 40
0.059909316
 40
0.0899243238
 40
0.120010106
 40
0.150187569
 40
0.1804754262
 40
0.2108897768
 40
0.2414437599
 40
0.2721472906
 40
0.3030068794
 40
0.3340255372
 40
0.3652027613
 40
0.3965346002
 40
0.4280137884
 40
0.4596299473
 40
0.4913698423
 40
0.5232176895
 40
0.5551555049
 40
0.5871634868
 40
0.6192204263
 40
0.6513041383
 40
0.683391905
 40
0.7154609283
 40
0.7474887827
 40
0.7794538622
 40
0.8113358179
 40
0.8431159726
 40
0.8747777271
 40
0.9063068788
 40
0.9376920781
 40
0.9689247389
 40
1.0
 40
1.0
 40
1.0
 40
1.0
 10
10.3727802519
 20
10.6655330194
 30
0.0
 10
10.3784871007
 20
10.6710453784
 30
0.0
 10
10.3903495927
 20
10.6816251643
 30
0.0
 10
10.4093550866
 20
10.6960382823
 30
0.0
 10
10.4294752523
 20
10.7089226469
 30
0.0
 10
10.4505976523
 20
10.7202059965
 30
0.0
 10
10.472606162
 20
10.729826683
 30
0.0
 10
10.4953793182
 20
10.7377318226
 30
0.0
 10
10.5187916282
 20
10.7438781624
 30
0.0
 10
10.5427141069
 20
10.7482321462
 30
0.0
 10
10.5670150419
 20
10.7507701237
 30
0.0
 10
10.5915607102
 20
10.7514784509
 30
0.0
 10
10.6162161174
 20
10.7503535496
 30
0.0
 10
10.6408457349
 20
10.7474019108
 30
0.0
 10
10.6653142384
 20
10.7426400443
 30
0.0
 10
10.6894872426
 20
10.7360943775
 30
0.0
 10
10.7132320295
 20
10.7278011011
 30
0.0
 10
10.7364182669
 20
10.7178059645
 30
0.0
 10
10.758918713
 20
10.7061640216
 30
0.0
 10
10.7806099058
 20
10.6929393266
 30
0.0
 10
10.8013728309
 20
10.6782045832
 30
0.0
 10
10.8210935664
 20
10.6620407471
 30
0.0
 10
10.8396639007
 20
10.6445365849
 30
0.0
 10
10.8569819194
 20
10.6257881907
 30
0.0
 10
10.8729525589
 20
10.6058984641
 30
0.0
 10
10.8874881228
 20
10.5849765505
 30
0.0
 10
10.90050876
 20
10.5631372505
 30
0.0
 10
10.9119428968
 20
10.5405003921
 30
0.0
 10
10.9217276361
 20
10.5171901973
 30
0.0
 10
10.9298090805
 20
10.4933345547
 30
0.0
 10
10.9361426803
 20
10.4690645244
 30
0.0
 10
10.940693374
 20
10.4445128936
 30
0.0
 10
10.9434359742
 20
10.4198162625
 30
0.0
 10
10.9440502567
 20
10.4032991271
 30
0.0
 10
10.9440502567
 20
10.3950645819
 30
0.0
  0
SPLINE
  5
317
100
AcDbEntity
  8
0
100
AcDbSpline
 62
7
  6
CONTINUOUS
 70
0
 71
3
 72
47
 73
43
 74
0
 42
0.0000001
 43
0.0000001
 44
0.0000000001
 40
0.0
 40
0.0
 40
0.0
 40
0.0
 40
0.0072739747
 40
0.0148705125
 40
0.0227980322
 40
0.0310633102
 40
0.0396715451
 40
0.0486264962
 40
0.0579308595
 40
0.067586123
 40
0.0775928765
 40
0.0879509159
 40
0.0986591272
 40
0.1097158429
 40
0.1211186916
 40
0.1328646873
 40
0.1449504378
 40
0.1573719114
 40
0.1832033684
 40
0.2103195425
 40
0.2386742359
 40
0.2682160078
 40
0.2988886839
 40
0.3306318949
 40
0.3633815102
 40
0.3970699928
 40
0.4316266883
 40
0.4669781729
 40
0.5030485688
 40
0.5397598111
 40
0.5770318872
 40
0.6147831158
 40
0.6529304266
 40
0.6913896005
 40
0.7300755038
 40
0.7689023637
 40
0.8077839649
 40
0.846634015
 40
0.8853663376
 40
0.9238943692
 40
0.9621348194
 40
1.0
 40
1.0
 40
1.0
 40
1.0
 10
13.351598965
 20
11.4148671788
 30
0.0
 10
13.3503517847
 20
11.4137065533
 30
0.0
 10
13.3477447734
 20
11.4113948599
 30
0.0
 10
13.3435994654
 20
11.4080268706
 30
0.0
 10
13.339138462
 20
11.4046862374
 30
0.0
 10
13.3343644406
 20
11.4013750133
 30
0.0
 10
13.32928015
 20
11.3980950628
 30
0.0
 10
13.3238886015
 20
11.3948482147
 30
0.0
 10
13.3181929002
 20
11.3916364452
 30
0.0
 10
13.3121964204
 20
11.3884615643
 30
0.0
 10
13.3059026787
 20
11.3853254413
 30
0.0
 10
13.2993153599
 20
11.3822299811
 30
0.0
 10
13.2924383775
 20
11.3791769292
 30
0.0
 10
13.2852757693
 20
11.3761681607
 30
0.0
 10
13.2778317762
 20
11.3732054439
 30
0.0
 10
13.2701108148
 20
11.3702905037
 30
0.0
 10
13.2621174287
 20
11.3674251267
 30
0.0
 10
13.2509567084
 20
11.3636232627
 30
0.0
 10
13.2363529355
 20
11.3590177746
 30
0.0
 10
13.2180417752
 20
11.353784634
 30
0.0
 10
13.1987657482
 20
11.3487878589
 30
0.0
 10
13.1785706053
 20
11.3440394287
 30
0.0
 10
13.157504157
 20
11.339550718
 30
0.0
 10
13.1356163884
 20
11.3353324834
 30
0.0
 10
13.1129592447
 20
11.3313948395
 30
0.0
 10
13.0895865311
 20
11.3277472385
 30
0.0
 10
13.0655537853
 20
11.3243984113
 30
0.0
 10
13.0409181353
 20
11.3213563706
 30
0.0
 10
13.0157381481
 20
11.3186284021
 30
0.0
 10
12.9900736931
 20
11.3162210494
 30
0.0
 10
12.9639858067
 20
11.3141400723
 30
0.0
 10
12.9375365425
 20
11.3123904391
 30
0.0
 10
12.9107888141
 20
11.3109763363
 30
0.0
 10
12.8838062475
 20
11.309901157
 30
0.0
 10
12.8566530306
 20
11.3091674763
 30
0.0
 10
12.8293937685
 20
11.3087770381
 30
0.0
 10
12.8020933072
 20
11.3087307714
 30
0.0
 10
12.7748165739
 20
11.3090287952
 30
0.0
 10
12.7476285912
 20
11.3096704182
 30
0.0
 10
12.7205936788
 20
11.3106540521
 30
0.0
 10
12.693776643
 20
11.311977418
 30
0.0
 10
12.6759856931
 20
11.313090264
 30
0.0
 10
12.6671383418
 20
11.3137038299
 30
0.0
  0
SPLINE
  5
318
100
AcDbEntity
  8
0
100
AcDbSpline
 62
7
  6
CONTINUOUS
 70
0
 71
3
 72
47
 73
43
 74
0
 42
0.0000001
 43
0.0000001
 44
0.0000000001
 40
0.0
 40
0.0
 40
0.0
 40
0.0
 40
0.0072739747
 40
0.0148705125
 40
0.0227980322
 40
0.0310633102
 40
0.0396715451
 40
0.0486264962
 40
0.0579308595
 40
0.067586123
 40
0.0775928765
 40
0.0879509159
 40
0.0986591272
 40
0.1097158429
 40
0.1211186916
 40
0.1328646873
 40
0.1449504378
 40
0.1573719114
 40
0.1832033684
 40
0.2103195425
 40
0.2386742359
 40
0.2682160078
 40
0.2988886839
 40
0.3306318949
 40
0.3633815102
 40
0.3970699928
 40
0.4316266883
 40
0.4669781729
 40
0.5030485688
 40
0.5397598111
 40
0.5770318872
 40
0.6147831158
 40
0.6529304266
 40
0.6913896005
 40
0.7300755038
 40
0.7689023637
 40
0.8077839649
 40
0.846634015
 40
0.8853663376
 40
0.9238943692
 40
0.9621348194
 40
1.0
 40
1.0
 40
1.0
 40
1.0
 10
9.72744519
 20
11.6662030968
 30
0.0
 10
9.7261980098
 20
11.6650424712
 30
0.0
 10
9.7235909984
 20
11.6627307778
 30
0.0
 10
9.7194456904
 20
11.6593627886
 30
0.0
 10
9.7149846871
 20
11.6560221554
 30
0.0
 10
9.7102106657
 20
11.6527109313
 30
0.0
 10
9.705126375
 20
11.6494309807
 30
0.0
 10
9.6997348265
 20
11.6461841327
 30
0.0
 10
9.6940391253
 20
11.6429723632
 30
0.0
 10
9.6880426454
 20
11.6397974822
 30
0.0
 10
9.6817489038
 20
11.6366613592
 30
0.0
 10
9.675161585
 20
11.6335658991
 30
0.0
 10
9.6682846025
 20
11.6305128471
 30
0.0
 10
9.6611219944
 20
11.6275040787
 30
0.0
 10
9.6536780012
 20
11.6245413619
 30
0.0
 10
9.6459570398
 20
11.6216264217
 30
0.0
 10
9.6379636538
 20
11.6187610446
 30
0.0
 10
9.6268029334
 20
11.6149591806
 30
0.0
 10
9.6121991605
 20
11.6103536925
 30
0.0
 10
9.5938880002
 20
11.605120552
 30
0.0
 10
9.5746119732
 20
11.6001237769
 30
0.0
 10
9.5544168304
 20
11.5953753466
 30
0.0
 10
9.533350382
 20
11.5908866359
 30
0.0
 10
9.5114626134
 20
11.5866684013
 30
0.0
 10
9.4888054697
 20
11.5827307575
 30
0.0
 10
9.4654327561
 20
11.5790831565
 30
0.0
 10
9.4414000103
 20
11.5757343292
 30
0.0
 10
9.4167643604
 20
11.5726922886
 30
0.0
 10
9.3915843732
 20
11.5699643201
 30
0.0
 10
9.3659199181
 20
11.5675569673
 30
0.0
 10
9.3398320318
 20
11.5654759902
 30
0.0
 10
9.3133827675
 20
11.5637263571
 30
0.0
 10
9.2866350391
 20
11.5623122543
 30
0.0
 10
9.2596524726
 20
11.561237075
 30
0.0
 10
9.2324992556
 20
11.5605033943
 30
0.0
 10
9.2052399935
 20
11.5601129561
 30
0.0
 10
9.1779395322
 20
11.5600666894
 30
0.0
 10
9.150662799
 20
11.5603647131
 30
0.0
 10
9.1234748163
 20
11.5610063362
 30
0.0
 10
9.0964399039
 20
11.5619899701
 30
0.0
 10
9.069622868
 20
11.5633133359
 30
0.0
 10
9.0518319182
 20
11.564426182
 30
0.0
 10
9.0429845669
 20
11.5650397479
 30
0.0
  0
SPLINE
  5
319
100
AcDbEntity
  8
0
100
AcDbSpline
 62
7
  6
CONTINUOUS
 70
0
 71
3
 72
53
 73
49
 74
0
 42
0.0000001
 43
0.0000001
 44
0.0000000001
 40
0.0
 40
0.0
 40
0.0
 40
0.0
 40
0.0063158505
 40
0.0126706065
 40
0.0191024059
 40
0.025647925
 40
0.0323417594
 40
0.0392160732
 40
0.0536138138
 40
0.0611945116
 40
0.0690562199
 40
0.0772172833
 40
0.0856936463
 40
0.0944989782
 40
0.1036450547
 40
0.113141788
 40
0.1229974785
 40
0.1332190725
 40
0.143812113
 40
0.1547810712
 40
0.1661293938
 40
0.1778595131
 40
0.1899731419
 40
0.202471156
 40
0.2153537422
 40
0.2286205498
 40
0.2422705327
 40
0.2563022009
 40
0.2707135857
 40
0.2855021832
 40
0.3006651871
 40
0.3321002773
 40
0.3649893983
 40
0.3992971141
 40
0.4349834107
 40
0.4720041701
 40
0.5103115331
 40
0.5498541823
 40
0.5905776893
 40
0.6324247808
 40
0.6753355513
 40
0.7192476511
 40
0.7640964723
 40
0.8098154905
 40
0.8563363112
 40
0.9035882029
 40
0.951501464
 40
1.0
 40
1.0
 40
1.0
 40
1.0
 10
14.7889847126
 20
7.9389708795
 30
0.0
 10
14.7871593104
 20
7.939097472
 30
0.0
 10
14.7835058921
 20
7.9395008928
 30
0.0
 10
14.7780666995
 20
7.9405522866
 30
0.0
 10
14.7726638536
 20
7.9420499883
 30
0.0
 10
14.7673005598
 20
7.9439928966
 30
0.0
 10
14.7619788411
 20
7.9463796987
 30
0.0
 10
14.7548332553
 20
7.9502101603
 30
0.0
 10
14.7478816649
 20
7.9548991418
 30
0.0
 10
14.7411543561
 20
7.9603330277
 30
0.0
 10
14.7360729441
 20
7.964914399
 30
0.0
 10
14.7310457775
 20
7.9699287052
 30
0.0
 10
14.7260741864
 20
7.975374218
 30
0.0
 10
14.7211600891
 20
7.9812484934
 30
0.0
 10
14.7163053892
 20
7.9875492222
 30
0.0
 10
14.71151192
 20
7.9942737952
 30
0.0
 10
14.7067815037
 20
8.0014194704
 30
0.0
 10
14.7021160904
 20
8.008983401
 30
0.0
 10
14.6975174394
 20
8.0169624698
 30
0.0
 10
14.6929874282
 20
8.0253534599
 30
0.0
 10
14.6885279144
 20
8.034152972
 30
0.0
 10
14.6841406228
 20
8.0433573916
 30
0.0
 10
14.679827419
 20
8.052962996
 30
0.0
 10
14.675590028
 20
8.0629658462
 30
0.0
 10
14.6714301549
 20
8.0733618444
 30
0.0
 10
14.6673495833
 20
8.0841467557
 30
0.0
 10
14.663349914
 20
8.0953161362
 30
0.0
 10
14.6594328237
 20
8.1068654131
 30
0.0
 10
14.6555999619
 20
8.1187898455
 30
0.0
 10
14.6518528139
 20
8.1310845341
 30
0.0
 10
14.6469137373
 20
8.1481700241
 30
0.0
 10
14.6409793566
 20
8.1704237956
 30
0.0
 10
14.6343068974
 20
8.1982115105
 30
0.0
 10
14.6280114946
 20
8.2273482041
 30
0.0
 10
14.6221036167
 20
8.2577858816
 30
0.0
 10
14.616593113
 20
8.2894745976
 30
0.0
 10
14.6114891813
 20
8.3223622278
 30
0.0
 10
14.6068003096
 20
8.35639464
 30
0.0
 10
14.6025343079
 20
8.3915157804
 30
0.0
 10
14.5986982915
 20
8.4276677899
 30
0.0
 10
14.595298668
 20
8.4647910906
 30
0.0
 10
14.592341091
 20
8.5028244677
 30
0.0
 10
14.5898304816
 20
8.5417052098
 30
0.0
 10
14.5877710358
 20
8.5813692182
 30
0.0
 10
14.5861662229
 20
8.621750927
 30
0.0
 10
14.58501865
 20
8.6627841391
 30
0.0
 10
14.5843303449
 20
8.704400586
 30
0.0
 10
14.5841791961
 20
8.7323326326
 30
0.0
 10
14.5841791961
 20
8.7463833091
 30
0.0
  0
SPLINE
  5
31A
100
AcDbEntity
  8
0
100
AcDbSpline
 62
7
  6
CONTINUOUS
 70
0
 71
3
 72
64
 73
60
 74
0
 42
0.0000001
 43
0.0000001
 44
0.0000000001
 40
0.0
 40
0.0
 40
0.0
 40
0.0
 40
0.0082490059
 40
0.0160247798
 40
0.0233637087
 40
0.0303111358
 40
0.0369222755
 40
0.0401230866
 40
0.0432652754
 40
0.0463585893
 40
0.0494132862
 40
0.0524400493
 40
0.055449895
 40
0.0584540502
 40
0.0614638049
 40
0.0644903832
 40
0.0675448112
 40
0.0706377749
 40
0.0737795278
 40
0.0802453774
 40
0.0870157427
 40
0.0941510778
 40
0.1017015638
 40
0.1097080133
 40
0.1182027745
 40
0.1272111125
 40
0.1367520585
 40
0.1468396472
 40
0.1574834307
 40
0.1686894684
 40
0.1804605376
 40
0.1927969257
 40
0.2056964311
 40
0.2191550181
 40
0.2331666914
 40
0.247724053
 40
0.2628181109
 40
0.2784387588
 40
0.2945745607
 40
0.311213165
 40
0.3283410913
 40
0.3459440841
 40
0.3640069206
 40
0.3825137065
 40
0.4014477153
 40
0.420791629
 40
0.4606358516
 40
0.5018962577
 40
0.544413737
 40
0.5880220915
 40
0.6325491242
 40
0.6778176815
 40
0.7236466675
 40
0.7698520347
 40
0.8162477792
 40
0.8626468769
 40
0.9088623731
 40
0.954708048
 40
1.0
 40
1.0
 40
1.0
 40
1.0
 10
12.2725549812
 20
11.4148670083
 30
0.0
 10
12.270958781
 20
11.4163524281
 30
0.0
 10
12.2679453648
 20
11.4193345092
 30
0.0
 10
12.2638726215
 20
11.4239844018
 30
0.0
 10
12.2603899579
 20
11.4286707971
 30
0.0
 10
12.2575024039
 20
11.4333890953
 30
0.0
 10
12.2555751997
 20
11.4373879397
 30
0.0
 10
12.2543494822
 20
11.4405868601
 30
0.0
 10
12.2535909007
 20
11.4429645067
 30
0.0
 10
12.2529835549
 20
11.445345381
 30
0.0
 10
12.2525276328
 20
11.4477288463
 30
0.0
 10
12.2522233611
 20
11.4501141756
 30
0.0
 10
12.2520709201
 20
11.4525006372
 30
0.0
 10
12.2520703152
 20
11.4548874748
 30
0.0
 10
12.2522215322
 20
11.4572739396
 30
0.0
 10
12.2525245422
 20
11.4596592885
 30
0.0
 10
12.2529792389
 20
11.4620427581
 30
0.0
 10
12.2535854105
 20
11.4644237028
 30
0.0
 10
12.2546047305
 20
11.4676240567
 30
0.0
 10
12.2562739129
 20
11.4716289349
 30
0.0
 10
12.2588597727
 20
11.4763620437
 30
0.0
 10
12.2620431246
 20
11.4810651726
 30
0.0
 10
12.265819039
 20
11.4857339635
 30
0.0
 10
12.2701829474
 20
11.4903646188
 30
0.0
 10
12.2751298142
 20
11.4949532538
 30
0.0
 10
12.2806544547
 20
11.4994956295
 30
0.0
 10
12.2867510023
 20
11.5039875953
 30
0.0
 10
12.2934132011
 20
11.5084246106
 30
0.0
 10
12.300634039
 20
11.5128023407
 30
0.0
 10
12.3084060215
 20
11.5171161271
 30
0.0
 10
12.3167209141
 20
11.5213615969
 30
0.0
 10
12.325569971
 20
11.525534113
 30
0.0
 10
12.3349437529
 20
11.529629364
 30
0.0
 10
12.3448323038
 20
11.5336428219
 30
0.0
 10
12.3552250271
 20
11.5375702977
 30
0.0
 10
12.3661108147
 20
11.5414074273
 30
0.0
 10
12.377477968
 20
11.5451501823
 30
0.0
 10
12.3893142888
 20
11.5487943988
 30
0.0
 10
12.401607035
 20
11.5523362361
 30
0.0
 10
12.4143429822
 20
11.555771757
 30
0.0
 10
12.4275084051
 20
11.5590973296
 30
0.0
 10
12.4410891179
 20
11.5623092638
 30
0.0
 10
12.4550704759
 20
11.5654041558
 30
0.0
 10
12.4694373949
 20
11.5683785747
 30
0.0
 10
12.484174391
 20
11.571229381
 30
0.0
 10
12.5044963002
 20
11.5748975058
 30
0.0
 10
12.5307092418
 20
11.5791394996
 30
0.0
 10
12.563076692
 20
11.5836425329
 30
0.0
 10
12.5965188964
 20
11.5875872545
 30
0.0
 10
12.6308914798
 20
11.5909564659
 30
0.0
 10
12.6660461934
 20
11.5937354507
 30
0.0
 10
12.7018313158
 20
11.5959120865
 30
0.0
 10
12.7380923898
 20
11.5974768785
 30
0.0
 10
12.7746728798
 20
11.598423005
 30
0.0
 10
12.8114148576
 20
11.598746339
 30
0.0
 10
12.8481596942
 20
11.5984454758
 30
0.0
 10
12.8847487597
 20
11.5975217173
 30
0.0
 10
12.9210239674
 20
11.5959791096
 30
0.0
 10
12.9450721945
 20
11.5945318819
 30
0.0
 10
12.9570154331
 20
11.5937036154
 30
0.0
  0
SPLINE
  5
31B
100
AcDbEntity
  8
0
100
AcDbSpline
 62
7
  6
CONTINUOUS
 70
0
 71
3
 72
56
 73
52
 74
0
 42
0.0000001
 43
0.0000001
 44
0.0000000001
 40
0.0
 40
0.0
 40
0.0
 40
0.0
 40
0.0528980668
 40
0.105025473
 40
0.1562613827
 40
0.2064947586
 40
0.2556139542
 40
0.3035119694
 40
0.3500856918
 40
0.395236329
 40
0.4388700339
 40
0.4808984017
 40
0.5212391463
 40
0.5598167227
 40
0.5965631272
 40
0.6142311921
 40
0.63142001
 40
0.6481236407
 40
0.6643368994
 40
0.6800554671
 40
0.6952756619
 40
0.7099949221
 40
0.7242115879
 40
0.7379250582
 40
0.7511361472
 40
0.7638468362
 40
0.7760608037
 40
0.7877834701
 40
0.799022099
 40
0.8097864195
 40
0.8200885498
 40
0.8299435822
 40
0.8393700021
 40
0.8483898708
 40
0.857029608
 40
0.8732865356
 40
0.8809916633
 40
0.8884709238
 40
0.8957755148
 40
0.9029607857
 40
0.9100851443
 40
0.9172086697
 40
0.9243914542
 40
0.9316919942
 40
0.9391657086
 40
0.946863945
 40
0.9631035619
 40
0.971733225
 40
0.980742207
 40
0.9901570556
 40
1.0
 40
1.0
 40
1.0
 40
1.0
 10
9.3328616582
 20
11.8450395334
 30
0.0
 10
9.3417075063
 20
11.8444260717
 30
0.0
 10
9.3592623407
 20
11.8430892
 30
0.0
 10
9.3853506581
 20
11.8407350233
 30
0.0
 10
9.4109581099
 20
11.8380508425
 30
0.0
 10
9.4360218535
 20
11.8350433867
 30
0.0
 10
9.4604811835
 20
11.8317199274
 30
0.0
 10
9.484276419
 20
11.8280886579
 30
0.0
 10
9.5073496733
 20
11.8241584973
 30
0.0
 10
9.5296448099
 20
11.8199390921
 30
0.0
 10
9.5511076055
 20
11.8154408007
 30
0.0
 10
9.5716858946
 20
11.8106746632
 30
0.0
 10
9.5913297823
 20
11.805652408
 30
0.0
 10
9.6099915041
 20
11.8003863559
 30
0.0
 10
9.6248754665
 20
11.7957469804
 30
0.0
 10
9.6362501295
 20
11.7919143558
 30
0.0
 10
9.644396061
 20
11.7890247023
 30
0.0
 10
9.6522638844
 20
11.7860839686
 30
0.0
 10
9.6598488291
 20
11.7830939052
 30
0.0
 10
9.6671463125
 20
11.7800564029
 30
0.0
 10
9.6741518916
 20
11.7769732232
 30
0.0
 10
9.680861347
 20
11.773846299
 30
0.0
 10
9.6872706279
 20
11.7706775192
 30
0.0
 10
9.6933758455
 20
11.767468741
 30
0.0
 10
9.6991733628
 20
11.7642219849
 30
0.0
 10
9.7046596655
 20
11.7609391147
 30
0.0
 10
9.7098314768
 20
11.7576221125
 30
0.0
 10
9.7146857301
 20
11.7542729749
 30
0.0
 10
9.7192194706
 20
11.7508935662
 30
0.0
 10
9.7234300573
 20
11.7474859304
 30
0.0
 10
9.7273149337
 20
11.7440519596
 30
0.0
 10
9.7308717669
 20
11.7405935073
 30
0.0
 10
9.7340983671
 20
11.7371127025
 30
0.0
 10
9.7369929285
 20
11.7336107474
 30
0.0
 10
9.7403382726
 20
11.7290111756
 30
0.0
 10
9.7431111948
 20
11.7242748313
 30
0.0
 10
9.7452114008
 20
11.7194354505
 30
0.0
 10
9.7464180188
 20
11.7158589239
 30
0.0
 10
9.7472823298
 20
11.7122740269
 30
0.0
 10
9.7478033951
 20
11.7086831976
 30
0.0
 10
9.7479802716
 20
11.7050893296
 30
0.0
 10
9.7478128924
 20
11.7014954248
 30
0.0
 10
9.7473013834
 20
11.6979044628
 30
0.0
 10
9.7464464996
 20
11.6943193789
 30
0.0
 10
9.7452493594
 20
11.6907425727
 30
0.0
 10
9.7431620332
 20
11.6859030384
 30
0.0
 10
9.7404015839
 20
11.6811659737
 30
0.0
 10
9.7370682111
 20
11.6765656336
 30
0.0
 10
9.7341828509
 20
11.6730631149
 30
0.0
 10
9.7309654902
 20
11.6695817587
 30
0.0
 10
9.7286530287
 20
11.667327111
 30
0.0
 10
9.72744519
 20
11.6662030968
 30
0.0
  0
SPLINE
  5
31C
100
AcDbEntity
  8
0
100
AcDbSpline
 62
7
  6
CONTINUOUS
 70
0
 71
3
 72
41
 73
37
 74
0
 42
0.0000001
 43
0.0000001
 44
0.0000000001
 40
0.0
 40
0.0
 40
0.0
 40
0.0
 40
0.007613789
 40
0.0155503549
 40
0.0238155658
 40
0.0324139622
 40
0.0413489533
 40
0.0506226864
 40
0.0602364453
 40
0.0701906993
 40
0.0804849764
 40
0.0911182385
 40
0.1020888095
 40
0.1133943002
 40
0.1369976225
 40
0.1619007291
 40
0.1880685307
 40
0.2154600196
 40
0.2440289077
 40
0.2737243633
 40
0.3044914371
 40
0.3362713384
 40
0.3690019431
 40
0.4026181276
 40
0.4370519413
 40
0.4722329499
 40
0.5080885572
 40
0.544544176
 40
0.5815234607
 40
0.6189486253
 40
0.656740632
 40
0.6948193824
 40
0.7715116412
 40
0.848374522
 40
0.9247531184
 40
1.0
 40
1.0
 40
1.0
 40
1.0
 10
8.7852146336
 20
11.604387802
 30
0.0
 10
8.7862404952
 20
11.6052355062
 30
0.0
 10
8.7883721913
 20
11.606923086
 30
0.0
 10
8.7917318202
 20
11.6093822588
 30
0.0
 10
8.7953172039
 20
11.6118198936
 30
0.0
 10
8.7991262637
 20
11.6142345916
 30
0.0
 10
8.8031569196
 20
11.6166249703
 30
0.0
 10
8.807406863
 20
11.6189897579
 30
0.0
 10
8.8118737153
 20
11.6213276099
 30
0.0
 10
8.8165549756
 20
11.6236371644
 30
0.0
 10
8.8214479705
 20
11.6259171814
 30
0.0
 10
8.8265499449
 20
11.6281663287
 30
0.0
 10
8.8318580231
 20
11.630383326
 30
0.0
 10
8.8393136212
 20
11.6333373067
 30
0.0
 10
8.8491329016
 20
11.6369314884
 30
0.0
 10
8.8615242579
 20
11.6410371969
 30
0.0
 10
8.8746593936
 20
11.6449858008
 30
0.0
 10
8.8885084519
 20
11.6487682348
 30
0.0
 10
8.9030400619
 20
11.6523758365
 30
0.0
 10
8.9182212122
 20
11.6558003056
 30
0.0
 10
8.9340173945
 20
11.6590337427
 30
0.0
 10
8.9503926503
 20
11.6620687419
 30
0.0
 10
8.9673096854
 20
11.6648983322
 30
0.0
 10
8.9847299623
 20
11.6675159866
 30
0.0
 10
9.0026137733
 20
11.6699157021
 30
0.0
 10
9.0209203397
 20
11.6720919844
 30
0.0
 10
9.039607919
 20
11.6740398205
 30
0.0
 10
9.0586338898
 20
11.6757547294
 30
0.0
 10
9.077954851
 20
11.6772328012
 30
0.0
 10
9.0975267164
 20
11.6784706327
 30
0.0
 10
9.1173048723
 20
11.6794653853
 30
0.0
 10
9.143952596
 20
11.6804668211
 30
0.0
 10
9.1774454601
 20
11.6810952081
 30
0.0
 10
9.2176380916
 20
11.680858148
 30
0.0
 10
9.25755994
 20
11.6796337893
 30
0.0
 10
9.2840240377
 20
11.6781517061
 30
0.0
 10
9.2971446594
 20
11.6772417879
 30
0.0
  0
SPLINE
  5
31D
100
AcDbEntity
  8
0
100
AcDbSpline
 62
7
  6
CONTINUOUS
 70
0
 71
3
 72
50
 73
46
 74
0
 42
0.0000001
 43
0.0000001
 44
0.0000000001
 40
0.0
 40
0.0
 40
0.0
 40
0.0
 40
0.0460291729
 40
0.0915565093
 40
0.1365198084
 40
0.1808640035
 40
0.2245328064
 40
0.2674710499
 40
0.3096252323
 40
0.3509431478
 40
0.3913741201
 40
0.4308691057
 40
0.4693809051
 40
0.5068642612
 40
0.5432759487
 40
0.5785750715
 40
0.6127232049
 40
0.645684523
 40
0.6774261809
 40
0.7079185704
 40
0.7371355522
 40
0.765055002
 40
0.7916593007
 40
0.8044645069
 40
0.8169367054
 40
0.8290751982
 40
0.8408797708
 40
0.8523507106
 40
0.8634887099
 40
0.874295076
 40
0.8847717504
 40
0.894921241
 40
0.904746857
 40
0.9142527366
 40
0.923443819
 40
0.9323261064
 40
0.9409067094
 40
0.9491938664
 40
0.9571972305
 40
0.9649279323
 40
0.9723986416
 40
0.9796238509
 40
0.9866199278
 40
0.9934051699
 40
1.0
 40
1.0
 40
1.0
 40
1.0
 10
15.0833404683
 20
9.290536101
 30
0.0
 10
15.0833404683
 20
9.3034012516
 30
0.0
 10
15.083213656
 20
9.3289914845
 30
0.0
 10
15.0826368019
 20
9.367145042
 30
0.0
 10
15.081674971
 20
9.404819798
 30
0.0
 10
15.0803295738
 20
9.4419630302
 30
0.0
 10
15.0786024891
 20
9.4785238851
 30
0.0
 10
15.0764961234
 20
9.5144517474
 30
0.0
 10
15.0740133971
 20
9.5496969398
 30
0.0
 10
15.0711577906
 20
9.5842108054
 30
0.0
 10
15.0679332971
 20
9.6179456642
 30
0.0
 10
15.0643443761
 20
9.6508549205
 30
0.0
 10
15.0603960496
 20
9.68289314
 30
0.0
 10
15.0560938391
 20
9.7140161005
 30
0.0
 10
15.0514437024
 20
9.7441808497
 30
0.0
 10
15.0464521362
 20
9.7733457854
 30
0.0
 10
15.0411261215
 20
9.8014707106
 30
0.0
 10
15.0354730394
 20
9.8285168753
 30
0.0
 10
15.0295007732
 20
9.8544470683
 30
0.0
 10
15.0232176665
 20
9.8792256453
 30
0.0
 10
15.0166324135
 20
9.9028186587
 30
0.0
 10
15.0097541494
 20
9.9251936043
 30
0.0
 10
15.0037116777
 20
9.9430189049
 30
0.0
 10
14.9987277519
 20
9.9566370473
 30
0.0
 10
14.99497016
 20
9.9663969565
 30
0.0
 10
14.9911465629
 20
9.9758301046
 30
0.0
 10
14.9872582492
 20
9.9849332663
 30
0.0
 10
14.9833066116
 20
9.993703337
 30
0.0
 10
14.979292945
 20
10.0021372887
 30
0.0
 10
14.9752186282
 20
10.0102322359
 30
0.0
 10
14.9710850988
 20
10.0179854378
 30
0.0
 10
14.9668936955
 20
10.0253942156
 30
0.0
 10
14.9626458461
 20
10.0324560476
 30
0.0
 10
14.9583430253
 20
10.0391685599
 30
0.0
 10
14.9539865978
 20
10.045529425
 30
0.0
 10
14.9495780235
 20
10.0515364864
 30
0.0
 10
14.9451187931
 20
10.0571877334
 30
0.0
 10
14.9406102785
 20
10.0624811757
 30
0.0
 10
14.9360539521
 20
10.0674150066
 30
0.0
 10
14.9314513032
 20
10.0719875508
 30
0.0
 10
14.9268036966
 20
10.0761971161
 30
0.0
 10
14.9221126389
 20
10.080042188
 30
0.0
 10
14.9173795518
 20
10.0835214081
 30
0.0
 10
14.9126061225
 20
10.0866331663
 30
0.0
 10
14.9093547154
 20
10.0884864885
 30
0.0
 10
14.9077250576
 20
10.0893477681
 30
0.0
  0
SPLINE
  5
31E
100
AcDbEntity
  8
0
100
AcDbSpline
 62
7
  6
CONTINUOUS
 70
0
 71
3
 72
23
 73
19
 74
0
 42
0.0000001
 43
0.0000001
 44
0.0000000001
 40
0.0
 40
0.0
 40
0.0
 40
0.0
 40
0.0637757517
 40
0.1273453038
 40
0.1907021142
 40
0.2538559682
 40
0.3168132565
 40
0.3795821027
 40
0.442173382
 40
0.5045993411
 40
0.5668738656
 40
0.6290123776
 40
0.6910316412
 40
0.7529496359
 40
0.8147853464
 40
0.8765585919
 40
0.9382898467
 40
1.0
 40
1.0
 40
1.0
 40
1.0
 10
10.2794932488
 20
10.441151767
 30
0.0
 10
10.2794932488
 20
10.4464591855
 30
0.0
 10
10.2797473397
 20
10.4570586595
 30
0.0
 10
10.2808938874
 20
10.472893357
 30
0.0
 10
10.2828030109
 20
10.4886026152
 30
0.0
 10
10.2854701417
 20
10.5041493385
 30
0.0
 10
10.2888891706
 20
10.5194981467
 30
0.0
 10
10.2930522781
 20
10.534613557
 30
0.0
 10
10.2979499558
 20
10.549460681
 30
0.0
 10
10.3035708777
 20
10.5640053204
 30
0.0
 10
10.3099020939
 20
10.578213941
 30
0.0
 10
10.3169291308
 20
10.592053722
 30
0.0
 10
10.3246357332
 20
10.605492768
 30
0.0
 10
10.333004128
 20
10.6185001052
 30
0.0
 10
10.3420150971
 20
10.6310456353
 30
0.0
 10
10.3516479159
 20
10.6431005459
 30
0.0
 10
10.3618799421
 20
10.654636701
 30
0.0
 10
10.3690864951
 20
10.661965146
 30
0.0
 10
10.3727802519
 20
10.6655330194
 30
0.0
  0
SPLINE
  5
31F
100
AcDbEntity
  8
0
100
AcDbSpline
 62
7
  6
CONTINUOUS
 70
0
 71
3
 72
54
 73
50
 74
0
 42
0.0000001
 43
0.0000001
 44
0.0000000001
 40
0.0
 40
0.0
 40
0.0
 40
0.0
 40
0.0401068763
 40
0.0806624485
 40
0.1215558671
 40
0.1626753153
 40
0.2039080591
 40
0.2451410244
 40
0.2862611165
 40
0.3271556401
 40
0.3677126847
 40
0.4078215235
 40
0.4473730104
 40
0.4862599829
 40
0.52437767
 40
0.5616241098
 40
0.597900578
 40
0.6331120353
 40
0.6671675994
 40
0.6837350126
 40
0.6999815204
 40
0.7158971849
 40
0.7314723952
 40
0.746697971
 40
0.7615650929
 40
0.7760654329
 40
0.7901910668
 40
0.803934633
 40
0.8172892297
 40
0.8302486042
 40
0.8428070388
 40
0.854959573
 40
0.8667018851
 40
0.8780305511
 40
0.8889429314
 40
0.8994374722
 40
0.9095136134
 40
0.9191721396
 40
0.928415131
 40
0.9372463789
 40
0.9456714068
 40
0.9536979697
 40
0.9613361798
 40
0.968599106
 40
0.9755030305
 40
0.9820681388
 40
0.9883188779
 40
0.9942846314
 40
1.0
 40
1.0
 40
1.0
 40
1.0
 10
15.0833404683
 20
9.290536101
 30
0.0
 10
15.0833404683
 20
9.2716012392
 30
0.0
 10
15.0830628925
 20
9.2335191532
 30
0.0
 10
15.081834472
 20
9.1761427801
 30
0.0
 10
15.0797948201
 20
9.1183110889
 30
0.0
 10
15.0769498753
 20
9.0601933957
 30
0.0
 10
15.0733079251
 20
9.0019595869
 30
0.0
 10
15.0688796173
 20
8.9437799895
 30
0.0
 10
15.0636779076
 20
8.885824737
 30
0.0
 10
15.0577180321
 20
8.8282633138
 30
0.0
 10
15.0510174579
 20
8.7712640425
 30
0.0
 10
15.0435958353
 20
8.7149935927
 30
0.0
 10
15.0354749392
 20
8.6596164881
 30
0.0
 10
15.0266786076
 20
8.605294623
 30
0.0
 10
15.0172326726
 20
8.552186777
 30
0.0
 10
15.0071648849
 20
8.5004481662
 30
0.0
 10
14.9965048412
 20
8.4502299013
 30
0.0
 10
14.985283873
 20
8.4016788177
 30
0.0
 10
14.9754048659
 20
8.3623751059
 30
0.0
 10
14.9672342015
 20
8.3318804922
 30
0.0
 10
14.9610429817
 20
8.3097230097
 30
0.0
 10
14.9547369962
 20
8.2880854014
 30
0.0
 10
14.9483207878
 20
8.2669834654
 30
0.0
 10
14.941799123
 20
8.2464326162
 30
0.0
 10
14.9351767151
 20
8.2264478702
 30
0.0
 10
14.9284584877
 20
8.2070438107
 30
0.0
 10
14.9216492864
 20
8.188234612
 30
0.0
 10
14.9147541827
 20
8.1700339842
 30
0.0
 10
14.9077781368
 20
8.1524552154
 30
0.0
 10
14.9007263525
 20
8.135511098
 30
0.0
 10
14.8936038867
 20
8.1192139929
 30
0.0
 10
14.8864160573
 20
8.1035757313
 30
0.0
 10
14.8791679977
 20
8.0886077078
 30
0.0
 10
14.8718651177
 20
8.07432075
 30
0.0
 10
14.8645126032
 20
8.0607252491
 30
0.0
 10
14.8571159276
 20
8.0478309882
 30
0.0
 10
14.8496802981
 20
8.0356473217
 30
0.0
 10
14.8422112128
 20
8.0241829509
 30
0.0
 10
14.8347138569
 20
8.0134461665
 30
0.0
 10
14.8271936969
 20
8.0034445611
 30
0.0
 10
14.8196558337
 20
7.9941853527
 30
0.0
 10
14.8121056219
 20
7.985675026
 30
0.0
 10
14.8045479924
 20
7.9779197611
 30
0.0
 10
14.7969880912
 20
7.9709250036
 30
0.0
 10
14.7894305773
 20
7.9646960212
 30
0.0
 10
14.7818803839
 20
7.9592374433
 30
0.0
 10
14.7743417032
 20
7.9545538394
 30
0.0
 10
14.7668201825
 20
7.9506496508
 30
0.0
 10
14.7617206007
 20
7.948528062
 30
0.0
 10
14.7591836608
 20
7.9476090032
 30
0.0
  0
SPLINE
  5
320
100
AcDbEntity
  8
0
100
AcDbSpline
 62
7
  6
CONTINUOUS
 70
0
 71
3
 72
59
 73
55
 74
0
 42
0.0000001
 43
0.0000001
 44
0.0000000001
 40
0.0
 40
0.0
 40
0.0
 40
0.0
 40
0.0417247178
 40
0.0839371621
 40
0.1265076215
 40
0.169304561
 40
0.2121957846
 40
0.2550486382
 40
0.297730648
 40
0.3401100013
 40
0.3820560813
 40
0.4234399873
 40
0.464135065
 40
0.5040174425
 40
0.5429665773
 40
0.5808658176
 40
0.6176029884
 40
0.6355023606
 40
0.6530714974
 40
0.6702979379
 40
0.6871695954
 40
0.703674836
 40
0.7198024703
 40
0.7355417972
 40
0.7508826424
 40
0.765815364
 40
0.7803309443
 40
0.7944209564
 40
0.8080777143
 40
0.8212942063
 40
0.8340643044
 40
0.846382677
 40
0.8582450583
 40
0.8696481598
 40
0.8805900001
 40
0.8910698454
 40
0.9010886029
 40
0.9106488312
 40
0.919755207
 40
0.9284146584
 40
0.9366369248
 40
0.9444348681
 40
0.9518251484
 40
0.9588287432
 40
0.9654717149
 40
0.971785855
 40
0.9778093438
 40
0.9835871497
 40
0.9864008016
 40
0.98917299
 40
0.991911151
 40
0.9946230215
 40
0.997316583
 40
1.0
 40
1.0
 40
1.0
 40
1.0
 10
15.0766111787
 20
9.284036106
 30
0.0
 10
15.0766111787
 20
9.2644077828
 30
0.0
 10
15.0763055016
 20
9.2249210831
 30
0.0
 10
15.0749541162
 20
9.165422104
 30
0.0
 10
15.0727111227
 20
9.1054452134
 30
0.0
 10
15.0695838487
 20
9.0451882518
 30
0.0
 10
15.0655825916
 20
8.9848498748
 30
0.0
 10
15.0607205305
 20
8.9246289931
 30
0.0
 10
15.0550137147
 20
8.8647241413
 30
0.0
 10
15.0484809952
 20
8.8053327994
 30
0.0
 10
15.0411439694
 20
8.7466507447
 30
0.0
 10
15.0330269085
 20
8.6888714003
 30
0.0
 10
15.0241566797
 20
8.6321851858
 30
0.0
 10
15.0145626571
 20
8.5767789045
 30
0.0
 10
15.0042766355
 20
8.5228350374
 30
0.0
 10
14.9933326963
 20
8.4705314201
 30
0.0
 10
14.9836126379
 20
8.4280962523
 30
0.0
 10
14.9755229733
 20
8.3951057895
 30
0.0
 10
14.9693667827
 20
8.3710928881
 30
0.0
 10
14.9630743352
 20
8.3476154987
 30
0.0
 10
14.9566507689
 20
8.3246929489
 30
0.0
 10
14.9501014225
 20
8.3023441254
 30
0.0
 10
14.9434316942
 20
8.2805874361
 30
0.0
 10
14.9366470955
 20
8.2594407961
 30
0.0
 10
14.9297532464
 20
8.2389216123
 30
0.0
 10
14.9227558157
 20
8.2190467727
 30
0.0
 10
14.9156606258
 20
8.1998326194
 30
0.0
 10
14.9084734816
 20
8.1812949564
 30
0.0
 10
14.9012003867
 20
8.1634490006
 30
0.0
 10
14.89384726
 20
8.1463094169
 30
0.0
 10
14.8864202608
 20
8.1298902386
 30
0.0
 10
14.878925398
 20
8.1142049388
 30
0.0
 10
14.871368954
 20
8.0992663102
 30
0.0
 10
14.8637570007
 20
8.0850865834
 30
0.0
 10
14.8560958994
 20
8.0716772569
 30
0.0
 10
14.8483917493
 20
8.05904927
 30
0.0
 10
14.8406509288
 20
8.047212781
 30
0.0
 10
14.8328795119
 20
8.0361773964
 30
0.0
 10
14.8250838047
 20
8.0259519064
 30
0.0
 10
14.8172697733
 20
8.0165445679
 30
0.0
 10
14.8094435251
 20
8.0079628233
 30
0.0
 10
14.801610798
 20
8.0002136327
 30
0.0
 10
14.7937773541
 20
7.9933032291
 30
0.0
 10
14.7859485784
 20
7.9872374876
 30
0.0
 10
14.7781298774
 20
7.9820218054
 30
0.0
 10
14.7703262358
 20
7.9776614119
 30
0.0
 10
14.7625436816
 20
7.9741615336
 30
0.0
 10
14.7560218124
 20
7.9719467154
 30
0.0
 10
14.7508397476
 20
7.9706255007
 30
0.0
 10
14.7469974756
 20
7.9698601085
 30
0.0
 10
14.7431666348
 20
7.9693118975
 30
0.0
 10
14.7393479512
 20
7.9689809991
 30
0.0
 10
14.7355424919
 20
7.9688675866
 30
0.0
 10
14.7330123418
 20
7.9689371066
 30
0.0
 10
14.731751992
 20
7.9690080461
 30
0.0
  0
SPLINE
  5
321
100
AcDbEntity
  8
0
100
AcDbSpline
 62
7
  6
CONTINUOUS
 70
0
 71
3
 72
56
 73
52
 74
0
 42
0.0000001
 43
0.0000001
 44
0.0000000001
 40
0.0
 40
0.0
 40
0.0
 40
0.0
 40
0.0408893741
 40
0.0822462312
 40
0.1239508601
 40
0.1658821396
 40
0.2079181777
 40
0.2499366685
 40
0.2918153805
 40
0.3334325951
 40
0.3746675631
 40
0.4154009583
 40
0.4555153352
 40
0.4948955927
 40
0.5334294446
 40
0.5710079022
 40
0.607525774
 40
0.642882188
 40
0.660094872
 40
0.676981628
 40
0.6935313056
 40
0.7097331665
 40
0.7255768541
 40
0.7410524686
 40
0.756150548
 40
0.7708621403
 40
0.7851787989
 40
0.7990926524
 40
0.8125964186
 40
0.8256834742
 40
0.8383478931
 40
0.8505845185
 40
0.8623890338
 40
0.8737580444
 40
0.8846891901
 40
0.8951812484
 40
0.9052343036
 40
0.9148498886
 40
0.9240312321
 40
0.9327834652
 40
0.9411139748
 40
0.949032708
 40
0.9565526621
 40
0.9636903155
 40
0.9704662585
 40
0.9769057268
 40
0.9830392751
 40
0.9889032236
 40
0.9945400326
 40
0.9972890764
 40
1.0
 40
1.0
 40
1.0
 40
1.0
 10
15.0360422964
 20
9.2812226395
 30
0.0
 10
15.0360422964
 20
9.2625664466
 30
0.0
 10
15.0357605526
 20
9.2250402157
 30
0.0
 10
15.0345143089
 20
9.168498263
 30
0.0
 10
15.0324454308
 20
9.1115046516
 30
0.0
 10
15.0295602899
 20
9.0542363149
 30
0.0
 10
15.0258678151
 20
8.996870865
 30
0.0
 10
15.0213794518
 20
8.9395862519
 30
0.0
 10
15.0161091351
 20
8.8825601669
 30
0.0
 10
15.0100732414
 20
8.8259694954
 30
0.0
 10
15.0032905403
 20
8.7699897636
 30
0.0
 10
14.9957821365
 20
8.7147945896
 30
0.0
 10
14.9875714045
 20
8.6605551423
 30
0.0
 10
14.9786839189
 20
8.6074395985
 30
0.0
 10
14.9691473732
 20
8.5556126363
 30
0.0
 10
14.9589915058
 20
8.5052348375
 30
0.0
 10
14.9482479734
 20
8.4564624579
 30
0.0
 10
14.9387505948
 20
8.4169377645
 30
0.0
 10
14.9308725216
 20
8.3862421723
 30
0.0
 10
14.9248910303
 20
8.3639200499
 30
0.0
 10
14.9187885444
 20
8.3421092293
 30
0.0
 10
14.9125698142
 20
8.3208265967
 30
0.0
 10
14.9062396492
 20
8.3000886545
 30
0.0
 10
14.8998029984
 20
8.2799114669
 30
0.0
 10
14.893264839
 20
8.2603106677
 30
0.0
 10
14.8866302776
 20
8.2413014318
 30
0.0
 10
14.8799044496
 20
8.2228984775
 30
0.0
 10
14.8730926
 20
8.20511604
 30
0.0
 10
14.8662000056
 20
8.1879678728
 30
0.0
 10
14.8592320306
 20
8.1714672234
 30
0.0
 10
14.8521940739
 20
8.155626833
 30
0.0
 10
14.8450915968
 20
8.1404589159
 30
0.0
 10
14.8379300983
 20
8.1259751545
 30
0.0
 10
14.8307151101
 20
8.1121866859
 30
0.0
 10
14.8234522032
 20
8.099104089
 30
0.0
 10
14.8161469454
 20
8.0867373835
 30
0.0
 10
14.8088049413
 20
8.0750960027
 30
0.0
 10
14.8014317468
 20
8.0641888145
 30
0.0
 10
14.7940329445
 20
8.0540240745
 30
0.0
 10
14.7866140089
 20
8.0446094814
 30
0.0
 10
14.7791804179
 20
8.0359521065
 30
0.0
 10
14.771737467
 20
8.0280585064
 30
0.0
 10
14.7642904187
 20
8.0209346277
 30
0.0
 10
14.7568442843
 20
8.0145860166
 30
0.0
 10
14.7494040109
 20
8.0090176955
 30
0.0
 10
14.7419743616
 20
8.0042345222
 30
0.0
 10
14.7345599455
 20
8.0002409729
 30
0.0
 10
14.7271662141
 20
7.9970417434
 30
0.0
 10
14.720973577
 20
7.9950243571
 30
0.0
 10
14.7160527425
 20
7.9938253541
 30
0.0
 10
14.7136037706
 20
7.9933612254
 30
0.0
 10
14.7123828047
 20
7.9931634112
 30
0.0
  0
SPLINE
  5
322
100
AcDbEntity
  8
0
100
AcDbSpline
 62
7
  6
CONTINUOUS
 70
0
 71
3
 72
64
 73
60
 74
0
 42
0.0000001
 43
0.0000001
 44
0.0000000001
 40
0.0
 40
0.0
 40
0.0
 40
0.0
 40
0.0082490059
 40
0.0160247798
 40
0.0233637087
 40
0.0303111358
 40
0.0369222755
 40
0.0401230866
 40
0.0432652754
 40
0.0463585893
 40
0.0494132862
 40
0.0524400493
 40
0.055449895
 40
0.0584540502
 40
0.0614638049
 40
0.0644903832
 40
0.0675448112
 40
0.0706377749
 40
0.0737795278
 40
0.0802453774
 40
0.0870157427
 40
0.0941510778
 40
0.1017015638
 40
0.1097080133
 40
0.1182027745
 40
0.1272111125
 40
0.1367520585
 40
0.1468396472
 40
0.1574834307
 40
0.1686894684
 40
0.1804605376
 40
0.1927969257
 40
0.2056964311
 40
0.2191550181
 40
0.2331666914
 40
0.247724053
 40
0.2628181109
 40
0.2784387588
 40
0.2945745607
 40
0.311213165
 40
0.3283410913
 40
0.3459440841
 40
0.3640069206
 40
0.3825137065
 40
0.4014477153
 40
0.420791629
 40
0.4606358516
 40
0.5018962577
 40
0.544413737
 40
0.5880220915
 40
0.6325491242
 40
0.6778176815
 40
0.7236466675
 40
0.7698520347
 40
0.8162477792
 40
0.8626468769
 40
0.9088623731
 40
0.954708048
 40
1.0
 40
1.0
 40
1.0
 40
1.0
 10
8.6484012063
 20
11.6662029262
 30
0.0
 10
8.6468050061
 20
11.6676883461
 30
0.0
 10
8.6437915898
 20
11.6706704272
 30
0.0
 10
8.6397188465
 20
11.6753203197
 30
0.0
 10
8.636236183
 20
11.680006715
 30
0.0
 10
8.6333486289
 20
11.6847250133
 30
0.0
 10
8.6314214247
 20
11.6887238577
 30
0.0
 10
8.6301957073
 20
11.691922778
 30
0.0
 10
8.6294371258
 20
11.6943004246
 30
0.0
 10
8.6288297799
 20
11.6966812989
 30
0.0
 10
8.6283738578
 20
11.6990647643
 30
0.0
 10
8.6280695861
 20
11.7014500935
 30
0.0
 10
8.6279171452
 20
11.7038365552
 30
0.0
 10
8.6279165402
 20
11.7062233928
 30
0.0
 10
8.6280677572
 20
11.7086098576
 30
0.0
 10
8.6283707672
 20
11.7109952064
 30
0.0
 10
8.628825464
 20
11.713378676
 30
0.0
 10
8.6294316356
 20
11.7157596207
 30
0.0
 10
8.6304509555
 20
11.7189599746
 30
0.0
 10
8.632120138
 20
11.7229648528
 30
0.0
 10
8.6347059977
 20
11.7276979616
 30
0.0
 10
8.6378893496
 20
11.7324010906
 30
0.0
 10
8.641665264
 20
11.7370698815
 30
0.0
 10
8.6460291725
 20
11.7417005367
 30
0.0
 10
8.6509760393
 20
11.7462891717
 30
0.0
 10
8.6565006797
 20
11.7508315474
 30
0.0
 10
8.6625972274
 20
11.7553235133
 30
0.0
 10
8.6692594262
 20
11.7597605286
 30
0.0
 10
8.6764802641
 20
11.7641382587
 30
0.0
 10
8.6842522465
 20
11.7684520451
 30
0.0
 10
8.6925671392
 20
11.7726975149
 30
0.0
 10
8.701416196
 20
11.776870031
 30
0.0
 10
8.7107899779
 20
11.780965282
 30
0.0
 10
8.7206785289
 20
11.7849787399
 30
0.0
 10
8.7310712522
 20
11.7889062157
 30
0.0
 10
8.7419570398
 20
11.7927433452
 30
0.0
 10
8.753324193
 20
11.7964861002
 30
0.0
 10
8.7651605138
 20
11.8001303167
 30
0.0
 10
8.77745326
 20
11.803672154
 30
0.0
 10
8.7901892073
 20
11.8071076749
 30
0.0
 10
8.8033546302
 20
11.8104332476
 30
0.0
 10
8.816935343
 20
11.8136451817
 30
0.0
 10
8.8309167009
 20
11.8167400738
 30
0.0
 10
8.8452836199
 20
11.8197144926
 30
0.0
 10
8.8600206161
 20
11.8225652989
 30
0.0
 10
8.8803425253
 20
11.8262334238
 30
0.0
 10
8.9065554669
 20
11.8304754176
 30
0.0
 10
8.938922917
 20
11.8349784508
 30
0.0
 10
8.9723651214
 20
11.8389231725
 30
0.0
 10
9.0067377048
 20
11.8422923838
 30
0.0
 10
9.0418924185
 20
11.8450713687
 30
0.0
 10
9.0776775409
 20
11.8472480044
 30
0.0
 10
9.1139386148
 20
11.8488127965
 30
0.0
 10
9.1505191048
 20
11.849758923
 30
0.0
 10
9.1872610826
 20
11.8500822569
 30
0.0
 10
9.2240059192
 20
11.8497813937
 30
0.0
 10
9.2605949847
 20
11.8488576353
 30
0.0
 10
9.2968701924
 20
11.8473150276
 30
0.0
 10
9.3209184195
 20
11.8458677998
 30
0.0
 10
9.3328616582
 20
11.8450395334
 30
0.0
  0
SPLINE
  5
323
100
AcDbEntity
  8
0
100
AcDbSpline
 62
7
  6
CONTINUOUS
 70
0
 71
3
 72
30
 73
26
 74
0
 42
0.0000001
 43
0.0000001
 44
0.0000000001
 40
0.0
 40
0.0
 40
0.0
 40
0.0
 40
0.0663341271
 40
0.1335513228
 40
0.2013507868
 40
0.2694267988
 40
0.3374726775
 40
0.4051818063
 40
0.4722495054
 40
0.5383747798
 40
0.6032620954
 40
0.6351515028
 40
0.6666239906
 40
0.6976449898
 40
0.7281805782
 40
0.7581975862
 40
0.7876636921
 40
0.8165473896
 40
0.8448181663
 40
0.8724465223
 40
0.8994039986
 40
0.9256633881
 40
0.9511986922
 40
0.9759852671
 40
1.0
 40
1.0
 40
1.0
 40
1.0
 10
14.7698071076
 20
9.2996861125
 30
0.0
 10
14.7698071076
 20
9.2764302117
 30
0.0
 10
14.7693691188
 20
9.2296077742
 30
0.0
 10
14.7674400531
 20
9.1590396024
 30
0.0
 10
14.7642427368
 20
9.0879060432
 30
0.0
 10
14.7597923785
 20
9.0165488956
 30
0.0
 10
14.7541103436
 20
8.9453109922
 30
0.0
 10
14.747223972
 20
8.8745345339
 30
0.0
 10
14.7391664587
 20
8.8045594199
 30
0.0
 10
14.7299766455
 20
8.7357219258
 30
0.0
 10
14.7213630879
 20
8.6792599824
 30
0.0
 10
14.7139291354
 20
8.6349156233
 30
0.0
 10
14.7081318081
 20
8.602337392
 30
0.0
 10
14.7020876488
 20
8.5702869282
 30
0.0
 10
14.695803882
 20
8.5388027168
 30
0.0
 10
14.6892880748
 20
8.5079225947
 30
0.0
 10
14.6825481161
 20
8.4776836547
 30
0.0
 10
14.6755920797
 20
8.4481222277
 30
0.0
 10
14.6684283727
 20
8.4192738141
 30
0.0
 10
14.661065645
 20
8.3911730552
 30
0.0
 10
14.6535127212
 20
8.3638536934
 30
0.0
 10
14.6457787597
 20
8.3373485178
 30
0.0
 10
14.6378730553
 20
8.3116893014
 30
0.0
 10
14.6298051436
 20
8.2869069341
 30
0.0
 10
14.6242351076
 20
8.2707288021
 30
0.0
 10
14.6214215982
 20
8.2627935579
 30
0.0
  0
SPLINE
  5
324
100
AcDbEntity
  8
0
100
AcDbSpline
 62
7
  6
CONTINUOUS
 70
0
 71
3
 72
23
 73
19
 74
0
 42
0.0000001
 43
0.0000001
 44
0.0000000001
 40
0.0
 40
0.0
 40
0.0
 40
0.0
 40
0.0639221245
 40
0.1285933709
 40
0.1938134306
 40
0.2593796516
 40
0.3250881061
 40
0.3907342665
 40
0.4561138648
 40
0.5210236818
 40
0.5852623635
 40
0.6486312328
 40
0.7109351121
 40
0.7719831556
 40
0.8315896981
 40
0.8895751295
 40
0.9457668035
 40
1.0
 40
1.0
 40
1.0
 40
1.0
 10
14.6914234531
 20
9.2793989377
 30
0.0
 10
14.6914234531
 20
9.2618921717
 30
0.0
 10
14.6911499163
 20
9.226672921
 30
0.0
 10
14.6899407038
 20
9.1736039091
 30
0.0
 10
14.6879337159
 20
9.1201083936
 30
0.0
 10
14.6851355659
 20
9.0663640345
 30
0.0
 10
14.6815555182
 20
9.0125491368
 30
0.0
 10
14.6772054468
 20
8.9588422802
 30
0.0
 10
14.6720998029
 20
8.9054216756
 30
0.0
 10
14.6662555632
 20
8.8524645789
 30
0.0
 10
14.6596921755
 20
8.8001466977
 30
0.0
 10
14.6524314945
 20
8.7486416025
 30
0.0
 10
14.644497711
 20
8.6981201485
 30
0.0
 10
14.635917271
 20
8.6487498908
 30
0.0
 10
14.626718797
 20
8.6006945587
 30
0.0
 10
14.6169329691
 20
8.5541133625
 30
0.0
 10
14.6065925183
 20
8.509160947
 30
0.0
 10
14.599214233
 20
8.4798292405
 30
0.0
 10
14.5954300524
 20
8.4654661828
 30
0.0
  0
SPLINE
  5
325
100
AcDbEntity
  8
0
100
AcDbSpline
 62
7
  6
CONTINUOUS
 70
0
 71
3
 72
53
 73
49
 74
0
 42
0.0000001
 43
0.0000001
 44
0.0000000001
 40
0.0
 40
0.0
 40
0.0
 40
0.0
 40
0.0484285571
 40
0.0962744932
 40
0.1434618438
 40
0.1899214935
 40
0.2355831603
 40
0.2803788193
 40
0.324242364
 40
0.367109543
 40
0.4089183697
 40
0.4496092761
 40
0.4891252744
 40
0.5274121849
 40
0.564418954
 40
0.6000979229
 40
0.6344051006
 40
0.667300552
 40
0.6987489321
 40
0.7139211834
 40
0.7287207443
 40
0.7431447601
 40
0.7571907914
 40
0.7708567463
 40
0.7841411348
 40
0.7970429142
 40
0.8095615725
 40
0.8216973223
 40
0.8334509365
 40
0.8448239759
 40
0.8558188695
 40
0.866438842
 40
0.8766882346
 40
0.886572486
 40
0.8960982243
 40
0.9052736025
 40
0.9141082583
 40
0.9226135865
 40
0.9308030066
 40
0.9386919944
 40
0.9462984496
 40
0.9607413752
 40
0.9676338434
 40
0.9743421648
 40
0.9808978752
 40
0.9873350567
 40
0.9936898587
 40
1.0
 40
1.0
 40
1.0
 40
1.0
 10
15.0766111787
 20
9.284036106
 30
0.0
 10
15.0766111787
 20
9.297715263
 30
0.0
 10
15.0764643779
 20
9.3249092572
 30
0.0
 10
15.0757959052
 20
9.3654268692
 30
0.0
 10
15.0746813902
 20
9.4053783992
 30
0.0
 10
15.0731227945
 20
9.4446976524
 30
0.0
 10
15.0711226399
 20
9.4833205227
 30
0.0
 10
15.0686842804
 20
9.5211834752
 30
0.0
 10
15.0658117726
 20
9.5582243822
 30
0.0
 10
15.0625098601
 20
9.5943824692
 30
0.0
 10
15.058784019
 20
9.6295984049
 30
0.0
 10
15.0546404461
 20
9.6638144391
 30
0.0
 10
15.0500860132
 20
9.6969744709
 30
0.0
 10
15.0451282526
 20
9.7290241447
 30
0.0
 10
15.0397753927
 20
9.7599109714
 30
0.0
 10
15.0340363233
 20
9.7895843951
 30
0.0
 10
15.0279205577
 20
9.8179959458
 30
0.0
 10
15.0214381936
 20
9.8450990444
 30
0.0
 10
15.0156729734
 20
9.8668095843
 30
0.0
 10
15.0108745856
 20
9.8834821026
 30
0.0
 10
15.0072338645
 20
9.8954825254
 30
0.0
 10
15.0035097223
 20
9.9071237801
 30
0.0
 10
14.9997037008
 20
9.9184011298
 30
0.0
 10
14.995817292
 20
9.9293099425
 30
0.0
 10
14.9918521506
 20
9.9398457811
 30
0.0
 10
14.9878098915
 20
9.9500043465
 30
0.0
 10
14.9836921102
 20
9.9597814791
 30
0.0
 10
14.9795005672
 20
9.9691732261
 30
0.0
 10
14.9752369097
 20
9.9781757517
 30
0.0
 10
14.9709028575
 20
9.9867853957
 30
0.0
 10
14.9665002262
 20
9.9949986987
 30
0.0
 10
14.962030693
 20
10.0028122975
 30
0.0
 10
14.9574960898
 20
10.0102230573
 30
0.0
 10
14.9528982329
 20
10.0172280052
 30
0.0
 10
14.9482388361
 20
10.023824261
 30
0.0
 10
14.9435197926
 20
10.0300092203
 30
0.0
 10
14.9387428811
 20
10.0357803516
 30
0.0
 10
14.9339098171
 20
10.0411352905
 30
0.0
 10
14.9290226395
 20
10.0460718006
 30
0.0
 10
14.9240825222
 20
10.0505880926
 30
0.0
 10
14.9175424968
 20
10.0559529701
 30
0.0
 10
14.9107843153
 20
10.0605968507
 30
0.0
 10
14.9038350894
 20
10.0644095447
 30
0.0
 10
14.8986603288
 20
10.0667957966
 30
0.0
 10
14.8934447978
 20
10.0687510017
 30
0.0
 10
14.8881905537
 20
10.0702741563
 30
0.0
 10
14.8829005994
 20
10.0713639951
 30
0.0
 10
14.8793454931
 20
10.0718018813
 30
0.0
 10
14.8775691045
 20
10.0719477301
 30
0.0
  0
SPLINE
  5
326
100
AcDbEntity
  8
0
100
AcDbSpline
 62
7
  6
CONTINUOUS
 70
0
 71
3
 72
52
 73
48
 74
0
 42
0.0000001
 43
0.0000001
 44
0.0000000001
 40
0.0
 40
0.0
 40
0.0
 40
0.0
 40
0.0471962227
 40
0.0938521942
 40
0.1398992661
 40
0.1852758415
 40
0.2299190381
 40
0.2737676738
 40
0.3167623369
 40
0.3588451207
 40
0.3999600386
 40
0.4400530736
 40
0.47907232
 40
0.5169682739
 40
0.553693967
 40
0.589205135
 40
0.6234605484
 40
0.6564223113
 40
0.6880560961
 40
0.7183315694
 40
0.7472229671
 40
0.7611433404
 40
0.7747103863
 40
0.7879223908
 40
0.8007781579
 40
0.8132768408
 40
0.8254181075
 40
0.8372022304
 40
0.848629956
 40
0.8597027332
 40
0.8704227479
 40
0.8807928592
 40
0.8908168795
 40
0.9004995678
 40
0.9098466591
 40
0.9188651768
 40
0.9275634138
 40
0.9359510677
 40
0.9440395569
 40
0.9518420155
 40
0.9593735122
 40
0.9666513121
 40
0.97369487
 40
0.9805260287
 40
0.9871691052
 40
0.9936507673
 40
1.0
 40
1.0
 40
1.0
 40
1.0
 10
15.0360422964
 20
9.2812226395
 30
0.0
 10
15.0360422964
 20
9.2940621237
 30
0.0
 10
15.0359102877
 20
9.3195943322
 30
0.0
 10
15.035309492
 20
9.3576491484
 30
0.0
 10
15.0343077742
 20
9.3952003947
 30
0.0
 10
15.032906744
 20
9.4321909349
 30
0.0
 10
15.0311084989
 20
9.4685655448
 30
0.0
 10
15.0289157927
 20
9.5042693682
 30
0.0
 10
15.0263319593
 20
9.5392486652
 30
0.0
 10
15.0233609025
 20
9.5734508298
 30
0.0
 10
15.020007164
 20
9.6068244082
 30
0.0
 10
15.0162758397
 20
9.6393192083
 30
0.0
 10
15.0121725692
 20
9.6708863673
 30
0.0
 10
15.0077036057
 20
9.7014784425
 30
0.0
 10
15.0028757511
 20
9.7310494798
 30
0.0
 10
14.9976963153
 20
9.7595550695
 30
0.0
 10
14.9921731615
 20
9.786952447
 30
0.0
 10
14.9863147012
 20
9.8132005436
 30
0.0
 10
14.9801298157
 20
9.8382601187
 30
0.0
 10
14.9736278419
 20
9.8620935316
 30
0.0
 10
14.9678846928
 20
9.8811320494
 30
0.0
 10
14.9631285138
 20
9.8957140661
 30
0.0
 10
14.9595324847
 20
9.9061864004
 30
0.0
 10
14.9558646709
 20
9.9163263718
 30
0.0
 10
14.9521264915
 20
9.9261302176
 30
0.0
 10
14.9483193162
 20
9.9355942552
 30
0.0
 10
14.9444445486
 20
9.9447149387
 30
0.0
 10
14.9405037017
 20
9.9534888865
 30
0.0
 10
14.9364981857
 20
9.9619128045
 30
0.0
 10
14.9324294945
 20
9.9699835551
 30
0.0
 10
14.9282991893
 20
9.9776981625
 30
0.0
 10
14.9241087175
 20
9.9850537259
 30
0.0
 10
14.9198596482
 20
9.9920475319
 30
0.0
 10
14.9155535646
 20
9.998677013
 30
0.0
 10
14.9111919387
 20
10.0049396637
 30
0.0
 10
14.9067763903
 20
10.0108331994
 30
0.0
 10
14.9023084923
 20
10.0163554457
 30
0.0
 10
14.8977897286
 20
10.0215042783
 30
0.0
 10
14.8932217374
 20
10.0262778197
 30
0.0
 10
14.8886060579
 20
10.0306742361
 30
0.0
 10
14.8839441921
 20
10.0346917403
 30
0.0
 10
14.8792377911
 20
10.0383287917
 30
0.0
 10
14.8744883904
 20
10.0415838047
 30
0.0
 10
14.8696976239
 20
10.0444552534
 30
0.0
 10
14.8648671455
 20
10.0469418852
 30
0.0
 10
14.8599990545
 20
10.0490421958
 30
0.0
 10
14.8567002449
 20
10.0501943526
 30
0.0
 10
14.855049477
 20
10.0507027281
 30
0.0
  0
SPLINE
  5
327
100
AcDbEntity
  8
0
100
AcDbSpline
 62
7
  6
CONTINUOUS
 70
0
 71
3
 72
23
 73
19
 74
0
 42
0.0000001
 43
0.0000001
 44
0.0000000001
 40
0.0
 40
0.0
 40
0.0
 40
0.0
 40
0.0706854915
 40
0.1406392584
 40
0.2097729548
 40
0.2780094147
 40
0.3452699058
 40
0.4114764994
 40
0.476553776
 40
0.5404280658
 40
0.6030275076
 40
0.6642825197
 40
0.7241258935
 40
0.7824927907
 40
0.8393211965
 40
0.8945520014
 40
0.9481291128
 40
1.0
 40
1.0
 40
1.0
 40
1.0
 10
14.7698071076
 20
9.2996861125
 30
0.0
 10
14.7698071076
 20
9.3114455398
 30
0.0
 10
14.7696962979
 20
9.334842825
 30
0.0
 10
14.7691925009
 20
9.3697381115
 30
0.0
 10
14.7683524554
 20
9.4042194288
 30
0.0
 10
14.7671772829
 20
9.4382426416
 30
0.0
 10
14.7656685118
 20
9.4717652761
 30
0.0
 10
14.7638280206
 20
9.5047449903
 30
0.0
 10
14.7616581535
 20
9.5371401289
 30
0.0
 10
14.7591617083
 20
9.5689098672
 30
0.0
 10
14.7563418211
 20
9.60001414
 30
0.0
 10
14.7532020836
 20
9.6304137243
 30
0.0
 10
14.74974652
 20
9.660070299
 30
0.0
 10
14.7459794768
 20
9.688946486
 30
0.0
 10
14.7419057686
 20
9.7170058924
 30
0.0
 10
14.7375305899
 20
9.7442132105
 30
0.0
 10
14.7328594662
 20
9.7705340555
 30
0.0
 10
14.7294965861
 20
9.7877524525
 30
0.0
 10
14.7277631344
 20
9.7962059332
 30
0.0
  0
SPLINE
  5
328
100
AcDbEntity
  8
0
100
AcDbSpline
 62
7
  6
CONTINUOUS
 70
0
 71
3
 72
15
 73
11
 74
0
 42
0.0000001
 43
0.0000001
 44
0.0000000001
 40
0.0
 40
0.0
 40
0.0
 40
0.0
 40
0.1336450079
 40
0.2653555351
 40
0.3948507004
 40
0.5218656769
 40
0.6461370669
 40
0.7674115816
 40
0.8854442161
 40
1.0
 40
1.0
 40
1.0
 40
1.0
 10
14.6914234531
 20
9.2793989377
 30
0.0
 10
14.6914234531
 20
9.293666608
 30
0.0
 10
14.6912440753
 20
9.3219957874
 30
0.0
 10
14.6904255198
 20
9.3641424848
 30
0.0
 10
14.6890610615
 20
9.4055669902
 30
0.0
 10
14.6871539545
 20
9.446175078
 30
0.0
 10
14.6847085186
 20
9.4858751458
 30
0.0
 10
14.681730403
 20
9.5245772562
 30
0.0
 10
14.6782264502
 20
9.5621937193
 30
0.0
 10
14.6755027785
 20
9.5868760902
 30
0.0
 10
14.6740495014
 20
9.5990191791
 30
0.0
  0
SPLINE
  5
329
100
AcDbEntity
  8
0
100
AcDbSpline
 62
7
  6
CONTINUOUS
 70
0
 71
3
 72
31
 73
27
 74
0
 42
0.0000001
 43
0.0000001
 44
0.0000000001
 40
0.0
 40
0.0
 40
0.0
 40
0.0
 40
0.0832705795
 40
0.1649269611
 40
0.2446722003
 40
0.3222225434
 40
0.3973033084
 40
0.469653777
 40
0.5390278434
 40
0.605196598
 40
0.6370136309
 40
0.6679525149
 40
0.6979906821
 40
0.7271070968
 40
0.7552824736
 40
0.7824995473
 40
0.8087429386
 40
0.8339998685
 40
0.8582597413
 40
0.8815152367
 40
0.9037618034
 40
0.9249989756
 40
0.9452300734
 40
0.9644635779
 40
0.9827133523
 40
1.0
 40
1.0
 40
1.0
 40
1.0
 10
12.9212984344
 20
11.4259058699
 30
0.0
 10
12.9297646003
 20
11.4253187393
 30
0.0
 10
12.9465232285
 20
11.4240117771
 30
0.0
 10
12.9713460087
 20
11.4216273658
 30
0.0
 10
12.9955408135
 20
11.4188452123
 30
0.0
 10
13.0190120801
 20
11.4156764735
 30
0.0
 10
13.0416674771
 20
11.4121337383
 30
0.0
 10
13.0634178213
 20
11.40823118
 30
0.0
 10
13.0841774391
 20
11.4039843405
 30
0.0
 10
13.1007937948
 20
11.4001239083
 30
0.0
 10
13.1135232831
 20
11.3968660643
 30
0.0
 10
13.122647991
 20
11.3943793033
 30
0.0
 10
13.1314663281
 20
11.391819744
 30
0.0
 10
13.139969633
 20
11.3891898899
 30
0.0
 10
13.1481495407
 20
11.3864923281
 30
0.0
 10
13.1559980273
 20
11.3837297703
 30
0.0
 10
13.1635073815
 20
11.3809048737
 30
0.0
 10
13.1706702681
 20
11.3780205176
 30
0.0
 10
13.1774796598
 20
11.3750794286
 30
0.0
 10
13.1839289475
 20
11.3720846147
 30
0.0
 10
13.1900118227
 20
11.3690388756
 30
0.0
 10
13.1957224343
 20
11.3659452857
 30
0.0
 10
13.2010552194
 20
11.3628067271
 30
0.0
 10
13.2060051404
 20
11.3596262269
 30
0.0
 10
13.210567265
 20
11.3564068508
 30
0.0
 10
13.2134235561
 20
11.3541770701
 30
0.0
 10
13.2147817078
 20
11.3530549124
 30
0.0
  0
SPLINE
  5
32A
100
AcDbEntity
  8
0
100
AcDbSpline
 62
7
  6
CONTINUOUS
 70
0
 71
3
 72
56
 73
52
 74
0
 42
0.0000001
 43
0.0000001
 44
0.0000000001
 40
0.0
 40
0.0
 40
0.0
 40
0.0
 40
0.0528980668
 40
0.105025473
 40
0.1562613827
 40
0.2064947586
 40
0.2556139542
 40
0.3035119694
 40
0.3500856918
 40
0.395236329
 40
0.4388700339
 40
0.4808984017
 40
0.5212391463
 40
0.5598167227
 40
0.5965631272
 40
0.6142311921
 40
0.63142001
 40
0.6481236407
 40
0.6643368994
 40
0.6800554671
 40
0.6952756619
 40
0.7099949221
 40
0.7242115879
 40
0.7379250582
 40
0.7511361472
 40
0.7638468362
 40
0.7760608037
 40
0.7877834701
 40
0.799022099
 40
0.8097864195
 40
0.8200885498
 40
0.8299435822
 40
0.8393700021
 40
0.8483898708
 40
0.857029608
 40
0.8732865356
 40
0.8809916633
 40
0.8884709238
 40
0.8957755148
 40
0.9029607857
 40
0.9100851443
 40
0.9172086697
 40
0.9243914542
 40
0.9316919942
 40
0.9391657086
 40
0.946863945
 40
0.9631035619
 40
0.971733225
 40
0.980742207
 40
0.9901570556
 40
1.0
 40
1.0
 40
1.0
 40
1.0
 10
12.9570154331
 20
11.5937036154
 30
0.0
 10
12.9658612813
 20
11.5930901538
 30
0.0
 10
12.9834161157
 20
11.591753282
 30
0.0
 10
13.009504433
 20
11.5893991054
 30
0.0
 10
13.0351118848
 20
11.5867149246
 30
0.0
 10
13.0601756284
 20
11.5837074687
 30
0.0
 10
13.0846349584
 20
11.5803840095
 30
0.0
 10
13.1084301939
 20
11.5767527399
 30
0.0
 10
13.1315034483
 20
11.5728225793
 30
0.0
 10
13.1537985849
 20
11.5686031741
 30
0.0
 10
13.1752613804
 20
11.5641048827
 30
0.0
 10
13.1958396696
 20
11.5593387453
 30
0.0
 10
13.2154835573
 20
11.55431649
 30
0.0
 10
13.234145279
 20
11.5490504379
 30
0.0
 10
13.2490292414
 20
11.5444110625
 30
0.0
 10
13.2604039044
 20
11.5405784379
 30
0.0
 10
13.268549836
 20
11.5376887844
 30
0.0
 10
13.2764176593
 20
11.5347480507
 30
0.0
 10
13.2840026041
 20
11.5317579872
 30
0.0
 10
13.2913000875
 20
11.5287204849
 30
0.0
 10
13.2983056666
 20
11.5256373053
 30
0.0
 10
13.305015122
 20
11.522510381
 30
0.0
 10
13.3114244028
 20
11.5193416013
 30
0.0
 10
13.3175296204
 20
11.5161328231
 30
0.0
 10
13.3233271378
 20
11.512886067
 30
0.0
 10
13.3288134404
 20
11.5096031967
 30
0.0
 10
13.3339852517
 20
11.5062861945
 30
0.0
 10
13.3388395051
 20
11.502937057
 30
0.0
 10
13.3433732456
 20
11.4995576482
 30
0.0
 10
13.3475838323
 20
11.4961500125
 30
0.0
 10
13.3514687087
 20
11.4927160417
 30
0.0
 10
13.3550255418
 20
11.4892575894
 30
0.0
 10
13.358252142
 20
11.4857767846
 30
0.0
 10
13.3611467034
 20
11.4822748295
 30
0.0
 10
13.3644920475
 20
11.4776752577
 30
0.0
 10
13.3672649698
 20
11.4729389134
 30
0.0
 10
13.3693651757
 20
11.4680995326
 30
0.0
 10
13.3705717937
 20
11.464523006
 30
0.0
 10
13.3714361047
 20
11.4609381089
 30
0.0
 10
13.37195717
 20
11.4573472797
 30
0.0
 10
13.3721340465
 20
11.4537534117
 30
0.0
 10
13.3719666673
 20
11.4501595068
 30
0.0
 10
13.3714551583
 20
11.4465685448
 30
0.0
 10
13.3706002745
 20
11.442983461
 30
0.0
 10
13.3694031343
 20
11.4394066547
 30
0.0
 10
13.3673158082
 20
11.4345671204
 30
0.0
 10
13.3645553588
 20
11.4298300558
 30
0.0
 10
13.3612219861
 20
11.4252297156
 30
0.0
 10
13.3583366258
 20
11.421727197
 30
0.0
 10
13.3551192652
 20
11.4182458407
 30
0.0
 10
13.3528068037
 20
11.415991193
 30
0.0
 10
13.351598965
 20
11.4148671788
 30
0.0
  0
SPLINE
  5
32B
100
AcDbEntity
  8
0
100
AcDbSpline
 62
7
  6
CONTINUOUS
 70
0
 71
3
 72
39
 73
35
 74
0
 42
0.0000001
 43
0.0000001
 44
0.0000000001
 40
0.0
 40
0.0
 40
0.0
 40
0.0
 40
0.0299424689
 40
0.059909316
 40
0.0899243238
 40
0.120010106
 40
0.150187569
 40
0.1804754262
 40
0.2108897768
 40
0.2414437599
 40
0.2721472906
 40
0.3030068794
 40
0.3340255372
 40
0.3652027613
 40
0.3965346002
 40
0.4280137884
 40
0.4596299473
 40
0.4913698423
 40
0.5232176895
 40
0.5551555049
 40
0.5871634868
 40
0.6192204263
 40
0.6513041383
 40
0.683391905
 40
0.7154609283
 40
0.7474887827
 40
0.7794538622
 40
0.8113358179
 40
0.8431159726
 40
0.8747777271
 40
0.9063068788
 40
0.9376920781
 40
0.9689247389
 40
1.0
 40
1.0
 40
1.0
 40
1.0
 10
10.8507632535
 20
5.5825355555
 30
0.0
 10
10.8450564048
 20
5.5770231965
 30
0.0
 10
10.8331939128
 20
5.5664434106
 30
0.0
 10
10.8141884188
 20
5.5520302926
 30
0.0
 10
10.7940682532
 20
5.539145928
 30
0.0
 10
10.7729458532
 20
5.5278625784
 30
0.0
 10
10.7509373435
 20
5.5182418919
 30
0.0
 10
10.7281641872
 20
5.5103367523
 30
0.0
 10
10.7047518773
 20
5.5041904125
 30
0.0
 10
10.6808293986
 20
5.4998364287
 30
0.0
 10
10.6565284636
 20
5.4972984512
 30
0.0
 10
10.6319827953
 20
5.496590124
 30
0.0
 10
10.6073273881
 20
5.4977150253
 30
0.0
 10
10.5826977706
 20
5.5006666641
 30
0.0
 10
10.5582292671
 20
5.5054285306
 30
0.0
 10
10.5340562629
 20
5.5119741974
 30
0.0
 10
10.510311476
 20
5.5202674738
 30
0.0
 10
10.4871252386
 20
5.5302626104
 30
0.0
 10
10.4646247925
 20
5.5419045533
 30
0.0
 10
10.4429335997
 20
5.5551292483
 30
0.0
 10
10.4221706746
 20
5.5698639917
 30
0.0
 10
10.4024499391
 20
5.5860278278
 30
0.0
 10
10.3838796048
 20
5.60353199
 30
0.0
 10
10.3665615861
 20
5.6222803842
 30
0.0
 10
10.3505909466
 20
5.6421701108
 30
0.0
 10
10.3360553827
 20
5.6630920244
 30
0.0
 10
10.3230347455
 20
5.6849313244
 30
0.0
 10
10.3116006087
 20
5.7075681828
 30
0.0
 10
10.3018158694
 20
5.7308783776
 30
0.0
 10
10.293734425
 20
5.7547340202
 30
0.0
 10
10.2874008251
 20
5.7790040505
 30
0.0
 10
10.2828501315
 20
5.8035556813
 30
0.0
 10
10.2801075313
 20
5.8282523124
 30
0.0
 10
10.2794932488
 20
5.8447694478
 30
0.0
 10
10.2794932488
 20
5.853003993
 30
0.0
  0
SPLINE
  5
32C
100
AcDbEntity
  8
0
100
AcDbSpline
 62
7
  6
CONTINUOUS
 70
0
 71
3
 72
23
 73
19
 74
0
 42
0.0000001
 43
0.0000001
 44
0.0000000001
 40
0.0
 40
0.0
 40
0.0
 40
0.0
 40
0.0637757517
 40
0.1273453038
 40
0.1907021142
 40
0.2538559682
 40
0.3168132565
 40
0.3795821027
 40
0.442173382
 40
0.5045993411
 40
0.5668738656
 40
0.6290123776
 40
0.6910316412
 40
0.7529496359
 40
0.8147853464
 40
0.8765585919
 40
0.9382898467
 40
1.0
 40
1.0
 40
1.0
 40
1.0
 10
10.2794932488
 20
5.853003993
 30
0.0
 10
10.2794932488
 20
5.8583114115
 30
0.0
 10
10.2797473397
 20
5.8689108855
 30
0.0
 10
10.2808938874
 20
5.884745583
 30
0.0
 10
10.2828030109
 20
5.9004548412
 30
0.0
 10
10.2854701417
 20
5.9160015645
 30
0.0
 10
10.2888891706
 20
5.9313503727
 30
0.0
 10
10.2930522781
 20
5.9464657829
 30
0.0
 10
10.2979499558
 20
5.9613129069
 30
0.0
 10
10.3035708777
 20
5.9758575464
 30
0.0
 10
10.3099020939
 20
5.990066167
 30
0.0
 10
10.3169291308
 20
6.003905948
 30
0.0
 10
10.3246357332
 20
6.017344994
 30
0.0
 10
10.333004128
 20
6.0303523312
 30
0.0
 10
10.3420150971
 20
6.0428978613
 30
0.0
 10
10.3516479159
 20
6.0549527719
 30
0.0
 10
10.3618799421
 20
6.066488927
 30
0.0
 10
10.3690864951
 20
6.073817372
 30
0.0
 10
10.3727802519
 20
6.0773852454
 30
0.0
  0
SPLINE
  5
32D
100
AcDbEntity
  8
0
100
AcDbSpline
 62
7
  6
CONTINUOUS
 70
0
 71
3
 72
39
 73
35
 74
0
 42
0.0000001
 43
0.0000001
 44
0.0000000001
 40
0.0
 40
0.0
 40
0.0
 40
0.0
 40
0.0299424689
 40
0.059909316
 40
0.0899243238
 40
0.120010106
 40
0.150187569
 40
0.1804754262
 40
0.2108897768
 40
0.2414437599
 40
0.2721472906
 40
0.3030068794
 40
0.3340255372
 40
0.3652027613
 40
0.3965346002
 40
0.4280137884
 40
0.4596299473
 40
0.4913698423
 40
0.5232176895
 40
0.5551555049
 40
0.5871634868
 40
0.6192204263
 40
0.6513041383
 40
0.683391905
 40
0.7154609283
 40
0.7474887827
 40
0.7794538622
 40
0.8113358179
 40
0.8431159726
 40
0.8747777271
 40
0.9063068788
 40
0.9376920781
 40
0.9689247389
 40
1.0
 40
1.0
 40
1.0
 40
1.0
 10
10.8507632535
 20
10.1706833295
 30
0.0
 10
10.8450564048
 20
10.1651709705
 30
0.0
 10
10.8331939128
 20
10.1545911846
 30
0.0
 10
10.8141884188
 20
10.1401780666
 30
0.0
 10
10.7940682532
 20
10.127293702
 30
0.0
 10
10.7729458532
 20
10.1160103524
 30
0.0
 10
10.7509373435
 20
10.1063896659
 30
0.0
 10
10.7281641872
 20
10.0984845263
 30
0.0
 10
10.7047518773
 20
10.0923381865
 30
0.0
 10
10.6808293986
 20
10.0879842028
 30
0.0
 10
10.6565284636
 20
10.0854462252
 30
0.0
 10
10.6319827953
 20
10.084737898
 30
0.0
 10
10.6073273881
 20
10.0858627993
 30
0.0
 10
10.5826977706
 20
10.0888144382
 30
0.0
 10
10.5582292671
 20
10.0935763046
 30
0.0
 10
10.5340562629
 20
10.1001219714
 30
0.0
 10
10.510311476
 20
10.1084152478
 30
0.0
 10
10.4871252386
 20
10.1184103844
 30
0.0
 10
10.4646247925
 20
10.1300523273
 30
0.0
 10
10.4429335997
 20
10.1432770223
 30
0.0
 10
10.4221706746
 20
10.1580117657
 30
0.0
 10
10.4024499391
 20
10.1741756018
 30
0.0
 10
10.3838796048
 20
10.1916797641
 30
0.0
 10
10.3665615861
 20
10.2104281582
 30
0.0
 10
10.3505909466
 20
10.2303178848
 30
0.0
 10
10.3360553827
 20
10.2512397984
 30
0.0
 10
10.3230347455
 20
10.2730790984
 30
0.0
 10
10.3116006087
 20
10.2957159569
 30
0.0
 10
10.3018158694
 20
10.3190261516
 30
0.0
 10
10.293734425
 20
10.3428817942
 30
0.0
 10
10.2874008251
 20
10.3671518245
 30
0.0
 10
10.2828501315
 20
10.3917034553
 30
0.0
 10
10.2801075313
 20
10.4164000864
 30
0.0
 10
10.2794932488
 20
10.4329172218
 30
0.0
 10
10.2794932488
 20
10.441151767
 30
0.0
  0
SPLINE
  5
32E
100
AcDbEntity
  8
0
100
AcDbSpline
 62
7
  6
CONTINUOUS
 70
0
 71
3
 72
41
 73
37
 74
0
 42
0.0000001
 43
0.0000001
 44
0.0000000001
 40
0.0
 40
0.0
 40
0.0
 40
0.0
 40
0.007613789
 40
0.0155503549
 40
0.0238155658
 40
0.0324139622
 40
0.0413489533
 40
0.0506226864
 40
0.0602364453
 40
0.0701906993
 40
0.0804849764
 40
0.0911182385
 40
0.1020888095
 40
0.1133943002
 40
0.1369976225
 40
0.1619007291
 40
0.1880685307
 40
0.2154600196
 40
0.2440289077
 40
0.2737243633
 40
0.3044914371
 40
0.3362713384
 40
0.3690019431
 40
0.4026181276
 40
0.4370519413
 40
0.4722329499
 40
0.5080885572
 40
0.544544176
 40
0.5815234607
 40
0.6189486253
 40
0.656740632
 40
0.6948193824
 40
0.7715116412
 40
0.848374522
 40
0.9247531184
 40
1.0
 40
1.0
 40
1.0
 40
1.0
 10
12.4093684085
 20
11.353051884
 30
0.0
 10
12.4103942702
 20
11.3538995883
 30
0.0
 10
12.4125259663
 20
11.355587168
 30
0.0
 10
12.4158855952
 20
11.3580463409
 30
0.0
 10
12.4194709789
 20
11.3604839757
 30
0.0
 10
12.4232800387
 20
11.3628986736
 30
0.0
 10
12.4273106946
 20
11.3652890524
 30
0.0
 10
12.431560638
 20
11.3676538399
 30
0.0
 10
12.4360274902
 20
11.369991692
 30
0.0
 10
12.4407087505
 20
11.3723012465
 30
0.0
 10
12.4456017455
 20
11.3745812635
 30
0.0
 10
12.4507037199
 20
11.3768304108
 30
0.0
 10
12.456011798
 20
11.3790474081
 30
0.0
 10
12.4634673961
 20
11.3820013888
 30
0.0
 10
12.4732866766
 20
11.3855955704
 30
0.0
 10
12.4856780329
 20
11.389701279
 30
0.0
 10
12.4988131685
 20
11.3936498829
 30
0.0
 10
12.5126622269
 20
11.3974323169
 30
0.0
 10
12.5271938369
 20
11.4010399186
 30
0.0
 10
12.5423749871
 20
11.4044643876
 30
0.0
 10
12.5581711695
 20
11.4076978248
 30
0.0
 10
12.5745464253
 20
11.410732824
 30
0.0
 10
12.5914634603
 20
11.4135624143
 30
0.0
 10
12.6088837373
 20
11.4161800686
 30
0.0
 10
12.6267675483
 20
11.4185797841
 30
0.0
 10
12.6450741146
 20
11.4207560665
 30
0.0
 10
12.663761694
 20
11.4227039025
 30
0.0
 10
12.6827876648
 20
11.4244188114
 30
0.0
 10
12.702108626
 20
11.4258968832
 30
0.0
 10
12.7216804914
 20
11.4271347147
 30
0.0
 10
12.7414586473
 20
11.4281294674
 30
0.0
 10
12.7681063709
 20
11.4291309032
 30
0.0
 10
12.801599235
 20
11.4297592901
 30
0.0
 10
12.8417918666
 20
11.42952223
 30
0.0
 10
12.881713715
 20
11.4282978714
 30
0.0
 10
12.9081778127
 20
11.4268157882
 30
0.0
 10
12.9212984344
 20
11.4259058699
 30
0.0
  0
SPLINE
  5
32F
100
AcDbEntity
  8
0
100
AcDbSpline
 62
7
  6
CONTINUOUS
 70
0
 71
3
 72
60
 73
56
 74
0
 42
0.0000001
 43
0.0000001
 44
0.0000000001
 40
0.0
 40
0.0
 40
0.0
 40
0.0
 40
0.0417736946
 40
0.084036273
 40
0.1266574884
 40
0.1695051326
 40
0.2124463996
 40
0.2553480056
 40
0.2980768578
 40
0.340500534
 40
0.3824878216
 40
0.423909243
 40
0.4646375902
 40
0.5045484653
 40
0.5435208314
 40
0.5814375809
 40
0.5999649312
 40
0.618186568
 40
0.6360891978
 40
0.6536599534
 40
0.6708862834
 40
0.6877561191
 40
0.7042577531
 40
0.72038001
 40
0.7361121415
 40
0.751443978
 40
0.7663658649
 40
0.7808687762
 40
0.7949443138
 40
0.8085847706
 40
0.8217832093
 40
0.8345334736
 40
0.8468303542
 40
0.8586695603
 40
0.8700479747
 40
0.8809636125
 40
0.8914159615
 40
0.9014059734
 40
0.910936483
 40
0.9200122954
 40
0.9286406842
 40
0.9368316446
 40
0.9445984841
 40
0.9519582967
 40
0.958932651
 40
0.9655482683
 40
0.9718377143
 40
0.9778400536
 40
0.9836011758
 40
0.9864084793
 40
0.9891757987
 40
0.9919106634
 40
0.9946209114
 40
0.9973146136
 40
1.0
 40
1.0
 40
1.0
 40
1.0
 10
15.1432278721
 20
9.2863828954
 30
0.0
 10
15.1432278721
 20
9.2662345367
 30
0.0
 10
15.1429135368
 20
9.2257013867
 30
0.0
 10
15.141523913
 20
9.1646254199
 30
0.0
 10
15.1392174833
 20
9.1030587474
 30
0.0
 10
15.1360018029
 20
9.0412051502
 30
0.0
 10
15.1318875022
 20
8.9792692873
 30
0.0
 10
15.1268881788
 20
8.9174560524
 30
0.0
 10
15.1210203946
 20
8.8559699529
 30
0.0
 10
15.1143036011
 20
8.7950143983
 30
0.0
 10
15.1067600831
 20
8.7347910346
 30
0.0
 10
15.0984148843
 20
8.675499063
 30
0.0
 10
15.0892957233
 20
8.617334596
 30
0.0
 10
15.0794329143
 20
8.5604899268
 30
0.0
 10
15.0688592301
 20
8.5051531492
 30
0.0
 10
15.0594136996
 20
8.4601085114
 30
0.0
 10
15.0515175957
 20
8.4249714183
 30
0.0
 10
15.0454858073
 20
8.3993106874
 30
0.0
 10
15.0393037739
 20
8.3741606035
 30
0.0
 10
15.0329766767
 20
8.3495419442
 30
0.0
 10
15.026509682
 20
8.3254750792
 30
0.0
 10
15.0199082392
 20
8.3019799013
 30
0.0
 10
15.0131777364
 20
8.2790758417
 30
0.0
 10
15.0063238362
 20
8.2567818243
 30
0.0
 10
14.9993521503
 20
8.2351162792
 30
0.0
 10
14.9922685202
 20
8.2140970967
 30
0.0
 10
14.9850787742
 20
8.1937416403
 30
0.0
 10
14.9777889017
 20
8.1740667071
 30
0.0
 10
14.9704049355
 20
8.1550885293
 30
0.0
 10
14.9629329832
 20
8.1368227541
 30
0.0
 10
14.9553792637
 20
8.11928442
 30
0.0
 10
14.9477499749
 20
8.1024879698
 30
0.0
 10
14.940051495
 20
8.0864471874
 30
0.0
 10
14.9322900843
 20
8.071175259
 30
0.0
 10
14.9244722406
 20
8.0566846555
 30
0.0
 10
14.916604257
 20
8.0429872556
 30
0.0
 10
14.9086926916
 20
8.0300941653
 30
0.0
 10
14.9007438327
 20
8.0180159067
 30
0.0
 10
14.8927642108
 20
8.0067621843
 30
0.0
 10
14.8847600507
 20
7.9963421263
 30
0.0
 10
14.8767377318
 20
7.9867640345
 30
0.0
 10
14.8687033175
 20
7.9780356489
 30
0.0
 10
14.8606628779
 20
7.970163953
 30
0.0
 10
14.8526221914
 20
7.9631554207
 30
0.0
 10
14.8445868714
 20
7.9570159839
 30
0.0
 10
14.8365624259
 20
7.9517512104
 30
0.0
 10
14.8285539844
 20
7.9473664922
 30
0.0
 10
14.8205678225
 20
7.9438671405
 30
0.0
 10
14.8138772174
 20
7.941674325
 30
0.0
 10
14.8085620888
 20
7.9403833496
 30
0.0
 10
14.8046205257
 20
7.9396463451
 30
0.0
 10
14.800690899
 20
7.9391327817
 30
0.0
 10
14.7967739731
 20
7.9388427561
 30
0.0
 10
14.7928708534
 20
7.9387763449
 30
0.0
 10
14.7902768293
 20
7.9388812706
 30
0.0
 10
14.7889847126
 20
7.9389708795
 30
0.0
  0
SPLINE
  5
330
100
AcDbEntity
  8
0
100
AcDbSpline
 62
7
  6
CONTINUOUS
 70
0
 71
3
 72
31
 73
27
 74
0
 42
0.0000001
 43
0.0000001
 44
0.0000000001
 40
0.0
 40
0.0
 40
0.0
 40
0.0
 40
0.0832705795
 40
0.1649269611
 40
0.2446722003
 40
0.3222225434
 40
0.3973033084
 40
0.469653777
 40
0.5390278434
 40
0.605196598
 40
0.6370136309
 40
0.6679525149
 40
0.6979906821
 40
0.7271070968
 40
0.7552824736
 40
0.7824995473
 40
0.8087429386
 40
0.8339998685
 40
0.8582597413
 40
0.8815152367
 40
0.9037618034
 40
0.9249989756
 40
0.9452300734
 40
0.9644635779
 40
0.9827133523
 40
1.0
 40
1.0
 40
1.0
 40
1.0
 10
9.2971446594
 20
11.6772417879
 30
0.0
 10
9.3056108253
 20
11.6766546573
 30
0.0
 10
9.3223694535
 20
11.675347695
 30
0.0
 10
9.3471922338
 20
11.6729632838
 30
0.0
 10
9.3713870385
 20
11.6701811302
 30
0.0
 10
9.3948583052
 20
11.6670123915
 30
0.0
 10
9.4175137022
 20
11.6634696562
 30
0.0
 10
9.4392640464
 20
11.6595670979
 30
0.0
 10
9.4600236641
 20
11.6553202584
 30
0.0
 10
9.4766400199
 20
11.6514598262
 30
0.0
 10
9.4893695082
 20
11.6482019823
 30
0.0
 10
9.4984942161
 20
11.6457152212
 30
0.0
 10
9.5073125531
 20
11.643155662
 30
0.0
 10
9.5158158581
 20
11.6405258078
 30
0.0
 10
9.5239957657
 20
11.637828246
 30
0.0
 10
9.5318442523
 20
11.6350656883
 30
0.0
 10
9.5393536066
 20
11.6322407917
 30
0.0
 10
9.5465164932
 20
11.6293564355
 30
0.0
 10
9.5533258849
 20
11.6264153465
 30
0.0
 10
9.5597751725
 20
11.6234205327
 30
0.0
 10
9.5658580477
 20
11.6203747935
 30
0.0
 10
9.5715686593
 20
11.6172812036
 30
0.0
 10
9.5769014444
 20
11.6141426451
 30
0.0
 10
9.5818513655
 20
11.6109621449
 30
0.0
 10
9.5864134901
 20
11.6077427688
 30
0.0
 10
9.5892697812
 20
11.605512988
 30
0.0
 10
9.5906279329
 20
11.6043908304
 30
0.0
  0
SPLINE
  5
331
100
AcDbEntity
  8
0
100
AcDbSpline
 62
7
  6
CONTINUOUS
 70
0
 71
3
 72
53
 73
49
 74
0
 42
0.0000001
 43
0.0000001
 44
0.0000000001
 40
0.0
 40
0.0
 40
0.0
 40
0.0
 40
0.0063158505
 40
0.0126706065
 40
0.0191024059
 40
0.025647925
 40
0.0323417594
 40
0.0392160732
 40
0.0536138138
 40
0.0611945116
 40
0.0690562199
 40
0.0772172833
 40
0.0856936463
 40
0.0944989782
 40
0.1036450547
 40
0.113141788
 40
0.1229974785
 40
0.1332190725
 40
0.143812113
 40
0.1547810712
 40
0.1661293938
 40
0.1778595131
 40
0.1899731419
 40
0.202471156
 40
0.2153537422
 40
0.2286205498
 40
0.2422705327
 40
0.2563022009
 40
0.2707135857
 40
0.2855021832
 40
0.3006651871
 40
0.3321002773
 40
0.3649893983
 40
0.3992971141
 40
0.4349834107
 40
0.4720041701
 40
0.5103115331
 40
0.5498541823
 40
0.5905776893
 40
0.6324247808
 40
0.6753355513
 40
0.7192476511
 40
0.7640964723
 40
0.8098154905
 40
0.8563363112
 40
0.9035882029
 40
0.951501464
 40
1.0
 40
1.0
 40
1.0
 40
1.0
 10
14.9384223555
 20
10.093795325
 30
0.0
 10
14.9402477578
 20
10.0936687325
 30
0.0
 10
14.943901176
 20
10.0932653118
 30
0.0
 10
14.9493403687
 20
10.0922139179
 30
0.0
 10
14.9547432146
 20
10.0907162162
 30
0.0
 10
14.9601065084
 20
10.088773308
 30
0.0
 10
14.9654282271
 20
10.0863865059
 30
0.0
 10
14.9725738129
 20
10.0825560442
 30
0.0
 10
14.9795254033
 20
10.0778670628
 30
0.0
 10
14.9862527121
 20
10.0724331768
 30
0.0
 10
14.9913341241
 20
10.0678518055
 30
0.0
 10
14.9963612907
 20
10.0628374994
 30
0.0
 10
15.0013328818
 20
10.0573919866
 30
0.0
 10
15.006246979
 20
10.0515177111
 30
0.0
 10
15.011101679
 20
10.0452169823
 30
0.0
 10
15.0158951482
 20
10.0384924093
 30
0.0
 10
15.0206255645
 20
10.0313467341
 30
0.0
 10
15.0252909778
 20
10.0237828035
 30
0.0
 10
15.0298896288
 20
10.0158037347
 30
0.0
 10
15.0344196399
 20
10.0074127446
 30
0.0
 10
15.0388791538
 20
9.9986132325
 30
0.0
 10
15.0432664453
 20
9.9894088129
 30
0.0
 10
15.0475796491
 20
9.9798032086
 30
0.0
 10
15.0518170402
 20
9.9698003583
 30
0.0
 10
15.0559769133
 20
9.9594043602
 30
0.0
 10
15.0600574849
 20
9.9486194488
 30
0.0
 10
15.0640571542
 20
9.9374500683
 30
0.0
 10
15.0679742444
 20
9.9259007914
 30
0.0
 10
15.0718071063
 20
9.913976359
 30
0.0
 10
15.0755542543
 20
9.9016816704
 30
0.0
 10
15.0804933309
 20
9.8845961804
 30
0.0
 10
15.0864277116
 20
9.8623424089
 30
0.0
 10
15.0931001708
 20
9.834554694
 30
0.0
 10
15.0993955736
 20
9.8054180004
 30
0.0
 10
15.1053034515
 20
9.7749803229
 30
0.0
 10
15.1108139552
 20
9.7432916069
 30
0.0
 10
15.1159178868
 20
9.7104039767
 30
0.0
 10
15.1206067586
 20
9.6763715645
 30
0.0
 10
15.1248727602
 20
9.6412504241
 30
0.0
 10
15.1287087766
 20
9.6050984146
 30
0.0
 10
15.1321084002
 20
9.5679751139
 30
0.0
 10
15.1350659772
 20
9.5299417368
 30
0.0
 10
15.1375765866
 20
9.4910609947
 30
0.0
 10
15.1396360324
 20
9.4513969864
 30
0.0
 10
15.1412408453
 20
9.4110152775
 30
0.0
 10
15.1423884182
 20
9.3699820654
 30
0.0
 10
15.1430767233
 20
9.3283656185
 30
0.0
 10
15.1432278721
 20
9.3004335719
 30
0.0
 10
15.1432278721
 20
9.2863828954
 30
0.0
  0
SPLINE
  5
332
100
AcDbEntity
  8
0
100
AcDbSpline
 62
4
  6
CONTINUOUS
 70
0
 71
3
 72
359
 73
355
 74
0
 42
0.0000001
 43
0.0000001
 44
0.0000000001
 40
0.0
 40
0.0
 40
0.0
 40
0.0
 40
0.015625
 40
0.0234375
 40
0.03125
 40
0.0390625
 40
0.04296875
 40
0.046875
 40
0.05078125
 40
0.0546875
 40
0.056640625
 40
0.05859375
 40
0.0595703125
 40
0.060546875
 40
0.0615234375
 40
0.0620117188
 40
0.0625
 40
0.0629882812
 40
0.0634765625
 40
0.064453125
 40
0.0654296875
 40
0.06640625
 40
0.068359375
 40
0.0703125
 40
0.07421875
 40
0.078125
 40
0.08203125
 40
0.0859375
 40
0.09375
 40
0.1015625
 40
0.10546875
 40
0.109375
 40
0.11328125
 40
0.1171875
 40
0.119140625
 40
0.12109375
 40
0.1220703125
 40
0.123046875
 40
0.1240234375
 40
0.1245117188
 40
0.125
 40
0.1254882812
 40
0.1259765625
 40
0.126953125
 40
0.1279296875
 40
0.12890625
 40
0.130859375
 40
0.1328125
 40
0.13671875
 40
0.140625
 40
0.14453125
 40
0.1484375
 40
0.15625
 40
0.1640625
 40
0.16796875
 40
0.171875
 40
0.17578125
 40
0.1796875
 40
0.181640625
 40
0.18359375
 40
0.1845703125
 40
0.185546875
 40
0.1865234375
 40
0.1870117188
 40
0.1875
 40
0.1879882812
 40
0.1884765625
 40
0.189453125
 40
0.1904296875
 40
0.19140625
 40
0.193359375
 40
0.1953125
 40
0.19921875
 40
0.203125
 40
0.20703125
 40
0.2109375
 40
0.21875
 40
0.2265625
 40
0.23046875
 40
0.234375
 40
0.23828125
 40
0.2421875
 40
0.244140625
 40
0.24609375
 40
0.2470703125
 40
0.248046875
 40
0.2490234375
 40
0.2495117188
 40
0.25
 40
0.2504882812
 40
0.2509765625
 40
0.251953125
 40
0.2529296875
 40
0.25390625
 40
0.255859375
 40
0.2578125
 40
0.26171875
 40
0.265625
 40
0.26953125
 40
0.2734375
 40
0.28125
 40
0.2890625
 40
0.29296875
 40
0.296875
 40
0.30078125
 40
0.3046875
 40
0.306640625
 40
0.30859375
 40
0.3095703125
 40
0.310546875
 40
0.3115234375
 40
0.3120117188
 40
0.3125
 40
0.3129882812
 40
0.3134765625
 40
0.314453125
 40
0.3154296875
 40
0.31640625
 40
0.318359375
 40
0.3203125
 40
0.32421875
 40
0.328125
 40
0.33203125
 40
0.3359375
 40
0.34375
 40
0.3515625
 40
0.35546875
 40
0.359375
 40
0.36328125
 40
0.3671875
 40
0.369140625
 40
0.37109375
 40
0.3720703125
 40
0.373046875
 40
0.3740234375
 40
0.3745117188
 40
0.375
 40
0.3754882812
 40
0.3759765625
 40
0.376953125
 40
0.3779296875
 40
0.37890625
 40
0.380859375
 40
0.3828125
 40
0.38671875
 40
0.390625
 40
0.39453125
 40
0.3984375
 40
0.40625
 40
0.4140625
 40
0.41796875
 40
0.421875
 40
0.42578125
 40
0.4296875
 40
0.431640625
 40
0.43359375
 40
0.4345703125
 40
0.435546875
 40
0.4365234375
 40
0.4370117188
 40
0.4375
 40
0.4379882812
 40
0.4384765625
 40
0.439453125
 40
0.4404296875
 40
0.44140625
 40
0.443359375
 40
0.4453125
 40
0.44921875
 40
0.453125
 40
0.45703125
 40
0.4609375
 40
0.46875
 40
0.4765625
 40
0.48046875
 40
0.484375
 40
0.48828125
 40
0.4921875
 40
0.494140625
 40
0.49609375
 40
0.4970703125
 40
0.498046875
 40
0.4990234375
 40
0.4995117188
 40
0.5
 40
0.5004882812
 40
0.5009765625
 40
0.501953125
 40
0.5029296875
 40
0.50390625
 40
0.505859375
 40
0.5078125
 40
0.51171875
 40
0.515625
 40
0.51953125
 40
0.5234375
 40
0.53125
 40
0.5390625
 40
0.54296875
 40
0.546875
 40
0.55078125
 40
0.5546875
 40
0.556640625
 40
0.55859375
 40
0.560546875
 40
0.5615234375
 40
0.5620117188
 40
0.5625
 40
0.5629882812
 40
0.5634765625
 40
0.564453125
 40
0.56640625
 40
0.568359375
 40
0.5703125
 40
0.57421875
 40
0.578125
 40
0.58203125
 40
0.5859375
 40
0.59375
 40
0.6015625
 40
0.60546875
 40
0.609375
 40
0.61328125
 40
0.6171875
 40
0.619140625
 40
0.62109375
 40
0.623046875
 40
0.6240234375
 40
0.6245117188
 40
0.625
 40
0.6254882812
 40
0.6259765625
 40
0.626953125
 40
0.62890625
 40
0.630859375
 40
0.6328125
 40
0.63671875
 40
0.640625
 40
0.64453125
 40
0.6484375
 40
0.65625
 40
0.6640625
 40
0.66796875
 40
0.671875
 40
0.67578125
 40
0.6796875
 40
0.681640625
 40
0.68359375
 40
0.685546875
 40
0.6865234375
 40
0.6870117188
 40
0.6875
 40
0.6879882812
 40
0.6884765625
 40
0.689453125
 40
0.69140625
 40
0.693359375
 40
0.6953125
 40
0.69921875
 40
0.703125
 40
0.70703125
 40
0.7109375
 40
0.71875
 40
0.7265625
 40
0.73046875
 40
0.734375
 40
0.73828125
 40
0.7421875
 40
0.744140625
 40
0.74609375
 40
0.748046875
 40
0.7490234375
 40
0.7495117188
 40
0.75
 40
0.7504882812
 40
0.7509765625
 40
0.751953125
 40
0.75390625
 40
0.755859375
 40
0.7578125
 40
0.76171875
 40
0.765625
 40
0.76953125
 40
0.7734375
 40
0.78125
 40
0.7890625
 40
0.79296875
 40
0.796875
 40
0.80078125
 40
0.8046875
 40
0.806640625
 40
0.80859375
 40
0.810546875
 40
0.8115234375
 40
0.8120117188
 40
0.8125
 40
0.8129882812
 40
0.8134765625
 40
0.814453125
 40
0.81640625
 40
0.818359375
 40
0.8203125
 40
0.82421875
 40
0.828125
 40
0.83203125
 40
0.8359375
 40
0.84375
 40
0.8515625
 40
0.85546875
 40
0.859375
 40
0.86328125
 40
0.8671875
 40
0.869140625
 40
0.87109375
 40
0.873046875
 40
0.8740234375
 40
0.8745117188
 40
0.875
 40
0.8754882812
 40
0.8759765625
 40
0.876953125
 40
0.87890625
 40
0.880859375
 40
0.8828125
 40
0.88671875
 40
0.890625
 40
0.89453125
 40
0.8984375
 40
0.90625
 40
0.9140625
 40
0.91796875
 40
0.921875
 40
0.92578125
 40
0.9296875
 40
0.931640625
 40
0.93359375
 40
0.935546875
 40
0.9365234375
 40
0.9370117188
 40
0.9375
 40
0.9379882812
 40
0.9384765625
 40
0.939453125
 40
0.94140625
 40
0.943359375
 40
0.9453125
 40
0.94921875
 40
0.953125
 40
0.95703125
 40
0.9609375
 40
0.96875
 40
0.9765625
 40
0.984375
 40
1.0
 40
1.0
 40
1.0
 40
1.0
 10
9.7443703093
 20
9.1047162578
 30
0.0
 10
9.749998789
 20
9.1048777987
 30
0.0
 10
9.7584415084
 20
9.1051201099
 30
0.0
 10
9.7696984676
 20
9.1054431917
 30
0.0
 10
9.7781411871
 20
9.1056855028
 30
0.0
 10
9.7851767865
 20
9.1058874297
 30
0.0
 10
9.7908052664
 20
9.1060489689
 30
0.0
 10
9.7950266251
 20
9.1061701296
 30
0.0
 10
9.7992479885
 20
9.1062912663
 30
0.0
 10
9.8027657768
 20
9.1063922882
 30
0.0
 10
9.8055800401
 20
9.1064729386
 30
0.0
 10
9.8073388803
 20
9.1065237257
 30
0.0
 10
9.8087461227
 20
9.1065634836
 30
0.0
 10
9.8098010883
 20
9.1065956889
 30
0.0
 10
9.8106817094
 20
9.1066149338
 30
0.0
 10
9.81138288
 20
9.1066473592
 30
0.0
 10
9.8119178469
 20
9.1066251454
 30
0.0
 10
9.8124181211
 20
9.1067805482
 30
0.0
 10
9.813097272
 20
9.1069257082
 30
0.0
 10
9.8139420529
 20
9.1071284451
 30
0.0
 10
9.8149575695
 20
9.1073626179
 30
0.0
 10
9.8163109702
 20
9.1076780308
 30
0.0
 10
9.8180029338
 20
9.1080712072
 30
0.0
 10
9.8207099566
 20
9.1087008984
 30
0.0
 10
9.824093776
 20
9.1094878035
 30
0.0
 10
9.8281543417
 20
9.1104321791
 30
0.0
 10
9.8322149122
 20
9.1113765308
 30
0.0
 10
9.8376290044
 20
9.1126356748
 30
0.0
 10
9.8443966204
 20
9.1142096017
 30
0.0
 10
9.8511642357
 20
9.1157835306
 30
0.0
 10
9.856578329
 20
9.1170426714
 30
0.0
 10
9.8606388965
 20
9.1179870329
 30
0.0
 10
9.8646994731
 20
9.1189313716
 30
0.0
 10
9.8680832584
 20
9.1197183918
 30
0.0
 10
9.8707903507
 20
9.1203478482
 30
0.0
 10
9.8724821376
 20
9.1207416224
 30
0.0
 10
9.8738359011
 20
9.1210558081
 30
0.0
 10
9.8748503091
 20
9.1212937299
 30
0.0
 10
9.8756985587
 20
9.121484737
 30
0.0
 10
9.8763706326
 20
9.1216538281
 30
0.0
 10
9.8768925197
 20
9.1217361468
 30
0.0
 10
9.8773463429
 20
9.1219883211
 30
0.0
 10
9.8779752162
 20
9.1222652208
 30
0.0
 10
9.8787531505
 20
9.1226317021
 30
0.0
 10
9.8796901632
 20
9.1230627664
 30
0.0
 10
9.8809382939
 20
9.1236405621
 30
0.0
 10
9.8824988749
 20
9.1243617647
 30
0.0
 10
9.8849955711
 20
9.1255162712
 30
0.0
 10
9.8881165214
 20
9.1269592046
 30
0.0
 10
9.8918616275
 20
9.1286908103
 30
0.0
 10
9.8956067428
 20
9.130422393
 30
0.0
 10
9.9006002265
 20
9.1327311781
 30
0.0
 10
9.9068420825
 20
9.1356171564
 30
0.0
 10
9.9130839376
 20
9.1385031367
 30
0.0
 10
9.9180774228
 20
9.1408119186
 30
0.0
 10
9.9218225337
 20
9.1425435109
 30
0.0
 10
9.9255676563
 20
9.1442750807
 30
0.0
 10
9.9286885552
 20
9.1457181255
 30
0.0
 10
9.9311853564
 20
9.1468724048
 30
0.0
 10
9.9327456701
 20
9.1475941859
 30
0.0
 10
9.9339943494
 20
9.1481707942
 30
0.0
 10
9.9349296863
 20
9.1486054861
 30
0.0
 10
9.9357128636
 20
9.1489606172
 30
0.0
 10
9.9363310402
 20
9.1492606736
 30
0.0
 10
9.9368175303
 20
9.1494421283
 30
0.0
 10
9.9372167724
 20
9.1497899578
 30
0.0
 10
9.937779572
 20
9.1501956136
 30
0.0
 10
9.9384726151
 20
9.150722623
 30
0.0
 10
9.9393087425
 20
9.1513464994
 30
0.0
 10
9.9404220158
 20
9.1521813157
 30
0.0
 10
9.9418141427
 20
9.1532238153
 30
0.0
 10
9.9440412465
 20
9.1548923851
 30
0.0
 10
9.946825229
 20
9.1569779017
 30
0.0
 10
9.9501659639
 20
9.1594806055
 30
0.0
 10
9.9535067106
 20
9.1619832868
 30
0.0
 10
9.9579610354
 20
9.1653202032
 30
0.0
 10
9.963528943
 20
9.1694913457
 30
0.0
 10
9.9690968493
 20
9.1736624899
 30
0.0
 10
9.9735511763
 20
9.1769994035
 30
0.0
 10
9.9768919165
 20
9.1795020931
 30
0.0
 10
9.9802326757
 20
9.1820047657
 30
0.0
 10
9.9830165828
 20
9.1840903795
 30
0.0
 10
9.9852438402
 20
9.1857587511
 30
0.0
 10
9.9866355763
 20
9.1868017553
 30
0.0
 10
9.9877496518
 20
9.1876355358
 30
0.0
 10
9.9885833282
 20
9.1882625767
 30
0.0
 10
9.9892840398
 20
9.1887796851
 30
0.0
 10
9.9898311943
 20
9.1892055406
 30
0.0
 10
9.9902782159
 20
9.1894916814
 30
0.0
 10
9.9905853217
 20
9.1899047413
 30
0.0
 10
9.9910436704
 20
9.1904111533
 30
0.0
 10
9.9915998378
 20
9.1910593793
 30
0.0
 10
9.9922744162
 20
9.1918307398
 30
0.0
 10
9.9931713471
 20
9.1928614944
 30
0.0
 10
9.994293369
 20
9.1941491591
 30
0.0
 10
9.9960881244
 20
9.1962098578
 30
0.0
 10
9.9983317333
 20
9.1987855818
 30
0.0
 10
10.0010239933
 20
9.2018765146
 30
0.0
 10
10.0037162723
 20
9.2049674302
 30
0.0
 10
10.0073059709
 20
9.2090886572
 30
0.0
 10
10.0117930967
 20
9.2142401886
 30
0.0
 10
10.0162802208
 20
9.2193917214
 30
0.0
 10
10.0198699221
 20
9.2235129461
 30
0.0
 10
10.0225621929
 20
9.2266038685
 30
0.0
 10
10.0252544837
 20
9.2296947761
 30
0.0
 10
10.0274979969
 20
9.2322705785
 30
0.0
 10
10.0292929473
 20
9.2343311172
 30
0.0
 10
10.0304144731
 20
9.2356191889
 30
0.0
 10
10.0313124223
 20
9.2366491081
 30
0.0
 10
10.0319838896
 20
9.237423021
 30
0.0
 10
10.0325497907
 20
9.2380632609
 30
0.0
 10
10.0329882809
 20
9.2385859662
 30
0.0
 10
10.0333560334
 20
9.2389492674
 30
0.0
 10
10.0335753619
 20
9.2394222231
 30
0.0
 10
10.0339196463
 20
9.240014527
 30
0.0
 10
10.0343322135
 20
9.2407680486
 30
0.0
 10
10.0348349082
 20
9.2416666494
 30
0.0
 10
10.0355025083
 20
9.2428667486
 30
0.0
 10
10.036337919
 20
9.2443661999
 30
0.0
 10
10.0376740672
 20
9.2467656979
 30
0.0
 10
10.0393444271
 20
9.2497649414
 30
0.0
 10
10.0413487841
 20
9.2533640888
 30
0.0
 10
10.0433531611
 20
9.2569632215
 30
0.0
 10
10.0460256568
 20
9.2617620703
 30
0.0
 10
10.0493662791
 20
9.2677606294
 30
0.0
 10
10.0527068996
 20
9.2737591896
 30
0.0
 10
10.0553793982
 20
9.2785580365
 30
0.0
 10
10.0573837664
 20
9.2821571746
 30
0.0
 10
10.0593881568
 20
9.2857563019
 30
0.0
 10
10.0610584128
 20
9.2887556083
 30
0.0
 10
10.0623947728
 20
9.291154978
 30
0.0
 10
10.0632296445
 20
9.2926547557
 30
0.0
 10
10.0638983511
 20
9.2938541848
 30
0.0
 10
10.0643976652
 20
9.2947548328
 30
0.0
 10
10.0648208094
 20
9.2955019496
 30
0.0
 10
10.0651435147
 20
9.2961073205
 30
0.0
 10
10.0654287442
 20
9.2965403701
 30
0.0
 10
10.0655490769
 20
9.2970534953
 30
0.0
 10
10.0657671212
 20
9.2977096907
 30
0.0
 10
10.066019914
 20
9.2985395319
 30
0.0
 10
10.0663317243
 20
9.2995312335
 30
0.0
 10
10.0667445169
 20
9.3008549371
 30
0.0
 10
10.0672615192
 20
9.3025090753
 30
0.0
 10
10.0680881576
 20
9.305155971
 30
0.0
 10
10.0691216495
 20
9.3084644964
 30
0.0
 10
10.0703617567
 20
9.3124347673
 30
0.0
 10
10.0716018862
 20
9.3164050274
 30
0.0
 10
10.0732553843
 20
9.3216987113
 30
0.0
 10
10.0753222599
 20
9.3283158148
 30
0.0
 10
10.0773891334
 20
9.3349329191
 30
0.0
 10
10.0790426348
 20
9.3402266016
 30
0.0
 10
10.0802827545
 20
9.3441968658
 30
0.0
 10
10.0815228979
 20
9.3481671214
 30
0.0
 10
10.0825562772
 20
9.3514756945
 30
0.0
 10
10.0833831454
 20
9.3541224929
 30
0.0
 10
10.0838995629
 20
9.3557768787
 30
0.0
 10
10.084313556
 20
9.3571000741
 30
0.0
 10
10.0846216984
 20
9.3580933282
 30
0.0
 10
10.0848859673
 20
9.358918312
 30
0.0
 10
10.0850805981
 20
9.3595844173
 30
0.0
 10
10.0852724342
 20
9.3600672783
 30
0.0
 10
10.0852892103
 20
9.3606139523
 30
0.0
 10
10.0853727292
 20
9.3613205602
 30
0.0
 10
10.0854561473
 20
9.362211468
 30
0.0
 10
10.0855652294
 20
9.3632772837
 30
0.0
 10
10.0857075356
 20
9.3646995148
 30
0.0
 10
10.0858864922
 20
9.3664769122
 30
0.0
 10
10.0861722226
 20
9.3693209668
 30
0.0
 10
10.0865295916
 20
9.3728759599
 30
0.0
 10
10.086958346
 20
9.3771419839
 30
0.0
 10
10.0873871241
 20
9.3814079992
 30
0.0
 10
10.08795882
 20
9.3870960227
 30
0.0
 10
10.0886734429
 20
9.394206051
 30
0.0
 10
10.0893880637
 20
9.4013160797
 30
0.0
 10
10.0899597629
 20
9.4070041026
 30
0.0
 10
10.0903885308
 20
9.4112701196
 30
0.0
 10
10.0908173233
 20
9.4155361372
 30
0.0
 10
10.091174574
 20
9.4190911503
 30
0.0
 10
10.0914605457
 20
9.4219351641
 30
0.0
 10
10.0916388883
 20
9.4237126653
 30
0.0
 10
10.0917824548
 20
9.4251346832
 30
0.0
 10
10.0918876863
 20
9.4262011503
 30
0.0
 10
10.0919831519
 20
9.4270900201
 30
0.0
 10
10.0920420918
 20
9.4278007859
 30
0.0
 10
10.0921339307
 20
9.428334762
 30
0.0
 10
10.0920439499
 20
9.4288652961
 30
0.0
 10
10.0919874875
 20
9.4295738772
 30
0.0
 10
10.0918951189
 20
9.4304591911
 30
0.0
 10
10.0917936037
 20
9.4315217443
 30
0.0
 10
10.0916549922
 20
9.4329384203
 30
0.0
 10
10.0914828434
 20
9.4347092863
 30
0.0
 10
10.0912067819
 20
9.4375426602
 30
0.0
 10
10.0908619189
 20
9.4410843816
 30
0.0
 10
10.0904479916
 20
9.4453344456
 30
0.0
 10
10.0900340888
 20
9.44958451
 30
0.0
 10
10.0894822099
 20
9.4552512624
 30
0.0
 10
10.0887923633
 20
9.4623347029
 30
0.0
 10
10.0881025195
 20
9.4694181438
 30
0.0
 10
10.0875506363
 20
9.4750848955
 30
0.0
 10
10.0871367467
 20
9.4793349622
 30
0.0
 10
10.0867227696
 20
9.4835850176
 30
0.0
 10
10.0863780615
 20
9.4871267655
 30
0.0
 10
10.0861016841
 20
9.4899600853
 30
0.0
 10
10.0858960701
 20
9.4920852899
 30
0.0
 10
10.0857194161
 20
9.4938556106
 30
0.0
 10
10.085606177
 20
9.4950961756
 30
0.0
 10
10.0855252011
 20
9.4958029769
 30
0.0
 10
10.0855102958
 20
9.4963389737
 30
0.0
 10
10.0853202178
 20
9.4968524337
 30
0.0
 10
10.0851278827
 20
9.4975449081
 30
0.0
 10
10.0847628276
 20
9.4987530756
 30
0.0
 10
10.084256204
 20
9.5004809441
 30
0.0
 10
10.0836418849
 20
9.5025535667
 30
0.0
 10
10.0828250182
 20
9.5053173497
 30
0.0
 10
10.0818031713
 20
9.5087719803
 30
0.0
 10
10.0805772822
 20
9.5129175792
 30
0.0
 10
10.0793513056
 20
9.5170631667
 30
0.0
 10
10.0777167008
 20
9.5225906208
 30
0.0
 10
10.0756734334
 20
9.5294999366
 30
0.0
 10
10.0736301734
 20
9.5364092542
 30
0.0
 10
10.0719955567
 20
9.5419367055
 30
0.0
 10
10.0707696158
 20
9.5460823014
 30
0.0
 10
10.0695435925
 20
9.550227869
 30
0.0
 10
10.0685221634
 20
9.5536825968
 30
0.0
 10
10.0677044444
 20
9.5564461816
 30
0.0
 10
10.0670927282
 20
9.5585194095
 30
0.0
 10
10.0665779611
 20
9.5602453841
 30
0.0
 10
10.0662274436
 20
9.5614569326
 30
0.0
 10
10.0660118155
 20
9.5621439898
 30
0.0
 10
10.0658932859
 20
9.5626740896
 30
0.0
 10
10.0656096567
 20
9.56314759
 30
0.0
 10
10.0652890731
 20
9.5637986663
 30
0.0
 10
10.0647012201
 20
9.5649288515
 30
0.0
 10
10.063875458
 20
9.5665482107
 30
0.0
 10
10.062878539
 20
9.5684893834
 30
0.0
 10
10.0615514112
 20
9.5710783327
 30
0.0
 10
10.0598917817
 20
9.5743142726
 30
0.0
 10
10.0579005348
 20
9.5781975062
 30
0.0
 10
10.0559092053
 20
9.5820807116
 30
0.0
 10
10.0532541283
 20
9.5872583286
 30
0.0
 10
10.0499352713
 20
9.5937303461
 30
0.0
 10
10.0466164213
 20
9.6002023665
 30
0.0
 10
10.0439613329
 20
9.6053799789
 30
0.0
 10
10.0419700377
 20
9.6092631982
 30
0.0
 10
10.0399786624
 20
9.6131463794
 30
0.0
 10
10.0383194325
 20
9.6163824823
 30
0.0
 10
10.0369914896
 20
9.6189710992
 30
0.0
 10
10.0359970597
 20
9.620913287
 30
0.0
 10
10.0351635102
 20
9.6225294702
 30
0.0
 10
10.034589559
 20
9.6236653253
 30
0.0
 10
10.0342467012
 20
9.6243073169
 30
0.0
 10
10.034031491
 20
9.6248087225
 30
0.0
 10
10.0336559913
 20
9.625234015
 30
0.0
 10
10.0332112358
 20
9.6258276208
 30
0.0
 10
10.0324068638
 20
9.6268540612
 30
0.0
 10
10.0312713802
 20
9.6283268716
 30
0.0
 10
10.0299029703
 20
9.630091476
 30
0.0
 10
10.0280804602
 20
9.6324452488
 30
0.0
 10
10.0258016237
 20
9.635387133
 30
0.0
 10
10.0230673196
 20
9.6389175363
 30
0.0
 10
10.0203329352
 20
9.6424479016
 30
0.0
 10
10.0166871175
 20
9.6471550686
 30
0.0
 10
10.0121298351
 20
9.6530390221
 30
0.0
 10
10.0075725588
 20
9.6589229802
 30
0.0
 10
10.0039267313
 20
9.6636301399
 30
0.0
 10
10.0011923762
 20
9.667160527
 30
0.0
 10
9.9984579625
 20
9.6706908483
 30
0.0
 10
9.9961794669
 20
9.6736329878
 30
0.0
 10
9.9943562617
 20
9.6759862399
 30
0.0
 10
9.9929899744
 20
9.6777524345
 30
0.0
 10
9.99184785
 20
9.67922027
 30
0.0
 10
9.9910553329
 20
9.6802555914
 30
0.0
 10
9.9905915828
 20
9.6808349676
 30
0.0
 10
9.9902744284
 20
9.6813039688
 30
0.0
 10
9.9898400833
 20
9.6816412116
 30
0.0
 10
9.9893018339
 20
9.6821368275
 30
0.0
 10
9.9883408519
 20
9.6829827423
 30
0.0
 10
9.9869779777
 20
9.684202387
 30
0.0
 10
9.9853382667
 20
9.6856611688
 30
0.0
 10
9.9831534741
 20
9.6876078851
 30
0.0
 10
9.9804219725
 20
9.690040706
 30
0.0
 10
9.9771443896
 20
9.6929603374
 30
0.0
 10
9.9738667481
 20
9.6958799028
 30
0.0
 10
9.9694965799
 20
9.6997726799
 30
0.0
 10
9.9640338621
 20
9.7046386425
 30
0.0
 10
9.9585711491
 20
9.7095046111
 30
0.0
 10
9.9542009733
 20
9.7133973785
 30
0.0
 10
9.9509233546
 20
9.7163169728
 30
0.0
 10
9.9476456862
 20
9.7192364962
 30
0.0
 10
9.9449144505
 20
9.7216696528
 30
0.0
 10
9.9427291156
 20
9.7236156846
 30
0.0
 10
9.9410910609
 20
9.7250765567
 30
0.0
 10
9.9397230046
 20
9.7262896615
 30
0.0
 10
9.9387712736
 20
9.727147251
 30
0.0
 10
9.9382182018
 20
9.7276241611
 30
0.0
 10
9.9378293862
 20
9.7280188621
 30
0.0
 10
9.9373412308
 20
9.7282720603
 30
0.0
 10
9.9367250077
 20
9.7286590156
 30
0.0
 10
9.9356304728
 20
9.7293131908
 30
0.0
 10
9.9340752921
 20
9.7302597497
 30
0.0
 10
9.9322054625
 20
9.7313904741
 30
0.0
 10
9.9297136183
 20
9.7328999043
 30
0.0
 10
9.92659838
 20
9.7347860753
 30
0.0
 10
9.9228602797
 20
9.7370497448
 30
0.0
 10
9.9191221297
 20
9.7393133436
 30
0.0
 10
9.9141379471
 20
9.7423315002
 30
0.0
 10
9.9079077125
 20
9.7461041865
 30
0.0
 10
9.9016774816
 20
9.7498768794
 30
0.0
 10
9.8966932932
 20
9.7528950253
 30
0.0
 10
9.8929551609
 20
9.7551586559
 30
0.0
 10
9.8892169942
 20
9.7574222064
 30
0.0
 10
9.8861019622
 20
9.7593087478
 30
0.0
 10
9.8836096973
 20
9.7608174225
 30
0.0
 10
9.8817411525
 20
9.7619504541
 30
0.0
 10
9.880181952
 20
9.7628897948
 30
0.0
 10
9.8790945932
 20
9.7635568556
 30
0.0
 10
9.8784668723
 20
9.7639231649
 30
0.0
 10
9.8780140345
 20
9.7642397809
 30
0.0
 10
9.8774925717
 20
9.7643962951
 30
0.0
 10
9.8768212251
 20
9.764660826
 30
0.0
 10
9.8756352158
 20
9.7650977356
 30
0.0
 10
9.8739467477
 20
9.7657354955
 30
0.0
 10
9.8719180901
 20
9.7664949846
 30
0.0
 10
9.8692140851
 20
9.7675096708
 30
0.0
 10
9.8658337797
 20
9.7687773306
 30
0.0
 10
9.8617775415
 20
9.7702988215
 30
0.0
 10
9.857721269
 20
9.7718202323
 30
0.0
 10
9.8523129176
 20
9.7738488082
 30
0.0
 10
9.8455524741
 20
9.7763845175
 30
0.0
 10
9.8387920331
 20
9.7789202341
 30
0.0
 10
9.8333836775
 20
9.7809487983
 30
0.0
 10
9.8293274177
 20
9.7824702441
 30
0.0
 10
9.825271132
 20
9.7839916041
 30
0.0
 10
9.8218909743
 20
9.7852596711
 30
0.0
 10
9.8191866681
 20
9.7862735268
 30
0.0
 10
9.8171589306
 20
9.7870355521
 30
0.0
 10
9.8154675837
 20
9.7876653773
 30
0.0
 10
9.8142867134
 20
9.7881164516
 30
0.0
 10
9.8136071328
 20
9.7883582872
 30
0.0
 10
9.8131109625
 20
9.7885845139
 30
0.0
 10
9.8125631303
 20
9.7886393013
 30
0.0
 10
9.8118507077
 20
9.788772151
 30
0.0
 10
9.8105955721
 20
9.7889767763
 30
0.0
 10
9.8088069107
 20
9.7892836645
 30
0.0
 10
9.8066586382
 20
9.7896456955
 30
0.0
 10
9.8037949313
 20
9.7901305814
 30
0.0
 10
9.8002150723
 20
9.7907359414
 30
0.0
 10
9.7959193382
 20
9.7914626938
 30
0.0
 10
9.7916235781
 20
9.7921893605
 30
0.0
 10
9.7858959072
 20
9.7931582793
 30
0.0
 10
9.7787363153
 20
9.7943694176
 30
0.0
 10
9.7701448065
 20
9.795822788
 30
0.0
 10
9.7586894608
 20
9.7977606135
 30
0.0
 10
9.7500979517
 20
9.7992139831
 30
0.0
 10
9.7443702789
 20
9.800182896
 30
0.0
  0
SPLINE
  5
333
100
AcDbEntity
  8
0
100
AcDbSpline
 62
4
  6
CONTINUOUS
 70
0
 71
3
 72
359
 73
355
 74
0
 42
0.0000001
 43
0.0000001
 44
0.0000000001
 40
0.0
 40
0.0
 40
0.0
 40
0.0
 40
0.015625
 40
0.0234375
 40
0.03125
 40
0.0390625
 40
0.04296875
 40
0.046875
 40
0.05078125
 40
0.0546875
 40
0.056640625
 40
0.05859375
 40
0.0595703125
 40
0.060546875
 40
0.0615234375
 40
0.0620117188
 40
0.0625
 40
0.0629882812
 40
0.0634765625
 40
0.064453125
 40
0.0654296875
 40
0.06640625
 40
0.068359375
 40
0.0703125
 40
0.07421875
 40
0.078125
 40
0.08203125
 40
0.0859375
 40
0.09375
 40
0.1015625
 40
0.10546875
 40
0.109375
 40
0.11328125
 40
0.1171875
 40
0.119140625
 40
0.12109375
 40
0.1220703125
 40
0.123046875
 40
0.1240234375
 40
0.1245117188
 40
0.125
 40
0.1254882812
 40
0.1259765625
 40
0.126953125
 40
0.1279296875
 40
0.12890625
 40
0.130859375
 40
0.1328125
 40
0.13671875
 40
0.140625
 40
0.14453125
 40
0.1484375
 40
0.15625
 40
0.1640625
 40
0.16796875
 40
0.171875
 40
0.17578125
 40
0.1796875
 40
0.181640625
 40
0.18359375
 40
0.1845703125
 40
0.185546875
 40
0.1865234375
 40
0.1870117188
 40
0.1875
 40
0.1879882812
 40
0.1884765625
 40
0.189453125
 40
0.1904296875
 40
0.19140625
 40
0.193359375
 40
0.1953125
 40
0.19921875
 40
0.203125
 40
0.20703125
 40
0.2109375
 40
0.21875
 40
0.2265625
 40
0.23046875
 40
0.234375
 40
0.23828125
 40
0.2421875
 40
0.244140625
 40
0.24609375
 40
0.2470703125
 40
0.248046875
 40
0.2490234375
 40
0.2495117188
 40
0.25
 40
0.2504882812
 40
0.2509765625
 40
0.251953125
 40
0.2529296875
 40
0.25390625
 40
0.255859375
 40
0.2578125
 40
0.26171875
 40
0.265625
 40
0.26953125
 40
0.2734375
 40
0.28125
 40
0.2890625
 40
0.29296875
 40
0.296875
 40
0.30078125
 40
0.3046875
 40
0.306640625
 40
0.30859375
 40
0.3095703125
 40
0.310546875
 40
0.3115234375
 40
0.3120117188
 40
0.3125
 40
0.3129882812
 40
0.3134765625
 40
0.314453125
 40
0.3154296875
 40
0.31640625
 40
0.318359375
 40
0.3203125
 40
0.32421875
 40
0.328125
 40
0.33203125
 40
0.3359375
 40
0.34375
 40
0.3515625
 40
0.35546875
 40
0.359375
 40
0.36328125
 40
0.3671875
 40
0.369140625
 40
0.37109375
 40
0.3720703125
 40
0.373046875
 40
0.3740234375
 40
0.3745117188
 40
0.375
 40
0.3754882812
 40
0.3759765625
 40
0.376953125
 40
0.3779296875
 40
0.37890625
 40
0.380859375
 40
0.3828125
 40
0.38671875
 40
0.390625
 40
0.39453125
 40
0.3984375
 40
0.40625
 40
0.4140625
 40
0.41796875
 40
0.421875
 40
0.42578125
 40
0.4296875
 40
0.431640625
 40
0.43359375
 40
0.4345703125
 40
0.435546875
 40
0.4365234375
 40
0.4370117188
 40
0.4375
 40
0.4379882812
 40
0.4384765625
 40
0.439453125
 40
0.4404296875
 40
0.44140625
 40
0.443359375
 40
0.4453125
 40
0.44921875
 40
0.453125
 40
0.45703125
 40
0.4609375
 40
0.46875
 40
0.4765625
 40
0.48046875
 40
0.484375
 40
0.48828125
 40
0.4921875
 40
0.494140625
 40
0.49609375
 40
0.4970703125
 40
0.498046875
 40
0.4990234375
 40
0.4995117188
 40
0.5
 40
0.5004882812
 40
0.5009765625
 40
0.501953125
 40
0.5029296875
 40
0.50390625
 40
0.505859375
 40
0.5078125
 40
0.51171875
 40
0.515625
 40
0.51953125
 40
0.5234375
 40
0.53125
 40
0.5390625
 40
0.54296875
 40
0.546875
 40
0.55078125
 40
0.5546875
 40
0.556640625
 40
0.55859375
 40
0.560546875
 40
0.5615234375
 40
0.5620117188
 40
0.5625
 40
0.5629882812
 40
0.5634765625
 40
0.564453125
 40
0.56640625
 40
0.568359375
 40
0.5703125
 40
0.57421875
 40
0.578125
 40
0.58203125
 40
0.5859375
 40
0.59375
 40
0.6015625
 40
0.60546875
 40
0.609375
 40
0.61328125
 40
0.6171875
 40
0.619140625
 40
0.62109375
 40
0.623046875
 40
0.6240234375
 40
0.6245117188
 40
0.625
 40
0.6254882812
 40
0.6259765625
 40
0.626953125
 40
0.62890625
 40
0.630859375
 40
0.6328125
 40
0.63671875
 40
0.640625
 40
0.64453125
 40
0.6484375
 40
0.65625
 40
0.6640625
 40
0.66796875
 40
0.671875
 40
0.67578125
 40
0.6796875
 40
0.681640625
 40
0.68359375
 40
0.685546875
 40
0.6865234375
 40
0.6870117188
 40
0.6875
 40
0.6879882812
 40
0.6884765625
 40
0.689453125
 40
0.69140625
 40
0.693359375
 40
0.6953125
 40
0.69921875
 40
0.703125
 40
0.70703125
 40
0.7109375
 40
0.71875
 40
0.7265625
 40
0.73046875
 40
0.734375
 40
0.73828125
 40
0.7421875
 40
0.744140625
 40
0.74609375
 40
0.748046875
 40
0.7490234375
 40
0.7495117188
 40
0.75
 40
0.7504882812
 40
0.7509765625
 40
0.751953125
 40
0.75390625
 40
0.755859375
 40
0.7578125
 40
0.76171875
 40
0.765625
 40
0.76953125
 40
0.7734375
 40
0.78125
 40
0.7890625
 40
0.79296875
 40
0.796875
 40
0.80078125
 40
0.8046875
 40
0.806640625
 40
0.80859375
 40
0.810546875
 40
0.8115234375
 40
0.8120117188
 40
0.8125
 40
0.8129882812
 40
0.8134765625
 40
0.814453125
 40
0.81640625
 40
0.818359375
 40
0.8203125
 40
0.82421875
 40
0.828125
 40
0.83203125
 40
0.8359375
 40
0.84375
 40
0.8515625
 40
0.85546875
 40
0.859375
 40
0.86328125
 40
0.8671875
 40
0.869140625
 40
0.87109375
 40
0.873046875
 40
0.8740234375
 40
0.8745117188
 40
0.875
 40
0.8754882812
 40
0.8759765625
 40
0.876953125
 40
0.87890625
 40
0.880859375
 40
0.8828125
 40
0.88671875
 40
0.890625
 40
0.89453125
 40
0.8984375
 40
0.90625
 40
0.9140625
 40
0.91796875
 40
0.921875
 40
0.92578125
 40
0.9296875
 40
0.931640625
 40
0.93359375
 40
0.935546875
 40
0.9365234375
 40
0.9370117188
 40
0.9375
 40
0.9379882812
 40
0.9384765625
 40
0.939453125
 40
0.94140625
 40
0.943359375
 40
0.9453125
 40
0.94921875
 40
0.953125
 40
0.95703125
 40
0.9609375
 40
0.96875
 40
0.9765625
 40
0.984375
 40
1.0
 40
1.0
 40
1.0
 40
1.0
 10
9.7443703093
 20
9.8001828939
 30
0.0
 10
9.7387418297
 20
9.8000213531
 30
0.0
 10
9.7302991103
 20
9.7997790418
 30
0.0
 10
9.7190421511
 20
9.79945596
 30
0.0
 10
9.7105994316
 20
9.7992136489
 30
0.0
 10
9.7035638322
 20
9.7990117221
 30
0.0
 10
9.6979353523
 20
9.7988501828
 30
0.0
 10
9.6937139935
 20
9.7987290222
 30
0.0
 10
9.6894926301
 20
9.7986078854
 30
0.0
 10
9.6859748419
 20
9.7985068635
 30
0.0
 10
9.6831605786
 20
9.7984262132
 30
0.0
 10
9.6814017384
 20
9.798375426
 30
0.0
 10
9.679994496
 20
9.7983356681
 30
0.0
 10
9.6789395304
 20
9.7983034628
 30
0.0
 10
9.6780589093
 20
9.7982842179
 30
0.0
 10
9.6773577387
 20
9.7982517925
 30
0.0
 10
9.6768227718
 20
9.7982740063
 30
0.0
 10
9.6763224976
 20
9.7981186035
 30
0.0
 10
9.6756433466
 20
9.7979734435
 30
0.0
 10
9.6747985658
 20
9.7977707066
 30
0.0
 10
9.6737830491
 20
9.7975365338
 30
0.0
 10
9.6724296485
 20
9.7972211209
 30
0.0
 10
9.6707376849
 20
9.7968279446
 30
0.0
 10
9.6680306621
 20
9.7961982533
 30
0.0
 10
9.6646468427
 20
9.7954113482
 30
0.0
 10
9.6605862769
 20
9.7944669726
 30
0.0
 10
9.6565257065
 20
9.7935226209
 30
0.0
 10
9.6511116143
 20
9.7922634769
 30
0.0
 10
9.6443439983
 20
9.79068955
 30
0.0
 10
9.6375763829
 20
9.7891156211
 30
0.0
 10
9.6321622897
 20
9.7878564804
 30
0.0
 10
9.6281017222
 20
9.7869121188
 30
0.0
 10
9.6240411455
 20
9.7859677801
 30
0.0
 10
9.6206573602
 20
9.7851807599
 30
0.0
 10
9.6179502679
 20
9.7845513035
 30
0.0
 10
9.6162584811
 20
9.7841575293
 30
0.0
 10
9.6149047176
 20
9.7838433436
 30
0.0
 10
9.6138903096
 20
9.7836054218
 30
0.0
 10
9.61304206
 20
9.7834144147
 30
0.0
 10
9.6123699861
 20
9.7832453236
 30
0.0
 10
9.611848099
 20
9.7831630049
 30
0.0
 10
9.6113942757
 20
9.7829108306
 30
0.0
 10
9.6107654025
 20
9.7826339309
 30
0.0
 10
9.6099874682
 20
9.7822674496
 30
0.0
 10
9.6090504555
 20
9.7818363854
 30
0.0
 10
9.6078023248
 20
9.7812585896
 30
0.0
 10
9.6062417438
 20
9.780537387
 30
0.0
 10
9.6037450476
 20
9.7793828805
 30
0.0
 10
9.6006240973
 20
9.7779399471
 30
0.0
 10
9.5968789912
 20
9.7762083415
 30
0.0
 10
9.5931338759
 20
9.7744767587
 30
0.0
 10
9.5881403921
 20
9.7721679736
 30
0.0
 10
9.5818985362
 20
9.7692819953
 30
0.0
 10
9.5756566811
 20
9.766396015
 30
0.0
 10
9.5706631958
 20
9.7640872332
 30
0.0
 10
9.566918085
 20
9.7623556408
 30
0.0
 10
9.5631729624
 20
9.760624071
 30
0.0
 10
9.5600520635
 20
9.7591810262
 30
0.0
 10
9.5575552623
 20
9.7580267469
 30
0.0
 10
9.5559949485
 20
9.7573049659
 30
0.0
 10
9.5547462693
 20
9.7567283576
 30
0.0
 10
9.5538109323
 20
9.7562936656
 30
0.0
 10
9.5530277551
 20
9.7559385346
 30
0.0
 10
9.5524095785
 20
9.7556384781
 30
0.0
 10
9.5519230884
 20
9.7554570234
 30
0.0
 10
9.5515238463
 20
9.7551091939
 30
0.0
 10
9.5509610467
 20
9.7547035381
 30
0.0
 10
9.5502680036
 20
9.7541765287
 30
0.0
 10
9.5494318762
 20
9.7535526523
 30
0.0
 10
9.5483186029
 20
9.7527178361
 30
0.0
 10
9.546926476
 20
9.7516753364
 30
0.0
 10
9.5446993722
 20
9.7500067666
 30
0.0
 10
9.5419153897
 20
9.74792125
 30
0.0
 10
9.5385746548
 20
9.7454185462
 30
0.0
 10
9.5352339081
 20
9.7429158649
 30
0.0
 10
9.5307795833
 20
9.7395789486
 30
0.0
 10
9.5252116756
 20
9.735407806
 30
0.0
 10
9.5196437694
 20
9.7312366618
 30
0.0
 10
9.5151894424
 20
9.7278997482
 30
0.0
 10
9.5118487021
 20
9.7253970586
 30
0.0
 10
9.508507943
 20
9.722894386
 30
0.0
 10
9.5057240359
 20
9.7208087722
 30
0.0
 10
9.5034967785
 20
9.7191404007
 30
0.0
 10
9.5021050424
 20
9.7180973964
 30
0.0
 10
9.5009909669
 20
9.717263616
 30
0.0
 10
9.5001572904
 20
9.7166365751
 30
0.0
 10
9.4994565788
 20
9.7161194666
 30
0.0
 10
9.4989094244
 20
9.7156936111
 30
0.0
 10
9.4984624028
 20
9.7154074703
 30
0.0
 10
9.498155297
 20
9.7149944104
 30
0.0
 10
9.4976969482
 20
9.7144879984
 30
0.0
 10
9.4971407809
 20
9.7138397724
 30
0.0
 10
9.4964662025
 20
9.7130684119
 30
0.0
 10
9.4955692716
 20
9.7120376573
 30
0.0
 10
9.4944472497
 20
9.7107499926
 30
0.0
 10
9.4926524943
 20
9.708689294
 30
0.0
 10
9.4904088854
 20
9.70611357
 30
0.0
 10
9.4877166254
 20
9.7030226371
 30
0.0
 10
9.4850243464
 20
9.6999317215
 30
0.0
 10
9.4814346478
 20
9.6958104946
 30
0.0
 10
9.476947522
 20
9.6906589631
 30
0.0
 10
9.4724603979
 20
9.6855074303
 30
0.0
 10
9.4688706965
 20
9.6813862056
 30
0.0
 10
9.4661784258
 20
9.6782952832
 30
0.0
 10
9.463486135
 20
9.6752043756
 30
0.0
 10
9.4612426217
 20
9.6726285732
 30
0.0
 10
9.4594476714
 20
9.6705680345
 30
0.0
 10
9.4583261455
 20
9.6692799628
 30
0.0
 10
9.4574281964
 20
9.6682500436
 30
0.0
 10
9.4567567291
 20
9.6674761307
 30
0.0
 10
9.456190828
 20
9.6668358908
 30
0.0
 10
9.4557523378
 20
9.6663131855
 30
0.0
 10
9.4553845852
 20
9.6659498843
 30
0.0
 10
9.4551652568
 20
9.6654769286
 30
0.0
 10
9.4548209724
 20
9.6648846248
 30
0.0
 10
9.4544084051
 20
9.6641311031
 30
0.0
 10
9.4539057105
 20
9.6632325023
 30
0.0
 10
9.4532381104
 20
9.6620324031
 30
0.0
 10
9.4524026997
 20
9.6605329518
 30
0.0
 10
9.4510665515
 20
9.6581334538
 30
0.0
 10
9.4493961916
 20
9.6551342104
 30
0.0
 10
9.4473918346
 20
9.6515350629
 30
0.0
 10
9.4453874575
 20
9.6479359302
 30
0.0
 10
9.4427149618
 20
9.6431370814
 30
0.0
 10
9.4393743396
 20
9.6371385223
 30
0.0
 10
9.4360337191
 20
9.6311399621
 30
0.0
 10
9.4333612205
 20
9.6263411152
 30
0.0
 10
9.4313568523
 20
9.6227419771
 30
0.0
 10
9.4293524619
 20
9.6191428498
 30
0.0
 10
9.4276822059
 20
9.6161435434
 30
0.0
 10
9.4263458458
 20
9.6137441737
 30
0.0
 10
9.4255109742
 20
9.612244396
 30
0.0
 10
9.4248422676
 20
9.6110449669
 30
0.0
 10
9.4243429535
 20
9.6101443189
 30
0.0
 10
9.4239198093
 20
9.6093972021
 30
0.0
 10
9.4235971039
 20
9.6087918312
 30
0.0
 10
9.4233118745
 20
9.6083587816
 30
0.0
 10
9.4231915417
 20
9.6078456564
 30
0.0
 10
9.4229734975
 20
9.607189461
 30
0.0
 10
9.4227207047
 20
9.6063596199
 30
0.0
 10
9.4224088944
 20
9.6053679182
 30
0.0
 10
9.4219961018
 20
9.6040442147
 30
0.0
 10
9.4214790995
 20
9.6023900764
 30
0.0
 10
9.4206524611
 20
9.5997431807
 30
0.0
 10
9.4196189691
 20
9.5964346553
 30
0.0
 10
9.418378862
 20
9.5924643844
 30
0.0
 10
9.4171387325
 20
9.5884941243
 30
0.0
 10
9.4154852344
 20
9.5832004404
 30
0.0
 10
9.4134183588
 20
9.576583337
 30
0.0
 10
9.4113514853
 20
9.5699662326
 30
0.0
 10
9.4096979839
 20
9.5646725501
 30
0.0
 10
9.4084578641
 20
9.5607022859
 30
0.0
 10
9.4072177207
 20
9.5567320304
 30
0.0
 10
9.4061843415
 20
9.5534234572
 30
0.0
 10
9.4053574733
 20
9.5507766588
 30
0.0
 10
9.4048410558
 20
9.549122273
 30
0.0
 10
9.4044270627
 20
9.5477990776
 30
0.0
 10
9.4041189203
 20
9.5468058235
 30
0.0
 10
9.4038546514
 20
9.5459808397
 30
0.0
 10
9.4036600206
 20
9.5453147344
 30
0.0
 10
9.4034681845
 20
9.5448318734
 30
0.0
 10
9.4034514084
 20
9.5442851994
 30
0.0
 10
9.4033678895
 20
9.5435785915
 30
0.0
 10
9.4032844713
 20
9.5426876837
 30
0.0
 10
9.4031753893
 20
9.541621868
 30
0.0
 10
9.4030330831
 20
9.5401996369
 30
0.0
 10
9.4028541265
 20
9.5384222395
 30
0.0
 10
9.4025683961
 20
9.5355781849
 30
0.0
 10
9.4022110271
 20
9.5320231918
 30
0.0
 10
9.4017822726
 20
9.5277571678
 30
0.0
 10
9.4013534945
 20
9.5234911525
 30
0.0
 10
9.4007817987
 20
9.517803129
 30
0.0
 10
9.4000671758
 20
9.5106931007
 30
0.0
 10
9.399352555
 20
9.503583072
 30
0.0
 10
9.3987808558
 20
9.4978950491
 30
0.0
 10
9.3983520878
 20
9.4936290321
 30
0.0
 10
9.3979232953
 20
9.4893630146
 30
0.0
 10
9.3975660447
 20
9.4858080014
 30
0.0
 10
9.397280073
 20
9.4829639876
 30
0.0
 10
9.3971017304
 20
9.4811864864
 30
0.0
 10
9.3969581639
 20
9.4797644685
 30
0.0
 10
9.3968529323
 20
9.4786980014
 30
0.0
 10
9.3967574668
 20
9.4778091316
 30
0.0
 10
9.3966985269
 20
9.4770983658
 30
0.0
 10
9.396606688
 20
9.4765643897
 30
0.0
 10
9.3966966688
 20
9.4760338556
 30
0.0
 10
9.3967531311
 20
9.4753252745
 30
0.0
 10
9.3968454998
 20
9.4744399606
 30
0.0
 10
9.396947015
 20
9.4733774074
 30
0.0
 10
9.3970856264
 20
9.4719607315
 30
0.0
 10
9.3972577753
 20
9.4701898654
 30
0.0
 10
9.3975338368
 20
9.4673564915
 30
0.0
 10
9.3978786998
 20
9.4638147701
 30
0.0
 10
9.3982926271
 20
9.4595647061
 30
0.0
 10
9.3987065299
 20
9.4553146417
 30
0.0
 10
9.3992584087
 20
9.4496478893
 30
0.0
 10
9.3999482553
 20
9.4425644488
 30
0.0
 10
9.4006380992
 20
9.4354810079
 30
0.0
 10
9.4011899824
 20
9.4298142563
 30
0.0
 10
9.4016038719
 20
9.4255641896
 30
0.0
 10
9.402017849
 20
9.4213141341
 30
0.0
 10
9.4023625572
 20
9.4177723862
 30
0.0
 10
9.4026389346
 20
9.4149390664
 30
0.0
 10
9.4028445486
 20
9.4128138619
 30
0.0
 10
9.4030212025
 20
9.4110435411
 30
0.0
 10
9.4031344417
 20
9.4098029761
 30
0.0
 10
9.4032154176
 20
9.4090961748
 30
0.0
 10
9.4032303228
 20
9.408560178
 30
0.0
 10
9.4034204008
 20
9.408046718
 30
0.0
 10
9.403612736
 20
9.4073542436
 30
0.0
 10
9.4039777911
 20
9.4061460761
 30
0.0
 10
9.4044844147
 20
9.4044182076
 30
0.0
 10
9.4050987338
 20
9.402345585
 30
0.0
 10
9.4059156004
 20
9.399581802
 30
0.0
 10
9.4069374474
 20
9.3961271714
 30
0.0
 10
9.4081633365
 20
9.3919815726
 30
0.0
 10
9.4093893131
 20
9.387835985
 30
0.0
 10
9.4110239179
 20
9.382308531
 30
0.0
 10
9.4130671853
 20
9.3753992151
 30
0.0
 10
9.4151104453
 20
9.3684898975
 30
0.0
 10
9.416745062
 20
9.3629624462
 30
0.0
 10
9.4179710028
 20
9.3588168503
 30
0.0
 10
9.4191970262
 20
9.3546712827
 30
0.0
 10
9.4202184552
 20
9.351216555
 30
0.0
 10
9.4210361743
 20
9.3484529701
 30
0.0
 10
9.4216478904
 20
9.3463797422
 30
0.0
 10
9.4221626576
 20
9.3446537676
 30
0.0
 10
9.4225131751
 20
9.3434422191
 30
0.0
 10
9.4227288032
 20
9.3427551619
 30
0.0
 10
9.4228473328
 20
9.3422250621
 30
0.0
 10
9.4231309619
 20
9.3417515618
 30
0.0
 10
9.4234515456
 20
9.3411004854
 30
0.0
 10
9.4240393986
 20
9.3399703003
 30
0.0
 10
9.4248651607
 20
9.338350941
 30
0.0
 10
9.4258620797
 20
9.3364097683
 30
0.0
 10
9.4271892075
 20
9.333820819
 30
0.0
 10
9.428848837
 20
9.3305848791
 30
0.0
 10
9.4308400839
 20
9.3267016455
 30
0.0
 10
9.4328314134
 20
9.3228184402
 30
0.0
 10
9.4354864904
 20
9.3176408231
 30
0.0
 10
9.4388053474
 20
9.3111688056
 30
0.0
 10
9.4421241973
 20
9.3046967852
 30
0.0
 10
9.4447792857
 20
9.2995191728
 30
0.0
 10
9.4467705809
 20
9.2956359535
 30
0.0
 10
9.4487619563
 20
9.2917527723
 30
0.0
 10
9.4504211862
 20
9.2885166694
 30
0.0
 10
9.451749129
 20
9.2859280525
 30
0.0
 10
9.452743559
 20
9.2839858647
 30
0.0
 10
9.4535771085
 20
9.2823696815
 30
0.0
 10
9.4541510597
 20
9.2812338264
 30
0.0
 10
9.4544939175
 20
9.2805918348
 30
0.0
 10
9.4547091277
 20
9.2800904292
 30
0.0
 10
9.4550846274
 20
9.2796651367
 30
0.0
 10
9.4555293829
 20
9.2790715309
 30
0.0
 10
9.4563337549
 20
9.2780450906
 30
0.0
 10
9.4574692385
 20
9.2765722801
 30
0.0
 10
9.4588376484
 20
9.2748076757
 30
0.0
 10
9.4606601585
 20
9.2724539029
 30
0.0
 10
9.4629389949
 20
9.2695120187
 30
0.0
 10
9.4656732991
 20
9.2659816154
 30
0.0
 10
9.4684076835
 20
9.2624512501
 30
0.0
 10
9.4720535012
 20
9.2577440831
 30
0.0
 10
9.4766107836
 20
9.2518601296
 30
0.0
 10
9.4811680599
 20
9.2459761716
 30
0.0
 10
9.4848138873
 20
9.2412690118
 30
0.0
 10
9.4875482425
 20
9.2377386247
 30
0.0
 10
9.4902826562
 20
9.2342083035
 30
0.0
 10
9.4925611518
 20
9.2312661639
 30
0.0
 10
9.494384357
 20
9.2289129118
 30
0.0
 10
9.4957506443
 20
9.2271467173
 30
0.0
 10
9.4968927687
 20
9.2256788817
 30
0.0
 10
9.4976852858
 20
9.2246435603
 30
0.0
 10
9.4981490358
 20
9.2240641842
 30
0.0
 10
9.4984661903
 20
9.2235951829
 30
0.0
 10
9.4989005354
 20
9.2232579401
 30
0.0
 10
9.4994387848
 20
9.2227623242
 30
0.0
 10
9.5003997668
 20
9.2219164094
 30
0.0
 10
9.5017626409
 20
9.2206967647
 30
0.0
 10
9.503402352
 20
9.2192379829
 30
0.0
 10
9.5055871446
 20
9.2172912666
 30
0.0
 10
9.5083186462
 20
9.2148584457
 30
0.0
 10
9.5115962291
 20
9.2119388144
 30
0.0
 10
9.5148738706
 20
9.2090192489
 30
0.0
 10
9.5192440388
 20
9.2051264718
 30
0.0
 10
9.5247067566
 20
9.2002605092
 30
0.0
 10
9.5301694696
 20
9.1953945406
 30
0.0
 10
9.5345396454
 20
9.1915017732
 30
0.0
 10
9.5378172641
 20
9.1885821789
 30
0.0
 10
9.5410949325
 20
9.1856626555
 30
0.0
 10
9.5438261681
 20
9.1832294989
 30
0.0
 10
9.5460115031
 20
9.1812834671
 30
0.0
 10
9.5476495578
 20
9.1798225951
 30
0.0
 10
9.5490176141
 20
9.1786094902
 30
0.0
 10
9.5499693451
 20
9.1777519007
 30
0.0
 10
9.5505224168
 20
9.1772749906
 30
0.0
 10
9.5509112325
 20
9.1768802897
 30
0.0
 10
9.5513993879
 20
9.1766270914
 30
0.0
 10
9.552015611
 20
9.1762401361
 30
0.0
 10
9.5531101458
 20
9.1755859609
 30
0.0
 10
9.5546653265
 20
9.174639402
 30
0.0
 10
9.5565351562
 20
9.1735086776
 30
0.0
 10
9.5590270004
 20
9.1719992474
 30
0.0
 10
9.5621422387
 20
9.1701130764
 30
0.0
 10
9.565880339
 20
9.1678494069
 30
0.0
 10
9.569618489
 20
9.1655858081
 30
0.0
 10
9.5746026716
 20
9.1625676515
 30
0.0
 10
9.5808329061
 20
9.1587949652
 30
0.0
 10
9.587063137
 20
9.1550222723
 30
0.0
 10
9.5920473255
 20
9.1520041264
 30
0.0
 10
9.5957854578
 20
9.1497404958
 30
0.0
 10
9.5995236244
 20
9.1474769453
 30
0.0
 10
9.6026386564
 20
9.145590404
 30
0.0
 10
9.6051309213
 20
9.1440817292
 30
0.0
 10
9.6069994662
 20
9.1429486977
 30
0.0
 10
9.6085586667
 20
9.1420093569
 30
0.0
 10
9.6096460255
 20
9.1413422962
 30
0.0
 10
9.6102737464
 20
9.1409759868
 30
0.0
 10
9.6107265842
 20
9.1406593708
 30
0.0
 10
9.611248047
 20
9.1405028566
 30
0.0
 10
9.6119193936
 20
9.1402383258
 30
0.0
 10
9.6131054028
 20
9.1398014161
 30
0.0
 10
9.614793871
 20
9.1391636563
 30
0.0
 10
9.6168225286
 20
9.1384041671
 30
0.0
 10
9.6195265336
 20
9.1373894809
 30
0.0
 10
9.622906839
 20
9.1361218211
 30
0.0
 10
9.6269630772
 20
9.1346003302
 30
0.0
 10
9.6310193497
 20
9.1330789194
 30
0.0
 10
9.636427701
 20
9.1310503435
 30
0.0
 10
9.6431881446
 20
9.1285146342
 30
0.0
 10
9.6499485856
 20
9.1259789176
 30
0.0
 10
9.6553569411
 20
9.1239503534
 30
0.0
 10
9.659413201
 20
9.1224289076
 30
0.0
 10
9.6634694867
 20
9.1209075476
 30
0.0
 10
9.6668496443
 20
9.1196394806
 30
0.0
 10
9.6695539506
 20
9.1186256249
 30
0.0
 10
9.6715816881
 20
9.1178635996
 30
0.0
 10
9.673273035
 20
9.1172337744
 30
0.0
 10
9.6744539052
 20
9.1167827001
 30
0.0
 10
9.6751334859
 20
9.1165408645
 30
0.0
 10
9.6756296562
 20
9.1163146378
 30
0.0
 10
9.6761774884
 20
9.1162598505
 30
0.0
 10
9.676889911
 20
9.1161270007
 30
0.0
 10
9.6781450466
 20
9.1159223755
 30
0.0
 10
9.679933708
 20
9.1156154872
 30
0.0
 10
9.6820819804
 20
9.1152534562
 30
0.0
 10
9.6849456874
 20
9.1147685703
 30
0.0
 10
9.6885255463
 20
9.1141632103
 30
0.0
 10
9.6928212805
 20
9.1134364579
 30
0.0
 10
9.6971170405
 20
9.1127097912
 30
0.0
 10
9.7028447115
 20
9.1117408724
 30
0.0
 10
9.7100043034
 20
9.1105297341
 30
0.0
 10
9.7185958122
 20
9.1090763638
 30
0.0
 10
9.7300511579
 20
9.1071385382
 30
0.0
 10
9.738642667
 20
9.1056851686
 30
0.0
 10
9.7443703397
 20
9.1047162557
 30
0.0
  0
ENDSEC
  0
SECTION
  2
OBJECTS
  0
DICTIONARY
  5
C
100
AcDbDictionary
280
0
281
1
  3
ACAD_GROUP
350
D
  3
ACAD_MLINESTYLE
350
17
  3
ACAD_LAYOUT
350
1A
  3
ACAD_PLOTSETTINGS
350
19
  3
ACAD_PLOTSTYLENAME
350
E
  3
ACAD_IMAGE_DICT
350
       335
  3
ACAD_IMAGE_VARS
350
       336
  3
ACAD_TABLESTYLE
350
       337
  0
IMAGEDEF_REACTOR
  5
334
100
AcDbRasterImageDefReactor
 90
2
330
27F
  0
DICTIONARY
  5
D
102
{ACAD_REACTORS
330
C
102
}
100
AcDbDictionary
280
0
281
1
  0
ACDBDICTIONARYWDFLT
  5
E
102
{ACAD_REACTORS
330
C
102
}
100
AcDbDictionary
281
1
  3
Normal
350
F
100
AcDbDictionaryWithDefault
340
F
  0
DICTIONARY
  5
335
330
C
100
AcDbDictionary
281
1
  3
YBA_assy_2_img_1
350
       33A
  0
RASTERVARIABLES
  5
336
330
C
100
AcDbRasterVariables
 90
0
 70
0
 71
1
 72
5
  0
DICTIONARY
  5
17
102
{ACAD_REACTORS
330
C
102
}
100
AcDbDictionary
280
0
281
1
  3
Standard
350
18
  0
DICTIONARY
  5
337
330
C
100
AcDbDictionary
281
1
  3
Standard
350
       33B
  3
Standard1
350
       33C
  0
DICTIONARY
  5
19
102
{ACAD_REACTORS
330
C
102
}
100
AcDbDictionary
281
1
  0
DICTIONARY
  5
1A
102
{ACAD_REACTORS
330
C
102
}
100
AcDbDictionary
281
1
  3
Model
350
338
  3
Layout1
350
339
  0
ACDBPLACEHOLDER
  5
F
102
{ACAD_REACTORS
330
E
102
}
  0
MLINESTYLE
  5
18
102
{ACAD_REACTORS
330
17
102
}
100
AcDbMlineStyle
  2
STANDARD
 70
0
  3

 62
256
 51
90.0
 52
90.0
 71
2
 49
0.5
 62
256
  6
BYLAYER
 49
-0.5
 62
256
  6
BYLAYER
  0
LAYOUT
  5
338
102
{ACAD_REACTORS
330
1A
102
}
100
AcDbPlotSettings
  1

  2
none_device
  4
ANSI_C_(22.00_x_17.00_Inches)
  6

 40
0.0
 41
0.0
 42
0.0
 43
0.0
 44
558.8
 45
431.8
 46
0.0
 47
0.0
 48
0.0
 49
0.0
140
0.0
141
0.0
142
1.0
143
1.0
 70
1024
 72
0
 73
0
 74
0
  7

 75
0
147
1.0
148
0.0
149
0.0
100
AcDbLayout
  1
Model
 70
0
 71
0
 10
0.0
 20
0.0
 11
22.0
 21
17.0
 12
0.0
 22
0.0
 32
0.0
 14
0.0
 24
0.0
 34
0.0
 15
0.0
 25
0.0
 35
0.0
146
0.0
 13
0.0
 23
0.0
 33
0.0
 16
1.0
 26
0.0
 36
0.0
 17
0.0
 27
1.0
 37
0.0
 76
0
330
204
345
0
346
0
  0
LAYOUT
  5
339
102
{ACAD_REACTORS
330
1A
102
}
100
AcDbPlotSettings
  1

  2
none_device
  4
ANSI_C_(22.00_x_17.00_Inches)
  6

 40
0.0
 41
0.0
 42
0.0
 43
0.0
 44
558.8
 45
431.8
 46
0.0
 47
0.0
 48
0.0
 49
0.0
140
0.0
141
0.0
142
1.0
143
1.0
 70
0
 72
0
 73
0
 74
0
  7

 75
0
147
1.0
148
0.0
149
0.0
100
AcDbLayout
  1
Layout1
 70
0
 71
1
 10
0.0
 20
0.0
 11
22.0
 21
17.0
 12
0.0
 22
0.0
 32
0.0
 14
0.0
 24
0.0
 34
0.0
 15
0.0
 25
0.0
 35
0.0
146
0.0
 13
0.0
 23
0.0
 33
0.0
 16
1.0
 26
0.0
 36
0.0
 17
0.0
 27
1.0
 37
0.0
 76
0
330
205
345
0
346
0
  0
IMAGEDEF
  5
33A
102
{ACAD_REACTORS
330
335
330
334
102
}
100
AcDbRasterImageDef
 90
0
  1
YBA_assy_2_img_1.png
 10
369.0
 20
92.0
 11
0.0066666667
 21
0.0066666667
280
1
281
0
  0
TABLESTYLE
  5
33B
102
{ACAD_REACTORS
330
337
330
282
330
283
102
}
330
337
100
AcDbTableStyle
  3
Standard
 70
0
 71
0
 40
0.06
 41
0.06
280
1
281
1
  7
Standard
140
0.18
170
1
 62
0
 63
7
283
0
  7
Standard
140
0.18
170
1
 62
0
 63
7
283
0
  7
Standard
140
0.18
170
1
 62
0
 63
7
283
0
  0
TABLESTYLE
  5
33C
102
{ACAD_REACTORS
330
337
330
281
102
}
330
337
100
AcDbTableStyle
  3
Standard1
 70
1
 71
0
 40
0.06
 41
0.06
280
1
281
1
  7
Standard
140
0.18
170
1
 62
0
 63
7
283
0
  7
Standard
140
0.18
170
1
 62
0
 63
7
283
0
  7
Standard
140
0.18
170
1
 62
0
 63
7
283
0
  0
ENDSEC
  0
EOF
