999
DXF file: Y6U_assy_2.dxf
999
Pro/ENGINEER 2014200 by Parametric Technology Corporation
  0
SECTION
  2
HEADER
  9
$ACADVER
  1
AC1021
  9
$DWGCODEPAGE
  3
ANSI_1252
  9
$EXTMAX
 10
22.0
 20
17.0
 30
0.0
  9
$EXTMIN
 10
0.0
 20
0.0
 30
0.0
  9
$LIMMIN
 10
0.0
 20
0.0
  9
$LIMMAX
 10
22.0
 20
17.0
  9
$VIEWCTR
 10
11.0
 20
8.5
  9
$VIEWSIZE
 40
17.0
  9
$CLAYER
  8
0
  9
$LTSCALE
 40
1.21
  9
$CELTYPE
  6
BYLAYER
  9
$DIMSCALE
 40
1.0
  9
$DIMASZ
 40
0.1875
  9
$DIMEXO
 40
0.0625
  9
$DIMDLI
 40
0.836
  9
$DIMEXE
 40
0.125
  9
$DIMCEN
 40
0.198
  9
$DIMLFAC
 40
1.0
  9
$DIMBLK
  1
_FILLED
  9
$DIMTXT
 40
0.1
  9
$DIMTOL
 70
0
  9
$DIMLIM
 70
0
  9
$DIMTFAC
 40
1.0
  9
$DIMGAP
 40
0.09
  9
$DIMDSEP
 70
46
  9
$AUNITS
 70
0
  9
$PDMODE
 70
3
  9
$PDSIZE
 40
0.3125
  9
$HANDSEED
  5
43A
  9
$TILEMODE
 70
1
  9
$MEASUREMENT
 70
0
  9
$INSUNITS
 70
1
  0
ENDSEC
  0
SECTION
  2
CLASSES
  0
CLASS
  1
ACDBDICTIONARYWDFLT
  2
AcDbDictionaryWithDefault
  3
AutoCAD 2000
 90
0
 91
1
280
0
281
0
  0
CLASS
  1
ACDBPLACEHOLDER
  2
AcDbPlaceHolder
  3
AutoCAD 2000
 90
0
 91
1
280
0
281
0
  0
CLASS
  1
LAYOUT
  2
AcDbLayout
  3
AutoCAD 2000
 90
0
 91
0
280
0
281
0
  0
CLASS
  1
RASTERVARIABLES
  2
AcDbRasterVariables
  3
ISM
 90
0
 91
1
280
0
281
0
  0
CLASS
  1
IMAGEDEF
  2
AcDbRasterImageDef
  3
ISM
 90
0
 91
1
280
0
281
0
  0
CLASS
  1
IMAGEDEF_REACTOR
  2
AcDbRasterImageDefReactor
  3
ISM
 90
0
 91
1
280
0
281
0
  0
CLASS
  1
IMAGE
  2
AcDbRasterImage
  3
ISM
 90
127
 91
1
280
0
281
1
  0
CLASS
  1
TABLESTYLE
  2
AcDbTableStyle
  3
ObjectDBX Classes
 90
2047
 91
1
280
0
281
0
  0
CLASS
  1
ACAD_TABLE
  2
AcDbTable
  3
ObjectDBX Classes
 90
1025
 91
3
280
0
281
1
  0
ENDSEC
  0
SECTION
  2
TABLES
  0
TABLE
  2
VPORT
  5
8
100
AcDbSymbolTable
 70
2
  0
VPORT
  5
1F4
100
AcDbSymbolTableRecord
100
AcDbViewportTableRecord
  2
*ACTIVE
 70
0
 10
0.0
 20
0.0
 11
1.0
 21
1.0
 12
11.0
 22
8.5
 13
0.0
 23
0.0
 14
1.0
 24
1.0
 15
0.0
 25
0.0
 16
0.0
 26
0.0
 36
1.0
 17
0.0
 27
0.0
 37
0.0
 40
17.0
 41
1.2941176471
 42
50.0
 43
0.0
 44
0.0
 50
0.0
 51
0.0
 71
0
 72
100
 73
1
 74
1
 75
0
 76
0
 77
0
 78
0
  0
ENDTAB
  0
TABLE
  2
LTYPE
  5
5
100
AcDbSymbolTable
 70
6
  0
LTYPE
  5
14
100
AcDbSymbolTableRecord
100
AcDbLinetypeTableRecord
  2
BYBLOCK
 70
0
  3

 72
65
 73
0
 40
0.0
  0
LTYPE
  5
15
100
AcDbSymbolTableRecord
100
AcDbLinetypeTableRecord
  2
BYLAYER
 70
0
  3

 72
65
 73
0
 40
0.0
  0
LTYPE
  5
16
100
AcDbSymbolTableRecord
100
AcDbLinetypeTableRecord
  2
CONTINUOUS
 70
64
  3
Solid line
 72
65
 73
0
 40
0.0
  0
LTYPE
  5
1F5
100
AcDbSymbolTableRecord
100
AcDbLinetypeTableRecord
  2
CENTER
 70
64
  3
____ _ ____ _ ____ _ ____ _ ____ _ ____ _ ____
 72
65
 73
4
 40
0.6
 49
0.375
 74
0
 49
-0.075
 74
0
 49
0.075
 74
0
 49
-0.075
 74
0
  0
LTYPE
  5
1F6
100
AcDbSymbolTableRecord
100
AcDbLinetypeTableRecord
  2
HIDDEN
 70
64
  3
- - - - - - - - - - - - - - - - - - - -
 72
65
 73
2
 40
0.2
 49
0.1
 74
0
 49
-0.1
 74
0
  0
LTYPE
  5
1F7
100
AcDbSymbolTableRecord
100
AcDbLinetypeTableRecord
  2
PHANTOM
 70
64
  3
_____ _ _ _____ _ _ _____ _ _ _____
 72
65
 73
6
 40
0.8
 49
0.45
 74
0
 49
-0.05
 74
0
 49
0.1
 74
0
 49
-0.05
 74
0
 49
0.1
 74
0
 49
-0.05
 74
0
  0
LTYPE
  5
1F8
100
AcDbSymbolTableRecord
100
AcDbLinetypeTableRecord
  2
DOT
 70
64
  3
. . . . . . . . . . . . . . . . . . . .
 72
65
 73
2
 40
0.2
 49
0.1
 74
0
 49
-0.1
 74
0
  0
LTYPE
  5
1F9
100
AcDbSymbolTableRecord
100
AcDbLinetypeTableRecord
  2
DASHED
 70
64
  3
- - - - - - - - - - - - - - - - - - - -
 72
65
 73
2
 40
0.2
 49
0.1
 74
0
 49
-0.1
 74
0
  0
ENDTAB
  0
TABLE
  2
LAYER
  5
2
100
AcDbSymbolTable
 70
36
  0
LAYER
  5
10
100
AcDbSymbolTableRecord
100
AcDbLayerTableRecord
  2
0
 70
0
 62
7
  6
CONTINUOUS
370
-3
390
F
  0
LAYER
  5
1FA
100
AcDbSymbolTableRecord
100
AcDbLayerTableRecord
  2
DEFAULT_1
 70
0
 62
7
  6
CENTER
370
-3
390
F
  0
LAYER
  5
1FB
100
AcDbSymbolTableRecord
100
AcDbLayerTableRecord
  2
DEFAULT_2
 70
0
 62
8
  6
HIDDEN
370
-3
390
F
  0
LAYER
  5
1FC
100
AcDbSymbolTableRecord
100
AcDbLayerTableRecord
  2
DEFAULT_3
 70
0
 62
7
  6
PHANTOM
370
-3
390
F
  0
LAYER
  5
1FD
100
AcDbSymbolTableRecord
100
AcDbLayerTableRecord
  2
DATUM_PLANES
 70
0
 62
7
  6
CONTINUOUS
370
-3
390
F
  0
LAYER
  5
1FE
100
AcDbSymbolTableRecord
100
AcDbLayerTableRecord
  2
PORT_AREAS
 70
0
 62
7
  6
CONTINUOUS
370
-3
390
F
  0
LAYER
  5
1FF
100
AcDbSymbolTableRecord
100
AcDbLayerTableRecord
  2
SUNNBOMCOSMETIC
 70
0
 62
7
  6
CONTINUOUS
370
-3
390
F
  0
LAYER
  5
200
100
AcDbSymbolTableRecord
100
AcDbLayerTableRecord
  2
SUNNBOMSTAMPING
 70
0
 62
7
  6
CONTINUOUS
370
-3
390
F
  0
LAYER
  5
201
100
AcDbSymbolTableRecord
100
AcDbLayerTableRecord
  2
THREADS
 70
0
 62
7
  6
CONTINUOUS
370
-3
390
F
  0
ENDTAB
  0
TABLE
  2
STYLE
  5
3
100
AcDbSymbolTable
 70
1
  0
STYLE
  5
11
100
AcDbSymbolTableRecord
100
AcDbTextStyleTableRecord
  2
STANDARD
 70
0
 40
0.0
 41
0.8
 50
0.0
 71
0
 42
0.2
  3
txt
  4

  0
STYLE
  5
202
100
AcDbSymbolTableRecord
100
AcDbTextStyleTableRecord
  2
TEXTSTYLE_1
 70
0
 40
0.0
 41
0.8
 50
0.0
 71
0
 42
0.2
  3
gdt
  4

  0
ENDTAB
  0
TABLE
  2
VIEW
  5
6
100
AcDbSymbolTable
 70
0
  0
ENDTAB
  0
TABLE
  2
UCS
  5
7
100
AcDbSymbolTable
 70
0
  0
ENDTAB
  0
TABLE
  2
APPID
  5
9
100
AcDbSymbolTable
 70
1
  0
APPID
  5
203
100
AcDbSymbolTableRecord
100
AcDbRegAppTableRecord
  2
ACAD
 70
0
  0
ENDTAB
  0
TABLE
  2
BLOCK_RECORD
  5
1
100
AcDbSymbolTable
 70
0
  0
BLOCK_RECORD
  5
204
100
AcDbSymbolTableRecord
100
AcDbBlockTableRecord
  2
*Model_Space
  0
BLOCK_RECORD
  5
205
100
AcDbSymbolTableRecord
100
AcDbBlockTableRecord
  2
*Paper_Space
  0
BLOCK_RECORD
  5
206
100
AcDbSymbolTableRecord
100
AcDbBlockTableRecord
  2
SUN_FIRST_THIRD_ANGLE_BL0
  0
BLOCK_RECORD
  5
207
100
AcDbSymbolTableRecord
100
AcDbBlockTableRecord
  2
*T1
  0
BLOCK_RECORD
  5
208
100
AcDbSymbolTableRecord
100
AcDbBlockTableRecord
  2
*T2
  0
BLOCK_RECORD
  5
209
100
AcDbSymbolTableRecord
100
AcDbBlockTableRecord
  2
*T3
  0
ENDTAB
  0
TABLE
  2
DIMSTYLE
  5
A
100
AcDbSymbolTable
 70
1
100
AcDbDimStyleTable
 71
0
  0
DIMSTYLE
105
20A
100
AcDbSymbolTableRecord
100
AcDbDimStyleTableRecord
  2
STANDARD
 70
0
  3

  4

 40
1.0
 41
0.1875
 42
0.0625
 43
0.38
 44
0.125
 45
0.0
 46
0.0
 47
0.001
 48
0.001
140
0.1
141
0.09
142
0.0
143
25.4
144
1.0
145
0.0
146
1.0
147
0.09
 71
0.0
 72
0.0
 73
1
 74
1
 75
0
 76
0
 77
0
 78
4
170
0
171
2
172
0
173
0
174
0
175
0
176
0
177
0
178
0
270
2
271
3
272
3
273
2
274
2
275
0
280
0
281
0
282
0
283
1
284
4
285
0
286
0
287
3
288
0
340
11
278
46
  0
ENDTAB
  0
ENDSEC
  0
SECTION
  2
BLOCKS
  0
BLOCK
  5
20
100
AcDbEntity
  8
0
100
AcDbBlockBegin
  2
*Model_Space
 70
0
 10
0.0
 20
0.0
 30
0.0
  3
*Model_Space
  1

  0
ENDBLK
  5
21
100
AcDbEntity
  8
0
100
AcDbBlockEnd
  0
BLOCK
  5
1C
100
AcDbEntity
  8
0
100
AcDbBlockBegin
  2
*Paper_Space
 70
0
 10
0.0
 20
0.0
 30
0.0
  3
*Paper_Space
  1

  0
ENDBLK
  5
1D
100
AcDbEntity
  8
0
100
AcDbBlockEnd
  0
BLOCK
  5
20B
100
AcDbEntity
  8
0
100
AcDbBlockBegin
 62
2
  6
CONTINUOUS
  2
SUN_FIRST_THIRD_ANGLE_BL0
 70
64
 10
20.4816717061
 20
1.2289683772
  3
SUN_FIRST_THIRD_ANGLE_BL0
  1

  0
TEXT
  5
20C
100
AcDbEntity
  8
0
100
AcDbText
 62
2
  6
CONTINUOUS
 10
19.4750896608
 20
1.4136269581
  7
STANDARD
 40
0.08
  1
FIRST ANGLE
 41
0.8
 72
0
100
AcDbText
  0
TEXT
  5
20D
100
AcDbEntity
  8
0
100
AcDbText
 62
2
  6
CONTINUOUS
 10
20.7842537513
 20
1.4047600029
  7
STANDARD
 40
0.08
  1
THIRD ANGLE
 41
0.8
 72
0
100
AcDbText
  0
LINE
  5
20E
100
AcDbEntity
  8
0
100
AcDbLine
 62
7
  6
CONTINUOUS
 10
19.4767170086
 20
1.1727031207
 11
19.6334271527
 21
1.1717972817
  0
LINE
  5
20F
100
AcDbEntity
  8
0
100
AcDbLine
 62
7
  6
CONTINUOUS
 10
19.6596964832
 20
1.1717972817
 11
19.6950230232
 21
1.171593082
  0
LINE
  5
210
100
AcDbEntity
  8
0
100
AcDbLine
 62
7
  6
CONTINUOUS
 10
19.7194818561
 20
1.1708914427
 11
19.8852396156
 21
1.1699333054
  0
LINE
  5
211
100
AcDbEntity
  8
0
100
AcDbLine
 62
7
  6
CONTINUOUS
 10
19.4758111696
 20
1.2723454088
 11
19.88525039
 21
1.3511534004
  0
LINE
  5
212
100
AcDbEntity
  8
0
100
AcDbLine
 62
7
  6
CONTINUOUS
 10
19.88525039
 20
1.3511534004
 11
19.8831348489
 21
0.9851647912
  0
LINE
  5
213
100
AcDbEntity
  8
0
100
AcDbLine
 62
7
  6
CONTINUOUS
 10
19.8831348489
 20
0.9851647912
 11
19.4767170086
 21
1.0658141206
  0
LINE
  5
214
100
AcDbEntity
  8
0
100
AcDbLine
 62
7
  6
CONTINUOUS
 10
19.4767170086
 20
1.0658141206
 11
19.4779056764
 21
1.2714536432
  0
CIRCLE
  5
215
100
AcDbEntity
  8
0
100
AcDbCircle
 62
7
  6
CONTINUOUS
 10
20.2068232291
 20
1.1717972817
 40
0.175742101
  0
CIRCLE
  5
216
100
AcDbEntity
  8
0
100
AcDbCircle
 62
7
  6
CONTINUOUS
 10
20.2068232291
 20
1.1717972817
 40
0.1005522074
  0
LINE
  5
217
100
AcDbEntity
  8
0
100
AcDbLine
 62
7
  6
CONTINUOUS
 10
20.2077290681
 20
1.3756110529
 11
20.2071171714
 21
1.2379342989
  0
LINE
  5
218
100
AcDbEntity
  8
0
100
AcDbLine
 62
7
  6
CONTINUOUS
 10
20.2077290681
 20
1.2016899681
 11
20.2074674401
 21
1.1428236749
  0
LINE
  5
219
100
AcDbEntity
  8
0
100
AcDbLine
 62
7
  6
CONTINUOUS
 10
20.208634907
 20
1.101141841
 11
20.2080230104
 21
0.963465087
  0
LINE
  5
21A
100
AcDbEntity
  8
0
100
AcDbLine
 62
7
  6
CONTINUOUS
 10
20.0066328138
 20
1.1745147986
 11
20.1443095678
 21
1.1739029019
  0
LINE
  5
21B
100
AcDbEntity
  8
0
100
AcDbLine
 62
7
  6
CONTINUOUS
 10
20.1832714155
 20
1.1727031207
 11
20.238153505
 21
1.172335442
  0
LINE
  5
21C
100
AcDbEntity
  8
0
100
AcDbLine
 62
7
  6
CONTINUOUS
 10
20.2756669918
 20
1.1717972817
 11
20.407916871
 21
1.1712095044
  0
CIRCLE
  5
21D
100
AcDbEntity
  8
0
100
AcDbCircle
 62
7
  6
CONTINUOUS
 10
20.7509457401
 20
1.1693297793
 40
0.1722024983
  0
CIRCLE
  5
21E
100
AcDbEntity
  8
0
100
AcDbCircle
 62
7
  6
CONTINUOUS
 10
20.7509457401
 20
1.1693297793
 40
0.0985164967
  0
LINE
  5
21F
100
AcDbEntity
  8
0
100
AcDbLine
 62
7
  6
CONTINUOUS
 10
20.7169767782
 20
1.170462078
 11
20.7825395137
 21
1.1682766535
  0
LINE
  5
220
100
AcDbEntity
  8
0
100
AcDbLine
 62
7
  6
CONTINUOUS
 10
20.8177513651
 20
1.1693297793
 11
20.947965719
 21
1.1693297793
  0
LINE
  5
221
100
AcDbEntity
  8
0
100
AcDbLine
 62
7
  6
CONTINUOUS
 10
20.6875370113
 20
1.170462078
 11
20.5573226574
 21
1.170462078
  0
LINE
  5
222
100
AcDbEntity
  8
0
100
AcDbLine
 62
7
  6
CONTINUOUS
 10
20.7486811426
 20
1.1987695462
 11
20.7486811426
 21
1.1432869085
  0
LINE
  5
223
100
AcDbEntity
  8
0
100
AcDbLine
 62
7
  6
CONTINUOUS
 10
20.7498134414
 20
1.1059210505
 11
20.7498134414
 21
0.9757066966
  0
LINE
  5
224
100
AcDbEntity
  8
0
100
AcDbLine
 62
7
  6
CONTINUOUS
 10
20.7486811426
 20
1.2338708068
 11
20.7486811426
 21
1.3640851607
  0
LINE
  5
225
100
AcDbEntity
  8
0
100
AcDbLine
 62
7
  6
CONTINUOUS
 10
21.0702539817
 20
1.2701043662
 11
21.4790138229
 21
1.3448360823
  0
LINE
  5
226
100
AcDbEntity
  8
0
100
AcDbLine
 62
7
  6
CONTINUOUS
 10
21.4790138229
 20
1.3448360823
 11
21.4790138229
 21
0.9779712941
  0
LINE
  5
227
100
AcDbEntity
  8
0
100
AcDbLine
 62
7
  6
CONTINUOUS
 10
21.4790138229
 20
0.9779712941
 11
21.069121683
 21
1.0617614
  0
LINE
  5
228
100
AcDbEntity
  8
0
100
AcDbLine
 62
7
  6
CONTINUOUS
 10
21.0702539817
 20
1.2701043662
 11
21.069121683
 21
1.0617614
  0
LINE
  5
229
100
AcDbEntity
  8
0
100
AcDbLine
 62
7
  6
CONTINUOUS
 10
21.4790138229
 20
1.1693297793
 11
21.3159628059
 21
1.1693297793
  0
LINE
  5
22A
100
AcDbEntity
  8
0
100
AcDbLine
 62
7
  6
CONTINUOUS
 10
21.2876553377
 20
1.1693297793
 11
21.2502894796
 21
1.1693297793
  0
LINE
  5
22B
100
AcDbEntity
  8
0
100
AcDbLine
 62
7
  6
CONTINUOUS
 10
21.2208497126
 20
1.1659328831
 11
21.0713862804
 21
1.1659328831
  0
LINE
  5
22C
100
AcDbEntity
  8
0
100
AcDbLine
 62
7
  6
CONTINUOUS
 10
20.4796138713
 20
1.5284908897
 11
20.4766766948
 21
0.9294458646
  0
ENDBLK
  5
22D
100
AcDbEntity
  8
0
  6
BYBLOCK
 62
0
100
AcDbBlockEnd
  0
BLOCK
  5
22E
100
AcDbEntity
  8
0
100
AcDbBlockBegin
  2
*T1
 70
1
 10
0.0
 20
0.0
  3
*T1
  1

  0
LINE
  5
22F
100
AcDbEntity
  8
0
100
AcDbLine
 62
2
  6
CONTINUOUS
 10
9.275
 20
0.0
 11
-0.0
 21
0.0
  0
LINE
  5
230
100
AcDbEntity
  8
0
100
AcDbLine
 62
2
  6
CONTINUOUS
 10
9.275
 20
0.0
 11
9.275
 21
1.25
  0
LINE
  5
231
100
AcDbEntity
  8
0
100
AcDbLine
 62
2
  6
CONTINUOUS
 10
9.275
 20
0.625
 11
-0.0
 21
0.625
  0
LINE
  5
232
100
AcDbEntity
  8
0
100
AcDbLine
 62
2
  6
CONTINUOUS
 10
9.275
 20
1.25
 11
-0.0
 21
1.25
  0
LINE
  5
233
100
AcDbEntity
  8
0
100
AcDbLine
 62
2
  6
CONTINUOUS
 10
6.8
 20
0.0
 11
6.8
 21
1.25
  0
LINE
  5
234
100
AcDbEntity
  8
0
100
AcDbLine
 62
2
  6
CONTINUOUS
 10
6.4
 20
0.0
 11
6.4
 21
0.625
  0
LINE
  5
235
100
AcDbEntity
  8
0
100
AcDbLine
 62
2
  6
CONTINUOUS
 10
5.9
 20
0.0
 11
5.9
 21
0.625
  0
LINE
  5
236
100
AcDbEntity
  8
0
100
AcDbLine
 62
2
  6
CONTINUOUS
 10
5.2
 20
0.0
 11
5.2
 21
0.625
  0
LINE
  5
237
100
AcDbEntity
  8
0
100
AcDbLine
 62
2
  6
CONTINUOUS
 10
4.1
 20
0.0
 11
4.1
 21
1.25
  0
LINE
  5
238
100
AcDbEntity
  8
0
100
AcDbLine
 62
2
  6
CONTINUOUS
 10
-0.0
 20
0.0
 11
-0.0
 21
1.25
  0
MTEXT
  5
239
100
AcDbEntity
  8
0
100
AcDbMText
 62
2
  6
CONTINUOUS
  7
STANDARD
 71
2
 72
1
 10
6.6
 20
0.325
 30
0.0
 11
1.0
 21
0.0
 31
0.0
 44
0.9
  1
2
 40
0.125
 41
0.2
  0
MTEXT
  5
23A
100
AcDbEntity
  8
0
100
AcDbMText
 62
2
  6
CONTINUOUS
  7
STANDARD
 71
2
 72
1
 10
6.15
 20
0.325
 30
0.0
 11
1.0
 21
0.0
 31
0.0
 44
0.9
  1
C
 40
0.125
 41
0.2
  0
MTEXT
  5
23B
100
AcDbEntity
  8
0
100
AcDbMText
 62
2
  6
CONTINUOUS
  7
STANDARD
 71
2
 72
1
 10
5.55
 20
0.325
 30
0.0
 11
1.0
 21
0.0
 31
0.0
 44
0.9
  1
1.000
 40
0.125
 41
1.0
  0
MTEXT
  5
23C
100
AcDbEntity
  8
0
100
AcDbMText
 62
2
  6
CONTINUOUS
  7
STANDARD
 71
2
 72
1
 10
4.65
 20
0.325
 30
0.0
 11
1.0
 21
0.0
 31
0.0
 44
0.9
  1
Apr-27-22
 40
0.125
 41
1.8
  0
MTEXT
  5
23D
100
AcDbEntity
  8
0
100
AcDbMText
 62
2
  6
CONTINUOUS
  7
STANDARD
 71
2
 72
1
 10
2.05
 20
0.4625
 30
0.0
 11
1.0
 21
0.0
 31
0.0
 44
0.9
  1
T-22A Line mount\PCross pilot with shuttle
 40
0.125
 41
4.8
  0
MTEXT
  5
23E
100
AcDbEntity
  8
0
100
AcDbMText
 62
2
  6
CONTINUOUS
  7
STANDARD
 71
1
 72
1
 10
6.45
 20
0.5625
 30
0.0
 11
1.0
 21
0.0
 31
0.0
 44
0.9
  1
SHEET
 40
0.06
 41
0.48
  0
MTEXT
  5
23F
100
AcDbEntity
  8
0
100
AcDbMText
 62
2
  6
CONTINUOUS
  7
STANDARD
 71
1
 72
1
 10
5.95
 20
0.5625
 30
0.0
 11
1.0
 21
0.0
 31
0.0
 44
0.9
  1
DWG SIZE
 40
0.06
 41
0.768
  0
MTEXT
  5
240
100
AcDbEntity
  8
0
100
AcDbMText
 62
2
  6
CONTINUOUS
  7
STANDARD
 71
1
 72
1
 10
5.25
 20
0.5625
 30
0.0
 11
1.0
 21
0.0
 31
0.0
 44
0.9
  1
SCALE
 40
0.06
 41
0.48
  0
MTEXT
  5
241
100
AcDbEntity
  8
0
100
AcDbMText
 62
2
  6
CONTINUOUS
  7
STANDARD
 71
1
 72
1
 10
4.15
 20
0.5625
 30
0.0
 11
1.0
 21
0.0
 31
0.0
 44
0.9
  1
DATE
 40
0.06
 41
0.384
  0
MTEXT
  5
242
100
AcDbEntity
  8
0
100
AcDbMText
 62
2
  6
CONTINUOUS
  7
STANDARD
 71
1
 72
1
 10
0.05
 20
0.5625
 30
0.0
 11
1.0
 21
0.0
 31
0.0
 44
0.9
  1
DESCRIPTION
 40
0.06
 41
1.056
  0
MTEXT
  5
243
100
AcDbEntity
  8
0
100
AcDbMText
 62
2
  6
CONTINUOUS
  7
STANDARD
 71
2
 72
1
 10
5.45
 20
1.0375
 30
0.0
 11
1.0
 21
0.0
 31
0.0
 44
0.9
  1
ALL DIMENSIONS IN INCH\PVIEWS ARE THIRD ANGLE
 40
0.12
 41
4.224
  0
MTEXT
  5
244
100
AcDbEntity
  8
0
100
AcDbMText
 62
2
  6
CONTINUOUS
  7
STANDARD
 71
2
 72
1
 10
2.05
 20
0.95
 30
0.0
 11
1.0
 21
0.0
 31
0.0
 44
0.9
  1
Y6U
 40
0.125
 41
0.6
  0
MTEXT
  5
245
100
AcDbEntity
  8
0
100
AcDbMText
 62
2
  6
CONTINUOUS
  7
STANDARD
 71
1
 72
1
 10
0.05
 20
1.1875
 30
0.0
 11
1.0
 21
0.0
 31
0.0
 44
0.9
  1
MODEL
 40
0.06
 41
0.48
  0
ENDBLK
  5
246
100
AcDbEntity
  8
0
  6
BYBLOCK
 62
0
100
AcDbBlockEnd
  0
BLOCK
  5
247
100
AcDbEntity
  8
0
100
AcDbBlockBegin
  2
*T2
 70
1
 10
0.0
 20
0.0
  3
*T2
  1

  0
LINE
  5
248
100
AcDbEntity
  8
0
100
AcDbLine
 62
2
  6
CONTINUOUS
 10
0.0
 20
0.0
 11
9.055
 21
0.0
  0
LINE
  5
249
100
AcDbEntity
  8
0
100
AcDbLine
 62
2
  6
CONTINUOUS
 10
0.0
 20
0.0
 11
0.0
 21
-2.844
  0
LINE
  5
24A
100
AcDbEntity
  8
0
100
AcDbLine
 62
2
  6
CONTINUOUS
 10
0.0
 20
-0.344
 11
9.055
 21
-0.344
  0
LINE
  5
24B
100
AcDbEntity
  8
0
100
AcDbLine
 62
2
  6
CONTINUOUS
 10
0.0
 20
-0.594
 11
9.055
 21
-0.594
  0
LINE
  5
24C
100
AcDbEntity
  8
0
100
AcDbLine
 62
2
  6
CONTINUOUS
 10
0.0
 20
-0.844
 11
9.055
 21
-0.844
  0
LINE
  5
24D
100
AcDbEntity
  8
0
100
AcDbLine
 62
2
  6
CONTINUOUS
 10
0.0
 20
-1.094
 11
9.055
 21
-1.094
  0
LINE
  5
24E
100
AcDbEntity
  8
0
100
AcDbLine
 62
2
  6
CONTINUOUS
 10
0.0
 20
-1.344
 11
9.055
 21
-1.344
  0
LINE
  5
24F
100
AcDbEntity
  8
0
100
AcDbLine
 62
2
  6
CONTINUOUS
 10
0.0
 20
-1.594
 11
9.055
 21
-1.594
  0
LINE
  5
250
100
AcDbEntity
  8
0
100
AcDbLine
 62
2
  6
CONTINUOUS
 10
0.0
 20
-1.844
 11
9.055
 21
-1.844
  0
LINE
  5
251
100
AcDbEntity
  8
0
100
AcDbLine
 62
2
  6
CONTINUOUS
 10
0.0
 20
-2.094
 11
9.055
 21
-2.094
  0
LINE
  5
252
100
AcDbEntity
  8
0
100
AcDbLine
 62
2
  6
CONTINUOUS
 10
0.0
 20
-2.344
 11
9.055
 21
-2.344
  0
LINE
  5
253
100
AcDbEntity
  8
0
100
AcDbLine
 62
2
  6
CONTINUOUS
 10
0.0
 20
-2.594
 11
9.055
 21
-2.594
  0
LINE
  5
254
100
AcDbEntity
  8
0
100
AcDbLine
 62
2
  6
CONTINUOUS
 10
0.0
 20
-2.844
 11
9.055
 21
-2.844
  0
LINE
  5
255
100
AcDbEntity
  8
0
100
AcDbLine
 62
2
  6
CONTINUOUS
 10
3.055
 20
0.0
 11
3.055
 21
-2.844
  0
LINE
  5
256
100
AcDbEntity
  8
0
100
AcDbLine
 62
2
  6
CONTINUOUS
 10
9.055
 20
0.0
 11
9.055
 21
-2.844
  0
MTEXT
  5
257
100
AcDbEntity
  8
0
100
AcDbMText
 62
2
  6
CONTINUOUS
  7
STANDARD
 71
2
 72
1
 10
1.5275
 20
-0.0995
 30
0.0
 11
1.0
 21
0.0
 31
0.0
 44
0.9
  1
Technical Data
 40
0.145
 41
3.248
  0
MTEXT
  5
258
100
AcDbEntity
  8
0
100
AcDbMText
 62
2
  6
CONTINUOUS
  7
STANDARD
 71
2
 72
1
 10
4.555
 20
-0.0995
 30
0.0
 11
1.0
 21
0.0
 31
0.0
 44
0.9
  1
U.S. Units
 40
0.145
 41
2.32
  0
MTEXT
  5
259
100
AcDbEntity
  8
0
100
AcDbMText
 62
2
  6
CONTINUOUS
  7
STANDARD
 71
2
 72
1
 10
7.555
 20
-0.0995
 30
0.0
 11
1.0
 21
0.0
 31
0.0
 44
0.9
  1
Metric Units
 40
0.145
 41
2.784
  0
MTEXT
  5
25A
100
AcDbEntity
  8
0
100
AcDbMText
 62
2
  6
CONTINUOUS
  7
STANDARD
 71
2
 72
1
 10
1.5275
 20
-0.4065
 30
0.0
 11
1.0
 21
0.0
 31
0.0
 44
0.9
  1
Cavity
 40
0.125
 41
1.2
  0
MTEXT
  5
25B
100
AcDbEntity
  8
0
100
AcDbMText
 62
2
  6
CONTINUOUS
  7
STANDARD
 71
2
 72
1
 10
6.055
 20
-0.4065
 30
0.0
 11
1.0
 21
0.0
 31
0.0
 44
0.9
  1
T-22A
 40
0.125
 41
1.0
  0
MTEXT
  5
25C
100
AcDbEntity
  8
0
100
AcDbMText
 62
2
  6
CONTINUOUS
  7
STANDARD
 71
2
 72
1
 10
1.5275
 20
-0.6565
 30
0.0
 11
1.0
 21
0.0
 31
0.0
 44
0.9
  1
Body Features
 40
0.125
 41
2.6
  0
MTEXT
  5
25D
100
AcDbEntity
  8
0
100
AcDbMText
 62
2
  6
CONTINUOUS
  7
STANDARD
 71
2
 72
1
 10
6.055
 20
-0.6565
 30
0.0
 11
1.0
 21
0.0
 31
0.0
 44
0.9
  1
Cross pilot with shuttle
 40
0.125
 41
4.8
  0
MTEXT
  5
25E
100
AcDbEntity
  8
0
100
AcDbMText
 62
2
  6
CONTINUOUS
  7
STANDARD
 71
2
 72
1
 10
1.5275
 20
-0.9065
 30
0.0
 11
1.0
 21
0.0
 31
0.0
 44
0.9
  1
Body Type
 40
0.125
 41
1.8
  0
MTEXT
  5
25F
100
AcDbEntity
  8
0
100
AcDbMText
 62
2
  6
CONTINUOUS
  7
STANDARD
 71
2
 72
1
 10
6.055
 20
-0.9065
 30
0.0
 11
1.0
 21
0.0
 31
0.0
 44
0.9
  1
Line mount
 40
0.125
 41
2.0
  0
MTEXT
  5
260
100
AcDbEntity
  8
0
100
AcDbMText
 62
2
  6
CONTINUOUS
  7
STANDARD
 71
2
 72
1
 10
1.5275
 20
-1.1565
 30
0.0
 11
1.0
 21
0.0
 31
0.0
 44
0.9
  1
Open Cavity Quantity
 40
0.125
 41
4.0
  0
MTEXT
  5
261
100
AcDbEntity
  8
0
100
AcDbMText
 62
2
  6
CONTINUOUS
  7
STANDARD
 71
2
 72
1
 10
6.055
 20
-1.1565
 30
0.0
 11
1.0
 21
0.0
 31
0.0
 44
0.9
  1
2
 40
0.125
 41
0.2
  0
MTEXT
  5
262
100
AcDbEntity
  8
0
100
AcDbMText
 62
2
  6
CONTINUOUS
  7
STANDARD
 71
2
 72
1
 10
1.5275
 20
-1.4065
 30
0.0
 11
1.0
 21
0.0
 31
0.0
 44
0.9
  1
Weight
 40
0.125
 41
1.2
  0
MTEXT
  5
263
100
AcDbEntity
  8
0
100
AcDbMText
 62
2
  6
CONTINUOUS
  7
STANDARD
 71
2
 72
1
 10
4.555
 20
-1.4065
 30
0.0
 11
1.0
 21
0.0
 31
0.0
 44
0.9
  1
4.749 lb.
 40
0.125
 41
1.8
  0
MTEXT
  5
264
100
AcDbEntity
  8
0
100
AcDbMText
 62
2
  6
CONTINUOUS
  7
STANDARD
 71
2
 72
1
 10
7.555
 20
-1.4065
 30
0.0
 11
1.0
 21
0.0
 31
0.0
 44
0.9
  1
2,154 kg.
 40
0.125
 41
1.8
  0
MTEXT
  5
265
100
AcDbEntity
  8
0
100
AcDbMText
 62
2
  6
CONTINUOUS
  7
STANDARD
 71
2
 72
1
 10
1.5275
 20
-1.6565
 30
0.0
 11
1.0
 21
0.0
 31
0.0
 44
0.9
  1
Maximum Operating Pressure - 6061-T651 Aluminum
 40
0.125
 41
9.4
  0
MTEXT
  5
266
100
AcDbEntity
  8
0
100
AcDbMText
 62
2
  6
CONTINUOUS
  7
STANDARD
 71
2
 72
1
 10
4.555
 20
-1.6565
 30
0.0
 11
1.0
 21
0.0
 31
0.0
 44
0.9
  1
3000 psi
 40
0.125
 41
1.6
  0
MTEXT
  5
267
100
AcDbEntity
  8
0
100
AcDbMText
 62
2
  6
CONTINUOUS
  7
STANDARD
 71
2
 72
1
 10
7.555
 20
-1.6565
 30
0.0
 11
1.0
 21
0.0
 31
0.0
 44
0.9
  1
210 bar
 40
0.125
 41
1.4
  0
MTEXT
  5
268
100
AcDbEntity
  8
0
100
AcDbMText
 62
2
  6
CONTINUOUS
  7
STANDARD
 71
2
 72
1
 10
1.5275
 20
-1.9065
 30
0.0
 11
1.0
 21
0.0
 31
0.0
 44
0.9
  1
Maximum Operating Pressure - 65-45-12 Ductile Iron
 40
0.125
 41
10.0
  0
MTEXT
  5
269
100
AcDbEntity
  8
0
100
AcDbMText
 62
2
  6
CONTINUOUS
  7
STANDARD
 71
2
 72
1
 10
4.555
 20
-1.9065
 30
0.0
 11
1.0
 21
0.0
 31
0.0
 44
0.9
  1
5000 psi
 40
0.125
 41
1.6
  0
MTEXT
  5
26A
100
AcDbEntity
  8
0
100
AcDbMText
 62
2
  6
CONTINUOUS
  7
STANDARD
 71
2
 72
1
 10
7.555
 20
-1.9065
 30
0.0
 11
1.0
 21
0.0
 31
0.0
 44
0.9
  1
350 bar
 40
0.125
 41
1.4
  0
MTEXT
  5
26B
100
AcDbEntity
  8
0
100
AcDbMText
 62
2
  6
CONTINUOUS
  7
STANDARD
 71
2
 72
1
 10
1.5275
 20
-2.1565
 30
0.0
 11
1.0
 21
0.0
 31
0.0
 44
0.9
  1
Mounting Hole Diameter
 40
0.125
 41
4.4
  0
MTEXT
  5
26C
100
AcDbEntity
  8
0
100
AcDbMText
 62
2
  6
CONTINUOUS
  7
STANDARD
 71
2
 72
1
 10
4.555
 20
-2.1565
 30
0.0
 11
1.0
 21
0.0
 31
0.0
 44
0.9
  1
.42 in.
 40
0.125
 41
1.4
  0
MTEXT
  5
26D
100
AcDbEntity
  8
0
100
AcDbMText
 62
2
  6
CONTINUOUS
  7
STANDARD
 71
2
 72
1
 10
7.555
 20
-2.1565
 30
0.0
 11
1.0
 21
0.0
 31
0.0
 44
0.9
  1
10,7 mm
 40
0.125
 41
1.4
  0
MTEXT
  5
26E
100
AcDbEntity
  8
0
100
AcDbMText
 62
2
  6
CONTINUOUS
  7
STANDARD
 71
2
 72
1
 10
1.5275
 20
-2.4065
 30
0.0
 11
1.0
 21
0.0
 31
0.0
 44
0.9
  1
Mounting Hole Quantity
 40
0.125
 41
4.4
  0
MTEXT
  5
26F
100
AcDbEntity
  8
0
100
AcDbMText
 62
2
  6
CONTINUOUS
  7
STANDARD
 71
2
 72
1
 10
6.055
 20
-2.4065
 30
0.0
 11
1.0
 21
0.0
 31
0.0
 44
0.9
  1
2
 40
0.125
 41
0.2
  0
MTEXT
  5
270
100
AcDbEntity
  8
0
100
AcDbMText
 62
2
  6
CONTINUOUS
  7
STANDARD
 71
2
 72
1
 10
1.5275
 20
-2.6565
 30
0.0
 11
1.0
 21
0.0
 31
0.0
 44
0.9
  1
Includes integral cartridge(s)
 40
0.125
 41
6.0
  0
MTEXT
  5
271
100
AcDbEntity
  8
0
100
AcDbMText
 62
2
  6
CONTINUOUS
  7
STANDARD
 71
2
 72
1
 10
6.055
 20
-2.6565
 30
0.0
 11
1.0
 21
0.0
 31
0.0
 44
0.9
  1
Yes (see Included Components)
 40
0.125
 41
5.8
  0
ENDBLK
  5
272
100
AcDbEntity
  8
0
  6
BYBLOCK
 62
0
100
AcDbBlockEnd
  0
BLOCK
  5
273
100
AcDbEntity
  8
0
100
AcDbBlockBegin
  2
*T3
 70
1
 10
0.0
 20
0.0
  3
*T3
  1

  0
LINE
  5
274
100
AcDbEntity
  8
0
100
AcDbLine
 62
2
  6
CONTINUOUS
 10
0.0
 20
0.0
 11
4.6
 21
0.0
  0
LINE
  5
275
100
AcDbEntity
  8
0
100
AcDbLine
 62
2
  6
CONTINUOUS
 10
0.0
 20
0.0
 11
0.0
 21
-1.43775
  0
LINE
  5
276
100
AcDbEntity
  8
0
100
AcDbLine
 62
2
  6
CONTINUOUS
 10
0.0
 20
-0.34375
 11
4.6
 21
-0.34375
  0
LINE
  5
277
100
AcDbEntity
  8
0
100
AcDbLine
 62
2
  6
CONTINUOUS
 10
0.0
 20
-0.68775
 11
4.6
 21
-0.68775
  0
LINE
  5
278
100
AcDbEntity
  8
0
100
AcDbLine
 62
2
  6
CONTINUOUS
 10
0.0
 20
-0.93775
 11
4.6
 21
-0.93775
  0
LINE
  5
279
100
AcDbEntity
  8
0
100
AcDbLine
 62
2
  6
CONTINUOUS
 10
0.0
 20
-1.18775
 11
4.6
 21
-1.18775
  0
LINE
  5
27A
100
AcDbEntity
  8
0
100
AcDbLine
 62
2
  6
CONTINUOUS
 10
0.0
 20
-1.43775
 11
4.6
 21
-1.43775
  0
LINE
  5
27B
100
AcDbEntity
  8
0
100
AcDbLine
 62
2
  6
CONTINUOUS
 10
1.3
 20
-0.34375
 11
1.3
 21
-1.43775
  0
LINE
  5
27C
100
AcDbEntity
  8
0
100
AcDbLine
 62
2
  6
CONTINUOUS
 10
3.3
 20
-0.34375
 11
3.3
 21
-1.43775
  0
LINE
  5
27D
100
AcDbEntity
  8
0
100
AcDbLine
 62
2
  6
CONTINUOUS
 10
4.6
 20
0.0
 11
4.6
 21
-1.43775
  0
MTEXT
  5
27E
100
AcDbEntity
  8
0
100
AcDbMText
 62
2
  6
CONTINUOUS
  7
STANDARD
 71
2
 72
1
 10
2.3
 20
-0.099375
 30
0.0
 11
1.0
 21
0.0
 31
0.0
 44
0.9
  1
Port Headings
 40
0.145
 41
3.016
  0
MTEXT
  5
27F
100
AcDbEntity
  8
0
100
AcDbMText
 62
2
  6
CONTINUOUS
  7
STANDARD
 71
2
 72
1
 10
0.65
 20
-0.44325
 30
0.0
 11
1.0
 21
0.0
 31
0.0
 44
0.9
  1
Product
 40
0.145
 41
1.624
  0
MTEXT
  5
280
100
AcDbEntity
  8
0
100
AcDbMText
 62
2
  6
CONTINUOUS
  7
STANDARD
 71
2
 72
1
 10
2.3
 20
-0.44325
 30
0.0
 11
1.0
 21
0.0
 31
0.0
 44
0.9
  1
Port
 40
0.145
 41
0.928
  0
MTEXT
  5
281
100
AcDbEntity
  8
0
100
AcDbMText
 62
2
  6
CONTINUOUS
  7
STANDARD
 71
2
 72
1
 10
3.95
 20
-0.44325
 30
0.0
 11
1.0
 21
0.0
 31
0.0
 44
0.9
  1
Size
 40
0.145
 41
0.928
  0
MTEXT
  5
282
100
AcDbEntity
  8
0
100
AcDbMText
 62
2
  6
CONTINUOUS
  7
STANDARD
 71
2
 72
1
 10
0.65
 20
-0.75025
 30
0.0
 11
1.0
 21
0.0
 31
0.0
 44
0.9
  1
Y6U
 40
0.125
 41
0.6
  0
MTEXT
  5
283
100
AcDbEntity
  8
0
100
AcDbMText
 62
2
  6
CONTINUOUS
  7
STANDARD
 71
2
 72
1
 10
2.3
 20
-0.75025
 30
0.0
 11
1.0
 21
0.0
 31
0.0
 44
0.9
  1
Ports 1A, 1B, 2A, 2B
 40
0.125
 41
4.0
  0
MTEXT
  5
284
100
AcDbEntity
  8
0
100
AcDbMText
 62
2
  6
CONTINUOUS
  7
STANDARD
 71
2
 72
1
 10
3.95
 20
-0.75025
 30
0.0
 11
1.0
 21
0.0
 31
0.0
 44
0.9
  1
3/8" BSPP
 40
0.125
 41
1.8
  0
MTEXT
  5
285
100
AcDbEntity
  8
0
100
AcDbMText
 62
2
  6
CONTINUOUS
  7
STANDARD
 71
2
 72
1
 10
0.65
 20
-1.00025
 30
0.0
 11
1.0
 21
0.0
 31
0.0
 44
0.9
  1
Y6U
 40
0.125
 41
0.6
  0
MTEXT
  5
286
100
AcDbEntity
  8
0
100
AcDbMText
 62
2
  6
CONTINUOUS
  7
STANDARD
 71
2
 72
1
 10
2.3
 20
-1.00025
 30
0.0
 11
1.0
 21
0.0
 31
0.0
 44
0.9
  1
Port 4
 40
0.125
 41
1.2
  0
MTEXT
  5
287
100
AcDbEntity
  8
0
100
AcDbMText
 62
2
  6
CONTINUOUS
  7
STANDARD
 71
2
 72
1
 10
3.95
 20
-1.00025
 30
0.0
 11
1.0
 21
0.0
 31
0.0
 44
0.9
  1
1/4" BSPP
 40
0.125
 41
1.8
  0
MTEXT
  5
288
100
AcDbEntity
  8
0
100
AcDbMText
 62
2
  6
CONTINUOUS
  7
STANDARD
 71
2
 72
1
 10
0.65
 20
-1.25025
 30
0.0
 11
1.0
 21
0.0
 31
0.0
 44
0.9
  1
Y6U
 40
0.125
 41
0.6
  0
MTEXT
  5
289
100
AcDbEntity
  8
0
100
AcDbMText
 62
2
  6
CONTINUOUS
  7
STANDARD
 71
2
 72
1
 10
2.3
 20
-1.25025
 30
0.0
 11
1.0
 21
0.0
 31
0.0
 44
0.9
  1
Port S
 40
0.125
 41
1.2
  0
MTEXT
  5
28A
100
AcDbEntity
  8
0
100
AcDbMText
 62
2
  6
CONTINUOUS
  7
STANDARD
 71
2
 72
1
 10
3.95
 20
-1.25025
 30
0.0
 11
1.0
 21
0.0
 31
0.0
 44
0.9
  1
1/4" BSPP
 40
0.125
 41
1.8
  0
ENDBLK
  5
28B
100
AcDbEntity
  8
0
  6
BYBLOCK
 62
0
100
AcDbBlockEnd
  0
ENDSEC
  0
SECTION
  2
ENTITIES
  0
IMAGE
  5
28C
100
AcDbEntity
  8
0
100
AcDbRasterImage
 62
7
  6
CONTINUOUS
 10
19.2297077316
 20
0.3094318264
 30
0.0
 11
0.0066666667
 21
0.0
 31
0.0
 12
0.0
 22
0.0066666667
 32
0.0
 13
369.0
 23
92.0
340
       437
 70
9
280
0
281
50
282
50
283
0
360
       431
 71
1
 91
2
 14
-0.5
 24
-0.5
 14
368.5
 24
91.5
  0
INSERT
  5
28D
100
AcDbEntity
  8
0
100
AcDbBlockReference
 62
2
  6
CONTINUOUS
  2
SUN_FIRST_THIRD_ANGLE_BL0
 10
20.4816717061
 20
1.2289683772
  0
ACAD_TABLE
  5
28E
100
AcDbEntity
  8
0
 62
2
  6
CONTINUOUS
100
AcDbBlockReference
  2
*T1
 10
12.42375
 20
0.30125
 30
0.0
100
AcDbTable
342
       439
343
207
 11
1.0
 21
0.0
 31
0.0
 90
6
 91
4
 92
6
 93
20
 94
0
 95
0
 96
0
 70
1
 41
0.0
141
0.525
141
0.1
141
0.525
141
0.1
142
4.1
142
1.1
142
0.7
142
0.5
142
0.4
142
2.475
171
1
172
0
173
0
174
0
175
1
176
1
 91
33
178
0
145
0.0
301
CELL_VALUE
 90
4
  1
T-22A Line mount\PCross pilot with shuttle
304
ACVALUE_END
170
2
140
0.125
171
1
172
0
173
0
174
0
175
1
176
1
 91
33
178
0
145
0.0
301
CELL_VALUE
 90
4
  1
Apr-27-22
304
ACVALUE_END
170
5
140
0.125
171
1
172
0
173
0
174
0
175
1
176
1
 91
33
178
0
145
0.0
301
CELL_VALUE
 90
4
  1
1.000
304
ACVALUE_END
170
5
140
0.125
171
1
172
0
173
0
174
0
175
1
176
1
 91
33
178
0
145
0.0
301
CELL_VALUE
 90
4
  1
C
304
ACVALUE_END
170
5
140
0.125
171
1
172
0
173
0
174
0
175
1
176
1
 91
33
178
0
145
0.0
301
CELL_VALUE
 90
4
  1
2
304
ACVALUE_END
170
5
140
0.125
171
1
172
0
173
0
174
0
175
1
176
1
 91
33
178
0
145
0.0
301
CELL_VALUE
 90
4
  1
 
304
ACVALUE_END
170
1
140
0.125
171
1
172
0
173
0
174
0
175
1
176
1
 91
33
178
0
145
0.0
301
CELL_VALUE
 90
4
  1
DESCRIPTION
304
ACVALUE_END
170
1
140
0.06
171
1
172
0
173
0
174
0
175
1
176
1
 91
33
178
0
145
0.0
301
CELL_VALUE
 90
4
  1
DATE
304
ACVALUE_END
170
1
140
0.06
171
1
172
0
173
0
174
0
175
1
176
1
 91
33
178
0
145
0.0
301
CELL_VALUE
 90
4
  1
SCALE
304
ACVALUE_END
170
1
140
0.06
171
1
172
0
173
0
174
0
175
1
176
1
 91
33
178
0
145
0.0
301
CELL_VALUE
 90
4
  1
DWG SIZE
304
ACVALUE_END
170
1
140
0.06
171
1
172
0
173
0
174
0
175
1
176
1
 91
33
178
0
145
0.0
301
CELL_VALUE
 90
4
  1
SHEET
304
ACVALUE_END
170
1
140
0.06
171
1
172
0
173
0
174
0
175
1
176
1
 91
33
178
0
145
0.0
301
CELL_VALUE
 90
4
  1
 
304
ACVALUE_END
170
1
140
0.125
171
1
172
0
173
0
174
0
175
1
176
1
 91
33
178
0
145
0.0
301
CELL_VALUE
 90
4
  1
Y6U
304
ACVALUE_END
170
5
140
0.125
171
1
172
0
173
0
174
0
175
4
176
1
 91
33
178
0
145
0.0
301
CELL_VALUE
 90
4
  1
ALL DIMENSIONS IN INCH\PVIEWS ARE THIRD ANGLE
304
ACVALUE_END
170
5
140
0.12
171
1
172
0
173
1
174
0
175
1
176
1
 91
1
178
0
145
0.0
170
1
171
1
172
0
173
1
174
0
175
1
176
1
 91
1
178
0
145
0.0
170
1
171
1
172
0
173
1
174
0
175
1
176
1
 91
1
178
0
145
0.0
170
5
171
1
172
0
173
0
174
0
175
1
176
1
 91
33
178
0
145
0.0
301
CELL_VALUE
 90
4
  1
 
304
ACVALUE_END
170
1
140
0.125
171
1
172
0
173
0
174
0
175
1
176
1
 91
33
178
0
145
0.0
301
CELL_VALUE
 90
4
  1
MODEL
304
ACVALUE_END
170
1
140
0.06
171
1
172
0
173
0
174
0
175
1
176
1
 91
33
178
0
145
0.0
301
CELL_VALUE
 90
4
  1
 
304
ACVALUE_END
170
1
140
0.125
171
1
172
0
173
0
174
0
175
1
176
1
 91
33
178
0
145
0.0
301
CELL_VALUE
 90
4
  1
 
304
ACVALUE_END
170
1
140
0.125
171
1
172
0
173
0
174
0
175
1
176
1
 91
33
178
0
145
0.0
301
CELL_VALUE
 90
4
  1
 
304
ACVALUE_END
170
1
140
0.125
171
1
172
0
173
0
174
0
175
1
176
1
 91
33
178
0
145
0.0
301
CELL_VALUE
 90
4
  1
 
304
ACVALUE_END
170
1
140
0.125
171
1
172
0
173
0
174
0
175
1
176
1
 91
33
178
0
145
0.0
301
CELL_VALUE
 90
4
  1
 
304
ACVALUE_END
170
1
140
0.125
  0
ACAD_TABLE
  5
28F
100
AcDbEntity
  8
0
 62
2
  6
CONTINUOUS
100
AcDbBlockReference
  2
*T2
 10
12.4237499994
 20
16.47875
 30
0.0
100
AcDbTable
342
       438
343
208
 11
1.0
 21
0.0
 31
0.0
 90
22
 91
11
 92
3
 93
16
 94
0
 95
0
 96
0
 41
0.028
141
0.344
141
0.25
141
0.25
141
0.25
141
0.25
141
0.25
141
0.25
141
0.25
141
0.25
141
0.25
141
0.25
142
3.055
142
3.0
142
3.0
171
1
172
0
173
0
174
0
175
1
176
1
 91
33
178
0
145
0.0
301
CELL_VALUE
 90
4
  1
Technical Data
304
ACVALUE_END
170
5
140
0.145
171
1
172
0
173
0
174
0
175
1
176
1
 91
33
178
0
145
0.0
301
CELL_VALUE
 90
4
  1
U.S. Units
304
ACVALUE_END
170
5
140
0.145
171
1
172
0
173
0
174
0
175
1
176
1
 91
33
178
0
145
0.0
301
CELL_VALUE
 90
4
  1
Metric Units
304
ACVALUE_END
170
5
140
0.145
171
1
172
0
173
0
174
0
175
1
176
1
 91
33
178
0
145
0.0
301
CELL_VALUE
 90
4
  1
Cavity
304
ACVALUE_END
170
5
140
0.125
171
1
172
0
173
0
174
0
175
2
176
1
 91
33
178
0
145
0.0
301
CELL_VALUE
 90
4
  1
T-22A
304
ACVALUE_END
170
5
140
0.125
171
1
172
0
173
1
174
0
175
1
176
1
 91
1
178
0
145
0.0
170
1
171
1
172
0
173
0
174
0
175
1
176
1
 91
33
178
0
145
0.0
301
CELL_VALUE
 90
4
  1
Body Features
304
ACVALUE_END
170
5
140
0.125
171
1
172
0
173
0
174
0
175
2
176
1
 91
33
178
0
145
0.0
301
CELL_VALUE
 90
4
  1
Cross pilot with shuttle
304
ACVALUE_END
170
5
140
0.125
171
1
172
0
173
1
174
0
175
1
176
1
 91
1
178
0
145
0.0
170
1
171
1
172
0
173
0
174
0
175
1
176
1
 91
33
178
0
145
0.0
301
CELL_VALUE
 90
4
  1
Body Type
304
ACVALUE_END
170
5
140
0.125
171
1
172
0
173
0
174
0
175
2
176
1
 91
33
178
0
145
0.0
301
CELL_VALUE
 90
4
  1
Line mount
304
ACVALUE_END
170
5
140
0.125
171
1
172
0
173
1
174
0
175
1
176
1
 91
1
178
0
145
0.0
170
1
171
1
172
0
173
0
174
0
175
1
176
1
 91
33
178
0
145
0.0
301
CELL_VALUE
 90
4
  1
Open Cavity Quantity
304
ACVALUE_END
170
5
140
0.125
171
1
172
0
173
0
174
0
175
2
176
1
 91
33
178
0
145
0.0
301
CELL_VALUE
 90
4
  1
2
304
ACVALUE_END
170
5
140
0.125
171
1
172
0
173
1
174
0
175
1
176
1
 91
1
178
0
145
0.0
170
1
171
1
172
0
173
0
174
0
175
1
176
1
 91
33
178
0
145
0.0
301
CELL_VALUE
 90
4
  1
Weight
304
ACVALUE_END
170
5
140
0.125
171
1
172
0
173
0
174
0
175
1
176
1
 91
33
178
0
145
0.0
301
CELL_VALUE
 90
4
  1
4.749 lb.
304
ACVALUE_END
170
5
140
0.125
171
1
172
0
173
0
174
0
175
1
176
1
 91
33
178
0
145
0.0
301
CELL_VALUE
 90
4
  1
2,154 kg.
304
ACVALUE_END
170
5
140
0.125
171
1
172
0
173
0
174
0
175
1
176
1
 91
33
178
0
145
0.0
301
CELL_VALUE
 90
4
  1
Maximum Operating Pressure - 6061-T651 Aluminum
304
ACVALUE_END
170
5
140
0.125
171
1
172
0
173
0
174
0
175
1
176
1
 91
33
178
0
145
0.0
301
CELL_VALUE
 90
4
  1
3000 psi
304
ACVALUE_END
170
5
140
0.125
171
1
172
0
173
0
174
0
175
1
176
1
 91
33
178
0
145
0.0
301
CELL_VALUE
 90
4
  1
210 bar
304
ACVALUE_END
170
5
140
0.125
171
1
172
0
173
0
174
0
175
1
176
1
 91
33
178
0
145
0.0
301
CELL_VALUE
 90
4
  1
Maximum Operating Pressure - 65-45-12 Ductile Iron
304
ACVALUE_END
170
5
140
0.125
171
1
172
0
173
0
174
0
175
1
176
1
 91
33
178
0
145
0.0
301
CELL_VALUE
 90
4
  1
5000 psi
304
ACVALUE_END
170
5
140
0.125
171
1
172
0
173
0
174
0
175
1
176
1
 91
33
178
0
145
0.0
301
CELL_VALUE
 90
4
  1
350 bar
304
ACVALUE_END
170
5
140
0.125
171
1
172
0
173
0
174
0
175
1
176
1
 91
33
178
0
145
0.0
301
CELL_VALUE
 90
4
  1
Mounting Hole Diameter
304
ACVALUE_END
170
5
140
0.125
171
1
172
0
173
0
174
0
175
1
176
1
 91
33
178
0
145
0.0
301
CELL_VALUE
 90
4
  1
.42 in.
304
ACVALUE_END
170
5
140
0.125
171
1
172
0
173
0
174
0
175
1
176
1
 91
33
178
0
145
0.0
301
CELL_VALUE
 90
4
  1
10,7 mm
304
ACVALUE_END
170
5
140
0.125
171
1
172
0
173
0
174
0
175
1
176
1
 91
33
178
0
145
0.0
301
CELL_VALUE
 90
4
  1
Mounting Hole Quantity
304
ACVALUE_END
170
5
140
0.125
171
1
172
0
173
0
174
0
175
2
176
1
 91
33
178
0
145
0.0
301
CELL_VALUE
 90
4
  1
2
304
ACVALUE_END
170
5
140
0.125
171
1
172
0
173
1
174
0
175
1
176
1
 91
1
178
0
145
0.0
170
1
171
1
172
0
173
0
174
0
175
1
176
1
 91
33
178
0
145
0.0
301
CELL_VALUE
 90
4
  1
Includes integral cartridge(s)
304
ACVALUE_END
170
5
140
0.125
171
1
172
0
173
0
174
0
175
2
176
1
 91
33
178
0
145
0.0
301
CELL_VALUE
 90
4
  1
Yes (see Included Components)
304
ACVALUE_END
170
5
140
0.125
171
1
172
0
173
1
174
0
175
1
176
1
 91
1
178
0
145
0.0
170
1
  0
ACAD_TABLE
  5
290
100
AcDbEntity
  8
0
 62
2
  6
CONTINUOUS
100
AcDbBlockReference
  2
*T3
 10
0.52125
 20
1.959
 30
0.0
100
AcDbTable
342
       438
343
209
 11
1.0
 21
0.0
 31
0.0
 90
22
 91
5
 92
3
 93
16
 94
0
 95
0
 96
0
 41
0.05
141
0.34375
141
0.344
141
0.25
141
0.25
141
0.25
142
1.3
142
2.0
142
1.3
171
1
172
0
173
0
174
0
175
3
176
1
 91
33
178
0
145
0.0
301
CELL_VALUE
 90
4
  1
Port Headings
304
ACVALUE_END
170
5
140
0.145
171
1
172
0
173
1
174
0
175
1
176
1
 91
1
178
0
145
0.0
170
1
171
1
172
0
173
1
174
0
175
1
176
1
 91
1
178
0
145
0.0
170
1
171
1
172
0
173
0
174
0
175
1
176
1
 91
33
178
0
145
0.0
301
CELL_VALUE
 90
4
  1
Product
304
ACVALUE_END
170
5
140
0.145
171
1
172
0
173
0
174
0
175
1
176
1
 91
33
178
0
145
0.0
301
CELL_VALUE
 90
4
  1
Port
304
ACVALUE_END
170
5
140
0.145
171
1
172
0
173
0
174
0
175
1
176
1
 91
33
178
0
145
0.0
301
CELL_VALUE
 90
4
  1
Size
304
ACVALUE_END
170
5
140
0.145
171
1
172
0
173
0
174
0
175
1
176
1
 91
33
178
0
145
0.0
301
CELL_VALUE
 90
4
  1
Y6U
304
ACVALUE_END
170
5
140
0.125
171
1
172
0
173
0
174
0
175
1
176
1
 91
33
178
0
145
0.0
301
CELL_VALUE
 90
4
  1
Ports 1A, 1B, 2A, 2B
304
ACVALUE_END
170
5
140
0.125
171
1
172
0
173
0
174
0
175
1
176
1
 91
33
178
0
145
0.0
301
CELL_VALUE
 90
4
  1
3/8" BSPP
304
ACVALUE_END
170
5
140
0.125
171
1
172
0
173
0
174
0
175
1
176
1
 91
33
178
0
145
0.0
301
CELL_VALUE
 90
4
  1
Y6U
304
ACVALUE_END
170
5
140
0.125
171
1
172
0
173
0
174
0
175
1
176
1
 91
33
178
0
145
0.0
301
CELL_VALUE
 90
4
  1
Port 4
304
ACVALUE_END
170
5
140
0.125
171
1
172
0
173
0
174
0
175
1
176
1
 91
33
178
0
145
0.0
301
CELL_VALUE
 90
4
  1
1/4" BSPP
304
ACVALUE_END
170
5
140
0.125
171
1
172
0
173
0
174
0
175
1
176
1
 91
33
178
0
145
0.0
301
CELL_VALUE
 90
4
  1
Y6U
304
ACVALUE_END
170
5
140
0.125
171
1
172
0
173
0
174
0
175
1
176
1
 91
33
178
0
145
0.0
301
CELL_VALUE
 90
4
  1
Port S
304
ACVALUE_END
170
5
140
0.125
171
1
172
0
173
0
174
0
175
1
176
1
 91
33
178
0
145
0.0
301
CELL_VALUE
 90
4
  1
1/4" BSPP
304
ACVALUE_END
170
5
140
0.125
  0
MTEXT
  5
291
100
AcDbEntity
  8
0
100
AcDbMText
 62
2
  6
CONTINUOUS
  7
STANDARD
 71
1
 72
1
 10
0.52125
 20
5.75995
 30
0.0
 11
1.0
 21
0.0
 31
0.0
 44
0.6
  3
Notes\P \P1. Important: Carefully consider\P   the maximum system pressure. The\P   pressure rating of the manifold is\P   dependent on the manifold material,\P   with the port type/size a secondary\P   consideration. Manifolds\P   constructed of alu
  1
minum are not\P   rated for pressures higher than\P   3000 psi (210 bar), regardless of\P   the port type/size specified.
 40
0.1
 41
3.04
  0
LINE
  5
292
100
AcDbEntity
  8
0
100
AcDbLine
 62
7
  6
CONTINUOUS
 10
0.30125
 20
0.30125
 11
0.30125
 21
16.69875
  0
LINE
  5
293
100
AcDbEntity
  8
0
100
AcDbLine
 62
7
  6
CONTINUOUS
 10
0.30125
 20
0.30125
 11
21.69875
 21
0.30125
  0
LINE
  5
294
100
AcDbEntity
  8
0
100
AcDbLine
 62
7
  6
CONTINUOUS
 10
0.30125
 20
16.69875
 11
21.69875
 21
16.69875
  0
LINE
  5
295
100
AcDbEntity
  8
0
100
AcDbLine
 62
7
  6
CONTINUOUS
 10
21.69875
 20
0.30125
 11
21.69875
 21
16.69875
  0
LINE
  5
296
100
AcDbEntity
  8
0
100
AcDbLine
 62
7
  6
CONTINUOUS
 10
9.3916717723
 20
11.6027703154
 11
8.7446246936
 21
10.9777707942
  0
LINE
  5
297
100
AcDbEntity
  8
0
100
AcDbLine
 62
4
  6
CONTINUOUS
 10
9.0730394974
 20
5.8307583366
 11
9.1889506009
 21
5.7551050639
  0
LINE
  5
298
100
AcDbEntity
  8
0
100
AcDbLine
 62
7
  6
CONTINUOUS
 10
8.7446246936
 20
5.6651784348
 11
12.6083282277
 21
5.3972296846
  0
LINE
  5
299
100
AcDbEntity
  8
0
100
AcDbLine
 62
4
  6
CONTINUOUS
 10
9.2275876353
 20
5.8200403868
 11
9.0730394974
 21
5.8307583366
  0
LINE
  5
29A
100
AcDbEntity
  8
0
100
AcDbLine
 62
4
  6
CONTINUOUS
 10
10.6384833643
 20
5.7318536943
 11
10.6642413812
 21
5.7300673697
  0
LINE
  5
29B
100
AcDbEntity
  8
0
100
AcDbLine
 62
4
  6
CONTINUOUS
 10
10.7286364417
 20
5.6579867468
 11
10.7672734762
 21
5.6456480007
  0
LINE
  5
29C
100
AcDbEntity
  8
0
100
AcDbLine
 62
4
  6
CONTINUOUS
 10
8.8315580265
 20
9.9043938237
 11
8.844437035
 21
9.9228191787
  0
LINE
  5
29D
100
AcDbEntity
  8
0
100
AcDbLine
 62
4
  6
CONTINUOUS
 10
10.7672734762
 20
5.79053688
 11
10.6127253383
 21
5.8495511229
  0
LINE
  5
29E
100
AcDbEntity
  8
0
100
AcDbLine
 62
4
  6
CONTINUOUS
 10
8.8315580265
 20
9.44074941
 11
8.844437035
 21
9.459174765
  0
LINE
  5
29F
100
AcDbEntity
  8
0
100
AcDbLine
 62
4
  6
CONTINUOUS
 10
8.844437035
 20
9.9228191787
 11
8.8573160526
 21
9.9315852744
  0
LINE
  5
2A0
100
AcDbEntity
  8
0
100
AcDbLine
 62
4
  6
CONTINUOUS
 10
10.6127253383
 20
5.8495511229
 11
10.7672734762
 21
5.8871294662
  0
LINE
  5
2A1
100
AcDbEntity
  8
0
100
AcDbLine
 62
4
  6
CONTINUOUS
 10
10.6384833643
 20
5.6545796253
 11
10.6256043467
 21
5.6651320468
  0
LINE
  5
2A2
100
AcDbEntity
  8
0
100
AcDbLine
 62
4
  6
CONTINUOUS
 10
8.8573160526
 20
7.1835261513
 11
8.844437035
 21
7.1940785729
  0
LINE
  5
2A3
100
AcDbEntity
  8
0
100
AcDbLine
 62
4
  6
CONTINUOUS
 10
10.7028784202
 20
5.6790915889
 11
10.7286364417
 21
5.6579867468
  0
LINE
  5
2A4
100
AcDbEntity
  8
0
100
AcDbLine
 62
4
  6
CONTINUOUS
 10
10.6642413812
 20
5.7300673697
 11
10.6771203988
 21
5.7195149482
  0
LINE
  5
2A5
100
AcDbEntity
  8
0
100
AcDbLine
 62
4
  6
CONTINUOUS
 10
8.9217111085
 20
7.2080381149
 11
8.94746913
 21
7.1869332728
  0
LINE
  5
2A6
100
AcDbEntity
  8
0
100
AcDbLine
 62
4
  6
CONTINUOUS
 10
8.8830740694
 20
7.2590138957
 11
8.8959530871
 21
7.2484614742
  0
LINE
  5
2A7
100
AcDbEntity
  8
0
100
AcDbLine
 62
4
  6
CONTINUOUS
 10
8.844437035
 20
7.1940785729
 11
8.8315580265
 21
7.2142902524
  0
LINE
  5
2A8
100
AcDbEntity
  8
0
100
AcDbLine
 62
4
  6
CONTINUOUS
 10
8.8959530871
 20
7.2484614742
 11
8.9217111085
 21
7.2080381149
  0
LINE
  5
2A9
100
AcDbEntity
  8
0
100
AcDbLine
 62
4
  6
CONTINUOUS
 10
8.844437035
 20
7.3486267108
 11
8.8315580265
 21
7.3688383903
  0
LINE
  5
2AA
100
AcDbEntity
  8
0
100
AcDbLine
 62
4
  6
CONTINUOUS
 10
8.8959530871
 20
7.4030096121
 11
8.9217111085
 21
7.3625862528
  0
LINE
  5
2AB
100
AcDbEntity
  8
0
100
AcDbLine
 62
7
  6
CONTINUOUS
 10
8.7446246936
 20
5.6651784348
 11
8.7446246936
 21
10.9777707942
  0
LINE
  5
2AC
100
AcDbEntity
  8
0
100
AcDbLine
 62
4
  6
CONTINUOUS
 10
8.8315580265
 20
6.8665569421
 11
8.8315580265
 21
6.9631495283
  0
LINE
  5
2AD
100
AcDbEntity
  8
0
100
AcDbLine
 62
4
  6
CONTINUOUS
 10
8.8315580265
 20
7.2142902524
 11
8.8315580265
 21
7.2336087696
  0
LINE
  5
2AE
100
AcDbEntity
  8
0
100
AcDbLine
 62
4
  6
CONTINUOUS
 10
8.8315580265
 20
7.3688383903
 11
8.8315580265
 21
7.3881569075
  0
LINE
  5
2AF
100
AcDbEntity
  8
0
100
AcDbLine
 62
4
  6
CONTINUOUS
 10
8.8315580265
 20
8.9191494445
 11
8.8315580265
 21
9.0157420307
  0
LINE
  5
2B0
100
AcDbEntity
  8
0
100
AcDbLine
 62
4
  6
CONTINUOUS
 10
8.8315580265
 20
9.2668827548
 11
8.8315580265
 21
9.2862012721
  0
LINE
  5
2B1
100
AcDbEntity
  8
0
100
AcDbLine
 62
4
  6
CONTINUOUS
 10
8.8315580265
 20
9.4214308928
 11
8.8315580265
 21
9.44074941
  0
LINE
  5
2B2
100
AcDbEntity
  8
0
100
AcDbLine
 62
4
  6
CONTINUOUS
 10
8.8315580265
 20
9.8850753065
 11
8.8315580265
 21
9.9043938237
  0
LINE
  5
2B3
100
AcDbEntity
  8
0
100
AcDbLine
 62
4
  6
CONTINUOUS
 10
8.9088320955
 20
7.0350646223
 11
8.9088320955
 21
7.093020174
  0
LINE
  5
2B4
100
AcDbEntity
  8
0
100
AcDbLine
 62
4
  6
CONTINUOUS
 10
8.9088320955
 20
7.653257174
 11
8.9088320955
 21
7.7112127257
  0
LINE
  5
2B5
100
AcDbEntity
  8
0
100
AcDbLine
 62
4
  6
CONTINUOUS
 10
8.9088320955
 20
9.0876571248
 11
8.9088320955
 21
9.1456126765
  0
LINE
  5
2B6
100
AcDbEntity
  8
0
100
AcDbLine
 62
4
  6
CONTINUOUS
 10
8.9088320955
 20
9.7058496765
 11
8.9088320955
 21
9.7638052282
  0
LINE
  5
2B7
100
AcDbEntity
  8
0
100
AcDbLine
 62
4
  6
CONTINUOUS
 10
8.9345901169
 20
7.4969227112
 11
8.9345901169
 21
7.5548782629
  0
LINE
  5
2B8
100
AcDbEntity
  8
0
100
AcDbLine
 62
4
  6
CONTINUOUS
 10
8.9345901169
 20
9.5495152137
 11
8.9345901169
 21
9.6074707654
  0
LINE
  5
2B9
100
AcDbEntity
  8
0
100
AcDbLine
 62
4
  6
CONTINUOUS
 10
8.9861061645
 20
7.1745945267
 11
8.9861061645
 21
7.2518685957
  0
LINE
  5
2BA
100
AcDbEntity
  8
0
100
AcDbLine
 62
4
  6
CONTINUOUS
 10
8.9861061645
 20
7.3291426646
 11
8.9861061645
 21
7.4064167336
  0
LINE
  5
2BB
100
AcDbEntity
  8
0
100
AcDbLine
 62
4
  6
CONTINUOUS
 10
8.9861061645
 20
9.2271870292
 11
8.9861061645
 21
9.3044610982
  0
LINE
  5
2BC
100
AcDbEntity
  8
0
100
AcDbLine
 62
4
  6
CONTINUOUS
 10
8.9861061645
 20
9.3817351671
 11
8.9861061645
 21
9.4590092361
  0
LINE
  5
2BD
100
AcDbEntity
  8
0
100
AcDbLine
 62
4
  6
CONTINUOUS
 10
8.9861061645
 20
9.8453795809
 11
8.9861061645
 21
9.9226536498
  0
LINE
  5
2BE
100
AcDbEntity
  8
0
100
AcDbLine
 62
4
  6
CONTINUOUS
 10
8.8315580265
 20
9.2862012721
 11
8.844437035
 21
9.3046266271
  0
LINE
  5
2BF
100
AcDbEntity
  8
0
100
AcDbLine
 62
4
  6
CONTINUOUS
 10
10.6256043467
 20
10.76811868
 11
10.6127253383
 21
10.7593525837
  0
LINE
  5
2C0
100
AcDbEntity
  8
0
100
AcDbLine
 62
4
  6
CONTINUOUS
 10
10.7028784202
 20
10.7724189634
 11
10.6771203988
 21
10.7548867711
  0
LINE
  5
2C1
100
AcDbEntity
  8
0
100
AcDbLine
 62
4
  6
CONTINUOUS
 10
8.8573160526
 20
7.3380742892
 11
8.844437035
 21
7.3486267108
  0
LINE
  5
2C2
100
AcDbEntity
  8
0
100
AcDbLine
 62
4
  6
CONTINUOUS
 10
8.9217111085
 20
7.3625862528
 11
8.94746913
 21
7.3414814107
  0
LINE
  5
2C3
100
AcDbEntity
  8
0
100
AcDbLine
 62
4
  6
CONTINUOUS
 10
8.8830740694
 20
7.4135620337
 11
8.8959530871
 21
7.4030096121
  0
LINE
  5
2C4
100
AcDbEntity
  8
0
100
AcDbLine
 62
4
  6
CONTINUOUS
 10
9.1889506009
 20
5.7551050639
 11
9.1889506009
 21
5.8420383915
  0
LINE
  5
2C5
100
AcDbEntity
  8
0
100
AcDbLine
 62
4
  6
CONTINUOUS
 10
8.844437035
 20
9.459174765
 11
8.8573160526
 21
9.4679408607
  0
LINE
  5
2C6
100
AcDbEntity
  8
0
100
AcDbLine
 62
4
  6
CONTINUOUS
 10
10.6256043467
 20
10.6135705421
 11
10.6384833643
 21
10.6223366378
  0
LINE
  5
2C7
100
AcDbEntity
  8
0
100
AcDbLine
 62
4
  6
CONTINUOUS
 10
8.844437035
 20
9.3046266271
 11
8.8573160526
 21
9.3133927228
  0
LINE
  5
2C8
100
AcDbEntity
  8
0
100
AcDbLine
 62
4
  6
CONTINUOUS
 10
8.94746913
 20
7.1869332728
 11
8.9861061645
 21
7.1745945267
  0
LINE
  5
2C9
100
AcDbEntity
  8
0
100
AcDbLine
 62
4
  6
CONTINUOUS
 10
9.2931326059
 20
7.5603709746
 11
9.2710543018
 21
7.5839804166
  0
LINE
  5
2CA
100
AcDbEntity
  8
0
100
AcDbLine
 62
4
  6
CONTINUOUS
 10
9.4256024397
 20
7.6063799253
 11
9.4035241333
 21
7.6299893651
  0
LINE
  5
2CB
100
AcDbEntity
  8
0
100
AcDbLine
 62
4
  6
CONTINUOUS
 10
10.6256043467
 20
5.6651320468
 11
10.6127253383
 21
5.6853437263
  0
LINE
  5
2CC
100
AcDbEntity
  8
0
100
AcDbLine
 62
4
  6
CONTINUOUS
 10
10.6771203988
 20
5.7195149482
 11
10.7028784202
 21
5.6790915889
  0
LINE
  5
2CD
100
AcDbEntity
  8
0
100
AcDbLine
 62
4
  6
CONTINUOUS
 10
9.2710543018
 20
7.5839804166
 11
9.2710543018
 21
7.6281370271
  0
LINE
  5
2CE
100
AcDbEntity
  8
0
100
AcDbLine
 62
4
  6
CONTINUOUS
 10
9.2710543018
 20
8.7835683256
 11
9.2710543018
 21
8.7872480292
  0
LINE
  5
2CF
100
AcDbEntity
  8
0
100
AcDbLine
 62
4
  6
CONTINUOUS
 10
9.31521091
 20
8.5155664421
 11
9.31521091
 21
8.4603706681
  0
LINE
  5
2D0
100
AcDbEntity
  8
0
100
AcDbLine
 62
4
  6
CONTINUOUS
 10
9.31521091
 20
8.0445625476
 11
9.31521091
 21
8.0997583217
  0
LINE
  5
2D1
100
AcDbEntity
  8
0
100
AcDbLine
 62
4
  6
CONTINUOUS
 10
9.31521091
 20
8.272705051
 11
9.31521091
 21
8.3168616407
  0
LINE
  5
2D2
100
AcDbEntity
  8
0
100
AcDbLine
 62
4
  6
CONTINUOUS
 10
9.31521091
 20
8.3610183042
 11
9.31521091
 21
8.405174894
  0
LINE
  5
2D3
100
AcDbEntity
  8
0
100
AcDbLine
 62
4
  6
CONTINUOUS
 10
9.31521091
 20
8.8504206427
 11
9.31521091
 21
8.8945773798
  0
LINE
  5
2D4
100
AcDbEntity
  8
0
100
AcDbLine
 62
4
  6
CONTINUOUS
 10
9.31521091
 20
8.9497730802
 11
9.31521091
 21
8.99392967
  0
LINE
  5
2D5
100
AcDbEntity
  8
0
100
AcDbLine
 62
4
  6
CONTINUOUS
 10
9.3704066749
 20
8.4786211236
 11
9.3704066749
 21
8.5227777134
  0
LINE
  5
2D6
100
AcDbEntity
  8
0
100
AcDbLine
 62
4
  6
CONTINUOUS
 10
9.4256024397
 20
8.8869217012
 11
9.4256024397
 21
8.8427649641
  0
LINE
  5
2D7
100
AcDbEntity
  8
0
100
AcDbLine
 62
4
  6
CONTINUOUS
 10
9.4256024397
 20
8.7066154912
 11
9.4256024397
 21
8.6845371963
  0
LINE
  5
2D8
100
AcDbEntity
  8
0
100
AcDbLine
 62
4
  6
CONTINUOUS
 10
9.4256024397
 20
8.5189498741
 11
9.4256024397
 21
8.4747932844
  0
LINE
  5
2D9
100
AcDbEntity
  8
0
100
AcDbLine
 62
4
  6
CONTINUOUS
 10
9.4256024397
 20
8.3092059622
 11
9.4256024397
 21
8.2650493724
  0
LINE
  5
2DA
100
AcDbEntity
  8
0
100
AcDbLine
 62
4
  6
CONTINUOUS
 10
9.4256024397
 20
7.5622233136
 11
9.4256024397
 21
7.6063799253
  0
LINE
  5
2DB
100
AcDbEntity
  8
0
100
AcDbLine
 62
4
  6
CONTINUOUS
 10
9.4256024397
 20
7.6946931417
 11
9.4256024397
 21
7.7278106117
  0
LINE
  5
2DC
100
AcDbEntity
  8
0
100
AcDbLine
 62
4
  6
CONTINUOUS
 10
9.4256024397
 20
8.5741456482
 11
9.4256024397
 21
8.6293414223
  0
LINE
  5
2DD
100
AcDbEntity
  8
0
100
AcDbLine
 62
4
  6
CONTINUOUS
 10
9.4256024397
 20
8.9421174016
 11
9.4256024397
 21
8.9862739914
  0
LINE
  5
2DE
100
AcDbEntity
  8
0
100
AcDbLine
 62
4
  6
CONTINUOUS
 10
9.4623996155
 20
8.1447465244
 11
9.4623996155
 21
8.1668248193
  0
LINE
  5
2DF
100
AcDbEntity
  8
0
100
AcDbLine
 62
4
  6
CONTINUOUS
 10
9.3740863922
 20
8.9898466414
 11
9.3667269575
 21
8.9462004302
  0
LINE
  5
2E0
100
AcDbEntity
  8
0
100
AcDbLine
 62
4
  6
CONTINUOUS
 10
9.3814458269
 20
9.0003753735
 11
9.3740863922
 21
8.9898466414
  0
LINE
  5
2E1
100
AcDbEntity
  8
0
100
AcDbLine
 62
4
  6
CONTINUOUS
 10
9.3667269575
 20
8.9462004302
 11
9.3593675228
 21
8.9356716981
  0
LINE
  5
2E2
100
AcDbEntity
  8
0
100
AcDbLine
 62
4
  6
CONTINUOUS
 10
10.6127253383
 20
10.5951451871
 11
10.6256043467
 21
10.6135705421
  0
LINE
  5
2E3
100
AcDbEntity
  8
0
100
AcDbLine
 62
4
  6
CONTINUOUS
 10
9.31521091
 20
8.99392967
 11
9.3262500667
 21
9.0042032125
  0
LINE
  5
2E4
100
AcDbEntity
  8
0
100
AcDbLine
 62
4
  6
CONTINUOUS
 10
12.3330393543
 20
7.2612394669
 11
12.4875874922
 21
7.2988178102
  0
LINE
  5
2E5
100
AcDbEntity
  8
0
100
AcDbLine
 62
4
  6
CONTINUOUS
 10
8.8315580265
 20
6.9148532352
 11
8.9861061645
 21
6.9041352854
  0
LINE
  5
2E6
100
AcDbEntity
  8
0
100
AcDbLine
 62
4
  6
CONTINUOUS
 10
8.94746913
 20
7.3414814107
 11
8.9861061645
 21
7.3291426646
  0
LINE
  5
2E7
100
AcDbEntity
  8
0
100
AcDbLine
 62
4
  6
CONTINUOUS
 10
8.9861061645
 20
7.4740315439
 11
8.8315580265
 21
7.5330457868
  0
LINE
  5
2E8
100
AcDbEntity
  8
0
100
AcDbLine
 62
4
  6
CONTINUOUS
 10
9.4256024397
 20
7.7278106117
 11
9.4035241333
 21
7.7514200423
  0
LINE
  5
2E9
100
AcDbEntity
  8
0
100
AcDbLine
 62
4
  6
CONTINUOUS
 10
9.3262500667
 20
8.249861188
 11
9.31521091
 21
8.272705051
  0
LINE
  5
2EA
100
AcDbEntity
  8
0
100
AcDbLine
 62
4
  6
CONTINUOUS
 10
9.4256024397
 20
8.4747932844
 11
9.4145632865
 21
8.4534805573
  0
LINE
  5
2EB
100
AcDbEntity
  8
0
100
AcDbLine
 62
4
  6
CONTINUOUS
 10
9.4256024397
 20
8.2650493724
 11
9.4145632865
 21
8.2437366454
  0
LINE
  5
2EC
100
AcDbEntity
  8
0
100
AcDbLine
 62
4
  6
CONTINUOUS
 10
9.4145632865
 20
8.9318438589
 11
9.4256024397
 21
8.9421174016
  0
LINE
  5
2ED
100
AcDbEntity
  8
0
100
AcDbLine
 62
4
  6
CONTINUOUS
 10
9.4256024397
 20
8.8427649641
 11
9.4145632865
 21
8.8324914214
  0
LINE
  5
2EE
100
AcDbEntity
  8
0
100
AcDbLine
 62
4
  6
CONTINUOUS
 10
8.8573160526
 20
7.2608002203
 11
8.8830740694
 21
7.2590138957
  0
LINE
  5
2EF
100
AcDbEntity
  8
0
100
AcDbLine
 62
4
  6
CONTINUOUS
 10
12.3330393543
 20
7.106691329
 11
12.4875874922
 21
7.0959733792
  0
LINE
  5
2F0
100
AcDbEntity
  8
0
100
AcDbLine
 62
4
  6
CONTINUOUS
 10
8.844437035
 20
9.2466710753
 11
8.8315580265
 21
9.2668827548
  0
LINE
  5
2F1
100
AcDbEntity
  8
0
100
AcDbLine
 62
4
  6
CONTINUOUS
 10
8.8959530871
 20
9.3010539767
 11
8.9217111085
 21
9.2606306174
  0
LINE
  5
2F2
100
AcDbEntity
  8
0
100
AcDbLine
 62
4
  6
CONTINUOUS
 10
8.844437035
 20
9.4012192132
 11
8.8315580265
 21
9.4214308928
  0
LINE
  5
2F3
100
AcDbEntity
  8
0
100
AcDbLine
 62
4
  6
CONTINUOUS
 10
8.8959530871
 20
9.4556021146
 11
8.9217111085
 21
9.4151787553
  0
LINE
  5
2F4
100
AcDbEntity
  8
0
100
AcDbLine
 62
4
  6
CONTINUOUS
 10
9.3814458269
 20
8.455777261
 11
9.3704066749
 21
8.4786211236
  0
LINE
  5
2F5
100
AcDbEntity
  8
0
100
AcDbLine
 62
4
  6
CONTINUOUS
 10
9.7854788141
 20
8.2713694503
 11
9.7854788141
 21
8.2235331201
  0
LINE
  5
2F6
100
AcDbEntity
  8
0
100
AcDbLine
 62
4
  6
CONTINUOUS
 10
9.8737920397
 20
8.2321274465
 11
9.8737920397
 21
8.2652449073
  0
LINE
  5
2F7
100
AcDbEntity
  8
0
100
AcDbLine
 62
4
  6
CONTINUOUS
 10
9.8737920397
 20
8.3535581237
 11
9.8737920397
 21
8.3866755844
  0
LINE
  5
2F8
100
AcDbEntity
  8
0
100
AcDbLine
 62
4
  6
CONTINUOUS
 10
8.8315580265
 20
7.3881569075
 11
8.844437035
 21
7.4065822625
  0
LINE
  5
2F9
100
AcDbEntity
  8
0
100
AcDbLine
 62
4
  6
CONTINUOUS
 10
8.8315580265
 20
7.2336087696
 11
8.844437035
 21
7.2520341246
  0
LINE
  5
2FA
100
AcDbEntity
  8
0
100
AcDbLine
 62
4
  6
CONTINUOUS
 10
9.4256024397
 20
8.6845371963
 11
9.4145632865
 21
8.6742635799
  0
LINE
  5
2FB
100
AcDbEntity
  8
0
100
AcDbLine
 62
4
  6
CONTINUOUS
 10
9.4145632865
 20
8.5638720318
 11
9.4256024397
 21
8.5741456482
  0
LINE
  5
2FC
100
AcDbEntity
  8
0
100
AcDbLine
 62
4
  6
CONTINUOUS
 10
8.8573160526
 20
7.4153483582
 11
8.8830740694
 21
7.4135620337
  0
LINE
  5
2FD
100
AcDbEntity
  8
0
100
AcDbLine
 62
4
  6
CONTINUOUS
 10
9.31521091
 20
7.558839839
 11
9.2931326059
 21
7.5603709746
  0
LINE
  5
2FE
100
AcDbEntity
  8
0
100
AcDbLine
 62
4
  6
CONTINUOUS
 10
9.7854788141
 20
8.1278604644
 11
9.7192439018
 21
8.176610484
  0
LINE
  5
2FF
100
AcDbEntity
  8
0
100
AcDbLine
 62
4
  6
CONTINUOUS
 10
10.1917196367
 20
7.7445949133
 11
10.2137979431
 21
7.7209854735
  0
LINE
  5
300
100
AcDbEntity
  8
0
100
AcDbLine
 62
4
  6
CONTINUOUS
 10
9.7192439018
 20
8.275962857
 11
9.7523613625
 21
8.2405486926
  0
LINE
  5
301
100
AcDbEntity
  8
0
100
AcDbLine
 62
4
  6
CONTINUOUS
 10
9.3262500667
 20
8.838615964
 11
9.31521091
 21
8.8504206427
  0
LINE
  5
302
100
AcDbEntity
  8
0
100
AcDbLine
 62
4
  6
CONTINUOUS
 10
8.844437035
 20
9.864863627
 11
8.8315580265
 21
9.8850753065
  0
LINE
  5
303
100
AcDbEntity
  8
0
100
AcDbLine
 62
4
  6
CONTINUOUS
 10
8.8959530871
 20
9.9192465283
 11
8.9217111085
 21
9.878823169
  0
LINE
  5
304
100
AcDbEntity
  8
0
100
AcDbLine
 62
4
  6
CONTINUOUS
 10
10.1181252828
 20
7.642986896
 11
10.1475630262
 21
7.5820698993
  0
LINE
  5
305
100
AcDbEntity
  8
0
100
AcDbLine
 62
4
  6
CONTINUOUS
 10
10.0592498052
 20
7.6765076676
 11
10.0592498052
 21
7.7317034233
  0
LINE
  5
306
100
AcDbEntity
  8
0
100
AcDbLine
 62
4
  6
CONTINUOUS
 10
10.0592498052
 20
7.9488067515
 11
10.0592498052
 21
8.0371199679
  0
LINE
  5
307
100
AcDbEntity
  8
0
100
AcDbLine
 62
4
  6
CONTINUOUS
 10
10.0592498052
 20
8.0812765945
 11
10.0592498052
 21
8.147511516
  0
LINE
  5
308
100
AcDbEntity
  8
0
100
AcDbLine
 62
4
  6
CONTINUOUS
 10
10.0592498052
 20
8.3351771331
 11
10.0592498052
 21
8.3793337229
  0
LINE
  5
309
100
AcDbEntity
  8
0
100
AcDbLine
 62
4
  6
CONTINUOUS
 10
10.0592498052
 20
8.4639671989
 11
10.0592498052
 21
8.4970846781
  0
LINE
  5
30A
100
AcDbEntity
  8
0
100
AcDbLine
 62
4
  6
CONTINUOUS
 10
10.0592498052
 20
8.5633195628
 11
10.0592498052
 21
8.6185153368
  0
LINE
  5
30B
100
AcDbEntity
  8
0
100
AcDbLine
 62
4
  6
CONTINUOUS
 10
10.0592498052
 20
8.7031488866
 11
10.0592498052
 21
8.7693837712
  0
LINE
  5
30C
100
AcDbEntity
  8
0
100
AcDbLine
 62
4
  6
CONTINUOUS
 10
10.1254847175
 20
8.7427120696
 11
10.1254847175
 21
8.6985554798
  0
LINE
  5
30D
100
AcDbEntity
  8
0
100
AcDbLine
 62
4
  6
CONTINUOUS
 10
10.1254847175
 20
8.1208398144
 11
10.1254847175
 21
8.0766831878
  0
LINE
  5
30E
100
AcDbEntity
  8
0
100
AcDbLine
 62
4
  6
CONTINUOUS
 10
10.1696413303
 20
7.8234001181
 11
10.1696413303
 21
7.8822755956
  0
LINE
  5
30F
100
AcDbEntity
  8
0
100
AcDbLine
 62
4
  6
CONTINUOUS
 10
10.2137979431
 20
8.6077973871
 11
10.2137979431
 21
8.552601613
  0
LINE
  5
310
100
AcDbEntity
  8
0
100
AcDbLine
 62
4
  6
CONTINUOUS
 10
10.2137979431
 20
8.4863667283
 11
10.2137979431
 21
8.4532492492
  0
LINE
  5
311
100
AcDbEntity
  8
0
100
AcDbLine
 62
4
  6
CONTINUOUS
 10
10.2137979431
 20
8.3686157731
 11
10.2137979431
 21
8.3244591834
  0
LINE
  5
312
100
AcDbEntity
  8
0
100
AcDbLine
 62
4
  6
CONTINUOUS
 10
10.2137979431
 20
7.7209854735
 11
10.2137979431
 21
7.6657897179
  0
LINE
  5
313
100
AcDbEntity
  8
0
100
AcDbLine
 62
4
  6
CONTINUOUS
 10
10.2137979431
 20
8.0705586448
 11
10.2137979431
 21
8.1367935663
  0
LINE
  5
314
100
AcDbEntity
  8
0
100
AcDbLine
 62
4
  6
CONTINUOUS
 10
10.2137979431
 20
8.6924309368
 11
10.2137979431
 21
8.7586658215
  0
LINE
  5
315
100
AcDbEntity
  8
0
100
AcDbLine
 62
4
  6
CONTINUOUS
 10
10.1181252828
 20
8.8094573328
 11
10.1475630262
 21
8.8662912959
  0
LINE
  5
316
100
AcDbEntity
  8
0
100
AcDbLine
 62
4
  6
CONTINUOUS
 10
9.31521091
 20
8.0997583217
 11
9.3262500667
 21
8.110031901
  0
LINE
  5
317
100
AcDbEntity
  8
0
100
AcDbLine
 62
4
  6
CONTINUOUS
 10
9.31521091
 20
8.405174894
 11
9.3262500667
 21
8.4117687329
  0
LINE
  5
318
100
AcDbEntity
  8
0
100
AcDbLine
 62
4
  6
CONTINUOUS
 10
9.4035241333
 20
7.6299893651
 11
9.3814458269
 21
7.6315205009
  0
LINE
  5
319
100
AcDbEntity
  8
0
100
AcDbLine
 62
4
  6
CONTINUOUS
 10
9.2710543018
 20
7.6833327874
 11
9.4035241333
 21
7.6741459733
  0
LINE
  5
31A
100
AcDbEntity
  8
0
100
AcDbLine
 62
4
  6
CONTINUOUS
 10
10.2137979431
 20
7.6657897179
 11
10.0592498052
 21
7.6765076676
  0
LINE
  5
31B
100
AcDbEntity
  8
0
100
AcDbLine
 62
4
  6
CONTINUOUS
 10
9.4035241333
 20
7.7514200423
 11
9.2710543018
 21
7.7606068563
  0
LINE
  5
31C
100
AcDbEntity
  8
0
100
AcDbLine
 62
4
  6
CONTINUOUS
 10
9.4256024397
 20
7.7940455147
 11
9.2710543018
 21
7.8047634645
  0
LINE
  5
31D
100
AcDbEntity
  8
0
100
AcDbLine
 62
4
  6
CONTINUOUS
 10
10.0813281093
 20
7.7522505918
 11
10.1917196367
 21
7.7445949133
  0
LINE
  5
31E
100
AcDbEntity
  8
0
100
AcDbLine
 62
4
  6
CONTINUOUS
 10
8.8315580265
 20
7.8421420626
 11
8.9861061645
 21
7.8314241128
  0
LINE
  5
31F
100
AcDbEntity
  8
0
100
AcDbLine
 62
4
  6
CONTINUOUS
 10
9.4256024397
 20
7.8713195837
 11
9.2710543018
 21
7.8820375335
  0
LINE
  5
320
100
AcDbEntity
  8
0
100
AcDbLine
 62
4
  6
CONTINUOUS
 10
10.2137979431
 20
7.8056189772
 11
10.0592498052
 21
7.8604935351
  0
LINE
  5
321
100
AcDbEntity
  8
0
100
AcDbLine
 62
4
  6
CONTINUOUS
 10
9.4623996155
 20
8.1668248193
 11
9.31521091
 21
8.2211889804
  0
LINE
  5
322
100
AcDbEntity
  8
0
100
AcDbLine
 62
4
  6
CONTINUOUS
 10
9.7523613625
 20
8.2405486926
 11
9.7965179707
 21
8.2154081173
  0
LINE
  5
323
100
AcDbEntity
  8
0
100
AcDbLine
 62
4
  6
CONTINUOUS
 10
8.8573160526
 20
9.2361186538
 11
8.844437035
 21
9.2466710753
  0
LINE
  5
324
100
AcDbEntity
  8
0
100
AcDbLine
 62
4
  6
CONTINUOUS
 10
9.8737920397
 20
8.2652449073
 11
9.8517137333
 21
8.2888543379
  0
LINE
  5
325
100
AcDbEntity
  8
0
100
AcDbLine
 62
4
  6
CONTINUOUS
 10
9.3262500667
 20
8.9379684015
 11
9.31521091
 21
8.9497730802
  0
LINE
  5
326
100
AcDbEntity
  8
0
100
AcDbLine
 62
4
  6
CONTINUOUS
 10
9.8737920397
 20
8.3866755844
 11
9.8517137333
 21
8.4102850151
  0
LINE
  5
327
100
AcDbEntity
  8
0
100
AcDbLine
 62
4
  6
CONTINUOUS
 10
9.4256024397
 20
8.9862739914
 11
9.4145632865
 21
8.9980786699
  0
LINE
  5
328
100
AcDbEntity
  8
0
100
AcDbLine
 62
4
  6
CONTINUOUS
 10
10.0813281093
 20
8.3115677027
 11
10.0592498052
 21
8.3351771331
  0
LINE
  5
329
100
AcDbEntity
  8
0
100
AcDbLine
 62
4
  6
CONTINUOUS
 10
10.6555480666
 20
8.8699293746
 11
10.6426690581
 21
8.8515040196
  0
LINE
  5
32A
100
AcDbEntity
  8
0
100
AcDbLine
 62
4
  6
CONTINUOUS
 10
9.3814458269
 20
7.6315205009
 11
9.31521091
 21
7.558839839
  0
LINE
  5
32B
100
AcDbEntity
  8
0
100
AcDbLine
 62
4
  6
CONTINUOUS
 10
10.0592498052
 20
8.6185153368
 11
10.0813281093
 21
8.6390624961
  0
LINE
  5
32C
100
AcDbEntity
  8
0
100
AcDbLine
 62
4
  6
CONTINUOUS
 10
9.8517137333
 20
8.3330109645
 11
9.8737920397
 21
8.3535581237
  0
LINE
  5
32D
100
AcDbEntity
  8
0
100
AcDbLine
 62
4
  6
CONTINUOUS
 10
9.8075571228
 20
8.2919166092
 11
9.7854788141
 21
8.2713694503
  0
LINE
  5
32E
100
AcDbEntity
  8
0
100
AcDbLine
 62
4
  6
CONTINUOUS
 10
10.0592498052
 20
8.4970846781
 11
10.0813281093
 21
8.5176318374
  0
LINE
  5
32F
100
AcDbEntity
  8
0
100
AcDbLine
 62
4
  6
CONTINUOUS
 10
9.8517137333
 20
8.2115802782
 11
9.8737920397
 21
8.2321274465
  0
LINE
  5
330
100
AcDbEntity
  8
0
100
AcDbLine
 62
4
  6
CONTINUOUS
 10
9.2710543018
 20
7.6281370271
 11
9.2820934585
 21
7.638410611
  0
LINE
  5
331
100
AcDbEntity
  8
0
100
AcDbLine
 62
4
  6
CONTINUOUS
 10
10.2137979431
 20
8.4532492492
 11
10.1917196367
 21
8.43270209
  0
LINE
  5
332
100
AcDbEntity
  8
0
100
AcDbLine
 62
4
  6
CONTINUOUS
 10
9.4035241333
 20
7.6741459733
 11
9.4256024397
 21
7.6946931417
  0
LINE
  5
333
100
AcDbEntity
  8
0
100
AcDbLine
 62
4
  6
CONTINUOUS
 10
10.6684270842
 20
8.8786954703
 11
10.6555480666
 21
8.8699293746
  0
LINE
  5
334
100
AcDbEntity
  8
0
100
AcDbLine
 62
4
  6
CONTINUOUS
 10
9.3372892141
 20
8.5250744171
 11
9.31521091
 21
8.5155664421
  0
LINE
  5
335
100
AcDbEntity
  8
0
100
AcDbLine
 62
4
  6
CONTINUOUS
 10
11.3622838388
 20
7.9081171239
 11
11.3236468043
 21
7.9011373527
  0
LINE
  5
336
100
AcDbEntity
  8
0
100
AcDbLine
 62
4
  6
CONTINUOUS
 10
9.4256024397
 20
8.036906869
 11
9.2710543018
 21
8.0476248188
  0
LINE
  5
337
100
AcDbEntity
  8
0
100
AcDbLine
 62
4
  6
CONTINUOUS
 10
10.2137979431
 20
7.9822454284
 11
10.0592498052
 21
7.9929633781
  0
LINE
  5
338
100
AcDbEntity
  8
0
100
AcDbLine
 62
4
  6
CONTINUOUS
 10
9.3262500667
 20
8.110031901
 11
9.4256024397
 21
8.1031417906
  0
LINE
  5
339
100
AcDbEntity
  8
0
100
AcDbLine
 62
4
  6
CONTINUOUS
 10
10.2137979431
 20
8.0705586448
 11
10.0592498052
 21
8.0812765945
  0
LINE
  5
33A
100
AcDbEntity
  8
0
100
AcDbLine
 62
4
  6
CONTINUOUS
 10
12.4875874922
 20
7.202225224
 11
12.3330393543
 21
7.2612394669
  0
LINE
  5
33B
100
AcDbEntity
  8
0
100
AcDbLine
 62
4
  6
CONTINUOUS
 10
8.9217111085
 20
9.2606306174
 11
8.94746913
 21
9.2395257753
  0
LINE
  5
33C
100
AcDbEntity
  8
0
100
AcDbLine
 62
4
  6
CONTINUOUS
 10
8.8830740694
 20
9.3116063982
 11
8.8959530871
 21
9.3010539767
  0
LINE
  5
33D
100
AcDbEntity
  8
0
100
AcDbLine
 62
4
  6
CONTINUOUS
 10
8.8573160526
 20
9.3906667917
 11
8.844437035
 21
9.4012192132
  0
LINE
  5
33E
100
AcDbEntity
  8
0
100
AcDbLine
 62
4
  6
CONTINUOUS
 10
8.9217111085
 20
9.4151787553
 11
8.94746913
 21
9.3940739132
  0
LINE
  5
33F
100
AcDbEntity
  8
0
100
AcDbLine
 62
4
  6
CONTINUOUS
 10
8.8830740694
 20
9.4661545361
 11
8.8959530871
 21
9.4556021146
  0
LINE
  5
340
100
AcDbEntity
  8
0
100
AcDbLine
 62
4
  6
CONTINUOUS
 10
10.0813281093
 20
8.4403577685
 11
10.0592498052
 21
8.4639671989
  0
LINE
  5
341
100
AcDbEntity
  8
0
100
AcDbLine
 62
4
  6
CONTINUOUS
 10
10.1917196367
 20
8.509976159
 11
10.2137979431
 21
8.4863667283
  0
LINE
  5
342
100
AcDbEntity
  8
0
100
AcDbLine
 62
4
  6
CONTINUOUS
 10
10.1917196367
 20
8.6314068177
 11
10.2137979431
 21
8.6077973871
  0
LINE
  5
343
100
AcDbEntity
  8
0
100
AcDbLine
 62
4
  6
CONTINUOUS
 10
10.1475630262
 20
8.8662912959
 11
10.1770007673
 21
8.805374304
  0
LINE
  5
344
100
AcDbEntity
  8
0
100
AcDbLine
 62
4
  6
CONTINUOUS
 10
10.6127253383
 20
10.7593525837
 11
10.6127253383
 21
10.6917377733
  0
LINE
  5
345
100
AcDbEntity
  8
0
100
AcDbLine
 62
4
  6
CONTINUOUS
 10
10.6127253383
 20
5.6853437263
 11
10.6127253383
 21
5.7046622436
  0
LINE
  5
346
100
AcDbEntity
  8
0
100
AcDbLine
 62
4
  6
CONTINUOUS
 10
10.6127253383
 20
10.5758266699
 11
10.6127253383
 21
10.5951451871
  0
LINE
  5
347
100
AcDbEntity
  8
0
100
AcDbLine
 62
4
  6
CONTINUOUS
 10
10.6426690581
 20
8.8515040196
 11
10.6426690581
 21
8.8321855024
  0
LINE
  5
348
100
AcDbEntity
  8
0
100
AcDbLine
 62
4
  6
CONTINUOUS
 10
10.6771203988
 20
10.6872719607
 11
10.6771203988
 21
10.7548867711
  0
LINE
  5
349
100
AcDbEntity
  8
0
100
AcDbLine
 62
4
  6
CONTINUOUS
 10
10.7157574287
 20
5.8134280473
 11
10.7157574287
 21
5.871383599
  0
LINE
  5
34A
100
AcDbEntity
  8
0
100
AcDbLine
 62
4
  6
CONTINUOUS
 10
10.7672734762
 20
5.6456480007
 11
10.7672734762
 21
5.7229220697
  0
LINE
  5
34B
100
AcDbEntity
  8
0
100
AcDbLine
 62
4
  6
CONTINUOUS
 10
10.7672734762
 20
10.5361309443
 11
10.7672734762
 21
10.6134050132
  0
LINE
  5
34C
100
AcDbEntity
  8
0
100
AcDbLine
 62
4
  6
CONTINUOUS
 10
10.7672734762
 20
10.6810198236
 11
10.7672734762
 21
10.7486346339
  0
LINE
  5
34D
100
AcDbEntity
  8
0
100
AcDbLine
 62
4
  6
CONTINUOUS
 10
10.1475630262
 20
7.5820698993
 11
10.1770007673
 21
7.6389038673
  0
LINE
  5
34E
100
AcDbEntity
  8
0
100
AcDbLine
 62
4
  6
CONTINUOUS
 10
10.694185101
 20
8.8092943354
 11
10.7328221401
 21
8.8645703994
  0
LINE
  5
34F
100
AcDbEntity
  8
0
100
AcDbLine
 62
4
  6
CONTINUOUS
 10
10.7972171961
 20
8.8214675526
 11
10.7843381842
 21
8.8030421979
  0
LINE
  5
350
100
AcDbEntity
  8
0
100
AcDbLine
 62
7
  6
CONTINUOUS
 10
12.6083282277
 20
10.709822044
 11
13.2553753064
 21
11.3348215652
  0
LINE
  5
351
100
AcDbEntity
  8
0
100
AcDbLine
 62
7
  6
CONTINUOUS
 10
10.3733396138
 20
8.3776745287
 11
10.249115584
 21
8.2576833229
  0
LINE
  5
352
100
AcDbEntity
  8
0
100
AcDbLine
 62
7
  6
CONTINUOUS
 10
10.7044109746
 20
8.5458587911
 11
10.5801869447
 21
8.4258675853
  0
LINE
  5
353
100
AcDbEntity
  8
0
100
AcDbLine
 62
4
  6
CONTINUOUS
 10
10.2137979431
 20
8.3244591834
 11
10.1917196367
 21
8.3039120242
  0
LINE
  5
354
100
AcDbEntity
  8
0
100
AcDbLine
 62
4
  6
CONTINUOUS
 10
9.4145632865
 20
7.5519497283
 11
9.4256024397
 21
7.5622233136
  0
LINE
  5
355
100
AcDbEntity
  8
0
100
AcDbLine
 62
4
  6
CONTINUOUS
 10
10.7328221401
 20
8.8645703994
 11
10.7457011486
 21
8.8733364957
  0
LINE
  5
356
100
AcDbEntity
  8
0
100
AcDbLine
 62
4
  6
CONTINUOUS
 10
10.6813060926
 20
8.8005282391
 11
10.694185101
 21
8.8092943354
  0
LINE
  5
357
100
AcDbEntity
  8
0
100
AcDbLine
 62
4
  6
CONTINUOUS
 10
10.7843381842
 20
8.8030421979
 11
10.7585801616
 21
8.7855100056
  0
LINE
  5
358
100
AcDbEntity
  8
0
100
AcDbLine
 62
4
  6
CONTINUOUS
 10
8.844437035
 20
7.4065822625
 11
8.8573160526
 21
7.4153483582
  0
LINE
  5
359
100
AcDbEntity
  8
0
100
AcDbLine
 62
4
  6
CONTINUOUS
 10
9.7192439018
 20
8.0882972584
 11
9.7854788141
 21
8.1278604644
  0
LINE
  5
35A
100
AcDbEntity
  8
0
100
AcDbLine
 62
4
  6
CONTINUOUS
 10
8.8315580265
 20
7.5330457868
 11
8.9861061645
 21
7.5706241301
  0
LINE
  5
35B
100
AcDbEntity
  8
0
100
AcDbLine
 62
4
  6
CONTINUOUS
 10
11.2463727354
 20
8.2735481551
 11
11.4009208733
 21
8.3111264985
  0
LINE
  5
35C
100
AcDbEntity
  8
0
100
AcDbLine
 62
4
  6
CONTINUOUS
 10
10.0592498052
 20
7.8604935351
 11
10.2137979431
 21
7.893932212
  0
LINE
  5
35D
100
AcDbEntity
  8
0
100
AcDbLine
 62
4
  6
CONTINUOUS
 10
9.7854788141
 20
8.1278604644
 11
9.8737920397
 21
8.1217359214
  0
LINE
  5
35E
100
AcDbEntity
  8
0
100
AcDbLine
 62
4
  6
CONTINUOUS
 10
11.2721307614
 20
8.0785766576
 11
11.2850097698
 21
8.0776834953
  0
LINE
  5
35F
100
AcDbEntity
  8
0
100
AcDbLine
 62
4
  6
CONTINUOUS
 10
9.7965179707
 20
8.2154081173
 11
9.8517137333
 21
8.2115802782
  0
LINE
  5
360
100
AcDbEntity
  8
0
100
AcDbLine
 62
4
  6
CONTINUOUS
 10
9.4145632865
 20
8.2437366454
 11
9.3262500667
 21
8.249861188
  0
LINE
  5
361
100
AcDbEntity
  8
0
100
AcDbLine
 62
4
  6
CONTINUOUS
 10
11.3494048258
 20
8.150491752
 11
11.3751628495
 21
8.148705427
  0
LINE
  5
362
100
AcDbEntity
  8
0
100
AcDbLine
 62
4
  6
CONTINUOUS
 10
9.2710543018
 20
8.3199239119
 11
9.4256024397
 21
8.3092059622
  0
LINE
  5
363
100
AcDbEntity
  8
0
100
AcDbLine
 62
4
  6
CONTINUOUS
 10
9.8517137333
 20
8.2888543379
 11
9.8075571228
 21
8.2919166092
  0
LINE
  5
364
100
AcDbEntity
  8
0
100
AcDbLine
 62
4
  6
CONTINUOUS
 10
9.4256024397
 20
8.3533626256
 11
9.31521091
 21
8.3610183042
  0
LINE
  5
365
100
AcDbEntity
  8
0
100
AcDbLine
 62
4
  6
CONTINUOUS
 10
10.1917196367
 20
8.3039120242
 11
10.0813281093
 21
8.3115677027
  0
LINE
  5
366
100
AcDbEntity
  8
0
100
AcDbLine
 62
4
  6
CONTINUOUS
 10
9.7192439018
 20
8.3421977785
 11
9.8517137333
 21
8.3330109645
  0
LINE
  5
367
100
AcDbEntity
  8
0
100
AcDbLine
 62
4
  6
CONTINUOUS
 10
11.3236468043
 20
7.9011373527
 11
11.2850097698
 21
7.9134760988
  0
LINE
  5
368
100
AcDbEntity
  8
0
100
AcDbLine
 62
4
  6
CONTINUOUS
 10
9.2710543018
 20
8.7872480292
 11
9.2820934585
 21
8.7828027575
  0
LINE
  5
369
100
AcDbEntity
  8
0
100
AcDbLine
 62
4
  6
CONTINUOUS
 10
8.8573160526
 20
9.8543112054
 11
8.844437035
 21
9.864863627
  0
LINE
  5
36A
100
AcDbEntity
  8
0
100
AcDbLine
 62
4
  6
CONTINUOUS
 10
11.2850097698
 20
7.9134760988
 11
11.2592517438
 21
7.9345809412
  0
LINE
  5
36B
100
AcDbEntity
  8
0
100
AcDbLine
 62
4
  6
CONTINUOUS
 10
8.9217111085
 20
9.878823169
 11
8.94746913
 21
9.8577183269
  0
LINE
  5
36C
100
AcDbEntity
  8
0
100
AcDbLine
 62
4
  6
CONTINUOUS
 10
8.8830740694
 20
9.9297989499
 11
8.8959530871
 21
9.9192465283
  0
LINE
  5
36D
100
AcDbEntity
  8
0
100
AcDbLine
 62
4
  6
CONTINUOUS
 10
10.7972171961
 20
8.8407860699
 11
10.7972171961
 21
8.8214675526
  0
LINE
  5
36E
100
AcDbEntity
  8
0
100
AcDbLine
 62
7
  6
CONTINUOUS
 10
10.7355511948
 20
8.5436992095
 11
10.6113271649
 21
8.4237080037
  0
LINE
  5
36F
100
AcDbEntity
  8
0
100
AcDbLine
 62
4
  6
CONTINUOUS
 10
10.0592498052
 20
7.7317034233
 11
10.0813281093
 21
7.7522505918
  0
LINE
  5
370
100
AcDbEntity
  8
0
100
AcDbLine
 62
4
  6
CONTINUOUS
 10
8.844437035
 20
7.2520341246
 11
8.8573160526
 21
7.2608002203
  0
LINE
  5
371
100
AcDbEntity
  8
0
100
AcDbLine
 62
4
  6
CONTINUOUS
 10
9.2710543018
 20
7.8047634645
 11
9.4256024397
 21
7.8713195837
  0
LINE
  5
372
100
AcDbEntity
  8
0
100
AcDbLine
 62
4
  6
CONTINUOUS
 10
11.2463727354
 20
8.3701407413
 11
11.4009208733
 21
8.3884005674
  0
LINE
  5
373
100
AcDbEntity
  8
0
100
AcDbLine
 62
4
  6
CONTINUOUS
 10
11.2463727354
 20
8.4280962931
 11
11.4009208733
 21
8.4463561191
  0
LINE
  5
374
100
AcDbEntity
  8
0
100
AcDbLine
 62
4
  6
CONTINUOUS
 10
9.3262500667
 20
8.4117687329
 11
9.3483283708
 21
8.4102375973
  0
LINE
  5
375
100
AcDbEntity
  8
0
100
AcDbLine
 62
4
  6
CONTINUOUS
 10
9.8517137333
 20
8.4102850151
 11
9.7192439018
 21
8.4194718291
  0
LINE
  5
376
100
AcDbEntity
  8
0
100
AcDbLine
 62
4
  6
CONTINUOUS
 10
9.4145632865
 20
8.4534805573
 11
9.3814458269
 21
8.455777261
  0
LINE
  5
377
100
AcDbEntity
  8
0
100
AcDbLine
 62
4
  6
CONTINUOUS
 10
10.1917196367
 20
8.43270209
 11
10.0813281093
 21
8.4403577685
  0
LINE
  5
378
100
AcDbEntity
  8
0
100
AcDbLine
 62
4
  6
CONTINUOUS
 10
9.4256024397
 20
8.5189498741
 11
9.3372892141
 21
8.5250744171
  0
LINE
  5
379
100
AcDbEntity
  8
0
100
AcDbLine
 62
4
  6
CONTINUOUS
 10
9.31521091
 20
8.5707621425
 11
9.4145632865
 21
8.5638720318
  0
LINE
  5
37A
100
AcDbEntity
  8
0
100
AcDbLine
 62
4
  6
CONTINUOUS
 10
10.0813281093
 20
8.5176318374
 11
10.1917196367
 21
8.509976159
  0
LINE
  5
37B
100
AcDbEntity
  8
0
100
AcDbLine
 62
4
  6
CONTINUOUS
 10
10.2137979431
 20
8.552601613
 11
10.0592498052
 21
8.5633195628
  0
LINE
  5
37C
100
AcDbEntity
  8
0
100
AcDbLine
 62
4
  6
CONTINUOUS
 10
9.4256024397
 20
8.6293414223
 11
9.31521091
 21
8.6369971008
  0
LINE
  5
37D
100
AcDbEntity
  8
0
100
AcDbLine
 62
4
  6
CONTINUOUS
 10
11.4009208733
 20
8.3884005674
 11
11.2463727354
 21
8.4280962931
  0
LINE
  5
37E
100
AcDbEntity
  8
0
100
AcDbLine
 62
4
  6
CONTINUOUS
 10
11.4009208733
 20
8.2145339123
 11
11.2463727354
 21
8.2735481551
  0
LINE
  5
37F
100
AcDbEntity
  8
0
100
AcDbLine
 62
4
  6
CONTINUOUS
 10
11.2592517438
 20
8.0891290791
 11
11.2721307614
 21
8.0785766576
  0
LINE
  5
380
100
AcDbEntity
  8
0
100
AcDbLine
 62
4
  6
CONTINUOUS
 10
11.3751628495
 20
7.9941572891
 11
11.3880418614
 21
7.9836048679
  0
LINE
  5
381
100
AcDbEntity
  8
0
100
AcDbLine
 62
4
  6
CONTINUOUS
 10
11.3751628495
 20
8.148705427
 11
11.3880418614
 21
8.1381530058
  0
LINE
  5
382
100
AcDbEntity
  8
0
100
AcDbLine
 62
4
  6
CONTINUOUS
 10
10.6555480666
 20
8.8119738229
 11
10.6684270842
 21
8.8014214014
  0
LINE
  5
383
100
AcDbEntity
  8
0
100
AcDbLine
 62
4
  6
CONTINUOUS
 10
10.6426690581
 20
8.8321855024
 11
10.6555480666
 21
8.8119738229
  0
LINE
  5
384
100
AcDbEntity
  8
0
100
AcDbLine
 62
4
  6
CONTINUOUS
 10
11.2592517438
 20
7.9345809412
 11
11.2463727354
 21
7.9547926207
  0
LINE
  5
385
100
AcDbEntity
  8
0
100
AcDbLine
 62
4
  6
CONTINUOUS
 10
11.2463727354
 20
8.1093407586
 11
11.2592517438
 21
8.0891290791
  0
LINE
  5
386
100
AcDbEntity
  8
0
100
AcDbLine
 62
4
  6
CONTINUOUS
 10
10.7843381842
 20
8.8609977496
 11
10.7972171961
 21
8.8407860699
  0
LINE
  5
387
100
AcDbEntity
  8
0
100
AcDbLine
 62
4
  6
CONTINUOUS
 10
11.2463727354
 20
8.1286592759
 11
11.2463727354
 21
8.1093407586
  0
LINE
  5
388
100
AcDbEntity
  8
0
100
AcDbLine
 62
4
  6
CONTINUOUS
 10
11.2463727354
 20
7.9547926207
 11
11.2463727354
 21
7.9741111379
  0
LINE
  5
389
100
AcDbEntity
  8
0
100
AcDbLine
 62
7
  6
CONTINUOUS
 10
11.0666225556
 20
8.3295951934
 11
10.9423985257
 21
8.2096039875
  0
LINE
  5
38A
100
AcDbEntity
  8
0
100
AcDbLine
 62
7
  6
CONTINUOUS
 10
11.0821926657
 20
8.3015471808
 11
10.9579686358
 21
8.181555975
  0
LINE
  5
38B
100
AcDbEntity
  8
0
100
AcDbLine
 62
4
  6
CONTINUOUS
 10
12.3459183627
 20
9.2211758475
 11
12.3330393543
 21
9.2124097512
  0
LINE
  5
38C
100
AcDbEntity
  8
0
100
AcDbLine
 62
4
  6
CONTINUOUS
 10
12.4231924363
 20
9.2254761309
 11
12.3974344148
 21
9.2079439386
  0
LINE
  5
38D
100
AcDbEntity
  8
0
100
AcDbLine
 62
4
  6
CONTINUOUS
 10
9.31521091
 20
8.1549540958
 11
9.4256024397
 21
8.1804158964
  0
LINE
  5
38E
100
AcDbEntity
  8
0
100
AcDbLine
 62
4
  6
CONTINUOUS
 10
9.4145632865
 20
8.6742635799
 11
9.2710543018
 21
8.6842159618
  0
LINE
  5
38F
100
AcDbEntity
  8
0
100
AcDbLine
 62
4
  6
CONTINUOUS
 10
10.0813281093
 20
8.6390624961
 11
10.1917196367
 21
8.6314068177
  0
LINE
  5
390
100
AcDbEntity
  8
0
100
AcDbLine
 62
4
  6
CONTINUOUS
 10
10.2137979431
 20
8.6924309368
 11
10.0592498052
 21
8.7031488866
  0
LINE
  5
391
100
AcDbEntity
  8
0
100
AcDbLine
 62
4
  6
CONTINUOUS
 10
9.4256024397
 20
8.7728503759
 11
9.31521091
 21
8.7805060545
  0
LINE
  5
392
100
AcDbEntity
  8
0
100
AcDbLine
 62
4
  6
CONTINUOUS
 10
9.2820934585
 20
8.7828027575
 11
9.2710543018
 21
8.7835683256
  0
LINE
  5
393
100
AcDbEntity
  8
0
100
AcDbLine
 62
4
  6
CONTINUOUS
 10
9.4145632865
 20
8.8324914214
 11
9.3262500667
 21
8.838615964
  0
LINE
  5
394
100
AcDbEntity
  8
0
100
AcDbLine
 62
4
  6
CONTINUOUS
 10
10.6684270842
 20
8.8014214014
 11
10.6813060926
 21
8.8005282391
  0
LINE
  5
395
100
AcDbEntity
  8
0
100
AcDbLine
 62
4
  6
CONTINUOUS
 10
11.4009208733
 20
8.4463561191
 11
11.2463727354
 21
8.4860518448
  0
LINE
  5
396
100
AcDbEntity
  8
0
100
AcDbLine
 62
4
  6
CONTINUOUS
 10
8.94746913
 20
9.2395257753
 11
8.9861061645
 21
9.2271870292
  0
LINE
  5
397
100
AcDbEntity
  8
0
100
AcDbLine
 62
4
  6
CONTINUOUS
 10
8.94746913
 20
9.3940739132
 11
8.9861061645
 21
9.3817351671
  0
LINE
  5
398
100
AcDbEntity
  8
0
100
AcDbLine
 62
4
  6
CONTINUOUS
 10
8.9861061645
 20
9.5266240464
 11
8.8315580265
 21
9.5856382893
  0
LINE
  5
399
100
AcDbEntity
  8
0
100
AcDbLine
 62
4
  6
CONTINUOUS
 10
10.7714591723
 20
8.8715501707
 11
10.7843381842
 21
8.8609977496
  0
LINE
  5
39A
100
AcDbEntity
  8
0
100
AcDbLine
 62
4
  6
CONTINUOUS
 10
11.3880418614
 20
7.9836048679
 11
11.4009208733
 21
7.9633931882
  0
LINE
  5
39B
100
AcDbEntity
  8
0
100
AcDbLine
 62
4
  6
CONTINUOUS
 10
11.3880418614
 20
8.1381530058
 11
11.4009208733
 21
8.1179413261
  0
LINE
  5
39C
100
AcDbEntity
  8
0
100
AcDbLine
 62
4
  6
CONTINUOUS
 10
11.3494048258
 20
8.2374250796
 11
11.3494048258
 21
8.2953806313
  0
LINE
  5
39D
100
AcDbEntity
  8
0
100
AcDbLine
 62
4
  6
CONTINUOUS
 10
11.4009208733
 20
8.1179413261
 11
11.4009208733
 21
8.0986228089
  0
LINE
  5
39E
100
AcDbEntity
  8
0
100
AcDbLine
 62
4
  6
CONTINUOUS
 10
11.4009208733
 20
7.9633931882
 11
11.4009208733
 21
7.9440746709
  0
LINE
  5
39F
100
AcDbEntity
  8
0
100
AcDbLine
 62
4
  6
CONTINUOUS
 10
11.2592517438
 20
8.1470846308
 11
11.2463727354
 21
8.1286592759
  0
LINE
  5
3A0
100
AcDbEntity
  8
0
100
AcDbLine
 62
4
  6
CONTINUOUS
 10
11.2978887783
 20
8.0864495917
 11
11.3365258173
 21
8.1417256556
  0
LINE
  5
3A1
100
AcDbEntity
  8
0
100
AcDbLine
 62
4
  6
CONTINUOUS
 10
11.2463727354
 20
7.9741111379
 11
11.2592517438
 21
7.9925364929
  0
LINE
  5
3A2
100
AcDbEntity
  8
0
100
AcDbLine
 62
7
  6
CONTINUOUS
 10
11.0821926657
 20
7.9192589023
 11
10.9579686358
 21
7.7992676964
  0
LINE
  5
3A3
100
AcDbEntity
  8
0
100
AcDbLine
 62
7
  6
CONTINUOUS
 10
11.0666225556
 20
7.8933704713
 11
10.9423985257
 21
7.7733792655
  0
LINE
  5
3A4
100
AcDbEntity
  8
0
100
AcDbLine
 62
4
  6
CONTINUOUS
 10
11.2721307614
 20
8.1558507265
 11
11.2592517438
 21
8.1470846308
  0
LINE
  5
3A5
100
AcDbEntity
  8
0
100
AcDbLine
 62
4
  6
CONTINUOUS
 10
11.3365258173
 20
8.1417256556
 11
11.3494048258
 21
8.150491752
  0
LINE
  5
3A6
100
AcDbEntity
  8
0
100
AcDbLine
 62
4
  6
CONTINUOUS
 10
11.2850097698
 20
8.0776834953
 11
11.2978887783
 21
8.0864495917
  0
LINE
  5
3A7
100
AcDbEntity
  8
0
100
AcDbLine
 62
4
  6
CONTINUOUS
 10
8.8315580265
 20
8.9674457376
 11
8.9861061645
 21
8.9567277879
  0
LINE
  5
3A8
100
AcDbEntity
  8
0
100
AcDbLine
 62
4
  6
CONTINUOUS
 10
9.3593675228
 20
8.9356716981
 11
9.3262500667
 21
8.9379684015
  0
LINE
  5
3A9
100
AcDbEntity
  8
0
100
AcDbLine
 62
4
  6
CONTINUOUS
 10
10.7457011486
 20
8.8733364957
 11
10.7714591723
 21
8.8715501707
  0
LINE
  5
3AA
100
AcDbEntity
  8
0
100
AcDbLine
 62
4
  6
CONTINUOUS
 10
9.4145632865
 20
8.9980786699
 11
9.3814458269
 21
9.0003753735
  0
LINE
  5
3AB
100
AcDbEntity
  8
0
100
AcDbLine
 62
4
  6
CONTINUOUS
 10
11.4009208733
 20
8.0986228089
 11
11.3880418614
 21
8.0801974541
  0
LINE
  5
3AC
100
AcDbEntity
  8
0
100
AcDbLine
 62
4
  6
CONTINUOUS
 10
11.4009208733
 20
7.9440746709
 11
11.3880418614
 21
7.9256493162
  0
LINE
  5
3AD
100
AcDbEntity
  8
0
100
AcDbLine
 62
4
  6
CONTINUOUS
 10
11.3880418614
 20
8.0801974541
 11
11.3622838388
 21
8.0626652618
  0
LINE
  5
3AE
100
AcDbEntity
  8
0
100
AcDbLine
 62
4
  6
CONTINUOUS
 10
11.2592517438
 20
7.9925364929
 11
11.2721307614
 21
8.0013025886
  0
LINE
  5
3AF
100
AcDbEntity
  8
0
100
AcDbLine
 62
4
  6
CONTINUOUS
 10
11.3880418614
 20
7.9256493162
 11
11.3622838388
 21
7.9081171239
  0
LINE
  5
3B0
100
AcDbEntity
  8
0
100
AcDbLine
 62
4
  6
CONTINUOUS
 10
12.3330393543
 20
9.038543096
 11
12.4875874922
 21
9.0278251463
  0
LINE
  5
3B1
100
AcDbEntity
  8
0
100
AcDbLine
 62
4
  6
CONTINUOUS
 10
8.8573160526
 20
9.3133927228
 11
8.8830740694
 21
9.3116063982
  0
LINE
  5
3B2
100
AcDbEntity
  8
0
100
AcDbLine
 62
4
  6
CONTINUOUS
 10
12.3330393543
 20
9.1447949408
 11
12.4875874922
 21
9.1340769911
  0
LINE
  5
3B3
100
AcDbEntity
  8
0
100
AcDbLine
 62
4
  6
CONTINUOUS
 10
8.94746913
 20
9.8577183269
 11
8.9861061645
 21
9.8453795809
  0
LINE
  5
3B4
100
AcDbEntity
  8
0
100
AcDbLine
 62
4
  6
CONTINUOUS
 10
10.6256043467
 20
10.5556149904
 11
10.6127253383
 21
10.5758266699
  0
LINE
  5
3B5
100
AcDbEntity
  8
0
100
AcDbLine
 62
4
  6
CONTINUOUS
 10
12.3845553972
 20
9.2184963601
 11
12.3459183627
 21
9.2211758475
  0
LINE
  5
3B6
100
AcDbEntity
  8
0
100
AcDbLine
 62
4
  6
CONTINUOUS
 10
8.8573160526
 20
9.4679408607
 11
8.8830740694
 21
9.4661545361
  0
LINE
  5
3B7
100
AcDbEntity
  8
0
100
AcDbLine
 62
4
  6
CONTINUOUS
 10
12.4618294685
 20
9.2227966437
 11
12.4231924363
 21
9.2254761309
  0
LINE
  5
3B8
100
AcDbEntity
  8
0
100
AcDbLine
 62
4
  6
CONTINUOUS
 10
10.6771203988
 20
10.6099978918
 11
10.7028784202
 21
10.5695745324
  0
LINE
  5
3B9
100
AcDbEntity
  8
0
100
AcDbLine
 62
4
  6
CONTINUOUS
 10
10.6127253383
 20
5.7046622436
 11
10.6256043467
 21
5.7230875986
  0
LINE
  5
3BA
100
AcDbEntity
  8
0
100
AcDbLine
 62
4
  6
CONTINUOUS
 10
8.8573160526
 20
9.9315852744
 11
8.8830740694
 21
9.9297989499
  0
LINE
  5
3BB
100
AcDbEntity
  8
0
100
AcDbLine
 62
4
  6
CONTINUOUS
 10
12.3330393543
 20
9.2124097512
 11
12.3330393543
 21
9.1447949408
  0
LINE
  5
3BC
100
AcDbEntity
  8
0
100
AcDbLine
 62
4
  6
CONTINUOUS
 10
12.3974344148
 20
9.1403291282
 11
12.3974344148
 21
9.2079439386
  0
LINE
  5
3BD
100
AcDbEntity
  8
0
100
AcDbLine
 62
4
  6
CONTINUOUS
 10
12.4360714447
 20
7.2251163913
 11
12.4360714447
 21
7.283071943
  0
LINE
  5
3BE
100
AcDbEntity
  8
0
100
AcDbLine
 62
4
  6
CONTINUOUS
 10
12.4875874922
 20
9.1340769911
 11
12.4875874922
 21
9.2016918014
  0
LINE
  5
3BF
100
AcDbEntity
  8
0
100
AcDbLine
 62
4
  6
CONTINUOUS
 10
8.8315580265
 20
9.5856382893
 11
8.9861061645
 21
9.6232166326
  0
LINE
  5
3C0
100
AcDbEntity
  8
0
100
AcDbLine
 62
4
  6
CONTINUOUS
 10
10.6384833643
 20
10.5450625689
 11
10.6256043467
 21
10.5556149904
  0
LINE
  5
3C1
100
AcDbEntity
  8
0
100
AcDbLine
 62
4
  6
CONTINUOUS
 10
10.7028784202
 20
10.5695745324
 11
10.7286364417
 21
10.5484696903
  0
LINE
  5
3C2
100
AcDbEntity
  8
0
100
AcDbLine
 62
4
  6
CONTINUOUS
 10
10.6642413812
 20
10.6205503133
 11
10.6771203988
 21
10.6099978918
  0
LINE
  5
3C3
100
AcDbEntity
  8
0
100
AcDbLine
 62
4
  6
CONTINUOUS
 10
12.3974344148
 20
9.2079439386
 11
12.3845553972
 21
9.2184963601
  0
LINE
  5
3C4
100
AcDbEntity
  8
0
100
AcDbLine
 62
4
  6
CONTINUOUS
 10
12.4875874922
 20
9.2016918014
 11
12.4618294685
 21
9.2227966437
  0
LINE
  5
3C5
100
AcDbEntity
  8
0
100
AcDbLine
 62
4
  6
CONTINUOUS
 10
10.6771203988
 20
10.7548867711
 11
10.6642413812
 21
10.7654391926
  0
LINE
  5
3C6
100
AcDbEntity
  8
0
100
AcDbLine
 62
7
  6
CONTINUOUS
 10
12.6083282277
 20
5.3972296846
 11
12.6083282277
 21
10.709822044
  0
LINE
  5
3C7
100
AcDbEntity
  8
0
100
AcDbLine
 62
4
  6
CONTINUOUS
 10
10.7672734762
 20
10.7486346339
 11
10.7415154524
 21
10.7697394762
  0
LINE
  5
3C8
100
AcDbEntity
  8
0
100
AcDbLine
 62
4
  6
CONTINUOUS
 10
10.7286364417
 20
10.5484696903
 11
10.7672734762
 21
10.5361309443
  0
LINE
  5
3C9
100
AcDbEntity
  8
0
100
AcDbLine
 62
7
  6
CONTINUOUS
 10
13.2553753064
 20
6.0222292058
 11
13.2553753064
 21
11.3348215652
  0
LINE
  5
3CA
100
AcDbEntity
  8
0
100
AcDbLine
 62
4
  6
CONTINUOUS
 10
10.6256043467
 20
5.7230875986
 11
10.6384833643
 21
5.7318536943
  0
LINE
  5
3CB
100
AcDbEntity
  8
0
100
AcDbLine
 62
4
  6
CONTINUOUS
 10
10.6384833643
 20
10.6223366378
 11
10.6642413812
 21
10.6205503133
  0
LINE
  5
3CC
100
AcDbEntity
  8
0
100
AcDbLine
 62
4
  6
CONTINUOUS
 10
10.6127253383
 20
10.6917377733
 11
10.7672734762
 21
10.6810198236
  0
LINE
  5
3CD
100
AcDbEntity
  8
0
100
AcDbLine
 62
4
  6
CONTINUOUS
 10
10.6642413812
 20
10.7654391926
 11
10.6256043467
 21
10.76811868
  0
LINE
  5
3CE
100
AcDbEntity
  8
0
100
AcDbLine
 62
4
  6
CONTINUOUS
 10
10.7415154524
 20
10.7697394762
 11
10.7028784202
 21
10.7724189634
  0
LINE
  5
3CF
100
AcDbEntity
  8
0
100
AcDbLine
 62
7
  6
CONTINUOUS
 10
8.7446246936
 20
10.9777707942
 11
12.6083282277
 21
10.709822044
  0
LINE
  5
3D0
100
AcDbEntity
  8
0
100
AcDbLine
 62
7
  6
CONTINUOUS
 10
13.2553753064
 20
11.3348215652
 11
9.3916717723
 21
11.6027703154
  0
LINE
  5
3D1
100
AcDbEntity
  8
0
100
AcDbLine
 62
7
  6
CONTINUOUS
 10
12.6083282277
 20
5.3972296846
 11
13.2553753064
 21
6.0222292058
  0
ARC
  5
3D2
100
AcDbEntity
  8
0
100
AcDbCircle
 62
7
  6
CONTINUOUS
 10
10.6834525654
 20
8.0985428653
 40
0.4474420853
100
AcDbArc
 50
26.981298304
 51
31.0900673766
  0
ARC
  5
3D3
100
AcDbEntity
  8
0
100
AcDbCircle
 62
7
  6
CONTINUOUS
 10
10.6322855741
 20
8.0525109288
 40
0.4474420853
100
AcDbArc
 50
206.981298304
 51
211.0900673766
  0
ARC
  5
3D4
100
AcDbEntity
  8
0
100
AcDbCircle
 62
7
  6
CONTINUOUS
 10
10.5592285355
 20
7.9785516595
 40
0.4474420853
100
AcDbArc
 50
26.981298304
 51
31.0900673765
  0
ARC
  5
3D5
100
AcDbEntity
  8
0
100
AcDbCircle
 62
7
  6
CONTINUOUS
 10
10.6912956052
 20
8.131664823
 40
0.4144042626
100
AcDbArc
 50
83.8695051668
 51
86.0307544453
  0
ARC
  5
3D6
100
AcDbEntity
  8
0
100
AcDbCircle
 62
7
  6
CONTINUOUS
 10
10.6244425343
 20
8.0193889711
 40
0.4144042626
100
AcDbArc
 50
263.8695051667
 51
266.0307544453
  0
ARC
  5
3D7
100
AcDbEntity
  8
0
100
AcDbCircle
 62
7
  6
CONTINUOUS
 10
10.5670715753
 20
8.0116736172
 40
0.4144042626
100
AcDbArc
 50
83.8695051667
 51
86.0307544453
  0
ARC
  5
3D8
100
AcDbEntity
  8
0
100
AcDbCircle
 62
7
  6
CONTINUOUS
 10
10.6242077139
 20
8.0161507963
 40
0.4111576007
100
AcDbArc
 50
266.0321629527
 51
268.2047714632
  0
ARC
  5
3D9
100
AcDbEntity
  8
0
100
AcDbCircle
 62
7
  6
CONTINUOUS
 10
10.5673063958
 20
8.014911792
 40
0.4111576007
100
AcDbArc
 50
86.0321629527
 51
88.2047714632
  0
ARC
  5
3DA
100
AcDbEntity
  8
0
100
AcDbCircle
 62
7
  6
CONTINUOUS
 10
10.6915576186
 20
8.1354432394
 40
0.4106167725
100
AcDbArc
 50
86.0307319968
 51
88.2062024191
  0
ARC
  5
3DB
100
AcDbEntity
  8
0
100
AcDbCircle
 62
7
  6
CONTINUOUS
 10
10.7544183164
 20
8.098766232
 40
0.373709654
100
AcDbArc
 50
326.6595187369
 51
331.2924535874
  0
ARC
  5
3DC
100
AcDbEntity
  8
0
100
AcDbCircle
 62
7
  6
CONTINUOUS
 10
10.5613198232
 20
8.0522875622
 40
0.373709654
100
AcDbArc
 50
146.6595187369
 51
151.2924535874
  0
ARC
  5
3DD
100
AcDbEntity
  8
0
100
AcDbCircle
 62
7
  6
CONTINUOUS
 10
10.6301942865
 20
7.9787750261
 40
0.373709654
100
AcDbArc
 50
326.6595187369
 51
331.2924535874
  0
ARC
  5
3DE
100
AcDbEntity
  8
0
100
AcDbCircle
 62
7
  6
CONTINUOUS
 10
10.7849003269
 20
8.2109594159
 40
0.1483822491
100
AcDbArc
 50
171.2964268282
 51
180.0216176032
  0
ARC
  5
3DF
100
AcDbEntity
  8
0
100
AcDbCircle
 62
7
  6
CONTINUOUS
 10
12.8631616316
 20
9.0550641391
 40
0.0190238173
100
AcDbArc
 50
255.3057436627
 51
265.9991824739
  0
ARC
  5
3E0
100
AcDbEntity
  8
0
100
AcDbCircle
 62
7
  6
CONTINUOUS
 10
12.8631616316
 20
7.1232123721
 40
0.0190238173
100
AcDbArc
 50
255.3057436627
 51
265.9991824739
  0
ARC
  5
3E1
100
AcDbEntity
  8
0
100
AcDbCircle
 62
7
  6
CONTINUOUS
 10
12.9020398086
 20
9.6156711451
 40
0.019022696
100
AcDbArc
 50
86.0664185729
 51
96.7179111558
  0
ARC
  5
3E2
100
AcDbEntity
  8
0
100
AcDbCircle
 62
7
  6
CONTINUOUS
 10
12.9020398086
 20
7.683819378
 40
0.019022696
100
AcDbArc
 50
86.0664185729
 51
96.7179111558
  0
SPLINE
  5
3E3
100
AcDbEntity
  8
0
100
AcDbSpline
 62
7
  6
CONTINUOUS
 70
0
 71
3
 72
19
 73
15
 74
0
 42
0.0000001
 43
0.0000001
 44
0.0000000001
 40
0.0
 40
0.0
 40
0.0
 40
0.0
 40
0.1309039044
 40
0.2613629214
 40
0.3907935753
 40
0.4548964521
 40
0.518460678
 40
0.5813941063
 40
0.6436168382
 40
0.7050666851
 40
0.7657024283
 40
0.8255046918
 40
0.8844741695
 40
1.0
 40
1.0
 40
1.0
 40
1.0
 10
10.2335454739
 20
8.2317948919
 30
0.0
 10
10.2324210967
 20
8.2151359351
 30
0.0
 10
10.2303754094
 20
8.1818606533
 30
0.0
 10
10.2280385272
 20
8.1320676205
 30
0.0
 10
10.2268070201
 20
8.0907579818
 30
0.0
 10
10.2263064847
 20
8.0579683909
 30
0.0
 10
10.2261800609
 20
8.0336570896
 30
0.0
 10
10.2263039894
 20
8.0095855958
 30
0.0
 10
10.2266759274
 20
7.9857863759
 30
0.0
 10
10.2272890005
 20
7.9622853287
 30
0.0
 10
10.2281323951
 20
7.9391003856
 30
0.0
 10
10.229192326
 20
7.916241045
 30
0.0
 10
10.2308617138
 20
7.8864026118
 30
0.0
 10
10.2324052349
 20
7.8641978077
 30
0.0
 10
10.2335454739
 20
7.8495066134
 30
0.0
  0
SPLINE
  5
3E4
100
AcDbEntity
  8
0
100
AcDbSpline
 62
7
  6
CONTINUOUS
 70
0
 71
3
 72
20
 73
16
 74
0
 42
0.0000001
 43
0.0000001
 44
0.0000000001
 40
0.0
 40
0.0
 40
0.0
 40
0.0
 40
0.1208891904
 40
0.1820505047
 40
0.2436808709
 40
0.305755926
 40
0.3682354532
 40
0.431063324
 40
0.4941698153
 40
0.5574757363
 40
0.6208979784
 40
0.6843554646
 40
0.7477743591
 40
0.8742562381
 40
1.0
 40
1.0
 40
1.0
 40
1.0
 10
10.249115584
 20
7.8214586008
 30
0.0
 10
10.2615822324
 20
7.8115678844
 30
0.0
 10
10.2804981341
 20
7.7968503581
 30
0.0
 10
10.3061354696
 20
7.7775698057
 30
0.0
 10
10.3257552857
 20
7.7631715269
 30
0.0
 10
10.3456931749
 20
7.7489165094
 30
0.0
 10
10.3659434037
 20
7.7348307497
 30
0.0
 10
10.386492392
 20
7.7209405302
 30
0.0
 10
10.4073189413
 20
7.7072707426
 30
0.0
 10
10.4283952951
 20
7.69384317
 30
0.0
 10
10.4496889371
 20
7.6806749194
 30
0.0
 10
10.4711649325
 20
7.6677773588
 30
0.0
 10
10.4999692009
 20
7.6509638773
 30
0.0
 10
10.5362222109
 20
7.6306538216
 30
0.0
 10
10.5655167836
 20
7.6150212303
 30
0.0
 10
10.5801869447
 20
7.6073545847
 30
0.0
  0
SPLINE
  5
3E5
100
AcDbEntity
  8
0
100
AcDbSpline
 62
7
  6
CONTINUOUS
 70
0
 71
3
 72
15
 73
11
 74
0
 42
0.0000001
 43
0.0000001
 44
0.0000000001
 40
0.0
 40
0.0
 40
0.0
 40
0.0
 40
0.1121788873
 40
0.2284766138
 40
0.3490756499
 40
0.4737991563
 40
0.6020824398
 40
0.7330999558
 40
0.865983511
 40
1.0
 40
1.0
 40
1.0
 40
1.0
 10
10.6113271649
 20
7.605195003
 30
0.0
 10
10.6239136414
 20
7.6110647086
 30
0.0
 10
10.6495053236
 20
7.6231130152
 30
0.0
 10
10.6884559014
 20
7.6418349951
 30
0.0
 10
10.7286358683
 20
7.6615805038
 30
0.0
 10
10.7699629994
 20
7.6823517969
 30
0.0
 10
10.8122548823
 20
7.7040716219
 30
0.0
 10
10.8552666876
 20
7.7265973333
 30
0.0
 10
10.8987468539
 20
7.7497557663
 30
0.0
 10
10.9278194687
 20
7.7654593446
 30
0.0
 10
10.9423985257
 20
7.7733792655
 30
0.0
  0
SPLINE
  5
3E6
100
AcDbEntity
  8
0
100
AcDbSpline
 62
7
  6
CONTINUOUS
 70
0
 71
3
 72
19
 73
15
 74
0
 42
0.0000001
 43
0.0000001
 44
0.0000000001
 40
0.0
 40
0.0
 40
0.0
 40
0.0
 40
0.1309039044
 40
0.2613629214
 40
0.3907935753
 40
0.4548964521
 40
0.518460678
 40
0.5813941063
 40
0.6436168382
 40
0.7050666851
 40
0.7657024283
 40
0.8255046918
 40
0.8844741695
 40
1.0
 40
1.0
 40
1.0
 40
1.0
 10
11.0821926657
 20
7.9192589023
 30
0.0
 10
11.0833170429
 20
7.935917859
 30
0.0
 10
11.0853627301
 20
7.9691931408
 30
0.0
 10
11.0876996124
 20
8.0189861736
 30
0.0
 10
11.0889311195
 20
8.0602958123
 30
0.0
 10
11.0894316549
 20
8.0930854033
 30
0.0
 10
11.0895580787
 20
8.1173967045
 30
0.0
 10
11.0894341501
 20
8.1414681984
 30
0.0
 10
11.0890622122
 20
8.1652674183
 30
0.0
 10
11.0884491391
 20
8.1887684654
 30
0.0
 10
11.0876057445
 20
8.2119534085
 30
0.0
 10
11.0865458135
 20
8.2348127492
 30
0.0
 10
11.0848764257
 20
8.2646511824
 30
0.0
 10
11.0833329047
 20
8.2868559865
 30
0.0
 10
11.0821926657
 20
8.3015471808
 30
0.0
  0
SPLINE
  5
3E7
100
AcDbEntity
  8
0
100
AcDbSpline
 62
7
  6
CONTINUOUS
 70
0
 71
3
 72
20
 73
16
 74
0
 42
0.0000001
 43
0.0000001
 44
0.0000000001
 40
0.0
 40
0.0
 40
0.0
 40
0.0
 40
0.1208891904
 40
0.1820505047
 40
0.2436808709
 40
0.305755926
 40
0.3682354532
 40
0.431063324
 40
0.4941698153
 40
0.5574757363
 40
0.6208979784
 40
0.6843554646
 40
0.7477743591
 40
0.8742562381
 40
1.0
 40
1.0
 40
1.0
 40
1.0
 10
11.0666225556
 20
8.3295951934
 30
0.0
 10
11.0541559072
 20
8.3394859098
 30
0.0
 10
11.0352400055
 20
8.354203436
 30
0.0
 10
11.00960267
 20
8.3734839884
 30
0.0
 10
10.9899828539
 20
8.3878822673
 30
0.0
 10
10.9700449647
 20
8.4021372848
 30
0.0
 10
10.9497947358
 20
8.4162230444
 30
0.0
 10
10.9292457476
 20
8.430113264
 30
0.0
 10
10.9084191982
 20
8.4437830515
 30
0.0
 10
10.8873428445
 20
8.4572106242
 30
0.0
 10
10.8660492025
 20
8.4703788747
 30
0.0
 10
10.8445732071
 20
8.4832764353
 30
0.0
 10
10.8157689387
 20
8.5000899168
 30
0.0
 10
10.7795159287
 20
8.5203999725
 30
0.0
 10
10.750221356
 20
8.5360325638
 30
0.0
 10
10.7355511948
 20
8.5436992095
 30
0.0
  0
SPLINE
  5
3E8
100
AcDbEntity
  8
0
100
AcDbSpline
 62
7
  6
CONTINUOUS
 70
0
 71
3
 72
15
 73
11
 74
0
 42
0.0000001
 43
0.0000001
 44
0.0000000001
 40
0.0
 40
0.0
 40
0.0
 40
0.0
 40
0.1121788873
 40
0.2284766138
 40
0.3490756499
 40
0.4737991563
 40
0.6020824398
 40
0.7330999558
 40
0.865983511
 40
1.0
 40
1.0
 40
1.0
 40
1.0
 10
10.7044109746
 20
8.5458587911
 30
0.0
 10
10.6918244982
 20
8.5399890855
 30
0.0
 10
10.666232816
 20
8.5279407789
 30
0.0
 10
10.6272822381
 20
8.509218799
 30
0.0
 10
10.5871022713
 20
8.4894732903
 30
0.0
 10
10.5457751402
 20
8.4687019972
 30
0.0
 10
10.5034832573
 20
8.4469821723
 30
0.0
 10
10.4604714519
 20
8.4244564608
 30
0.0
 10
10.4169912856
 20
8.4012980278
 30
0.0
 10
10.3879186709
 20
8.3855944495
 30
0.0
 10
10.3733396138
 20
8.3776745287
 30
0.0
  0
SPLINE
  5
3E9
100
AcDbEntity
  8
0
100
AcDbSpline
 62
7
  6
CONTINUOUS
 70
0
 71
3
 72
15
 73
11
 74
0
 42
0.0000001
 43
0.0000001
 44
0.0000000001
 40
0.0
 40
0.0
 40
0.0
 40
0.0
 40
0.1233170778
 40
0.2468171838
 40
0.3706749521
 40
0.4950495973
 40
0.6200773131
 40
0.74586693
 40
0.8724935781
 40
1.0
 40
1.0
 40
1.0
 40
1.0
 10
10.434536966
 20
8.1830559425
 30
0.0
 10
10.4397542664
 20
8.1880954996
 30
0.0
 10
10.4507489317
 20
8.1976276626
 30
0.0
 10
10.4686931312
 20
8.2100837389
 30
0.0
 10
10.4879209829
 20
8.220583997
 30
0.0
 10
10.5082355991
 20
8.2290205964
 30
0.0
 10
10.5294320827
 20
8.2353097501
 30
0.0
 10
10.5512969793
 20
8.2393885994
 30
0.0
 10
10.5736070063
 20
8.2412173286
 30
0.0
 10
10.5885825815
 20
8.2409252345
 30
0.0
 10
10.5960648191
 20
8.2404063396
 30
0.0
  0
SPLINE
  5
3EA
100
AcDbEntity
  8
0
100
AcDbSpline
 62
7
  6
CONTINUOUS
 70
0
 71
3
 72
41
 73
37
 74
0
 42
0.0000001
 43
0.0000001
 44
0.0000000001
 40
0.0
 40
0.0
 40
0.0
 40
0.0
 40
0.0299389881
 40
0.0449187434
 40
0.0599073415
 40
0.0899167517
 40
0.1199949602
 40
0.1350691191
 40
0.1501679492
 40
0.1804428547
 40
0.2108411013
 40
0.2413757399
 40
0.2720567822
 40
0.3028909362
 40
0.3338815902
 40
0.3650288004
 40
0.3963292956
 40
0.4277765619
 40
0.4593611153
 40
0.4910706816
 40
0.5228904482
 40
0.5548034583
 40
0.5867908696
 40
0.6188324293
 40
0.6509068611
 40
0.6829921484
 40
0.7150661691
 40
0.7471070059
 40
0.7790933045
 40
0.8110048751
 40
0.8428228544
 40
0.8745304249
 40
0.9061129023
 40
0.9375568373
 40
0.9688568872
 40
1.0
 40
1.0
 40
1.0
 40
1.0
 10
10.7575926723
 20
7.8486012008
 30
0.0
 10
10.7613934558
 20
7.8522724989
 30
0.0
 10
10.7668832799
 20
7.8580074661
 30
0.0
 10
10.7737353404
 20
7.8660633221
 30
0.0
 10
10.7802754996
 20
7.8743909158
 30
0.0
 10
10.7878437766
 20
7.8852856162
 30
0.0
 10
10.7945497424
 20
7.8967486843
 30
0.0
 10
10.799379388
 20
7.9062259175
 30
0.0
 10
10.8038548751
 20
7.9159136754
 30
0.0
 10
10.8087589857
 20
7.9283714696
 30
0.0
 10
10.8135012137
 20
7.9437715192
 30
0.0
 10
10.8170820004
 20
7.9595560759
 30
0.0
 10
10.8194820553
 20
7.9756402095
 30
0.0
 10
10.8206888107
 20
7.9919381033
 30
0.0
 10
10.8206961252
 20
8.0083626545
 30
0.0
 10
10.819504155
 20
8.0248262089
 30
0.0
 10
10.8171193185
 20
8.0412409018
 30
0.0
 10
10.8135545373
 20
8.0575191687
 30
0.0
 10
10.8088290786
 20
8.0735742329
 30
0.0
 10
10.8029682713
 20
8.0893205215
 30
0.0
 10
10.7960033537
 20
8.1046740659
 30
0.0
 10
10.7879716015
 20
8.1195530533
 30
0.0
 10
10.7789159911
 20
8.1338782541
 30
0.0
 10
10.7688848165
 20
8.147573338
 30
0.0
 10
10.7579314812
 20
8.1605652473
 30
0.0
 10
10.7461144467
 20
8.1727847878
 30
0.0
 10
10.7334967454
 20
8.1841668778
 30
0.0
 10
10.7201456021
 20
8.1946508334
 30
0.0
 10
10.7061320725
 20
8.20418063
 30
0.0
 10
10.6915308837
 20
8.2127054627
 30
0.0
 10
10.6764198763
 20
8.2201799238
 30
0.0
 10
10.6608794813
 20
8.2265640228
 30
0.0
 10
10.6449927157
 20
8.2318233331
 30
0.0
 10
10.6288435851
 20
8.2359303188
 30
0.0
 10
10.6125198183
 20
8.2388619674
 30
0.0
 10
10.6015485339
 20
8.2400260427
 30
0.0
 10
10.5960648191
 20
8.2404063396
 30
0.0
  0
SPLINE
  5
3EB
100
AcDbEntity
  8
0
100
AcDbSpline
 62
7
  6
CONTINUOUS
 70
0
 71
3
 72
19
 73
15
 74
0
 42
0.0000001
 43
0.0000001
 44
0.0000000001
 40
0.0
 40
0.0
 40
0.0
 40
0.0
 40
0.1155258306
 40
0.1744953083
 40
0.2342975718
 40
0.2949333149
 40
0.3563831618
 40
0.4186058937
 40
0.481539322
 40
0.545103548
 40
0.6092064247
 40
0.7386370786
 40
0.8690960956
 40
1.0
 40
1.0
 40
1.0
 40
1.0
 10
10.9579686358
 20
7.7992676964
 30
0.0
 10
10.9568283969
 20
7.8139588908
 30
0.0
 10
10.9552848758
 20
7.8361636949
 30
0.0
 10
10.953615488
 20
7.8660021281
 30
0.0
 10
10.952555557
 20
7.8888614687
 30
0.0
 10
10.9517121624
 20
7.9120464118
 30
0.0
 10
10.9510990893
 20
7.935547459
 30
0.0
 10
10.9507271514
 20
7.9593466789
 30
0.0
 10
10.9506032229
 20
7.9834181727
 30
0.0
 10
10.9507296466
 20
8.007729474
 30
0.0
 10
10.951230182
 20
8.0405190649
 30
0.0
 10
10.9524616891
 20
8.0818287036
 30
0.0
 10
10.9547985714
 20
8.1316217364
 30
0.0
 10
10.9568442586
 20
8.1648970182
 30
0.0
 10
10.9579686358
 20
8.181555975
 30
0.0
  0
SPLINE
  5
3EC
100
AcDbEntity
  8
0
100
AcDbSpline
 62
7
  6
CONTINUOUS
 70
0
 71
3
 72
20
 73
16
 74
0
 42
0.0000001
 43
0.0000001
 44
0.0000000001
 40
0.0
 40
0.0
 40
0.0
 40
0.0
 40
0.1257437619
 40
0.252225641
 40
0.3156445354
 40
0.3791020216
 40
0.4425242637
 40
0.5058301847
 40
0.5689366761
 40
0.6317645468
 40
0.694244074
 40
0.7563191291
 40
0.8179494953
 40
0.8791108096
 40
1.0
 40
1.0
 40
1.0
 40
1.0
 10
10.9423985257
 20
8.2096039875
 30
0.0
 10
10.9277283646
 20
8.2172706332
 30
0.0
 10
10.8984337919
 20
8.2329032245
 30
0.0
 10
10.8621807818
 20
8.2532132802
 30
0.0
 10
10.8333765134
 20
8.2700267617
 30
0.0
 10
10.811900518
 20
8.2829243223
 30
0.0
 10
10.7906068761
 20
8.2960925729
 30
0.0
 10
10.7695305223
 20
8.3095201455
 30
0.0
 10
10.748703973
 20
8.3231899331
 30
0.0
 10
10.7281549847
 20
8.3370801526
 30
0.0
 10
10.7079047558
 20
8.3511659123
 30
0.0
 10
10.6879668666
 20
8.3654209298
 30
0.0
 10
10.6683470505
 20
8.3798192086
 30
0.0
 10
10.642709715
 20
8.399099761
 30
0.0
 10
10.6237938134
 20
8.4138172872
 30
0.0
 10
10.6113271649
 20
8.4237080037
 30
0.0
  0
SPLINE
  5
3ED
100
AcDbEntity
  8
0
100
AcDbSpline
 62
7
  6
CONTINUOUS
 70
0
 71
3
 72
15
 73
11
 74
0
 42
0.0000001
 43
0.0000001
 44
0.0000000001
 40
0.0
 40
0.0
 40
0.0
 40
0.0
 40
0.134016489
 40
0.2669000442
 40
0.3979175602
 40
0.5262008437
 40
0.6509243501
 40
0.7715233862
 40
0.8878211127
 40
1.0
 40
1.0
 40
1.0
 40
1.0
 10
10.5801869447
 20
8.4258675853
 30
0.0
 10
10.5656078877
 20
8.4179476644
 30
0.0
 10
10.5365352729
 20
8.4022440862
 30
0.0
 10
10.4930551066
 20
8.3790856531
 30
0.0
 10
10.4500433013
 20
8.3565599417
 30
0.0
 10
10.4077514184
 20
8.3348401167
 30
0.0
 10
10.3664242873
 20
8.3140688236
 30
0.0
 10
10.3262443204
 20
8.2943233149
 30
0.0
 10
10.2872937426
 20
8.2756013351
 30
0.0
 10
10.2617020604
 20
8.2635530284
 30
0.0
 10
10.249115584
 20
8.2576833229
 30
0.0
  0
SPLINE
  5
3EE
100
AcDbEntity
  8
0
100
AcDbSpline
 62
7
  6
CONTINUOUS
 70
0
 71
3
 72
23
 73
19
 74
0
 42
0.0000001
 43
0.0000001
 44
0.0000000001
 40
0.0
 40
0.0
 40
0.0
 40
0.0
 40
0.0614970037
 40
0.1234478619
 40
0.1858206891
 40
0.2485634509
 40
0.3116078603
 40
0.3748720624
 40
0.4382646141
 40
0.5016884652
 40
0.5650452131
 40
0.6282393673
 40
0.6911825344
 40
0.7537973796
 40
0.8160212264
 40
0.8778091488
 40
0.9391363967
 40
1.0
 40
1.0
 40
1.0
 40
1.0
 10
10.6365180884
 20
8.2109034315
 30
0.0
 10
10.6365180884
 20
8.2053752676
 30
0.0
 10
10.6371299137
 20
8.1942689857
 30
0.0
 10
10.6398473891
 20
8.177756651
 30
0.0
 10
10.6443344976
 20
8.1615173367
 30
0.0
 10
10.650536796
 20
8.145748199
 30
0.0
 10
10.6583793684
 20
8.130637282
 30
0.0
 10
10.6677679009
 20
8.1163655835
 30
0.0
 10
10.6785897128
 20
8.1031038029
 30
0.0
 10
10.6907151307
 20
8.0910106666
 30
0.0
 10
10.703998991
 20
8.0802309856
 30
0.0
 10
10.7182823521
 20
8.0708939843
 30
0.0
 10
10.733394323
 20
8.0631117723
 30
0.0
 10
10.7491541405
 20
8.0569780292
 30
0.0
 10
10.7653729469
 20
8.0525668518
 30
0.0
 10
10.7818571707
 20
8.0499319692
 30
0.0
 10
10.7984063796
 20
8.049105616
 30
0.0
 10
10.8093972252
 20
8.0497707964
 30
0.0
 10
10.8148312716
 20
8.0504075439
 30
0.0
  0
SPLINE
  5
3EF
100
AcDbEntity
  8
0
100
AcDbSpline
 62
7
  6
CONTINUOUS
 70
0
 71
3
 72
35
 73
31
 74
0
 42
0.0000001
 43
0.0000001
 44
0.0000000001
 40
0.0
 40
0.0
 40
0.0
 40
0.0
 40
0.0308083839
 40
0.0617523222
 40
0.0928182166
 40
0.1240053162
 40
0.1553083012
 40
0.1867180265
 40
0.2182250431
 40
0.2498187023
 40
0.2814867753
 40
0.31321618
 40
0.3767769208
 40
0.440408833
 40
0.4722262752
 40
0.5040158913
 40
0.5674272792
 40
0.6305588051
 40
0.6620025663
 40
0.6933424443
 40
0.7245699005
 40
0.755677882
 40
0.7866611792
 40
0.8175163115
 40
0.8482416476
 40
0.8788375134
 40
0.9093061594
 40
0.9396517987
 40
0.9698804414
 40
1.0
 40
1.0
 40
1.0
 40
1.0
 10
10.5378400504
 20
8.1705877605
 30
0.0
 10
10.5378400504
 20
8.1664389458
 30
0.0
 10
10.5380943534
 20
8.158120904
 30
0.0
 10
10.5392303652
 20
8.1456660611
 30
0.0
 10
10.5411185495
 20
8.1332508796
 30
0.0
 10
10.5437513909
 20
8.1209228228
 30
0.0
 10
10.547118728
 20
8.1087268226
 30
0.0
 10
10.5512086517
 20
8.0967083498
 30
0.0
 10
10.5560054702
 20
8.0849119104
 30
0.0
 10
10.5614914691
 20
8.0733814023
 30
0.0
 10
10.5676466064
 20
8.0621592284
 30
0.0
 10
10.576717571
 20
8.0476579593
 30
0.0
 10
10.5896085675
 20
8.0305127572
 30
0.0
 10
10.6043708036
 20
8.0149339901
 30
0.0
 10
10.6171790317
 20
8.0035399662
 30
0.0
 10
10.6305916268
 20
7.9929117867
 30
0.0
 10
10.6484138577
 20
7.9811178341
 30
0.0
 10
10.667431227
 20
7.9714670659
 30
0.0
 10
10.6831704964
 20
7.9651371402
 30
0.0
 10
10.6951792083
 20
7.9611049706
 30
0.0
 10
10.7073604455
 20
7.9577983201
 30
0.0
 10
10.7196694553
 20
7.9552293912
 30
0.0
 10
10.7320603836
 20
7.9534075005
 30
0.0
 10
10.7444873381
 20
7.9523399232
 30
0.0
 10
10.7569041188
 20
7.9520302899
 30
0.0
 10
10.769264652
 20
7.9524800009
 30
0.0
 10
10.7815229513
 20
7.9536875695
 30
0.0
 10
10.7936336849
 20
7.955648254
 30
0.0
 10
10.8055511218
 20
7.9583551583
 30
0.0
 10
10.8133525653
 20
7.9606546273
 30
0.0
 10
10.8172045318
 20
7.9619250319
 30
0.0
  0
SPLINE
  5
3F0
100
AcDbEntity
  8
0
100
AcDbSpline
 62
7
  6
CONTINUOUS
 70
0
 71
3
 72
11
 73
7
 74
0
 42
0.0000001
 43
0.0000001
 44
0.0000000001
 40
0.0
 40
0.0
 40
0.0
 40
0.0
 40
0.2526768696
 40
0.5034582773
 40
0.7524896734
 40
1.0
 40
1.0
 40
1.0
 40
1.0
 10
10.5991845757
 20
8.1748420253
 30
0.0
 10
10.5991845757
 20
8.1803730717
 30
0.0
 10
10.5997925248
 20
8.1914037751
 30
0.0
 10
10.6025430225
 20
8.2076788911
 30
0.0
 10
10.6070946547
 20
8.2234276696
 30
0.0
 10
10.6113076154
 20
8.2334785089
 30
0.0
 10
10.6136908298
 20
8.2383441529
 30
0.0
  0
SPLINE
  5
3F1
100
AcDbEntity
  8
0
100
AcDbSpline
 62
7
  6
CONTINUOUS
 70
0
 71
3
 72
11
 73
7
 74
0
 42
0.0000001
 43
0.0000001
 44
0.0000000001
 40
0.0
 40
0.0
 40
0.0
 40
0.0
 40
0.2521530851
 40
0.5028291614
 40
0.7520674375
 40
1.0
 40
1.0
 40
1.0
 40
1.0
 10
10.5378400504
 20
8.1705877605
 30
0.0
 10
10.5378400504
 20
8.1764430384
 30
0.0
 10
10.5383439186
 20
8.188125762
 30
0.0
 10
10.5406215234
 20
8.2054624762
 30
0.0
 10
10.5444021551
 20
8.2224344348
 30
0.0
 10
10.5479155725
 20
8.233451017
 30
0.0
 10
10.5499116481
 20
8.2388511902
 30
0.0
  0
SPLINE
  5
3F2
100
AcDbEntity
  8
0
100
AcDbSpline
 62
7
  6
CONTINUOUS
 70
0
 71
3
 72
11
 73
7
 74
0
 42
0.0000001
 43
0.0000001
 44
0.0000000001
 40
0.0
 40
0.0
 40
0.0
 40
0.0
 40
0.2525263841
 40
0.5032998261
 40
0.7524073212
 40
1.0
 40
1.0
 40
1.0
 40
1.0
 10
10.7365809354
 20
7.947746364
 30
0.0
 10
10.7434118786
 20
7.9472726364
 30
0.0
 10
10.7570839131
 20
7.9470099946
 30
0.0
 10
10.777450519
 20
7.9486983118
 30
0.0
 10
10.7974036572
 20
7.9524522196
 30
0.0
 10
10.8103351638
 20
7.9563202076
 30
0.0
 10
10.8166560869
 20
7.9585824991
 30
0.0
  0
SPLINE
  5
3F3
100
AcDbEntity
  8
0
100
AcDbSpline
 62
7
  6
CONTINUOUS
 70
0
 71
3
 72
12
 73
8
 74
0
 42
0.0000001
 43
0.0000001
 44
0.0000000001
 40
0.0
 40
0.0
 40
0.0
 40
0.0
 40
0.2521814079
 40
0.5028646778
 40
0.7520800431
 40
0.8762030487
 40
1.0
 40
1.0
 40
1.0
 40
1.0
 10
10.7333682092
 20
7.9238757021
 30
0.0
 10
10.7398439679
 20
7.9234266067
 30
0.0
 10
10.7528029775
 20
7.9230872291
 30
0.0
 10
10.7721488018
 20
7.9242733523
 30
0.0
 10
10.7880550881
 20
7.926673158
 30
0.0
 10
10.8005550014
 20
7.9294280166
 30
0.0
 10
10.8067215643
 20
7.9310811727
 30
0.0
 10
10.8097800405
 20
7.9319757276
 30
0.0
  0
SPLINE
  5
3F4
100
AcDbEntity
  8
0
100
AcDbSpline
 62
7
  6
CONTINUOUS
 70
0
 71
3
 72
15
 73
11
 74
0
 42
0.0000001
 43
0.0000001
 44
0.0000000001
 40
0.0
 40
0.0
 40
0.0
 40
0.0
 40
0.1275064219
 40
0.25413307
 40
0.3799226869
 40
0.5049504027
 40
0.6293250479
 40
0.7531828162
 40
0.8766829222
 40
1.0
 40
1.0
 40
1.0
 40
1.0
 10
10.5960648191
 20
7.7912508037
 30
0.0
 10
10.6035470568
 20
7.7907319088
 30
0.0
 10
10.618522632
 20
7.7904398147
 30
0.0
 10
10.6408326589
 20
7.7922685439
 30
0.0
 10
10.6626975555
 20
7.7963473932
 30
0.0
 10
10.6838940392
 20
7.8026365469
 30
0.0
 10
10.7042086554
 20
7.8110731463
 30
0.0
 10
10.723436507
 20
7.8215734044
 30
0.0
 10
10.7413807065
 20
7.8340294807
 30
0.0
 10
10.7523753719
 20
7.8435616437
 30
0.0
 10
10.7575926723
 20
7.8486012008
 30
0.0
  0
SPLINE
  5
3F5
100
AcDbEntity
  8
0
100
AcDbSpline
 62
7
  6
CONTINUOUS
 70
0
 71
3
 72
23
 73
19
 74
0
 42
0.0000001
 43
0.0000001
 44
0.0000000001
 40
0.0
 40
0.0
 40
0.0
 40
0.0
 40
0.0613028236
 40
0.1230130137
 40
0.1851073539
 40
0.2475483091
 40
0.3102858929
 40
0.3732593398
 40
0.4363996894
 40
0.4996320156
 40
0.5628782539
 40
0.6260598565
 40
0.6891004582
 40
0.7519287399
 40
0.8144807171
 40
0.8767024113
 40
0.9385516346
 40
1.0
 40
1.0
 40
1.0
 40
1.0
 10
10.5327705739
 20
8.1656910219
 30
0.0
 10
10.5327705739
 20
8.1590013617
 30
0.0
 10
10.5334324868
 20
8.1455686675
 30
0.0
 10
10.5363776469
 20
8.1255547885
 30
0.0
 10
10.5412494112
 20
8.1057913612
 30
0.0
 10
10.5480003849
 20
8.08647076
 30
0.0
 10
10.5565652327
 20
8.0677777504
 30
0.0
 10
10.5668613384
 20
8.0498918756
 30
0.0
 10
10.5787895846
 20
8.0329846802
 30
0.0
 10
10.5922353098
 20
8.0172183815
 30
0.0
 10
10.6070693841
 20
8.0027442763
 30
0.0
 10
10.6231494379
 20
7.9897013332
 30
0.0
 10
10.640321186
 20
7.9782148739
 30
0.0
 10
10.6584199465
 20
7.9683953928
 30
0.0
 10
10.6772719077
 20
7.9603375147
 30
0.0
 10
10.6966968411
 20
7.9541190284
 30
0.0
 10
10.7165057102
 20
7.9498003972
 30
0.0
 10
10.72989146
 20
7.9482102806
 30
0.0
 10
10.7365809354
 20
7.947746364
 30
0.0
  0
SPLINE
  5
3F6
100
AcDbEntity
  8
0
100
AcDbSpline
 62
7
  6
CONTINUOUS
 70
0
 71
3
 72
35
 73
31
 74
0
 42
0.0000001
 43
0.0000001
 44
0.0000000001
 40
0.0
 40
0.0
 40
0.0
 40
0.0
 40
0.030850678
 40
0.0618306894
 40
0.0929263531
 40
0.1241361703
 40
0.1554545724
 40
0.1868724463
 40
0.2183804931
 40
0.2499684168
 40
0.2816245374
 40
0.3133364558
 40
0.3768507689
 40
0.4404250328
 40
0.4722111788
 40
0.5039698516
 40
0.5673264146
 40
0.6304161544
 40
0.6618448955
 40
0.6931749897
 40
0.7243982062
 40
0.7555077141
 40
0.786498236
 40
0.8173659932
 40
0.8481089485
 40
0.8787267575
 40
0.9092207833
 40
0.9395941813
 40
0.9698517392
 40
1.0
 40
1.0
 40
1.0
 40
1.0
 10
10.7333682092
 20
7.9238757021
 30
0.0
 10
10.728957015
 20
7.9241816195
 30
0.0
 10
10.7201320181
 20
7.9250544824
 30
0.0
 10
10.7069690411
 20
7.9271329904
 30
0.0
 10
10.6938969701
 20
7.9299773436
 30
0.0
 10
10.6809623256
 20
7.933577125
 30
0.0
 10
10.6682089789
 20
7.9379195831
 30
0.0
 10
10.6556812379
 20
7.9429902684
 30
0.0
 10
10.6434222767
 20
7.9487711554
 30
0.0
 10
10.6314746062
 20
7.9552423786
 30
0.0
 10
10.6198791226
 20
7.9623818626
 30
0.0
 10
10.6049370341
 20
7.9727617214
 30
0.0
 10
10.5873423167
 20
7.9872774738
 30
0.0
 10
10.5714370371
 20
8.0036410481
 30
0.0
 10
10.5598498151
 20
8.017711979
 30
0.0
 10
10.549071438
 20
8.0323729316
 30
0.0
 10
10.5371660419
 20
8.0517288225
 30
0.0
 10
10.5274962058
 20
8.0722420895
 30
0.0
 10
10.5212001102
 20
8.0891538083
 30
0.0
 10
10.5172162814
 20
8.1020293815
 30
0.0
 10
10.5139801041
 20
8.1150654505
 30
0.0
 10
10.5115025532
 20
8.1282173799
 30
0.0
 10
10.5097920802
 20
8.1414395728
 30
0.0
 10
10.5088550655
 20
8.1546864033
 30
0.0
 10
10.5086943557
 20
8.1679120199
 30
0.0
 10
10.5093108917
 20
8.1810707215
 30
0.0
 10
10.5107025315
 20
8.1941169282
 30
0.0
 10
10.5128643566
 20
8.2070057057
 30
0.0
 10
10.5157892117
 20
8.2196917439
 30
0.0
 10
10.5182454156
 20
8.2280005652
 30
0.0
 10
10.5195970531
 20
8.2321048423
 30
0.0
  0
SPLINE
  5
3F7
100
AcDbEntity
  8
0
100
AcDbSpline
 62
7
  6
CONTINUOUS
 70
0
 71
3
 72
41
 73
37
 74
0
 42
0.0000001
 43
0.0000001
 44
0.0000000001
 40
0.0
 40
0.0
 40
0.0
 40
0.0
 40
0.0311431128
 40
0.0624431627
 40
0.0938870977
 40
0.1254695751
 40
0.1571771456
 40
0.1889951249
 40
0.2209066955
 40
0.2528929941
 40
0.2849338309
 40
0.3170078516
 40
0.3490931389
 40
0.3811675707
 40
0.4132091304
 40
0.4451965417
 40
0.4771095518
 40
0.5089293184
 40
0.5406388847
 40
0.5722234381
 40
0.6036707044
 40
0.6349711996
 40
0.6661184098
 40
0.6971090638
 40
0.7279432178
 40
0.7586242601
 40
0.7891588987
 40
0.8195571453
 40
0.8498320508
 40
0.8649308809
 40
0.8800050398
 40
0.9100832483
 40
0.9400926585
 40
0.9550812566
 40
0.9700610119
 40
1.0
 40
1.0
 40
1.0
 40
1.0
 10
10.5960648191
 20
7.7912508037
 30
0.0
 10
10.5905811043
 20
7.7916311006
 30
0.0
 10
10.5796098199
 20
7.7927951759
 30
0.0
 10
10.5632860532
 20
7.7957268245
 30
0.0
 10
10.5471369226
 20
7.7998338102
 30
0.0
 10
10.5312501569
 20
7.8050931205
 30
0.0
 10
10.515709762
 20
7.8114772195
 30
0.0
 10
10.5005987546
 20
7.8189516806
 30
0.0
 10
10.4859975658
 20
7.8274765133
 30
0.0
 10
10.4719840361
 20
7.8370063099
 30
0.0
 10
10.4586328928
 20
7.8474902655
 30
0.0
 10
10.4460151916
 20
7.8588723555
 30
0.0
 10
10.434198157
 20
7.871091896
 30
0.0
 10
10.4232448217
 20
7.8840838053
 30
0.0
 10
10.4132136472
 20
7.8977788892
 30
0.0
 10
10.4041580368
 20
7.91210409
 30
0.0
 10
10.3961262846
 20
7.9269830774
 30
0.0
 10
10.389161367
 20
7.9423366218
 30
0.0
 10
10.3833005597
 20
7.9580829104
 30
0.0
 10
10.3785751009
 20
7.9741379746
 30
0.0
 10
10.3750103197
 20
7.9904162415
 30
0.0
 10
10.3726254833
 20
8.0068309344
 30
0.0
 10
10.3714335131
 20
8.0232944888
 30
0.0
 10
10.3714408275
 20
8.03971904
 30
0.0
 10
10.372647583
 20
8.0560169338
 30
0.0
 10
10.3750476379
 20
8.0721010674
 30
0.0
 10
10.3786284245
 20
8.0878856241
 30
0.0
 10
10.3833706525
 20
8.1032856737
 30
0.0
 10
10.3882747631
 20
8.1157434679
 30
0.0
 10
10.3927502503
 20
8.1254312258
 30
0.0
 10
10.3975798958
 20
8.134908459
 30
0.0
 10
10.4042858616
 20
8.1463715271
 30
0.0
 10
10.4118541386
 20
8.1572662275
 30
0.0
 10
10.4183942979
 20
8.1655938212
 30
0.0
 10
10.4252463584
 20
8.1736496772
 30
0.0
 10
10.4307361825
 20
8.1793846444
 30
0.0
 10
10.434536966
 20
8.1830559425
 30
0.0
  0
SPLINE
  5
3F8
100
AcDbEntity
  8
0
100
AcDbSpline
 62
7
  6
CONTINUOUS
 70
0
 71
3
 72
54
 73
50
 74
0
 42
0.0000001
 43
0.0000001
 44
0.0000000001
 40
0.0
 40
0.0
 40
0.0
 40
0.0
 40
0.0311861446
 40
0.0467045778
 40
0.0621708732
 40
0.077587233
 40
0.0929551789
 40
0.1082770512
 40
0.1235558355
 40
0.1387948675
 40
0.1539978502
 40
0.1691689104
 40
0.1843125092
 40
0.1994333659
 40
0.2145364688
 40
0.2296269803
 40
0.2447102101
 40
0.2597915325
 40
0.2748763432
 40
0.2899700121
 40
0.3050778022
 40
0.3202048411
 40
0.335356025
 40
0.3505360201
 40
0.3657491896
 40
0.3809995286
 40
0.3962906638
 40
0.4116257913
 40
0.4270076815
 40
0.4424385937
 40
0.4579203232
 40
0.4734541563
 40
0.4890408607
 40
0.520364099
 40
0.5518954905
 40
0.5836231536
 40
0.615527939
 40
0.6475842677
 40
0.6797611355
 40
0.7120232657
 40
0.7443324048
 40
0.7766486525
 40
0.8089318615
 40
0.8411430412
 40
0.8732457208
 40
0.9052071998
 40
0.9370000579
 40
0.9686021613
 40
1.0
 40
1.0
 40
1.0
 40
1.0
 10
10.5879120259
 20
7.649112112
 30
0.0
 10
10.5996106174
 20
7.6483008119
 30
0.0
 10
10.6172063898
 20
7.6479391449
 30
0.0
 10
10.6405566674
 20
7.64919821
 30
0.0
 10
10.6579186127
 20
7.6510052832
 30
0.0
 10
10.6751114403
 20
7.6536722731
 30
0.0
 10
10.6920947541
 20
7.6571930533
 30
0.0
 10
10.7088272685
 20
7.6615588917
 30
0.0
 10
10.7252686065
 20
7.6667597013
 30
0.0
 10
10.7413793033
 20
7.6727824567
 30
0.0
 10
10.757120302
 20
7.679613219
 30
0.0
 10
10.7724538135
 20
7.6872350998
 30
0.0
 10
10.7873427271
 20
7.6956300322
 30
0.0
 10
10.8017511647
 20
7.7047776922
 30
0.0
 10
10.815644434
 20
7.7146559491
 30
0.0
 10
10.8289888248
 20
7.7252412443
 30
0.0
 10
10.8417524507
 20
7.7365076825
 30
0.0
 10
10.8539041383
 20
7.7484285206
 30
0.0
 10
10.8654149772
 20
7.7609745906
 30
0.0
 10
10.8762568586
 20
7.7741159591
 30
0.0
 10
10.8864038816
 20
7.7878207118
 30
0.0
 10
10.8958315056
 20
7.8020558597
 30
0.0
 10
10.9045169122
 20
7.8167871079
 30
0.0
 10
10.9124394574
 20
7.8319787703
 30
0.0
 10
10.9195796369
 20
7.8475944153
 30
0.0
 10
10.9259207855
 20
7.8635961449
 30
0.0
 10
10.9314471218
 20
7.879945575
 30
0.0
 10
10.9361458129
 20
7.8966031283
 30
0.0
 10
10.9400052759
 20
7.9135287295
 30
0.0
 10
10.9430163542
 20
7.9306815777
 30
0.0
 10
10.9451719517
 20
7.9480201847
 30
0.0
 10
10.9464665687
 20
7.9655033227
 30
0.0
 10
10.9470423714
 20
7.9889843786
 30
0.0
 10
10.9455881185
 20
8.018495455
 30
0.0
 10
10.9404026078
 20
8.0537345243
 30
0.0
 10
10.9318250688
 20
8.0885308952
 30
0.0
 10
10.9199388656
 20
8.1225480624
 30
0.0
 10
10.9048590608
 20
8.1554601382
 30
0.0
 10
10.8867311001
 20
8.1869511541
 30
0.0
 10
10.8657294912
 20
8.2167190465
 30
0.0
 10
10.8420561042
 20
8.2444782002
 30
0.0
 10
10.815938284
 20
8.2699622193
 30
0.0
 10
10.7876267058
 20
8.2929264331
 30
0.0
 10
10.7573930336
 20
8.3131502132
 30
0.0
 10
10.7255272047
 20
8.3304389841
 30
0.0
 10
10.6923352374
 20
8.3446262585
 30
0.0
 10
10.6581345319
 20
8.3555748233
 30
0.0
 10
10.6232578038
 20
8.3631786212
 30
0.0
 10
10.5996900284
 20
8.3659782362
 30
0.0
 10
10.5879120259
 20
8.3667950434
 30
0.0
  0
SPLINE
  5
3F9
100
AcDbEntity
  8
0
100
AcDbSpline
 62
7
  6
CONTINUOUS
 70
0
 71
3
 72
54
 73
50
 74
0
 42
0.0000001
 43
0.0000001
 44
0.0000000001
 40
0.0
 40
0.0
 40
0.0
 40
0.0
 40
0.0311861446
 40
0.0467045778
 40
0.0621708732
 40
0.077587233
 40
0.0929551789
 40
0.1082770512
 40
0.1235558355
 40
0.1387948675
 40
0.1539978502
 40
0.1691689104
 40
0.1843125092
 40
0.1994333659
 40
0.2145364688
 40
0.2296269803
 40
0.2447102101
 40
0.2597915325
 40
0.2748763432
 40
0.2899700121
 40
0.3050778022
 40
0.3202048411
 40
0.335356025
 40
0.3505360201
 40
0.3657491896
 40
0.3809995286
 40
0.3962906638
 40
0.4116257913
 40
0.4270076815
 40
0.4424385937
 40
0.4579203232
 40
0.4734541563
 40
0.4890408607
 40
0.520364099
 40
0.5518954905
 40
0.5836231536
 40
0.615527939
 40
0.6475842677
 40
0.6797611355
 40
0.7120232657
 40
0.7443324048
 40
0.7766486525
 40
0.8089318615
 40
0.8411430412
 40
0.8732457208
 40
0.9052071998
 40
0.9370000579
 40
0.9686021613
 40
1.0
 40
1.0
 40
1.0
 40
1.0
 10
10.5879120259
 20
8.3667950434
 30
0.0
 10
10.5762134345
 20
8.3676063435
 30
0.0
 10
10.5586176621
 20
8.3679680105
 30
0.0
 10
10.5352673845
 20
8.3667089453
 30
0.0
 10
10.5179054392
 20
8.3649018722
 30
0.0
 10
10.5007126116
 20
8.3622348822
 30
0.0
 10
10.4837292978
 20
8.3587141021
 30
0.0
 10
10.4669967834
 20
8.3543482637
 30
0.0
 10
10.4505554454
 20
8.349147454
 30
0.0
 10
10.4344447485
 20
8.3431246987
 30
0.0
 10
10.4187037499
 20
8.3362939364
 30
0.0
 10
10.4033702384
 20
8.3286720555
 30
0.0
 10
10.3884813248
 20
8.3202771232
 30
0.0
 10
10.3740728872
 20
8.3111294632
 30
0.0
 10
10.3601796179
 20
8.3012512063
 30
0.0
 10
10.3468352271
 20
8.290665911
 30
0.0
 10
10.3340716012
 20
8.2793994728
 30
0.0
 10
10.3219199136
 20
8.2674786347
 30
0.0
 10
10.3104090747
 20
8.2549325648
 30
0.0
 10
10.2995671933
 20
8.2417911962
 30
0.0
 10
10.2894201703
 20
8.2280864436
 30
0.0
 10
10.2799925463
 20
8.2138512956
 30
0.0
 10
10.2713071397
 20
8.1991200475
 30
0.0
 10
10.2633845945
 20
8.1839283851
 30
0.0
 10
10.2562444149
 20
8.16831274
 30
0.0
 10
10.2499032663
 20
8.1523110105
 30
0.0
 10
10.24437693
 20
8.1359615804
 30
0.0
 10
10.239678239
 20
8.119304027
 30
0.0
 10
10.235818776
 20
8.1023784259
 30
0.0
 10
10.2328076977
 20
8.0852255776
 30
0.0
 10
10.2306521002
 20
8.0678869706
 30
0.0
 10
10.2293574832
 20
8.0504038327
 30
0.0
 10
10.2287816805
 20
8.0269227768
 30
0.0
 10
10.2302359334
 20
7.9974117004
 30
0.0
 10
10.2354214441
 20
7.9621726311
 30
0.0
 10
10.243998983
 20
7.9273762602
 30
0.0
 10
10.2558851862
 20
7.893359093
 30
0.0
 10
10.2709649911
 20
7.8604470172
 30
0.0
 10
10.2890929517
 20
7.8289560012
 30
0.0
 10
10.3100945607
 20
7.7991881089
 30
0.0
 10
10.3337679477
 20
7.7714289552
 30
0.0
 10
10.3598857679
 20
7.7459449361
 30
0.0
 10
10.3881973461
 20
7.7229807222
 30
0.0
 10
10.4184310183
 20
7.7027569422
 30
0.0
 10
10.4502968472
 20
7.6854681713
 30
0.0
 10
10.4834888145
 20
7.6712808969
 30
0.0
 10
10.5176895199
 20
7.660332332
 30
0.0
 10
10.552566248
 20
7.6527285341
 30
0.0
 10
10.5761340235
 20
7.6499289192
 30
0.0
 10
10.5879120259
 20
7.649112112
 30
0.0
  0
SPLINE
  5
3FA
100
AcDbEntity
  8
0
100
AcDbSpline
 62
7
  6
CONTINUOUS
 70
0
 71
3
 72
39
 73
35
 74
0
 42
0.0000001
 43
0.0000001
 44
0.0000000001
 40
0.0
 40
0.0
 40
0.0
 40
0.0
 40
0.0311907187
 40
0.0621706958
 40
0.0929497855
 40
0.1235450783
 40
0.1539815484
 40
0.1842905005
 40
0.2145086589
 40
0.2446765362
 40
0.2748367925
 40
0.3050324252
 40
0.3353048975
 40
0.3656924568
 40
0.3962284861
 40
0.4269402643
 40
0.4578478822
 40
0.4889636211
 40
0.5202915907
 40
0.5518277446
 40
0.5835602024
 40
0.615469804
 40
0.6475309841
 40
0.6797127085
 40
0.7119797218
 40
0.7442937403
 40
0.7766148725
 40
0.8089029667
 40
0.8411190099
 40
0.8732265532
 40
0.9051928721
 40
0.9369904843
 40
0.9685975562
 40
1.0
 40
1.0
 40
1.0
 40
1.0
 10
10.5879120259
 20
7.7529491444
 30
0.0
 10
10.5962253883
 20
7.7523726108
 30
0.0
 10
10.6128638661
 20
7.7520302845
 30
0.0
 10
10.6376602534
 20
7.7539808107
 30
0.0
 10
10.6619830478
 20
7.7583783822
 30
0.0
 10
10.6855944708
 20
7.7651818935
 30
0.0
 10
10.7082671261
 20
7.7743263979
 30
0.0
 10
10.7297814652
 20
7.7857243543
 30
0.0
 10
10.7499292369
 20
7.7992660855
 30
0.0
 10
10.7685152866
 20
7.8148209435
 30
0.0
 10
10.7853596454
 20
7.8322385332
 30
0.0
 10
10.8002993616
 20
7.8513502305
 30
0.0
 10
10.8131901451
 20
7.871970925
 30
0.0
 10
10.823907809
 20
7.8939008968
 30
0.0
 10
10.8323494425
 20
7.9169278956
 30
0.0
 10
10.838434358
 20
7.9408292662
 30
0.0
 10
10.8421047901
 20
7.9653741905
 30
0.0
 10
10.8433263375
 20
7.9903259412
 30
0.0
 10
10.842088227
 20
8.0154441752
 30
0.0
 10
10.8384032921
 20
8.0404872254
 30
0.0
 10
10.832307817
 20
8.065214383
 30
0.0
 10
10.8238611066
 20
8.0893881665
 30
0.0
 10
10.8131449022
 20
8.1127765346
 30
0.0
 10
10.8002625786
 20
8.1351550792
 30
0.0
 10
10.7853381414
 20
8.1563091016
 30
0.0
 10
10.7685150606
 20
8.176035658
 30
0.0
 10
10.749954897
 20
8.19414544
 30
0.0
 10
10.7298357816
 20
8.2104645737
 30
0.0
 10
10.708350757
 20
8.2248362646
 30
0.0
 10
10.6857058648
 20
8.2371222425
 30
0.0
 10
10.6621185754
 20
8.2472041638
 30
0.0
 10
10.6378144095
 20
8.2549846045
 30
0.0
 10
10.6130298582
 20
8.2603880494
 30
0.0
 10
10.5962818201
 20
8.2623775637
 30
0.0
 10
10.5879120259
 20
8.2629580109
 30
0.0
  0
SPLINE
  5
3FB
100
AcDbEntity
  8
0
100
AcDbSpline
 62
7
  6
CONTINUOUS
 70
0
 71
3
 72
39
 73
35
 74
0
 42
0.0000001
 43
0.0000001
 44
0.0000000001
 40
0.0
 40
0.0
 40
0.0
 40
0.0
 40
0.0311907187
 40
0.0621706958
 40
0.0929497855
 40
0.1235450783
 40
0.1539815484
 40
0.1842905005
 40
0.2145086589
 40
0.2446765362
 40
0.2748367925
 40
0.3050324252
 40
0.3353048975
 40
0.3656924568
 40
0.3962284861
 40
0.4269402643
 40
0.4578478822
 40
0.4889636211
 40
0.5202915907
 40
0.5518277446
 40
0.5835602024
 40
0.615469804
 40
0.6475309841
 40
0.6797127085
 40
0.7119797218
 40
0.7442937403
 40
0.7766148725
 40
0.8089029667
 40
0.8411190099
 40
0.8732265532
 40
0.9051928721
 40
0.9369904843
 40
0.9685975562
 40
1.0
 40
1.0
 40
1.0
 40
1.0
 10
10.5879120259
 20
8.2629580109
 30
0.0
 10
10.5795986635
 20
8.2635345446
 30
0.0
 10
10.5629601858
 20
8.2638768708
 30
0.0
 10
10.5381637985
 20
8.2619263447
 30
0.0
 10
10.5138410041
 20
8.2575287732
 30
0.0
 10
10.4902295811
 20
8.2507252619
 30
0.0
 10
10.4675569257
 20
8.2415807574
 30
0.0
 10
10.4460425867
 20
8.230182801
 30
0.0
 10
10.4258948149
 20
8.2166410699
 30
0.0
 10
10.4073087653
 20
8.2010862118
 30
0.0
 10
10.3904644065
 20
8.1836686222
 30
0.0
 10
10.3755246902
 20
8.1645569249
 30
0.0
 10
10.3626339068
 20
8.1439362303
 30
0.0
 10
10.3519162428
 20
8.1220062586
 30
0.0
 10
10.3434746094
 20
8.0989792598
 30
0.0
 10
10.3373896939
 20
8.0750778892
 30
0.0
 10
10.3337192618
 20
8.0505329648
 30
0.0
 10
10.3324977144
 20
8.0255812142
 30
0.0
 10
10.3337358249
 20
8.0004629802
 30
0.0
 10
10.3374207597
 20
7.9754199299
 30
0.0
 10
10.3435162349
 20
7.9506927723
 30
0.0
 10
10.3519629453
 20
7.9265189888
 30
0.0
 10
10.3626791496
 20
7.9031306208
 30
0.0
 10
10.3755614733
 20
7.8807520762
 30
0.0
 10
10.3904859104
 20
7.8595980538
 30
0.0
 10
10.4073089913
 20
7.8398714973
 30
0.0
 10
10.4258691549
 20
7.8217617154
 30
0.0
 10
10.4459882703
 20
7.8054425816
 30
0.0
 10
10.4674732949
 20
7.7910708907
 30
0.0
 10
10.4901181871
 20
7.7787849128
 30
0.0
 10
10.5137054764
 20
7.7687029916
 30
0.0
 10
10.5380096423
 20
7.7609225508
 30
0.0
 10
10.5627941937
 20
7.7555191059
 30
0.0
 10
10.5795422318
 20
7.7535295916
 30
0.0
 10
10.5879120259
 20
7.7529491444
 30
0.0
  0
SPLINE
  5
3FC
100
AcDbEntity
  8
0
100
AcDbSpline
 62
7
  6
CONTINUOUS
 70
0
 71
3
 72
11
 73
7
 74
0
 42
0.0000001
 43
0.0000001
 44
0.0000000001
 40
0.0
 40
0.0
 40
0.0
 40
0.0
 40
0.2478232699
 40
0.4970146104
 40
0.7477158254
 40
1.0
 40
1.0
 40
1.0
 40
1.0
 10
10.5464649132
 20
8.2381889342
 30
0.0
 10
10.5442036235
 20
8.2324923909
 30
0.0
 10
10.5402194969
 20
8.2208406221
 30
0.0
 10
10.5359291417
 20
8.2028257692
 30
0.0
 10
10.5333425859
 20
8.1843775475
 30
0.0
 10
10.5327705739
 20
8.1719302959
 30
0.0
 10
10.5327705739
 20
8.1656910219
 30
0.0
  0
SPLINE
  5
3FD
100
AcDbEntity
  8
0
100
AcDbSpline
 62
7
  6
CONTINUOUS
 70
0
 71
3
 72
31
 73
27
 74
0
 42
0.0000001
 43
0.0000001
 44
0.0000000001
 40
0.0
 40
0.0
 40
0.0
 40
0.0
 40
0.0300294532
 40
0.0601572876
 40
0.0903950823
 40
0.1207524073
 40
0.1512368467
 40
0.1818538751
 40
0.2126065688
 40
0.243495913
 40
0.2745206204
 40
0.3056772
 40
0.3683316361
 40
0.4314222303
 40
0.4948543763
 40
0.558513006
 40
0.6222694452
 40
0.6859893696
 40
0.7178082817
 40
0.7495691627
 40
0.7812571461
 40
0.8128582695
 40
0.8443603814
 40
0.8757525355
 40
0.9381390656
 40
1.0
 40
1.0
 40
1.0
 40
1.0
 10
10.8190858142
 20
8.0257455212
 30
0.0
 10
10.8162266015
 20
8.0244652317
 30
0.0
 10
10.8104101343
 20
8.0220935287
 30
0.0
 10
10.8014522051
 20
8.0191249568
 30
0.0
 10
10.7922828914
 20
8.0167512733
 30
0.0
 10
10.7829402621
 20
8.0149826123
 30
0.0
 10
10.7734625336
 20
8.0138256772
 30
0.0
 10
10.7638885267
 20
8.0132856417
 30
0.0
 10
10.754257449
 20
8.0133642393
 30
0.0
 10
10.7446088388
 20
8.0140612436
 30
0.0
 10
10.7349817681
 20
8.0153739586
 30
0.0
 10
10.7222068645
 20
8.0179412268
 30
0.0
 10
10.7064873605
 20
8.0226659035
 30
0.0
 10
10.6883811808
 20
8.0306373406
 30
0.0
 10
10.671280459
 20
8.0407924532
 30
0.0
 10
10.6554649363
 20
8.0529652022
 30
0.0
 10
10.6411921753
 20
8.066955606
 30
0.0
 10
10.6307674039
 20
8.0799528262
 30
0.0
 10
10.6234178814
 20
8.0910219329
 30
0.0
 10
10.6184242239
 20
8.0996222154
 30
0.0
 10
10.6139686837
 20
8.1084874588
 30
0.0
 10
10.6100693933
 20
8.1175817409
 30
0.0
 10
10.6067420256
 20
8.126868104
 30
0.0
 10
10.6030952078
 20
8.139425965
 30
0.0
 10
10.6000190174
 20
8.15541306
 30
0.0
 10
10.5991845757
 20
8.168388495
 30
0.0
 10
10.5991845757
 20
8.1748420253
 30
0.0
  0
SPLINE
  5
3FE
100
AcDbEntity
  8
0
100
AcDbSpline
 62
7
  6
CONTINUOUS
 70
0
 71
3
 72
40
 73
36
 74
0
 42
0.0000001
 43
0.0000001
 44
0.0000000001
 40
0.0
 40
0.0
 40
0.0
 40
0.0
 40
0.0958313942
 40
0.1891002647
 40
0.2345968572
 40
0.2792418246
 40
0.3229685208
 40
0.3657122006
 40
0.4074103678
 40
0.4480029235
 40
0.4874324938
 40
0.5256446288
 40
0.5625879571
 40
0.5982146449
 40
0.6324807089
 40
0.6653462684
 40
0.6967761797
 40
0.726740616
 40
0.7552155901
 40
0.7821839813
 40
0.8076366973
 40
0.8315738943
 40
0.8540069453
 40
0.8749609221
 40
0.8944774791
 40
0.9126189086
 40
0.9294731653
 40
0.9451593877
 40
0.9598338606
 40
0.9668558898
 40
0.9737029137
 40
0.9804063094
 40
0.9869997155
 40
0.9935186468
 40
1.0
 40
1.0
 40
1.0
 40
1.0
 10
10.8708010088
 20
10.9374995481
 30
0.0
 10
10.858429107
 20
10.9383575424
 30
0.0
 10
10.8340340608
 20
10.940322725
 30
0.0
 10
10.8038354955
 20
10.943474113
 30
0.0
 10
10.7802788587
 20
10.9463854779
 30
0.0
 10
10.7631143186
 20
10.9487344424
 30
0.0
 10
10.7463354728
 20
10.9512628511
 30
0.0
 10
10.7299703221
 20
10.9539664738
 30
0.0
 10
10.7140462173
 20
10.956840748
 30
0.0
 10
10.6985897615
 20
10.9598808647
 30
0.0
 10
10.6836267598
 20
10.9630817017
 30
0.0
 10
10.6691821807
 20
10.9664378613
 30
0.0
 10
10.6552801225
 20
10.9699437219
 30
0.0
 10
10.6419437523
 20
10.9735933831
 30
0.0
 10
10.6291952657
 20
10.9773806897
 30
0.0
 10
10.6170558635
 20
10.9812993017
 30
0.0
 10
10.605545689
 20
10.9853426455
 30
0.0
 10
10.5946837822
 20
10.9895039262
 30
0.0
 10
10.5844880667
 20
10.993776221
 30
0.0
 10
10.5749752873
 20
10.9981524496
 30
0.0
 10
10.5661609511
 20
11.0026253843
 30
0.0
 10
10.558059336
 20
11.0071877877
 30
0.0
 10
10.5506834421
 20
11.0118324398
 30
0.0
 10
10.5440449505
 20
11.0165521738
 30
0.0
 10
10.5381543177
 20
11.0213401501
 30
0.0
 10
10.5330209418
 20
11.0261898507
 30
0.0
 10
10.5286532254
 20
11.031095567
 30
0.0
 10
10.5250596627
 20
11.0360510824
 30
0.0
 10
10.5226827619
 20
11.0402803328
 30
0.0
 10
10.5212010516
 20
11.043666692
 30
0.0
 10
10.5203039776
 20
11.0461757218
 30
0.0
 10
10.5196055836
 20
11.0486896913
 30
0.0
 10
10.5191063081
 20
11.0512075701
 30
0.0
 10
10.5188066331
 20
11.053727907
 30
0.0
 10
10.5187399624
 20
11.0554110348
 30
0.0
 10
10.5187399668
 20
11.0562497919
 30
0.0
  0
SPLINE
  5
3FF
100
AcDbEntity
  8
0
100
AcDbSpline
 62
7
  6
CONTINUOUS
 70
0
 71
3
 72
19
 73
15
 74
0
 42
0.0000001
 43
0.0000001
 44
0.0000000001
 40
0.0
 40
0.0
 40
0.0
 40
0.0
 40
0.12732766
 40
0.2538196711
 40
0.3795264658
 40
0.5045235362
 40
0.5668075958
 40
0.6289556124
 40
0.6909843715
 40
0.7529118454
 40
0.8147570127
 40
0.8765397119
 40
0.9382804145
 40
1.0
 40
1.0
 40
1.0
 40
1.0
 10
12.0876941764
 20
10.2629651963
 30
0.0
 10
12.0876941764
 20
10.2564668163
 30
0.0
 10
12.0870737242
 20
10.243503766
 30
0.0
 10
12.0842676527
 20
10.2243082573
 30
0.0
 10
12.0796152102
 20
10.2055959673
 30
0.0
 10
12.0742257343
 20
10.1905277159
 30
0.0
 10
12.0690425338
 20
10.1788957649
 30
0.0
 10
12.0647323425
 20
10.1704066958
 30
0.0
 10
12.0600054239
 20
10.1621636361
 30
0.0
 10
12.0548725365
 20
10.1541853255
 30
0.0
 10
12.0493455229
 20
10.1464902869
 30
0.0
 10
12.0434371202
 20
10.1390961431
 30
0.0
 10
12.0371611413
 20
10.1320202211
 30
0.0
 10
12.0327409056
 20
10.1275251568
 30
0.0
 10
12.0304752804
 20
10.1253367317
 30
0.0
  0
SPLINE
  5
400
100
AcDbEntity
  8
0
100
AcDbSpline
 62
7
  6
CONTINUOUS
 70
0
 71
3
 72
19
 73
15
 74
0
 42
0.0000001
 43
0.0000001
 44
0.0000000001
 40
0.0
 40
0.0
 40
0.0
 40
0.0
 40
0.12732766
 40
0.2538196711
 40
0.3795264658
 40
0.5045235362
 40
0.5668075958
 40
0.6289556124
 40
0.6909843715
 40
0.7529118454
 40
0.8147570127
 40
0.8765397119
 40
0.9382804145
 40
1.0
 40
1.0
 40
1.0
 40
1.0
 10
12.0876941764
 20
5.9162987205
 30
0.0
 10
12.0876941764
 20
5.9098003405
 30
0.0
 10
12.0870737242
 20
5.8968372902
 30
0.0
 10
12.0842676527
 20
5.8776417814
 30
0.0
 10
12.0796152102
 20
5.8589294915
 30
0.0
 10
12.0742257343
 20
5.8438612401
 30
0.0
 10
12.0690425338
 20
5.832229289
 30
0.0
 10
12.0647323425
 20
5.82374022
 30
0.0
 10
12.0600054239
 20
5.8154971602
 30
0.0
 10
12.0548725365
 20
5.8075188496
 30
0.0
 10
12.0493455229
 20
5.799823811
 30
0.0
 10
12.0434371202
 20
5.7924296672
 30
0.0
 10
12.0371611413
 20
5.7853537453
 30
0.0
 10
12.0327409056
 20
5.780858681
 30
0.0
 10
12.0304752804
 20
5.7786702559
 30
0.0
  0
SPLINE
  5
401
100
AcDbEntity
  8
0
100
AcDbSpline
 62
7
  6
CONTINUOUS
 70
0
 71
3
 72
11
 73
7
 74
0
 42
0.0000001
 43
0.0000001
 44
0.0000000001
 40
0.0
 40
0.0
 40
0.0
 40
0.0
 40
0.2521122393
 40
0.5027651404
 40
0.7520271436
 40
1.0
 40
1.0
 40
1.0
 40
1.0
 10
11.1077623501
 20
8.1575904614
 30
0.0
 10
11.1077623501
 20
8.1480483012
 30
0.0
 10
11.1069615381
 20
8.129009184
 30
0.0
 10
11.1033408378
 20
8.1007429532
 30
0.0
 10
11.097330459
 20
8.0730466914
 30
0.0
 10
11.0917425973
 20
8.0550457757
 30
0.0
 10
11.0885671224
 20
8.0462138016
 30
0.0
  0
SPLINE
  5
402
100
AcDbEntity
  8
0
100
AcDbSpline
 62
7
  6
CONTINUOUS
 70
0
 71
3
 72
50
 73
46
 74
0
 42
0.0000001
 43
0.0000001
 44
0.0000000001
 40
0.0
 40
0.0
 40
0.0
 40
0.0
 40
0.0417744418
 40
0.0840381875
 40
0.1266602114
 40
0.1695088334
 40
0.2124510193
 40
0.2553535638
 40
0.2980833443
 40
0.3405079442
 40
0.3824961454
 40
0.4239184685
 40
0.4646477027
 40
0.5045594474
 40
0.5435326636
 40
0.5814502412
 40
0.6181995892
 40
0.6536732601
 40
0.6877696215
 40
0.7203935994
 40
0.7514575214
 40
0.7808821092
 40
0.7949579392
 40
0.8085987194
 40
0.821797426
 40
0.8345479988
 40
0.8468451249
 40
0.8586846215
 40
0.8700632619
 40
0.8809791687
 40
0.8914317275
 40
0.9014219834
 40
0.9109526898
 40
0.9200287185
 40
0.9286572935
 40
0.9368484417
 40
0.9446154576
 40
0.9519754311
 40
0.9589499519
 40
0.9655657069
 40
0.9778458861
 40
0.9836071497
 40
0.9891799
 40
0.9946230074
 40
1.0
 40
1.0
 40
1.0
 40
1.0
 10
12.8089128221
 20
9.2132015994
 30
0.0
 10
12.8089128221
 20
9.2220631093
 30
0.0
 10
12.8090510748
 20
9.2398902025
 30
0.0
 10
12.8096622431
 20
9.2667523034
 30
0.0
 10
12.8106766531
 20
9.2938302673
 30
0.0
 10
12.8120909508
 20
9.3210343697
 30
0.0
 10
12.8139004832
 20
9.3482746796
 30
0.0
 10
12.8160992575
 20
9.3754610463
 30
0.0
 10
12.8186799953
 20
9.4025035372
 30
0.0
 10
12.8216341392
 20
9.4293126857
 30
0.0
 10
12.8249518887
 20
9.4557998065
 30
0.0
 10
12.8286222293
 20
9.4818772863
 30
0.0
 10
12.8326329691
 20
9.5074588776
 30
0.0
 10
12.8369707784
 20
9.5324599872
 30
0.0
 10
12.8416212328
 20
9.5567979605
 30
0.0
 10
12.8465688599
 20
9.5803923607
 30
0.0
 10
12.8517971897
 20
9.6031652402
 30
0.0
 10
12.8572888077
 20
9.6250414159
 30
0.0
 10
12.8630254152
 20
9.6459487037
 30
0.0
 10
12.8689878805
 20
9.665818271
 30
0.0
 10
12.8751563448
 20
9.6845845574
 30
0.0
 10
12.8805276205
 20
9.6994647105
 30
0.0
 10
12.8849228674
 20
9.7107615236
 30
0.0
 10
12.8882091403
 20
9.7187950924
 30
0.0
 10
12.8915313968
 20
9.7265087062
 30
0.0
 10
12.8948868433
 20
9.7338960427
 30
0.0
 10
12.8982727767
 20
9.7409510102
 30
0.0
 10
12.9016863285
 20
9.7476678419
 30
0.0
 10
12.9051247613
 20
9.7540410161
 30
0.0
 10
12.9085851861
 20
9.7600653492
 30
0.0
 10
12.9120648365
 20
9.7657359129
 30
0.0
 10
12.9155608363
 20
9.7710481246
 30
0.0
 10
12.9190704122
 20
9.7759976717
 30
0.0
 10
12.9225907423
 20
9.7805805798
 30
0.0
 10
12.9261190899
 20
9.7847931664
 30
0.0
 10
12.9296527264
 20
9.78863204
 30
0.0
 10
12.9331890716
 20
9.792094158
 30
0.0
 10
12.9367253402
 20
9.7951765345
 30
0.0
 10
12.9402599021
 20
9.7978770319
 30
0.0
 10
12.9448503459
 20
9.8008891229
 30
0.0
 10
12.9495567609
 20
9.8032447392
 30
0.0
 10
12.9543238668
 20
9.80480726
 30
0.0
 10
12.9578093045
 20
9.8055607801
 30
0.0
 10
12.9612751843
 20
9.8059185621
 30
0.0
 10
12.9635762763
 20
9.8058922644
 30
0.0
 10
12.9647141516
 20
9.8058133534
 30
0.0
  0
SPLINE
  5
403
100
AcDbEntity
  8
0
100
AcDbSpline
 62
7
  6
CONTINUOUS
 70
0
 71
3
 72
50
 73
46
 74
0
 42
0.0000001
 43
0.0000001
 44
0.0000000001
 40
0.0
 40
0.0
 40
0.0
 40
0.0
 40
0.0417744418
 40
0.0840381875
 40
0.1266602114
 40
0.1695088334
 40
0.2124510193
 40
0.2553535638
 40
0.2980833443
 40
0.3405079442
 40
0.3824961454
 40
0.4239184685
 40
0.4646477027
 40
0.5045594474
 40
0.5435326636
 40
0.5814502412
 40
0.6181995892
 40
0.6536732601
 40
0.6877696215
 40
0.7203935994
 40
0.7514575214
 40
0.7808821092
 40
0.7949579392
 40
0.8085987194
 40
0.821797426
 40
0.8345479988
 40
0.8468451249
 40
0.8586846215
 40
0.8700632619
 40
0.8809791687
 40
0.8914317275
 40
0.9014219834
 40
0.9109526898
 40
0.9200287185
 40
0.9286572935
 40
0.9368484417
 40
0.9446154576
 40
0.9519754311
 40
0.9589499519
 40
0.9655657069
 40
0.9778458861
 40
0.9836071497
 40
0.9891799
 40
0.9946230074
 40
1.0
 40
1.0
 40
1.0
 40
1.0
 10
12.8089128221
 20
7.2813498324
 30
0.0
 10
12.8089128221
 20
7.2902113423
 30
0.0
 10
12.8090510748
 20
7.3080384354
 30
0.0
 10
12.8096622431
 20
7.3349005363
 30
0.0
 10
12.8106766531
 20
7.3619785003
 30
0.0
 10
12.8120909508
 20
7.3891826026
 30
0.0
 10
12.8139004832
 20
7.4164229126
 30
0.0
 10
12.8160992575
 20
7.4436092792
 30
0.0
 10
12.8186799953
 20
7.4706517702
 30
0.0
 10
12.8216341392
 20
7.4974609186
 30
0.0
 10
12.8249518887
 20
7.5239480395
 30
0.0
 10
12.8286222293
 20
7.5500255192
 30
0.0
 10
12.8326329691
 20
7.5756071105
 30
0.0
 10
12.8369707784
 20
7.6006082202
 30
0.0
 10
12.8416212328
 20
7.6249461935
 30
0.0
 10
12.8465688599
 20
7.6485405937
 30
0.0
 10
12.8517971897
 20
7.6713134732
 30
0.0
 10
12.8572888077
 20
7.6931896489
 30
0.0
 10
12.8630254152
 20
7.7140969367
 30
0.0
 10
12.8689878805
 20
7.733966504
 30
0.0
 10
12.8751563448
 20
7.7527327904
 30
0.0
 10
12.8805276205
 20
7.7676129435
 30
0.0
 10
12.8849228674
 20
7.7789097566
 30
0.0
 10
12.8882091403
 20
7.7869433253
 30
0.0
 10
12.8915313968
 20
7.7946569392
 30
0.0
 10
12.8948868433
 20
7.8020442757
 30
0.0
 10
12.8982727767
 20
7.8090992431
 30
0.0
 10
12.9016863285
 20
7.8158160749
 30
0.0
 10
12.9051247613
 20
7.822189249
 30
0.0
 10
12.9085851861
 20
7.8282135822
 30
0.0
 10
12.9120648365
 20
7.8338841458
 30
0.0
 10
12.9155608363
 20
7.8391963575
 30
0.0
 10
12.9190704122
 20
7.8441459046
 30
0.0
 10
12.9225907423
 20
7.8487288127
 30
0.0
 10
12.9261190899
 20
7.8529413993
 30
0.0
 10
12.9296527264
 20
7.856780273
 30
0.0
 10
12.9331890716
 20
7.860242391
 30
0.0
 10
12.9367253402
 20
7.8633247674
 30
0.0
 10
12.9402599021
 20
7.8660252648
 30
0.0
 10
12.9448503459
 20
7.8690373558
 30
0.0
 10
12.9495567609
 20
7.8713929721
 30
0.0
 10
12.9543238668
 20
7.872955493
 30
0.0
 10
12.9578093045
 20
7.873709013
 30
0.0
 10
12.9612751843
 20
7.8740667951
 30
0.0
 10
12.9635762763
 20
7.8740404973
 30
0.0
 10
12.9647141516
 20
7.8739615863
 30
0.0
  0
SPLINE
  5
404
100
AcDbEntity
  8
0
100
AcDbSpline
 62
7
  6
CONTINUOUS
 70
0
 71
3
 72
51
 73
47
 74
0
 42
0.0000001
 43
0.0000001
 44
0.0000000001
 40
0.0
 40
0.0
 40
0.0
 40
0.0
 40
0.0055575411
 40
0.0111779796
 40
0.0169219251
 40
0.0228458413
 40
0.0290006321
 40
0.0354310786
 40
0.0421755463
 40
0.0492664473
 40
0.0567305238
 40
0.0645896869
 40
0.0728614009
 40
0.0815594939
 40
0.0906944682
 40
0.1002741332
 40
0.1103038404
 40
0.1207869116
 40
0.1317248436
 40
0.1431175479
 40
0.1549635674
 40
0.1672601535
 40
0.1800035184
 40
0.1931887814
 40
0.2068102607
 40
0.2208613236
 40
0.2502213907
 40
0.2812032625
 40
0.3137304052
 40
0.3477178056
 40
0.3830729848
 40
0.4196968576
 40
0.457484485
 40
0.4963257531
 40
0.5361059989
 40
0.5767066018
 40
0.6180055482
 40
0.6598779796
 40
0.7021967295
 40
0.7448328475
 40
0.7876561341
 40
0.8305356225
 40
0.8733402059
 40
0.9159388534
 40
0.9582018594
 40
1.0
 40
1.0
 40
1.0
 40
1.0
 10
11.4687399407
 20
11.0562491223
 30
0.0
 10
11.4687399345
 20
11.0550740663
 30
0.0
 10
11.4686083536
 20
11.0527086097
 30
0.0
 10
11.4680178291
 20
11.0491730612
 30
0.0
 10
11.4670352132
 20
11.0456453832
 30
0.0
 10
11.4656622988
 20
11.0421297079
 30
0.0
 10
11.463901475
 20
11.0386288273
 30
0.0
 10
11.4617549805
 20
11.0351454978
 30
0.0
 10
11.4592253826
 20
11.0316820249
 30
0.0
 10
11.4563150478
 20
11.0282408357
 30
0.0
 10
11.4530266803
 20
11.0248241499
 30
0.0
 10
11.4493629491
 20
11.021434438
 30
0.0
 10
11.4453269057
 20
11.0180740322
 30
0.0
 10
11.4409217214
 20
11.0147454967
 30
0.0
 10
11.4361509494
 20
11.0114512813
 30
0.0
 10
11.4310183588
 20
11.0081939897
 30
0.0
 10
11.4255280709
 20
11.0049761404
 30
0.0
 10
11.4196844747
 20
11.0018003177
 30
0.0
 10
11.4134922761
 20
10.9986690611
 30
0.0
 10
11.4069564728
 20
10.9955848947
 30
0.0
 10
11.4000823491
 20
10.9925503428
 30
0.0
 10
11.3928754883
 20
10.9895678454
 30
0.0
 10
11.3853417373
 20
10.9866398818
 30
0.0
 10
11.3774872405
 20
10.9837688029
 30
0.0
 10
11.3693183792
 20
10.9809569902
 30
0.0
 10
11.3578478117
 20
10.9772354058
 30
0.0
 10
11.3427650673
 20
10.9727619329
 30
0.0
 10
11.3237796283
 20
10.9677406893
 30
0.0
 10
11.3037139301
 20
10.9630074368
 30
0.0
 10
11.2826335527
 20
10.9585778211
 30
0.0
 10
11.2606072318
 20
10.9544665216
 30
0.0
 10
11.2377069521
 20
10.9506871474
 30
0.0
 10
11.2140075947
 20
10.9472522068
 30
0.0
 10
11.1895867056
 20
10.9441730619
 30
0.0
 10
11.1645242249
 20
10.9414598935
 30
0.0
 10
11.1389022186
 20
10.9391216687
 30
0.0
 10
11.1128046044
 20
10.9371661127
 30
0.0
 10
11.0863168719
 20
10.9355996845
 30
0.0
 10
11.0595257995
 20
10.9344275568
 30
0.0
 10
11.0325191655
 20
10.9336535987
 30
0.0
 10
11.0053854645
 20
10.933280367
 30
0.0
 10
10.978213595
 20
10.9333090898
 30
0.0
 10
10.9510926246
 20
10.9337396796
 30
0.0
 10
10.9241113433
 20
10.9345707041
 30
0.0
 10
10.897358312
 20
10.9357994323
 30
0.0
 10
10.8796174027
 20
10.9368881291
 30
0.0
 10
10.8708010088
 20
10.9374995481
 30
0.0
  0
SPLINE
  5
405
100
AcDbEntity
  8
0
100
AcDbSpline
 62
7
  6
CONTINUOUS
 70
0
 71
3
 72
33
 73
29
 74
0
 42
0.0000001
 43
0.0000001
 44
0.0000000001
 40
0.0
 40
0.0
 40
0.0
 40
0.0
 40
0.0148674012
 40
0.031057898
 40
0.0486194155
 40
0.0675778285
 40
0.0879417451
 40
0.1097060827
 40
0.1328545908
 40
0.1573616236
 40
0.1831936723
 40
0.2103104943
 40
0.2386658958
 40
0.2682083626
 40
0.2988817414
 40
0.3306257159
 40
0.3633761356
 40
0.3970654073
 40
0.4316229019
 40
0.4669752371
 40
0.5030465036
 40
0.5397586067
 40
0.6147819621
 40
0.6913886395
 40
0.7689016783
 40
0.8466336383
 40
0.9238941454
 40
1.0
 40
1.0
 40
1.0
 40
1.0
 10
11.3164897403
 20
11.0175620435
 30
0.0
 10
11.3149648485
 20
11.0161429804
 30
0.0
 10
11.3116334013
 20
11.0133334824
 30
0.0
 10
11.3060926131
 20
11.0093616626
 30
0.0
 10
11.2998133428
 20
11.0054653142
 30
0.0
 10
11.2928101454
 20
11.0016532637
 30
0.0
 10
11.2850985795
 20
10.9979338159
 30
0.0
 10
11.2766963138
 20
10.9943155918
 30
0.0
 10
11.2676227386
 20
10.9908070752
 30
0.0
 10
11.257899017
 20
10.9874165647
 30
0.0
 10
11.2475479489
 20
10.9841521347
 30
0.0
 10
11.2365938935
 20
10.9810216003
 30
0.0
 10
11.2250627085
 20
10.9780324688
 30
0.0
 10
11.2129816826
 20
10.9751918884
 30
0.0
 10
11.2003794398
 20
10.97250667
 30
0.0
 10
11.1872858629
 20
10.9699832648
 30
0.0
 10
11.173732032
 20
10.9676277206
 30
0.0
 10
11.159750144
 20
10.9654456713
 30
0.0
 10
11.1453734167
 20
10.9634423455
 30
0.0
 10
11.1306360241
 20
10.9616225635
 30
0.0
 10
11.1155729768
 20
10.9599906433
 30
0.0
 10
11.0949540532
 20
10.9580566497
 30
0.0
 10
11.0686317098
 20
10.9561443825
 30
0.0
 10
11.0365577293
 20
10.954663441
 30
0.0
 10
11.0040769557
 20
10.9539946619
 30
0.0
 10
10.9714980381
 20
10.954144445
 30
0.0
 10
10.9391305493
 20
10.9551113659
 30
0.0
 10
10.9176730999
 20
10.9563069964
 30
0.0
 10
10.9070356452
 20
10.9570447064
 30
0.0
  0
SPLINE
  5
406
100
AcDbEntity
  8
0
100
AcDbSpline
 62
7
  6
CONTINUOUS
 70
0
 71
3
 72
9
 73
5
 74
0
 42
0.0000001
 43
0.0000001
 44
0.0000000001
 40
0.0
 40
0.0
 40
0.0
 40
0.0
 40
0.4964025567
 40
1.0
 40
1.0
 40
1.0
 40
1.0
 10
11.2937399485
 20
11.0069872363
 30
0.0
 10
11.2937399405
 20
11.0061458631
 30
0.0
 10
11.2936328616
 20
11.0044492694
 30
0.0
 10
11.2933162549
 20
11.0027794078
 30
0.0
 10
11.2931083642
 20
11.0019515431
 30
0.0
  0
SPLINE
  5
407
100
AcDbEntity
  8
0
100
AcDbSpline
 62
7
  6
CONTINUOUS
 70
0
 71
3
 72
30
 73
26
 74
0
 42
0.0000001
 43
0.0000001
 44
0.0000000001
 40
0.0
 40
0.0
 40
0.0
 40
0.0
 40
0.0165871468
 40
0.0341538958
 40
0.0527305132
 40
0.0723390147
 40
0.0929937762
 40
0.1147033336
 40
0.1374706108
 40
0.1612942679
 40
0.1861687247
 40
0.2120851506
 40
0.2390314192
 40
0.2669928086
 40
0.2959519741
 40
0.3258894064
 40
0.3886085247
 40
0.4549578609
 40
0.5247165204
 40
0.5976411453
 40
0.6734687761
 40
0.7519195061
 40
0.8326983266
 40
0.9154981628
 40
1.0
 40
1.0
 40
1.0
 40
1.0
 10
10.6709898227
 20
11.0175623665
 30
0.0
 10
10.6719887061
 20
11.0166327995
 30
0.0
 10
10.6741073653
 20
11.0147845345
 30
0.0
 10
10.6775310696
 20
11.0121180206
 30
0.0
 10
10.6812861742
 20
11.0094819136
 30
0.0
 10
10.6853687548
 20
11.0068790398
 30
0.0
 10
10.6897746649
 20
11.0043118418
 30
0.0
 10
10.6944994251
 20
11.0017830212
 30
0.0
 10
10.6995381568
 20
10.9992950856
 30
0.0
 10
10.7048856837
 20
10.9968506813
 30
0.0
 10
10.7105364504
 20
10.9944522897
 30
0.0
 10
10.7164846006
 20
10.9921024729
 30
0.0
 10
10.722723931
 20
10.9898036482
 30
0.0
 10
10.7292479372
 20
10.987558276
 30
0.0
 10
10.7360498062
 20
10.9853686605
 30
0.0
 10
10.7456291692
 20
10.9824818012
 30
0.0
 10
10.7582517773
 20
10.9790420733
 30
0.0
 10
10.7741603625
 20
10.9752328955
 30
0.0
 10
10.7909905598
 20
10.9716970218
 30
0.0
 10
10.8086718253
 20
10.9684494793
 30
0.0
 10
10.8271301899
 20
10.965504101
 30
0.0
 10
10.8462882474
 20
10.9628734231
 30
0.0
 10
10.8660656825
 20
10.9605686185
 30
0.0
 10
10.8863793657
 20
10.9585995009
 30
0.0
 10
10.9001009647
 20
10.9575256281
 30
0.0
 10
10.9070356452
 20
10.9570447064
 30
0.0
  0
SPLINE
  5
408
100
AcDbEntity
  8
0
100
AcDbSpline
 62
7
  6
CONTINUOUS
 70
0
 71
3
 72
9
 73
5
 74
0
 42
0.0000001
 43
0.0000001
 44
0.0000000001
 40
0.0
 40
0.0
 40
0.0
 40
0.0
 40
0.4963548932
 40
1.0
 40
1.0
 40
1.0
 40
1.0
 10
10.693739959
 20
11.0069872363
 30
0.0
 10
10.6937399509
 20
11.006140202
 30
0.0
 10
10.6938485061
 20
11.0044320043
 30
0.0
 10
10.6941694038
 20
11.0027510938
 30
0.0
 10
10.694380042
 20
11.0019178298
 30
0.0
  0
SPLINE
  5
409
100
AcDbEntity
  8
0
100
AcDbSpline
 62
7
  6
CONTINUOUS
 70
0
 71
3
 72
42
 73
38
 74
0
 42
0.0000001
 43
0.0000001
 44
0.0000000001
 40
0.0
 40
0.0
 40
0.0
 40
0.0
 40
0.0299419644
 40
0.0449235317
 40
0.0599142035
 40
0.0899287023
 40
0.1200139727
 40
0.1350926544
 40
0.1501966973
 40
0.1804840373
 40
0.210897868
 40
0.2414513286
 40
0.2721543342
 40
0.3030133956
 40
0.3340315238
 40
0.3652082165
 40
0.3965395222
 40
0.4280181758
 40
0.459633799
 40
0.4913731572
 40
0.5232204671
 40
0.5551577446
 40
0.5871651885
 40
0.6192215901
 40
0.6513047644
 40
0.683391994
 40
0.715460481
 40
0.7474877999
 40
0.7794523452
 40
0.8113337678
 40
0.8431133918
 40
0.8747746145
 40
0.906303246
 40
0.9376878974
 40
0.9533257627
 40
0.9689252947
 40
1.0
 40
1.0
 40
1.0
 40
1.0
 10
11.7372923496
 20
10.428862254
 30
0.0
 10
11.7407927694
 20
10.4322433985
 30
0.0
 10
11.746249724
 20
10.4371102442
 30
0.0
 10
11.7538920379
 20
10.4431489902
 30
0.0
 10
11.7617777883
 20
10.4488871581
 30
0.0
 10
11.7720673394
 20
10.4554765194
 30
0.0
 10
11.7828572201
 20
10.4612402475
 30
0.0
 10
11.7917560356
 20
10.4653406632
 30
0.0
 10
11.8008387324
 20
10.4691024663
 30
0.0
 10
11.8124913774
 20
10.4731475738
 30
0.0
 10
11.8268515219
 20
10.4769174872
 30
0.0
 10
11.8415250071
 20
10.4795882079
 30
0.0
 10
11.8564305212
 20
10.4811449855
 30
0.0
 10
11.871486183
 20
10.4815795162
 30
0.0
 10
11.8866091522
 20
10.4808895871
 30
0.0
 10
11.901716309
 20
10.4790791839
 30
0.0
 10
11.9167246459
 20
10.4761584317
 30
0.0
 10
11.931551735
 20
10.4721435404
 30
0.0
 10
11.9461161698
 20
10.4670567081
 30
0.0
 10
11.9603380076
 20
10.4609259961
 30
0.0
 10
11.9741392011
 20
10.4537851728
 30
0.0
 10
11.9874440216
 20
10.4456735274
 30
0.0
 10
12.0001794681
 20
10.4366356545
 30
0.0
 10
12.0122756637
 20
10.4267212101
 30
0.0
 10
12.0236662336
 20
10.4159846417
 30
0.0
 10
12.0342886659
 20
10.4044848908
 30
0.0
 10
12.0440846507
 20
10.3922850738
 30
0.0
 10
12.0530003971
 20
10.3794521374
 30
0.0
 10
12.0609869257
 20
10.3660564995
 30
0.0
 10
12.0680003366
 20
10.3521716519
 30
0.0
 10
12.0740020445
 20
10.3378738194
 30
0.0
 10
12.0789590092
 20
10.3232413342
 30
0.0
 10
12.0828438389
 20
10.3083550002
 30
0.0
 10
12.0851728867
 20
10.2957893238
 30
0.0
 10
12.0864794091
 20
10.2856929453
 30
0.0
 10
12.0874118426
 20
10.2756062305
 30
0.0
 10
12.0876941764
 20
10.2680160423
 30
0.0
 10
12.0876941764
 20
10.2629651963
 30
0.0
  0
SPLINE
  5
40A
100
AcDbEntity
  8
0
100
AcDbSpline
 62
7
  6
CONTINUOUS
 70
0
 71
3
 72
42
 73
38
 74
0
 42
0.0000001
 43
0.0000001
 44
0.0000000001
 40
0.0
 40
0.0
 40
0.0
 40
0.0
 40
0.0299419644
 40
0.0449235317
 40
0.0599142035
 40
0.0899287023
 40
0.1200139727
 40
0.1350926544
 40
0.1501966973
 40
0.1804840373
 40
0.210897868
 40
0.2414513286
 40
0.2721543342
 40
0.3030133956
 40
0.3340315238
 40
0.3652082165
 40
0.3965395222
 40
0.4280181758
 40
0.459633799
 40
0.4913731572
 40
0.5232204671
 40
0.5551577446
 40
0.5871651885
 40
0.6192215901
 40
0.6513047644
 40
0.683391994
 40
0.715460481
 40
0.7474877999
 40
0.7794523452
 40
0.8113337678
 40
0.8431133918
 40
0.8747746145
 40
0.906303246
 40
0.9376878974
 40
0.9533257627
 40
0.9689252947
 40
1.0
 40
1.0
 40
1.0
 40
1.0
 10
11.7372923496
 20
6.0821957782
 30
0.0
 10
11.7407927694
 20
6.0855769227
 30
0.0
 10
11.746249724
 20
6.0904437683
 30
0.0
 10
11.7538920379
 20
6.0964825143
 30
0.0
 10
11.7617777883
 20
6.1022206823
 30
0.0
 10
11.7720673394
 20
6.1088100435
 30
0.0
 10
11.7828572201
 20
6.1145737717
 30
0.0
 10
11.7917560356
 20
6.1186741873
 30
0.0
 10
11.8008387324
 20
6.1224359905
 30
0.0
 10
11.8124913774
 20
6.126481098
 30
0.0
 10
11.8268515219
 20
6.1302510114
 30
0.0
 10
11.8415250071
 20
6.1329217321
 30
0.0
 10
11.8564305212
 20
6.1344785097
 30
0.0
 10
11.871486183
 20
6.1349130403
 30
0.0
 10
11.8866091522
 20
6.1342231113
 30
0.0
 10
11.901716309
 20
6.132412708
 30
0.0
 10
11.9167246459
 20
6.1294919559
 30
0.0
 10
11.931551735
 20
6.1254770646
 30
0.0
 10
11.9461161698
 20
6.1203902322
 30
0.0
 10
11.9603380076
 20
6.1142595202
 30
0.0
 10
11.9741392011
 20
6.1071186969
 30
0.0
 10
11.9874440216
 20
6.0990070516
 30
0.0
 10
12.0001794681
 20
6.0899691786
 30
0.0
 10
12.0122756637
 20
6.0800547343
 30
0.0
 10
12.0236662336
 20
6.0693181658
 30
0.0
 10
12.0342886659
 20
6.057818415
 30
0.0
 10
12.0440846507
 20
6.045618598
 30
0.0
 10
12.0530003971
 20
6.0327856616
 30
0.0
 10
12.0609869257
 20
6.0193900237
 30
0.0
 10
12.0680003366
 20
6.0055051761
 30
0.0
 10
12.0740020445
 20
5.9912073436
 30
0.0
 10
12.0789590092
 20
5.9765748583
 30
0.0
 10
12.0828438389
 20
5.9616885243
 30
0.0
 10
12.0851728867
 20
5.9491228479
 30
0.0
 10
12.0864794091
 20
5.9390264694
 30
0.0
 10
12.0874118426
 20
5.9289397546
 30
0.0
 10
12.0876941764
 20
5.9213495664
 30
0.0
 10
12.0876941764
 20
5.9162987205
 30
0.0
  0
SPLINE
  5
40B
100
AcDbEntity
  8
0
100
AcDbSpline
 62
7
  6
CONTINUOUS
 70
0
 71
3
 72
23
 73
19
 74
0
 42
0.0000001
 43
0.0000001
 44
0.0000000001
 40
0.0
 40
0.0
 40
0.0
 40
0.0
 40
0.0612806056
 40
0.1228162602
 40
0.1845966679
 40
0.2466078509
 40
0.3088323991
 40
0.3712497623
 40
0.4338365792
 40
0.4965670391
 40
0.5594132697
 40
0.6223457475
 40
0.6853337241
 40
0.7483456657
 40
0.8113497
 40
0.8743140663
 40
0.9372075648
 40
1.0
 40
1.0
 40
1.0
 40
1.0
 10
10.7784949891
 20
8.52072914
 30
0.0
 10
10.7856043525
 20
8.5200016708
 30
0.0
 10
10.7998112182
 20
8.5181007069
 30
0.0
 10
10.8209454553
 20
8.5139381951
 30
0.0
 10
10.8418700605
 20
8.5084745824
 30
0.0
 10
10.8625021968
 20
8.5017314351
 30
0.0
 10
10.8827615595
 20
8.4937351683
 30
0.0
 10
10.90256894
 20
8.4845171157
 30
0.0
 10
10.9218470023
 20
8.4741133597
 30
0.0
 10
10.9405204558
 20
8.4625646024
 30
0.0
 10
10.9585163801
 20
8.4499160043
 30
0.0
 10
10.9757644995
 20
8.4362170072
 30
0.0
 10
10.9921974529
 20
8.4215211493
 30
0.0
 10
11.00775107
 20
8.4058858299
 30
0.0
 10
11.0223645629
 20
8.3893721882
 30
0.0
 10
11.0359809736
 20
8.3720444881
 30
0.0
 10
11.0485466064
 20
8.3539712777
 30
0.0
 10
11.0561989718
 20
8.3414583737
 30
0.0
 10
11.0598337846
 20
8.3351013738
 30
0.0
  0
SPLINE
  5
40C
100
AcDbEntity
  8
0
100
AcDbSpline
 62
7
  6
CONTINUOUS
 70
0
 71
3
 72
11
 73
7
 74
0
 42
0.0000001
 43
0.0000001
 44
0.0000000001
 40
0.0
 40
0.0
 40
0.0
 40
0.0
 40
0.2521863606
 40
0.5029986953
 40
0.7522972847
 40
1.0
 40
1.0
 40
1.0
 40
1.0
 10
11.0833724021
 20
8.2858289043
 30
0.0
 10
11.0873767797
 20
8.2755487229
 30
0.0
 10
11.0944393462
 20
8.2546699721
 30
0.0
 10
11.1020956918
 20
8.2226153179
 30
0.0
 10
11.1067229472
 20
8.1901829648
 30
0.0
 10
11.1077623501
 20
8.1684268631
 30
0.0
 10
11.1077623501
 20
8.1575904614
 30
0.0
  0
SPLINE
  5
40D
100
AcDbEntity
  8
0
100
AcDbSpline
 62
7
  6
CONTINUOUS
 70
0
 71
3
 72
39
 73
35
 74
0
 42
0.0000001
 43
0.0000001
 44
0.0000000001
 40
0.0
 40
0.0
 40
0.0
 40
0.0
 40
0.0063160487
 40
0.0126710049
 40
0.0191030143
 40
0.025648725
 40
0.0323427741
 40
0.0392173099
 40
0.0536154899
 40
0.0690526699
 40
0.0856860689
 40
0.1036343988
 40
0.1229845382
 40
0.1437975072
 40
0.1661135699
 40
0.1899565186
 40
0.215336667
 40
0.2422531964
 40
0.2706962121
 40
0.3006480089
 40
0.3320840834
 40
0.3649742158
 40
0.3992830292
 40
0.4349704483
 40
0.4719923721
 40
0.510300957
 40
0.5498448414
 40
0.5905696299
 40
0.6324180703
 40
0.6753301946
 40
0.7192436555
 40
0.8098126736
 40
0.9035864807
 40
1.0
 40
1.0
 40
1.0
 40
1.0
 10
12.8989893825
 20
8.8580896635
 30
0.0
 10
12.8981865434
 20
8.85814534
 30
0.0
 10
12.8965797128
 20
8.8583227388
 30
0.0
 10
12.8941874718
 20
8.8587851585
 30
0.0
 10
12.8918112309
 20
8.859443896
 30
0.0
 10
12.8894523541
 20
8.8602983753
 30
0.0
 10
12.8871118093
 20
8.8613481297
 30
0.0
 10
12.8839689714
 20
8.8630328862
 30
0.0
 10
12.8800799542
 20
8.8656561703
 30
0.0
 10
12.8755817036
 20
8.8695230942
 30
0.0
 10
12.8711836765
 20
8.8741484792
 30
0.0
 10
12.8668909367
 20
8.8795237453
 30
0.0
 10
12.8627081569
 20
8.8856405094
 30
0.0
 10
12.8586408437
 20
8.8924893423
 30
0.0
 10
12.8546947214
 20
8.9000596989
 30
0.0
 10
12.8508757795
 20
8.9083398054
 30
0.0
 10
12.8471900069
 20
8.9173165978
 30
0.0
 10
12.8436432861
 20
8.9269757378
 30
0.0
 10
12.8402414177
 20
8.9373016883
 30
0.0
 10
12.8369900052
 20
8.9482777231
 30
0.0
 10
12.8338943943
 20
8.959885966
 30
0.0
 10
12.8309597397
 20
8.9721074617
 30
0.0
 10
12.8281909338
 20
8.9849221993
 30
0.0
 10
12.8255925574
 20
8.9983091477
 30
0.0
 10
12.8231689523
 20
9.0122463165
 30
0.0
 10
12.8209241715
 20
9.0267107871
 30
0.0
 10
12.8188619303
 20
9.0416787477
 30
0.0
 10
12.816985673
 20
9.0571255509
 30
0.0
 10
12.815298551
 20
9.0730257435
 30
0.0
 10
12.8138033198
 20
9.0893531408
 30
0.0
 10
12.8120509888
 20
9.1118886545
 30
0.0
 10
12.8103721139
 20
9.140927175
 30
0.0
 10
12.8091730402
 20
9.1766830129
 30
0.0
 10
12.8089128221
 20
9.2009169496
 30
0.0
 10
12.8089128221
 20
9.2132015994
 30
0.0
  0
SPLINE
  5
40E
100
AcDbEntity
  8
0
100
AcDbSpline
 62
7
  6
CONTINUOUS
 70
0
 71
3
 72
30
 73
26
 74
0
 42
0.0000001
 43
0.0000001
 44
0.0000000001
 40
0.0
 40
0.0
 40
0.0
 40
0.0
 40
0.0162144102
 40
0.0334276028
 40
0.0516720355
 40
0.0709712949
 40
0.0913408931
 40
0.1127901468
 40
0.135322532
 40
0.1589370491
 40
0.18362834
 40
0.2093876596
 40
0.2362029073
 40
0.2640592898
 40
0.2929393611
 40
0.322823436
 40
0.3855122696
 40
0.4519313893
 40
0.5218573588
 40
0.5950438491
 40
0.6712245377
 40
0.7501157803
 40
0.8314184881
 40
0.9148211419
 40
1.0
 40
1.0
 40
1.0
 40
1.0
 10
12.8724339432
 20
9.0116539689
 30
0.0
 10
12.8716002568
 20
9.0126790276
 30
0.0
 10
12.8699516865
 20
9.0148500153
 30
0.0
 10
12.8676006849
 20
9.0183454817
 30
0.0
 10
12.8653013154
 20
9.0221714822
 30
0.0
 10
12.8630560412
 20
9.026324011
 30
0.0
 10
12.8608669408
 20
9.0307988789
 30
0.0
 10
12.8587363233
 20
9.0355915311
 30
0.0
 10
12.8566662956
 20
9.0406970283
 30
0.0
 10
12.8546590712
 20
9.0461101136
 30
0.0
 10
12.8527166908
 20
9.0518251619
 30
0.0
 10
12.8508412418
 20
9.0578362339
 30
0.0
 10
12.8490346605
 20
9.064137052
 30
0.0
 10
12.8472988928
 20
9.0707210288
 30
0.0
 10
12.8456357224
 20
9.077581276
 30
0.0
 10
12.8434829996
 20
9.0872417572
 30
0.0
 10
12.8409995973
 20
9.0999600805
 30
0.0
 10
12.8383800187
 20
9.115968187
 30
0.0
 10
12.8360868146
 20
9.1328897825
 30
0.0
 10
12.834129836
 20
9.1506537511
 30
0.0
 10
12.8325175482
 20
9.1691855713
 30
0.0
 10
12.8312569199
 20
9.1884073185
 30
0.0
 10
12.8303533996
 20
9.2082381916
 30
0.0
 10
12.8298109236
 20
9.2285946204
 30
0.0
 10
12.8296926436
 20
9.242332317
 30
0.0
 10
12.8296926436
 20
9.2492733676
 30
0.0
  0
SPLINE
  5
40F
100
AcDbEntity
  8
0
100
AcDbSpline
 62
7
  6
CONTINUOUS
 70
0
 71
3
 72
36
 73
32
 74
0
 42
0.0000001
 43
0.0000001
 44
0.0000000001
 40
0.0
 40
0.0
 40
0.0
 40
0.0
 40
0.0070629542
 40
0.0144560476
 40
0.0221885417
 40
0.0302676268
 40
0.0386989591
 40
0.047486637
 40
0.0661393409
 40
0.0862373148
 40
0.1077754421
 40
0.1307367756
 40
0.1550946644
 40
0.180814328
 40
0.2078539701
 40
0.2361655803
 40
0.2656957512
 40
0.2963862893
 40
0.3281746583
 40
0.3609943548
 40
0.3947753836
 40
0.4294446044
 40
0.4649259997
 40
0.5011409668
 40
0.5380086724
 40
0.6133677199
 40
0.6903234294
 40
0.7681755273
 40
0.8462132329
 40
0.9237232259
 40
1.0
 40
1.0
 40
1.0
 40
1.0
 10
12.9172157074
 20
9.6573848894
 30
0.0
 10
12.9164855091
 20
9.6567053025
 30
0.0
 10
12.9150258669
 20
9.6552765039
 30
0.0
 10
12.9128866234
 20
9.6529853344
 30
0.0
 10
12.9107497174
 20
9.6504994757
 30
0.0
 10
12.9086164037
 20
9.647820525
 30
0.0
 10
12.9064879166
 20
9.6449500206
 30
0.0
 10
12.9036004763
 20
9.6407863234
 30
0.0
 10
12.9000218435
 20
9.6351013173
 30
0.0
 10
12.8958484187
 20
9.6276763029
 30
0.0
 10
12.8917243454
 20
9.6195356398
 30
0.0
 10
12.8876595703
 20
9.6106988398
 30
0.0
 10
12.8836639188
 20
9.6011868867
 30
0.0
 10
12.8797471416
 20
9.5910226154
 30
0.0
 10
12.8759188286
 20
9.5802305032
 30
0.0
 10
12.8721883425
 20
9.5688366482
 30
0.0
 10
12.8685648234
 20
9.5568686576
 30
0.0
 10
12.8650571593
 20
9.544355565
 30
0.0
 10
12.8616739573
 20
9.531327763
 30
0.0
 10
12.8584234943
 20
9.5178169319
 30
0.0
 10
12.8553137322
 20
9.5038559424
 30
0.0
 10
12.8523522921
 20
9.4894787655
 30
0.0
 10
12.8495464369
 20
9.4747204097
 30
0.0
 10
12.8469029889
 20
9.4596167952
 30
0.0
 10
12.8435795113
 20
9.4389166942
 30
0.0
 10
12.839885745
 20
9.4124512772
 30
0.0
 10
12.8362227398
 20
9.3801481507
 30
0.0
 10
12.8333337307
 20
9.347386817
 30
0.0
 10
12.8312468666
 20
9.3144861815
 30
0.0
 10
12.8299824601
 20
9.2817665012
 30
0.0
 10
12.8296926436
 20
9.2600460431
 30
0.0
 10
12.8296926436
 20
9.2492733676
 30
0.0
  0
SPLINE
  5
410
100
AcDbEntity
  8
0
100
AcDbSpline
 62
7
  6
CONTINUOUS
 70
0
 71
3
 72
39
 73
35
 74
0
 42
0.0000001
 43
0.0000001
 44
0.0000000001
 40
0.0
 40
0.0
 40
0.0
 40
0.0
 40
0.0063160487
 40
0.0126710049
 40
0.0191030143
 40
0.025648725
 40
0.0323427741
 40
0.0392173099
 40
0.0536154899
 40
0.0690526699
 40
0.0856860689
 40
0.1036343988
 40
0.1229845382
 40
0.1437975072
 40
0.1661135699
 40
0.1899565186
 40
0.215336667
 40
0.2422531964
 40
0.2706962121
 40
0.3006480089
 40
0.3320840834
 40
0.3649742158
 40
0.3992830292
 40
0.4349704483
 40
0.4719923721
 40
0.510300957
 40
0.5498448414
 40
0.5905696299
 40
0.6324180703
 40
0.6753301946
 40
0.7192436555
 40
0.8098126736
 40
0.9035864807
 40
1.0
 40
1.0
 40
1.0
 40
1.0
 10
12.8989893825
 20
6.9262378965
 30
0.0
 10
12.8981865434
 20
6.9262935729
 30
0.0
 10
12.8965797128
 20
6.9264709718
 30
0.0
 10
12.8941874718
 20
6.9269333915
 30
0.0
 10
12.8918112309
 20
6.927592129
 30
0.0
 10
12.8894523541
 20
6.9284466082
 30
0.0
 10
12.8871118093
 20
6.9294963627
 30
0.0
 10
12.8839689714
 20
6.9311811191
 30
0.0
 10
12.8800799542
 20
6.9338044033
 30
0.0
 10
12.8755817036
 20
6.9376713271
 30
0.0
 10
12.8711836765
 20
6.9422967122
 30
0.0
 10
12.8668909367
 20
6.9476719782
 30
0.0
 10
12.8627081569
 20
6.9537887423
 30
0.0
 10
12.8586408437
 20
6.9606375753
 30
0.0
 10
12.8546947214
 20
6.9682079319
 30
0.0
 10
12.8508757795
 20
6.9764880383
 30
0.0
 10
12.8471900069
 20
6.9854648308
 30
0.0
 10
12.8436432861
 20
6.9951239708
 30
0.0
 10
12.8402414177
 20
7.0054499213
 30
0.0
 10
12.8369900052
 20
7.016425956
 30
0.0
 10
12.8338943943
 20
7.0280341989
 30
0.0
 10
12.8309597397
 20
7.0402556946
 30
0.0
 10
12.8281909338
 20
7.0530704323
 30
0.0
 10
12.8255925574
 20
7.0664573807
 30
0.0
 10
12.8231689523
 20
7.0803945494
 30
0.0
 10
12.8209241715
 20
7.09485902
 30
0.0
 10
12.8188619303
 20
7.1098269806
 30
0.0
 10
12.816985673
 20
7.1252737839
 30
0.0
 10
12.815298551
 20
7.1411739765
 30
0.0
 10
12.8138033198
 20
7.1575013737
 30
0.0
 10
12.8120509888
 20
7.1800368875
 30
0.0
 10
12.8103721139
 20
7.209075408
 30
0.0
 10
12.8091730402
 20
7.2448312459
 30
0.0
 10
12.8089128221
 20
7.2690651825
 30
0.0
 10
12.8089128221
 20
7.2813498324
 30
0.0
  0
SPLINE
  5
411
100
AcDbEntity
  8
0
100
AcDbSpline
 62
7
  6
CONTINUOUS
 70
0
 71
3
 72
30
 73
26
 74
0
 42
0.0000001
 43
0.0000001
 44
0.0000000001
 40
0.0
 40
0.0
 40
0.0
 40
0.0
 40
0.0162144102
 40
0.0334276028
 40
0.0516720355
 40
0.0709712949
 40
0.0913408931
 40
0.1127901468
 40
0.135322532
 40
0.1589370491
 40
0.18362834
 40
0.2093876596
 40
0.2362029073
 40
0.2640592898
 40
0.2929393611
 40
0.322823436
 40
0.3855122696
 40
0.4519313893
 40
0.5218573588
 40
0.5950438491
 40
0.6712245377
 40
0.7501157803
 40
0.8314184881
 40
0.9148211419
 40
1.0
 40
1.0
 40
1.0
 40
1.0
 10
12.8724339432
 20
7.0798022019
 30
0.0
 10
12.8716002568
 20
7.0808272606
 30
0.0
 10
12.8699516865
 20
7.0829982482
 30
0.0
 10
12.8676006849
 20
7.0864937147
 30
0.0
 10
12.8653013154
 20
7.0903197152
 30
0.0
 10
12.8630560412
 20
7.0944722439
 30
0.0
 10
12.8608669408
 20
7.0989471119
 30
0.0
 10
12.8587363233
 20
7.103739764
 30
0.0
 10
12.8566662956
 20
7.1088452613
 30
0.0
 10
12.8546590712
 20
7.1142583466
 30
0.0
 10
12.8527166908
 20
7.1199733949
 30
0.0
 10
12.8508412418
 20
7.1259844668
 30
0.0
 10
12.8490346605
 20
7.132285285
 30
0.0
 10
12.8472988928
 20
7.1388692618
 30
0.0
 10
12.8456357224
 20
7.145729509
 30
0.0
 10
12.8434829996
 20
7.1553899901
 30
0.0
 10
12.8409995973
 20
7.1681083135
 30
0.0
 10
12.8383800187
 20
7.1841164199
 30
0.0
 10
12.8360868146
 20
7.2010380154
 30
0.0
 10
12.834129836
 20
7.2188019841
 30
0.0
 10
12.8325175482
 20
7.2373338043
 30
0.0
 10
12.8312569199
 20
7.2565555515
 30
0.0
 10
12.8303533996
 20
7.2763864246
 30
0.0
 10
12.8298109236
 20
7.2967428533
 30
0.0
 10
12.8296926436
 20
7.31048055
 30
0.0
 10
12.8296926436
 20
7.3174216006
 30
0.0
  0
SPLINE
  5
412
100
AcDbEntity
  8
0
100
AcDbSpline
 62
7
  6
CONTINUOUS
 70
0
 71
3
 72
36
 73
32
 74
0
 42
0.0000001
 43
0.0000001
 44
0.0000000001
 40
0.0
 40
0.0
 40
0.0
 40
0.0
 40
0.0070629542
 40
0.0144560476
 40
0.0221885417
 40
0.0302676268
 40
0.0386989591
 40
0.047486637
 40
0.0661393409
 40
0.0862373148
 40
0.1077754421
 40
0.1307367756
 40
0.1550946644
 40
0.180814328
 40
0.2078539701
 40
0.2361655803
 40
0.2656957512
 40
0.2963862893
 40
0.3281746583
 40
0.3609943548
 40
0.3947753836
 40
0.4294446044
 40
0.4649259997
 40
0.5011409668
 40
0.5380086724
 40
0.6133677199
 40
0.6903234294
 40
0.7681755273
 40
0.8462132329
 40
0.9237232259
 40
1.0
 40
1.0
 40
1.0
 40
1.0
 10
12.9172157074
 20
7.7255331224
 30
0.0
 10
12.9164855091
 20
7.7248535354
 30
0.0
 10
12.9150258669
 20
7.7234247369
 30
0.0
 10
12.9128866234
 20
7.7211335674
 30
0.0
 10
12.9107497174
 20
7.7186477087
 30
0.0
 10
12.9086164037
 20
7.715968758
 30
0.0
 10
12.9064879166
 20
7.7130982535
 30
0.0
 10
12.9036004763
 20
7.7089345563
 30
0.0
 10
12.9000218435
 20
7.7032495502
 30
0.0
 10
12.8958484187
 20
7.6958245359
 30
0.0
 10
12.8917243454
 20
7.6876838728
 30
0.0
 10
12.8876595703
 20
7.6788470728
 30
0.0
 10
12.8836639188
 20
7.6693351197
 30
0.0
 10
12.8797471416
 20
7.6591708484
 30
0.0
 10
12.8759188286
 20
7.6483787362
 30
0.0
 10
12.8721883425
 20
7.6369848811
 30
0.0
 10
12.8685648234
 20
7.6250168906
 30
0.0
 10
12.8650571593
 20
7.6125037979
 30
0.0
 10
12.8616739573
 20
7.5994759959
 30
0.0
 10
12.8584234943
 20
7.5859651649
 30
0.0
 10
12.8553137322
 20
7.5720041754
 30
0.0
 10
12.8523522921
 20
7.5576269985
 30
0.0
 10
12.8495464369
 20
7.5428686426
 30
0.0
 10
12.8469029889
 20
7.5277650282
 30
0.0
 10
12.8435795113
 20
7.5070649271
 30
0.0
 10
12.839885745
 20
7.4805995101
 30
0.0
 10
12.8362227398
 20
7.4482963836
 30
0.0
 10
12.8333337307
 20
7.4155350499
 30
0.0
 10
12.8312468666
 20
7.3826344144
 30
0.0
 10
12.8299824601
 20
7.3499147342
 30
0.0
 10
12.8296926436
 20
7.3281942761
 30
0.0
 10
12.8296926436
 20
7.3174216006
 30
0.0
  0
SPLINE
  5
413
100
AcDbEntity
  8
0
100
AcDbSpline
 62
7
  6
CONTINUOUS
 70
0
 71
3
 72
50
 73
46
 74
0
 42
0.0000001
 43
0.0000001
 44
0.0000000001
 40
0.0
 40
0.0
 40
0.0
 40
0.0
 40
0.0408516679
 40
0.0821465933
 40
0.1237664286
 40
0.1655935396
 40
0.2075083799
 40
0.2493915644
 40
0.2911236525
 40
0.3325858135
 40
0.3736601968
 40
0.4142303939
 40
0.4541818818
 40
0.4934024783
 40
0.5317828023
 40
0.5692167465
 40
0.6056019688
 40
0.6408404082
 40
0.6748388365
 40
0.7075094608
 40
0.738770597
 40
0.7685474455
 40
0.7967730157
 40
0.8102860387
 40
0.8233903056
 40
0.8360801856
 40
0.848350811
 40
0.8601981951
 40
0.8716191786
 40
0.882611748
 40
0.8931748742
 40
0.9033089622
 40
0.9130157103
 40
0.9222985782
 40
0.9311628192
 40
0.939615883
 40
0.9476677209
 40
0.9553311113
 40
0.9626222527
 40
0.9695610524
 40
0.9761718979
 40
0.9824839257
 40
0.9885316778
 40
0.9943551808
 40
1.0
 40
1.0
 40
1.0
 40
1.0
 10
11.1166788987
 20
11.1595445513
 30
0.0
 10
11.1081687213
 20
11.1601347341
 30
0.0
 10
11.0910466556
 20
11.1611901882
 30
0.0
 10
11.0652291165
 20
11.1623965067
 30
0.0
 10
11.0391930873
 20
11.1632322493
 30
0.0
 10
11.0130183166
 20
11.1636948775
 30
0.0
 10
10.9867846142
 20
11.1637829442
 30
0.0
 10
10.9605721742
 20
11.1634961936
 30
0.0
 10
10.9344610414
 20
11.1628355001
 30
0.0
 10
10.9085309792
 20
11.1618028986
 30
0.0
 10
10.8828611853
 20
11.1604015636
 30
0.0
 10
10.8575300603
 20
11.1586358059
 30
0.0
 10
10.8326149619
 20
11.1565110582
 30
0.0
 10
10.8081919666
 20
11.154033861
 30
0.0
 10
10.7843356339
 20
11.1512118417
 30
0.0
 10
10.7611187752
 20
11.1480536919
 30
0.0
 10
10.7386122259
 20
11.144569142
 30
0.0
 10
10.7168846247
 20
11.1407689322
 30
0.0
 10
10.6960021876
 20
11.1366647812
 30
0.0
 10
10.6760285201
 20
11.1322693466
 30
0.0
 10
10.6570243142
 20
11.1275961959
 30
0.0
 10
10.6390474616
 20
11.1226597224
 30
0.0
 10
10.6247680372
 20
11.1182780405
 30
0.0
 10
10.6139078165
 20
11.1146419607
 30
0.0
 10
10.6061713679
 20
11.111898257
 30
0.0
 10
10.5987308679
 20
11.109100383
 30
0.0
 10
10.5915919634
 20
11.1062504273
 30
0.0
 10
10.584760062
 20
11.1033506134
 30
0.0
 10
10.5782403555
 20
11.1004030808
 30
0.0
 10
10.5720377497
 20
11.0974101507
 30
0.0
 10
10.5661569528
 20
11.0943739935
 30
0.0
 10
10.5606023582
 20
11.0912969875
 30
0.0
 10
10.5553781633
 20
11.0881813512
 30
0.0
 10
10.5504882501
 20
11.0850294567
 30
0.0
 10
10.5459362783
 20
11.081843578
 30
0.0
 10
10.541725636
 20
11.0786260187
 30
0.0
 10
10.5378594342
 20
11.0753790862
 30
0.0
 10
10.5343406101
 20
11.0721049661
 30
0.0
 10
10.5311717618
 20
11.0688059463
 30
0.0
 10
10.5283554616
 20
11.0654840857
 30
0.0
 10
10.5258939224
 20
11.0621416011
 30
0.0
 10
10.5237894867
 20
11.0587805555
 30
0.0
 10
10.5220441715
 20
11.0554030725
 30
0.0
 10
10.5206602564
 20
11.0520119438
 30
0.0
 10
10.5199709097
 20
11.0497136545
 30
0.0
 10
10.5196906076
 20
11.0485687196
 30
0.0
  0
SPLINE
  5
414
100
AcDbEntity
  8
0
100
AcDbSpline
 62
7
  6
CONTINUOUS
 70
0
 71
3
 72
37
 73
33
 74
0
 42
0.0000001
 43
0.0000001
 44
0.0000000001
 40
0.0
 40
0.0
 40
0.0
 40
0.0
 40
0.0933983746
 40
0.1844039666
 40
0.2725246689
 40
0.3153550329
 40
0.3572888947
 40
0.3982711987
 40
0.4382490053
 40
0.477171367
 40
0.5149895649
 40
0.5516574494
 40
0.5871313631
 40
0.6213706528
 40
0.6543378308
 40
0.6859987433
 40
0.7163232743
 40
0.7452854602
 40
0.7728641588
 40
0.7990438745
 40
0.8238152614
 40
0.8471765402
 40
0.8691347308
 40
0.889707291
 40
0.9089247687
 40
0.9268334003
 40
0.9434989743
 40
0.9590114448
 40
0.9734896946
 40
0.9870866625
 40
0.9936162799
 40
1.0
 40
1.0
 40
1.0
 40
1.0
 10
13.0393358971
 20
9.4517732125
 30
0.0
 10
13.0393358971
 20
9.4634170543
 30
0.0
 10
13.0391018594
 20
9.4864072599
 30
0.0
 10
13.0380247035
 20
9.5203679913
 30
0.0
 10
13.036517174
 20
9.5480008039
 30
0.0
 10
13.0349440412
 20
9.5694971183
 30
0.0
 10
13.0336000974
 20
9.5851165071
 30
0.0
 10
13.0320829394
 20
9.6003626949
 30
0.0
 10
13.0303948455
 20
9.6152131485
 30
0.0
 10
13.0285383309
 20
9.6296459025
 30
0.0
 10
13.0265161495
 20
9.6436396231
 30
0.0
 10
13.0243313609
 20
9.6571736327
 30
0.0
 10
13.0219871902
 20
9.6702279425
 30
0.0
 10
13.0194871536
 20
9.6827832885
 30
0.0
 10
13.0168350032
 20
9.6948211612
 30
0.0
 10
13.0140346504
 20
9.7063238292
 30
0.0
 10
13.0110903145
 20
9.7172743884
 30
0.0
 10
13.0080063591
 20
9.7276567753
 30
0.0
 10
13.0047873349
 20
9.7374558003
 30
0.0
 10
13.0014380454
 20
9.7466572025
 30
0.0
 10
12.997963345
 20
9.7552476392
 30
0.0
 10
12.9943682828
 20
9.7632147576
 30
0.0
 10
12.990657994
 20
9.7705472144
 30
0.0
 10
12.9868375324
 20
9.7772346439
 30
0.0
 10
12.9829120108
 20
9.7832677479
 30
0.0
 10
12.9788862335
 20
9.7886381647
 30
0.0
 10
12.9747647572
 20
9.7933382977
 30
0.0
 10
12.9705515097
 20
9.7973612861
 30
0.0
 10
12.9662509158
 20
9.8006998473
 30
0.0
 10
12.9625467017
 20
9.8029355833
 30
0.0
 10
12.9595588665
 20
9.8043532483
 30
0.0
 10
12.9580587303
 20
9.8049419577
 30
0.0
 10
12.9573078108
 20
9.8052055785
 30
0.0
  0
SPLINE
  5
415
100
AcDbEntity
  8
0
100
AcDbSpline
 62
7
  6
CONTINUOUS
 70
0
 71
3
 72
50
 73
46
 74
0
 42
0.0000001
 43
0.0000001
 44
0.0000000001
 40
0.0
 40
0.0
 40
0.0
 40
0.0
 40
0.040766148
 40
0.0819973986
 40
0.1235743412
 40
0.1653781404
 40
0.2072880199
 40
0.2491832834
 40
0.2909431214
 40
0.3324472725
 40
0.3735763979
 40
0.4142125446
 40
0.4542395897
 40
0.4935436961
 40
0.532013773
 40
0.5695419466
 40
0.6060240477
 40
0.6413601211
 40
0.6754549692
 40
0.7082187408
 40
0.7395675868
 40
0.7694244109
 40
0.7977197581
 40
0.8112629791
 40
0.8243938825
 40
0.8371064337
 40
0.8493953966
 40
0.8612563327
 40
0.8726856597
 40
0.8836808633
 40
0.8942404111
 40
0.9043641555
 40
0.9140531888
 40
0.9233103557
 40
0.932140197
 40
0.9405494701
 40
0.948547327
 40
0.9561457891
 40
0.9633602346
 40
0.9702098324
 40
0.9767182944
 40
0.9829142595
 40
0.9888320611
 40
0.9945118841
 40
1.0
 40
1.0
 40
1.0
 40
1.0
 10
13.0393358971
 20
9.4517732125
 30
0.0
 10
13.0393358971
 20
9.4432339878
 30
0.0
 10
13.0392075252
 20
9.4260578639
 30
0.0
 10
13.0386396837
 20
9.4001783214
 30
0.0
 10
13.0376969575
 20
9.3740921856
 30
0.0
 10
13.03638227
 20
9.3478798481
 30
0.0
 10
13.0346996191
 20
9.3216217436
 30
0.0
 10
13.0326541922
 20
9.2953986417
 30
0.0
 10
13.0302522725
 20
9.2692911238
 30
0.0
 10
13.027501259
 20
9.243379442
 30
0.0
 10
13.0244096266
 20
9.2177432345
 30
0.0
 10
13.020986907
 20
9.19246129
 30
0.0
 10
13.0172436574
 20
9.1676113005
 30
0.0
 10
13.0131914312
 20
9.1432696194
 30
0.0
 10
13.0088427409
 20
9.1195110243
 30
0.0
 10
13.0042110208
 20
9.0964084834
 30
0.0
 10
12.9993105861
 20
9.0740329259
 30
0.0
 10
12.9941565899
 20
9.0524530203
 30
0.0
 10
12.9887649775
 20
9.0317349471
 30
0.0
 10
12.9831524346
 20
9.0119422092
 30
0.0
 10
12.9773363425
 20
8.9931353332
 30
0.0
 10
12.9713346929
 20
8.9753719675
 30
0.0
 10
12.9661209356
 20
8.9612853605
 30
0.0
 10
12.9618612638
 20
8.9505873798
 30
0.0
 10
12.9586784151
 20
8.9429753072
 30
0.0
 10
12.9554631962
 20
8.9356629437
 30
0.0
 10
12.9522180611
 20
8.9286558705
 30
0.0
 10
12.9489455185
 20
8.9219594344
 30
0.0
 10
12.9456480387
 20
8.9155787514
 30
0.0
 10
12.9423282019
 20
8.9095186559
 30
0.0
 10
12.9389884603
 20
8.9037837772
 30
0.0
 10
12.935631438
 20
8.8983784208
 30
0.0
 10
12.932259574
 20
8.8933067067
 30
0.0
 10
12.9288754788
 20
8.8885724082
 30
0.0
 10
12.9254815861
 20
8.8841791093
 30
0.0
 10
12.9220804211
 20
8.880130068
 30
0.0
 10
12.9186743999
 20
8.8764283167
 30
0.0
 10
12.9152658942
 20
8.8730766449
 30
0.0
 10
12.9118572616
 20
8.8700775595
 30
0.0
 10
12.9084506844
 20
8.8674334822
 30
0.0
 10
12.9050484171
 20
8.8651465085
 30
0.0
 10
12.9016525583
 20
8.8632188659
 30
0.0
 10
12.8982652336
 20
8.8616524376
 30
0.0
 10
12.8948892189
 20
8.8604494553
 30
0.0
 10
12.8926146449
 20
8.859882807
 30
0.0
 10
12.8914860336
 20
8.8596642024
 30
0.0
  0
SPLINE
  5
416
100
AcDbEntity
  8
0
100
AcDbSpline
 62
7
  6
CONTINUOUS
 70
0
 71
3
 72
54
 73
50
 74
0
 42
0.0000001
 43
0.0000001
 44
0.0000000001
 40
0.0
 40
0.0
 40
0.0
 40
0.0
 40
0.0452109975
 40
0.0910031439
 40
0.1371917004
 40
0.1835902123
 40
0.230010951
 40
0.276266156
 40
0.3221688865
 40
0.3675340284
 40
0.4121792524
 40
0.4559260001
 40
0.4986004801
 40
0.5400346915
 40
0.5800674858
 40
0.6185456896
 40
0.6553253192
 40
0.6902729346
 40
0.7232672083
 40
0.7389983313
 40
0.7542021463
 40
0.7688678608
 40
0.7829858402
 40
0.7965478683
 40
0.8095471391
 40
0.8219786196
 40
0.8338390662
 40
0.8451275217
 40
0.8558454032
 40
0.8659971849
 40
0.8755906333
 40
0.8846377479
 40
0.8931552484
 40
0.9011658517
 40
0.9086990907
 40
0.9157928906
 40
0.922494554
 40
0.9288621098
 40
0.9349645468
 40
0.9408814424
 40
0.9467007488
 40
0.9525153099
 40
0.9584182125
 40
0.9644980872
 40
0.9708354869
 40
0.9775005081
 40
0.984552298
 40
0.9920391814
 40
1.0
 40
1.0
 40
1.0
 40
1.0
 10
13.0031012607
 20
9.4167732393
 30
0.0
 10
13.0031012607
 20
9.4096308142
 30
0.0
 10
13.0029738766
 20
9.3952538649
 30
0.0
 10
13.0024121984
 20
9.3735866526
 30
0.0
 10
13.0014808109
 20
9.3517443621
 30
0.0
 10
13.0001837138
 20
9.3298212889
 30
0.0
 10
12.9985264856
 20
9.3079119315
 30
0.0
 10
12.9965162816
 20
9.2861107819
 30
0.0
 10
12.9941617898
 20
9.2645118435
 30
0.0
 10
12.9914732006
 20
9.2432082457
 30
0.0
 10
12.9884621605
 20
9.2222918308
 30
0.0
 10
12.9851417238
 20
9.2018527552
 30
0.0
 10
12.9815262979
 20
9.1819790928
 30
0.0
 10
12.9776315819
 20
9.1627564497
 30
0.0
 10
12.9734745024
 20
9.1442675756
 30
0.0
 10
12.9690731378
 20
9.1265920185
 30
0.0
 10
12.9644466544
 20
9.1098056665
 30
0.0
 10
12.9596151745
 20
9.0939807119
 30
0.0
 10
12.9553709688
 20
9.0814592043
 30
0.0
 10
12.9518785444
 20
9.0719822288
 30
0.0
 10
12.9492628217
 20
9.0652694171
 30
0.0
 10
12.9466118533
 20
9.0588452718
 30
0.0
 10
12.9439284391
 20
9.0527166801
 30
0.0
 10
12.9412155156
 20
9.046890194
 30
0.0
 10
12.9384759593
 20
9.0413720468
 30
0.0
 10
12.9357127559
 20
9.0361681019
 30
0.0
 10
12.9329288053
 20
9.0312839015
 30
0.0
 10
12.9301271201
 20
9.0267245861
 30
0.0
 10
12.9273105835
 20
9.0224949788
 30
0.0
 10
12.9244821887
 20
9.0185994682
 30
0.0
 10
12.9216447411
 20
9.0150421465
 30
0.0
 10
12.9188011364
 20
9.0118266462
 30
0.0
 10
12.9159540092
 20
9.0089563669
 30
0.0
 10
12.9131060488
 20
9.0064342621
 30
0.0
 10
12.9102596252
 20
9.0042632104
 30
0.0
 10
12.9074171711
 20
9.0024457515
 30
0.0
 10
12.9045809048
 20
9.0009846401
 30
0.0
 10
12.9017533699
 20
8.9998824406
 30
0.0
 10
12.8989374261
 20
8.9991420803
 30
0.0
 10
12.8961368335
 20
8.9987659341
 30
0.0
 10
12.8933561783
 20
8.9987560063
 30
0.0
 10
12.8906006723
 20
8.9991125966
 30
0.0
 10
12.8878754825
 20
8.9998348412
 30
0.0
 10
12.8851849717
 20
9.0009202124
 30
0.0
 10
12.8825326337
 20
9.0023658847
 30
0.0
 10
12.8799209655
 20
9.0041685391
 30
0.0
 10
12.8773521396
 20
9.0063253199
 30
0.0
 10
12.87482809
 20
9.0088330224
 30
0.0
 10
12.8732274808
 20
9.0106782752
 30
0.0
 10
12.8724339432
 20
9.0116539689
 30
0.0
  0
SPLINE
  5
417
100
AcDbEntity
  8
0
100
AcDbSpline
 62
7
  6
CONTINUOUS
 70
0
 71
3
 72
46
 73
42
 74
0
 42
0.0000001
 43
0.0000001
 44
0.0000000001
 40
0.0
 40
0.0
 40
0.0
 40
0.0
 40
0.0840358284
 40
0.1695037947
 40
0.2553460559
 40
0.2980757278
 40
0.340500214
 40
0.3824883024
 40
0.4239105151
 40
0.4646396456
 40
0.504551292
 40
0.5435244077
 40
0.5814418763
 40
0.6181911141
 40
0.6536646815
 40
0.6877609511
 40
0.7203848477
 40
0.7514486897
 40
0.7808731856
 40
0.8085886675
 40
0.8345366028
 40
0.8468337406
 40
0.8586731578
 40
0.8700517953
 40
0.8809676529
 40
0.89142018
 40
0.9014104209
 40
0.9109410744
 40
0.9200170989
 40
0.9286456265
 40
0.9368367574
 40
0.9446037502
 40
0.9519636899
 40
0.9589382036
 40
0.9655539234
 40
0.9718435101
 40
0.9778459532
 40
0.9836071902
 40
0.9891799357
 40
0.9946230183
 40
1.0
 40
1.0
 40
1.0
 40
1.0
 10
12.9602351957
 20
9.4103677976
 30
0.0
 10
12.9602351957
 20
9.3991090412
 30
0.0
 10
12.9598818955
 20
9.3763983271
 30
0.0
 10
12.9583486423
 20
9.3422181843
 30
0.0
 10
12.9562428473
 20
9.3136150798
 30
0.0
 10
12.9540664722
 20
9.2908086757
 30
0.0
 10
12.9522006712
 20
9.2738765513
 30
0.0
 10
12.9501052544
 20
9.2571478489
 30
0.0
 10
12.947787142
 20
9.2406778569
 30
0.0
 10
12.945254044
 20
9.2245210588
 30
0.0
 10
12.9425143759
 20
9.2087308795
 30
0.0
 10
12.9395772463
 20
9.1933595253
 30
0.0
 10
12.9364524258
 20
9.1784577997
 30
0.0
 10
12.9331503197
 20
9.1640749306
 30
0.0
 10
12.9296819272
 20
9.1502584017
 30
0.0
 10
12.9260588067
 20
9.1370537921
 30
0.0
 10
12.9222930369
 20
9.1245046077
 30
0.0
 10
12.918397174
 20
9.112652149
 30
0.0
 10
12.9143842014
 20
9.1015352527
 30
0.0
 10
12.9102674836
 20
9.091190459
 30
0.0
 10
12.906700791
 20
9.0831022922
 30
0.0
 10
12.9037973391
 20
9.0770523392
 30
0.0
 10
12.9016413648
 20
9.0728101377
 30
0.0
 10
12.8994697475
 20
9.0687849705
 30
0.0
 10
12.8972842041
 20
9.064980133
 30
0.0
 10
12.895086529
 20
9.061398727
 30
0.0
 10
12.8928785396
 20
9.0580436411
 30
0.0
 10
12.8906619478
 20
9.0549176229
 30
0.0
 10
12.8884385986
 20
9.0520231453
 30
0.0
 10
12.8862101557
 20
9.0493625772
 30
0.0
 10
12.8839783837
 20
9.0469380193
 30
0.0
 10
12.8817449319
 20
9.044751432
 30
0.0
 10
12.8795113927
 20
9.0428046322
 30
0.0
 10
12.8772793845
 20
9.0410992062
 30
0.0
 10
12.8750503383
 20
9.0396367988
 30
0.0
 10
12.8728258261
 20
9.0384187964
 30
0.0
 10
12.8706073122
 20
9.0374467572
 30
0.0
 10
12.8683965318
 20
9.0367220956
 30
0.0
 10
12.8661953083
 20
9.0362461889
 30
0.0
 10
12.864006299
 20
9.036020277
 30
0.0
 10
12.8625529852
 20
9.0360368453
 30
0.0
 10
12.8618343264
 20
9.0360866819
 30
0.0
  0
SPLINE
  5
418
100
AcDbEntity
  8
0
100
AcDbSpline
 62
7
  6
CONTINUOUS
 70
0
 71
3
 72
51
 73
47
 74
0
 42
0.0000001
 43
0.0000001
 44
0.0000000001
 40
0.0
 40
0.0
 40
0.0
 40
0.0
 40
0.1056319858
 40
0.1571426222
 40
0.2076331008
 40
0.2569932707
 40
0.3051173528
 40
0.351903608
 40
0.397254311
 40
0.4410766427
 40
0.483283102
 40
0.5237919653
 40
0.5625279634
 40
0.5994232126
 40
0.6344180356
 40
0.667462038
 40
0.6985156652
 40
0.7275522686
 40
0.7545605124
 40
0.7673067555
 40
0.7795506802
 40
0.7912968834
 40
0.8025520146
 40
0.8133248845
 40
0.8236265807
 40
0.8334712276
 40
0.8428760438
 40
0.8518618344
 40
0.8604537129
 40
0.8686812194
 40
0.8765789669
 40
0.8841869785
 40
0.8915505934
 40
0.8987205002
 40
0.9057520306
 40
0.9127041232
 40
0.9196379747
 40
0.9266152803
 40
0.9336965258
 40
0.9409393008
 40
0.9483971427
 40
0.9561186186
 40
0.9641468472
 40
0.972519657
 40
0.9812695267
 40
1.0
 40
1.0
 40
1.0
 40
1.0
 10
13.0031012607
 20
9.4167732393
 30
0.0
 10
13.0031012607
 20
9.4271503338
 30
0.0
 10
13.002903011
 20
9.442588947
 30
0.0
 10
13.0022141959
 20
9.4629753024
 30
0.0
 10
13.001498128
 20
9.4778280804
 30
0.0
 10
13.0005800875
 20
9.4923363957
 30
0.0
 10
12.9994622833
 20
9.506465741
 30
0.0
 10
12.9981474289
 20
9.5201825265
 30
0.0
 10
12.9966386774
 20
9.5334541733
 30
0.0
 10
12.9949396747
 20
9.5462491626
 30
0.0
 10
12.993054532
 20
9.5585371422
 30
0.0
 10
12.9909877963
 20
9.5702889813
 30
0.0
 10
12.9887444366
 20
9.5814768538
 30
0.0
 10
12.986329874
 20
9.5920743278
 30
0.0
 10
12.9837499288
 20
9.6020564453
 30
0.0
 10
12.9810107882
 20
9.6113997479
 30
0.0
 10
12.9781189721
 20
9.6200825014
 30
0.0
 10
12.9750813481
 20
9.628084356
 30
0.0
 10
12.9723847705
 20
9.6342845992
 30
0.0
 10
12.9701512397
 20
9.6388793671
 30
0.0
 10
12.9684765476
 20
9.6420768638
 30
0.0
 10
12.9667708437
 20
9.6450907597
 30
0.0
 10
12.9650350842
 20
9.6479193128
 30
0.0
 10
12.9632702875
 20
9.6505609024
 30
0.0
 10
12.961477362
 20
9.6530139573
 30
0.0
 10
12.9596573301
 20
9.6552770821
 30
0.0
 10
12.9578111504
 20
9.6573489538
 30
0.0
 10
12.9559397233
 20
9.6592282866
 30
0.0
 10
12.9540440547
 20
9.6609139759
 30
0.0
 10
12.9521250434
 20
9.6624048831
 30
0.0
 10
12.950183634
 20
9.6636999182
 30
0.0
 10
12.9482208749
 20
9.664798122
 30
0.0
 10
12.9462378027
 20
9.6656984106
 30
0.0
 10
12.9442356666
 20
9.6663998754
 30
0.0
 10
12.9422158623
 20
9.6669017421
 30
0.0
 10
12.940179925
 20
9.6672032649
 30
0.0
 10
12.938129566
 20
9.6673041761
 30
0.0
 10
12.9360665083
 20
9.6672044022
 30
0.0
 10
12.9339924612
 20
9.6669041222
 30
0.0
 10
12.9319089842
 20
9.6664039585
 30
0.0
 10
12.9298175176
 20
9.6657045243
 30
0.0
 10
12.9277193513
 20
9.6648066178
 30
0.0
 10
12.9256156523
 20
9.6637111813
 30
0.0
 10
12.9235074709
 20
9.6624189813
 30
0.0
 10
12.920626952
 20
9.6603890227
 30
0.0
 10
12.9185626597
 20
9.6586384822
 30
0.0
 10
12.9172157074
 20
9.6573848894
 30
0.0
  0
SPLINE
  5
419
100
AcDbEntity
  8
0
100
AcDbSpline
 62
7
  6
CONTINUOUS
 70
0
 71
3
 72
40
 73
36
 74
0
 42
0.0000001
 43
0.0000001
 44
0.0000000001
 40
0.0
 40
0.0
 40
0.0
 40
0.0
 40
0.0958313942
 40
0.1891002647
 40
0.2345968572
 40
0.2792418246
 40
0.3229685208
 40
0.3657122006
 40
0.4074103678
 40
0.4480029235
 40
0.4874324938
 40
0.5256446288
 40
0.5625879571
 40
0.5982146449
 40
0.6324807089
 40
0.6653462684
 40
0.6967761797
 40
0.726740616
 40
0.7552155901
 40
0.7821839813
 40
0.8076366973
 40
0.8315738943
 40
0.8540069453
 40
0.8749609221
 40
0.8944774791
 40
0.9126189086
 40
0.9294731653
 40
0.9451593877
 40
0.9598338606
 40
0.9668558898
 40
0.9737029137
 40
0.9804063094
 40
0.9869997155
 40
0.9935186468
 40
1.0
 40
1.0
 40
1.0
 40
1.0
 10
11.1166788987
 20
11.1749993661
 30
0.0
 10
11.1290508005
 20
11.1741413718
 30
0.0
 10
11.1534458467
 20
11.1721761892
 30
0.0
 10
11.183644412
 20
11.1690248012
 30
0.0
 10
11.2072010488
 20
11.1661134363
 30
0.0
 10
11.2243655889
 20
11.1637644717
 30
0.0
 10
11.2411444347
 20
11.1612360631
 30
0.0
 10
11.2575095854
 20
11.1585324403
 30
0.0
 10
11.2734336902
 20
11.1556581661
 30
0.0
 10
11.2888901459
 20
11.1526180495
 30
0.0
 10
11.3038531476
 20
11.1494172124
 30
0.0
 10
11.3182977268
 20
11.1460610528
 30
0.0
 10
11.332199785
 20
11.1425551923
 30
0.0
 10
11.3455361552
 20
11.1389055311
 30
0.0
 10
11.3582846417
 20
11.1351182245
 30
0.0
 10
11.370424044
 20
11.1311996124
 30
0.0
 10
11.3819342185
 20
11.1271562686
 30
0.0
 10
11.3927961253
 20
11.1229949879
 30
0.0
 10
11.4029918407
 20
11.1187226932
 30
0.0
 10
11.4125046202
 20
11.1143464645
 30
0.0
 10
11.4213189563
 20
11.1098735299
 30
0.0
 10
11.4294205715
 20
11.1053111265
 30
0.0
 10
11.4367964654
 20
11.1006664743
 30
0.0
 10
11.443434957
 20
11.0959467403
 30
0.0
 10
11.4493255898
 20
11.0911587641
 30
0.0
 10
11.4544589657
 20
11.0863090635
 30
0.0
 10
11.4588266821
 20
11.0814033471
 30
0.0
 10
11.4624202448
 20
11.0764478318
 30
0.0
 10
11.4647971456
 20
11.0722185814
 30
0.0
 10
11.4662788558
 20
11.0688322222
 30
0.0
 10
11.4671759299
 20
11.0663231924
 30
0.0
 10
11.4678743239
 20
11.0638092229
 30
0.0
 10
11.4683735993
 20
11.0612913441
 30
0.0
 10
11.4686732743
 20
11.0587710072
 30
0.0
 10
11.4687399451
 20
11.0570878794
 30
0.0
 10
11.4687399407
 20
11.0562491223
 30
0.0
  0
SPLINE
  5
41A
100
AcDbEntity
  8
0
100
AcDbSpline
 62
7
  6
CONTINUOUS
 70
0
 71
3
 72
37
 73
33
 74
0
 42
0.0000001
 43
0.0000001
 44
0.0000000001
 40
0.0
 40
0.0
 40
0.0
 40
0.0
 40
0.0964145795
 40
0.19018916
 40
0.2807592518
 40
0.3675836637
 40
0.4094325161
 40
0.4501577696
 40
0.4897020314
 40
0.5280110241
 40
0.5650333313
 40
0.6007211234
 40
0.635030306
 40
0.6679207491
 40
0.6993572094
 40
0.7293092709
 40
0.7577525933
 40
0.7846694572
 40
0.8100498039
 40
0.8338930609
 40
0.8562093492
 40
0.8770225229
 40
0.8963728982
 40
0.9143214035
 40
0.930955005
 40
0.9463923245
 40
0.9607906812
 40
0.9743510082
 40
0.9808967954
 40
0.9873288572
 40
0.993683884
 40
1.0
 40
1.0
 40
1.0
 40
1.0
 10
12.9602351957
 20
9.4103677976
 30
0.0
 10
12.9602351957
 20
9.418126527
 30
0.0
 10
12.9600708405
 20
9.4334321322
 30
0.0
 10
12.959313567
 20
9.4560148687
 30
0.0
 10
12.9580537424
 20
9.4778023746
 30
0.0
 10
12.9565749105
 20
9.4953858308
 30
0.0
 10
12.9551365608
 20
9.5089421078
 30
0.0
 10
12.9539515552
 20
9.5186979914
 30
0.0
 10
12.9526490807
 20
9.5281514361
 30
0.0
 10
12.9512313295
 20
9.5372868889
 30
0.0
 10
12.949700631
 20
9.5460893101
 30
0.0
 10
12.9480595513
 20
9.5545442243
 30
0.0
 10
12.9463108383
 20
9.5626377414
 30
0.0
 10
12.9444573605
 20
9.5703565796
 30
0.0
 10
12.9425022572
 20
9.5776881037
 30
0.0
 10
12.9404487196
 20
9.5846203328
 30
0.0
 10
12.9383001728
 20
9.591141986
 30
0.0
 10
12.9360601571
 20
9.5972425015
 30
0.0
 10
12.9337322758
 20
9.6029120472
 30
0.0
 10
12.9313203348
 20
9.6081415962
 30
0.0
 10
12.9288280422
 20
9.612922874
 30
0.0
 10
12.9262592041
 20
9.6172484505
 30
0.0
 10
12.923617474
 20
9.6211116762
 30
0.0
 10
12.9209062197
 20
9.6245065888
 30
0.0
 10
12.9181286608
 20
9.6274278534
 30
0.0
 10
12.9152872257
 20
9.6298702632
 30
0.0
 10
12.9123851001
 20
9.6318283022
 30
0.0
 10
12.9098879927
 20
9.6330657905
 30
0.0
 10
12.9078783653
 20
9.6337936978
 30
0.0
 10
12.9063775377
 20
9.6342097388
 30
0.0
 10
12.9048666633
 20
9.6345017988
 30
0.0
 10
12.9038518225
 20
9.6346138656
 30
0.0
 10
12.9033447661
 20
9.6346490283
 30
0.0
  0
SPLINE
  5
41B
100
AcDbEntity
  8
0
100
AcDbSpline
 62
7
  6
CONTINUOUS
 70
0
 71
3
 72
37
 73
33
 74
0
 42
0.0000001
 43
0.0000001
 44
0.0000000001
 40
0.0
 40
0.0
 40
0.0
 40
0.0
 40
0.0933983746
 40
0.1844039666
 40
0.2725246689
 40
0.3153550329
 40
0.3572888947
 40
0.3982711987
 40
0.4382490053
 40
0.477171367
 40
0.5149895649
 40
0.5516574494
 40
0.5871313631
 40
0.6213706528
 40
0.6543378308
 40
0.6859987433
 40
0.7163232743
 40
0.7452854602
 40
0.7728641588
 40
0.7990438745
 40
0.8238152614
 40
0.8471765402
 40
0.8691347308
 40
0.889707291
 40
0.9089247687
 40
0.9268334003
 40
0.9434989743
 40
0.9590114448
 40
0.9734896946
 40
0.9870866625
 40
0.9936162799
 40
1.0
 40
1.0
 40
1.0
 40
1.0
 10
13.0393358971
 20
7.5199214455
 30
0.0
 10
13.0393358971
 20
7.5315652873
 30
0.0
 10
13.0391018594
 20
7.5545554928
 30
0.0
 10
13.0380247035
 20
7.5885162242
 30
0.0
 10
13.036517174
 20
7.6161490368
 30
0.0
 10
13.0349440412
 20
7.6376453513
 30
0.0
 10
13.0336000974
 20
7.65326474
 30
0.0
 10
13.0320829394
 20
7.6685109278
 30
0.0
 10
13.0303948455
 20
7.6833613814
 30
0.0
 10
13.0285383309
 20
7.6977941355
 30
0.0
 10
13.0265161495
 20
7.7117878561
 30
0.0
 10
13.0243313609
 20
7.7253218657
 30
0.0
 10
13.0219871902
 20
7.7383761754
 30
0.0
 10
13.0194871536
 20
7.7509315214
 30
0.0
 10
13.0168350032
 20
7.7629693942
 30
0.0
 10
13.0140346504
 20
7.7744720621
 30
0.0
 10
13.0110903145
 20
7.7854226213
 30
0.0
 10
13.0080063591
 20
7.7958050082
 30
0.0
 10
13.0047873349
 20
7.8056040333
 30
0.0
 10
13.0014380454
 20
7.8148054354
 30
0.0
 10
12.997963345
 20
7.8233958722
 30
0.0
 10
12.9943682828
 20
7.8313629905
 30
0.0
 10
12.990657994
 20
7.8386954473
 30
0.0
 10
12.9868375324
 20
7.8453828768
 30
0.0
 10
12.9829120108
 20
7.8514159809
 30
0.0
 10
12.9788862335
 20
7.8567863977
 30
0.0
 10
12.9747647572
 20
7.8614865306
 30
0.0
 10
12.9705515097
 20
7.865509519
 30
0.0
 10
12.9662509158
 20
7.8688480803
 30
0.0
 10
12.9625467017
 20
7.8710838163
 30
0.0
 10
12.9595588665
 20
7.8725014812
 30
0.0
 10
12.9580587303
 20
7.8730901906
 30
0.0
 10
12.9573078108
 20
7.8733538115
 30
0.0
  0
SPLINE
  5
41C
100
AcDbEntity
  8
0
100
AcDbSpline
 62
7
  6
CONTINUOUS
 70
0
 71
3
 72
50
 73
46
 74
0
 42
0.0000001
 43
0.0000001
 44
0.0000000001
 40
0.0
 40
0.0
 40
0.0
 40
0.0
 40
0.040766148
 40
0.0819973986
 40
0.1235743412
 40
0.1653781404
 40
0.2072880199
 40
0.2491832834
 40
0.2909431214
 40
0.3324472725
 40
0.3735763979
 40
0.4142125446
 40
0.4542395897
 40
0.4935436961
 40
0.532013773
 40
0.5695419466
 40
0.6060240477
 40
0.6413601211
 40
0.6754549692
 40
0.7082187408
 40
0.7395675868
 40
0.7694244109
 40
0.7977197581
 40
0.8112629791
 40
0.8243938825
 40
0.8371064337
 40
0.8493953966
 40
0.8612563327
 40
0.8726856597
 40
0.8836808633
 40
0.8942404111
 40
0.9043641555
 40
0.9140531888
 40
0.9233103557
 40
0.932140197
 40
0.9405494701
 40
0.948547327
 40
0.9561457891
 40
0.9633602346
 40
0.9702098324
 40
0.9767182944
 40
0.9829142595
 40
0.9888320611
 40
0.9945118841
 40
1.0
 40
1.0
 40
1.0
 40
1.0
 10
13.0393358971
 20
7.5199214455
 30
0.0
 10
13.0393358971
 20
7.5113822207
 30
0.0
 10
13.0392075252
 20
7.4942060968
 30
0.0
 10
13.0386396837
 20
7.4683265544
 30
0.0
 10
13.0376969575
 20
7.4422404185
 30
0.0
 10
13.03638227
 20
7.416028081
 30
0.0
 10
13.0346996191
 20
7.3897699765
 30
0.0
 10
13.0326541922
 20
7.3635468747
 30
0.0
 10
13.0302522725
 20
7.3374393567
 30
0.0
 10
13.027501259
 20
7.311527675
 30
0.0
 10
13.0244096266
 20
7.2858914674
 30
0.0
 10
13.020986907
 20
7.260609523
 30
0.0
 10
13.0172436574
 20
7.2357595335
 30
0.0
 10
13.0131914312
 20
7.2114178524
 30
0.0
 10
13.0088427409
 20
7.1876592573
 30
0.0
 10
13.0042110208
 20
7.1645567163
 30
0.0
 10
12.9993105861
 20
7.1421811589
 30
0.0
 10
12.9941565899
 20
7.1206012532
 30
0.0
 10
12.9887649775
 20
7.09988318
 30
0.0
 10
12.9831524346
 20
7.0800904422
 30
0.0
 10
12.9773363425
 20
7.0612835662
 30
0.0
 10
12.9713346929
 20
7.0435202005
 30
0.0
 10
12.9661209356
 20
7.0294335935
 30
0.0
 10
12.9618612638
 20
7.0187356128
 30
0.0
 10
12.9586784151
 20
7.0111235401
 30
0.0
 10
12.9554631962
 20
7.0038111766
 30
0.0
 10
12.9522180611
 20
6.9968041034
 30
0.0
 10
12.9489455185
 20
6.9901076673
 30
0.0
 10
12.9456480387
 20
6.9837269843
 30
0.0
 10
12.9423282019
 20
6.9776668889
 30
0.0
 10
12.9389884603
 20
6.9719320101
 30
0.0
 10
12.935631438
 20
6.9665266538
 30
0.0
 10
12.932259574
 20
6.9614549397
 30
0.0
 10
12.9288754788
 20
6.9567206411
 30
0.0
 10
12.9254815861
 20
6.9523273423
 30
0.0
 10
12.9220804211
 20
6.9482783009
 30
0.0
 10
12.9186743999
 20
6.9445765497
 30
0.0
 10
12.9152658942
 20
6.9412248779
 30
0.0
 10
12.9118572616
 20
6.9382257924
 30
0.0
 10
12.9084506844
 20
6.9355817152
 30
0.0
 10
12.9050484171
 20
6.9332947415
 30
0.0
 10
12.9016525583
 20
6.9313670989
 30
0.0
 10
12.8982652336
 20
6.9298006706
 30
0.0
 10
12.8948892189
 20
6.9285976883
 30
0.0
 10
12.8926146449
 20
6.92803104
 30
0.0
 10
12.8914860336
 20
6.9278124353
 30
0.0
  0
SPLINE
  5
41D
100
AcDbEntity
  8
0
100
AcDbSpline
 62
7
  6
CONTINUOUS
 70
0
 71
3
 72
54
 73
50
 74
0
 42
0.0000001
 43
0.0000001
 44
0.0000000001
 40
0.0
 40
0.0
 40
0.0
 40
0.0
 40
0.0452109975
 40
0.0910031439
 40
0.1371917004
 40
0.1835902123
 40
0.230010951
 40
0.276266156
 40
0.3221688865
 40
0.3675340284
 40
0.4121792524
 40
0.4559260001
 40
0.4986004801
 40
0.5400346915
 40
0.5800674858
 40
0.6185456896
 40
0.6553253192
 40
0.6902729346
 40
0.7232672083
 40
0.7389983313
 40
0.7542021463
 40
0.7688678608
 40
0.7829858402
 40
0.7965478683
 40
0.8095471391
 40
0.8219786196
 40
0.8338390662
 40
0.8451275217
 40
0.8558454032
 40
0.8659971849
 40
0.8755906333
 40
0.8846377479
 40
0.8931552484
 40
0.9011658517
 40
0.9086990907
 40
0.9157928906
 40
0.922494554
 40
0.9288621098
 40
0.9349645468
 40
0.9408814424
 40
0.9467007488
 40
0.9525153099
 40
0.9584182125
 40
0.9644980872
 40
0.9708354869
 40
0.9775005081
 40
0.984552298
 40
0.9920391814
 40
1.0
 40
1.0
 40
1.0
 40
1.0
 10
13.0031012607
 20
7.4849214723
 30
0.0
 10
13.0031012607
 20
7.4777790471
 30
0.0
 10
13.0029738766
 20
7.4634020979
 30
0.0
 10
13.0024121984
 20
7.4417348856
 30
0.0
 10
13.0014808109
 20
7.4198925951
 30
0.0
 10
13.0001837138
 20
7.3979695218
 30
0.0
 10
12.9985264856
 20
7.3760601644
 30
0.0
 10
12.9965162816
 20
7.3542590148
 30
0.0
 10
12.9941617898
 20
7.3326600764
 30
0.0
 10
12.9914732006
 20
7.3113564787
 30
0.0
 10
12.9884621605
 20
7.2904400638
 30
0.0
 10
12.9851417238
 20
7.2700009881
 30
0.0
 10
12.9815262979
 20
7.2501273258
 30
0.0
 10
12.9776315819
 20
7.2309046826
 30
0.0
 10
12.9734745024
 20
7.2124158086
 30
0.0
 10
12.9690731378
 20
7.1947402515
 30
0.0
 10
12.9644466544
 20
7.1779538994
 30
0.0
 10
12.9596151745
 20
7.1621289449
 30
0.0
 10
12.9553709688
 20
7.1496074373
 30
0.0
 10
12.9518785444
 20
7.1401304618
 30
0.0
 10
12.9492628217
 20
7.1334176501
 30
0.0
 10
12.9466118533
 20
7.1269935047
 30
0.0
 10
12.9439284391
 20
7.1208649131
 30
0.0
 10
12.9412155156
 20
7.1150384269
 30
0.0
 10
12.9384759593
 20
7.1095202797
 30
0.0
 10
12.9357127559
 20
7.1043163348
 30
0.0
 10
12.9329288053
 20
7.0994321344
 30
0.0
 10
12.9301271201
 20
7.094872819
 30
0.0
 10
12.9273105835
 20
7.0906432118
 30
0.0
 10
12.9244821887
 20
7.0867477012
 30
0.0
 10
12.9216447411
 20
7.0831903795
 30
0.0
 10
12.9188011364
 20
7.0799748791
 30
0.0
 10
12.9159540092
 20
7.0771045999
 30
0.0
 10
12.9131060488
 20
7.0745824951
 30
0.0
 10
12.9102596252
 20
7.0724114433
 30
0.0
 10
12.9074171711
 20
7.0705939845
 30
0.0
 10
12.9045809048
 20
7.0691328731
 30
0.0
 10
12.9017533699
 20
7.0680306736
 30
0.0
 10
12.8989374261
 20
7.0672903133
 30
0.0
 10
12.8961368335
 20
7.066914167
 30
0.0
 10
12.8933561783
 20
7.0669042393
 30
0.0
 10
12.8906006723
 20
7.0672608296
 30
0.0
 10
12.8878754825
 20
7.0679830741
 30
0.0
 10
12.8851849717
 20
7.0690684454
 30
0.0
 10
12.8825326337
 20
7.0705141177
 30
0.0
 10
12.8799209655
 20
7.072316772
 30
0.0
 10
12.8773521396
 20
7.0744735528
 30
0.0
 10
12.87482809
 20
7.0769812553
 30
0.0
 10
12.8732274808
 20
7.0788265081
 30
0.0
 10
12.8724339432
 20
7.0798022019
 30
0.0
  0
SPLINE
  5
41E
100
AcDbEntity
  8
0
100
AcDbSpline
 62
7
  6
CONTINUOUS
 70
0
 71
3
 72
46
 73
42
 74
0
 42
0.0000001
 43
0.0000001
 44
0.0000000001
 40
0.0
 40
0.0
 40
0.0
 40
0.0
 40
0.0840358284
 40
0.1695037947
 40
0.2553460559
 40
0.2980757278
 40
0.340500214
 40
0.3824883024
 40
0.4239105151
 40
0.4646396456
 40
0.504551292
 40
0.5435244077
 40
0.5814418763
 40
0.6181911141
 40
0.6536646815
 40
0.6877609511
 40
0.7203848477
 40
0.7514486897
 40
0.7808731856
 40
0.8085886675
 40
0.8345366028
 40
0.8468337406
 40
0.8586731578
 40
0.8700517953
 40
0.8809676529
 40
0.89142018
 40
0.9014104209
 40
0.9109410744
 40
0.9200170989
 40
0.9286456265
 40
0.9368367574
 40
0.9446037502
 40
0.9519636899
 40
0.9589382036
 40
0.9655539234
 40
0.9718435101
 40
0.9778459532
 40
0.9836071902
 40
0.9891799357
 40
0.9946230183
 40
1.0
 40
1.0
 40
1.0
 40
1.0
 10
12.9602351957
 20
7.4785160306
 30
0.0
 10
12.9602351957
 20
7.4672572742
 30
0.0
 10
12.9598818955
 20
7.4445465601
 30
0.0
 10
12.9583486423
 20
7.4103664172
 30
0.0
 10
12.9562428473
 20
7.3817633127
 30
0.0
 10
12.9540664722
 20
7.3589569086
 30
0.0
 10
12.9522006712
 20
7.3420247842
 30
0.0
 10
12.9501052544
 20
7.3252960818
 30
0.0
 10
12.947787142
 20
7.3088260899
 30
0.0
 10
12.945254044
 20
7.2926692918
 30
0.0
 10
12.9425143759
 20
7.2768791124
 30
0.0
 10
12.9395772463
 20
7.2615077582
 30
0.0
 10
12.9364524258
 20
7.2466060327
 30
0.0
 10
12.9331503197
 20
7.2322231636
 30
0.0
 10
12.9296819272
 20
7.2184066346
 30
0.0
 10
12.9260588067
 20
7.2052020251
 30
0.0
 10
12.9222930369
 20
7.1926528407
 30
0.0
 10
12.918397174
 20
7.1808003819
 30
0.0
 10
12.9143842014
 20
7.1696834856
 30
0.0
 10
12.9102674836
 20
7.1593386919
 30
0.0
 10
12.906700791
 20
7.1512505252
 30
0.0
 10
12.9037973391
 20
7.1452005722
 30
0.0
 10
12.9016413648
 20
7.1409583707
 30
0.0
 10
12.8994697475
 20
7.1369332034
 30
0.0
 10
12.8972842041
 20
7.133128366
 30
0.0
 10
12.895086529
 20
7.1295469599
 30
0.0
 10
12.8928785396
 20
7.126191874
 30
0.0
 10
12.8906619478
 20
7.1230658558
 30
0.0
 10
12.8884385986
 20
7.1201713782
 30
0.0
 10
12.8862101557
 20
7.1175108101
 30
0.0
 10
12.8839783837
 20
7.1150862523
 30
0.0
 10
12.8817449319
 20
7.1128996649
 30
0.0
 10
12.8795113927
 20
7.1109528651
 30
0.0
 10
12.8772793845
 20
7.1092474392
 30
0.0
 10
12.8750503383
 20
7.1077850317
 30
0.0
 10
12.8728258261
 20
7.1065670294
 30
0.0
 10
12.8706073122
 20
7.1055949902
 30
0.0
 10
12.8683965318
 20
7.1048703286
 30
0.0
 10
12.8661953083
 20
7.1043944219
 30
0.0
 10
12.864006299
 20
7.1041685099
 30
0.0
 10
12.8625529852
 20
7.1041850782
 30
0.0
 10
12.8618343264
 20
7.1042349148
 30
0.0
  0
SPLINE
  5
41F
100
AcDbEntity
  8
0
100
AcDbSpline
 62
7
  6
CONTINUOUS
 70
0
 71
3
 72
51
 73
47
 74
0
 42
0.0000001
 43
0.0000001
 44
0.0000000001
 40
0.0
 40
0.0
 40
0.0
 40
0.0
 40
0.1056319858
 40
0.1571426222
 40
0.2076331008
 40
0.2569932707
 40
0.3051173528
 40
0.351903608
 40
0.397254311
 40
0.4410766427
 40
0.483283102
 40
0.5237919653
 40
0.5625279634
 40
0.5994232126
 40
0.6344180356
 40
0.667462038
 40
0.6985156652
 40
0.7275522686
 40
0.7545605124
 40
0.7673067555
 40
0.7795506802
 40
0.7912968834
 40
0.8025520146
 40
0.8133248845
 40
0.8236265807
 40
0.8334712276
 40
0.8428760438
 40
0.8518618344
 40
0.8604537129
 40
0.8686812194
 40
0.8765789669
 40
0.8841869785
 40
0.8915505934
 40
0.8987205002
 40
0.9057520306
 40
0.9127041232
 40
0.9196379747
 40
0.9266152803
 40
0.9336965258
 40
0.9409393008
 40
0.9483971427
 40
0.9561186186
 40
0.9641468472
 40
0.972519657
 40
0.9812695267
 40
1.0
 40
1.0
 40
1.0
 40
1.0
 10
13.0031012607
 20
7.4849214723
 30
0.0
 10
13.0031012607
 20
7.4952985667
 30
0.0
 10
13.002903011
 20
7.5107371799
 30
0.0
 10
13.0022141959
 20
7.5311235354
 30
0.0
 10
13.001498128
 20
7.5459763134
 30
0.0
 10
13.0005800875
 20
7.5604846287
 30
0.0
 10
12.9994622833
 20
7.5746139739
 30
0.0
 10
12.9981474289
 20
7.5883307594
 30
0.0
 10
12.9966386774
 20
7.6016024062
 30
0.0
 10
12.9949396747
 20
7.6143973956
 30
0.0
 10
12.993054532
 20
7.6266853752
 30
0.0
 10
12.9909877963
 20
7.6384372142
 30
0.0
 10
12.9887444366
 20
7.6496250868
 30
0.0
 10
12.986329874
 20
7.6602225608
 30
0.0
 10
12.9837499288
 20
7.6702046783
 30
0.0
 10
12.9810107882
 20
7.6795479809
 30
0.0
 10
12.9781189721
 20
7.6882307344
 30
0.0
 10
12.9750813481
 20
7.696232589
 30
0.0
 10
12.9723847705
 20
7.7024328321
 30
0.0
 10
12.9701512397
 20
7.7070276
 30
0.0
 10
12.9684765476
 20
7.7102250968
 30
0.0
 10
12.9667708437
 20
7.7132389927
 30
0.0
 10
12.9650350842
 20
7.7160675458
 30
0.0
 10
12.9632702875
 20
7.7187091354
 30
0.0
 10
12.961477362
 20
7.7211621903
 30
0.0
 10
12.9596573301
 20
7.723425315
 30
0.0
 10
12.9578111504
 20
7.7254971868
 30
0.0
 10
12.9559397233
 20
7.7273765196
 30
0.0
 10
12.9540440547
 20
7.7290622088
 30
0.0
 10
12.9521250434
 20
7.730553116
 30
0.0
 10
12.950183634
 20
7.7318481512
 30
0.0
 10
12.9482208749
 20
7.7329463549
 30
0.0
 10
12.9462378027
 20
7.7338466435
 30
0.0
 10
12.9442356666
 20
7.7345481084
 30
0.0
 10
12.9422158623
 20
7.7350499751
 30
0.0
 10
12.940179925
 20
7.7353514978
 30
0.0
 10
12.938129566
 20
7.7354524091
 30
0.0
 10
12.9360665083
 20
7.7353526351
 30
0.0
 10
12.9339924612
 20
7.7350523552
 30
0.0
 10
12.9319089842
 20
7.7345521915
 30
0.0
 10
12.9298175176
 20
7.7338527572
 30
0.0
 10
12.9277193513
 20
7.7329548508
 30
0.0
 10
12.9256156523
 20
7.7318594142
 30
0.0
 10
12.9235074709
 20
7.7305672142
 30
0.0
 10
12.920626952
 20
7.7285372557
 30
0.0
 10
12.9185626597
 20
7.7267867152
 30
0.0
 10
12.9172157074
 20
7.7255331224
 30
0.0
  0
SPLINE
  5
420
100
AcDbEntity
  8
0
100
AcDbSpline
 62
7
  6
CONTINUOUS
 70
0
 71
3
 72
37
 73
33
 74
0
 42
0.0000001
 43
0.0000001
 44
0.0000000001
 40
0.0
 40
0.0
 40
0.0
 40
0.0
 40
0.0964145795
 40
0.19018916
 40
0.2807592518
 40
0.3675836637
 40
0.4094325161
 40
0.4501577696
 40
0.4897020314
 40
0.5280110241
 40
0.5650333313
 40
0.6007211234
 40
0.635030306
 40
0.6679207491
 40
0.6993572094
 40
0.7293092709
 40
0.7577525933
 40
0.7846694572
 40
0.8100498039
 40
0.8338930609
 40
0.8562093492
 40
0.8770225229
 40
0.8963728982
 40
0.9143214035
 40
0.930955005
 40
0.9463923245
 40
0.9607906812
 40
0.9743510082
 40
0.9808967954
 40
0.9873288572
 40
0.993683884
 40
1.0
 40
1.0
 40
1.0
 40
1.0
 10
12.9602351957
 20
7.4785160306
 30
0.0
 10
12.9602351957
 20
7.48627476
 30
0.0
 10
12.9600708405
 20
7.5015803651
 30
0.0
 10
12.959313567
 20
7.5241631017
 30
0.0
 10
12.9580537424
 20
7.5459506076
 30
0.0
 10
12.9565749105
 20
7.5635340637
 30
0.0
 10
12.9551365608
 20
7.5770903408
 30
0.0
 10
12.9539515552
 20
7.5868462244
 30
0.0
 10
12.9526490807
 20
7.596299669
 30
0.0
 10
12.9512313295
 20
7.6054351218
 30
0.0
 10
12.949700631
 20
7.6142375431
 30
0.0
 10
12.9480595513
 20
7.6226924573
 30
0.0
 10
12.9463108383
 20
7.6307859744
 30
0.0
 10
12.9444573605
 20
7.6385048126
 30
0.0
 10
12.9425022572
 20
7.6458363366
 30
0.0
 10
12.9404487196
 20
7.6527685657
 30
0.0
 10
12.9383001728
 20
7.659290219
 30
0.0
 10
12.9360601571
 20
7.6653907345
 30
0.0
 10
12.9337322758
 20
7.6710602802
 30
0.0
 10
12.9313203348
 20
7.6762898291
 30
0.0
 10
12.9288280422
 20
7.6810711069
 30
0.0
 10
12.9262592041
 20
7.6853966835
 30
0.0
 10
12.923617474
 20
7.6892599092
 30
0.0
 10
12.9209062197
 20
7.6926548218
 30
0.0
 10
12.9181286608
 20
7.6955760863
 30
0.0
 10
12.9152872257
 20
7.6980184961
 30
0.0
 10
12.9123851001
 20
7.6999765351
 30
0.0
 10
12.9098879927
 20
7.7012140234
 30
0.0
 10
12.9078783653
 20
7.7019419307
 30
0.0
 10
12.9063775377
 20
7.7023579717
 30
0.0
 10
12.9048666633
 20
7.7026500318
 30
0.0
 10
12.9038518225
 20
7.7027620986
 30
0.0
 10
12.9033447661
 20
7.7027972612
 30
0.0
  0
SPLINE
  5
421
100
AcDbEntity
  8
0
100
AcDbSpline
 62
7
  6
CONTINUOUS
 70
0
 71
3
 72
37
 73
33
 74
0
 42
0.0000001
 43
0.0000001
 44
0.0000000001
 40
0.0
 40
0.0
 40
0.0
 40
0.0
 40
0.0931325319
 40
0.1839223631
 40
0.2718698919
 40
0.3146274885
 40
0.3564966403
 40
0.3974215215
 40
0.4373484576
 40
0.4762258819
 40
0.514004473
 40
0.5506375974
 40
0.5860812492
 40
0.6202944468
 40
0.6532396038
 40
0.684882589
 40
0.7151934186
 40
0.7441465969
 40
0.7717215559
 40
0.7979037036
 40
0.8226850051
 40
0.846065201
 40
0.8680534518
 40
0.8886698542
 40
0.9079480885
 40
0.925938396
 40
0.9427111028
 40
0.9583613393
 40
0.973013576
 40
0.986825881
 40
0.9934800752
 40
1.0
 40
1.0
 40
1.0
 40
1.0
 10
11.1166788987
 20
11.1595445513
 30
0.0
 10
11.1284589682
 20
11.1587276007
 30
0.0
 10
11.1517065707
 20
11.1568673164
 30
0.0
 10
11.1859999234
 20
11.1533481702
 30
0.0
 10
11.2138640957
 20
11.1498194384
 30
0.0
 10
11.2355150747
 20
11.146652383
 30
0.0
 10
11.2512347788
 20
11.144139306
 30
0.0
 10
11.26656455
 20
11.1414700321
 30
0.0
 10
11.2814812165
 20
11.1386486232
 30
0.0
 10
11.2959622116
 20
11.1356793836
 30
0.0
 10
11.3099856381
 20
11.1325667988
 30
0.0
 10
11.323530307
 20
11.1293156476
 30
0.0
 10
11.3365757579
 20
11.1259308569
 30
0.0
 10
11.3491023001
 20
11.1224175671
 30
0.0
 10
11.3610910541
 20
11.1187811617
 30
0.0
 10
11.3725239597
 20
11.1150271268
 30
0.0
 10
11.3833838359
 20
11.1111611813
 30
0.0
 10
11.3936544029
 20
11.1071892052
 30
0.0
 10
11.4033202904
 20
11.1031171491
 30
0.0
 10
11.4123671204
 20
11.0989511808
 30
0.0
 10
11.4207814924
 20
11.0946975042
 30
0.0
 10
11.4285510111
 20
11.0903623546
 30
0.0
 10
11.4356643688
 20
11.0859520657
 30
0.0
 10
11.4421112605
 20
11.0814728
 30
0.0
 10
11.4478824236
 20
11.0769306184
 30
0.0
 10
11.4529695958
 20
11.0723313292
 30
0.0
 10
11.4573651808
 20
11.0676803433
 30
0.0
 10
11.4610622127
 20
11.0629824547
 30
0.0
 10
11.464053477
 20
11.0582432126
 30
0.0
 10
11.4659755972
 20
11.0542123313
 30
0.0
 10
11.4671337895
 20
11.0509903874
 30
0.0
 10
11.4675899963
 20
11.0493818001
 30
0.0
 10
11.4677868083
 20
11.0485789026
 30
0.0
  0
SPLINE
  5
422
100
AcDbEntity
  8
0
100
AcDbSpline
 62
7
  6
CONTINUOUS
 70
0
 71
3
 72
50
 73
46
 74
0
 42
0.0000001
 43
0.0000001
 44
0.0000000001
 40
0.0
 40
0.0
 40
0.0
 40
0.0
 40
0.1050239005
 40
0.1562601519
 40
0.206493925
 40
0.2556135704
 40
0.303511981
 40
0.3500861246
 40
0.3952371414
 40
0.4388711843
 40
0.4808999238
 40
0.5212410473
 40
0.5598189379
 40
0.5965656061
 40
0.6314216981
 40
0.6643376048
 40
0.695275034
 40
0.7242092235
 40
0.7511316281
 40
0.7638424331
 40
0.7760565438
 40
0.7877792394
 40
0.7990180124
 40
0.8097824134
 40
0.820084597
 40
0.8299397616
 40
0.8393662159
 40
0.8570175147
 40
0.8653080936
 40
0.8732854306
 40
0.8809906175
 40
0.8884699316
 40
0.8957745954
 40
0.9029599202
 40
0.9100843407
 40
0.9172079259
 40
0.9243907787
 40
0.9316913764
 40
0.9391651581
 40
0.9468634689
 40
0.9631032284
 40
0.9717329686
 40
0.9807420261
 40
0.9901569654
 40
1.0
 40
1.0
 40
1.0
 40
1.0
 10
11.0804442623
 20
11.1245445781
 30
0.0
 10
11.0909503484
 20
11.1238159785
 30
0.0
 10
11.1065686652
 20
11.1225224335
 30
0.0
 10
11.1271626605
 20
11.1203638605
 30
0.0
 10
11.1421561818
 20
11.1185647346
 30
0.0
 10
11.1567880924
 20
11.1165765966
 30
0.0
 10
11.171022751
 20
11.1144043173
 30
0.0
 10
11.1848255038
 20
11.1120532443
 30
0.0
 10
11.1981627735
 20
11.109529134
 30
0.0
 10
11.2110021203
 20
11.1068381831
 30
0.0
 10
11.2233123553
 20
11.1039870147
 30
0.0
 10
11.2350635997
 20
11.1009826348
 30
0.0
 10
11.2462273642
 20
11.0978324102
 30
0.0
 10
11.2567766432
 20
11.0945440723
 30
0.0
 10
11.2666860102
 20
11.0911256897
 30
0.0
 10
11.2759316392
 20
11.0875856172
 30
0.0
 10
11.2844915242
 20
11.0839324195
 30
0.0
 10
11.2923451192
 20
11.08017493
 30
0.0
 10
11.2983971962
 20
11.0769043229
 30
0.0
 10
11.3028591562
 20
11.0742345045
 30
0.0
 10
11.3059530222
 20
11.0722502269
 30
0.0
 10
11.3088568845
 20
11.0702466947
 30
0.0
 10
11.311569045
 20
11.0682251113
 30
0.0
 10
11.3140878871
 20
11.0661866015
 30
0.0
 10
11.316411821
 20
11.0641323644
 30
0.0
 10
11.3185397244
 20
11.0620633836
 30
0.0
 10
11.3210579699
 20
11.0593465655
 30
0.0
 10
11.3232515752
 20
11.0565458039
 30
0.0
 10
11.3250634673
 20
11.0536644161
 30
0.0
 10
11.3261921305
 20
11.0515392518
 30
0.0
 10
11.3271178134
 20
11.0494063485
 30
0.0
 10
11.3278395641
 20
11.0472668826
 30
0.0
 10
11.3283566532
 20
11.0451223364
 30
0.0
 10
11.3286683236
 20
11.042974249
 30
0.0
 10
11.3287741436
 20
11.0408243473
 30
0.0
 10
11.3286740296
 20
11.0386744192
 30
0.0
 10
11.3283680062
 20
11.0365262586
 30
0.0
 10
11.3278566227
 20
11.0343816053
 30
0.0
 10
11.3271404671
 20
11.0322419097
 30
0.0
 10
11.3258917899
 20
11.0293468334
 30
0.0
 10
11.3242404509
 20
11.0265130505
 30
0.0
 10
11.322246376
 20
11.0237610627
 30
0.0
 10
11.3205203138
 20
11.0216658027
 30
0.0
 10
11.3185956367
 20
11.0195832084
 30
0.0
 10
11.3172122874
 20
11.0182344452
 30
0.0
 10
11.3164897403
 20
11.0175620435
 30
0.0
  0
SPLINE
  5
423
100
AcDbEntity
  8
0
100
AcDbSpline
 62
7
  6
CONTINUOUS
 70
0
 71
3
 72
54
 73
50
 74
0
 42
0.0000001
 43
0.0000001
 44
0.0000000001
 40
0.0
 40
0.0
 40
0.0
 40
0.0
 40
0.0452927614
 40
0.0911394768
 40
0.1373558229
 40
0.1837558641
 40
0.2301525207
 40
0.2763588102
 40
0.3221887108
 40
0.367458177
 40
0.4119861086
 40
0.4555953496
 40
0.4981137
 40
0.5393749593
 40
0.5792200143
 40
0.6174979965
 40
0.6540675428
 40
0.6887982136
 40
0.7215721502
 40
0.7371931326
 40
0.7522875479
 40
0.766845228
 40
0.7808572399
 40
0.7943161292
 40
0.8072159527
 40
0.8195526268
 40
0.8313239919
 40
0.8425302991
 40
0.8531743545
 40
0.8632621957
 40
0.8728033885
 40
0.8818119611
 40
0.8903069428
 40
0.8983136074
 40
0.9058642871
 40
0.9129998152
 40
0.9197703474
 40
0.9262363642
 40
0.9324685097
 40
0.9385467281
 40
0.9445577358
 40
0.9505914619
 40
0.9567367512
 40
0.9630772569
 40
0.969688501
 40
0.9766359963
 40
0.9839750352
 40
0.9917508718
 40
1.0
 40
1.0
 40
1.0
 40
1.0
 10
11.0804442623
 20
11.1245445781
 30
0.0
 10
11.0732996765
 20
11.1250400568
 30
0.0
 10
11.0589137093
 20
11.1259058063
 30
0.0
 10
11.0372134149
 20
11.1268286193
 30
0.0
 10
11.0153253488
 20
11.1273812227
 30
0.0
 10
10.9933441205
 20
11.1275612081
 30
0.0
 10
10.9713645908
 20
11.1273677883
 30
0.0
 10
10.9494816679
 20
11.1268018085
 30
0.0
 10
10.9277898207
 20
11.125865735
 30
0.0
 10
10.9063826918
 20
11.1245636498
 30
0.0
 10
10.8853526804
 20
11.1229012318
 30
0.0
 10
10.864790541
 20
11.1208857345
 30
0.0
 10
10.8447849831
 20
11.1185259561
 30
0.0
 10
10.8254222819
 20
11.115832203
 30
0.0
 10
10.8067858855
 20
11.1128162494
 30
0.0
 10
10.7889560662
 20
11.1094912827
 30
0.0
 10
10.7720094504
 20
11.1058718654
 30
0.0
 10
10.7560190021
 20
11.1019738062
 30
0.0
 10
10.7433523208
 20
11.0984534811
 30
0.0
 10
10.7337572322
 20
11.0954994076
 30
0.0
 10
10.7269572242
 20
11.0932604383
 30
0.0
 10
10.7204451843
 20
11.0909650163
 30
0.0
 10
10.7142280952
 20
11.0886155638
 30
0.0
 10
10.7083126117
 20
11.0862146556
 30
0.0
 10
10.7027050639
 20
11.0837648376
 30
0.0
 10
10.6974114169
 20
11.0812687798
 30
0.0
 10
10.6924373077
 20
11.0787290968
 30
0.0
 10
10.6877879779
 20
11.0761485313
 30
0.0
 10
10.6834683444
 20
11.0735297253
 30
0.0
 10
10.6794828983
 20
11.0708754456
 30
0.0
 10
10.6758358288
 20
11.0681882981
 30
0.0
 10
10.6725308802
 20
11.0654709945
 30
0.0
 10
10.6695715652
 20
11.0627260123
 30
0.0
 10
10.6669609759
 20
11.059955907
 30
0.0
 10
10.66470214
 20
11.0571629552
 30
0.0
 10
10.6627977768
 20
11.054349549
 30
0.0
 10
10.6612508139
 20
11.0515179435
 30
0.0
 10
10.6600639664
 20
11.0486708098
 30
0.0
 10
10.6592402092
 20
11.0458112044
 30
0.0
 10
10.6587818452
 20
11.0429430846
 30
0.0
 10
10.6586906993
 20
11.0400711201
 30
0.0
 10
10.6589669322
 20
11.037200457
 30
0.0
 10
10.6596096962
 20
11.0343360993
 30
0.0
 10
10.660616674
 20
11.0314823229
 30
0.0
 10
10.6619853458
 20
11.0286426843
 30
0.0
 10
10.6637126782
 20
11.0258199242
 30
0.0
 10
10.6657960258
 20
11.0230165437
 30
0.0
 10
10.6682323144
 20
11.0202348659
 30
0.0
 10
10.670034964
 20
11.0184509639
 30
0.0
 10
10.6709898227
 20
11.0175623665
 30
0.0
  0
SPLINE
  5
424
100
AcDbEntity
  8
0
100
AcDbSpline
 62
7
  6
CONTINUOUS
 70
0
 71
3
 72
19
 73
15
 74
0
 42
0.0000001
 43
0.0000001
 44
0.0000000001
 40
0.0
 40
0.0
 40
0.0
 40
0.0
 40
0.12732766
 40
0.2538196711
 40
0.3795264658
 40
0.5045235362
 40
0.5668075958
 40
0.6289556124
 40
0.6909843715
 40
0.7529118454
 40
0.8147570127
 40
0.8765397119
 40
0.9382804145
 40
1.0
 40
1.0
 40
1.0
 40
1.0
 10
11.6800734536
 20
10.2912337895
 30
0.0
 10
11.6800734536
 20
10.2977321694
 30
0.0
 10
11.6806939058
 20
10.3106952197
 30
0.0
 10
11.6834999774
 20
10.3298907285
 30
0.0
 10
11.6881524198
 20
10.3486030184
 30
0.0
 10
11.6935418957
 20
10.3636712698
 30
0.0
 10
11.6987250962
 20
10.3753032209
 30
0.0
 10
11.7030352876
 20
10.3837922899
 30
0.0
 10
11.7077622062
 20
10.3920353497
 30
0.0
 10
11.7128950935
 20
10.4000136603
 30
0.0
 10
11.7184221071
 20
10.4077086989
 30
0.0
 10
11.7243305098
 20
10.4151028427
 30
0.0
 10
11.7306064887
 20
10.4221787646
 30
0.0
 10
11.7350267244
 20
10.4266738289
 30
0.0
 10
11.7372923496
 20
10.428862254
 30
0.0
  0
SPLINE
  5
425
100
AcDbEntity
  8
0
100
AcDbSpline
 62
7
  6
CONTINUOUS
 70
0
 71
3
 72
46
 73
42
 74
0
 42
0.0000001
 43
0.0000001
 44
0.0000000001
 40
0.0
 40
0.0
 40
0.0
 40
0.0
 40
0.0840597746
 40
0.1694613238
 40
0.25516263
 40
0.2977992018
 40
0.3401183938
 40
0.3819912613
 40
0.4232906372
 40
0.4638916647
 40
0.5036723256
 40
0.5425139876
 40
0.5803019845
 40
0.6169262096
 40
0.6522817301
 40
0.6862694625
 40
0.7187969219
 40
0.7497790806
 40
0.7791393995
 40
0.8068110762
 40
0.8327385897
 40
0.8450353116
 40
0.8568814037
 40
0.8682742028
 40
0.879212232
 40
0.8896953561
 40
0.8997251708
 40
0.9093048697
 40
0.918439932
 40
0.9271380691
 40
0.9354098405
 40
0.9432690616
 40
0.9507331755
 40
0.9578241283
 40
0.9645686389
 40
0.9709991191
 40
0.9771539684
 40
0.9830779119
 40
0.9888219197
 40
0.9944424002
 40
1.0
 40
1.0
 40
1.0
 40
1.0
 10
11.0713856032
 20
11.0819871788
 30
0.0
 10
11.0601874625
 20
11.0827637725
 30
0.0
 10
11.0375860692
 20
11.083969497
 30
0.0
 10
11.0035171597
 20
11.0847602634
 30
0.0
 10
10.9749711136
 20
11.0845801363
 30
0.0
 10
10.9521908461
 20
11.0839273961
 30
0.0
 10
10.9352701151
 20
11.0831870774
 30
0.0
 10
10.918541008
 20
11.0821977541
 30
0.0
 10
10.9020582814
 20
11.0809626598
 30
0.0
 10
10.8858759417
 20
11.0794858826
 30
0.0
 10
10.8700469876
 20
11.0777722981
 30
0.0
 10
10.8546232539
 20
11.0758275672
 30
0.0
 10
10.8396552296
 20
11.0736581206
 30
0.0
 10
10.8251918883
 20
11.0712711374
 30
0.0
 10
10.8112805234
 20
11.068674518
 30
0.0
 10
10.7979665888
 20
11.0658768593
 30
0.0
 10
10.7852935317
 20
11.0628874265
 30
0.0
 10
10.7733026611
 20
11.059716117
 30
0.0
 10
10.7620328862
 20
11.0563734297
 30
0.0
 10
10.7515208988
 20
11.0528704071
 30
0.0
 10
10.7432809307
 20
11.0497749905
 30
0.0
 10
10.737102358
 20
11.0472181525
 30
0.0
 10
10.7327608137
 20
11.0453015565
 30
0.0
 10
10.7286329477
 20
11.0433536635
 30
0.0
 10
10.7247220904
 20
11.0413760321
 30
0.0
 10
10.7210314167
 20
11.0393702244
 30
0.0
 10
10.7175638662
 20
11.0373379198
 30
0.0
 10
10.7143222552
 20
11.0352806517
 30
0.0
 10
10.7113091389
 20
11.0332001107
 30
0.0
 10
10.7085269379
 20
11.0310978608
 30
0.0
 10
10.7059778717
 20
11.0289754973
 30
0.0
 10
10.7036639468
 20
11.026834627
 30
0.0
 10
10.701587107
 20
11.0246767079
 30
0.0
 10
10.6997490138
 20
11.0225033259
 30
0.0
 10
10.6981513875
 20
11.0203158667
 30
0.0
 10
10.6967957447
 20
11.0181158542
 30
0.0
 10
10.6956836292
 20
11.0159047854
 30
0.0
 10
10.694816597
 20
11.0136843344
 30
0.0
 10
10.6941959586
 20
11.0114563415
 30
0.0
 10
10.6938230737
 20
11.0092233476
 30
0.0
 10
10.693739966
 20
11.007729378
 30
0.0
 10
10.693739959
 20
11.0069872363
 30
0.0
  0
SPLINE
  5
426
100
AcDbEntity
  8
0
100
AcDbSpline
 62
7
  6
CONTINUOUS
 70
0
 71
3
 72
37
 73
33
 74
0
 42
0.0000001
 43
0.0000001
 44
0.0000000001
 40
0.0
 40
0.0
 40
0.0
 40
0.0
 40
0.0958325435
 40
0.1891022543
 40
0.2792430625
 40
0.3657122375
 40
0.4074108619
 40
0.4480039317
 40
0.4874339412
 40
0.5256465345
 40
0.5625903107
 40
0.5982174274
 40
0.6324839372
 40
0.665349863
 40
0.6967802228
 40
0.726745024
 40
0.7552203439
 40
0.782189167
 40
0.8076421669
 40
0.831579717
 40
0.8540131072
 40
0.8749673564
 40
0.8944842296
 40
0.9126259125
 40
0.9294804443
 40
0.9451668837
 40
0.9598415778
 40
0.9737025951
 40
0.9804060713
 40
0.9869995525
 40
0.9935185733
 40
1.0
 40
1.0
 40
1.0
 40
1.0
 10
11.0713856032
 20
11.0819871788
 30
0.0
 10
11.0791994263
 20
11.0814452884
 30
0.0
 10
11.0946068349
 20
11.0802041417
 30
0.0
 10
11.1173088316
 20
11.0778349685
 30
0.0
 10
11.1391855903
 20
11.0749957709
 30
0.0
 10
11.1568141312
 20
11.0722217897
 30
0.0
 10
11.1703884338
 20
11.069771725
 30
0.0
 10
11.1801504026
 20
11.0678516536
 30
0.0
 10
11.1896007038
 20
11.0658300736
 30
0.0
 10
11.1987235845
 20
11.0637104026
 30
0.0
 10
11.2075038227
 20
11.0614961828
 30
0.0
 10
11.2159267867
 20
11.0591911371
 30
0.0
 10
11.2239784576
 20
11.0567991711
 30
0.0
 10
11.2316454422
 20
11.0543242504
 30
0.0
 10
11.2389150285
 20
11.0517705831
 30
0.0
 10
11.245775179
 20
11.0491424083
 30
0.0
 10
11.2522145776
 20
11.0464441138
 30
0.0
 10
11.2582226634
 20
11.0436802126
 30
0.0
 10
11.2637896107
 20
11.0408551865
 30
0.0
 10
11.2689064321
 20
11.0379736859
 30
0.0
 10
11.2735649082
 20
11.035040237
 30
0.0
 10
11.2777576456
 20
11.0320593432
 30
0.0
 10
11.2814780685
 20
11.0290353929
 30
0.0
 10
11.28472022
 20
11.0259723812
 30
0.0
 10
11.2874787746
 20
11.0228741814
 30
0.0
 10
11.2897485251
 20
11.019743957
 30
0.0
 10
11.2915239702
 20
11.0165856442
 30
0.0
 10
11.2925986366
 20
11.0139024727
 30
0.0
 10
11.2931931712
 20
11.0117620565
 30
0.0
 10
11.2935085181
 20
11.0101717798
 30
0.0
 10
11.2936978328
 20
11.008580007
 30
0.0
 10
11.2937399535
 20
11.0075169766
 30
0.0
 10
11.2937399485
 20
11.0069872363
 30
0.0
  0
SPLINE
  5
427
100
AcDbEntity
  8
0
100
AcDbSpline
 62
7
  6
CONTINUOUS
 70
0
 71
3
 72
51
 73
47
 74
0
 42
0.0000001
 43
0.0000001
 44
0.0000000001
 40
0.0
 40
0.0
 40
0.0
 40
0.0
 40
0.0055575411
 40
0.0111779796
 40
0.0169219251
 40
0.0228458413
 40
0.0290006321
 40
0.0354310786
 40
0.0421755463
 40
0.0492664473
 40
0.0567305238
 40
0.0645896869
 40
0.0728614009
 40
0.0815594939
 40
0.0906944682
 40
0.1002741332
 40
0.1103038404
 40
0.1207869116
 40
0.1317248436
 40
0.1431175479
 40
0.1549635674
 40
0.1672601535
 40
0.1800035184
 40
0.1931887814
 40
0.2068102607
 40
0.2208613236
 40
0.2502213907
 40
0.2812032625
 40
0.3137304052
 40
0.3477178056
 40
0.3830729848
 40
0.4196968576
 40
0.457484485
 40
0.4963257531
 40
0.5361059989
 40
0.5767066018
 40
0.6180055482
 40
0.6598779796
 40
0.7021967295
 40
0.7448328475
 40
0.7876561341
 40
0.8305356225
 40
0.8733402059
 40
0.9159388534
 40
0.9582018594
 40
1.0
 40
1.0
 40
1.0
 40
1.0
 10
10.5187399668
 20
11.0562497919
 30
0.0
 10
10.5187399729
 20
11.0574248479
 30
0.0
 10
10.5188715539
 20
11.0597903044
 30
0.0
 10
10.5194620784
 20
11.063325853
 30
0.0
 10
10.5204446943
 20
11.066853531
 30
0.0
 10
10.5218176087
 20
11.0703692063
 30
0.0
 10
10.5235784325
 20
11.0738700869
 30
0.0
 10
10.5257249269
 20
11.0773534163
 30
0.0
 10
10.5282545249
 20
11.0808168893
 30
0.0
 10
10.5311648597
 20
11.0842580785
 30
0.0
 10
10.5344532271
 20
11.0876747642
 30
0.0
 10
10.5381169584
 20
11.0910644761
 30
0.0
 10
10.5421530018
 20
11.0944248819
 30
0.0
 10
10.546558186
 20
11.0977534174
 30
0.0
 10
10.5513289581
 20
11.1010476329
 30
0.0
 10
10.5564615487
 20
11.1043049245
 30
0.0
 10
10.5619518366
 20
11.1075227737
 30
0.0
 10
10.5677954328
 20
11.1106985965
 30
0.0
 10
10.5739876314
 20
11.1138298531
 30
0.0
 10
10.5805234347
 20
11.1169140195
 30
0.0
 10
10.5873975583
 20
11.1199485714
 30
0.0
 10
10.5946044192
 20
11.1229310687
 30
0.0
 10
10.6021381702
 20
11.1258590324
 30
0.0
 10
10.609992667
 20
11.1287301113
 30
0.0
 10
10.6181615283
 20
11.131541924
 30
0.0
 10
10.6296320957
 20
11.1352635084
 30
0.0
 10
10.6447148401
 20
11.1397369812
 30
0.0
 10
10.6637002791
 20
11.1447582249
 30
0.0
 10
10.6837659773
 20
11.1494914774
 30
0.0
 10
10.7048463548
 20
11.153921093
 30
0.0
 10
10.7268726757
 20
11.1580323926
 30
0.0
 10
10.7497729553
 20
11.1618117668
 30
0.0
 10
10.7734723128
 20
11.1652467074
 30
0.0
 10
10.7978932018
 20
11.1683258523
 30
0.0
 10
10.8229556826
 20
11.1710390207
 30
0.0
 10
10.8485776888
 20
11.1733772455
 30
0.0
 10
10.874675303
 20
11.1753328015
 30
0.0
 10
10.9011630356
 20
11.1768992297
 30
0.0
 10
10.927954108
 20
11.1780713574
 30
0.0
 10
10.954960742
 20
11.1788453154
 30
0.0
 10
10.9820944429
 20
11.1792185472
 30
0.0
 10
11.0092663125
 20
11.1791898244
 30
0.0
 10
11.0363872828
 20
11.1787592346
 30
0.0
 10
11.0633685642
 20
11.1779282101
 30
0.0
 10
11.0901215955
 20
11.1766994819
 30
0.0
 10
11.1078625047
 20
11.1756107851
 30
0.0
 10
11.1166788987
 20
11.1749993661
 30
0.0
  0
SPLINE
  5
428
100
AcDbEntity
  8
0
100
AcDbSpline
 62
7
  6
CONTINUOUS
 70
0
 71
3
 72
42
 73
38
 74
0
 42
0.0000001
 43
0.0000001
 44
0.0000000001
 40
0.0
 40
0.0
 40
0.0
 40
0.0
 40
0.0299419644
 40
0.0449235317
 40
0.0599142035
 40
0.0899287023
 40
0.1200139727
 40
0.1350926544
 40
0.1501966973
 40
0.1804840373
 40
0.210897868
 40
0.2414513286
 40
0.2721543342
 40
0.3030133956
 40
0.3340315238
 40
0.3652082165
 40
0.3965395222
 40
0.4280181758
 40
0.459633799
 40
0.4913731572
 40
0.5232204671
 40
0.5551577446
 40
0.5871651885
 40
0.6192215901
 40
0.6513047644
 40
0.683391994
 40
0.715460481
 40
0.7474877999
 40
0.7794523452
 40
0.8113337678
 40
0.8431133918
 40
0.8747746145
 40
0.906303246
 40
0.9376878974
 40
0.9533257627
 40
0.9689252947
 40
1.0
 40
1.0
 40
1.0
 40
1.0
 10
12.0304752804
 20
10.1253367317
 30
0.0
 10
12.0269748607
 20
10.1219555872
 30
0.0
 10
12.021517906
 20
10.1170887416
 30
0.0
 10
12.0138755922
 20
10.1110499956
 30
0.0
 10
12.0059898417
 20
10.1053118276
 30
0.0
 10
11.9957002906
 20
10.0987224664
 30
0.0
 10
11.98491041
 20
10.0929587382
 30
0.0
 10
11.9760115944
 20
10.0888583226
 30
0.0
 10
11.9669288976
 20
10.0850965194
 30
0.0
 10
11.9552762526
 20
10.081051412
 30
0.0
 10
11.9409161081
 20
10.0772814985
 30
0.0
 10
11.926242623
 20
10.0746107778
 30
0.0
 10
11.9113371089
 20
10.0730540002
 30
0.0
 10
11.896281447
 20
10.0726194696
 30
0.0
 10
11.8811584779
 20
10.0733093987
 30
0.0
 10
11.8660513211
 20
10.0751198019
 30
0.0
 10
11.8510429841
 20
10.078040554
 30
0.0
 10
11.836215895
 20
10.0820554453
 30
0.0
 10
11.8216514602
 20
10.0871422777
 30
0.0
 10
11.8074296225
 20
10.0932729897
 30
0.0
 10
11.7936284289
 20
10.100413813
 30
0.0
 10
11.7803236085
 20
10.1085254584
 30
0.0
 10
11.7675881619
 20
10.1175633313
 30
0.0
 10
11.7554919664
 20
10.1274777756
 30
0.0
 10
11.7441013964
 20
10.1382143441
 30
0.0
 10
11.7334789641
 20
10.1497140949
 30
0.0
 10
11.7236829793
 20
10.1619139119
 30
0.0
 10
11.7147672329
 20
10.1747468484
 30
0.0
 10
11.7067807043
 20
10.1881424863
 30
0.0
 10
11.6997672935
 20
10.2020273339
 30
0.0
 10
11.6937655856
 20
10.2163251663
 30
0.0
 10
11.6888086208
 20
10.2309576516
 30
0.0
 10
11.6849237912
 20
10.2458439856
 30
0.0
 10
11.6825947434
 20
10.258409662
 30
0.0
 10
11.681288221
 20
10.2685060405
 30
0.0
 10
11.6803557874
 20
10.2785927553
 30
0.0
 10
11.6800734536
 20
10.2861829435
 30
0.0
 10
11.6800734536
 20
10.2912337895
 30
0.0
  0
SPLINE
  5
429
100
AcDbEntity
  8
0
100
AcDbSpline
 62
7
  6
CONTINUOUS
 70
0
 71
3
 72
42
 73
38
 74
0
 42
0.0000001
 43
0.0000001
 44
0.0000000001
 40
0.0
 40
0.0
 40
0.0
 40
0.0
 40
0.0299419644
 40
0.0449235317
 40
0.0599142035
 40
0.0899287023
 40
0.1200139727
 40
0.1350926544
 40
0.1501966973
 40
0.1804840373
 40
0.210897868
 40
0.2414513286
 40
0.2721543342
 40
0.3030133956
 40
0.3340315238
 40
0.3652082165
 40
0.3965395222
 40
0.4280181758
 40
0.459633799
 40
0.4913731572
 40
0.5232204671
 40
0.5551577446
 40
0.5871651885
 40
0.6192215901
 40
0.6513047644
 40
0.683391994
 40
0.715460481
 40
0.7474877999
 40
0.7794523452
 40
0.8113337678
 40
0.8431133918
 40
0.8747746145
 40
0.906303246
 40
0.9376878974
 40
0.9533257627
 40
0.9689252947
 40
1.0
 40
1.0
 40
1.0
 40
1.0
 10
12.0304752804
 20
5.7786702559
 30
0.0
 10
12.0269748607
 20
5.7752891114
 30
0.0
 10
12.021517906
 20
5.7704222657
 30
0.0
 10
12.0138755922
 20
5.7643835197
 30
0.0
 10
12.0059898417
 20
5.7586453518
 30
0.0
 10
11.9957002906
 20
5.7520559905
 30
0.0
 10
11.98491041
 20
5.7462922624
 30
0.0
 10
11.9760115944
 20
5.7421918467
 30
0.0
 10
11.9669288976
 20
5.7384300436
 30
0.0
 10
11.9552762526
 20
5.7343849361
 30
0.0
 10
11.9409161081
 20
5.7306150227
 30
0.0
 10
11.926242623
 20
5.727944302
 30
0.0
 10
11.9113371089
 20
5.7263875244
 30
0.0
 10
11.896281447
 20
5.7259529937
 30
0.0
 10
11.8811584779
 20
5.7266429228
 30
0.0
 10
11.8660513211
 20
5.728453326
 30
0.0
 10
11.8510429841
 20
5.7313740782
 30
0.0
 10
11.836215895
 20
5.7353889695
 30
0.0
 10
11.8216514602
 20
5.7404758018
 30
0.0
 10
11.8074296225
 20
5.7466065139
 30
0.0
 10
11.7936284289
 20
5.7537473371
 30
0.0
 10
11.7803236085
 20
5.7618589825
 30
0.0
 10
11.7675881619
 20
5.7708968554
 30
0.0
 10
11.7554919664
 20
5.7808112998
 30
0.0
 10
11.7441013964
 20
5.7915478682
 30
0.0
 10
11.7334789641
 20
5.8030476191
 30
0.0
 10
11.7236829793
 20
5.8152474361
 30
0.0
 10
11.7147672329
 20
5.8280803725
 30
0.0
 10
11.7067807043
 20
5.8414760104
 30
0.0
 10
11.6997672935
 20
5.855360858
 30
0.0
 10
11.6937655856
 20
5.8696586905
 30
0.0
 10
11.6888086208
 20
5.8842911758
 30
0.0
 10
11.6849237912
 20
5.8991775098
 30
0.0
 10
11.6825947434
 20
5.9117431862
 30
0.0
 10
11.681288221
 20
5.9218395647
 30
0.0
 10
11.6803557874
 20
5.9319262795
 30
0.0
 10
11.6800734536
 20
5.9395164676
 30
0.0
 10
11.6800734536
 20
5.9445673136
 30
0.0
  0
SPLINE
  5
42A
100
AcDbEntity
  8
0
100
AcDbSpline
 62
7
  6
CONTINUOUS
 70
0
 71
3
 72
50
 73
46
 74
0
 42
0.0000001
 43
0.0000001
 44
0.0000000001
 40
0.0
 40
0.0
 40
0.0
 40
0.0
 40
0.0417744418
 40
0.0840381875
 40
0.1266602114
 40
0.1695088334
 40
0.2124510193
 40
0.2553535638
 40
0.2980833443
 40
0.3405079442
 40
0.3824961454
 40
0.4239184685
 40
0.4646477027
 40
0.5045594474
 40
0.5435326636
 40
0.5814502412
 40
0.6181995892
 40
0.6536732601
 40
0.6877696215
 40
0.7203935994
 40
0.7514575214
 40
0.7808821092
 40
0.7949579392
 40
0.8085987194
 40
0.821797426
 40
0.8345479988
 40
0.8468451249
 40
0.8586846215
 40
0.8700632619
 40
0.8809791687
 40
0.8914317275
 40
0.9014219834
 40
0.9109526898
 40
0.9200287185
 40
0.9286572935
 40
0.9368484417
 40
0.9446154576
 40
0.9519754311
 40
0.9589499519
 40
0.9655657069
 40
0.9778458861
 40
0.9836071497
 40
0.9891799
 40
0.9946230074
 40
1.0
 40
1.0
 40
1.0
 40
1.0
 10
13.054790712
 20
9.4507014175
 30
0.0
 10
13.054790712
 20
9.4418399076
 30
0.0
 10
13.0546524593
 20
9.4240128144
 30
0.0
 10
13.054041291
 20
9.3971507135
 30
0.0
 10
13.053026881
 20
9.3700727495
 30
0.0
 10
13.0516125833
 20
9.3428686472
 30
0.0
 10
13.0498030509
 20
9.3156283372
 30
0.0
 10
13.0476042766
 20
9.2884419706
 30
0.0
 10
13.0450235388
 20
9.2613994797
 30
0.0
 10
13.0420693949
 20
9.2345903312
 30
0.0
 10
13.0387516454
 20
9.2081032104
 30
0.0
 10
13.0350813048
 20
9.1820257306
 30
0.0
 10
13.031070565
 20
9.1564441393
 30
0.0
 10
13.0267327557
 20
9.1314430297
 30
0.0
 10
13.0220823013
 20
9.1071050564
 30
0.0
 10
13.0171346742
 20
9.0835106562
 30
0.0
 10
13.0119063444
 20
9.0607377766
 30
0.0
 10
13.0064147264
 20
9.038861601
 30
0.0
 10
13.0006781189
 20
9.0179543131
 30
0.0
 10
12.9947156536
 20
8.9980847458
 30
0.0
 10
12.9885471893
 20
8.9793184595
 30
0.0
 10
12.9831759136
 20
8.9644383064
 30
0.0
 10
12.9787806667
 20
8.9531414932
 30
0.0
 10
12.9754943938
 20
8.9451079245
 30
0.0
 10
12.9721721373
 20
8.9373943106
 30
0.0
 10
12.9688166908
 20
8.9300069742
 30
0.0
 10
12.9654307573
 20
8.9229520067
 30
0.0
 10
12.9620172056
 20
8.916235175
 30
0.0
 10
12.9585787728
 20
8.9098620008
 30
0.0
 10
12.955118348
 20
8.9038376676
 30
0.0
 10
12.9516386976
 20
8.898167104
 30
0.0
 10
12.9481426978
 20
8.8928548923
 30
0.0
 10
12.9446331219
 20
8.8879053452
 30
0.0
 10
12.9411127918
 20
8.8833224371
 30
0.0
 10
12.9375844442
 20
8.8791098505
 30
0.0
 10
12.9340508077
 20
8.8752709768
 30
0.0
 10
12.9305144624
 20
8.8718088588
 30
0.0
 10
12.9269781938
 20
8.8687264824
 30
0.0
 10
12.923443632
 20
8.866025985
 30
0.0
 10
12.9188531881
 20
8.863013894
 30
0.0
 10
12.9141467732
 20
8.8606582777
 30
0.0
 10
12.9093796673
 20
8.8590957568
 30
0.0
 10
12.9058942296
 20
8.8583422368
 30
0.0
 10
12.9024283498
 20
8.8579844547
 30
0.0
 10
12.9001272578
 20
8.8580107525
 30
0.0
 10
12.8989893825
 20
8.8580896635
 30
0.0
  0
SPLINE
  5
42B
100
AcDbEntity
  8
0
100
AcDbSpline
 62
7
  6
CONTINUOUS
 70
0
 71
3
 72
50
 73
46
 74
0
 42
0.0000001
 43
0.0000001
 44
0.0000000001
 40
0.0
 40
0.0
 40
0.0
 40
0.0
 40
0.0417744418
 40
0.0840381875
 40
0.1266602114
 40
0.1695088334
 40
0.2124510193
 40
0.2553535638
 40
0.2980833443
 40
0.3405079442
 40
0.3824961454
 40
0.4239184685
 40
0.4646477027
 40
0.5045594474
 40
0.5435326636
 40
0.5814502412
 40
0.6181995892
 40
0.6536732601
 40
0.6877696215
 40
0.7203935994
 40
0.7514575214
 40
0.7808821092
 40
0.7949579392
 40
0.8085987194
 40
0.821797426
 40
0.8345479988
 40
0.8468451249
 40
0.8586846215
 40
0.8700632619
 40
0.8809791687
 40
0.8914317275
 40
0.9014219834
 40
0.9109526898
 40
0.9200287185
 40
0.9286572935
 40
0.9368484417
 40
0.9446154576
 40
0.9519754311
 40
0.9589499519
 40
0.9655657069
 40
0.9778458861
 40
0.9836071497
 40
0.9891799
 40
0.9946230074
 40
1.0
 40
1.0
 40
1.0
 40
1.0
 10
13.054790712
 20
7.5188496504
 30
0.0
 10
13.054790712
 20
7.5099881405
 30
0.0
 10
13.0546524593
 20
7.4921610474
 30
0.0
 10
13.054041291
 20
7.4652989464
 30
0.0
 10
13.053026881
 20
7.4382209825
 30
0.0
 10
13.0516125833
 20
7.4110168802
 30
0.0
 10
13.0498030509
 20
7.3837765702
 30
0.0
 10
13.0476042766
 20
7.3565902036
 30
0.0
 10
13.0450235388
 20
7.3295477126
 30
0.0
 10
13.0420693949
 20
7.3027385642
 30
0.0
 10
13.0387516454
 20
7.2762514433
 30
0.0
 10
13.0350813048
 20
7.2501739635
 30
0.0
 10
13.031070565
 20
7.2245923723
 30
0.0
 10
13.0267327557
 20
7.1995912626
 30
0.0
 10
13.0220823013
 20
7.1752532893
 30
0.0
 10
13.0171346742
 20
7.1516588891
 30
0.0
 10
13.0119063444
 20
7.1288860096
 30
0.0
 10
13.0064147264
 20
7.1070098339
 30
0.0
 10
13.0006781189
 20
7.0861025461
 30
0.0
 10
12.9947156536
 20
7.0662329788
 30
0.0
 10
12.9885471893
 20
7.0474666924
 30
0.0
 10
12.9831759136
 20
7.0325865393
 30
0.0
 10
12.9787806667
 20
7.0212897262
 30
0.0
 10
12.9754943938
 20
7.0132561575
 30
0.0
 10
12.9721721373
 20
7.0055425436
 30
0.0
 10
12.9688166908
 20
6.9981552071
 30
0.0
 10
12.9654307573
 20
6.9911002397
 30
0.0
 10
12.9620172056
 20
6.9843834079
 30
0.0
 10
12.9585787728
 20
6.9780102337
 30
0.0
 10
12.955118348
 20
6.9719859006
 30
0.0
 10
12.9516386976
 20
6.9663153369
 30
0.0
 10
12.9481426978
 20
6.9610031253
 30
0.0
 10
12.9446331219
 20
6.9560535782
 30
0.0
 10
12.9411127918
 20
6.9514706701
 30
0.0
 10
12.9375844442
 20
6.9472580835
 30
0.0
 10
12.9340508077
 20
6.9434192098
 30
0.0
 10
12.9305144624
 20
6.9399570918
 30
0.0
 10
12.9269781938
 20
6.9368747154
 30
0.0
 10
12.923443632
 20
6.934174218
 30
0.0
 10
12.9188531881
 20
6.9311621269
 30
0.0
 10
12.9141467732
 20
6.9288065107
 30
0.0
 10
12.9093796673
 20
6.9272439898
 30
0.0
 10
12.9058942296
 20
6.9264904698
 30
0.0
 10
12.9024283498
 20
6.9261326877
 30
0.0
 10
12.9001272578
 20
6.9261589854
 30
0.0
 10
12.8989893825
 20
6.9262378965
 30
0.0
  0
SPLINE
  5
42C
100
AcDbEntity
  8
0
100
AcDbSpline
 62
7
  6
CONTINUOUS
 70
0
 71
3
 72
39
 73
35
 74
0
 42
0.0000001
 43
0.0000001
 44
0.0000000001
 40
0.0
 40
0.0
 40
0.0
 40
0.0
 40
0.0063160487
 40
0.0126710049
 40
0.0191030143
 40
0.025648725
 40
0.0323427741
 40
0.0392173099
 40
0.0536154899
 40
0.0690526699
 40
0.0856860689
 40
0.1036343988
 40
0.1229845382
 40
0.1437975072
 40
0.1661135699
 40
0.1899565186
 40
0.215336667
 40
0.2422531964
 40
0.2706962121
 40
0.3006480089
 40
0.3320840834
 40
0.3649742158
 40
0.3992830292
 40
0.4349704483
 40
0.4719923721
 40
0.510300957
 40
0.5498448414
 40
0.5905696299
 40
0.6324180703
 40
0.6753301946
 40
0.7192436555
 40
0.8098126736
 40
0.9035864807
 40
1.0
 40
1.0
 40
1.0
 40
1.0
 10
12.9647141516
 20
9.8058133534
 30
0.0
 10
12.9655169907
 20
9.8057576769
 30
0.0
 10
12.9671238213
 20
9.8055802781
 30
0.0
 10
12.9695160622
 20
9.8051178583
 30
0.0
 10
12.9718923032
 20
9.8044591209
 30
0.0
 10
12.97425118
 20
9.8036046416
 30
0.0
 10
12.9765917248
 20
9.8025548871
 30
0.0
 10
12.9797345627
 20
9.8008701307
 30
0.0
 10
12.9836235799
 20
9.7982468465
 30
0.0
 10
12.9881218305
 20
9.7943799227
 30
0.0
 10
12.9925198576
 20
9.7897545376
 30
0.0
 10
12.9968125974
 20
9.7843792716
 30
0.0
 10
13.0009953772
 20
9.7782625075
 30
0.0
 10
13.0050626904
 20
9.7714136745
 30
0.0
 10
13.0090088126
 20
9.763843318
 30
0.0
 10
13.0128277546
 20
9.7555632115
 30
0.0
 10
13.0165135271
 20
9.7465864191
 30
0.0
 10
13.020060248
 20
9.736927279
 30
0.0
 10
13.0234621164
 20
9.7266013285
 30
0.0
 10
13.0267135289
 20
9.7156252938
 30
0.0
 10
13.0298091398
 20
9.7040170509
 30
0.0
 10
13.0327437944
 20
9.6917955552
 30
0.0
 10
13.0355126003
 20
9.6789808176
 30
0.0
 10
13.0381109767
 20
9.6655938691
 30
0.0
 10
13.0405345818
 20
9.6516567004
 30
0.0
 10
13.0427793626
 20
9.6371922298
 30
0.0
 10
13.0448416038
 20
9.6222242692
 30
0.0
 10
13.046717861
 20
9.606777466
 30
0.0
 10
13.048404983
 20
9.5908772734
 30
0.0
 10
13.0499002143
 20
9.5745498761
 30
0.0
 10
13.0516525453
 20
9.5520143624
 30
0.0
 10
13.0533314201
 20
9.5229758419
 30
0.0
 10
13.0545304939
 20
9.4872200039
 30
0.0
 10
13.054790712
 20
9.4629860673
 30
0.0
 10
13.054790712
 20
9.4507014175
 30
0.0
  0
SPLINE
  5
42D
100
AcDbEntity
  8
0
100
AcDbSpline
 62
7
  6
CONTINUOUS
 70
0
 71
3
 72
19
 73
15
 74
0
 42
0.0000001
 43
0.0000001
 44
0.0000000001
 40
0.0
 40
0.0
 40
0.0
 40
0.0
 40
0.12732766
 40
0.2538196711
 40
0.3795264658
 40
0.5045235362
 40
0.5668075958
 40
0.6289556124
 40
0.6909843715
 40
0.7529118454
 40
0.8147570127
 40
0.8765397119
 40
0.9382804145
 40
1.0
 40
1.0
 40
1.0
 40
1.0
 10
11.6800734536
 20
5.9445673136
 30
0.0
 10
11.6800734536
 20
5.9510656936
 30
0.0
 10
11.6806939058
 20
5.9640287439
 30
0.0
 10
11.6834999774
 20
5.9832242526
 30
0.0
 10
11.6881524198
 20
6.0019365426
 30
0.0
 10
11.6935418957
 20
6.017004794
 30
0.0
 10
11.6987250962
 20
6.0286367451
 30
0.0
 10
11.7030352876
 20
6.0371258141
 30
0.0
 10
11.7077622062
 20
6.0453688738
 30
0.0
 10
11.7128950935
 20
6.0533471845
 30
0.0
 10
11.7184221071
 20
6.061042223
 30
0.0
 10
11.7243305098
 20
6.0684363668
 30
0.0
 10
11.7306064887
 20
6.0755122888
 30
0.0
 10
11.7350267244
 20
6.0800073531
 30
0.0
 10
11.7372923496
 20
6.0821957782
 30
0.0
  0
SPLINE
  5
42E
100
AcDbEntity
  8
0
100
AcDbSpline
 62
7
  6
CONTINUOUS
 70
0
 71
3
 72
39
 73
35
 74
0
 42
0.0000001
 43
0.0000001
 44
0.0000000001
 40
0.0
 40
0.0
 40
0.0
 40
0.0
 40
0.0063160487
 40
0.0126710049
 40
0.0191030143
 40
0.025648725
 40
0.0323427741
 40
0.0392173099
 40
0.0536154899
 40
0.0690526699
 40
0.0856860689
 40
0.1036343988
 40
0.1229845382
 40
0.1437975072
 40
0.1661135699
 40
0.1899565186
 40
0.215336667
 40
0.2422531964
 40
0.2706962121
 40
0.3006480089
 40
0.3320840834
 40
0.3649742158
 40
0.3992830292
 40
0.4349704483
 40
0.4719923721
 40
0.510300957
 40
0.5498448414
 40
0.5905696299
 40
0.6324180703
 40
0.6753301946
 40
0.7192436555
 40
0.8098126736
 40
0.9035864807
 40
1.0
 40
1.0
 40
1.0
 40
1.0
 10
12.9647141516
 20
7.8739615863
 30
0.0
 10
12.9655169907
 20
7.8739059099
 30
0.0
 10
12.9671238213
 20
7.873728511
 30
0.0
 10
12.9695160622
 20
7.8732660913
 30
0.0
 10
12.9718923032
 20
7.8726073538
 30
0.0
 10
12.97425118
 20
7.8717528746
 30
0.0
 10
12.9765917248
 20
7.8707031201
 30
0.0
 10
12.9797345627
 20
7.8690183636
 30
0.0
 10
12.9836235799
 20
7.8663950795
 30
0.0
 10
12.9881218305
 20
7.8625281557
 30
0.0
 10
12.9925198576
 20
7.8579027706
 30
0.0
 10
12.9968125974
 20
7.8525275046
 30
0.0
 10
13.0009953772
 20
7.8464107405
 30
0.0
 10
13.0050626904
 20
7.8395619075
 30
0.0
 10
13.0090088126
 20
7.8319915509
 30
0.0
 10
13.0128277546
 20
7.8237114445
 30
0.0
 10
13.0165135271
 20
7.814734652
 30
0.0
 10
13.020060248
 20
7.805075512
 30
0.0
 10
13.0234621164
 20
7.7947495615
 30
0.0
 10
13.0267135289
 20
7.7837735268
 30
0.0
 10
13.0298091398
 20
7.7721652839
 30
0.0
 10
13.0327437944
 20
7.7599437881
 30
0.0
 10
13.0355126003
 20
7.7471290505
 30
0.0
 10
13.0381109767
 20
7.7337421021
 30
0.0
 10
13.0405345818
 20
7.7198049334
 30
0.0
 10
13.0427793626
 20
7.7053404627
 30
0.0
 10
13.0448416038
 20
7.6903725022
 30
0.0
 10
13.046717861
 20
7.6749256989
 30
0.0
 10
13.048404983
 20
7.6590255063
 30
0.0
 10
13.0499002143
 20
7.6426981091
 30
0.0
 10
13.0516525453
 20
7.6201625953
 30
0.0
 10
13.0533314201
 20
7.5911240748
 30
0.0
 10
13.0545304939
 20
7.5553682369
 30
0.0
 10
13.054790712
 20
7.5311343003
 30
0.0
 10
13.054790712
 20
7.5188496504
 30
0.0
  0
SPLINE
  5
42F
100
AcDbEntity
  8
0
100
AcDbSpline
 62
4
  6
CONTINUOUS
 70
0
 71
3
 72
397
 73
393
 74
0
 42
0.0000001
 43
0.0000001
 44
0.0000000001
 40
0.0
 40
0.0
 40
0.0
 40
0.0
 40
0.015625
 40
0.0234375
 40
0.03125
 40
0.0390625
 40
0.04296875
 40
0.046875
 40
0.05078125
 40
0.0546875
 40
0.056640625
 40
0.05859375
 40
0.0595703125
 40
0.060546875
 40
0.0615234375
 40
0.0620117188
 40
0.0622558594
 40
0.0625
 40
0.0627441406
 40
0.0629882812
 40
0.0634765625
 40
0.064453125
 40
0.0654296875
 40
0.06640625
 40
0.068359375
 40
0.0703125
 40
0.07421875
 40
0.078125
 40
0.08203125
 40
0.0859375
 40
0.09375
 40
0.1015625
 40
0.10546875
 40
0.109375
 40
0.11328125
 40
0.1171875
 40
0.119140625
 40
0.12109375
 40
0.1220703125
 40
0.123046875
 40
0.1240234375
 40
0.1245117188
 40
0.1247558594
 40
0.125
 40
0.1252441406
 40
0.1254882812
 40
0.1259765625
 40
0.126953125
 40
0.1279296875
 40
0.12890625
 40
0.130859375
 40
0.1328125
 40
0.13671875
 40
0.140625
 40
0.14453125
 40
0.1484375
 40
0.15625
 40
0.1640625
 40
0.16796875
 40
0.171875
 40
0.17578125
 40
0.1796875
 40
0.181640625
 40
0.18359375
 40
0.1845703125
 40
0.185546875
 40
0.1865234375
 40
0.1870117188
 40
0.1872558594
 40
0.1875
 40
0.1877441406
 40
0.1879882812
 40
0.1884765625
 40
0.189453125
 40
0.1904296875
 40
0.19140625
 40
0.193359375
 40
0.1953125
 40
0.19921875
 40
0.203125
 40
0.20703125
 40
0.2109375
 40
0.21875
 40
0.2265625
 40
0.23046875
 40
0.234375
 40
0.23828125
 40
0.2421875
 40
0.244140625
 40
0.24609375
 40
0.2470703125
 40
0.248046875
 40
0.2490234375
 40
0.2495117188
 40
0.2497558594
 40
0.25
 40
0.2502441406
 40
0.2504882812
 40
0.2509765625
 40
0.251953125
 40
0.2529296875
 40
0.25390625
 40
0.255859375
 40
0.2578125
 40
0.26171875
 40
0.265625
 40
0.26953125
 40
0.2734375
 40
0.28125
 40
0.2890625
 40
0.29296875
 40
0.296875
 40
0.30078125
 40
0.3046875
 40
0.306640625
 40
0.30859375
 40
0.3095703125
 40
0.310546875
 40
0.3115234375
 40
0.3120117188
 40
0.3122558594
 40
0.3125
 40
0.3127441406
 40
0.3129882812
 40
0.3134765625
 40
0.314453125
 40
0.3154296875
 40
0.31640625
 40
0.318359375
 40
0.3203125
 40
0.32421875
 40
0.328125
 40
0.33203125
 40
0.3359375
 40
0.34375
 40
0.3515625
 40
0.35546875
 40
0.359375
 40
0.36328125
 40
0.3671875
 40
0.369140625
 40
0.37109375
 40
0.3720703125
 40
0.373046875
 40
0.3740234375
 40
0.3745117188
 40
0.3747558594
 40
0.375
 40
0.3752441406
 40
0.3754882812
 40
0.3759765625
 40
0.376953125
 40
0.3779296875
 40
0.37890625
 40
0.380859375
 40
0.3828125
 40
0.38671875
 40
0.390625
 40
0.39453125
 40
0.3984375
 40
0.40625
 40
0.4140625
 40
0.41796875
 40
0.421875
 40
0.42578125
 40
0.4296875
 40
0.431640625
 40
0.43359375
 40
0.4345703125
 40
0.435546875
 40
0.4365234375
 40
0.4370117188
 40
0.4372558594
 40
0.4375
 40
0.4377441406
 40
0.4379882812
 40
0.4384765625
 40
0.439453125
 40
0.4404296875
 40
0.44140625
 40
0.443359375
 40
0.4453125
 40
0.44921875
 40
0.453125
 40
0.45703125
 40
0.4609375
 40
0.46875
 40
0.4765625
 40
0.48046875
 40
0.484375
 40
0.48828125
 40
0.4921875
 40
0.494140625
 40
0.49609375
 40
0.4970703125
 40
0.498046875
 40
0.4990234375
 40
0.4995117188
 40
0.4997558594
 40
0.5
 40
0.5002441406
 40
0.5004882812
 40
0.5009765625
 40
0.501953125
 40
0.5029296875
 40
0.50390625
 40
0.505859375
 40
0.5078125
 40
0.51171875
 40
0.515625
 40
0.51953125
 40
0.5234375
 40
0.53125
 40
0.5390625
 40
0.54296875
 40
0.546875
 40
0.55078125
 40
0.5546875
 40
0.556640625
 40
0.55859375
 40
0.5595703125
 40
0.560546875
 40
0.5615234375
 40
0.5620117188
 40
0.5622558594
 40
0.5625
 40
0.5627441406
 40
0.5629882812
 40
0.5634765625
 40
0.564453125
 40
0.5654296875
 40
0.56640625
 40
0.568359375
 40
0.5703125
 40
0.57421875
 40
0.578125
 40
0.58203125
 40
0.5859375
 40
0.59375
 40
0.6015625
 40
0.60546875
 40
0.609375
 40
0.61328125
 40
0.6171875
 40
0.619140625
 40
0.62109375
 40
0.6220703125
 40
0.623046875
 40
0.6240234375
 40
0.6245117188
 40
0.625
 40
0.6254882812
 40
0.6259765625
 40
0.626953125
 40
0.6279296875
 40
0.62890625
 40
0.630859375
 40
0.6328125
 40
0.63671875
 40
0.640625
 40
0.64453125
 40
0.6484375
 40
0.65625
 40
0.6640625
 40
0.66796875
 40
0.671875
 40
0.67578125
 40
0.6796875
 40
0.681640625
 40
0.68359375
 40
0.6845703125
 40
0.685546875
 40
0.6865234375
 40
0.6870117188
 40
0.6872558594
 40
0.6875
 40
0.6877441406
 40
0.6879882812
 40
0.6884765625
 40
0.689453125
 40
0.6904296875
 40
0.69140625
 40
0.693359375
 40
0.6953125
 40
0.69921875
 40
0.703125
 40
0.70703125
 40
0.7109375
 40
0.71875
 40
0.7265625
 40
0.73046875
 40
0.734375
 40
0.73828125
 40
0.7421875
 40
0.744140625
 40
0.74609375
 40
0.7470703125
 40
0.748046875
 40
0.7490234375
 40
0.7495117188
 40
0.7497558594
 40
0.75
 40
0.7502441406
 40
0.7504882812
 40
0.7509765625
 40
0.751953125
 40
0.7529296875
 40
0.75390625
 40
0.755859375
 40
0.7578125
 40
0.76171875
 40
0.765625
 40
0.76953125
 40
0.7734375
 40
0.78125
 40
0.7890625
 40
0.79296875
 40
0.796875
 40
0.80078125
 40
0.8046875
 40
0.806640625
 40
0.80859375
 40
0.8095703125
 40
0.810546875
 40
0.8115234375
 40
0.8120117188
 40
0.8125
 40
0.8129882812
 40
0.8134765625
 40
0.814453125
 40
0.8154296875
 40
0.81640625
 40
0.818359375
 40
0.8203125
 40
0.82421875
 40
0.828125
 40
0.83203125
 40
0.8359375
 40
0.84375
 40
0.8515625
 40
0.85546875
 40
0.859375
 40
0.86328125
 40
0.8671875
 40
0.869140625
 40
0.87109375
 40
0.8720703125
 40
0.873046875
 40
0.8740234375
 40
0.8745117188
 40
0.875
 40
0.8754882812
 40
0.8759765625
 40
0.876953125
 40
0.8779296875
 40
0.87890625
 40
0.880859375
 40
0.8828125
 40
0.88671875
 40
0.890625
 40
0.89453125
 40
0.8984375
 40
0.90625
 40
0.9140625
 40
0.91796875
 40
0.921875
 40
0.92578125
 40
0.9296875
 40
0.931640625
 40
0.93359375
 40
0.9345703125
 40
0.935546875
 40
0.9365234375
 40
0.9370117188
 40
0.9372558594
 40
0.9375
 40
0.9377441406
 40
0.9379882812
 40
0.9384765625
 40
0.939453125
 40
0.9404296875
 40
0.94140625
 40
0.943359375
 40
0.9453125
 40
0.94921875
 40
0.953125
 40
0.95703125
 40
0.9609375
 40
0.96875
 40
0.9765625
 40
0.984375
 40
1.0
 40
1.0
 40
1.0
 40
1.0
 10
9.3483283708
 20
7.4543205658
 30
0.0
 10
9.3525059533
 20
7.454440465
 30
0.0
 10
9.3587723272
 20
7.4546203139
 30
0.0
 10
9.3671274923
 20
7.4548601123
 30
0.0
 10
9.3733938661
 20
7.4550399612
 30
0.0
 10
9.3786158443
 20
7.455189835
 30
0.0
 10
9.3827934268
 20
7.4553097346
 30
0.0
 10
9.385926614
 20
7.4553996577
 30
0.0
 10
9.3890597999
 20
7.4554895871
 30
0.0
 10
9.3916707921
 20
7.4555645086
 30
0.0
 10
9.3937595772
 20
7.4556244898
 30
0.0
 10
9.3950650874
 20
7.4556618779
 30
0.0
 10
9.3961094508
 20
7.4556920177
 30
0.0
 10
9.396892846
 20
7.4557139948
 30
0.0
 10
9.3975452852
 20
7.4557343062
 30
0.0
 10
9.3980027583
 20
7.4557446046
 30
0.0
 10
9.398262976
 20
7.4557566095
 30
0.0
 10
9.3984615068
 20
7.4557483729
 30
0.0
 10
9.3986471655
 20
7.4558060375
 30
0.0
 10
9.3988992004
 20
7.4558599365
 30
0.0
 10
9.3993381695
 20
7.4559649699
 30
0.0
 10
9.3999663619
 20
7.4561094182
 30
0.0
 10
9.4007197246
 20
7.456285153
 30
0.0
 10
9.4017243718
 20
7.4565186288
 30
0.0
 10
9.4029801248
 20
7.4568107603
 30
0.0
 10
9.4049893608
 20
7.4572780104
 30
0.0
 10
9.4075008951
 20
7.457862128
 30
0.0
 10
9.4105147409
 20
7.4585630456
 30
0.0
 10
9.4135285854
 20
7.4592639694
 30
0.0
 10
9.4175470452
 20
7.4601985324
 30
0.0
 10
9.4225701198
 20
7.4613667369
 30
0.0
 10
9.4275931946
 20
7.4625349409
 30
0.0
 10
9.4316116542
 20
7.4634695047
 30
0.0
 10
9.4346254995
 20
7.464170426
 30
0.0
 10
9.4376393424
 20
7.4648713533
 30
0.0
 10
9.4401508857
 20
7.4654554406
 30
0.0
 10
9.4421601034
 20
7.4659227525
 30
0.0
 10
9.4434159029
 20
7.4662147267
 30
0.0
 10
9.4444204546
 20
7.4664485253
 30
0.0
 10
9.445174109
 20
7.4666232739
 30
0.0
 10
9.4458013889
 20
7.4667708077
 30
0.0
 10
9.4462419869
 20
7.4668703331
 30
0.0
 10
9.4464914119
 20
7.4669330573
 30
0.0
 10
9.4466850873
 20
7.4669636136
 30
0.0
 10
9.4468535088
 20
7.4670571914
 30
0.0
 10
9.4470868797
 20
7.4671599792
 30
0.0
 10
9.4474911746
 20
7.4673501001
 30
0.0
 10
9.4480708845
 20
7.4676163465
 30
0.0
 10
9.4487656179
 20
7.4679381343
 30
0.0
 10
9.4496922499
 20
7.4683663841
 30
0.0
 10
9.45085043
 20
7.4689019704
 30
0.0
 10
9.4527035797
 20
7.4697587554
 30
0.0
 10
9.4550199956
 20
7.4708297892
 30
0.0
 10
9.4577997038
 20
7.4721150072
 30
0.0
 10
9.4605794096
 20
7.4734002312
 30
0.0
 10
9.4642856848
 20
7.4751138611
 30
0.0
 10
9.4689185284
 20
7.4772558993
 30
0.0
 10
9.4735513724
 20
7.479397937
 30
0.0
 10
9.4772576472
 20
7.4811115678
 30
0.0
 10
9.4800373541
 20
7.4823967893
 30
0.0
 10
9.4828170579
 20
7.4836820167
 30
0.0
 10
9.4851334874
 20
7.4847530212
 30
0.0
 10
9.4869866094
 20
7.4856098659
 30
0.0
 10
9.4881448599
 20
7.4861453001
 30
0.0
 10
9.4890713476
 20
7.4865738622
 30
0.0
 10
9.4897665218
 20
7.4868946957
 30
0.0
 10
9.4903448525
 20
7.4871639278
 30
0.0
 10
9.4907516094
 20
7.4873487188
 30
0.0
 10
9.4909810356
 20
7.4874600464
 30
0.0
 10
9.491161574
 20
7.4875273929
 30
0.0
 10
9.4913097406
 20
7.4876564696
 30
0.0
 10
9.4915185878
 20
7.4878070397
 30
0.0
 10
9.4918788094
 20
7.4880805697
 30
0.0
 10
9.4923961622
 20
7.4884660817
 30
0.0
 10
9.4930158082
 20
7.4889309412
 30
0.0
 10
9.4938424141
 20
7.4895499697
 30
0.0
 10
9.4948755307
 20
7.4903240238
 30
0.0
 10
9.4965285959
 20
7.4915623603
 30
0.0
 10
9.4985949004
 20
7.4931103325
 30
0.0
 10
9.5010744774
 20
7.494967877
 30
0.0
 10
9.5035540513
 20
7.4968254274
 30
0.0
 10
9.5068601509
 20
7.4993021592
 30
0.0
 10
9.510992775
 20
7.5023980748
 30
0.0
 10
9.5151253994
 20
7.5054939898
 30
0.0
 10
9.5184314985
 20
7.5079707224
 30
0.0
 10
9.5209110741
 20
7.5098282706
 30
0.0
 10
9.5233906447
 20
7.5116858233
 30
0.0
 10
9.525456969
 20
7.5132337699
 30
0.0
 10
9.5271099939
 20
7.5144721586
 30
0.0
 10
9.5281432132
 20
7.51524608
 30
0.0
 10
9.5289696081
 20
7.515865381
 30
0.0
 10
9.5295898988
 20
7.516329408
 30
0.0
 10
9.5301052345
 20
7.5167175245
 30
0.0
 10
9.530469057
 20
7.5169864052
 30
0.0
 10
9.5306721346
 20
7.5171444245
 30
0.0
 10
9.5308380236
 20
7.5172506196
 30
0.0
 10
9.5309519996
 20
7.5174039056
 30
0.0
 10
9.5311220755
 20
7.5175918611
 30
0.0
 10
9.5314112714
 20
7.5179284364
 30
0.0
 10
9.5318288193
 20
7.5184052571
 30
0.0
 10
9.5323279887
 20
7.5189791545
 30
0.0
 10
9.5329942075
 20
7.5197437529
 30
0.0
 10
9.5338267551
 20
7.5206997058
 30
0.0
 10
9.5351589575
 20
7.5222291158
 30
0.0
 10
9.5368241672
 20
7.5241409177
 30
0.0
 10
9.5388224373
 20
7.526435063
 30
0.0
 10
9.5408207026
 20
7.5287292129
 30
0.0
 10
9.5434850579
 20
7.5317880778
 30
0.0
 10
9.5468155015
 20
7.5356116596
 30
0.0
 10
9.5501459455
 20
7.539435241
 30
0.0
 10
9.5528103002
 20
7.5424941065
 30
0.0
 10
9.5548085675
 20
7.5447882546
 30
0.0
 10
9.5568068296
 20
7.5470824066
 30
0.0
 10
9.5584720645
 20
7.5489941878
 30
0.0
 10
9.5598042156
 20
7.5505236399
 30
0.0
 10
9.5606368937
 20
7.5514794857
 30
0.0
 10
9.5613028446
 20
7.5522443039
 30
0.0
 10
9.5618028324
 20
7.5528175299
 30
0.0
 10
9.5622178199
 20
7.5532964513
 30
0.0
 10
9.5625115865
 20
7.5536292764
 30
0.0
 10
9.5626743389
 20
7.5538232406
 30
0.0
 10
9.56281081
 20
7.5539580701
 30
0.0
 10
9.5628922112
 20
7.5541335848
 30
0.0
 10
9.5630199551
 20
7.5543534129
 30
0.0
 10
9.5632345571
 20
7.5547447243
 30
0.0
 10
9.5635458105
 20
7.5553002836
 30
0.0
 10
9.5639173118
 20
7.5559684344
 30
0.0
 10
9.5644133463
 20
7.5568587854
 30
0.0
 10
9.56503315
 20
7.5579719011
 30
0.0
 10
9.5660249698
 20
7.5597527873
 30
0.0
 10
9.5672646985
 20
7.5619789289
 30
0.0
 10
9.5687523927
 20
7.5646502844
 30
0.0
 10
9.5702400816
 20
7.5673216437
 30
0.0
 10
9.5722236687
 20
7.5708834548
 30
0.0
 10
9.5747031518
 20
7.5753357191
 30
0.0
 10
9.5771826354
 20
7.5797879832
 30
0.0
 10
9.5791662217
 20
7.5833497948
 30
0.0
 10
9.580653913
 20
7.5860211527
 30
0.0
 10
9.5821415984
 20
7.5886925134
 30
0.0
 10
9.5833813544
 20
7.5909186385
 30
0.0
 10
9.5843731185
 20
7.5926995585
 30
0.0
 10
9.5849930639
 20
7.5938125883
 30
0.0
 10
9.5854888074
 20
7.5947031155
 30
0.0
 10
9.5858611979
 20
7.5953707279
 30
0.0
 10
9.5861696691
 20
7.5959279719
 30
0.0
 10
9.5863892378
 20
7.5963162757
 30
0.0
 10
9.5865090239
 20
7.5965409227
 30
0.0
 10
9.5866148691
 20
7.5967016355
 30
0.0
 10
9.5866595325
 20
7.5968920587
 30
0.0
 10
9.5867404246
 20
7.597135593
 30
0.0
 10
9.5868720428
 20
7.5975666064
 30
0.0
 10
9.587065267
 20
7.5981798156
 30
0.0
 10
9.5872949111
 20
7.598916747
 30
0.0
 10
9.5876018803
 20
7.599898945
 30
0.0
 10
9.5879853257
 20
7.6011268216
 30
0.0
 10
9.5885989871
 20
7.6030913519
 30
0.0
 10
9.5893660128
 20
7.6055470396
 30
0.0
 10
9.5902864656
 20
7.6084938543
 30
0.0
 10
9.5912069125
 20
7.6114406718
 30
0.0
 10
9.5924341771
 20
7.6153697607
 30
0.0
 10
9.593968257
 20
7.6202811223
 30
0.0
 10
9.5955023375
 20
7.6251924837
 30
0.0
 10
9.5967296013
 20
7.629121573
 30
0.0
 10
9.5976500507
 20
7.6320683895
 30
0.0
 10
9.5985704939
 20
7.6350152081
 30
0.0
 10
9.5993375493
 20
7.6374708833
 30
0.0
 10
9.5999511503
 20
7.6394354392
 30
0.0
 10
9.6003347495
 20
7.6406632507
 30
0.0
 10
9.600641403
 20
7.6416455823
 30
0.0
 10
9.6008720118
 20
7.6423821054
 30
0.0
 10
9.6010622174
 20
7.6429965922
 30
0.0
 10
9.6011992244
 20
7.6434253248
 30
0.0
 10
9.6012714822
 20
7.6436725137
 30
0.0
 10
9.6013426676
 20
7.6438517113
 30
0.0
 10
9.6013489005
 20
7.6440545855
 30
0.0
 10
9.6013798671
 20
7.6443168258
 30
0.0
 10
9.6014235029
 20
7.6447795942
 30
0.0
 10
9.6014913584
 20
7.6454386802
 30
0.0
 10
9.6015704228
 20
7.6462304445
 30
0.0
 10
9.601676667
 20
7.6472858294
 30
0.0
 10
9.6018091899
 20
7.6486051636
 30
0.0
 10
9.6020213843
 20
7.6507160407
 30
0.0
 10
9.6022865731
 20
7.6533546568
 30
0.0
 10
9.602604823
 20
7.6565209877
 30
0.0
 10
9.6029230666
 20
7.6596873208
 30
0.0
 10
9.6033473936
 20
7.6639090975
 30
0.0
 10
9.6038778015
 20
7.6691863187
 30
0.0
 10
9.60440821
 20
7.6744635398
 30
0.0
 10
9.6048325361
 20
7.6786853167
 30
0.0
 10
9.6051507824
 20
7.6818516494
 30
0.0
 10
9.6054690223
 20
7.6850179819
 30
0.0
 10
9.6057342422
 20
7.6876565928
 30
0.0
 10
9.6059463732
 20
7.6897674806
 30
0.0
 10
9.6060790575
 20
7.6910867875
 30
0.0
 10
9.6061849703
 20
7.6921422285
 30
0.0
 10
9.6062650475
 20
7.6929338214
 30
0.0
 10
9.606329734
 20
7.6935934435
 30
0.0
 10
9.6063790269
 20
7.6940552549
 30
0.0
 10
9.6064009294
 20
7.6943190285
 30
0.0
 10
9.6064350045
 20
7.6945171929
 30
0.0
 10
9.606401619
 20
7.6947140801
 30
0.0
 10
9.6063806359
 20
7.6949770419
 30
0.0
 10
9.6063329521
 20
7.6954370174
 30
0.0
 10
9.6062705642
 20
7.6960942338
 30
0.0
 10
9.6061932452
 20
7.6968828471
 30
0.0
 10
9.6060910102
 20
7.6979343476
 30
0.0
 10
9.6059629231
 20
7.6992487178
 30
0.0
 10
9.6057581476
 20
7.7013517132
 30
0.0
 10
9.6055021221
 20
7.7039804563
 30
0.0
 10
9.6051949155
 20
7.7071349485
 30
0.0
 10
9.6048877025
 20
7.7102894406
 30
0.0
 10
9.6044780874
 20
7.7144954301
 30
0.0
 10
9.6039660677
 20
7.719752917
 30
0.0
 10
9.6034540485
 20
7.7250104039
 30
0.0
 10
9.6030444325
 20
7.7292163933
 30
0.0
 10
9.6027372222
 20
7.7323708856
 30
0.0
 10
9.6024300056
 20
7.7355253771
 30
0.0
 10
9.6021740111
 20
7.7381541225
 30
0.0
 10
9.6019691722
 20
7.7402571132
 30
0.0
 10
9.6018412466
 20
7.7415714951
 30
0.0
 10
9.60173868
 20
7.7426229716
 30
0.0
 10
9.6016623743
 20
7.7434116586
 30
0.0
 10
9.6015968161
 20
7.7440686443
 30
0.0
 10
9.6015547918
 20
7.7445290317
 30
0.0
 10
9.6015247407
 20
7.7447913335
 30
0.0
 10
9.6015192092
 20
7.7449902479
 30
0.0
 10
9.6014486692
 20
7.7451807986
 30
0.0
 10
9.6013772915
 20
7.7454377835
 30
0.0
 10
9.6012418155
 20
7.7458861479
 30
0.0
 10
9.6010538018
 20
7.7465273791
 30
0.0
 10
9.6008258212
 20
7.7472965523
 30
0.0
 10
9.6005226728
 20
7.7483222229
 30
0.0
 10
9.6001434546
 20
7.7496042747
 30
0.0
 10
9.5995368635
 20
7.751655578
 30
0.0
 10
9.5987785704
 20
7.7542197001
 30
0.0
 10
9.5978686419
 20
7.7572966496
 30
0.0
 10
9.5969587072
 20
7.7603735984
 30
0.0
 10
9.5957454631
 20
7.764476197
 30
0.0
 10
9.5942289074
 20
7.7696044451
 30
0.0
 10
9.5927123513
 20
7.7747326931
 30
0.0
 10
9.5914991079
 20
7.778835292
 30
0.0
 10
9.590589171
 20
7.7819122397
 30
0.0
 10
9.5896792507
 20
7.7849891931
 30
0.0
 10
9.5889209322
 20
7.7875533033
 30
0.0
 10
9.5883143928
 20
7.7896046309
 30
0.0
 10
9.587935043
 20
7.7908866207
 30
0.0
 10
9.5876321647
 20
7.7919124187
 30
0.0
 10
9.587403359
 20
7.7926812026
 30
0.0
 10
9.5872179271
 20
7.793323652
 30
0.0
 10
9.5870578301
 20
7.793833583
 30
0.0
 10
9.586969868
 20
7.7942270394
 30
0.0
 10
9.5867593389
 20
7.7945784773
 30
0.0
 10
9.5865214476
 20
7.7950617388
 30
0.0
 10
9.5862093942
 20
7.7956607799
 30
0.0
 10
9.5858412177
 20
7.7963817846
 30
0.0
 10
9.5853481195
 20
7.7973423714
 30
0.0
 10
9.5847324986
 20
7.7985433628
 30
0.0
 10
9.5837470851
 20
7.8004648048
 30
0.0
 10
9.5825154624
 20
7.8028666567
 30
0.0
 10
9.5810374533
 20
7.8057488579
 30
0.0
 10
9.5795594607
 20
7.8086310648
 30
0.0
 10
9.5775887982
 20
7.8124740052
 30
0.0
 10
9.5751254719
 20
7.8172776815
 30
0.0
 10
9.5726621452
 20
7.8220813576
 30
0.0
 10
9.5706914835
 20
7.8259242983
 30
0.0
 10
9.5692134886
 20
7.8288065045
 30
0.0
 10
9.5677354881
 20
7.831688708
 30
0.0
 10
9.5665038387
 20
7.8340905527
 30
0.0
 10
9.5655184795
 20
7.8360120096
 30
0.0
 10
9.5649027204
 20
7.8372129631
 30
0.0
 10
9.5644099061
 20
7.8381736275
 30
0.0
 10
9.5640408621
 20
7.838894395
 30
0.0
 10
9.5637315226
 20
7.8394941785
 30
0.0
 10
9.5635185229
 20
7.839915707
 30
0.0
 10
9.5633912846
 20
7.8401539572
 30
0.0
 10
9.5633114177
 20
7.8403400344
 30
0.0
 10
9.5631720656
 20
7.8404978651
 30
0.0
 10
9.5630070119
 20
7.8407181588
 30
0.0
 10
9.5627085005
 20
7.8410990823
 30
0.0
 10
9.5622871099
 20
7.8416456586
 30
0.0
 10
9.5617792779
 20
7.8423005228
 30
0.0
 10
9.561102924
 20
7.843174034
 30
0.0
 10
9.560257223
 20
7.8442658002
 30
0.0
 10
9.558904246
 20
7.8460126947
 30
0.0
 10
9.5572129752
 20
7.8481962892
 30
0.0
 10
9.5551834714
 20
7.8508166128
 30
0.0
 10
9.553153962
 20
7.8534369336
 30
0.0
 10
9.5504479514
 20
7.8569306957
 30
0.0
 10
9.5470654374
 20
7.861297898
 30
0.0
 10
9.5436829238
 20
7.8656651005
 30
0.0
 10
9.5409769125
 20
7.8691588621
 30
0.0
 10
9.5389474052
 20
7.8717791845
 30
0.0
 10
9.5369178936
 20
7.8743995022
 30
0.0
 10
9.535226647
 20
7.8765831149
 30
0.0
 10
9.5338736206
 20
7.8783299724
 30
0.0
 10
9.5330280452
 20
7.8794218327
 30
0.0
 10
9.5323514336
 20
7.8802951507
 30
0.0
 10
9.5318443892
 20
7.8809506051
 30
0.0
 10
9.5314205341
 20
7.8814953352
 30
0.0
 10
9.5311264223
 20
7.8818795544
 30
0.0
 10
9.5309543195
 20
7.8820945674
 30
0.0
 10
9.5308366199
 20
7.8822686189
 30
0.0
 10
9.5306754296
 20
7.8823937735
 30
0.0
 10
9.5304756793
 20
7.8825777021
 30
0.0
 10
9.5301190482
 20
7.8828916304
 30
0.0
 10
9.5296132705
 20
7.8833442541
 30
0.0
 10
9.5290047555
 20
7.8838856242
 30
0.0
 10
9.5281939547
 20
7.8846080722
 30
0.0
 10
9.5271802645
 20
7.8855109195
 30
0.0
 10
9.5255584659
 20
7.886955594
 30
0.0
 10
9.5235311814
 20
7.8887613963
 30
0.0
 10
9.5210984555
 20
7.8909283766
 30
0.0
 10
9.5186657254
 20
7.8930953523
 30
0.0
 10
9.5154220868
 20
7.8959846547
 30
0.0
 10
9.5113675382
 20
7.8995962824
 30
0.0
 10
9.5073129893
 20
7.9032079096
 30
0.0
 10
9.5040693511
 20
7.9060972127
 30
0.0
 10
9.5016366198
 20
7.9082641863
 30
0.0
 10
9.4992038985
 20
7.9104311741
 30
0.0
 10
9.4971765997
 20
7.9122369532
 30
0.0
 10
9.4955548301
 20
7.9136816752
 30
0.0
 10
9.4945410661
 20
7.9145844014
 30
0.0
 10
9.4937304168
 20
7.915307098
 30
0.0
 10
9.4931214388
 20
7.9158477087
 30
0.0
 10
9.4926171098
 20
7.9163027083
 30
0.0
 10
9.4922065758
 20
7.9166566362
 30
0.0
 10
9.4919179961
 20
7.9169496033
 30
0.0
 10
9.4915556684
 20
7.9171375213
 30
0.0
 10
9.4910983258
 20
7.9174247736
 30
0.0
 10
9.4905178092
 20
7.9177712492
 30
0.0
 10
9.4898249723
 20
7.9181924087
 30
0.0
 10
9.4888998685
 20
7.9187520725
 30
0.0
 10
9.4877439411
 20
7.9194522967
 30
0.0
 10
9.4858942045
 20
7.9205722952
 30
0.0
 10
9.4835821205
 20
7.921972417
 30
0.0
 10
9.4808075824
 20
7.9236525101
 30
0.0
 10
9.4780330544
 20
7.9253326175
 30
0.0
 10
9.4743336801
 20
7.9275727556
 30
0.0
 10
9.4697094636
 20
7.9303729302
 30
0.0
 10
9.4650852463
 20
7.9331731034
 30
0.0
 10
9.4613858732
 20
7.9354132436
 30
0.0
 10
9.4586113416
 20
7.9370933446
 30
0.0
 10
9.4558368169
 20
7.9387734616
 30
0.0
 10
9.4535246915
 20
7.9401735092
 30
0.0
 10
9.4516750392
 20
7.9412936591
 30
0.0
 10
9.4505188973
 20
7.9419934981
 30
0.0
 10
9.4495942338
 20
7.9425539526
 30
0.0
 10
9.4489000516
 20
7.9429726963
 30
0.0
 10
9.4483237443
 20
7.9433267303
 30
0.0
 10
9.4478578138
 20
7.9435985618
 30
0.0
 10
9.4475217131
 20
7.9438335741
 30
0.0
 10
9.4471346663
 20
7.9439497295
 30
0.0
 10
9.4466364
 20
7.9441461217
 30
0.0
 10
9.4460074614
 20
7.9443773672
 30
0.0
 10
9.4452553485
 20
7.9446609589
 30
0.0
 10
9.4442516186
 20
7.9450369516
 30
0.0
 10
9.4429972686
 20
7.9455076717
 30
0.0
 10
9.4409901341
 20
7.9462604163
 30
0.0
 10
9.4384812758
 20
7.9472014869
 30
0.0
 10
9.4354706202
 20
7.9483307117
 30
0.0
 10
9.4324599715
 20
7.9494599525
 30
0.0
 10
9.4284457708
 20
7.9509656013
 30
0.0
 10
9.4234280207
 20
7.9528476642
 30
0.0
 10
9.4184102704
 20
7.9547297266
 30
0.0
 10
9.41439607
 20
7.9562353761
 30
0.0
 10
9.4113854202
 20
7.9573646148
 30
0.0
 10
9.4083747686
 20
7.9584938475
 30
0.0
 10
9.4058658979
 20
7.9594348936
 30
0.0
 10
9.4038587886
 20
7.9601876881
 30
0.0
 10
9.4026043744
 20
7.9606582813
 30
0.0
 10
9.4016007764
 20
7.9610345344
 30
0.0
 10
9.4008482605
 20
7.9613173305
 30
0.0
 10
9.4002205829
 20
7.9615510656
 30
0.0
 10
9.3997823488
 20
7.9617184643
 30
0.0
 10
9.3995301489
 20
7.9618082121
 30
0.0
 10
9.3993460146
 20
7.9618921674
 30
0.0
 10
9.399142708
 20
7.9619124996
 30
0.0
 10
9.39887832
 20
7.9619618016
 30
0.0
 10
9.3984125253
 20
7.9620377403
 30
0.0
 10
9.3977487332
 20
7.9621516299
 30
0.0
 10
9.3969514854
 20
7.9622859837
 30
0.0
 10
9.3958887319
 20
7.9624659301
 30
0.0
 10
9.3945602067
 20
7.9626905865
 30
0.0
 10
9.3924346129
 20
7.9630501913
 30
0.0
 10
9.3897776047
 20
7.9634996443
 30
0.0
 10
9.3865892017
 20
7.9640390107
 30
0.0
 10
9.3834007969
 20
7.9645783709
 30
0.0
 10
9.3791495911
 20
7.96529752
 30
0.0
 10
9.3738355837
 20
7.9661964557
 30
0.0
 10
9.3674587748
 20
7.9672751788
 30
0.0
 10
9.358956363
 20
7.9687134762
 30
0.0
 10
9.3525795541
 20
7.9697921993
 30
0.0
 10
9.3483283482
 20
7.970511348
 30
0.0
  0
SPLINE
  5
430
100
AcDbEntity
  8
0
100
AcDbSpline
 62
4
  6
CONTINUOUS
 70
0
 71
3
 72
397
 73
393
 74
0
 42
0.0000001
 43
0.0000001
 44
0.0000000001
 40
0.0
 40
0.0
 40
0.0
 40
0.0
 40
0.015625
 40
0.0234375
 40
0.03125
 40
0.0390625
 40
0.04296875
 40
0.046875
 40
0.05078125
 40
0.0546875
 40
0.056640625
 40
0.05859375
 40
0.0595703125
 40
0.060546875
 40
0.0615234375
 40
0.0620117188
 40
0.0622558594
 40
0.0625
 40
0.0627441406
 40
0.0629882812
 40
0.0634765625
 40
0.064453125
 40
0.0654296875
 40
0.06640625
 40
0.068359375
 40
0.0703125
 40
0.07421875
 40
0.078125
 40
0.08203125
 40
0.0859375
 40
0.09375
 40
0.1015625
 40
0.10546875
 40
0.109375
 40
0.11328125
 40
0.1171875
 40
0.119140625
 40
0.12109375
 40
0.1220703125
 40
0.123046875
 40
0.1240234375
 40
0.1245117188
 40
0.1247558594
 40
0.125
 40
0.1252441406
 40
0.1254882812
 40
0.1259765625
 40
0.126953125
 40
0.1279296875
 40
0.12890625
 40
0.130859375
 40
0.1328125
 40
0.13671875
 40
0.140625
 40
0.14453125
 40
0.1484375
 40
0.15625
 40
0.1640625
 40
0.16796875
 40
0.171875
 40
0.17578125
 40
0.1796875
 40
0.181640625
 40
0.18359375
 40
0.1845703125
 40
0.185546875
 40
0.1865234375
 40
0.1870117188
 40
0.1872558594
 40
0.1875
 40
0.1877441406
 40
0.1879882812
 40
0.1884765625
 40
0.189453125
 40
0.1904296875
 40
0.19140625
 40
0.193359375
 40
0.1953125
 40
0.19921875
 40
0.203125
 40
0.20703125
 40
0.2109375
 40
0.21875
 40
0.2265625
 40
0.23046875
 40
0.234375
 40
0.23828125
 40
0.2421875
 40
0.244140625
 40
0.24609375
 40
0.2470703125
 40
0.248046875
 40
0.2490234375
 40
0.2495117188
 40
0.2497558594
 40
0.25
 40
0.2502441406
 40
0.2504882812
 40
0.2509765625
 40
0.251953125
 40
0.2529296875
 40
0.25390625
 40
0.255859375
 40
0.2578125
 40
0.26171875
 40
0.265625
 40
0.26953125
 40
0.2734375
 40
0.28125
 40
0.2890625
 40
0.29296875
 40
0.296875
 40
0.30078125
 40
0.3046875
 40
0.306640625
 40
0.30859375
 40
0.3095703125
 40
0.310546875
 40
0.3115234375
 40
0.3120117188
 40
0.3122558594
 40
0.3125
 40
0.3127441406
 40
0.3129882812
 40
0.3134765625
 40
0.314453125
 40
0.3154296875
 40
0.31640625
 40
0.318359375
 40
0.3203125
 40
0.32421875
 40
0.328125
 40
0.33203125
 40
0.3359375
 40
0.34375
 40
0.3515625
 40
0.35546875
 40
0.359375
 40
0.36328125
 40
0.3671875
 40
0.369140625
 40
0.37109375
 40
0.3720703125
 40
0.373046875
 40
0.3740234375
 40
0.3745117188
 40
0.3747558594
 40
0.375
 40
0.3752441406
 40
0.3754882812
 40
0.3759765625
 40
0.376953125
 40
0.3779296875
 40
0.37890625
 40
0.380859375
 40
0.3828125
 40
0.38671875
 40
0.390625
 40
0.39453125
 40
0.3984375
 40
0.40625
 40
0.4140625
 40
0.41796875
 40
0.421875
 40
0.42578125
 40
0.4296875
 40
0.431640625
 40
0.43359375
 40
0.4345703125
 40
0.435546875
 40
0.4365234375
 40
0.4370117188
 40
0.4372558594
 40
0.4375
 40
0.4377441406
 40
0.4379882812
 40
0.4384765625
 40
0.439453125
 40
0.4404296875
 40
0.44140625
 40
0.443359375
 40
0.4453125
 40
0.44921875
 40
0.453125
 40
0.45703125
 40
0.4609375
 40
0.46875
 40
0.4765625
 40
0.48046875
 40
0.484375
 40
0.48828125
 40
0.4921875
 40
0.494140625
 40
0.49609375
 40
0.4970703125
 40
0.498046875
 40
0.4990234375
 40
0.4995117188
 40
0.4997558594
 40
0.5
 40
0.5002441406
 40
0.5004882812
 40
0.5009765625
 40
0.501953125
 40
0.5029296875
 40
0.50390625
 40
0.505859375
 40
0.5078125
 40
0.51171875
 40
0.515625
 40
0.51953125
 40
0.5234375
 40
0.53125
 40
0.5390625
 40
0.54296875
 40
0.546875
 40
0.55078125
 40
0.5546875
 40
0.556640625
 40
0.55859375
 40
0.5595703125
 40
0.560546875
 40
0.5615234375
 40
0.5620117188
 40
0.5622558594
 40
0.5625
 40
0.5627441406
 40
0.5629882812
 40
0.5634765625
 40
0.564453125
 40
0.5654296875
 40
0.56640625
 40
0.568359375
 40
0.5703125
 40
0.57421875
 40
0.578125
 40
0.58203125
 40
0.5859375
 40
0.59375
 40
0.6015625
 40
0.60546875
 40
0.609375
 40
0.61328125
 40
0.6171875
 40
0.619140625
 40
0.62109375
 40
0.6220703125
 40
0.623046875
 40
0.6240234375
 40
0.6245117188
 40
0.625
 40
0.6254882812
 40
0.6259765625
 40
0.626953125
 40
0.6279296875
 40
0.62890625
 40
0.630859375
 40
0.6328125
 40
0.63671875
 40
0.640625
 40
0.64453125
 40
0.6484375
 40
0.65625
 40
0.6640625
 40
0.66796875
 40
0.671875
 40
0.67578125
 40
0.6796875
 40
0.681640625
 40
0.68359375
 40
0.6845703125
 40
0.685546875
 40
0.6865234375
 40
0.6870117188
 40
0.6872558594
 40
0.6875
 40
0.6877441406
 40
0.6879882812
 40
0.6884765625
 40
0.689453125
 40
0.6904296875
 40
0.69140625
 40
0.693359375
 40
0.6953125
 40
0.69921875
 40
0.703125
 40
0.70703125
 40
0.7109375
 40
0.71875
 40
0.7265625
 40
0.73046875
 40
0.734375
 40
0.73828125
 40
0.7421875
 40
0.744140625
 40
0.74609375
 40
0.7470703125
 40
0.748046875
 40
0.7490234375
 40
0.7495117188
 40
0.7497558594
 40
0.75
 40
0.7502441406
 40
0.7504882812
 40
0.7509765625
 40
0.751953125
 40
0.7529296875
 40
0.75390625
 40
0.755859375
 40
0.7578125
 40
0.76171875
 40
0.765625
 40
0.76953125
 40
0.7734375
 40
0.78125
 40
0.7890625
 40
0.79296875
 40
0.796875
 40
0.80078125
 40
0.8046875
 40
0.806640625
 40
0.80859375
 40
0.8095703125
 40
0.810546875
 40
0.8115234375
 40
0.8120117188
 40
0.8125
 40
0.8129882812
 40
0.8134765625
 40
0.814453125
 40
0.8154296875
 40
0.81640625
 40
0.818359375
 40
0.8203125
 40
0.82421875
 40
0.828125
 40
0.83203125
 40
0.8359375
 40
0.84375
 40
0.8515625
 40
0.85546875
 40
0.859375
 40
0.86328125
 40
0.8671875
 40
0.869140625
 40
0.87109375
 40
0.8720703125
 40
0.873046875
 40
0.8740234375
 40
0.8745117188
 40
0.875
 40
0.8754882812
 40
0.8759765625
 40
0.876953125
 40
0.8779296875
 40
0.87890625
 40
0.880859375
 40
0.8828125
 40
0.88671875
 40
0.890625
 40
0.89453125
 40
0.8984375
 40
0.90625
 40
0.9140625
 40
0.91796875
 40
0.921875
 40
0.92578125
 40
0.9296875
 40
0.931640625
 40
0.93359375
 40
0.9345703125
 40
0.935546875
 40
0.9365234375
 40
0.9370117188
 40
0.9372558594
 40
0.9375
 40
0.9377441406
 40
0.9379882812
 40
0.9384765625
 40
0.939453125
 40
0.9404296875
 40
0.94140625
 40
0.943359375
 40
0.9453125
 40
0.94921875
 40
0.953125
 40
0.95703125
 40
0.9609375
 40
0.96875
 40
0.9765625
 40
0.984375
 40
1.0
 40
1.0
 40
1.0
 40
1.0
 10
9.3483283708
 20
7.9705113464
 30
0.0
 10
9.3441507882
 20
7.9703914472
 30
0.0
 10
9.3378844144
 20
7.9702115984
 30
0.0
 10
9.3295292493
 20
7.9699718
 30
0.0
 10
9.3232628754
 20
7.9697919511
 30
0.0
 10
9.3180408972
 20
7.9696420773
 30
0.0
 10
9.3138633147
 20
7.9695221776
 30
0.0
 10
9.3107301276
 20
7.9694322545
 30
0.0
 10
9.3075969416
 20
7.9693423251
 30
0.0
 10
9.3049859495
 20
7.9692674036
 30
0.0
 10
9.3028971644
 20
7.9692074224
 30
0.0
 10
9.3015916541
 20
7.9691700343
 30
0.0
 10
9.3005472907
 20
7.9691398945
 30
0.0
 10
9.2997638955
 20
7.9691179175
 30
0.0
 10
9.2991114563
 20
7.9690976061
 30
0.0
 10
9.2986539833
 20
7.9690873076
 30
0.0
 10
9.2983937655
 20
7.9690753027
 30
0.0
 10
9.2981952347
 20
7.9690835394
 30
0.0
 10
9.298009576
 20
7.9690258748
 30
0.0
 10
9.2977575412
 20
7.9689719758
 30
0.0
 10
9.2973185721
 20
7.9688669424
 30
0.0
 10
9.2966903797
 20
7.968722494
 30
0.0
 10
9.2959370169
 20
7.9685467593
 30
0.0
 10
9.2949323698
 20
7.9683132834
 30
0.0
 10
9.2936766168
 20
7.968021152
 30
0.0
 10
9.2916673808
 20
7.9675539019
 30
0.0
 10
9.2891558464
 20
7.9669697843
 30
0.0
 10
9.2861420007
 20
7.9662688667
 30
0.0
 10
9.2831281561
 20
7.9655679428
 30
0.0
 10
9.2791096963
 20
7.9646333799
 30
0.0
 10
9.2740866217
 20
7.9634651754
 30
0.0
 10
9.2690635469
 20
7.9622969714
 30
0.0
 10
9.2650450874
 20
7.9613624076
 30
0.0
 10
9.2620312421
 20
7.9606614863
 30
0.0
 10
9.2590173992
 20
7.959960559
 30
0.0
 10
9.2565058559
 20
7.9593764717
 30
0.0
 10
9.2544966381
 20
7.9589091598
 30
0.0
 10
9.2532408387
 20
7.9586171856
 30
0.0
 10
9.252236287
 20
7.9583833869
 30
0.0
 10
9.2514826326
 20
7.9582086384
 30
0.0
 10
9.2508553526
 20
7.9580611046
 30
0.0
 10
9.2504147547
 20
7.9579615792
 30
0.0
 10
9.2501653297
 20
7.9578988549
 30
0.0
 10
9.2499716543
 20
7.9578682987
 30
0.0
 10
9.2498032327
 20
7.9577747208
 30
0.0
 10
9.2495698618
 20
7.957671933
 30
0.0
 10
9.2491655669
 20
7.9574818122
 30
0.0
 10
9.248585857
 20
7.9572155657
 30
0.0
 10
9.2478911237
 20
7.956893778
 30
0.0
 10
9.2469644917
 20
7.9564655282
 30
0.0
 10
9.2458063115
 20
7.9559299418
 30
0.0
 10
9.2439531619
 20
7.9550731568
 30
0.0
 10
9.2416367459
 20
7.9540021231
 30
0.0
 10
9.2388570378
 20
7.9527169051
 30
0.0
 10
9.236077332
 20
7.951431681
 30
0.0
 10
9.2323710568
 20
7.9497180511
 30
0.0
 10
9.2277382131
 20
7.9475760129
 30
0.0
 10
9.2231053692
 20
7.9454339753
 30
0.0
 10
9.2193990944
 20
7.9437203445
 30
0.0
 10
9.2166193875
 20
7.942435123
 30
0.0
 10
9.2138396836
 20
7.9411498956
 30
0.0
 10
9.2115232541
 20
7.9400788911
 30
0.0
 10
9.2096701321
 20
7.9392220463
 30
0.0
 10
9.2085118817
 20
7.9386866122
 30
0.0
 10
9.207585394
 20
7.93825805
 30
0.0
 10
9.2068902198
 20
7.9379372165
 30
0.0
 10
9.2063118891
 20
7.9376679844
 30
0.0
 10
9.2059051322
 20
7.9374831934
 30
0.0
 10
9.205675706
 20
7.9373718659
 30
0.0
 10
9.2054951676
 20
7.9373045193
 30
0.0
 10
9.2053470009
 20
7.9371754426
 30
0.0
 10
9.2051381537
 20
7.9370248725
 30
0.0
 10
9.2047779322
 20
7.9367513426
 30
0.0
 10
9.2042605794
 20
7.9363658305
 30
0.0
 10
9.2036409334
 20
7.9359009711
 30
0.0
 10
9.2028143275
 20
7.9352819426
 30
0.0
 10
9.2017812109
 20
7.9345078884
 30
0.0
 10
9.2001281457
 20
7.9332695519
 30
0.0
 10
9.1980618412
 20
7.9317215798
 30
0.0
 10
9.1955822642
 20
7.9298640353
 30
0.0
 10
9.1931026903
 20
7.9280064848
 30
0.0
 10
9.1897965907
 20
7.925529753
 30
0.0
 10
9.1856639666
 20
7.9224338375
 30
0.0
 10
9.1815313421
 20
7.9193379224
 30
0.0
 10
9.1782252431
 20
7.9168611899
 30
0.0
 10
9.1757456675
 20
7.9150036416
 30
0.0
 10
9.1732660968
 20
7.9131460889
 30
0.0
 10
9.1711997725
 20
7.9115981423
 30
0.0
 10
9.1695467477
 20
7.9103597536
 30
0.0
 10
9.1685135283
 20
7.9095858323
 30
0.0
 10
9.1676871334
 20
7.9089665313
 30
0.0
 10
9.1670668427
 20
7.9085025042
 30
0.0
 10
9.1665515071
 20
7.9081143878
 30
0.0
 10
9.1661876846
 20
7.9078455071
 30
0.0
 10
9.165984607
 20
7.9076874878
 30
0.0
 10
9.1658187179
 20
7.9075812927
 30
0.0
 10
9.1657047419
 20
7.9074280067
 30
0.0
 10
9.1655346661
 20
7.9072400511
 30
0.0
 10
9.1652454702
 20
7.9069034759
 30
0.0
 10
9.1648279223
 20
7.9064266552
 30
0.0
 10
9.1643287528
 20
7.9058527577
 30
0.0
 10
9.1636625341
 20
7.9050881593
 30
0.0
 10
9.1628299865
 20
7.9041322065
 30
0.0
 10
9.1614977841
 20
7.9026027964
 30
0.0
 10
9.1598325744
 20
7.9006909946
 30
0.0
 10
9.1578343042
 20
7.8983968492
 30
0.0
 10
9.155836039
 20
7.8961026993
 30
0.0
 10
9.1531716836
 20
7.8930438344
 30
0.0
 10
9.1498412401
 20
7.8892202527
 30
0.0
 10
9.1465107961
 20
7.8853966713
 30
0.0
 10
9.1438464414
 20
7.8823378058
 30
0.0
 10
9.141848174
 20
7.8800436577
 30
0.0
 10
9.1398499119
 20
7.8777495057
 30
0.0
 10
9.1381846771
 20
7.8758377245
 30
0.0
 10
9.136852526
 20
7.8743082723
 30
0.0
 10
9.1360198479
 20
7.8733524266
 30
0.0
 10
9.135353897
 20
7.8725876084
 30
0.0
 10
9.1348539092
 20
7.8720143824
 30
0.0
 10
9.1344389217
 20
7.871535461
 30
0.0
 10
9.1341451551
 20
7.8712026358
 30
0.0
 10
9.1339824026
 20
7.8710086717
 30
0.0
 10
9.1338459315
 20
7.8708738422
 30
0.0
 10
9.1337645303
 20
7.8706983275
 30
0.0
 10
9.1336367864
 20
7.8704784993
 30
0.0
 10
9.1334221844
 20
7.870087188
 30
0.0
 10
9.133110931
 20
7.8695316286
 30
0.0
 10
9.1327394298
 20
7.8688634778
 30
0.0
 10
9.1322433952
 20
7.8679731268
 30
0.0
 10
9.1316235915
 20
7.8668600112
 30
0.0
 10
9.1306317718
 20
7.865079125
 30
0.0
 10
9.129392043
 20
7.8628529833
 30
0.0
 10
9.1279043489
 20
7.8601816279
 30
0.0
 10
9.1264166599
 20
7.8575102685
 30
0.0
 10
9.1244330729
 20
7.8539484575
 30
0.0
 10
9.1219535897
 20
7.8494961931
 30
0.0
 10
9.1194741061
 20
7.8450439291
 30
0.0
 10
9.1174905198
 20
7.8414821175
 30
0.0
 10
9.1160028286
 20
7.8388107596
 30
0.0
 10
9.1145151432
 20
7.8361393988
 30
0.0
 10
9.1132753871
 20
7.8339132737
 30
0.0
 10
9.1122836231
 20
7.8321323538
 30
0.0
 10
9.1116636776
 20
7.831019324
 30
0.0
 10
9.1111679341
 20
7.8301287968
 30
0.0
 10
9.1107955436
 20
7.8294611844
 30
0.0
 10
9.1104870724
 20
7.8289039403
 30
0.0
 10
9.1102675037
 20
7.8285156365
 30
0.0
 10
9.1101477177
 20
7.8282909895
 30
0.0
 10
9.1100418725
 20
7.8281302768
 30
0.0
 10
9.1099972091
 20
7.8279398536
 30
0.0
 10
9.1099163169
 20
7.8276963193
 30
0.0
 10
9.1097846988
 20
7.8272653058
 30
0.0
 10
9.1095914745
 20
7.8266520967
 30
0.0
 10
9.1093618305
 20
7.8259151652
 30
0.0
 10
9.1090548613
 20
7.8249329673
 30
0.0
 10
9.1086714158
 20
7.8237050907
 30
0.0
 10
9.1080577544
 20
7.8217405603
 30
0.0
 10
9.1072907287
 20
7.8192848726
 30
0.0
 10
9.106370276
 20
7.816338058
 30
0.0
 10
9.1054498291
 20
7.8133912405
 30
0.0
 10
9.1042225645
 20
7.8094621515
 30
0.0
 10
9.1026884845
 20
7.8045507899
 30
0.0
 10
9.101154404
 20
7.7996394285
 30
0.0
 10
9.0999271403
 20
7.7957103392
 30
0.0
 10
9.0990066908
 20
7.7927635228
 30
0.0
 10
9.0980862476
 20
7.7898167041
 30
0.0
 10
9.0973191922
 20
7.7873610289
 30
0.0
 10
9.0967055913
 20
7.785396473
 30
0.0
 10
9.096321992
 20
7.7841686615
 30
0.0
 10
9.0960153386
 20
7.7831863299
 30
0.0
 10
9.0957847297
 20
7.7824498068
 30
0.0
 10
9.0955945242
 20
7.78183532
 30
0.0
 10
9.0954575171
 20
7.7814065874
 30
0.0
 10
9.0953852594
 20
7.7811593986
 30
0.0
 10
9.0953140739
 20
7.780980201
 30
0.0
 10
9.0953078411
 20
7.7807773268
 30
0.0
 10
9.0952768744
 20
7.7805150864
 30
0.0
 10
9.0952332387
 20
7.7800523181
 30
0.0
 10
9.0951653832
 20
7.7793932321
 30
0.0
 10
9.0950863188
 20
7.7786014678
 30
0.0
 10
9.0949800745
 20
7.7775460828
 30
0.0
 10
9.0948475517
 20
7.7762267487
 30
0.0
 10
9.0946353573
 20
7.7741158716
 30
0.0
 10
9.0943701684
 20
7.7714772555
 30
0.0
 10
9.0940519186
 20
7.7683109246
 30
0.0
 10
9.093733675
 20
7.7651445915
 30
0.0
 10
9.093309348
 20
7.7609228147
 30
0.0
 10
9.09277894
 20
7.7556455935
 30
0.0
 10
9.0922485315
 20
7.7503683724
 30
0.0
 10
9.0918242054
 20
7.7461465956
 30
0.0
 10
9.0915059591
 20
7.7429802629
 30
0.0
 10
9.0911877193
 20
7.7398139303
 30
0.0
 10
9.0909224993
 20
7.7371753195
 30
0.0
 10
9.0907103684
 20
7.7350644316
 30
0.0
 10
9.090577684
 20
7.7337451248
 30
0.0
 10
9.0904717713
 20
7.7326896838
 30
0.0
 10
9.090391694
 20
7.7318980908
 30
0.0
 10
9.0903270075
 20
7.7312384688
 30
0.0
 10
9.0902777146
 20
7.7307766573
 30
0.0
 10
9.0902558122
 20
7.7305128837
 30
0.0
 10
9.090221737
 20
7.7303147194
 30
0.0
 10
9.0902551226
 20
7.7301178322
 30
0.0
 10
9.0902761056
 20
7.7298548704
 30
0.0
 10
9.0903237895
 20
7.7293948949
 30
0.0
 10
9.0903861774
 20
7.7287376784
 30
0.0
 10
9.0904634963
 20
7.7279490652
 30
0.0
 10
9.0905657313
 20
7.7268975646
 30
0.0
 10
9.0906938185
 20
7.7255831944
 30
0.0
 10
9.0908985939
 20
7.7234801991
 30
0.0
 10
9.0911546195
 20
7.720851456
 30
0.0
 10
9.091461826
 20
7.7176969637
 30
0.0
 10
9.0917690391
 20
7.7145424716
 30
0.0
 10
9.0921786542
 20
7.7103364821
 30
0.0
 10
9.0926906739
 20
7.7050789953
 30
0.0
 10
9.093202693
 20
7.6998215084
 30
0.0
 10
9.093612309
 20
7.695615519
 30
0.0
 10
9.0939195194
 20
7.6924610267
 30
0.0
 10
9.094226736
 20
7.6893065352
 30
0.0
 10
9.0944827304
 20
7.6866777898
 30
0.0
 10
9.0946875693
 20
7.684574799
 30
0.0
 10
9.0948154949
 20
7.6832604171
 30
0.0
 10
9.0949180616
 20
7.6822089407
 30
0.0
 10
9.0949943672
 20
7.6814202537
 30
0.0
 10
9.0950599255
 20
7.680763268
 30
0.0
 10
9.0951019498
 20
7.6803028806
 30
0.0
 10
9.0951320008
 20
7.6800405788
 30
0.0
 10
9.0951375323
 20
7.6798416644
 30
0.0
 10
9.0952080724
 20
7.6796511137
 30
0.0
 10
9.0952794501
 20
7.6793941288
 30
0.0
 10
9.0954149261
 20
7.6789457644
 30
0.0
 10
9.0956029397
 20
7.6783045332
 30
0.0
 10
9.0958309203
 20
7.6775353599
 30
0.0
 10
9.0961340687
 20
7.6765096894
 30
0.0
 10
9.0965132869
 20
7.6752276375
 30
0.0
 10
9.097119878
 20
7.6731763343
 30
0.0
 10
9.0978781711
 20
7.6706122121
 30
0.0
 10
9.0987880996
 20
7.6675352626
 30
0.0
 10
9.0996980343
 20
7.6644583139
 30
0.0
 10
9.1009112784
 20
7.6603557153
 30
0.0
 10
9.1024278341
 20
7.6552274671
 30
0.0
 10
9.1039443903
 20
7.6500992191
 30
0.0
 10
9.1051576337
 20
7.6459966202
 30
0.0
 10
9.1060675706
 20
7.6429196725
 30
0.0
 10
9.1069774909
 20
7.6398427191
 30
0.0
 10
9.1077358094
 20
7.637278609
 30
0.0
 10
9.1083423487
 20
7.6352272813
 30
0.0
 10
9.1087216985
 20
7.6339452916
 30
0.0
 10
9.1090245768
 20
7.6329194935
 30
0.0
 10
9.1092533826
 20
7.6321507097
 30
0.0
 10
9.1094388145
 20
7.6315082602
 30
0.0
 10
9.1095989115
 20
7.6309983293
 30
0.0
 10
9.1096868735
 20
7.6306048729
 30
0.0
 10
9.1098974027
 20
7.630253435
 30
0.0
 10
9.1101352939
 20
7.6297701735
 30
0.0
 10
9.1104473473
 20
7.6291711324
 30
0.0
 10
9.1108155239
 20
7.6284501276
 30
0.0
 10
9.1113086221
 20
7.6274895408
 30
0.0
 10
9.1119242429
 20
7.6262885495
 30
0.0
 10
9.1129096565
 20
7.6243671075
 30
0.0
 10
9.1141412792
 20
7.6219652555
 30
0.0
 10
9.1156192883
 20
7.6190830543
 30
0.0
 10
9.1170972809
 20
7.6162008475
 30
0.0
 10
9.1190679434
 20
7.612357907
 30
0.0
 10
9.1215312696
 20
7.6075542308
 30
0.0
 10
9.1239945963
 20
7.6027505547
 30
0.0
 10
9.1259652581
 20
7.598907614
 30
0.0
 10
9.1274432529
 20
7.5960254078
 30
0.0
 10
9.1289212535
 20
7.5931432042
 30
0.0
 10
9.1301529029
 20
7.5907413596
 30
0.0
 10
9.1311382621
 20
7.5888199027
 30
0.0
 10
9.1317540212
 20
7.5876189492
 30
0.0
 10
9.1322468355
 20
7.5866582847
 30
0.0
 10
9.1326158795
 20
7.5859375172
 30
0.0
 10
9.1329252189
 20
7.5853377337
 30
0.0
 10
9.1331382186
 20
7.5849162053
 30
0.0
 10
9.1332654569
 20
7.5846779551
 30
0.0
 10
9.1333453239
 20
7.5844918779
 30
0.0
 10
9.133484676
 20
7.5843340471
 30
0.0
 10
9.1336497297
 20
7.5841137534
 30
0.0
 10
9.133948241
 20
7.58373283
 30
0.0
 10
9.1343696316
 20
7.5831862537
 30
0.0
 10
9.1348774637
 20
7.5825313894
 30
0.0
 10
9.1355538175
 20
7.5816578782
 30
0.0
 10
9.1363995185
 20
7.5805661121
 30
0.0
 10
9.1377524955
 20
7.5788192176
 30
0.0
 10
9.1394437664
 20
7.576635623
 30
0.0
 10
9.1414732701
 20
7.5740152995
 30
0.0
 10
9.1435027796
 20
7.5713949786
 30
0.0
 10
9.1462087902
 20
7.5679012165
 30
0.0
 10
9.1495913042
 20
7.5635340143
 30
0.0
 10
9.1529738177
 20
7.5591668117
 30
0.0
 10
9.155679829
 20
7.5556730502
 30
0.0
 10
9.1577093364
 20
7.5530527277
 30
0.0
 10
9.1597388479
 20
7.55043241
 30
0.0
 10
9.1614300946
 20
7.5482487973
 30
0.0
 10
9.1627831209
 20
7.5465019398
 30
0.0
 10
9.1636286963
 20
7.5454100796
 30
0.0
 10
9.164305308
 20
7.5445367615
 30
0.0
 10
9.1648123524
 20
7.5438813072
 30
0.0
 10
9.1652362074
 20
7.5433365771
 30
0.0
 10
9.1655303193
 20
7.5429523578
 30
0.0
 10
9.1657024221
 20
7.5427373449
 30
0.0
 10
9.1658201216
 20
7.5425632933
 30
0.0
 10
9.1659813119
 20
7.5424381388
 30
0.0
 10
9.1661810623
 20
7.5422542102
 30
0.0
 10
9.1665376933
 20
7.5419402818
 30
0.0
 10
9.1670434711
 20
7.5414876581
 30
0.0
 10
9.167651986
 20
7.540946288
 30
0.0
 10
9.1684627869
 20
7.5402238401
 30
0.0
 10
9.1694764771
 20
7.5393209928
 30
0.0
 10
9.1710982757
 20
7.5378763183
 30
0.0
 10
9.1731255602
 20
7.5360705159
 30
0.0
 10
9.1755582861
 20
7.5339035356
 30
0.0
 10
9.1779910161
 20
7.53173656
 30
0.0
 10
9.1812346547
 20
7.5288472576
 30
0.0
 10
9.1852892034
 20
7.5252356299
 30
0.0
 10
9.1893437523
 20
7.5216240027
 30
0.0
 10
9.1925873905
 20
7.5187346995
 30
0.0
 10
9.1950201218
 20
7.5165677259
 30
0.0
 10
9.1974528431
 20
7.5144007381
 30
0.0
 10
9.1994801418
 20
7.5125949591
 30
0.0
 10
9.2011019114
 20
7.511150237
 30
0.0
 10
9.2021156754
 20
7.5102475108
 30
0.0
 10
9.2029263247
 20
7.5095248143
 30
0.0
 10
9.2035353027
 20
7.5089842036
 30
0.0
 10
9.2040396317
 20
7.5085292039
 30
0.0
 10
9.2044501658
 20
7.5081752761
 30
0.0
 10
9.2047387454
 20
7.5078823089
 30
0.0
 10
9.2051010732
 20
7.507694391
 30
0.0
 10
9.2055584157
 20
7.5074071386
 30
0.0
 10
9.2061389324
 20
7.5070606631
 30
0.0
 10
9.2068317692
 20
7.5066395036
 30
0.0
 10
9.2077568731
 20
7.5060798398
 30
0.0
 10
9.2089128004
 20
7.5053796156
 30
0.0
 10
9.210762537
 20
7.504259617
 30
0.0
 10
9.2130746211
 20
7.5028594953
 30
0.0
 10
9.2158491591
 20
7.5011794021
 30
0.0
 10
9.2186236872
 20
7.4994992948
 30
0.0
 10
9.2223230614
 20
7.4972591566
 30
0.0
 10
9.226947278
 20
7.4944589821
 30
0.0
 10
9.2315714953
 20
7.4916588089
 30
0.0
 10
9.2352708683
 20
7.4894186686
 30
0.0
 10
9.2380453999
 20
7.4877385677
 30
0.0
 10
9.2408199247
 20
7.4860584506
 30
0.0
 10
9.2431320501
 20
7.4846584031
 30
0.0
 10
9.2449817024
 20
7.4835382532
 30
0.0
 10
9.2461378443
 20
7.4828384142
 30
0.0
 10
9.2470625077
 20
7.4822779597
 30
0.0
 10
9.24775669
 20
7.481859216
 30
0.0
 10
9.2483329973
 20
7.4815051819
 30
0.0
 10
9.2487989277
 20
7.4812333504
 30
0.0
 10
9.2491350285
 20
7.4809983381
 30
0.0
 10
9.2495220753
 20
7.4808821827
 30
0.0
 10
9.2500203415
 20
7.4806857906
 30
0.0
 10
9.2506492801
 20
7.4804545451
 30
0.0
 10
9.251401393
 20
7.4801709533
 30
0.0
 10
9.252405123
 20
7.4797949606
 30
0.0
 10
9.2536594729
 20
7.4793242405
 30
0.0
 10
9.2556666075
 20
7.4785714959
 30
0.0
 10
9.2581754657
 20
7.4776304253
 30
0.0
 10
9.2611861213
 20
7.4765012006
 30
0.0
 10
9.2641967701
 20
7.4753719598
 30
0.0
 10
9.2682109708
 20
7.4738663109
 30
0.0
 10
9.2732287209
 20
7.4719842481
 30
0.0
 10
9.2782464712
 20
7.4701021856
 30
0.0
 10
9.2822606715
 20
7.4685965361
 30
0.0
 10
9.2852713213
 20
7.4674672974
 30
0.0
 10
9.288281973
 20
7.4663380648
 30
0.0
 10
9.2907908436
 20
7.4653970187
 30
0.0
 10
9.2927979529
 20
7.4646442242
 30
0.0
 10
9.2940523671
 20
7.464173631
 30
0.0
 10
9.2950559652
 20
7.4637973778
 30
0.0
 10
9.2958084811
 20
7.4635145818
 30
0.0
 10
9.2964361587
 20
7.4632808466
 30
0.0
 10
9.2968743927
 20
7.463113448
 30
0.0
 10
9.2971265927
 20
7.4630237001
 30
0.0
 10
9.297310727
 20
7.4629397449
 30
0.0
 10
9.2975140336
 20
7.4629194127
 30
0.0
 10
9.2977784215
 20
7.4628701106
 30
0.0
 10
9.2982442163
 20
7.462794172
 30
0.0
 10
9.2989080084
 20
7.4626802823
 30
0.0
 10
9.2997052561
 20
7.4625459286
 30
0.0
 10
9.3007680096
 20
7.4623659821
 30
0.0
 10
9.3020965348
 20
7.4621413258
 30
0.0
 10
9.3042221286
 20
7.4617817209
 30
0.0
 10
9.3068791368
 20
7.4613322679
 30
0.0
 10
9.3100675398
 20
7.4607929016
 30
0.0
 10
9.3132559446
 20
7.4602535413
 30
0.0
 10
9.3175071504
 20
7.4595343922
 30
0.0
 10
9.3228211579
 20
7.4586354565
 30
0.0
 10
9.3291979667
 20
7.4575567334
 30
0.0
 10
9.3377003786
 20
7.456118436
 30
0.0
 10
9.3440771874
 20
7.455039713
 30
0.0
 10
9.3483283933
 20
7.4543205643
 30
0.0
  0
ENDSEC
  0
SECTION
  2
OBJECTS
  0
DICTIONARY
  5
C
100
AcDbDictionary
280
0
281
1
  3
ACAD_GROUP
350
D
  3
ACAD_MLINESTYLE
350
17
  3
ACAD_LAYOUT
350
1A
  3
ACAD_PLOTSETTINGS
350
19
  3
ACAD_PLOTSTYLENAME
350
E
  3
ACAD_IMAGE_DICT
350
       432
  3
ACAD_IMAGE_VARS
350
       433
  3
ACAD_TABLESTYLE
350
       434
  0
IMAGEDEF_REACTOR
  5
431
100
AcDbRasterImageDefReactor
 90
2
330
28C
  0
DICTIONARY
  5
D
102
{ACAD_REACTORS
330
C
102
}
100
AcDbDictionary
280
0
281
1
  0
ACDBDICTIONARYWDFLT
  5
E
102
{ACAD_REACTORS
330
C
102
}
100
AcDbDictionary
281
1
  3
Normal
350
F
100
AcDbDictionaryWithDefault
340
F
  0
DICTIONARY
  5
432
330
C
100
AcDbDictionary
281
1
  3
Y6U_assy_2_img_1
350
       437
  0
RASTERVARIABLES
  5
433
330
C
100
AcDbRasterVariables
 90
0
 70
0
 71
1
 72
5
  0
DICTIONARY
  5
17
102
{ACAD_REACTORS
330
C
102
}
100
AcDbDictionary
280
0
281
1
  3
Standard
350
18
  0
DICTIONARY
  5
434
330
C
100
AcDbDictionary
281
1
  3
Standard
350
       438
  3
Standard1
350
       439
  0
DICTIONARY
  5
19
102
{ACAD_REACTORS
330
C
102
}
100
AcDbDictionary
281
1
  0
DICTIONARY
  5
1A
102
{ACAD_REACTORS
330
C
102
}
100
AcDbDictionary
281
1
  3
Model
350
435
  3
Layout1
350
436
  0
ACDBPLACEHOLDER
  5
F
102
{ACAD_REACTORS
330
E
102
}
  0
MLINESTYLE
  5
18
102
{ACAD_REACTORS
330
17
102
}
100
AcDbMlineStyle
  2
STANDARD
 70
0
  3

 62
256
 51
90.0
 52
90.0
 71
2
 49
0.5
 62
256
  6
BYLAYER
 49
-0.5
 62
256
  6
BYLAYER
  0
LAYOUT
  5
435
102
{ACAD_REACTORS
330
1A
102
}
100
AcDbPlotSettings
  1

  2
none_device
  4
ANSI_C_(22.00_x_17.00_Inches)
  6

 40
0.0
 41
0.0
 42
0.0
 43
0.0
 44
558.8
 45
431.8
 46
0.0
 47
0.0
 48
0.0
 49
0.0
140
0.0
141
0.0
142
1.0
143
1.0
 70
1024
 72
0
 73
0
 74
0
  7

 75
0
147
1.0
148
0.0
149
0.0
100
AcDbLayout
  1
Model
 70
0
 71
0
 10
0.0
 20
0.0
 11
22.0
 21
17.0
 12
0.0
 22
0.0
 32
0.0
 14
0.0
 24
0.0
 34
0.0
 15
0.0
 25
0.0
 35
0.0
146
0.0
 13
0.0
 23
0.0
 33
0.0
 16
1.0
 26
0.0
 36
0.0
 17
0.0
 27
1.0
 37
0.0
 76
0
330
204
345
0
346
0
  0
LAYOUT
  5
436
102
{ACAD_REACTORS
330
1A
102
}
100
AcDbPlotSettings
  1

  2
none_device
  4
ANSI_C_(22.00_x_17.00_Inches)
  6

 40
0.0
 41
0.0
 42
0.0
 43
0.0
 44
558.8
 45
431.8
 46
0.0
 47
0.0
 48
0.0
 49
0.0
140
0.0
141
0.0
142
1.0
143
1.0
 70
0
 72
0
 73
0
 74
0
  7

 75
0
147
1.0
148
0.0
149
0.0
100
AcDbLayout
  1
Layout1
 70
0
 71
1
 10
0.0
 20
0.0
 11
22.0
 21
17.0
 12
0.0
 22
0.0
 32
0.0
 14
0.0
 24
0.0
 34
0.0
 15
0.0
 25
0.0
 35
0.0
146
0.0
 13
0.0
 23
0.0
 33
0.0
 16
1.0
 26
0.0
 36
0.0
 17
0.0
 27
1.0
 37
0.0
 76
0
330
205
345
0
346
0
  0
IMAGEDEF
  5
437
102
{ACAD_REACTORS
330
432
330
431
102
}
100
AcDbRasterImageDef
 90
0
  1
Y6U_assy_2_img_1.png
 10
369.0
 20
92.0
 11
0.0066666667
 21
0.0066666667
280
1
281
0
  0
TABLESTYLE
  5
438
102
{ACAD_REACTORS
330
434
330
28F
330
290
102
}
330
434
100
AcDbTableStyle
  3
Standard
 70
0
 71
0
 40
0.06
 41
0.06
280
1
281
1
  7
Standard
140
0.18
170
1
 62
0
 63
7
283
0
  7
Standard
140
0.18
170
1
 62
0
 63
7
283
0
  7
Standard
140
0.18
170
1
 62
0
 63
7
283
0
  0
TABLESTYLE
  5
439
102
{ACAD_REACTORS
330
434
330
28E
102
}
330
434
100
AcDbTableStyle
  3
Standard1
 70
1
 71
0
 40
0.06
 41
0.06
280
1
281
1
  7
Standard
140
0.18
170
1
 62
0
 63
7
283
0
  7
Standard
140
0.18
170
1
 62
0
 63
7
283
0
  7
Standard
140
0.18
170
1
 62
0
 63
7
283
0
  0
ENDSEC
  0
EOF
