999
DXF file: Y6L_assy_2.dxf
999
Pro/ENGINEER 2014200 by Parametric Technology Corporation
  0
SECTION
  2
HEADER
  9
$ACADVER
  1
AC1021
  9
$DWGCODEPAGE
  3
ANSI_1252
  9
$EXTMAX
 10
22.0
 20
17.0
 30
0.0
  9
$EXTMIN
 10
0.0
 20
0.0
 30
0.0
  9
$LIMMIN
 10
0.0
 20
0.0
  9
$LIMMAX
 10
22.0
 20
17.0
  9
$VIEWCTR
 10
11.0
 20
8.5
  9
$VIEWSIZE
 40
17.0
  9
$CLAYER
  8
0
  9
$LTSCALE
 40
1.21
  9
$CELTYPE
  6
BYLAYER
  9
$DIMSCALE
 40
1.0
  9
$DIMASZ
 40
0.1875
  9
$DIMEXO
 40
0.0625
  9
$DIMDLI
 40
0.836
  9
$DIMEXE
 40
0.125
  9
$DIMCEN
 40
0.198
  9
$DIMLFAC
 40
1.0
  9
$DIMBLK
  1
_FILLED
  9
$DIMTXT
 40
0.1
  9
$DIMTOL
 70
0
  9
$DIMLIM
 70
0
  9
$DIMTFAC
 40
1.0
  9
$DIMGAP
 40
0.09
  9
$DIMDSEP
 70
46
  9
$AUNITS
 70
0
  9
$PDMODE
 70
3
  9
$PDSIZE
 40
0.3125
  9
$HANDSEED
  5
42E
  9
$TILEMODE
 70
1
  9
$MEASUREMENT
 70
0
  9
$INSUNITS
 70
1
  0
ENDSEC
  0
SECTION
  2
CLASSES
  0
CLASS
  1
ACDBDICTIONARYWDFLT
  2
AcDbDictionaryWithDefault
  3
AutoCAD 2000
 90
0
 91
1
280
0
281
0
  0
CLASS
  1
ACDBPLACEHOLDER
  2
AcDbPlaceHolder
  3
AutoCAD 2000
 90
0
 91
1
280
0
281
0
  0
CLASS
  1
LAYOUT
  2
AcDbLayout
  3
AutoCAD 2000
 90
0
 91
0
280
0
281
0
  0
CLASS
  1
RASTERVARIABLES
  2
AcDbRasterVariables
  3
ISM
 90
0
 91
1
280
0
281
0
  0
CLASS
  1
IMAGEDEF
  2
AcDbRasterImageDef
  3
ISM
 90
0
 91
1
280
0
281
0
  0
CLASS
  1
IMAGEDEF_REACTOR
  2
AcDbRasterImageDefReactor
  3
ISM
 90
0
 91
1
280
0
281
0
  0
CLASS
  1
IMAGE
  2
AcDbRasterImage
  3
ISM
 90
127
 91
1
280
0
281
1
  0
CLASS
  1
TABLESTYLE
  2
AcDbTableStyle
  3
ObjectDBX Classes
 90
2047
 91
1
280
0
281
0
  0
CLASS
  1
ACAD_TABLE
  2
AcDbTable
  3
ObjectDBX Classes
 90
1025
 91
3
280
0
281
1
  0
ENDSEC
  0
SECTION
  2
TABLES
  0
TABLE
  2
VPORT
  5
8
100
AcDbSymbolTable
 70
2
  0
VPORT
  5
1F4
100
AcDbSymbolTableRecord
100
AcDbViewportTableRecord
  2
*ACTIVE
 70
0
 10
0.0
 20
0.0
 11
1.0
 21
1.0
 12
11.0
 22
8.5
 13
0.0
 23
0.0
 14
1.0
 24
1.0
 15
0.0
 25
0.0
 16
0.0
 26
0.0
 36
1.0
 17
0.0
 27
0.0
 37
0.0
 40
17.0
 41
1.2941176471
 42
50.0
 43
0.0
 44
0.0
 50
0.0
 51
0.0
 71
0
 72
100
 73
1
 74
1
 75
0
 76
0
 77
0
 78
0
  0
ENDTAB
  0
TABLE
  2
LTYPE
  5
5
100
AcDbSymbolTable
 70
6
  0
LTYPE
  5
14
100
AcDbSymbolTableRecord
100
AcDbLinetypeTableRecord
  2
BYBLOCK
 70
0
  3

 72
65
 73
0
 40
0.0
  0
LTYPE
  5
15
100
AcDbSymbolTableRecord
100
AcDbLinetypeTableRecord
  2
BYLAYER
 70
0
  3

 72
65
 73
0
 40
0.0
  0
LTYPE
  5
16
100
AcDbSymbolTableRecord
100
AcDbLinetypeTableRecord
  2
CONTINUOUS
 70
64
  3
Solid line
 72
65
 73
0
 40
0.0
  0
LTYPE
  5
1F5
100
AcDbSymbolTableRecord
100
AcDbLinetypeTableRecord
  2
CENTER
 70
64
  3
____ _ ____ _ ____ _ ____ _ ____ _ ____ _ ____
 72
65
 73
4
 40
0.6
 49
0.375
 74
0
 49
-0.075
 74
0
 49
0.075
 74
0
 49
-0.075
 74
0
  0
LTYPE
  5
1F6
100
AcDbSymbolTableRecord
100
AcDbLinetypeTableRecord
  2
HIDDEN
 70
64
  3
- - - - - - - - - - - - - - - - - - - -
 72
65
 73
2
 40
0.2
 49
0.1
 74
0
 49
-0.1
 74
0
  0
LTYPE
  5
1F7
100
AcDbSymbolTableRecord
100
AcDbLinetypeTableRecord
  2
PHANTOM
 70
64
  3
_____ _ _ _____ _ _ _____ _ _ _____
 72
65
 73
6
 40
0.8
 49
0.45
 74
0
 49
-0.05
 74
0
 49
0.1
 74
0
 49
-0.05
 74
0
 49
0.1
 74
0
 49
-0.05
 74
0
  0
LTYPE
  5
1F8
100
AcDbSymbolTableRecord
100
AcDbLinetypeTableRecord
  2
DOT
 70
64
  3
. . . . . . . . . . . . . . . . . . . .
 72
65
 73
2
 40
0.2
 49
0.1
 74
0
 49
-0.1
 74
0
  0
LTYPE
  5
1F9
100
AcDbSymbolTableRecord
100
AcDbLinetypeTableRecord
  2
DASHED
 70
64
  3
- - - - - - - - - - - - - - - - - - - -
 72
65
 73
2
 40
0.2
 49
0.1
 74
0
 49
-0.1
 74
0
  0
ENDTAB
  0
TABLE
  2
LAYER
  5
2
100
AcDbSymbolTable
 70
36
  0
LAYER
  5
10
100
AcDbSymbolTableRecord
100
AcDbLayerTableRecord
  2
0
 70
0
 62
7
  6
CONTINUOUS
370
-3
390
F
  0
LAYER
  5
1FA
100
AcDbSymbolTableRecord
100
AcDbLayerTableRecord
  2
DEFAULT_1
 70
0
 62
7
  6
CENTER
370
-3
390
F
  0
LAYER
  5
1FB
100
AcDbSymbolTableRecord
100
AcDbLayerTableRecord
  2
DEFAULT_2
 70
0
 62
8
  6
HIDDEN
370
-3
390
F
  0
LAYER
  5
1FC
100
AcDbSymbolTableRecord
100
AcDbLayerTableRecord
  2
DEFAULT_3
 70
0
 62
7
  6
PHANTOM
370
-3
390
F
  0
LAYER
  5
1FD
100
AcDbSymbolTableRecord
100
AcDbLayerTableRecord
  2
01___PRT_ALL_DTM_PLN
 70
0
 62
7
  6
CONTINUOUS
370
-3
390
F
  0
LAYER
  5
1FE
100
AcDbSymbolTableRecord
100
AcDbLayerTableRecord
  2
01___PRT_DEF_DTM_PLN
 70
0
 62
7
  6
CONTINUOUS
370
-3
390
F
  0
LAYER
  5
1FF
100
AcDbSymbolTableRecord
100
AcDbLayerTableRecord
  2
02___PRT_ALL_AXES
 70
0
 62
7
  6
CONTINUOUS
370
-3
390
F
  0
LAYER
  5
200
100
AcDbSymbolTableRecord
100
AcDbLayerTableRecord
  2
03___PRT_ALL_CURVES
 70
0
 62
7
  6
CONTINUOUS
370
-3
390
F
  0
LAYER
  5
201
100
AcDbSymbolTableRecord
100
AcDbLayerTableRecord
  2
04___PRT_ALL_DTM_PNT
 70
0
 62
7
  6
CONTINUOUS
370
-3
390
F
  0
LAYER
  5
202
100
AcDbSymbolTableRecord
100
AcDbLayerTableRecord
  2
05___PRT_ALL_DTM_CSYS
 70
0
 62
7
  6
CONTINUOUS
370
-3
390
F
  0
LAYER
  5
203
100
AcDbSymbolTableRecord
100
AcDbLayerTableRecord
  2
05___PRT_DEF_DTM_CSYS
 70
0
 62
7
  6
CONTINUOUS
370
-3
390
F
  0
LAYER
  5
204
100
AcDbSymbolTableRecord
100
AcDbLayerTableRecord
  2
06___PRT_ALL_SURFS
 70
0
 62
7
  6
CONTINUOUS
370
-3
390
F
  0
LAYER
  5
205
100
AcDbSymbolTableRecord
100
AcDbLayerTableRecord
  2
DATUM_PLANES
 70
0
 62
7
  6
CONTINUOUS
370
-3
390
F
  0
LAYER
  5
206
100
AcDbSymbolTableRecord
100
AcDbLayerTableRecord
  2
PORT_AREAS
 70
0
 62
7
  6
CONTINUOUS
370
-3
390
F
  0
LAYER
  5
207
100
AcDbSymbolTableRecord
100
AcDbLayerTableRecord
  2
SUNNBOMCOSMETIC
 70
0
 62
7
  6
CONTINUOUS
370
-3
390
F
  0
LAYER
  5
208
100
AcDbSymbolTableRecord
100
AcDbLayerTableRecord
  2
SUNNBOMSTAMPING
 70
0
 62
7
  6
CONTINUOUS
370
-3
390
F
  0
LAYER
  5
209
100
AcDbSymbolTableRecord
100
AcDbLayerTableRecord
  2
THREADS
 70
0
 62
7
  6
CONTINUOUS
370
-3
390
F
  0
ENDTAB
  0
TABLE
  2
STYLE
  5
3
100
AcDbSymbolTable
 70
1
  0
STYLE
  5
11
100
AcDbSymbolTableRecord
100
AcDbTextStyleTableRecord
  2
STANDARD
 70
0
 40
0.0
 41
0.8
 50
0.0
 71
0
 42
0.2
  3
txt
  4

  0
STYLE
  5
20A
100
AcDbSymbolTableRecord
100
AcDbTextStyleTableRecord
  2
TEXTSTYLE_1
 70
0
 40
0.0
 41
0.8
 50
0.0
 71
0
 42
0.2
  3
gdt
  4

  0
ENDTAB
  0
TABLE
  2
VIEW
  5
6
100
AcDbSymbolTable
 70
0
  0
ENDTAB
  0
TABLE
  2
UCS
  5
7
100
AcDbSymbolTable
 70
0
  0
ENDTAB
  0
TABLE
  2
APPID
  5
9
100
AcDbSymbolTable
 70
1
  0
APPID
  5
20B
100
AcDbSymbolTableRecord
100
AcDbRegAppTableRecord
  2
ACAD
 70
0
  0
ENDTAB
  0
TABLE
  2
BLOCK_RECORD
  5
1
100
AcDbSymbolTable
 70
0
  0
BLOCK_RECORD
  5
20C
100
AcDbSymbolTableRecord
100
AcDbBlockTableRecord
  2
*Model_Space
  0
BLOCK_RECORD
  5
20D
100
AcDbSymbolTableRecord
100
AcDbBlockTableRecord
  2
*Paper_Space
  0
BLOCK_RECORD
  5
20E
100
AcDbSymbolTableRecord
100
AcDbBlockTableRecord
  2
SUN_FIRST_THIRD_ANGLE_BL0
  0
BLOCK_RECORD
  5
20F
100
AcDbSymbolTableRecord
100
AcDbBlockTableRecord
  2
*T1
  0
BLOCK_RECORD
  5
210
100
AcDbSymbolTableRecord
100
AcDbBlockTableRecord
  2
*T2
  0
BLOCK_RECORD
  5
211
100
AcDbSymbolTableRecord
100
AcDbBlockTableRecord
  2
*T3
  0
ENDTAB
  0
TABLE
  2
DIMSTYLE
  5
A
100
AcDbSymbolTable
 70
1
100
AcDbDimStyleTable
 71
0
  0
DIMSTYLE
105
212
100
AcDbSymbolTableRecord
100
AcDbDimStyleTableRecord
  2
STANDARD
 70
0
  3

  4

 40
1.0
 41
0.1875
 42
0.0625
 43
0.38
 44
0.125
 45
0.0
 46
0.0
 47
0.001
 48
0.001
140
0.1
141
0.09
142
0.0
143
25.4
144
1.0
145
0.0
146
1.0
147
0.09
 71
0.0
 72
0.0
 73
1
 74
1
 75
0
 76
0
 77
0
 78
4
170
0
171
2
172
0
173
0
174
0
175
0
176
0
177
0
178
0
270
2
271
3
272
3
273
2
274
2
275
0
280
0
281
0
282
0
283
1
284
4
285
0
286
0
287
3
288
0
340
11
278
46
  0
ENDTAB
  0
ENDSEC
  0
SECTION
  2
BLOCKS
  0
BLOCK
  5
20
100
AcDbEntity
  8
0
100
AcDbBlockBegin
  2
*Model_Space
 70
0
 10
0.0
 20
0.0
 30
0.0
  3
*Model_Space
  1

  0
ENDBLK
  5
21
100
AcDbEntity
  8
0
100
AcDbBlockEnd
  0
BLOCK
  5
1C
100
AcDbEntity
  8
0
100
AcDbBlockBegin
  2
*Paper_Space
 70
0
 10
0.0
 20
0.0
 30
0.0
  3
*Paper_Space
  1

  0
ENDBLK
  5
1D
100
AcDbEntity
  8
0
100
AcDbBlockEnd
  0
BLOCK
  5
213
100
AcDbEntity
  8
0
100
AcDbBlockBegin
 62
2
  6
CONTINUOUS
  2
SUN_FIRST_THIRD_ANGLE_BL0
 70
64
 10
20.4816717061
 20
1.2289683772
  3
SUN_FIRST_THIRD_ANGLE_BL0
  1

  0
TEXT
  5
214
100
AcDbEntity
  8
0
100
AcDbText
 62
2
  6
CONTINUOUS
 10
19.4750896608
 20
1.4136269581
  7
STANDARD
 40
0.08
  1
FIRST ANGLE
 41
0.8
 72
0
100
AcDbText
  0
TEXT
  5
215
100
AcDbEntity
  8
0
100
AcDbText
 62
2
  6
CONTINUOUS
 10
20.7842537513
 20
1.4047600029
  7
STANDARD
 40
0.08
  1
THIRD ANGLE
 41
0.8
 72
0
100
AcDbText
  0
LINE
  5
216
100
AcDbEntity
  8
0
100
AcDbLine
 62
7
  6
CONTINUOUS
 10
19.4767170086
 20
1.1727031207
 11
19.6334271527
 21
1.1717972817
  0
LINE
  5
217
100
AcDbEntity
  8
0
100
AcDbLine
 62
7
  6
CONTINUOUS
 10
19.6596964832
 20
1.1717972817
 11
19.6950230232
 21
1.171593082
  0
LINE
  5
218
100
AcDbEntity
  8
0
100
AcDbLine
 62
7
  6
CONTINUOUS
 10
19.7194818561
 20
1.1708914427
 11
19.8852396156
 21
1.1699333054
  0
LINE
  5
219
100
AcDbEntity
  8
0
100
AcDbLine
 62
7
  6
CONTINUOUS
 10
19.4758111696
 20
1.2723454088
 11
19.88525039
 21
1.3511534004
  0
LINE
  5
21A
100
AcDbEntity
  8
0
100
AcDbLine
 62
7
  6
CONTINUOUS
 10
19.88525039
 20
1.3511534004
 11
19.8831348489
 21
0.9851647912
  0
LINE
  5
21B
100
AcDbEntity
  8
0
100
AcDbLine
 62
7
  6
CONTINUOUS
 10
19.8831348489
 20
0.9851647912
 11
19.4767170086
 21
1.0658141206
  0
LINE
  5
21C
100
AcDbEntity
  8
0
100
AcDbLine
 62
7
  6
CONTINUOUS
 10
19.4767170086
 20
1.0658141206
 11
19.4779056764
 21
1.2714536432
  0
CIRCLE
  5
21D
100
AcDbEntity
  8
0
100
AcDbCircle
 62
7
  6
CONTINUOUS
 10
20.2068232291
 20
1.1717972817
 40
0.175742101
  0
CIRCLE
  5
21E
100
AcDbEntity
  8
0
100
AcDbCircle
 62
7
  6
CONTINUOUS
 10
20.2068232291
 20
1.1717972817
 40
0.1005522074
  0
LINE
  5
21F
100
AcDbEntity
  8
0
100
AcDbLine
 62
7
  6
CONTINUOUS
 10
20.2077290681
 20
1.3756110529
 11
20.2071171714
 21
1.2379342989
  0
LINE
  5
220
100
AcDbEntity
  8
0
100
AcDbLine
 62
7
  6
CONTINUOUS
 10
20.2077290681
 20
1.2016899681
 11
20.2074674401
 21
1.1428236749
  0
LINE
  5
221
100
AcDbEntity
  8
0
100
AcDbLine
 62
7
  6
CONTINUOUS
 10
20.208634907
 20
1.101141841
 11
20.2080230104
 21
0.963465087
  0
LINE
  5
222
100
AcDbEntity
  8
0
100
AcDbLine
 62
7
  6
CONTINUOUS
 10
20.0066328138
 20
1.1745147986
 11
20.1443095678
 21
1.1739029019
  0
LINE
  5
223
100
AcDbEntity
  8
0
100
AcDbLine
 62
7
  6
CONTINUOUS
 10
20.1832714155
 20
1.1727031207
 11
20.238153505
 21
1.172335442
  0
LINE
  5
224
100
AcDbEntity
  8
0
100
AcDbLine
 62
7
  6
CONTINUOUS
 10
20.2756669918
 20
1.1717972817
 11
20.407916871
 21
1.1712095044
  0
CIRCLE
  5
225
100
AcDbEntity
  8
0
100
AcDbCircle
 62
7
  6
CONTINUOUS
 10
20.7509457401
 20
1.1693297793
 40
0.1722024983
  0
CIRCLE
  5
226
100
AcDbEntity
  8
0
100
AcDbCircle
 62
7
  6
CONTINUOUS
 10
20.7509457401
 20
1.1693297793
 40
0.0985164967
  0
LINE
  5
227
100
AcDbEntity
  8
0
100
AcDbLine
 62
7
  6
CONTINUOUS
 10
20.7169767782
 20
1.170462078
 11
20.7825395137
 21
1.1682766535
  0
LINE
  5
228
100
AcDbEntity
  8
0
100
AcDbLine
 62
7
  6
CONTINUOUS
 10
20.8177513651
 20
1.1693297793
 11
20.947965719
 21
1.1693297793
  0
LINE
  5
229
100
AcDbEntity
  8
0
100
AcDbLine
 62
7
  6
CONTINUOUS
 10
20.6875370113
 20
1.170462078
 11
20.5573226574
 21
1.170462078
  0
LINE
  5
22A
100
AcDbEntity
  8
0
100
AcDbLine
 62
7
  6
CONTINUOUS
 10
20.7486811426
 20
1.1987695462
 11
20.7486811426
 21
1.1432869085
  0
LINE
  5
22B
100
AcDbEntity
  8
0
100
AcDbLine
 62
7
  6
CONTINUOUS
 10
20.7498134414
 20
1.1059210505
 11
20.7498134414
 21
0.9757066966
  0
LINE
  5
22C
100
AcDbEntity
  8
0
100
AcDbLine
 62
7
  6
CONTINUOUS
 10
20.7486811426
 20
1.2338708068
 11
20.7486811426
 21
1.3640851607
  0
LINE
  5
22D
100
AcDbEntity
  8
0
100
AcDbLine
 62
7
  6
CONTINUOUS
 10
21.0702539817
 20
1.2701043662
 11
21.4790138229
 21
1.3448360823
  0
LINE
  5
22E
100
AcDbEntity
  8
0
100
AcDbLine
 62
7
  6
CONTINUOUS
 10
21.4790138229
 20
1.3448360823
 11
21.4790138229
 21
0.9779712941
  0
LINE
  5
22F
100
AcDbEntity
  8
0
100
AcDbLine
 62
7
  6
CONTINUOUS
 10
21.4790138229
 20
0.9779712941
 11
21.069121683
 21
1.0617614
  0
LINE
  5
230
100
AcDbEntity
  8
0
100
AcDbLine
 62
7
  6
CONTINUOUS
 10
21.0702539817
 20
1.2701043662
 11
21.069121683
 21
1.0617614
  0
LINE
  5
231
100
AcDbEntity
  8
0
100
AcDbLine
 62
7
  6
CONTINUOUS
 10
21.4790138229
 20
1.1693297793
 11
21.3159628059
 21
1.1693297793
  0
LINE
  5
232
100
AcDbEntity
  8
0
100
AcDbLine
 62
7
  6
CONTINUOUS
 10
21.2876553377
 20
1.1693297793
 11
21.2502894796
 21
1.1693297793
  0
LINE
  5
233
100
AcDbEntity
  8
0
100
AcDbLine
 62
7
  6
CONTINUOUS
 10
21.2208497126
 20
1.1659328831
 11
21.0713862804
 21
1.1659328831
  0
LINE
  5
234
100
AcDbEntity
  8
0
100
AcDbLine
 62
7
  6
CONTINUOUS
 10
20.4796138713
 20
1.5284908897
 11
20.4766766948
 21
0.9294458646
  0
ENDBLK
  5
235
100
AcDbEntity
  8
0
  6
BYBLOCK
 62
0
100
AcDbBlockEnd
  0
BLOCK
  5
236
100
AcDbEntity
  8
0
100
AcDbBlockBegin
  2
*T1
 70
1
 10
0.0
 20
0.0
  3
*T1
  1

  0
LINE
  5
237
100
AcDbEntity
  8
0
100
AcDbLine
 62
2
  6
CONTINUOUS
 10
9.275
 20
0.0
 11
-0.0
 21
0.0
  0
LINE
  5
238
100
AcDbEntity
  8
0
100
AcDbLine
 62
2
  6
CONTINUOUS
 10
9.275
 20
0.0
 11
9.275
 21
1.25
  0
LINE
  5
239
100
AcDbEntity
  8
0
100
AcDbLine
 62
2
  6
CONTINUOUS
 10
9.275
 20
0.625
 11
-0.0
 21
0.625
  0
LINE
  5
23A
100
AcDbEntity
  8
0
100
AcDbLine
 62
2
  6
CONTINUOUS
 10
9.275
 20
1.25
 11
-0.0
 21
1.25
  0
LINE
  5
23B
100
AcDbEntity
  8
0
100
AcDbLine
 62
2
  6
CONTINUOUS
 10
6.8
 20
0.0
 11
6.8
 21
1.25
  0
LINE
  5
23C
100
AcDbEntity
  8
0
100
AcDbLine
 62
2
  6
CONTINUOUS
 10
6.4
 20
0.0
 11
6.4
 21
0.625
  0
LINE
  5
23D
100
AcDbEntity
  8
0
100
AcDbLine
 62
2
  6
CONTINUOUS
 10
5.9
 20
0.0
 11
5.9
 21
0.625
  0
LINE
  5
23E
100
AcDbEntity
  8
0
100
AcDbLine
 62
2
  6
CONTINUOUS
 10
5.2
 20
0.0
 11
5.2
 21
0.625
  0
LINE
  5
23F
100
AcDbEntity
  8
0
100
AcDbLine
 62
2
  6
CONTINUOUS
 10
4.1
 20
0.0
 11
4.1
 21
1.25
  0
LINE
  5
240
100
AcDbEntity
  8
0
100
AcDbLine
 62
2
  6
CONTINUOUS
 10
-0.0
 20
0.0
 11
-0.0
 21
1.25
  0
MTEXT
  5
241
100
AcDbEntity
  8
0
100
AcDbMText
 62
2
  6
CONTINUOUS
  7
STANDARD
 71
2
 72
1
 10
6.6
 20
0.325
 30
0.0
 11
1.0
 21
0.0
 31
0.0
 44
0.9
  1
2
 40
0.125
 41
0.2
  0
MTEXT
  5
242
100
AcDbEntity
  8
0
100
AcDbMText
 62
2
  6
CONTINUOUS
  7
STANDARD
 71
2
 72
1
 10
6.15
 20
0.325
 30
0.0
 11
1.0
 21
0.0
 31
0.0
 44
0.9
  1
C
 40
0.125
 41
0.2
  0
MTEXT
  5
243
100
AcDbEntity
  8
0
100
AcDbMText
 62
2
  6
CONTINUOUS
  7
STANDARD
 71
2
 72
1
 10
5.55
 20
0.325
 30
0.0
 11
1.0
 21
0.0
 31
0.0
 44
0.9
  1
1.000
 40
0.125
 41
1.0
  0
MTEXT
  5
244
100
AcDbEntity
  8
0
100
AcDbMText
 62
2
  6
CONTINUOUS
  7
STANDARD
 71
2
 72
1
 10
4.65
 20
0.325
 30
0.0
 11
1.0
 21
0.0
 31
0.0
 44
0.9
  1
Apr-27-22
 40
0.125
 41
1.8
  0
MTEXT
  5
245
100
AcDbEntity
  8
0
100
AcDbMText
 62
2
  6
CONTINUOUS
  7
STANDARD
 71
2
 72
1
 10
2.05
 20
0.4625
 30
0.0
 11
1.0
 21
0.0
 31
0.0
 44
0.9
  1
T-22A Line mount\PCross pilot with shuttle
 40
0.125
 41
4.8
  0
MTEXT
  5
246
100
AcDbEntity
  8
0
100
AcDbMText
 62
2
  6
CONTINUOUS
  7
STANDARD
 71
1
 72
1
 10
6.45
 20
0.5625
 30
0.0
 11
1.0
 21
0.0
 31
0.0
 44
0.9
  1
SHEET
 40
0.06
 41
0.48
  0
MTEXT
  5
247
100
AcDbEntity
  8
0
100
AcDbMText
 62
2
  6
CONTINUOUS
  7
STANDARD
 71
1
 72
1
 10
5.95
 20
0.5625
 30
0.0
 11
1.0
 21
0.0
 31
0.0
 44
0.9
  1
DWG SIZE
 40
0.06
 41
0.768
  0
MTEXT
  5
248
100
AcDbEntity
  8
0
100
AcDbMText
 62
2
  6
CONTINUOUS
  7
STANDARD
 71
1
 72
1
 10
5.25
 20
0.5625
 30
0.0
 11
1.0
 21
0.0
 31
0.0
 44
0.9
  1
SCALE
 40
0.06
 41
0.48
  0
MTEXT
  5
249
100
AcDbEntity
  8
0
100
AcDbMText
 62
2
  6
CONTINUOUS
  7
STANDARD
 71
1
 72
1
 10
4.15
 20
0.5625
 30
0.0
 11
1.0
 21
0.0
 31
0.0
 44
0.9
  1
DATE
 40
0.06
 41
0.384
  0
MTEXT
  5
24A
100
AcDbEntity
  8
0
100
AcDbMText
 62
2
  6
CONTINUOUS
  7
STANDARD
 71
1
 72
1
 10
0.05
 20
0.5625
 30
0.0
 11
1.0
 21
0.0
 31
0.0
 44
0.9
  1
DESCRIPTION
 40
0.06
 41
1.056
  0
MTEXT
  5
24B
100
AcDbEntity
  8
0
100
AcDbMText
 62
2
  6
CONTINUOUS
  7
STANDARD
 71
2
 72
1
 10
5.45
 20
1.0375
 30
0.0
 11
1.0
 21
0.0
 31
0.0
 44
0.9
  1
ALL DIMENSIONS IN INCH\PVIEWS ARE THIRD ANGLE
 40
0.12
 41
4.224
  0
MTEXT
  5
24C
100
AcDbEntity
  8
0
100
AcDbMText
 62
2
  6
CONTINUOUS
  7
STANDARD
 71
2
 72
1
 10
2.05
 20
0.95
 30
0.0
 11
1.0
 21
0.0
 31
0.0
 44
0.9
  1
Y6L
 40
0.125
 41
0.6
  0
MTEXT
  5
24D
100
AcDbEntity
  8
0
100
AcDbMText
 62
2
  6
CONTINUOUS
  7
STANDARD
 71
1
 72
1
 10
0.05
 20
1.1875
 30
0.0
 11
1.0
 21
0.0
 31
0.0
 44
0.9
  1
MODEL
 40
0.06
 41
0.48
  0
ENDBLK
  5
24E
100
AcDbEntity
  8
0
  6
BYBLOCK
 62
0
100
AcDbBlockEnd
  0
BLOCK
  5
24F
100
AcDbEntity
  8
0
100
AcDbBlockBegin
  2
*T2
 70
1
 10
0.0
 20
0.0
  3
*T2
  1

  0
LINE
  5
250
100
AcDbEntity
  8
0
100
AcDbLine
 62
2
  6
CONTINUOUS
 10
0.0
 20
0.0
 11
9.055
 21
0.0
  0
LINE
  5
251
100
AcDbEntity
  8
0
100
AcDbLine
 62
2
  6
CONTINUOUS
 10
0.0
 20
0.0
 11
0.0
 21
-2.844
  0
LINE
  5
252
100
AcDbEntity
  8
0
100
AcDbLine
 62
2
  6
CONTINUOUS
 10
0.0
 20
-0.344
 11
9.055
 21
-0.344
  0
LINE
  5
253
100
AcDbEntity
  8
0
100
AcDbLine
 62
2
  6
CONTINUOUS
 10
0.0
 20
-0.594
 11
9.055
 21
-0.594
  0
LINE
  5
254
100
AcDbEntity
  8
0
100
AcDbLine
 62
2
  6
CONTINUOUS
 10
0.0
 20
-0.844
 11
9.055
 21
-0.844
  0
LINE
  5
255
100
AcDbEntity
  8
0
100
AcDbLine
 62
2
  6
CONTINUOUS
 10
0.0
 20
-1.094
 11
9.055
 21
-1.094
  0
LINE
  5
256
100
AcDbEntity
  8
0
100
AcDbLine
 62
2
  6
CONTINUOUS
 10
0.0
 20
-1.344
 11
9.055
 21
-1.344
  0
LINE
  5
257
100
AcDbEntity
  8
0
100
AcDbLine
 62
2
  6
CONTINUOUS
 10
0.0
 20
-1.594
 11
9.055
 21
-1.594
  0
LINE
  5
258
100
AcDbEntity
  8
0
100
AcDbLine
 62
2
  6
CONTINUOUS
 10
0.0
 20
-1.844
 11
9.055
 21
-1.844
  0
LINE
  5
259
100
AcDbEntity
  8
0
100
AcDbLine
 62
2
  6
CONTINUOUS
 10
0.0
 20
-2.094
 11
9.055
 21
-2.094
  0
LINE
  5
25A
100
AcDbEntity
  8
0
100
AcDbLine
 62
2
  6
CONTINUOUS
 10
0.0
 20
-2.344
 11
9.055
 21
-2.344
  0
LINE
  5
25B
100
AcDbEntity
  8
0
100
AcDbLine
 62
2
  6
CONTINUOUS
 10
0.0
 20
-2.594
 11
9.055
 21
-2.594
  0
LINE
  5
25C
100
AcDbEntity
  8
0
100
AcDbLine
 62
2
  6
CONTINUOUS
 10
0.0
 20
-2.844
 11
9.055
 21
-2.844
  0
LINE
  5
25D
100
AcDbEntity
  8
0
100
AcDbLine
 62
2
  6
CONTINUOUS
 10
3.055
 20
0.0
 11
3.055
 21
-2.844
  0
LINE
  5
25E
100
AcDbEntity
  8
0
100
AcDbLine
 62
2
  6
CONTINUOUS
 10
9.055
 20
0.0
 11
9.055
 21
-2.844
  0
MTEXT
  5
25F
100
AcDbEntity
  8
0
100
AcDbMText
 62
2
  6
CONTINUOUS
  7
STANDARD
 71
2
 72
1
 10
1.5275
 20
-0.0995
 30
0.0
 11
1.0
 21
0.0
 31
0.0
 44
0.9
  1
Technical Data
 40
0.145
 41
3.248
  0
MTEXT
  5
260
100
AcDbEntity
  8
0
100
AcDbMText
 62
2
  6
CONTINUOUS
  7
STANDARD
 71
2
 72
1
 10
4.555
 20
-0.0995
 30
0.0
 11
1.0
 21
0.0
 31
0.0
 44
0.9
  1
U.S. Units
 40
0.145
 41
2.32
  0
MTEXT
  5
261
100
AcDbEntity
  8
0
100
AcDbMText
 62
2
  6
CONTINUOUS
  7
STANDARD
 71
2
 72
1
 10
7.555
 20
-0.0995
 30
0.0
 11
1.0
 21
0.0
 31
0.0
 44
0.9
  1
Metric Units
 40
0.145
 41
2.784
  0
MTEXT
  5
262
100
AcDbEntity
  8
0
100
AcDbMText
 62
2
  6
CONTINUOUS
  7
STANDARD
 71
2
 72
1
 10
1.5275
 20
-0.4065
 30
0.0
 11
1.0
 21
0.0
 31
0.0
 44
0.9
  1
Cavity
 40
0.125
 41
1.2
  0
MTEXT
  5
263
100
AcDbEntity
  8
0
100
AcDbMText
 62
2
  6
CONTINUOUS
  7
STANDARD
 71
2
 72
1
 10
6.055
 20
-0.4065
 30
0.0
 11
1.0
 21
0.0
 31
0.0
 44
0.9
  1
T-22A
 40
0.125
 41
1.0
  0
MTEXT
  5
264
100
AcDbEntity
  8
0
100
AcDbMText
 62
2
  6
CONTINUOUS
  7
STANDARD
 71
2
 72
1
 10
1.5275
 20
-0.6565
 30
0.0
 11
1.0
 21
0.0
 31
0.0
 44
0.9
  1
Body Features
 40
0.125
 41
2.6
  0
MTEXT
  5
265
100
AcDbEntity
  8
0
100
AcDbMText
 62
2
  6
CONTINUOUS
  7
STANDARD
 71
2
 72
1
 10
6.055
 20
-0.6565
 30
0.0
 11
1.0
 21
0.0
 31
0.0
 44
0.9
  1
Cross pilot with shuttle
 40
0.125
 41
4.8
  0
MTEXT
  5
266
100
AcDbEntity
  8
0
100
AcDbMText
 62
2
  6
CONTINUOUS
  7
STANDARD
 71
2
 72
1
 10
1.5275
 20
-0.9065
 30
0.0
 11
1.0
 21
0.0
 31
0.0
 44
0.9
  1
Body Type
 40
0.125
 41
1.8
  0
MTEXT
  5
267
100
AcDbEntity
  8
0
100
AcDbMText
 62
2
  6
CONTINUOUS
  7
STANDARD
 71
2
 72
1
 10
6.055
 20
-0.9065
 30
0.0
 11
1.0
 21
0.0
 31
0.0
 44
0.9
  1
Line mount
 40
0.125
 41
2.0
  0
MTEXT
  5
268
100
AcDbEntity
  8
0
100
AcDbMText
 62
2
  6
CONTINUOUS
  7
STANDARD
 71
2
 72
1
 10
1.5275
 20
-1.1565
 30
0.0
 11
1.0
 21
0.0
 31
0.0
 44
0.9
  1
Open Cavity Quantity
 40
0.125
 41
4.0
  0
MTEXT
  5
269
100
AcDbEntity
  8
0
100
AcDbMText
 62
2
  6
CONTINUOUS
  7
STANDARD
 71
2
 72
1
 10
6.055
 20
-1.1565
 30
0.0
 11
1.0
 21
0.0
 31
0.0
 44
0.9
  1
2
 40
0.125
 41
0.2
  0
MTEXT
  5
26A
100
AcDbEntity
  8
0
100
AcDbMText
 62
2
  6
CONTINUOUS
  7
STANDARD
 71
2
 72
1
 10
1.5275
 20
-1.4065
 30
0.0
 11
1.0
 21
0.0
 31
0.0
 44
0.9
  1
Weight
 40
0.125
 41
1.2
  0
MTEXT
  5
26B
100
AcDbEntity
  8
0
100
AcDbMText
 62
2
  6
CONTINUOUS
  7
STANDARD
 71
2
 72
1
 10
4.555
 20
-1.4065
 30
0.0
 11
1.0
 21
0.0
 31
0.0
 44
0.9
  1
4.543 lb.
 40
0.125
 41
1.8
  0
MTEXT
  5
26C
100
AcDbEntity
  8
0
100
AcDbMText
 62
2
  6
CONTINUOUS
  7
STANDARD
 71
2
 72
1
 10
7.555
 20
-1.4065
 30
0.0
 11
1.0
 21
0.0
 31
0.0
 44
0.9
  1
2,061 kg.
 40
0.125
 41
1.8
  0
MTEXT
  5
26D
100
AcDbEntity
  8
0
100
AcDbMText
 62
2
  6
CONTINUOUS
  7
STANDARD
 71
2
 72
1
 10
1.5275
 20
-1.6565
 30
0.0
 11
1.0
 21
0.0
 31
0.0
 44
0.9
  1
Maximum Operating Pressure - 6061-T651 Aluminum
 40
0.125
 41
9.4
  0
MTEXT
  5
26E
100
AcDbEntity
  8
0
100
AcDbMText
 62
2
  6
CONTINUOUS
  7
STANDARD
 71
2
 72
1
 10
4.555
 20
-1.6565
 30
0.0
 11
1.0
 21
0.0
 31
0.0
 44
0.9
  1
3000 psi
 40
0.125
 41
1.6
  0
MTEXT
  5
26F
100
AcDbEntity
  8
0
100
AcDbMText
 62
2
  6
CONTINUOUS
  7
STANDARD
 71
2
 72
1
 10
7.555
 20
-1.6565
 30
0.0
 11
1.0
 21
0.0
 31
0.0
 44
0.9
  1
210 bar
 40
0.125
 41
1.4
  0
MTEXT
  5
270
100
AcDbEntity
  8
0
100
AcDbMText
 62
2
  6
CONTINUOUS
  7
STANDARD
 71
2
 72
1
 10
1.5275
 20
-1.9065
 30
0.0
 11
1.0
 21
0.0
 31
0.0
 44
0.9
  1
Maximum Operating Pressure - 65-45-12 Ductile Iron
 40
0.125
 41
10.0
  0
MTEXT
  5
271
100
AcDbEntity
  8
0
100
AcDbMText
 62
2
  6
CONTINUOUS
  7
STANDARD
 71
2
 72
1
 10
4.555
 20
-1.9065
 30
0.0
 11
1.0
 21
0.0
 31
0.0
 44
0.9
  1
5000 psi
 40
0.125
 41
1.6
  0
MTEXT
  5
272
100
AcDbEntity
  8
0
100
AcDbMText
 62
2
  6
CONTINUOUS
  7
STANDARD
 71
2
 72
1
 10
7.555
 20
-1.9065
 30
0.0
 11
1.0
 21
0.0
 31
0.0
 44
0.9
  1
350 bar
 40
0.125
 41
1.4
  0
MTEXT
  5
273
100
AcDbEntity
  8
0
100
AcDbMText
 62
2
  6
CONTINUOUS
  7
STANDARD
 71
2
 72
1
 10
1.5275
 20
-2.1565
 30
0.0
 11
1.0
 21
0.0
 31
0.0
 44
0.9
  1
Mounting Hole Diameter
 40
0.125
 41
4.4
  0
MTEXT
  5
274
100
AcDbEntity
  8
0
100
AcDbMText
 62
2
  6
CONTINUOUS
  7
STANDARD
 71
2
 72
1
 10
4.555
 20
-2.1565
 30
0.0
 11
1.0
 21
0.0
 31
0.0
 44
0.9
  1
.42 in.
 40
0.125
 41
1.4
  0
MTEXT
  5
275
100
AcDbEntity
  8
0
100
AcDbMText
 62
2
  6
CONTINUOUS
  7
STANDARD
 71
2
 72
1
 10
7.555
 20
-2.1565
 30
0.0
 11
1.0
 21
0.0
 31
0.0
 44
0.9
  1
10,7 mm
 40
0.125
 41
1.4
  0
MTEXT
  5
276
100
AcDbEntity
  8
0
100
AcDbMText
 62
2
  6
CONTINUOUS
  7
STANDARD
 71
2
 72
1
 10
1.5275
 20
-2.4065
 30
0.0
 11
1.0
 21
0.0
 31
0.0
 44
0.9
  1
Mounting Hole Quantity
 40
0.125
 41
4.4
  0
MTEXT
  5
277
100
AcDbEntity
  8
0
100
AcDbMText
 62
2
  6
CONTINUOUS
  7
STANDARD
 71
2
 72
1
 10
6.055
 20
-2.4065
 30
0.0
 11
1.0
 21
0.0
 31
0.0
 44
0.9
  1
2
 40
0.125
 41
0.2
  0
MTEXT
  5
278
100
AcDbEntity
  8
0
100
AcDbMText
 62
2
  6
CONTINUOUS
  7
STANDARD
 71
2
 72
1
 10
1.5275
 20
-2.6565
 30
0.0
 11
1.0
 21
0.0
 31
0.0
 44
0.9
  1
Includes integral cartridge(s)
 40
0.125
 41
6.0
  0
MTEXT
  5
279
100
AcDbEntity
  8
0
100
AcDbMText
 62
2
  6
CONTINUOUS
  7
STANDARD
 71
2
 72
1
 10
6.055
 20
-2.6565
 30
0.0
 11
1.0
 21
0.0
 31
0.0
 44
0.9
  1
Yes (see Included Components)
 40
0.125
 41
5.8
  0
ENDBLK
  5
27A
100
AcDbEntity
  8
0
  6
BYBLOCK
 62
0
100
AcDbBlockEnd
  0
BLOCK
  5
27B
100
AcDbEntity
  8
0
100
AcDbBlockBegin
  2
*T3
 70
1
 10
0.0
 20
0.0
  3
*T3
  1

  0
LINE
  5
27C
100
AcDbEntity
  8
0
100
AcDbLine
 62
2
  6
CONTINUOUS
 10
0.0
 20
0.0
 11
4.6
 21
0.0
  0
LINE
  5
27D
100
AcDbEntity
  8
0
100
AcDbLine
 62
2
  6
CONTINUOUS
 10
0.0
 20
0.0
 11
0.0
 21
-1.43775
  0
LINE
  5
27E
100
AcDbEntity
  8
0
100
AcDbLine
 62
2
  6
CONTINUOUS
 10
0.0
 20
-0.34375
 11
4.6
 21
-0.34375
  0
LINE
  5
27F
100
AcDbEntity
  8
0
100
AcDbLine
 62
2
  6
CONTINUOUS
 10
0.0
 20
-0.68775
 11
4.6
 21
-0.68775
  0
LINE
  5
280
100
AcDbEntity
  8
0
100
AcDbLine
 62
2
  6
CONTINUOUS
 10
0.0
 20
-0.93775
 11
4.6
 21
-0.93775
  0
LINE
  5
281
100
AcDbEntity
  8
0
100
AcDbLine
 62
2
  6
CONTINUOUS
 10
0.0
 20
-1.18775
 11
4.6
 21
-1.18775
  0
LINE
  5
282
100
AcDbEntity
  8
0
100
AcDbLine
 62
2
  6
CONTINUOUS
 10
0.0
 20
-1.43775
 11
4.6
 21
-1.43775
  0
LINE
  5
283
100
AcDbEntity
  8
0
100
AcDbLine
 62
2
  6
CONTINUOUS
 10
1.3
 20
-0.34375
 11
1.3
 21
-1.43775
  0
LINE
  5
284
100
AcDbEntity
  8
0
100
AcDbLine
 62
2
  6
CONTINUOUS
 10
3.3
 20
-0.34375
 11
3.3
 21
-1.43775
  0
LINE
  5
285
100
AcDbEntity
  8
0
100
AcDbLine
 62
2
  6
CONTINUOUS
 10
4.6
 20
0.0
 11
4.6
 21
-1.43775
  0
MTEXT
  5
286
100
AcDbEntity
  8
0
100
AcDbMText
 62
2
  6
CONTINUOUS
  7
STANDARD
 71
2
 72
1
 10
2.3
 20
-0.099375
 30
0.0
 11
1.0
 21
0.0
 31
0.0
 44
0.9
  1
Port Headings
 40
0.145
 41
3.016
  0
MTEXT
  5
287
100
AcDbEntity
  8
0
100
AcDbMText
 62
2
  6
CONTINUOUS
  7
STANDARD
 71
2
 72
1
 10
0.65
 20
-0.44325
 30
0.0
 11
1.0
 21
0.0
 31
0.0
 44
0.9
  1
Product
 40
0.145
 41
1.624
  0
MTEXT
  5
288
100
AcDbEntity
  8
0
100
AcDbMText
 62
2
  6
CONTINUOUS
  7
STANDARD
 71
2
 72
1
 10
2.3
 20
-0.44325
 30
0.0
 11
1.0
 21
0.0
 31
0.0
 44
0.9
  1
Port
 40
0.145
 41
0.928
  0
MTEXT
  5
289
100
AcDbEntity
  8
0
100
AcDbMText
 62
2
  6
CONTINUOUS
  7
STANDARD
 71
2
 72
1
 10
3.95
 20
-0.44325
 30
0.0
 11
1.0
 21
0.0
 31
0.0
 44
0.9
  1
Size
 40
0.145
 41
0.928
  0
MTEXT
  5
28A
100
AcDbEntity
  8
0
100
AcDbMText
 62
2
  6
CONTINUOUS
  7
STANDARD
 71
2
 72
1
 10
0.65
 20
-0.75025
 30
0.0
 11
1.0
 21
0.0
 31
0.0
 44
0.9
  1
Y6L
 40
0.125
 41
0.6
  0
MTEXT
  5
28B
100
AcDbEntity
  8
0
100
AcDbMText
 62
2
  6
CONTINUOUS
  7
STANDARD
 71
2
 72
1
 10
2.3
 20
-0.75025
 30
0.0
 11
1.0
 21
0.0
 31
0.0
 44
0.9
  1
Ports 1A, 1B, 2A, 2B
 40
0.125
 41
4.0
  0
MTEXT
  5
28C
100
AcDbEntity
  8
0
100
AcDbMText
 62
2
  6
CONTINUOUS
  7
STANDARD
 71
2
 72
1
 10
3.95
 20
-0.75025
 30
0.0
 11
1.0
 21
0.0
 31
0.0
 44
0.9
  1
SAE 12
 40
0.125
 41
1.2
  0
MTEXT
  5
28D
100
AcDbEntity
  8
0
100
AcDbMText
 62
2
  6
CONTINUOUS
  7
STANDARD
 71
2
 72
1
 10
0.65
 20
-1.00025
 30
0.0
 11
1.0
 21
0.0
 31
0.0
 44
0.9
  1
Y6L
 40
0.125
 41
0.6
  0
MTEXT
  5
28E
100
AcDbEntity
  8
0
100
AcDbMText
 62
2
  6
CONTINUOUS
  7
STANDARD
 71
2
 72
1
 10
2.3
 20
-1.00025
 30
0.0
 11
1.0
 21
0.0
 31
0.0
 44
0.9
  1
Port 4
 40
0.125
 41
1.2
  0
MTEXT
  5
28F
100
AcDbEntity
  8
0
100
AcDbMText
 62
2
  6
CONTINUOUS
  7
STANDARD
 71
2
 72
1
 10
3.95
 20
-1.00025
 30
0.0
 11
1.0
 21
0.0
 31
0.0
 44
0.9
  1
SAE 6
 40
0.125
 41
1.0
  0
MTEXT
  5
290
100
AcDbEntity
  8
0
100
AcDbMText
 62
2
  6
CONTINUOUS
  7
STANDARD
 71
2
 72
1
 10
0.65
 20
-1.25025
 30
0.0
 11
1.0
 21
0.0
 31
0.0
 44
0.9
  1
Y6L
 40
0.125
 41
0.6
  0
MTEXT
  5
291
100
AcDbEntity
  8
0
100
AcDbMText
 62
2
  6
CONTINUOUS
  7
STANDARD
 71
2
 72
1
 10
2.3
 20
-1.25025
 30
0.0
 11
1.0
 21
0.0
 31
0.0
 44
0.9
  1
Port S
 40
0.125
 41
1.2
  0
MTEXT
  5
292
100
AcDbEntity
  8
0
100
AcDbMText
 62
2
  6
CONTINUOUS
  7
STANDARD
 71
2
 72
1
 10
3.95
 20
-1.25025
 30
0.0
 11
1.0
 21
0.0
 31
0.0
 44
0.9
  1
SAE 4
 40
0.125
 41
1.0
  0
ENDBLK
  5
293
100
AcDbEntity
  8
0
  6
BYBLOCK
 62
0
100
AcDbBlockEnd
  0
ENDSEC
  0
SECTION
  2
ENTITIES
  0
IMAGE
  5
294
100
AcDbEntity
  8
0
100
AcDbRasterImage
 62
7
  6
CONTINUOUS
 10
19.2297077316
 20
0.3094318264
 30
0.0
 11
0.0066666667
 21
0.0
 31
0.0
 12
0.0
 22
0.0066666667
 32
0.0
 13
369.0
 23
92.0
340
       42B
 70
9
280
0
281
50
282
50
283
0
360
       425
 71
1
 91
2
 14
-0.5
 24
-0.5
 14
368.5
 24
91.5
  0
INSERT
  5
295
100
AcDbEntity
  8
0
100
AcDbBlockReference
 62
2
  6
CONTINUOUS
  2
SUN_FIRST_THIRD_ANGLE_BL0
 10
20.4816717061
 20
1.2289683772
  0
ACAD_TABLE
  5
296
100
AcDbEntity
  8
0
 62
2
  6
CONTINUOUS
100
AcDbBlockReference
  2
*T1
 10
12.42375
 20
0.30125
 30
0.0
100
AcDbTable
342
       42D
343
20F
 11
1.0
 21
0.0
 31
0.0
 90
6
 91
4
 92
6
 93
20
 94
0
 95
0
 96
0
 70
1
 41
0.0
141
0.525
141
0.1
141
0.525
141
0.1
142
4.1
142
1.1
142
0.7
142
0.5
142
0.4
142
2.475
171
1
172
0
173
0
174
0
175
1
176
1
 91
33
178
0
145
0.0
301
CELL_VALUE
 90
4
  1
T-22A Line mount\PCross pilot with shuttle
304
ACVALUE_END
170
2
140
0.125
171
1
172
0
173
0
174
0
175
1
176
1
 91
33
178
0
145
0.0
301
CELL_VALUE
 90
4
  1
Apr-27-22
304
ACVALUE_END
170
5
140
0.125
171
1
172
0
173
0
174
0
175
1
176
1
 91
33
178
0
145
0.0
301
CELL_VALUE
 90
4
  1
1.000
304
ACVALUE_END
170
5
140
0.125
171
1
172
0
173
0
174
0
175
1
176
1
 91
33
178
0
145
0.0
301
CELL_VALUE
 90
4
  1
C
304
ACVALUE_END
170
5
140
0.125
171
1
172
0
173
0
174
0
175
1
176
1
 91
33
178
0
145
0.0
301
CELL_VALUE
 90
4
  1
2
304
ACVALUE_END
170
5
140
0.125
171
1
172
0
173
0
174
0
175
1
176
1
 91
33
178
0
145
0.0
301
CELL_VALUE
 90
4
  1
 
304
ACVALUE_END
170
1
140
0.125
171
1
172
0
173
0
174
0
175
1
176
1
 91
33
178
0
145
0.0
301
CELL_VALUE
 90
4
  1
DESCRIPTION
304
ACVALUE_END
170
1
140
0.06
171
1
172
0
173
0
174
0
175
1
176
1
 91
33
178
0
145
0.0
301
CELL_VALUE
 90
4
  1
DATE
304
ACVALUE_END
170
1
140
0.06
171
1
172
0
173
0
174
0
175
1
176
1
 91
33
178
0
145
0.0
301
CELL_VALUE
 90
4
  1
SCALE
304
ACVALUE_END
170
1
140
0.06
171
1
172
0
173
0
174
0
175
1
176
1
 91
33
178
0
145
0.0
301
CELL_VALUE
 90
4
  1
DWG SIZE
304
ACVALUE_END
170
1
140
0.06
171
1
172
0
173
0
174
0
175
1
176
1
 91
33
178
0
145
0.0
301
CELL_VALUE
 90
4
  1
SHEET
304
ACVALUE_END
170
1
140
0.06
171
1
172
0
173
0
174
0
175
1
176
1
 91
33
178
0
145
0.0
301
CELL_VALUE
 90
4
  1
 
304
ACVALUE_END
170
1
140
0.125
171
1
172
0
173
0
174
0
175
1
176
1
 91
33
178
0
145
0.0
301
CELL_VALUE
 90
4
  1
Y6L
304
ACVALUE_END
170
5
140
0.125
171
1
172
0
173
0
174
0
175
4
176
1
 91
33
178
0
145
0.0
301
CELL_VALUE
 90
4
  1
ALL DIMENSIONS IN INCH\PVIEWS ARE THIRD ANGLE
304
ACVALUE_END
170
5
140
0.12
171
1
172
0
173
1
174
0
175
1
176
1
 91
1
178
0
145
0.0
170
1
171
1
172
0
173
1
174
0
175
1
176
1
 91
1
178
0
145
0.0
170
1
171
1
172
0
173
1
174
0
175
1
176
1
 91
1
178
0
145
0.0
170
5
171
1
172
0
173
0
174
0
175
1
176
1
 91
33
178
0
145
0.0
301
CELL_VALUE
 90
4
  1
 
304
ACVALUE_END
170
1
140
0.125
171
1
172
0
173
0
174
0
175
1
176
1
 91
33
178
0
145
0.0
301
CELL_VALUE
 90
4
  1
MODEL
304
ACVALUE_END
170
1
140
0.06
171
1
172
0
173
0
174
0
175
1
176
1
 91
33
178
0
145
0.0
301
CELL_VALUE
 90
4
  1
 
304
ACVALUE_END
170
1
140
0.125
171
1
172
0
173
0
174
0
175
1
176
1
 91
33
178
0
145
0.0
301
CELL_VALUE
 90
4
  1
 
304
ACVALUE_END
170
1
140
0.125
171
1
172
0
173
0
174
0
175
1
176
1
 91
33
178
0
145
0.0
301
CELL_VALUE
 90
4
  1
 
304
ACVALUE_END
170
1
140
0.125
171
1
172
0
173
0
174
0
175
1
176
1
 91
33
178
0
145
0.0
301
CELL_VALUE
 90
4
  1
 
304
ACVALUE_END
170
1
140
0.125
171
1
172
0
173
0
174
0
175
1
176
1
 91
33
178
0
145
0.0
301
CELL_VALUE
 90
4
  1
 
304
ACVALUE_END
170
1
140
0.125
  0
ACAD_TABLE
  5
297
100
AcDbEntity
  8
0
 62
2
  6
CONTINUOUS
100
AcDbBlockReference
  2
*T2
 10
12.4237499994
 20
16.47875
 30
0.0
100
AcDbTable
342
       42C
343
210
 11
1.0
 21
0.0
 31
0.0
 90
22
 91
11
 92
3
 93
16
 94
0
 95
0
 96
0
 41
0.028
141
0.344
141
0.25
141
0.25
141
0.25
141
0.25
141
0.25
141
0.25
141
0.25
141
0.25
141
0.25
141
0.25
142
3.055
142
3.0
142
3.0
171
1
172
0
173
0
174
0
175
1
176
1
 91
33
178
0
145
0.0
301
CELL_VALUE
 90
4
  1
Technical Data
304
ACVALUE_END
170
5
140
0.145
171
1
172
0
173
0
174
0
175
1
176
1
 91
33
178
0
145
0.0
301
CELL_VALUE
 90
4
  1
U.S. Units
304
ACVALUE_END
170
5
140
0.145
171
1
172
0
173
0
174
0
175
1
176
1
 91
33
178
0
145
0.0
301
CELL_VALUE
 90
4
  1
Metric Units
304
ACVALUE_END
170
5
140
0.145
171
1
172
0
173
0
174
0
175
1
176
1
 91
33
178
0
145
0.0
301
CELL_VALUE
 90
4
  1
Cavity
304
ACVALUE_END
170
5
140
0.125
171
1
172
0
173
0
174
0
175
2
176
1
 91
33
178
0
145
0.0
301
CELL_VALUE
 90
4
  1
T-22A
304
ACVALUE_END
170
5
140
0.125
171
1
172
0
173
1
174
0
175
1
176
1
 91
1
178
0
145
0.0
170
1
171
1
172
0
173
0
174
0
175
1
176
1
 91
33
178
0
145
0.0
301
CELL_VALUE
 90
4
  1
Body Features
304
ACVALUE_END
170
5
140
0.125
171
1
172
0
173
0
174
0
175
2
176
1
 91
33
178
0
145
0.0
301
CELL_VALUE
 90
4
  1
Cross pilot with shuttle
304
ACVALUE_END
170
5
140
0.125
171
1
172
0
173
1
174
0
175
1
176
1
 91
1
178
0
145
0.0
170
1
171
1
172
0
173
0
174
0
175
1
176
1
 91
33
178
0
145
0.0
301
CELL_VALUE
 90
4
  1
Body Type
304
ACVALUE_END
170
5
140
0.125
171
1
172
0
173
0
174
0
175
2
176
1
 91
33
178
0
145
0.0
301
CELL_VALUE
 90
4
  1
Line mount
304
ACVALUE_END
170
5
140
0.125
171
1
172
0
173
1
174
0
175
1
176
1
 91
1
178
0
145
0.0
170
1
171
1
172
0
173
0
174
0
175
1
176
1
 91
33
178
0
145
0.0
301
CELL_VALUE
 90
4
  1
Open Cavity Quantity
304
ACVALUE_END
170
5
140
0.125
171
1
172
0
173
0
174
0
175
2
176
1
 91
33
178
0
145
0.0
301
CELL_VALUE
 90
4
  1
2
304
ACVALUE_END
170
5
140
0.125
171
1
172
0
173
1
174
0
175
1
176
1
 91
1
178
0
145
0.0
170
1
171
1
172
0
173
0
174
0
175
1
176
1
 91
33
178
0
145
0.0
301
CELL_VALUE
 90
4
  1
Weight
304
ACVALUE_END
170
5
140
0.125
171
1
172
0
173
0
174
0
175
1
176
1
 91
33
178
0
145
0.0
301
CELL_VALUE
 90
4
  1
4.543 lb.
304
ACVALUE_END
170
5
140
0.125
171
1
172
0
173
0
174
0
175
1
176
1
 91
33
178
0
145
0.0
301
CELL_VALUE
 90
4
  1
2,061 kg.
304
ACVALUE_END
170
5
140
0.125
171
1
172
0
173
0
174
0
175
1
176
1
 91
33
178
0
145
0.0
301
CELL_VALUE
 90
4
  1
Maximum Operating Pressure - 6061-T651 Aluminum
304
ACVALUE_END
170
5
140
0.125
171
1
172
0
173
0
174
0
175
1
176
1
 91
33
178
0
145
0.0
301
CELL_VALUE
 90
4
  1
3000 psi
304
ACVALUE_END
170
5
140
0.125
171
1
172
0
173
0
174
0
175
1
176
1
 91
33
178
0
145
0.0
301
CELL_VALUE
 90
4
  1
210 bar
304
ACVALUE_END
170
5
140
0.125
171
1
172
0
173
0
174
0
175
1
176
1
 91
33
178
0
145
0.0
301
CELL_VALUE
 90
4
  1
Maximum Operating Pressure - 65-45-12 Ductile Iron
304
ACVALUE_END
170
5
140
0.125
171
1
172
0
173
0
174
0
175
1
176
1
 91
33
178
0
145
0.0
301
CELL_VALUE
 90
4
  1
5000 psi
304
ACVALUE_END
170
5
140
0.125
171
1
172
0
173
0
174
0
175
1
176
1
 91
33
178
0
145
0.0
301
CELL_VALUE
 90
4
  1
350 bar
304
ACVALUE_END
170
5
140
0.125
171
1
172
0
173
0
174
0
175
1
176
1
 91
33
178
0
145
0.0
301
CELL_VALUE
 90
4
  1
Mounting Hole Diameter
304
ACVALUE_END
170
5
140
0.125
171
1
172
0
173
0
174
0
175
1
176
1
 91
33
178
0
145
0.0
301
CELL_VALUE
 90
4
  1
.42 in.
304
ACVALUE_END
170
5
140
0.125
171
1
172
0
173
0
174
0
175
1
176
1
 91
33
178
0
145
0.0
301
CELL_VALUE
 90
4
  1
10,7 mm
304
ACVALUE_END
170
5
140
0.125
171
1
172
0
173
0
174
0
175
1
176
1
 91
33
178
0
145
0.0
301
CELL_VALUE
 90
4
  1
Mounting Hole Quantity
304
ACVALUE_END
170
5
140
0.125
171
1
172
0
173
0
174
0
175
2
176
1
 91
33
178
0
145
0.0
301
CELL_VALUE
 90
4
  1
2
304
ACVALUE_END
170
5
140
0.125
171
1
172
0
173
1
174
0
175
1
176
1
 91
1
178
0
145
0.0
170
1
171
1
172
0
173
0
174
0
175
1
176
1
 91
33
178
0
145
0.0
301
CELL_VALUE
 90
4
  1
Includes integral cartridge(s)
304
ACVALUE_END
170
5
140
0.125
171
1
172
0
173
0
174
0
175
2
176
1
 91
33
178
0
145
0.0
301
CELL_VALUE
 90
4
  1
Yes (see Included Components)
304
ACVALUE_END
170
5
140
0.125
171
1
172
0
173
1
174
0
175
1
176
1
 91
1
178
0
145
0.0
170
1
  0
ACAD_TABLE
  5
298
100
AcDbEntity
  8
0
 62
2
  6
CONTINUOUS
100
AcDbBlockReference
  2
*T3
 10
0.52125
 20
1.959
 30
0.0
100
AcDbTable
342
       42C
343
211
 11
1.0
 21
0.0
 31
0.0
 90
22
 91
5
 92
3
 93
16
 94
0
 95
0
 96
0
 41
0.05
141
0.34375
141
0.344
141
0.25
141
0.25
141
0.25
142
1.3
142
2.0
142
1.3
171
1
172
0
173
0
174
0
175
3
176
1
 91
33
178
0
145
0.0
301
CELL_VALUE
 90
4
  1
Port Headings
304
ACVALUE_END
170
5
140
0.145
171
1
172
0
173
1
174
0
175
1
176
1
 91
1
178
0
145
0.0
170
1
171
1
172
0
173
1
174
0
175
1
176
1
 91
1
178
0
145
0.0
170
1
171
1
172
0
173
0
174
0
175
1
176
1
 91
33
178
0
145
0.0
301
CELL_VALUE
 90
4
  1
Product
304
ACVALUE_END
170
5
140
0.145
171
1
172
0
173
0
174
0
175
1
176
1
 91
33
178
0
145
0.0
301
CELL_VALUE
 90
4
  1
Port
304
ACVALUE_END
170
5
140
0.145
171
1
172
0
173
0
174
0
175
1
176
1
 91
33
178
0
145
0.0
301
CELL_VALUE
 90
4
  1
Size
304
ACVALUE_END
170
5
140
0.145
171
1
172
0
173
0
174
0
175
1
176
1
 91
33
178
0
145
0.0
301
CELL_VALUE
 90
4
  1
Y6L
304
ACVALUE_END
170
5
140
0.125
171
1
172
0
173
0
174
0
175
1
176
1
 91
33
178
0
145
0.0
301
CELL_VALUE
 90
4
  1
Ports 1A, 1B, 2A, 2B
304
ACVALUE_END
170
5
140
0.125
171
1
172
0
173
0
174
0
175
1
176
1
 91
33
178
0
145
0.0
301
CELL_VALUE
 90
4
  1
SAE 12
304
ACVALUE_END
170
5
140
0.125
171
1
172
0
173
0
174
0
175
1
176
1
 91
33
178
0
145
0.0
301
CELL_VALUE
 90
4
  1
Y6L
304
ACVALUE_END
170
5
140
0.125
171
1
172
0
173
0
174
0
175
1
176
1
 91
33
178
0
145
0.0
301
CELL_VALUE
 90
4
  1
Port 4
304
ACVALUE_END
170
5
140
0.125
171
1
172
0
173
0
174
0
175
1
176
1
 91
33
178
0
145
0.0
301
CELL_VALUE
 90
4
  1
SAE 6
304
ACVALUE_END
170
5
140
0.125
171
1
172
0
173
0
174
0
175
1
176
1
 91
33
178
0
145
0.0
301
CELL_VALUE
 90
4
  1
Y6L
304
ACVALUE_END
170
5
140
0.125
171
1
172
0
173
0
174
0
175
1
176
1
 91
33
178
0
145
0.0
301
CELL_VALUE
 90
4
  1
Port S
304
ACVALUE_END
170
5
140
0.125
171
1
172
0
173
0
174
0
175
1
176
1
 91
33
178
0
145
0.0
301
CELL_VALUE
 90
4
  1
SAE 4
304
ACVALUE_END
170
5
140
0.125
  0
MTEXT
  5
299
100
AcDbEntity
  8
0
100
AcDbMText
 62
2
  6
CONTINUOUS
  7
STANDARD
 71
1
 72
1
 10
0.52125
 20
5.75995
 30
0.0
 11
1.0
 21
0.0
 31
0.0
 44
0.6
  3
Notes\P \P1. Important: Carefully consider\P   the maximum system pressure. The\P   pressure rating of the manifold is\P   dependent on the manifold material,\P   with the port type/size a secondary\P   consideration. Manifolds\P   constructed of alu
  1
minum are not\P   rated for pressures higher than\P   3000 psi (210 bar), regardless of\P   the port type/size specified.
 40
0.1
 41
3.04
  0
LINE
  5
29A
100
AcDbEntity
  8
0
100
AcDbLine
 62
7
  6
CONTINUOUS
 10
0.30125
 20
0.30125
 11
0.30125
 21
16.69875
  0
LINE
  5
29B
100
AcDbEntity
  8
0
100
AcDbLine
 62
7
  6
CONTINUOUS
 10
0.30125
 20
0.30125
 11
21.69875
 21
0.30125
  0
LINE
  5
29C
100
AcDbEntity
  8
0
100
AcDbLine
 62
7
  6
CONTINUOUS
 10
0.30125
 20
16.69875
 11
21.69875
 21
16.69875
  0
LINE
  5
29D
100
AcDbEntity
  8
0
100
AcDbLine
 62
7
  6
CONTINUOUS
 10
21.69875
 20
0.30125
 11
21.69875
 21
16.69875
  0
LINE
  5
29E
100
AcDbEntity
  8
0
100
AcDbLine
 62
7
  6
CONTINUOUS
 10
9.3916717723
 20
11.6027703154
 11
8.7446246936
 21
10.9777707942
  0
LINE
  5
29F
100
AcDbEntity
  8
0
100
AcDbLine
 62
4
  6
CONTINUOUS
 10
9.0730394974
 20
5.8307583366
 11
9.1889506009
 21
5.7551050639
  0
LINE
  5
2A0
100
AcDbEntity
  8
0
100
AcDbLine
 62
7
  6
CONTINUOUS
 10
8.7446246936
 20
5.6651784348
 11
12.6083282277
 21
5.3972296846
  0
LINE
  5
2A1
100
AcDbEntity
  8
0
100
AcDbLine
 62
4
  6
CONTINUOUS
 10
9.2275876353
 20
5.8200403868
 11
9.0730394974
 21
5.8307583366
  0
LINE
  5
2A2
100
AcDbEntity
  8
0
100
AcDbLine
 62
4
  6
CONTINUOUS
 10
10.6384833643
 20
5.7318536943
 11
10.6642413812
 21
5.7300673697
  0
LINE
  5
2A3
100
AcDbEntity
  8
0
100
AcDbLine
 62
4
  6
CONTINUOUS
 10
10.7286364417
 20
5.6579867468
 11
10.7672734762
 21
5.6456480007
  0
LINE
  5
2A4
100
AcDbEntity
  8
0
100
AcDbLine
 62
4
  6
CONTINUOUS
 10
8.8315580265
 20
9.9043938237
 11
8.844437035
 21
9.9228191787
  0
LINE
  5
2A5
100
AcDbEntity
  8
0
100
AcDbLine
 62
4
  6
CONTINUOUS
 10
10.7672734762
 20
5.79053688
 11
10.6127253383
 21
5.8495511229
  0
LINE
  5
2A6
100
AcDbEntity
  8
0
100
AcDbLine
 62
4
  6
CONTINUOUS
 10
8.8315580265
 20
9.44074941
 11
8.844437035
 21
9.459174765
  0
LINE
  5
2A7
100
AcDbEntity
  8
0
100
AcDbLine
 62
4
  6
CONTINUOUS
 10
8.844437035
 20
9.9228191787
 11
8.8573160526
 21
9.9315852744
  0
LINE
  5
2A8
100
AcDbEntity
  8
0
100
AcDbLine
 62
4
  6
CONTINUOUS
 10
10.6127253383
 20
5.8495511229
 11
10.7672734762
 21
5.8871294662
  0
LINE
  5
2A9
100
AcDbEntity
  8
0
100
AcDbLine
 62
4
  6
CONTINUOUS
 10
10.6384833643
 20
5.6545796253
 11
10.6256043467
 21
5.6651320468
  0
LINE
  5
2AA
100
AcDbEntity
  8
0
100
AcDbLine
 62
4
  6
CONTINUOUS
 10
8.8573160526
 20
7.1835261513
 11
8.844437035
 21
7.1940785729
  0
LINE
  5
2AB
100
AcDbEntity
  8
0
100
AcDbLine
 62
4
  6
CONTINUOUS
 10
10.7028784202
 20
5.6790915889
 11
10.7286364417
 21
5.6579867468
  0
LINE
  5
2AC
100
AcDbEntity
  8
0
100
AcDbLine
 62
4
  6
CONTINUOUS
 10
10.6642413812
 20
5.7300673697
 11
10.6771203988
 21
5.7195149482
  0
LINE
  5
2AD
100
AcDbEntity
  8
0
100
AcDbLine
 62
4
  6
CONTINUOUS
 10
8.9217111085
 20
7.2080381149
 11
8.94746913
 21
7.1869332728
  0
LINE
  5
2AE
100
AcDbEntity
  8
0
100
AcDbLine
 62
4
  6
CONTINUOUS
 10
8.8830740694
 20
7.2590138957
 11
8.8959530871
 21
7.2484614742
  0
LINE
  5
2AF
100
AcDbEntity
  8
0
100
AcDbLine
 62
4
  6
CONTINUOUS
 10
8.844437035
 20
7.1940785729
 11
8.8315580265
 21
7.2142902524
  0
LINE
  5
2B0
100
AcDbEntity
  8
0
100
AcDbLine
 62
4
  6
CONTINUOUS
 10
8.8959530871
 20
7.2484614742
 11
8.9217111085
 21
7.2080381149
  0
LINE
  5
2B1
100
AcDbEntity
  8
0
100
AcDbLine
 62
4
  6
CONTINUOUS
 10
8.844437035
 20
7.3486267108
 11
8.8315580265
 21
7.3688383903
  0
LINE
  5
2B2
100
AcDbEntity
  8
0
100
AcDbLine
 62
4
  6
CONTINUOUS
 10
8.8959530871
 20
7.4030096121
 11
8.9217111085
 21
7.3625862528
  0
LINE
  5
2B3
100
AcDbEntity
  8
0
100
AcDbLine
 62
7
  6
CONTINUOUS
 10
8.7446246936
 20
5.6651784348
 11
8.7446246936
 21
10.9777707942
  0
LINE
  5
2B4
100
AcDbEntity
  8
0
100
AcDbLine
 62
4
  6
CONTINUOUS
 10
8.8315580265
 20
6.8665569421
 11
8.8315580265
 21
6.9631495283
  0
LINE
  5
2B5
100
AcDbEntity
  8
0
100
AcDbLine
 62
4
  6
CONTINUOUS
 10
8.8315580265
 20
7.2142902524
 11
8.8315580265
 21
7.2336087696
  0
LINE
  5
2B6
100
AcDbEntity
  8
0
100
AcDbLine
 62
4
  6
CONTINUOUS
 10
8.8315580265
 20
7.3688383903
 11
8.8315580265
 21
7.3881569075
  0
LINE
  5
2B7
100
AcDbEntity
  8
0
100
AcDbLine
 62
4
  6
CONTINUOUS
 10
8.8315580265
 20
8.9191494445
 11
8.8315580265
 21
9.0157420307
  0
LINE
  5
2B8
100
AcDbEntity
  8
0
100
AcDbLine
 62
4
  6
CONTINUOUS
 10
8.8315580265
 20
9.2668827548
 11
8.8315580265
 21
9.2862012721
  0
LINE
  5
2B9
100
AcDbEntity
  8
0
100
AcDbLine
 62
4
  6
CONTINUOUS
 10
8.8315580265
 20
9.4214308928
 11
8.8315580265
 21
9.44074941
  0
LINE
  5
2BA
100
AcDbEntity
  8
0
100
AcDbLine
 62
4
  6
CONTINUOUS
 10
8.8315580265
 20
9.8850753065
 11
8.8315580265
 21
9.9043938237
  0
LINE
  5
2BB
100
AcDbEntity
  8
0
100
AcDbLine
 62
4
  6
CONTINUOUS
 10
8.9088320955
 20
7.0350646223
 11
8.9088320955
 21
7.093020174
  0
LINE
  5
2BC
100
AcDbEntity
  8
0
100
AcDbLine
 62
4
  6
CONTINUOUS
 10
8.9088320955
 20
7.653257174
 11
8.9088320955
 21
7.7112127257
  0
LINE
  5
2BD
100
AcDbEntity
  8
0
100
AcDbLine
 62
4
  6
CONTINUOUS
 10
8.9088320955
 20
9.0876571248
 11
8.9088320955
 21
9.1456126765
  0
LINE
  5
2BE
100
AcDbEntity
  8
0
100
AcDbLine
 62
4
  6
CONTINUOUS
 10
8.9088320955
 20
9.7058496765
 11
8.9088320955
 21
9.7638052282
  0
LINE
  5
2BF
100
AcDbEntity
  8
0
100
AcDbLine
 62
4
  6
CONTINUOUS
 10
8.9345901169
 20
7.4969227112
 11
8.9345901169
 21
7.5548782629
  0
LINE
  5
2C0
100
AcDbEntity
  8
0
100
AcDbLine
 62
4
  6
CONTINUOUS
 10
8.9345901169
 20
9.5495152137
 11
8.9345901169
 21
9.6074707654
  0
LINE
  5
2C1
100
AcDbEntity
  8
0
100
AcDbLine
 62
4
  6
CONTINUOUS
 10
8.9861061645
 20
7.1745945267
 11
8.9861061645
 21
7.2518685957
  0
LINE
  5
2C2
100
AcDbEntity
  8
0
100
AcDbLine
 62
4
  6
CONTINUOUS
 10
8.9861061645
 20
7.3291426646
 11
8.9861061645
 21
7.4064167336
  0
LINE
  5
2C3
100
AcDbEntity
  8
0
100
AcDbLine
 62
4
  6
CONTINUOUS
 10
8.9861061645
 20
9.2271870292
 11
8.9861061645
 21
9.3044610982
  0
LINE
  5
2C4
100
AcDbEntity
  8
0
100
AcDbLine
 62
4
  6
CONTINUOUS
 10
8.9861061645
 20
9.3817351671
 11
8.9861061645
 21
9.4590092361
  0
LINE
  5
2C5
100
AcDbEntity
  8
0
100
AcDbLine
 62
4
  6
CONTINUOUS
 10
8.9861061645
 20
9.8453795809
 11
8.9861061645
 21
9.9226536498
  0
LINE
  5
2C6
100
AcDbEntity
  8
0
100
AcDbLine
 62
4
  6
CONTINUOUS
 10
8.8315580265
 20
9.2862012721
 11
8.844437035
 21
9.3046266271
  0
LINE
  5
2C7
100
AcDbEntity
  8
0
100
AcDbLine
 62
4
  6
CONTINUOUS
 10
10.6256043467
 20
10.76811868
 11
10.6127253383
 21
10.7593525837
  0
LINE
  5
2C8
100
AcDbEntity
  8
0
100
AcDbLine
 62
4
  6
CONTINUOUS
 10
10.7028784202
 20
10.7724189634
 11
10.6771203988
 21
10.7548867711
  0
LINE
  5
2C9
100
AcDbEntity
  8
0
100
AcDbLine
 62
4
  6
CONTINUOUS
 10
8.8573160526
 20
7.3380742892
 11
8.844437035
 21
7.3486267108
  0
LINE
  5
2CA
100
AcDbEntity
  8
0
100
AcDbLine
 62
4
  6
CONTINUOUS
 10
8.9217111085
 20
7.3625862528
 11
8.94746913
 21
7.3414814107
  0
LINE
  5
2CB
100
AcDbEntity
  8
0
100
AcDbLine
 62
4
  6
CONTINUOUS
 10
8.8830740694
 20
7.4135620337
 11
8.8959530871
 21
7.4030096121
  0
LINE
  5
2CC
100
AcDbEntity
  8
0
100
AcDbLine
 62
4
  6
CONTINUOUS
 10
9.1889506009
 20
5.7551050639
 11
9.1889506009
 21
5.8420383915
  0
LINE
  5
2CD
100
AcDbEntity
  8
0
100
AcDbLine
 62
4
  6
CONTINUOUS
 10
8.844437035
 20
9.459174765
 11
8.8573160526
 21
9.4679408607
  0
LINE
  5
2CE
100
AcDbEntity
  8
0
100
AcDbLine
 62
4
  6
CONTINUOUS
 10
10.6256043467
 20
10.6135705421
 11
10.6384833643
 21
10.6223366378
  0
LINE
  5
2CF
100
AcDbEntity
  8
0
100
AcDbLine
 62
4
  6
CONTINUOUS
 10
8.844437035
 20
9.3046266271
 11
8.8573160526
 21
9.3133927228
  0
LINE
  5
2D0
100
AcDbEntity
  8
0
100
AcDbLine
 62
4
  6
CONTINUOUS
 10
8.94746913
 20
7.1869332728
 11
8.9861061645
 21
7.1745945267
  0
LINE
  5
2D1
100
AcDbEntity
  8
0
100
AcDbLine
 62
4
  6
CONTINUOUS
 10
9.2931326059
 20
7.5603709746
 11
9.2710543018
 21
7.5839804166
  0
LINE
  5
2D2
100
AcDbEntity
  8
0
100
AcDbLine
 62
4
  6
CONTINUOUS
 10
9.4256024397
 20
7.6063799253
 11
9.4035241333
 21
7.6299893651
  0
LINE
  5
2D3
100
AcDbEntity
  8
0
100
AcDbLine
 62
4
  6
CONTINUOUS
 10
10.6256043467
 20
5.6651320468
 11
10.6127253383
 21
5.6853437263
  0
LINE
  5
2D4
100
AcDbEntity
  8
0
100
AcDbLine
 62
4
  6
CONTINUOUS
 10
10.6771203988
 20
5.7195149482
 11
10.7028784202
 21
5.6790915889
  0
LINE
  5
2D5
100
AcDbEntity
  8
0
100
AcDbLine
 62
4
  6
CONTINUOUS
 10
9.2710543018
 20
7.5839804166
 11
9.2710543018
 21
7.6281370271
  0
LINE
  5
2D6
100
AcDbEntity
  8
0
100
AcDbLine
 62
4
  6
CONTINUOUS
 10
9.2710543018
 20
8.7835683256
 11
9.2710543018
 21
8.7872480292
  0
LINE
  5
2D7
100
AcDbEntity
  8
0
100
AcDbLine
 62
4
  6
CONTINUOUS
 10
9.31521091
 20
8.5155664421
 11
9.31521091
 21
8.4603706681
  0
LINE
  5
2D8
100
AcDbEntity
  8
0
100
AcDbLine
 62
4
  6
CONTINUOUS
 10
9.31521091
 20
8.0445625476
 11
9.31521091
 21
8.0997583217
  0
LINE
  5
2D9
100
AcDbEntity
  8
0
100
AcDbLine
 62
4
  6
CONTINUOUS
 10
9.31521091
 20
8.272705051
 11
9.31521091
 21
8.3168616407
  0
LINE
  5
2DA
100
AcDbEntity
  8
0
100
AcDbLine
 62
4
  6
CONTINUOUS
 10
9.31521091
 20
8.3610183042
 11
9.31521091
 21
8.405174894
  0
LINE
  5
2DB
100
AcDbEntity
  8
0
100
AcDbLine
 62
4
  6
CONTINUOUS
 10
9.31521091
 20
8.8504206427
 11
9.31521091
 21
8.8945773798
  0
LINE
  5
2DC
100
AcDbEntity
  8
0
100
AcDbLine
 62
4
  6
CONTINUOUS
 10
9.31521091
 20
8.9497730802
 11
9.31521091
 21
8.99392967
  0
LINE
  5
2DD
100
AcDbEntity
  8
0
100
AcDbLine
 62
4
  6
CONTINUOUS
 10
9.3704066749
 20
8.4786211236
 11
9.3704066749
 21
8.5227777134
  0
LINE
  5
2DE
100
AcDbEntity
  8
0
100
AcDbLine
 62
4
  6
CONTINUOUS
 10
9.4256024397
 20
8.8869217012
 11
9.4256024397
 21
8.8427649641
  0
LINE
  5
2DF
100
AcDbEntity
  8
0
100
AcDbLine
 62
4
  6
CONTINUOUS
 10
9.4256024397
 20
8.7066154912
 11
9.4256024397
 21
8.6845371963
  0
LINE
  5
2E0
100
AcDbEntity
  8
0
100
AcDbLine
 62
4
  6
CONTINUOUS
 10
9.4256024397
 20
8.5189498741
 11
9.4256024397
 21
8.4747932844
  0
LINE
  5
2E1
100
AcDbEntity
  8
0
100
AcDbLine
 62
4
  6
CONTINUOUS
 10
9.4256024397
 20
8.3092059622
 11
9.4256024397
 21
8.2650493724
  0
LINE
  5
2E2
100
AcDbEntity
  8
0
100
AcDbLine
 62
4
  6
CONTINUOUS
 10
9.4256024397
 20
7.5622233136
 11
9.4256024397
 21
7.6063799253
  0
LINE
  5
2E3
100
AcDbEntity
  8
0
100
AcDbLine
 62
4
  6
CONTINUOUS
 10
9.4256024397
 20
7.6946931417
 11
9.4256024397
 21
7.7278106117
  0
LINE
  5
2E4
100
AcDbEntity
  8
0
100
AcDbLine
 62
4
  6
CONTINUOUS
 10
9.4256024397
 20
8.5741456482
 11
9.4256024397
 21
8.6293414223
  0
LINE
  5
2E5
100
AcDbEntity
  8
0
100
AcDbLine
 62
4
  6
CONTINUOUS
 10
9.4256024397
 20
8.9421174016
 11
9.4256024397
 21
8.9862739914
  0
LINE
  5
2E6
100
AcDbEntity
  8
0
100
AcDbLine
 62
4
  6
CONTINUOUS
 10
9.4623996155
 20
8.1447465244
 11
9.4623996155
 21
8.1668248193
  0
LINE
  5
2E7
100
AcDbEntity
  8
0
100
AcDbLine
 62
4
  6
CONTINUOUS
 10
9.3740863922
 20
8.9898466414
 11
9.3667269575
 21
8.9462004302
  0
LINE
  5
2E8
100
AcDbEntity
  8
0
100
AcDbLine
 62
4
  6
CONTINUOUS
 10
9.3814458269
 20
9.0003753735
 11
9.3740863922
 21
8.9898466414
  0
LINE
  5
2E9
100
AcDbEntity
  8
0
100
AcDbLine
 62
4
  6
CONTINUOUS
 10
9.3667269575
 20
8.9462004302
 11
9.3593675228
 21
8.9356716981
  0
LINE
  5
2EA
100
AcDbEntity
  8
0
100
AcDbLine
 62
4
  6
CONTINUOUS
 10
10.6127253383
 20
10.5951451871
 11
10.6256043467
 21
10.6135705421
  0
LINE
  5
2EB
100
AcDbEntity
  8
0
100
AcDbLine
 62
4
  6
CONTINUOUS
 10
9.31521091
 20
8.99392967
 11
9.3262500667
 21
9.0042032125
  0
LINE
  5
2EC
100
AcDbEntity
  8
0
100
AcDbLine
 62
4
  6
CONTINUOUS
 10
12.3330393543
 20
7.2612394669
 11
12.4875874922
 21
7.2988178102
  0
LINE
  5
2ED
100
AcDbEntity
  8
0
100
AcDbLine
 62
4
  6
CONTINUOUS
 10
8.8315580265
 20
6.9148532352
 11
8.9861061645
 21
6.9041352854
  0
LINE
  5
2EE
100
AcDbEntity
  8
0
100
AcDbLine
 62
4
  6
CONTINUOUS
 10
8.94746913
 20
7.3414814107
 11
8.9861061645
 21
7.3291426646
  0
LINE
  5
2EF
100
AcDbEntity
  8
0
100
AcDbLine
 62
4
  6
CONTINUOUS
 10
8.9861061645
 20
7.4740315439
 11
8.8315580265
 21
7.5330457868
  0
LINE
  5
2F0
100
AcDbEntity
  8
0
100
AcDbLine
 62
4
  6
CONTINUOUS
 10
9.4256024397
 20
7.7278106117
 11
9.4035241333
 21
7.7514200423
  0
LINE
  5
2F1
100
AcDbEntity
  8
0
100
AcDbLine
 62
4
  6
CONTINUOUS
 10
9.3262500667
 20
8.249861188
 11
9.31521091
 21
8.272705051
  0
LINE
  5
2F2
100
AcDbEntity
  8
0
100
AcDbLine
 62
4
  6
CONTINUOUS
 10
9.4256024397
 20
8.4747932844
 11
9.4145632865
 21
8.4534805573
  0
LINE
  5
2F3
100
AcDbEntity
  8
0
100
AcDbLine
 62
4
  6
CONTINUOUS
 10
9.4256024397
 20
8.2650493724
 11
9.4145632865
 21
8.2437366454
  0
LINE
  5
2F4
100
AcDbEntity
  8
0
100
AcDbLine
 62
4
  6
CONTINUOUS
 10
9.4145632865
 20
8.9318438589
 11
9.4256024397
 21
8.9421174016
  0
LINE
  5
2F5
100
AcDbEntity
  8
0
100
AcDbLine
 62
4
  6
CONTINUOUS
 10
9.4256024397
 20
8.8427649641
 11
9.4145632865
 21
8.8324914214
  0
LINE
  5
2F6
100
AcDbEntity
  8
0
100
AcDbLine
 62
4
  6
CONTINUOUS
 10
8.8573160526
 20
7.2608002203
 11
8.8830740694
 21
7.2590138957
  0
LINE
  5
2F7
100
AcDbEntity
  8
0
100
AcDbLine
 62
4
  6
CONTINUOUS
 10
12.3330393543
 20
7.106691329
 11
12.4875874922
 21
7.0959733792
  0
LINE
  5
2F8
100
AcDbEntity
  8
0
100
AcDbLine
 62
4
  6
CONTINUOUS
 10
8.844437035
 20
9.2466710753
 11
8.8315580265
 21
9.2668827548
  0
LINE
  5
2F9
100
AcDbEntity
  8
0
100
AcDbLine
 62
4
  6
CONTINUOUS
 10
8.8959530871
 20
9.3010539767
 11
8.9217111085
 21
9.2606306174
  0
LINE
  5
2FA
100
AcDbEntity
  8
0
100
AcDbLine
 62
4
  6
CONTINUOUS
 10
8.844437035
 20
9.4012192132
 11
8.8315580265
 21
9.4214308928
  0
LINE
  5
2FB
100
AcDbEntity
  8
0
100
AcDbLine
 62
4
  6
CONTINUOUS
 10
8.8959530871
 20
9.4556021146
 11
8.9217111085
 21
9.4151787553
  0
LINE
  5
2FC
100
AcDbEntity
  8
0
100
AcDbLine
 62
4
  6
CONTINUOUS
 10
9.3814458269
 20
8.455777261
 11
9.3704066749
 21
8.4786211236
  0
LINE
  5
2FD
100
AcDbEntity
  8
0
100
AcDbLine
 62
4
  6
CONTINUOUS
 10
9.7854788141
 20
8.2824086256
 11
9.7854788141
 21
8.2345722954
  0
LINE
  5
2FE
100
AcDbEntity
  8
0
100
AcDbLine
 62
4
  6
CONTINUOUS
 10
9.8737920397
 20
8.2431666218
 11
9.8737920397
 21
8.2762840826
  0
LINE
  5
2FF
100
AcDbEntity
  8
0
100
AcDbLine
 62
4
  6
CONTINUOUS
 10
9.8737920397
 20
8.3425190041
 11
9.8737920397
 21
8.3977147597
  0
LINE
  5
300
100
AcDbEntity
  8
0
100
AcDbLine
 62
4
  6
CONTINUOUS
 10
8.8315580265
 20
7.3881569075
 11
8.844437035
 21
7.4065822625
  0
LINE
  5
301
100
AcDbEntity
  8
0
100
AcDbLine
 62
4
  6
CONTINUOUS
 10
8.8315580265
 20
7.2336087696
 11
8.844437035
 21
7.2520341246
  0
LINE
  5
302
100
AcDbEntity
  8
0
100
AcDbLine
 62
4
  6
CONTINUOUS
 10
9.4256024397
 20
8.6845371963
 11
9.4145632865
 21
8.6742635799
  0
LINE
  5
303
100
AcDbEntity
  8
0
100
AcDbLine
 62
4
  6
CONTINUOUS
 10
9.4145632865
 20
8.5638720318
 11
9.4256024397
 21
8.5741456482
  0
LINE
  5
304
100
AcDbEntity
  8
0
100
AcDbLine
 62
4
  6
CONTINUOUS
 10
8.8573160526
 20
7.4153483582
 11
8.8830740694
 21
7.4135620337
  0
LINE
  5
305
100
AcDbEntity
  8
0
100
AcDbLine
 62
4
  6
CONTINUOUS
 10
9.31521091
 20
7.558839839
 11
9.2931326059
 21
7.5603709746
  0
LINE
  5
306
100
AcDbEntity
  8
0
100
AcDbLine
 62
4
  6
CONTINUOUS
 10
9.7854788141
 20
8.1388996397
 11
9.7192439018
 21
8.1876496593
  0
LINE
  5
307
100
AcDbEntity
  8
0
100
AcDbLine
 62
4
  6
CONTINUOUS
 10
10.1917196367
 20
7.7445949133
 11
10.2137979431
 21
7.7209854735
  0
LINE
  5
308
100
AcDbEntity
  8
0
100
AcDbLine
 62
4
  6
CONTINUOUS
 10
9.7192439018
 20
8.2870020324
 11
9.7523613625
 21
8.2515878679
  0
LINE
  5
309
100
AcDbEntity
  8
0
100
AcDbLine
 62
4
  6
CONTINUOUS
 10
9.3262500667
 20
8.838615964
 11
9.31521091
 21
8.8504206427
  0
LINE
  5
30A
100
AcDbEntity
  8
0
100
AcDbLine
 62
4
  6
CONTINUOUS
 10
8.844437035
 20
9.864863627
 11
8.8315580265
 21
9.8850753065
  0
LINE
  5
30B
100
AcDbEntity
  8
0
100
AcDbLine
 62
4
  6
CONTINUOUS
 10
8.8959530871
 20
9.9192465283
 11
8.9217111085
 21
9.878823169
  0
LINE
  5
30C
100
AcDbEntity
  8
0
100
AcDbLine
 62
4
  6
CONTINUOUS
 10
10.1181252828
 20
7.642986896
 11
10.1475630262
 21
7.5820698993
  0
LINE
  5
30D
100
AcDbEntity
  8
0
100
AcDbLine
 62
4
  6
CONTINUOUS
 10
10.0592498052
 20
7.6765076676
 11
10.0592498052
 21
7.7317034233
  0
LINE
  5
30E
100
AcDbEntity
  8
0
100
AcDbLine
 62
4
  6
CONTINUOUS
 10
10.0592498052
 20
7.9488067515
 11
10.0592498052
 21
8.0371199679
  0
LINE
  5
30F
100
AcDbEntity
  8
0
100
AcDbLine
 62
4
  6
CONTINUOUS
 10
10.0592498052
 20
8.0812765945
 11
10.0592498052
 21
8.147511516
  0
LINE
  5
310
100
AcDbEntity
  8
0
100
AcDbLine
 62
4
  6
CONTINUOUS
 10
10.0592498052
 20
8.3351771331
 11
10.0592498052
 21
8.3793337229
  0
LINE
  5
311
100
AcDbEntity
  8
0
100
AcDbLine
 62
4
  6
CONTINUOUS
 10
10.0592498052
 20
8.4639671989
 11
10.0592498052
 21
8.4970846781
  0
LINE
  5
312
100
AcDbEntity
  8
0
100
AcDbLine
 62
4
  6
CONTINUOUS
 10
10.0592498052
 20
8.5633195628
 11
10.0592498052
 21
8.6185153368
  0
LINE
  5
313
100
AcDbEntity
  8
0
100
AcDbLine
 62
4
  6
CONTINUOUS
 10
10.0592498052
 20
8.7031488866
 11
10.0592498052
 21
8.7693837712
  0
LINE
  5
314
100
AcDbEntity
  8
0
100
AcDbLine
 62
4
  6
CONTINUOUS
 10
10.1254847175
 20
8.7427120696
 11
10.1254847175
 21
8.6985554798
  0
LINE
  5
315
100
AcDbEntity
  8
0
100
AcDbLine
 62
4
  6
CONTINUOUS
 10
10.1254847175
 20
8.1208398144
 11
10.1254847175
 21
8.0766831878
  0
LINE
  5
316
100
AcDbEntity
  8
0
100
AcDbLine
 62
4
  6
CONTINUOUS
 10
10.1696413303
 20
7.8234001181
 11
10.1696413303
 21
7.8822755956
  0
LINE
  5
317
100
AcDbEntity
  8
0
100
AcDbLine
 62
4
  6
CONTINUOUS
 10
10.2137979431
 20
8.6077973871
 11
10.2137979431
 21
8.552601613
  0
LINE
  5
318
100
AcDbEntity
  8
0
100
AcDbLine
 62
4
  6
CONTINUOUS
 10
10.2137979431
 20
8.4863667283
 11
10.2137979431
 21
8.4532492492
  0
LINE
  5
319
100
AcDbEntity
  8
0
100
AcDbLine
 62
4
  6
CONTINUOUS
 10
10.2137979431
 20
8.3686157731
 11
10.2137979431
 21
8.3244591834
  0
LINE
  5
31A
100
AcDbEntity
  8
0
100
AcDbLine
 62
4
  6
CONTINUOUS
 10
10.2137979431
 20
7.7209854735
 11
10.2137979431
 21
7.6657897179
  0
LINE
  5
31B
100
AcDbEntity
  8
0
100
AcDbLine
 62
4
  6
CONTINUOUS
 10
10.2137979431
 20
8.0705586448
 11
10.2137979431
 21
8.1367935663
  0
LINE
  5
31C
100
AcDbEntity
  8
0
100
AcDbLine
 62
4
  6
CONTINUOUS
 10
10.2137979431
 20
8.6924309368
 11
10.2137979431
 21
8.7586658215
  0
LINE
  5
31D
100
AcDbEntity
  8
0
100
AcDbLine
 62
4
  6
CONTINUOUS
 10
10.1181252828
 20
8.8094573328
 11
10.1475630262
 21
8.8662912959
  0
LINE
  5
31E
100
AcDbEntity
  8
0
100
AcDbLine
 62
4
  6
CONTINUOUS
 10
9.31521091
 20
8.0997583217
 11
9.3262500667
 21
8.110031901
  0
LINE
  5
31F
100
AcDbEntity
  8
0
100
AcDbLine
 62
4
  6
CONTINUOUS
 10
9.31521091
 20
8.405174894
 11
9.3262500667
 21
8.4117687329
  0
LINE
  5
320
100
AcDbEntity
  8
0
100
AcDbLine
 62
4
  6
CONTINUOUS
 10
9.4035241333
 20
7.6299893651
 11
9.3814458269
 21
7.6315205009
  0
LINE
  5
321
100
AcDbEntity
  8
0
100
AcDbLine
 62
4
  6
CONTINUOUS
 10
9.2710543018
 20
7.6833327874
 11
9.4035241333
 21
7.6741459733
  0
LINE
  5
322
100
AcDbEntity
  8
0
100
AcDbLine
 62
4
  6
CONTINUOUS
 10
10.2137979431
 20
7.6657897179
 11
10.0592498052
 21
7.6765076676
  0
LINE
  5
323
100
AcDbEntity
  8
0
100
AcDbLine
 62
4
  6
CONTINUOUS
 10
9.4035241333
 20
7.7514200423
 11
9.2710543018
 21
7.7606068563
  0
LINE
  5
324
100
AcDbEntity
  8
0
100
AcDbLine
 62
4
  6
CONTINUOUS
 10
9.4256024397
 20
7.7940455147
 11
9.2710543018
 21
7.8047634645
  0
LINE
  5
325
100
AcDbEntity
  8
0
100
AcDbLine
 62
4
  6
CONTINUOUS
 10
10.0813281093
 20
7.7522505918
 11
10.1917196367
 21
7.7445949133
  0
LINE
  5
326
100
AcDbEntity
  8
0
100
AcDbLine
 62
4
  6
CONTINUOUS
 10
8.8315580265
 20
7.8421420626
 11
8.9861061645
 21
7.8314241128
  0
LINE
  5
327
100
AcDbEntity
  8
0
100
AcDbLine
 62
4
  6
CONTINUOUS
 10
9.4256024397
 20
7.8713195837
 11
9.2710543018
 21
7.8820375335
  0
LINE
  5
328
100
AcDbEntity
  8
0
100
AcDbLine
 62
4
  6
CONTINUOUS
 10
10.2137979431
 20
7.8056189772
 11
10.0592498052
 21
7.8604935351
  0
LINE
  5
329
100
AcDbEntity
  8
0
100
AcDbLine
 62
4
  6
CONTINUOUS
 10
9.4623996155
 20
8.1668248193
 11
9.31521091
 21
8.2211889804
  0
LINE
  5
32A
100
AcDbEntity
  8
0
100
AcDbLine
 62
4
  6
CONTINUOUS
 10
9.7523613625
 20
8.2515878679
 11
9.7965179707
 21
8.2264472926
  0
LINE
  5
32B
100
AcDbEntity
  8
0
100
AcDbLine
 62
4
  6
CONTINUOUS
 10
8.8573160526
 20
9.2361186538
 11
8.844437035
 21
9.2466710753
  0
LINE
  5
32C
100
AcDbEntity
  8
0
100
AcDbLine
 62
4
  6
CONTINUOUS
 10
9.8737920397
 20
8.2762840826
 11
9.8517137333
 21
8.2998935132
  0
LINE
  5
32D
100
AcDbEntity
  8
0
100
AcDbLine
 62
4
  6
CONTINUOUS
 10
9.3262500667
 20
8.9379684015
 11
9.31521091
 21
8.9497730802
  0
LINE
  5
32E
100
AcDbEntity
  8
0
100
AcDbLine
 62
4
  6
CONTINUOUS
 10
9.4256024397
 20
8.9862739914
 11
9.4145632865
 21
8.9980786699
  0
LINE
  5
32F
100
AcDbEntity
  8
0
100
AcDbLine
 62
4
  6
CONTINUOUS
 10
10.0813281093
 20
8.3115677027
 11
10.0592498052
 21
8.3351771331
  0
LINE
  5
330
100
AcDbEntity
  8
0
100
AcDbLine
 62
4
  6
CONTINUOUS
 10
10.6555480666
 20
8.8699293746
 11
10.6426690581
 21
8.8515040196
  0
LINE
  5
331
100
AcDbEntity
  8
0
100
AcDbLine
 62
4
  6
CONTINUOUS
 10
9.3814458269
 20
7.6315205009
 11
9.31521091
 21
7.558839839
  0
LINE
  5
332
100
AcDbEntity
  8
0
100
AcDbLine
 62
4
  6
CONTINUOUS
 10
10.0592498052
 20
8.6185153368
 11
10.0813281093
 21
8.6390624961
  0
LINE
  5
333
100
AcDbEntity
  8
0
100
AcDbLine
 62
4
  6
CONTINUOUS
 10
9.8075571228
 20
8.3029557846
 11
9.7854788141
 21
8.2824086256
  0
LINE
  5
334
100
AcDbEntity
  8
0
100
AcDbLine
 62
4
  6
CONTINUOUS
 10
10.0592498052
 20
8.4970846781
 11
10.0813281093
 21
8.5176318374
  0
LINE
  5
335
100
AcDbEntity
  8
0
100
AcDbLine
 62
4
  6
CONTINUOUS
 10
9.8517137333
 20
8.2226194535
 11
9.8737920397
 21
8.2431666218
  0
LINE
  5
336
100
AcDbEntity
  8
0
100
AcDbLine
 62
4
  6
CONTINUOUS
 10
9.2710543018
 20
7.6281370271
 11
9.2820934585
 21
7.638410611
  0
LINE
  5
337
100
AcDbEntity
  8
0
100
AcDbLine
 62
4
  6
CONTINUOUS
 10
10.2137979431
 20
8.4532492492
 11
10.1917196367
 21
8.43270209
  0
LINE
  5
338
100
AcDbEntity
  8
0
100
AcDbLine
 62
4
  6
CONTINUOUS
 10
9.4035241333
 20
7.6741459733
 11
9.4256024397
 21
7.6946931417
  0
LINE
  5
339
100
AcDbEntity
  8
0
100
AcDbLine
 62
4
  6
CONTINUOUS
 10
10.6684270842
 20
8.8786954703
 11
10.6555480666
 21
8.8699293746
  0
LINE
  5
33A
100
AcDbEntity
  8
0
100
AcDbLine
 62
4
  6
CONTINUOUS
 10
9.3372892141
 20
8.5250744171
 11
9.31521091
 21
8.5155664421
  0
LINE
  5
33B
100
AcDbEntity
  8
0
100
AcDbLine
 62
4
  6
CONTINUOUS
 10
11.3622838388
 20
7.9081171239
 11
11.3236468043
 21
7.9011373527
  0
LINE
  5
33C
100
AcDbEntity
  8
0
100
AcDbLine
 62
4
  6
CONTINUOUS
 10
9.4256024397
 20
8.036906869
 11
9.2710543018
 21
8.0476248188
  0
LINE
  5
33D
100
AcDbEntity
  8
0
100
AcDbLine
 62
4
  6
CONTINUOUS
 10
10.2137979431
 20
7.9822454284
 11
10.0592498052
 21
7.9929633781
  0
LINE
  5
33E
100
AcDbEntity
  8
0
100
AcDbLine
 62
4
  6
CONTINUOUS
 10
9.3262500667
 20
8.110031901
 11
9.4256024397
 21
8.1031417906
  0
LINE
  5
33F
100
AcDbEntity
  8
0
100
AcDbLine
 62
4
  6
CONTINUOUS
 10
10.2137979431
 20
8.0705586448
 11
10.0592498052
 21
8.0812765945
  0
LINE
  5
340
100
AcDbEntity
  8
0
100
AcDbLine
 62
4
  6
CONTINUOUS
 10
12.4875874922
 20
7.202225224
 11
12.3330393543
 21
7.2612394669
  0
LINE
  5
341
100
AcDbEntity
  8
0
100
AcDbLine
 62
4
  6
CONTINUOUS
 10
8.9217111085
 20
9.2606306174
 11
8.94746913
 21
9.2395257753
  0
LINE
  5
342
100
AcDbEntity
  8
0
100
AcDbLine
 62
4
  6
CONTINUOUS
 10
8.8830740694
 20
9.3116063982
 11
8.8959530871
 21
9.3010539767
  0
LINE
  5
343
100
AcDbEntity
  8
0
100
AcDbLine
 62
4
  6
CONTINUOUS
 10
8.8573160526
 20
9.3906667917
 11
8.844437035
 21
9.4012192132
  0
LINE
  5
344
100
AcDbEntity
  8
0
100
AcDbLine
 62
4
  6
CONTINUOUS
 10
8.9217111085
 20
9.4151787553
 11
8.94746913
 21
9.3940739132
  0
LINE
  5
345
100
AcDbEntity
  8
0
100
AcDbLine
 62
4
  6
CONTINUOUS
 10
8.8830740694
 20
9.4661545361
 11
8.8959530871
 21
9.4556021146
  0
LINE
  5
346
100
AcDbEntity
  8
0
100
AcDbLine
 62
4
  6
CONTINUOUS
 10
10.0813281093
 20
8.4403577685
 11
10.0592498052
 21
8.4639671989
  0
LINE
  5
347
100
AcDbEntity
  8
0
100
AcDbLine
 62
4
  6
CONTINUOUS
 10
10.1917196367
 20
8.509976159
 11
10.2137979431
 21
8.4863667283
  0
LINE
  5
348
100
AcDbEntity
  8
0
100
AcDbLine
 62
4
  6
CONTINUOUS
 10
10.1917196367
 20
8.6314068177
 11
10.2137979431
 21
8.6077973871
  0
LINE
  5
349
100
AcDbEntity
  8
0
100
AcDbLine
 62
4
  6
CONTINUOUS
 10
10.1475630262
 20
8.8662912959
 11
10.1770007673
 21
8.805374304
  0
LINE
  5
34A
100
AcDbEntity
  8
0
100
AcDbLine
 62
4
  6
CONTINUOUS
 10
10.6127253383
 20
10.7593525837
 11
10.6127253383
 21
10.6917377733
  0
LINE
  5
34B
100
AcDbEntity
  8
0
100
AcDbLine
 62
4
  6
CONTINUOUS
 10
10.6127253383
 20
5.6853437263
 11
10.6127253383
 21
5.7046622436
  0
LINE
  5
34C
100
AcDbEntity
  8
0
100
AcDbLine
 62
4
  6
CONTINUOUS
 10
10.6127253383
 20
10.5758266699
 11
10.6127253383
 21
10.5951451871
  0
LINE
  5
34D
100
AcDbEntity
  8
0
100
AcDbLine
 62
4
  6
CONTINUOUS
 10
10.6426690581
 20
8.8515040196
 11
10.6426690581
 21
8.8321855024
  0
LINE
  5
34E
100
AcDbEntity
  8
0
100
AcDbLine
 62
4
  6
CONTINUOUS
 10
10.6771203988
 20
10.6872719607
 11
10.6771203988
 21
10.7548867711
  0
LINE
  5
34F
100
AcDbEntity
  8
0
100
AcDbLine
 62
4
  6
CONTINUOUS
 10
10.7157574287
 20
5.8134280473
 11
10.7157574287
 21
5.871383599
  0
LINE
  5
350
100
AcDbEntity
  8
0
100
AcDbLine
 62
4
  6
CONTINUOUS
 10
10.7672734762
 20
5.6456480007
 11
10.7672734762
 21
5.7229220697
  0
LINE
  5
351
100
AcDbEntity
  8
0
100
AcDbLine
 62
4
  6
CONTINUOUS
 10
10.7672734762
 20
10.5361309443
 11
10.7672734762
 21
10.6134050132
  0
LINE
  5
352
100
AcDbEntity
  8
0
100
AcDbLine
 62
4
  6
CONTINUOUS
 10
10.7672734762
 20
10.6810198236
 11
10.7672734762
 21
10.7486346339
  0
LINE
  5
353
100
AcDbEntity
  8
0
100
AcDbLine
 62
4
  6
CONTINUOUS
 10
10.1475630262
 20
7.5820698993
 11
10.1770007673
 21
7.6389038673
  0
LINE
  5
354
100
AcDbEntity
  8
0
100
AcDbLine
 62
4
  6
CONTINUOUS
 10
10.694185101
 20
8.8092943354
 11
10.7328221401
 21
8.8645703994
  0
LINE
  5
355
100
AcDbEntity
  8
0
100
AcDbLine
 62
4
  6
CONTINUOUS
 10
10.7972171961
 20
8.8214675526
 11
10.7843381842
 21
8.8030421979
  0
LINE
  5
356
100
AcDbEntity
  8
0
100
AcDbLine
 62
7
  6
CONTINUOUS
 10
12.6083282277
 20
10.709822044
 11
13.2553753064
 21
11.3348215652
  0
LINE
  5
357
100
AcDbEntity
  8
0
100
AcDbLine
 62
7
  6
CONTINUOUS
 10
10.3734143284
 20
8.3777466974
 11
10.249115584
 21
8.2576833229
  0
LINE
  5
358
100
AcDbEntity
  8
0
100
AcDbLine
 62
7
  6
CONTINUOUS
 10
10.7044856892
 20
8.5459309598
 11
10.5801869447
 21
8.4258675853
  0
LINE
  5
359
100
AcDbEntity
  8
0
100
AcDbLine
 62
4
  6
CONTINUOUS
 10
10.2137979431
 20
8.3244591834
 11
10.1917196367
 21
8.3039120242
  0
LINE
  5
35A
100
AcDbEntity
  8
0
100
AcDbLine
 62
4
  6
CONTINUOUS
 10
9.4145632865
 20
7.5519497283
 11
9.4256024397
 21
7.5622233136
  0
LINE
  5
35B
100
AcDbEntity
  8
0
100
AcDbLine
 62
4
  6
CONTINUOUS
 10
10.7328221401
 20
8.8645703994
 11
10.7457011486
 21
8.8733364957
  0
LINE
  5
35C
100
AcDbEntity
  8
0
100
AcDbLine
 62
4
  6
CONTINUOUS
 10
10.6813060926
 20
8.8005282391
 11
10.694185101
 21
8.8092943354
  0
LINE
  5
35D
100
AcDbEntity
  8
0
100
AcDbLine
 62
4
  6
CONTINUOUS
 10
10.7843381842
 20
8.8030421979
 11
10.7585801616
 21
8.7855100056
  0
LINE
  5
35E
100
AcDbEntity
  8
0
100
AcDbLine
 62
4
  6
CONTINUOUS
 10
8.844437035
 20
7.4065822625
 11
8.8573160526
 21
7.4153483582
  0
LINE
  5
35F
100
AcDbEntity
  8
0
100
AcDbLine
 62
4
  6
CONTINUOUS
 10
9.7192439018
 20
8.0993364337
 11
9.7854788141
 21
8.1388996397
  0
LINE
  5
360
100
AcDbEntity
  8
0
100
AcDbLine
 62
4
  6
CONTINUOUS
 10
8.8315580265
 20
7.5330457868
 11
8.9861061645
 21
7.5706241301
  0
LINE
  5
361
100
AcDbEntity
  8
0
100
AcDbLine
 62
4
  6
CONTINUOUS
 10
11.2463727354
 20
8.2735481551
 11
11.4009208733
 21
8.3111264985
  0
LINE
  5
362
100
AcDbEntity
  8
0
100
AcDbLine
 62
4
  6
CONTINUOUS
 10
10.0592498052
 20
7.8604935351
 11
10.2137979431
 21
7.893932212
  0
LINE
  5
363
100
AcDbEntity
  8
0
100
AcDbLine
 62
4
  6
CONTINUOUS
 10
9.7854788141
 20
8.1388996397
 11
9.8737920397
 21
8.1327750967
  0
LINE
  5
364
100
AcDbEntity
  8
0
100
AcDbLine
 62
4
  6
CONTINUOUS
 10
11.2721307614
 20
8.0785766576
 11
11.2850097698
 21
8.0776834953
  0
LINE
  5
365
100
AcDbEntity
  8
0
100
AcDbLine
 62
4
  6
CONTINUOUS
 10
9.4145632865
 20
8.2437366454
 11
9.3262500667
 21
8.249861188
  0
LINE
  5
366
100
AcDbEntity
  8
0
100
AcDbLine
 62
4
  6
CONTINUOUS
 10
9.7965179707
 20
8.2264472926
 11
9.8517137333
 21
8.2226194535
  0
LINE
  5
367
100
AcDbEntity
  8
0
100
AcDbLine
 62
4
  6
CONTINUOUS
 10
11.3494048258
 20
8.150491752
 11
11.3751628495
 21
8.148705427
  0
LINE
  5
368
100
AcDbEntity
  8
0
100
AcDbLine
 62
4
  6
CONTINUOUS
 10
9.2710543018
 20
8.3199239119
 11
9.4256024397
 21
8.3092059622
  0
LINE
  5
369
100
AcDbEntity
  8
0
100
AcDbLine
 62
4
  6
CONTINUOUS
 10
9.8517137333
 20
8.2998935132
 11
9.8075571228
 21
8.3029557846
  0
LINE
  5
36A
100
AcDbEntity
  8
0
100
AcDbLine
 62
4
  6
CONTINUOUS
 10
9.4256024397
 20
8.3533626256
 11
9.31521091
 21
8.3610183042
  0
LINE
  5
36B
100
AcDbEntity
  8
0
100
AcDbLine
 62
4
  6
CONTINUOUS
 10
10.1917196367
 20
8.3039120242
 11
10.0813281093
 21
8.3115677027
  0
LINE
  5
36C
100
AcDbEntity
  8
0
100
AcDbLine
 62
4
  6
CONTINUOUS
 10
9.7192439018
 20
8.3532369539
 11
9.8737920397
 21
8.3425190041
  0
LINE
  5
36D
100
AcDbEntity
  8
0
100
AcDbLine
 62
4
  6
CONTINUOUS
 10
11.3236468043
 20
7.9011373527
 11
11.2850097698
 21
7.9134760988
  0
LINE
  5
36E
100
AcDbEntity
  8
0
100
AcDbLine
 62
4
  6
CONTINUOUS
 10
9.2710543018
 20
8.7872480292
 11
9.2820934585
 21
8.7828027575
  0
LINE
  5
36F
100
AcDbEntity
  8
0
100
AcDbLine
 62
4
  6
CONTINUOUS
 10
8.8573160526
 20
9.8543112054
 11
8.844437035
 21
9.864863627
  0
LINE
  5
370
100
AcDbEntity
  8
0
100
AcDbLine
 62
4
  6
CONTINUOUS
 10
11.2850097698
 20
7.9134760988
 11
11.2592517438
 21
7.9345809412
  0
LINE
  5
371
100
AcDbEntity
  8
0
100
AcDbLine
 62
4
  6
CONTINUOUS
 10
8.9217111085
 20
9.878823169
 11
8.94746913
 21
9.8577183269
  0
LINE
  5
372
100
AcDbEntity
  8
0
100
AcDbLine
 62
4
  6
CONTINUOUS
 10
8.8830740694
 20
9.9297989499
 11
8.8959530871
 21
9.9192465283
  0
LINE
  5
373
100
AcDbEntity
  8
0
100
AcDbLine
 62
4
  6
CONTINUOUS
 10
10.7972171961
 20
8.8407860699
 11
10.7972171961
 21
8.8214675526
  0
LINE
  5
374
100
AcDbEntity
  8
0
100
AcDbLine
 62
7
  6
CONTINUOUS
 10
10.7356259094
 20
8.5437713782
 11
10.6113271649
 21
8.4237080037
  0
LINE
  5
375
100
AcDbEntity
  8
0
100
AcDbLine
 62
4
  6
CONTINUOUS
 10
10.0592498052
 20
7.7317034233
 11
10.0813281093
 21
7.7522505918
  0
LINE
  5
376
100
AcDbEntity
  8
0
100
AcDbLine
 62
4
  6
CONTINUOUS
 10
8.844437035
 20
7.2520341246
 11
8.8573160526
 21
7.2608002203
  0
LINE
  5
377
100
AcDbEntity
  8
0
100
AcDbLine
 62
4
  6
CONTINUOUS
 10
9.2710543018
 20
7.8047634645
 11
9.4256024397
 21
7.8713195837
  0
LINE
  5
378
100
AcDbEntity
  8
0
100
AcDbLine
 62
4
  6
CONTINUOUS
 10
11.2463727354
 20
8.3701407413
 11
11.4009208733
 21
8.3884005674
  0
LINE
  5
379
100
AcDbEntity
  8
0
100
AcDbLine
 62
4
  6
CONTINUOUS
 10
11.2463727354
 20
8.4280962931
 11
11.4009208733
 21
8.4463561191
  0
LINE
  5
37A
100
AcDbEntity
  8
0
100
AcDbLine
 62
4
  6
CONTINUOUS
 10
9.3262500667
 20
8.4117687329
 11
9.3483283708
 21
8.4102375973
  0
LINE
  5
37B
100
AcDbEntity
  8
0
100
AcDbLine
 62
4
  6
CONTINUOUS
 10
9.4145632865
 20
8.4534805573
 11
9.3814458269
 21
8.455777261
  0
LINE
  5
37C
100
AcDbEntity
  8
0
100
AcDbLine
 62
4
  6
CONTINUOUS
 10
10.1917196367
 20
8.43270209
 11
10.0813281093
 21
8.4403577685
  0
LINE
  5
37D
100
AcDbEntity
  8
0
100
AcDbLine
 62
4
  6
CONTINUOUS
 10
9.4256024397
 20
8.5189498741
 11
9.3372892141
 21
8.5250744171
  0
LINE
  5
37E
100
AcDbEntity
  8
0
100
AcDbLine
 62
4
  6
CONTINUOUS
 10
9.31521091
 20
8.5707621425
 11
9.4145632865
 21
8.5638720318
  0
LINE
  5
37F
100
AcDbEntity
  8
0
100
AcDbLine
 62
4
  6
CONTINUOUS
 10
10.0813281093
 20
8.5176318374
 11
10.1917196367
 21
8.509976159
  0
LINE
  5
380
100
AcDbEntity
  8
0
100
AcDbLine
 62
4
  6
CONTINUOUS
 10
10.2137979431
 20
8.552601613
 11
10.0592498052
 21
8.5633195628
  0
LINE
  5
381
100
AcDbEntity
  8
0
100
AcDbLine
 62
4
  6
CONTINUOUS
 10
9.4256024397
 20
8.6293414223
 11
9.31521091
 21
8.6369971008
  0
LINE
  5
382
100
AcDbEntity
  8
0
100
AcDbLine
 62
4
  6
CONTINUOUS
 10
11.4009208733
 20
8.3884005674
 11
11.2463727354
 21
8.4280962931
  0
LINE
  5
383
100
AcDbEntity
  8
0
100
AcDbLine
 62
4
  6
CONTINUOUS
 10
11.4009208733
 20
8.2145339123
 11
11.2463727354
 21
8.2735481551
  0
LINE
  5
384
100
AcDbEntity
  8
0
100
AcDbLine
 62
4
  6
CONTINUOUS
 10
11.2592517438
 20
8.0891290791
 11
11.2721307614
 21
8.0785766576
  0
LINE
  5
385
100
AcDbEntity
  8
0
100
AcDbLine
 62
4
  6
CONTINUOUS
 10
11.3751628495
 20
7.9941572891
 11
11.3880418614
 21
7.9836048679
  0
LINE
  5
386
100
AcDbEntity
  8
0
100
AcDbLine
 62
4
  6
CONTINUOUS
 10
11.3751628495
 20
8.148705427
 11
11.3880418614
 21
8.1381530058
  0
LINE
  5
387
100
AcDbEntity
  8
0
100
AcDbLine
 62
4
  6
CONTINUOUS
 10
10.6555480666
 20
8.8119738229
 11
10.6684270842
 21
8.8014214014
  0
LINE
  5
388
100
AcDbEntity
  8
0
100
AcDbLine
 62
4
  6
CONTINUOUS
 10
10.6426690581
 20
8.8321855024
 11
10.6555480666
 21
8.8119738229
  0
LINE
  5
389
100
AcDbEntity
  8
0
100
AcDbLine
 62
4
  6
CONTINUOUS
 10
11.2592517438
 20
7.9345809412
 11
11.2463727354
 21
7.9547926207
  0
LINE
  5
38A
100
AcDbEntity
  8
0
100
AcDbLine
 62
4
  6
CONTINUOUS
 10
11.2463727354
 20
8.1093407586
 11
11.2592517438
 21
8.0891290791
  0
LINE
  5
38B
100
AcDbEntity
  8
0
100
AcDbLine
 62
4
  6
CONTINUOUS
 10
10.7843381842
 20
8.8609977496
 11
10.7972171961
 21
8.8407860699
  0
LINE
  5
38C
100
AcDbEntity
  8
0
100
AcDbLine
 62
4
  6
CONTINUOUS
 10
11.2463727354
 20
8.1286592759
 11
11.2463727354
 21
8.1093407586
  0
LINE
  5
38D
100
AcDbEntity
  8
0
100
AcDbLine
 62
4
  6
CONTINUOUS
 10
11.2463727354
 20
7.9547926207
 11
11.2463727354
 21
7.9741111379
  0
LINE
  5
38E
100
AcDbEntity
  8
0
100
AcDbLine
 62
7
  6
CONTINUOUS
 10
11.0666972702
 20
8.3296673621
 11
10.9423985257
 21
8.2096039875
  0
LINE
  5
38F
100
AcDbEntity
  8
0
100
AcDbLine
 62
7
  6
CONTINUOUS
 10
11.0822673803
 20
8.3016193495
 11
10.9579686358
 21
8.181555975
  0
LINE
  5
390
100
AcDbEntity
  8
0
100
AcDbLine
 62
4
  6
CONTINUOUS
 10
12.3459183627
 20
9.2211758475
 11
12.3330393543
 21
9.2124097512
  0
LINE
  5
391
100
AcDbEntity
  8
0
100
AcDbLine
 62
4
  6
CONTINUOUS
 10
12.4231924363
 20
9.2254761309
 11
12.3974344148
 21
9.2079439386
  0
LINE
  5
392
100
AcDbEntity
  8
0
100
AcDbLine
 62
4
  6
CONTINUOUS
 10
9.31521091
 20
8.1549540958
 11
9.4256024397
 21
8.1804158964
  0
LINE
  5
393
100
AcDbEntity
  8
0
100
AcDbLine
 62
4
  6
CONTINUOUS
 10
9.4145632865
 20
8.6742635799
 11
9.2710543018
 21
8.6842159618
  0
LINE
  5
394
100
AcDbEntity
  8
0
100
AcDbLine
 62
4
  6
CONTINUOUS
 10
10.0813281093
 20
8.6390624961
 11
10.1917196367
 21
8.6314068177
  0
LINE
  5
395
100
AcDbEntity
  8
0
100
AcDbLine
 62
4
  6
CONTINUOUS
 10
10.2137979431
 20
8.6924309368
 11
10.0592498052
 21
8.7031488866
  0
LINE
  5
396
100
AcDbEntity
  8
0
100
AcDbLine
 62
4
  6
CONTINUOUS
 10
9.4256024397
 20
8.7728503759
 11
9.31521091
 21
8.7805060545
  0
LINE
  5
397
100
AcDbEntity
  8
0
100
AcDbLine
 62
4
  6
CONTINUOUS
 10
9.2820934585
 20
8.7828027575
 11
9.2710543018
 21
8.7835683256
  0
LINE
  5
398
100
AcDbEntity
  8
0
100
AcDbLine
 62
4
  6
CONTINUOUS
 10
9.4145632865
 20
8.8324914214
 11
9.3262500667
 21
8.838615964
  0
LINE
  5
399
100
AcDbEntity
  8
0
100
AcDbLine
 62
4
  6
CONTINUOUS
 10
10.6684270842
 20
8.8014214014
 11
10.6813060926
 21
8.8005282391
  0
LINE
  5
39A
100
AcDbEntity
  8
0
100
AcDbLine
 62
4
  6
CONTINUOUS
 10
11.4009208733
 20
8.4463561191
 11
11.2463727354
 21
8.4860518448
  0
LINE
  5
39B
100
AcDbEntity
  8
0
100
AcDbLine
 62
4
  6
CONTINUOUS
 10
8.94746913
 20
9.2395257753
 11
8.9861061645
 21
9.2271870292
  0
LINE
  5
39C
100
AcDbEntity
  8
0
100
AcDbLine
 62
4
  6
CONTINUOUS
 10
8.94746913
 20
9.3940739132
 11
8.9861061645
 21
9.3817351671
  0
LINE
  5
39D
100
AcDbEntity
  8
0
100
AcDbLine
 62
4
  6
CONTINUOUS
 10
8.9861061645
 20
9.5266240464
 11
8.8315580265
 21
9.5856382893
  0
LINE
  5
39E
100
AcDbEntity
  8
0
100
AcDbLine
 62
4
  6
CONTINUOUS
 10
10.7714591723
 20
8.8715501707
 11
10.7843381842
 21
8.8609977496
  0
LINE
  5
39F
100
AcDbEntity
  8
0
100
AcDbLine
 62
4
  6
CONTINUOUS
 10
11.3880418614
 20
7.9836048679
 11
11.4009208733
 21
7.9633931882
  0
LINE
  5
3A0
100
AcDbEntity
  8
0
100
AcDbLine
 62
4
  6
CONTINUOUS
 10
11.3880418614
 20
8.1381530058
 11
11.4009208733
 21
8.1179413261
  0
LINE
  5
3A1
100
AcDbEntity
  8
0
100
AcDbLine
 62
4
  6
CONTINUOUS
 10
11.3494048258
 20
8.2374250796
 11
11.3494048258
 21
8.2953806313
  0
LINE
  5
3A2
100
AcDbEntity
  8
0
100
AcDbLine
 62
4
  6
CONTINUOUS
 10
11.4009208733
 20
8.1179413261
 11
11.4009208733
 21
8.0986228089
  0
LINE
  5
3A3
100
AcDbEntity
  8
0
100
AcDbLine
 62
4
  6
CONTINUOUS
 10
11.4009208733
 20
7.9633931882
 11
11.4009208733
 21
7.9440746709
  0
LINE
  5
3A4
100
AcDbEntity
  8
0
100
AcDbLine
 62
4
  6
CONTINUOUS
 10
11.2592517438
 20
8.1470846308
 11
11.2463727354
 21
8.1286592759
  0
LINE
  5
3A5
100
AcDbEntity
  8
0
100
AcDbLine
 62
4
  6
CONTINUOUS
 10
11.2978887783
 20
8.0864495917
 11
11.3365258173
 21
8.1417256556
  0
LINE
  5
3A6
100
AcDbEntity
  8
0
100
AcDbLine
 62
4
  6
CONTINUOUS
 10
11.2463727354
 20
7.9741111379
 11
11.2592517438
 21
7.9925364929
  0
LINE
  5
3A7
100
AcDbEntity
  8
0
100
AcDbLine
 62
7
  6
CONTINUOUS
 10
11.0822673803
 20
7.919331071
 11
10.9579686358
 21
7.7992676964
  0
LINE
  5
3A8
100
AcDbEntity
  8
0
100
AcDbLine
 62
7
  6
CONTINUOUS
 10
11.0666972702
 20
7.89344264
 11
10.9423985257
 21
7.7733792655
  0
LINE
  5
3A9
100
AcDbEntity
  8
0
100
AcDbLine
 62
4
  6
CONTINUOUS
 10
11.2721307614
 20
8.1558507265
 11
11.2592517438
 21
8.1470846308
  0
LINE
  5
3AA
100
AcDbEntity
  8
0
100
AcDbLine
 62
4
  6
CONTINUOUS
 10
11.3365258173
 20
8.1417256556
 11
11.3494048258
 21
8.150491752
  0
LINE
  5
3AB
100
AcDbEntity
  8
0
100
AcDbLine
 62
4
  6
CONTINUOUS
 10
11.2850097698
 20
8.0776834953
 11
11.2978887783
 21
8.0864495917
  0
LINE
  5
3AC
100
AcDbEntity
  8
0
100
AcDbLine
 62
4
  6
CONTINUOUS
 10
8.8315580265
 20
8.9674457376
 11
8.9861061645
 21
8.9567277879
  0
LINE
  5
3AD
100
AcDbEntity
  8
0
100
AcDbLine
 62
4
  6
CONTINUOUS
 10
9.3593675228
 20
8.9356716981
 11
9.3262500667
 21
8.9379684015
  0
LINE
  5
3AE
100
AcDbEntity
  8
0
100
AcDbLine
 62
4
  6
CONTINUOUS
 10
10.7457011486
 20
8.8733364957
 11
10.7714591723
 21
8.8715501707
  0
LINE
  5
3AF
100
AcDbEntity
  8
0
100
AcDbLine
 62
4
  6
CONTINUOUS
 10
9.4145632865
 20
8.9980786699
 11
9.3814458269
 21
9.0003753735
  0
LINE
  5
3B0
100
AcDbEntity
  8
0
100
AcDbLine
 62
4
  6
CONTINUOUS
 10
11.4009208733
 20
8.0986228089
 11
11.3880418614
 21
8.0801974541
  0
LINE
  5
3B1
100
AcDbEntity
  8
0
100
AcDbLine
 62
4
  6
CONTINUOUS
 10
11.4009208733
 20
7.9440746709
 11
11.3880418614
 21
7.9256493162
  0
LINE
  5
3B2
100
AcDbEntity
  8
0
100
AcDbLine
 62
4
  6
CONTINUOUS
 10
11.3880418614
 20
8.0801974541
 11
11.3622838388
 21
8.0626652618
  0
LINE
  5
3B3
100
AcDbEntity
  8
0
100
AcDbLine
 62
4
  6
CONTINUOUS
 10
11.2592517438
 20
7.9925364929
 11
11.2721307614
 21
8.0013025886
  0
LINE
  5
3B4
100
AcDbEntity
  8
0
100
AcDbLine
 62
4
  6
CONTINUOUS
 10
11.3880418614
 20
7.9256493162
 11
11.3622838388
 21
7.9081171239
  0
LINE
  5
3B5
100
AcDbEntity
  8
0
100
AcDbLine
 62
4
  6
CONTINUOUS
 10
12.3330393543
 20
9.038543096
 11
12.4875874922
 21
9.0278251463
  0
LINE
  5
3B6
100
AcDbEntity
  8
0
100
AcDbLine
 62
4
  6
CONTINUOUS
 10
8.8573160526
 20
9.3133927228
 11
8.8830740694
 21
9.3116063982
  0
LINE
  5
3B7
100
AcDbEntity
  8
0
100
AcDbLine
 62
4
  6
CONTINUOUS
 10
12.3330393543
 20
9.1447949408
 11
12.4875874922
 21
9.1340769911
  0
LINE
  5
3B8
100
AcDbEntity
  8
0
100
AcDbLine
 62
4
  6
CONTINUOUS
 10
8.94746913
 20
9.8577183269
 11
8.9861061645
 21
9.8453795809
  0
LINE
  5
3B9
100
AcDbEntity
  8
0
100
AcDbLine
 62
4
  6
CONTINUOUS
 10
10.6256043467
 20
10.5556149904
 11
10.6127253383
 21
10.5758266699
  0
LINE
  5
3BA
100
AcDbEntity
  8
0
100
AcDbLine
 62
4
  6
CONTINUOUS
 10
12.3845553972
 20
9.2184963601
 11
12.3459183627
 21
9.2211758475
  0
LINE
  5
3BB
100
AcDbEntity
  8
0
100
AcDbLine
 62
4
  6
CONTINUOUS
 10
8.8573160526
 20
9.4679408607
 11
8.8830740694
 21
9.4661545361
  0
LINE
  5
3BC
100
AcDbEntity
  8
0
100
AcDbLine
 62
4
  6
CONTINUOUS
 10
12.4618294685
 20
9.2227966437
 11
12.4231924363
 21
9.2254761309
  0
LINE
  5
3BD
100
AcDbEntity
  8
0
100
AcDbLine
 62
4
  6
CONTINUOUS
 10
10.6771203988
 20
10.6099978918
 11
10.7028784202
 21
10.5695745324
  0
LINE
  5
3BE
100
AcDbEntity
  8
0
100
AcDbLine
 62
4
  6
CONTINUOUS
 10
10.6127253383
 20
5.7046622436
 11
10.6256043467
 21
5.7230875986
  0
LINE
  5
3BF
100
AcDbEntity
  8
0
100
AcDbLine
 62
4
  6
CONTINUOUS
 10
8.8573160526
 20
9.9315852744
 11
8.8830740694
 21
9.9297989499
  0
LINE
  5
3C0
100
AcDbEntity
  8
0
100
AcDbLine
 62
4
  6
CONTINUOUS
 10
12.3330393543
 20
9.2124097512
 11
12.3330393543
 21
9.1447949408
  0
LINE
  5
3C1
100
AcDbEntity
  8
0
100
AcDbLine
 62
4
  6
CONTINUOUS
 10
12.3974344148
 20
9.1403291282
 11
12.3974344148
 21
9.2079439386
  0
LINE
  5
3C2
100
AcDbEntity
  8
0
100
AcDbLine
 62
4
  6
CONTINUOUS
 10
12.4360714447
 20
7.2251163913
 11
12.4360714447
 21
7.283071943
  0
LINE
  5
3C3
100
AcDbEntity
  8
0
100
AcDbLine
 62
4
  6
CONTINUOUS
 10
12.4875874922
 20
9.1340769911
 11
12.4875874922
 21
9.2016918014
  0
LINE
  5
3C4
100
AcDbEntity
  8
0
100
AcDbLine
 62
4
  6
CONTINUOUS
 10
8.8315580265
 20
9.5856382893
 11
8.9861061645
 21
9.6232166326
  0
LINE
  5
3C5
100
AcDbEntity
  8
0
100
AcDbLine
 62
4
  6
CONTINUOUS
 10
10.6384833643
 20
10.5450625689
 11
10.6256043467
 21
10.5556149904
  0
LINE
  5
3C6
100
AcDbEntity
  8
0
100
AcDbLine
 62
4
  6
CONTINUOUS
 10
10.7028784202
 20
10.5695745324
 11
10.7286364417
 21
10.5484696903
  0
LINE
  5
3C7
100
AcDbEntity
  8
0
100
AcDbLine
 62
4
  6
CONTINUOUS
 10
10.6642413812
 20
10.6205503133
 11
10.6771203988
 21
10.6099978918
  0
LINE
  5
3C8
100
AcDbEntity
  8
0
100
AcDbLine
 62
4
  6
CONTINUOUS
 10
12.3974344148
 20
9.2079439386
 11
12.3845553972
 21
9.2184963601
  0
LINE
  5
3C9
100
AcDbEntity
  8
0
100
AcDbLine
 62
4
  6
CONTINUOUS
 10
12.4875874922
 20
9.2016918014
 11
12.4618294685
 21
9.2227966437
  0
LINE
  5
3CA
100
AcDbEntity
  8
0
100
AcDbLine
 62
4
  6
CONTINUOUS
 10
10.6771203988
 20
10.7548867711
 11
10.6642413812
 21
10.7654391926
  0
LINE
  5
3CB
100
AcDbEntity
  8
0
100
AcDbLine
 62
7
  6
CONTINUOUS
 10
12.6083282277
 20
5.3972296846
 11
12.6083282277
 21
10.709822044
  0
LINE
  5
3CC
100
AcDbEntity
  8
0
100
AcDbLine
 62
4
  6
CONTINUOUS
 10
10.7672734762
 20
10.7486346339
 11
10.7415154524
 21
10.7697394762
  0
LINE
  5
3CD
100
AcDbEntity
  8
0
100
AcDbLine
 62
4
  6
CONTINUOUS
 10
10.7286364417
 20
10.5484696903
 11
10.7672734762
 21
10.5361309443
  0
LINE
  5
3CE
100
AcDbEntity
  8
0
100
AcDbLine
 62
7
  6
CONTINUOUS
 10
13.2553753064
 20
6.0222292058
 11
13.2553753064
 21
11.3348215652
  0
LINE
  5
3CF
100
AcDbEntity
  8
0
100
AcDbLine
 62
4
  6
CONTINUOUS
 10
10.6256043467
 20
5.7230875986
 11
10.6384833643
 21
5.7318536943
  0
LINE
  5
3D0
100
AcDbEntity
  8
0
100
AcDbLine
 62
4
  6
CONTINUOUS
 10
10.6384833643
 20
10.6223366378
 11
10.6642413812
 21
10.6205503133
  0
LINE
  5
3D1
100
AcDbEntity
  8
0
100
AcDbLine
 62
4
  6
CONTINUOUS
 10
10.6127253383
 20
10.6917377733
 11
10.7672734762
 21
10.6810198236
  0
LINE
  5
3D2
100
AcDbEntity
  8
0
100
AcDbLine
 62
4
  6
CONTINUOUS
 10
10.6642413812
 20
10.7654391926
 11
10.6256043467
 21
10.76811868
  0
LINE
  5
3D3
100
AcDbEntity
  8
0
100
AcDbLine
 62
4
  6
CONTINUOUS
 10
10.7415154524
 20
10.7697394762
 11
10.7028784202
 21
10.7724189634
  0
LINE
  5
3D4
100
AcDbEntity
  8
0
100
AcDbLine
 62
7
  6
CONTINUOUS
 10
8.7446246936
 20
10.9777707942
 11
12.6083282277
 21
10.709822044
  0
LINE
  5
3D5
100
AcDbEntity
  8
0
100
AcDbLine
 62
7
  6
CONTINUOUS
 10
13.2553753064
 20
11.3348215652
 11
9.3916717723
 21
11.6027703154
  0
LINE
  5
3D6
100
AcDbEntity
  8
0
100
AcDbLine
 62
7
  6
CONTINUOUS
 10
12.6083282277
 20
5.3972296846
 11
13.2553753064
 21
6.0222292058
  0
ARC
  5
3D7
100
AcDbEntity
  8
0
100
AcDbCircle
 62
7
  6
CONTINUOUS
 10
10.68352728
 20
8.098615034
 40
0.4474420853
100
AcDbArc
 50
26.981298304
 51
31.0900673765
  0
ARC
  5
3D8
100
AcDbEntity
  8
0
100
AcDbCircle
 62
7
  6
CONTINUOUS
 10
10.6322855741
 20
8.0525109288
 40
0.4474420853
100
AcDbArc
 50
206.981298304
 51
211.0900673765
  0
ARC
  5
3D9
100
AcDbEntity
  8
0
100
AcDbCircle
 62
7
  6
CONTINUOUS
 10
10.5592285355
 20
7.9785516595
 40
0.4474420853
100
AcDbArc
 50
26.981298304
 51
31.0900673765
  0
ARC
  5
3DA
100
AcDbEntity
  8
0
100
AcDbCircle
 62
7
  6
CONTINUOUS
 10
10.6913703198
 20
8.1317369917
 40
0.4144042626
100
AcDbArc
 50
83.8695051667
 51
86.0307544453
  0
ARC
  5
3DB
100
AcDbEntity
  8
0
100
AcDbCircle
 62
7
  6
CONTINUOUS
 10
10.6244425343
 20
8.0193889711
 40
0.4144042626
100
AcDbArc
 50
263.8695051668
 51
266.0307544453
  0
ARC
  5
3DC
100
AcDbEntity
  8
0
100
AcDbCircle
 62
7
  6
CONTINUOUS
 10
10.5670715753
 20
8.0116736172
 40
0.4144042626
100
AcDbArc
 50
83.8695051667
 51
86.0307544453
  0
ARC
  5
3DD
100
AcDbEntity
  8
0
100
AcDbCircle
 62
7
  6
CONTINUOUS
 10
10.6242077139
 20
8.0161507963
 40
0.4111576007
100
AcDbArc
 50
266.0321629527
 51
268.2047714632
  0
ARC
  5
3DE
100
AcDbEntity
  8
0
100
AcDbCircle
 62
7
  6
CONTINUOUS
 10
10.5673063958
 20
8.014911792
 40
0.4111576007
100
AcDbArc
 50
86.0321629527
 51
88.2047714632
  0
ARC
  5
3DF
100
AcDbEntity
  8
0
100
AcDbCircle
 62
7
  6
CONTINUOUS
 10
10.6916323332
 20
8.1355154081
 40
0.4106167725
100
AcDbArc
 50
86.0307319968
 51
88.2062024191
  0
ARC
  5
3E0
100
AcDbEntity
  8
0
100
AcDbCircle
 62
7
  6
CONTINUOUS
 10
10.7544930309
 20
8.0988384007
 40
0.373709654
100
AcDbArc
 50
326.6595187369
 51
331.2924535874
  0
ARC
  5
3E1
100
AcDbEntity
  8
0
100
AcDbCircle
 62
7
  6
CONTINUOUS
 10
10.5613198232
 20
8.0522875622
 40
0.373709654
100
AcDbArc
 50
146.6595187369
 51
151.2924535874
  0
ARC
  5
3E2
100
AcDbEntity
  8
0
100
AcDbCircle
 62
7
  6
CONTINUOUS
 10
10.6301942865
 20
7.9787750261
 40
0.373709654
100
AcDbArc
 50
326.6595187369
 51
331.2924535874
  0
SPLINE
  5
3E3
100
AcDbEntity
  8
0
100
AcDbSpline
 62
7
  6
CONTINUOUS
 70
0
 71
3
 72
15
 73
11
 74
0
 42
0.0000001
 43
0.0000001
 44
0.0000000001
 40
0.0
 40
0.0
 40
0.0
 40
0.0
 40
0.1309044479
 40
0.2613640512
 40
0.3907957226
 40
0.5184622544
 40
0.6436178655
 40
0.7657027983
 40
0.884473687
 40
1.0
 40
1.0
 40
1.0
 40
1.0
 10
10.2335454739
 20
8.2317948919
 30
0.0
 10
10.2324210991
 20
8.2151359705
 30
0.0
 10
10.2303754058
 20
8.1818607734
 30
0.0
 10
10.2280385736
 20
8.1320676922
 30
0.0
 10
10.2265652476
 20
8.0826539965
 30
0.0
 10
10.2260546147
 20
8.033896992
 30
0.0
 10
10.2265457378
 20
7.9860766957
 30
0.0
 10
10.228004108
 20
7.9394114815
 30
0.0
 10
10.230332619
 20
7.8940120325
 30
0.0
 10
10.2324052373
 20
7.8641977768
 30
0.0
 10
10.2335454739
 20
7.8495066134
 30
0.0
  0
SPLINE
  5
3E4
100
AcDbEntity
  8
0
100
AcDbSpline
 62
7
  6
CONTINUOUS
 70
0
 71
3
 72
19
 73
15
 74
0
 42
0.0000001
 43
0.0000001
 44
0.0000000001
 40
0.0
 40
0.0
 40
0.0
 40
0.0
 40
0.1208891894
 40
0.2436787837
 40
0.3057539989
 40
0.3682338184
 40
0.4310620126
 40
0.4941687729
 40
0.5574749478
 40
0.6208974869
 40
0.6843552588
 40
0.7477743319
 40
0.8742562402
 40
1.0
 40
1.0
 40
1.0
 40
1.0
 10
10.249115584
 20
7.8214586008
 30
0.0
 10
10.261582206
 20
7.8115679053
 30
0.0
 10
10.2869010044
 20
7.7918683386
 30
0.0
 10
10.3192058383
 20
7.7678540797
 30
0.0
 10
10.3456930255
 20
7.7489166128
 30
0.0
 10
10.3659433035
 20
7.7348308041
 30
0.0
 10
10.3864923618
 20
7.720940582
 30
0.0
 10
10.4073189695
 20
7.7072707739
 30
0.0
 10
10.4283953608
 20
7.693843158
 30
0.0
 10
10.4496890358
 20
7.6806748514
 30
0.0
 10
10.4711650662
 20
7.6677772565
 30
0.0
 10
10.4999693434
 20
7.6509638004
 30
0.0
 10
10.5362223011
 20
7.6306537754
 30
0.0
 10
10.5655168147
 20
7.615021214
 30
0.0
 10
10.5801869447
 20
7.6073545847
 30
0.0
  0
SPLINE
  5
3E5
100
AcDbEntity
  8
0
100
AcDbSpline
 62
7
  6
CONTINUOUS
 70
0
 71
3
 72
15
 73
11
 74
0
 42
0.0000001
 43
0.0000001
 44
0.0000000001
 40
0.0
 40
0.0
 40
0.0
 40
0.0
 40
0.1121786521
 40
0.2284761286
 40
0.3490753419
 40
0.4737992527
 40
0.6020827469
 40
0.7331004723
 40
0.8659837967
 40
1.0
 40
1.0
 40
1.0
 40
1.0
 10
10.6113271649
 20
7.605195003
 30
0.0
 10
10.623913615
 20
7.6110646963
 30
0.0
 10
10.6495052424
 20
7.6231129783
 30
0.0
 10
10.6884557873
 20
7.6418349385
 30
0.0
 10
10.7286357938
 20
7.6615804597
 30
0.0
 10
10.7699630012
 20
7.6823518195
 30
0.0
 10
10.8122549864
 20
7.7040716684
 30
0.0
 10
10.8552668093
 20
7.7265973971
 30
0.0
 10
10.8987469409
 20
7.7497558144
 30
0.0
 10
10.9278194998
 20
7.7654593615
 30
0.0
 10
10.9423985257
 20
7.7733792655
 30
0.0
  0
SPLINE
  5
3E6
100
AcDbEntity
  8
0
100
AcDbSpline
 62
7
  6
CONTINUOUS
 70
0
 71
3
 72
15
 73
11
 74
0
 42
0.0000001
 43
0.0000001
 44
0.0000000001
 40
0.0
 40
0.0
 40
0.0
 40
0.0
 40
0.1309044479
 40
0.2613640512
 40
0.3907957226
 40
0.5184622544
 40
0.6436178655
 40
0.7657027983
 40
0.884473687
 40
1.0
 40
1.0
 40
1.0
 40
1.0
 10
11.0822673803
 20
7.919331071
 30
0.0
 10
11.0833917551
 20
7.9359899923
 30
0.0
 10
11.0854374483
 20
7.9692651895
 30
0.0
 10
11.0877742805
 20
8.0190582707
 30
0.0
 10
11.0892476065
 20
8.0684719663
 30
0.0
 10
11.0897582394
 20
8.1172289709
 30
0.0
 10
11.0892671163
 20
8.1650492672
 30
0.0
 10
11.0878087461
 20
8.2117144814
 30
0.0
 10
11.0854802351
 20
8.2571139304
 30
0.0
 10
11.0834076168
 20
8.2869281861
 30
0.0
 10
11.0822673803
 20
8.3016193495
 30
0.0
  0
SPLINE
  5
3E7
100
AcDbEntity
  8
0
100
AcDbSpline
 62
7
  6
CONTINUOUS
 70
0
 71
3
 72
19
 73
15
 74
0
 42
0.0000001
 43
0.0000001
 44
0.0000000001
 40
0.0
 40
0.0
 40
0.0
 40
0.0
 40
0.1208891894
 40
0.2436787837
 40
0.3057539989
 40
0.3682338184
 40
0.4310620126
 40
0.4941687729
 40
0.5574749478
 40
0.6208974869
 40
0.6843552588
 40
0.7477743319
 40
0.8742562402
 40
1.0
 40
1.0
 40
1.0
 40
1.0
 10
11.0666972702
 20
8.3296673621
 30
0.0
 10
11.0542306481
 20
8.3395580576
 30
0.0
 10
11.0289118497
 20
8.3592576243
 30
0.0
 10
10.9966070158
 20
8.3832718832
 30
0.0
 10
10.9701198286
 20
8.4022093501
 30
0.0
 10
10.9498695506
 20
8.4162951587
 30
0.0
 10
10.9293204923
 20
8.4301853809
 30
0.0
 10
10.9084938846
 20
8.443855189
 30
0.0
 10
10.8874174933
 20
8.4572828049
 30
0.0
 10
10.8661238183
 20
8.4704511115
 30
0.0
 10
10.844647788
 20
8.4833487064
 30
0.0
 10
10.8158435108
 20
8.5001621625
 30
0.0
 10
10.779590553
 20
8.5204721875
 30
0.0
 10
10.7502960394
 20
8.5361047488
 30
0.0
 10
10.7356259094
 20
8.5437713782
 30
0.0
  0
SPLINE
  5
3E8
100
AcDbEntity
  8
0
100
AcDbSpline
 62
7
  6
CONTINUOUS
 70
0
 71
3
 72
15
 73
11
 74
0
 42
0.0000001
 43
0.0000001
 44
0.0000000001
 40
0.0
 40
0.0
 40
0.0
 40
0.0
 40
0.1121786521
 40
0.2284761286
 40
0.3490753419
 40
0.4737992527
 40
0.6020827469
 40
0.7331004723
 40
0.8659837967
 40
1.0
 40
1.0
 40
1.0
 40
1.0
 10
10.7044856892
 20
8.5459309598
 30
0.0
 10
10.6918992392
 20
8.5400612665
 30
0.0
 10
10.6663076118
 20
8.5280129845
 30
0.0
 10
10.6273570668
 20
8.5092910243
 30
0.0
 10
10.5871770603
 20
8.4895455031
 30
0.0
 10
10.545849853
 20
8.4687741434
 30
0.0
 10
10.5035578677
 20
8.4470542945
 30
0.0
 10
10.4605460448
 20
8.4245285658
 30
0.0
 10
10.4170659133
 20
8.4013701485
 30
0.0
 10
10.3879933544
 20
8.3856666014
 30
0.0
 10
10.3734143284
 20
8.3777466974
 30
0.0
  0
SPLINE
  5
3E9
100
AcDbEntity
  8
0
100
AcDbSpline
 62
7
  6
CONTINUOUS
 70
0
 71
3
 72
52
 73
48
 74
0
 42
0.0000001
 43
0.0000001
 44
0.0000000001
 40
0.0
 40
0.0
 40
0.0
 40
0.0
 40
0.0311866655
 40
0.0621624582
 40
0.0775790412
 40
0.0929473314
 40
0.1082695123
 40
0.123548568
 40
0.1387878901
 40
0.1539911696
 40
0.1691625264
 40
0.1843064009
 40
0.1994275511
 40
0.2145309433
 40
0.2296217509
 40
0.2447052634
 40
0.259786869
 40
0.2748719753
 40
0.2899659335
 40
0.3050740164
 40
0.3202013322
 40
0.3353528119
 40
0.3505330985
 40
0.3657465608
 40
0.3809971866
 40
0.3962886124
 40
0.4116240385
 40
0.4270062211
 40
0.4424374298
 40
0.457919452
 40
0.4890310877
 40
0.5203549267
 40
0.5518869196
 40
0.5836151951
 40
0.6155205872
 40
0.6475775356
 40
0.6797550126
 40
0.7120177617
 40
0.7443275151
 40
0.7766443769
 40
0.8089282056
 40
0.8411399939
 40
0.8732432958
 40
0.9052053838
 40
0.9369988317
 40
0.9686016371
 40
1.0
 40
1.0
 40
1.0
 40
1.0
 10
10.5879120259
 20
7.649112112
 30
0.0
 10
10.5996105888
 20
7.6483008139
 30
0.0
 10
10.623023014
 20
7.6478188594
 30
0.0
 10
10.6521544715
 20
7.650110904
 30
0.0
 10
10.6751112227
 20
7.6536723725
 30
0.0
 10
10.692094811
 20
7.6571929712
 30
0.0
 10
10.7088272352
 20
7.6615589795
 30
0.0
 10
10.7252686323
 20
7.6667596426
 30
0.0
 10
10.7413792756
 20
7.6727825168
 30
0.0
 10
10.757120305
 20
7.6796132122
 30
0.0
 10
10.7724538251
 20
7.6872350826
 30
0.0
 10
10.7873426854
 20
7.6956300974
 30
0.0
 10
10.8017512225
 20
7.7047776014
 30
0.0
 10
10.8156443402
 20
7.714656073
 30
0.0
 10
10.8289889328
 20
7.7252411182
 30
0.0
 10
10.8417523224
 20
7.7365078203
 30
0.0
 10
10.8539042563
 20
7.7484284037
 30
0.0
 10
10.8654148602
 20
7.7609746932
 30
0.0
 10
10.8762569451
 20
7.7741158946
 30
0.0
 10
10.88640382
 20
7.7878207579
 30
0.0
 10
10.8958315215
 20
7.8020558478
 30
0.0
 10
10.9045169172
 20
7.8167871044
 30
0.0
 10
10.9124394012
 20
7.8319787984
 30
0.0
 10
10.919579698
 20
7.8475943911
 30
0.0
 10
10.9259206912
 20
7.8635961801
 30
0.0
 10
10.9314471995
 20
7.8799455453
 30
0.0
 10
10.9361457255
 20
7.8966031686
 30
0.0
 10
10.9400053372
 20
7.9135286521
 30
0.0
 10
10.9430163028
 20
7.9306818344
 30
0.0
 10
10.9458949189
 20
7.9538338739
 30
0.0
 10
10.9473305144
 20
7.9831491589
 30
0.0
 10
10.9455880339
 20
8.0184940147
 30
0.0
 10
10.9404026507
 20
8.0537349171
 30
0.0
 10
10.9318250854
 20
8.0885307941
 30
0.0
 10
10.919938885
 20
8.1225480963
 30
0.0
 10
10.90485906
 20
8.1554601261
 30
0.0
 10
10.8867310784
 20
8.1869511397
 30
0.0
 10
10.8657294471
 20
8.2167190091
 30
0.0
 10
10.8420560533
 20
8.2444781528
 30
0.0
 10
10.8159382442
 20
8.2699621782
 30
0.0
 10
10.7876266876
 20
8.2929264119
 30
0.0
 10
10.7573930294
 20
8.3131502139
 30
0.0
 10
10.7255272105
 20
8.330439002
 30
0.0
 10
10.6923352483
 20
8.3446262742
 30
0.0
 10
10.658134519
 20
8.3555748609
 30
0.0
 10
10.6232577802
 20
8.3631786131
 30
0.0
 10
10.5996899995
 20
8.3659782382
 30
0.0
 10
10.5879120259
 20
8.3667950434
 30
0.0
  0
SPLINE
  5
3EA
100
AcDbEntity
  8
0
100
AcDbSpline
 62
7
  6
CONTINUOUS
 70
0
 71
3
 72
52
 73
48
 74
0
 42
0.0000001
 43
0.0000001
 44
0.0000000001
 40
0.0
 40
0.0
 40
0.0
 40
0.0
 40
0.0311866655
 40
0.0621624582
 40
0.0775790412
 40
0.0929473314
 40
0.1082695123
 40
0.123548568
 40
0.1387878901
 40
0.1539911696
 40
0.1691625264
 40
0.1843064009
 40
0.1994275511
 40
0.2145309433
 40
0.2296217509
 40
0.2447052634
 40
0.259786869
 40
0.2748719753
 40
0.2899659335
 40
0.3050740164
 40
0.3202013322
 40
0.3353528119
 40
0.3505330985
 40
0.3657465608
 40
0.3809971866
 40
0.3962886124
 40
0.4116240385
 40
0.4270062211
 40
0.4424374298
 40
0.457919452
 40
0.4890310877
 40
0.5203549267
 40
0.5518869196
 40
0.5836151951
 40
0.6155205872
 40
0.6475775356
 40
0.6797550126
 40
0.7120177617
 40
0.7443275151
 40
0.7766443769
 40
0.8089282056
 40
0.8411399939
 40
0.8732432958
 40
0.9052053838
 40
0.9369988317
 40
0.9686016371
 40
1.0
 40
1.0
 40
1.0
 40
1.0
 10
10.5879120259
 20
8.3667950434
 30
0.0
 10
10.5762134631
 20
8.3676063415
 30
0.0
 10
10.5528010378
 20
8.368088296
 30
0.0
 10
10.5236695804
 20
8.3657962514
 30
0.0
 10
10.5007128292
 20
8.3622347829
 30
0.0
 10
10.4837292408
 20
8.3587141842
 30
0.0
 10
10.4669968167
 20
8.3543481759
 30
0.0
 10
10.4505554196
 20
8.3491475128
 30
0.0
 10
10.4344447762
 20
8.3431246386
 30
0.0
 10
10.4187037469
 20
8.3362939432
 30
0.0
 10
10.4033702268
 20
8.3286720728
 30
0.0
 10
10.3884813665
 20
8.320277058
 30
0.0
 10
10.3740728294
 20
8.311129554
 30
0.0
 10
10.3601797117
 20
8.3012510824
 30
0.0
 10
10.346835119
 20
8.2906660371
 30
0.0
 10
10.3340717294
 20
8.279399335
 30
0.0
 10
10.3219197956
 20
8.2674787516
 30
0.0
 10
10.3104091917
 20
8.2549324621
 30
0.0
 10
10.2995671068
 20
8.2417912607
 30
0.0
 10
10.2894202319
 20
8.2280863975
 30
0.0
 10
10.2799925303
 20
8.2138513076
 30
0.0
 10
10.2713071347
 20
8.1991200509
 30
0.0
 10
10.2633846506
 20
8.1839283569
 30
0.0
 10
10.2562443539
 20
8.1683127643
 30
0.0
 10
10.2499033607
 20
8.1523109753
 30
0.0
 10
10.2443768524
 20
8.1359616101
 30
0.0
 10
10.2396783264
 20
8.1193039868
 30
0.0
 10
10.2358187147
 20
8.1023785032
 30
0.0
 10
10.2328077491
 20
8.085225321
 30
0.0
 10
10.229929133
 20
8.0620732815
 30
0.0
 10
10.2284935374
 20
8.0327579965
 30
0.0
 10
10.230236018
 20
7.9974131407
 30
0.0
 10
10.2354214012
 20
7.9621722382
 30
0.0
 10
10.2439989665
 20
7.9273763613
 30
0.0
 10
10.2558851669
 20
7.8933590591
 30
0.0
 10
10.2709649919
 20
7.8604470293
 30
0.0
 10
10.2890929735
 20
7.8289560156
 30
0.0
 10
10.3100946048
 20
7.7991881463
 30
0.0
 10
10.3337679986
 20
7.7714290026
 30
0.0
 10
10.3598858077
 20
7.7459449772
 30
0.0
 10
10.3881973643
 20
7.7229807434
 30
0.0
 10
10.4184310225
 20
7.7027569415
 30
0.0
 10
10.4502968414
 20
7.6854681534
 30
0.0
 10
10.4834888036
 20
7.6712808812
 30
0.0
 10
10.5176895329
 20
7.6603322945
 30
0.0
 10
10.5525662717
 20
7.6527285422
 30
0.0
 10
10.5761340524
 20
7.6499289172
 30
0.0
 10
10.5879120259
 20
7.649112112
 30
0.0
  0
SPLINE
  5
3EB
100
AcDbEntity
  8
0
100
AcDbSpline
 62
7
  6
CONTINUOUS
 70
0
 71
3
 72
15
 73
11
 74
0
 42
0.0000001
 43
0.0000001
 44
0.0000000001
 40
0.0
 40
0.0
 40
0.0
 40
0.0
 40
0.115526313
 40
0.2342972017
 40
0.3563821345
 40
0.4815377457
 40
0.6092042774
 40
0.7386359488
 40
0.8690955521
 40
1.0
 40
1.0
 40
1.0
 40
1.0
 10
10.9579686358
 20
7.7992676964
 30
0.0
 10
10.9568283993
 20
7.8139588598
 30
0.0
 10
10.954755781
 20
7.8437731156
 30
0.0
 10
10.9524272699
 20
7.8891725646
 30
0.0
 10
10.9509688997
 20
7.9358377788
 30
0.0
 10
10.9504777766
 20
7.9836580751
 30
0.0
 10
10.9509884095
 20
8.0324150796
 30
0.0
 10
10.9524617356
 20
8.0818287753
 30
0.0
 10
10.9547985678
 20
8.1316218565
 30
0.0
 10
10.956844261
 20
8.1648970536
 30
0.0
 10
10.9579686358
 20
8.181555975
 30
0.0
  0
SPLINE
  5
3EC
100
AcDbEntity
  8
0
100
AcDbSpline
 62
7
  6
CONTINUOUS
 70
0
 71
3
 72
19
 73
15
 74
0
 42
0.0000001
 43
0.0000001
 44
0.0000000001
 40
0.0
 40
0.0
 40
0.0
 40
0.0
 40
0.1257437598
 40
0.2522256681
 40
0.3156447412
 40
0.3791025131
 40
0.4425250522
 40
0.5058312272
 40
0.5689379875
 40
0.6317661817
 40
0.6942460012
 40
0.7563212163
 40
0.8791108107
 40
1.0
 40
1.0
 40
1.0
 40
1.0
 10
10.9423985257
 20
8.2096039875
 30
0.0
 10
10.9277283957
 20
8.2172706169
 30
0.0
 10
10.8984338821
 20
8.2329031783
 30
0.0
 10
10.8621809243
 20
8.2532132033
 30
0.0
 10
10.8333766471
 20
8.2700266594
 30
0.0
 10
10.8119006168
 20
8.2829242543
 30
0.0
 10
10.7906069418
 20
8.2960925609
 30
0.0
 10
10.7695305505
 20
8.3095201768
 30
0.0
 10
10.7487039428
 20
8.3231899849
 30
0.0
 10
10.7281548845
 20
8.337080207
 30
0.0
 10
10.7079046064
 20
8.3511660157
 30
0.0
 10
10.6814174193
 20
8.3701034826
 30
0.0
 10
10.6491125854
 20
8.3941177415
 30
0.0
 10
10.623793787
 20
8.4138173081
 30
0.0
 10
10.6113271649
 20
8.4237080037
 30
0.0
  0
SPLINE
  5
3ED
100
AcDbEntity
  8
0
100
AcDbSpline
 62
7
  6
CONTINUOUS
 70
0
 71
3
 72
15
 73
11
 74
0
 42
0.0000001
 43
0.0000001
 44
0.0000000001
 40
0.0
 40
0.0
 40
0.0
 40
0.0
 40
0.1340162033
 40
0.2668995277
 40
0.3979172531
 40
0.5262007474
 40
0.6509246582
 40
0.7715238714
 40
0.8878213479
 40
1.0
 40
1.0
 40
1.0
 40
1.0
 10
10.5801869447
 20
8.4258675853
 30
0.0
 10
10.5656079188
 20
8.4179476813
 30
0.0
 10
10.5365353599
 20
8.4022441342
 30
0.0
 10
10.4930552283
 20
8.3790857169
 30
0.0
 10
10.4500434054
 20
8.3565599882
 30
0.0
 10
10.4077514202
 20
8.3348401393
 30
0.0
 10
10.3664242128
 20
8.3140687795
 30
0.0
 10
10.3262442063
 20
8.2943232583
 30
0.0
 10
10.2872936614
 20
8.2756012981
 30
0.0
 10
10.261702034
 20
8.2635530161
 30
0.0
 10
10.249115584
 20
8.2576833229
 30
0.0
  0
SPLINE
  5
3EE
100
AcDbEntity
  8
0
100
AcDbSpline
 62
7
  6
CONTINUOUS
 70
0
 71
3
 72
48
 73
44
 74
0
 42
0.0000001
 43
0.0000001
 44
0.0000000001
 40
0.0
 40
0.0
 40
0.0
 40
0.0
 40
0.0958287078
 40
0.1428189802
 40
0.1890972253
 40
0.2345925351
 40
0.2792363692
 40
0.3229619627
 40
0.3657045591
 40
0.4074016611
 40
0.4479931951
 40
0.487421778
 40
0.5256329369
 40
0.5625753586
 40
0.5982011858
 40
0.6324663776
 40
0.665331128
 40
0.6967603047
 40
0.7267240134
 40
0.755198301
 40
0.7821660712
 40
0.8076181778
 40
0.819776277
 40
0.8315564256
 40
0.8429604214
 40
0.8539909461
 40
0.8646515232
 40
0.8749468216
 40
0.8848825944
 40
0.8944658812
 40
0.9037052143
 40
0.9126106219
 40
0.9211939867
 40
0.9294691045
 40
0.9374518915
 40
0.9451606619
 40
0.9598348196
 40
0.9668566843
 40
0.973703554
 40
0.9804067973
 40
0.987000038
 40
0.9935188112
 40
1.0
 40
1.0
 40
1.0
 40
1.0
 10
10.7848731567
 20
10.8544996116
 30
0.0
 10
10.763854037
 20
10.8559572925
 30
0.0
 10
10.7325504825
 20
10.8584788202
 30
0.0
 10
10.6911738418
 20
10.862555818
 30
0.0
 10
10.6608490999
 20
10.8659171836
 30
0.0
 10
10.6310810625
 20
10.869596317
 30
0.0
 10
10.6019195052
 20
10.8735870544
 30
0.0
 10
10.573413168
 20
10.8778826762
 30
0.0
 10
10.5456096823
 20
10.882475966
 30
0.0
 10
10.51855551
 20
10.8873592008
 30
0.0
 10
10.492295843
 20
10.8925241795
 30
0.0
 10
10.4668745258
 20
10.8979622106
 30
0.0
 10
10.4423339789
 20
10.9036641447
 30
0.0
 10
10.4187151332
 20
10.909620392
 30
0.0
 10
10.3960573565
 20
10.9158209411
 30
0.0
 10
10.3743983711
 20
10.9222553733
 30
0.0
 10
10.3537741788
 20
10.9289128702
 30
0.0
 10
10.3342189885
 20
10.9357822619
 30
0.0
 10
10.3157651936
 20
10.9428520419
 30
0.0
 10
10.2984431532
 20
10.9501104405
 30
0.0
 10
10.2822816034
 20
10.9575453517
 30
0.0
 10
10.2696159962
 20
10.9639724799
 30
0.0
 10
10.2600988371
 20
10.9692037532
 30
0.0
 10
10.2533768606
 20
10.9731036359
 30
0.0
 10
10.2469642626
 20
10.9770382981
 30
0.0
 10
10.2408636568
 20
10.9810061174
 30
0.0
 10
10.2350775993
 20
10.9850055293
 30
0.0
 10
10.2296084437
 20
10.9890348544
 30
0.0
 10
10.2244584531
 20
10.993092488
 30
0.0
 10
10.219629773
 20
10.9971768317
 30
0.0
 10
10.215124353
 20
11.00128621
 30
0.0
 10
10.2109441252
 20
11.0054190704
 30
0.0
 10
10.2070907893
 20
11.009573799
 30
0.0
 10
10.203566051
 20
11.0137486801
 30
0.0
 10
10.2003712643
 20
11.0179426036
 30
0.0
 10
10.1966158967
 20
11.0234652269
 30
0.0
 10
10.1934387381
 20
11.0291183984
 30
0.0
 10
10.1909214542
 20
11.0348714541
 30
0.0
 10
10.1893973126
 20
11.0391341871
 30
0.0
 10
10.1882107127
 20
11.0434052631
 30
0.0
 10
10.1873624776
 20
11.0476830098
 30
0.0
 10
10.1868532778
 20
11.0519649134
 30
0.0
 10
10.1867399537
 20
11.0548244552
 30
0.0
 10
10.1867399537
 20
11.0562494571
 30
0.0
  0
SPLINE
  5
3EF
100
AcDbEntity
  8
0
100
AcDbSpline
 62
7
  6
CONTINUOUS
 70
0
 71
3
 72
19
 73
15
 74
0
 42
0.0000001
 43
0.0000001
 44
0.0000000001
 40
0.0
 40
0.0
 40
0.0
 40
0.0
 40
0.12732766
 40
0.2538196711
 40
0.3795264658
 40
0.5045235362
 40
0.5668075958
 40
0.6289556124
 40
0.6909843715
 40
0.7529118454
 40
0.8147570127
 40
0.8765397119
 40
0.9382804145
 40
1.0
 40
1.0
 40
1.0
 40
1.0
 10
12.0876941764
 20
10.2629651963
 30
0.0
 10
12.0876941764
 20
10.2564668163
 30
0.0
 10
12.0870737242
 20
10.243503766
 30
0.0
 10
12.0842676527
 20
10.2243082573
 30
0.0
 10
12.0796152102
 20
10.2055959673
 30
0.0
 10
12.0742257343
 20
10.1905277159
 30
0.0
 10
12.0690425338
 20
10.1788957649
 30
0.0
 10
12.0647323425
 20
10.1704066958
 30
0.0
 10
12.0600054239
 20
10.1621636361
 30
0.0
 10
12.0548725365
 20
10.1541853255
 30
0.0
 10
12.0493455229
 20
10.1464902869
 30
0.0
 10
12.0434371202
 20
10.1390961431
 30
0.0
 10
12.0371611413
 20
10.1320202211
 30
0.0
 10
12.0327409056
 20
10.1275251568
 30
0.0
 10
12.0304752804
 20
10.1253367317
 30
0.0
  0
SPLINE
  5
3F0
100
AcDbEntity
  8
0
100
AcDbSpline
 62
7
  6
CONTINUOUS
 70
0
 71
3
 72
19
 73
15
 74
0
 42
0.0000001
 43
0.0000001
 44
0.0000000001
 40
0.0
 40
0.0
 40
0.0
 40
0.0
 40
0.12732766
 40
0.2538196711
 40
0.3795264658
 40
0.5045235362
 40
0.5668075958
 40
0.6289556124
 40
0.6909843715
 40
0.7529118454
 40
0.8147570127
 40
0.8765397119
 40
0.9382804145
 40
1.0
 40
1.0
 40
1.0
 40
1.0
 10
12.0876941764
 20
5.9162987205
 30
0.0
 10
12.0876941764
 20
5.9098003405
 30
0.0
 10
12.0870737242
 20
5.8968372902
 30
0.0
 10
12.0842676527
 20
5.8776417814
 30
0.0
 10
12.0796152102
 20
5.8589294915
 30
0.0
 10
12.0742257343
 20
5.8438612401
 30
0.0
 10
12.0690425338
 20
5.832229289
 30
0.0
 10
12.0647323425
 20
5.82374022
 30
0.0
 10
12.0600054239
 20
5.8154971602
 30
0.0
 10
12.0548725365
 20
5.8075188496
 30
0.0
 10
12.0493455229
 20
5.799823811
 30
0.0
 10
12.0434371202
 20
5.7924296672
 30
0.0
 10
12.0371611413
 20
5.7853537453
 30
0.0
 10
12.0327409056
 20
5.780858681
 30
0.0
 10
12.0304752804
 20
5.7786702559
 30
0.0
  0
SPLINE
  5
3F1
100
AcDbEntity
  8
0
100
AcDbSpline
 62
7
  6
CONTINUOUS
 70
0
 71
3
 72
11
 73
7
 74
0
 42
0.0000001
 43
0.0000001
 44
0.0000000001
 40
0.0
 40
0.0
 40
0.0
 40
0.0
 40
0.2521073359
 40
0.5027589691
 40
0.7520228765
 40
1.0
 40
1.0
 40
1.0
 40
1.0
 10
11.1077623501
 20
8.1575904614
 30
0.0
 10
11.1077623501
 20
8.1480725833
 30
0.0
 10
11.1069656077
 20
8.1290818309
 30
0.0
 10
11.10336333
 20
8.1008861334
 30
0.0
 10
11.0973834023
 20
8.0732564969
 30
0.0
 10
11.0918236886
 20
8.0552966006
 30
0.0
 10
11.0886641084
 20
8.0464839312
 30
0.0
  0
SPLINE
  5
3F2
100
AcDbEntity
  8
0
100
AcDbSpline
 62
7
  6
CONTINUOUS
 70
0
 71
3
 72
53
 73
49
 74
0
 42
0.0000001
 43
0.0000001
 44
0.0000000001
 40
0.0
 40
0.0
 40
0.0
 40
0.0
 40
0.0417740371
 40
0.0840369047
 40
0.1266584536
 40
0.1695064221
 40
0.212448016
 40
0.2553499502
 40
0.2980791306
 40
0.3405031348
 40
0.382490749
 40
0.4239124945
 40
0.4646411616
 40
0.5045523515
 40
0.5435250275
 40
0.5814420819
 40
0.6181909261
 40
0.6536641145
 40
0.6877600167
 40
0.72038356
 40
0.7361158328
 40
0.7514478069
 40
0.7663698229
 40
0.7808728747
 40
0.7949485304
 40
0.808589127
 40
0.8217876764
 40
0.8345380756
 40
0.8468350633
 40
0.8586743964
 40
0.8700529164
 40
0.8809686715
 40
0.8914211252
 40
0.901411244
 40
0.9109418555
 40
0.9200177659
 40
0.9286462506
 40
0.9368373022
 40
0.9446042293
 40
0.951964127
 40
0.9589385596
 40
0.9655542544
 40
0.9718437693
 40
0.9778461758
 40
0.9836073577
 40
0.9891800489
 40
0.9946230796
 40
1.0
 40
1.0
 40
1.0
 40
1.0
 10
12.72298497
 20
9.130201663
 30
0.0
 10
12.72298497
 20
9.145256954
 30
0.0
 10
12.7232198472
 20
9.1755441828
 30
0.0
 10
12.7242582046
 20
9.2211814446
 30
0.0
 10
12.7259816148
 20
9.2671853628
 30
0.0
 10
12.7283844372
 20
9.3134036889
 30
0.0
 10
12.7314587259
 20
9.3596834832
 30
0.0
 10
12.7351943212
 20
9.4058716491
 30
0.0
 10
12.739578848
 20
9.4518153744
 30
0.0
 10
12.7445977718
 20
9.4973626674
 30
0.0
 10
12.7502344414
 20
9.5423628546
 30
0.0
 10
12.7564701444
 20
9.5866670856
 30
0.0
 10
12.7632841683
 20
9.6301288299
 30
0.0
 10
12.7706538658
 20
9.6726043688
 30
0.0
 10
12.7785547304
 20
9.7139532757
 30
0.0
 10
12.7869604746
 20
9.7540388983
 30
0.0
 10
12.7958431186
 20
9.7927287929
 30
0.0
 10
12.8051730687
 20
9.829895284
 30
0.0
 10
12.8149192626
 20
9.8654155381
 30
0.0
 10
12.8234608629
 20
9.8938804748
 30
0.0
 10
12.8304918407
 20
9.915730687
 30
0.0
 10
12.8357848983
 20
9.9314367002
 30
0.0
 10
12.8411572276
 20
9.9466467516
 30
0.0
 10
12.8466043592
 20
9.9613483092
 30
0.0
 10
12.852121831
 20
9.9755292308
 30
0.0
 10
12.8577050075
 20
9.9891778393
 30
0.0
 10
12.8633493279
 20
10.0022828795
 30
0.0
 10
12.8690500683
 20
10.0148335808
 30
0.0
 10
12.8748025558
 20
10.0268196205
 30
0.0
 10
12.8806020248
 20
10.0382311694
 30
0.0
 10
12.8864436978
 20
10.0490588859
 30
0.0
 10
12.8923228083
 20
10.059293915
 30
0.0
 10
12.8982345043
 20
10.0689279408
 30
0.0
 10
12.9041740552
 20
10.0779531128
 30
0.0
 10
12.9101365981
 20
10.0863621732
 30
0.0
 10
12.9161174766
 20
10.0941483025
 30
0.0
 10
12.9221119221
 20
10.1013052991
 30
0.0
 10
12.9281154075
 20
10.1078273775
 30
0.0
 10
12.9341233954
 20
10.1137093191
 30
0.0
 10
12.940131567
 20
10.1189462925
 30
0.0
 10
12.9461357259
 20
10.1235338505
 30
0.0
 10
12.9521317853
 20
10.1274678606
 30
0.0
 10
12.958115774
 20
10.1307442416
 30
0.0
 10
12.9640835338
 20
10.1333591387
 30
0.0
 10
12.9700305429
 20
10.1353084987
 30
0.0
 10
12.9759518291
 20
10.1365887139
 30
0.0
 10
12.981840255
 20
10.1371965221
 30
0.0
 10
12.985749671
 20
10.13715195
 30
0.0
 10
12.9876828612
 20
10.1370178914
 30
0.0
  0
SPLINE
  5
3F3
100
AcDbEntity
  8
0
100
AcDbSpline
 62
7
  6
CONTINUOUS
 70
0
 71
3
 72
53
 73
49
 74
0
 42
0.0000001
 43
0.0000001
 44
0.0000000001
 40
0.0
 40
0.0
 40
0.0
 40
0.0
 40
0.0417740371
 40
0.0840369047
 40
0.1266584536
 40
0.1695064221
 40
0.212448016
 40
0.2553499502
 40
0.2980791306
 40
0.3405031348
 40
0.382490749
 40
0.4239124945
 40
0.4646411616
 40
0.5045523515
 40
0.5435250275
 40
0.5814420819
 40
0.6181909261
 40
0.6536641145
 40
0.6877600167
 40
0.72038356
 40
0.7361158328
 40
0.7514478069
 40
0.7663698229
 40
0.7808728747
 40
0.7949485304
 40
0.808589127
 40
0.8217876764
 40
0.8345380756
 40
0.8468350633
 40
0.8586743964
 40
0.8700529164
 40
0.8809686715
 40
0.8914211252
 40
0.901411244
 40
0.9109418555
 40
0.9200177659
 40
0.9286462506
 40
0.9368373022
 40
0.9446042293
 40
0.951964127
 40
0.9589385596
 40
0.9655542544
 40
0.9718437693
 40
0.9778461758
 40
0.9836073577
 40
0.9891800489
 40
0.9946230796
 40
1.0
 40
1.0
 40
1.0
 40
1.0
 10
12.72298497
 20
7.1983498959
 30
0.0
 10
12.72298497
 20
7.2134051869
 30
0.0
 10
12.7232198472
 20
7.2436924158
 30
0.0
 10
12.7242582046
 20
7.2893296776
 30
0.0
 10
12.7259816148
 20
7.3353335957
 30
0.0
 10
12.7283844372
 20
7.3815519218
 30
0.0
 10
12.7314587259
 20
7.4278317161
 30
0.0
 10
12.7351943212
 20
7.474019882
 30
0.0
 10
12.739578848
 20
7.5199636074
 30
0.0
 10
12.7445977718
 20
7.5655109004
 30
0.0
 10
12.7502344414
 20
7.6105110875
 30
0.0
 10
12.7564701444
 20
7.6548153185
 30
0.0
 10
12.7632841683
 20
7.6982770629
 30
0.0
 10
12.7706538658
 20
7.7407526017
 30
0.0
 10
12.7785547304
 20
7.7821015087
 30
0.0
 10
12.7869604746
 20
7.8221871313
 30
0.0
 10
12.7958431186
 20
7.8608770259
 30
0.0
 10
12.8051730687
 20
7.8980435169
 30
0.0
 10
12.8149192626
 20
7.9335637711
 30
0.0
 10
12.8234608629
 20
7.9620287078
 30
0.0
 10
12.8304918407
 20
7.98387892
 30
0.0
 10
12.8357848983
 20
7.9995849332
 30
0.0
 10
12.8411572276
 20
8.0147949846
 30
0.0
 10
12.8466043592
 20
8.0294965422
 30
0.0
 10
12.852121831
 20
8.0436774637
 30
0.0
 10
12.8577050075
 20
8.0573260722
 30
0.0
 10
12.8633493279
 20
8.0704311125
 30
0.0
 10
12.8690500683
 20
8.0829818138
 30
0.0
 10
12.8748025558
 20
8.0949678534
 30
0.0
 10
12.8806020248
 20
8.1063794024
 30
0.0
 10
12.8864436978
 20
8.1172071189
 30
0.0
 10
12.8923228083
 20
8.127442148
 30
0.0
 10
12.8982345043
 20
8.1370761737
 30
0.0
 10
12.9041740552
 20
8.1461013458
 30
0.0
 10
12.9101365981
 20
8.1545104062
 30
0.0
 10
12.9161174766
 20
8.1622965355
 30
0.0
 10
12.9221119221
 20
8.1694535321
 30
0.0
 10
12.9281154075
 20
8.1759756105
 30
0.0
 10
12.9341233954
 20
8.1818575521
 30
0.0
 10
12.940131567
 20
8.1870945255
 30
0.0
 10
12.9461357259
 20
8.1916820834
 30
0.0
 10
12.9521317853
 20
8.1956160936
 30
0.0
 10
12.958115774
 20
8.1988924745
 30
0.0
 10
12.9640835338
 20
8.2015073717
 30
0.0
 10
12.9700305429
 20
8.2034567316
 30
0.0
 10
12.9759518291
 20
8.2047369469
 30
0.0
 10
12.981840255
 20
8.2053447551
 30
0.0
 10
12.985749671
 20
8.2053001829
 30
0.0
 10
12.9876828612
 20
8.2051661243
 30
0.0
  0
SPLINE
  5
3F4
100
AcDbEntity
  8
0
100
AcDbSpline
 62
7
  6
CONTINUOUS
 70
0
 71
3
 72
53
 73
49
 74
0
 42
0.0000001
 43
0.0000001
 44
0.0000000001
 40
0.0
 40
0.0
 40
0.0
 40
0.0
 40
0.0055575358
 40
0.0111779566
 40
0.0169218919
 40
0.022845775
 40
0.0290005507
 40
0.0354309545
 40
0.0421754005
 40
0.0492662557
 40
0.0567303027
 40
0.0645894212
 40
0.072861099
 40
0.0815591501
 40
0.0906940844
 40
0.1002737091
 40
0.1103033751
 40
0.1207864065
 40
0.1317242976
 40
0.1431169629
 40
0.154962942
 40
0.1672594909
 40
0.1800028152
 40
0.1931880451
 40
0.2068094816
 40
0.2208605177
 40
0.2353338545
 40
0.250221435
 40
0.2655145886
 40
0.281204022
 40
0.3137311009
 40
0.3477184393
 40
0.3830735589
 40
0.4196973748
 40
0.4574849489
 40
0.4963261675
 40
0.5361063682
 40
0.5767069301
 40
0.6180058389
 40
0.659878235
 40
0.7021969505
 40
0.744833037
 40
0.787656286
 40
0.8305357591
 40
0.8733402611
 40
0.9159390133
 40
0.9582016979
 40
1.0
 40
1.0
 40
1.0
 40
1.0
 10
11.8007399537
 20
11.0562494571
 30
0.0
 10
11.8007399537
 20
11.0542530963
 30
0.0
 10
11.8005164004
 20
11.0502343128
 30
0.0
 10
11.7995132769
 20
11.0442275741
 30
0.0
 10
11.797843834
 20
11.0382342511
 30
0.0
 10
11.7955114613
 20
11.0322612588
 30
0.0
 10
11.7925198971
 20
11.0263134736
 30
0.0
 10
11.788873225
 20
11.0203954302
 30
0.0
 10
11.7845755756
 20
11.0145111957
 30
0.0
 10
11.7796311496
 20
11.0086647538
 30
0.0
 10
11.7740444091
 20
11.002859996
 30
0.0
 10
11.7678199789
 20
10.9971010244
 30
0.0
 10
11.7609629858
 20
10.99139187
 30
0.0
 10
11.7534788512
 20
10.9857368443
 30
0.0
 10
11.7453735938
 20
10.9801401359
 30
0.0
 10
11.7366536261
 20
10.9746061545
 30
0.0
 10
11.7273259459
 20
10.9691391851
 30
0.0
 10
11.7173980119
 20
10.963743616
 30
0.0
 10
11.706877818
 20
10.9584237624
 30
0.0
 10
11.6957738558
 20
10.9531839128
 30
0.0
 10
11.6840951026
 20
10.9480283543
 30
0.0
 10
11.6718510438
 20
10.9429612365
 30
0.0
 10
11.6590516149
 20
10.9379867647
 30
0.0
 10
11.6457072484
 20
10.9331089377
 30
0.0
 10
11.6318288065
 20
10.9283318274
 30
0.0
 10
11.6174276224
 20
10.9236592857
 30
0.0
 10
11.602515446
 20
10.9190952031
 30
0.0
 10
11.5871044711
 20
10.9146432964
 30
0.0
 10
11.5712072756
 20
10.9103072108
 30
0.0
 10
11.5491140028
 20
10.9046165703
 30
0.0
 10
11.5203702045
 20
10.8978363862
 30
0.0
 10
11.4845558669
 20
10.8903106573
 30
0.0
 10
11.4471342549
 20
10.8833257572
 30
0.0
 10
11.4082278717
 20
10.8769047742
 30
0.0
 10
11.3679638773
 20
10.8710689688
 30
0.0
 10
11.3264740352
 20
10.8658376424
 30
0.0
 10
11.2838941541
 20
10.8612280931
 30
0.0
 10
11.2403636622
 20
10.8572555561
 30
0.0
 10
11.1960251317
 20
10.8539331562
 30
0.0
 10
11.1510238067
 20
10.8512718663
 30
0.0
 10
11.1055071198
 20
10.849280474
 30
0.0
 10
11.0596242049
 20
10.8479655538
 30
0.0
 10
11.0135254025
 20
10.8473314453
 30
0.0
 10
10.9673617715
 20
10.8473802445
 30
0.0
 10
10.9212845644
 20
10.8481117834
 30
0.0
 10
10.8754447926
 20
10.8495236618
 30
0.0
 10
10.8299927181
 20
10.8516111912
 30
0.0
 10
10.7998518374
 20
10.8534608366
 30
0.0
 10
10.7848731567
 20
10.8544996116
 30
0.0
  0
SPLINE
  5
3F5
100
AcDbEntity
  8
0
100
AcDbSpline
 62
7
  6
CONTINUOUS
 70
0
 71
3
 72
51
 73
47
 74
0
 42
0.0000001
 43
0.0000001
 44
0.0000000001
 40
0.0
 40
0.0
 40
0.0
 40
0.0
 40
0.0056769213
 40
0.011545485
 40
0.0176490338
 40
0.0240254838
 40
0.03070729
 40
0.0377218731
 40
0.0450919267
 40
0.0528361135
 40
0.0609693657
 40
0.0695035899
 40
0.0784478459
 40
0.0878089589
 40
0.0975915922
 40
0.107798735
 40
0.1184317237
 40
0.1294905975
 40
0.1409741198
 40
0.1528800045
 40
0.1652049728
 40
0.1779448575
 40
0.1910947147
 40
0.2046488194
 40
0.2186008353
 40
0.2329437215
 40
0.2627706249
 40
0.294063475
 40
0.326747785
 40
0.3607423748
 40
0.3959601193
 40
0.4323086013
 40
0.469690696
 40
0.5080051076
 40
0.5471468725
 40
0.5870078387
 40
0.6274771273
 40
0.6684415837
 40
0.7097862197
 40
0.7513946477
 40
0.7931495243
 40
0.8349329458
 40
0.8766269825
 40
0.9181138215
 40
0.9592768908
 40
1.0
 40
1.0
 40
1.0
 40
1.0
 10
11.567255909
 20
11.0146545368
 30
0.0
 10
11.5668720565
 20
11.0132743929
 30
0.0
 10
11.5659494029
 20
11.0105052428
 30
0.0
 10
11.5641501555
 20
11.0064250307
 30
0.0
 10
11.5619184586
 20
11.0023619957
 30
0.0
 10
11.5592569099
 20
10.998319489
 30
0.0
 10
11.5561681288
 20
10.9942998632
 30
0.0
 10
11.5526547153
 20
10.9903057731
 30
0.0
 10
11.548719574
 20
10.9863396579
 30
0.0
 10
11.5443656329
 20
10.9824042179
 30
0.0
 10
11.5395962282
 20
10.9785019881
 30
0.0
 10
11.5344148114
 20
10.9746357745
 30
0.0
 10
11.528825265
 20
10.9708081951
 30
0.0
 10
11.5228316549
 20
10.9670221028
 30
0.0
 10
11.5164384556
 20
10.9632801608
 30
0.0
 10
11.5096503714
 20
10.9595852057
 30
0.0
 10
11.5024724769
 20
10.9559399108
 30
0.0
 10
11.494910106
 20
10.9523470505
 30
0.0
 10
11.4869689248
 20
10.9488092809
 30
0.0
 10
11.4786548756
 20
10.9453292857
 30
0.0
 10
11.4699742006
 20
10.9419096821
 30
0.0
 10
11.4609334245
 20
10.9385530464
 30
0.0
 10
11.4515393466
 20
10.935261937
 30
0.0
 10
11.4417990496
 20
10.9320388199
 30
0.0
 10
11.4317198588
 20
10.928886151
 30
0.0
 10
11.4176553038
 20
10.9247253699
 30
0.0
 10
11.3992766048
 20
10.9197310723
 30
0.0
 10
11.3762754078
 20
10.9141306825
 30
0.0
 10
11.352118003
 20
10.9088647274
 30
0.0
 10
11.326877348
 20
10.9039492675
 30
0.0
 10
11.3006295153
 20
10.8993993247
 30
0.0
 10
11.2734537498
 20
10.8952287894
 30
0.0
 10
11.2454321275
 20
10.8914503912
 30
0.0
 10
11.2166493221
 20
10.8880756572
 30
0.0
 10
11.1871923342
 20
10.8851148794
 30
0.0
 10
11.1571502235
 20
10.8825770842
 30
0.0
 10
11.1266138355
 20
10.8804700063
 30
0.0
 10
11.0956755217
 20
10.8788000658
 30
0.0
 10
11.0644288592
 20
10.8775723506
 30
0.0
 10
11.032968362
 20
10.8767905993
 30
0.0
 10
11.0013892008
 20
10.8764571951
 30
0.0
 10
10.9697868904
 20
10.8765731491
 30
0.0
 10
10.9382570645
 20
10.8771381161
 30
0.0
 10
10.9068950137
 20
10.8781503637
 30
0.0
 10
10.8757957735
 20
10.8796068218
 30
0.0
 10
10.8551706791
 20
10.8808789905
 30
0.0
 10
10.8449191256
 20
10.8815899382
 30
0.0
  0
SPLINE
  5
3F6
100
AcDbEntity
  8
0
100
AcDbSpline
 62
7
  6
CONTINUOUS
 70
0
 71
3
 72
37
 73
33
 74
0
 42
0.0000001
 43
0.0000001
 44
0.0000000001
 40
0.0
 40
0.0
 40
0.0
 40
0.0
 40
0.006548264
 40
0.0132413
 40
0.0271576937
 40
0.0419398427
 40
0.0577361381
 40
0.0746628595
 40
0.0928085629
 40
0.1122384826
 40
0.1329988272
 40
0.1551203379
 40
0.1786208866
 40
0.2035078501
 40
0.2297798952
 40
0.257428116
 40
0.2864372672
 40
0.3167866441
 40
0.3484505483
 40
0.381399006
 40
0.4155982419
 40
0.4510108622
 40
0.4875963394
 40
0.5253112994
 40
0.5641095915
 40
0.6039426559
 40
0.6447597214
 40
0.6865078489
 40
0.7291321875
 40
0.8167800921
 40
0.9072331336
 40
1.0
 40
1.0
 40
1.0
 40
1.0
 10
10.4202239985
 20
11.0146545368
 30
0.0
 10
10.4204925444
 20
11.0136889786
 30
0.0
 10
10.4211045443
 20
11.0117549982
 30
0.0
 10
10.4226220567
 20
11.0078827843
 30
0.0
 10
10.4250850604
 20
11.0030418041
 30
0.0
 10
10.4288522833
 20
10.9973538751
 30
0.0
 10
10.4334606349
 20
10.9917163535
 30
0.0
 10
10.4389015589
 20
10.9861358326
 30
0.0
 10
10.4451667456
 20
10.9806181186
 30
0.0
 10
10.4522470639
 20
10.9751697827
 30
0.0
 10
10.4601324778
 20
10.9697977315
 30
0.0
 10
10.4688118282
 20
10.9645092453
 30
0.0
 10
10.4782726889
 20
10.9593116777
 30
0.0
 10
10.4885014184
 20
10.9542124721
 30
0.0
 10
10.4994831706
 20
10.9492190998
 30
0.0
 10
10.511201868
 20
10.9443388868
 30
0.0
 10
10.5236402836
 20
10.9395790711
 30
0.0
 10
10.5367800756
 20
10.934946784
 30
0.0
 10
10.5506017878
 20
10.930448923
 30
0.0
 10
10.5650849201
 20
10.9260922225
 30
0.0
 10
10.5802079651
 20
10.9218832475
 30
0.0
 10
10.5959484204
 20
10.9178282872
 30
0.0
 10
10.6122828494
 20
10.9139334264
 30
0.0
 10
10.6291869207
 20
10.9102045409
 30
0.0
 10
10.6466354268
 20
10.9066472045
 30
0.0
 10
10.6646023441
 20
10.9032667539
 30
0.0
 10
10.6830608647
 20
10.9000682981
 30
0.0
 10
10.7019834615
 20
10.897056581
 30
0.0
 10
10.7280366404
 20
10.893260872
 30
0.0
 10
10.7615562788
 20
10.8890299484
 30
0.0
 10
10.8028001221
 20
10.8848071858
 30
0.0
 10
10.8307552388
 20
10.8825722071
 30
0.0
 10
10.8449191256
 20
10.8815899382
 30
0.0
  0
SPLINE
  5
3F7
100
AcDbEntity
  8
0
100
AcDbSpline
 62
7
  6
CONTINUOUS
 70
0
 71
3
 72
42
 73
38
 74
0
 42
0.0000001
 43
0.0000001
 44
0.0000000001
 40
0.0
 40
0.0
 40
0.0
 40
0.0
 40
0.0299419644
 40
0.0449235317
 40
0.0599142035
 40
0.0899287023
 40
0.1200139727
 40
0.1350926544
 40
0.1501966973
 40
0.1804840373
 40
0.210897868
 40
0.2414513286
 40
0.2721543342
 40
0.3030133956
 40
0.3340315238
 40
0.3652082165
 40
0.3965395222
 40
0.4280181758
 40
0.459633799
 40
0.4913731572
 40
0.5232204671
 40
0.5551577446
 40
0.5871651885
 40
0.6192215901
 40
0.6513047644
 40
0.683391994
 40
0.715460481
 40
0.7474877999
 40
0.7794523452
 40
0.8113337678
 40
0.8431133918
 40
0.8747746145
 40
0.906303246
 40
0.9376878974
 40
0.9533257627
 40
0.9689252947
 40
1.0
 40
1.0
 40
1.0
 40
1.0
 10
11.7372923496
 20
10.428862254
 30
0.0
 10
11.7407927694
 20
10.4322433985
 30
0.0
 10
11.746249724
 20
10.4371102442
 30
0.0
 10
11.7538920379
 20
10.4431489902
 30
0.0
 10
11.7617777883
 20
10.4488871581
 30
0.0
 10
11.7720673394
 20
10.4554765194
 30
0.0
 10
11.7828572201
 20
10.4612402475
 30
0.0
 10
11.7917560356
 20
10.4653406632
 30
0.0
 10
11.8008387324
 20
10.4691024663
 30
0.0
 10
11.8124913774
 20
10.4731475738
 30
0.0
 10
11.8268515219
 20
10.4769174872
 30
0.0
 10
11.8415250071
 20
10.4795882079
 30
0.0
 10
11.8564305212
 20
10.4811449855
 30
0.0
 10
11.871486183
 20
10.4815795162
 30
0.0
 10
11.8866091522
 20
10.4808895871
 30
0.0
 10
11.901716309
 20
10.4790791839
 30
0.0
 10
11.9167246459
 20
10.4761584317
 30
0.0
 10
11.931551735
 20
10.4721435404
 30
0.0
 10
11.9461161698
 20
10.4670567081
 30
0.0
 10
11.9603380076
 20
10.4609259961
 30
0.0
 10
11.9741392011
 20
10.4537851728
 30
0.0
 10
11.9874440216
 20
10.4456735274
 30
0.0
 10
12.0001794681
 20
10.4366356545
 30
0.0
 10
12.0122756637
 20
10.4267212101
 30
0.0
 10
12.0236662336
 20
10.4159846417
 30
0.0
 10
12.0342886659
 20
10.4044848908
 30
0.0
 10
12.0440846507
 20
10.3922850738
 30
0.0
 10
12.0530003971
 20
10.3794521374
 30
0.0
 10
12.0609869257
 20
10.3660564995
 30
0.0
 10
12.0680003366
 20
10.3521716519
 30
0.0
 10
12.0740020445
 20
10.3378738194
 30
0.0
 10
12.0789590092
 20
10.3232413342
 30
0.0
 10
12.0828438389
 20
10.3083550002
 30
0.0
 10
12.0851728867
 20
10.2957893238
 30
0.0
 10
12.0864794091
 20
10.2856929453
 30
0.0
 10
12.0874118426
 20
10.2756062305
 30
0.0
 10
12.0876941764
 20
10.2680160423
 30
0.0
 10
12.0876941764
 20
10.2629651963
 30
0.0
  0
SPLINE
  5
3F8
100
AcDbEntity
  8
0
100
AcDbSpline
 62
7
  6
CONTINUOUS
 70
0
 71
3
 72
42
 73
38
 74
0
 42
0.0000001
 43
0.0000001
 44
0.0000000001
 40
0.0
 40
0.0
 40
0.0
 40
0.0
 40
0.0299419644
 40
0.0449235317
 40
0.0599142035
 40
0.0899287023
 40
0.1200139727
 40
0.1350926544
 40
0.1501966973
 40
0.1804840373
 40
0.210897868
 40
0.2414513286
 40
0.2721543342
 40
0.3030133956
 40
0.3340315238
 40
0.3652082165
 40
0.3965395222
 40
0.4280181758
 40
0.459633799
 40
0.4913731572
 40
0.5232204671
 40
0.5551577446
 40
0.5871651885
 40
0.6192215901
 40
0.6513047644
 40
0.683391994
 40
0.715460481
 40
0.7474877999
 40
0.7794523452
 40
0.8113337678
 40
0.8431133918
 40
0.8747746145
 40
0.906303246
 40
0.9376878974
 40
0.9533257627
 40
0.9689252947
 40
1.0
 40
1.0
 40
1.0
 40
1.0
 10
11.7372923496
 20
6.0821957782
 30
0.0
 10
11.7407927694
 20
6.0855769227
 30
0.0
 10
11.746249724
 20
6.0904437683
 30
0.0
 10
11.7538920379
 20
6.0964825143
 30
0.0
 10
11.7617777883
 20
6.1022206823
 30
0.0
 10
11.7720673394
 20
6.1088100435
 30
0.0
 10
11.7828572201
 20
6.1145737717
 30
0.0
 10
11.7917560356
 20
6.1186741873
 30
0.0
 10
11.8008387324
 20
6.1224359905
 30
0.0
 10
11.8124913774
 20
6.126481098
 30
0.0
 10
11.8268515219
 20
6.1302510114
 30
0.0
 10
11.8415250071
 20
6.1329217321
 30
0.0
 10
11.8564305212
 20
6.1344785097
 30
0.0
 10
11.871486183
 20
6.1349130403
 30
0.0
 10
11.8866091522
 20
6.1342231113
 30
0.0
 10
11.901716309
 20
6.132412708
 30
0.0
 10
11.9167246459
 20
6.1294919559
 30
0.0
 10
11.931551735
 20
6.1254770646
 30
0.0
 10
11.9461161698
 20
6.1203902322
 30
0.0
 10
11.9603380076
 20
6.1142595202
 30
0.0
 10
11.9741392011
 20
6.1071186969
 30
0.0
 10
11.9874440216
 20
6.0990070516
 30
0.0
 10
12.0001794681
 20
6.0899691786
 30
0.0
 10
12.0122756637
 20
6.0800547343
 30
0.0
 10
12.0236662336
 20
6.0693181658
 30
0.0
 10
12.0342886659
 20
6.057818415
 30
0.0
 10
12.0440846507
 20
6.045618598
 30
0.0
 10
12.0530003971
 20
6.0327856616
 30
0.0
 10
12.0609869257
 20
6.0193900237
 30
0.0
 10
12.0680003366
 20
6.0055051761
 30
0.0
 10
12.0740020445
 20
5.9912073436
 30
0.0
 10
12.0789590092
 20
5.9765748583
 30
0.0
 10
12.0828438389
 20
5.9616885243
 30
0.0
 10
12.0851728867
 20
5.9491228479
 30
0.0
 10
12.0864794091
 20
5.9390264694
 30
0.0
 10
12.0874118426
 20
5.9289397546
 30
0.0
 10
12.0876941764
 20
5.9213495664
 30
0.0
 10
12.0876941764
 20
5.9162987205
 30
0.0
  0
SPLINE
  5
3F9
100
AcDbEntity
  8
0
100
AcDbSpline
 62
7
  6
CONTINUOUS
 70
0
 71
3
 72
23
 73
19
 74
0
 42
0.0000001
 43
0.0000001
 44
0.0000000001
 40
0.0
 40
0.0
 40
0.0
 40
0.0
 40
0.0612826216
 40
0.1228198277
 40
0.1846013176
 40
0.2466131272
 40
0.3088378774
 40
0.3712550642
 40
0.4338413869
 40
0.496571107
 40
0.5594164343
 40
0.6223479341
 40
0.685334952
 40
0.7483460501
 40
0.8113494511
 40
0.8743134863
 40
0.9372070419
 40
1.0
 40
1.0
 40
1.0
 40
1.0
 10
10.7787403879
 20
8.5207039408
 30
0.0
 10
10.7858390339
 20
8.519972442
 30
0.0
 10
10.8000241697
 20
8.5180647813
 30
0.0
 10
10.8211255245
 20
8.5138962675
 30
0.0
 10
10.8420171662
 20
8.5084306644
 30
0.0
 10
10.8626166325
 20
8.5016894806
 30
0.0
 10
10.882843983
 20
8.4936990455
 30
0.0
 10
10.9026203678
 20
8.484490577
 30
0.0
 10
10.9218687998
 20
8.4741000131
 30
0.0
 10
10.9405143262
 20
8.4625678842
 30
0.0
 10
10.9584843508
 20
8.4499391523
 30
0.0
 10
10.9757089059
 20
8.4362630358
 30
0.0
 10
10.9921209213
 20
8.4215928254
 30
0.0
 10
11.0076564977
 20
8.4059856512
 30
0.0
 10
11.022255097
 20
8.389502362
 30
0.0
 10
11.0358599877
 20
8.3722069144
 30
0.0
 10
11.0484176772
 20
8.3541675263
 30
0.0
 10
11.0560672128
 20
8.3416780752
 30
0.0
 10
11.0597012651
 20
8.3353329477
 30
0.0
  0
SPLINE
  5
3FA
100
AcDbEntity
  8
0
100
AcDbSpline
 62
7
  6
CONTINUOUS
 70
0
 71
3
 72
11
 73
7
 74
0
 42
0.0000001
 43
0.0000001
 44
0.0000000001
 40
0.0
 40
0.0
 40
0.0
 40
0.0
 40
0.2521829303
 40
0.5029936262
 40
0.7522931759
 40
1.0
 40
1.0
 40
1.0
 40
1.0
 10
11.0834717558
 20
8.2855735571
 30
0.0
 10
11.0874600358
 20
8.2753119616
 30
0.0
 10
11.09449401
 20
8.2544724536
 30
0.0
 10
11.1021190501
 20
8.2224813598
 30
0.0
 10
11.1067272563
 20
8.1901153397
 30
0.0
 10
11.1077623501
 20
8.1684044431
 30
0.0
 10
11.1077623501
 20
8.1575904614
 30
0.0
  0
SPLINE
  5
3FB
100
AcDbEntity
  8
0
100
AcDbSpline
 62
7
  6
CONTINUOUS
 70
0
 71
3
 72
48
 73
44
 74
0
 42
0.0000001
 43
0.0000001
 44
0.0000000001
 40
0.0
 40
0.0
 40
0.0
 40
0.0
 40
0.0063158899
 40
0.0126706797
 40
0.0191025165
 40
0.025648058
 40
0.0323419221
 40
0.0392162652
 40
0.0536140552
 40
0.0611947659
 40
0.0690564915
 40
0.0772175997
 40
0.0856939645
 40
0.0944993396
 40
0.103645447
 40
0.1131421893
 40
0.122997946
 40
0.1332195527
 40
0.1438126331
 40
0.1547816545
 40
0.1661299881
 40
0.1778601838
 40
0.1899738557
 40
0.215353302
 40
0.2422691224
 40
0.2707113841
 40
0.3006623731
 40
0.332097648
 40
0.3649869327
 40
0.3992948208
 40
0.434981328
 40
0.4720023222
 40
0.5103099054
 40
0.5498527799
 40
0.590576537
 40
0.632423903
 40
0.6753349407
 40
0.7192473098
 40
0.7640964278
 40
0.8098157282
 40
0.8563368617
 40
0.9035891153
 40
1.0
 40
1.0
 40
1.0
 40
1.0
 10
12.8760206729
 20
8.5268851255
 30
0.0
 10
12.8746566894
 20
8.526979712
 30
0.0
 10
12.8719267685
 20
8.5272811207
 30
0.0
 10
12.8678624663
 20
8.5280666902
 30
0.0
 10
12.863825342
 20
8.5291858123
 30
0.0
 10
12.8598177457
 20
8.5306375254
 30
0.0
 10
12.8558412351
 20
8.5324209825
 30
0.0
 10
12.8505018819
 20
8.5352831516
 30
0.0
 10
12.84530749
 20
8.538786831
 30
0.0
 10
12.8402806732
 20
8.5428471008
 30
0.0
 10
12.8364837078
 20
8.5462703685
 30
0.0
 10
12.8327273164
 20
8.5500171715
 30
0.0
 10
12.8290123875
 20
8.5540861281
 30
0.0
 10
12.825340477
 20
8.558475514
 30
0.0
 10
12.8217129285
 20
8.5631835372
 30
0.0
 10
12.818131104
 20
8.5682082531
 30
0.0
 10
12.8145964602
 20
8.5735476651
 30
0.0
 10
12.8111103204
 20
8.5791995699
 30
0.0
 10
12.8076740997
 20
8.5851616948
 30
0.0
 10
12.8042891852
 20
8.5914316247
 30
0.0
 10
12.8009568972
 20
8.5980067869
 30
0.0
 10
12.7976786123
 20
8.6048845429
 30
0.0
 10
12.7933134254
 20
8.6146060738
 30
0.0
 10
12.7880160455
 20
8.6275083018
 30
0.0
 10
12.7819903627
 20
8.64391849
 30
0.0
 10
12.77621075
 20
8.6614617812
 30
0.0
 10
12.770686744
 20
8.6801094683
 30
0.0
 10
12.7654274637
 20
8.6998312768
 30
0.0
 10
12.760441634
 20
8.7205949617
 30
0.0
 10
12.7557375451
 20
8.7423665295
 30
0.0
 10
12.7513230354
 20
8.7651102654
 30
0.0
 10
12.74720546
 20
8.7887888043
 30
0.0
 10
12.7433916714
 20
8.8133631979
 30
0.0
 10
12.7398880248
 20
8.8387929973
 30
0.0
 10
12.7367003618
 20
8.8650363278
 30
0.0
 10
12.7338340031
 20
8.8920499531
 30
0.0
 10
12.7312937177
 20
8.919789349
 30
0.0
 10
12.729083739
 20
8.948208775
 30
0.0
 10
12.727207748
 20
8.9772613761
 30
0.0
 10
12.7256688874
 20
9.0068992408
 30
0.0
 10
12.724469709
 20
9.0370734655
 30
0.0
 10
12.7233188159
 20
9.0782289837
 30
0.0
 10
12.72298497
 20
9.1093307061
 30
0.0
 10
12.72298497
 20
9.130201663
 30
0.0
  0
SPLINE
  5
3FC
100
AcDbEntity
  8
0
100
AcDbSpline
 62
7
  6
CONTINUOUS
 70
0
 71
3
 72
37
 73
33
 74
0
 42
0.0000001
 43
0.0000001
 44
0.0000000001
 40
0.0
 40
0.0
 40
0.0
 40
0.0
 40
0.0063859259
 40
0.012918515
 40
0.0265232753
 40
0.0410111338
 40
0.0565342899
 40
0.0732110744
 40
0.0911309476
 40
0.1103593644
 40
0.1309422776
 40
0.1529099916
 40
0.1762798933
 40
0.201058802
 40
0.227244885
 40
0.2548288091
 40
0.2837949043
 40
0.3141221253
 40
0.3457845021
 40
0.3787517957
 40
0.4129900341
 40
0.4484616719
 40
0.4851260315
 40
0.5229396363
 40
0.5618562561
 40
0.6018272486
 40
0.6428017899
 40
0.684726894
 40
0.727547655
 40
0.815646683
 40
0.9066280627
 40
1.0
 40
1.0
 40
1.0
 40
1.0
 10
12.8513348182
 20
8.7625355044
 30
0.0
 10
12.850426385
 20
8.7628566896
 30
0.0
 10
12.8486116079
 20
8.7635734034
 30
0.0
 10
12.8449972216
 20
8.7652974219
 30
0.0
 10
12.8405164285
 20
8.7680130685
 30
0.0
 10
12.8353144788
 20
8.7720643883
 30
0.0
 10
12.830218191
 20
8.7769432779
 30
0.0
 10
12.8252329646
 20
8.7826409864
 30
0.0
 10
12.8203635201
 20
8.7891491852
 30
0.0
 10
12.8156153994
 20
8.7964587009
 30
0.0
 10
12.810994411
 20
8.8045594027
 30
0.0
 10
12.8065067059
 20
8.8134400274
 30
0.0
 10
12.8021584551
 20
8.8230880541
 30
0.0
 10
12.7979558069
 20
8.8334897334
 30
0.0
 10
12.7939048795
 20
8.844630132
 30
0.0
 10
12.7900115834
 20
8.8564931168
 30
0.0
 10
12.786281641
 20
8.8690614196
 30
0.0
 10
12.7827206163
 20
8.8823166874
 30
0.0
 10
12.7793337825
 20
8.8962394898
 30
0.0
 10
12.7761261681
 20
8.910809376
 30
0.0
 10
12.7731025878
 20
8.9260049182
 30
0.0
 10
12.7702675311
 20
8.9418037304
 30
0.0
 10
12.7676252173
 20
8.9581825179
 30
0.0
 10
12.7651796194
 20
8.9751171199
 30
0.0
 10
12.7629343668
 20
8.9925825339
 30
0.0
 10
12.7608928005
 20
9.0105529669
 30
0.0
 10
12.7590580026
 20
9.0290018674
 30
0.0
 10
12.7574326603
 20
9.0479019964
 30
0.0
 10
12.755530177
 20
9.0739128081
 30
0.0
 10
12.7537070235
 20
9.1073481954
 30
0.0
 10
12.7524043529
 20
9.1484396195
 30
0.0
 10
12.7521213099
 20
9.1762567788
 30
0.0
 10
12.7521213099
 20
9.1903452086
 30
0.0
  0
SPLINE
  5
3FD
100
AcDbEntity
  8
0
100
AcDbSpline
 62
7
  6
CONTINUOUS
 70
0
 71
3
 72
51
 73
47
 74
0
 42
0.0000001
 43
0.0000001
 44
0.0000000001
 40
0.0
 40
0.0
 40
0.0
 40
0.0
 40
0.0054989034
 40
0.0111937084
 40
0.0171298793
 40
0.0233469646
 40
0.0298785342
 40
0.0367527402
 40
0.0439926852
 40
0.0516171882
 40
0.059641201
 40
0.068076475
 40
0.0769319063
 40
0.0862140149
 40
0.0959272256
 40
0.1060741591
 40
0.1166558872
 40
0.1276720616
 40
0.1391211732
 40
0.1510005512
 40
0.1633066404
 40
0.176034902
 40
0.1891801097
 40
0.202736185
 40
0.2166964996
 40
0.2310536784
 40
0.2609259567
 40
0.2922844183
 40
0.3250520785
 40
0.359145258
 40
0.3944743252
 40
0.430944346
 40
0.4684556671
 40
0.5069044551
 40
0.5461832024
 40
0.5861812111
 40
0.6267850609
 40
0.6678790668
 40
0.7093457292
 40
0.7510661761
 40
0.7929206143
 40
0.8347887391
 40
0.8765502628
 40
0.9180851058
 40
0.9592744389
 40
1.0
 40
1.0
 40
1.0
 40
1.0
 10
12.930706183
 20
9.9070309102
 30
0.0
 10
12.9293407284
 20
9.9067521861
 30
0.0
 10
12.9265892605
 20
9.9060383229
 30
0.0
 10
12.9225073785
 20
9.9045426429
 30
0.0
 10
12.9184120407
 20
9.9026087103
 30
0.0
 10
12.9143067329
 20
9.90023891
 30
0.0
 10
12.9101938173
 20
9.8974358131
 30
0.0
 10
12.9060760252
 20
9.8942018448
 30
0.0
 10
12.9019558934
 20
9.8905397601
 30
0.0
 10
12.8978362185
 20
9.8864523343
 30
0.0
 10
12.8937197334
 20
9.8819427179
 30
0.0
 10
12.8896093699
 20
9.8770142385
 30
0.0
 10
12.8855080298
 20
9.8716705935
 30
0.0
 10
12.8814187255
 20
9.8659157494
 30
0.0
 10
12.8773444695
 20
9.859754014
 30
0.0
 10
12.8732882982
 20
9.8531900103
 30
0.0
 10
12.8692532836
 20
9.8462286715
 30
0.0
 10
12.8652424469
 20
9.8388752645
 30
0.0
 10
12.8612588806
 20
9.8311353415
 30
0.0
 10
12.8573055674
 20
9.8230147904
 30
0.0
 10
12.8533855903
 20
9.8145197667
 30
0.0
 10
12.8495018807
 20
9.8056567538
 30
0.0
 10
12.8456574857
 20
9.7964324899
 30
0.0
 10
12.8418552849
 20
9.7868540302
 30
0.0
 10
12.8380982415
 20
9.7769286651
 30
0.0
 10
12.8330865183
 20
9.7630585845
 30
0.0
 10
12.8269685087
 20
9.7449024441
 30
0.0
 10
12.8199451404
 20
9.7221364572
 30
0.0
 10
12.8131680362
 20
9.6981824065
 30
0.0
 10
12.8066580931
 20
9.6731135703
 30
0.0
 10
12.8004354043
 20
9.6470064876
 30
0.0
 10
12.7945191607
 20
9.6199410029
 30
0.0
 10
12.788927601
 20
9.5919999231
 30
0.0
 10
12.7836779542
 20
9.5632687772
 30
0.0
 10
12.778786388
 20
9.5338355399
 30
0.0
 10
12.77426796
 20
9.5037903579
 30
0.0
 10
12.7701365728
 20
9.4732252688
 30
0.0
 10
12.7664049316
 20
9.442233915
 30
0.0
 10
12.7630845069
 20
9.4109112549
 30
0.0
 10
12.7601854979
 20
9.3793532671
 30
0.0
 10
12.7577168057
 20
9.3476566608
 30
0.0
 10
12.7556859972
 20
9.3159185577
 30
0.0
 10
12.7540993006
 20
9.2842362501
 30
0.0
 10
12.7529615502
 20
9.2527067495
 30
0.0
 10
12.7522762306
 20
9.2214268288
 30
0.0
 10
12.7521213099
 20
9.2006664696
 30
0.0
 10
12.7521213099
 20
9.1903452086
 30
0.0
  0
SPLINE
  5
3FE
100
AcDbEntity
  8
0
100
AcDbSpline
 62
7
  6
CONTINUOUS
 70
0
 71
3
 72
48
 73
44
 74
0
 42
0.0000001
 43
0.0000001
 44
0.0000000001
 40
0.0
 40
0.0
 40
0.0
 40
0.0
 40
0.0063158899
 40
0.0126706797
 40
0.0191025165
 40
0.025648058
 40
0.0323419221
 40
0.0392162652
 40
0.0536140552
 40
0.0611947659
 40
0.0690564915
 40
0.0772175997
 40
0.0856939645
 40
0.0944993396
 40
0.103645447
 40
0.1131421893
 40
0.122997946
 40
0.1332195527
 40
0.1438126331
 40
0.1547816545
 40
0.1661299881
 40
0.1778601838
 40
0.1899738557
 40
0.215353302
 40
0.2422691224
 40
0.2707113841
 40
0.3006623731
 40
0.332097648
 40
0.3649869327
 40
0.3992948208
 40
0.434981328
 40
0.4720023222
 40
0.5103099054
 40
0.5498527799
 40
0.590576537
 40
0.632423903
 40
0.6753349407
 40
0.7192473098
 40
0.7640964278
 40
0.8098157282
 40
0.8563368617
 40
0.9035891153
 40
1.0
 40
1.0
 40
1.0
 40
1.0
 10
12.8760206729
 20
6.5950333584
 30
0.0
 10
12.8746566894
 20
6.5951279449
 30
0.0
 10
12.8719267685
 20
6.5954293536
 30
0.0
 10
12.8678624663
 20
6.5962149232
 30
0.0
 10
12.863825342
 20
6.5973340453
 30
0.0
 10
12.8598177457
 20
6.5987857583
 30
0.0
 10
12.8558412351
 20
6.6005692154
 30
0.0
 10
12.8505018819
 20
6.6034313845
 30
0.0
 10
12.84530749
 20
6.6069350639
 30
0.0
 10
12.8402806732
 20
6.6109953338
 30
0.0
 10
12.8364837078
 20
6.6144186014
 30
0.0
 10
12.8327273164
 20
6.6181654044
 30
0.0
 10
12.8290123875
 20
6.622234361
 30
0.0
 10
12.825340477
 20
6.626623747
 30
0.0
 10
12.8217129285
 20
6.6313317701
 30
0.0
 10
12.818131104
 20
6.636356486
 30
0.0
 10
12.8145964602
 20
6.641695898
 30
0.0
 10
12.8111103204
 20
6.6473478029
 30
0.0
 10
12.8076740997
 20
6.6533099277
 30
0.0
 10
12.8042891852
 20
6.6595798576
 30
0.0
 10
12.8009568972
 20
6.6661550199
 30
0.0
 10
12.7976786123
 20
6.6730327759
 30
0.0
 10
12.7933134254
 20
6.6827543067
 30
0.0
 10
12.7880160455
 20
6.6956565348
 30
0.0
 10
12.7819903627
 20
6.712066723
 30
0.0
 10
12.77621075
 20
6.7296100142
 30
0.0
 10
12.770686744
 20
6.7482577013
 30
0.0
 10
12.7654274637
 20
6.7679795098
 30
0.0
 10
12.760441634
 20
6.7887431946
 30
0.0
 10
12.7557375451
 20
6.8105147625
 30
0.0
 10
12.7513230354
 20
6.8332584984
 30
0.0
 10
12.74720546
 20
6.8569370372
 30
0.0
 10
12.7433916714
 20
6.8815114309
 30
0.0
 10
12.7398880248
 20
6.9069412302
 30
0.0
 10
12.7367003618
 20
6.9331845607
 30
0.0
 10
12.7338340031
 20
6.960198186
 30
0.0
 10
12.7312937177
 20
6.987937582
 30
0.0
 10
12.729083739
 20
7.0163570079
 30
0.0
 10
12.727207748
 20
7.0454096091
 30
0.0
 10
12.7256688874
 20
7.0750474738
 30
0.0
 10
12.724469709
 20
7.1052216985
 30
0.0
 10
12.7233188159
 20
7.1463772166
 30
0.0
 10
12.72298497
 20
7.177478939
 30
0.0
 10
12.72298497
 20
7.1983498959
 30
0.0
  0
SPLINE
  5
3FF
100
AcDbEntity
  8
0
100
AcDbSpline
 62
7
  6
CONTINUOUS
 70
0
 71
3
 72
37
 73
33
 74
0
 42
0.0000001
 43
0.0000001
 44
0.0000000001
 40
0.0
 40
0.0
 40
0.0
 40
0.0
 40
0.0063859259
 40
0.012918515
 40
0.0265232753
 40
0.0410111338
 40
0.0565342899
 40
0.0732110744
 40
0.0911309476
 40
0.1103593644
 40
0.1309422776
 40
0.1529099916
 40
0.1762798933
 40
0.201058802
 40
0.227244885
 40
0.2548288091
 40
0.2837949043
 40
0.3141221253
 40
0.3457845021
 40
0.3787517957
 40
0.4129900341
 40
0.4484616719
 40
0.4851260315
 40
0.5229396363
 40
0.5618562561
 40
0.6018272486
 40
0.6428017899
 40
0.684726894
 40
0.727547655
 40
0.815646683
 40
0.9066280627
 40
1.0
 40
1.0
 40
1.0
 40
1.0
 10
12.8513348182
 20
6.8306837374
 30
0.0
 10
12.850426385
 20
6.8310049226
 30
0.0
 10
12.8486116079
 20
6.8317216364
 30
0.0
 10
12.8449972216
 20
6.8334456548
 30
0.0
 10
12.8405164285
 20
6.8361613014
 30
0.0
 10
12.8353144788
 20
6.8402126212
 30
0.0
 10
12.830218191
 20
6.8450915109
 30
0.0
 10
12.8252329646
 20
6.8507892194
 30
0.0
 10
12.8203635201
 20
6.8572974182
 30
0.0
 10
12.8156153994
 20
6.8646069339
 30
0.0
 10
12.810994411
 20
6.8727076356
 30
0.0
 10
12.8065067059
 20
6.8815882603
 30
0.0
 10
12.8021584551
 20
6.891236287
 30
0.0
 10
12.7979558069
 20
6.9016379664
 30
0.0
 10
12.7939048795
 20
6.912778365
 30
0.0
 10
12.7900115834
 20
6.9246413497
 30
0.0
 10
12.786281641
 20
6.9372096526
 30
0.0
 10
12.7827206163
 20
6.9504649204
 30
0.0
 10
12.7793337825
 20
6.9643877228
 30
0.0
 10
12.7761261681
 20
6.9789576089
 30
0.0
 10
12.7731025878
 20
6.9941531512
 30
0.0
 10
12.7702675311
 20
7.0099519633
 30
0.0
 10
12.7676252173
 20
7.0263307508
 30
0.0
 10
12.7651796194
 20
7.0432653528
 30
0.0
 10
12.7629343668
 20
7.0607307669
 30
0.0
 10
12.7608928005
 20
7.0787011998
 30
0.0
 10
12.7590580026
 20
7.0971501004
 30
0.0
 10
12.7574326603
 20
7.1160502293
 30
0.0
 10
12.755530177
 20
7.142061041
 30
0.0
 10
12.7537070235
 20
7.1754964283
 30
0.0
 10
12.7524043529
 20
7.2165878525
 30
0.0
 10
12.7521213099
 20
7.2444050118
 30
0.0
 10
12.7521213099
 20
7.2584934416
 30
0.0
  0
SPLINE
  5
400
100
AcDbEntity
  8
0
100
AcDbSpline
 62
7
  6
CONTINUOUS
 70
0
 71
3
 72
51
 73
47
 74
0
 42
0.0000001
 43
0.0000001
 44
0.0000000001
 40
0.0
 40
0.0
 40
0.0
 40
0.0
 40
0.0054989034
 40
0.0111937084
 40
0.0171298793
 40
0.0233469646
 40
0.0298785342
 40
0.0367527402
 40
0.0439926852
 40
0.0516171882
 40
0.059641201
 40
0.068076475
 40
0.0769319063
 40
0.0862140149
 40
0.0959272256
 40
0.1060741591
 40
0.1166558872
 40
0.1276720616
 40
0.1391211732
 40
0.1510005512
 40
0.1633066404
 40
0.176034902
 40
0.1891801097
 40
0.202736185
 40
0.2166964996
 40
0.2310536784
 40
0.2609259567
 40
0.2922844183
 40
0.3250520785
 40
0.359145258
 40
0.3944743252
 40
0.430944346
 40
0.4684556671
 40
0.5069044551
 40
0.5461832024
 40
0.5861812111
 40
0.6267850609
 40
0.6678790668
 40
0.7093457292
 40
0.7510661761
 40
0.7929206143
 40
0.8347887391
 40
0.8765502628
 40
0.9180851058
 40
0.9592744389
 40
1.0
 40
1.0
 40
1.0
 40
1.0
 10
12.930706183
 20
7.9751791432
 30
0.0
 10
12.9293407284
 20
7.9749004191
 30
0.0
 10
12.9265892605
 20
7.9741865559
 30
0.0
 10
12.9225073785
 20
7.9726908758
 30
0.0
 10
12.9184120407
 20
7.9707569433
 30
0.0
 10
12.9143067329
 20
7.968387143
 30
0.0
 10
12.9101938173
 20
7.9655840461
 30
0.0
 10
12.9060760252
 20
7.9623500778
 30
0.0
 10
12.9019558934
 20
7.958687993
 30
0.0
 10
12.8978362185
 20
7.9546005673
 30
0.0
 10
12.8937197334
 20
7.9500909509
 30
0.0
 10
12.8896093699
 20
7.9451624715
 30
0.0
 10
12.8855080298
 20
7.9398188265
 30
0.0
 10
12.8814187255
 20
7.9340639823
 30
0.0
 10
12.8773444695
 20
7.927902247
 30
0.0
 10
12.8732882982
 20
7.9213382432
 30
0.0
 10
12.8692532836
 20
7.9143769044
 30
0.0
 10
12.8652424469
 20
7.9070234974
 30
0.0
 10
12.8612588806
 20
7.8992835744
 30
0.0
 10
12.8573055674
 20
7.8911630234
 30
0.0
 10
12.8533855903
 20
7.8826679996
 30
0.0
 10
12.8495018807
 20
7.8738049868
 30
0.0
 10
12.8456574857
 20
7.8645807229
 30
0.0
 10
12.8418552849
 20
7.8550022631
 30
0.0
 10
12.8380982415
 20
7.8450768981
 30
0.0
 10
12.8330865183
 20
7.8312068175
 30
0.0
 10
12.8269685087
 20
7.8130506771
 30
0.0
 10
12.8199451404
 20
7.7902846901
 30
0.0
 10
12.8131680362
 20
7.7663306394
 30
0.0
 10
12.8066580931
 20
7.7412618033
 30
0.0
 10
12.8004354043
 20
7.7151547206
 30
0.0
 10
12.7945191607
 20
7.6880892359
 30
0.0
 10
12.788927601
 20
7.660148156
 30
0.0
 10
12.7836779542
 20
7.6314170101
 30
0.0
 10
12.778786388
 20
7.6019837728
 30
0.0
 10
12.77426796
 20
7.5719385909
 30
0.0
 10
12.7701365728
 20
7.5413735018
 30
0.0
 10
12.7664049316
 20
7.510382148
 30
0.0
 10
12.7630845069
 20
7.4790594879
 30
0.0
 10
12.7601854979
 20
7.4475015
 30
0.0
 10
12.7577168057
 20
7.4158048938
 30
0.0
 10
12.7556859972
 20
7.3840667907
 30
0.0
 10
12.7540993006
 20
7.3523844831
 30
0.0
 10
12.7529615502
 20
7.3208549825
 30
0.0
 10
12.7522762306
 20
7.2895750618
 30
0.0
 10
12.7521213099
 20
7.2688147026
 30
0.0
 10
12.7521213099
 20
7.2584934416
 30
0.0
  0
SPLINE
  5
401
100
AcDbEntity
  8
0
100
AcDbSpline
 62
7
  6
CONTINUOUS
 70
0
 71
3
 72
22
 73
18
 74
0
 42
0.0000001
 43
0.0000001
 44
0.0000000001
 40
0.0
 40
0.0
 40
0.0
 40
0.0
 40
0.1461618403
 40
0.2177177059
 40
0.2880909108
 40
0.3571589407
 40
0.4248033909
 40
0.4909096841
 40
0.5553668415
 40
0.6180683863
 40
0.6789126019
 40
0.7378028892
 40
0.7946483544
 40
0.8493644969
 40
0.9018737011
 40
0.9521059675
 40
1.0
 40
1.0
 40
1.0
 40
1.0
 10
11.1206905906
 20
10.9687632554
 30
0.0
 10
11.1343097007
 20
10.9678187669
 30
0.0
 10
11.1545808769
 20
10.9661709901
 30
0.0
 10
11.1813546887
 20
10.9634788212
 30
0.0
 10
11.2009365458
 20
10.9612508875
 30
0.0
 10
11.2201240268
 20
10.9588042618
 30
0.0
 10
11.2388806119
 20
10.9561436173
 30
0.0
 10
11.2571706059
 20
10.9532740617
 30
0.0
 10
11.2749592352
 20
10.9502010649
 30
0.0
 10
11.2922126753
 20
10.9469305241
 30
0.0
 10
11.308898144
 20
10.9434687113
 30
0.0
 10
11.3249839419
 20
10.9398222513
 30
0.0
 10
11.340439535
 20
10.9359981167
 30
0.0
 10
11.3552356064
 20
10.9320036543
 30
0.0
 10
11.3693441824
 20
10.9278464998
 30
0.0
 10
11.382738404
 20
10.9235346492
 30
0.0
 10
11.3913842435
 20
10.9204886635
 30
0.0
 10
11.3955800051
 20
10.9189372395
 30
0.0
  0
SPLINE
  5
402
100
AcDbEntity
  8
0
100
AcDbSpline
 62
7
  6
CONTINUOUS
 70
0
 71
3
 72
53
 73
49
 74
0
 42
0.0000001
 43
0.0000001
 44
0.0000000001
 40
0.0
 40
0.0
 40
0.0
 40
0.0
 40
0.0417740371
 40
0.0840369047
 40
0.1266584536
 40
0.1695064221
 40
0.212448016
 40
0.2553499502
 40
0.2980791306
 40
0.3405031348
 40
0.382490749
 40
0.4239124945
 40
0.4646411616
 40
0.5045523515
 40
0.5435250275
 40
0.5814420819
 40
0.6181909261
 40
0.6536641145
 40
0.6877600167
 40
0.72038356
 40
0.7361158328
 40
0.7514478069
 40
0.7663698229
 40
0.7808728747
 40
0.7949485304
 40
0.808589127
 40
0.8217876764
 40
0.8345380756
 40
0.8468350633
 40
0.8586743964
 40
0.8700529164
 40
0.8809686715
 40
0.8914211252
 40
0.901411244
 40
0.9109418555
 40
0.9200177659
 40
0.9286462506
 40
0.9368373022
 40
0.9446042293
 40
0.951964127
 40
0.9589385596
 40
0.9655542544
 40
0.9718437693
 40
0.9778461758
 40
0.9836073577
 40
0.9891800489
 40
0.9946230796
 40
1.0
 40
1.0
 40
1.0
 40
1.0
 10
13.1407185641
 20
7.6018495868
 30
0.0
 10
13.1407185641
 20
7.5867942959
 30
0.0
 10
13.1404836869
 20
7.556507067
 30
0.0
 10
13.1394453295
 20
7.5108698052
 30
0.0
 10
13.1377219193
 20
7.4648658871
 30
0.0
 10
13.1353190969
 20
7.418647561
 30
0.0
 10
13.1322448082
 20
7.3723677667
 30
0.0
 10
13.1285092129
 20
7.3261796008
 30
0.0
 10
13.1241246861
 20
7.2802358754
 30
0.0
 10
13.1191057622
 20
7.2346885824
 30
0.0
 10
13.1134690926
 20
7.1896883952
 30
0.0
 10
13.1072333896
 20
7.1453841642
 30
0.0
 10
13.1004193658
 20
7.1019224199
 30
0.0
 10
13.0930496683
 20
7.059446881
 30
0.0
 10
13.0851488036
 20
7.0180979741
 30
0.0
 10
13.0767430595
 20
6.9780123515
 30
0.0
 10
13.0678604155
 20
6.9393224569
 30
0.0
 10
13.0585304654
 20
6.9021559659
 30
0.0
 10
13.0487842715
 20
6.8666357117
 30
0.0
 10
13.0402426712
 20
6.838170775
 30
0.0
 10
13.0332116934
 20
6.8163205628
 30
0.0
 10
13.0279186358
 20
6.8006145496
 30
0.0
 10
13.0225463064
 20
6.7854044982
 30
0.0
 10
13.0170991748
 20
6.7707029406
 30
0.0
 10
13.0115817031
 20
6.756522019
 30
0.0
 10
13.0059985266
 20
6.7428734106
 30
0.0
 10
13.0003542062
 20
6.7297683703
 30
0.0
 10
12.9946534658
 20
6.717217669
 30
0.0
 10
12.9889009783
 20
6.7052316294
 30
0.0
 10
12.9831015093
 20
6.6938200804
 30
0.0
 10
12.9772598363
 20
6.6829923639
 30
0.0
 10
12.9713807258
 20
6.6727573348
 30
0.0
 10
12.9654690297
 20
6.6631233091
 30
0.0
 10
12.9595294789
 20
6.654098137
 30
0.0
 10
12.953566936
 20
6.6456890766
 30
0.0
 10
12.9475860574
 20
6.6379029473
 30
0.0
 10
12.941591612
 20
6.6307459507
 30
0.0
 10
12.9355881266
 20
6.6242238723
 30
0.0
 10
12.9295801387
 20
6.6183419307
 30
0.0
 10
12.9235719671
 20
6.6131049573
 30
0.0
 10
12.9175678081
 20
6.6085173994
 30
0.0
 10
12.9115717488
 20
6.6045833892
 30
0.0
 10
12.9055877601
 20
6.6013070083
 30
0.0
 10
12.8996200003
 20
6.5986921111
 30
0.0
 10
12.8936729912
 20
6.5967427512
 30
0.0
 10
12.8877517049
 20
6.5954625359
 30
0.0
 10
12.881863279
 20
6.5948547277
 30
0.0
 10
12.8779538631
 20
6.5948992999
 30
0.0
 10
12.8760206729
 20
6.5950333584
 30
0.0
  0
SPLINE
  5
403
100
AcDbEntity
  8
0
100
AcDbSpline
 62
7
  6
CONTINUOUS
 70
0
 71
3
 72
45
 73
41
 74
0
 42
0.0000001
 43
0.0000001
 44
0.0000000001
 40
0.0
 40
0.0
 40
0.0
 40
0.0
 40
0.0929727999
 40
0.138605676
 40
0.1835880376
 40
0.2278594548
 40
0.2713612075
 40
0.3140361729
 40
0.3558286365
 40
0.3966846805
 40
0.4365522427
 40
0.4753812319
 40
0.5131237515
 40
0.5497343038
 40
0.5851699205
 40
0.6193903881
 40
0.652358589
 40
0.6840407424
 40
0.7144067096
 40
0.7434304672
 40
0.7710906594
 40
0.797371137
 40
0.8222617456
 40
0.8457594184
 40
0.8678693967
 40
0.878409124
 40
0.8886086093
 40
0.8984716043
 40
0.9080028749
 40
0.9172081787
 40
0.9260943488
 40
0.9346695771
 40
0.9429433874
 40
0.9509268331
 40
0.9586327425
 40
0.966075724
 40
0.9732724195
 40
0.9869982417
 40
0.9935778781
 40
1.0
 40
1.0
 40
1.0
 40
1.0
 10
13.1098089351
 20
9.5358449439
 30
0.0
 10
13.1098089351
 20
9.5554754286
 30
0.0
 10
13.1095133632
 20
9.5847422848
 30
0.0
 10
13.1084967387
 20
9.6234926791
 30
0.0
 10
13.1074367777
 20
9.6519538518
 30
0.0
 10
13.10607624
 20
9.6799517219
 30
0.0
 10
13.1044171188
 20
9.7074454738
 30
0.0
 10
13.1024618681
 20
9.7343950277
 30
0.0
 10
13.1002133418
 20
9.7607611375
 30
0.0
 10
13.0976748622
 20
9.7865053927
 30
0.0
 10
13.0948501686
 20
9.8115903055
 30
0.0
 10
13.0917434029
 20
9.8359793487
 30
0.0
 10
13.0883591289
 20
9.8596370226
 30
0.0
 10
13.0847023385
 20
9.8825289134
 30
0.0
 10
13.080778408
 20
9.9046217323
 30
0.0
 10
13.0765930877
 20
9.9258833685
 30
0.0
 10
13.0721525421
 20
9.9462829578
 30
0.0
 10
13.0674633032
 20
9.9657909239
 30
0.0
 10
13.062532241
 20
9.9843790158
 30
0.0
 10
13.0573665704
 20
10.0020203705
 30
0.0
 10
13.0519738566
 20
10.0186895883
 30
0.0
 10
13.0463619508
 20
10.0343627162
 30
0.0
 10
13.0405389173
 20
10.049017452
 30
0.0
 10
13.0345131517
 20
10.0626326864
 30
0.0
 10
13.0292490118
 20
10.0732601821
 30
0.0
 10
13.0249325434
 20
10.0812123512
 30
0.0
 10
13.0217017118
 20
10.0868089693
 30
0.0
 10
13.0184267949
 20
10.0921315089
 30
0.0
 10
13.0151089424
 20
10.0971780905
 30
0.0
 10
13.0117493376
 20
10.1019469119
 30
0.0
 10
13.0083490855
 20
10.1064362233
 30
0.0
 10
13.0049094048
 20
10.1106444471
 30
0.0
 10
13.0014314543
 20
10.1145700501
 30
0.0
 10
12.9979163305
 20
10.1182115793
 30
0.0
 10
12.9943653591
 20
10.1215676762
 30
0.0
 10
12.9907793021
 20
10.1246372526
 30
0.0
 10
12.986029134
 20
10.1282878749
 30
0.0
 10
12.9811326175
 20
10.1314405913
 30
0.0
 10
12.9761121254
 20
10.1340247104
 30
0.0
 10
12.9735902504
 20
10.1351160114
 30
0.0
 10
12.9723275133
 20
10.1356101571
 30
0.0
  0
SPLINE
  5
404
100
AcDbEntity
  8
0
100
AcDbSpline
 62
7
  6
CONTINUOUS
 70
0
 71
3
 72
52
 73
48
 74
0
 42
0.0000001
 43
0.0000001
 44
0.0000000001
 40
0.0
 40
0.0
 40
0.0
 40
0.0
 40
0.0405922932
 40
0.0816448219
 40
0.1230414821
 40
0.1646646024
 40
0.2063958701
 40
0.2481165126
 40
0.2897078192
 40
0.331051539
 40
0.3720303197
 40
0.412528137
 40
0.4524307289
 40
0.4916260359
 40
0.5300046464
 40
0.5674602541
 40
0.6038901293
 40
0.6391956118
 40
0.6732826345
 40
0.7060622898
 40
0.7374514578
 40
0.7526007181
 40
0.7673741952
 40
0.7817634835
 40
0.7957606757
 40
0.8093584388
 40
0.8225500354
 40
0.835329375
 40
0.8476910853
 40
0.8596305425
 40
0.8711439992
 40
0.8822286021
 40
0.8928825858
 40
0.9031052907
 40
0.9128974354
 40
0.9222611578
 40
0.9312003799
 40
0.939720906
 40
0.9478309
 40
0.9555410803
 40
0.9628653261
 40
0.9698210021
 40
0.9764296757
 40
0.9827175426
 40
0.9887161223
 40
0.9944625745
 40
1.0
 40
1.0
 40
1.0
 40
1.0
 10
13.1098089351
 20
9.5358449439
 30
0.0
 10
13.1098089351
 20
9.5214316495
 30
0.0
 10
13.1095936827
 20
9.4924412258
 30
0.0
 10
13.1086413628
 20
9.4487612997
 30
0.0
 10
13.1070603273
 20
9.4047332874
 30
0.0
 10
13.1048553312
 20
9.3604908573
 30
0.0
 10
13.1020330544
 20
9.3161682442
 30
0.0
 10
13.0986020504
 20
9.2718999241
 30
0.0
 10
13.0945727389
 20
9.2278202144
 30
0.0
 10
13.0899573648
 20
9.1840628533
 30
0.0
 10
13.0847699655
 20
9.1407605962
 30
0.0
 10
13.0790263267
 20
9.0980448082
 30
0.0
 10
13.0727439362
 20
9.0560450631
 30
0.0
 10
13.0659419312
 20
9.0148887463
 30
0.0
 10
13.0586410415
 20
8.9747006625
 30
0.0
 10
13.0508635275
 20
8.9356026536
 30
0.0
 10
13.0426331149
 20
8.8977132132
 30
0.0
 10
13.0339749209
 20
8.8611471435
 30
0.0
 10
13.024915388
 20
8.8260150998
 30
0.0
 10
13.0154821719
 20
8.7924235664
 30
0.0
 10
13.0072393677
 20
8.765489715
 30
0.0
 10
13.0004673539
 20
8.7447989065
 30
0.0
 10
12.9953730858
 20
8.72991181
 30
0.0
 10
12.9902073787
 20
8.7154831031
 30
0.0
 10
12.9849741086
 20
8.7015236973
 30
0.0
 10
12.9796772722
 20
8.688044156
 30
0.0
 10
12.974320888
 20
8.6750546714
 30
0.0
 10
12.9689090187
 20
8.6625650586
 30
0.0
 10
12.963445784
 20
8.6505847422
 30
0.0
 10
12.9579353019
 20
8.6391227603
 30
0.0
 10
12.9523817751
 20
8.6281877337
 30
0.0
 10
12.9467893564
 20
8.6177878936
 30
0.0
 10
12.9411623091
 20
8.6079310224
 30
0.0
 10
12.9355047944
 20
8.5986245172
 30
0.0
 10
12.9298211048
 20
8.5898752904
 30
0.0
 10
12.9241153737
 20
8.5816898834
 30
0.0
 10
12.9183918762
 20
8.5740743157
 30
0.0
 10
12.9126546661
 20
8.5670342661
 30
0.0
 10
12.9069079323
 20
8.5605748616
 30
0.0
 10
12.9011555797
 20
8.5547009491
 30
0.0
 10
12.8954016219
 20
8.549416822
 30
0.0
 10
12.8896497521
 20
8.54472661
 30
0.0
 10
12.8839037348
 20
8.5406339455
 30
0.0
 10
12.8781671426
 20
8.5371425033
 30
0.0
 10
12.8724434343
 20
8.5342555261
 30
0.0
 10
12.8667371315
 20
8.531976692
 30
0.0
 10
12.8628851407
 20
8.5308468841
 30
0.0
 10
12.8609724949
 20
8.5303911141
 30
0.0
  0
SPLINE
  5
405
100
AcDbEntity
  8
0
100
AcDbSpline
 62
7
  6
CONTINUOUS
 70
0
 71
3
 72
53
 73
49
 74
0
 42
0.0000001
 43
0.0000001
 44
0.0000000001
 40
0.0
 40
0.0
 40
0.0
 40
0.0
 40
0.0427961252
 40
0.086106703
 40
0.1297878347
 40
0.173693731
 40
0.2176778248
 40
0.2615931479
 40
0.3052930477
 40
0.3486317782
 40
0.3914651355
 40
0.4336510843
 40
0.4750503942
 40
0.5155272859
 40
0.554950092
 40
0.5931919418
 40
0.6301314788
 40
0.6656536286
 40
0.6996504389
 40
0.7320220263
 40
0.7475700691
 40
0.7626785847
 40
0.7773379514
 40
0.791539187
 40
0.8052742532
 40
0.818535886
 40
0.8313179236
 40
0.8436151673
 40
0.855423736
 40
0.8667409819
 40
0.8775658805
 40
0.8878990342
 40
0.8977431186
 40
0.9071030169
 40
0.9159863575
 40
0.9244038347
 40
0.9323698829
 40
0.9399032333
 40
0.9470277466
 40
0.9537731813
 40
0.9601760645
 40
0.9662803849
 40
0.9721379981
 40
0.9778084666
 40
0.9833580671
 40
0.9888578952
 40
0.9943811421
 40
1.0
 40
1.0
 40
1.0
 40
1.0
 10
13.0497629662
 20
9.4778449884
 30
0.0
 10
13.0497629662
 20
9.4667118367
 30
0.0
 10
13.0495826872
 20
9.4443113262
 30
0.0
 10
13.0487862538
 20
9.4105559463
 30
0.0
 10
13.0474646839
 20
9.3765280682
 30
0.0
 10
13.0456226463
 20
9.3423489706
 30
0.0
 10
13.0432666925
 20
9.3081403802
 30
0.0
 10
13.0404052096
 20
9.2740241351
 30
0.0
 10
13.0370484054
 20
9.2401217453
 30
0.0
 10
13.0332082638
 20
9.2065539517
 30
0.0
 10
13.0288985069
 20
9.1734402954
 30
0.0
 10
13.0241345447
 20
9.1408986871
 30
0.0
 10
13.0189334218
 20
9.109044983
 30
0.0
 10
13.0133137583
 20
9.0779925655
 30
0.0
 10
13.0072956842
 20
9.0478519343
 30
0.0
 10
13.0009007705
 20
9.0187302955
 30
0.0
 10
12.9941519506
 20
8.9907311939
 30
0.0
 10
12.9870734496
 20
8.9639540301
 30
0.0
 10
12.9796906619
 20
8.9384940205
 30
0.0
 10
12.973222992
 20
8.9181859936
 30
0.0
 10
12.9679044971
 20
8.9026755849
 30
0.0
 10
12.9639098018
 20
8.8915838385
 30
0.0
 10
12.9598592633
 20
8.8808861754
 30
0.0
 10
12.9557563858
 20
8.870592093
 30
0.0
 10
12.9516049161
 20
8.860710709
 30
0.0
 10
12.9474084717
 20
8.8512507938
 30
0.0
 10
12.9431708696
 20
8.8422206986
 30
0.0
 10
12.9388957956
 20
8.8336284212
 30
0.0
 10
12.9345871204
 20
8.8254815124
 30
0.0
 10
12.9302485746
 20
8.8177871617
 30
0.0
 10
12.9258840517
 20
8.8105520861
 30
0.0
 10
12.921497295
 20
8.8037826346
 30
0.0
 10
12.9170921751
 20
8.7974846635
 30
0.0
 10
12.9126723989
 20
8.7916636591
 30
0.0
 10
12.9082417457
 20
8.7863246089
 30
0.0
 10
12.9038038096
 20
8.7814721451
 30
0.0
 10
12.8993621836
 20
8.7771104322
 30
0.0
 10
12.8949202544
 20
8.7732433376
 30
0.0
 10
12.8904813418
 20
8.7698743739
 30
0.0
 10
12.8860486008
 20
8.7670068969
 30
0.0
 10
12.8816251799
 20
8.7646441284
 30
0.0
 10
12.8772143323
 20
8.7627893016
 30
0.0
 10
12.8728196975
 20
8.7614456499
 30
0.0
 10
12.8684455784
 20
8.7606162052
 30
0.0
 10
12.8640971972
 20
8.7603034668
 30
0.0
 10
12.8597803345
 20
8.760508812
 30
0.0
 10
12.8555019292
 20
8.7612319454
 30
0.0
 10
12.8527129305
 20
8.7620482597
 30
0.0
 10
12.8513348182
 20
8.7625355044
 30
0.0
  0
SPLINE
  5
406
100
AcDbEntity
  8
0
100
AcDbSpline
 62
7
  6
CONTINUOUS
 70
0
 71
3
 72
32
 73
28
 74
0
 42
0.0000001
 43
0.0000001
 44
0.0000000001
 40
0.0
 40
0.0
 40
0.0
 40
0.0
 40
0.0718145979
 40
0.1447268076
 40
0.2182143633
 40
0.2917484842
 40
0.3648002568
 40
0.436845214
 40
0.5073681239
 40
0.5419022289
 40
0.5758693452
 40
0.6092098928
 40
0.6418658313
 40
0.6737807988
 40
0.7049002874
 40
0.7351718826
 40
0.7645454357
 40
0.792973248
 40
0.8204103184
 40
0.8468146724
 40
0.872147616
 40
0.8963740662
 40
0.9194630084
 40
0.9413880744
 40
0.962128127
 40
0.981668075
 40
1.0
 40
1.0
 40
1.0
 40
1.0
 10
12.9068948533
 20
9.4778449802
 30
0.0
 10
12.9068948533
 20
9.4625109997
 30
0.0
 10
12.9065291842
 20
9.4316076056
 30
0.0
 10
12.9049280859
 20
9.3850379746
 30
0.0
 10
12.9022809274
 20
9.338148148
 30
0.0
 10
12.8986079455
 20
9.2912977084
 30
0.0
 10
12.8939373169
 20
9.2448456185
 30
0.0
 10
12.888305026
 20
9.1991480651
 30
0.0
 10
12.8828088054
 20
9.1617305037
 30
0.0
 10
12.8779533409
 20
9.1324449561
 30
0.0
 10
12.8741258109
 20
9.1110383932
 30
0.0
 10
12.8700944733
 20
9.0900775082
 30
0.0
 10
12.8658670616
 20
9.0696024622
 30
0.0
 10
12.8614517242
 20
9.0496525217
 30
0.0
 10
12.8568569503
 20
9.0302659314
 30
0.0
 10
12.8520916012
 20
9.0114798383
 30
0.0
 10
12.8471648653
 20
8.9933302214
 30
0.0
 10
12.8420862359
 20
8.9758518326
 30
0.0
 10
12.8368654893
 20
8.9590781188
 30
0.0
 10
12.8315127016
 20
8.9430411368
 30
0.0
 10
12.8260381925
 20
8.9277714974
 30
0.0
 10
12.8204525035
 20
8.9132983143
 30
0.0
 10
12.8147663644
 20
8.899649111
 30
0.0
 10
12.8089907245
 20
8.8868497842
 30
0.0
 10
12.8031365757
 20
8.874924389
 30
0.0
 10
12.7972152422
 20
8.8638956623
 30
0.0
 10
12.7930985938
 20
8.8569318169
 30
0.0
 10
12.7910255226
 20
8.8536115988
 30
0.0
  0
SPLINE
  5
407
100
AcDbEntity
  8
0
100
AcDbSpline
 62
7
  6
CONTINUOUS
 70
0
 71
3
 72
28
 73
24
 74
0
 42
0.0000001
 43
0.0000001
 44
0.0000000001
 40
0.0
 40
0.0
 40
0.0
 40
0.0
 40
0.0676509975
 40
0.1362442884
 40
0.2054257672
 40
0.2748354795
 40
0.3441127783
 40
0.4128977225
 40
0.480833651
 40
0.5475695528
 40
0.6127624743
 40
0.6760800016
 40
0.7372028132
 40
0.7668462453
 40
0.7958285593
 40
0.8241147372
 40
0.8516711555
 40
0.8784655593
 40
0.9044673933
 40
0.9296477518
 40
0.9539795759
 40
0.9774379359
 40
1.0
 40
1.0
 40
1.0
 40
1.0
 10
12.8486912961
 20
9.4691476693
 30
0.0
 10
12.8486912961
 20
9.4572815866
 30
0.0
 10
12.8484511293
 20
9.4333835322
 30
0.0
 10
12.8473950658
 20
9.3973649795
 30
0.0
 10
12.8456458574
 20
9.3610644898
 30
0.0
 10
12.843213104
 20
9.3246832121
 30
0.0
 10
12.8401102863
 20
9.28842273
 30
0.0
 10
12.8363546315
 20
9.2524839006
 30
0.0
 10
12.8319670409
 20
9.2170657812
 30
0.0
 10
12.8269719558
 20
9.182364531
 30
0.0
 10
12.8213972424
 20
9.1485722257
 30
0.0
 10
12.8152739942
 20
9.1158760553
 30
0.0
 10
12.8096873517
 20
9.0894303102
 30
0.0
 10
12.8049586672
 20
9.0689649429
 30
0.0
 10
12.801333192
 20
9.0541573693
 30
0.0
 10
12.7975976809
 20
9.0397550278
 30
0.0
 10
12.7937573259
 20
9.0257778394
 30
0.0
 10
12.7898174351
 20
9.0122451605
 30
0.0
 10
12.7857835219
 20
8.9991757044
 30
0.0
 10
12.7816611906
 20
8.9865875508
 30
0.0
 10
12.7774561436
 20
8.9744980749
 30
0.0
 10
12.7731743077
 20
8.9629240394
 30
0.0
 10
12.7702138829
 20
8.9554136164
 30
0.0
 10
12.7687197167
 20
8.9517491069
 30
0.0
  0
SPLINE
  5
408
100
AcDbEntity
  8
0
100
AcDbSpline
 62
7
  6
CONTINUOUS
 70
0
 71
3
 72
49
 73
45
 74
0
 42
0.0000001
 43
0.0000001
 44
0.0000000001
 40
0.0
 40
0.0
 40
0.0
 40
0.0
 40
0.0993149735
 40
0.147926981
 40
0.1957330242
 40
0.2426525814
 40
0.2886078851
 40
0.3335235512
 40
0.377326532
 40
0.4199466199
 40
0.4613166609
 40
0.5013727725
 40
0.5400546525
 40
0.5773060047
 40
0.61307492
 40
0.6473142732
 40
0.6799822882
 40
0.7110433149
 40
0.740468599
 40
0.7682372936
 40
0.7943378637
 40
0.8187699615
 40
0.8303648838
 40
0.8415489047
 40
0.8523262958
 40
0.8627026725
 40
0.8726849662
 40
0.8822818645
 40
0.8915038482
 40
0.9003633831
 40
0.9088753726
 40
0.9170571867
 40
0.9249290358
 40
0.9325142852
 40
0.9398394908
 40
0.9469347004
 40
0.9538334061
 40
0.9605723516
 40
0.9671913054
 40
0.9737324153
 40
0.9802394893
 40
0.9867570905
 40
0.993329547
 40
1.0
 40
1.0
 40
1.0
 40
1.0
 10
13.0497629662
 20
9.4778449884
 30
0.0
 10
13.0497629662
 20
9.4934971275
 30
0.0
 10
13.0494996339
 20
9.516811937
 30
0.0
 10
13.0485899778
 20
9.5476467945
 30
0.0
 10
13.0476427091
 20
9.5702177224
 30
0.0
 10
13.0464273927
 20
9.5923564683
 30
0.0
 10
13.0449462721
 20
9.6140225086
 30
0.0
 10
13.0432021052
 20
9.6351762011
 30
0.0
 10
13.0411981038
 20
9.655778867
 30
0.0
 10
13.0389379771
 20
9.6757928285
 30
0.0
 10
13.0364259199
 20
9.6951815121
 30
0.0
 10
13.0336665815
 20
9.7139094958
 30
0.0
 10
13.0306650544
 20
9.7319425795
 30
0.0
 10
13.0274268971
 20
9.7492478661
 30
0.0
 10
13.0239581104
 20
9.765793826
 30
0.0
 10
13.0202651064
 20
9.7815503494
 30
0.0
 10
13.0163546874
 20
9.7964888123
 30
0.0
 10
13.01223407
 20
9.8105821749
 30
0.0
 10
13.0079108307
 20
9.8238049955
 30
0.0
 10
13.0033928361
 20
9.8361336351
 30
0.0
 10
12.9986882711
 20
9.8475458177
 30
0.0
 10
12.9945501195
 20
9.8564244953
 30
0.0
 10
12.991142484
 20
9.8630397189
 30
0.0
 10
12.9885901026
 20
9.8676723938
 30
0.0
 10
12.9859975613
 20
9.872061135
 30
0.0
 10
12.9833660132
 20
9.8762040071
 30
0.0
 10
12.9806965522
 20
9.8800991135
 30
0.0
 10
12.9779903638
 20
9.8837447261
 30
0.0
 10
12.9752486126
 20
9.8871392187
 30
0.0
 10
12.972472384
 20
9.8902810061
 30
0.0
 10
12.9696628834
 20
9.8931686972
 30
0.0
 10
12.9668212179
 20
9.8958009193
 30
0.0
 10
12.9639484979
 20
9.8981763607
 30
0.0
 10
12.9610459259
 20
9.9002938768
 30
0.0
 10
12.958114617
 20
9.9021522428
 30
0.0
 10
12.955155811
 20
9.9037503645
 30
0.0
 10
12.9521708307
 20
9.9050872449
 30
0.0
 10
12.9491610414
 20
9.9061618071
 30
0.0
 10
12.9461280272
 20
9.9069732775
 30
0.0
 10
12.9430734514
 20
9.9075209619
 30
0.0
 10
12.9399991224
 20
9.907804316
 30
0.0
 10
12.9369068482
 20
9.9078232417
 30
0.0
 10
12.9337987392
 20
9.9075777818
 30
0.0
 10
12.9317362128
 20
9.9072411656
 30
0.0
 10
12.930706183
 20
9.9070309102
 30
0.0
  0
SPLINE
  5
409
100
AcDbEntity
  8
0
100
AcDbSpline
 62
7
  6
CONTINUOUS
 70
0
 71
3
 72
27
 73
23
 74
0
 42
0.0000001
 43
0.0000001
 44
0.0000000001
 40
0.0
 40
0.0
 40
0.0
 40
0.0
 40
0.0787044704
 40
0.1560941618
 40
0.2319608211
 40
0.3061047376
 40
0.3783307117
 40
0.4484515309
 40
0.5162878343
 40
0.5816694707
 40
0.6444364651
 40
0.7044402735
 40
0.7615451871
 40
0.8156300272
 40
0.8415074331
 40
0.8665921793
 40
0.8908741754
 40
0.9143448472
 40
0.9369971486
 40
0.9588256935
 40
0.9798271212
 40
1.0
 40
1.0
 40
1.0
 40
1.0
 10
12.9068948533
 20
9.4778449802
 30
0.0
 10
12.9068948533
 20
9.4871014746
 30
0.0
 10
12.9067635421
 20
9.5054601327
 30
0.0
 10
12.9061632236
 20
9.5327356135
 30
0.0
 10
12.9051627959
 20
9.5594627342
 30
0.0
 10
12.9037652658
 20
9.585563939
 30
0.0
 10
12.9019747318
 20
9.6109638252
 30
0.0
 10
12.8997964931
 20
9.6355888657
 30
0.0
 10
12.8972369612
 20
9.6593678785
 30
0.0
 10
12.8943036822
 20
9.6822321504
 30
0.0
 10
12.8910052932
 20
9.7041156554
 30
0.0
 10
12.8873515235
 20
9.7249553492
 30
0.0
 10
12.8833530919
 20
9.7446910438
 30
0.0
 10
12.8796918931
 20
9.7603933171
 30
0.0
 10
12.8765874731
 20
9.7723521251
 30
0.0
 10
12.8742147215
 20
9.7808781309
 30
0.0
 10
12.8717649427
 20
9.7890873852
 30
0.0
 10
12.8692398939
 20
9.7969739909
 30
0.0
 10
12.8666414224
 20
9.8045322702
 30
0.0
 10
12.863971361
 20
9.8117568136
 30
0.0
 10
12.8612317228
 20
9.8186423772
 30
0.0
 10
12.8593216945
 20
9.8230931361
 30
0.0
 10
12.8583539048
 20
9.8252593234
 30
0.0
  0
SPLINE
  5
40A
100
AcDbEntity
  8
0
100
AcDbSpline
 62
7
  6
CONTINUOUS
 70
0
 71
3
 72
21
 73
17
 74
0
 42
0.0000001
 43
0.0000001
 44
0.0000000001
 40
0.0
 40
0.0
 40
0.0
 40
0.0
 40
0.1443603528
 40
0.2847665515
 40
0.3532224827
 40
0.4203746268
 40
0.4861234154
 40
0.5503721331
 40
0.6130273716
 40
0.6739992884
 40
0.733202112
 40
0.7905543559
 40
0.8459790822
 40
0.8994046253
 40
0.9507649357
 40
1.0
 40
1.0
 40
1.0
 40
1.0
 10
12.8486912961
 20
9.4691476693
 30
0.0
 10
12.8486912961
 20
9.4818375729
 30
0.0
 10
12.8484223574
 20
9.5068706869
 30
0.0
 10
12.8473813899
 20
9.5379060724
 30
0.0
 10
12.8461228931
 20
9.5621368171
 30
0.0
 10
12.8449818574
 20
9.5798006485
 30
0.0
 10
12.843637692
 20
9.5970792724
 30
0.0
 10
12.8420926269
 20
9.6139442183
 30
0.0
 10
12.8403492528
 20
9.6303676536
 30
0.0
 10
12.8384104516
 20
9.6463224881
 30
0.0
 10
12.8362794733
 20
9.6617824185
 30
0.0
 10
12.8339598815
 20
9.6767219708
 30
0.0
 10
12.83145552
 20
9.691116525
 30
0.0
 10
12.8287705705
 20
9.7049424264
 30
0.0
 10
12.8259095544
 20
9.718176834
 30
0.0
 10
12.823843544
 20
9.7267759081
 30
0.0
 10
12.8227788396
 20
9.7309708796
 30
0.0
  0
SPLINE
  5
40B
100
AcDbEntity
  8
0
100
AcDbSpline
 62
7
  6
CONTINUOUS
 70
0
 71
3
 72
45
 73
41
 74
0
 42
0.0000001
 43
0.0000001
 44
0.0000000001
 40
0.0
 40
0.0
 40
0.0
 40
0.0
 40
0.0929727999
 40
0.138605676
 40
0.1835880376
 40
0.2278594548
 40
0.2713612075
 40
0.3140361729
 40
0.3558286365
 40
0.3966846805
 40
0.4365522427
 40
0.4753812319
 40
0.5131237515
 40
0.5497343038
 40
0.5851699205
 40
0.6193903881
 40
0.652358589
 40
0.6840407424
 40
0.7144067096
 40
0.7434304672
 40
0.7710906594
 40
0.797371137
 40
0.8222617456
 40
0.8457594184
 40
0.8678693967
 40
0.878409124
 40
0.8886086093
 40
0.8984716043
 40
0.9080028749
 40
0.9172081787
 40
0.9260943488
 40
0.9346695771
 40
0.9429433874
 40
0.9509268331
 40
0.9586327425
 40
0.966075724
 40
0.9732724195
 40
0.9869982417
 40
0.9935778781
 40
1.0
 40
1.0
 40
1.0
 40
1.0
 10
13.1098089351
 20
7.6039931769
 30
0.0
 10
13.1098089351
 20
7.6236236616
 30
0.0
 10
13.1095133632
 20
7.6528905178
 30
0.0
 10
13.1084967387
 20
7.691640912
 30
0.0
 10
13.1074367777
 20
7.7201020848
 30
0.0
 10
13.10607624
 20
7.7480999548
 30
0.0
 10
13.1044171188
 20
7.7755937068
 30
0.0
 10
13.1024618681
 20
7.8025432606
 30
0.0
 10
13.1002133418
 20
7.8289093705
 30
0.0
 10
13.0976748622
 20
7.8546536256
 30
0.0
 10
13.0948501686
 20
7.8797385384
 30
0.0
 10
13.0917434029
 20
7.9041275817
 30
0.0
 10
13.0883591289
 20
7.9277852556
 30
0.0
 10
13.0847023385
 20
7.9506771464
 30
0.0
 10
13.080778408
 20
7.9727699652
 30
0.0
 10
13.0765930877
 20
7.9940316015
 30
0.0
 10
13.0721525421
 20
8.0144311908
 30
0.0
 10
13.0674633032
 20
8.0339391568
 30
0.0
 10
13.062532241
 20
8.0525272488
 30
0.0
 10
13.0573665704
 20
8.0701686034
 30
0.0
 10
13.0519738566
 20
8.0868378212
 30
0.0
 10
13.0463619508
 20
8.1025109491
 30
0.0
 10
13.0405389173
 20
8.1171656849
 30
0.0
 10
13.0345131517
 20
8.1307809193
 30
0.0
 10
13.0292490118
 20
8.141408415
 30
0.0
 10
13.0249325434
 20
8.1493605841
 30
0.0
 10
13.0217017118
 20
8.1549572022
 30
0.0
 10
13.0184267949
 20
8.1602797418
 30
0.0
 10
13.0151089424
 20
8.1653263234
 30
0.0
 10
13.0117493376
 20
8.1700951449
 30
0.0
 10
13.0083490855
 20
8.1745844563
 30
0.0
 10
13.0049094048
 20
8.1787926801
 30
0.0
 10
13.0014314543
 20
8.1827182831
 30
0.0
 10
12.9979163305
 20
8.1863598123
 30
0.0
 10
12.9943653591
 20
8.1897159092
 30
0.0
 10
12.9907793021
 20
8.1927854856
 30
0.0
 10
12.986029134
 20
8.1964361079
 30
0.0
 10
12.9811326175
 20
8.1995888242
 30
0.0
 10
12.9761121254
 20
8.2021729434
 30
0.0
 10
12.9735902504
 20
8.2032642444
 30
0.0
 10
12.9723275133
 20
8.20375839
 30
0.0
  0
SPLINE
  5
40C
100
AcDbEntity
  8
0
100
AcDbSpline
 62
7
  6
CONTINUOUS
 70
0
 71
3
 72
52
 73
48
 74
0
 42
0.0000001
 43
0.0000001
 44
0.0000000001
 40
0.0
 40
0.0
 40
0.0
 40
0.0
 40
0.0405922932
 40
0.0816448219
 40
0.1230414821
 40
0.1646646024
 40
0.2063958701
 40
0.2481165126
 40
0.2897078192
 40
0.331051539
 40
0.3720303197
 40
0.412528137
 40
0.4524307289
 40
0.4916260359
 40
0.5300046464
 40
0.5674602541
 40
0.6038901293
 40
0.6391956118
 40
0.6732826345
 40
0.7060622898
 40
0.7374514578
 40
0.7526007181
 40
0.7673741952
 40
0.7817634835
 40
0.7957606757
 40
0.8093584388
 40
0.8225500354
 40
0.835329375
 40
0.8476910853
 40
0.8596305425
 40
0.8711439992
 40
0.8822286021
 40
0.8928825858
 40
0.9031052907
 40
0.9128974354
 40
0.9222611578
 40
0.9312003799
 40
0.939720906
 40
0.9478309
 40
0.9555410803
 40
0.9628653261
 40
0.9698210021
 40
0.9764296757
 40
0.9827175426
 40
0.9887161223
 40
0.9944625745
 40
1.0
 40
1.0
 40
1.0
 40
1.0
 10
13.1098089351
 20
7.6039931769
 30
0.0
 10
13.1098089351
 20
7.5895798825
 30
0.0
 10
13.1095936827
 20
7.5605894588
 30
0.0
 10
13.1086413628
 20
7.5169095327
 30
0.0
 10
13.1070603273
 20
7.4728815203
 30
0.0
 10
13.1048553312
 20
7.4286390903
 30
0.0
 10
13.1020330544
 20
7.3843164771
 30
0.0
 10
13.0986020504
 20
7.3400481571
 30
0.0
 10
13.0945727389
 20
7.2959684474
 30
0.0
 10
13.0899573648
 20
7.2522110863
 30
0.0
 10
13.0847699655
 20
7.2089088291
 30
0.0
 10
13.0790263267
 20
7.1661930411
 30
0.0
 10
13.0727439362
 20
7.1241932961
 30
0.0
 10
13.0659419312
 20
7.0830369792
 30
0.0
 10
13.0586410415
 20
7.0428488955
 30
0.0
 10
13.0508635275
 20
7.0037508865
 30
0.0
 10
13.0426331149
 20
6.9658614461
 30
0.0
 10
13.0339749209
 20
6.9292953764
 30
0.0
 10
13.024915388
 20
6.8941633328
 30
0.0
 10
13.0154821719
 20
6.8605717994
 30
0.0
 10
13.0072393677
 20
6.8336379479
 30
0.0
 10
13.0004673539
 20
6.8129471395
 30
0.0
 10
12.9953730858
 20
6.798060043
 30
0.0
 10
12.9902073787
 20
6.7836313361
 30
0.0
 10
12.9849741086
 20
6.7696719303
 30
0.0
 10
12.9796772722
 20
6.756192389
 30
0.0
 10
12.974320888
 20
6.7432029043
 30
0.0
 10
12.9689090187
 20
6.7307132916
 30
0.0
 10
12.963445784
 20
6.7187329751
 30
0.0
 10
12.9579353019
 20
6.7072709933
 30
0.0
 10
12.9523817751
 20
6.6963359667
 30
0.0
 10
12.9467893564
 20
6.6859361266
 30
0.0
 10
12.9411623091
 20
6.6760792554
 30
0.0
 10
12.9355047944
 20
6.6667727501
 30
0.0
 10
12.9298211048
 20
6.6580235234
 30
0.0
 10
12.9241153737
 20
6.6498381163
 30
0.0
 10
12.9183918762
 20
6.6422225487
 30
0.0
 10
12.9126546661
 20
6.635182499
 30
0.0
 10
12.9069079323
 20
6.6287230945
 30
0.0
 10
12.9011555797
 20
6.6228491821
 30
0.0
 10
12.8954016219
 20
6.617565055
 30
0.0
 10
12.8896497521
 20
6.612874843
 30
0.0
 10
12.8839037348
 20
6.6087821784
 30
0.0
 10
12.8781671426
 20
6.6052907363
 30
0.0
 10
12.8724434343
 20
6.602403759
 30
0.0
 10
12.8667371315
 20
6.6001249249
 30
0.0
 10
12.8628851407
 20
6.598995117
 30
0.0
 10
12.8609724949
 20
6.598539347
 30
0.0
  0
SPLINE
  5
40D
100
AcDbEntity
  8
0
100
AcDbSpline
 62
7
  6
CONTINUOUS
 70
0
 71
3
 72
53
 73
49
 74
0
 42
0.0000001
 43
0.0000001
 44
0.0000000001
 40
0.0
 40
0.0
 40
0.0
 40
0.0
 40
0.0427961252
 40
0.086106703
 40
0.1297878347
 40
0.173693731
 40
0.2176778248
 40
0.2615931479
 40
0.3052930477
 40
0.3486317782
 40
0.3914651355
 40
0.4336510843
 40
0.4750503942
 40
0.5155272859
 40
0.554950092
 40
0.5931919418
 40
0.6301314788
 40
0.6656536286
 40
0.6996504389
 40
0.7320220263
 40
0.7475700691
 40
0.7626785847
 40
0.7773379514
 40
0.791539187
 40
0.8052742532
 40
0.818535886
 40
0.8313179236
 40
0.8436151673
 40
0.855423736
 40
0.8667409819
 40
0.8775658805
 40
0.8878990342
 40
0.8977431186
 40
0.9071030169
 40
0.9159863575
 40
0.9244038347
 40
0.9323698829
 40
0.9399032333
 40
0.9470277466
 40
0.9537731813
 40
0.9601760645
 40
0.9662803849
 40
0.9721379981
 40
0.9778084666
 40
0.9833580671
 40
0.9888578952
 40
0.9943811421
 40
1.0
 40
1.0
 40
1.0
 40
1.0
 10
13.0497629662
 20
7.5459932213
 30
0.0
 10
13.0497629662
 20
7.5348600697
 30
0.0
 10
13.0495826872
 20
7.5124595591
 30
0.0
 10
13.0487862538
 20
7.4787041793
 30
0.0
 10
13.0474646839
 20
7.4446763012
 30
0.0
 10
13.0456226463
 20
7.4104972036
 30
0.0
 10
13.0432666925
 20
7.3762886131
 30
0.0
 10
13.0404052096
 20
7.342172368
 30
0.0
 10
13.0370484054
 20
7.3082699782
 30
0.0
 10
13.0332082638
 20
7.2747021846
 30
0.0
 10
13.0288985069
 20
7.2415885284
 30
0.0
 10
13.0241345447
 20
7.2090469201
 30
0.0
 10
13.0189334218
 20
7.177193216
 30
0.0
 10
13.0133137583
 20
7.1461407984
 30
0.0
 10
13.0072956842
 20
7.1160001672
 30
0.0
 10
13.0009007705
 20
7.0868785285
 30
0.0
 10
12.9941519506
 20
7.0588794268
 30
0.0
 10
12.9870734496
 20
7.0321022631
 30
0.0
 10
12.9796906619
 20
7.0066422534
 30
0.0
 10
12.973222992
 20
6.9863342266
 30
0.0
 10
12.9679044971
 20
6.9708238179
 30
0.0
 10
12.9639098018
 20
6.9597320714
 30
0.0
 10
12.9598592633
 20
6.9490344084
 30
0.0
 10
12.9557563858
 20
6.938740326
 30
0.0
 10
12.9516049161
 20
6.9288589419
 30
0.0
 10
12.9474084717
 20
6.9193990268
 30
0.0
 10
12.9431708696
 20
6.9103689316
 30
0.0
 10
12.9388957956
 20
6.9017766542
 30
0.0
 10
12.9345871204
 20
6.8936297454
 30
0.0
 10
12.9302485746
 20
6.8859353946
 30
0.0
 10
12.9258840517
 20
6.878700319
 30
0.0
 10
12.921497295
 20
6.8719308675
 30
0.0
 10
12.9170921751
 20
6.8656328964
 30
0.0
 10
12.9126723989
 20
6.859811892
 30
0.0
 10
12.9082417457
 20
6.8544728419
 30
0.0
 10
12.9038038096
 20
6.849620378
 30
0.0
 10
12.8993621836
 20
6.8452586651
 30
0.0
 10
12.8949202544
 20
6.8413915705
 30
0.0
 10
12.8904813418
 20
6.8380226069
 30
0.0
 10
12.8860486008
 20
6.8351551298
 30
0.0
 10
12.8816251799
 20
6.8327923613
 30
0.0
 10
12.8772143323
 20
6.8309375346
 30
0.0
 10
12.8728196975
 20
6.8295938828
 30
0.0
 10
12.8684455784
 20
6.8287644382
 30
0.0
 10
12.8640971972
 20
6.8284516997
 30
0.0
 10
12.8597803345
 20
6.8286570449
 30
0.0
 10
12.8555019292
 20
6.8293801783
 30
0.0
 10
12.8527129305
 20
6.8301964926
 30
0.0
 10
12.8513348182
 20
6.8306837374
 30
0.0
  0
SPLINE
  5
40E
100
AcDbEntity
  8
0
100
AcDbSpline
 62
7
  6
CONTINUOUS
 70
0
 71
3
 72
32
 73
28
 74
0
 42
0.0000001
 43
0.0000001
 44
0.0000000001
 40
0.0
 40
0.0
 40
0.0
 40
0.0
 40
0.0718145979
 40
0.1447268076
 40
0.2182143633
 40
0.2917484842
 40
0.3648002568
 40
0.436845214
 40
0.5073681239
 40
0.5419022289
 40
0.5758693452
 40
0.6092098928
 40
0.6418658313
 40
0.6737807988
 40
0.7049002874
 40
0.7351718826
 40
0.7645454357
 40
0.792973248
 40
0.8204103184
 40
0.8468146724
 40
0.872147616
 40
0.8963740662
 40
0.9194630084
 40
0.9413880744
 40
0.962128127
 40
0.981668075
 40
1.0
 40
1.0
 40
1.0
 40
1.0
 10
12.9068948533
 20
7.5459932132
 30
0.0
 10
12.9068948533
 20
7.5306592326
 30
0.0
 10
12.9065291842
 20
7.4997558386
 30
0.0
 10
12.9049280859
 20
7.4531862076
 30
0.0
 10
12.9022809274
 20
7.406296381
 30
0.0
 10
12.8986079455
 20
7.3594459413
 30
0.0
 10
12.8939373169
 20
7.3129938515
 30
0.0
 10
12.888305026
 20
7.2672962981
 30
0.0
 10
12.8828088054
 20
7.2298787366
 30
0.0
 10
12.8779533409
 20
7.200593189
 30
0.0
 10
12.8741258109
 20
7.1791866262
 30
0.0
 10
12.8700944733
 20
7.1582257411
 30
0.0
 10
12.8658670616
 20
7.1377506952
 30
0.0
 10
12.8614517242
 20
7.1178007547
 30
0.0
 10
12.8568569503
 20
7.0984141643
 30
0.0
 10
12.8520916012
 20
7.0796280713
 30
0.0
 10
12.8471648653
 20
7.0614784543
 30
0.0
 10
12.8420862359
 20
7.0440000656
 30
0.0
 10
12.8368654893
 20
7.0272263517
 30
0.0
 10
12.8315127016
 20
7.0111893697
 30
0.0
 10
12.8260381925
 20
6.9959197303
 30
0.0
 10
12.8204525035
 20
6.9814465473
 30
0.0
 10
12.8147663644
 20
6.967797344
 30
0.0
 10
12.8089907245
 20
6.9549980171
 30
0.0
 10
12.8031365757
 20
6.943072622
 30
0.0
 10
12.7972152422
 20
6.9320438953
 30
0.0
 10
12.7930985938
 20
6.9250800499
 30
0.0
 10
12.7910255226
 20
6.9217598318
 30
0.0
  0
SPLINE
  5
40F
100
AcDbEntity
  8
0
100
AcDbSpline
 62
7
  6
CONTINUOUS
 70
0
 71
3
 72
28
 73
24
 74
0
 42
0.0000001
 43
0.0000001
 44
0.0000000001
 40
0.0
 40
0.0
 40
0.0
 40
0.0
 40
0.0676509975
 40
0.1362442884
 40
0.2054257672
 40
0.2748354795
 40
0.3441127783
 40
0.4128977225
 40
0.480833651
 40
0.5475695528
 40
0.6127624743
 40
0.6760800016
 40
0.7372028132
 40
0.7668462453
 40
0.7958285593
 40
0.8241147372
 40
0.8516711555
 40
0.8784655593
 40
0.9044673933
 40
0.9296477518
 40
0.9539795759
 40
0.9774379359
 40
1.0
 40
1.0
 40
1.0
 40
1.0
 10
12.8486912961
 20
7.5372959023
 30
0.0
 10
12.8486912961
 20
7.5254298196
 30
0.0
 10
12.8484511293
 20
7.5015317652
 30
0.0
 10
12.8473950658
 20
7.4655132124
 30
0.0
 10
12.8456458574
 20
7.4292127228
 30
0.0
 10
12.843213104
 20
7.3928314451
 30
0.0
 10
12.8401102863
 20
7.356570963
 30
0.0
 10
12.8363546315
 20
7.3206321336
 30
0.0
 10
12.8319670409
 20
7.2852140141
 30
0.0
 10
12.8269719558
 20
7.250512764
 30
0.0
 10
12.8213972424
 20
7.2167204587
 30
0.0
 10
12.8152739942
 20
7.1840242882
 30
0.0
 10
12.8096873517
 20
7.1575785431
 30
0.0
 10
12.8049586672
 20
7.1371131759
 30
0.0
 10
12.801333192
 20
7.1223056022
 30
0.0
 10
12.7975976809
 20
7.1079032608
 30
0.0
 10
12.7937573259
 20
7.0939260724
 30
0.0
 10
12.7898174351
 20
7.0803933935
 30
0.0
 10
12.7857835219
 20
7.0673239374
 30
0.0
 10
12.7816611906
 20
7.0547357838
 30
0.0
 10
12.7774561436
 20
7.0426463078
 30
0.0
 10
12.7731743077
 20
7.0310722724
 30
0.0
 10
12.7702138829
 20
7.0235618494
 30
0.0
 10
12.7687197167
 20
7.0198973399
 30
0.0
  0
SPLINE
  5
410
100
AcDbEntity
  8
0
100
AcDbSpline
 62
7
  6
CONTINUOUS
 70
0
 71
3
 72
49
 73
45
 74
0
 42
0.0000001
 43
0.0000001
 44
0.0000000001
 40
0.0
 40
0.0
 40
0.0
 40
0.0
 40
0.0993149735
 40
0.147926981
 40
0.1957330242
 40
0.2426525814
 40
0.2886078851
 40
0.3335235512
 40
0.377326532
 40
0.4199466199
 40
0.4613166609
 40
0.5013727725
 40
0.5400546525
 40
0.5773060047
 40
0.61307492
 40
0.6473142732
 40
0.6799822882
 40
0.7110433149
 40
0.740468599
 40
0.7682372936
 40
0.7943378637
 40
0.8187699615
 40
0.8303648838
 40
0.8415489047
 40
0.8523262958
 40
0.8627026725
 40
0.8726849662
 40
0.8822818645
 40
0.8915038482
 40
0.9003633831
 40
0.9088753726
 40
0.9170571867
 40
0.9249290358
 40
0.9325142852
 40
0.9398394908
 40
0.9469347004
 40
0.9538334061
 40
0.9605723516
 40
0.9671913054
 40
0.9737324153
 40
0.9802394893
 40
0.9867570905
 40
0.993329547
 40
1.0
 40
1.0
 40
1.0
 40
1.0
 10
13.0497629662
 20
7.5459932213
 30
0.0
 10
13.0497629662
 20
7.5616453604
 30
0.0
 10
13.0494996339
 20
7.5849601699
 30
0.0
 10
13.0485899778
 20
7.6157950275
 30
0.0
 10
13.0476427091
 20
7.6383659554
 30
0.0
 10
13.0464273927
 20
7.6605047013
 30
0.0
 10
13.0449462721
 20
7.6821707416
 30
0.0
 10
13.0432021052
 20
7.7033244341
 30
0.0
 10
13.0411981038
 20
7.7239270999
 30
0.0
 10
13.0389379771
 20
7.7439410615
 30
0.0
 10
13.0364259199
 20
7.763329745
 30
0.0
 10
13.0336665815
 20
7.7820577288
 30
0.0
 10
13.0306650544
 20
7.8000908125
 30
0.0
 10
13.0274268971
 20
7.817396099
 30
0.0
 10
13.0239581104
 20
7.833942059
 30
0.0
 10
13.0202651064
 20
7.8496985824
 30
0.0
 10
13.0163546874
 20
7.8646370452
 30
0.0
 10
13.01223407
 20
7.8787304079
 30
0.0
 10
13.0079108307
 20
7.8919532285
 30
0.0
 10
13.0033928361
 20
7.9042818681
 30
0.0
 10
12.9986882711
 20
7.9156940506
 30
0.0
 10
12.9945501195
 20
7.9245727283
 30
0.0
 10
12.991142484
 20
7.9311879518
 30
0.0
 10
12.9885901026
 20
7.9358206267
 30
0.0
 10
12.9859975613
 20
7.9402093679
 30
0.0
 10
12.9833660132
 20
7.9443522401
 30
0.0
 10
12.9806965522
 20
7.9482473464
 30
0.0
 10
12.9779903638
 20
7.9518929591
 30
0.0
 10
12.9752486126
 20
7.9552874517
 30
0.0
 10
12.972472384
 20
7.9584292391
 30
0.0
 10
12.9696628834
 20
7.9613169301
 30
0.0
 10
12.9668212179
 20
7.9639491523
 30
0.0
 10
12.9639484979
 20
7.9663245937
 30
0.0
 10
12.9610459259
 20
7.9684421098
 30
0.0
 10
12.958114617
 20
7.9703004758
 30
0.0
 10
12.955155811
 20
7.9718985974
 30
0.0
 10
12.9521708307
 20
7.9732354778
 30
0.0
 10
12.9491610414
 20
7.9743100401
 30
0.0
 10
12.9461280272
 20
7.9751215105
 30
0.0
 10
12.9430734514
 20
7.9756691949
 30
0.0
 10
12.9399991224
 20
7.975952549
 30
0.0
 10
12.9369068482
 20
7.9759714746
 30
0.0
 10
12.9337987392
 20
7.9757260148
 30
0.0
 10
12.9317362128
 20
7.9753893985
 30
0.0
 10
12.930706183
 20
7.9751791432
 30
0.0
  0
SPLINE
  5
411
100
AcDbEntity
  8
0
100
AcDbSpline
 62
7
  6
CONTINUOUS
 70
0
 71
3
 72
27
 73
23
 74
0
 42
0.0000001
 43
0.0000001
 44
0.0000000001
 40
0.0
 40
0.0
 40
0.0
 40
0.0
 40
0.0787044704
 40
0.1560941618
 40
0.2319608211
 40
0.3061047376
 40
0.3783307117
 40
0.4484515309
 40
0.5162878343
 40
0.5816694707
 40
0.6444364651
 40
0.7044402735
 40
0.7615451871
 40
0.8156300272
 40
0.8415074331
 40
0.8665921793
 40
0.8908741754
 40
0.9143448472
 40
0.9369971486
 40
0.9588256935
 40
0.9798271212
 40
1.0
 40
1.0
 40
1.0
 40
1.0
 10
12.9068948533
 20
7.5459932132
 30
0.0
 10
12.9068948533
 20
7.5552497075
 30
0.0
 10
12.9067635421
 20
7.5736083657
 30
0.0
 10
12.9061632236
 20
7.6008838464
 30
0.0
 10
12.9051627959
 20
7.6276109671
 30
0.0
 10
12.9037652658
 20
7.6537121719
 30
0.0
 10
12.9019747318
 20
7.6791120581
 30
0.0
 10
12.8997964931
 20
7.7037370986
 30
0.0
 10
12.8972369612
 20
7.7275161115
 30
0.0
 10
12.8943036822
 20
7.7503803833
 30
0.0
 10
12.8910052932
 20
7.7722638884
 30
0.0
 10
12.8873515235
 20
7.7931035822
 30
0.0
 10
12.8833530919
 20
7.8128392768
 30
0.0
 10
12.8796918931
 20
7.8285415501
 30
0.0
 10
12.8765874731
 20
7.840500358
 30
0.0
 10
12.8742147215
 20
7.8490263639
 30
0.0
 10
12.8717649427
 20
7.8572356182
 30
0.0
 10
12.8692398939
 20
7.8651222238
 30
0.0
 10
12.8666414224
 20
7.8726805031
 30
0.0
 10
12.863971361
 20
7.8799050466
 30
0.0
 10
12.8612317228
 20
7.8867906101
 30
0.0
 10
12.8593216945
 20
7.8912413691
 30
0.0
 10
12.8583539048
 20
7.8934075564
 30
0.0
  0
SPLINE
  5
412
100
AcDbEntity
  8
0
100
AcDbSpline
 62
7
  6
CONTINUOUS
 70
0
 71
3
 72
21
 73
17
 74
0
 42
0.0000001
 43
0.0000001
 44
0.0000000001
 40
0.0
 40
0.0
 40
0.0
 40
0.0
 40
0.1443603528
 40
0.2847665515
 40
0.3532224827
 40
0.4203746268
 40
0.4861234154
 40
0.5503721331
 40
0.6130273716
 40
0.6739992884
 40
0.733202112
 40
0.7905543559
 40
0.8459790822
 40
0.8994046253
 40
0.9507649357
 40
1.0
 40
1.0
 40
1.0
 40
1.0
 10
12.8486912961
 20
7.5372959023
 30
0.0
 10
12.8486912961
 20
7.5499858058
 30
0.0
 10
12.8484223574
 20
7.5750189198
 30
0.0
 10
12.8473813899
 20
7.6060543054
 30
0.0
 10
12.8461228931
 20
7.6302850501
 30
0.0
 10
12.8449818574
 20
7.6479488815
 30
0.0
 10
12.843637692
 20
7.6652275054
 30
0.0
 10
12.8420926269
 20
7.6820924512
 30
0.0
 10
12.8403492528
 20
7.6985158866
 30
0.0
 10
12.8384104516
 20
7.714470721
 30
0.0
 10
12.8362794733
 20
7.7299306514
 30
0.0
 10
12.8339598815
 20
7.7448702037
 30
0.0
 10
12.83145552
 20
7.759264758
 30
0.0
 10
12.8287705705
 20
7.7730906594
 30
0.0
 10
12.8259095544
 20
7.7863250669
 30
0.0
 10
12.823843544
 20
7.7949241411
 30
0.0
 10
12.8227788396
 20
7.7991191125
 30
0.0
  0
SPLINE
  5
413
100
AcDbEntity
  8
0
100
AcDbSpline
 62
7
  6
CONTINUOUS
 70
0
 71
3
 72
48
 73
44
 74
0
 42
0.0000001
 43
0.0000001
 44
0.0000000001
 40
0.0
 40
0.0
 40
0.0
 40
0.0
 40
0.0958287078
 40
0.1428189802
 40
0.1890972253
 40
0.2345925351
 40
0.2792363692
 40
0.3229619627
 40
0.3657045591
 40
0.4074016611
 40
0.4479931951
 40
0.487421778
 40
0.5256329369
 40
0.5625753586
 40
0.5982011858
 40
0.6324663776
 40
0.665331128
 40
0.6967603047
 40
0.7267240134
 40
0.755198301
 40
0.7821660712
 40
0.8076181778
 40
0.819776277
 40
0.8315564256
 40
0.8429604214
 40
0.8539909461
 40
0.8646515232
 40
0.8749468216
 40
0.8848825944
 40
0.8944658812
 40
0.9037052143
 40
0.9126106219
 40
0.9211939867
 40
0.9294691045
 40
0.9374518915
 40
0.9451606619
 40
0.9598348196
 40
0.9668566843
 40
0.973703554
 40
0.9804067973
 40
0.987000038
 40
0.9935188112
 40
1.0
 40
1.0
 40
1.0
 40
1.0
 10
11.2026067508
 20
11.2579993025
 30
0.0
 10
11.2236258705
 20
11.2565416216
 30
0.0
 10
11.254929425
 20
11.254020094
 30
0.0
 10
11.2963060657
 20
11.2499430962
 30
0.0
 10
11.3266308076
 20
11.2465817306
 30
0.0
 10
11.356398845
 20
11.2429025971
 30
0.0
 10
11.3855604023
 20
11.2389118597
 30
0.0
 10
11.4140667395
 20
11.234616238
 30
0.0
 10
11.4418702252
 20
11.2300229482
 30
0.0
 10
11.4689243974
 20
11.2251397133
 30
0.0
 10
11.4951840645
 20
11.2199747346
 30
0.0
 10
11.5206053817
 20
11.2145367035
 30
0.0
 10
11.5451459286
 20
11.2088347695
 30
0.0
 10
11.5687647743
 20
11.2028785222
 30
0.0
 10
11.5914225509
 20
11.1966779731
 30
0.0
 10
11.6130815364
 20
11.1902435409
 30
0.0
 10
11.6337057287
 20
11.183586044
 30
0.0
 10
11.653260919
 20
11.1767166523
 30
0.0
 10
11.6717147139
 20
11.1696468722
 30
0.0
 10
11.6890367543
 20
11.1623884736
 30
0.0
 10
11.705198304
 20
11.1549535625
 30
0.0
 10
11.7178639112
 20
11.1485264343
 30
0.0
 10
11.7273810704
 20
11.143295161
 30
0.0
 10
11.7341030469
 20
11.1393952783
 30
0.0
 10
11.7405156449
 20
11.1354606161
 30
0.0
 10
11.7466162507
 20
11.1314927968
 30
0.0
 10
11.7524023081
 20
11.1274933849
 30
0.0
 10
11.7578714638
 20
11.1234640598
 30
0.0
 10
11.7630214544
 20
11.1194064262
 30
0.0
 10
11.7678501345
 20
11.1153220825
 30
0.0
 10
11.7723555545
 20
11.1112127042
 30
0.0
 10
11.7765357822
 20
11.1070798437
 30
0.0
 10
11.7803891182
 20
11.1029251151
 30
0.0
 10
11.7839138564
 20
11.0987502341
 30
0.0
 10
11.7871086432
 20
11.0945563106
 30
0.0
 10
11.7908640108
 20
11.0890336872
 30
0.0
 10
11.7940411694
 20
11.0833805158
 30
0.0
 10
11.7965584533
 20
11.0776274601
 30
0.0
 10
11.7980825949
 20
11.0733647271
 30
0.0
 10
11.7992691947
 20
11.0690936511
 30
0.0
 10
11.8001174299
 20
11.0648159044
 30
0.0
 10
11.8006266297
 20
11.0605340008
 30
0.0
 10
11.8007399537
 20
11.0576744589
 30
0.0
 10
11.8007399537
 20
11.0562494571
 30
0.0
  0
SPLINE
  5
414
100
AcDbEntity
  8
0
100
AcDbSpline
 62
7
  6
CONTINUOUS
 70
0
 71
3
 72
52
 73
48
 74
0
 42
0.0000001
 43
0.0000001
 44
0.0000000001
 40
0.0
 40
0.0
 40
0.0
 40
0.0
 40
0.0406594508
 40
0.0817570597
 40
0.1231780207
 40
0.1648060636
 40
0.2065243276
 40
0.2482155621
 40
0.2897626356
 40
0.3310489328
 40
0.3719587887
 40
0.4123779143
 40
0.452193829
 40
0.4912962979
 40
0.5295777764
 40
0.5669338672
 40
0.6032637936
 40
0.6384708956
 40
0.6724631597
 40
0.7051537949
 40
0.7364618745
 40
0.7515743021
 40
0.76631379
 40
0.7806722547
 40
0.7946420855
 40
0.8082162956
 40
0.8213884641
 40
0.8341528766
 40
0.8465045047
 40
0.8584391365
 40
0.8699534057
 40
0.8810449143
 40
0.8917123251
 40
0.901955486
 40
0.9117756006
 40
0.9211753712
 40
0.9301592666
 40
0.9387337081
 40
0.9469074553
 40
0.9546918645
 40
0.9621014058
 40
0.9691540099
 40
0.9758716904
 40
0.9822809308
 40
0.9884132717
 40
0.9943055303
 40
1.0
 40
1.0
 40
1.0
 40
1.0
 10
11.2026067508
 20
11.2270896735
 30
0.0
 10
11.1882538633
 20
11.2280850497
 30
0.0
 10
11.1593777304
 20
11.2298666897
 30
0.0
 10
11.1158375045
 20
11.2319081141
 30
0.0
 10
11.0719296312
 20
11.233329147
 30
0.0
 10
11.0277863825
 20
11.2341254651
 30
0.0
 10
10.983540641
 20
11.2342946629
 30
0.0
 10
10.9393256027
 20
11.2338362235
 30
0.0
 10
10.8952743757
 20
11.2327515383
 30
0.0
 10
10.8515195691
 20
11.2310438941
 30
0.0
 10
10.8081928952
 20
11.2287184674
 30
0.0
 10
10.7654247682
 20
11.2257823079
 30
0.0
 10
10.7233439094
 20
11.2222443187
 30
0.0
 10
10.682076955
 20
11.2181152305
 30
0.0
 10
10.6417480696
 20
11.21340757
 30
0.0
 10
10.6024785682
 20
11.2081356243
 30
0.0
 10
10.5643865356
 20
11.2023153995
 30
0.0
 10
10.5275864873
 20
11.1959645707
 30
0.0
 10
10.4921889131
 20
11.1891024422
 30
0.0
 10
10.4583002717
 20
11.1817498452
 30
0.0
 10
10.4310906969
 20
11.1751574251
 30
0.0
 10
10.410163316
 20
11.1696416625
 30
0.0
 10
10.3950922895
 20
11.1654450636
 30
0.0
 10
10.3804719206
 20
11.1611432108
 30
0.0
 10
10.3663131784
 20
11.1567392662
 30
0.0
 10
10.3526266904
 20
11.1522366086
 30
0.0
 10
10.3394227293
 20
11.1476385877
 30
0.0
 10
10.3267111876
 20
11.1429487066
 30
0.0
 10
10.3145015908
 20
11.1381704648
 30
0.0
 10
10.3028030675
 20
11.1333074797
 30
0.0
 10
10.2916243607
 20
11.1283633848
 30
0.0
 10
10.2809738045
 20
11.1233418916
 30
0.0
 10
10.2708593253
 20
11.1182467487
 30
0.0
 10
10.2612884357
 20
11.1130817347
 30
0.0
 10
10.2522682148
 20
11.1078506855
 30
0.0
 10
10.2438053326
 20
11.1025574094
 30
0.0
 10
10.2359059984
 20
11.0972057879
 30
0.0
 10
10.2285760357
 20
11.0917996063
 30
0.0
 10
10.2218207842
 20
11.0863427306
 30
0.0
 10
10.2156452559
 20
11.0808388548
 30
0.0
 10
10.2100539765
 20
11.0752917534
 30
0.0
 10
10.2050512628
 20
11.0697049733
 30
0.0
 10
10.2006409823
 20
11.0640821432
 30
0.0
 10
10.196827007
 20
11.0584267615
 30
0.0
 10
10.1936127626
 20
11.0527422726
 30
0.0
 10
10.1910021142
 20
11.0470331453
 30
0.0
 10
10.1896462785
 20
11.04315599
 30
0.0
 10
10.1890767326
 20
11.0412231676
 30
0.0
  0
SPLINE
  5
415
100
AcDbEntity
  8
0
100
AcDbSpline
 62
7
  6
CONTINUOUS
 70
0
 71
3
 72
39
 73
35
 74
0
 42
0.0000001
 43
0.0000001
 44
0.0000000001
 40
0.0
 40
0.0
 40
0.0
 40
0.0
 40
0.0926354465
 40
0.1381209106
 40
0.1829690811
 40
0.2271188173
 40
0.2705107614
 40
0.3130871447
 40
0.3547916442
 40
0.3955697622
 40
0.4353689094
 40
0.4741385252
 40
0.5118302804
 40
0.5483983212
 40
0.5837994171
 40
0.6179931764
 40
0.6509423764
 40
0.6826132835
 40
0.7129759536
 40
0.7420046789
 40
0.7696786064
 40
0.7959823388
 40
0.8209067164
 40
0.844449901
 40
0.8666187481
 40
0.8874304112
 40
0.9069144956
 40
0.9251158774
 40
0.9420980906
 40
0.9579473501
 40
0.9727771042
 40
0.9867324144
 40
0.9934403932
 40
1.0
 40
1.0
 40
1.0
 40
1.0
 10
11.2026067508
 20
11.2270896735
 30
0.0
 10
11.2224370612
 20
11.2257144368
 30
0.0
 10
11.251984277
 20
11.2233530231
 30
0.0
 10
11.2910640949
 20
11.2195695224
 30
0.0
 10
11.3197546142
 20
11.216460672
 30
0.0
 10
11.3479605244
 20
11.2130681317
 30
0.0
 10
11.3756398947
 20
11.2093969567
 30
0.0
 10
11.4027515795
 20
11.2054526425
 30
0.0
 10
11.4292553111
 20
11.201241055
 30
0.0
 10
11.4551117142
 20
11.1967684943
 30
0.0
 10
11.4802823956
 20
11.1920416485
 30
0.0
 10
11.5047299799
 20
11.1870675728
 30
0.0
 10
11.5284181771
 20
11.1818536848
 30
0.0
 10
11.5513118506
 20
11.1764077899
 30
0.0
 10
11.5733770586
 20
11.1707380275
 30
0.0
 10
11.5945811004
 20
11.1648528537
 30
0.0
 10
11.6148925879
 20
11.1587610553
 30
0.0
 10
11.6342815013
 20
11.1524717383
 30
0.0
 10
11.6527192207
 20
11.1459942778
 30
0.0
 10
11.6701785789
 20
11.139338293
 30
0.0
 10
11.6866339406
 20
11.1325136747
 30
0.0
 10
11.7020612375
 20
11.1255305133
 30
0.0
 10
11.716437999
 20
11.1183990448
 30
0.0
 10
11.7297434145
 20
11.1111296061
 30
0.0
 10
11.7419583978
 20
11.1037326013
 30
0.0
 10
11.7530655721
 20
11.0962183387
 30
0.0
 10
11.7630492275
 20
11.0885969009
 30
0.0
 10
11.7718952882
 20
11.0808779687
 30
0.0
 10
11.7795910233
 20
11.0730708141
 30
0.0
 10
11.7861247616
 20
11.0651835216
 30
0.0
 10
11.7914845483
 20
11.0572252937
 30
0.0
 10
11.7950090208
 20
11.0504506056
 30
0.0
 10
11.7971962395
 20
11.0450302838
 30
0.0
 10
11.7980849328
 20
11.0423227463
 30
0.0
 10
11.7984769247
 20
11.0409708536
 30
0.0
  0
SPLINE
  5
416
100
AcDbEntity
  8
0
100
AcDbSpline
 62
7
  6
CONTINUOUS
 70
0
 71
3
 72
19
 73
15
 74
0
 42
0.0000001
 43
0.0000001
 44
0.0000000001
 40
0.0
 40
0.0
 40
0.0
 40
0.0
 40
0.12732766
 40
0.2538196711
 40
0.3795264658
 40
0.5045235362
 40
0.5668075958
 40
0.6289556124
 40
0.6909843715
 40
0.7529118454
 40
0.8147570127
 40
0.8765397119
 40
0.9382804145
 40
1.0
 40
1.0
 40
1.0
 40
1.0
 10
11.6800734536
 20
10.2912337895
 30
0.0
 10
11.6800734536
 20
10.2977321694
 30
0.0
 10
11.6806939058
 20
10.3106952197
 30
0.0
 10
11.6834999774
 20
10.3298907285
 30
0.0
 10
11.6881524198
 20
10.3486030184
 30
0.0
 10
11.6935418957
 20
10.3636712698
 30
0.0
 10
11.6987250962
 20
10.3753032209
 30
0.0
 10
11.7030352876
 20
10.3837922899
 30
0.0
 10
11.7077622062
 20
10.3920353497
 30
0.0
 10
11.7128950935
 20
10.4000136603
 30
0.0
 10
11.7184221071
 20
10.4077086989
 30
0.0
 10
11.7243305098
 20
10.4151028427
 30
0.0
 10
11.7306064887
 20
10.4221787646
 30
0.0
 10
11.7350267244
 20
10.4266738289
 30
0.0
 10
11.7372923496
 20
10.428862254
 30
0.0
  0
SPLINE
  5
417
100
AcDbEntity
  8
0
100
AcDbSpline
 62
7
  6
CONTINUOUS
 70
0
 71
3
 72
53
 73
49
 74
0
 42
0.0000001
 43
0.0000001
 44
0.0000000001
 40
0.0
 40
0.0
 40
0.0
 40
0.0
 40
0.0428442022
 40
0.0861777543
 40
0.1298582583
 40
0.1737415551
 40
0.2176827777
 40
0.2615367499
 40
0.3051586888
 40
0.348404795
 40
0.3911328827
 40
0.433203004
 40
0.4744780826
 40
0.5148245597
 40
0.5541130562
 40
0.5922190614
 40
0.6290236574
 40
0.6644142991
 40
0.6982856718
 40
0.730540663
 40
0.7460346641
 40
0.7610924724
 40
0.7757048635
 40
0.789863279
 40
0.8035601195
 40
0.8167885842
 40
0.8295430045
 40
0.8418186977
 40
0.8536123458
 40
0.8649218856
 40
0.8757469438
 40
0.8860887946
 40
0.8959508693
 40
0.9053388239
 40
0.9142611522
 40
0.9227294139
 40
0.9307589823
 40
0.9383694724
 40
0.945585618
 40
0.9524378562
 40
0.9589631767
 40
0.9652055695
 40
0.9712163476
 40
0.9770537664
 40
0.9827820278
 40
0.9884694146
 40
0.994185822
 40
1.0
 40
1.0
 40
1.0
 40
1.0
 10
11.1425607818
 20
11.169089718
 30
0.0
 10
11.1314671318
 20
11.1698590652
 30
0.0
 10
11.1091399413
 20
11.1712221936
 30
0.0
 10
11.0754677641
 20
11.1727382923
 30
0.0
 10
11.041506312
 20
11.1737342537
 30
0.0
 10
11.0073758489
 20
11.1742065121
 30
0.0
 10
10.9731971343
 20
11.1741533894
 30
0.0
 10
10.9390911109
 20
11.1735750721
 30
0.0
 10
10.9051784638
 20
11.1724736243
 30
0.0
 10
10.8715791871
 20
11.1708529741
 30
0.0
 10
10.8384121584
 20
11.1687189037
 30
0.0
 10
10.805794713
 20
11.1660790281
 30
0.0
 10
10.7738422245
 20
11.1629427702
 30
0.0
 10
10.7426676895
 20
11.1593213287
 30
0.0
 10
10.7123813229
 20
11.1552276398
 30
0.0
 10
10.6830901494
 20
11.1506763348
 30
0.0
 10
10.65489764
 20
11.1456836855
 30
0.0
 10
10.6279032262
 20
11.1402675624
 30
0.0
 10
10.6022022793
 20
11.1344473189
 30
0.0
 10
10.581671828
 20
11.1292100414
 30
0.0
 10
10.5659716143
 20
11.124820848
 30
0.0
 10
10.5547331981
 20
11.1214851954
 30
0.0
 10
10.5438832208
 20
11.1180646982
 30
0.0
 10
10.5334312448
 20
11.114562282
 30
0.0
 10
10.5233864719
 20
11.1109811395
 30
0.0
 10
10.5137577554
 20
11.1073243561
 30
0.0
 10
10.5045535428
 20
11.1035952543
 30
0.0
 10
10.4957819306
 20
11.0997970345
 30
0.0
 10
10.4874505778
 20
11.095933135
 30
0.0
 10
10.4795667899
 20
11.0920068482
 30
0.0
 10
10.4721374023
 20
11.0880216994
 30
0.0
 10
10.4651689
 20
11.0839810414
 30
0.0
 10
10.4586672666
 20
11.0798884425
 30
0.0
 10
10.4526381484
 20
11.0757472676
 30
0.0
 10
10.4470866692
 20
11.0715610622
 30
0.0
 10
10.4420176509
 20
11.0673331316
 30
0.0
 10
10.4374354033
 20
11.0630669082
 30
0.0
 10
10.4333440197
 20
11.0587655559
 30
0.0
 10
10.4297471596
 20
11.0544323218
 30
0.0
 10
10.4266484313
 20
11.0500702286
 30
0.0
 10
10.424051168
 20
11.0456824547
 30
0.0
 10
10.4219588263
 20
11.0412722217
 30
0.0
 10
10.4203746355
 20
11.0368432497
 30
0.0
 10
10.419301762
 20
11.0323998071
 30
0.0
 10
10.4187426238
 20
11.0279470604
 30
0.0
 10
10.4186988081
 20
11.0234906151
 30
0.0
 10
10.4191702157
 20
11.0190372065
 30
0.0
 10
10.4198196336
 20
11.0161084332
 30
0.0
 10
10.4202239985
 20
11.0146545368
 30
0.0
  0
SPLINE
  5
418
100
AcDbEntity
  8
0
100
AcDbSpline
 62
7
  6
CONTINUOUS
 70
0
 71
3
 72
42
 73
38
 74
0
 42
0.0000001
 43
0.0000001
 44
0.0000000001
 40
0.0
 40
0.0
 40
0.0
 40
0.0
 40
0.0299419644
 40
0.0449235317
 40
0.0599142035
 40
0.0899287023
 40
0.1200139727
 40
0.1350926544
 40
0.1501966973
 40
0.1804840373
 40
0.210897868
 40
0.2414513286
 40
0.2721543342
 40
0.3030133956
 40
0.3340315238
 40
0.3652082165
 40
0.3965395222
 40
0.4280181758
 40
0.459633799
 40
0.4913731572
 40
0.5232204671
 40
0.5551577446
 40
0.5871651885
 40
0.6192215901
 40
0.6513047644
 40
0.683391994
 40
0.715460481
 40
0.7474877999
 40
0.7794523452
 40
0.8113337678
 40
0.8431133918
 40
0.8747746145
 40
0.906303246
 40
0.9376878974
 40
0.9533257627
 40
0.9689252947
 40
1.0
 40
1.0
 40
1.0
 40
1.0
 10
12.0304752804
 20
10.1253367317
 30
0.0
 10
12.0269748607
 20
10.1219555872
 30
0.0
 10
12.021517906
 20
10.1170887416
 30
0.0
 10
12.0138755922
 20
10.1110499956
 30
0.0
 10
12.0059898417
 20
10.1053118276
 30
0.0
 10
11.9957002906
 20
10.0987224664
 30
0.0
 10
11.98491041
 20
10.0929587382
 30
0.0
 10
11.9760115944
 20
10.0888583226
 30
0.0
 10
11.9669288976
 20
10.0850965194
 30
0.0
 10
11.9552762526
 20
10.081051412
 30
0.0
 10
11.9409161081
 20
10.0772814985
 30
0.0
 10
11.926242623
 20
10.0746107778
 30
0.0
 10
11.9113371089
 20
10.0730540002
 30
0.0
 10
11.896281447
 20
10.0726194696
 30
0.0
 10
11.8811584779
 20
10.0733093987
 30
0.0
 10
11.8660513211
 20
10.0751198019
 30
0.0
 10
11.8510429841
 20
10.078040554
 30
0.0
 10
11.836215895
 20
10.0820554453
 30
0.0
 10
11.8216514602
 20
10.0871422777
 30
0.0
 10
11.8074296225
 20
10.0932729897
 30
0.0
 10
11.7936284289
 20
10.100413813
 30
0.0
 10
11.7803236085
 20
10.1085254584
 30
0.0
 10
11.7675881619
 20
10.1175633313
 30
0.0
 10
11.7554919664
 20
10.1274777756
 30
0.0
 10
11.7441013964
 20
10.1382143441
 30
0.0
 10
11.7334789641
 20
10.1497140949
 30
0.0
 10
11.7236829793
 20
10.1619139119
 30
0.0
 10
11.7147672329
 20
10.1747468484
 30
0.0
 10
11.7067807043
 20
10.1881424863
 30
0.0
 10
11.6997672935
 20
10.2020273339
 30
0.0
 10
11.6937655856
 20
10.2163251663
 30
0.0
 10
11.6888086208
 20
10.2309576516
 30
0.0
 10
11.6849237912
 20
10.2458439856
 30
0.0
 10
11.6825947434
 20
10.258409662
 30
0.0
 10
11.681288221
 20
10.2685060405
 30
0.0
 10
11.6803557874
 20
10.2785927553
 30
0.0
 10
11.6800734536
 20
10.2861829435
 30
0.0
 10
11.6800734536
 20
10.2912337895
 30
0.0
  0
SPLINE
  5
419
100
AcDbEntity
  8
0
100
AcDbSpline
 62
7
  6
CONTINUOUS
 70
0
 71
3
 72
42
 73
38
 74
0
 42
0.0000001
 43
0.0000001
 44
0.0000000001
 40
0.0
 40
0.0
 40
0.0
 40
0.0
 40
0.0299419644
 40
0.0449235317
 40
0.0599142035
 40
0.0899287023
 40
0.1200139727
 40
0.1350926544
 40
0.1501966973
 40
0.1804840373
 40
0.210897868
 40
0.2414513286
 40
0.2721543342
 40
0.3030133956
 40
0.3340315238
 40
0.3652082165
 40
0.3965395222
 40
0.4280181758
 40
0.459633799
 40
0.4913731572
 40
0.5232204671
 40
0.5551577446
 40
0.5871651885
 40
0.6192215901
 40
0.6513047644
 40
0.683391994
 40
0.715460481
 40
0.7474877999
 40
0.7794523452
 40
0.8113337678
 40
0.8431133918
 40
0.8747746145
 40
0.906303246
 40
0.9376878974
 40
0.9533257627
 40
0.9689252947
 40
1.0
 40
1.0
 40
1.0
 40
1.0
 10
12.0304752804
 20
5.7786702559
 30
0.0
 10
12.0269748607
 20
5.7752891114
 30
0.0
 10
12.021517906
 20
5.7704222657
 30
0.0
 10
12.0138755922
 20
5.7643835197
 30
0.0
 10
12.0059898417
 20
5.7586453518
 30
0.0
 10
11.9957002906
 20
5.7520559905
 30
0.0
 10
11.98491041
 20
5.7462922624
 30
0.0
 10
11.9760115944
 20
5.7421918467
 30
0.0
 10
11.9669288976
 20
5.7384300436
 30
0.0
 10
11.9552762526
 20
5.7343849361
 30
0.0
 10
11.9409161081
 20
5.7306150227
 30
0.0
 10
11.926242623
 20
5.727944302
 30
0.0
 10
11.9113371089
 20
5.7263875244
 30
0.0
 10
11.896281447
 20
5.7259529937
 30
0.0
 10
11.8811584779
 20
5.7266429228
 30
0.0
 10
11.8660513211
 20
5.728453326
 30
0.0
 10
11.8510429841
 20
5.7313740782
 30
0.0
 10
11.836215895
 20
5.7353889695
 30
0.0
 10
11.8216514602
 20
5.7404758018
 30
0.0
 10
11.8074296225
 20
5.7466065139
 30
0.0
 10
11.7936284289
 20
5.7537473371
 30
0.0
 10
11.7803236085
 20
5.7618589825
 30
0.0
 10
11.7675881619
 20
5.7708968554
 30
0.0
 10
11.7554919664
 20
5.7808112998
 30
0.0
 10
11.7441013964
 20
5.7915478682
 30
0.0
 10
11.7334789641
 20
5.8030476191
 30
0.0
 10
11.7236829793
 20
5.8152474361
 30
0.0
 10
11.7147672329
 20
5.8280803725
 30
0.0
 10
11.7067807043
 20
5.8414760104
 30
0.0
 10
11.6997672935
 20
5.855360858
 30
0.0
 10
11.6937655856
 20
5.8696586905
 30
0.0
 10
11.6888086208
 20
5.8842911758
 30
0.0
 10
11.6849237912
 20
5.8991775098
 30
0.0
 10
11.6825947434
 20
5.9117431862
 30
0.0
 10
11.681288221
 20
5.9218395647
 30
0.0
 10
11.6803557874
 20
5.9319262795
 30
0.0
 10
11.6800734536
 20
5.9395164676
 30
0.0
 10
11.6800734536
 20
5.9445673136
 30
0.0
  0
SPLINE
  5
41A
100
AcDbEntity
  8
0
100
AcDbSpline
 62
7
  6
CONTINUOUS
 70
0
 71
3
 72
33
 73
29
 74
0
 42
0.0000001
 43
0.0000001
 44
0.0000000001
 40
0.0
 40
0.0
 40
0.0
 40
0.0
 40
0.0724604452
 40
0.1459737062
 40
0.2200050264
 40
0.2940135543
 40
0.3674589248
 40
0.4398061315
 40
0.475404119
 40
0.5105319776
 40
0.5451266369
 40
0.5791263229
 40
0.6124707433
 40
0.6451012948
 40
0.6769612132
 40
0.7079957517
 40
0.7381524087
 40
0.7673811816
 40
0.79563476
 40
0.8228687806
 40
0.8490421664
 40
0.8741175101
 40
0.8980614353
 40
0.9208450906
 40
0.9424448199
 40
0.9628429719
 40
0.9820288464
 40
1.0
 40
1.0
 40
1.0
 40
1.0
 10
11.1329904409
 20
11.026547706
 30
0.0
 10
11.1175080831
 20
11.0276214111
 30
0.0
 10
11.0862906163
 20
11.0294005584
 30
0.0
 10
11.0391924051
 20
11.0309764325
 30
0.0
 10
10.9917386644
 20
11.031472618
 30
0.0
 10
10.9443005392
 20
11.0308852065
 30
0.0
 10
10.8972490293
 20
11.0292187669
 30
0.0
 10
10.85846225
 20
11.0269300306
 30
0.0
 10
10.8279099906
 20
11.0245608373
 30
0.0
 10
10.805443061
 20
11.0225344404
 30
0.0
 10
10.7833447005
 20
11.020253121
 30
0.0
 10
10.7616581164
 20
11.0177213316
 30
0.0
 10
10.7404257489
 20
11.0149440542
 30
0.0
 10
10.7196891248
 20
11.0119267649
 30
0.0
 10
10.6994887974
 20
11.0086754058
 30
0.0
 10
10.6798642673
 20
11.0051963719
 30
0.0
 10
10.660853894
 20
11.0014965077
 30
0.0
 10
10.6424948113
 20
10.9975831138
 30
0.0
 10
10.6248228623
 20
10.9934639014
 30
0.0
 10
10.6078725313
 20
10.9891469778
 30
0.0
 10
10.5916768566
 20
10.9846408401
 30
0.0
 10
10.5762673486
 20
10.9799543728
 30
0.0
 10
10.5616739389
 20
10.9750967971
 30
0.0
 10
10.5479248976
 20
10.9700776334
 30
0.0
 10
10.5350468036
 20
10.9649067172
 30
0.0
 10
10.5230642544
 20
10.9595940557
 30
0.0
 10
10.5120005252
 20
10.9541501292
 30
0.0
 10
10.5050230864
 20
10.9503148252
 30
0.0
 10
10.5017009685
 20
10.9483709261
 30
0.0
  0
SPLINE
  5
41B
100
AcDbEntity
  8
0
100
AcDbSpline
 62
7
  6
CONTINUOUS
 70
0
 71
3
 72
19
 73
15
 74
0
 42
0.0000001
 43
0.0000001
 44
0.0000000001
 40
0.0
 40
0.0
 40
0.0
 40
0.0
 40
0.12732766
 40
0.2538196711
 40
0.3795264658
 40
0.5045235362
 40
0.5668075958
 40
0.6289556124
 40
0.6909843715
 40
0.7529118454
 40
0.8147570127
 40
0.8765397119
 40
0.9382804145
 40
1.0
 40
1.0
 40
1.0
 40
1.0
 10
11.6800734536
 20
5.9445673136
 30
0.0
 10
11.6800734536
 20
5.9510656936
 30
0.0
 10
11.6806939058
 20
5.9640287439
 30
0.0
 10
11.6834999774
 20
5.9832242526
 30
0.0
 10
11.6881524198
 20
6.0019365426
 30
0.0
 10
11.6935418957
 20
6.017004794
 30
0.0
 10
11.6987250962
 20
6.0286367451
 30
0.0
 10
11.7030352876
 20
6.0371258141
 30
0.0
 10
11.7077622062
 20
6.0453688738
 30
0.0
 10
11.7128950935
 20
6.0533471845
 30
0.0
 10
11.7184221071
 20
6.061042223
 30
0.0
 10
11.7243305098
 20
6.0684363668
 30
0.0
 10
11.7306064887
 20
6.0755122888
 30
0.0
 10
11.7350267244
 20
6.0800073531
 30
0.0
 10
11.7372923496
 20
6.0821957782
 30
0.0
  0
SPLINE
  5
41C
100
AcDbEntity
  8
0
100
AcDbSpline
 62
7
  6
CONTINUOUS
 70
0
 71
3
 72
53
 73
49
 74
0
 42
0.0000001
 43
0.0000001
 44
0.0000000001
 40
0.0
 40
0.0
 40
0.0
 40
0.0
 40
0.0055575358
 40
0.0111779566
 40
0.0169218919
 40
0.022845775
 40
0.0290005507
 40
0.0354309545
 40
0.0421754005
 40
0.0492662557
 40
0.0567303027
 40
0.0645894212
 40
0.072861099
 40
0.0815591501
 40
0.0906940844
 40
0.1002737091
 40
0.1103033751
 40
0.1207864065
 40
0.1317242976
 40
0.1431169629
 40
0.154962942
 40
0.1672594909
 40
0.1800028152
 40
0.1931880451
 40
0.2068094816
 40
0.2208605177
 40
0.2353338545
 40
0.250221435
 40
0.2655145886
 40
0.281204022
 40
0.3137311009
 40
0.3477184393
 40
0.3830735589
 40
0.4196973748
 40
0.4574849489
 40
0.4963261675
 40
0.5361063682
 40
0.5767069301
 40
0.6180058389
 40
0.659878235
 40
0.7021969505
 40
0.744833037
 40
0.787656286
 40
0.8305357591
 40
0.8733402611
 40
0.9159390133
 40
0.9582016979
 40
1.0
 40
1.0
 40
1.0
 40
1.0
 10
10.1867399537
 20
11.0562494571
 30
0.0
 10
10.1867399537
 20
11.0582458179
 30
0.0
 10
10.186963507
 20
11.0622646014
 30
0.0
 10
10.1879666306
 20
11.0682713401
 30
0.0
 10
10.1896360735
 20
11.074264663
 30
0.0
 10
10.1919684462
 20
11.0802376554
 30
0.0
 10
10.1949600104
 20
11.0861854406
 30
0.0
 10
10.1986066825
 20
11.092103484
 30
0.0
 10
10.2029043318
 20
11.0979877185
 30
0.0
 10
10.2078487578
 20
11.1038341604
 30
0.0
 10
10.2134354984
 20
11.1096389182
 30
0.0
 10
10.2196599285
 20
11.1153978898
 30
0.0
 10
10.2265169217
 20
11.1211070441
 30
0.0
 10
10.2340010562
 20
11.1267620698
 30
0.0
 10
10.2421063136
 20
11.1323587783
 30
0.0
 10
10.2508262814
 20
11.1378927597
 30
0.0
 10
10.2601539616
 20
11.1433597291
 30
0.0
 10
10.2700818956
 20
11.1487552982
 30
0.0
 10
10.2806020895
 20
11.1540751518
 30
0.0
 10
10.2917060516
 20
11.1593150014
 30
0.0
 10
10.3033848048
 20
11.1644705599
 30
0.0
 10
10.3156288637
 20
11.1695376777
 30
0.0
 10
10.3284282926
 20
11.1745121495
 30
0.0
 10
10.341772659
 20
11.1793899765
 30
0.0
 10
10.355651101
 20
11.1841670868
 30
0.0
 10
10.3700522851
 20
11.1888396284
 30
0.0
 10
10.3849644615
 20
11.1934037111
 30
0.0
 10
10.4003754364
 20
11.1978556178
 30
0.0
 10
10.4162726319
 20
11.2021917034
 30
0.0
 10
10.4383659046
 20
11.2078823439
 30
0.0
 10
10.467109703
 20
11.214662528
 30
0.0
 10
10.5029240405
 20
11.2221882568
 30
0.0
 10
10.5403456526
 20
11.229173157
 30
0.0
 10
10.5792520358
 20
11.23559414
 30
0.0
 10
10.6195160301
 20
11.2414299454
 30
0.0
 10
10.6610058723
 20
11.2466612718
 30
0.0
 10
10.7035857534
 20
11.2512708211
 30
0.0
 10
10.7471162453
 20
11.255243358
 30
0.0
 10
10.7914547757
 20
11.258565758
 30
0.0
 10
10.8364561008
 20
11.2612270478
 30
0.0
 10
10.8819727877
 20
11.2632184402
 30
0.0
 10
10.9278557025
 20
11.2645333604
 30
0.0
 10
10.9739545049
 20
11.2651674689
 30
0.0
 10
11.0201181359
 20
11.2651186697
 30
0.0
 10
11.0661953431
 20
11.2643871308
 30
0.0
 10
11.1120351149
 20
11.2629752524
 30
0.0
 10
11.1574871894
 20
11.260887723
 30
0.0
 10
11.1876280701
 20
11.2590380776
 30
0.0
 10
11.2026067508
 20
11.2579993025
 30
0.0
  0
SPLINE
  5
41D
100
AcDbEntity
  8
0
100
AcDbSpline
 62
7
  6
CONTINUOUS
 70
0
 71
3
 72
29
 73
25
 74
0
 42
0.0000001
 43
0.0000001
 44
0.0000000001
 40
0.0
 40
0.0
 40
0.0
 40
0.0
 40
0.0684639842
 40
0.1378465956
 40
0.2077729558
 40
0.277862418
 40
0.3477339473
 40
0.4170079153
 40
0.4853089088
 40
0.5522684106
 40
0.6175275501
 40
0.6807399236
 40
0.711475065
 40
0.7415757755
 40
0.7710035531
 40
0.799721336
 40
0.8276934521
 40
0.8548858665
 40
0.8812663176
 40
0.9068043275
 40
0.9314715705
 40
0.9552419317
 40
0.9780916964
 40
1.0
 40
1.0
 40
1.0
 40
1.0
 10
11.1206905906
 20
10.9687632554
 30
0.0
 10
11.1085264844
 20
10.969606839
 30
0.0
 10
11.0840163314
 20
10.9710454142
 30
0.0
 10
11.0470370365
 20
10.9724610495
 30
0.0
 10
11.0097473052
 20
10.9731444389
 30
0.0
 10
10.9723643377
 20
10.9730915044
 30
0.0
 10
10.9351058404
 20
10.9723025656
 30
0.0
 10
10.8981887419
 20
10.970782285
 30
0.0
 10
10.8618279785
 20
10.9685396319
 30
0.0
 10
10.8262351461
 20
10.9655878486
 30
0.0
 10
10.7916175313
 20
10.9619443196
 30
0.0
 10
10.7634930029
 20
10.958316614
 30
0.0
 10
10.741638981
 20
10.9550737755
 30
0.0
 10
10.7257690973
 20
10.9525058603
 30
0.0
 10
10.7102896843
 20
10.9497832465
 30
0.0
 10
10.6952232534
 20
10.9469099278
 30
0.0
 10
10.6805917408
 20
10.9438900913
 30
0.0
 10
10.6664164324
 20
10.9407281588
 30
0.0
 10
10.6527179411
 20
10.9374287884
 30
0.0
 10
10.6395161801
 20
10.933996771
 30
0.0
 10
10.6268303281
 20
10.930437161
 30
0.0
 10
10.6146787583
 20
10.926755166
 30
0.0
 10
10.6030792039
 20
10.9229561655
 30
0.0
 10
10.5955650284
 20
10.9202924103
 30
0.0
 10
10.5919053465
 20
10.9189392562
 30
0.0
  0
SPLINE
  5
41E
100
AcDbEntity
  8
0
100
AcDbSpline
 62
7
  6
CONTINUOUS
 70
0
 71
3
 72
48
 73
44
 74
0
 42
0.0000001
 43
0.0000001
 44
0.0000000001
 40
0.0
 40
0.0
 40
0.0
 40
0.0
 40
0.0987479719
 40
0.1471058068
 40
0.1946765107
 40
0.2413790485
 40
0.2871351958
 40
0.3318691027
 40
0.3755073075
 40
0.4179792128
 40
0.4592173308
 40
0.49915752
 40
0.5377392941
 40
0.574906234
 40
0.6106064347
 40
0.6447929117
 40
0.6774241664
 40
0.7084649629
 40
0.7378872017
 40
0.7656709377
 40
0.791805785
 40
0.8162928351
 40
0.8279236074
 40
0.8391493431
 40
0.8499746614
 40
0.860405429
 40
0.8704489303
 40
0.8801142259
 40
0.8894120962
 40
0.898355426
 40
0.9152360624
 40
0.9232173043
 40
0.9309209194
 40
0.9383735232
 40
0.9456050875
 40
0.952648762
 40
0.9595407888
 40
0.9663201596
 40
0.9730280055
 40
0.9797069403
 40
0.9864001716
 40
0.9931506186
 40
1.0
 40
1.0
 40
1.0
 40
1.0
 10
11.1425607818
 20
11.169089718
 30
0.0
 10
11.1583486253
 20
11.1679948273
 30
0.0
 10
11.1818502661
 20
11.1660875597
 30
0.0
 10
11.2128951155
 20
11.162977202
 30
0.0
 10
11.235609282
 20
11.1604048815
 30
0.0
 10
11.2578733766
 20
11.157581692
 30
0.0
 10
11.2796459716
 20
11.1545129071
 30
0.0
 10
11.3008865701
 20
11.1512042837
 30
0.0
 10
11.3215556871
 20
11.1476619993
 30
0.0
 10
11.3416148946
 20
11.1438926801
 30
0.0
 10
11.3610269293
 20
11.1399033952
 30
0.0
 10
11.3797557425
 20
11.1357016163
 30
0.0
 10
11.3977665677
 20
11.1312952025
 30
0.0
 10
11.4150260042
 20
11.1266924
 30
0.0
 10
11.4315020912
 20
11.1219018382
 30
0.0
 10
11.4471643599
 20
11.1169324802
 30
0.0
 10
11.461983893
 20
11.1117935984
 30
0.0
 10
11.4759334241
 20
11.1064947693
 30
0.0
 10
11.4889873649
 20
11.1010458531
 30
0.0
 10
11.501122005
 20
11.0954568798
 30
0.0
 10
11.5123150453
 20
11.0897381278
 30
0.0
 10
11.5209844899
 20
11.0847914052
 30
0.0
 10
11.5274183619
 20
11.080767963
 30
0.0
 10
11.5319125121
 20
11.0777763859
 30
0.0
 10
11.5361565178
 20
11.0747603525
 30
0.0
 10
11.5401484433
 20
11.0717211838
 30
0.0
 10
11.5438864417
 20
11.0686601761
 30
0.0
 10
11.5473687774
 20
11.0655788015
 30
0.0
 10
11.5505940554
 20
11.062478141
 30
0.0
 10
11.5544743272
 20
11.0583990319
 30
0.0
 10
11.5579286749
 20
11.0542099632
 30
0.0
 10
11.5608934538
 20
11.049911628
 30
0.0
 10
11.5628117643
 20
11.0467353624
 30
0.0
 10
11.5644650381
 20
11.043548006
 30
0.0
 10
11.5658523773
 20
11.0403509044
 30
0.0
 10
11.56697277
 20
11.0371455352
 30
0.0
 10
11.5678253208
 20
11.0339334665
 30
0.0
 10
11.5684094087
 20
11.0307164204
 30
0.0
 10
11.5687243906
 20
11.0274961755
 30
0.0
 10
11.5687700129
 20
11.0242746578
 30
0.0
 10
11.5685462583
 20
11.0210537227
 30
0.0
 10
11.5680532988
 20
11.0178355405
 30
0.0
 10
11.5675500453
 20
11.0157121058
 30
0.0
 10
11.567255909
 20
11.0146545368
 30
0.0
  0
SPLINE
  5
41F
100
AcDbEntity
  8
0
100
AcDbSpline
 62
7
  6
CONTINUOUS
 70
0
 71
3
 72
48
 73
44
 74
0
 42
0.0000001
 43
0.0000001
 44
0.0000000001
 40
0.0
 40
0.0
 40
0.0
 40
0.0
 40
0.0063158899
 40
0.0126706797
 40
0.0191025165
 40
0.025648058
 40
0.0323419221
 40
0.0392162652
 40
0.0536140552
 40
0.0611947659
 40
0.0690564915
 40
0.0772175997
 40
0.0856939645
 40
0.0944993396
 40
0.103645447
 40
0.1131421893
 40
0.122997946
 40
0.1332195527
 40
0.1438126331
 40
0.1547816545
 40
0.1661299881
 40
0.1778601838
 40
0.1899738557
 40
0.215353302
 40
0.2422691224
 40
0.2707113841
 40
0.3006623731
 40
0.332097648
 40
0.3649869327
 40
0.3992948208
 40
0.434981328
 40
0.4720023222
 40
0.5103099054
 40
0.5498527799
 40
0.590576537
 40
0.632423903
 40
0.6753349407
 40
0.7192473098
 40
0.7640964278
 40
0.8098157282
 40
0.8563368617
 40
0.9035891153
 40
1.0
 40
1.0
 40
1.0
 40
1.0
 10
12.9876828612
 20
10.1370178914
 30
0.0
 10
12.9890468447
 20
10.1369233049
 30
0.0
 10
12.9917767656
 20
10.1366218962
 30
0.0
 10
12.9958410678
 20
10.1358363266
 30
0.0
 10
12.9998781921
 20
10.1347172046
 30
0.0
 10
13.0038857884
 20
10.1332654915
 30
0.0
 10
13.007862299
 20
10.1314820344
 30
0.0
 10
13.0132016522
 20
10.1286198653
 30
0.0
 10
13.0183960441
 20
10.1251161859
 30
0.0
 10
13.0234228609
 20
10.1210559161
 30
0.0
 10
13.0272198262
 20
10.1176326484
 30
0.0
 10
13.0309762177
 20
10.1138858454
 30
0.0
 10
13.0346911466
 20
10.1098168888
 30
0.0
 10
13.0383630571
 20
10.1054275029
 30
0.0
 10
13.0419906056
 20
10.1007194797
 30
0.0
 10
13.0455724301
 20
10.0956947638
 30
0.0
 10
13.0491070739
 20
10.0903553518
 30
0.0
 10
13.0525932137
 20
10.084703447
 30
0.0
 10
13.0560294344
 20
10.0787413221
 30
0.0
 10
13.0594143489
 20
10.0724713922
 30
0.0
 10
13.0627466369
 20
10.0658962299
 30
0.0
 10
13.0660249218
 20
10.0590184739
 30
0.0
 10
13.0703901087
 20
10.0492969431
 30
0.0
 10
13.0756874886
 20
10.036394715
 30
0.0
 10
13.0817131713
 20
10.0199845268
 30
0.0
 10
13.087492784
 20
10.0024412357
 30
0.0
 10
13.09301679
 20
9.9837935486
 30
0.0
 10
13.0982760704
 20
9.96407174
 30
0.0
 10
13.1032619001
 20
9.9433080552
 30
0.0
 10
13.107965989
 20
9.9215364874
 30
0.0
 10
13.1123804987
 20
9.8987927515
 30
0.0
 10
13.1164980741
 20
9.8751142126
 30
0.0
 10
13.1203118627
 20
9.850539819
 30
0.0
 10
13.1238155093
 20
9.8251100196
 30
0.0
 10
13.1270031723
 20
9.7988666891
 30
0.0
 10
13.129869531
 20
9.7718530638
 30
0.0
 10
13.1324098164
 20
9.7441136679
 30
0.0
 10
13.1346197951
 20
9.7156942419
 30
0.0
 10
13.1364957861
 20
9.6866416407
 30
0.0
 10
13.1380346467
 20
9.6570037761
 30
0.0
 10
13.139233825
 20
9.6268295513
 30
0.0
 10
13.1403847181
 20
9.5856740332
 30
0.0
 10
13.1407185641
 20
9.5545723108
 30
0.0
 10
13.1407185641
 20
9.5337013539
 30
0.0
  0
SPLINE
  5
420
100
AcDbEntity
  8
0
100
AcDbSpline
 62
7
  6
CONTINUOUS
 70
0
 71
3
 72
48
 73
44
 74
0
 42
0.0000001
 43
0.0000001
 44
0.0000000001
 40
0.0
 40
0.0
 40
0.0
 40
0.0
 40
0.0063158899
 40
0.0126706797
 40
0.0191025165
 40
0.025648058
 40
0.0323419221
 40
0.0392162652
 40
0.0536140552
 40
0.0611947659
 40
0.0690564915
 40
0.0772175997
 40
0.0856939645
 40
0.0944993396
 40
0.103645447
 40
0.1131421893
 40
0.122997946
 40
0.1332195527
 40
0.1438126331
 40
0.1547816545
 40
0.1661299881
 40
0.1778601838
 40
0.1899738557
 40
0.215353302
 40
0.2422691224
 40
0.2707113841
 40
0.3006623731
 40
0.332097648
 40
0.3649869327
 40
0.3992948208
 40
0.434981328
 40
0.4720023222
 40
0.5103099054
 40
0.5498527799
 40
0.590576537
 40
0.632423903
 40
0.6753349407
 40
0.7192473098
 40
0.7640964278
 40
0.8098157282
 40
0.8563368617
 40
0.9035891153
 40
1.0
 40
1.0
 40
1.0
 40
1.0
 10
12.9876828612
 20
8.2051661243
 30
0.0
 10
12.9890468447
 20
8.2050715378
 30
0.0
 10
12.9917767656
 20
8.2047701292
 30
0.0
 10
12.9958410678
 20
8.2039845596
 30
0.0
 10
12.9998781921
 20
8.2028654375
 30
0.0
 10
13.0038857884
 20
8.2014137245
 30
0.0
 10
13.007862299
 20
8.1996302674
 30
0.0
 10
13.0132016522
 20
8.1967680982
 30
0.0
 10
13.0183960441
 20
8.1932644189
 30
0.0
 10
13.0234228609
 20
8.189204149
 30
0.0
 10
13.0272198262
 20
8.1857808814
 30
0.0
 10
13.0309762177
 20
8.1820340783
 30
0.0
 10
13.0346911466
 20
8.1779651217
 30
0.0
 10
13.0383630571
 20
8.1735757358
 30
0.0
 10
13.0419906056
 20
8.1688677127
 30
0.0
 10
13.0455724301
 20
8.1638429968
 30
0.0
 10
13.0491070739
 20
8.1585035848
 30
0.0
 10
13.0525932137
 20
8.1528516799
 30
0.0
 10
13.0560294344
 20
8.146889555
 30
0.0
 10
13.0594143489
 20
8.1406196252
 30
0.0
 10
13.0627466369
 20
8.1340444629
 30
0.0
 10
13.0660249218
 20
8.1271667069
 30
0.0
 10
13.0703901087
 20
8.117445176
 30
0.0
 10
13.0756874886
 20
8.104542948
 30
0.0
 10
13.0817131713
 20
8.0881327598
 30
0.0
 10
13.087492784
 20
8.0705894686
 30
0.0
 10
13.09301679
 20
8.0519417815
 30
0.0
 10
13.0982760704
 20
8.032219973
 30
0.0
 10
13.1032619001
 20
8.0114562881
 30
0.0
 10
13.107965989
 20
7.9896847203
 30
0.0
 10
13.1123804987
 20
7.9669409844
 30
0.0
 10
13.1164980741
 20
7.9432624456
 30
0.0
 10
13.1203118627
 20
7.9186880519
 30
0.0
 10
13.1238155093
 20
7.8932582526
 30
0.0
 10
13.1270031723
 20
7.8670149221
 30
0.0
 10
13.129869531
 20
7.8400012967
 30
0.0
 10
13.1324098164
 20
7.8122619008
 30
0.0
 10
13.1346197951
 20
7.7838424749
 30
0.0
 10
13.1364957861
 20
7.7547898737
 30
0.0
 10
13.1380346467
 20
7.725152009
 30
0.0
 10
13.139233825
 20
7.6949777843
 30
0.0
 10
13.1403847181
 20
7.6538222662
 30
0.0
 10
13.1407185641
 20
7.6227205437
 30
0.0
 10
13.1407185641
 20
7.6018495868
 30
0.0
  0
SPLINE
  5
421
100
AcDbEntity
  8
0
100
AcDbSpline
 62
7
  6
CONTINUOUS
 70
0
 71
3
 72
28
 73
24
 74
0
 42
0.0000001
 43
0.0000001
 44
0.0000000001
 40
0.0
 40
0.0
 40
0.0
 40
0.0
 40
0.0792781939
 40
0.1572215272
 40
0.2336068692
 40
0.3082190273
 40
0.3808488153
 40
0.4512956436
 40
0.5193679618
 40
0.5848846665
 40
0.6476763216
 40
0.7075866587
 40
0.764474299
 40
0.7917459476
 40
0.818216793
 40
0.8438744311
 40
0.868707815
 40
0.8927074881
 40
0.9158657259
 40
0.9381766261
 40
0.9596364998
 40
0.9802438454
 40
1.0
 40
1.0
 40
1.0
 40
1.0
 10
11.1329904409
 20
11.026547706
 30
0.0
 10
11.1425815752
 20
11.0258825586
 30
0.0
 10
11.1615926358
 20
11.024418205
 30
0.0
 10
11.1898018981
 20
11.0217947817
 30
0.0
 10
11.2174018308
 20
11.0187691775
 30
0.0
 10
11.2443065256
 20
11.0153509133
 30
0.0
 10
11.2704325081
 20
11.0115506815
 30
0.0
 10
11.2956986319
 20
11.0073804173
 30
0.0
 10
11.3200265178
 20
11.0028532018
 30
0.0
 10
11.3433407172
 20
10.9979832496
 30
0.0
 10
11.3655690837
 20
10.9927858599
 30
0.0
 10
11.3866426731
 20
10.9872773337
 30
0.0
 10
11.4034156031
 20
10.9823756029
 30
0.0
 10
11.4161984225
 20
10.9783000598
 30
0.0
 10
11.4253218437
 20
10.9752195176
 30
0.0
 10
11.4341098242
 20
10.9720744795
 30
0.0
 10
11.4425555756
 20
10.9688673479
 30
0.0
 10
11.4506525653
 20
10.9656006213
 30
0.0
 10
11.458394552
 20
10.9622768488
 30
0.0
 10
11.465775552
 20
10.9588985744
 30
0.0
 10
11.4727899321
 20
10.9554684413
 30
0.0
 10
11.4794321904
 20
10.9519890748
 30
0.0
 10
11.4836988293
 20
10.9495879031
 30
0.0
 10
11.4857667682
 20
10.9483780483
 30
0.0
  0
SPLINE
  5
422
100
AcDbEntity
  8
0
100
AcDbSpline
 62
7
  6
CONTINUOUS
 70
0
 71
3
 72
53
 73
49
 74
0
 42
0.0000001
 43
0.0000001
 44
0.0000000001
 40
0.0
 40
0.0
 40
0.0
 40
0.0
 40
0.0417740371
 40
0.0840369047
 40
0.1266584536
 40
0.1695064221
 40
0.212448016
 40
0.2553499502
 40
0.2980791306
 40
0.3405031348
 40
0.382490749
 40
0.4239124945
 40
0.4646411616
 40
0.5045523515
 40
0.5435250275
 40
0.5814420819
 40
0.6181909261
 40
0.6536641145
 40
0.6877600167
 40
0.72038356
 40
0.7361158328
 40
0.7514478069
 40
0.7663698229
 40
0.7808728747
 40
0.7949485304
 40
0.808589127
 40
0.8217876764
 40
0.8345380756
 40
0.8468350633
 40
0.8586743964
 40
0.8700529164
 40
0.8809686715
 40
0.8914211252
 40
0.901411244
 40
0.9109418555
 40
0.9200177659
 40
0.9286462506
 40
0.9368373022
 40
0.9446042293
 40
0.951964127
 40
0.9589385596
 40
0.9655542544
 40
0.9718437693
 40
0.9778461758
 40
0.9836073577
 40
0.9891800489
 40
0.9946230796
 40
1.0
 40
1.0
 40
1.0
 40
1.0
 10
13.1407185641
 20
9.5337013539
 30
0.0
 10
13.1407185641
 20
9.5186460629
 30
0.0
 10
13.1404836869
 20
9.488358834
 30
0.0
 10
13.1394453295
 20
9.4427215722
 30
0.0
 10
13.1377219193
 20
9.3967176541
 30
0.0
 10
13.1353190969
 20
9.350499328
 30
0.0
 10
13.1322448082
 20
9.3042195337
 30
0.0
 10
13.1285092129
 20
9.2580313678
 30
0.0
 10
13.1241246861
 20
9.2120876424
 30
0.0
 10
13.1191057622
 20
9.1665403495
 30
0.0
 10
13.1134690926
 20
9.1215401623
 30
0.0
 10
13.1072333896
 20
9.0772359313
 30
0.0
 10
13.1004193658
 20
9.033774187
 30
0.0
 10
13.0930496683
 20
8.9912986481
 30
0.0
 10
13.0851488036
 20
8.9499497411
 30
0.0
 10
13.0767430595
 20
8.9098641185
 30
0.0
 10
13.0678604155
 20
8.871174224
 30
0.0
 10
13.0585304654
 20
8.8340077329
 30
0.0
 10
13.0487842715
 20
8.7984874788
 30
0.0
 10
13.0402426712
 20
8.7700225421
 30
0.0
 10
13.0332116934
 20
8.7481723299
 30
0.0
 10
13.0279186358
 20
8.7324663166
 30
0.0
 10
13.0225463064
 20
8.7172562652
 30
0.0
 10
13.0170991748
 20
8.7025547076
 30
0.0
 10
13.0115817031
 20
8.6883737861
 30
0.0
 10
13.0059985266
 20
8.6747251776
 30
0.0
 10
13.0003542062
 20
8.6616201373
 30
0.0
 10
12.9946534658
 20
8.649069436
 30
0.0
 10
12.9889009783
 20
8.6370833964
 30
0.0
 10
12.9831015093
 20
8.6256718474
 30
0.0
 10
12.9772598363
 20
8.6148441309
 30
0.0
 10
12.9713807258
 20
8.6046091018
 30
0.0
 10
12.9654690297
 20
8.5949750761
 30
0.0
 10
12.9595294789
 20
8.585949904
 30
0.0
 10
12.953566936
 20
8.5775408437
 30
0.0
 10
12.9475860574
 20
8.5697547144
 30
0.0
 10
12.941591612
 20
8.5625977177
 30
0.0
 10
12.9355881266
 20
8.5560756394
 30
0.0
 10
12.9295801387
 20
8.5501936978
 30
0.0
 10
12.9235719671
 20
8.5449567243
 30
0.0
 10
12.9175678081
 20
8.5403691664
 30
0.0
 10
12.9115717488
 20
8.5364351563
 30
0.0
 10
12.9055877601
 20
8.5331587753
 30
0.0
 10
12.8996200003
 20
8.5305438782
 30
0.0
 10
12.8936729912
 20
8.5285945182
 30
0.0
 10
12.8877517049
 20
8.5273143029
 30
0.0
 10
12.881863279
 20
8.5267064947
 30
0.0
 10
12.8779538631
 20
8.5267510669
 30
0.0
 10
12.8760206729
 20
8.5268851255
 30
0.0
  0
SPLINE
  5
423
100
AcDbEntity
  8
0
100
AcDbSpline
 62
4
  6
CONTINUOUS
 70
0
 71
3
 72
397
 73
393
 74
0
 42
0.0000001
 43
0.0000001
 44
0.0000000001
 40
0.0
 40
0.0
 40
0.0
 40
0.0
 40
0.015625
 40
0.0234375
 40
0.03125
 40
0.0390625
 40
0.04296875
 40
0.046875
 40
0.05078125
 40
0.0546875
 40
0.056640625
 40
0.05859375
 40
0.0595703125
 40
0.060546875
 40
0.0615234375
 40
0.0620117188
 40
0.0622558594
 40
0.0625
 40
0.0627441406
 40
0.0629882812
 40
0.0634765625
 40
0.064453125
 40
0.0654296875
 40
0.06640625
 40
0.068359375
 40
0.0703125
 40
0.07421875
 40
0.078125
 40
0.08203125
 40
0.0859375
 40
0.09375
 40
0.1015625
 40
0.10546875
 40
0.109375
 40
0.11328125
 40
0.1171875
 40
0.119140625
 40
0.12109375
 40
0.1220703125
 40
0.123046875
 40
0.1240234375
 40
0.1245117188
 40
0.1247558594
 40
0.125
 40
0.1252441406
 40
0.1254882812
 40
0.1259765625
 40
0.126953125
 40
0.1279296875
 40
0.12890625
 40
0.130859375
 40
0.1328125
 40
0.13671875
 40
0.140625
 40
0.14453125
 40
0.1484375
 40
0.15625
 40
0.1640625
 40
0.16796875
 40
0.171875
 40
0.17578125
 40
0.1796875
 40
0.181640625
 40
0.18359375
 40
0.1845703125
 40
0.185546875
 40
0.1865234375
 40
0.1870117188
 40
0.1872558594
 40
0.1875
 40
0.1877441406
 40
0.1879882812
 40
0.1884765625
 40
0.189453125
 40
0.1904296875
 40
0.19140625
 40
0.193359375
 40
0.1953125
 40
0.19921875
 40
0.203125
 40
0.20703125
 40
0.2109375
 40
0.21875
 40
0.2265625
 40
0.23046875
 40
0.234375
 40
0.23828125
 40
0.2421875
 40
0.244140625
 40
0.24609375
 40
0.2470703125
 40
0.248046875
 40
0.2490234375
 40
0.2495117188
 40
0.2497558594
 40
0.25
 40
0.2502441406
 40
0.2504882812
 40
0.2509765625
 40
0.251953125
 40
0.2529296875
 40
0.25390625
 40
0.255859375
 40
0.2578125
 40
0.26171875
 40
0.265625
 40
0.26953125
 40
0.2734375
 40
0.28125
 40
0.2890625
 40
0.29296875
 40
0.296875
 40
0.30078125
 40
0.3046875
 40
0.306640625
 40
0.30859375
 40
0.3095703125
 40
0.310546875
 40
0.3115234375
 40
0.3120117188
 40
0.3122558594
 40
0.3125
 40
0.3127441406
 40
0.3129882812
 40
0.3134765625
 40
0.314453125
 40
0.3154296875
 40
0.31640625
 40
0.318359375
 40
0.3203125
 40
0.32421875
 40
0.328125
 40
0.33203125
 40
0.3359375
 40
0.34375
 40
0.3515625
 40
0.35546875
 40
0.359375
 40
0.36328125
 40
0.3671875
 40
0.369140625
 40
0.37109375
 40
0.3720703125
 40
0.373046875
 40
0.3740234375
 40
0.3745117188
 40
0.3747558594
 40
0.375
 40
0.3752441406
 40
0.3754882812
 40
0.3759765625
 40
0.376953125
 40
0.3779296875
 40
0.37890625
 40
0.380859375
 40
0.3828125
 40
0.38671875
 40
0.390625
 40
0.39453125
 40
0.3984375
 40
0.40625
 40
0.4140625
 40
0.41796875
 40
0.421875
 40
0.42578125
 40
0.4296875
 40
0.431640625
 40
0.43359375
 40
0.4345703125
 40
0.435546875
 40
0.4365234375
 40
0.4370117188
 40
0.4372558594
 40
0.4375
 40
0.4377441406
 40
0.4379882812
 40
0.4384765625
 40
0.439453125
 40
0.4404296875
 40
0.44140625
 40
0.443359375
 40
0.4453125
 40
0.44921875
 40
0.453125
 40
0.45703125
 40
0.4609375
 40
0.46875
 40
0.4765625
 40
0.48046875
 40
0.484375
 40
0.48828125
 40
0.4921875
 40
0.494140625
 40
0.49609375
 40
0.4970703125
 40
0.498046875
 40
0.4990234375
 40
0.4995117188
 40
0.4997558594
 40
0.5
 40
0.5002441406
 40
0.5004882812
 40
0.5009765625
 40
0.501953125
 40
0.5029296875
 40
0.50390625
 40
0.505859375
 40
0.5078125
 40
0.51171875
 40
0.515625
 40
0.51953125
 40
0.5234375
 40
0.53125
 40
0.5390625
 40
0.54296875
 40
0.546875
 40
0.55078125
 40
0.5546875
 40
0.556640625
 40
0.55859375
 40
0.5595703125
 40
0.560546875
 40
0.5615234375
 40
0.5620117188
 40
0.5622558594
 40
0.5625
 40
0.5627441406
 40
0.5629882812
 40
0.5634765625
 40
0.564453125
 40
0.5654296875
 40
0.56640625
 40
0.568359375
 40
0.5703125
 40
0.57421875
 40
0.578125
 40
0.58203125
 40
0.5859375
 40
0.59375
 40
0.6015625
 40
0.60546875
 40
0.609375
 40
0.61328125
 40
0.6171875
 40
0.619140625
 40
0.62109375
 40
0.6220703125
 40
0.623046875
 40
0.6240234375
 40
0.6245117188
 40
0.625
 40
0.6254882812
 40
0.6259765625
 40
0.626953125
 40
0.6279296875
 40
0.62890625
 40
0.630859375
 40
0.6328125
 40
0.63671875
 40
0.640625
 40
0.64453125
 40
0.6484375
 40
0.65625
 40
0.6640625
 40
0.66796875
 40
0.671875
 40
0.67578125
 40
0.6796875
 40
0.681640625
 40
0.68359375
 40
0.6845703125
 40
0.685546875
 40
0.6865234375
 40
0.6870117188
 40
0.6872558594
 40
0.6875
 40
0.6877441406
 40
0.6879882812
 40
0.6884765625
 40
0.689453125
 40
0.6904296875
 40
0.69140625
 40
0.693359375
 40
0.6953125
 40
0.69921875
 40
0.703125
 40
0.70703125
 40
0.7109375
 40
0.71875
 40
0.7265625
 40
0.73046875
 40
0.734375
 40
0.73828125
 40
0.7421875
 40
0.744140625
 40
0.74609375
 40
0.7470703125
 40
0.748046875
 40
0.7490234375
 40
0.7495117188
 40
0.7497558594
 40
0.75
 40
0.7502441406
 40
0.7504882812
 40
0.7509765625
 40
0.751953125
 40
0.7529296875
 40
0.75390625
 40
0.755859375
 40
0.7578125
 40
0.76171875
 40
0.765625
 40
0.76953125
 40
0.7734375
 40
0.78125
 40
0.7890625
 40
0.79296875
 40
0.796875
 40
0.80078125
 40
0.8046875
 40
0.806640625
 40
0.80859375
 40
0.8095703125
 40
0.810546875
 40
0.8115234375
 40
0.8120117188
 40
0.8125
 40
0.8129882812
 40
0.8134765625
 40
0.814453125
 40
0.8154296875
 40
0.81640625
 40
0.818359375
 40
0.8203125
 40
0.82421875
 40
0.828125
 40
0.83203125
 40
0.8359375
 40
0.84375
 40
0.8515625
 40
0.85546875
 40
0.859375
 40
0.86328125
 40
0.8671875
 40
0.869140625
 40
0.87109375
 40
0.8720703125
 40
0.873046875
 40
0.8740234375
 40
0.8745117188
 40
0.875
 40
0.8754882812
 40
0.8759765625
 40
0.876953125
 40
0.8779296875
 40
0.87890625
 40
0.880859375
 40
0.8828125
 40
0.88671875
 40
0.890625
 40
0.89453125
 40
0.8984375
 40
0.90625
 40
0.9140625
 40
0.91796875
 40
0.921875
 40
0.92578125
 40
0.9296875
 40
0.931640625
 40
0.93359375
 40
0.9345703125
 40
0.935546875
 40
0.9365234375
 40
0.9370117188
 40
0.9372558594
 40
0.9375
 40
0.9377441406
 40
0.9379882812
 40
0.9384765625
 40
0.939453125
 40
0.9404296875
 40
0.94140625
 40
0.943359375
 40
0.9453125
 40
0.94921875
 40
0.953125
 40
0.95703125
 40
0.9609375
 40
0.96875
 40
0.9765625
 40
0.984375
 40
1.0
 40
1.0
 40
1.0
 40
1.0
 10
9.3483283708
 20
7.4543205658
 30
0.0
 10
9.3525059533
 20
7.454440465
 30
0.0
 10
9.3587723272
 20
7.4546203139
 30
0.0
 10
9.3671274923
 20
7.4548601123
 30
0.0
 10
9.3733938661
 20
7.4550399612
 30
0.0
 10
9.3786158443
 20
7.455189835
 30
0.0
 10
9.3827934268
 20
7.4553097346
 30
0.0
 10
9.385926614
 20
7.4553996577
 30
0.0
 10
9.3890597999
 20
7.4554895871
 30
0.0
 10
9.3916707921
 20
7.4555645086
 30
0.0
 10
9.3937595772
 20
7.4556244898
 30
0.0
 10
9.3950650874
 20
7.4556618779
 30
0.0
 10
9.3961094508
 20
7.4556920177
 30
0.0
 10
9.396892846
 20
7.4557139948
 30
0.0
 10
9.3975452852
 20
7.4557343062
 30
0.0
 10
9.3980027583
 20
7.4557446046
 30
0.0
 10
9.398262976
 20
7.4557566095
 30
0.0
 10
9.3984615068
 20
7.4557483729
 30
0.0
 10
9.3986471655
 20
7.4558060375
 30
0.0
 10
9.3988992004
 20
7.4558599365
 30
0.0
 10
9.3993381695
 20
7.4559649699
 30
0.0
 10
9.3999663619
 20
7.4561094182
 30
0.0
 10
9.4007197246
 20
7.456285153
 30
0.0
 10
9.4017243718
 20
7.4565186288
 30
0.0
 10
9.4029801248
 20
7.4568107603
 30
0.0
 10
9.4049893608
 20
7.4572780104
 30
0.0
 10
9.4075008951
 20
7.457862128
 30
0.0
 10
9.4105147409
 20
7.4585630456
 30
0.0
 10
9.4135285854
 20
7.4592639694
 30
0.0
 10
9.4175470452
 20
7.4601985324
 30
0.0
 10
9.4225701198
 20
7.4613667369
 30
0.0
 10
9.4275931946
 20
7.4625349409
 30
0.0
 10
9.4316116542
 20
7.4634695047
 30
0.0
 10
9.4346254995
 20
7.464170426
 30
0.0
 10
9.4376393424
 20
7.4648713533
 30
0.0
 10
9.4401508857
 20
7.4654554406
 30
0.0
 10
9.4421601034
 20
7.4659227525
 30
0.0
 10
9.4434159029
 20
7.4662147267
 30
0.0
 10
9.4444204546
 20
7.4664485253
 30
0.0
 10
9.445174109
 20
7.4666232739
 30
0.0
 10
9.4458013889
 20
7.4667708077
 30
0.0
 10
9.4462419869
 20
7.4668703331
 30
0.0
 10
9.4464914119
 20
7.4669330573
 30
0.0
 10
9.4466850873
 20
7.4669636136
 30
0.0
 10
9.4468535088
 20
7.4670571914
 30
0.0
 10
9.4470868797
 20
7.4671599792
 30
0.0
 10
9.4474911746
 20
7.4673501001
 30
0.0
 10
9.4480708845
 20
7.4676163465
 30
0.0
 10
9.4487656179
 20
7.4679381343
 30
0.0
 10
9.4496922499
 20
7.4683663841
 30
0.0
 10
9.45085043
 20
7.4689019704
 30
0.0
 10
9.4527035797
 20
7.4697587554
 30
0.0
 10
9.4550199956
 20
7.4708297892
 30
0.0
 10
9.4577997038
 20
7.4721150072
 30
0.0
 10
9.4605794096
 20
7.4734002312
 30
0.0
 10
9.4642856848
 20
7.4751138611
 30
0.0
 10
9.4689185284
 20
7.4772558993
 30
0.0
 10
9.4735513724
 20
7.479397937
 30
0.0
 10
9.4772576472
 20
7.4811115678
 30
0.0
 10
9.4800373541
 20
7.4823967893
 30
0.0
 10
9.4828170579
 20
7.4836820167
 30
0.0
 10
9.4851334874
 20
7.4847530212
 30
0.0
 10
9.4869866094
 20
7.4856098659
 30
0.0
 10
9.4881448599
 20
7.4861453001
 30
0.0
 10
9.4890713476
 20
7.4865738622
 30
0.0
 10
9.4897665218
 20
7.4868946957
 30
0.0
 10
9.4903448525
 20
7.4871639278
 30
0.0
 10
9.4907516094
 20
7.4873487188
 30
0.0
 10
9.4909810356
 20
7.4874600464
 30
0.0
 10
9.491161574
 20
7.4875273929
 30
0.0
 10
9.4913097406
 20
7.4876564696
 30
0.0
 10
9.4915185878
 20
7.4878070397
 30
0.0
 10
9.4918788094
 20
7.4880805697
 30
0.0
 10
9.4923961622
 20
7.4884660817
 30
0.0
 10
9.4930158082
 20
7.4889309412
 30
0.0
 10
9.4938424141
 20
7.4895499697
 30
0.0
 10
9.4948755307
 20
7.4903240238
 30
0.0
 10
9.4965285959
 20
7.4915623603
 30
0.0
 10
9.4985949004
 20
7.4931103325
 30
0.0
 10
9.5010744774
 20
7.494967877
 30
0.0
 10
9.5035540513
 20
7.4968254274
 30
0.0
 10
9.5068601509
 20
7.4993021592
 30
0.0
 10
9.510992775
 20
7.5023980748
 30
0.0
 10
9.5151253994
 20
7.5054939898
 30
0.0
 10
9.5184314985
 20
7.5079707224
 30
0.0
 10
9.5209110741
 20
7.5098282706
 30
0.0
 10
9.5233906447
 20
7.5116858233
 30
0.0
 10
9.525456969
 20
7.5132337699
 30
0.0
 10
9.5271099939
 20
7.5144721586
 30
0.0
 10
9.5281432132
 20
7.51524608
 30
0.0
 10
9.5289696081
 20
7.515865381
 30
0.0
 10
9.5295898988
 20
7.516329408
 30
0.0
 10
9.5301052345
 20
7.5167175245
 30
0.0
 10
9.530469057
 20
7.5169864052
 30
0.0
 10
9.5306721346
 20
7.5171444245
 30
0.0
 10
9.5308380236
 20
7.5172506196
 30
0.0
 10
9.5309519996
 20
7.5174039056
 30
0.0
 10
9.5311220755
 20
7.5175918611
 30
0.0
 10
9.5314112714
 20
7.5179284364
 30
0.0
 10
9.5318288193
 20
7.5184052571
 30
0.0
 10
9.5323279887
 20
7.5189791545
 30
0.0
 10
9.5329942075
 20
7.5197437529
 30
0.0
 10
9.5338267551
 20
7.5206997058
 30
0.0
 10
9.5351589575
 20
7.5222291158
 30
0.0
 10
9.5368241672
 20
7.5241409177
 30
0.0
 10
9.5388224373
 20
7.526435063
 30
0.0
 10
9.5408207026
 20
7.5287292129
 30
0.0
 10
9.5434850579
 20
7.5317880778
 30
0.0
 10
9.5468155015
 20
7.5356116596
 30
0.0
 10
9.5501459455
 20
7.539435241
 30
0.0
 10
9.5528103002
 20
7.5424941065
 30
0.0
 10
9.5548085675
 20
7.5447882546
 30
0.0
 10
9.5568068296
 20
7.5470824066
 30
0.0
 10
9.5584720645
 20
7.5489941878
 30
0.0
 10
9.5598042156
 20
7.5505236399
 30
0.0
 10
9.5606368937
 20
7.5514794857
 30
0.0
 10
9.5613028446
 20
7.5522443039
 30
0.0
 10
9.5618028324
 20
7.5528175299
 30
0.0
 10
9.5622178199
 20
7.5532964513
 30
0.0
 10
9.5625115865
 20
7.5536292764
 30
0.0
 10
9.5626743389
 20
7.5538232406
 30
0.0
 10
9.56281081
 20
7.5539580701
 30
0.0
 10
9.5628922112
 20
7.5541335848
 30
0.0
 10
9.5630199551
 20
7.5543534129
 30
0.0
 10
9.5632345571
 20
7.5547447243
 30
0.0
 10
9.5635458105
 20
7.5553002836
 30
0.0
 10
9.5639173118
 20
7.5559684344
 30
0.0
 10
9.5644133463
 20
7.5568587854
 30
0.0
 10
9.56503315
 20
7.5579719011
 30
0.0
 10
9.5660249698
 20
7.5597527873
 30
0.0
 10
9.5672646985
 20
7.5619789289
 30
0.0
 10
9.5687523927
 20
7.5646502844
 30
0.0
 10
9.5702400816
 20
7.5673216437
 30
0.0
 10
9.5722236687
 20
7.5708834548
 30
0.0
 10
9.5747031518
 20
7.5753357191
 30
0.0
 10
9.5771826354
 20
7.5797879832
 30
0.0
 10
9.5791662217
 20
7.5833497948
 30
0.0
 10
9.580653913
 20
7.5860211527
 30
0.0
 10
9.5821415984
 20
7.5886925134
 30
0.0
 10
9.5833813544
 20
7.5909186385
 30
0.0
 10
9.5843731185
 20
7.5926995585
 30
0.0
 10
9.5849930639
 20
7.5938125883
 30
0.0
 10
9.5854888074
 20
7.5947031155
 30
0.0
 10
9.5858611979
 20
7.5953707279
 30
0.0
 10
9.5861696691
 20
7.5959279719
 30
0.0
 10
9.5863892378
 20
7.5963162757
 30
0.0
 10
9.5865090239
 20
7.5965409227
 30
0.0
 10
9.5866148691
 20
7.5967016355
 30
0.0
 10
9.5866595325
 20
7.5968920587
 30
0.0
 10
9.5867404246
 20
7.597135593
 30
0.0
 10
9.5868720428
 20
7.5975666064
 30
0.0
 10
9.587065267
 20
7.5981798156
 30
0.0
 10
9.5872949111
 20
7.598916747
 30
0.0
 10
9.5876018803
 20
7.599898945
 30
0.0
 10
9.5879853257
 20
7.6011268216
 30
0.0
 10
9.5885989871
 20
7.6030913519
 30
0.0
 10
9.5893660128
 20
7.6055470396
 30
0.0
 10
9.5902864656
 20
7.6084938543
 30
0.0
 10
9.5912069125
 20
7.6114406718
 30
0.0
 10
9.5924341771
 20
7.6153697607
 30
0.0
 10
9.593968257
 20
7.6202811223
 30
0.0
 10
9.5955023375
 20
7.6251924837
 30
0.0
 10
9.5967296013
 20
7.629121573
 30
0.0
 10
9.5976500507
 20
7.6320683895
 30
0.0
 10
9.5985704939
 20
7.6350152081
 30
0.0
 10
9.5993375493
 20
7.6374708833
 30
0.0
 10
9.5999511503
 20
7.6394354392
 30
0.0
 10
9.6003347495
 20
7.6406632507
 30
0.0
 10
9.600641403
 20
7.6416455823
 30
0.0
 10
9.6008720118
 20
7.6423821054
 30
0.0
 10
9.6010622174
 20
7.6429965922
 30
0.0
 10
9.6011992244
 20
7.6434253248
 30
0.0
 10
9.6012714822
 20
7.6436725137
 30
0.0
 10
9.6013426676
 20
7.6438517113
 30
0.0
 10
9.6013489005
 20
7.6440545855
 30
0.0
 10
9.6013798671
 20
7.6443168258
 30
0.0
 10
9.6014235029
 20
7.6447795942
 30
0.0
 10
9.6014913584
 20
7.6454386802
 30
0.0
 10
9.6015704228
 20
7.6462304445
 30
0.0
 10
9.601676667
 20
7.6472858294
 30
0.0
 10
9.6018091899
 20
7.6486051636
 30
0.0
 10
9.6020213843
 20
7.6507160407
 30
0.0
 10
9.6022865731
 20
7.6533546568
 30
0.0
 10
9.602604823
 20
7.6565209877
 30
0.0
 10
9.6029230666
 20
7.6596873208
 30
0.0
 10
9.6033473936
 20
7.6639090975
 30
0.0
 10
9.6038778015
 20
7.6691863187
 30
0.0
 10
9.60440821
 20
7.6744635398
 30
0.0
 10
9.6048325361
 20
7.6786853167
 30
0.0
 10
9.6051507824
 20
7.6818516494
 30
0.0
 10
9.6054690223
 20
7.6850179819
 30
0.0
 10
9.6057342422
 20
7.6876565928
 30
0.0
 10
9.6059463732
 20
7.6897674806
 30
0.0
 10
9.6060790575
 20
7.6910867875
 30
0.0
 10
9.6061849703
 20
7.6921422285
 30
0.0
 10
9.6062650475
 20
7.6929338214
 30
0.0
 10
9.606329734
 20
7.6935934435
 30
0.0
 10
9.6063790269
 20
7.6940552549
 30
0.0
 10
9.6064009294
 20
7.6943190285
 30
0.0
 10
9.6064350045
 20
7.6945171929
 30
0.0
 10
9.606401619
 20
7.6947140801
 30
0.0
 10
9.6063806359
 20
7.6949770419
 30
0.0
 10
9.6063329521
 20
7.6954370174
 30
0.0
 10
9.6062705642
 20
7.6960942338
 30
0.0
 10
9.6061932452
 20
7.6968828471
 30
0.0
 10
9.6060910102
 20
7.6979343476
 30
0.0
 10
9.6059629231
 20
7.6992487178
 30
0.0
 10
9.6057581476
 20
7.7013517132
 30
0.0
 10
9.6055021221
 20
7.7039804563
 30
0.0
 10
9.6051949155
 20
7.7071349485
 30
0.0
 10
9.6048877025
 20
7.7102894406
 30
0.0
 10
9.6044780874
 20
7.7144954301
 30
0.0
 10
9.6039660677
 20
7.719752917
 30
0.0
 10
9.6034540485
 20
7.7250104039
 30
0.0
 10
9.6030444325
 20
7.7292163933
 30
0.0
 10
9.6027372222
 20
7.7323708856
 30
0.0
 10
9.6024300056
 20
7.7355253771
 30
0.0
 10
9.6021740111
 20
7.7381541225
 30
0.0
 10
9.6019691722
 20
7.7402571132
 30
0.0
 10
9.6018412466
 20
7.7415714951
 30
0.0
 10
9.60173868
 20
7.7426229716
 30
0.0
 10
9.6016623743
 20
7.7434116586
 30
0.0
 10
9.6015968161
 20
7.7440686443
 30
0.0
 10
9.6015547918
 20
7.7445290317
 30
0.0
 10
9.6015247407
 20
7.7447913335
 30
0.0
 10
9.6015192092
 20
7.7449902479
 30
0.0
 10
9.6014486692
 20
7.7451807986
 30
0.0
 10
9.6013772915
 20
7.7454377835
 30
0.0
 10
9.6012418155
 20
7.7458861479
 30
0.0
 10
9.6010538018
 20
7.7465273791
 30
0.0
 10
9.6008258212
 20
7.7472965523
 30
0.0
 10
9.6005226728
 20
7.7483222229
 30
0.0
 10
9.6001434546
 20
7.7496042747
 30
0.0
 10
9.5995368635
 20
7.751655578
 30
0.0
 10
9.5987785704
 20
7.7542197001
 30
0.0
 10
9.5978686419
 20
7.7572966496
 30
0.0
 10
9.5969587072
 20
7.7603735984
 30
0.0
 10
9.5957454631
 20
7.764476197
 30
0.0
 10
9.5942289074
 20
7.7696044451
 30
0.0
 10
9.5927123513
 20
7.7747326931
 30
0.0
 10
9.5914991079
 20
7.778835292
 30
0.0
 10
9.590589171
 20
7.7819122397
 30
0.0
 10
9.5896792507
 20
7.7849891931
 30
0.0
 10
9.5889209322
 20
7.7875533033
 30
0.0
 10
9.5883143928
 20
7.7896046309
 30
0.0
 10
9.587935043
 20
7.7908866207
 30
0.0
 10
9.5876321647
 20
7.7919124187
 30
0.0
 10
9.587403359
 20
7.7926812026
 30
0.0
 10
9.5872179271
 20
7.793323652
 30
0.0
 10
9.5870578301
 20
7.793833583
 30
0.0
 10
9.586969868
 20
7.7942270394
 30
0.0
 10
9.5867593389
 20
7.7945784773
 30
0.0
 10
9.5865214476
 20
7.7950617388
 30
0.0
 10
9.5862093942
 20
7.7956607799
 30
0.0
 10
9.5858412177
 20
7.7963817846
 30
0.0
 10
9.5853481195
 20
7.7973423714
 30
0.0
 10
9.5847324986
 20
7.7985433628
 30
0.0
 10
9.5837470851
 20
7.8004648048
 30
0.0
 10
9.5825154624
 20
7.8028666567
 30
0.0
 10
9.5810374533
 20
7.8057488579
 30
0.0
 10
9.5795594607
 20
7.8086310648
 30
0.0
 10
9.5775887982
 20
7.8124740052
 30
0.0
 10
9.5751254719
 20
7.8172776815
 30
0.0
 10
9.5726621452
 20
7.8220813576
 30
0.0
 10
9.5706914835
 20
7.8259242983
 30
0.0
 10
9.5692134886
 20
7.8288065045
 30
0.0
 10
9.5677354881
 20
7.831688708
 30
0.0
 10
9.5665038387
 20
7.8340905527
 30
0.0
 10
9.5655184795
 20
7.8360120096
 30
0.0
 10
9.5649027204
 20
7.8372129631
 30
0.0
 10
9.5644099061
 20
7.8381736275
 30
0.0
 10
9.5640408621
 20
7.838894395
 30
0.0
 10
9.5637315226
 20
7.8394941785
 30
0.0
 10
9.5635185229
 20
7.839915707
 30
0.0
 10
9.5633912846
 20
7.8401539572
 30
0.0
 10
9.5633114177
 20
7.8403400344
 30
0.0
 10
9.5631720656
 20
7.8404978651
 30
0.0
 10
9.5630070119
 20
7.8407181588
 30
0.0
 10
9.5627085005
 20
7.8410990823
 30
0.0
 10
9.5622871099
 20
7.8416456586
 30
0.0
 10
9.5617792779
 20
7.8423005228
 30
0.0
 10
9.561102924
 20
7.843174034
 30
0.0
 10
9.560257223
 20
7.8442658002
 30
0.0
 10
9.558904246
 20
7.8460126947
 30
0.0
 10
9.5572129752
 20
7.8481962892
 30
0.0
 10
9.5551834714
 20
7.8508166128
 30
0.0
 10
9.553153962
 20
7.8534369336
 30
0.0
 10
9.5504479514
 20
7.8569306957
 30
0.0
 10
9.5470654374
 20
7.861297898
 30
0.0
 10
9.5436829238
 20
7.8656651005
 30
0.0
 10
9.5409769125
 20
7.8691588621
 30
0.0
 10
9.5389474052
 20
7.8717791845
 30
0.0
 10
9.5369178936
 20
7.8743995022
 30
0.0
 10
9.535226647
 20
7.8765831149
 30
0.0
 10
9.5338736206
 20
7.8783299724
 30
0.0
 10
9.5330280452
 20
7.8794218327
 30
0.0
 10
9.5323514336
 20
7.8802951507
 30
0.0
 10
9.5318443892
 20
7.8809506051
 30
0.0
 10
9.5314205341
 20
7.8814953352
 30
0.0
 10
9.5311264223
 20
7.8818795544
 30
0.0
 10
9.5309543195
 20
7.8820945674
 30
0.0
 10
9.5308366199
 20
7.8822686189
 30
0.0
 10
9.5306754296
 20
7.8823937735
 30
0.0
 10
9.5304756793
 20
7.8825777021
 30
0.0
 10
9.5301190482
 20
7.8828916304
 30
0.0
 10
9.5296132705
 20
7.8833442541
 30
0.0
 10
9.5290047555
 20
7.8838856242
 30
0.0
 10
9.5281939547
 20
7.8846080722
 30
0.0
 10
9.5271802645
 20
7.8855109195
 30
0.0
 10
9.5255584659
 20
7.886955594
 30
0.0
 10
9.5235311814
 20
7.8887613963
 30
0.0
 10
9.5210984555
 20
7.8909283766
 30
0.0
 10
9.5186657254
 20
7.8930953523
 30
0.0
 10
9.5154220868
 20
7.8959846547
 30
0.0
 10
9.5113675382
 20
7.8995962824
 30
0.0
 10
9.5073129893
 20
7.9032079096
 30
0.0
 10
9.5040693511
 20
7.9060972127
 30
0.0
 10
9.5016366198
 20
7.9082641863
 30
0.0
 10
9.4992038985
 20
7.9104311741
 30
0.0
 10
9.4971765997
 20
7.9122369532
 30
0.0
 10
9.4955548301
 20
7.9136816752
 30
0.0
 10
9.4945410661
 20
7.9145844014
 30
0.0
 10
9.4937304168
 20
7.915307098
 30
0.0
 10
9.4931214388
 20
7.9158477087
 30
0.0
 10
9.4926171098
 20
7.9163027083
 30
0.0
 10
9.4922065758
 20
7.9166566362
 30
0.0
 10
9.4919179961
 20
7.9169496033
 30
0.0
 10
9.4915556684
 20
7.9171375213
 30
0.0
 10
9.4910983258
 20
7.9174247736
 30
0.0
 10
9.4905178092
 20
7.9177712492
 30
0.0
 10
9.4898249723
 20
7.9181924087
 30
0.0
 10
9.4888998685
 20
7.9187520725
 30
0.0
 10
9.4877439411
 20
7.9194522967
 30
0.0
 10
9.4858942045
 20
7.9205722952
 30
0.0
 10
9.4835821205
 20
7.921972417
 30
0.0
 10
9.4808075824
 20
7.9236525101
 30
0.0
 10
9.4780330544
 20
7.9253326175
 30
0.0
 10
9.4743336801
 20
7.9275727556
 30
0.0
 10
9.4697094636
 20
7.9303729302
 30
0.0
 10
9.4650852463
 20
7.9331731034
 30
0.0
 10
9.4613858732
 20
7.9354132436
 30
0.0
 10
9.4586113416
 20
7.9370933446
 30
0.0
 10
9.4558368169
 20
7.9387734616
 30
0.0
 10
9.4535246915
 20
7.9401735092
 30
0.0
 10
9.4516750392
 20
7.9412936591
 30
0.0
 10
9.4505188973
 20
7.9419934981
 30
0.0
 10
9.4495942338
 20
7.9425539526
 30
0.0
 10
9.4489000516
 20
7.9429726963
 30
0.0
 10
9.4483237443
 20
7.9433267303
 30
0.0
 10
9.4478578138
 20
7.9435985618
 30
0.0
 10
9.4475217131
 20
7.9438335741
 30
0.0
 10
9.4471346663
 20
7.9439497295
 30
0.0
 10
9.4466364
 20
7.9441461217
 30
0.0
 10
9.4460074614
 20
7.9443773672
 30
0.0
 10
9.4452553485
 20
7.9446609589
 30
0.0
 10
9.4442516186
 20
7.9450369516
 30
0.0
 10
9.4429972686
 20
7.9455076717
 30
0.0
 10
9.4409901341
 20
7.9462604163
 30
0.0
 10
9.4384812758
 20
7.9472014869
 30
0.0
 10
9.4354706202
 20
7.9483307117
 30
0.0
 10
9.4324599715
 20
7.9494599525
 30
0.0
 10
9.4284457708
 20
7.9509656013
 30
0.0
 10
9.4234280207
 20
7.9528476642
 30
0.0
 10
9.4184102704
 20
7.9547297266
 30
0.0
 10
9.41439607
 20
7.9562353761
 30
0.0
 10
9.4113854202
 20
7.9573646148
 30
0.0
 10
9.4083747686
 20
7.9584938475
 30
0.0
 10
9.4058658979
 20
7.9594348936
 30
0.0
 10
9.4038587886
 20
7.9601876881
 30
0.0
 10
9.4026043744
 20
7.9606582813
 30
0.0
 10
9.4016007764
 20
7.9610345344
 30
0.0
 10
9.4008482605
 20
7.9613173305
 30
0.0
 10
9.4002205829
 20
7.9615510656
 30
0.0
 10
9.3997823488
 20
7.9617184643
 30
0.0
 10
9.3995301489
 20
7.9618082121
 30
0.0
 10
9.3993460146
 20
7.9618921674
 30
0.0
 10
9.399142708
 20
7.9619124996
 30
0.0
 10
9.39887832
 20
7.9619618016
 30
0.0
 10
9.3984125253
 20
7.9620377403
 30
0.0
 10
9.3977487332
 20
7.9621516299
 30
0.0
 10
9.3969514854
 20
7.9622859837
 30
0.0
 10
9.3958887319
 20
7.9624659301
 30
0.0
 10
9.3945602067
 20
7.9626905865
 30
0.0
 10
9.3924346129
 20
7.9630501913
 30
0.0
 10
9.3897776047
 20
7.9634996443
 30
0.0
 10
9.3865892017
 20
7.9640390107
 30
0.0
 10
9.3834007969
 20
7.9645783709
 30
0.0
 10
9.3791495911
 20
7.96529752
 30
0.0
 10
9.3738355837
 20
7.9661964557
 30
0.0
 10
9.3674587748
 20
7.9672751788
 30
0.0
 10
9.358956363
 20
7.9687134762
 30
0.0
 10
9.3525795541
 20
7.9697921993
 30
0.0
 10
9.3483283482
 20
7.970511348
 30
0.0
  0
SPLINE
  5
424
100
AcDbEntity
  8
0
100
AcDbSpline
 62
4
  6
CONTINUOUS
 70
0
 71
3
 72
397
 73
393
 74
0
 42
0.0000001
 43
0.0000001
 44
0.0000000001
 40
0.0
 40
0.0
 40
0.0
 40
0.0
 40
0.015625
 40
0.0234375
 40
0.03125
 40
0.0390625
 40
0.04296875
 40
0.046875
 40
0.05078125
 40
0.0546875
 40
0.056640625
 40
0.05859375
 40
0.0595703125
 40
0.060546875
 40
0.0615234375
 40
0.0620117188
 40
0.0622558594
 40
0.0625
 40
0.0627441406
 40
0.0629882812
 40
0.0634765625
 40
0.064453125
 40
0.0654296875
 40
0.06640625
 40
0.068359375
 40
0.0703125
 40
0.07421875
 40
0.078125
 40
0.08203125
 40
0.0859375
 40
0.09375
 40
0.1015625
 40
0.10546875
 40
0.109375
 40
0.11328125
 40
0.1171875
 40
0.119140625
 40
0.12109375
 40
0.1220703125
 40
0.123046875
 40
0.1240234375
 40
0.1245117188
 40
0.1247558594
 40
0.125
 40
0.1252441406
 40
0.1254882812
 40
0.1259765625
 40
0.126953125
 40
0.1279296875
 40
0.12890625
 40
0.130859375
 40
0.1328125
 40
0.13671875
 40
0.140625
 40
0.14453125
 40
0.1484375
 40
0.15625
 40
0.1640625
 40
0.16796875
 40
0.171875
 40
0.17578125
 40
0.1796875
 40
0.181640625
 40
0.18359375
 40
0.1845703125
 40
0.185546875
 40
0.1865234375
 40
0.1870117188
 40
0.1872558594
 40
0.1875
 40
0.1877441406
 40
0.1879882812
 40
0.1884765625
 40
0.189453125
 40
0.1904296875
 40
0.19140625
 40
0.193359375
 40
0.1953125
 40
0.19921875
 40
0.203125
 40
0.20703125
 40
0.2109375
 40
0.21875
 40
0.2265625
 40
0.23046875
 40
0.234375
 40
0.23828125
 40
0.2421875
 40
0.244140625
 40
0.24609375
 40
0.2470703125
 40
0.248046875
 40
0.2490234375
 40
0.2495117188
 40
0.2497558594
 40
0.25
 40
0.2502441406
 40
0.2504882812
 40
0.2509765625
 40
0.251953125
 40
0.2529296875
 40
0.25390625
 40
0.255859375
 40
0.2578125
 40
0.26171875
 40
0.265625
 40
0.26953125
 40
0.2734375
 40
0.28125
 40
0.2890625
 40
0.29296875
 40
0.296875
 40
0.30078125
 40
0.3046875
 40
0.306640625
 40
0.30859375
 40
0.3095703125
 40
0.310546875
 40
0.3115234375
 40
0.3120117188
 40
0.3122558594
 40
0.3125
 40
0.3127441406
 40
0.3129882812
 40
0.3134765625
 40
0.314453125
 40
0.3154296875
 40
0.31640625
 40
0.318359375
 40
0.3203125
 40
0.32421875
 40
0.328125
 40
0.33203125
 40
0.3359375
 40
0.34375
 40
0.3515625
 40
0.35546875
 40
0.359375
 40
0.36328125
 40
0.3671875
 40
0.369140625
 40
0.37109375
 40
0.3720703125
 40
0.373046875
 40
0.3740234375
 40
0.3745117188
 40
0.3747558594
 40
0.375
 40
0.3752441406
 40
0.3754882812
 40
0.3759765625
 40
0.376953125
 40
0.3779296875
 40
0.37890625
 40
0.380859375
 40
0.3828125
 40
0.38671875
 40
0.390625
 40
0.39453125
 40
0.3984375
 40
0.40625
 40
0.4140625
 40
0.41796875
 40
0.421875
 40
0.42578125
 40
0.4296875
 40
0.431640625
 40
0.43359375
 40
0.4345703125
 40
0.435546875
 40
0.4365234375
 40
0.4370117188
 40
0.4372558594
 40
0.4375
 40
0.4377441406
 40
0.4379882812
 40
0.4384765625
 40
0.439453125
 40
0.4404296875
 40
0.44140625
 40
0.443359375
 40
0.4453125
 40
0.44921875
 40
0.453125
 40
0.45703125
 40
0.4609375
 40
0.46875
 40
0.4765625
 40
0.48046875
 40
0.484375
 40
0.48828125
 40
0.4921875
 40
0.494140625
 40
0.49609375
 40
0.4970703125
 40
0.498046875
 40
0.4990234375
 40
0.4995117188
 40
0.4997558594
 40
0.5
 40
0.5002441406
 40
0.5004882812
 40
0.5009765625
 40
0.501953125
 40
0.5029296875
 40
0.50390625
 40
0.505859375
 40
0.5078125
 40
0.51171875
 40
0.515625
 40
0.51953125
 40
0.5234375
 40
0.53125
 40
0.5390625
 40
0.54296875
 40
0.546875
 40
0.55078125
 40
0.5546875
 40
0.556640625
 40
0.55859375
 40
0.5595703125
 40
0.560546875
 40
0.5615234375
 40
0.5620117188
 40
0.5622558594
 40
0.5625
 40
0.5627441406
 40
0.5629882812
 40
0.5634765625
 40
0.564453125
 40
0.5654296875
 40
0.56640625
 40
0.568359375
 40
0.5703125
 40
0.57421875
 40
0.578125
 40
0.58203125
 40
0.5859375
 40
0.59375
 40
0.6015625
 40
0.60546875
 40
0.609375
 40
0.61328125
 40
0.6171875
 40
0.619140625
 40
0.62109375
 40
0.6220703125
 40
0.623046875
 40
0.6240234375
 40
0.6245117188
 40
0.625
 40
0.6254882812
 40
0.6259765625
 40
0.626953125
 40
0.6279296875
 40
0.62890625
 40
0.630859375
 40
0.6328125
 40
0.63671875
 40
0.640625
 40
0.64453125
 40
0.6484375
 40
0.65625
 40
0.6640625
 40
0.66796875
 40
0.671875
 40
0.67578125
 40
0.6796875
 40
0.681640625
 40
0.68359375
 40
0.6845703125
 40
0.685546875
 40
0.6865234375
 40
0.6870117188
 40
0.6872558594
 40
0.6875
 40
0.6877441406
 40
0.6879882812
 40
0.6884765625
 40
0.689453125
 40
0.6904296875
 40
0.69140625
 40
0.693359375
 40
0.6953125
 40
0.69921875
 40
0.703125
 40
0.70703125
 40
0.7109375
 40
0.71875
 40
0.7265625
 40
0.73046875
 40
0.734375
 40
0.73828125
 40
0.7421875
 40
0.744140625
 40
0.74609375
 40
0.7470703125
 40
0.748046875
 40
0.7490234375
 40
0.7495117188
 40
0.7497558594
 40
0.75
 40
0.7502441406
 40
0.7504882812
 40
0.7509765625
 40
0.751953125
 40
0.7529296875
 40
0.75390625
 40
0.755859375
 40
0.7578125
 40
0.76171875
 40
0.765625
 40
0.76953125
 40
0.7734375
 40
0.78125
 40
0.7890625
 40
0.79296875
 40
0.796875
 40
0.80078125
 40
0.8046875
 40
0.806640625
 40
0.80859375
 40
0.8095703125
 40
0.810546875
 40
0.8115234375
 40
0.8120117188
 40
0.8125
 40
0.8129882812
 40
0.8134765625
 40
0.814453125
 40
0.8154296875
 40
0.81640625
 40
0.818359375
 40
0.8203125
 40
0.82421875
 40
0.828125
 40
0.83203125
 40
0.8359375
 40
0.84375
 40
0.8515625
 40
0.85546875
 40
0.859375
 40
0.86328125
 40
0.8671875
 40
0.869140625
 40
0.87109375
 40
0.8720703125
 40
0.873046875
 40
0.8740234375
 40
0.8745117188
 40
0.875
 40
0.8754882812
 40
0.8759765625
 40
0.876953125
 40
0.8779296875
 40
0.87890625
 40
0.880859375
 40
0.8828125
 40
0.88671875
 40
0.890625
 40
0.89453125
 40
0.8984375
 40
0.90625
 40
0.9140625
 40
0.91796875
 40
0.921875
 40
0.92578125
 40
0.9296875
 40
0.931640625
 40
0.93359375
 40
0.9345703125
 40
0.935546875
 40
0.9365234375
 40
0.9370117188
 40
0.9372558594
 40
0.9375
 40
0.9377441406
 40
0.9379882812
 40
0.9384765625
 40
0.939453125
 40
0.9404296875
 40
0.94140625
 40
0.943359375
 40
0.9453125
 40
0.94921875
 40
0.953125
 40
0.95703125
 40
0.9609375
 40
0.96875
 40
0.9765625
 40
0.984375
 40
1.0
 40
1.0
 40
1.0
 40
1.0
 10
9.3483283708
 20
7.9705113464
 30
0.0
 10
9.3441507882
 20
7.9703914472
 30
0.0
 10
9.3378844144
 20
7.9702115984
 30
0.0
 10
9.3295292493
 20
7.9699718
 30
0.0
 10
9.3232628754
 20
7.9697919511
 30
0.0
 10
9.3180408972
 20
7.9696420773
 30
0.0
 10
9.3138633147
 20
7.9695221776
 30
0.0
 10
9.3107301276
 20
7.9694322545
 30
0.0
 10
9.3075969416
 20
7.9693423251
 30
0.0
 10
9.3049859495
 20
7.9692674036
 30
0.0
 10
9.3028971644
 20
7.9692074224
 30
0.0
 10
9.3015916541
 20
7.9691700343
 30
0.0
 10
9.3005472907
 20
7.9691398945
 30
0.0
 10
9.2997638955
 20
7.9691179175
 30
0.0
 10
9.2991114563
 20
7.9690976061
 30
0.0
 10
9.2986539833
 20
7.9690873076
 30
0.0
 10
9.2983937655
 20
7.9690753027
 30
0.0
 10
9.2981952347
 20
7.9690835394
 30
0.0
 10
9.298009576
 20
7.9690258748
 30
0.0
 10
9.2977575412
 20
7.9689719758
 30
0.0
 10
9.2973185721
 20
7.9688669424
 30
0.0
 10
9.2966903797
 20
7.968722494
 30
0.0
 10
9.2959370169
 20
7.9685467593
 30
0.0
 10
9.2949323698
 20
7.9683132834
 30
0.0
 10
9.2936766168
 20
7.968021152
 30
0.0
 10
9.2916673808
 20
7.9675539019
 30
0.0
 10
9.2891558464
 20
7.9669697843
 30
0.0
 10
9.2861420007
 20
7.9662688667
 30
0.0
 10
9.2831281561
 20
7.9655679428
 30
0.0
 10
9.2791096963
 20
7.9646333799
 30
0.0
 10
9.2740866217
 20
7.9634651754
 30
0.0
 10
9.2690635469
 20
7.9622969714
 30
0.0
 10
9.2650450874
 20
7.9613624076
 30
0.0
 10
9.2620312421
 20
7.9606614863
 30
0.0
 10
9.2590173992
 20
7.959960559
 30
0.0
 10
9.2565058559
 20
7.9593764717
 30
0.0
 10
9.2544966381
 20
7.9589091598
 30
0.0
 10
9.2532408387
 20
7.9586171856
 30
0.0
 10
9.252236287
 20
7.9583833869
 30
0.0
 10
9.2514826326
 20
7.9582086384
 30
0.0
 10
9.2508553526
 20
7.9580611046
 30
0.0
 10
9.2504147547
 20
7.9579615792
 30
0.0
 10
9.2501653297
 20
7.9578988549
 30
0.0
 10
9.2499716543
 20
7.9578682987
 30
0.0
 10
9.2498032327
 20
7.9577747208
 30
0.0
 10
9.2495698618
 20
7.957671933
 30
0.0
 10
9.2491655669
 20
7.9574818122
 30
0.0
 10
9.248585857
 20
7.9572155657
 30
0.0
 10
9.2478911237
 20
7.956893778
 30
0.0
 10
9.2469644917
 20
7.9564655282
 30
0.0
 10
9.2458063115
 20
7.9559299418
 30
0.0
 10
9.2439531619
 20
7.9550731568
 30
0.0
 10
9.2416367459
 20
7.9540021231
 30
0.0
 10
9.2388570378
 20
7.9527169051
 30
0.0
 10
9.236077332
 20
7.951431681
 30
0.0
 10
9.2323710568
 20
7.9497180511
 30
0.0
 10
9.2277382131
 20
7.9475760129
 30
0.0
 10
9.2231053692
 20
7.9454339753
 30
0.0
 10
9.2193990944
 20
7.9437203445
 30
0.0
 10
9.2166193875
 20
7.942435123
 30
0.0
 10
9.2138396836
 20
7.9411498956
 30
0.0
 10
9.2115232541
 20
7.9400788911
 30
0.0
 10
9.2096701321
 20
7.9392220463
 30
0.0
 10
9.2085118817
 20
7.9386866122
 30
0.0
 10
9.207585394
 20
7.93825805
 30
0.0
 10
9.2068902198
 20
7.9379372165
 30
0.0
 10
9.2063118891
 20
7.9376679844
 30
0.0
 10
9.2059051322
 20
7.9374831934
 30
0.0
 10
9.205675706
 20
7.9373718659
 30
0.0
 10
9.2054951676
 20
7.9373045193
 30
0.0
 10
9.2053470009
 20
7.9371754426
 30
0.0
 10
9.2051381537
 20
7.9370248725
 30
0.0
 10
9.2047779322
 20
7.9367513426
 30
0.0
 10
9.2042605794
 20
7.9363658305
 30
0.0
 10
9.2036409334
 20
7.9359009711
 30
0.0
 10
9.2028143275
 20
7.9352819426
 30
0.0
 10
9.2017812109
 20
7.9345078884
 30
0.0
 10
9.2001281457
 20
7.9332695519
 30
0.0
 10
9.1980618412
 20
7.9317215798
 30
0.0
 10
9.1955822642
 20
7.9298640353
 30
0.0
 10
9.1931026903
 20
7.9280064848
 30
0.0
 10
9.1897965907
 20
7.925529753
 30
0.0
 10
9.1856639666
 20
7.9224338375
 30
0.0
 10
9.1815313421
 20
7.9193379224
 30
0.0
 10
9.1782252431
 20
7.9168611899
 30
0.0
 10
9.1757456675
 20
7.9150036416
 30
0.0
 10
9.1732660968
 20
7.9131460889
 30
0.0
 10
9.1711997725
 20
7.9115981423
 30
0.0
 10
9.1695467477
 20
7.9103597536
 30
0.0
 10
9.1685135283
 20
7.9095858323
 30
0.0
 10
9.1676871334
 20
7.9089665313
 30
0.0
 10
9.1670668427
 20
7.9085025042
 30
0.0
 10
9.1665515071
 20
7.9081143878
 30
0.0
 10
9.1661876846
 20
7.9078455071
 30
0.0
 10
9.165984607
 20
7.9076874878
 30
0.0
 10
9.1658187179
 20
7.9075812927
 30
0.0
 10
9.1657047419
 20
7.9074280067
 30
0.0
 10
9.1655346661
 20
7.9072400511
 30
0.0
 10
9.1652454702
 20
7.9069034759
 30
0.0
 10
9.1648279223
 20
7.9064266552
 30
0.0
 10
9.1643287528
 20
7.9058527577
 30
0.0
 10
9.1636625341
 20
7.9050881593
 30
0.0
 10
9.1628299865
 20
7.9041322065
 30
0.0
 10
9.1614977841
 20
7.9026027964
 30
0.0
 10
9.1598325744
 20
7.9006909946
 30
0.0
 10
9.1578343042
 20
7.8983968492
 30
0.0
 10
9.155836039
 20
7.8961026993
 30
0.0
 10
9.1531716836
 20
7.8930438344
 30
0.0
 10
9.1498412401
 20
7.8892202527
 30
0.0
 10
9.1465107961
 20
7.8853966713
 30
0.0
 10
9.1438464414
 20
7.8823378058
 30
0.0
 10
9.141848174
 20
7.8800436577
 30
0.0
 10
9.1398499119
 20
7.8777495057
 30
0.0
 10
9.1381846771
 20
7.8758377245
 30
0.0
 10
9.136852526
 20
7.8743082723
 30
0.0
 10
9.1360198479
 20
7.8733524266
 30
0.0
 10
9.135353897
 20
7.8725876084
 30
0.0
 10
9.1348539092
 20
7.8720143824
 30
0.0
 10
9.1344389217
 20
7.871535461
 30
0.0
 10
9.1341451551
 20
7.8712026358
 30
0.0
 10
9.1339824026
 20
7.8710086717
 30
0.0
 10
9.1338459315
 20
7.8708738422
 30
0.0
 10
9.1337645303
 20
7.8706983275
 30
0.0
 10
9.1336367864
 20
7.8704784993
 30
0.0
 10
9.1334221844
 20
7.870087188
 30
0.0
 10
9.133110931
 20
7.8695316286
 30
0.0
 10
9.1327394298
 20
7.8688634778
 30
0.0
 10
9.1322433952
 20
7.8679731268
 30
0.0
 10
9.1316235915
 20
7.8668600112
 30
0.0
 10
9.1306317718
 20
7.865079125
 30
0.0
 10
9.129392043
 20
7.8628529833
 30
0.0
 10
9.1279043489
 20
7.8601816279
 30
0.0
 10
9.1264166599
 20
7.8575102685
 30
0.0
 10
9.1244330729
 20
7.8539484575
 30
0.0
 10
9.1219535897
 20
7.8494961931
 30
0.0
 10
9.1194741061
 20
7.8450439291
 30
0.0
 10
9.1174905198
 20
7.8414821175
 30
0.0
 10
9.1160028286
 20
7.8388107596
 30
0.0
 10
9.1145151432
 20
7.8361393988
 30
0.0
 10
9.1132753871
 20
7.8339132737
 30
0.0
 10
9.1122836231
 20
7.8321323538
 30
0.0
 10
9.1116636776
 20
7.831019324
 30
0.0
 10
9.1111679341
 20
7.8301287968
 30
0.0
 10
9.1107955436
 20
7.8294611844
 30
0.0
 10
9.1104870724
 20
7.8289039403
 30
0.0
 10
9.1102675037
 20
7.8285156365
 30
0.0
 10
9.1101477177
 20
7.8282909895
 30
0.0
 10
9.1100418725
 20
7.8281302768
 30
0.0
 10
9.1099972091
 20
7.8279398536
 30
0.0
 10
9.1099163169
 20
7.8276963193
 30
0.0
 10
9.1097846988
 20
7.8272653058
 30
0.0
 10
9.1095914745
 20
7.8266520967
 30
0.0
 10
9.1093618305
 20
7.8259151652
 30
0.0
 10
9.1090548613
 20
7.8249329673
 30
0.0
 10
9.1086714158
 20
7.8237050907
 30
0.0
 10
9.1080577544
 20
7.8217405603
 30
0.0
 10
9.1072907287
 20
7.8192848726
 30
0.0
 10
9.106370276
 20
7.816338058
 30
0.0
 10
9.1054498291
 20
7.8133912405
 30
0.0
 10
9.1042225645
 20
7.8094621515
 30
0.0
 10
9.1026884845
 20
7.8045507899
 30
0.0
 10
9.101154404
 20
7.7996394285
 30
0.0
 10
9.0999271403
 20
7.7957103392
 30
0.0
 10
9.0990066908
 20
7.7927635228
 30
0.0
 10
9.0980862476
 20
7.7898167041
 30
0.0
 10
9.0973191922
 20
7.7873610289
 30
0.0
 10
9.0967055913
 20
7.785396473
 30
0.0
 10
9.096321992
 20
7.7841686615
 30
0.0
 10
9.0960153386
 20
7.7831863299
 30
0.0
 10
9.0957847297
 20
7.7824498068
 30
0.0
 10
9.0955945242
 20
7.78183532
 30
0.0
 10
9.0954575171
 20
7.7814065874
 30
0.0
 10
9.0953852594
 20
7.7811593986
 30
0.0
 10
9.0953140739
 20
7.780980201
 30
0.0
 10
9.0953078411
 20
7.7807773268
 30
0.0
 10
9.0952768744
 20
7.7805150864
 30
0.0
 10
9.0952332387
 20
7.7800523181
 30
0.0
 10
9.0951653832
 20
7.7793932321
 30
0.0
 10
9.0950863188
 20
7.7786014678
 30
0.0
 10
9.0949800745
 20
7.7775460828
 30
0.0
 10
9.0948475517
 20
7.7762267487
 30
0.0
 10
9.0946353573
 20
7.7741158716
 30
0.0
 10
9.0943701684
 20
7.7714772555
 30
0.0
 10
9.0940519186
 20
7.7683109246
 30
0.0
 10
9.093733675
 20
7.7651445915
 30
0.0
 10
9.093309348
 20
7.7609228147
 30
0.0
 10
9.09277894
 20
7.7556455935
 30
0.0
 10
9.0922485315
 20
7.7503683724
 30
0.0
 10
9.0918242054
 20
7.7461465956
 30
0.0
 10
9.0915059591
 20
7.7429802629
 30
0.0
 10
9.0911877193
 20
7.7398139303
 30
0.0
 10
9.0909224993
 20
7.7371753195
 30
0.0
 10
9.0907103684
 20
7.7350644316
 30
0.0
 10
9.090577684
 20
7.7337451248
 30
0.0
 10
9.0904717713
 20
7.7326896838
 30
0.0
 10
9.090391694
 20
7.7318980908
 30
0.0
 10
9.0903270075
 20
7.7312384688
 30
0.0
 10
9.0902777146
 20
7.7307766573
 30
0.0
 10
9.0902558122
 20
7.7305128837
 30
0.0
 10
9.090221737
 20
7.7303147194
 30
0.0
 10
9.0902551226
 20
7.7301178322
 30
0.0
 10
9.0902761056
 20
7.7298548704
 30
0.0
 10
9.0903237895
 20
7.7293948949
 30
0.0
 10
9.0903861774
 20
7.7287376784
 30
0.0
 10
9.0904634963
 20
7.7279490652
 30
0.0
 10
9.0905657313
 20
7.7268975646
 30
0.0
 10
9.0906938185
 20
7.7255831944
 30
0.0
 10
9.0908985939
 20
7.7234801991
 30
0.0
 10
9.0911546195
 20
7.720851456
 30
0.0
 10
9.091461826
 20
7.7176969637
 30
0.0
 10
9.0917690391
 20
7.7145424716
 30
0.0
 10
9.0921786542
 20
7.7103364821
 30
0.0
 10
9.0926906739
 20
7.7050789953
 30
0.0
 10
9.093202693
 20
7.6998215084
 30
0.0
 10
9.093612309
 20
7.695615519
 30
0.0
 10
9.0939195194
 20
7.6924610267
 30
0.0
 10
9.094226736
 20
7.6893065352
 30
0.0
 10
9.0944827304
 20
7.6866777898
 30
0.0
 10
9.0946875693
 20
7.684574799
 30
0.0
 10
9.0948154949
 20
7.6832604171
 30
0.0
 10
9.0949180616
 20
7.6822089407
 30
0.0
 10
9.0949943672
 20
7.6814202537
 30
0.0
 10
9.0950599255
 20
7.680763268
 30
0.0
 10
9.0951019498
 20
7.6803028806
 30
0.0
 10
9.0951320008
 20
7.6800405788
 30
0.0
 10
9.0951375323
 20
7.6798416644
 30
0.0
 10
9.0952080724
 20
7.6796511137
 30
0.0
 10
9.0952794501
 20
7.6793941288
 30
0.0
 10
9.0954149261
 20
7.6789457644
 30
0.0
 10
9.0956029397
 20
7.6783045332
 30
0.0
 10
9.0958309203
 20
7.6775353599
 30
0.0
 10
9.0961340687
 20
7.6765096894
 30
0.0
 10
9.0965132869
 20
7.6752276375
 30
0.0
 10
9.097119878
 20
7.6731763343
 30
0.0
 10
9.0978781711
 20
7.6706122121
 30
0.0
 10
9.0987880996
 20
7.6675352626
 30
0.0
 10
9.0996980343
 20
7.6644583139
 30
0.0
 10
9.1009112784
 20
7.6603557153
 30
0.0
 10
9.1024278341
 20
7.6552274671
 30
0.0
 10
9.1039443903
 20
7.6500992191
 30
0.0
 10
9.1051576337
 20
7.6459966202
 30
0.0
 10
9.1060675706
 20
7.6429196725
 30
0.0
 10
9.1069774909
 20
7.6398427191
 30
0.0
 10
9.1077358094
 20
7.637278609
 30
0.0
 10
9.1083423487
 20
7.6352272813
 30
0.0
 10
9.1087216985
 20
7.6339452916
 30
0.0
 10
9.1090245768
 20
7.6329194935
 30
0.0
 10
9.1092533826
 20
7.6321507097
 30
0.0
 10
9.1094388145
 20
7.6315082602
 30
0.0
 10
9.1095989115
 20
7.6309983293
 30
0.0
 10
9.1096868735
 20
7.6306048729
 30
0.0
 10
9.1098974027
 20
7.630253435
 30
0.0
 10
9.1101352939
 20
7.6297701735
 30
0.0
 10
9.1104473473
 20
7.6291711324
 30
0.0
 10
9.1108155239
 20
7.6284501276
 30
0.0
 10
9.1113086221
 20
7.6274895408
 30
0.0
 10
9.1119242429
 20
7.6262885495
 30
0.0
 10
9.1129096565
 20
7.6243671075
 30
0.0
 10
9.1141412792
 20
7.6219652555
 30
0.0
 10
9.1156192883
 20
7.6190830543
 30
0.0
 10
9.1170972809
 20
7.6162008475
 30
0.0
 10
9.1190679434
 20
7.612357907
 30
0.0
 10
9.1215312696
 20
7.6075542308
 30
0.0
 10
9.1239945963
 20
7.6027505547
 30
0.0
 10
9.1259652581
 20
7.598907614
 30
0.0
 10
9.1274432529
 20
7.5960254078
 30
0.0
 10
9.1289212535
 20
7.5931432042
 30
0.0
 10
9.1301529029
 20
7.5907413596
 30
0.0
 10
9.1311382621
 20
7.5888199027
 30
0.0
 10
9.1317540212
 20
7.5876189492
 30
0.0
 10
9.1322468355
 20
7.5866582847
 30
0.0
 10
9.1326158795
 20
7.5859375172
 30
0.0
 10
9.1329252189
 20
7.5853377337
 30
0.0
 10
9.1331382186
 20
7.5849162053
 30
0.0
 10
9.1332654569
 20
7.5846779551
 30
0.0
 10
9.1333453239
 20
7.5844918779
 30
0.0
 10
9.133484676
 20
7.5843340471
 30
0.0
 10
9.1336497297
 20
7.5841137534
 30
0.0
 10
9.133948241
 20
7.58373283
 30
0.0
 10
9.1343696316
 20
7.5831862537
 30
0.0
 10
9.1348774637
 20
7.5825313894
 30
0.0
 10
9.1355538175
 20
7.5816578782
 30
0.0
 10
9.1363995185
 20
7.5805661121
 30
0.0
 10
9.1377524955
 20
7.5788192176
 30
0.0
 10
9.1394437664
 20
7.576635623
 30
0.0
 10
9.1414732701
 20
7.5740152995
 30
0.0
 10
9.1435027796
 20
7.5713949786
 30
0.0
 10
9.1462087902
 20
7.5679012165
 30
0.0
 10
9.1495913042
 20
7.5635340143
 30
0.0
 10
9.1529738177
 20
7.5591668117
 30
0.0
 10
9.155679829
 20
7.5556730502
 30
0.0
 10
9.1577093364
 20
7.5530527277
 30
0.0
 10
9.1597388479
 20
7.55043241
 30
0.0
 10
9.1614300946
 20
7.5482487973
 30
0.0
 10
9.1627831209
 20
7.5465019398
 30
0.0
 10
9.1636286963
 20
7.5454100796
 30
0.0
 10
9.164305308
 20
7.5445367615
 30
0.0
 10
9.1648123524
 20
7.5438813072
 30
0.0
 10
9.1652362074
 20
7.5433365771
 30
0.0
 10
9.1655303193
 20
7.5429523578
 30
0.0
 10
9.1657024221
 20
7.5427373449
 30
0.0
 10
9.1658201216
 20
7.5425632933
 30
0.0
 10
9.1659813119
 20
7.5424381388
 30
0.0
 10
9.1661810623
 20
7.5422542102
 30
0.0
 10
9.1665376933
 20
7.5419402818
 30
0.0
 10
9.1670434711
 20
7.5414876581
 30
0.0
 10
9.167651986
 20
7.540946288
 30
0.0
 10
9.1684627869
 20
7.5402238401
 30
0.0
 10
9.1694764771
 20
7.5393209928
 30
0.0
 10
9.1710982757
 20
7.5378763183
 30
0.0
 10
9.1731255602
 20
7.5360705159
 30
0.0
 10
9.1755582861
 20
7.5339035356
 30
0.0
 10
9.1779910161
 20
7.53173656
 30
0.0
 10
9.1812346547
 20
7.5288472576
 30
0.0
 10
9.1852892034
 20
7.5252356299
 30
0.0
 10
9.1893437523
 20
7.5216240027
 30
0.0
 10
9.1925873905
 20
7.5187346995
 30
0.0
 10
9.1950201218
 20
7.5165677259
 30
0.0
 10
9.1974528431
 20
7.5144007381
 30
0.0
 10
9.1994801418
 20
7.5125949591
 30
0.0
 10
9.2011019114
 20
7.511150237
 30
0.0
 10
9.2021156754
 20
7.5102475108
 30
0.0
 10
9.2029263247
 20
7.5095248143
 30
0.0
 10
9.2035353027
 20
7.5089842036
 30
0.0
 10
9.2040396317
 20
7.5085292039
 30
0.0
 10
9.2044501658
 20
7.5081752761
 30
0.0
 10
9.2047387454
 20
7.5078823089
 30
0.0
 10
9.2051010732
 20
7.507694391
 30
0.0
 10
9.2055584157
 20
7.5074071386
 30
0.0
 10
9.2061389324
 20
7.5070606631
 30
0.0
 10
9.2068317692
 20
7.5066395036
 30
0.0
 10
9.2077568731
 20
7.5060798398
 30
0.0
 10
9.2089128004
 20
7.5053796156
 30
0.0
 10
9.210762537
 20
7.504259617
 30
0.0
 10
9.2130746211
 20
7.5028594953
 30
0.0
 10
9.2158491591
 20
7.5011794021
 30
0.0
 10
9.2186236872
 20
7.4994992948
 30
0.0
 10
9.2223230614
 20
7.4972591566
 30
0.0
 10
9.226947278
 20
7.4944589821
 30
0.0
 10
9.2315714953
 20
7.4916588089
 30
0.0
 10
9.2352708683
 20
7.4894186686
 30
0.0
 10
9.2380453999
 20
7.4877385677
 30
0.0
 10
9.2408199247
 20
7.4860584506
 30
0.0
 10
9.2431320501
 20
7.4846584031
 30
0.0
 10
9.2449817024
 20
7.4835382532
 30
0.0
 10
9.2461378443
 20
7.4828384142
 30
0.0
 10
9.2470625077
 20
7.4822779597
 30
0.0
 10
9.24775669
 20
7.481859216
 30
0.0
 10
9.2483329973
 20
7.4815051819
 30
0.0
 10
9.2487989277
 20
7.4812333504
 30
0.0
 10
9.2491350285
 20
7.4809983381
 30
0.0
 10
9.2495220753
 20
7.4808821827
 30
0.0
 10
9.2500203415
 20
7.4806857906
 30
0.0
 10
9.2506492801
 20
7.4804545451
 30
0.0
 10
9.251401393
 20
7.4801709533
 30
0.0
 10
9.252405123
 20
7.4797949606
 30
0.0
 10
9.2536594729
 20
7.4793242405
 30
0.0
 10
9.2556666075
 20
7.4785714959
 30
0.0
 10
9.2581754657
 20
7.4776304253
 30
0.0
 10
9.2611861213
 20
7.4765012006
 30
0.0
 10
9.2641967701
 20
7.4753719598
 30
0.0
 10
9.2682109708
 20
7.4738663109
 30
0.0
 10
9.2732287209
 20
7.4719842481
 30
0.0
 10
9.2782464712
 20
7.4701021856
 30
0.0
 10
9.2822606715
 20
7.4685965361
 30
0.0
 10
9.2852713213
 20
7.4674672974
 30
0.0
 10
9.288281973
 20
7.4663380648
 30
0.0
 10
9.2907908436
 20
7.4653970187
 30
0.0
 10
9.2927979529
 20
7.4646442242
 30
0.0
 10
9.2940523671
 20
7.464173631
 30
0.0
 10
9.2950559652
 20
7.4637973778
 30
0.0
 10
9.2958084811
 20
7.4635145818
 30
0.0
 10
9.2964361587
 20
7.4632808466
 30
0.0
 10
9.2968743927
 20
7.463113448
 30
0.0
 10
9.2971265927
 20
7.4630237001
 30
0.0
 10
9.297310727
 20
7.4629397449
 30
0.0
 10
9.2975140336
 20
7.4629194127
 30
0.0
 10
9.2977784215
 20
7.4628701106
 30
0.0
 10
9.2982442163
 20
7.462794172
 30
0.0
 10
9.2989080084
 20
7.4626802823
 30
0.0
 10
9.2997052561
 20
7.4625459286
 30
0.0
 10
9.3007680096
 20
7.4623659821
 30
0.0
 10
9.3020965348
 20
7.4621413258
 30
0.0
 10
9.3042221286
 20
7.4617817209
 30
0.0
 10
9.3068791368
 20
7.4613322679
 30
0.0
 10
9.3100675398
 20
7.4607929016
 30
0.0
 10
9.3132559446
 20
7.4602535413
 30
0.0
 10
9.3175071504
 20
7.4595343922
 30
0.0
 10
9.3228211579
 20
7.4586354565
 30
0.0
 10
9.3291979667
 20
7.4575567334
 30
0.0
 10
9.3377003786
 20
7.456118436
 30
0.0
 10
9.3440771874
 20
7.455039713
 30
0.0
 10
9.3483283933
 20
7.4543205643
 30
0.0
  0
ENDSEC
  0
SECTION
  2
OBJECTS
  0
DICTIONARY
  5
C
100
AcDbDictionary
280
0
281
1
  3
ACAD_GROUP
350
D
  3
ACAD_MLINESTYLE
350
17
  3
ACAD_LAYOUT
350
1A
  3
ACAD_PLOTSETTINGS
350
19
  3
ACAD_PLOTSTYLENAME
350
E
  3
ACAD_IMAGE_DICT
350
       426
  3
ACAD_IMAGE_VARS
350
       427
  3
ACAD_TABLESTYLE
350
       428
  0
IMAGEDEF_REACTOR
  5
425
100
AcDbRasterImageDefReactor
 90
2
330
294
  0
DICTIONARY
  5
D
102
{ACAD_REACTORS
330
C
102
}
100
AcDbDictionary
280
0
281
1
  0
ACDBDICTIONARYWDFLT
  5
E
102
{ACAD_REACTORS
330
C
102
}
100
AcDbDictionary
281
1
  3
Normal
350
F
100
AcDbDictionaryWithDefault
340
F
  0
DICTIONARY
  5
426
330
C
100
AcDbDictionary
281
1
  3
Y6L_assy_2_img_1
350
       42B
  0
RASTERVARIABLES
  5
427
330
C
100
AcDbRasterVariables
 90
0
 70
0
 71
1
 72
5
  0
DICTIONARY
  5
17
102
{ACAD_REACTORS
330
C
102
}
100
AcDbDictionary
280
0
281
1
  3
Standard
350
18
  0
DICTIONARY
  5
428
330
C
100
AcDbDictionary
281
1
  3
Standard
350
       42C
  3
Standard1
350
       42D
  0
DICTIONARY
  5
19
102
{ACAD_REACTORS
330
C
102
}
100
AcDbDictionary
281
1
  0
DICTIONARY
  5
1A
102
{ACAD_REACTORS
330
C
102
}
100
AcDbDictionary
281
1
  3
Model
350
429
  3
Layout1
350
42A
  0
ACDBPLACEHOLDER
  5
F
102
{ACAD_REACTORS
330
E
102
}
  0
MLINESTYLE
  5
18
102
{ACAD_REACTORS
330
17
102
}
100
AcDbMlineStyle
  2
STANDARD
 70
0
  3

 62
256
 51
90.0
 52
90.0
 71
2
 49
0.5
 62
256
  6
BYLAYER
 49
-0.5
 62
256
  6
BYLAYER
  0
LAYOUT
  5
429
102
{ACAD_REACTORS
330
1A
102
}
100
AcDbPlotSettings
  1

  2
none_device
  4
ANSI_C_(22.00_x_17.00_Inches)
  6

 40
0.0
 41
0.0
 42
0.0
 43
0.0
 44
558.8
 45
431.8
 46
0.0
 47
0.0
 48
0.0
 49
0.0
140
0.0
141
0.0
142
1.0
143
1.0
 70
1024
 72
0
 73
0
 74
0
  7

 75
0
147
1.0
148
0.0
149
0.0
100
AcDbLayout
  1
Model
 70
0
 71
0
 10
0.0
 20
0.0
 11
22.0
 21
17.0
 12
0.0
 22
0.0
 32
0.0
 14
0.0
 24
0.0
 34
0.0
 15
0.0
 25
0.0
 35
0.0
146
0.0
 13
0.0
 23
0.0
 33
0.0
 16
1.0
 26
0.0
 36
0.0
 17
0.0
 27
1.0
 37
0.0
 76
0
330
20C
345
0
346
0
  0
LAYOUT
  5
42A
102
{ACAD_REACTORS
330
1A
102
}
100
AcDbPlotSettings
  1

  2
none_device
  4
ANSI_C_(22.00_x_17.00_Inches)
  6

 40
0.0
 41
0.0
 42
0.0
 43
0.0
 44
558.8
 45
431.8
 46
0.0
 47
0.0
 48
0.0
 49
0.0
140
0.0
141
0.0
142
1.0
143
1.0
 70
0
 72
0
 73
0
 74
0
  7

 75
0
147
1.0
148
0.0
149
0.0
100
AcDbLayout
  1
Layout1
 70
0
 71
1
 10
0.0
 20
0.0
 11
22.0
 21
17.0
 12
0.0
 22
0.0
 32
0.0
 14
0.0
 24
0.0
 34
0.0
 15
0.0
 25
0.0
 35
0.0
146
0.0
 13
0.0
 23
0.0
 33
0.0
 16
1.0
 26
0.0
 36
0.0
 17
0.0
 27
1.0
 37
0.0
 76
0
330
20D
345
0
346
0
  0
IMAGEDEF
  5
42B
102
{ACAD_REACTORS
330
426
330
425
102
}
100
AcDbRasterImageDef
 90
0
  1
Y6L_assy_2_img_1.png
 10
369.0
 20
92.0
 11
0.0066666667
 21
0.0066666667
280
1
281
0
  0
TABLESTYLE
  5
42C
102
{ACAD_REACTORS
330
428
330
297
330
298
102
}
330
428
100
AcDbTableStyle
  3
Standard
 70
0
 71
0
 40
0.06
 41
0.06
280
1
281
1
  7
Standard
140
0.18
170
1
 62
0
 63
7
283
0
  7
Standard
140
0.18
170
1
 62
0
 63
7
283
0
  7
Standard
140
0.18
170
1
 62
0
 63
7
283
0
  0
TABLESTYLE
  5
42D
102
{ACAD_REACTORS
330
428
330
296
102
}
330
428
100
AcDbTableStyle
  3
Standard1
 70
1
 71
0
 40
0.06
 41
0.06
280
1
281
1
  7
Standard
140
0.18
170
1
 62
0
 63
7
283
0
  7
Standard
140
0.18
170
1
 62
0
 63
7
283
0
  7
Standard
140
0.18
170
1
 62
0
 63
7
283
0
  0
ENDSEC
  0
EOF
