999
DXF file: Y6K_assy_2.dxf
999
Pro/ENGINEER 2014200 by Parametric Technology Corporation
  0
SECTION
  2
HEADER
  9
$ACADVER
  1
AC1021
  9
$DWGCODEPAGE
  3
ANSI_1252
  9
$EXTMAX
 10
22.0
 20
17.0
 30
0.0
  9
$EXTMIN
 10
0.0
 20
0.0
 30
0.0
  9
$LIMMIN
 10
0.0
 20
0.0
  9
$LIMMAX
 10
22.0
 20
17.0
  9
$VIEWCTR
 10
11.0
 20
8.5
  9
$VIEWSIZE
 40
17.0
  9
$CLAYER
  8
0
  9
$LTSCALE
 40
1.21
  9
$CELTYPE
  6
BYLAYER
  9
$DIMSCALE
 40
1.0
  9
$DIMASZ
 40
0.1875
  9
$DIMEXO
 40
0.0625
  9
$DIMDLI
 40
0.836
  9
$DIMEXE
 40
0.125
  9
$DIMCEN
 40
0.198
  9
$DIMLFAC
 40
1.0
  9
$DIMBLK
  1
_FILLED
  9
$DIMTXT
 40
0.1
  9
$DIMTOL
 70
0
  9
$DIMLIM
 70
0
  9
$DIMTFAC
 40
1.0
  9
$DIMGAP
 40
0.09
  9
$DIMDSEP
 70
46
  9
$AUNITS
 70
0
  9
$PDMODE
 70
3
  9
$PDSIZE
 40
0.3125
  9
$HANDSEED
  5
41B
  9
$TILEMODE
 70
1
  9
$MEASUREMENT
 70
0
  9
$INSUNITS
 70
1
  0
ENDSEC
  0
SECTION
  2
CLASSES
  0
CLASS
  1
ACDBDICTIONARYWDFLT
  2
AcDbDictionaryWithDefault
  3
AutoCAD 2000
 90
0
 91
1
280
0
281
0
  0
CLASS
  1
ACDBPLACEHOLDER
  2
AcDbPlaceHolder
  3
AutoCAD 2000
 90
0
 91
1
280
0
281
0
  0
CLASS
  1
LAYOUT
  2
AcDbLayout
  3
AutoCAD 2000
 90
0
 91
0
280
0
281
0
  0
CLASS
  1
RASTERVARIABLES
  2
AcDbRasterVariables
  3
ISM
 90
0
 91
1
280
0
281
0
  0
CLASS
  1
IMAGEDEF
  2
AcDbRasterImageDef
  3
ISM
 90
0
 91
1
280
0
281
0
  0
CLASS
  1
IMAGEDEF_REACTOR
  2
AcDbRasterImageDefReactor
  3
ISM
 90
0
 91
1
280
0
281
0
  0
CLASS
  1
IMAGE
  2
AcDbRasterImage
  3
ISM
 90
127
 91
1
280
0
281
1
  0
CLASS
  1
TABLESTYLE
  2
AcDbTableStyle
  3
ObjectDBX Classes
 90
2047
 91
1
280
0
281
0
  0
CLASS
  1
ACAD_TABLE
  2
AcDbTable
  3
ObjectDBX Classes
 90
1025
 91
3
280
0
281
1
  0
ENDSEC
  0
SECTION
  2
TABLES
  0
TABLE
  2
VPORT
  5
8
100
AcDbSymbolTable
 70
2
  0
VPORT
  5
1F4
100
AcDbSymbolTableRecord
100
AcDbViewportTableRecord
  2
*ACTIVE
 70
0
 10
0.0
 20
0.0
 11
1.0
 21
1.0
 12
11.0
 22
8.5
 13
0.0
 23
0.0
 14
1.0
 24
1.0
 15
0.0
 25
0.0
 16
0.0
 26
0.0
 36
1.0
 17
0.0
 27
0.0
 37
0.0
 40
17.0
 41
1.2941176471
 42
50.0
 43
0.0
 44
0.0
 50
0.0
 51
0.0
 71
0
 72
100
 73
1
 74
1
 75
0
 76
0
 77
0
 78
0
  0
ENDTAB
  0
TABLE
  2
LTYPE
  5
5
100
AcDbSymbolTable
 70
6
  0
LTYPE
  5
14
100
AcDbSymbolTableRecord
100
AcDbLinetypeTableRecord
  2
BYBLOCK
 70
0
  3

 72
65
 73
0
 40
0.0
  0
LTYPE
  5
15
100
AcDbSymbolTableRecord
100
AcDbLinetypeTableRecord
  2
BYLAYER
 70
0
  3

 72
65
 73
0
 40
0.0
  0
LTYPE
  5
16
100
AcDbSymbolTableRecord
100
AcDbLinetypeTableRecord
  2
CONTINUOUS
 70
64
  3
Solid line
 72
65
 73
0
 40
0.0
  0
LTYPE
  5
1F5
100
AcDbSymbolTableRecord
100
AcDbLinetypeTableRecord
  2
CENTER
 70
64
  3
____ _ ____ _ ____ _ ____ _ ____ _ ____ _ ____
 72
65
 73
4
 40
0.6
 49
0.375
 74
0
 49
-0.075
 74
0
 49
0.075
 74
0
 49
-0.075
 74
0
  0
LTYPE
  5
1F6
100
AcDbSymbolTableRecord
100
AcDbLinetypeTableRecord
  2
HIDDEN
 70
64
  3
- - - - - - - - - - - - - - - - - - - -
 72
65
 73
2
 40
0.2
 49
0.1
 74
0
 49
-0.1
 74
0
  0
LTYPE
  5
1F7
100
AcDbSymbolTableRecord
100
AcDbLinetypeTableRecord
  2
PHANTOM
 70
64
  3
_____ _ _ _____ _ _ _____ _ _ _____
 72
65
 73
6
 40
0.8
 49
0.45
 74
0
 49
-0.05
 74
0
 49
0.1
 74
0
 49
-0.05
 74
0
 49
0.1
 74
0
 49
-0.05
 74
0
  0
LTYPE
  5
1F8
100
AcDbSymbolTableRecord
100
AcDbLinetypeTableRecord
  2
DOT
 70
64
  3
. . . . . . . . . . . . . . . . . . . .
 72
65
 73
2
 40
0.2
 49
0.1
 74
0
 49
-0.1
 74
0
  0
LTYPE
  5
1F9
100
AcDbSymbolTableRecord
100
AcDbLinetypeTableRecord
  2
DASHED
 70
64
  3
- - - - - - - - - - - - - - - - - - - -
 72
65
 73
2
 40
0.2
 49
0.1
 74
0
 49
-0.1
 74
0
  0
ENDTAB
  0
TABLE
  2
LAYER
  5
2
100
AcDbSymbolTable
 70
36
  0
LAYER
  5
10
100
AcDbSymbolTableRecord
100
AcDbLayerTableRecord
  2
0
 70
0
 62
7
  6
CONTINUOUS
370
-3
390
F
  0
LAYER
  5
1FA
100
AcDbSymbolTableRecord
100
AcDbLayerTableRecord
  2
DEFAULT_1
 70
0
 62
7
  6
CENTER
370
-3
390
F
  0
LAYER
  5
1FB
100
AcDbSymbolTableRecord
100
AcDbLayerTableRecord
  2
DEFAULT_2
 70
0
 62
8
  6
HIDDEN
370
-3
390
F
  0
LAYER
  5
1FC
100
AcDbSymbolTableRecord
100
AcDbLayerTableRecord
  2
DEFAULT_3
 70
0
 62
7
  6
PHANTOM
370
-3
390
F
  0
LAYER
  5
1FD
100
AcDbSymbolTableRecord
100
AcDbLayerTableRecord
  2
01___PRT_ALL_DTM_PLN
 70
0
 62
7
  6
CONTINUOUS
370
-3
390
F
  0
LAYER
  5
1FE
100
AcDbSymbolTableRecord
100
AcDbLayerTableRecord
  2
01___PRT_DEF_DTM_PLN
 70
0
 62
7
  6
CONTINUOUS
370
-3
390
F
  0
LAYER
  5
1FF
100
AcDbSymbolTableRecord
100
AcDbLayerTableRecord
  2
02___PRT_ALL_AXES
 70
0
 62
7
  6
CONTINUOUS
370
-3
390
F
  0
LAYER
  5
200
100
AcDbSymbolTableRecord
100
AcDbLayerTableRecord
  2
03___PRT_ALL_CURVES
 70
0
 62
7
  6
CONTINUOUS
370
-3
390
F
  0
LAYER
  5
201
100
AcDbSymbolTableRecord
100
AcDbLayerTableRecord
  2
04___PRT_ALL_DTM_PNT
 70
0
 62
7
  6
CONTINUOUS
370
-3
390
F
  0
LAYER
  5
202
100
AcDbSymbolTableRecord
100
AcDbLayerTableRecord
  2
05___PRT_ALL_DTM_CSYS
 70
0
 62
7
  6
CONTINUOUS
370
-3
390
F
  0
LAYER
  5
203
100
AcDbSymbolTableRecord
100
AcDbLayerTableRecord
  2
05___PRT_DEF_DTM_CSYS
 70
0
 62
7
  6
CONTINUOUS
370
-3
390
F
  0
LAYER
  5
204
100
AcDbSymbolTableRecord
100
AcDbLayerTableRecord
  2
06___PRT_ALL_SURFS
 70
0
 62
7
  6
CONTINUOUS
370
-3
390
F
  0
LAYER
  5
205
100
AcDbSymbolTableRecord
100
AcDbLayerTableRecord
  2
DATUM_PLANES
 70
0
 62
7
  6
CONTINUOUS
370
-3
390
F
  0
LAYER
  5
206
100
AcDbSymbolTableRecord
100
AcDbLayerTableRecord
  2
PORT_AREAS
 70
0
 62
7
  6
CONTINUOUS
370
-3
390
F
  0
LAYER
  5
207
100
AcDbSymbolTableRecord
100
AcDbLayerTableRecord
  2
SUNNBOMCOSMETIC
 70
0
 62
7
  6
CONTINUOUS
370
-3
390
F
  0
LAYER
  5
208
100
AcDbSymbolTableRecord
100
AcDbLayerTableRecord
  2
SUNNBOMSTAMPING
 70
0
 62
7
  6
CONTINUOUS
370
-3
390
F
  0
LAYER
  5
209
100
AcDbSymbolTableRecord
100
AcDbLayerTableRecord
  2
THREADS
 70
0
 62
7
  6
CONTINUOUS
370
-3
390
F
  0
ENDTAB
  0
TABLE
  2
STYLE
  5
3
100
AcDbSymbolTable
 70
1
  0
STYLE
  5
11
100
AcDbSymbolTableRecord
100
AcDbTextStyleTableRecord
  2
STANDARD
 70
0
 40
0.0
 41
0.8
 50
0.0
 71
0
 42
0.2
  3
txt
  4

  0
STYLE
  5
20A
100
AcDbSymbolTableRecord
100
AcDbTextStyleTableRecord
  2
TEXTSTYLE_1
 70
0
 40
0.0
 41
0.8
 50
0.0
 71
0
 42
0.2
  3
gdt
  4

  0
ENDTAB
  0
TABLE
  2
VIEW
  5
6
100
AcDbSymbolTable
 70
0
  0
ENDTAB
  0
TABLE
  2
UCS
  5
7
100
AcDbSymbolTable
 70
0
  0
ENDTAB
  0
TABLE
  2
APPID
  5
9
100
AcDbSymbolTable
 70
1
  0
APPID
  5
20B
100
AcDbSymbolTableRecord
100
AcDbRegAppTableRecord
  2
ACAD
 70
0
  0
ENDTAB
  0
TABLE
  2
BLOCK_RECORD
  5
1
100
AcDbSymbolTable
 70
0
  0
BLOCK_RECORD
  5
20C
100
AcDbSymbolTableRecord
100
AcDbBlockTableRecord
  2
*Model_Space
  0
BLOCK_RECORD
  5
20D
100
AcDbSymbolTableRecord
100
AcDbBlockTableRecord
  2
*Paper_Space
  0
BLOCK_RECORD
  5
20E
100
AcDbSymbolTableRecord
100
AcDbBlockTableRecord
  2
SUN_FIRST_THIRD_ANGLE_BL0
  0
BLOCK_RECORD
  5
20F
100
AcDbSymbolTableRecord
100
AcDbBlockTableRecord
  2
*T1
  0
BLOCK_RECORD
  5
210
100
AcDbSymbolTableRecord
100
AcDbBlockTableRecord
  2
*T2
  0
BLOCK_RECORD
  5
211
100
AcDbSymbolTableRecord
100
AcDbBlockTableRecord
  2
*T3
  0
ENDTAB
  0
TABLE
  2
DIMSTYLE
  5
A
100
AcDbSymbolTable
 70
1
100
AcDbDimStyleTable
 71
0
  0
DIMSTYLE
105
212
100
AcDbSymbolTableRecord
100
AcDbDimStyleTableRecord
  2
STANDARD
 70
0
  3

  4

 40
1.0
 41
0.1875
 42
0.0625
 43
0.38
 44
0.125
 45
0.0
 46
0.0
 47
0.001
 48
0.001
140
0.1
141
0.09
142
0.0
143
25.4
144
1.0
145
0.0
146
1.0
147
0.09
 71
0.0
 72
0.0
 73
1
 74
1
 75
0
 76
0
 77
0
 78
4
170
0
171
2
172
0
173
0
174
0
175
0
176
0
177
0
178
0
270
2
271
3
272
3
273
2
274
2
275
0
280
0
281
0
282
0
283
1
284
4
285
0
286
0
287
3
288
0
340
11
278
46
  0
ENDTAB
  0
ENDSEC
  0
SECTION
  2
BLOCKS
  0
BLOCK
  5
20
100
AcDbEntity
  8
0
100
AcDbBlockBegin
  2
*Model_Space
 70
0
 10
0.0
 20
0.0
 30
0.0
  3
*Model_Space
  1

  0
ENDBLK
  5
21
100
AcDbEntity
  8
0
100
AcDbBlockEnd
  0
BLOCK
  5
1C
100
AcDbEntity
  8
0
100
AcDbBlockBegin
  2
*Paper_Space
 70
0
 10
0.0
 20
0.0
 30
0.0
  3
*Paper_Space
  1

  0
ENDBLK
  5
1D
100
AcDbEntity
  8
0
100
AcDbBlockEnd
  0
BLOCK
  5
213
100
AcDbEntity
  8
0
100
AcDbBlockBegin
 62
2
  6
CONTINUOUS
  2
SUN_FIRST_THIRD_ANGLE_BL0
 70
64
 10
20.4816717061
 20
1.2289683772
  3
SUN_FIRST_THIRD_ANGLE_BL0
  1

  0
TEXT
  5
214
100
AcDbEntity
  8
0
100
AcDbText
 62
2
  6
CONTINUOUS
 10
19.4750896608
 20
1.4136269581
  7
STANDARD
 40
0.08
  1
FIRST ANGLE
 41
0.8
 72
0
100
AcDbText
  0
TEXT
  5
215
100
AcDbEntity
  8
0
100
AcDbText
 62
2
  6
CONTINUOUS
 10
20.7842537513
 20
1.4047600029
  7
STANDARD
 40
0.08
  1
THIRD ANGLE
 41
0.8
 72
0
100
AcDbText
  0
LINE
  5
216
100
AcDbEntity
  8
0
100
AcDbLine
 62
7
  6
CONTINUOUS
 10
19.4767170086
 20
1.1727031207
 11
19.6334271527
 21
1.1717972817
  0
LINE
  5
217
100
AcDbEntity
  8
0
100
AcDbLine
 62
7
  6
CONTINUOUS
 10
19.6596964832
 20
1.1717972817
 11
19.6950230232
 21
1.171593082
  0
LINE
  5
218
100
AcDbEntity
  8
0
100
AcDbLine
 62
7
  6
CONTINUOUS
 10
19.7194818561
 20
1.1708914427
 11
19.8852396156
 21
1.1699333054
  0
LINE
  5
219
100
AcDbEntity
  8
0
100
AcDbLine
 62
7
  6
CONTINUOUS
 10
19.4758111696
 20
1.2723454088
 11
19.88525039
 21
1.3511534004
  0
LINE
  5
21A
100
AcDbEntity
  8
0
100
AcDbLine
 62
7
  6
CONTINUOUS
 10
19.88525039
 20
1.3511534004
 11
19.8831348489
 21
0.9851647912
  0
LINE
  5
21B
100
AcDbEntity
  8
0
100
AcDbLine
 62
7
  6
CONTINUOUS
 10
19.8831348489
 20
0.9851647912
 11
19.4767170086
 21
1.0658141206
  0
LINE
  5
21C
100
AcDbEntity
  8
0
100
AcDbLine
 62
7
  6
CONTINUOUS
 10
19.4767170086
 20
1.0658141206
 11
19.4779056764
 21
1.2714536432
  0
CIRCLE
  5
21D
100
AcDbEntity
  8
0
100
AcDbCircle
 62
7
  6
CONTINUOUS
 10
20.2068232291
 20
1.1717972817
 40
0.175742101
  0
CIRCLE
  5
21E
100
AcDbEntity
  8
0
100
AcDbCircle
 62
7
  6
CONTINUOUS
 10
20.2068232291
 20
1.1717972817
 40
0.1005522074
  0
LINE
  5
21F
100
AcDbEntity
  8
0
100
AcDbLine
 62
7
  6
CONTINUOUS
 10
20.2077290681
 20
1.3756110529
 11
20.2071171714
 21
1.2379342989
  0
LINE
  5
220
100
AcDbEntity
  8
0
100
AcDbLine
 62
7
  6
CONTINUOUS
 10
20.2077290681
 20
1.2016899681
 11
20.2074674401
 21
1.1428236749
  0
LINE
  5
221
100
AcDbEntity
  8
0
100
AcDbLine
 62
7
  6
CONTINUOUS
 10
20.208634907
 20
1.101141841
 11
20.2080230104
 21
0.963465087
  0
LINE
  5
222
100
AcDbEntity
  8
0
100
AcDbLine
 62
7
  6
CONTINUOUS
 10
20.0066328138
 20
1.1745147986
 11
20.1443095678
 21
1.1739029019
  0
LINE
  5
223
100
AcDbEntity
  8
0
100
AcDbLine
 62
7
  6
CONTINUOUS
 10
20.1832714155
 20
1.1727031207
 11
20.238153505
 21
1.172335442
  0
LINE
  5
224
100
AcDbEntity
  8
0
100
AcDbLine
 62
7
  6
CONTINUOUS
 10
20.2756669918
 20
1.1717972817
 11
20.407916871
 21
1.1712095044
  0
CIRCLE
  5
225
100
AcDbEntity
  8
0
100
AcDbCircle
 62
7
  6
CONTINUOUS
 10
20.7509457401
 20
1.1693297793
 40
0.1722024983
  0
CIRCLE
  5
226
100
AcDbEntity
  8
0
100
AcDbCircle
 62
7
  6
CONTINUOUS
 10
20.7509457401
 20
1.1693297793
 40
0.0985164967
  0
LINE
  5
227
100
AcDbEntity
  8
0
100
AcDbLine
 62
7
  6
CONTINUOUS
 10
20.7169767782
 20
1.170462078
 11
20.7825395137
 21
1.1682766535
  0
LINE
  5
228
100
AcDbEntity
  8
0
100
AcDbLine
 62
7
  6
CONTINUOUS
 10
20.8177513651
 20
1.1693297793
 11
20.947965719
 21
1.1693297793
  0
LINE
  5
229
100
AcDbEntity
  8
0
100
AcDbLine
 62
7
  6
CONTINUOUS
 10
20.6875370113
 20
1.170462078
 11
20.5573226574
 21
1.170462078
  0
LINE
  5
22A
100
AcDbEntity
  8
0
100
AcDbLine
 62
7
  6
CONTINUOUS
 10
20.7486811426
 20
1.1987695462
 11
20.7486811426
 21
1.1432869085
  0
LINE
  5
22B
100
AcDbEntity
  8
0
100
AcDbLine
 62
7
  6
CONTINUOUS
 10
20.7498134414
 20
1.1059210505
 11
20.7498134414
 21
0.9757066966
  0
LINE
  5
22C
100
AcDbEntity
  8
0
100
AcDbLine
 62
7
  6
CONTINUOUS
 10
20.7486811426
 20
1.2338708068
 11
20.7486811426
 21
1.3640851607
  0
LINE
  5
22D
100
AcDbEntity
  8
0
100
AcDbLine
 62
7
  6
CONTINUOUS
 10
21.0702539817
 20
1.2701043662
 11
21.4790138229
 21
1.3448360823
  0
LINE
  5
22E
100
AcDbEntity
  8
0
100
AcDbLine
 62
7
  6
CONTINUOUS
 10
21.4790138229
 20
1.3448360823
 11
21.4790138229
 21
0.9779712941
  0
LINE
  5
22F
100
AcDbEntity
  8
0
100
AcDbLine
 62
7
  6
CONTINUOUS
 10
21.4790138229
 20
0.9779712941
 11
21.069121683
 21
1.0617614
  0
LINE
  5
230
100
AcDbEntity
  8
0
100
AcDbLine
 62
7
  6
CONTINUOUS
 10
21.0702539817
 20
1.2701043662
 11
21.069121683
 21
1.0617614
  0
LINE
  5
231
100
AcDbEntity
  8
0
100
AcDbLine
 62
7
  6
CONTINUOUS
 10
21.4790138229
 20
1.1693297793
 11
21.3159628059
 21
1.1693297793
  0
LINE
  5
232
100
AcDbEntity
  8
0
100
AcDbLine
 62
7
  6
CONTINUOUS
 10
21.2876553377
 20
1.1693297793
 11
21.2502894796
 21
1.1693297793
  0
LINE
  5
233
100
AcDbEntity
  8
0
100
AcDbLine
 62
7
  6
CONTINUOUS
 10
21.2208497126
 20
1.1659328831
 11
21.0713862804
 21
1.1659328831
  0
LINE
  5
234
100
AcDbEntity
  8
0
100
AcDbLine
 62
7
  6
CONTINUOUS
 10
20.4796138713
 20
1.5284908897
 11
20.4766766948
 21
0.9294458646
  0
ENDBLK
  5
235
100
AcDbEntity
  8
0
  6
BYBLOCK
 62
0
100
AcDbBlockEnd
  0
BLOCK
  5
236
100
AcDbEntity
  8
0
100
AcDbBlockBegin
  2
*T1
 70
1
 10
0.0
 20
0.0
  3
*T1
  1

  0
LINE
  5
237
100
AcDbEntity
  8
0
100
AcDbLine
 62
2
  6
CONTINUOUS
 10
9.275
 20
0.0
 11
-0.0
 21
0.0
  0
LINE
  5
238
100
AcDbEntity
  8
0
100
AcDbLine
 62
2
  6
CONTINUOUS
 10
9.275
 20
0.0
 11
9.275
 21
1.25
  0
LINE
  5
239
100
AcDbEntity
  8
0
100
AcDbLine
 62
2
  6
CONTINUOUS
 10
9.275
 20
0.625
 11
-0.0
 21
0.625
  0
LINE
  5
23A
100
AcDbEntity
  8
0
100
AcDbLine
 62
2
  6
CONTINUOUS
 10
9.275
 20
1.25
 11
-0.0
 21
1.25
  0
LINE
  5
23B
100
AcDbEntity
  8
0
100
AcDbLine
 62
2
  6
CONTINUOUS
 10
6.8
 20
0.0
 11
6.8
 21
1.25
  0
LINE
  5
23C
100
AcDbEntity
  8
0
100
AcDbLine
 62
2
  6
CONTINUOUS
 10
6.4
 20
0.0
 11
6.4
 21
0.625
  0
LINE
  5
23D
100
AcDbEntity
  8
0
100
AcDbLine
 62
2
  6
CONTINUOUS
 10
5.9
 20
0.0
 11
5.9
 21
0.625
  0
LINE
  5
23E
100
AcDbEntity
  8
0
100
AcDbLine
 62
2
  6
CONTINUOUS
 10
5.2
 20
0.0
 11
5.2
 21
0.625
  0
LINE
  5
23F
100
AcDbEntity
  8
0
100
AcDbLine
 62
2
  6
CONTINUOUS
 10
4.1
 20
0.0
 11
4.1
 21
1.25
  0
LINE
  5
240
100
AcDbEntity
  8
0
100
AcDbLine
 62
2
  6
CONTINUOUS
 10
-0.0
 20
0.0
 11
-0.0
 21
1.25
  0
MTEXT
  5
241
100
AcDbEntity
  8
0
100
AcDbMText
 62
2
  6
CONTINUOUS
  7
STANDARD
 71
2
 72
1
 10
6.6
 20
0.325
 30
0.0
 11
1.0
 21
0.0
 31
0.0
 44
0.9
  1
2
 40
0.125
 41
0.2
  0
MTEXT
  5
242
100
AcDbEntity
  8
0
100
AcDbMText
 62
2
  6
CONTINUOUS
  7
STANDARD
 71
2
 72
1
 10
6.15
 20
0.325
 30
0.0
 11
1.0
 21
0.0
 31
0.0
 44
0.9
  1
C
 40
0.125
 41
0.2
  0
MTEXT
  5
243
100
AcDbEntity
  8
0
100
AcDbMText
 62
2
  6
CONTINUOUS
  7
STANDARD
 71
2
 72
1
 10
5.55
 20
0.325
 30
0.0
 11
1.0
 21
0.0
 31
0.0
 44
0.9
  1
1.000
 40
0.125
 41
1.0
  0
MTEXT
  5
244
100
AcDbEntity
  8
0
100
AcDbMText
 62
2
  6
CONTINUOUS
  7
STANDARD
 71
2
 72
1
 10
4.65
 20
0.325
 30
0.0
 11
1.0
 21
0.0
 31
0.0
 44
0.9
  1
Apr-25-22
 40
0.125
 41
1.8
  0
MTEXT
  5
245
100
AcDbEntity
  8
0
100
AcDbMText
 62
2
  6
CONTINUOUS
  7
STANDARD
 71
2
 72
1
 10
2.05
 20
0.4625
 30
0.0
 11
1.0
 21
0.0
 31
0.0
 44
0.9
  1
Line mount
 40
0.125
 41
2.0
  0
MTEXT
  5
246
100
AcDbEntity
  8
0
100
AcDbMText
 62
2
  6
CONTINUOUS
  7
STANDARD
 71
1
 72
1
 10
6.45
 20
0.5625
 30
0.0
 11
1.0
 21
0.0
 31
0.0
 44
0.9
  1
SHEET
 40
0.06
 41
0.48
  0
MTEXT
  5
247
100
AcDbEntity
  8
0
100
AcDbMText
 62
2
  6
CONTINUOUS
  7
STANDARD
 71
1
 72
1
 10
5.95
 20
0.5625
 30
0.0
 11
1.0
 21
0.0
 31
0.0
 44
0.9
  1
DWG SIZE
 40
0.06
 41
0.768
  0
MTEXT
  5
248
100
AcDbEntity
  8
0
100
AcDbMText
 62
2
  6
CONTINUOUS
  7
STANDARD
 71
1
 72
1
 10
5.25
 20
0.5625
 30
0.0
 11
1.0
 21
0.0
 31
0.0
 44
0.9
  1
SCALE
 40
0.06
 41
0.48
  0
MTEXT
  5
249
100
AcDbEntity
  8
0
100
AcDbMText
 62
2
  6
CONTINUOUS
  7
STANDARD
 71
1
 72
1
 10
4.15
 20
0.5625
 30
0.0
 11
1.0
 21
0.0
 31
0.0
 44
0.9
  1
DATE
 40
0.06
 41
0.384
  0
MTEXT
  5
24A
100
AcDbEntity
  8
0
100
AcDbMText
 62
2
  6
CONTINUOUS
  7
STANDARD
 71
1
 72
1
 10
0.05
 20
0.5625
 30
0.0
 11
1.0
 21
0.0
 31
0.0
 44
0.9
  1
DESCRIPTION
 40
0.06
 41
1.056
  0
MTEXT
  5
24B
100
AcDbEntity
  8
0
100
AcDbMText
 62
2
  6
CONTINUOUS
  7
STANDARD
 71
2
 72
1
 10
5.45
 20
1.0375
 30
0.0
 11
1.0
 21
0.0
 31
0.0
 44
0.9
  1
ALL DIMENSIONS IN INCH\PVIEWS ARE THIRD ANGLE
 40
0.12
 41
4.224
  0
MTEXT
  5
24C
100
AcDbEntity
  8
0
100
AcDbMText
 62
2
  6
CONTINUOUS
  7
STANDARD
 71
2
 72
1
 10
2.05
 20
0.95
 30
0.0
 11
1.0
 21
0.0
 31
0.0
 44
0.9
  1
Y6K
 40
0.125
 41
0.6
  0
MTEXT
  5
24D
100
AcDbEntity
  8
0
100
AcDbMText
 62
2
  6
CONTINUOUS
  7
STANDARD
 71
1
 72
1
 10
0.05
 20
1.1875
 30
0.0
 11
1.0
 21
0.0
 31
0.0
 44
0.9
  1
MODEL
 40
0.06
 41
0.48
  0
ENDBLK
  5
24E
100
AcDbEntity
  8
0
  6
BYBLOCK
 62
0
100
AcDbBlockEnd
  0
BLOCK
  5
24F
100
AcDbEntity
  8
0
100
AcDbBlockBegin
  2
*T2
 70
1
 10
0.0
 20
0.0
  3
*T2
  1

  0
LINE
  5
250
100
AcDbEntity
  8
0
100
AcDbLine
 62
2
  6
CONTINUOUS
 10
0.0
 20
0.0
 11
9.055
 21
0.0
  0
LINE
  5
251
100
AcDbEntity
  8
0
100
AcDbLine
 62
2
  6
CONTINUOUS
 10
0.0
 20
0.0
 11
0.0
 21
-1.344
  0
LINE
  5
252
100
AcDbEntity
  8
0
100
AcDbLine
 62
2
  6
CONTINUOUS
 10
0.0
 20
-0.344
 11
9.055
 21
-0.344
  0
LINE
  5
253
100
AcDbEntity
  8
0
100
AcDbLine
 62
2
  6
CONTINUOUS
 10
0.0
 20
-0.594
 11
9.055
 21
-0.594
  0
LINE
  5
254
100
AcDbEntity
  8
0
100
AcDbLine
 62
2
  6
CONTINUOUS
 10
0.0
 20
-0.844
 11
9.055
 21
-0.844
  0
LINE
  5
255
100
AcDbEntity
  8
0
100
AcDbLine
 62
2
  6
CONTINUOUS
 10
0.0
 20
-1.094
 11
9.055
 21
-1.094
  0
LINE
  5
256
100
AcDbEntity
  8
0
100
AcDbLine
 62
2
  6
CONTINUOUS
 10
0.0
 20
-1.344
 11
9.055
 21
-1.344
  0
LINE
  5
257
100
AcDbEntity
  8
0
100
AcDbLine
 62
2
  6
CONTINUOUS
 10
3.055
 20
0.0
 11
3.055
 21
-1.344
  0
LINE
  5
258
100
AcDbEntity
  8
0
100
AcDbLine
 62
2
  6
CONTINUOUS
 10
9.055
 20
0.0
 11
9.055
 21
-1.344
  0
MTEXT
  5
259
100
AcDbEntity
  8
0
100
AcDbMText
 62
2
  6
CONTINUOUS
  7
STANDARD
 71
2
 72
1
 10
1.5275
 20
-0.0995
 30
0.0
 11
1.0
 21
0.0
 31
0.0
 44
0.9
  1
Technical Data
 40
0.145
 41
3.248
  0
MTEXT
  5
25A
100
AcDbEntity
  8
0
100
AcDbMText
 62
2
  6
CONTINUOUS
  7
STANDARD
 71
2
 72
1
 10
4.555
 20
-0.0995
 30
0.0
 11
1.0
 21
0.0
 31
0.0
 44
0.9
  1
U.S. Units
 40
0.145
 41
2.32
  0
MTEXT
  5
25B
100
AcDbEntity
  8
0
100
AcDbMText
 62
2
  6
CONTINUOUS
  7
STANDARD
 71
2
 72
1
 10
7.555
 20
-0.0995
 30
0.0
 11
1.0
 21
0.0
 31
0.0
 44
0.9
  1
Metric Units
 40
0.145
 41
2.784
  0
MTEXT
  5
25C
100
AcDbEntity
  8
0
100
AcDbMText
 62
2
  6
CONTINUOUS
  7
STANDARD
 71
2
 72
1
 10
1.5275
 20
-0.4065
 30
0.0
 11
1.0
 21
0.0
 31
0.0
 44
0.9
  1
Body Type
 40
0.125
 41
1.8
  0
MTEXT
  5
25D
100
AcDbEntity
  8
0
100
AcDbMText
 62
2
  6
CONTINUOUS
  7
STANDARD
 71
2
 72
1
 10
6.055
 20
-0.4065
 30
0.0
 11
1.0
 21
0.0
 31
0.0
 44
0.9
  1
Line mount
 40
0.125
 41
2.0
  0
MTEXT
  5
25E
100
AcDbEntity
  8
0
100
AcDbMText
 62
2
  6
CONTINUOUS
  7
STANDARD
 71
2
 72
1
 10
1.5275
 20
-0.6565
 30
0.0
 11
1.0
 21
0.0
 31
0.0
 44
0.9
  1
Weight
 40
0.125
 41
1.2
  0
MTEXT
  5
25F
100
AcDbEntity
  8
0
100
AcDbMText
 62
2
  6
CONTINUOUS
  7
STANDARD
 71
2
 72
1
 10
4.555
 20
-0.6565
 30
0.0
 11
1.0
 21
0.0
 31
0.0
 44
0.9
  1
4.653 lb.
 40
0.125
 41
1.8
  0
MTEXT
  5
260
100
AcDbEntity
  8
0
100
AcDbMText
 62
2
  6
CONTINUOUS
  7
STANDARD
 71
2
 72
1
 10
7.555
 20
-0.6565
 30
0.0
 11
1.0
 21
0.0
 31
0.0
 44
0.9
  1
2,111 kg.
 40
0.125
 41
1.8
  0
MTEXT
  5
261
100
AcDbEntity
  8
0
100
AcDbMText
 62
2
  6
CONTINUOUS
  7
STANDARD
 71
2
 72
1
 10
1.5275
 20
-0.9065
 30
0.0
 11
1.0
 21
0.0
 31
0.0
 44
0.9
  1
Mounting Hole Diameter
 40
0.125
 41
4.4
  0
MTEXT
  5
262
100
AcDbEntity
  8
0
100
AcDbMText
 62
2
  6
CONTINUOUS
  7
STANDARD
 71
2
 72
1
 10
4.555
 20
-0.9065
 30
0.0
 11
1.0
 21
0.0
 31
0.0
 44
0.9
  1
.42 in.
 40
0.125
 41
1.4
  0
MTEXT
  5
263
100
AcDbEntity
  8
0
100
AcDbMText
 62
2
  6
CONTINUOUS
  7
STANDARD
 71
2
 72
1
 10
7.555
 20
-0.9065
 30
0.0
 11
1.0
 21
0.0
 31
0.0
 44
0.9
  1
10,7 mm
 40
0.125
 41
1.4
  0
MTEXT
  5
264
100
AcDbEntity
  8
0
100
AcDbMText
 62
2
  6
CONTINUOUS
  7
STANDARD
 71
2
 72
1
 10
1.5275
 20
-1.1565
 30
0.0
 11
1.0
 21
0.0
 31
0.0
 44
0.9
  1
Mounting Hole Quantity
 40
0.125
 41
4.4
  0
MTEXT
  5
265
100
AcDbEntity
  8
0
100
AcDbMText
 62
2
  6
CONTINUOUS
  7
STANDARD
 71
2
 72
1
 10
6.055
 20
-1.1565
 30
0.0
 11
1.0
 21
0.0
 31
0.0
 44
0.9
  1
2
 40
0.125
 41
0.2
  0
ENDBLK
  5
266
100
AcDbEntity
  8
0
  6
BYBLOCK
 62
0
100
AcDbBlockEnd
  0
BLOCK
  5
267
100
AcDbEntity
  8
0
100
AcDbBlockBegin
  2
*T3
 70
1
 10
0.0
 20
0.0
  3
*T3
  1

  0
LINE
  5
268
100
AcDbEntity
  8
0
100
AcDbLine
 62
2
  6
CONTINUOUS
 10
0.0
 20
0.0
 11
4.6
 21
0.0
  0
LINE
  5
269
100
AcDbEntity
  8
0
100
AcDbLine
 62
2
  6
CONTINUOUS
 10
0.0
 20
0.0
 11
0.0
 21
-1.43775
  0
LINE
  5
26A
100
AcDbEntity
  8
0
100
AcDbLine
 62
2
  6
CONTINUOUS
 10
0.0
 20
-0.34375
 11
4.6
 21
-0.34375
  0
LINE
  5
26B
100
AcDbEntity
  8
0
100
AcDbLine
 62
2
  6
CONTINUOUS
 10
0.0
 20
-0.68775
 11
4.6
 21
-0.68775
  0
LINE
  5
26C
100
AcDbEntity
  8
0
100
AcDbLine
 62
2
  6
CONTINUOUS
 10
0.0
 20
-0.93775
 11
4.6
 21
-0.93775
  0
LINE
  5
26D
100
AcDbEntity
  8
0
100
AcDbLine
 62
2
  6
CONTINUOUS
 10
0.0
 20
-1.18775
 11
4.6
 21
-1.18775
  0
LINE
  5
26E
100
AcDbEntity
  8
0
100
AcDbLine
 62
2
  6
CONTINUOUS
 10
0.0
 20
-1.43775
 11
4.6
 21
-1.43775
  0
LINE
  5
26F
100
AcDbEntity
  8
0
100
AcDbLine
 62
2
  6
CONTINUOUS
 10
1.3
 20
-0.34375
 11
1.3
 21
-1.43775
  0
LINE
  5
270
100
AcDbEntity
  8
0
100
AcDbLine
 62
2
  6
CONTINUOUS
 10
3.3
 20
-0.34375
 11
3.3
 21
-1.43775
  0
LINE
  5
271
100
AcDbEntity
  8
0
100
AcDbLine
 62
2
  6
CONTINUOUS
 10
4.6
 20
0.0
 11
4.6
 21
-1.43775
  0
MTEXT
  5
272
100
AcDbEntity
  8
0
100
AcDbMText
 62
2
  6
CONTINUOUS
  7
STANDARD
 71
2
 72
1
 10
2.3
 20
-0.099375
 30
0.0
 11
1.0
 21
0.0
 31
0.0
 44
0.9
  1
Port Headings
 40
0.145
 41
3.016
  0
MTEXT
  5
273
100
AcDbEntity
  8
0
100
AcDbMText
 62
2
  6
CONTINUOUS
  7
STANDARD
 71
2
 72
1
 10
0.65
 20
-0.44325
 30
0.0
 11
1.0
 21
0.0
 31
0.0
 44
0.9
  1
Product
 40
0.145
 41
1.624
  0
MTEXT
  5
274
100
AcDbEntity
  8
0
100
AcDbMText
 62
2
  6
CONTINUOUS
  7
STANDARD
 71
2
 72
1
 10
2.3
 20
-0.44325
 30
0.0
 11
1.0
 21
0.0
 31
0.0
 44
0.9
  1
Port
 40
0.145
 41
0.928
  0
MTEXT
  5
275
100
AcDbEntity
  8
0
100
AcDbMText
 62
2
  6
CONTINUOUS
  7
STANDARD
 71
2
 72
1
 10
3.95
 20
-0.44325
 30
0.0
 11
1.0
 21
0.0
 31
0.0
 44
0.9
  1
Size
 40
0.145
 41
0.928
  0
MTEXT
  5
276
100
AcDbEntity
  8
0
100
AcDbMText
 62
2
  6
CONTINUOUS
  7
STANDARD
 71
2
 72
1
 10
0.65
 20
-0.75025
 30
0.0
 11
1.0
 21
0.0
 31
0.0
 44
0.9
  1
Y6K
 40
0.125
 41
0.6
  0
MTEXT
  5
277
100
AcDbEntity
  8
0
100
AcDbMText
 62
2
  6
CONTINUOUS
  7
STANDARD
 71
2
 72
1
 10
2.3
 20
-0.75025
 30
0.0
 11
1.0
 21
0.0
 31
0.0
 44
0.9
  1
Ports 1A, 1B, 2A, 2B
 40
0.125
 41
4.0
  0
MTEXT
  5
278
100
AcDbEntity
  8
0
100
AcDbMText
 62
2
  6
CONTINUOUS
  7
STANDARD
 71
2
 72
1
 10
3.95
 20
-0.75025
 30
0.0
 11
1.0
 21
0.0
 31
0.0
 44
0.9
  1
SAE 10
 40
0.125
 41
1.2
  0
MTEXT
  5
279
100
AcDbEntity
  8
0
100
AcDbMText
 62
2
  6
CONTINUOUS
  7
STANDARD
 71
2
 72
1
 10
0.65
 20
-1.00025
 30
0.0
 11
1.0
 21
0.0
 31
0.0
 44
0.9
  1
Y6K
 40
0.125
 41
0.6
  0
MTEXT
  5
27A
100
AcDbEntity
  8
0
100
AcDbMText
 62
2
  6
CONTINUOUS
  7
STANDARD
 71
2
 72
1
 10
2.3
 20
-1.00025
 30
0.0
 11
1.0
 21
0.0
 31
0.0
 44
0.9
  1
Port 4
 40
0.125
 41
1.2
  0
MTEXT
  5
27B
100
AcDbEntity
  8
0
100
AcDbMText
 62
2
  6
CONTINUOUS
  7
STANDARD
 71
2
 72
1
 10
3.95
 20
-1.00025
 30
0.0
 11
1.0
 21
0.0
 31
0.0
 44
0.9
  1
SAE 6
 40
0.125
 41
1.0
  0
MTEXT
  5
27C
100
AcDbEntity
  8
0
100
AcDbMText
 62
2
  6
CONTINUOUS
  7
STANDARD
 71
2
 72
1
 10
0.65
 20
-1.25025
 30
0.0
 11
1.0
 21
0.0
 31
0.0
 44
0.9
  1
Y6K
 40
0.125
 41
0.6
  0
MTEXT
  5
27D
100
AcDbEntity
  8
0
100
AcDbMText
 62
2
  6
CONTINUOUS
  7
STANDARD
 71
2
 72
1
 10
2.3
 20
-1.25025
 30
0.0
 11
1.0
 21
0.0
 31
0.0
 44
0.9
  1
Port S
 40
0.125
 41
1.2
  0
MTEXT
  5
27E
100
AcDbEntity
  8
0
100
AcDbMText
 62
2
  6
CONTINUOUS
  7
STANDARD
 71
2
 72
1
 10
3.95
 20
-1.25025
 30
0.0
 11
1.0
 21
0.0
 31
0.0
 44
0.9
  1
SAE 4
 40
0.125
 41
1.0
  0
ENDBLK
  5
27F
100
AcDbEntity
  8
0
  6
BYBLOCK
 62
0
100
AcDbBlockEnd
  0
ENDSEC
  0
SECTION
  2
ENTITIES
  0
IMAGE
  5
280
100
AcDbEntity
  8
0
100
AcDbRasterImage
 62
7
  6
CONTINUOUS
 10
19.2297077316
 20
0.3094318264
 30
0.0
 11
0.0066666667
 21
0.0
 31
0.0
 12
0.0
 22
0.0066666667
 32
0.0
 13
369.0
 23
92.0
340
       418
 70
9
280
0
281
50
282
50
283
0
360
       412
 71
1
 91
2
 14
-0.5
 24
-0.5
 14
368.5
 24
91.5
  0
INSERT
  5
281
100
AcDbEntity
  8
0
100
AcDbBlockReference
 62
2
  6
CONTINUOUS
  2
SUN_FIRST_THIRD_ANGLE_BL0
 10
20.4816717061
 20
1.2289683772
  0
ACAD_TABLE
  5
282
100
AcDbEntity
  8
0
 62
2
  6
CONTINUOUS
100
AcDbBlockReference
  2
*T1
 10
12.42375
 20
0.30125
 30
0.0
100
AcDbTable
342
       41A
343
20F
 11
1.0
 21
0.0
 31
0.0
 90
6
 91
4
 92
6
 93
20
 94
0
 95
0
 96
0
 70
1
 41
0.0
141
0.525
141
0.1
141
0.525
141
0.1
142
4.1
142
1.1
142
0.7
142
0.5
142
0.4
142
2.475
171
1
172
0
173
0
174
0
175
1
176
1
 91
33
178
0
145
0.0
301
CELL_VALUE
 90
4
  1
Line mount
304
ACVALUE_END
170
2
140
0.125
171
1
172
0
173
0
174
0
175
1
176
1
 91
33
178
0
145
0.0
301
CELL_VALUE
 90
4
  1
Apr-25-22
304
ACVALUE_END
170
5
140
0.125
171
1
172
0
173
0
174
0
175
1
176
1
 91
33
178
0
145
0.0
301
CELL_VALUE
 90
4
  1
1.000
304
ACVALUE_END
170
5
140
0.125
171
1
172
0
173
0
174
0
175
1
176
1
 91
33
178
0
145
0.0
301
CELL_VALUE
 90
4
  1
C
304
ACVALUE_END
170
5
140
0.125
171
1
172
0
173
0
174
0
175
1
176
1
 91
33
178
0
145
0.0
301
CELL_VALUE
 90
4
  1
2
304
ACVALUE_END
170
5
140
0.125
171
1
172
0
173
0
174
0
175
1
176
1
 91
33
178
0
145
0.0
301
CELL_VALUE
 90
4
  1
 
304
ACVALUE_END
170
1
140
0.125
171
1
172
0
173
0
174
0
175
1
176
1
 91
33
178
0
145
0.0
301
CELL_VALUE
 90
4
  1
DESCRIPTION
304
ACVALUE_END
170
1
140
0.06
171
1
172
0
173
0
174
0
175
1
176
1
 91
33
178
0
145
0.0
301
CELL_VALUE
 90
4
  1
DATE
304
ACVALUE_END
170
1
140
0.06
171
1
172
0
173
0
174
0
175
1
176
1
 91
33
178
0
145
0.0
301
CELL_VALUE
 90
4
  1
SCALE
304
ACVALUE_END
170
1
140
0.06
171
1
172
0
173
0
174
0
175
1
176
1
 91
33
178
0
145
0.0
301
CELL_VALUE
 90
4
  1
DWG SIZE
304
ACVALUE_END
170
1
140
0.06
171
1
172
0
173
0
174
0
175
1
176
1
 91
33
178
0
145
0.0
301
CELL_VALUE
 90
4
  1
SHEET
304
ACVALUE_END
170
1
140
0.06
171
1
172
0
173
0
174
0
175
1
176
1
 91
33
178
0
145
0.0
301
CELL_VALUE
 90
4
  1
 
304
ACVALUE_END
170
1
140
0.125
171
1
172
0
173
0
174
0
175
1
176
1
 91
33
178
0
145
0.0
301
CELL_VALUE
 90
4
  1
Y6K
304
ACVALUE_END
170
5
140
0.125
171
1
172
0
173
0
174
0
175
4
176
1
 91
33
178
0
145
0.0
301
CELL_VALUE
 90
4
  1
ALL DIMENSIONS IN INCH\PVIEWS ARE THIRD ANGLE
304
ACVALUE_END
170
5
140
0.12
171
1
172
0
173
1
174
0
175
1
176
1
 91
1
178
0
145
0.0
170
1
171
1
172
0
173
1
174
0
175
1
176
1
 91
1
178
0
145
0.0
170
1
171
1
172
0
173
1
174
0
175
1
176
1
 91
1
178
0
145
0.0
170
5
171
1
172
0
173
0
174
0
175
1
176
1
 91
33
178
0
145
0.0
301
CELL_VALUE
 90
4
  1
 
304
ACVALUE_END
170
1
140
0.125
171
1
172
0
173
0
174
0
175
1
176
1
 91
33
178
0
145
0.0
301
CELL_VALUE
 90
4
  1
MODEL
304
ACVALUE_END
170
1
140
0.06
171
1
172
0
173
0
174
0
175
1
176
1
 91
33
178
0
145
0.0
301
CELL_VALUE
 90
4
  1
 
304
ACVALUE_END
170
1
140
0.125
171
1
172
0
173
0
174
0
175
1
176
1
 91
33
178
0
145
0.0
301
CELL_VALUE
 90
4
  1
 
304
ACVALUE_END
170
1
140
0.125
171
1
172
0
173
0
174
0
175
1
176
1
 91
33
178
0
145
0.0
301
CELL_VALUE
 90
4
  1
 
304
ACVALUE_END
170
1
140
0.125
171
1
172
0
173
0
174
0
175
1
176
1
 91
33
178
0
145
0.0
301
CELL_VALUE
 90
4
  1
 
304
ACVALUE_END
170
1
140
0.125
171
1
172
0
173
0
174
0
175
1
176
1
 91
33
178
0
145
0.0
301
CELL_VALUE
 90
4
  1
 
304
ACVALUE_END
170
1
140
0.125
  0
ACAD_TABLE
  5
283
100
AcDbEntity
  8
0
 62
2
  6
CONTINUOUS
100
AcDbBlockReference
  2
*T2
 10
12.4237499994
 20
16.47875
 30
0.0
100
AcDbTable
342
       419
343
210
 11
1.0
 21
0.0
 31
0.0
 90
22
 91
5
 92
3
 93
16
 94
0
 95
0
 96
0
 41
0.028
141
0.344
141
0.25
141
0.25
141
0.25
141
0.25
142
3.055
142
3.0
142
3.0
171
1
172
0
173
0
174
0
175
1
176
1
 91
33
178
0
145
0.0
301
CELL_VALUE
 90
4
  1
Technical Data
304
ACVALUE_END
170
5
140
0.145
171
1
172
0
173
0
174
0
175
1
176
1
 91
33
178
0
145
0.0
301
CELL_VALUE
 90
4
  1
U.S. Units
304
ACVALUE_END
170
5
140
0.145
171
1
172
0
173
0
174
0
175
1
176
1
 91
33
178
0
145
0.0
301
CELL_VALUE
 90
4
  1
Metric Units
304
ACVALUE_END
170
5
140
0.145
171
1
172
0
173
0
174
0
175
1
176
1
 91
33
178
0
145
0.0
301
CELL_VALUE
 90
4
  1
Body Type
304
ACVALUE_END
170
5
140
0.125
171
1
172
0
173
0
174
0
175
2
176
1
 91
33
178
0
145
0.0
301
CELL_VALUE
 90
4
  1
Line mount
304
ACVALUE_END
170
5
140
0.125
171
1
172
0
173
1
174
0
175
1
176
1
 91
1
178
0
145
0.0
170
1
171
1
172
0
173
0
174
0
175
1
176
1
 91
33
178
0
145
0.0
301
CELL_VALUE
 90
4
  1
Weight
304
ACVALUE_END
170
5
140
0.125
171
1
172
0
173
0
174
0
175
1
176
1
 91
33
178
0
145
0.0
301
CELL_VALUE
 90
4
  1
4.653 lb.
304
ACVALUE_END
170
5
140
0.125
171
1
172
0
173
0
174
0
175
1
176
1
 91
33
178
0
145
0.0
301
CELL_VALUE
 90
4
  1
2,111 kg.
304
ACVALUE_END
170
5
140
0.125
171
1
172
0
173
0
174
0
175
1
176
1
 91
33
178
0
145
0.0
301
CELL_VALUE
 90
4
  1
Mounting Hole Diameter
304
ACVALUE_END
170
5
140
0.125
171
1
172
0
173
0
174
0
175
1
176
1
 91
33
178
0
145
0.0
301
CELL_VALUE
 90
4
  1
.42 in.
304
ACVALUE_END
170
5
140
0.125
171
1
172
0
173
0
174
0
175
1
176
1
 91
33
178
0
145
0.0
301
CELL_VALUE
 90
4
  1
10,7 mm
304
ACVALUE_END
170
5
140
0.125
171
1
172
0
173
0
174
0
175
1
176
1
 91
33
178
0
145
0.0
301
CELL_VALUE
 90
4
  1
Mounting Hole Quantity
304
ACVALUE_END
170
5
140
0.125
171
1
172
0
173
0
174
0
175
2
176
1
 91
33
178
0
145
0.0
301
CELL_VALUE
 90
4
  1
2
304
ACVALUE_END
170
5
140
0.125
171
1
172
0
173
1
174
0
175
1
176
1
 91
1
178
0
145
0.0
170
1
  0
ACAD_TABLE
  5
284
100
AcDbEntity
  8
0
 62
2
  6
CONTINUOUS
100
AcDbBlockReference
  2
*T3
 10
0.52125
 20
1.959
 30
0.0
100
AcDbTable
342
       419
343
211
 11
1.0
 21
0.0
 31
0.0
 90
22
 91
5
 92
3
 93
16
 94
0
 95
0
 96
0
 41
0.05
141
0.34375
141
0.344
141
0.25
141
0.25
141
0.25
142
1.3
142
2.0
142
1.3
171
1
172
0
173
0
174
0
175
3
176
1
 91
33
178
0
145
0.0
301
CELL_VALUE
 90
4
  1
Port Headings
304
ACVALUE_END
170
5
140
0.145
171
1
172
0
173
1
174
0
175
1
176
1
 91
1
178
0
145
0.0
170
1
171
1
172
0
173
1
174
0
175
1
176
1
 91
1
178
0
145
0.0
170
1
171
1
172
0
173
0
174
0
175
1
176
1
 91
33
178
0
145
0.0
301
CELL_VALUE
 90
4
  1
Product
304
ACVALUE_END
170
5
140
0.145
171
1
172
0
173
0
174
0
175
1
176
1
 91
33
178
0
145
0.0
301
CELL_VALUE
 90
4
  1
Port
304
ACVALUE_END
170
5
140
0.145
171
1
172
0
173
0
174
0
175
1
176
1
 91
33
178
0
145
0.0
301
CELL_VALUE
 90
4
  1
Size
304
ACVALUE_END
170
5
140
0.145
171
1
172
0
173
0
174
0
175
1
176
1
 91
33
178
0
145
0.0
301
CELL_VALUE
 90
4
  1
Y6K
304
ACVALUE_END
170
5
140
0.125
171
1
172
0
173
0
174
0
175
1
176
1
 91
33
178
0
145
0.0
301
CELL_VALUE
 90
4
  1
Ports 1A, 1B, 2A, 2B
304
ACVALUE_END
170
5
140
0.125
171
1
172
0
173
0
174
0
175
1
176
1
 91
33
178
0
145
0.0
301
CELL_VALUE
 90
4
  1
SAE 10
304
ACVALUE_END
170
5
140
0.125
171
1
172
0
173
0
174
0
175
1
176
1
 91
33
178
0
145
0.0
301
CELL_VALUE
 90
4
  1
Y6K
304
ACVALUE_END
170
5
140
0.125
171
1
172
0
173
0
174
0
175
1
176
1
 91
33
178
0
145
0.0
301
CELL_VALUE
 90
4
  1
Port 4
304
ACVALUE_END
170
5
140
0.125
171
1
172
0
173
0
174
0
175
1
176
1
 91
33
178
0
145
0.0
301
CELL_VALUE
 90
4
  1
SAE 6
304
ACVALUE_END
170
5
140
0.125
171
1
172
0
173
0
174
0
175
1
176
1
 91
33
178
0
145
0.0
301
CELL_VALUE
 90
4
  1
Y6K
304
ACVALUE_END
170
5
140
0.125
171
1
172
0
173
0
174
0
175
1
176
1
 91
33
178
0
145
0.0
301
CELL_VALUE
 90
4
  1
Port S
304
ACVALUE_END
170
5
140
0.125
171
1
172
0
173
0
174
0
175
1
176
1
 91
33
178
0
145
0.0
301
CELL_VALUE
 90
4
  1
SAE 4
304
ACVALUE_END
170
5
140
0.125
  0
MTEXT
  5
285
100
AcDbEntity
  8
0
100
AcDbMText
 62
2
  6
CONTINUOUS
  7
STANDARD
 71
1
 72
1
 10
0.52125
 20
5.75995
 30
0.0
 11
1.0
 21
0.0
 31
0.0
 44
0.6
  3
Notes\P \P1. Important: Carefully consider\P   the maximum system pressure. The\P   pressure rating of the manifold is\P   dependent on the manifold material,\P   with the port type/size a secondary\P   consideration. Manifolds\P   constructed of alu
  1
minum are not\P   rated for pressures higher than\P   3000 psi (210 bar), regardless of\P   the port type/size specified.
 40
0.1
 41
3.04
  0
LINE
  5
286
100
AcDbEntity
  8
0
100
AcDbLine
 62
7
  6
CONTINUOUS
 10
0.30125
 20
0.30125
 11
0.30125
 21
16.69875
  0
LINE
  5
287
100
AcDbEntity
  8
0
100
AcDbLine
 62
7
  6
CONTINUOUS
 10
0.30125
 20
0.30125
 11
21.69875
 21
0.30125
  0
LINE
  5
288
100
AcDbEntity
  8
0
100
AcDbLine
 62
7
  6
CONTINUOUS
 10
0.30125
 20
16.69875
 11
21.69875
 21
16.69875
  0
LINE
  5
289
100
AcDbEntity
  8
0
100
AcDbLine
 62
7
  6
CONTINUOUS
 10
21.69875
 20
0.30125
 11
21.69875
 21
16.69875
  0
LINE
  5
28A
100
AcDbEntity
  8
0
100
AcDbLine
 62
7
  6
CONTINUOUS
 10
9.3916717723
 20
11.6027703154
 11
8.7446246936
 21
10.9777707942
  0
LINE
  5
28B
100
AcDbEntity
  8
0
100
AcDbLine
 62
4
  6
CONTINUOUS
 10
9.0730394974
 20
5.8307583366
 11
9.1889506009
 21
5.7551050639
  0
LINE
  5
28C
100
AcDbEntity
  8
0
100
AcDbLine
 62
7
  6
CONTINUOUS
 10
8.7446246936
 20
5.6651784348
 11
12.6083282277
 21
5.3972296846
  0
LINE
  5
28D
100
AcDbEntity
  8
0
100
AcDbLine
 62
4
  6
CONTINUOUS
 10
9.2275876353
 20
5.8200403868
 11
9.0730394974
 21
5.8307583366
  0
LINE
  5
28E
100
AcDbEntity
  8
0
100
AcDbLine
 62
4
  6
CONTINUOUS
 10
10.6384833643
 20
5.7318536943
 11
10.6642413812
 21
5.7300673697
  0
LINE
  5
28F
100
AcDbEntity
  8
0
100
AcDbLine
 62
4
  6
CONTINUOUS
 10
10.7286364417
 20
5.6579867468
 11
10.7672734762
 21
5.6456480007
  0
LINE
  5
290
100
AcDbEntity
  8
0
100
AcDbLine
 62
4
  6
CONTINUOUS
 10
8.8315580265
 20
9.9043938237
 11
8.844437035
 21
9.9228191787
  0
LINE
  5
291
100
AcDbEntity
  8
0
100
AcDbLine
 62
4
  6
CONTINUOUS
 10
10.7672734762
 20
5.79053688
 11
10.6127253383
 21
5.8495511229
  0
LINE
  5
292
100
AcDbEntity
  8
0
100
AcDbLine
 62
4
  6
CONTINUOUS
 10
8.8315580265
 20
9.44074941
 11
8.844437035
 21
9.459174765
  0
LINE
  5
293
100
AcDbEntity
  8
0
100
AcDbLine
 62
4
  6
CONTINUOUS
 10
8.844437035
 20
9.9228191787
 11
8.8573160526
 21
9.9315852744
  0
LINE
  5
294
100
AcDbEntity
  8
0
100
AcDbLine
 62
4
  6
CONTINUOUS
 10
10.6127253383
 20
5.8495511229
 11
10.7672734762
 21
5.8871294662
  0
LINE
  5
295
100
AcDbEntity
  8
0
100
AcDbLine
 62
4
  6
CONTINUOUS
 10
10.6384833643
 20
5.6545796253
 11
10.6256043467
 21
5.6651320468
  0
LINE
  5
296
100
AcDbEntity
  8
0
100
AcDbLine
 62
4
  6
CONTINUOUS
 10
8.8573160526
 20
7.1835261513
 11
8.844437035
 21
7.1940785729
  0
LINE
  5
297
100
AcDbEntity
  8
0
100
AcDbLine
 62
4
  6
CONTINUOUS
 10
10.7028784202
 20
5.6790915889
 11
10.7286364417
 21
5.6579867468
  0
LINE
  5
298
100
AcDbEntity
  8
0
100
AcDbLine
 62
4
  6
CONTINUOUS
 10
10.6642413812
 20
5.7300673697
 11
10.6771203988
 21
5.7195149482
  0
LINE
  5
299
100
AcDbEntity
  8
0
100
AcDbLine
 62
4
  6
CONTINUOUS
 10
8.9217111085
 20
7.2080381149
 11
8.94746913
 21
7.1869332728
  0
LINE
  5
29A
100
AcDbEntity
  8
0
100
AcDbLine
 62
4
  6
CONTINUOUS
 10
8.8830740694
 20
7.2590138957
 11
8.8959530871
 21
7.2484614742
  0
LINE
  5
29B
100
AcDbEntity
  8
0
100
AcDbLine
 62
4
  6
CONTINUOUS
 10
8.844437035
 20
7.1940785729
 11
8.8315580265
 21
7.2142902524
  0
LINE
  5
29C
100
AcDbEntity
  8
0
100
AcDbLine
 62
4
  6
CONTINUOUS
 10
8.8959530871
 20
7.2484614742
 11
8.9217111085
 21
7.2080381149
  0
LINE
  5
29D
100
AcDbEntity
  8
0
100
AcDbLine
 62
4
  6
CONTINUOUS
 10
8.844437035
 20
7.3486267108
 11
8.8315580265
 21
7.3688383903
  0
LINE
  5
29E
100
AcDbEntity
  8
0
100
AcDbLine
 62
4
  6
CONTINUOUS
 10
8.8959530871
 20
7.4030096121
 11
8.9217111085
 21
7.3625862528
  0
LINE
  5
29F
100
AcDbEntity
  8
0
100
AcDbLine
 62
7
  6
CONTINUOUS
 10
8.7446246936
 20
5.6651784348
 11
8.7446246936
 21
10.9777707942
  0
LINE
  5
2A0
100
AcDbEntity
  8
0
100
AcDbLine
 62
4
  6
CONTINUOUS
 10
8.8315580265
 20
6.8665569421
 11
8.8315580265
 21
6.9631495283
  0
LINE
  5
2A1
100
AcDbEntity
  8
0
100
AcDbLine
 62
4
  6
CONTINUOUS
 10
8.8315580265
 20
7.2142902524
 11
8.8315580265
 21
7.2336087696
  0
LINE
  5
2A2
100
AcDbEntity
  8
0
100
AcDbLine
 62
4
  6
CONTINUOUS
 10
8.8315580265
 20
7.3688383903
 11
8.8315580265
 21
7.3881569075
  0
LINE
  5
2A3
100
AcDbEntity
  8
0
100
AcDbLine
 62
4
  6
CONTINUOUS
 10
8.8315580265
 20
8.9191494445
 11
8.8315580265
 21
9.0157420307
  0
LINE
  5
2A4
100
AcDbEntity
  8
0
100
AcDbLine
 62
4
  6
CONTINUOUS
 10
8.8315580265
 20
9.2668827548
 11
8.8315580265
 21
9.2862012721
  0
LINE
  5
2A5
100
AcDbEntity
  8
0
100
AcDbLine
 62
4
  6
CONTINUOUS
 10
8.8315580265
 20
9.4214308928
 11
8.8315580265
 21
9.44074941
  0
LINE
  5
2A6
100
AcDbEntity
  8
0
100
AcDbLine
 62
4
  6
CONTINUOUS
 10
8.8315580265
 20
9.8850753065
 11
8.8315580265
 21
9.9043938237
  0
LINE
  5
2A7
100
AcDbEntity
  8
0
100
AcDbLine
 62
4
  6
CONTINUOUS
 10
8.9088320955
 20
7.0350646223
 11
8.9088320955
 21
7.093020174
  0
LINE
  5
2A8
100
AcDbEntity
  8
0
100
AcDbLine
 62
4
  6
CONTINUOUS
 10
8.9088320955
 20
7.653257174
 11
8.9088320955
 21
7.7112127257
  0
LINE
  5
2A9
100
AcDbEntity
  8
0
100
AcDbLine
 62
4
  6
CONTINUOUS
 10
8.9088320955
 20
9.0876571248
 11
8.9088320955
 21
9.1456126765
  0
LINE
  5
2AA
100
AcDbEntity
  8
0
100
AcDbLine
 62
4
  6
CONTINUOUS
 10
8.9088320955
 20
9.7058496765
 11
8.9088320955
 21
9.7638052282
  0
LINE
  5
2AB
100
AcDbEntity
  8
0
100
AcDbLine
 62
4
  6
CONTINUOUS
 10
8.9345901169
 20
7.4969227112
 11
8.9345901169
 21
7.5548782629
  0
LINE
  5
2AC
100
AcDbEntity
  8
0
100
AcDbLine
 62
4
  6
CONTINUOUS
 10
8.9345901169
 20
9.5495152137
 11
8.9345901169
 21
9.6074707654
  0
LINE
  5
2AD
100
AcDbEntity
  8
0
100
AcDbLine
 62
4
  6
CONTINUOUS
 10
8.9861061645
 20
7.1745945267
 11
8.9861061645
 21
7.2518685957
  0
LINE
  5
2AE
100
AcDbEntity
  8
0
100
AcDbLine
 62
4
  6
CONTINUOUS
 10
8.9861061645
 20
7.3291426646
 11
8.9861061645
 21
7.4064167336
  0
LINE
  5
2AF
100
AcDbEntity
  8
0
100
AcDbLine
 62
4
  6
CONTINUOUS
 10
8.9861061645
 20
9.2271870292
 11
8.9861061645
 21
9.3044610982
  0
LINE
  5
2B0
100
AcDbEntity
  8
0
100
AcDbLine
 62
4
  6
CONTINUOUS
 10
8.9861061645
 20
9.3817351671
 11
8.9861061645
 21
9.4590092361
  0
LINE
  5
2B1
100
AcDbEntity
  8
0
100
AcDbLine
 62
4
  6
CONTINUOUS
 10
8.9861061645
 20
9.8453795809
 11
8.9861061645
 21
9.9226536498
  0
LINE
  5
2B2
100
AcDbEntity
  8
0
100
AcDbLine
 62
4
  6
CONTINUOUS
 10
8.8315580265
 20
9.2862012721
 11
8.844437035
 21
9.3046266271
  0
LINE
  5
2B3
100
AcDbEntity
  8
0
100
AcDbLine
 62
4
  6
CONTINUOUS
 10
10.6256043467
 20
10.76811868
 11
10.6127253383
 21
10.7593525837
  0
LINE
  5
2B4
100
AcDbEntity
  8
0
100
AcDbLine
 62
4
  6
CONTINUOUS
 10
10.7028784202
 20
10.7724189634
 11
10.6771203988
 21
10.7548867711
  0
LINE
  5
2B5
100
AcDbEntity
  8
0
100
AcDbLine
 62
4
  6
CONTINUOUS
 10
8.8573160526
 20
7.3380742892
 11
8.844437035
 21
7.3486267108
  0
LINE
  5
2B6
100
AcDbEntity
  8
0
100
AcDbLine
 62
4
  6
CONTINUOUS
 10
8.9217111085
 20
7.3625862528
 11
8.94746913
 21
7.3414814107
  0
LINE
  5
2B7
100
AcDbEntity
  8
0
100
AcDbLine
 62
4
  6
CONTINUOUS
 10
8.8830740694
 20
7.4135620337
 11
8.8959530871
 21
7.4030096121
  0
LINE
  5
2B8
100
AcDbEntity
  8
0
100
AcDbLine
 62
4
  6
CONTINUOUS
 10
9.1889506009
 20
5.7551050639
 11
9.1889506009
 21
5.8420383915
  0
LINE
  5
2B9
100
AcDbEntity
  8
0
100
AcDbLine
 62
4
  6
CONTINUOUS
 10
8.844437035
 20
9.459174765
 11
8.8573160526
 21
9.4679408607
  0
LINE
  5
2BA
100
AcDbEntity
  8
0
100
AcDbLine
 62
4
  6
CONTINUOUS
 10
10.6256043467
 20
10.6135705421
 11
10.6384833643
 21
10.6223366378
  0
LINE
  5
2BB
100
AcDbEntity
  8
0
100
AcDbLine
 62
4
  6
CONTINUOUS
 10
8.844437035
 20
9.3046266271
 11
8.8573160526
 21
9.3133927228
  0
LINE
  5
2BC
100
AcDbEntity
  8
0
100
AcDbLine
 62
4
  6
CONTINUOUS
 10
8.94746913
 20
7.1869332728
 11
8.9861061645
 21
7.1745945267
  0
LINE
  5
2BD
100
AcDbEntity
  8
0
100
AcDbLine
 62
4
  6
CONTINUOUS
 10
9.2931326059
 20
7.5603709746
 11
9.2710543018
 21
7.5839804166
  0
LINE
  5
2BE
100
AcDbEntity
  8
0
100
AcDbLine
 62
4
  6
CONTINUOUS
 10
9.4256024397
 20
7.6063799253
 11
9.4035241333
 21
7.6299893651
  0
LINE
  5
2BF
100
AcDbEntity
  8
0
100
AcDbLine
 62
4
  6
CONTINUOUS
 10
10.6256043467
 20
5.6651320468
 11
10.6127253383
 21
5.6853437263
  0
LINE
  5
2C0
100
AcDbEntity
  8
0
100
AcDbLine
 62
4
  6
CONTINUOUS
 10
10.6771203988
 20
5.7195149482
 11
10.7028784202
 21
5.6790915889
  0
LINE
  5
2C1
100
AcDbEntity
  8
0
100
AcDbLine
 62
4
  6
CONTINUOUS
 10
9.2710543018
 20
7.5839804166
 11
9.2710543018
 21
7.6281370271
  0
LINE
  5
2C2
100
AcDbEntity
  8
0
100
AcDbLine
 62
4
  6
CONTINUOUS
 10
9.2710543018
 20
8.7835683256
 11
9.2710543018
 21
8.7872480292
  0
LINE
  5
2C3
100
AcDbEntity
  8
0
100
AcDbLine
 62
4
  6
CONTINUOUS
 10
9.31521091
 20
8.5155664421
 11
9.31521091
 21
8.4603706681
  0
LINE
  5
2C4
100
AcDbEntity
  8
0
100
AcDbLine
 62
4
  6
CONTINUOUS
 10
9.31521091
 20
8.0445625476
 11
9.31521091
 21
8.0997583217
  0
LINE
  5
2C5
100
AcDbEntity
  8
0
100
AcDbLine
 62
4
  6
CONTINUOUS
 10
9.31521091
 20
8.272705051
 11
9.31521091
 21
8.3168616407
  0
LINE
  5
2C6
100
AcDbEntity
  8
0
100
AcDbLine
 62
4
  6
CONTINUOUS
 10
9.31521091
 20
8.3610183042
 11
9.31521091
 21
8.405174894
  0
LINE
  5
2C7
100
AcDbEntity
  8
0
100
AcDbLine
 62
4
  6
CONTINUOUS
 10
9.31521091
 20
8.8504206427
 11
9.31521091
 21
8.8945773798
  0
LINE
  5
2C8
100
AcDbEntity
  8
0
100
AcDbLine
 62
4
  6
CONTINUOUS
 10
9.31521091
 20
8.9497730802
 11
9.31521091
 21
8.99392967
  0
LINE
  5
2C9
100
AcDbEntity
  8
0
100
AcDbLine
 62
4
  6
CONTINUOUS
 10
9.3704066749
 20
8.4786211236
 11
9.3704066749
 21
8.5227777134
  0
LINE
  5
2CA
100
AcDbEntity
  8
0
100
AcDbLine
 62
4
  6
CONTINUOUS
 10
9.4256024397
 20
8.8869217012
 11
9.4256024397
 21
8.8427649641
  0
LINE
  5
2CB
100
AcDbEntity
  8
0
100
AcDbLine
 62
4
  6
CONTINUOUS
 10
9.4256024397
 20
8.7066154912
 11
9.4256024397
 21
8.6845371963
  0
LINE
  5
2CC
100
AcDbEntity
  8
0
100
AcDbLine
 62
4
  6
CONTINUOUS
 10
9.4256024397
 20
8.5189498741
 11
9.4256024397
 21
8.4747932844
  0
LINE
  5
2CD
100
AcDbEntity
  8
0
100
AcDbLine
 62
4
  6
CONTINUOUS
 10
9.4256024397
 20
8.3092059622
 11
9.4256024397
 21
8.2650493724
  0
LINE
  5
2CE
100
AcDbEntity
  8
0
100
AcDbLine
 62
4
  6
CONTINUOUS
 10
9.4256024397
 20
7.5622233136
 11
9.4256024397
 21
7.6063799253
  0
LINE
  5
2CF
100
AcDbEntity
  8
0
100
AcDbLine
 62
4
  6
CONTINUOUS
 10
9.4256024397
 20
7.6946931417
 11
9.4256024397
 21
7.7278106117
  0
LINE
  5
2D0
100
AcDbEntity
  8
0
100
AcDbLine
 62
4
  6
CONTINUOUS
 10
9.4256024397
 20
8.5741456482
 11
9.4256024397
 21
8.6293414223
  0
LINE
  5
2D1
100
AcDbEntity
  8
0
100
AcDbLine
 62
4
  6
CONTINUOUS
 10
9.4256024397
 20
8.9421174016
 11
9.4256024397
 21
8.9862739914
  0
LINE
  5
2D2
100
AcDbEntity
  8
0
100
AcDbLine
 62
4
  6
CONTINUOUS
 10
9.4623996155
 20
8.1447465244
 11
9.4623996155
 21
8.1668248193
  0
LINE
  5
2D3
100
AcDbEntity
  8
0
100
AcDbLine
 62
4
  6
CONTINUOUS
 10
9.3740863922
 20
8.9898466414
 11
9.3667269575
 21
8.9462004302
  0
LINE
  5
2D4
100
AcDbEntity
  8
0
100
AcDbLine
 62
4
  6
CONTINUOUS
 10
9.3814458269
 20
9.0003753735
 11
9.3740863922
 21
8.9898466414
  0
LINE
  5
2D5
100
AcDbEntity
  8
0
100
AcDbLine
 62
4
  6
CONTINUOUS
 10
9.3667269575
 20
8.9462004302
 11
9.3593675228
 21
8.9356716981
  0
LINE
  5
2D6
100
AcDbEntity
  8
0
100
AcDbLine
 62
4
  6
CONTINUOUS
 10
10.6127253383
 20
10.5951451871
 11
10.6256043467
 21
10.6135705421
  0
LINE
  5
2D7
100
AcDbEntity
  8
0
100
AcDbLine
 62
4
  6
CONTINUOUS
 10
9.31521091
 20
8.99392967
 11
9.3262500667
 21
9.0042032125
  0
LINE
  5
2D8
100
AcDbEntity
  8
0
100
AcDbLine
 62
4
  6
CONTINUOUS
 10
12.3330393543
 20
7.2612394669
 11
12.4875874922
 21
7.2988178102
  0
LINE
  5
2D9
100
AcDbEntity
  8
0
100
AcDbLine
 62
4
  6
CONTINUOUS
 10
8.8315580265
 20
6.9148532352
 11
8.9861061645
 21
6.9041352854
  0
LINE
  5
2DA
100
AcDbEntity
  8
0
100
AcDbLine
 62
4
  6
CONTINUOUS
 10
8.94746913
 20
7.3414814107
 11
8.9861061645
 21
7.3291426646
  0
LINE
  5
2DB
100
AcDbEntity
  8
0
100
AcDbLine
 62
4
  6
CONTINUOUS
 10
8.9861061645
 20
7.4740315439
 11
8.8315580265
 21
7.5330457868
  0
LINE
  5
2DC
100
AcDbEntity
  8
0
100
AcDbLine
 62
4
  6
CONTINUOUS
 10
9.4256024397
 20
7.7278106117
 11
9.4035241333
 21
7.7514200423
  0
LINE
  5
2DD
100
AcDbEntity
  8
0
100
AcDbLine
 62
4
  6
CONTINUOUS
 10
9.3262500667
 20
8.249861188
 11
9.31521091
 21
8.272705051
  0
LINE
  5
2DE
100
AcDbEntity
  8
0
100
AcDbLine
 62
4
  6
CONTINUOUS
 10
9.4256024397
 20
8.4747932844
 11
9.4145632865
 21
8.4534805573
  0
LINE
  5
2DF
100
AcDbEntity
  8
0
100
AcDbLine
 62
4
  6
CONTINUOUS
 10
9.4256024397
 20
8.2650493724
 11
9.4145632865
 21
8.2437366454
  0
LINE
  5
2E0
100
AcDbEntity
  8
0
100
AcDbLine
 62
4
  6
CONTINUOUS
 10
9.4145632865
 20
8.9318438589
 11
9.4256024397
 21
8.9421174016
  0
LINE
  5
2E1
100
AcDbEntity
  8
0
100
AcDbLine
 62
4
  6
CONTINUOUS
 10
9.4256024397
 20
8.8427649641
 11
9.4145632865
 21
8.8324914214
  0
LINE
  5
2E2
100
AcDbEntity
  8
0
100
AcDbLine
 62
4
  6
CONTINUOUS
 10
8.8573160526
 20
7.2608002203
 11
8.8830740694
 21
7.2590138957
  0
LINE
  5
2E3
100
AcDbEntity
  8
0
100
AcDbLine
 62
4
  6
CONTINUOUS
 10
12.3330393543
 20
7.106691329
 11
12.4875874922
 21
7.0959733792
  0
LINE
  5
2E4
100
AcDbEntity
  8
0
100
AcDbLine
 62
4
  6
CONTINUOUS
 10
8.844437035
 20
9.2466710753
 11
8.8315580265
 21
9.2668827548
  0
LINE
  5
2E5
100
AcDbEntity
  8
0
100
AcDbLine
 62
4
  6
CONTINUOUS
 10
8.8959530871
 20
9.3010539767
 11
8.9217111085
 21
9.2606306174
  0
LINE
  5
2E6
100
AcDbEntity
  8
0
100
AcDbLine
 62
4
  6
CONTINUOUS
 10
8.844437035
 20
9.4012192132
 11
8.8315580265
 21
9.4214308928
  0
LINE
  5
2E7
100
AcDbEntity
  8
0
100
AcDbLine
 62
4
  6
CONTINUOUS
 10
8.8959530871
 20
9.4556021146
 11
8.9217111085
 21
9.4151787553
  0
LINE
  5
2E8
100
AcDbEntity
  8
0
100
AcDbLine
 62
4
  6
CONTINUOUS
 10
9.3814458269
 20
8.455777261
 11
9.3704066749
 21
8.4786211236
  0
LINE
  5
2E9
100
AcDbEntity
  8
0
100
AcDbLine
 62
4
  6
CONTINUOUS
 10
9.7854788141
 20
8.2713694503
 11
9.7854788141
 21
8.2235331201
  0
LINE
  5
2EA
100
AcDbEntity
  8
0
100
AcDbLine
 62
4
  6
CONTINUOUS
 10
9.8737920397
 20
8.2321274465
 11
9.8737920397
 21
8.2652449073
  0
LINE
  5
2EB
100
AcDbEntity
  8
0
100
AcDbLine
 62
4
  6
CONTINUOUS
 10
8.8315580265
 20
7.3881569075
 11
8.844437035
 21
7.4065822625
  0
LINE
  5
2EC
100
AcDbEntity
  8
0
100
AcDbLine
 62
4
  6
CONTINUOUS
 10
8.8315580265
 20
7.2336087696
 11
8.844437035
 21
7.2520341246
  0
LINE
  5
2ED
100
AcDbEntity
  8
0
100
AcDbLine
 62
4
  6
CONTINUOUS
 10
9.4256024397
 20
8.6845371963
 11
9.4145632865
 21
8.6742635799
  0
LINE
  5
2EE
100
AcDbEntity
  8
0
100
AcDbLine
 62
4
  6
CONTINUOUS
 10
9.4145632865
 20
8.5638720318
 11
9.4256024397
 21
8.5741456482
  0
LINE
  5
2EF
100
AcDbEntity
  8
0
100
AcDbLine
 62
4
  6
CONTINUOUS
 10
8.8573160526
 20
7.4153483582
 11
8.8830740694
 21
7.4135620337
  0
LINE
  5
2F0
100
AcDbEntity
  8
0
100
AcDbLine
 62
4
  6
CONTINUOUS
 10
9.31521091
 20
7.558839839
 11
9.2931326059
 21
7.5603709746
  0
LINE
  5
2F1
100
AcDbEntity
  8
0
100
AcDbLine
 62
4
  6
CONTINUOUS
 10
9.7854788141
 20
8.1278604644
 11
9.7192439018
 21
8.176610484
  0
LINE
  5
2F2
100
AcDbEntity
  8
0
100
AcDbLine
 62
4
  6
CONTINUOUS
 10
10.1917196367
 20
7.7445949133
 11
10.2137979431
 21
7.7209854735
  0
LINE
  5
2F3
100
AcDbEntity
  8
0
100
AcDbLine
 62
4
  6
CONTINUOUS
 10
9.7192439018
 20
8.275962857
 11
9.7523613625
 21
8.2405486926
  0
LINE
  5
2F4
100
AcDbEntity
  8
0
100
AcDbLine
 62
4
  6
CONTINUOUS
 10
9.3262500667
 20
8.838615964
 11
9.31521091
 21
8.8504206427
  0
LINE
  5
2F5
100
AcDbEntity
  8
0
100
AcDbLine
 62
4
  6
CONTINUOUS
 10
8.844437035
 20
9.864863627
 11
8.8315580265
 21
9.8850753065
  0
LINE
  5
2F6
100
AcDbEntity
  8
0
100
AcDbLine
 62
4
  6
CONTINUOUS
 10
8.8959530871
 20
9.9192465283
 11
8.9217111085
 21
9.878823169
  0
LINE
  5
2F7
100
AcDbEntity
  8
0
100
AcDbLine
 62
4
  6
CONTINUOUS
 10
10.1181252828
 20
7.642986896
 11
10.1475630262
 21
7.5820698993
  0
LINE
  5
2F8
100
AcDbEntity
  8
0
100
AcDbLine
 62
4
  6
CONTINUOUS
 10
10.0592498052
 20
7.6765076676
 11
10.0592498052
 21
7.7317034233
  0
LINE
  5
2F9
100
AcDbEntity
  8
0
100
AcDbLine
 62
4
  6
CONTINUOUS
 10
10.0592498052
 20
7.9488067515
 11
10.0592498052
 21
8.0371199679
  0
LINE
  5
2FA
100
AcDbEntity
  8
0
100
AcDbLine
 62
4
  6
CONTINUOUS
 10
10.0592498052
 20
8.0812765945
 11
10.0592498052
 21
8.147511516
  0
LINE
  5
2FB
100
AcDbEntity
  8
0
100
AcDbLine
 62
4
  6
CONTINUOUS
 10
10.0592498052
 20
8.3351771331
 11
10.0592498052
 21
8.3793337229
  0
LINE
  5
2FC
100
AcDbEntity
  8
0
100
AcDbLine
 62
4
  6
CONTINUOUS
 10
10.0592498052
 20
8.4639671989
 11
10.0592498052
 21
8.4970846781
  0
LINE
  5
2FD
100
AcDbEntity
  8
0
100
AcDbLine
 62
4
  6
CONTINUOUS
 10
10.0592498052
 20
8.5633195628
 11
10.0592498052
 21
8.6185153368
  0
LINE
  5
2FE
100
AcDbEntity
  8
0
100
AcDbLine
 62
4
  6
CONTINUOUS
 10
10.0592498052
 20
8.7031488866
 11
10.0592498052
 21
8.7693837712
  0
LINE
  5
2FF
100
AcDbEntity
  8
0
100
AcDbLine
 62
4
  6
CONTINUOUS
 10
10.1254847175
 20
8.7427120696
 11
10.1254847175
 21
8.6985554798
  0
LINE
  5
300
100
AcDbEntity
  8
0
100
AcDbLine
 62
4
  6
CONTINUOUS
 10
10.1254847175
 20
8.1208398144
 11
10.1254847175
 21
8.0766831878
  0
LINE
  5
301
100
AcDbEntity
  8
0
100
AcDbLine
 62
4
  6
CONTINUOUS
 10
10.1696413303
 20
7.8234001181
 11
10.1696413303
 21
7.8822755956
  0
LINE
  5
302
100
AcDbEntity
  8
0
100
AcDbLine
 62
4
  6
CONTINUOUS
 10
10.2137979431
 20
8.6077973871
 11
10.2137979431
 21
8.552601613
  0
LINE
  5
303
100
AcDbEntity
  8
0
100
AcDbLine
 62
4
  6
CONTINUOUS
 10
10.2137979431
 20
8.4863667283
 11
10.2137979431
 21
8.4532492492
  0
LINE
  5
304
100
AcDbEntity
  8
0
100
AcDbLine
 62
4
  6
CONTINUOUS
 10
10.2137979431
 20
8.3686157731
 11
10.2137979431
 21
8.3244591834
  0
LINE
  5
305
100
AcDbEntity
  8
0
100
AcDbLine
 62
4
  6
CONTINUOUS
 10
10.2137979431
 20
7.7209854735
 11
10.2137979431
 21
7.6657897179
  0
LINE
  5
306
100
AcDbEntity
  8
0
100
AcDbLine
 62
4
  6
CONTINUOUS
 10
10.2137979431
 20
8.0705586448
 11
10.2137979431
 21
8.1367935663
  0
LINE
  5
307
100
AcDbEntity
  8
0
100
AcDbLine
 62
4
  6
CONTINUOUS
 10
10.2137979431
 20
8.6924309368
 11
10.2137979431
 21
8.7586658215
  0
LINE
  5
308
100
AcDbEntity
  8
0
100
AcDbLine
 62
4
  6
CONTINUOUS
 10
10.1181252828
 20
8.8094573328
 11
10.1475630262
 21
8.8662912959
  0
LINE
  5
309
100
AcDbEntity
  8
0
100
AcDbLine
 62
4
  6
CONTINUOUS
 10
9.31521091
 20
8.0997583217
 11
9.3262500667
 21
8.110031901
  0
LINE
  5
30A
100
AcDbEntity
  8
0
100
AcDbLine
 62
4
  6
CONTINUOUS
 10
9.31521091
 20
8.405174894
 11
9.3262500667
 21
8.4117687329
  0
LINE
  5
30B
100
AcDbEntity
  8
0
100
AcDbLine
 62
4
  6
CONTINUOUS
 10
9.4035241333
 20
7.6299893651
 11
9.3814458269
 21
7.6315205009
  0
LINE
  5
30C
100
AcDbEntity
  8
0
100
AcDbLine
 62
4
  6
CONTINUOUS
 10
9.2710543018
 20
7.6833327874
 11
9.4035241333
 21
7.6741459733
  0
LINE
  5
30D
100
AcDbEntity
  8
0
100
AcDbLine
 62
4
  6
CONTINUOUS
 10
10.2137979431
 20
7.6657897179
 11
10.0592498052
 21
7.6765076676
  0
LINE
  5
30E
100
AcDbEntity
  8
0
100
AcDbLine
 62
4
  6
CONTINUOUS
 10
9.4035241333
 20
7.7514200423
 11
9.2710543018
 21
7.7606068563
  0
LINE
  5
30F
100
AcDbEntity
  8
0
100
AcDbLine
 62
4
  6
CONTINUOUS
 10
9.4256024397
 20
7.7940455147
 11
9.2710543018
 21
7.8047634645
  0
LINE
  5
310
100
AcDbEntity
  8
0
100
AcDbLine
 62
4
  6
CONTINUOUS
 10
10.0813281093
 20
7.7522505918
 11
10.1917196367
 21
7.7445949133
  0
LINE
  5
311
100
AcDbEntity
  8
0
100
AcDbLine
 62
4
  6
CONTINUOUS
 10
8.8315580265
 20
7.8421420626
 11
8.9861061645
 21
7.8314241128
  0
LINE
  5
312
100
AcDbEntity
  8
0
100
AcDbLine
 62
4
  6
CONTINUOUS
 10
9.4256024397
 20
7.8713195837
 11
9.2710543018
 21
7.8820375335
  0
LINE
  5
313
100
AcDbEntity
  8
0
100
AcDbLine
 62
4
  6
CONTINUOUS
 10
10.2137979431
 20
7.8056189772
 11
10.0592498052
 21
7.8604935351
  0
LINE
  5
314
100
AcDbEntity
  8
0
100
AcDbLine
 62
4
  6
CONTINUOUS
 10
9.4623996155
 20
8.1668248193
 11
9.31521091
 21
8.2211889804
  0
LINE
  5
315
100
AcDbEntity
  8
0
100
AcDbLine
 62
4
  6
CONTINUOUS
 10
9.7523613625
 20
8.2405486926
 11
9.7965179707
 21
8.2154081173
  0
LINE
  5
316
100
AcDbEntity
  8
0
100
AcDbLine
 62
4
  6
CONTINUOUS
 10
9.8222759922
 20
8.3350524788
 11
9.7192439018
 21
8.4194718291
  0
LINE
  5
317
100
AcDbEntity
  8
0
100
AcDbLine
 62
4
  6
CONTINUOUS
 10
8.8573160526
 20
9.2361186538
 11
8.844437035
 21
9.2466710753
  0
LINE
  5
318
100
AcDbEntity
  8
0
100
AcDbLine
 62
4
  6
CONTINUOUS
 10
9.8737920397
 20
8.2652449073
 11
9.8517137333
 21
8.2888543379
  0
LINE
  5
319
100
AcDbEntity
  8
0
100
AcDbLine
 62
4
  6
CONTINUOUS
 10
9.3262500667
 20
8.9379684015
 11
9.31521091
 21
8.9497730802
  0
LINE
  5
31A
100
AcDbEntity
  8
0
100
AcDbLine
 62
4
  6
CONTINUOUS
 10
9.4256024397
 20
8.9862739914
 11
9.4145632865
 21
8.9980786699
  0
LINE
  5
31B
100
AcDbEntity
  8
0
100
AcDbLine
 62
4
  6
CONTINUOUS
 10
10.0813281093
 20
8.3115677027
 11
10.0592498052
 21
8.3351771331
  0
LINE
  5
31C
100
AcDbEntity
  8
0
100
AcDbLine
 62
4
  6
CONTINUOUS
 10
10.6555480666
 20
8.8699293746
 11
10.6426690581
 21
8.8515040196
  0
LINE
  5
31D
100
AcDbEntity
  8
0
100
AcDbLine
 62
4
  6
CONTINUOUS
 10
9.3814458269
 20
7.6315205009
 11
9.31521091
 21
7.558839839
  0
LINE
  5
31E
100
AcDbEntity
  8
0
100
AcDbLine
 62
4
  6
CONTINUOUS
 10
10.0592498052
 20
8.6185153368
 11
10.0813281093
 21
8.6390624961
  0
LINE
  5
31F
100
AcDbEntity
  8
0
100
AcDbLine
 62
4
  6
CONTINUOUS
 10
9.8075571228
 20
8.2919166092
 11
9.7854788141
 21
8.2713694503
  0
LINE
  5
320
100
AcDbEntity
  8
0
100
AcDbLine
 62
4
  6
CONTINUOUS
 10
10.0592498052
 20
8.4970846781
 11
10.0813281093
 21
8.5176318374
  0
LINE
  5
321
100
AcDbEntity
  8
0
100
AcDbLine
 62
4
  6
CONTINUOUS
 10
9.8517137333
 20
8.2115802782
 11
9.8737920397
 21
8.2321274465
  0
LINE
  5
322
100
AcDbEntity
  8
0
100
AcDbLine
 62
4
  6
CONTINUOUS
 10
9.2710543018
 20
7.6281370271
 11
9.2820934585
 21
7.638410611
  0
LINE
  5
323
100
AcDbEntity
  8
0
100
AcDbLine
 62
4
  6
CONTINUOUS
 10
10.2137979431
 20
8.4532492492
 11
10.1917196367
 21
8.43270209
  0
LINE
  5
324
100
AcDbEntity
  8
0
100
AcDbLine
 62
4
  6
CONTINUOUS
 10
9.4035241333
 20
7.6741459733
 11
9.4256024397
 21
7.6946931417
  0
LINE
  5
325
100
AcDbEntity
  8
0
100
AcDbLine
 62
4
  6
CONTINUOUS
 10
10.6684270842
 20
8.8786954703
 11
10.6555480666
 21
8.8699293746
  0
LINE
  5
326
100
AcDbEntity
  8
0
100
AcDbLine
 62
4
  6
CONTINUOUS
 10
9.3372892141
 20
8.5250744171
 11
9.31521091
 21
8.5155664421
  0
LINE
  5
327
100
AcDbEntity
  8
0
100
AcDbLine
 62
4
  6
CONTINUOUS
 10
11.3622838388
 20
7.9081171239
 11
11.3236468043
 21
7.9011373527
  0
LINE
  5
328
100
AcDbEntity
  8
0
100
AcDbLine
 62
4
  6
CONTINUOUS
 10
9.4256024397
 20
8.036906869
 11
9.2710543018
 21
8.0476248188
  0
LINE
  5
329
100
AcDbEntity
  8
0
100
AcDbLine
 62
4
  6
CONTINUOUS
 10
10.2137979431
 20
7.9822454284
 11
10.0592498052
 21
7.9929633781
  0
LINE
  5
32A
100
AcDbEntity
  8
0
100
AcDbLine
 62
4
  6
CONTINUOUS
 10
9.3262500667
 20
8.110031901
 11
9.4256024397
 21
8.1031417906
  0
LINE
  5
32B
100
AcDbEntity
  8
0
100
AcDbLine
 62
4
  6
CONTINUOUS
 10
10.2137979431
 20
8.0705586448
 11
10.0592498052
 21
8.0812765945
  0
LINE
  5
32C
100
AcDbEntity
  8
0
100
AcDbLine
 62
4
  6
CONTINUOUS
 10
12.4875874922
 20
7.202225224
 11
12.3330393543
 21
7.2612394669
  0
LINE
  5
32D
100
AcDbEntity
  8
0
100
AcDbLine
 62
4
  6
CONTINUOUS
 10
8.9217111085
 20
9.2606306174
 11
8.94746913
 21
9.2395257753
  0
LINE
  5
32E
100
AcDbEntity
  8
0
100
AcDbLine
 62
4
  6
CONTINUOUS
 10
8.8830740694
 20
9.3116063982
 11
8.8959530871
 21
9.3010539767
  0
LINE
  5
32F
100
AcDbEntity
  8
0
100
AcDbLine
 62
4
  6
CONTINUOUS
 10
8.8573160526
 20
9.3906667917
 11
8.844437035
 21
9.4012192132
  0
LINE
  5
330
100
AcDbEntity
  8
0
100
AcDbLine
 62
4
  6
CONTINUOUS
 10
8.9217111085
 20
9.4151787553
 11
8.94746913
 21
9.3940739132
  0
LINE
  5
331
100
AcDbEntity
  8
0
100
AcDbLine
 62
4
  6
CONTINUOUS
 10
8.8830740694
 20
9.4661545361
 11
8.8959530871
 21
9.4556021146
  0
LINE
  5
332
100
AcDbEntity
  8
0
100
AcDbLine
 62
4
  6
CONTINUOUS
 10
10.0813281093
 20
8.4403577685
 11
10.0592498052
 21
8.4639671989
  0
LINE
  5
333
100
AcDbEntity
  8
0
100
AcDbLine
 62
4
  6
CONTINUOUS
 10
10.1917196367
 20
8.509976159
 11
10.2137979431
 21
8.4863667283
  0
LINE
  5
334
100
AcDbEntity
  8
0
100
AcDbLine
 62
4
  6
CONTINUOUS
 10
10.1917196367
 20
8.6314068177
 11
10.2137979431
 21
8.6077973871
  0
LINE
  5
335
100
AcDbEntity
  8
0
100
AcDbLine
 62
4
  6
CONTINUOUS
 10
10.1475630262
 20
8.8662912959
 11
10.1770007673
 21
8.805374304
  0
LINE
  5
336
100
AcDbEntity
  8
0
100
AcDbLine
 62
4
  6
CONTINUOUS
 10
10.6127253383
 20
10.7593525837
 11
10.6127253383
 21
10.6917377733
  0
LINE
  5
337
100
AcDbEntity
  8
0
100
AcDbLine
 62
4
  6
CONTINUOUS
 10
10.6127253383
 20
5.6853437263
 11
10.6127253383
 21
5.7046622436
  0
LINE
  5
338
100
AcDbEntity
  8
0
100
AcDbLine
 62
4
  6
CONTINUOUS
 10
10.6127253383
 20
10.5758266699
 11
10.6127253383
 21
10.5951451871
  0
LINE
  5
339
100
AcDbEntity
  8
0
100
AcDbLine
 62
4
  6
CONTINUOUS
 10
10.6426690581
 20
8.8515040196
 11
10.6426690581
 21
8.8321855024
  0
LINE
  5
33A
100
AcDbEntity
  8
0
100
AcDbLine
 62
4
  6
CONTINUOUS
 10
10.6771203988
 20
10.6872719607
 11
10.6771203988
 21
10.7548867711
  0
LINE
  5
33B
100
AcDbEntity
  8
0
100
AcDbLine
 62
4
  6
CONTINUOUS
 10
10.7157574287
 20
5.8134280473
 11
10.7157574287
 21
5.871383599
  0
LINE
  5
33C
100
AcDbEntity
  8
0
100
AcDbLine
 62
4
  6
CONTINUOUS
 10
10.7672734762
 20
5.6456480007
 11
10.7672734762
 21
5.7229220697
  0
LINE
  5
33D
100
AcDbEntity
  8
0
100
AcDbLine
 62
4
  6
CONTINUOUS
 10
10.7672734762
 20
10.5361309443
 11
10.7672734762
 21
10.6134050132
  0
LINE
  5
33E
100
AcDbEntity
  8
0
100
AcDbLine
 62
4
  6
CONTINUOUS
 10
10.7672734762
 20
10.6810198236
 11
10.7672734762
 21
10.7486346339
  0
LINE
  5
33F
100
AcDbEntity
  8
0
100
AcDbLine
 62
4
  6
CONTINUOUS
 10
10.1475630262
 20
7.5820698993
 11
10.1770007673
 21
7.6389038673
  0
LINE
  5
340
100
AcDbEntity
  8
0
100
AcDbLine
 62
4
  6
CONTINUOUS
 10
10.694185101
 20
8.8092943354
 11
10.7328221401
 21
8.8645703994
  0
LINE
  5
341
100
AcDbEntity
  8
0
100
AcDbLine
 62
4
  6
CONTINUOUS
 10
10.7972171961
 20
8.8214675526
 11
10.7843381842
 21
8.8030421979
  0
LINE
  5
342
100
AcDbEntity
  8
0
100
AcDbLine
 62
7
  6
CONTINUOUS
 10
12.6083282277
 20
10.709822044
 11
13.2553753064
 21
11.3348215652
  0
LINE
  5
343
100
AcDbEntity
  8
0
100
AcDbLine
 62
7
  6
CONTINUOUS
 10
10.3734143284
 20
8.3777466974
 11
10.249115584
 21
8.2576833229
  0
LINE
  5
344
100
AcDbEntity
  8
0
100
AcDbLine
 62
7
  6
CONTINUOUS
 10
10.7044856892
 20
8.5459309598
 11
10.5801869447
 21
8.4258675853
  0
LINE
  5
345
100
AcDbEntity
  8
0
100
AcDbLine
 62
4
  6
CONTINUOUS
 10
10.2137979431
 20
8.3244591834
 11
10.1917196367
 21
8.3039120242
  0
LINE
  5
346
100
AcDbEntity
  8
0
100
AcDbLine
 62
4
  6
CONTINUOUS
 10
9.4145632865
 20
7.5519497283
 11
9.4256024397
 21
7.5622233136
  0
LINE
  5
347
100
AcDbEntity
  8
0
100
AcDbLine
 62
4
  6
CONTINUOUS
 10
10.7328221401
 20
8.8645703994
 11
10.7457011486
 21
8.8733364957
  0
LINE
  5
348
100
AcDbEntity
  8
0
100
AcDbLine
 62
4
  6
CONTINUOUS
 10
10.6813060926
 20
8.8005282391
 11
10.694185101
 21
8.8092943354
  0
LINE
  5
349
100
AcDbEntity
  8
0
100
AcDbLine
 62
4
  6
CONTINUOUS
 10
10.7843381842
 20
8.8030421979
 11
10.7585801616
 21
8.7855100056
  0
LINE
  5
34A
100
AcDbEntity
  8
0
100
AcDbLine
 62
4
  6
CONTINUOUS
 10
8.844437035
 20
7.4065822625
 11
8.8573160526
 21
7.4153483582
  0
LINE
  5
34B
100
AcDbEntity
  8
0
100
AcDbLine
 62
4
  6
CONTINUOUS
 10
9.7192439018
 20
8.0882972584
 11
9.7854788141
 21
8.1278604644
  0
LINE
  5
34C
100
AcDbEntity
  8
0
100
AcDbLine
 62
4
  6
CONTINUOUS
 10
9.7854788141
 20
8.3707218141
 11
9.8737920397
 21
8.4087538793
  0
LINE
  5
34D
100
AcDbEntity
  8
0
100
AcDbLine
 62
4
  6
CONTINUOUS
 10
8.8315580265
 20
7.5330457868
 11
8.9861061645
 21
7.5706241301
  0
LINE
  5
34E
100
AcDbEntity
  8
0
100
AcDbLine
 62
4
  6
CONTINUOUS
 10
11.2463727354
 20
8.2735481551
 11
11.4009208733
 21
8.3111264985
  0
LINE
  5
34F
100
AcDbEntity
  8
0
100
AcDbLine
 62
4
  6
CONTINUOUS
 10
10.0592498052
 20
7.8604935351
 11
10.2137979431
 21
7.893932212
  0
LINE
  5
350
100
AcDbEntity
  8
0
100
AcDbLine
 62
4
  6
CONTINUOUS
 10
9.7854788141
 20
8.1278604644
 11
9.8737920397
 21
8.1217359214
  0
LINE
  5
351
100
AcDbEntity
  8
0
100
AcDbLine
 62
4
  6
CONTINUOUS
 10
11.2721307614
 20
8.0785766576
 11
11.2850097698
 21
8.0776834953
  0
LINE
  5
352
100
AcDbEntity
  8
0
100
AcDbLine
 62
4
  6
CONTINUOUS
 10
9.7965179707
 20
8.2154081173
 11
9.8517137333
 21
8.2115802782
  0
LINE
  5
353
100
AcDbEntity
  8
0
100
AcDbLine
 62
4
  6
CONTINUOUS
 10
9.4145632865
 20
8.2437366454
 11
9.3262500667
 21
8.249861188
  0
LINE
  5
354
100
AcDbEntity
  8
0
100
AcDbLine
 62
4
  6
CONTINUOUS
 10
11.3494048258
 20
8.150491752
 11
11.3751628495
 21
8.148705427
  0
LINE
  5
355
100
AcDbEntity
  8
0
100
AcDbLine
 62
4
  6
CONTINUOUS
 10
9.2710543018
 20
8.3199239119
 11
9.4256024397
 21
8.3092059622
  0
LINE
  5
356
100
AcDbEntity
  8
0
100
AcDbLine
 62
4
  6
CONTINUOUS
 10
9.8517137333
 20
8.2888543379
 11
9.8075571228
 21
8.2919166092
  0
LINE
  5
357
100
AcDbEntity
  8
0
100
AcDbLine
 62
4
  6
CONTINUOUS
 10
9.4256024397
 20
8.3533626256
 11
9.31521091
 21
8.3610183042
  0
LINE
  5
358
100
AcDbEntity
  8
0
100
AcDbLine
 62
4
  6
CONTINUOUS
 10
10.1917196367
 20
8.3039120242
 11
10.0813281093
 21
8.3115677027
  0
LINE
  5
359
100
AcDbEntity
  8
0
100
AcDbLine
 62
4
  6
CONTINUOUS
 10
9.8737920397
 20
8.3314798288
 11
9.7192439018
 21
8.3421977785
  0
LINE
  5
35A
100
AcDbEntity
  8
0
100
AcDbLine
 62
4
  6
CONTINUOUS
 10
11.3236468043
 20
7.9011373527
 11
11.2850097698
 21
7.9134760988
  0
LINE
  5
35B
100
AcDbEntity
  8
0
100
AcDbLine
 62
4
  6
CONTINUOUS
 10
9.2710543018
 20
8.7872480292
 11
9.2820934585
 21
8.7828027575
  0
LINE
  5
35C
100
AcDbEntity
  8
0
100
AcDbLine
 62
4
  6
CONTINUOUS
 10
8.8573160526
 20
9.8543112054
 11
8.844437035
 21
9.864863627
  0
LINE
  5
35D
100
AcDbEntity
  8
0
100
AcDbLine
 62
4
  6
CONTINUOUS
 10
11.2850097698
 20
7.9134760988
 11
11.2592517438
 21
7.9345809412
  0
LINE
  5
35E
100
AcDbEntity
  8
0
100
AcDbLine
 62
4
  6
CONTINUOUS
 10
8.9217111085
 20
9.878823169
 11
8.94746913
 21
9.8577183269
  0
LINE
  5
35F
100
AcDbEntity
  8
0
100
AcDbLine
 62
4
  6
CONTINUOUS
 10
8.8830740694
 20
9.9297989499
 11
8.8959530871
 21
9.9192465283
  0
LINE
  5
360
100
AcDbEntity
  8
0
100
AcDbLine
 62
4
  6
CONTINUOUS
 10
10.7972171961
 20
8.8407860699
 11
10.7972171961
 21
8.8214675526
  0
LINE
  5
361
100
AcDbEntity
  8
0
100
AcDbLine
 62
7
  6
CONTINUOUS
 10
10.7356259094
 20
8.5437713782
 11
10.6113271649
 21
8.4237080037
  0
LINE
  5
362
100
AcDbEntity
  8
0
100
AcDbLine
 62
4
  6
CONTINUOUS
 10
10.0592498052
 20
7.7317034233
 11
10.0813281093
 21
7.7522505918
  0
LINE
  5
363
100
AcDbEntity
  8
0
100
AcDbLine
 62
4
  6
CONTINUOUS
 10
8.844437035
 20
7.2520341246
 11
8.8573160526
 21
7.2608002203
  0
LINE
  5
364
100
AcDbEntity
  8
0
100
AcDbLine
 62
4
  6
CONTINUOUS
 10
9.2710543018
 20
7.8047634645
 11
9.4256024397
 21
7.8713195837
  0
LINE
  5
365
100
AcDbEntity
  8
0
100
AcDbLine
 62
4
  6
CONTINUOUS
 10
11.2463727354
 20
8.3701407413
 11
11.4009208733
 21
8.3884005674
  0
LINE
  5
366
100
AcDbEntity
  8
0
100
AcDbLine
 62
4
  6
CONTINUOUS
 10
11.2463727354
 20
8.4280962931
 11
11.4009208733
 21
8.4463561191
  0
LINE
  5
367
100
AcDbEntity
  8
0
100
AcDbLine
 62
4
  6
CONTINUOUS
 10
9.3262500667
 20
8.4117687329
 11
9.3483283708
 21
8.4102375973
  0
LINE
  5
368
100
AcDbEntity
  8
0
100
AcDbLine
 62
4
  6
CONTINUOUS
 10
9.4145632865
 20
8.4534805573
 11
9.3814458269
 21
8.455777261
  0
LINE
  5
369
100
AcDbEntity
  8
0
100
AcDbLine
 62
4
  6
CONTINUOUS
 10
10.1917196367
 20
8.43270209
 11
10.0813281093
 21
8.4403577685
  0
LINE
  5
36A
100
AcDbEntity
  8
0
100
AcDbLine
 62
4
  6
CONTINUOUS
 10
9.4256024397
 20
8.5189498741
 11
9.3372892141
 21
8.5250744171
  0
LINE
  5
36B
100
AcDbEntity
  8
0
100
AcDbLine
 62
4
  6
CONTINUOUS
 10
9.31521091
 20
8.5707621425
 11
9.4145632865
 21
8.5638720318
  0
LINE
  5
36C
100
AcDbEntity
  8
0
100
AcDbLine
 62
4
  6
CONTINUOUS
 10
10.0813281093
 20
8.5176318374
 11
10.1917196367
 21
8.509976159
  0
LINE
  5
36D
100
AcDbEntity
  8
0
100
AcDbLine
 62
4
  6
CONTINUOUS
 10
10.2137979431
 20
8.552601613
 11
10.0592498052
 21
8.5633195628
  0
LINE
  5
36E
100
AcDbEntity
  8
0
100
AcDbLine
 62
4
  6
CONTINUOUS
 10
9.4256024397
 20
8.6293414223
 11
9.31521091
 21
8.6369971008
  0
LINE
  5
36F
100
AcDbEntity
  8
0
100
AcDbLine
 62
4
  6
CONTINUOUS
 10
11.4009208733
 20
8.3884005674
 11
11.2463727354
 21
8.4280962931
  0
LINE
  5
370
100
AcDbEntity
  8
0
100
AcDbLine
 62
4
  6
CONTINUOUS
 10
11.4009208733
 20
8.2145339123
 11
11.2463727354
 21
8.2735481551
  0
LINE
  5
371
100
AcDbEntity
  8
0
100
AcDbLine
 62
4
  6
CONTINUOUS
 10
11.2592517438
 20
8.0891290791
 11
11.2721307614
 21
8.0785766576
  0
LINE
  5
372
100
AcDbEntity
  8
0
100
AcDbLine
 62
4
  6
CONTINUOUS
 10
11.3751628495
 20
7.9941572891
 11
11.3880418614
 21
7.9836048679
  0
LINE
  5
373
100
AcDbEntity
  8
0
100
AcDbLine
 62
4
  6
CONTINUOUS
 10
11.3751628495
 20
8.148705427
 11
11.3880418614
 21
8.1381530058
  0
LINE
  5
374
100
AcDbEntity
  8
0
100
AcDbLine
 62
4
  6
CONTINUOUS
 10
10.6555480666
 20
8.8119738229
 11
10.6684270842
 21
8.8014214014
  0
LINE
  5
375
100
AcDbEntity
  8
0
100
AcDbLine
 62
4
  6
CONTINUOUS
 10
10.6426690581
 20
8.8321855024
 11
10.6555480666
 21
8.8119738229
  0
LINE
  5
376
100
AcDbEntity
  8
0
100
AcDbLine
 62
4
  6
CONTINUOUS
 10
11.2592517438
 20
7.9345809412
 11
11.2463727354
 21
7.9547926207
  0
LINE
  5
377
100
AcDbEntity
  8
0
100
AcDbLine
 62
4
  6
CONTINUOUS
 10
11.2463727354
 20
8.1093407586
 11
11.2592517438
 21
8.0891290791
  0
LINE
  5
378
100
AcDbEntity
  8
0
100
AcDbLine
 62
4
  6
CONTINUOUS
 10
10.7843381842
 20
8.8609977496
 11
10.7972171961
 21
8.8407860699
  0
LINE
  5
379
100
AcDbEntity
  8
0
100
AcDbLine
 62
4
  6
CONTINUOUS
 10
11.2463727354
 20
8.1286592759
 11
11.2463727354
 21
8.1093407586
  0
LINE
  5
37A
100
AcDbEntity
  8
0
100
AcDbLine
 62
4
  6
CONTINUOUS
 10
11.2463727354
 20
7.9547926207
 11
11.2463727354
 21
7.9741111379
  0
LINE
  5
37B
100
AcDbEntity
  8
0
100
AcDbLine
 62
7
  6
CONTINUOUS
 10
11.0666972702
 20
8.3296673621
 11
10.9423985257
 21
8.2096039875
  0
LINE
  5
37C
100
AcDbEntity
  8
0
100
AcDbLine
 62
7
  6
CONTINUOUS
 10
11.0822673803
 20
8.3016193495
 11
10.9579686358
 21
8.181555975
  0
LINE
  5
37D
100
AcDbEntity
  8
0
100
AcDbLine
 62
4
  6
CONTINUOUS
 10
12.3459183627
 20
9.2211758475
 11
12.3330393543
 21
9.2124097512
  0
LINE
  5
37E
100
AcDbEntity
  8
0
100
AcDbLine
 62
4
  6
CONTINUOUS
 10
12.4231924363
 20
9.2254761309
 11
12.3974344148
 21
9.2079439386
  0
LINE
  5
37F
100
AcDbEntity
  8
0
100
AcDbLine
 62
4
  6
CONTINUOUS
 10
9.31521091
 20
8.1549540958
 11
9.4256024397
 21
8.1804158964
  0
LINE
  5
380
100
AcDbEntity
  8
0
100
AcDbLine
 62
4
  6
CONTINUOUS
 10
9.4145632865
 20
8.6742635799
 11
9.2710543018
 21
8.6842159618
  0
LINE
  5
381
100
AcDbEntity
  8
0
100
AcDbLine
 62
4
  6
CONTINUOUS
 10
10.0813281093
 20
8.6390624961
 11
10.1917196367
 21
8.6314068177
  0
LINE
  5
382
100
AcDbEntity
  8
0
100
AcDbLine
 62
4
  6
CONTINUOUS
 10
10.2137979431
 20
8.6924309368
 11
10.0592498052
 21
8.7031488866
  0
LINE
  5
383
100
AcDbEntity
  8
0
100
AcDbLine
 62
4
  6
CONTINUOUS
 10
9.4256024397
 20
8.7728503759
 11
9.31521091
 21
8.7805060545
  0
LINE
  5
384
100
AcDbEntity
  8
0
100
AcDbLine
 62
4
  6
CONTINUOUS
 10
9.2820934585
 20
8.7828027575
 11
9.2710543018
 21
8.7835683256
  0
LINE
  5
385
100
AcDbEntity
  8
0
100
AcDbLine
 62
4
  6
CONTINUOUS
 10
9.4145632865
 20
8.8324914214
 11
9.3262500667
 21
8.838615964
  0
LINE
  5
386
100
AcDbEntity
  8
0
100
AcDbLine
 62
4
  6
CONTINUOUS
 10
10.6684270842
 20
8.8014214014
 11
10.6813060926
 21
8.8005282391
  0
LINE
  5
387
100
AcDbEntity
  8
0
100
AcDbLine
 62
4
  6
CONTINUOUS
 10
11.4009208733
 20
8.4463561191
 11
11.2463727354
 21
8.4860518448
  0
LINE
  5
388
100
AcDbEntity
  8
0
100
AcDbLine
 62
4
  6
CONTINUOUS
 10
8.94746913
 20
9.2395257753
 11
8.9861061645
 21
9.2271870292
  0
LINE
  5
389
100
AcDbEntity
  8
0
100
AcDbLine
 62
4
  6
CONTINUOUS
 10
8.94746913
 20
9.3940739132
 11
8.9861061645
 21
9.3817351671
  0
LINE
  5
38A
100
AcDbEntity
  8
0
100
AcDbLine
 62
4
  6
CONTINUOUS
 10
8.9861061645
 20
9.5266240464
 11
8.8315580265
 21
9.5856382893
  0
LINE
  5
38B
100
AcDbEntity
  8
0
100
AcDbLine
 62
4
  6
CONTINUOUS
 10
10.7714591723
 20
8.8715501707
 11
10.7843381842
 21
8.8609977496
  0
LINE
  5
38C
100
AcDbEntity
  8
0
100
AcDbLine
 62
4
  6
CONTINUOUS
 10
11.3880418614
 20
7.9836048679
 11
11.4009208733
 21
7.9633931882
  0
LINE
  5
38D
100
AcDbEntity
  8
0
100
AcDbLine
 62
4
  6
CONTINUOUS
 10
11.3880418614
 20
8.1381530058
 11
11.4009208733
 21
8.1179413261
  0
LINE
  5
38E
100
AcDbEntity
  8
0
100
AcDbLine
 62
4
  6
CONTINUOUS
 10
11.3494048258
 20
8.2374250796
 11
11.3494048258
 21
8.2953806313
  0
LINE
  5
38F
100
AcDbEntity
  8
0
100
AcDbLine
 62
4
  6
CONTINUOUS
 10
11.4009208733
 20
8.1179413261
 11
11.4009208733
 21
8.0986228089
  0
LINE
  5
390
100
AcDbEntity
  8
0
100
AcDbLine
 62
4
  6
CONTINUOUS
 10
11.4009208733
 20
7.9633931882
 11
11.4009208733
 21
7.9440746709
  0
LINE
  5
391
100
AcDbEntity
  8
0
100
AcDbLine
 62
4
  6
CONTINUOUS
 10
11.2592517438
 20
8.1470846308
 11
11.2463727354
 21
8.1286592759
  0
LINE
  5
392
100
AcDbEntity
  8
0
100
AcDbLine
 62
4
  6
CONTINUOUS
 10
11.2978887783
 20
8.0864495917
 11
11.3365258173
 21
8.1417256556
  0
LINE
  5
393
100
AcDbEntity
  8
0
100
AcDbLine
 62
4
  6
CONTINUOUS
 10
11.2463727354
 20
7.9741111379
 11
11.2592517438
 21
7.9925364929
  0
LINE
  5
394
100
AcDbEntity
  8
0
100
AcDbLine
 62
7
  6
CONTINUOUS
 10
11.0822673803
 20
7.919331071
 11
10.9579686358
 21
7.7992676964
  0
LINE
  5
395
100
AcDbEntity
  8
0
100
AcDbLine
 62
7
  6
CONTINUOUS
 10
11.0666972702
 20
7.89344264
 11
10.9423985257
 21
7.7733792655
  0
LINE
  5
396
100
AcDbEntity
  8
0
100
AcDbLine
 62
4
  6
CONTINUOUS
 10
11.2721307614
 20
8.1558507265
 11
11.2592517438
 21
8.1470846308
  0
LINE
  5
397
100
AcDbEntity
  8
0
100
AcDbLine
 62
4
  6
CONTINUOUS
 10
11.3365258173
 20
8.1417256556
 11
11.3494048258
 21
8.150491752
  0
LINE
  5
398
100
AcDbEntity
  8
0
100
AcDbLine
 62
4
  6
CONTINUOUS
 10
11.2850097698
 20
8.0776834953
 11
11.2978887783
 21
8.0864495917
  0
LINE
  5
399
100
AcDbEntity
  8
0
100
AcDbLine
 62
4
  6
CONTINUOUS
 10
8.8315580265
 20
8.9674457376
 11
8.9861061645
 21
8.9567277879
  0
LINE
  5
39A
100
AcDbEntity
  8
0
100
AcDbLine
 62
4
  6
CONTINUOUS
 10
9.3593675228
 20
8.9356716981
 11
9.3262500667
 21
8.9379684015
  0
LINE
  5
39B
100
AcDbEntity
  8
0
100
AcDbLine
 62
4
  6
CONTINUOUS
 10
10.7457011486
 20
8.8733364957
 11
10.7714591723
 21
8.8715501707
  0
LINE
  5
39C
100
AcDbEntity
  8
0
100
AcDbLine
 62
4
  6
CONTINUOUS
 10
9.4145632865
 20
8.9980786699
 11
9.3814458269
 21
9.0003753735
  0
LINE
  5
39D
100
AcDbEntity
  8
0
100
AcDbLine
 62
4
  6
CONTINUOUS
 10
11.4009208733
 20
8.0986228089
 11
11.3880418614
 21
8.0801974541
  0
LINE
  5
39E
100
AcDbEntity
  8
0
100
AcDbLine
 62
4
  6
CONTINUOUS
 10
11.4009208733
 20
7.9440746709
 11
11.3880418614
 21
7.9256493162
  0
LINE
  5
39F
100
AcDbEntity
  8
0
100
AcDbLine
 62
4
  6
CONTINUOUS
 10
11.3880418614
 20
8.0801974541
 11
11.3622838388
 21
8.0626652618
  0
LINE
  5
3A0
100
AcDbEntity
  8
0
100
AcDbLine
 62
4
  6
CONTINUOUS
 10
11.2592517438
 20
7.9925364929
 11
11.2721307614
 21
8.0013025886
  0
LINE
  5
3A1
100
AcDbEntity
  8
0
100
AcDbLine
 62
4
  6
CONTINUOUS
 10
11.3880418614
 20
7.9256493162
 11
11.3622838388
 21
7.9081171239
  0
LINE
  5
3A2
100
AcDbEntity
  8
0
100
AcDbLine
 62
4
  6
CONTINUOUS
 10
12.3330393543
 20
9.038543096
 11
12.4875874922
 21
9.0278251463
  0
LINE
  5
3A3
100
AcDbEntity
  8
0
100
AcDbLine
 62
4
  6
CONTINUOUS
 10
8.8573160526
 20
9.3133927228
 11
8.8830740694
 21
9.3116063982
  0
LINE
  5
3A4
100
AcDbEntity
  8
0
100
AcDbLine
 62
4
  6
CONTINUOUS
 10
12.3330393543
 20
9.1447949408
 11
12.4875874922
 21
9.1340769911
  0
LINE
  5
3A5
100
AcDbEntity
  8
0
100
AcDbLine
 62
4
  6
CONTINUOUS
 10
8.94746913
 20
9.8577183269
 11
8.9861061645
 21
9.8453795809
  0
LINE
  5
3A6
100
AcDbEntity
  8
0
100
AcDbLine
 62
4
  6
CONTINUOUS
 10
10.6256043467
 20
10.5556149904
 11
10.6127253383
 21
10.5758266699
  0
LINE
  5
3A7
100
AcDbEntity
  8
0
100
AcDbLine
 62
4
  6
CONTINUOUS
 10
12.3845553972
 20
9.2184963601
 11
12.3459183627
 21
9.2211758475
  0
LINE
  5
3A8
100
AcDbEntity
  8
0
100
AcDbLine
 62
4
  6
CONTINUOUS
 10
8.8573160526
 20
9.4679408607
 11
8.8830740694
 21
9.4661545361
  0
LINE
  5
3A9
100
AcDbEntity
  8
0
100
AcDbLine
 62
4
  6
CONTINUOUS
 10
12.4618294685
 20
9.2227966437
 11
12.4231924363
 21
9.2254761309
  0
LINE
  5
3AA
100
AcDbEntity
  8
0
100
AcDbLine
 62
4
  6
CONTINUOUS
 10
10.6771203988
 20
10.6099978918
 11
10.7028784202
 21
10.5695745324
  0
LINE
  5
3AB
100
AcDbEntity
  8
0
100
AcDbLine
 62
4
  6
CONTINUOUS
 10
10.6127253383
 20
5.7046622436
 11
10.6256043467
 21
5.7230875986
  0
LINE
  5
3AC
100
AcDbEntity
  8
0
100
AcDbLine
 62
4
  6
CONTINUOUS
 10
8.8573160526
 20
9.9315852744
 11
8.8830740694
 21
9.9297989499
  0
LINE
  5
3AD
100
AcDbEntity
  8
0
100
AcDbLine
 62
4
  6
CONTINUOUS
 10
12.3330393543
 20
9.2124097512
 11
12.3330393543
 21
9.1447949408
  0
LINE
  5
3AE
100
AcDbEntity
  8
0
100
AcDbLine
 62
4
  6
CONTINUOUS
 10
12.3974344148
 20
9.1403291282
 11
12.3974344148
 21
9.2079439386
  0
LINE
  5
3AF
100
AcDbEntity
  8
0
100
AcDbLine
 62
4
  6
CONTINUOUS
 10
12.4360714447
 20
7.2251163913
 11
12.4360714447
 21
7.283071943
  0
LINE
  5
3B0
100
AcDbEntity
  8
0
100
AcDbLine
 62
4
  6
CONTINUOUS
 10
12.4875874922
 20
9.1340769911
 11
12.4875874922
 21
9.2016918014
  0
LINE
  5
3B1
100
AcDbEntity
  8
0
100
AcDbLine
 62
4
  6
CONTINUOUS
 10
8.8315580265
 20
9.5856382893
 11
8.9861061645
 21
9.6232166326
  0
LINE
  5
3B2
100
AcDbEntity
  8
0
100
AcDbLine
 62
4
  6
CONTINUOUS
 10
10.6384833643
 20
10.5450625689
 11
10.6256043467
 21
10.5556149904
  0
LINE
  5
3B3
100
AcDbEntity
  8
0
100
AcDbLine
 62
4
  6
CONTINUOUS
 10
10.7028784202
 20
10.5695745324
 11
10.7286364417
 21
10.5484696903
  0
LINE
  5
3B4
100
AcDbEntity
  8
0
100
AcDbLine
 62
4
  6
CONTINUOUS
 10
10.6642413812
 20
10.6205503133
 11
10.6771203988
 21
10.6099978918
  0
LINE
  5
3B5
100
AcDbEntity
  8
0
100
AcDbLine
 62
4
  6
CONTINUOUS
 10
12.3974344148
 20
9.2079439386
 11
12.3845553972
 21
9.2184963601
  0
LINE
  5
3B6
100
AcDbEntity
  8
0
100
AcDbLine
 62
4
  6
CONTINUOUS
 10
12.4875874922
 20
9.2016918014
 11
12.4618294685
 21
9.2227966437
  0
LINE
  5
3B7
100
AcDbEntity
  8
0
100
AcDbLine
 62
4
  6
CONTINUOUS
 10
10.6771203988
 20
10.7548867711
 11
10.6642413812
 21
10.7654391926
  0
LINE
  5
3B8
100
AcDbEntity
  8
0
100
AcDbLine
 62
7
  6
CONTINUOUS
 10
12.6083282277
 20
5.3972296846
 11
12.6083282277
 21
10.709822044
  0
LINE
  5
3B9
100
AcDbEntity
  8
0
100
AcDbLine
 62
4
  6
CONTINUOUS
 10
10.7672734762
 20
10.7486346339
 11
10.7415154524
 21
10.7697394762
  0
LINE
  5
3BA
100
AcDbEntity
  8
0
100
AcDbLine
 62
4
  6
CONTINUOUS
 10
10.7286364417
 20
10.5484696903
 11
10.7672734762
 21
10.5361309443
  0
LINE
  5
3BB
100
AcDbEntity
  8
0
100
AcDbLine
 62
7
  6
CONTINUOUS
 10
13.2553753064
 20
6.0222292058
 11
13.2553753064
 21
11.3348215652
  0
LINE
  5
3BC
100
AcDbEntity
  8
0
100
AcDbLine
 62
4
  6
CONTINUOUS
 10
10.6256043467
 20
5.7230875986
 11
10.6384833643
 21
5.7318536943
  0
LINE
  5
3BD
100
AcDbEntity
  8
0
100
AcDbLine
 62
4
  6
CONTINUOUS
 10
10.6384833643
 20
10.6223366378
 11
10.6642413812
 21
10.6205503133
  0
LINE
  5
3BE
100
AcDbEntity
  8
0
100
AcDbLine
 62
4
  6
CONTINUOUS
 10
10.6127253383
 20
10.6917377733
 11
10.7672734762
 21
10.6810198236
  0
LINE
  5
3BF
100
AcDbEntity
  8
0
100
AcDbLine
 62
4
  6
CONTINUOUS
 10
10.6642413812
 20
10.7654391926
 11
10.6256043467
 21
10.76811868
  0
LINE
  5
3C0
100
AcDbEntity
  8
0
100
AcDbLine
 62
4
  6
CONTINUOUS
 10
10.7415154524
 20
10.7697394762
 11
10.7028784202
 21
10.7724189634
  0
LINE
  5
3C1
100
AcDbEntity
  8
0
100
AcDbLine
 62
7
  6
CONTINUOUS
 10
8.7446246936
 20
10.9777707942
 11
12.6083282277
 21
10.709822044
  0
LINE
  5
3C2
100
AcDbEntity
  8
0
100
AcDbLine
 62
7
  6
CONTINUOUS
 10
13.2553753064
 20
11.3348215652
 11
9.3916717723
 21
11.6027703154
  0
LINE
  5
3C3
100
AcDbEntity
  8
0
100
AcDbLine
 62
7
  6
CONTINUOUS
 10
12.6083282277
 20
5.3972296846
 11
13.2553753064
 21
6.0222292058
  0
ARC
  5
3C4
100
AcDbEntity
  8
0
100
AcDbCircle
 62
7
  6
CONTINUOUS
 10
10.68352728
 20
8.098615034
 40
0.4474420853
100
AcDbArc
 50
26.981298304
 51
31.0900673765
  0
ARC
  5
3C5
100
AcDbEntity
  8
0
100
AcDbCircle
 62
7
  6
CONTINUOUS
 10
10.6322855741
 20
8.0525109288
 40
0.4474420853
100
AcDbArc
 50
206.981298304
 51
211.0900673765
  0
ARC
  5
3C6
100
AcDbEntity
  8
0
100
AcDbCircle
 62
7
  6
CONTINUOUS
 10
10.5592285355
 20
7.9785516595
 40
0.4474420853
100
AcDbArc
 50
26.981298304
 51
31.0900673765
  0
ARC
  5
3C7
100
AcDbEntity
  8
0
100
AcDbCircle
 62
7
  6
CONTINUOUS
 10
10.6913703198
 20
8.1317369917
 40
0.4144042626
100
AcDbArc
 50
83.8695051667
 51
86.0307544453
  0
ARC
  5
3C8
100
AcDbEntity
  8
0
100
AcDbCircle
 62
7
  6
CONTINUOUS
 10
10.6244425343
 20
8.0193889711
 40
0.4144042626
100
AcDbArc
 50
263.8695051668
 51
266.0307544453
  0
ARC
  5
3C9
100
AcDbEntity
  8
0
100
AcDbCircle
 62
7
  6
CONTINUOUS
 10
10.5670715753
 20
8.0116736172
 40
0.4144042626
100
AcDbArc
 50
83.8695051667
 51
86.0307544453
  0
ARC
  5
3CA
100
AcDbEntity
  8
0
100
AcDbCircle
 62
7
  6
CONTINUOUS
 10
10.6242077139
 20
8.0161507963
 40
0.4111576007
100
AcDbArc
 50
266.0321629527
 51
268.2047714632
  0
ARC
  5
3CB
100
AcDbEntity
  8
0
100
AcDbCircle
 62
7
  6
CONTINUOUS
 10
10.5673063958
 20
8.014911792
 40
0.4111576007
100
AcDbArc
 50
86.0321629527
 51
88.2047714632
  0
ARC
  5
3CC
100
AcDbEntity
  8
0
100
AcDbCircle
 62
7
  6
CONTINUOUS
 10
10.6916323332
 20
8.1355154081
 40
0.4106167725
100
AcDbArc
 50
86.0307319968
 51
88.2062024191
  0
ARC
  5
3CD
100
AcDbEntity
  8
0
100
AcDbCircle
 62
7
  6
CONTINUOUS
 10
10.7544930309
 20
8.0988384007
 40
0.373709654
100
AcDbArc
 50
326.6595187369
 51
331.2924535874
  0
ARC
  5
3CE
100
AcDbEntity
  8
0
100
AcDbCircle
 62
7
  6
CONTINUOUS
 10
10.5613198232
 20
8.0522875622
 40
0.373709654
100
AcDbArc
 50
146.6595187369
 51
151.2924535874
  0
ARC
  5
3CF
100
AcDbEntity
  8
0
100
AcDbCircle
 62
7
  6
CONTINUOUS
 10
10.6301942865
 20
7.9787750261
 40
0.373709654
100
AcDbArc
 50
326.6595187369
 51
331.2924535874
  0
SPLINE
  5
3D0
100
AcDbEntity
  8
0
100
AcDbSpline
 62
7
  6
CONTINUOUS
 70
0
 71
3
 72
15
 73
11
 74
0
 42
0.0000001
 43
0.0000001
 44
0.0000000001
 40
0.0
 40
0.0
 40
0.0
 40
0.0
 40
0.1309044479
 40
0.2613640512
 40
0.3907957226
 40
0.5184622544
 40
0.6436178655
 40
0.7657027983
 40
0.884473687
 40
1.0
 40
1.0
 40
1.0
 40
1.0
 10
10.2335454739
 20
8.2317948919
 30
0.0
 10
10.2324210991
 20
8.2151359705
 30
0.0
 10
10.2303754058
 20
8.1818607734
 30
0.0
 10
10.2280385736
 20
8.1320676922
 30
0.0
 10
10.2265652476
 20
8.0826539965
 30
0.0
 10
10.2260546147
 20
8.033896992
 30
0.0
 10
10.2265457378
 20
7.9860766957
 30
0.0
 10
10.228004108
 20
7.9394114815
 30
0.0
 10
10.230332619
 20
7.8940120325
 30
0.0
 10
10.2324052373
 20
7.8641977768
 30
0.0
 10
10.2335454739
 20
7.8495066134
 30
0.0
  0
SPLINE
  5
3D1
100
AcDbEntity
  8
0
100
AcDbSpline
 62
7
  6
CONTINUOUS
 70
0
 71
3
 72
19
 73
15
 74
0
 42
0.0000001
 43
0.0000001
 44
0.0000000001
 40
0.0
 40
0.0
 40
0.0
 40
0.0
 40
0.1208891894
 40
0.2436787837
 40
0.3057539989
 40
0.3682338184
 40
0.4310620126
 40
0.4941687729
 40
0.5574749478
 40
0.6208974869
 40
0.6843552588
 40
0.7477743319
 40
0.8742562402
 40
1.0
 40
1.0
 40
1.0
 40
1.0
 10
10.249115584
 20
7.8214586008
 30
0.0
 10
10.261582206
 20
7.8115679053
 30
0.0
 10
10.2869010044
 20
7.7918683386
 30
0.0
 10
10.3192058383
 20
7.7678540797
 30
0.0
 10
10.3456930255
 20
7.7489166128
 30
0.0
 10
10.3659433035
 20
7.7348308041
 30
0.0
 10
10.3864923618
 20
7.720940582
 30
0.0
 10
10.4073189695
 20
7.7072707739
 30
0.0
 10
10.4283953608
 20
7.693843158
 30
0.0
 10
10.4496890358
 20
7.6806748514
 30
0.0
 10
10.4711650662
 20
7.6677772565
 30
0.0
 10
10.4999693434
 20
7.6509638004
 30
0.0
 10
10.5362223011
 20
7.6306537754
 30
0.0
 10
10.5655168147
 20
7.615021214
 30
0.0
 10
10.5801869447
 20
7.6073545847
 30
0.0
  0
SPLINE
  5
3D2
100
AcDbEntity
  8
0
100
AcDbSpline
 62
7
  6
CONTINUOUS
 70
0
 71
3
 72
15
 73
11
 74
0
 42
0.0000001
 43
0.0000001
 44
0.0000000001
 40
0.0
 40
0.0
 40
0.0
 40
0.0
 40
0.1121786521
 40
0.2284761286
 40
0.3490753419
 40
0.4737992527
 40
0.6020827469
 40
0.7331004723
 40
0.8659837967
 40
1.0
 40
1.0
 40
1.0
 40
1.0
 10
10.6113271649
 20
7.605195003
 30
0.0
 10
10.623913615
 20
7.6110646963
 30
0.0
 10
10.6495052424
 20
7.6231129783
 30
0.0
 10
10.6884557873
 20
7.6418349385
 30
0.0
 10
10.7286357938
 20
7.6615804597
 30
0.0
 10
10.7699630012
 20
7.6823518195
 30
0.0
 10
10.8122549864
 20
7.7040716684
 30
0.0
 10
10.8552668093
 20
7.7265973971
 30
0.0
 10
10.8987469409
 20
7.7497558144
 30
0.0
 10
10.9278194998
 20
7.7654593615
 30
0.0
 10
10.9423985257
 20
7.7733792655
 30
0.0
  0
SPLINE
  5
3D3
100
AcDbEntity
  8
0
100
AcDbSpline
 62
7
  6
CONTINUOUS
 70
0
 71
3
 72
15
 73
11
 74
0
 42
0.0000001
 43
0.0000001
 44
0.0000000001
 40
0.0
 40
0.0
 40
0.0
 40
0.0
 40
0.1309044479
 40
0.2613640512
 40
0.3907957226
 40
0.5184622544
 40
0.6436178655
 40
0.7657027983
 40
0.884473687
 40
1.0
 40
1.0
 40
1.0
 40
1.0
 10
11.0822673803
 20
7.919331071
 30
0.0
 10
11.0833917551
 20
7.9359899923
 30
0.0
 10
11.0854374483
 20
7.9692651895
 30
0.0
 10
11.0877742805
 20
8.0190582707
 30
0.0
 10
11.0892476065
 20
8.0684719663
 30
0.0
 10
11.0897582394
 20
8.1172289709
 30
0.0
 10
11.0892671163
 20
8.1650492672
 30
0.0
 10
11.0878087461
 20
8.2117144814
 30
0.0
 10
11.0854802351
 20
8.2571139304
 30
0.0
 10
11.0834076168
 20
8.2869281861
 30
0.0
 10
11.0822673803
 20
8.3016193495
 30
0.0
  0
SPLINE
  5
3D4
100
AcDbEntity
  8
0
100
AcDbSpline
 62
7
  6
CONTINUOUS
 70
0
 71
3
 72
19
 73
15
 74
0
 42
0.0000001
 43
0.0000001
 44
0.0000000001
 40
0.0
 40
0.0
 40
0.0
 40
0.0
 40
0.1208891894
 40
0.2436787837
 40
0.3057539989
 40
0.3682338184
 40
0.4310620126
 40
0.4941687729
 40
0.5574749478
 40
0.6208974869
 40
0.6843552588
 40
0.7477743319
 40
0.8742562402
 40
1.0
 40
1.0
 40
1.0
 40
1.0
 10
11.0666972702
 20
8.3296673621
 30
0.0
 10
11.0542306481
 20
8.3395580576
 30
0.0
 10
11.0289118497
 20
8.3592576243
 30
0.0
 10
10.9966070158
 20
8.3832718832
 30
0.0
 10
10.9701198286
 20
8.4022093501
 30
0.0
 10
10.9498695506
 20
8.4162951587
 30
0.0
 10
10.9293204923
 20
8.4301853809
 30
0.0
 10
10.9084938846
 20
8.443855189
 30
0.0
 10
10.8874174933
 20
8.4572828049
 30
0.0
 10
10.8661238183
 20
8.4704511115
 30
0.0
 10
10.844647788
 20
8.4833487064
 30
0.0
 10
10.8158435108
 20
8.5001621625
 30
0.0
 10
10.779590553
 20
8.5204721875
 30
0.0
 10
10.7502960394
 20
8.5361047488
 30
0.0
 10
10.7356259094
 20
8.5437713782
 30
0.0
  0
SPLINE
  5
3D5
100
AcDbEntity
  8
0
100
AcDbSpline
 62
7
  6
CONTINUOUS
 70
0
 71
3
 72
15
 73
11
 74
0
 42
0.0000001
 43
0.0000001
 44
0.0000000001
 40
0.0
 40
0.0
 40
0.0
 40
0.0
 40
0.1121786521
 40
0.2284761286
 40
0.3490753419
 40
0.4737992527
 40
0.6020827469
 40
0.7331004723
 40
0.8659837967
 40
1.0
 40
1.0
 40
1.0
 40
1.0
 10
10.7044856892
 20
8.5459309598
 30
0.0
 10
10.6918992392
 20
8.5400612665
 30
0.0
 10
10.6663076118
 20
8.5280129845
 30
0.0
 10
10.6273570668
 20
8.5092910243
 30
0.0
 10
10.5871770603
 20
8.4895455031
 30
0.0
 10
10.545849853
 20
8.4687741434
 30
0.0
 10
10.5035578677
 20
8.4470542945
 30
0.0
 10
10.4605460448
 20
8.4245285658
 30
0.0
 10
10.4170659133
 20
8.4013701485
 30
0.0
 10
10.3879933544
 20
8.3856666014
 30
0.0
 10
10.3734143284
 20
8.3777466974
 30
0.0
  0
SPLINE
  5
3D6
100
AcDbEntity
  8
0
100
AcDbSpline
 62
7
  6
CONTINUOUS
 70
0
 71
3
 72
52
 73
48
 74
0
 42
0.0000001
 43
0.0000001
 44
0.0000000001
 40
0.0
 40
0.0
 40
0.0
 40
0.0
 40
0.0311866655
 40
0.0621624582
 40
0.0775790412
 40
0.0929473314
 40
0.1082695123
 40
0.123548568
 40
0.1387878901
 40
0.1539911696
 40
0.1691625264
 40
0.1843064009
 40
0.1994275511
 40
0.2145309433
 40
0.2296217509
 40
0.2447052634
 40
0.259786869
 40
0.2748719753
 40
0.2899659335
 40
0.3050740164
 40
0.3202013322
 40
0.3353528119
 40
0.3505330985
 40
0.3657465608
 40
0.3809971866
 40
0.3962886124
 40
0.4116240385
 40
0.4270062211
 40
0.4424374298
 40
0.457919452
 40
0.4890310877
 40
0.5203549267
 40
0.5518869196
 40
0.5836151951
 40
0.6155205872
 40
0.6475775356
 40
0.6797550126
 40
0.7120177617
 40
0.7443275151
 40
0.7766443769
 40
0.8089282056
 40
0.8411399939
 40
0.8732432958
 40
0.9052053838
 40
0.9369988317
 40
0.9686016371
 40
1.0
 40
1.0
 40
1.0
 40
1.0
 10
10.5879120259
 20
7.649112112
 30
0.0
 10
10.5996105888
 20
7.6483008139
 30
0.0
 10
10.623023014
 20
7.6478188594
 30
0.0
 10
10.6521544715
 20
7.650110904
 30
0.0
 10
10.6751112227
 20
7.6536723725
 30
0.0
 10
10.692094811
 20
7.6571929712
 30
0.0
 10
10.7088272352
 20
7.6615589795
 30
0.0
 10
10.7252686323
 20
7.6667596426
 30
0.0
 10
10.7413792756
 20
7.6727825168
 30
0.0
 10
10.757120305
 20
7.6796132122
 30
0.0
 10
10.7724538251
 20
7.6872350826
 30
0.0
 10
10.7873426854
 20
7.6956300974
 30
0.0
 10
10.8017512225
 20
7.7047776014
 30
0.0
 10
10.8156443402
 20
7.714656073
 30
0.0
 10
10.8289889328
 20
7.7252411182
 30
0.0
 10
10.8417523224
 20
7.7365078203
 30
0.0
 10
10.8539042563
 20
7.7484284037
 30
0.0
 10
10.8654148602
 20
7.7609746932
 30
0.0
 10
10.8762569451
 20
7.7741158946
 30
0.0
 10
10.88640382
 20
7.7878207579
 30
0.0
 10
10.8958315215
 20
7.8020558478
 30
0.0
 10
10.9045169172
 20
7.8167871044
 30
0.0
 10
10.9124394012
 20
7.8319787984
 30
0.0
 10
10.919579698
 20
7.8475943911
 30
0.0
 10
10.9259206912
 20
7.8635961801
 30
0.0
 10
10.9314471995
 20
7.8799455453
 30
0.0
 10
10.9361457255
 20
7.8966031686
 30
0.0
 10
10.9400053372
 20
7.9135286521
 30
0.0
 10
10.9430163028
 20
7.9306818344
 30
0.0
 10
10.9458949189
 20
7.9538338739
 30
0.0
 10
10.9473305144
 20
7.9831491589
 30
0.0
 10
10.9455880339
 20
8.0184940147
 30
0.0
 10
10.9404026507
 20
8.0537349171
 30
0.0
 10
10.9318250854
 20
8.0885307941
 30
0.0
 10
10.919938885
 20
8.1225480963
 30
0.0
 10
10.90485906
 20
8.1554601261
 30
0.0
 10
10.8867310784
 20
8.1869511397
 30
0.0
 10
10.8657294471
 20
8.2167190091
 30
0.0
 10
10.8420560533
 20
8.2444781528
 30
0.0
 10
10.8159382442
 20
8.2699621782
 30
0.0
 10
10.7876266876
 20
8.2929264119
 30
0.0
 10
10.7573930294
 20
8.3131502139
 30
0.0
 10
10.7255272105
 20
8.330439002
 30
0.0
 10
10.6923352483
 20
8.3446262742
 30
0.0
 10
10.658134519
 20
8.3555748609
 30
0.0
 10
10.6232577802
 20
8.3631786131
 30
0.0
 10
10.5996899995
 20
8.3659782382
 30
0.0
 10
10.5879120259
 20
8.3667950434
 30
0.0
  0
SPLINE
  5
3D7
100
AcDbEntity
  8
0
100
AcDbSpline
 62
7
  6
CONTINUOUS
 70
0
 71
3
 72
52
 73
48
 74
0
 42
0.0000001
 43
0.0000001
 44
0.0000000001
 40
0.0
 40
0.0
 40
0.0
 40
0.0
 40
0.0311866655
 40
0.0621624582
 40
0.0775790412
 40
0.0929473314
 40
0.1082695123
 40
0.123548568
 40
0.1387878901
 40
0.1539911696
 40
0.1691625264
 40
0.1843064009
 40
0.1994275511
 40
0.2145309433
 40
0.2296217509
 40
0.2447052634
 40
0.259786869
 40
0.2748719753
 40
0.2899659335
 40
0.3050740164
 40
0.3202013322
 40
0.3353528119
 40
0.3505330985
 40
0.3657465608
 40
0.3809971866
 40
0.3962886124
 40
0.4116240385
 40
0.4270062211
 40
0.4424374298
 40
0.457919452
 40
0.4890310877
 40
0.5203549267
 40
0.5518869196
 40
0.5836151951
 40
0.6155205872
 40
0.6475775356
 40
0.6797550126
 40
0.7120177617
 40
0.7443275151
 40
0.7766443769
 40
0.8089282056
 40
0.8411399939
 40
0.8732432958
 40
0.9052053838
 40
0.9369988317
 40
0.9686016371
 40
1.0
 40
1.0
 40
1.0
 40
1.0
 10
10.5879120259
 20
8.3667950434
 30
0.0
 10
10.5762134631
 20
8.3676063415
 30
0.0
 10
10.5528010378
 20
8.368088296
 30
0.0
 10
10.5236695804
 20
8.3657962514
 30
0.0
 10
10.5007128292
 20
8.3622347829
 30
0.0
 10
10.4837292408
 20
8.3587141842
 30
0.0
 10
10.4669968167
 20
8.3543481759
 30
0.0
 10
10.4505554196
 20
8.3491475128
 30
0.0
 10
10.4344447762
 20
8.3431246386
 30
0.0
 10
10.4187037469
 20
8.3362939432
 30
0.0
 10
10.4033702268
 20
8.3286720728
 30
0.0
 10
10.3884813665
 20
8.320277058
 30
0.0
 10
10.3740728294
 20
8.311129554
 30
0.0
 10
10.3601797117
 20
8.3012510824
 30
0.0
 10
10.346835119
 20
8.2906660371
 30
0.0
 10
10.3340717294
 20
8.279399335
 30
0.0
 10
10.3219197956
 20
8.2674787516
 30
0.0
 10
10.3104091917
 20
8.2549324621
 30
0.0
 10
10.2995671068
 20
8.2417912607
 30
0.0
 10
10.2894202319
 20
8.2280863975
 30
0.0
 10
10.2799925303
 20
8.2138513076
 30
0.0
 10
10.2713071347
 20
8.1991200509
 30
0.0
 10
10.2633846506
 20
8.1839283569
 30
0.0
 10
10.2562443539
 20
8.1683127643
 30
0.0
 10
10.2499033607
 20
8.1523109753
 30
0.0
 10
10.2443768524
 20
8.1359616101
 30
0.0
 10
10.2396783264
 20
8.1193039868
 30
0.0
 10
10.2358187147
 20
8.1023785032
 30
0.0
 10
10.2328077491
 20
8.085225321
 30
0.0
 10
10.229929133
 20
8.0620732815
 30
0.0
 10
10.2284935374
 20
8.0327579965
 30
0.0
 10
10.230236018
 20
7.9974131407
 30
0.0
 10
10.2354214012
 20
7.9621722382
 30
0.0
 10
10.2439989665
 20
7.9273763613
 30
0.0
 10
10.2558851669
 20
7.8933590591
 30
0.0
 10
10.2709649919
 20
7.8604470293
 30
0.0
 10
10.2890929735
 20
7.8289560156
 30
0.0
 10
10.3100946048
 20
7.7991881463
 30
0.0
 10
10.3337679986
 20
7.7714290026
 30
0.0
 10
10.3598858077
 20
7.7459449772
 30
0.0
 10
10.3881973643
 20
7.7229807434
 30
0.0
 10
10.4184310225
 20
7.7027569415
 30
0.0
 10
10.4502968414
 20
7.6854681534
 30
0.0
 10
10.4834888036
 20
7.6712808812
 30
0.0
 10
10.5176895329
 20
7.6603322945
 30
0.0
 10
10.5525662717
 20
7.6527285422
 30
0.0
 10
10.5761340524
 20
7.6499289172
 30
0.0
 10
10.5879120259
 20
7.649112112
 30
0.0
  0
SPLINE
  5
3D8
100
AcDbEntity
  8
0
100
AcDbSpline
 62
7
  6
CONTINUOUS
 70
0
 71
3
 72
15
 73
11
 74
0
 42
0.0000001
 43
0.0000001
 44
0.0000000001
 40
0.0
 40
0.0
 40
0.0
 40
0.0
 40
0.115526313
 40
0.2342972017
 40
0.3563821345
 40
0.4815377457
 40
0.6092042774
 40
0.7386359488
 40
0.8690955521
 40
1.0
 40
1.0
 40
1.0
 40
1.0
 10
10.9579686358
 20
7.7992676964
 30
0.0
 10
10.9568283993
 20
7.8139588598
 30
0.0
 10
10.954755781
 20
7.8437731156
 30
0.0
 10
10.9524272699
 20
7.8891725646
 30
0.0
 10
10.9509688997
 20
7.9358377788
 30
0.0
 10
10.9504777766
 20
7.9836580751
 30
0.0
 10
10.9509884095
 20
8.0324150796
 30
0.0
 10
10.9524617356
 20
8.0818287753
 30
0.0
 10
10.9547985678
 20
8.1316218565
 30
0.0
 10
10.956844261
 20
8.1648970536
 30
0.0
 10
10.9579686358
 20
8.181555975
 30
0.0
  0
SPLINE
  5
3D9
100
AcDbEntity
  8
0
100
AcDbSpline
 62
7
  6
CONTINUOUS
 70
0
 71
3
 72
19
 73
15
 74
0
 42
0.0000001
 43
0.0000001
 44
0.0000000001
 40
0.0
 40
0.0
 40
0.0
 40
0.0
 40
0.1257437598
 40
0.2522256681
 40
0.3156447412
 40
0.3791025131
 40
0.4425250522
 40
0.5058312272
 40
0.5689379875
 40
0.6317661817
 40
0.6942460012
 40
0.7563212163
 40
0.8791108107
 40
1.0
 40
1.0
 40
1.0
 40
1.0
 10
10.9423985257
 20
8.2096039875
 30
0.0
 10
10.9277283957
 20
8.2172706169
 30
0.0
 10
10.8984338821
 20
8.2329031783
 30
0.0
 10
10.8621809243
 20
8.2532132033
 30
0.0
 10
10.8333766471
 20
8.2700266594
 30
0.0
 10
10.8119006168
 20
8.2829242543
 30
0.0
 10
10.7906069418
 20
8.2960925609
 30
0.0
 10
10.7695305505
 20
8.3095201768
 30
0.0
 10
10.7487039428
 20
8.3231899849
 30
0.0
 10
10.7281548845
 20
8.337080207
 30
0.0
 10
10.7079046064
 20
8.3511660157
 30
0.0
 10
10.6814174193
 20
8.3701034826
 30
0.0
 10
10.6491125854
 20
8.3941177415
 30
0.0
 10
10.623793787
 20
8.4138173081
 30
0.0
 10
10.6113271649
 20
8.4237080037
 30
0.0
  0
SPLINE
  5
3DA
100
AcDbEntity
  8
0
100
AcDbSpline
 62
7
  6
CONTINUOUS
 70
0
 71
3
 72
15
 73
11
 74
0
 42
0.0000001
 43
0.0000001
 44
0.0000000001
 40
0.0
 40
0.0
 40
0.0
 40
0.0
 40
0.1340162033
 40
0.2668995277
 40
0.3979172531
 40
0.5262007474
 40
0.6509246582
 40
0.7715238714
 40
0.8878213479
 40
1.0
 40
1.0
 40
1.0
 40
1.0
 10
10.5801869447
 20
8.4258675853
 30
0.0
 10
10.5656079188
 20
8.4179476813
 30
0.0
 10
10.5365353599
 20
8.4022441342
 30
0.0
 10
10.4930552283
 20
8.3790857169
 30
0.0
 10
10.4500434054
 20
8.3565599882
 30
0.0
 10
10.4077514202
 20
8.3348401393
 30
0.0
 10
10.3664242128
 20
8.3140687795
 30
0.0
 10
10.3262442063
 20
8.2943232583
 30
0.0
 10
10.2872936614
 20
8.2756012981
 30
0.0
 10
10.261702034
 20
8.2635530161
 30
0.0
 10
10.249115584
 20
8.2576833229
 30
0.0
  0
SPLINE
  5
3DB
100
AcDbEntity
  8
0
100
AcDbSpline
 62
7
  6
CONTINUOUS
 70
0
 71
3
 72
47
 73
43
 74
0
 42
0.0000001
 43
0.0000001
 44
0.0000000001
 40
0.0
 40
0.0
 40
0.0
 40
0.0
 40
0.0958290515
 40
0.1428193718
 40
0.1890977227
 40
0.2345931731
 40
0.2792371079
 40
0.3229628245
 40
0.3657055262
 40
0.4074027067
 40
0.4479943324
 40
0.4874230185
 40
0.5256342588
 40
0.5625767286
 40
0.5982026121
 40
0.6324678821
 40
0.6653326871
 40
0.696761883
 40
0.7267256128
 40
0.7551999429
 40
0.7821677371
 40
0.8076198389
 40
0.8315564791
 40
0.842960485
 40
0.8539910035
 40
0.8646515714
 40
0.8749468716
 40
0.8848826322
 40
0.8944659112
 40
0.9037052388
 40
0.9126106356
 40
0.921193989
 40
0.9294691026
 40
0.9374518776
 40
0.9451606373
 40
0.9598347829
 40
0.9668566474
 40
0.9737035196
 40
0.9804067606
 40
0.9870000135
 40
0.9935187958
 40
1.0
 40
1.0
 40
1.0
 40
1.0
 10
10.820460746
 20
10.8888745853
 30
0.0
 10
10.803022902
 20
10.8900839039
 30
0.0
 10
10.7770529257
 20
10.8921758085
 30
0.0
 10
10.7427261449
 20
10.8955581579
 30
0.0
 10
10.7175682245
 20
10.8983468062
 30
0.0
 10
10.6928721456
 20
10.9013990854
 30
0.0
 10
10.6686792086
 20
10.9047098744
 30
0.0
 10
10.645029858
 20
10.9082735952
 30
0.0
 10
10.6219636086
 20
10.9120842714
 30
0.0
 10
10.5995190089
 20
10.9161355011
 30
0.0
 10
10.5777335419
 20
10.9204204614
 30
0.0
 10
10.5566435809
 20
10.9249319449
 30
0.0
 10
10.5362843299
 20
10.9296623724
 30
0.0
 10
10.5166897481
 20
10.9346037931
 30
0.0
 10
10.4978924833
 20
10.9397478851
 30
0.0
 10
10.4799238273
 20
10.9450859991
 30
0.0
 10
10.4628136589
 20
10.9506091789
 30
0.0
 10
10.4465903719
 20
10.9563081583
 30
0.0
 10
10.4312807999
 20
10.962173385
 30
0.0
 10
10.4169102189
 20
10.9681950648
 30
0.0
 10
10.4035021463
 20
10.9743632426
 30
0.0
 10
10.3910787625
 20
10.9806676956
 30
0.0
 10
10.381412685
 20
10.9861109658
 30
0.0
 10
10.3742025335
 20
10.9905348961
 30
0.0
 10
10.3691413828
 20
10.9938266969
 30
0.0
 10
10.3643411968
 20
10.9971446795
 30
0.0
 10
10.3598039095
 20
11.000487475
 30
0.0
 10
10.3555314163
 20
11.0038537659
 30
0.0
 10
10.351525485
 20
11.0072422104
 30
0.0
 10
10.3477877347
 20
11.0106514227
 30
0.0
 10
10.3443197732
 20
11.0140801188
 30
0.0
 10
10.3411230096
 20
11.0175269591
 30
0.0
 10
10.3381988483
 20
11.0209905102
 30
0.0
 10
10.3355484311
 20
11.0244698673
 30
0.0
 10
10.3324329556
 20
11.0290515353
 30
0.0
 10
10.329797171
 20
11.0337415074
 30
0.0
 10
10.3277088312
 20
11.0385143438
 30
0.0
 10
10.3264443961
 20
11.0420507785
 30
0.0
 10
10.3254600352
 20
11.0455941468
 30
0.0
 10
10.3247563253
 20
11.0491430334
 30
0.0
 10
10.3243339351
 20
11.05269538
 30
0.0
 10
10.3242399568
 20
11.0550677045
 30
0.0
 10
10.3242399628
 20
11.0562499105
 30
0.0
  0
SPLINE
  5
3DC
100
AcDbEntity
  8
0
100
AcDbSpline
 62
7
  6
CONTINUOUS
 70
0
 71
3
 72
19
 73
15
 74
0
 42
0.0000001
 43
0.0000001
 44
0.0000000001
 40
0.0
 40
0.0
 40
0.0
 40
0.0
 40
0.12732766
 40
0.2538196711
 40
0.3795264658
 40
0.5045235362
 40
0.5668075958
 40
0.6289556124
 40
0.6909843715
 40
0.7529118454
 40
0.8147570127
 40
0.8765397119
 40
0.9382804145
 40
1.0
 40
1.0
 40
1.0
 40
1.0
 10
12.0876941764
 20
10.2629651963
 30
0.0
 10
12.0876941764
 20
10.2564668163
 30
0.0
 10
12.0870737242
 20
10.243503766
 30
0.0
 10
12.0842676527
 20
10.2243082573
 30
0.0
 10
12.0796152102
 20
10.2055959673
 30
0.0
 10
12.0742257343
 20
10.1905277159
 30
0.0
 10
12.0690425338
 20
10.1788957649
 30
0.0
 10
12.0647323425
 20
10.1704066958
 30
0.0
 10
12.0600054239
 20
10.1621636361
 30
0.0
 10
12.0548725365
 20
10.1541853255
 30
0.0
 10
12.0493455229
 20
10.1464902869
 30
0.0
 10
12.0434371202
 20
10.1390961431
 30
0.0
 10
12.0371611413
 20
10.1320202211
 30
0.0
 10
12.0327409056
 20
10.1275251568
 30
0.0
 10
12.0304752804
 20
10.1253367317
 30
0.0
  0
SPLINE
  5
3DD
100
AcDbEntity
  8
0
100
AcDbSpline
 62
7
  6
CONTINUOUS
 70
0
 71
3
 72
19
 73
15
 74
0
 42
0.0000001
 43
0.0000001
 44
0.0000000001
 40
0.0
 40
0.0
 40
0.0
 40
0.0
 40
0.12732766
 40
0.2538196711
 40
0.3795264658
 40
0.5045235362
 40
0.5668075958
 40
0.6289556124
 40
0.6909843715
 40
0.7529118454
 40
0.8147570127
 40
0.8765397119
 40
0.9382804145
 40
1.0
 40
1.0
 40
1.0
 40
1.0
 10
12.0876941764
 20
5.9162987205
 30
0.0
 10
12.0876941764
 20
5.9098003405
 30
0.0
 10
12.0870737242
 20
5.8968372902
 30
0.0
 10
12.0842676527
 20
5.8776417814
 30
0.0
 10
12.0796152102
 20
5.8589294915
 30
0.0
 10
12.0742257343
 20
5.8438612401
 30
0.0
 10
12.0690425338
 20
5.832229289
 30
0.0
 10
12.0647323425
 20
5.82374022
 30
0.0
 10
12.0600054239
 20
5.8154971602
 30
0.0
 10
12.0548725365
 20
5.8075188496
 30
0.0
 10
12.0493455229
 20
5.799823811
 30
0.0
 10
12.0434371202
 20
5.7924296672
 30
0.0
 10
12.0371611413
 20
5.7853537453
 30
0.0
 10
12.0327409056
 20
5.780858681
 30
0.0
 10
12.0304752804
 20
5.7786702559
 30
0.0
  0
SPLINE
  5
3DE
100
AcDbEntity
  8
0
100
AcDbSpline
 62
7
  6
CONTINUOUS
 70
0
 71
3
 72
11
 73
7
 74
0
 42
0.0000001
 43
0.0000001
 44
0.0000000001
 40
0.0
 40
0.0
 40
0.0
 40
0.0
 40
0.2521073359
 40
0.5027589691
 40
0.7520228765
 40
1.0
 40
1.0
 40
1.0
 40
1.0
 10
11.1077623501
 20
8.1575904614
 30
0.0
 10
11.1077623501
 20
8.1480725833
 30
0.0
 10
11.1069656077
 20
8.1290818309
 30
0.0
 10
11.10336333
 20
8.1008861334
 30
0.0
 10
11.0973834023
 20
8.0732564969
 30
0.0
 10
11.0918236886
 20
8.0552966006
 30
0.0
 10
11.0886641084
 20
8.0464839312
 30
0.0
  0
SPLINE
  5
3DF
100
AcDbEntity
  8
0
100
AcDbSpline
 62
7
  6
CONTINUOUS
 70
0
 71
3
 72
53
 73
49
 74
0
 42
0.0000001
 43
0.0000001
 44
0.0000000001
 40
0.0
 40
0.0
 40
0.0
 40
0.0
 40
0.0417740113
 40
0.0840369498
 40
0.1266584959
 40
0.1695064843
 40
0.2124480935
 40
0.2553500426
 40
0.298079237
 40
0.3405032536
 40
0.382490879
 40
0.4239126346
 40
0.4646413116
 40
0.5045525112
 40
0.543525196
 40
0.5814422576
 40
0.6181911067
 40
0.6536642972
 40
0.6877601986
 40
0.720383738
 40
0.7361160079
 40
0.7514479787
 40
0.7663699923
 40
0.7808730391
 40
0.7949486907
 40
0.8085892839
 40
0.8217878242
 40
0.8345382246
 40
0.8468351953
 40
0.858674535
 40
0.8700530305
 40
0.8809687964
 40
0.8914212207
 40
0.9014113515
 40
0.9109419335
 40
0.9200178526
 40
0.9286463131
 40
0.9368373658
 40
0.9446042772
 40
0.9519641672
 40
0.9589385932
 40
0.9655542738
 40
0.9718437889
 40
0.9778461802
 40
0.9836073652
 40
0.9891800467
 40
0.99462308
 40
1.0
 40
1.0
 40
1.0
 40
1.0
 10
12.7585725594
 20
9.1645766367
 30
0.0
 10
12.7585725594
 20
9.1770667394
 30
0.0
 10
12.7587674182
 20
9.202193523
 30
0.0
 10
12.7596288538
 20
9.2400549389
 30
0.0
 10
12.7610586253
 20
9.2782205523
 30
0.0
 10
12.7630520458
 20
9.3165640255
 30
0.0
 10
12.7656025278
 20
9.3549584988
 30
0.0
 10
12.7687016409
 20
9.3932769539
 30
0.0
 10
12.7723391188
 20
9.4313926162
 30
0.0
 10
12.7765029034
 20
9.4691793907
 30
0.0
 10
12.7811791799
 20
9.5065122761
 30
0.0
 10
12.7863524241
 20
9.5432677843
 30
0.0
 10
12.7920054517
 20
9.5793243517
 30
0.0
 10
12.7981194749
 20
9.6145627469
 30
0.0
 10
12.804674163
 20
9.6488664692
 30
0.0
 10
12.8116477075
 20
9.6821221491
 30
0.0
 10
12.8190168963
 20
9.7142199084
 30
0.0
 10
12.8267571779
 20
9.7450538251
 30
0.0
 10
12.8348427824
 20
9.7745219944
 30
0.0
 10
12.8419290362
 20
9.7981369577
 30
0.0
 10
12.8477620521
 20
9.8162642392
 30
0.0
 10
12.8521532611
 20
9.8292941953
 30
0.0
 10
12.8566102331
 20
9.8419126936
 30
0.0
 10
12.8611292649
 20
9.854109336
 30
0.0
 10
12.8657066507
 20
9.8658740505
 30
0.0
 10
12.8703385435
 20
9.8771971493
 30
0.0
 10
12.8750211712
 20
9.8880692928
 30
0.0
 10
12.8797505885
 20
9.8984815513
 30
0.0
 10
12.8845229631
 20
9.9084253495
 30
0.0
 10
12.8893342764
 20
9.9178925515
 30
0.0
 10
12.8941806515
 20
9.9268753799
 30
0.0
 10
12.8990580265
 20
9.9353665261
 30
0.0
 10
12.9039625018
 20
9.9433590425
 30
0.0
 10
12.9088900138
 20
9.9508464759
 30
0.0
 10
12.9138366736
 20
9.9578227362
 30
0.0
 10
12.9187984746
 20
9.9642822411
 30
0.0
 10
12.9237715932
 20
9.9702197691
 30
0.0
 10
12.9287521612
 20
9.9756305916
 30
0.0
 10
12.9337364991
 20
9.9805103206
 30
0.0
 10
12.9387209722
 20
9.9848549855
 30
0.0
 10
12.9437021155
 20
9.9886608888
 30
0.0
 10
12.9486765561
 20
9.9919245722
 30
0.0
 10
12.9536409529
 20
9.9946427243
 30
0.0
 10
12.9585919228
 20
9.9968120251
 30
0.0
 10
12.9635256397
 20
9.9984292806
 30
0.0
 10
12.9684380484
 20
9.99949129
 30
0.0
 10
12.973323174
 20
9.9999955827
 30
0.0
 10
12.9765664894
 20
9.9999585469
 30
0.0
 10
12.9781702946
 20
9.9998473265
 30
0.0
  0
SPLINE
  5
3E0
100
AcDbEntity
  8
0
100
AcDbSpline
 62
7
  6
CONTINUOUS
 70
0
 71
3
 72
53
 73
49
 74
0
 42
0.0000001
 43
0.0000001
 44
0.0000000001
 40
0.0
 40
0.0
 40
0.0
 40
0.0
 40
0.0417740113
 40
0.0840369498
 40
0.1266584959
 40
0.1695064843
 40
0.2124480935
 40
0.2553500426
 40
0.298079237
 40
0.3405032536
 40
0.382490879
 40
0.4239126346
 40
0.4646413116
 40
0.5045525112
 40
0.543525196
 40
0.5814422576
 40
0.6181911067
 40
0.6536642972
 40
0.6877601986
 40
0.720383738
 40
0.7361160079
 40
0.7514479787
 40
0.7663699923
 40
0.7808730391
 40
0.7949486907
 40
0.8085892839
 40
0.8217878242
 40
0.8345382246
 40
0.8468351953
 40
0.858674535
 40
0.8700530305
 40
0.8809687964
 40
0.8914212207
 40
0.9014113515
 40
0.9109419335
 40
0.9200178526
 40
0.9286463131
 40
0.9368373658
 40
0.9446042772
 40
0.9519641672
 40
0.9589385932
 40
0.9655542738
 40
0.9718437889
 40
0.9778461802
 40
0.9836073652
 40
0.9891800467
 40
0.99462308
 40
1.0
 40
1.0
 40
1.0
 40
1.0
 10
12.7585725594
 20
7.2327248696
 30
0.0
 10
12.7585725594
 20
7.2452149724
 30
0.0
 10
12.7587674182
 20
7.270341756
 30
0.0
 10
12.7596288538
 20
7.3082031719
 30
0.0
 10
12.7610586253
 20
7.3463687853
 30
0.0
 10
12.7630520458
 20
7.3847122584
 30
0.0
 10
12.7656025278
 20
7.4231067317
 30
0.0
 10
12.7687016409
 20
7.4614251868
 30
0.0
 10
12.7723391188
 20
7.4995408492
 30
0.0
 10
12.7765029034
 20
7.5373276236
 30
0.0
 10
12.7811791799
 20
7.5746605091
 30
0.0
 10
12.7863524241
 20
7.6114160173
 30
0.0
 10
12.7920054517
 20
7.6474725847
 30
0.0
 10
12.7981194749
 20
7.6827109798
 30
0.0
 10
12.804674163
 20
7.7170147022
 30
0.0
 10
12.8116477075
 20
7.750270382
 30
0.0
 10
12.8190168963
 20
7.7823681414
 30
0.0
 10
12.8267571779
 20
7.8132020581
 30
0.0
 10
12.8348427824
 20
7.8426702273
 30
0.0
 10
12.8419290362
 20
7.8662851907
 30
0.0
 10
12.8477620521
 20
7.8844124721
 30
0.0
 10
12.8521532611
 20
7.8974424283
 30
0.0
 10
12.8566102331
 20
7.9100609265
 30
0.0
 10
12.8611292649
 20
7.922257569
 30
0.0
 10
12.8657066507
 20
7.9340222834
 30
0.0
 10
12.8703385435
 20
7.9453453822
 30
0.0
 10
12.8750211712
 20
7.9562175258
 30
0.0
 10
12.8797505885
 20
7.9666297843
 30
0.0
 10
12.8845229631
 20
7.9765735824
 30
0.0
 10
12.8893342764
 20
7.9860407845
 30
0.0
 10
12.8941806515
 20
7.9950236128
 30
0.0
 10
12.8990580265
 20
8.003514759
 30
0.0
 10
12.9039625018
 20
8.0115072754
 30
0.0
 10
12.9088900138
 20
8.0189947089
 30
0.0
 10
12.9138366736
 20
8.0259709692
 30
0.0
 10
12.9187984746
 20
8.0324304741
 30
0.0
 10
12.9237715932
 20
8.038368002
 30
0.0
 10
12.9287521612
 20
8.0437788246
 30
0.0
 10
12.9337364991
 20
8.0486585536
 30
0.0
 10
12.9387209722
 20
8.0530032185
 30
0.0
 10
12.9437021155
 20
8.0568091217
 30
0.0
 10
12.9486765561
 20
8.0600728051
 30
0.0
 10
12.9536409529
 20
8.0627909573
 30
0.0
 10
12.9585919228
 20
8.0649602581
 30
0.0
 10
12.9635256397
 20
8.0665775135
 30
0.0
 10
12.9684380484
 20
8.067639523
 30
0.0
 10
12.973323174
 20
8.0681438156
 30
0.0
 10
12.9765664894
 20
8.0681067798
 30
0.0
 10
12.9781702946
 20
8.0679955595
 30
0.0
  0
SPLINE
  5
3E1
100
AcDbEntity
  8
0
100
AcDbSpline
 62
7
  6
CONTINUOUS
 70
0
 71
3
 72
53
 73
49
 74
0
 42
0.0000001
 43
0.0000001
 44
0.0000000001
 40
0.0
 40
0.0
 40
0.0
 40
0.0
 40
0.0055575327
 40
0.0111779583
 40
0.0169219001
 40
0.0228457957
 40
0.0290005894
 40
0.0354310067
 40
0.0421754826
 40
0.0492663475
 40
0.0567304347
 40
0.064589558
 40
0.0728612818
 40
0.0815593348
 40
0.0906943148
 40
0.1002739426
 40
0.1103036489
 40
0.1207866878
 40
0.1317246105
 40
0.1431172887
 40
0.15496329
 40
0.1672598562
 40
0.1800031941
 40
0.1931884426
 40
0.2068098874
 40
0.2208609397
 40
0.2353342826
 40
0.2502218748
 40
0.2655150341
 40
0.2812044738
 40
0.3137315596
 40
0.3477189003
 40
0.3830740176
 40
0.4196978266
 40
0.4574853889
 40
0.4963265907
 40
0.5361067693
 40
0.5767073042
 40
0.6180061819
 40
0.6598785442
 40
0.7021972238
 40
0.7448332733
 40
0.787656484
 40
0.8305359172
 40
0.8733403843
 40
0.9159390759
 40
0.9582017793
 40
1.0
 40
1.0
 40
1.0
 40
1.0
 10
11.6632399447
 20
11.0562490037
 30
0.0
 10
11.6632399363
 20
11.0545927928
 30
0.0
 10
11.6630544483
 20
11.0512587478
 30
0.0
 10
11.6622221742
 20
11.0462754737
 30
0.0
 10
11.6608371434
 20
11.0413033237
 30
0.0
 10
11.6589021252
 20
11.0363480422
 30
0.0
 10
11.656420223
 20
11.0314136815
 30
0.0
 10
11.6533948653
 20
11.0265039729
 30
0.0
 10
11.6498294008
 20
11.0216223519
 30
0.0
 10
11.6457274212
 20
11.0167720285
 30
0.0
 10
11.6410925032
 20
11.0119563582
 30
0.0
 10
11.6359286172
 20
11.0071785899
 30
0.0
 10
11.6302398839
 20
11.0024422414
 30
0.0
 10
11.6240309251
 20
10.9977507064
 30
0.0
 10
11.617306624
 20
10.993107642
 30
0.0
 10
11.6100723928
 20
10.9885165349
 30
0.0
 10
11.6023339632
 20
10.9839810936
 30
0.0
 10
11.594097579
 20
10.9795048286
 30
0.0
 10
11.5853698322
 20
10.9750914232
 30
0.0
 10
11.5761577937
 20
10.9707443597
 30
0.0
 10
11.5664688961
 20
10.9664672432
 30
0.0
 10
11.5563110155
 20
10.9622634922
 30
0.0
 10
11.5456923937
 20
10.9581365988
 30
0.0
 10
11.5346216831
 20
10.954089893
 30
0.0
 10
11.5231078993
 20
10.95012673
 30
0.0
 10
11.51116044
 20
10.946250333
 30
0.0
 10
11.4987890568
 20
10.9424639021
 30
0.0
 10
11.486003863
 20
10.9387705446
 30
0.0
 10
11.4728152954
 20
10.9351732669
 30
0.0
 10
11.4544863659
 20
10.9304522368
 30
0.0
 10
11.4306400593
 20
10.9248273044
 30
0.0
 10
11.4009279263
 20
10.91858386
 30
0.0
 10
11.3698823784
 20
10.9127890948
 30
0.0
 10
11.337605046
 20
10.9074621637
 30
0.0
 10
11.3042014232
 20
10.9026207043
 30
0.0
 10
11.2697808231
 20
10.8982807292
 30
0.0
 10
11.2344559148
 20
10.8944565885
 30
0.0
 10
11.1983423696
 20
10.8911609212
 30
0.0
 10
11.1615584671
 20
10.8884046157
 30
0.0
 10
11.1242247027
 20
10.8861967759
 30
0.0
 10
11.0864633881
 20
10.8845446923
 30
0.0
 10
11.0483982465
 20
10.8834538194
 30
0.0
 10
11.0101540027
 20
10.8829277576
 30
0.0
 10
10.9718559754
 20
10.8829682454
 30
0.0
 10
10.9336296534
 20
10.8835751447
 30
0.0
 10
10.8956002938
 20
10.884746461
 30
0.0
 10
10.8578925879
 20
10.8864783105
 30
0.0
 10
10.8328872665
 20
10.8880128032
 30
0.0
 10
10.820460746
 20
10.8888745853
 30
0.0
  0
SPLINE
  5
3E2
100
AcDbEntity
  8
0
100
AcDbSpline
 62
7
  6
CONTINUOUS
 70
0
 71
3
 72
49
 73
45
 74
0
 42
0.0000001
 43
0.0000001
 44
0.0000000001
 40
0.0
 40
0.0
 40
0.0
 40
0.0
 40
0.0056769091
 40
0.011545461
 40
0.0176489935
 40
0.0240254112
 40
0.0307072079
 40
0.0377217395
 40
0.0450917938
 40
0.0528359184
 40
0.0609691767
 40
0.0695033419
 40
0.0784475993
 40
0.0878086679
 40
0.097591291
 40
0.10779841
 40
0.1184313763
 40
0.1294902466
 40
0.1409737401
 40
0.1528796358
 40
0.1652045788
 40
0.1779444794
 40
0.2046474265
 40
0.2329414877
 40
0.2627684181
 40
0.2940613117
 40
0.3267456796
 40
0.3607403382
 40
0.3959581606
 40
0.4323067289
 40
0.4696889179
 40
0.5080034324
 40
0.5471453095
 40
0.5870063974
 40
0.6274758171
 40
0.6684404119
 40
0.7097851906
 40
0.7513937626
 40
0.7931487893
 40
0.8349323439
 40
0.8766265732
 40
0.9181134451
 40
0.9592768861
 40
1.0
 40
1.0
 40
1.0
 40
1.0
 10
11.4650206035
 20
11.0165598658
 30
0.0
 10
11.4647051872
 20
11.0154257484
 30
0.0
 10
11.4639470739
 20
11.0131502154
 30
0.0
 10
11.4624686002
 20
11.0097973392
 30
0.0
 10
11.4606347753
 20
11.0064585781
 30
0.0
 10
11.4584477452
 20
11.0031366645
 30
0.0
 10
11.4559095909
 20
10.9998335969
 30
0.0
 10
11.4530225635
 20
10.9965514465
 30
0.0
 10
11.4497889085
 20
10.9932923685
 30
0.0
 10
11.4462111835
 20
10.9900584007
 30
0.0
 10
11.4422919823
 20
10.9868518237
 30
0.0
 10
11.4380342733
 20
10.9836747463
 30
0.0
 10
11.433441138
 20
10.9805295
 30
0.0
 10
11.4285160003
 20
10.9774182786
 30
0.0
 10
11.4232624805
 20
10.9743433829
 30
0.0
 10
11.4176844774
 20
10.971307074
 30
0.0
 10
11.4117861472
 20
10.9683115758
 30
0.0
 10
11.4055718719
 20
10.9653591805
 30
0.0
 10
11.3990463181
 20
10.9624520245
 30
0.0
 10
11.3922143542
 20
10.9595923892
 30
0.0
 10
11.3850811188
 20
10.9567823112
 30
0.0
 10
11.375017203
 20
10.9530459123
 30
0.0
 10
11.3617141344
 20
10.9485287323
 30
0.0
 10
11.3448805442
 20
10.9434200148
 30
0.0
 10
11.3269862602
 20
10.9385572036
 30
0.0
 10
11.3080851932
 20
10.9339551331
 30
0.0
 10
11.2882341199
 20
10.9296278651
 30
0.0
 10
11.2674928608
 20
10.9255886182
 30
0.0
 10
11.2459239671
 20
10.9218497304
 30
0.0
 10
11.2235925471
 20
10.9184226175
 30
0.0
 10
11.2005660493
 20
10.9153177393
 30
0.0
 10
11.1769140521
 20
10.9125445687
 30
0.0
 10
11.152708047
 20
10.9101115632
 30
0.0
 10
11.128021218
 20
10.908026141
 30
0.0
 10
11.1029282164
 20
10.906294659
 30
0.0
 10
11.0775049323
 20
10.9049223933
 30
0.0
 10
11.0518282634
 20
10.9039135238
 30
0.0
 10
11.0259758756
 20
10.9032711218
 30
0.0
 10
11.0000259791
 20
10.9029971466
 30
0.0
 10
10.9740570498
 20
10.9030924248
 30
0.0
 10
10.9481477082
 20
10.9035566817
 30
0.0
 10
10.922376184
 20
10.9043884783
 30
0.0
 10
10.8968206608
 20
10.9055853146
 30
0.0
 10
10.8798721516
 20
10.9066307055
 30
0.0
 10
10.8714480558
 20
10.9072149186
 30
0.0
  0
SPLINE
  5
3E3
100
AcDbEntity
  8
0
100
AcDbSpline
 62
7
  6
CONTINUOUS
 70
0
 71
3
 72
36
 73
32
 74
0
 42
0.0000001
 43
0.0000001
 44
0.0000000001
 40
0.0
 40
0.0
 40
0.0
 40
0.0
 40
0.0132339869
 40
0.0271504772
 40
0.0419327192
 40
0.0577291312
 40
0.0746559617
 40
0.0928017975
 40
0.1122318443
 40
0.1329923348
 40
0.1551140151
 40
0.1786147042
 40
0.203501869
 40
0.2297741059
 40
0.2574224916
 40
0.2864318991
 40
0.3167814817
 40
0.348445592
 40
0.3813943443
 40
0.4155938004
 40
0.4510066793
 40
0.487592469
 40
0.5253076717
 40
0.5641062703
 40
0.6039396532
 40
0.6447569977
 40
0.6865054653
 40
0.72913011
 40
0.8167787462
 40
0.9072323805
 40
1.0
 40
1.0
 40
1.0
 40
1.0
 10
10.5224594268
 20
11.0165593698
 30
0.0
 10
10.5229054037
 20
11.0149558514
 30
0.0
 10
10.5240564457
 20
11.0117281145
 30
0.0
 10
10.5264538038
 20
11.0070172664
 30
0.0
 10
10.5295496474
 20
11.0023425702
 30
0.0
 10
10.5333364576
 20
10.9977102087
 30
0.0
 10
10.5378074816
 20
10.9931244055
 30
0.0
 10
10.5429558256
 20
10.9885903063
 30
0.0
 10
10.548773993
 20
10.9841131829
 30
0.0
 10
10.5552537425
 20
10.9796987563
 30
0.0
 10
10.5623859048
 20
10.9753530067
 30
0.0
 10
10.5701602546
 20
10.9710819446
 30
0.0
 10
10.5785656057
 20
10.9668917366
 30
0.0
 10
10.5875897391
 20
10.9627884873
 30
0.0
 10
10.5972194448
 20
10.9587782053
 30
0.0
 10
10.6074405843
 20
10.9548668966
 30
0.0
 10
10.6182380631
 20
10.9510603553
 30
0.0
 10
10.6295959028
 20
10.9473642722
 30
0.0
 10
10.6414972661
 20
10.9437842213
 30
0.0
 10
10.6539244629
 20
10.9403255241
 30
0.0
 10
10.6668590129
 20
10.9369934
 30
0.0
 10
10.6802816585
 20
10.9337928558
 30
0.0
 10
10.6941723962
 20
10.9307286639
 30
0.0
 10
10.7085105208
 20
10.9278054661
 30
0.0
 10
10.7232746461
 20
10.925027625
 30
0.0
 10
10.7384427381
 20
10.9223993105
 30
0.0
 10
10.7539921805
 20
10.9199244752
 30
0.0
 10
10.775401113
 20
10.9168053867
 30
0.0
 10
10.8029455159
 20
10.9133286734
 30
0.0
 10
10.8368372097
 20
10.9098586557
 30
0.0
 10
10.8598090256
 20
10.9080220881
 30
0.0
 10
10.8714480558
 20
10.9072149186
 30
0.0
  0
SPLINE
  5
3E4
100
AcDbEntity
  8
0
100
AcDbSpline
 62
7
  6
CONTINUOUS
 70
0
 71
3
 72
42
 73
38
 74
0
 42
0.0000001
 43
0.0000001
 44
0.0000000001
 40
0.0
 40
0.0
 40
0.0
 40
0.0
 40
0.0299419644
 40
0.0449235317
 40
0.0599142035
 40
0.0899287023
 40
0.1200139727
 40
0.1350926544
 40
0.1501966973
 40
0.1804840373
 40
0.210897868
 40
0.2414513286
 40
0.2721543342
 40
0.3030133956
 40
0.3340315238
 40
0.3652082165
 40
0.3965395222
 40
0.4280181758
 40
0.459633799
 40
0.4913731572
 40
0.5232204671
 40
0.5551577446
 40
0.5871651885
 40
0.6192215901
 40
0.6513047644
 40
0.683391994
 40
0.715460481
 40
0.7474877999
 40
0.7794523452
 40
0.8113337678
 40
0.8431133918
 40
0.8747746145
 40
0.906303246
 40
0.9376878974
 40
0.9533257627
 40
0.9689252947
 40
1.0
 40
1.0
 40
1.0
 40
1.0
 10
11.7372923496
 20
10.428862254
 30
0.0
 10
11.7407927694
 20
10.4322433985
 30
0.0
 10
11.746249724
 20
10.4371102442
 30
0.0
 10
11.7538920379
 20
10.4431489902
 30
0.0
 10
11.7617777883
 20
10.4488871581
 30
0.0
 10
11.7720673394
 20
10.4554765194
 30
0.0
 10
11.7828572201
 20
10.4612402475
 30
0.0
 10
11.7917560356
 20
10.4653406632
 30
0.0
 10
11.8008387324
 20
10.4691024663
 30
0.0
 10
11.8124913774
 20
10.4731475738
 30
0.0
 10
11.8268515219
 20
10.4769174872
 30
0.0
 10
11.8415250071
 20
10.4795882079
 30
0.0
 10
11.8564305212
 20
10.4811449855
 30
0.0
 10
11.871486183
 20
10.4815795162
 30
0.0
 10
11.8866091522
 20
10.4808895871
 30
0.0
 10
11.901716309
 20
10.4790791839
 30
0.0
 10
11.9167246459
 20
10.4761584317
 30
0.0
 10
11.931551735
 20
10.4721435404
 30
0.0
 10
11.9461161698
 20
10.4670567081
 30
0.0
 10
11.9603380076
 20
10.4609259961
 30
0.0
 10
11.9741392011
 20
10.4537851728
 30
0.0
 10
11.9874440216
 20
10.4456735274
 30
0.0
 10
12.0001794681
 20
10.4366356545
 30
0.0
 10
12.0122756637
 20
10.4267212101
 30
0.0
 10
12.0236662336
 20
10.4159846417
 30
0.0
 10
12.0342886659
 20
10.4044848908
 30
0.0
 10
12.0440846507
 20
10.3922850738
 30
0.0
 10
12.0530003971
 20
10.3794521374
 30
0.0
 10
12.0609869257
 20
10.3660564995
 30
0.0
 10
12.0680003366
 20
10.3521716519
 30
0.0
 10
12.0740020445
 20
10.3378738194
 30
0.0
 10
12.0789590092
 20
10.3232413342
 30
0.0
 10
12.0828438389
 20
10.3083550002
 30
0.0
 10
12.0851728867
 20
10.2957893238
 30
0.0
 10
12.0864794091
 20
10.2856929453
 30
0.0
 10
12.0874118426
 20
10.2756062305
 30
0.0
 10
12.0876941764
 20
10.2680160423
 30
0.0
 10
12.0876941764
 20
10.2629651963
 30
0.0
  0
SPLINE
  5
3E5
100
AcDbEntity
  8
0
100
AcDbSpline
 62
7
  6
CONTINUOUS
 70
0
 71
3
 72
42
 73
38
 74
0
 42
0.0000001
 43
0.0000001
 44
0.0000000001
 40
0.0
 40
0.0
 40
0.0
 40
0.0
 40
0.0299419644
 40
0.0449235317
 40
0.0599142035
 40
0.0899287023
 40
0.1200139727
 40
0.1350926544
 40
0.1501966973
 40
0.1804840373
 40
0.210897868
 40
0.2414513286
 40
0.2721543342
 40
0.3030133956
 40
0.3340315238
 40
0.3652082165
 40
0.3965395222
 40
0.4280181758
 40
0.459633799
 40
0.4913731572
 40
0.5232204671
 40
0.5551577446
 40
0.5871651885
 40
0.6192215901
 40
0.6513047644
 40
0.683391994
 40
0.715460481
 40
0.7474877999
 40
0.7794523452
 40
0.8113337678
 40
0.8431133918
 40
0.8747746145
 40
0.906303246
 40
0.9376878974
 40
0.9533257627
 40
0.9689252947
 40
1.0
 40
1.0
 40
1.0
 40
1.0
 10
11.7372923496
 20
6.0821957782
 30
0.0
 10
11.7407927694
 20
6.0855769227
 30
0.0
 10
11.746249724
 20
6.0904437683
 30
0.0
 10
11.7538920379
 20
6.0964825143
 30
0.0
 10
11.7617777883
 20
6.1022206823
 30
0.0
 10
11.7720673394
 20
6.1088100435
 30
0.0
 10
11.7828572201
 20
6.1145737717
 30
0.0
 10
11.7917560356
 20
6.1186741873
 30
0.0
 10
11.8008387324
 20
6.1224359905
 30
0.0
 10
11.8124913774
 20
6.126481098
 30
0.0
 10
11.8268515219
 20
6.1302510114
 30
0.0
 10
11.8415250071
 20
6.1329217321
 30
0.0
 10
11.8564305212
 20
6.1344785097
 30
0.0
 10
11.871486183
 20
6.1349130403
 30
0.0
 10
11.8866091522
 20
6.1342231113
 30
0.0
 10
11.901716309
 20
6.132412708
 30
0.0
 10
11.9167246459
 20
6.1294919559
 30
0.0
 10
11.931551735
 20
6.1254770646
 30
0.0
 10
11.9461161698
 20
6.1203902322
 30
0.0
 10
11.9603380076
 20
6.1142595202
 30
0.0
 10
11.9741392011
 20
6.1071186969
 30
0.0
 10
11.9874440216
 20
6.0990070516
 30
0.0
 10
12.0001794681
 20
6.0899691786
 30
0.0
 10
12.0122756637
 20
6.0800547343
 30
0.0
 10
12.0236662336
 20
6.0693181658
 30
0.0
 10
12.0342886659
 20
6.057818415
 30
0.0
 10
12.0440846507
 20
6.045618598
 30
0.0
 10
12.0530003971
 20
6.0327856616
 30
0.0
 10
12.0609869257
 20
6.0193900237
 30
0.0
 10
12.0680003366
 20
6.0055051761
 30
0.0
 10
12.0740020445
 20
5.9912073436
 30
0.0
 10
12.0789590092
 20
5.9765748583
 30
0.0
 10
12.0828438389
 20
5.9616885243
 30
0.0
 10
12.0851728867
 20
5.9491228479
 30
0.0
 10
12.0864794091
 20
5.9390264694
 30
0.0
 10
12.0874118426
 20
5.9289397546
 30
0.0
 10
12.0876941764
 20
5.9213495664
 30
0.0
 10
12.0876941764
 20
5.9162987205
 30
0.0
  0
SPLINE
  5
3E6
100
AcDbEntity
  8
0
100
AcDbSpline
 62
7
  6
CONTINUOUS
 70
0
 71
3
 72
23
 73
19
 74
0
 42
0.0000001
 43
0.0000001
 44
0.0000000001
 40
0.0
 40
0.0
 40
0.0
 40
0.0
 40
0.0612826216
 40
0.1228198277
 40
0.1846013176
 40
0.2466131272
 40
0.3088378774
 40
0.3712550642
 40
0.4338413869
 40
0.496571107
 40
0.5594164343
 40
0.6223479341
 40
0.685334952
 40
0.7483460501
 40
0.8113494511
 40
0.8743134863
 40
0.9372070419
 40
1.0
 40
1.0
 40
1.0
 40
1.0
 10
10.7787403879
 20
8.5207039408
 30
0.0
 10
10.7858390339
 20
8.519972442
 30
0.0
 10
10.8000241697
 20
8.5180647813
 30
0.0
 10
10.8211255245
 20
8.5138962675
 30
0.0
 10
10.8420171662
 20
8.5084306644
 30
0.0
 10
10.8626166325
 20
8.5016894806
 30
0.0
 10
10.882843983
 20
8.4936990455
 30
0.0
 10
10.9026203678
 20
8.484490577
 30
0.0
 10
10.9218687998
 20
8.4741000131
 30
0.0
 10
10.9405143262
 20
8.4625678842
 30
0.0
 10
10.9584843508
 20
8.4499391523
 30
0.0
 10
10.9757089059
 20
8.4362630358
 30
0.0
 10
10.9921209213
 20
8.4215928254
 30
0.0
 10
11.0076564977
 20
8.4059856512
 30
0.0
 10
11.022255097
 20
8.389502362
 30
0.0
 10
11.0358599877
 20
8.3722069144
 30
0.0
 10
11.0484176772
 20
8.3541675263
 30
0.0
 10
11.0560672128
 20
8.3416780752
 30
0.0
 10
11.0597012651
 20
8.3353329477
 30
0.0
  0
SPLINE
  5
3E7
100
AcDbEntity
  8
0
100
AcDbSpline
 62
7
  6
CONTINUOUS
 70
0
 71
3
 72
11
 73
7
 74
0
 42
0.0000001
 43
0.0000001
 44
0.0000000001
 40
0.0
 40
0.0
 40
0.0
 40
0.0
 40
0.2521829303
 40
0.5029936262
 40
0.7522931759
 40
1.0
 40
1.0
 40
1.0
 40
1.0
 10
11.0834717558
 20
8.2855735571
 30
0.0
 10
11.0874600358
 20
8.2753119616
 30
0.0
 10
11.09449401
 20
8.2544724536
 30
0.0
 10
11.1021190501
 20
8.2224813598
 30
0.0
 10
11.1067272563
 20
8.1901153397
 30
0.0
 10
11.1077623501
 20
8.1684044431
 30
0.0
 10
11.1077623501
 20
8.1575904614
 30
0.0
  0
SPLINE
  5
3E8
100
AcDbEntity
  8
0
100
AcDbSpline
 62
7
  6
CONTINUOUS
 70
0
 71
3
 72
47
 73
43
 74
0
 42
0.0000001
 43
0.0000001
 44
0.0000000001
 40
0.0
 40
0.0
 40
0.0
 40
0.0
 40
0.0063158967
 40
0.0126706977
 40
0.0191025471
 40
0.0256480963
 40
0.0323419829
 40
0.0392163382
 40
0.053614168
 40
0.0611948929
 40
0.0690566412
 40
0.077217773
 40
0.0856941569
 40
0.0944995551
 40
0.1036456891
 40
0.1131424521
 40
0.122998232
 40
0.1332198706
 40
0.1438129644
 40
0.1547820179
 40
0.1661303832
 40
0.1899727563
 40
0.2153522396
 40
0.2422681077
 40
0.2707104459
 40
0.3006614883
 40
0.3320967939
 40
0.3649861265
 40
0.3992940928
 40
0.4349806571
 40
0.4720016811
 40
0.5103093127
 40
0.5498522596
 40
0.5905760756
 40
0.6324234754
 40
0.6753345639
 40
0.7192469999
 40
0.7640961586
 40
0.8098155359
 40
0.8563366993
 40
0.9035889296
 40
1.0
 40
1.0
 40
1.0
 40
1.0
 10
12.8855332394
 20
8.6640556903
 30
0.0
 10
12.8844016581
 20
8.664134163
 30
0.0
 10
12.8821368717
 20
8.6643842026
 30
0.0
 10
12.8787650685
 20
8.6650359567
 30
0.0
 10
12.8754158126
 20
8.665964414
 30
0.0
 10
12.8720910413
 20
8.6671687672
 30
0.0
 10
12.8687920809
 20
8.6686483892
 30
0.0
 10
12.8643624624
 20
8.6710228855
 30
0.0
 10
12.8600531284
 20
8.6739296226
 30
0.0
 10
12.8558827986
 20
8.6772980887
 30
0.0
 10
12.8527327828
 20
8.6801380984
 30
0.0
 10
12.8496164259
 20
8.6832465153
 30
0.0
 10
12.8465344632
 20
8.6866221919
 30
0.0
 10
12.8434881921
 20
8.6902637042
 30
0.0
 10
12.8404787267
 20
8.6941695641
 30
0.0
 10
12.8375071896
 20
8.6983381529
 30
0.0
 10
12.8345747953
 20
8.7027678196
 30
0.0
 10
12.8316826482
 20
8.7074567391
 30
0.0
 10
12.8288319044
 20
8.7124030109
 30
0.0
 10
12.8260237122
 20
8.717604659
 30
0.0
 10
12.8222758686
 20
8.725000014
 30
0.0
 10
12.8177183065
 20
8.7348819388
 30
0.0
 10
12.8125233054
 20
8.7475342975
 30
0.0
 10
12.8075242878
 20
8.7611486513
 30
0.0
 10
12.8027294525
 20
8.7757027957
 30
0.0
 10
12.7981466536
 20
8.7911732296
 30
0.0
 10
12.7937834703
 20
8.8075347416
 30
0.0
 10
12.7896471499
 20
8.8247606212
 30
0.0
 10
12.785744579
 20
8.8428226607
 30
0.0
 10
12.7820822385
 20
8.8616912199
 30
0.0
 10
12.7786662287
 20
8.8813352975
 30
0.0
 10
12.7755022521
 20
8.9017225934
 30
0.0
 10
12.7725955833
 20
8.9228195525
 30
0.0
 10
12.7699510543
 20
8.9445914253
 30
0.0
 10
12.7675730732
 20
8.9670023406
 30
0.0
 10
12.7654656143
 20
8.9900153679
 30
0.0
 10
12.7636321895
 20
9.0135925594
 30
0.0
 10
12.7620758402
 20
9.0376950465
 30
0.0
 10
12.7607991761
 20
9.0622830697
 30
0.0
 10
12.7598043198
 20
9.0873160536
 30
0.0
 10
12.7588495236
 20
9.1214592953
 30
0.0
 10
12.7585725594
 20
9.1472617586
 30
0.0
 10
12.7585725594
 20
9.1645766367
 30
0.0
  0
SPLINE
  5
3E9
100
AcDbEntity
  8
0
100
AcDbSpline
 62
7
  6
CONTINUOUS
 70
0
 71
3
 72
37
 73
33
 74
0
 42
0.0000001
 43
0.0000001
 44
0.0000000001
 40
0.0
 40
0.0
 40
0.0
 40
0.0
 40
0.0063859225
 40
0.0129184861
 40
0.0265232051
 40
0.0410109936
 40
0.0565340937
 40
0.0732108047
 40
0.091130616
 40
0.1103589627
 40
0.130941804
 40
0.1529094837
 40
0.176279308
 40
0.20105818
 40
0.2272442438
 40
0.2548280955
 40
0.2837942023
 40
0.3141214063
 40
0.3457837346
 40
0.3787510783
 40
0.4129892997
 40
0.4484609326
 40
0.4851253575
 40
0.5229389535
 40
0.5618556139
 40
0.6018266706
 40
0.6428012283
 40
0.6847264057
 40
0.7275472095
 40
0.8156464307
 40
0.9066278626
 40
1.0
 40
1.0
 40
1.0
 40
1.0
 10
12.8601782785
 20
8.8644220634
 30
0.0
 10
12.8594317811
 20
8.864685989
 30
0.0
 10
12.8579405071
 20
8.865274933
 30
0.0
 10
12.8549704011
 20
8.8666915662
 30
0.0
 10
12.8512883542
 20
8.8689230924
 30
0.0
 10
12.8470136759
 20
8.8722521538
 30
0.0
 10
12.8428258472
 20
8.8762612941
 30
0.0
 10
12.838729265
 20
8.8809432786
 30
0.0
 10
12.8347278377
 20
8.8862912883
 30
0.0
 10
12.8308261011
 20
8.89229777
 30
0.0
 10
12.8270288282
 20
8.8989544046
 30
0.0
 10
12.8233411012
 20
8.9062519447
 30
0.0
 10
12.8197679413
 20
8.9141800822
 30
0.0
 10
12.8163144469
 20
8.922727538
 30
0.0
 10
12.8129856347
 20
8.931882032
 30
0.0
 10
12.8097863241
 20
8.9416303011
 30
0.0
 10
12.8067212842
 20
8.9519581708
 30
0.0
 10
12.8037950354
 20
8.9628505455
 30
0.0
 10
12.8010119086
 20
8.9742914616
 30
0.0
 10
12.7983760941
 20
8.9862641219
 30
0.0
 10
12.7958914757
 20
8.9987509075
 30
0.0
 10
12.7935617776
 20
9.0117334274
 30
0.0
 10
12.7913904922
 20
9.0251925419
 30
0.0
 10
12.7893808208
 20
9.0391083919
 30
0.0
 10
12.7875358011
 20
9.0534604346
 30
0.0
 10
12.785858168
 20
9.0682274755
 30
0.0
 10
12.7843504178
 20
9.0833876937
 30
0.0
 10
12.7830148129
 20
9.0989187046
 30
0.0
 10
12.7814514574
 20
9.1202928694
 30
0.0
 10
12.7799532943
 20
9.1477681037
 30
0.0
 10
12.778882827
 20
9.1815346297
 30
0.0
 10
12.7786502402
 20
9.2043931364
 30
0.0
 10
12.7786502402
 20
9.215970189
 30
0.0
  0
SPLINE
  5
3EA
100
AcDbEntity
  8
0
100
AcDbSpline
 62
7
  6
CONTINUOUS
 70
0
 71
3
 72
50
 73
46
 74
0
 42
0.0000001
 43
0.0000001
 44
0.0000000001
 40
0.0
 40
0.0
 40
0.0
 40
0.0
 40
0.0054988989
 40
0.0111936692
 40
0.0171298345
 40
0.0233468656
 40
0.0298784298
 40
0.0367525742
 40
0.0439925084
 40
0.0516169557
 40
0.0596409456
 40
0.0680761789
 40
0.0769315725
 40
0.086213659
 40
0.0959268196
 40
0.1060737474
 40
0.1166554209
 40
0.1276715986
 40
0.1391206615
 40
0.151000043
 40
0.1633060958
 40
0.1760343561
 40
0.1891795426
 40
0.2027356113
 40
0.231052278
 40
0.2609245561
 40
0.2922830307
 40
0.3250507141
 40
0.3591439251
 40
0.3944730314
 40
0.4309430985
 40
0.4684544736
 40
0.5069033239
 40
0.5461821421
 40
0.5861802306
 40
0.6267841683
 40
0.6678782673
 40
0.7093450261
 40
0.75106557
 40
0.7929201118
 40
0.8347883224
 40
0.8765499918
 40
0.9180848236
 40
0.9592744765
 40
1.0
 40
1.0
 40
1.0
 40
1.0
 10
12.925400941
 20
9.8048989858
 30
0.0
 10
12.9242788925
 20
9.8046699566
 30
0.0
 10
12.9220179099
 20
9.804083363
 30
0.0
 10
12.9186636375
 20
9.8028544093
 30
0.0
 10
12.9152983642
 20
9.801265212
 30
0.0
 10
12.9119248252
 20
9.7993179634
 30
0.0
 10
12.9085451169
 20
9.7970145397
 30
0.0
 10
12.905161316
 20
9.7943571528
 30
0.0
 10
12.9017756717
 20
9.7913478795
 30
0.0
 10
12.8983903354
 20
9.7879891478
 30
0.0
 10
12.8950076696
 20
9.7842834417
 30
0.0
 10
12.8916300051
 20
9.7802335603
 30
0.0
 10
12.8882597619
 20
9.7758425124
 30
0.0
 10
12.884899423
 20
9.7711135582
 30
0.0
 10
12.8815514169
 20
9.7660502582
 30
0.0
 10
12.8782183187
 20
9.7606563761
 30
0.0
 10
12.8749025488
 20
9.7549360085
 30
0.0
 10
12.8716067076
 20
9.7488934385
 30
0.0
 10
12.8683332155
 20
9.7425332709
 30
0.0
 10
12.8650846381
 20
9.7358603078
 30
0.0
 10
12.8618634067
 20
9.7288796363
 30
0.0
 10
12.8586720192
 20
9.721596564
 30
0.0
 10
12.8555128899
 20
9.7140166367
 30
0.0
 10
12.8512854247
 20
9.7033666665
 30
0.0
 10
12.8461113084
 20
9.6893470338
 30
0.0
 10
12.8401553748
 20
9.6716725122
 30
0.0
 10
12.8343839894
 20
9.6529646866
 30
0.0
 10
12.8288149519
 20
9.6332807312
 30
0.0
 10
12.8234654561
 20
9.6126806623
 30
0.0
 10
12.8183520072
 20
9.5912274329
 30
0.0
 10
12.8134903768
 20
9.5689866383
 30
0.0
 10
12.808895552
 20
9.5460263287
 30
0.0
 10
12.804581691
 20
9.522416785
 30
0.0
 10
12.8005620798
 20
9.4982302995
 30
0.0
 10
12.7968490927
 20
9.4735409492
 30
0.0
 10
12.7934541549
 20
9.4484243657
 30
0.0
 10
12.7903877062
 20
9.4229574999
 30
0.0
 10
12.7876591721
 20
9.3972183845
 30
0.0
 10
12.7852769326
 20
9.3712858888
 30
0.0
 10
12.7832483039
 20
9.3452394869
 30
0.0
 10
12.7815794986
 20
9.3191589753
 30
0.0
 10
12.7802756461
 20
9.2931243365
 30
0.0
 10
12.779340699
 20
9.2672152169
 30
0.0
 10
12.7787775484
 20
9.2415112245
 30
0.0
 10
12.7786502402
 20
9.2244515655
 30
0.0
 10
12.7786502402
 20
9.215970189
 30
0.0
  0
SPLINE
  5
3EB
100
AcDbEntity
  8
0
100
AcDbSpline
 62
7
  6
CONTINUOUS
 70
0
 71
3
 72
47
 73
43
 74
0
 42
0.0000001
 43
0.0000001
 44
0.0000000001
 40
0.0
 40
0.0
 40
0.0
 40
0.0
 40
0.0063158967
 40
0.0126706977
 40
0.0191025471
 40
0.0256480963
 40
0.0323419829
 40
0.0392163382
 40
0.053614168
 40
0.0611948929
 40
0.0690566412
 40
0.077217773
 40
0.0856941569
 40
0.0944995551
 40
0.1036456891
 40
0.1131424521
 40
0.122998232
 40
0.1332198706
 40
0.1438129644
 40
0.1547820179
 40
0.1661303832
 40
0.1899727563
 40
0.2153522396
 40
0.2422681077
 40
0.2707104459
 40
0.3006614883
 40
0.3320967939
 40
0.3649861265
 40
0.3992940928
 40
0.4349806571
 40
0.4720016811
 40
0.5103093127
 40
0.5498522596
 40
0.5905760756
 40
0.6324234754
 40
0.6753345639
 40
0.7192469999
 40
0.7640961586
 40
0.8098155359
 40
0.8563366993
 40
0.9035889296
 40
1.0
 40
1.0
 40
1.0
 40
1.0
 10
12.8855332394
 20
6.7322039233
 30
0.0
 10
12.8844016581
 20
6.732282396
 30
0.0
 10
12.8821368717
 20
6.7325324355
 30
0.0
 10
12.8787650685
 20
6.7331841896
 30
0.0
 10
12.8754158126
 20
6.7341126469
 30
0.0
 10
12.8720910413
 20
6.7353170001
 30
0.0
 10
12.8687920809
 20
6.7367966221
 30
0.0
 10
12.8643624624
 20
6.7391711184
 30
0.0
 10
12.8600531284
 20
6.7420778556
 30
0.0
 10
12.8558827986
 20
6.7454463217
 30
0.0
 10
12.8527327828
 20
6.7482863313
 30
0.0
 10
12.8496164259
 20
6.7513947483
 30
0.0
 10
12.8465344632
 20
6.7547704249
 30
0.0
 10
12.8434881921
 20
6.7584119372
 30
0.0
 10
12.8404787267
 20
6.762317797
 30
0.0
 10
12.8375071896
 20
6.7664863859
 30
0.0
 10
12.8345747953
 20
6.7709160525
 30
0.0
 10
12.8316826482
 20
6.7756049721
 30
0.0
 10
12.8288319044
 20
6.7805512439
 30
0.0
 10
12.8260237122
 20
6.7857528919
 30
0.0
 10
12.8222758686
 20
6.7931482469
 30
0.0
 10
12.8177183065
 20
6.8030301718
 30
0.0
 10
12.8125233054
 20
6.8156825304
 30
0.0
 10
12.8075242878
 20
6.8292968843
 30
0.0
 10
12.8027294525
 20
6.8438510287
 30
0.0
 10
12.7981466536
 20
6.8593214626
 30
0.0
 10
12.7937834703
 20
6.8756829745
 30
0.0
 10
12.7896471499
 20
6.8929088542
 30
0.0
 10
12.785744579
 20
6.9109708937
 30
0.0
 10
12.7820822385
 20
6.9298394528
 30
0.0
 10
12.7786662287
 20
6.9494835305
 30
0.0
 10
12.7755022521
 20
6.9698708263
 30
0.0
 10
12.7725955833
 20
6.9909677855
 30
0.0
 10
12.7699510543
 20
7.0127396582
 30
0.0
 10
12.7675730732
 20
7.0351505735
 30
0.0
 10
12.7654656143
 20
7.0581636008
 30
0.0
 10
12.7636321895
 20
7.0817407924
 30
0.0
 10
12.7620758402
 20
7.1058432794
 30
0.0
 10
12.7607991761
 20
7.1304313027
 30
0.0
 10
12.7598043198
 20
7.1554642865
 30
0.0
 10
12.7588495236
 20
7.1896075282
 30
0.0
 10
12.7585725594
 20
7.2154099916
 30
0.0
 10
12.7585725594
 20
7.2327248696
 30
0.0
  0
SPLINE
  5
3EC
100
AcDbEntity
  8
0
100
AcDbSpline
 62
7
  6
CONTINUOUS
 70
0
 71
3
 72
37
 73
33
 74
0
 42
0.0000001
 43
0.0000001
 44
0.0000000001
 40
0.0
 40
0.0
 40
0.0
 40
0.0
 40
0.0063859225
 40
0.0129184861
 40
0.0265232051
 40
0.0410109936
 40
0.0565340937
 40
0.0732108047
 40
0.091130616
 40
0.1103589627
 40
0.130941804
 40
0.1529094837
 40
0.176279308
 40
0.20105818
 40
0.2272442438
 40
0.2548280955
 40
0.2837942023
 40
0.3141214063
 40
0.3457837346
 40
0.3787510783
 40
0.4129892997
 40
0.4484609326
 40
0.4851253575
 40
0.5229389535
 40
0.5618556139
 40
0.6018266706
 40
0.6428012283
 40
0.6847264057
 40
0.7275472095
 40
0.8156464307
 40
0.9066278626
 40
1.0
 40
1.0
 40
1.0
 40
1.0
 10
12.8601782785
 20
6.9325702964
 30
0.0
 10
12.8594317811
 20
6.932834222
 30
0.0
 10
12.8579405071
 20
6.9334231659
 30
0.0
 10
12.8549704011
 20
6.9348397992
 30
0.0
 10
12.8512883542
 20
6.9370713253
 30
0.0
 10
12.8470136759
 20
6.9404003868
 30
0.0
 10
12.8428258472
 20
6.9444095271
 30
0.0
 10
12.838729265
 20
6.9490915116
 30
0.0
 10
12.8347278377
 20
6.9544395213
 30
0.0
 10
12.8308261011
 20
6.960446003
 30
0.0
 10
12.8270288282
 20
6.9671026376
 30
0.0
 10
12.8233411012
 20
6.9744001777
 30
0.0
 10
12.8197679413
 20
6.9823283152
 30
0.0
 10
12.8163144469
 20
6.9908757709
 30
0.0
 10
12.8129856347
 20
7.000030265
 30
0.0
 10
12.8097863241
 20
7.0097785341
 30
0.0
 10
12.8067212842
 20
7.0201064038
 30
0.0
 10
12.8037950354
 20
7.0309987784
 30
0.0
 10
12.8010119086
 20
7.0424396946
 30
0.0
 10
12.7983760941
 20
7.0544123548
 30
0.0
 10
12.7958914757
 20
7.0668991404
 30
0.0
 10
12.7935617776
 20
7.0798816603
 30
0.0
 10
12.7913904922
 20
7.0933407749
 30
0.0
 10
12.7893808208
 20
7.1072566249
 30
0.0
 10
12.7875358011
 20
7.1216086675
 30
0.0
 10
12.785858168
 20
7.1363757084
 30
0.0
 10
12.7843504178
 20
7.1515359267
 30
0.0
 10
12.7830148129
 20
7.1670669376
 30
0.0
 10
12.7814514574
 20
7.1884411024
 30
0.0
 10
12.7799532943
 20
7.2159163366
 30
0.0
 10
12.778882827
 20
7.2496828627
 30
0.0
 10
12.7786502402
 20
7.2725413694
 30
0.0
 10
12.7786502402
 20
7.2841184219
 30
0.0
  0
SPLINE
  5
3ED
100
AcDbEntity
  8
0
100
AcDbSpline
 62
7
  6
CONTINUOUS
 70
0
 71
3
 72
50
 73
46
 74
0
 42
0.0000001
 43
0.0000001
 44
0.0000000001
 40
0.0
 40
0.0
 40
0.0
 40
0.0
 40
0.0054988989
 40
0.0111936692
 40
0.0171298345
 40
0.0233468656
 40
0.0298784298
 40
0.0367525742
 40
0.0439925084
 40
0.0516169557
 40
0.0596409456
 40
0.0680761789
 40
0.0769315725
 40
0.086213659
 40
0.0959268196
 40
0.1060737474
 40
0.1166554209
 40
0.1276715986
 40
0.1391206615
 40
0.151000043
 40
0.1633060958
 40
0.1760343561
 40
0.1891795426
 40
0.2027356113
 40
0.231052278
 40
0.2609245561
 40
0.2922830307
 40
0.3250507141
 40
0.3591439251
 40
0.3944730314
 40
0.4309430985
 40
0.4684544736
 40
0.5069033239
 40
0.5461821421
 40
0.5861802306
 40
0.6267841683
 40
0.6678782673
 40
0.7093450261
 40
0.75106557
 40
0.7929201118
 40
0.8347883224
 40
0.8765499918
 40
0.9180848236
 40
0.9592744765
 40
1.0
 40
1.0
 40
1.0
 40
1.0
 10
12.925400941
 20
7.8730472187
 30
0.0
 10
12.9242788925
 20
7.8728181895
 30
0.0
 10
12.9220179099
 20
7.872231596
 30
0.0
 10
12.9186636375
 20
7.8710026423
 30
0.0
 10
12.9152983642
 20
7.869413445
 30
0.0
 10
12.9119248252
 20
7.8674661964
 30
0.0
 10
12.9085451169
 20
7.8651627727
 30
0.0
 10
12.905161316
 20
7.8625053857
 30
0.0
 10
12.9017756717
 20
7.8594961124
 30
0.0
 10
12.8983903354
 20
7.8561373808
 30
0.0
 10
12.8950076696
 20
7.8524316746
 30
0.0
 10
12.8916300051
 20
7.8483817932
 30
0.0
 10
12.8882597619
 20
7.8439907453
 30
0.0
 10
12.884899423
 20
7.8392617911
 30
0.0
 10
12.8815514169
 20
7.8341984912
 30
0.0
 10
12.8782183187
 20
7.828804609
 30
0.0
 10
12.8749025488
 20
7.8230842414
 30
0.0
 10
12.8716067076
 20
7.8170416714
 30
0.0
 10
12.8683332155
 20
7.8106815039
 30
0.0
 10
12.8650846381
 20
7.8040085407
 30
0.0
 10
12.8618634067
 20
7.7970278693
 30
0.0
 10
12.8586720192
 20
7.789744797
 30
0.0
 10
12.8555128899
 20
7.7821648697
 30
0.0
 10
12.8512854247
 20
7.7715148995
 30
0.0
 10
12.8461113084
 20
7.7574952667
 30
0.0
 10
12.8401553748
 20
7.7398207452
 30
0.0
 10
12.8343839894
 20
7.7211129195
 30
0.0
 10
12.8288149519
 20
7.7014289642
 30
0.0
 10
12.8234654561
 20
7.6808288953
 30
0.0
 10
12.8183520072
 20
7.6593756659
 30
0.0
 10
12.8134903768
 20
7.6371348713
 30
0.0
 10
12.808895552
 20
7.6141745616
 30
0.0
 10
12.804581691
 20
7.5905650179
 30
0.0
 10
12.8005620798
 20
7.5663785324
 30
0.0
 10
12.7968490927
 20
7.5416891822
 30
0.0
 10
12.7934541549
 20
7.5165725986
 30
0.0
 10
12.7903877062
 20
7.4911057329
 30
0.0
 10
12.7876591721
 20
7.4653666175
 30
0.0
 10
12.7852769326
 20
7.4394341218
 30
0.0
 10
12.7832483039
 20
7.4133877198
 30
0.0
 10
12.7815794986
 20
7.3873072083
 30
0.0
 10
12.7802756461
 20
7.3612725695
 30
0.0
 10
12.779340699
 20
7.3353634498
 30
0.0
 10
12.7787775484
 20
7.3096594574
 30
0.0
 10
12.7786502402
 20
7.2925997985
 30
0.0
 10
12.7786502402
 20
7.2841184219
 30
0.0
  0
SPLINE
  5
3EE
100
AcDbEntity
  8
0
100
AcDbSpline
 62
7
  6
CONTINUOUS
 70
0
 71
3
 72
53
 73
49
 74
0
 42
0.0000001
 43
0.0000001
 44
0.0000000001
 40
0.0
 40
0.0
 40
0.0
 40
0.0
 40
0.0417740113
 40
0.0840369498
 40
0.1266584959
 40
0.1695064843
 40
0.2124480935
 40
0.2553500426
 40
0.298079237
 40
0.3405032536
 40
0.382490879
 40
0.4239126346
 40
0.4646413116
 40
0.5045525112
 40
0.543525196
 40
0.5814422576
 40
0.6181911067
 40
0.6536642972
 40
0.6877601986
 40
0.720383738
 40
0.7361160079
 40
0.7514479787
 40
0.7663699923
 40
0.7808730391
 40
0.7949486907
 40
0.8085892839
 40
0.8217878242
 40
0.8345382246
 40
0.8468351953
 40
0.858674535
 40
0.8700530305
 40
0.8809687964
 40
0.8914212207
 40
0.9014113515
 40
0.9109419335
 40
0.9200178526
 40
0.9286463131
 40
0.9368373658
 40
0.9446042772
 40
0.9519641672
 40
0.9589385932
 40
0.9655542738
 40
0.9718437889
 40
0.9778461802
 40
0.9836073652
 40
0.9891800467
 40
0.99462308
 40
1.0
 40
1.0
 40
1.0
 40
1.0
 10
13.1051309747
 20
7.5674746132
 30
0.0
 10
13.1051309747
 20
7.5549845104
 30
0.0
 10
13.1049361159
 20
7.5298577268
 30
0.0
 10
13.1040746803
 20
7.4919963109
 30
0.0
 10
13.1026449088
 20
7.4538306975
 30
0.0
 10
13.1006514883
 20
7.4154872244
 30
0.0
 10
13.0981010063
 20
7.377092751
 30
0.0
 10
13.0950018932
 20
7.338774296
 30
0.0
 10
13.0913644153
 20
7.3006586336
 30
0.0
 10
13.0872006307
 20
7.2628718592
 30
0.0
 10
13.0825243541
 20
7.2255389737
 30
0.0
 10
13.07735111
 20
7.1887834655
 30
0.0
 10
13.0716980824
 20
7.1527268981
 30
0.0
 10
13.0655840592
 20
7.117488503
 30
0.0
 10
13.0590293711
 20
7.0831847806
 30
0.0
 10
13.0520558266
 20
7.0499291007
 30
0.0
 10
13.0446866378
 20
7.0178313414
 30
0.0
 10
13.0369463562
 20
6.9869974247
 30
0.0
 10
13.0288607517
 20
6.9575292555
 30
0.0
 10
13.0217744979
 20
6.9339142921
 30
0.0
 10
13.015941482
 20
6.9157870107
 30
0.0
 10
13.011550273
 20
6.9027570545
 30
0.0
 10
13.0070933009
 20
6.8901385562
 30
0.0
 10
13.0025742692
 20
6.8779419138
 30
0.0
 10
12.9979968834
 20
6.8661771993
 30
0.0
 10
12.9933649906
 20
6.8548541006
 30
0.0
 10
12.9886823629
 20
6.843981957
 30
0.0
 10
12.9839529456
 20
6.8335696985
 30
0.0
 10
12.979180571
 20
6.8236259004
 30
0.0
 10
12.9743692577
 20
6.8141586983
 30
0.0
 10
12.9695228826
 20
6.8051758699
 30
0.0
 10
12.9646455075
 20
6.7966847237
 30
0.0
 10
12.9597410323
 20
6.7886922073
 30
0.0
 10
12.9548135203
 20
6.7812047739
 30
0.0
 10
12.9498668605
 20
6.7742285136
 30
0.0
 10
12.9449050595
 20
6.7677690087
 30
0.0
 10
12.9399319409
 20
6.7618314808
 30
0.0
 10
12.9349513729
 20
6.7564206582
 30
0.0
 10
12.929967035
 20
6.7515409292
 30
0.0
 10
12.9249825619
 20
6.7471962643
 30
0.0
 10
12.9200014186
 20
6.7433903611
 30
0.0
 10
12.915026978
 20
6.7401266777
 30
0.0
 10
12.9100625811
 20
6.7374085255
 30
0.0
 10
12.9051116113
 20
6.7352392247
 30
0.0
 10
12.9001778944
 20
6.7336219693
 30
0.0
 10
12.8952654857
 20
6.7325599598
 30
0.0
 10
12.8903803601
 20
6.7320556672
 30
0.0
 10
12.8871370447
 20
6.732092703
 30
0.0
 10
12.8855332394
 20
6.7322039233
 30
0.0
  0
SPLINE
  5
3EF
100
AcDbEntity
  8
0
100
AcDbSpline
 62
7
  6
CONTINUOUS
 70
0
 71
3
 72
22
 73
18
 74
0
 42
0.0000001
 43
0.0000001
 44
0.0000000001
 40
0.0
 40
0.0
 40
0.0
 40
0.0
 40
0.1479959967
 40
0.2203524778
 40
0.2914292763
 40
0.361089891
 40
0.4292025843
 40
0.4956402889
 40
0.5602803085
 40
0.6230054389
 40
0.6837042652
 40
0.742271642
 40
0.7986095381
 40
0.8526278391
 40
0.9042450287
 40
0.9533892776
 40
1.0
 40
1.0
 40
1.0
 40
1.0
 10
11.0980439428
 20
10.9840045788
 30
0.0
 10
11.1097981967
 20
10.9831894185
 30
0.0
 10
11.1272853369
 20
10.9817574741
 30
0.0
 10
11.1503673199
 20
10.9793983446
 30
0.0
 10
11.1672197181
 20
10.9774403775
 30
0.0
 10
11.1837072799
 20
10.9752847516
 30
0.0
 10
11.1997953352
 20
10.9729360171
 30
0.0
 10
11.2154500557
 20
10.9703991587
 30
0.0
 10
11.2306385636
 20
10.9676795209
 30
0.0
 10
11.2453289594
 20
10.96478288
 30
0.0
 10
11.2594904134
 20
10.9617153767
 30
0.0
 10
11.2730932132
 20
10.9584834945
 30
0.0
 10
11.2861088556
 20
10.9550940743
 30
0.0
 10
11.298510092
 20
10.9515543152
 30
0.0
 10
11.3102710639
 20
10.9478716882
 30
0.0
 10
11.3213670564
 20
10.9440540171
 30
0.0
 10
11.3284971679
 20
10.9413517043
 30
0.0
 10
11.3319432901
 20
10.9399752556
 30
0.0
  0
SPLINE
  5
3F0
100
AcDbEntity
  8
0
100
AcDbSpline
 62
7
  6
CONTINUOUS
 70
0
 71
3
 72
37
 73
33
 74
0
 42
0.0000001
 43
0.0000001
 44
0.0000000001
 40
0.0
 40
0.0
 40
0.0
 40
0.0
 40
0.0923528162
 40
0.1823950591
 40
0.2696577926
 40
0.3121057629
 40
0.3536916937
 40
0.3943630853
 40
0.4340691796
 40
0.4727611915
 40
0.5103924014
 40
0.546918264
 40
0.5822967375
 40
0.6164884186
 40
0.6494566998
 40
0.6811681998
 40
0.7115930185
 40
0.7407050205
 40
0.7684824626
 40
0.7949085092
 40
0.8199718259
 40
0.8436676355
 40
0.8659988193
 40
0.886977246
 40
0.9066258007
 40
0.9249807715
 40
0.9420947636
 40
0.958040595
 40
0.9729156975
 40
0.9868466614
 40
0.9935098796
 40
1.0
 40
1.0
 40
1.0
 40
1.0
 10
13.0742213457
 20
9.5014699703
 30
0.0
 10
13.0742213457
 20
9.5175705614
 30
0.0
 10
13.0739037388
 20
9.5493700201
 30
0.0
 10
13.0724425944
 20
9.5963622522
 30
0.0
 10
13.0703979238
 20
9.634622728
 30
0.0
 10
13.068264458
 20
9.664410547
 30
0.0
 10
13.0664410503
 20
9.6860754089
 30
0.0
 10
13.0643823602
 20
9.7072389759
 30
0.0
 10
13.0620912879
 20
9.727871156
 30
0.0
 10
13.0595711495
 20
9.7479425907
 30
0.0
 10
13.0568255735
 20
9.767424735
 30
0.0
 10
13.0538584779
 20
9.7862898848
 30
0.0
 10
13.0506741395
 20
9.8045112339
 30
0.0
 10
13.047277146
 20
9.8220629076
 30
0.0
 10
13.0436723473
 20
9.8389199941
 30
0.0
 10
13.0398649294
 20
9.8550586017
 30
0.0
 10
13.035860371
 20
9.8704558926
 30
0.0
 10
13.031664376
 20
9.8850901062
 30
0.0
 10
13.0272829478
 20
9.8989406229
 30
0.0
 10
13.0227223447
 20
9.9119880007
 30
0.0
 10
13.0179889855
 20
9.9242139882
 30
0.0
 10
13.0130895074
 20
9.935601597
 30
0.0
 10
13.0080307053
 20
9.9461351403
 30
0.0
 10
13.0028193731
 20
9.9558002193
 30
0.0
 10
12.9974623161
 20
9.9645837697
 30
0.0
 10
12.9919661824
 20
9.9724740663
 30
0.0
 10
12.9863373329
 20
9.9794604702
 30
0.0
 10
12.980581328
 20
9.9855334658
 30
0.0
 10
12.9747044149
 20
9.9906834761
 30
0.0
 10
12.9696351083
 20
9.9942506321
 30
0.0
 10
12.9655385116
 20
9.9966038358
 30
0.0
 10
12.9634795428
 20
9.997617849
 30
0.0
 10
12.9624481321
 20
9.9980830634
 30
0.0
  0
SPLINE
  5
3F1
100
AcDbEntity
  8
0
100
AcDbSpline
 62
7
  6
CONTINUOUS
 70
0
 71
3
 72
50
 73
46
 74
0
 42
0.0000001
 43
0.0000001
 44
0.0000000001
 40
0.0
 40
0.0
 40
0.0
 40
0.0
 40
0.0403783563
 40
0.0812119864
 40
0.1223868806
 40
0.1637881302
 40
0.2052998283
 40
0.2468057573
 40
0.2881896897
 40
0.3293358417
 40
0.3701292737
 40
0.4104563095
 40
0.4502049538
 40
0.489265315
 40
0.5275300344
 40
0.5648947251
 40
0.6012584246
 40
0.6365240669
 40
0.6705989824
 40
0.7033954382
 40
0.7348312335
 40
0.7648303759
 40
0.7933238717
 40
0.8069870237
 40
0.8202515696
 40
0.8331113754
 40
0.8455608693
 40
0.857595304
 40
0.8692106282
 40
0.8804037557
 40
0.8911724807
 40
0.9015157578
 40
0.911433681
 40
0.920927784
 40
0.9300011071
 40
0.9386585358
 40
0.9469069855
 40
0.9547558041
 40
0.9622171039
 40
0.9693062508
 40
0.9760423517
 40
0.9824488107
 40
0.9885538934
 40
0.9943911961
 40
1.0
 40
1.0
 40
1.0
 40
1.0
 10
13.0742213457
 20
9.5014699703
 30
0.0
 10
13.0742213457
 20
9.4896090657
 30
0.0
 10
13.074045643
 20
9.4657531847
 30
0.0
 10
13.0732682056
 20
9.4298100354
 30
0.0
 10
13.0719774337
 20
9.3935809453
 30
0.0
 10
13.0701771674
 20
9.3571742143
 30
0.0
 10
13.0678727587
 20
9.3206984833
 30
0.0
 10
13.0650710877
 20
9.2842626767
 30
0.0
 10
13.0617805225
 20
9.2479755716
 30
0.0
 10
13.0580109042
 20
9.2119455075
 30
0.0
 10
13.0537735132
 20
9.1762800489
 30
0.0
 10
13.0490810375
 20
9.141085666
 30
0.0
 10
13.0439475346
 20
9.1064674124
 30
0.0
 10
13.0383883906
 20
9.0725286098
 30
0.0
 10
13.032420275
 20
9.0393705346
 30
0.0
 10
13.0260610918
 20
9.007092112
 30
0.0
 10
13.0193299269
 20
8.9757896131
 30
0.0
 10
13.0122469923
 20
8.9455563629
 30
0.0
 10
13.0048335665
 20
8.916482442
 30
0.0
 10
12.9971119294
 20
8.8886544347
 30
0.0
 10
12.9891052996
 20
8.8621550437
 30
0.0
 10
12.9808377406
 20
8.837063196
 30
0.0
 10
12.9736545575
 20
8.8171186548
 30
0.0
 10
12.9677834573
 20
8.801933906
 30
0.0
 10
12.9633920237
 20
8.7911023589
 30
0.0
 10
12.9589541858
 20
8.7806760952
 30
0.0
 10
12.954473148
 20
8.7706628674
 30
0.0
 10
12.9499523357
 20
8.761070094
 30
0.0
 10
12.9453950448
 20
8.7519049043
 30
0.0
 10
12.9408047342
 20
8.743174063
 30
0.0
 10
12.9361847452
 20
8.7348840407
 30
0.0
 10
12.9315385562
 20
8.7270409265
 30
0.0
 10
12.9268695315
 20
8.7196505077
 30
0.0
 10
12.9221811397
 20
8.7127181783
 30
0.0
 10
12.9174767376
 20
8.7062490227
 30
0.0
 10
12.9127597419
 20
8.7002477302
 30
0.0
 10
12.9080334572
 20
8.6947186773
 30
0.0
 10
12.90330119
 20
8.6896658642
 30
0.0
 10
12.8985661316
 20
8.6850929901
 30
0.0
 10
12.8938314176
 20
8.6810034405
 30
0.0
 10
12.889100063
 20
8.6774003418
 30
0.0
 10
12.8843750637
 20
8.6742866536
 30
0.0
 10
12.8796591686
 20
8.6716651044
 30
0.0
 10
12.8749559715
 20
8.6695386386
 30
0.0
 10
12.8717744405
 20
8.6684332125
 30
0.0
 10
12.8701933483
 20
8.6679699857
 30
0.0
  0
SPLINE
  5
3F2
100
AcDbEntity
  8
0
100
AcDbSpline
 62
7
  6
CONTINUOUS
 70
0
 71
3
 72
52
 73
48
 74
0
 42
0.0000001
 43
0.0000001
 44
0.0000000001
 40
0.0
 40
0.0
 40
0.0
 40
0.0
 40
0.0427960132
 40
0.08610673
 40
0.1297877726
 40
0.1736936845
 40
0.217677755
 40
0.2615930701
 40
0.3052929593
 40
0.3486316832
 40
0.3914650367
 40
0.4336509855
 40
0.4750502997
 40
0.5155272004
 40
0.5549500209
 40
0.5931918907
 40
0.630131454
 40
0.6656536364
 40
0.699650486
 40
0.7320221194
 40
0.7626778258
 40
0.777337222
 40
0.7915384878
 40
0.805273585
 40
0.8185352532
 40
0.8313173227
 40
0.8436146068
 40
0.8554232081
 40
0.8667404992
 40
0.8775654307
 40
0.8878986336
 40
0.8977427509
 40
0.9071027011
 40
0.915986074
 40
0.9244036042
 40
0.9323696833
 40
0.939903085
 40
0.9470276266
 40
0.9537731072
 40
0.9601760141
 40
0.9662803701
 40
0.9721379997
 40
0.9778084882
 40
0.9833580948
 40
0.9888579229
 40
0.9943811629
 40
1.0
 40
1.0
 40
1.0
 40
1.0
 10
13.0232340359
 20
9.452220008
 30
0.0
 10
13.0232340359
 20
9.4430715002
 30
0.0
 10
13.023085892
 20
9.4246641478
 30
0.0
 10
13.0224314394
 20
9.3969260888
 30
0.0
 10
13.021345452
 20
9.3689640807
 30
0.0
 10
13.0198317868
 20
9.340877844
 30
0.0
 10
13.0178958125
 20
9.3127673548
 30
0.0
 10
13.0155444296
 20
9.2847327546
 30
0.0
 10
13.0127860218
 20
9.2568738837
 30
0.0
 10
13.0096304388
 20
9.2292899621
 30
0.0
 10
13.0060889555
 20
9.2020792198
 30
0.0
 10
13.0021742352
 20
9.1753385485
 30
0.0
 10
12.9979002841
 20
9.1491631509
 30
0.0
 10
12.9932824027
 20
9.1236461978
 30
0.0
 10
12.9883371327
 20
9.0988784892
 30
0.0
 10
12.9830821991
 20
9.0749481252
 30
0.0
 10
12.9775364491
 20
9.0519401737
 30
0.0
 10
12.9717197826
 20
9.029936381
 30
0.0
 10
12.9656530899
 20
9.0090147612
 30
0.0
 10
12.959358142
 20
8.9892496364
 30
0.0
 10
12.9538622022
 20
8.9735752238
 30
0.0
 10
12.9493569077
 20
8.9616762339
 30
0.0
 10
12.945985403
 20
8.9532171694
 30
0.0
 10
12.9425739906
 20
8.9450972404
 30
0.0
 10
12.939125619
 20
8.9373236441
 30
0.0
 10
12.9356434209
 20
8.9299032484
 30
0.0
 10
12.9321304397
 20
8.9228426195
 30
0.0
 10
12.9285898348
 20
8.9161479699
 30
0.0
 10
12.925024699
 20
8.9098251973
 30
0.0
 10
12.9214381985
 20
8.9038798346
 30
0.0
 10
12.9178334483
 20
8.898317082
 30
0.0
 10
12.9142135844
 20
8.8931417734
 30
0.0
 10
12.9105817032
 20
8.8883583901
 30
0.0
 10
12.9069408544
 20
8.8839710642
 30
0.0
 10
12.9032940525
 20
8.8799835607
 30
0.0
 10
12.8996441843
 20
8.876399352
 30
0.0
 10
12.8959941019
 20
8.873221556
 30
0.0
 10
12.8923464625
 20
8.8704531304
 30
0.0
 10
12.8887039292
 20
8.8680967494
 30
0.0
 10
12.8850690212
 20
8.8661551563
 30
0.0
 10
12.8814444745
 20
8.8646308999
 30
0.0
 10
12.8778332256
 20
8.8635267565
 30
0.0
 10
12.8742388525
 20
8.8628450889
 30
0.0
 10
12.870665619
 20
8.8625880862
 30
0.0
 10
12.8671182856
 20
8.8627567412
 30
0.0
 10
12.8636025622
 20
8.8633509538
 30
0.0
 10
12.861310724
 20
8.8640216851
 30
0.0
 10
12.8601782785
 20
8.8644220634
 30
0.0
  0
SPLINE
  5
3F3
100
AcDbEntity
  8
0
100
AcDbSpline
 62
7
  6
CONTINUOUS
 70
0
 71
3
 72
32
 73
28
 74
0
 42
0.0000001
 43
0.0000001
 44
0.0000000001
 40
0.0
 40
0.0
 40
0.0
 40
0.0
 40
0.0726772462
 40
0.146480056
 40
0.2208514313
 40
0.2952272721
 40
0.3690438628
 40
0.4417428866
 40
0.5127768962
 40
0.5475034773
 40
0.5816162798
 40
0.6150524364
 40
0.6477507933
 40
0.679652149
 40
0.7106994916
 40
0.7408381408
 40
0.7700159783
 40
0.7981837994
 40
0.825295535
 40
0.8513085248
 40
0.8761839626
 40
0.8998873933
 40
0.9223891572
 40
0.9436650793
 40
0.9636974657
 40
0.9824761628
 40
1.0
 40
1.0
 40
1.0
 40
1.0
 10
12.9134947608
 20
9.4522200017
 30
0.0
 10
12.9134947608
 20
9.439223269
 30
0.0
 10
12.9131765158
 20
9.4130275695
 30
0.0
 10
12.9117841043
 20
9.3735544488
 30
0.0
 10
12.9094827971
 20
9.3338194363
 30
0.0
 10
12.9062911111
 20
9.2941436207
 30
0.0
 10
12.9022349038
 20
9.2548473529
 30
0.0
 10
12.897347067
 20
9.2162481528
 30
0.0
 10
12.8925790003
 20
9.1846891436
 30
0.0
 10
12.8883688602
 20
9.1600321128
 30
0.0
 10
12.8850537358
 20
9.1420447511
 30
0.0
 10
12.8815641812
 20
9.1244600365
 30
0.0
 10
12.8779072339
 20
9.1073134823
 30
0.0
 10
12.8740903215
 20
9.0906397374
 30
0.0
 10
12.870121207
 20
9.0744724697
 30
0.0
 10
12.8660079515
 20
9.0588443217
 30
0.0
 10
12.8617588933
 20
9.0437868377
 30
0.0
 10
12.8573826788
 20
9.029330378
 30
0.0
 10
12.8528882084
 20
9.0155040652
 30
0.0
 10
12.8482846024
 20
9.0023357335
 30
0.0
 10
12.8435812021
 20
8.9898518454
 30
0.0
 10
12.8387875698
 20
8.9780774222
 30
0.0
 10
12.8339134073
 20
8.9670359903
 30
0.0
 10
12.8289685499
 20
8.9567495724
 30
0.0
 10
12.8239628622
 20
8.947238406
 30
0.0
 10
12.818906535
 20
8.9385215132
 30
0.0
 10
12.8153869065
 20
8.9330625189
 30
0.0
 10
12.8136154117
 20
8.9304775195
 30
0.0
  0
SPLINE
  5
3F4
100
AcDbEntity
  8
0
100
AcDbSpline
 62
7
  6
CONTINUOUS
 70
0
 71
3
 72
28
 73
24
 74
0
 42
0.0000001
 43
0.0000001
 44
0.0000000001
 40
0.0
 40
0.0
 40
0.0
 40
0.0
 40
0.0683111491
 40
0.1375919337
 40
0.2074617426
 40
0.2775336054
 40
0.3474201183
 40
0.4167349334
 40
0.4850957737
 40
0.5521271337
 40
0.6174630483
 40
0.6807499198
 40
0.7416494516
 40
0.7711038833
 40
0.7998431903
 40
0.8278308662
 40
0.8550318838
 40
0.8814130993
 40
0.9069431123
 40
0.9315926234
 40
0.9553346029
 40
0.9781443367
 40
1.0
 40
1.0
 40
1.0
 40
1.0
 10
12.863160955
 20
9.4446986615
 30
0.0
 10
12.863160955
 20
9.4346388385
 30
0.0
 10
12.8629508555
 20
9.4143758517
 30
0.0
 10
12.8620276935
 20
9.3838361543
 30
0.0
 10
12.8604990982
 20
9.353061067
 30
0.0
 10
12.8583739962
 20
9.3222320483
 30
0.0
 10
12.8556649319
 20
9.2915308705
 30
0.0
 10
12.8523879068
 20
9.2611384908
 30
0.0
 10
12.8485623391
 20
9.2312340313
 30
0.0
 10
12.8442109218
 20
9.2019937159
 30
0.0
 10
12.8393595123
 20
9.1735897376
 30
0.0
 10
12.834036924
 20
9.146189503
 30
0.0
 10
12.8291829041
 20
9.1240876688
 30
0.0
 10
12.8250774709
 20
9.1070362259
 30
0.0
 10
12.8219351569
 20
9.0947394439
 30
0.0
 10
12.8187001088
 20
9.0828102175
 30
0.0
 10
12.8153770407
 20
9.071266108
 30
0.0
 10
12.8119709288
 20
9.0601241083
 30
0.0
 10
12.8084867811
 20
9.0494006135
 30
0.0
 10
12.8049297627
 20
9.039111397
 30
0.0
 10
12.8013051583
 20
9.0292715415
 30
0.0
 10
12.797618307
 20
9.0198955828
 30
0.0
 10
12.7950672985
 20
9.0138319057
 30
0.0
 10
12.7937802223
 20
9.0108818859
 30
0.0
  0
SPLINE
  5
3F5
100
AcDbEntity
  8
0
100
AcDbSpline
 62
7
  6
CONTINUOUS
 70
0
 71
3
 72
43
 73
39
 74
0
 42
0.0000001
 43
0.0000001
 44
0.0000000001
 40
0.0
 40
0.0
 40
0.0
 40
0.0
 40
0.0993169278
 40
0.1957347666
 40
0.2426552758
 40
0.2886114572
 40
0.33352797
 40
0.37733178
 40
0.4199527168
 40
0.4613235835
 40
0.5013804496
 40
0.5400631058
 40
0.5773152505
 40
0.6130848738
 40
0.6473249081
 40
0.679993648
 40
0.7110553471
 40
0.7404812383
 40
0.7682505534
 40
0.7943517416
 40
0.8187843854
 40
0.8415616366
 40
0.862713155
 40
0.8822893232
 40
0.9003668471
 40
0.917055429
 40
0.9249274689
 40
0.9325129017
 40
0.9398382988
 40
0.9469336696
 40
0.9538325341
 40
0.9605716397
 40
0.9671907286
 40
0.9737319725
 40
0.9802391704
 40
0.9867568896
 40
0.993329449
 40
1.0
 40
1.0
 40
1.0
 40
1.0
 10
13.0232340359
 20
9.452220008
 30
0.0
 10
13.0232340359
 20
9.4650819554
 30
0.0
 10
13.0229475517
 20
9.4904314151
 30
0.0
 10
13.0218367314
 20
9.5218400804
 30
0.0
 10
13.0204930956
 20
9.5463182716
 30
0.0
 10
13.0192759945
 20
9.5641220744
 30
0.0
 10
13.0178427554
 20
9.5815048384
 30
0.0
 10
13.0161959906
 20
9.5984348116
 30
0.0
 10
13.0143387757
 20
9.6148810314
 30
0.0
 10
13.0122745384
 20
9.6308134374
 30
0.0
 10
13.0100070828
 20
9.6462029198
 30
0.0
 10
13.0075406269
 20
9.6610213853
 30
0.0
 10
13.0048797356
 20
9.6752418005
 30
0.0
 10
13.002029307
 20
9.6888382442
 30
0.0
 10
12.9989946292
 20
9.7017859804
 30
0.0
 10
12.9957813169
 20
9.7140615011
 30
0.0
 10
12.9923952663
 20
9.7256425672
 30
0.0
 10
12.9888426985
 20
9.7365082888
 30
0.0
 10
12.9851301153
 20
9.7466391809
 30
0.0
 10
12.9812641979
 20
9.7560171953
 30
0.0
 10
12.9772517917
 20
9.7646257882
 30
0.0
 10
12.9730998235
 20
9.7724500184
 30
0.0
 10
12.9688151645
 20
9.7794764348
 30
0.0
 10
12.9644041261
 20
9.7856933135
 30
0.0
 10
12.9598733017
 20
9.7910895552
 30
0.0
 10
12.955927222
 20
9.7949680459
 30
0.0
 10
12.9527173609
 20
9.7976224216
 30
0.0
 10
12.9503321708
 20
9.7993625027
 30
0.0
 10
12.9479234325
 20
9.8008896411
 30
0.0
 10
12.9454920669
 20
9.8022029019
 30
0.0
 10
12.9430392022
 20
9.803301496
 30
0.0
 10
12.9405659613
 20
9.8041845705
 30
0.0
 10
12.9380736174
 20
9.8048513968
 30
0.0
 10
12.9355635676
 20
9.805301496
 30
0.0
 10
12.9330372827
 20
9.8055344058
 30
0.0
 10
12.9304962507
 20
9.8055499587
 30
0.0
 10
12.9279422065
 20
9.8053483264
 30
0.0
 10
12.9262473521
 20
9.8050717527
 30
0.0
 10
12.925400941
 20
9.8048989858
 30
0.0
  0
SPLINE
  5
3F6
100
AcDbEntity
  8
0
100
AcDbSpline
 62
7
  6
CONTINUOUS
 70
0
 71
3
 72
27
 73
23
 74
0
 42
0.0000001
 43
0.0000001
 44
0.0000000001
 40
0.0
 40
0.0
 40
0.0
 40
0.0
 40
0.0799502134
 40
0.1584976907
 40
0.2354121265
 40
0.3104737841
 40
0.3834678834
 40
0.4541891771
 40
0.5224416645
 40
0.5880402844
 40
0.6508121131
 40
0.7105979402
 40
0.7672540784
 40
0.8206545748
 40
0.8461012644
 40
0.8706963793
 40
0.894430664
 40
0.9172964378
 40
0.9392883304
 40
0.9604028745
 40
0.9806394491
 40
1.0
 40
1.0
 40
1.0
 40
1.0
 10
12.9134947608
 20
9.4522200017
 30
0.0
 10
12.9134947608
 20
9.4601864951
 30
0.0
 10
12.913376986
 20
9.475979992
 30
0.0
 10
12.9128382044
 20
9.4994319491
 30
0.0
 10
12.9119404079
 20
9.5223855494
 30
0.0
 10
12.9106865455
 20
9.5447683162
 30
0.0
 10
12.909080616
 20
9.566509942
 30
0.0
 10
12.9071278006
 20
9.5875419647
 30
0.0
 10
12.9048343589
 20
9.6077982712
 30
0.0
 10
12.9022076574
 20
9.6272152136
 30
0.0
 10
12.8992561218
 20
9.6457318332
 30
0.0
 10
12.8959892346
 20
9.6632901671
 30
0.0
 10
12.8924174368
 20
9.6798351085
 30
0.0
 10
12.8891460309
 20
9.692937818
 30
0.0
 10
12.8863731281
 20
9.7028657111
 30
0.0
 10
12.8842578552
 20
9.7099066262
 30
0.0
 10
12.8820752588
 20
9.7166572195
 30
0.0
 10
12.8798269491
 20
9.7231122158
 30
0.0
 10
12.8775147904
 20
9.7292665853
 30
0.0
 10
12.875140487
 20
9.7351155461
 30
0.0
 10
12.8727060125
 20
9.7406544886
 30
0.0
 10
12.8710065902
 20
9.7442162546
 30
0.0
 10
12.8701456899
 20
9.7459426549
 30
0.0
  0
SPLINE
  5
3F7
100
AcDbEntity
  8
0
100
AcDbSpline
 62
7
  6
CONTINUOUS
 70
0
 71
3
 72
21
 73
17
 74
0
 42
0.0000001
 43
0.0000001
 44
0.0000000001
 40
0.0
 40
0.0
 40
0.0
 40
0.0
 40
0.1462397381
 40
0.288182334
 40
0.3572430238
 40
0.4248730673
 40
0.4909604514
 40
0.5553967456
 40
0.6180776203
 40
0.6789032091
 40
0.7377787761
 40
0.7946149807
 40
0.8493282814
 40
0.9018419127
 40
0.9520863505
 40
1.0
 40
1.0
 40
1.0
 40
1.0
 10
12.863160955
 20
9.4446986615
 30
0.0
 10
12.863160955
 20
9.455726217
 30
0.0
 10
12.862914075
 20
9.4774581663
 30
0.0
 10
12.8619566242
 20
9.5043829044
 30
0.0
 10
12.8607984521
 20
9.5253625135
 30
0.0
 10
12.8597494525
 20
9.540617955
 30
0.0
 10
12.8585142042
 20
9.5555095801
 30
0.0
 10
12.857095007
 20
9.5700099048
 30
0.0
 10
12.8554945286
 20
9.5840921263
 30
0.0
 10
12.8537157353
 20
9.5977302295
 30
0.0
 10
12.8517619745
 20
9.6108990379
 30
0.0
 10
12.8496369087
 20
9.6235742577
 30
0.0
 10
12.847344486
 20
9.6357325053
 30
0.0
 10
12.8448890015
 20
9.6473514319
 30
0.0
 10
12.8422750934
 20
9.658409549
 30
0.0
 10
12.8403844511
 20
9.665567014
 30
0.0
 10
12.8394101954
 20
9.6690462243
 30
0.0
  0
SPLINE
  5
3F8
100
AcDbEntity
  8
0
100
AcDbSpline
 62
7
  6
CONTINUOUS
 70
0
 71
3
 72
50
 73
46
 74
0
 42
0.0000001
 43
0.0000001
 44
0.0000000001
 40
0.0
 40
0.0
 40
0.0
 40
0.0
 40
0.0404550417
 40
0.08134375
 40
0.1225532911
 40
0.1639700508
 40
0.2054794522
 40
0.2469666824
 40
0.2883169726
 40
0.3294160545
 40
0.3701505554
 40
0.4104084158
 40
0.4500793039
 40
0.4890550373
 40
0.527230011
 40
0.5645016374
 40
0.6007708001
 40
0.6359423305
 40
0.6699255138
 40
0.7026346385
 40
0.733989606
 40
0.7639166249
 40
0.7923490273
 40
0.8059865637
 40
0.8192292073
 40
0.8320711515
 40
0.8445072012
 40
0.8565329665
 40
0.8681448158
 40
0.8793400594
 40
0.8901169639
 40
0.9004749306
 40
0.9104145876
 40
0.9199379754
 40
0.9290487363
 40
0.9377523264
 40
0.9460563246
 40
0.9539706967
 40
0.9615082409
 40
0.9686849245
 40
0.9755204527
 40
0.9820386531
 40
0.9882680675
 40
0.9942422305
 40
1.0
 40
1.0
 40
1.0
 40
1.0
 10
11.1670191614
 20
11.1927146999
 30
0.0
 10
11.1552049903
 20
11.1935340154
 30
0.0
 10
11.131437195
 20
11.1950018918
 30
0.0
 10
11.0956002037
 20
11.1966883153
 30
0.0
 10
11.0594612225
 20
11.1978680673
 30
0.0
 10
11.0231275026
 20
11.1985376311
 30
0.0
 10
10.9867066667
 20
11.1986950038
 30
0.0
 10
10.9503066822
 20
11.1983397197
 30
0.0
 10
10.9140354236
 20
11.1974728368
 30
0.0
 10
10.8780003918
 20
11.1960969425
 30
0.0
 10
10.84230838
 20
11.1942161419
 30
0.0
 10
10.807065159
 20
11.1918360481
 30
0.0
 10
10.7723751601
 20
11.1889637654
 30
0.0
 10
10.7383411627
 20
11.1856078692
 30
0.0
 10
10.7050639854
 20
11.1817783814
 30
0.0
 10
10.6726421832
 20
11.1774867422
 30
0.0
 10
10.6411717479
 20
11.172745777
 30
0.0
 10
10.6107458186
 20
11.1675696594
 30
0.0
 10
10.5814543853
 20
11.1619738707
 30
0.0
 10
10.553384041
 20
11.1559751513
 30
0.0
 10
10.5266175908
 20
11.1495914599
 30
0.0
 10
10.5012341798
 20
11.1428418775
 30
0.0
 10
10.4810245863
 20
11.1368489011
 30
0.0
 10
10.4656155536
 20
11.1318731403
 30
0.0
 10
10.4546111901
 20
11.1281143971
 30
0.0
 10
10.4440062958
 20
11.1242796897
 30
0.0
 10
10.4338086865
 20
11.120371776
 30
0.0
 10
10.4240258726
 20
11.1163936036
 30
0.0
 10
10.4146650598
 20
11.1123480743
 30
0.0
 10
10.4057331198
 20
11.1082382059
 30
0.0
 10
10.397236609
 20
11.1040669991
 30
0.0
 10
10.3891817411
 20
11.0998375287
 30
0.0
 10
10.3815743971
 20
11.0955528731
 30
0.0
 10
10.3744201154
 20
11.0912161361
 30
0.0
 10
10.367724081
 20
11.086830444
 30
0.0
 10
10.3614911505
 20
11.0823988899
 30
0.0
 10
10.3557258071
 20
11.0779246041
 30
0.0
 10
10.3504322452
 20
11.0734106164
 30
0.0
 10
10.3456142759
 20
11.0688600029
 30
0.0
 10
10.3412755073
 20
11.0642756796
 30
0.0
 10
10.3374191769
 20
11.059660614
 30
0.0
 10
10.3340484868
 20
11.0550176544
 30
0.0
 10
10.3311662471
 20
11.0503495818
 30
0.0
 10
10.3287756448
 20
11.0456598954
 30
0.0
 10
10.3274904717
 20
11.0424689061
 30
0.0
 10
10.3269367348
 20
11.0408769704
 30
0.0
  0
SPLINE
  5
3F9
100
AcDbEntity
  8
0
100
AcDbSpline
 62
7
  6
CONTINUOUS
 70
0
 71
3
 72
47
 73
43
 74
0
 42
0.0000001
 43
0.0000001
 44
0.0000000001
 40
0.0
 40
0.0
 40
0.0
 40
0.0
 40
0.0958290515
 40
0.1428193718
 40
0.1890977227
 40
0.2345931731
 40
0.2792371079
 40
0.3229628245
 40
0.3657055262
 40
0.4074027067
 40
0.4479943324
 40
0.4874230185
 40
0.5256342588
 40
0.5625767286
 40
0.5982026121
 40
0.6324678821
 40
0.6653326871
 40
0.696761883
 40
0.7267256128
 40
0.7551999429
 40
0.7821677371
 40
0.8076198389
 40
0.8315564791
 40
0.842960485
 40
0.8539910035
 40
0.8646515714
 40
0.8749468716
 40
0.8848826322
 40
0.8944659112
 40
0.9037052388
 40
0.9126106356
 40
0.921193989
 40
0.9294691026
 40
0.9374518776
 40
0.9451606373
 40
0.9598347829
 40
0.9668566474
 40
0.9737035196
 40
0.9804067606
 40
0.9870000135
 40
0.9935187958
 40
1.0
 40
1.0
 40
1.0
 40
1.0
 10
11.1670191614
 20
11.2236243289
 30
0.0
 10
11.1844570055
 20
11.2224150103
 30
0.0
 10
11.2104269817
 20
11.2203231056
 30
0.0
 10
11.2447537626
 20
11.2169407563
 30
0.0
 10
11.269911683
 20
11.214152108
 30
0.0
 10
11.2946077618
 20
11.2110998287
 30
0.0
 10
11.3188006988
 20
11.2077890398
 30
0.0
 10
11.3424500494
 20
11.2042253189
 30
0.0
 10
11.3655162988
 20
11.2004146428
 30
0.0
 10
11.3879608986
 20
11.196363413
 30
0.0
 10
11.4097463656
 20
11.1920784527
 30
0.0
 10
11.4308363265
 20
11.1875669692
 30
0.0
 10
11.4511955775
 20
11.1828365417
 30
0.0
 10
11.4707901594
 20
11.177895121
 30
0.0
 10
11.4895874241
 20
11.1727510291
 30
0.0
 10
11.5075560802
 20
11.1674129151
 30
0.0
 10
11.5246662486
 20
11.1618897353
 30
0.0
 10
11.5408895355
 20
11.1561907559
 30
0.0
 10
11.5561991076
 20
11.1503255292
 30
0.0
 10
11.5705696886
 20
11.1443038494
 30
0.0
 10
11.5839777612
 20
11.1381356716
 30
0.0
 10
11.596401145
 20
11.1318312185
 30
0.0
 10
11.6060672225
 20
11.1263879484
 30
0.0
 10
11.6132773739
 20
11.121964018
 30
0.0
 10
11.6183385247
 20
11.1186722173
 30
0.0
 10
11.6231387107
 20
11.1153542347
 30
0.0
 10
11.627675998
 20
11.1120114392
 30
0.0
 10
11.6319484912
 20
11.1086451483
 30
0.0
 10
11.6359544224
 20
11.1052567038
 30
0.0
 10
11.6396921728
 20
11.1018474915
 30
0.0
 10
11.6431601343
 20
11.0984187953
 30
0.0
 10
11.6463568979
 20
11.0949719551
 30
0.0
 10
11.6492810592
 20
11.091508404
 30
0.0
 10
11.6519314764
 20
11.0880290469
 30
0.0
 10
11.6550469519
 20
11.0834473788
 30
0.0
 10
11.6576827365
 20
11.0787574067
 30
0.0
 10
11.6597710762
 20
11.0739845704
 30
0.0
 10
11.6610355114
 20
11.0704481356
 30
0.0
 10
11.6620198722
 20
11.0669047674
 30
0.0
 10
11.6627235822
 20
11.0633558808
 30
0.0
 10
11.6631459724
 20
11.0598035342
 30
0.0
 10
11.6632399507
 20
11.0574312097
 30
0.0
 10
11.6632399447
 20
11.0562490037
 30
0.0
  0
SPLINE
  5
3FA
100
AcDbEntity
  8
0
100
AcDbSpline
 62
7
  6
CONTINUOUS
 70
0
 71
3
 72
37
 73
33
 74
0
 42
0.0000001
 43
0.0000001
 44
0.0000000001
 40
0.0
 40
0.0
 40
0.0
 40
0.0
 40
0.0923528162
 40
0.1823950591
 40
0.2696577926
 40
0.3121057629
 40
0.3536916937
 40
0.3943630853
 40
0.4340691796
 40
0.4727611915
 40
0.5103924014
 40
0.546918264
 40
0.5822967375
 40
0.6164884186
 40
0.6494566998
 40
0.6811681998
 40
0.7115930185
 40
0.7407050205
 40
0.7684824626
 40
0.7949085092
 40
0.8199718259
 40
0.8436676355
 40
0.8659988193
 40
0.886977246
 40
0.9066258007
 40
0.9249807715
 40
0.9420947636
 40
0.958040595
 40
0.9729156975
 40
0.9868466614
 40
0.9935098796
 40
1.0
 40
1.0
 40
1.0
 40
1.0
 10
13.0742213457
 20
7.5696182032
 30
0.0
 10
13.0742213457
 20
7.5857187944
 30
0.0
 10
13.0739037388
 20
7.617518253
 30
0.0
 10
13.0724425944
 20
7.6645104852
 30
0.0
 10
13.0703979238
 20
7.702770961
 30
0.0
 10
13.068264458
 20
7.7325587799
 30
0.0
 10
13.0664410503
 20
7.7542236419
 30
0.0
 10
13.0643823602
 20
7.7753872088
 30
0.0
 10
13.0620912879
 20
7.7960193889
 30
0.0
 10
13.0595711495
 20
7.8160908236
 30
0.0
 10
13.0568255735
 20
7.8355729679
 30
0.0
 10
13.0538584779
 20
7.8544381177
 30
0.0
 10
13.0506741395
 20
7.8726594668
 30
0.0
 10
13.047277146
 20
7.8902111406
 30
0.0
 10
13.0436723473
 20
7.9070682271
 30
0.0
 10
13.0398649294
 20
7.9232068347
 30
0.0
 10
13.035860371
 20
7.9386041256
 30
0.0
 10
13.031664376
 20
7.9532383392
 30
0.0
 10
13.0272829478
 20
7.9670888559
 30
0.0
 10
13.0227223447
 20
7.9801362337
 30
0.0
 10
13.0179889855
 20
7.9923622212
 30
0.0
 10
13.0130895074
 20
8.00374983
 30
0.0
 10
13.0080307053
 20
8.0142833732
 30
0.0
 10
13.0028193731
 20
8.0239484522
 30
0.0
 10
12.9974623161
 20
8.0327320027
 30
0.0
 10
12.9919661824
 20
8.0406222992
 30
0.0
 10
12.9863373329
 20
8.0476087032
 30
0.0
 10
12.980581328
 20
8.0536816988
 30
0.0
 10
12.9747044149
 20
8.0588317091
 30
0.0
 10
12.9696351083
 20
8.062398865
 30
0.0
 10
12.9655385116
 20
8.0647520688
 30
0.0
 10
12.9634795428
 20
8.0657660819
 30
0.0
 10
12.9624481321
 20
8.0662312964
 30
0.0
  0
SPLINE
  5
3FB
100
AcDbEntity
  8
0
100
AcDbSpline
 62
7
  6
CONTINUOUS
 70
0
 71
3
 72
50
 73
46
 74
0
 42
0.0000001
 43
0.0000001
 44
0.0000000001
 40
0.0
 40
0.0
 40
0.0
 40
0.0
 40
0.0403783563
 40
0.0812119864
 40
0.1223868806
 40
0.1637881302
 40
0.2052998283
 40
0.2468057573
 40
0.2881896897
 40
0.3293358417
 40
0.3701292737
 40
0.4104563095
 40
0.4502049538
 40
0.489265315
 40
0.5275300344
 40
0.5648947251
 40
0.6012584246
 40
0.6365240669
 40
0.6705989824
 40
0.7033954382
 40
0.7348312335
 40
0.7648303759
 40
0.7933238717
 40
0.8069870237
 40
0.8202515696
 40
0.8331113754
 40
0.8455608693
 40
0.857595304
 40
0.8692106282
 40
0.8804037557
 40
0.8911724807
 40
0.9015157578
 40
0.911433681
 40
0.920927784
 40
0.9300011071
 40
0.9386585358
 40
0.9469069855
 40
0.9547558041
 40
0.9622171039
 40
0.9693062508
 40
0.9760423517
 40
0.9824488107
 40
0.9885538934
 40
0.9943911961
 40
1.0
 40
1.0
 40
1.0
 40
1.0
 10
13.0742213457
 20
7.5696182032
 30
0.0
 10
13.0742213457
 20
7.5577572986
 30
0.0
 10
13.074045643
 20
7.5339014176
 30
0.0
 10
13.0732682056
 20
7.4979582684
 30
0.0
 10
13.0719774337
 20
7.4617291783
 30
0.0
 10
13.0701771674
 20
7.4253224472
 30
0.0
 10
13.0678727587
 20
7.3888467162
 30
0.0
 10
13.0650710877
 20
7.3524109097
 30
0.0
 10
13.0617805225
 20
7.3161238045
 30
0.0
 10
13.0580109042
 20
7.2800937404
 30
0.0
 10
13.0537735132
 20
7.2444282819
 30
0.0
 10
13.0490810375
 20
7.2092338989
 30
0.0
 10
13.0439475346
 20
7.1746156454
 30
0.0
 10
13.0383883906
 20
7.1406768427
 30
0.0
 10
13.032420275
 20
7.1075187676
 30
0.0
 10
13.0260610918
 20
7.0752403449
 30
0.0
 10
13.0193299269
 20
7.0439378461
 30
0.0
 10
13.0122469923
 20
7.0137045959
 30
0.0
 10
13.0048335665
 20
6.9846306749
 30
0.0
 10
12.9971119294
 20
6.9568026677
 30
0.0
 10
12.9891052996
 20
6.9303032767
 30
0.0
 10
12.9808377406
 20
6.9052114289
 30
0.0
 10
12.9736545575
 20
6.8852668877
 30
0.0
 10
12.9677834573
 20
6.8700821389
 30
0.0
 10
12.9633920237
 20
6.8592505919
 30
0.0
 10
12.9589541858
 20
6.8488243282
 30
0.0
 10
12.954473148
 20
6.8388111003
 30
0.0
 10
12.9499523357
 20
6.829218327
 30
0.0
 10
12.9453950448
 20
6.8200531373
 30
0.0
 10
12.9408047342
 20
6.811322296
 30
0.0
 10
12.9361847452
 20
6.8030322737
 30
0.0
 10
12.9315385562
 20
6.7951891595
 30
0.0
 10
12.9268695315
 20
6.7877987407
 30
0.0
 10
12.9221811397
 20
6.7808664112
 30
0.0
 10
12.9174767376
 20
6.7743972556
 30
0.0
 10
12.9127597419
 20
6.7683959631
 30
0.0
 10
12.9080334572
 20
6.7628669103
 30
0.0
 10
12.90330119
 20
6.7578140971
 30
0.0
 10
12.8985661316
 20
6.7532412231
 30
0.0
 10
12.8938314176
 20
6.7491516735
 30
0.0
 10
12.889100063
 20
6.7455485747
 30
0.0
 10
12.8843750637
 20
6.7424348866
 30
0.0
 10
12.8796591686
 20
6.7398133374
 30
0.0
 10
12.8749559715
 20
6.7376868716
 30
0.0
 10
12.8717744405
 20
6.7365814455
 30
0.0
 10
12.8701933483
 20
6.7361182186
 30
0.0
  0
SPLINE
  5
3FC
100
AcDbEntity
  8
0
100
AcDbSpline
 62
7
  6
CONTINUOUS
 70
0
 71
3
 72
52
 73
48
 74
0
 42
0.0000001
 43
0.0000001
 44
0.0000000001
 40
0.0
 40
0.0
 40
0.0
 40
0.0
 40
0.0427960132
 40
0.08610673
 40
0.1297877726
 40
0.1736936845
 40
0.217677755
 40
0.2615930701
 40
0.3052929593
 40
0.3486316832
 40
0.3914650367
 40
0.4336509855
 40
0.4750502997
 40
0.5155272004
 40
0.5549500209
 40
0.5931918907
 40
0.630131454
 40
0.6656536364
 40
0.699650486
 40
0.7320221194
 40
0.7626778258
 40
0.777337222
 40
0.7915384878
 40
0.805273585
 40
0.8185352532
 40
0.8313173227
 40
0.8436146068
 40
0.8554232081
 40
0.8667404992
 40
0.8775654307
 40
0.8878986336
 40
0.8977427509
 40
0.9071027011
 40
0.915986074
 40
0.9244036042
 40
0.9323696833
 40
0.939903085
 40
0.9470276266
 40
0.9537731072
 40
0.9601760141
 40
0.9662803701
 40
0.9721379997
 40
0.9778084882
 40
0.9833580948
 40
0.9888579229
 40
0.9943811629
 40
1.0
 40
1.0
 40
1.0
 40
1.0
 10
13.0232340359
 20
7.520368241
 30
0.0
 10
13.0232340359
 20
7.5112197332
 30
0.0
 10
13.023085892
 20
7.4928123808
 30
0.0
 10
13.0224314394
 20
7.4650743218
 30
0.0
 10
13.021345452
 20
7.4371123137
 30
0.0
 10
13.0198317868
 20
7.409026077
 30
0.0
 10
13.0178958125
 20
7.3809155877
 30
0.0
 10
13.0155444296
 20
7.3528809875
 30
0.0
 10
13.0127860218
 20
7.3250221167
 30
0.0
 10
13.0096304388
 20
7.297438195
 30
0.0
 10
13.0060889555
 20
7.2702274528
 30
0.0
 10
13.0021742352
 20
7.2434867814
 30
0.0
 10
12.9979002841
 20
7.2173113839
 30
0.0
 10
12.9932824027
 20
7.1917944308
 30
0.0
 10
12.9883371327
 20
7.1670267221
 30
0.0
 10
12.9830821991
 20
7.1430963581
 30
0.0
 10
12.9775364491
 20
7.1200884067
 30
0.0
 10
12.9717197826
 20
7.098084614
 30
0.0
 10
12.9656530899
 20
7.0771629942
 30
0.0
 10
12.959358142
 20
7.0573978693
 30
0.0
 10
12.9538622022
 20
7.0417234567
 30
0.0
 10
12.9493569077
 20
7.0298244669
 30
0.0
 10
12.945985403
 20
7.0213654023
 30
0.0
 10
12.9425739906
 20
7.0132454734
 30
0.0
 10
12.939125619
 20
7.0054718771
 30
0.0
 10
12.9356434209
 20
6.9980514813
 30
0.0
 10
12.9321304397
 20
6.9909908525
 30
0.0
 10
12.9285898348
 20
6.9842962029
 30
0.0
 10
12.925024699
 20
6.9779734302
 30
0.0
 10
12.9214381985
 20
6.9720280676
 30
0.0
 10
12.9178334483
 20
6.9664653149
 30
0.0
 10
12.9142135844
 20
6.9612900064
 30
0.0
 10
12.9105817032
 20
6.9565066231
 30
0.0
 10
12.9069408544
 20
6.9521192971
 30
0.0
 10
12.9032940525
 20
6.9481317937
 30
0.0
 10
12.8996441843
 20
6.944547585
 30
0.0
 10
12.8959941019
 20
6.941369789
 30
0.0
 10
12.8923464625
 20
6.9386013633
 30
0.0
 10
12.8887039292
 20
6.9362449823
 30
0.0
 10
12.8850690212
 20
6.9343033892
 30
0.0
 10
12.8814444745
 20
6.9327791329
 30
0.0
 10
12.8778332256
 20
6.9316749895
 30
0.0
 10
12.8742388525
 20
6.9309933218
 30
0.0
 10
12.870665619
 20
6.9307363191
 30
0.0
 10
12.8671182856
 20
6.9309049741
 30
0.0
 10
12.8636025622
 20
6.9314991867
 30
0.0
 10
12.861310724
 20
6.9321699181
 30
0.0
 10
12.8601782785
 20
6.9325702964
 30
0.0
  0
SPLINE
  5
3FD
100
AcDbEntity
  8
0
100
AcDbSpline
 62
7
  6
CONTINUOUS
 70
0
 71
3
 72
32
 73
28
 74
0
 42
0.0000001
 43
0.0000001
 44
0.0000000001
 40
0.0
 40
0.0
 40
0.0
 40
0.0
 40
0.0726772462
 40
0.146480056
 40
0.2208514313
 40
0.2952272721
 40
0.3690438628
 40
0.4417428866
 40
0.5127768962
 40
0.5475034773
 40
0.5816162798
 40
0.6150524364
 40
0.6477507933
 40
0.679652149
 40
0.7106994916
 40
0.7408381408
 40
0.7700159783
 40
0.7981837994
 40
0.825295535
 40
0.8513085248
 40
0.8761839626
 40
0.8998873933
 40
0.9223891572
 40
0.9436650793
 40
0.9636974657
 40
0.9824761628
 40
1.0
 40
1.0
 40
1.0
 40
1.0
 10
12.9134947608
 20
7.5203682347
 30
0.0
 10
12.9134947608
 20
7.507371502
 30
0.0
 10
12.9131765158
 20
7.4811758025
 30
0.0
 10
12.9117841043
 20
7.4417026817
 30
0.0
 10
12.9094827971
 20
7.4019676692
 30
0.0
 10
12.9062911111
 20
7.3622918536
 30
0.0
 10
12.9022349038
 20
7.3229955858
 30
0.0
 10
12.897347067
 20
7.2843963857
 30
0.0
 10
12.8925790003
 20
7.2528373765
 30
0.0
 10
12.8883688602
 20
7.2281803457
 30
0.0
 10
12.8850537358
 20
7.2101929841
 30
0.0
 10
12.8815641812
 20
7.1926082695
 30
0.0
 10
12.8779072339
 20
7.1754617152
 30
0.0
 10
12.8740903215
 20
7.1587879704
 30
0.0
 10
12.870121207
 20
7.1426207027
 30
0.0
 10
12.8660079515
 20
7.1269925547
 30
0.0
 10
12.8617588933
 20
7.1119350706
 30
0.0
 10
12.8573826788
 20
7.097478611
 30
0.0
 10
12.8528882084
 20
7.0836522982
 30
0.0
 10
12.8482846024
 20
7.0704839664
 30
0.0
 10
12.8435812021
 20
7.0580000784
 30
0.0
 10
12.8387875698
 20
7.0462256552
 30
0.0
 10
12.8339134073
 20
7.0351842232
 30
0.0
 10
12.8289685499
 20
7.0248978053
 30
0.0
 10
12.8239628622
 20
7.0153866389
 30
0.0
 10
12.818906535
 20
7.0066697462
 30
0.0
 10
12.8153869065
 20
7.0012107518
 30
0.0
 10
12.8136154117
 20
6.9986257524
 30
0.0
  0
SPLINE
  5
3FE
100
AcDbEntity
  8
0
100
AcDbSpline
 62
7
  6
CONTINUOUS
 70
0
 71
3
 72
28
 73
24
 74
0
 42
0.0000001
 43
0.0000001
 44
0.0000000001
 40
0.0
 40
0.0
 40
0.0
 40
0.0
 40
0.0683111491
 40
0.1375919337
 40
0.2074617426
 40
0.2775336054
 40
0.3474201183
 40
0.4167349334
 40
0.4850957737
 40
0.5521271337
 40
0.6174630483
 40
0.6807499198
 40
0.7416494516
 40
0.7711038833
 40
0.7998431903
 40
0.8278308662
 40
0.8550318838
 40
0.8814130993
 40
0.9069431123
 40
0.9315926234
 40
0.9553346029
 40
0.9781443367
 40
1.0
 40
1.0
 40
1.0
 40
1.0
 10
12.863160955
 20
7.5128468944
 30
0.0
 10
12.863160955
 20
7.5027870715
 30
0.0
 10
12.8629508555
 20
7.4825240847
 30
0.0
 10
12.8620276935
 20
7.4519843873
 30
0.0
 10
12.8604990982
 20
7.4212093
 30
0.0
 10
12.8583739962
 20
7.3903802812
 30
0.0
 10
12.8556649319
 20
7.3596791035
 30
0.0
 10
12.8523879068
 20
7.3292867238
 30
0.0
 10
12.8485623391
 20
7.2993822642
 30
0.0
 10
12.8442109218
 20
7.2701419488
 30
0.0
 10
12.8393595123
 20
7.2417379706
 30
0.0
 10
12.834036924
 20
7.214337736
 30
0.0
 10
12.8291829041
 20
7.1922359017
 30
0.0
 10
12.8250774709
 20
7.1751844589
 30
0.0
 10
12.8219351569
 20
7.1628876769
 30
0.0
 10
12.8187001088
 20
7.1509584505
 30
0.0
 10
12.8153770407
 20
7.139414341
 30
0.0
 10
12.8119709288
 20
7.1282723412
 30
0.0
 10
12.8084867811
 20
7.1175488465
 30
0.0
 10
12.8049297627
 20
7.10725963
 30
0.0
 10
12.8013051583
 20
7.0974197745
 30
0.0
 10
12.797618307
 20
7.0880438157
 30
0.0
 10
12.7950672985
 20
7.0819801387
 30
0.0
 10
12.7937802223
 20
7.0790301189
 30
0.0
  0
SPLINE
  5
3FF
100
AcDbEntity
  8
0
100
AcDbSpline
 62
7
  6
CONTINUOUS
 70
0
 71
3
 72
43
 73
39
 74
0
 42
0.0000001
 43
0.0000001
 44
0.0000000001
 40
0.0
 40
0.0
 40
0.0
 40
0.0
 40
0.0993169278
 40
0.1957347666
 40
0.2426552758
 40
0.2886114572
 40
0.33352797
 40
0.37733178
 40
0.4199527168
 40
0.4613235835
 40
0.5013804496
 40
0.5400631058
 40
0.5773152505
 40
0.6130848738
 40
0.6473249081
 40
0.679993648
 40
0.7110553471
 40
0.7404812383
 40
0.7682505534
 40
0.7943517416
 40
0.8187843854
 40
0.8415616366
 40
0.862713155
 40
0.8822893232
 40
0.9003668471
 40
0.917055429
 40
0.9249274689
 40
0.9325129017
 40
0.9398382988
 40
0.9469336696
 40
0.9538325341
 40
0.9605716397
 40
0.9671907286
 40
0.9737319725
 40
0.9802391704
 40
0.9867568896
 40
0.993329449
 40
1.0
 40
1.0
 40
1.0
 40
1.0
 10
13.0232340359
 20
7.520368241
 30
0.0
 10
13.0232340359
 20
7.5332301884
 30
0.0
 10
13.0229475517
 20
7.5585796481
 30
0.0
 10
13.0218367314
 20
7.5899883133
 30
0.0
 10
13.0204930956
 20
7.6144665046
 30
0.0
 10
13.0192759945
 20
7.6322703074
 30
0.0
 10
13.0178427554
 20
7.6496530714
 30
0.0
 10
13.0161959906
 20
7.6665830445
 30
0.0
 10
13.0143387757
 20
7.6830292644
 30
0.0
 10
13.0122745384
 20
7.6989616704
 30
0.0
 10
13.0100070828
 20
7.7143511527
 30
0.0
 10
13.0075406269
 20
7.7291696183
 30
0.0
 10
13.0048797356
 20
7.7433900335
 30
0.0
 10
13.002029307
 20
7.7569864771
 30
0.0
 10
12.9989946292
 20
7.7699342133
 30
0.0
 10
12.9957813169
 20
7.7822097341
 30
0.0
 10
12.9923952663
 20
7.7937908002
 30
0.0
 10
12.9888426985
 20
7.8046565218
 30
0.0
 10
12.9851301153
 20
7.8147874138
 30
0.0
 10
12.9812641979
 20
7.8241654283
 30
0.0
 10
12.9772517917
 20
7.8327740212
 30
0.0
 10
12.9730998235
 20
7.8405982513
 30
0.0
 10
12.9688151645
 20
7.8476246678
 30
0.0
 10
12.9644041261
 20
7.8538415465
 30
0.0
 10
12.9598733017
 20
7.8592377881
 30
0.0
 10
12.955927222
 20
7.8631162788
 30
0.0
 10
12.9527173609
 20
7.8657706545
 30
0.0
 10
12.9503321708
 20
7.8675107357
 30
0.0
 10
12.9479234325
 20
7.8690378741
 30
0.0
 10
12.9454920669
 20
7.8703511348
 30
0.0
 10
12.9430392022
 20
7.8714497289
 30
0.0
 10
12.9405659613
 20
7.8723328034
 30
0.0
 10
12.9380736174
 20
7.8729996298
 30
0.0
 10
12.9355635676
 20
7.873449729
 30
0.0
 10
12.9330372827
 20
7.8736826388
 30
0.0
 10
12.9304962507
 20
7.8736981917
 30
0.0
 10
12.9279422065
 20
7.8734965594
 30
0.0
 10
12.9262473521
 20
7.8732199857
 30
0.0
 10
12.925400941
 20
7.8730472187
 30
0.0
  0
SPLINE
  5
400
100
AcDbEntity
  8
0
100
AcDbSpline
 62
7
  6
CONTINUOUS
 70
0
 71
3
 72
27
 73
23
 74
0
 42
0.0000001
 43
0.0000001
 44
0.0000000001
 40
0.0
 40
0.0
 40
0.0
 40
0.0
 40
0.0799502134
 40
0.1584976907
 40
0.2354121265
 40
0.3104737841
 40
0.3834678834
 40
0.4541891771
 40
0.5224416645
 40
0.5880402844
 40
0.6508121131
 40
0.7105979402
 40
0.7672540784
 40
0.8206545748
 40
0.8461012644
 40
0.8706963793
 40
0.894430664
 40
0.9172964378
 40
0.9392883304
 40
0.9604028745
 40
0.9806394491
 40
1.0
 40
1.0
 40
1.0
 40
1.0
 10
12.9134947608
 20
7.5203682347
 30
0.0
 10
12.9134947608
 20
7.528334728
 30
0.0
 10
12.913376986
 20
7.544128225
 30
0.0
 10
12.9128382044
 20
7.567580182
 30
0.0
 10
12.9119404079
 20
7.5905337823
 30
0.0
 10
12.9106865455
 20
7.6129165491
 30
0.0
 10
12.909080616
 20
7.6346581749
 30
0.0
 10
12.9071278006
 20
7.6556901977
 30
0.0
 10
12.9048343589
 20
7.6759465042
 30
0.0
 10
12.9022076574
 20
7.6953634465
 30
0.0
 10
12.8992561218
 20
7.7138800662
 30
0.0
 10
12.8959892346
 20
7.7314384001
 30
0.0
 10
12.8924174368
 20
7.7479833414
 30
0.0
 10
12.8891460309
 20
7.7610860509
 30
0.0
 10
12.8863731281
 20
7.7710139441
 30
0.0
 10
12.8842578552
 20
7.7780548592
 30
0.0
 10
12.8820752588
 20
7.7848054525
 30
0.0
 10
12.8798269491
 20
7.7912604488
 30
0.0
 10
12.8775147904
 20
7.7974148183
 30
0.0
 10
12.875140487
 20
7.803263779
 30
0.0
 10
12.8727060125
 20
7.8088027215
 30
0.0
 10
12.8710065902
 20
7.8123644875
 30
0.0
 10
12.8701456899
 20
7.8140908878
 30
0.0
  0
SPLINE
  5
401
100
AcDbEntity
  8
0
100
AcDbSpline
 62
7
  6
CONTINUOUS
 70
0
 71
3
 72
21
 73
17
 74
0
 42
0.0000001
 43
0.0000001
 44
0.0000000001
 40
0.0
 40
0.0
 40
0.0
 40
0.0
 40
0.1462397381
 40
0.288182334
 40
0.3572430238
 40
0.4248730673
 40
0.4909604514
 40
0.5553967456
 40
0.6180776203
 40
0.6789032091
 40
0.7377787761
 40
0.7946149807
 40
0.8493282814
 40
0.9018419127
 40
0.9520863505
 40
1.0
 40
1.0
 40
1.0
 40
1.0
 10
12.863160955
 20
7.5128468944
 30
0.0
 10
12.863160955
 20
7.5238744499
 30
0.0
 10
12.862914075
 20
7.5456063993
 30
0.0
 10
12.8619566242
 20
7.5725311373
 30
0.0
 10
12.8607984521
 20
7.5935107465
 30
0.0
 10
12.8597494525
 20
7.608766188
 30
0.0
 10
12.8585142042
 20
7.6236578131
 30
0.0
 10
12.857095007
 20
7.6381581377
 30
0.0
 10
12.8554945286
 20
7.6522403592
 30
0.0
 10
12.8537157353
 20
7.6658784625
 30
0.0
 10
12.8517619745
 20
7.6790472709
 30
0.0
 10
12.8496369087
 20
7.6917224907
 30
0.0
 10
12.847344486
 20
7.7038807383
 30
0.0
 10
12.8448890015
 20
7.7154996648
 30
0.0
 10
12.8422750934
 20
7.726557782
 30
0.0
 10
12.8403844511
 20
7.733715247
 30
0.0
 10
12.8394101954
 20
7.7371944572
 30
0.0
  0
SPLINE
  5
402
100
AcDbEntity
  8
0
100
AcDbSpline
 62
7
  6
CONTINUOUS
 70
0
 71
3
 72
38
 73
34
 74
0
 42
0.0000001
 43
0.0000001
 44
0.0000000001
 40
0.0
 40
0.0
 40
0.0
 40
0.0
 40
0.0920037172
 40
0.1817530062
 40
0.2256343826
 40
0.2687755676
 40
0.3111204836
 40
0.3526144488
 40
0.3932044611
 40
0.4328392919
 40
0.4714697066
 40
0.5090486181
 40
0.5455311726
 40
0.5808750511
 40
0.615040695
 40
0.6479914352
 40
0.6796938791
 40
0.7101182897
 40
0.7392388435
 40
0.7670341968
 40
0.7934881633
 40
0.8185902919
 40
0.8423368504
 40
0.8647321184
 40
0.885789718
 40
0.905534552
 40
0.9240053671
 40
0.9412576296
 40
0.9573672014
 40
0.9724346676
 40
0.9865894778
 40
0.9933770644
 40
1.0
 40
1.0
 40
1.0
 40
1.0
 10
11.1670191614
 20
11.1927146999
 30
0.0
 10
11.1832770819
 20
11.1915872092
 30
0.0
 10
11.2153724552
 20
11.1890259804
 30
0.0
 10
11.255137629
 20
11.184974154
 30
0.0
 10
11.2862288602
 20
11.1812547718
 30
0.0
 10
11.308948283
 20
11.1782600851
 30
0.0
 10
11.3312102116
 20
11.1750438308
 30
0.0
 10
11.3529823986
 20
11.1716106741
 30
0.0
 10
11.3742332576
 20
11.1679656395
 30
0.0
 10
11.3949319697
 20
11.1641140185
 30
0.0
 10
11.4150485307
 20
11.1600614343
 30
0.0
 10
11.4345537913
 20
11.1558138139
 30
0.0
 10
11.4534194901
 20
11.1513773315
 30
0.0
 10
11.4716183123
 20
11.1467584575
 30
0.0
 10
11.4891239328
 20
11.1419639499
 30
0.0
 10
11.5059110391
 20
11.1370007801
 30
0.0
 10
11.521955388
 20
11.1318761723
 30
0.0
 10
11.537233856
 20
11.1265976137
 30
0.0
 10
11.5517244513
 20
11.121172762
 30
0.0
 10
11.565406368
 20
11.1156094658
 30
0.0
 10
11.5782600488
 20
11.1099157914
 30
0.0
 10
11.5902671853
 20
11.1040999031
 30
0.0
 10
11.6014107614
 20
11.0981700471
 30
0.0
 10
11.6116751296
 20
11.0921345761
 30
0.0
 10
11.6210459805
 20
11.0860017729
 30
0.0
 10
11.6295103238
 20
11.07977977
 30
0.0
 10
11.6370565305
 20
11.0734764867
 30
0.0
 10
11.6436740718
 20
11.0670995237
 30
0.0
 10
11.6493533919
 20
11.0606555682
 30
0.0
 10
11.6540849437
 20
11.0541521408
 30
0.0
 10
11.6572746073
 20
11.0486106067
 30
0.0
 10
11.6593151651
 20
11.0441718252
 30
0.0
 10
11.6601695972
 20
11.0419531799
 30
0.0
 10
11.660554305
 20
11.0408449059
 30
0.0
  0
SPLINE
  5
403
100
AcDbEntity
  8
0
100
AcDbSpline
 62
7
  6
CONTINUOUS
 70
0
 71
3
 72
19
 73
15
 74
0
 42
0.0000001
 43
0.0000001
 44
0.0000000001
 40
0.0
 40
0.0
 40
0.0
 40
0.0
 40
0.12732766
 40
0.2538196711
 40
0.3795264658
 40
0.5045235362
 40
0.5668075958
 40
0.6289556124
 40
0.6909843715
 40
0.7529118454
 40
0.8147570127
 40
0.8765397119
 40
0.9382804145
 40
1.0
 40
1.0
 40
1.0
 40
1.0
 10
11.6800734536
 20
10.2912337895
 30
0.0
 10
11.6800734536
 20
10.2977321694
 30
0.0
 10
11.6806939058
 20
10.3106952197
 30
0.0
 10
11.6834999774
 20
10.3298907285
 30
0.0
 10
11.6881524198
 20
10.3486030184
 30
0.0
 10
11.6935418957
 20
10.3636712698
 30
0.0
 10
11.6987250962
 20
10.3753032209
 30
0.0
 10
11.7030352876
 20
10.3837922899
 30
0.0
 10
11.7077622062
 20
10.3920353497
 30
0.0
 10
11.7128950935
 20
10.4000136603
 30
0.0
 10
11.7184221071
 20
10.4077086989
 30
0.0
 10
11.7243305098
 20
10.4151028427
 30
0.0
 10
11.7306064887
 20
10.4221787646
 30
0.0
 10
11.7350267244
 20
10.4266738289
 30
0.0
 10
11.7372923496
 20
10.428862254
 30
0.0
  0
SPLINE
  5
404
100
AcDbEntity
  8
0
100
AcDbSpline
 62
7
  6
CONTINUOUS
 70
0
 71
3
 72
42
 73
38
 74
0
 42
0.0000001
 43
0.0000001
 44
0.0000000001
 40
0.0
 40
0.0
 40
0.0
 40
0.0
 40
0.0299419644
 40
0.0449235317
 40
0.0599142035
 40
0.0899287023
 40
0.1200139727
 40
0.1350926544
 40
0.1501966973
 40
0.1804840373
 40
0.210897868
 40
0.2414513286
 40
0.2721543342
 40
0.3030133956
 40
0.3340315238
 40
0.3652082165
 40
0.3965395222
 40
0.4280181758
 40
0.459633799
 40
0.4913731572
 40
0.5232204671
 40
0.5551577446
 40
0.5871651885
 40
0.6192215901
 40
0.6513047644
 40
0.683391994
 40
0.715460481
 40
0.7474877999
 40
0.7794523452
 40
0.8113337678
 40
0.8431133918
 40
0.8747746145
 40
0.906303246
 40
0.9376878974
 40
0.9533257627
 40
0.9689252947
 40
1.0
 40
1.0
 40
1.0
 40
1.0
 10
12.0304752804
 20
10.1253367317
 30
0.0
 10
12.0269748607
 20
10.1219555872
 30
0.0
 10
12.021517906
 20
10.1170887416
 30
0.0
 10
12.0138755922
 20
10.1110499956
 30
0.0
 10
12.0059898417
 20
10.1053118276
 30
0.0
 10
11.9957002906
 20
10.0987224664
 30
0.0
 10
11.98491041
 20
10.0929587382
 30
0.0
 10
11.9760115944
 20
10.0888583226
 30
0.0
 10
11.9669288976
 20
10.0850965194
 30
0.0
 10
11.9552762526
 20
10.081051412
 30
0.0
 10
11.9409161081
 20
10.0772814985
 30
0.0
 10
11.926242623
 20
10.0746107778
 30
0.0
 10
11.9113371089
 20
10.0730540002
 30
0.0
 10
11.896281447
 20
10.0726194696
 30
0.0
 10
11.8811584779
 20
10.0733093987
 30
0.0
 10
11.8660513211
 20
10.0751198019
 30
0.0
 10
11.8510429841
 20
10.078040554
 30
0.0
 10
11.836215895
 20
10.0820554453
 30
0.0
 10
11.8216514602
 20
10.0871422777
 30
0.0
 10
11.8074296225
 20
10.0932729897
 30
0.0
 10
11.7936284289
 20
10.100413813
 30
0.0
 10
11.7803236085
 20
10.1085254584
 30
0.0
 10
11.7675881619
 20
10.1175633313
 30
0.0
 10
11.7554919664
 20
10.1274777756
 30
0.0
 10
11.7441013964
 20
10.1382143441
 30
0.0
 10
11.7334789641
 20
10.1497140949
 30
0.0
 10
11.7236829793
 20
10.1619139119
 30
0.0
 10
11.7147672329
 20
10.1747468484
 30
0.0
 10
11.7067807043
 20
10.1881424863
 30
0.0
 10
11.6997672935
 20
10.2020273339
 30
0.0
 10
11.6937655856
 20
10.2163251663
 30
0.0
 10
11.6888086208
 20
10.2309576516
 30
0.0
 10
11.6849237912
 20
10.2458439856
 30
0.0
 10
11.6825947434
 20
10.258409662
 30
0.0
 10
11.681288221
 20
10.2685060405
 30
0.0
 10
11.6803557874
 20
10.2785927553
 30
0.0
 10
11.6800734536
 20
10.2861829435
 30
0.0
 10
11.6800734536
 20
10.2912337895
 30
0.0
  0
SPLINE
  5
405
100
AcDbEntity
  8
0
100
AcDbSpline
 62
7
  6
CONTINUOUS
 70
0
 71
3
 72
42
 73
38
 74
0
 42
0.0000001
 43
0.0000001
 44
0.0000000001
 40
0.0
 40
0.0
 40
0.0
 40
0.0
 40
0.0299419644
 40
0.0449235317
 40
0.0599142035
 40
0.0899287023
 40
0.1200139727
 40
0.1350926544
 40
0.1501966973
 40
0.1804840373
 40
0.210897868
 40
0.2414513286
 40
0.2721543342
 40
0.3030133956
 40
0.3340315238
 40
0.3652082165
 40
0.3965395222
 40
0.4280181758
 40
0.459633799
 40
0.4913731572
 40
0.5232204671
 40
0.5551577446
 40
0.5871651885
 40
0.6192215901
 40
0.6513047644
 40
0.683391994
 40
0.715460481
 40
0.7474877999
 40
0.7794523452
 40
0.8113337678
 40
0.8431133918
 40
0.8747746145
 40
0.906303246
 40
0.9376878974
 40
0.9533257627
 40
0.9689252947
 40
1.0
 40
1.0
 40
1.0
 40
1.0
 10
12.0304752804
 20
5.7786702559
 30
0.0
 10
12.0269748607
 20
5.7752891114
 30
0.0
 10
12.021517906
 20
5.7704222657
 30
0.0
 10
12.0138755922
 20
5.7643835197
 30
0.0
 10
12.0059898417
 20
5.7586453518
 30
0.0
 10
11.9957002906
 20
5.7520559905
 30
0.0
 10
11.98491041
 20
5.7462922624
 30
0.0
 10
11.9760115944
 20
5.7421918467
 30
0.0
 10
11.9669288976
 20
5.7384300436
 30
0.0
 10
11.9552762526
 20
5.7343849361
 30
0.0
 10
11.9409161081
 20
5.7306150227
 30
0.0
 10
11.926242623
 20
5.727944302
 30
0.0
 10
11.9113371089
 20
5.7263875244
 30
0.0
 10
11.896281447
 20
5.7259529937
 30
0.0
 10
11.8811584779
 20
5.7266429228
 30
0.0
 10
11.8660513211
 20
5.728453326
 30
0.0
 10
11.8510429841
 20
5.7313740782
 30
0.0
 10
11.836215895
 20
5.7353889695
 30
0.0
 10
11.8216514602
 20
5.7404758018
 30
0.0
 10
11.8074296225
 20
5.7466065139
 30
0.0
 10
11.7936284289
 20
5.7537473371
 30
0.0
 10
11.7803236085
 20
5.7618589825
 30
0.0
 10
11.7675881619
 20
5.7708968554
 30
0.0
 10
11.7554919664
 20
5.7808112998
 30
0.0
 10
11.7441013964
 20
5.7915478682
 30
0.0
 10
11.7334789641
 20
5.8030476191
 30
0.0
 10
11.7236829793
 20
5.8152474361
 30
0.0
 10
11.7147672329
 20
5.8280803725
 30
0.0
 10
11.7067807043
 20
5.8414760104
 30
0.0
 10
11.6997672935
 20
5.855360858
 30
0.0
 10
11.6937655856
 20
5.8696586905
 30
0.0
 10
11.6888086208
 20
5.8842911758
 30
0.0
 10
11.6849237912
 20
5.8991775098
 30
0.0
 10
11.6825947434
 20
5.9117431862
 30
0.0
 10
11.681288221
 20
5.9218395647
 30
0.0
 10
11.6803557874
 20
5.9319262795
 30
0.0
 10
11.6800734536
 20
5.9395164676
 30
0.0
 10
11.6800734536
 20
5.9445673136
 30
0.0
  0
SPLINE
  5
406
100
AcDbEntity
  8
0
100
AcDbSpline
 62
7
  6
CONTINUOUS
 70
0
 71
3
 72
52
 73
48
 74
0
 42
0.0000001
 43
0.0000001
 44
0.0000000001
 40
0.0
 40
0.0
 40
0.0
 40
0.0
 40
0.0428441355
 40
0.0861778791
 40
0.1298583407
 40
0.1737417033
 40
0.2176829502
 40
0.2615369612
 40
0.3051589341
 40
0.3484050757
 40
0.3911331983
 40
0.4332033544
 40
0.4744784678
 40
0.5148249798
 40
0.5541135112
 40
0.5922195513
 40
0.6290241823
 40
0.664414859
 40
0.6982862667
 40
0.7305412929
 40
0.7610921672
 40
0.7757045716
 40
0.7898630083
 40
0.8035598575
 40
0.8167883476
 40
0.8295427719
 40
0.8418184945
 40
0.8536121419
 40
0.8649217149
 40
0.8757467682
 40
0.8860886551
 40
0.8959507214
 40
0.9053387139
 40
0.9142610314
 40
0.9227293311
 40
0.9307588878
 40
0.9383694139
 40
0.9455855488
 40
0.9524378184
 40
0.958963131
 40
0.9652055478
 40
0.9712163226
 40
0.9770537561
 40
0.9827820195
 40
0.9884694112
 40
0.9941858251
 40
1.0
 40
1.0
 40
1.0
 40
1.0
 10
11.1160318516
 20
11.1434647376
 30
0.0
 10
11.1069157893
 20
11.1440969387
 30
0.0
 10
11.0885686564
 20
11.1452170728
 30
0.0
 10
11.0608989233
 20
11.1464629155
 30
0.0
 10
11.0329914534
 20
11.1472813315
 30
0.0
 10
11.0049451364
 20
11.1476694078
 30
0.0
 10
10.976859152
 20
11.1476257535
 30
0.0
 10
10.9488329076
 20
11.1471505289
 30
0.0
 10
10.9209655654
 20
11.1462454265
 30
0.0
 10
10.8933557326
 20
11.144913676
 30
0.0
 10
10.8661010943
 20
11.1431600281
 30
0.0
 10
10.8392980697
 20
11.1409907406
 30
0.0
 10
10.8130414655
 20
11.1384135566
 30
0.0
 10
10.7874241359
 20
11.1354376784
 30
0.0
 10
10.7625366469
 20
11.1320737366
 30
0.0
 10
10.7384669504
 20
11.1283337532
 30
0.0
 10
10.715300053
 20
11.1242311023
 30
0.0
 10
10.6931177301
 20
11.119780459
 30
0.0
 10
10.671998111
 20
11.1149977611
 30
0.0
 10
10.6520157384
 20
11.1099000998
 30
0.0
 10
10.6361426649
 20
11.1053397562
 30
0.0
 10
10.6240751747
 20
11.1015355258
 30
0.0
 10
10.6154863681
 20
11.098657441
 30
0.0
 10
10.6072321871
 20
11.0957146738
 30
0.0
 10
10.5993198896
 20
11.0927097637
 30
0.0
 10
10.5917564294
 20
11.0896454021
 30
0.0
 10
10.5845484456
 20
11.0865242753
 30
0.0
 10
10.5777022505
 20
11.0833491388
 30
0.0
 10
10.5712238228
 20
11.0801227805
 30
0.0
 10
10.5651188111
 20
11.0768480026
 30
0.0
 10
10.5593925041
 20
11.0735276671
 30
0.0
 10
10.5540498692
 20
11.0701645872
 30
0.0
 10
10.549095484
 20
11.0667616587
 30
0.0
 10
10.5445336347
 20
11.0633216536
 30
0.0
 10
10.5403681922
 20
11.0598474387
 30
0.0
 10
10.5366028073
 20
11.0563416765
 30
0.0
 10
10.5332407145
 20
11.0528071297
 30
0.0
 10
10.5302850717
 20
11.0492463023
 30
0.0
 10
10.5277386706
 20
11.0456618398
 30
0.0
 10
10.5256044462
 20
11.0420562002
 30
0.0
 10
10.5238850219
 20
11.038432171
 30
0.0
 10
10.5225832864
 20
11.0347926884
 30
0.0
 10
10.5217015936
 20
11.0311413558
 30
0.0
 10
10.5212421844
 20
11.0274823518
 30
0.0
 10
10.5212061114
 20
11.0238203185
 30
0.0
 10
10.5215935351
 20
11.0201607849
 30
0.0
 10
10.522127146
 20
11.0177540918
 30
0.0
 10
10.5224594268
 20
11.0165593698
 30
0.0
  0
SPLINE
  5
407
100
AcDbEntity
  8
0
100
AcDbSpline
 62
7
  6
CONTINUOUS
 70
0
 71
3
 72
19
 73
15
 74
0
 42
0.0000001
 43
0.0000001
 44
0.0000000001
 40
0.0
 40
0.0
 40
0.0
 40
0.0
 40
0.12732766
 40
0.2538196711
 40
0.3795264658
 40
0.5045235362
 40
0.5668075958
 40
0.6289556124
 40
0.6909843715
 40
0.7529118454
 40
0.8147570127
 40
0.8765397119
 40
0.9382804145
 40
1.0
 40
1.0
 40
1.0
 40
1.0
 10
11.6800734536
 20
5.9445673136
 30
0.0
 10
11.6800734536
 20
5.9510656936
 30
0.0
 10
11.6806939058
 20
5.9640287439
 30
0.0
 10
11.6834999774
 20
5.9832242526
 30
0.0
 10
11.6881524198
 20
6.0019365426
 30
0.0
 10
11.6935418957
 20
6.017004794
 30
0.0
 10
11.6987250962
 20
6.0286367451
 30
0.0
 10
11.7030352876
 20
6.0371258141
 30
0.0
 10
11.7077622062
 20
6.0453688738
 30
0.0
 10
11.7128950935
 20
6.0533471845
 30
0.0
 10
11.7184221071
 20
6.061042223
 30
0.0
 10
11.7243305098
 20
6.0684363668
 30
0.0
 10
11.7306064887
 20
6.0755122888
 30
0.0
 10
11.7350267244
 20
6.0800073531
 30
0.0
 10
11.7372923496
 20
6.0821957782
 30
0.0
  0
SPLINE
  5
408
100
AcDbEntity
  8
0
100
AcDbSpline
 62
7
  6
CONTINUOUS
 70
0
 71
3
 72
32
 73
28
 74
0
 42
0.0000001
 43
0.0000001
 44
0.0000000001
 40
0.0
 40
0.0
 40
0.0
 40
0.0
 40
0.0733149236
 40
0.1477077709
 40
0.2226095876
 40
0.2974447918
 40
0.3716388625
 40
0.444623669
 40
0.5158431999
 40
0.5506227847
 40
0.5847610485
 40
0.6181945623
 40
0.6508617639
 40
0.6827031726
 40
0.7136616854
 40
0.7436827546
 40
0.7727146088
 40
0.8007085963
 40
0.8276195402
 40
0.8534060217
 40
0.8780308129
 40
0.9014615083
 40
0.923671115
 40
0.944638807
 40
0.9643510217
 40
0.9828029036
 40
1.0
 40
1.0
 40
1.0
 40
1.0
 10
11.1086807202
 20
11.0339759458
 30
0.0
 10
11.0955724977
 20
11.0348850041
 30
0.0
 10
11.0691391621
 20
11.0363831374
 30
0.0
 10
11.0292600413
 20
11.0376818325
 30
0.0
 10
10.989088742
 20
11.0380432761
 30
0.0
 10
10.9489556911
 20
11.0374644366
 30
0.0
 10
10.9091906982
 20
11.0359501678
 30
0.0
 10
10.8701208191
 20
11.0335130845
 30
0.0
 10
10.8381616333
 20
11.0307087214
 30
0.0
 10
10.8131907948
 20
11.0280078327
 30
0.0
 10
10.7949819702
 20
11.025782252
 30
0.0
 10
10.7771822303
 20
11.0233455239
 30
0.0
 10
10.7598281582
 20
11.0207026552
 30
0.0
 10
10.7429554526
 20
11.0178591129
 30
0.0
 10
10.7265987919
 20
11.0148207995
 30
0.0
 10
10.7107917829
 20
11.0115940162
 30
0.0
 10
10.6955668945
 20
11.0081854381
 30
0.0
 10
10.6809553726
 20
11.0046021238
 30
0.0
 10
10.6669871641
 20
11.0008515156
 30
0.0
 10
10.6536908675
 20
10.9969413837
 30
0.0
 10
10.641093664
 20
10.992879801
 30
0.0
 10
10.6292212301
 20
10.988675174
 30
0.0
 10
10.6180976605
 20
10.9843361701
 30
0.0
 10
10.6077454851
 20
10.9798716983
 30
0.0
 10
10.5981853624
 20
10.9752907374
 30
0.0
 10
10.5894367465
 20
10.9706027468
 30
0.0
 10
10.5839650587
 20
10.9672963499
 30
0.0
 10
10.5813777769
 20
10.9656214211
 30
0.0
  0
SPLINE
  5
409
100
AcDbEntity
  8
0
100
AcDbSpline
 62
7
  6
CONTINUOUS
 70
0
 71
3
 72
47
 73
43
 74
0
 42
0.0000001
 43
0.0000001
 44
0.0000000001
 40
0.0
 40
0.0
 40
0.0
 40
0.0
 40
0.0063158967
 40
0.0126706977
 40
0.0191025471
 40
0.0256480963
 40
0.0323419829
 40
0.0392163382
 40
0.053614168
 40
0.0611948929
 40
0.0690566412
 40
0.077217773
 40
0.0856941569
 40
0.0944995551
 40
0.1036456891
 40
0.1131424521
 40
0.122998232
 40
0.1332198706
 40
0.1438129644
 40
0.1547820179
 40
0.1661303832
 40
0.1899727563
 40
0.2153522396
 40
0.2422681077
 40
0.2707104459
 40
0.3006614883
 40
0.3320967939
 40
0.3649861265
 40
0.3992940928
 40
0.4349806571
 40
0.4720016811
 40
0.5103093127
 40
0.5498522596
 40
0.5905760756
 40
0.6324234754
 40
0.6753345639
 40
0.7192469999
 40
0.7640961586
 40
0.8098155359
 40
0.8563366993
 40
0.9035889296
 40
1.0
 40
1.0
 40
1.0
 40
1.0
 10
12.9781702946
 20
9.9998473265
 30
0.0
 10
12.979301876
 20
9.9997688539
 30
0.0
 10
12.9815666624
 20
9.9995188143
 30
0.0
 10
12.9849384656
 20
9.9988670602
 30
0.0
 10
12.9882877214
 20
9.9979386029
 30
0.0
 10
12.9916124928
 20
9.9967342497
 30
0.0
 10
12.9949114532
 20
9.9952546277
 30
0.0
 10
12.9993410717
 20
9.9928801314
 30
0.0
 10
13.0036504057
 20
9.9899733942
 30
0.0
 10
13.0078207355
 20
9.9866049281
 30
0.0
 10
13.0109707512
 20
9.9837649185
 30
0.0
 10
13.0140871082
 20
9.9806565015
 30
0.0
 10
13.0171690709
 20
9.9772808249
 30
0.0
 10
13.020215342
 20
9.9736393127
 30
0.0
 10
13.0232248074
 20
9.9697334528
 30
0.0
 10
13.0261963445
 20
9.9655648639
 30
0.0
 10
13.0291287388
 20
9.9611351973
 30
0.0
 10
13.0320208859
 20
9.9564462778
 30
0.0
 10
13.0348716297
 20
9.9515000059
 30
0.0
 10
13.0376798219
 20
9.9462983579
 30
0.0
 10
13.0414276655
 20
9.9389030029
 30
0.0
 10
13.0459852276
 20
9.9290210781
 30
0.0
 10
13.0511802287
 20
9.9163687194
 30
0.0
 10
13.0561792463
 20
9.9027543656
 30
0.0
 10
13.0609740816
 20
9.8882002212
 30
0.0
 10
13.0655568805
 20
9.8727297872
 30
0.0
 10
13.0699200638
 20
9.8563682753
 30
0.0
 10
13.0740563842
 20
9.8391423957
 30
0.0
 10
13.0779589551
 20
9.8210803562
 30
0.0
 10
13.0816212956
 20
9.802211797
 30
0.0
 10
13.0850373054
 20
9.7825677193
 30
0.0
 10
13.0882012819
 20
9.7621804235
 30
0.0
 10
13.0911079507
 20
9.7410834644
 30
0.0
 10
13.0937524797
 20
9.7193115916
 30
0.0
 10
13.0961304609
 20
9.6969006763
 30
0.0
 10
13.0982379197
 20
9.673887649
 30
0.0
 10
13.1000713446
 20
9.6503104574
 30
0.0
 10
13.1016276939
 20
9.6262079704
 30
0.0
 10
13.102904358
 20
9.6016199472
 30
0.0
 10
13.1038992143
 20
9.5765869633
 30
0.0
 10
13.1048540105
 20
9.5424437216
 30
0.0
 10
13.1051309747
 20
9.5166412582
 30
0.0
 10
13.1051309747
 20
9.4993263802
 30
0.0
  0
SPLINE
  5
40A
100
AcDbEntity
  8
0
100
AcDbSpline
 62
7
  6
CONTINUOUS
 70
0
 71
3
 72
53
 73
49
 74
0
 42
0.0000001
 43
0.0000001
 44
0.0000000001
 40
0.0
 40
0.0
 40
0.0
 40
0.0
 40
0.0055575327
 40
0.0111779583
 40
0.0169219001
 40
0.0228457957
 40
0.0290005894
 40
0.0354310067
 40
0.0421754826
 40
0.0492663475
 40
0.0567304347
 40
0.064589558
 40
0.0728612818
 40
0.0815593348
 40
0.0906943148
 40
0.1002739426
 40
0.1103036489
 40
0.1207866878
 40
0.1317246105
 40
0.1431172887
 40
0.15496329
 40
0.1672598562
 40
0.1800031941
 40
0.1931884426
 40
0.2068098874
 40
0.2208609397
 40
0.2353342826
 40
0.2502218748
 40
0.2655150341
 40
0.2812044738
 40
0.3137315596
 40
0.3477189003
 40
0.3830740176
 40
0.4196978266
 40
0.4574853889
 40
0.4963265907
 40
0.5361067693
 40
0.5767073042
 40
0.6180061819
 40
0.6598785442
 40
0.7021972238
 40
0.7448332733
 40
0.787656484
 40
0.8305359172
 40
0.8733403843
 40
0.9159390759
 40
0.9582017793
 40
1.0
 40
1.0
 40
1.0
 40
1.0
 10
10.3242399628
 20
11.0562499105
 30
0.0
 10
10.3242399712
 20
11.0579061213
 30
0.0
 10
10.3244254592
 20
11.0612401663
 30
0.0
 10
10.3252577332
 20
11.0662234405
 30
0.0
 10
10.326642764
 20
11.0711955905
 30
0.0
 10
10.3285777823
 20
11.076150872
 30
0.0
 10
10.3310596845
 20
11.0810852326
 30
0.0
 10
10.3340850422
 20
11.0859949412
 30
0.0
 10
10.3376505067
 20
11.0908765623
 30
0.0
 10
10.3417524862
 20
11.0957268856
 30
0.0
 10
10.3463874043
 20
11.100542556
 30
0.0
 10
10.3515512903
 20
11.1053203242
 30
0.0
 10
10.3572400236
 20
11.1100566727
 30
0.0
 10
10.3634489824
 20
11.1147482078
 30
0.0
 10
10.3701732835
 20
11.1193912722
 30
0.0
 10
10.3774075147
 20
11.1239823793
 30
0.0
 10
10.3851459443
 20
11.1285178205
 30
0.0
 10
10.3933823285
 20
11.1329940856
 30
0.0
 10
10.4021100753
 20
11.1374074909
 30
0.0
 10
10.4113221138
 20
11.1417545545
 30
0.0
 10
10.4210110113
 20
11.146031671
 30
0.0
 10
10.431168892
 20
11.150235422
 30
0.0
 10
10.4417875138
 20
11.1543623154
 30
0.0
 10
10.4528582244
 20
11.1584090212
 30
0.0
 10
10.4643720082
 20
11.1623721842
 30
0.0
 10
10.4763194675
 20
11.1662485812
 30
0.0
 10
10.4886908506
 20
11.1700350121
 30
0.0
 10
10.5014760444
 20
11.1737283695
 30
0.0
 10
10.5146646121
 20
11.1773256473
 30
0.0
 10
10.5329935415
 20
11.1820466773
 30
0.0
 10
10.5568398482
 20
11.1876716098
 30
0.0
 10
10.5865519811
 20
11.1939150542
 30
0.0
 10
10.617597529
 20
11.1997098193
 30
0.0
 10
10.6498748615
 20
11.2050367505
 30
0.0
 10
10.6832784842
 20
11.2098782098
 30
0.0
 10
10.7176990844
 20
11.214218185
 30
0.0
 10
10.7530239927
 20
11.2180423256
 30
0.0
 10
10.7891375378
 20
11.221337993
 30
0.0
 10
10.8259214404
 20
11.2240942984
 30
0.0
 10
10.8632552048
 20
11.2263021382
 30
0.0
 10
10.9010165194
 20
11.2279542219
 30
0.0
 10
10.9390816609
 20
11.2290450948
 30
0.0
 10
10.9773259048
 20
11.2295711565
 30
0.0
 10
11.0156239321
 20
11.2295306688
 30
0.0
 10
11.0538502541
 20
11.2289237694
 30
0.0
 10
11.0918796137
 20
11.2277524532
 30
0.0
 10
11.1295873196
 20
11.2260206036
 30
0.0
 10
11.1545926409
 20
11.224486111
 30
0.0
 10
11.1670191614
 20
11.2236243289
 30
0.0
  0
SPLINE
  5
40B
100
AcDbEntity
  8
0
100
AcDbSpline
 62
7
  6
CONTINUOUS
 70
0
 71
3
 72
43
 73
39
 74
0
 42
0.0000001
 43
0.0000001
 44
0.0000000001
 40
0.0
 40
0.0
 40
0.0
 40
0.0
 40
0.0987499215
 40
0.1471086019
 40
0.1946801165
 40
0.2413836003
 40
0.287140621
 40
0.3318753815
 40
0.3755144101
 40
0.4179871573
 40
0.4592261099
 40
0.4991670607
 40
0.5377495959
 40
0.5749173294
 40
0.6106182603
 40
0.6448054131
 40
0.6774373753
 40
0.7084788694
 40
0.7379017254
 40
0.7656860674
 40
0.7918215391
 40
0.8163091542
 40
0.8391638742
 40
0.860417602
 40
0.8801232745
 40
0.8983603667
 40
0.915241435
 40
0.9309195062
 40
0.9383722959
 40
0.9456040229
 40
0.9526478703
 40
0.9595400495
 40
0.9663195599
 40
0.9730275457
 40
0.979706606
 40
0.986399957
 40
0.9931505056
 40
1.0
 40
1.0
 40
1.0
 40
1.0
 10
11.1160318516
 20
11.1434647376
 30
0.0
 10
11.1290053109
 20
11.1425650251
 30
0.0
 10
11.1483174705
 20
11.1409977522
 30
0.0
 10
11.1738281499
 20
11.1384418663
 30
0.0
 10
11.1924931984
 20
11.1363280923
 30
0.0
 10
11.2107884178
 20
11.1340081804
 30
0.0
 10
11.2286797672
 20
11.131486456
 30
0.0
 10
11.2461339468
 20
11.1287676441
 30
0.0
 10
11.2631185216
 20
11.1258568153
 30
0.0
 10
11.2796019207
 20
11.1227594393
 30
0.0
 10
11.2955535163
 20
11.119481313
 30
0.0
 10
11.3109436789
 20
11.1160285534
 30
0.0
 10
11.3257438508
 20
11.1124076448
 30
0.0
 10
11.3399265908
 20
11.1086253742
 30
0.0
 10
11.3534656202
 20
11.1046888002
 30
0.0
 10
11.3663359019
 20
11.1006052929
 30
0.0
 10
11.3785136919
 20
11.0963824988
 30
0.0
 10
11.3899765719
 20
11.0920282761
 30
0.0
 10
11.4007035213
 20
11.0875506967
 30
0.0
 10
11.4106749935
 20
11.0829580481
 30
0.0
 10
11.4198729358
 20
11.078258717
 30
0.0
 10
11.4282808348
 20
11.0734611103
 30
0.0
 10
11.4358837971
 20
11.0685736462
 30
0.0
 10
11.442668532
 20
11.063604496
 30
0.0
 10
11.4486231672
 20
11.0585614948
 30
0.0
 10
11.4537372913
 20
11.0534515337
 30
0.0
 10
11.458000731
 20
11.0482819012
 30
0.0
 10
11.460884455
 20
11.0438545339
 30
0.0
 10
11.4627268491
 20
11.0403027189
 30
0.0
 10
11.4638669169
 20
11.0376754913
 30
0.0
 10
11.4647876409
 20
11.0350415439
 30
0.0
 10
11.465488256
 20
11.0324020661
 30
0.0
 10
11.4659682361
 20
11.0297585
 30
0.0
 10
11.4662271536
 20
11.0271123123
 30
0.0
 10
11.466264666
 20
11.0244650712
 30
0.0
 10
11.4660808243
 20
11.0218183157
 30
0.0
 10
11.4656758351
 20
11.0191738094
 30
0.0
 10
11.4652622983
 20
11.0174289088
 30
0.0
 10
11.4650206035
 20
11.0165598658
 30
0.0
  0
SPLINE
  5
40C
100
AcDbEntity
  8
0
100
AcDbSpline
 62
7
  6
CONTINUOUS
 70
0
 71
3
 72
28
 73
24
 74
0
 42
0.0000001
 43
0.0000001
 44
0.0000000001
 40
0.0
 40
0.0
 40
0.0
 40
0.0
 40
0.0691229788
 40
0.1391888644
 40
0.2097967253
 40
0.2805393413
 40
0.3510094405
 40
0.4208015729
 40
0.4895153829
 40
0.5567586375
 40
0.6221503218
 40
0.685323844
 40
0.7459304075
 40
0.7751686364
 40
0.803644235
 40
0.8313202994
 40
0.8581617646
 40
0.8841355152
 40
0.9092107909
 40
0.9333591093
 40
0.9565547269
 40
0.9787748879
 40
1.0
 40
1.0
 40
1.0
 40
1.0
 10
11.0980439428
 20
10.9840045788
 30
0.0
 10
11.087756033
 20
10.9847180477
 30
0.0
 10
11.0670235561
 20
10.9859284332
 30
0.0
 10
11.0357432415
 20
10.9870981574
 30
0.0
 10
11.0042038138
 20
10.98763054
 30
0.0
 10
10.9725998276
 20
10.9875222098
 30
0.0
 10
10.9411262153
 20
10.986773854
 30
0.0
 10
10.9099770483
 20
10.9853901465
 30
0.0
 10
10.8793443721
 20
10.983379751
 30
0.0
 10
10.8494170248
 20
10.9807552434
 30
0.0
 10
10.8203793535
 20
10.9775330695
 30
0.0
 10
10.7924103825
 20
10.9737333604
 30
0.0
 10
10.7698748963
 20
10.9700631267
 30
0.0
 10
10.7525179488
 20
10.9668433196
 30
0.0
 10
10.7400285453
 20
10.9643285965
 30
0.0
 10
10.7279306345
 20
10.961689098
 30
0.0
 10
10.7162428321
 20
10.9589288932
 30
0.0
 10
10.7049831406
 20
10.9560522363
 30
0.0
 10
10.6941688709
 20
10.9530636359
 30
0.0
 10
10.6838166561
 20
10.9499676935
 30
0.0
 10
10.6739423517
 20
10.946769201
 30
0.0
 10
10.6645611944
 20
10.9434731851
 30
0.0
 10
10.6585049927
 20
10.9411605542
 30
0.0
 10
10.6555641546
 20
10.9399862537
 30
0.0
  0
SPLINE
  5
40D
100
AcDbEntity
  8
0
100
AcDbSpline
 62
7
  6
CONTINUOUS
 70
0
 71
3
 72
47
 73
43
 74
0
 42
0.0000001
 43
0.0000001
 44
0.0000000001
 40
0.0
 40
0.0
 40
0.0
 40
0.0
 40
0.0063158967
 40
0.0126706977
 40
0.0191025471
 40
0.0256480963
 40
0.0323419829
 40
0.0392163382
 40
0.053614168
 40
0.0611948929
 40
0.0690566412
 40
0.077217773
 40
0.0856941569
 40
0.0944995551
 40
0.1036456891
 40
0.1131424521
 40
0.122998232
 40
0.1332198706
 40
0.1438129644
 40
0.1547820179
 40
0.1661303832
 40
0.1899727563
 40
0.2153522396
 40
0.2422681077
 40
0.2707104459
 40
0.3006614883
 40
0.3320967939
 40
0.3649861265
 40
0.3992940928
 40
0.4349806571
 40
0.4720016811
 40
0.5103093127
 40
0.5498522596
 40
0.5905760756
 40
0.6324234754
 40
0.6753345639
 40
0.7192469999
 40
0.7640961586
 40
0.8098155359
 40
0.8563366993
 40
0.9035889296
 40
1.0
 40
1.0
 40
1.0
 40
1.0
 10
12.9781702946
 20
8.0679955595
 30
0.0
 10
12.979301876
 20
8.0679170868
 30
0.0
 10
12.9815666624
 20
8.0676670473
 30
0.0
 10
12.9849384656
 20
8.0670152932
 30
0.0
 10
12.9882877214
 20
8.0660868359
 30
0.0
 10
12.9916124928
 20
8.0648824826
 30
0.0
 10
12.9949114532
 20
8.0634028607
 30
0.0
 10
12.9993410717
 20
8.0610283644
 30
0.0
 10
13.0036504057
 20
8.0581216272
 30
0.0
 10
13.0078207355
 20
8.0547531611
 30
0.0
 10
13.0109707512
 20
8.0519131515
 30
0.0
 10
13.0140871082
 20
8.0488047345
 30
0.0
 10
13.0171690709
 20
8.0454290579
 30
0.0
 10
13.020215342
 20
8.0417875456
 30
0.0
 10
13.0232248074
 20
8.0378816857
 30
0.0
 10
13.0261963445
 20
8.0337130969
 30
0.0
 10
13.0291287388
 20
8.0292834303
 30
0.0
 10
13.0320208859
 20
8.0245945107
 30
0.0
 10
13.0348716297
 20
8.0196482389
 30
0.0
 10
13.0376798219
 20
8.0144465909
 30
0.0
 10
13.0414276655
 20
8.0070512359
 30
0.0
 10
13.0459852276
 20
7.997169311
 30
0.0
 10
13.0511802287
 20
7.9845169523
 30
0.0
 10
13.0561792463
 20
7.9709025985
 30
0.0
 10
13.0609740816
 20
7.9563484541
 30
0.0
 10
13.0655568805
 20
7.9408780202
 30
0.0
 10
13.0699200638
 20
7.9245165083
 30
0.0
 10
13.0740563842
 20
7.9072906286
 30
0.0
 10
13.0779589551
 20
7.8892285891
 30
0.0
 10
13.0816212956
 20
7.87036003
 30
0.0
 10
13.0850373054
 20
7.8507159523
 30
0.0
 10
13.0882012819
 20
7.8303286565
 30
0.0
 10
13.0911079507
 20
7.8092316973
 30
0.0
 10
13.0937524797
 20
7.7874598246
 30
0.0
 10
13.0961304609
 20
7.7650489093
 30
0.0
 10
13.0982379197
 20
7.742035882
 30
0.0
 10
13.1000713446
 20
7.7184586904
 30
0.0
 10
13.1016276939
 20
7.6943562034
 30
0.0
 10
13.102904358
 20
7.6697681801
 30
0.0
 10
13.1038992143
 20
7.6447351963
 30
0.0
 10
13.1048540105
 20
7.6105919546
 30
0.0
 10
13.1051309747
 20
7.5847894912
 30
0.0
 10
13.1051309747
 20
7.5674746132
 30
0.0
  0
SPLINE
  5
40E
100
AcDbEntity
  8
0
100
AcDbSpline
 62
7
  6
CONTINUOUS
 70
0
 71
3
 72
53
 73
49
 74
0
 42
0.0000001
 43
0.0000001
 44
0.0000000001
 40
0.0
 40
0.0
 40
0.0
 40
0.0
 40
0.0417740113
 40
0.0840369498
 40
0.1266584959
 40
0.1695064843
 40
0.2124480935
 40
0.2553500426
 40
0.298079237
 40
0.3405032536
 40
0.382490879
 40
0.4239126346
 40
0.4646413116
 40
0.5045525112
 40
0.543525196
 40
0.5814422576
 40
0.6181911067
 40
0.6536642972
 40
0.6877601986
 40
0.720383738
 40
0.7361160079
 40
0.7514479787
 40
0.7663699923
 40
0.7808730391
 40
0.7949486907
 40
0.8085892839
 40
0.8217878242
 40
0.8345382246
 40
0.8468351953
 40
0.858674535
 40
0.8700530305
 40
0.8809687964
 40
0.8914212207
 40
0.9014113515
 40
0.9109419335
 40
0.9200178526
 40
0.9286463131
 40
0.9368373658
 40
0.9446042772
 40
0.9519641672
 40
0.9589385932
 40
0.9655542738
 40
0.9718437889
 40
0.9778461802
 40
0.9836073652
 40
0.9891800467
 40
0.99462308
 40
1.0
 40
1.0
 40
1.0
 40
1.0
 10
13.1051309747
 20
9.4993263802
 30
0.0
 10
13.1051309747
 20
9.4868362774
 30
0.0
 10
13.1049361159
 20
9.4617094939
 30
0.0
 10
13.1040746803
 20
9.423848078
 30
0.0
 10
13.1026449088
 20
9.3856824646
 30
0.0
 10
13.1006514883
 20
9.3473389914
 30
0.0
 10
13.0981010063
 20
9.3089445181
 30
0.0
 10
13.0950018932
 20
9.270626063
 30
0.0
 10
13.0913644153
 20
9.2325104006
 30
0.0
 10
13.0872006307
 20
9.1947236262
 30
0.0
 10
13.0825243541
 20
9.1573907408
 30
0.0
 10
13.07735111
 20
9.1206352326
 30
0.0
 10
13.0716980824
 20
9.0845786652
 30
0.0
 10
13.0655840592
 20
9.04934027
 30
0.0
 10
13.0590293711
 20
9.0150365476
 30
0.0
 10
13.0520558266
 20
8.9817808678
 30
0.0
 10
13.0446866378
 20
8.9496831084
 30
0.0
 10
13.0369463562
 20
8.9188491918
 30
0.0
 10
13.0288607517
 20
8.8893810225
 30
0.0
 10
13.0217744979
 20
8.8657660592
 30
0.0
 10
13.015941482
 20
8.8476387777
 30
0.0
 10
13.011550273
 20
8.8346088215
 30
0.0
 10
13.0070933009
 20
8.8219903233
 30
0.0
 10
13.0025742692
 20
8.8097936809
 30
0.0
 10
12.9979968834
 20
8.7980289664
 30
0.0
 10
12.9933649906
 20
8.7867058676
 30
0.0
 10
12.9886823629
 20
8.7758337241
 30
0.0
 10
12.9839529456
 20
8.7654214656
 30
0.0
 10
12.979180571
 20
8.7554776674
 30
0.0
 10
12.9743692577
 20
8.7460104653
 30
0.0
 10
12.9695228826
 20
8.737027637
 30
0.0
 10
12.9646455075
 20
8.7285364908
 30
0.0
 10
12.9597410323
 20
8.7205439744
 30
0.0
 10
12.9548135203
 20
8.713056541
 30
0.0
 10
12.9498668605
 20
8.7060802807
 30
0.0
 10
12.9449050595
 20
8.6996207758
 30
0.0
 10
12.9399319409
 20
8.6936832478
 30
0.0
 10
12.9349513729
 20
8.6882724252
 30
0.0
 10
12.929967035
 20
8.6833926963
 30
0.0
 10
12.9249825619
 20
8.6790480314
 30
0.0
 10
12.9200014186
 20
8.6752421281
 30
0.0
 10
12.915026978
 20
8.6719784447
 30
0.0
 10
12.9100625811
 20
8.6692602925
 30
0.0
 10
12.9051116113
 20
8.6670909917
 30
0.0
 10
12.9001778944
 20
8.6654737363
 30
0.0
 10
12.8952654857
 20
8.6644117268
 30
0.0
 10
12.8903803601
 20
8.6639074342
 30
0.0
 10
12.8871370447
 20
8.66394447
 30
0.0
 10
12.8855332394
 20
8.6640556903
 30
0.0
  0
SPLINE
  5
40F
100
AcDbEntity
  8
0
100
AcDbSpline
 62
7
  6
CONTINUOUS
 70
0
 71
3
 72
28
 73
24
 74
0
 42
0.0000001
 43
0.0000001
 44
0.0000000001
 40
0.0
 40
0.0
 40
0.0
 40
0.0
 40
0.0804880321
 40
0.1595569337
 40
0.2369614949
 40
0.3124664077
 40
0.3858429153
 40
0.4568724664
 40
0.5253470295
 40
0.5910708726
 40
0.6538620381
 40
0.7135542123
 40
0.7699989023
 40
0.7969636371
 40
0.8230704637
 40
0.848307052
 40
0.8726631276
 40
0.896130059
 40
0.9187017153
 40
0.9403740574
 40
0.9611460666
 40
0.9810195444
 40
1.0
 40
1.0
 40
1.0
 40
1.0
 10
11.1086807202
 20
11.0339759458
 30
0.0
 10
11.1169117367
 20
11.0334051228
 30
0.0
 10
11.1332199932
 20
11.0321439933
 30
0.0
 10
11.1574053516
 20
11.0298714289
 30
0.0
 10
11.1810405896
 20
11.0272405064
 30
0.0
 10
11.2040461159
 20
11.0242602002
 30
0.0
 10
11.226344765
 20
11.0209405906
 30
0.0
 10
11.2478616319
 20
11.0172929688
 30
0.0
 10
11.2685245504
 20
11.0133297182
 30
0.0
 10
11.2882642399
 20
11.00906431
 30
0.0
 10
11.3070146897
 20
11.0045112526
 30
0.0
 10
11.324713042
 20
10.9996859928
 30
0.0
 10
11.33874194
 20
10.9953888996
 30
0.0
 10
11.3493852627
 20
10.9918160604
 30
0.0
 10
11.3569466887
 20
10.9891195769
 30
0.0
 10
11.3642028074
 20
10.9863675739
 30
0.0
 10
11.3711475815
 20
10.9835624122
 30
0.0
 10
11.3777751941
 20
10.9807063643
 30
0.0
 10
11.384080152
 20
10.9778019098
 30
0.0
 10
11.3900571831
 20
10.9748513881
 30
0.0
 10
11.395701389
 20
10.9718573099
 30
0.0
 10
11.4010079814
 20
10.9688221496
 30
0.0
 10
11.4043952824
 20
10.9667249829
 30
0.0
 10
11.4060292054
 20
10.965668596
 30
0.0
  0
SPLINE
  5
410
100
AcDbEntity
  8
0
100
AcDbSpline
 62
4
  6
CONTINUOUS
 70
0
 71
3
 72
397
 73
393
 74
0
 42
0.0000001
 43
0.0000001
 44
0.0000000001
 40
0.0
 40
0.0
 40
0.0
 40
0.0
 40
0.015625
 40
0.0234375
 40
0.03125
 40
0.0390625
 40
0.04296875
 40
0.046875
 40
0.05078125
 40
0.0546875
 40
0.056640625
 40
0.05859375
 40
0.0595703125
 40
0.060546875
 40
0.0615234375
 40
0.0620117188
 40
0.0622558594
 40
0.0625
 40
0.0627441406
 40
0.0629882812
 40
0.0634765625
 40
0.064453125
 40
0.0654296875
 40
0.06640625
 40
0.068359375
 40
0.0703125
 40
0.07421875
 40
0.078125
 40
0.08203125
 40
0.0859375
 40
0.09375
 40
0.1015625
 40
0.10546875
 40
0.109375
 40
0.11328125
 40
0.1171875
 40
0.119140625
 40
0.12109375
 40
0.1220703125
 40
0.123046875
 40
0.1240234375
 40
0.1245117188
 40
0.1247558594
 40
0.125
 40
0.1252441406
 40
0.1254882812
 40
0.1259765625
 40
0.126953125
 40
0.1279296875
 40
0.12890625
 40
0.130859375
 40
0.1328125
 40
0.13671875
 40
0.140625
 40
0.14453125
 40
0.1484375
 40
0.15625
 40
0.1640625
 40
0.16796875
 40
0.171875
 40
0.17578125
 40
0.1796875
 40
0.181640625
 40
0.18359375
 40
0.1845703125
 40
0.185546875
 40
0.1865234375
 40
0.1870117188
 40
0.1872558594
 40
0.1875
 40
0.1877441406
 40
0.1879882812
 40
0.1884765625
 40
0.189453125
 40
0.1904296875
 40
0.19140625
 40
0.193359375
 40
0.1953125
 40
0.19921875
 40
0.203125
 40
0.20703125
 40
0.2109375
 40
0.21875
 40
0.2265625
 40
0.23046875
 40
0.234375
 40
0.23828125
 40
0.2421875
 40
0.244140625
 40
0.24609375
 40
0.2470703125
 40
0.248046875
 40
0.2490234375
 40
0.2495117188
 40
0.2497558594
 40
0.25
 40
0.2502441406
 40
0.2504882812
 40
0.2509765625
 40
0.251953125
 40
0.2529296875
 40
0.25390625
 40
0.255859375
 40
0.2578125
 40
0.26171875
 40
0.265625
 40
0.26953125
 40
0.2734375
 40
0.28125
 40
0.2890625
 40
0.29296875
 40
0.296875
 40
0.30078125
 40
0.3046875
 40
0.306640625
 40
0.30859375
 40
0.3095703125
 40
0.310546875
 40
0.3115234375
 40
0.3120117188
 40
0.3122558594
 40
0.3125
 40
0.3127441406
 40
0.3129882812
 40
0.3134765625
 40
0.314453125
 40
0.3154296875
 40
0.31640625
 40
0.318359375
 40
0.3203125
 40
0.32421875
 40
0.328125
 40
0.33203125
 40
0.3359375
 40
0.34375
 40
0.3515625
 40
0.35546875
 40
0.359375
 40
0.36328125
 40
0.3671875
 40
0.369140625
 40
0.37109375
 40
0.3720703125
 40
0.373046875
 40
0.3740234375
 40
0.3745117188
 40
0.3747558594
 40
0.375
 40
0.3752441406
 40
0.3754882812
 40
0.3759765625
 40
0.376953125
 40
0.3779296875
 40
0.37890625
 40
0.380859375
 40
0.3828125
 40
0.38671875
 40
0.390625
 40
0.39453125
 40
0.3984375
 40
0.40625
 40
0.4140625
 40
0.41796875
 40
0.421875
 40
0.42578125
 40
0.4296875
 40
0.431640625
 40
0.43359375
 40
0.4345703125
 40
0.435546875
 40
0.4365234375
 40
0.4370117188
 40
0.4372558594
 40
0.4375
 40
0.4377441406
 40
0.4379882812
 40
0.4384765625
 40
0.439453125
 40
0.4404296875
 40
0.44140625
 40
0.443359375
 40
0.4453125
 40
0.44921875
 40
0.453125
 40
0.45703125
 40
0.4609375
 40
0.46875
 40
0.4765625
 40
0.48046875
 40
0.484375
 40
0.48828125
 40
0.4921875
 40
0.494140625
 40
0.49609375
 40
0.4970703125
 40
0.498046875
 40
0.4990234375
 40
0.4995117188
 40
0.4997558594
 40
0.5
 40
0.5002441406
 40
0.5004882812
 40
0.5009765625
 40
0.501953125
 40
0.5029296875
 40
0.50390625
 40
0.505859375
 40
0.5078125
 40
0.51171875
 40
0.515625
 40
0.51953125
 40
0.5234375
 40
0.53125
 40
0.5390625
 40
0.54296875
 40
0.546875
 40
0.55078125
 40
0.5546875
 40
0.556640625
 40
0.55859375
 40
0.5595703125
 40
0.560546875
 40
0.5615234375
 40
0.5620117188
 40
0.5622558594
 40
0.5625
 40
0.5627441406
 40
0.5629882812
 40
0.5634765625
 40
0.564453125
 40
0.5654296875
 40
0.56640625
 40
0.568359375
 40
0.5703125
 40
0.57421875
 40
0.578125
 40
0.58203125
 40
0.5859375
 40
0.59375
 40
0.6015625
 40
0.60546875
 40
0.609375
 40
0.61328125
 40
0.6171875
 40
0.619140625
 40
0.62109375
 40
0.6220703125
 40
0.623046875
 40
0.6240234375
 40
0.6245117188
 40
0.625
 40
0.6254882812
 40
0.6259765625
 40
0.626953125
 40
0.6279296875
 40
0.62890625
 40
0.630859375
 40
0.6328125
 40
0.63671875
 40
0.640625
 40
0.64453125
 40
0.6484375
 40
0.65625
 40
0.6640625
 40
0.66796875
 40
0.671875
 40
0.67578125
 40
0.6796875
 40
0.681640625
 40
0.68359375
 40
0.6845703125
 40
0.685546875
 40
0.6865234375
 40
0.6870117188
 40
0.6872558594
 40
0.6875
 40
0.6877441406
 40
0.6879882812
 40
0.6884765625
 40
0.689453125
 40
0.6904296875
 40
0.69140625
 40
0.693359375
 40
0.6953125
 40
0.69921875
 40
0.703125
 40
0.70703125
 40
0.7109375
 40
0.71875
 40
0.7265625
 40
0.73046875
 40
0.734375
 40
0.73828125
 40
0.7421875
 40
0.744140625
 40
0.74609375
 40
0.7470703125
 40
0.748046875
 40
0.7490234375
 40
0.7495117188
 40
0.7497558594
 40
0.75
 40
0.7502441406
 40
0.7504882812
 40
0.7509765625
 40
0.751953125
 40
0.7529296875
 40
0.75390625
 40
0.755859375
 40
0.7578125
 40
0.76171875
 40
0.765625
 40
0.76953125
 40
0.7734375
 40
0.78125
 40
0.7890625
 40
0.79296875
 40
0.796875
 40
0.80078125
 40
0.8046875
 40
0.806640625
 40
0.80859375
 40
0.8095703125
 40
0.810546875
 40
0.8115234375
 40
0.8120117188
 40
0.8125
 40
0.8129882812
 40
0.8134765625
 40
0.814453125
 40
0.8154296875
 40
0.81640625
 40
0.818359375
 40
0.8203125
 40
0.82421875
 40
0.828125
 40
0.83203125
 40
0.8359375
 40
0.84375
 40
0.8515625
 40
0.85546875
 40
0.859375
 40
0.86328125
 40
0.8671875
 40
0.869140625
 40
0.87109375
 40
0.8720703125
 40
0.873046875
 40
0.8740234375
 40
0.8745117188
 40
0.875
 40
0.8754882812
 40
0.8759765625
 40
0.876953125
 40
0.8779296875
 40
0.87890625
 40
0.880859375
 40
0.8828125
 40
0.88671875
 40
0.890625
 40
0.89453125
 40
0.8984375
 40
0.90625
 40
0.9140625
 40
0.91796875
 40
0.921875
 40
0.92578125
 40
0.9296875
 40
0.931640625
 40
0.93359375
 40
0.9345703125
 40
0.935546875
 40
0.9365234375
 40
0.9370117188
 40
0.9372558594
 40
0.9375
 40
0.9377441406
 40
0.9379882812
 40
0.9384765625
 40
0.939453125
 40
0.9404296875
 40
0.94140625
 40
0.943359375
 40
0.9453125
 40
0.94921875
 40
0.953125
 40
0.95703125
 40
0.9609375
 40
0.96875
 40
0.9765625
 40
0.984375
 40
1.0
 40
1.0
 40
1.0
 40
1.0
 10
9.3483283708
 20
7.4543205658
 30
0.0
 10
9.3525059533
 20
7.454440465
 30
0.0
 10
9.3587723272
 20
7.4546203139
 30
0.0
 10
9.3671274923
 20
7.4548601123
 30
0.0
 10
9.3733938661
 20
7.4550399612
 30
0.0
 10
9.3786158443
 20
7.455189835
 30
0.0
 10
9.3827934268
 20
7.4553097346
 30
0.0
 10
9.385926614
 20
7.4553996577
 30
0.0
 10
9.3890597999
 20
7.4554895871
 30
0.0
 10
9.3916707921
 20
7.4555645086
 30
0.0
 10
9.3937595772
 20
7.4556244898
 30
0.0
 10
9.3950650874
 20
7.4556618779
 30
0.0
 10
9.3961094508
 20
7.4556920177
 30
0.0
 10
9.396892846
 20
7.4557139948
 30
0.0
 10
9.3975452852
 20
7.4557343062
 30
0.0
 10
9.3980027583
 20
7.4557446046
 30
0.0
 10
9.398262976
 20
7.4557566095
 30
0.0
 10
9.3984615068
 20
7.4557483729
 30
0.0
 10
9.3986471655
 20
7.4558060375
 30
0.0
 10
9.3988992004
 20
7.4558599365
 30
0.0
 10
9.3993381695
 20
7.4559649699
 30
0.0
 10
9.3999663619
 20
7.4561094182
 30
0.0
 10
9.4007197246
 20
7.456285153
 30
0.0
 10
9.4017243718
 20
7.4565186288
 30
0.0
 10
9.4029801248
 20
7.4568107603
 30
0.0
 10
9.4049893608
 20
7.4572780104
 30
0.0
 10
9.4075008951
 20
7.457862128
 30
0.0
 10
9.4105147409
 20
7.4585630456
 30
0.0
 10
9.4135285854
 20
7.4592639694
 30
0.0
 10
9.4175470452
 20
7.4601985324
 30
0.0
 10
9.4225701198
 20
7.4613667369
 30
0.0
 10
9.4275931946
 20
7.4625349409
 30
0.0
 10
9.4316116542
 20
7.4634695047
 30
0.0
 10
9.4346254995
 20
7.464170426
 30
0.0
 10
9.4376393424
 20
7.4648713533
 30
0.0
 10
9.4401508857
 20
7.4654554406
 30
0.0
 10
9.4421601034
 20
7.4659227525
 30
0.0
 10
9.4434159029
 20
7.4662147267
 30
0.0
 10
9.4444204546
 20
7.4664485253
 30
0.0
 10
9.445174109
 20
7.4666232739
 30
0.0
 10
9.4458013889
 20
7.4667708077
 30
0.0
 10
9.4462419869
 20
7.4668703331
 30
0.0
 10
9.4464914119
 20
7.4669330573
 30
0.0
 10
9.4466850873
 20
7.4669636136
 30
0.0
 10
9.4468535088
 20
7.4670571914
 30
0.0
 10
9.4470868797
 20
7.4671599792
 30
0.0
 10
9.4474911746
 20
7.4673501001
 30
0.0
 10
9.4480708845
 20
7.4676163465
 30
0.0
 10
9.4487656179
 20
7.4679381343
 30
0.0
 10
9.4496922499
 20
7.4683663841
 30
0.0
 10
9.45085043
 20
7.4689019704
 30
0.0
 10
9.4527035797
 20
7.4697587554
 30
0.0
 10
9.4550199956
 20
7.4708297892
 30
0.0
 10
9.4577997038
 20
7.4721150072
 30
0.0
 10
9.4605794096
 20
7.4734002312
 30
0.0
 10
9.4642856848
 20
7.4751138611
 30
0.0
 10
9.4689185284
 20
7.4772558993
 30
0.0
 10
9.4735513724
 20
7.479397937
 30
0.0
 10
9.4772576472
 20
7.4811115678
 30
0.0
 10
9.4800373541
 20
7.4823967893
 30
0.0
 10
9.4828170579
 20
7.4836820167
 30
0.0
 10
9.4851334874
 20
7.4847530212
 30
0.0
 10
9.4869866094
 20
7.4856098659
 30
0.0
 10
9.4881448599
 20
7.4861453001
 30
0.0
 10
9.4890713476
 20
7.4865738622
 30
0.0
 10
9.4897665218
 20
7.4868946957
 30
0.0
 10
9.4903448525
 20
7.4871639278
 30
0.0
 10
9.4907516094
 20
7.4873487188
 30
0.0
 10
9.4909810356
 20
7.4874600464
 30
0.0
 10
9.491161574
 20
7.4875273929
 30
0.0
 10
9.4913097406
 20
7.4876564696
 30
0.0
 10
9.4915185878
 20
7.4878070397
 30
0.0
 10
9.4918788094
 20
7.4880805697
 30
0.0
 10
9.4923961622
 20
7.4884660817
 30
0.0
 10
9.4930158082
 20
7.4889309412
 30
0.0
 10
9.4938424141
 20
7.4895499697
 30
0.0
 10
9.4948755307
 20
7.4903240238
 30
0.0
 10
9.4965285959
 20
7.4915623603
 30
0.0
 10
9.4985949004
 20
7.4931103325
 30
0.0
 10
9.5010744774
 20
7.494967877
 30
0.0
 10
9.5035540513
 20
7.4968254274
 30
0.0
 10
9.5068601509
 20
7.4993021592
 30
0.0
 10
9.510992775
 20
7.5023980748
 30
0.0
 10
9.5151253994
 20
7.5054939898
 30
0.0
 10
9.5184314985
 20
7.5079707224
 30
0.0
 10
9.5209110741
 20
7.5098282706
 30
0.0
 10
9.5233906447
 20
7.5116858233
 30
0.0
 10
9.525456969
 20
7.5132337699
 30
0.0
 10
9.5271099939
 20
7.5144721586
 30
0.0
 10
9.5281432132
 20
7.51524608
 30
0.0
 10
9.5289696081
 20
7.515865381
 30
0.0
 10
9.5295898988
 20
7.516329408
 30
0.0
 10
9.5301052345
 20
7.5167175245
 30
0.0
 10
9.530469057
 20
7.5169864052
 30
0.0
 10
9.5306721346
 20
7.5171444245
 30
0.0
 10
9.5308380236
 20
7.5172506196
 30
0.0
 10
9.5309519996
 20
7.5174039056
 30
0.0
 10
9.5311220755
 20
7.5175918611
 30
0.0
 10
9.5314112714
 20
7.5179284364
 30
0.0
 10
9.5318288193
 20
7.5184052571
 30
0.0
 10
9.5323279887
 20
7.5189791545
 30
0.0
 10
9.5329942075
 20
7.5197437529
 30
0.0
 10
9.5338267551
 20
7.5206997058
 30
0.0
 10
9.5351589575
 20
7.5222291158
 30
0.0
 10
9.5368241672
 20
7.5241409177
 30
0.0
 10
9.5388224373
 20
7.526435063
 30
0.0
 10
9.5408207026
 20
7.5287292129
 30
0.0
 10
9.5434850579
 20
7.5317880778
 30
0.0
 10
9.5468155015
 20
7.5356116596
 30
0.0
 10
9.5501459455
 20
7.539435241
 30
0.0
 10
9.5528103002
 20
7.5424941065
 30
0.0
 10
9.5548085675
 20
7.5447882546
 30
0.0
 10
9.5568068296
 20
7.5470824066
 30
0.0
 10
9.5584720645
 20
7.5489941878
 30
0.0
 10
9.5598042156
 20
7.5505236399
 30
0.0
 10
9.5606368937
 20
7.5514794857
 30
0.0
 10
9.5613028446
 20
7.5522443039
 30
0.0
 10
9.5618028324
 20
7.5528175299
 30
0.0
 10
9.5622178199
 20
7.5532964513
 30
0.0
 10
9.5625115865
 20
7.5536292764
 30
0.0
 10
9.5626743389
 20
7.5538232406
 30
0.0
 10
9.56281081
 20
7.5539580701
 30
0.0
 10
9.5628922112
 20
7.5541335848
 30
0.0
 10
9.5630199551
 20
7.5543534129
 30
0.0
 10
9.5632345571
 20
7.5547447243
 30
0.0
 10
9.5635458105
 20
7.5553002836
 30
0.0
 10
9.5639173118
 20
7.5559684344
 30
0.0
 10
9.5644133463
 20
7.5568587854
 30
0.0
 10
9.56503315
 20
7.5579719011
 30
0.0
 10
9.5660249698
 20
7.5597527873
 30
0.0
 10
9.5672646985
 20
7.5619789289
 30
0.0
 10
9.5687523927
 20
7.5646502844
 30
0.0
 10
9.5702400816
 20
7.5673216437
 30
0.0
 10
9.5722236687
 20
7.5708834548
 30
0.0
 10
9.5747031518
 20
7.5753357191
 30
0.0
 10
9.5771826354
 20
7.5797879832
 30
0.0
 10
9.5791662217
 20
7.5833497948
 30
0.0
 10
9.580653913
 20
7.5860211527
 30
0.0
 10
9.5821415984
 20
7.5886925134
 30
0.0
 10
9.5833813544
 20
7.5909186385
 30
0.0
 10
9.5843731185
 20
7.5926995585
 30
0.0
 10
9.5849930639
 20
7.5938125883
 30
0.0
 10
9.5854888074
 20
7.5947031155
 30
0.0
 10
9.5858611979
 20
7.5953707279
 30
0.0
 10
9.5861696691
 20
7.5959279719
 30
0.0
 10
9.5863892378
 20
7.5963162757
 30
0.0
 10
9.5865090239
 20
7.5965409227
 30
0.0
 10
9.5866148691
 20
7.5967016355
 30
0.0
 10
9.5866595325
 20
7.5968920587
 30
0.0
 10
9.5867404246
 20
7.597135593
 30
0.0
 10
9.5868720428
 20
7.5975666064
 30
0.0
 10
9.587065267
 20
7.5981798156
 30
0.0
 10
9.5872949111
 20
7.598916747
 30
0.0
 10
9.5876018803
 20
7.599898945
 30
0.0
 10
9.5879853257
 20
7.6011268216
 30
0.0
 10
9.5885989871
 20
7.6030913519
 30
0.0
 10
9.5893660128
 20
7.6055470396
 30
0.0
 10
9.5902864656
 20
7.6084938543
 30
0.0
 10
9.5912069125
 20
7.6114406718
 30
0.0
 10
9.5924341771
 20
7.6153697607
 30
0.0
 10
9.593968257
 20
7.6202811223
 30
0.0
 10
9.5955023375
 20
7.6251924837
 30
0.0
 10
9.5967296013
 20
7.629121573
 30
0.0
 10
9.5976500507
 20
7.6320683895
 30
0.0
 10
9.5985704939
 20
7.6350152081
 30
0.0
 10
9.5993375493
 20
7.6374708833
 30
0.0
 10
9.5999511503
 20
7.6394354392
 30
0.0
 10
9.6003347495
 20
7.6406632507
 30
0.0
 10
9.600641403
 20
7.6416455823
 30
0.0
 10
9.6008720118
 20
7.6423821054
 30
0.0
 10
9.6010622174
 20
7.6429965922
 30
0.0
 10
9.6011992244
 20
7.6434253248
 30
0.0
 10
9.6012714822
 20
7.6436725137
 30
0.0
 10
9.6013426676
 20
7.6438517113
 30
0.0
 10
9.6013489005
 20
7.6440545855
 30
0.0
 10
9.6013798671
 20
7.6443168258
 30
0.0
 10
9.6014235029
 20
7.6447795942
 30
0.0
 10
9.6014913584
 20
7.6454386802
 30
0.0
 10
9.6015704228
 20
7.6462304445
 30
0.0
 10
9.601676667
 20
7.6472858294
 30
0.0
 10
9.6018091899
 20
7.6486051636
 30
0.0
 10
9.6020213843
 20
7.6507160407
 30
0.0
 10
9.6022865731
 20
7.6533546568
 30
0.0
 10
9.602604823
 20
7.6565209877
 30
0.0
 10
9.6029230666
 20
7.6596873208
 30
0.0
 10
9.6033473936
 20
7.6639090975
 30
0.0
 10
9.6038778015
 20
7.6691863187
 30
0.0
 10
9.60440821
 20
7.6744635398
 30
0.0
 10
9.6048325361
 20
7.6786853167
 30
0.0
 10
9.6051507824
 20
7.6818516494
 30
0.0
 10
9.6054690223
 20
7.6850179819
 30
0.0
 10
9.6057342422
 20
7.6876565928
 30
0.0
 10
9.6059463732
 20
7.6897674806
 30
0.0
 10
9.6060790575
 20
7.6910867875
 30
0.0
 10
9.6061849703
 20
7.6921422285
 30
0.0
 10
9.6062650475
 20
7.6929338214
 30
0.0
 10
9.606329734
 20
7.6935934435
 30
0.0
 10
9.6063790269
 20
7.6940552549
 30
0.0
 10
9.6064009294
 20
7.6943190285
 30
0.0
 10
9.6064350045
 20
7.6945171929
 30
0.0
 10
9.606401619
 20
7.6947140801
 30
0.0
 10
9.6063806359
 20
7.6949770419
 30
0.0
 10
9.6063329521
 20
7.6954370174
 30
0.0
 10
9.6062705642
 20
7.6960942338
 30
0.0
 10
9.6061932452
 20
7.6968828471
 30
0.0
 10
9.6060910102
 20
7.6979343476
 30
0.0
 10
9.6059629231
 20
7.6992487178
 30
0.0
 10
9.6057581476
 20
7.7013517132
 30
0.0
 10
9.6055021221
 20
7.7039804563
 30
0.0
 10
9.6051949155
 20
7.7071349485
 30
0.0
 10
9.6048877025
 20
7.7102894406
 30
0.0
 10
9.6044780874
 20
7.7144954301
 30
0.0
 10
9.6039660677
 20
7.719752917
 30
0.0
 10
9.6034540485
 20
7.7250104039
 30
0.0
 10
9.6030444325
 20
7.7292163933
 30
0.0
 10
9.6027372222
 20
7.7323708856
 30
0.0
 10
9.6024300056
 20
7.7355253771
 30
0.0
 10
9.6021740111
 20
7.7381541225
 30
0.0
 10
9.6019691722
 20
7.7402571132
 30
0.0
 10
9.6018412466
 20
7.7415714951
 30
0.0
 10
9.60173868
 20
7.7426229716
 30
0.0
 10
9.6016623743
 20
7.7434116586
 30
0.0
 10
9.6015968161
 20
7.7440686443
 30
0.0
 10
9.6015547918
 20
7.7445290317
 30
0.0
 10
9.6015247407
 20
7.7447913335
 30
0.0
 10
9.6015192092
 20
7.7449902479
 30
0.0
 10
9.6014486692
 20
7.7451807986
 30
0.0
 10
9.6013772915
 20
7.7454377835
 30
0.0
 10
9.6012418155
 20
7.7458861479
 30
0.0
 10
9.6010538018
 20
7.7465273791
 30
0.0
 10
9.6008258212
 20
7.7472965523
 30
0.0
 10
9.6005226728
 20
7.7483222229
 30
0.0
 10
9.6001434546
 20
7.7496042747
 30
0.0
 10
9.5995368635
 20
7.751655578
 30
0.0
 10
9.5987785704
 20
7.7542197001
 30
0.0
 10
9.5978686419
 20
7.7572966496
 30
0.0
 10
9.5969587072
 20
7.7603735984
 30
0.0
 10
9.5957454631
 20
7.764476197
 30
0.0
 10
9.5942289074
 20
7.7696044451
 30
0.0
 10
9.5927123513
 20
7.7747326931
 30
0.0
 10
9.5914991079
 20
7.778835292
 30
0.0
 10
9.590589171
 20
7.7819122397
 30
0.0
 10
9.5896792507
 20
7.7849891931
 30
0.0
 10
9.5889209322
 20
7.7875533033
 30
0.0
 10
9.5883143928
 20
7.7896046309
 30
0.0
 10
9.587935043
 20
7.7908866207
 30
0.0
 10
9.5876321647
 20
7.7919124187
 30
0.0
 10
9.587403359
 20
7.7926812026
 30
0.0
 10
9.5872179271
 20
7.793323652
 30
0.0
 10
9.5870578301
 20
7.793833583
 30
0.0
 10
9.586969868
 20
7.7942270394
 30
0.0
 10
9.5867593389
 20
7.7945784773
 30
0.0
 10
9.5865214476
 20
7.7950617388
 30
0.0
 10
9.5862093942
 20
7.7956607799
 30
0.0
 10
9.5858412177
 20
7.7963817846
 30
0.0
 10
9.5853481195
 20
7.7973423714
 30
0.0
 10
9.5847324986
 20
7.7985433628
 30
0.0
 10
9.5837470851
 20
7.8004648048
 30
0.0
 10
9.5825154624
 20
7.8028666567
 30
0.0
 10
9.5810374533
 20
7.8057488579
 30
0.0
 10
9.5795594607
 20
7.8086310648
 30
0.0
 10
9.5775887982
 20
7.8124740052
 30
0.0
 10
9.5751254719
 20
7.8172776815
 30
0.0
 10
9.5726621452
 20
7.8220813576
 30
0.0
 10
9.5706914835
 20
7.8259242983
 30
0.0
 10
9.5692134886
 20
7.8288065045
 30
0.0
 10
9.5677354881
 20
7.831688708
 30
0.0
 10
9.5665038387
 20
7.8340905527
 30
0.0
 10
9.5655184795
 20
7.8360120096
 30
0.0
 10
9.5649027204
 20
7.8372129631
 30
0.0
 10
9.5644099061
 20
7.8381736275
 30
0.0
 10
9.5640408621
 20
7.838894395
 30
0.0
 10
9.5637315226
 20
7.8394941785
 30
0.0
 10
9.5635185229
 20
7.839915707
 30
0.0
 10
9.5633912846
 20
7.8401539572
 30
0.0
 10
9.5633114177
 20
7.8403400344
 30
0.0
 10
9.5631720656
 20
7.8404978651
 30
0.0
 10
9.5630070119
 20
7.8407181588
 30
0.0
 10
9.5627085005
 20
7.8410990823
 30
0.0
 10
9.5622871099
 20
7.8416456586
 30
0.0
 10
9.5617792779
 20
7.8423005228
 30
0.0
 10
9.561102924
 20
7.843174034
 30
0.0
 10
9.560257223
 20
7.8442658002
 30
0.0
 10
9.558904246
 20
7.8460126947
 30
0.0
 10
9.5572129752
 20
7.8481962892
 30
0.0
 10
9.5551834714
 20
7.8508166128
 30
0.0
 10
9.553153962
 20
7.8534369336
 30
0.0
 10
9.5504479514
 20
7.8569306957
 30
0.0
 10
9.5470654374
 20
7.861297898
 30
0.0
 10
9.5436829238
 20
7.8656651005
 30
0.0
 10
9.5409769125
 20
7.8691588621
 30
0.0
 10
9.5389474052
 20
7.8717791845
 30
0.0
 10
9.5369178936
 20
7.8743995022
 30
0.0
 10
9.535226647
 20
7.8765831149
 30
0.0
 10
9.5338736206
 20
7.8783299724
 30
0.0
 10
9.5330280452
 20
7.8794218327
 30
0.0
 10
9.5323514336
 20
7.8802951507
 30
0.0
 10
9.5318443892
 20
7.8809506051
 30
0.0
 10
9.5314205341
 20
7.8814953352
 30
0.0
 10
9.5311264223
 20
7.8818795544
 30
0.0
 10
9.5309543195
 20
7.8820945674
 30
0.0
 10
9.5308366199
 20
7.8822686189
 30
0.0
 10
9.5306754296
 20
7.8823937735
 30
0.0
 10
9.5304756793
 20
7.8825777021
 30
0.0
 10
9.5301190482
 20
7.8828916304
 30
0.0
 10
9.5296132705
 20
7.8833442541
 30
0.0
 10
9.5290047555
 20
7.8838856242
 30
0.0
 10
9.5281939547
 20
7.8846080722
 30
0.0
 10
9.5271802645
 20
7.8855109195
 30
0.0
 10
9.5255584659
 20
7.886955594
 30
0.0
 10
9.5235311814
 20
7.8887613963
 30
0.0
 10
9.5210984555
 20
7.8909283766
 30
0.0
 10
9.5186657254
 20
7.8930953523
 30
0.0
 10
9.5154220868
 20
7.8959846547
 30
0.0
 10
9.5113675382
 20
7.8995962824
 30
0.0
 10
9.5073129893
 20
7.9032079096
 30
0.0
 10
9.5040693511
 20
7.9060972127
 30
0.0
 10
9.5016366198
 20
7.9082641863
 30
0.0
 10
9.4992038985
 20
7.9104311741
 30
0.0
 10
9.4971765997
 20
7.9122369532
 30
0.0
 10
9.4955548301
 20
7.9136816752
 30
0.0
 10
9.4945410661
 20
7.9145844014
 30
0.0
 10
9.4937304168
 20
7.915307098
 30
0.0
 10
9.4931214388
 20
7.9158477087
 30
0.0
 10
9.4926171098
 20
7.9163027083
 30
0.0
 10
9.4922065758
 20
7.9166566362
 30
0.0
 10
9.4919179961
 20
7.9169496033
 30
0.0
 10
9.4915556684
 20
7.9171375213
 30
0.0
 10
9.4910983258
 20
7.9174247736
 30
0.0
 10
9.4905178092
 20
7.9177712492
 30
0.0
 10
9.4898249723
 20
7.9181924087
 30
0.0
 10
9.4888998685
 20
7.9187520725
 30
0.0
 10
9.4877439411
 20
7.9194522967
 30
0.0
 10
9.4858942045
 20
7.9205722952
 30
0.0
 10
9.4835821205
 20
7.921972417
 30
0.0
 10
9.4808075824
 20
7.9236525101
 30
0.0
 10
9.4780330544
 20
7.9253326175
 30
0.0
 10
9.4743336801
 20
7.9275727556
 30
0.0
 10
9.4697094636
 20
7.9303729302
 30
0.0
 10
9.4650852463
 20
7.9331731034
 30
0.0
 10
9.4613858732
 20
7.9354132436
 30
0.0
 10
9.4586113416
 20
7.9370933446
 30
0.0
 10
9.4558368169
 20
7.9387734616
 30
0.0
 10
9.4535246915
 20
7.9401735092
 30
0.0
 10
9.4516750392
 20
7.9412936591
 30
0.0
 10
9.4505188973
 20
7.9419934981
 30
0.0
 10
9.4495942338
 20
7.9425539526
 30
0.0
 10
9.4489000516
 20
7.9429726963
 30
0.0
 10
9.4483237443
 20
7.9433267303
 30
0.0
 10
9.4478578138
 20
7.9435985618
 30
0.0
 10
9.4475217131
 20
7.9438335741
 30
0.0
 10
9.4471346663
 20
7.9439497295
 30
0.0
 10
9.4466364
 20
7.9441461217
 30
0.0
 10
9.4460074614
 20
7.9443773672
 30
0.0
 10
9.4452553485
 20
7.9446609589
 30
0.0
 10
9.4442516186
 20
7.9450369516
 30
0.0
 10
9.4429972686
 20
7.9455076717
 30
0.0
 10
9.4409901341
 20
7.9462604163
 30
0.0
 10
9.4384812758
 20
7.9472014869
 30
0.0
 10
9.4354706202
 20
7.9483307117
 30
0.0
 10
9.4324599715
 20
7.9494599525
 30
0.0
 10
9.4284457708
 20
7.9509656013
 30
0.0
 10
9.4234280207
 20
7.9528476642
 30
0.0
 10
9.4184102704
 20
7.9547297266
 30
0.0
 10
9.41439607
 20
7.9562353761
 30
0.0
 10
9.4113854202
 20
7.9573646148
 30
0.0
 10
9.4083747686
 20
7.9584938475
 30
0.0
 10
9.4058658979
 20
7.9594348936
 30
0.0
 10
9.4038587886
 20
7.9601876881
 30
0.0
 10
9.4026043744
 20
7.9606582813
 30
0.0
 10
9.4016007764
 20
7.9610345344
 30
0.0
 10
9.4008482605
 20
7.9613173305
 30
0.0
 10
9.4002205829
 20
7.9615510656
 30
0.0
 10
9.3997823488
 20
7.9617184643
 30
0.0
 10
9.3995301489
 20
7.9618082121
 30
0.0
 10
9.3993460146
 20
7.9618921674
 30
0.0
 10
9.399142708
 20
7.9619124996
 30
0.0
 10
9.39887832
 20
7.9619618016
 30
0.0
 10
9.3984125253
 20
7.9620377403
 30
0.0
 10
9.3977487332
 20
7.9621516299
 30
0.0
 10
9.3969514854
 20
7.9622859837
 30
0.0
 10
9.3958887319
 20
7.9624659301
 30
0.0
 10
9.3945602067
 20
7.9626905865
 30
0.0
 10
9.3924346129
 20
7.9630501913
 30
0.0
 10
9.3897776047
 20
7.9634996443
 30
0.0
 10
9.3865892017
 20
7.9640390107
 30
0.0
 10
9.3834007969
 20
7.9645783709
 30
0.0
 10
9.3791495911
 20
7.96529752
 30
0.0
 10
9.3738355837
 20
7.9661964557
 30
0.0
 10
9.3674587748
 20
7.9672751788
 30
0.0
 10
9.358956363
 20
7.9687134762
 30
0.0
 10
9.3525795541
 20
7.9697921993
 30
0.0
 10
9.3483283482
 20
7.970511348
 30
0.0
  0
SPLINE
  5
411
100
AcDbEntity
  8
0
100
AcDbSpline
 62
4
  6
CONTINUOUS
 70
0
 71
3
 72
397
 73
393
 74
0
 42
0.0000001
 43
0.0000001
 44
0.0000000001
 40
0.0
 40
0.0
 40
0.0
 40
0.0
 40
0.015625
 40
0.0234375
 40
0.03125
 40
0.0390625
 40
0.04296875
 40
0.046875
 40
0.05078125
 40
0.0546875
 40
0.056640625
 40
0.05859375
 40
0.0595703125
 40
0.060546875
 40
0.0615234375
 40
0.0620117188
 40
0.0622558594
 40
0.0625
 40
0.0627441406
 40
0.0629882812
 40
0.0634765625
 40
0.064453125
 40
0.0654296875
 40
0.06640625
 40
0.068359375
 40
0.0703125
 40
0.07421875
 40
0.078125
 40
0.08203125
 40
0.0859375
 40
0.09375
 40
0.1015625
 40
0.10546875
 40
0.109375
 40
0.11328125
 40
0.1171875
 40
0.119140625
 40
0.12109375
 40
0.1220703125
 40
0.123046875
 40
0.1240234375
 40
0.1245117188
 40
0.1247558594
 40
0.125
 40
0.1252441406
 40
0.1254882812
 40
0.1259765625
 40
0.126953125
 40
0.1279296875
 40
0.12890625
 40
0.130859375
 40
0.1328125
 40
0.13671875
 40
0.140625
 40
0.14453125
 40
0.1484375
 40
0.15625
 40
0.1640625
 40
0.16796875
 40
0.171875
 40
0.17578125
 40
0.1796875
 40
0.181640625
 40
0.18359375
 40
0.1845703125
 40
0.185546875
 40
0.1865234375
 40
0.1870117188
 40
0.1872558594
 40
0.1875
 40
0.1877441406
 40
0.1879882812
 40
0.1884765625
 40
0.189453125
 40
0.1904296875
 40
0.19140625
 40
0.193359375
 40
0.1953125
 40
0.19921875
 40
0.203125
 40
0.20703125
 40
0.2109375
 40
0.21875
 40
0.2265625
 40
0.23046875
 40
0.234375
 40
0.23828125
 40
0.2421875
 40
0.244140625
 40
0.24609375
 40
0.2470703125
 40
0.248046875
 40
0.2490234375
 40
0.2495117188
 40
0.2497558594
 40
0.25
 40
0.2502441406
 40
0.2504882812
 40
0.2509765625
 40
0.251953125
 40
0.2529296875
 40
0.25390625
 40
0.255859375
 40
0.2578125
 40
0.26171875
 40
0.265625
 40
0.26953125
 40
0.2734375
 40
0.28125
 40
0.2890625
 40
0.29296875
 40
0.296875
 40
0.30078125
 40
0.3046875
 40
0.306640625
 40
0.30859375
 40
0.3095703125
 40
0.310546875
 40
0.3115234375
 40
0.3120117188
 40
0.3122558594
 40
0.3125
 40
0.3127441406
 40
0.3129882812
 40
0.3134765625
 40
0.314453125
 40
0.3154296875
 40
0.31640625
 40
0.318359375
 40
0.3203125
 40
0.32421875
 40
0.328125
 40
0.33203125
 40
0.3359375
 40
0.34375
 40
0.3515625
 40
0.35546875
 40
0.359375
 40
0.36328125
 40
0.3671875
 40
0.369140625
 40
0.37109375
 40
0.3720703125
 40
0.373046875
 40
0.3740234375
 40
0.3745117188
 40
0.3747558594
 40
0.375
 40
0.3752441406
 40
0.3754882812
 40
0.3759765625
 40
0.376953125
 40
0.3779296875
 40
0.37890625
 40
0.380859375
 40
0.3828125
 40
0.38671875
 40
0.390625
 40
0.39453125
 40
0.3984375
 40
0.40625
 40
0.4140625
 40
0.41796875
 40
0.421875
 40
0.42578125
 40
0.4296875
 40
0.431640625
 40
0.43359375
 40
0.4345703125
 40
0.435546875
 40
0.4365234375
 40
0.4370117188
 40
0.4372558594
 40
0.4375
 40
0.4377441406
 40
0.4379882812
 40
0.4384765625
 40
0.439453125
 40
0.4404296875
 40
0.44140625
 40
0.443359375
 40
0.4453125
 40
0.44921875
 40
0.453125
 40
0.45703125
 40
0.4609375
 40
0.46875
 40
0.4765625
 40
0.48046875
 40
0.484375
 40
0.48828125
 40
0.4921875
 40
0.494140625
 40
0.49609375
 40
0.4970703125
 40
0.498046875
 40
0.4990234375
 40
0.4995117188
 40
0.4997558594
 40
0.5
 40
0.5002441406
 40
0.5004882812
 40
0.5009765625
 40
0.501953125
 40
0.5029296875
 40
0.50390625
 40
0.505859375
 40
0.5078125
 40
0.51171875
 40
0.515625
 40
0.51953125
 40
0.5234375
 40
0.53125
 40
0.5390625
 40
0.54296875
 40
0.546875
 40
0.55078125
 40
0.5546875
 40
0.556640625
 40
0.55859375
 40
0.5595703125
 40
0.560546875
 40
0.5615234375
 40
0.5620117188
 40
0.5622558594
 40
0.5625
 40
0.5627441406
 40
0.5629882812
 40
0.5634765625
 40
0.564453125
 40
0.5654296875
 40
0.56640625
 40
0.568359375
 40
0.5703125
 40
0.57421875
 40
0.578125
 40
0.58203125
 40
0.5859375
 40
0.59375
 40
0.6015625
 40
0.60546875
 40
0.609375
 40
0.61328125
 40
0.6171875
 40
0.619140625
 40
0.62109375
 40
0.6220703125
 40
0.623046875
 40
0.6240234375
 40
0.6245117188
 40
0.625
 40
0.6254882812
 40
0.6259765625
 40
0.626953125
 40
0.6279296875
 40
0.62890625
 40
0.630859375
 40
0.6328125
 40
0.63671875
 40
0.640625
 40
0.64453125
 40
0.6484375
 40
0.65625
 40
0.6640625
 40
0.66796875
 40
0.671875
 40
0.67578125
 40
0.6796875
 40
0.681640625
 40
0.68359375
 40
0.6845703125
 40
0.685546875
 40
0.6865234375
 40
0.6870117188
 40
0.6872558594
 40
0.6875
 40
0.6877441406
 40
0.6879882812
 40
0.6884765625
 40
0.689453125
 40
0.6904296875
 40
0.69140625
 40
0.693359375
 40
0.6953125
 40
0.69921875
 40
0.703125
 40
0.70703125
 40
0.7109375
 40
0.71875
 40
0.7265625
 40
0.73046875
 40
0.734375
 40
0.73828125
 40
0.7421875
 40
0.744140625
 40
0.74609375
 40
0.7470703125
 40
0.748046875
 40
0.7490234375
 40
0.7495117188
 40
0.7497558594
 40
0.75
 40
0.7502441406
 40
0.7504882812
 40
0.7509765625
 40
0.751953125
 40
0.7529296875
 40
0.75390625
 40
0.755859375
 40
0.7578125
 40
0.76171875
 40
0.765625
 40
0.76953125
 40
0.7734375
 40
0.78125
 40
0.7890625
 40
0.79296875
 40
0.796875
 40
0.80078125
 40
0.8046875
 40
0.806640625
 40
0.80859375
 40
0.8095703125
 40
0.810546875
 40
0.8115234375
 40
0.8120117188
 40
0.8125
 40
0.8129882812
 40
0.8134765625
 40
0.814453125
 40
0.8154296875
 40
0.81640625
 40
0.818359375
 40
0.8203125
 40
0.82421875
 40
0.828125
 40
0.83203125
 40
0.8359375
 40
0.84375
 40
0.8515625
 40
0.85546875
 40
0.859375
 40
0.86328125
 40
0.8671875
 40
0.869140625
 40
0.87109375
 40
0.8720703125
 40
0.873046875
 40
0.8740234375
 40
0.8745117188
 40
0.875
 40
0.8754882812
 40
0.8759765625
 40
0.876953125
 40
0.8779296875
 40
0.87890625
 40
0.880859375
 40
0.8828125
 40
0.88671875
 40
0.890625
 40
0.89453125
 40
0.8984375
 40
0.90625
 40
0.9140625
 40
0.91796875
 40
0.921875
 40
0.92578125
 40
0.9296875
 40
0.931640625
 40
0.93359375
 40
0.9345703125
 40
0.935546875
 40
0.9365234375
 40
0.9370117188
 40
0.9372558594
 40
0.9375
 40
0.9377441406
 40
0.9379882812
 40
0.9384765625
 40
0.939453125
 40
0.9404296875
 40
0.94140625
 40
0.943359375
 40
0.9453125
 40
0.94921875
 40
0.953125
 40
0.95703125
 40
0.9609375
 40
0.96875
 40
0.9765625
 40
0.984375
 40
1.0
 40
1.0
 40
1.0
 40
1.0
 10
9.3483283708
 20
7.9705113464
 30
0.0
 10
9.3441507882
 20
7.9703914472
 30
0.0
 10
9.3378844144
 20
7.9702115984
 30
0.0
 10
9.3295292493
 20
7.9699718
 30
0.0
 10
9.3232628754
 20
7.9697919511
 30
0.0
 10
9.3180408972
 20
7.9696420773
 30
0.0
 10
9.3138633147
 20
7.9695221776
 30
0.0
 10
9.3107301276
 20
7.9694322545
 30
0.0
 10
9.3075969416
 20
7.9693423251
 30
0.0
 10
9.3049859495
 20
7.9692674036
 30
0.0
 10
9.3028971644
 20
7.9692074224
 30
0.0
 10
9.3015916541
 20
7.9691700343
 30
0.0
 10
9.3005472907
 20
7.9691398945
 30
0.0
 10
9.2997638955
 20
7.9691179175
 30
0.0
 10
9.2991114563
 20
7.9690976061
 30
0.0
 10
9.2986539833
 20
7.9690873076
 30
0.0
 10
9.2983937655
 20
7.9690753027
 30
0.0
 10
9.2981952347
 20
7.9690835394
 30
0.0
 10
9.298009576
 20
7.9690258748
 30
0.0
 10
9.2977575412
 20
7.9689719758
 30
0.0
 10
9.2973185721
 20
7.9688669424
 30
0.0
 10
9.2966903797
 20
7.968722494
 30
0.0
 10
9.2959370169
 20
7.9685467593
 30
0.0
 10
9.2949323698
 20
7.9683132834
 30
0.0
 10
9.2936766168
 20
7.968021152
 30
0.0
 10
9.2916673808
 20
7.9675539019
 30
0.0
 10
9.2891558464
 20
7.9669697843
 30
0.0
 10
9.2861420007
 20
7.9662688667
 30
0.0
 10
9.2831281561
 20
7.9655679428
 30
0.0
 10
9.2791096963
 20
7.9646333799
 30
0.0
 10
9.2740866217
 20
7.9634651754
 30
0.0
 10
9.2690635469
 20
7.9622969714
 30
0.0
 10
9.2650450874
 20
7.9613624076
 30
0.0
 10
9.2620312421
 20
7.9606614863
 30
0.0
 10
9.2590173992
 20
7.959960559
 30
0.0
 10
9.2565058559
 20
7.9593764717
 30
0.0
 10
9.2544966381
 20
7.9589091598
 30
0.0
 10
9.2532408387
 20
7.9586171856
 30
0.0
 10
9.252236287
 20
7.9583833869
 30
0.0
 10
9.2514826326
 20
7.9582086384
 30
0.0
 10
9.2508553526
 20
7.9580611046
 30
0.0
 10
9.2504147547
 20
7.9579615792
 30
0.0
 10
9.2501653297
 20
7.9578988549
 30
0.0
 10
9.2499716543
 20
7.9578682987
 30
0.0
 10
9.2498032327
 20
7.9577747208
 30
0.0
 10
9.2495698618
 20
7.957671933
 30
0.0
 10
9.2491655669
 20
7.9574818122
 30
0.0
 10
9.248585857
 20
7.9572155657
 30
0.0
 10
9.2478911237
 20
7.956893778
 30
0.0
 10
9.2469644917
 20
7.9564655282
 30
0.0
 10
9.2458063115
 20
7.9559299418
 30
0.0
 10
9.2439531619
 20
7.9550731568
 30
0.0
 10
9.2416367459
 20
7.9540021231
 30
0.0
 10
9.2388570378
 20
7.9527169051
 30
0.0
 10
9.236077332
 20
7.951431681
 30
0.0
 10
9.2323710568
 20
7.9497180511
 30
0.0
 10
9.2277382131
 20
7.9475760129
 30
0.0
 10
9.2231053692
 20
7.9454339753
 30
0.0
 10
9.2193990944
 20
7.9437203445
 30
0.0
 10
9.2166193875
 20
7.942435123
 30
0.0
 10
9.2138396836
 20
7.9411498956
 30
0.0
 10
9.2115232541
 20
7.9400788911
 30
0.0
 10
9.2096701321
 20
7.9392220463
 30
0.0
 10
9.2085118817
 20
7.9386866122
 30
0.0
 10
9.207585394
 20
7.93825805
 30
0.0
 10
9.2068902198
 20
7.9379372165
 30
0.0
 10
9.2063118891
 20
7.9376679844
 30
0.0
 10
9.2059051322
 20
7.9374831934
 30
0.0
 10
9.205675706
 20
7.9373718659
 30
0.0
 10
9.2054951676
 20
7.9373045193
 30
0.0
 10
9.2053470009
 20
7.9371754426
 30
0.0
 10
9.2051381537
 20
7.9370248725
 30
0.0
 10
9.2047779322
 20
7.9367513426
 30
0.0
 10
9.2042605794
 20
7.9363658305
 30
0.0
 10
9.2036409334
 20
7.9359009711
 30
0.0
 10
9.2028143275
 20
7.9352819426
 30
0.0
 10
9.2017812109
 20
7.9345078884
 30
0.0
 10
9.2001281457
 20
7.9332695519
 30
0.0
 10
9.1980618412
 20
7.9317215798
 30
0.0
 10
9.1955822642
 20
7.9298640353
 30
0.0
 10
9.1931026903
 20
7.9280064848
 30
0.0
 10
9.1897965907
 20
7.925529753
 30
0.0
 10
9.1856639666
 20
7.9224338375
 30
0.0
 10
9.1815313421
 20
7.9193379224
 30
0.0
 10
9.1782252431
 20
7.9168611899
 30
0.0
 10
9.1757456675
 20
7.9150036416
 30
0.0
 10
9.1732660968
 20
7.9131460889
 30
0.0
 10
9.1711997725
 20
7.9115981423
 30
0.0
 10
9.1695467477
 20
7.9103597536
 30
0.0
 10
9.1685135283
 20
7.9095858323
 30
0.0
 10
9.1676871334
 20
7.9089665313
 30
0.0
 10
9.1670668427
 20
7.9085025042
 30
0.0
 10
9.1665515071
 20
7.9081143878
 30
0.0
 10
9.1661876846
 20
7.9078455071
 30
0.0
 10
9.165984607
 20
7.9076874878
 30
0.0
 10
9.1658187179
 20
7.9075812927
 30
0.0
 10
9.1657047419
 20
7.9074280067
 30
0.0
 10
9.1655346661
 20
7.9072400511
 30
0.0
 10
9.1652454702
 20
7.9069034759
 30
0.0
 10
9.1648279223
 20
7.9064266552
 30
0.0
 10
9.1643287528
 20
7.9058527577
 30
0.0
 10
9.1636625341
 20
7.9050881593
 30
0.0
 10
9.1628299865
 20
7.9041322065
 30
0.0
 10
9.1614977841
 20
7.9026027964
 30
0.0
 10
9.1598325744
 20
7.9006909946
 30
0.0
 10
9.1578343042
 20
7.8983968492
 30
0.0
 10
9.155836039
 20
7.8961026993
 30
0.0
 10
9.1531716836
 20
7.8930438344
 30
0.0
 10
9.1498412401
 20
7.8892202527
 30
0.0
 10
9.1465107961
 20
7.8853966713
 30
0.0
 10
9.1438464414
 20
7.8823378058
 30
0.0
 10
9.141848174
 20
7.8800436577
 30
0.0
 10
9.1398499119
 20
7.8777495057
 30
0.0
 10
9.1381846771
 20
7.8758377245
 30
0.0
 10
9.136852526
 20
7.8743082723
 30
0.0
 10
9.1360198479
 20
7.8733524266
 30
0.0
 10
9.135353897
 20
7.8725876084
 30
0.0
 10
9.1348539092
 20
7.8720143824
 30
0.0
 10
9.1344389217
 20
7.871535461
 30
0.0
 10
9.1341451551
 20
7.8712026358
 30
0.0
 10
9.1339824026
 20
7.8710086717
 30
0.0
 10
9.1338459315
 20
7.8708738422
 30
0.0
 10
9.1337645303
 20
7.8706983275
 30
0.0
 10
9.1336367864
 20
7.8704784993
 30
0.0
 10
9.1334221844
 20
7.870087188
 30
0.0
 10
9.133110931
 20
7.8695316286
 30
0.0
 10
9.1327394298
 20
7.8688634778
 30
0.0
 10
9.1322433952
 20
7.8679731268
 30
0.0
 10
9.1316235915
 20
7.8668600112
 30
0.0
 10
9.1306317718
 20
7.865079125
 30
0.0
 10
9.129392043
 20
7.8628529833
 30
0.0
 10
9.1279043489
 20
7.8601816279
 30
0.0
 10
9.1264166599
 20
7.8575102685
 30
0.0
 10
9.1244330729
 20
7.8539484575
 30
0.0
 10
9.1219535897
 20
7.8494961931
 30
0.0
 10
9.1194741061
 20
7.8450439291
 30
0.0
 10
9.1174905198
 20
7.8414821175
 30
0.0
 10
9.1160028286
 20
7.8388107596
 30
0.0
 10
9.1145151432
 20
7.8361393988
 30
0.0
 10
9.1132753871
 20
7.8339132737
 30
0.0
 10
9.1122836231
 20
7.8321323538
 30
0.0
 10
9.1116636776
 20
7.831019324
 30
0.0
 10
9.1111679341
 20
7.8301287968
 30
0.0
 10
9.1107955436
 20
7.8294611844
 30
0.0
 10
9.1104870724
 20
7.8289039403
 30
0.0
 10
9.1102675037
 20
7.8285156365
 30
0.0
 10
9.1101477177
 20
7.8282909895
 30
0.0
 10
9.1100418725
 20
7.8281302768
 30
0.0
 10
9.1099972091
 20
7.8279398536
 30
0.0
 10
9.1099163169
 20
7.8276963193
 30
0.0
 10
9.1097846988
 20
7.8272653058
 30
0.0
 10
9.1095914745
 20
7.8266520967
 30
0.0
 10
9.1093618305
 20
7.8259151652
 30
0.0
 10
9.1090548613
 20
7.8249329673
 30
0.0
 10
9.1086714158
 20
7.8237050907
 30
0.0
 10
9.1080577544
 20
7.8217405603
 30
0.0
 10
9.1072907287
 20
7.8192848726
 30
0.0
 10
9.106370276
 20
7.816338058
 30
0.0
 10
9.1054498291
 20
7.8133912405
 30
0.0
 10
9.1042225645
 20
7.8094621515
 30
0.0
 10
9.1026884845
 20
7.8045507899
 30
0.0
 10
9.101154404
 20
7.7996394285
 30
0.0
 10
9.0999271403
 20
7.7957103392
 30
0.0
 10
9.0990066908
 20
7.7927635228
 30
0.0
 10
9.0980862476
 20
7.7898167041
 30
0.0
 10
9.0973191922
 20
7.7873610289
 30
0.0
 10
9.0967055913
 20
7.785396473
 30
0.0
 10
9.096321992
 20
7.7841686615
 30
0.0
 10
9.0960153386
 20
7.7831863299
 30
0.0
 10
9.0957847297
 20
7.7824498068
 30
0.0
 10
9.0955945242
 20
7.78183532
 30
0.0
 10
9.0954575171
 20
7.7814065874
 30
0.0
 10
9.0953852594
 20
7.7811593986
 30
0.0
 10
9.0953140739
 20
7.780980201
 30
0.0
 10
9.0953078411
 20
7.7807773268
 30
0.0
 10
9.0952768744
 20
7.7805150864
 30
0.0
 10
9.0952332387
 20
7.7800523181
 30
0.0
 10
9.0951653832
 20
7.7793932321
 30
0.0
 10
9.0950863188
 20
7.7786014678
 30
0.0
 10
9.0949800745
 20
7.7775460828
 30
0.0
 10
9.0948475517
 20
7.7762267487
 30
0.0
 10
9.0946353573
 20
7.7741158716
 30
0.0
 10
9.0943701684
 20
7.7714772555
 30
0.0
 10
9.0940519186
 20
7.7683109246
 30
0.0
 10
9.093733675
 20
7.7651445915
 30
0.0
 10
9.093309348
 20
7.7609228147
 30
0.0
 10
9.09277894
 20
7.7556455935
 30
0.0
 10
9.0922485315
 20
7.7503683724
 30
0.0
 10
9.0918242054
 20
7.7461465956
 30
0.0
 10
9.0915059591
 20
7.7429802629
 30
0.0
 10
9.0911877193
 20
7.7398139303
 30
0.0
 10
9.0909224993
 20
7.7371753195
 30
0.0
 10
9.0907103684
 20
7.7350644316
 30
0.0
 10
9.090577684
 20
7.7337451248
 30
0.0
 10
9.0904717713
 20
7.7326896838
 30
0.0
 10
9.090391694
 20
7.7318980908
 30
0.0
 10
9.0903270075
 20
7.7312384688
 30
0.0
 10
9.0902777146
 20
7.7307766573
 30
0.0
 10
9.0902558122
 20
7.7305128837
 30
0.0
 10
9.090221737
 20
7.7303147194
 30
0.0
 10
9.0902551226
 20
7.7301178322
 30
0.0
 10
9.0902761056
 20
7.7298548704
 30
0.0
 10
9.0903237895
 20
7.7293948949
 30
0.0
 10
9.0903861774
 20
7.7287376784
 30
0.0
 10
9.0904634963
 20
7.7279490652
 30
0.0
 10
9.0905657313
 20
7.7268975646
 30
0.0
 10
9.0906938185
 20
7.7255831944
 30
0.0
 10
9.0908985939
 20
7.7234801991
 30
0.0
 10
9.0911546195
 20
7.720851456
 30
0.0
 10
9.091461826
 20
7.7176969637
 30
0.0
 10
9.0917690391
 20
7.7145424716
 30
0.0
 10
9.0921786542
 20
7.7103364821
 30
0.0
 10
9.0926906739
 20
7.7050789953
 30
0.0
 10
9.093202693
 20
7.6998215084
 30
0.0
 10
9.093612309
 20
7.695615519
 30
0.0
 10
9.0939195194
 20
7.6924610267
 30
0.0
 10
9.094226736
 20
7.6893065352
 30
0.0
 10
9.0944827304
 20
7.6866777898
 30
0.0
 10
9.0946875693
 20
7.684574799
 30
0.0
 10
9.0948154949
 20
7.6832604171
 30
0.0
 10
9.0949180616
 20
7.6822089407
 30
0.0
 10
9.0949943672
 20
7.6814202537
 30
0.0
 10
9.0950599255
 20
7.680763268
 30
0.0
 10
9.0951019498
 20
7.6803028806
 30
0.0
 10
9.0951320008
 20
7.6800405788
 30
0.0
 10
9.0951375323
 20
7.6798416644
 30
0.0
 10
9.0952080724
 20
7.6796511137
 30
0.0
 10
9.0952794501
 20
7.6793941288
 30
0.0
 10
9.0954149261
 20
7.6789457644
 30
0.0
 10
9.0956029397
 20
7.6783045332
 30
0.0
 10
9.0958309203
 20
7.6775353599
 30
0.0
 10
9.0961340687
 20
7.6765096894
 30
0.0
 10
9.0965132869
 20
7.6752276375
 30
0.0
 10
9.097119878
 20
7.6731763343
 30
0.0
 10
9.0978781711
 20
7.6706122121
 30
0.0
 10
9.0987880996
 20
7.6675352626
 30
0.0
 10
9.0996980343
 20
7.6644583139
 30
0.0
 10
9.1009112784
 20
7.6603557153
 30
0.0
 10
9.1024278341
 20
7.6552274671
 30
0.0
 10
9.1039443903
 20
7.6500992191
 30
0.0
 10
9.1051576337
 20
7.6459966202
 30
0.0
 10
9.1060675706
 20
7.6429196725
 30
0.0
 10
9.1069774909
 20
7.6398427191
 30
0.0
 10
9.1077358094
 20
7.637278609
 30
0.0
 10
9.1083423487
 20
7.6352272813
 30
0.0
 10
9.1087216985
 20
7.6339452916
 30
0.0
 10
9.1090245768
 20
7.6329194935
 30
0.0
 10
9.1092533826
 20
7.6321507097
 30
0.0
 10
9.1094388145
 20
7.6315082602
 30
0.0
 10
9.1095989115
 20
7.6309983293
 30
0.0
 10
9.1096868735
 20
7.6306048729
 30
0.0
 10
9.1098974027
 20
7.630253435
 30
0.0
 10
9.1101352939
 20
7.6297701735
 30
0.0
 10
9.1104473473
 20
7.6291711324
 30
0.0
 10
9.1108155239
 20
7.6284501276
 30
0.0
 10
9.1113086221
 20
7.6274895408
 30
0.0
 10
9.1119242429
 20
7.6262885495
 30
0.0
 10
9.1129096565
 20
7.6243671075
 30
0.0
 10
9.1141412792
 20
7.6219652555
 30
0.0
 10
9.1156192883
 20
7.6190830543
 30
0.0
 10
9.1170972809
 20
7.6162008475
 30
0.0
 10
9.1190679434
 20
7.612357907
 30
0.0
 10
9.1215312696
 20
7.6075542308
 30
0.0
 10
9.1239945963
 20
7.6027505547
 30
0.0
 10
9.1259652581
 20
7.598907614
 30
0.0
 10
9.1274432529
 20
7.5960254078
 30
0.0
 10
9.1289212535
 20
7.5931432042
 30
0.0
 10
9.1301529029
 20
7.5907413596
 30
0.0
 10
9.1311382621
 20
7.5888199027
 30
0.0
 10
9.1317540212
 20
7.5876189492
 30
0.0
 10
9.1322468355
 20
7.5866582847
 30
0.0
 10
9.1326158795
 20
7.5859375172
 30
0.0
 10
9.1329252189
 20
7.5853377337
 30
0.0
 10
9.1331382186
 20
7.5849162053
 30
0.0
 10
9.1332654569
 20
7.5846779551
 30
0.0
 10
9.1333453239
 20
7.5844918779
 30
0.0
 10
9.133484676
 20
7.5843340471
 30
0.0
 10
9.1336497297
 20
7.5841137534
 30
0.0
 10
9.133948241
 20
7.58373283
 30
0.0
 10
9.1343696316
 20
7.5831862537
 30
0.0
 10
9.1348774637
 20
7.5825313894
 30
0.0
 10
9.1355538175
 20
7.5816578782
 30
0.0
 10
9.1363995185
 20
7.5805661121
 30
0.0
 10
9.1377524955
 20
7.5788192176
 30
0.0
 10
9.1394437664
 20
7.576635623
 30
0.0
 10
9.1414732701
 20
7.5740152995
 30
0.0
 10
9.1435027796
 20
7.5713949786
 30
0.0
 10
9.1462087902
 20
7.5679012165
 30
0.0
 10
9.1495913042
 20
7.5635340143
 30
0.0
 10
9.1529738177
 20
7.5591668117
 30
0.0
 10
9.155679829
 20
7.5556730502
 30
0.0
 10
9.1577093364
 20
7.5530527277
 30
0.0
 10
9.1597388479
 20
7.55043241
 30
0.0
 10
9.1614300946
 20
7.5482487973
 30
0.0
 10
9.1627831209
 20
7.5465019398
 30
0.0
 10
9.1636286963
 20
7.5454100796
 30
0.0
 10
9.164305308
 20
7.5445367615
 30
0.0
 10
9.1648123524
 20
7.5438813072
 30
0.0
 10
9.1652362074
 20
7.5433365771
 30
0.0
 10
9.1655303193
 20
7.5429523578
 30
0.0
 10
9.1657024221
 20
7.5427373449
 30
0.0
 10
9.1658201216
 20
7.5425632933
 30
0.0
 10
9.1659813119
 20
7.5424381388
 30
0.0
 10
9.1661810623
 20
7.5422542102
 30
0.0
 10
9.1665376933
 20
7.5419402818
 30
0.0
 10
9.1670434711
 20
7.5414876581
 30
0.0
 10
9.167651986
 20
7.540946288
 30
0.0
 10
9.1684627869
 20
7.5402238401
 30
0.0
 10
9.1694764771
 20
7.5393209928
 30
0.0
 10
9.1710982757
 20
7.5378763183
 30
0.0
 10
9.1731255602
 20
7.5360705159
 30
0.0
 10
9.1755582861
 20
7.5339035356
 30
0.0
 10
9.1779910161
 20
7.53173656
 30
0.0
 10
9.1812346547
 20
7.5288472576
 30
0.0
 10
9.1852892034
 20
7.5252356299
 30
0.0
 10
9.1893437523
 20
7.5216240027
 30
0.0
 10
9.1925873905
 20
7.5187346995
 30
0.0
 10
9.1950201218
 20
7.5165677259
 30
0.0
 10
9.1974528431
 20
7.5144007381
 30
0.0
 10
9.1994801418
 20
7.5125949591
 30
0.0
 10
9.2011019114
 20
7.511150237
 30
0.0
 10
9.2021156754
 20
7.5102475108
 30
0.0
 10
9.2029263247
 20
7.5095248143
 30
0.0
 10
9.2035353027
 20
7.5089842036
 30
0.0
 10
9.2040396317
 20
7.5085292039
 30
0.0
 10
9.2044501658
 20
7.5081752761
 30
0.0
 10
9.2047387454
 20
7.5078823089
 30
0.0
 10
9.2051010732
 20
7.507694391
 30
0.0
 10
9.2055584157
 20
7.5074071386
 30
0.0
 10
9.2061389324
 20
7.5070606631
 30
0.0
 10
9.2068317692
 20
7.5066395036
 30
0.0
 10
9.2077568731
 20
7.5060798398
 30
0.0
 10
9.2089128004
 20
7.5053796156
 30
0.0
 10
9.210762537
 20
7.504259617
 30
0.0
 10
9.2130746211
 20
7.5028594953
 30
0.0
 10
9.2158491591
 20
7.5011794021
 30
0.0
 10
9.2186236872
 20
7.4994992948
 30
0.0
 10
9.2223230614
 20
7.4972591566
 30
0.0
 10
9.226947278
 20
7.4944589821
 30
0.0
 10
9.2315714953
 20
7.4916588089
 30
0.0
 10
9.2352708683
 20
7.4894186686
 30
0.0
 10
9.2380453999
 20
7.4877385677
 30
0.0
 10
9.2408199247
 20
7.4860584506
 30
0.0
 10
9.2431320501
 20
7.4846584031
 30
0.0
 10
9.2449817024
 20
7.4835382532
 30
0.0
 10
9.2461378443
 20
7.4828384142
 30
0.0
 10
9.2470625077
 20
7.4822779597
 30
0.0
 10
9.24775669
 20
7.481859216
 30
0.0
 10
9.2483329973
 20
7.4815051819
 30
0.0
 10
9.2487989277
 20
7.4812333504
 30
0.0
 10
9.2491350285
 20
7.4809983381
 30
0.0
 10
9.2495220753
 20
7.4808821827
 30
0.0
 10
9.2500203415
 20
7.4806857906
 30
0.0
 10
9.2506492801
 20
7.4804545451
 30
0.0
 10
9.251401393
 20
7.4801709533
 30
0.0
 10
9.252405123
 20
7.4797949606
 30
0.0
 10
9.2536594729
 20
7.4793242405
 30
0.0
 10
9.2556666075
 20
7.4785714959
 30
0.0
 10
9.2581754657
 20
7.4776304253
 30
0.0
 10
9.2611861213
 20
7.4765012006
 30
0.0
 10
9.2641967701
 20
7.4753719598
 30
0.0
 10
9.2682109708
 20
7.4738663109
 30
0.0
 10
9.2732287209
 20
7.4719842481
 30
0.0
 10
9.2782464712
 20
7.4701021856
 30
0.0
 10
9.2822606715
 20
7.4685965361
 30
0.0
 10
9.2852713213
 20
7.4674672974
 30
0.0
 10
9.288281973
 20
7.4663380648
 30
0.0
 10
9.2907908436
 20
7.4653970187
 30
0.0
 10
9.2927979529
 20
7.4646442242
 30
0.0
 10
9.2940523671
 20
7.464173631
 30
0.0
 10
9.2950559652
 20
7.4637973778
 30
0.0
 10
9.2958084811
 20
7.4635145818
 30
0.0
 10
9.2964361587
 20
7.4632808466
 30
0.0
 10
9.2968743927
 20
7.463113448
 30
0.0
 10
9.2971265927
 20
7.4630237001
 30
0.0
 10
9.297310727
 20
7.4629397449
 30
0.0
 10
9.2975140336
 20
7.4629194127
 30
0.0
 10
9.2977784215
 20
7.4628701106
 30
0.0
 10
9.2982442163
 20
7.462794172
 30
0.0
 10
9.2989080084
 20
7.4626802823
 30
0.0
 10
9.2997052561
 20
7.4625459286
 30
0.0
 10
9.3007680096
 20
7.4623659821
 30
0.0
 10
9.3020965348
 20
7.4621413258
 30
0.0
 10
9.3042221286
 20
7.4617817209
 30
0.0
 10
9.3068791368
 20
7.4613322679
 30
0.0
 10
9.3100675398
 20
7.4607929016
 30
0.0
 10
9.3132559446
 20
7.4602535413
 30
0.0
 10
9.3175071504
 20
7.4595343922
 30
0.0
 10
9.3228211579
 20
7.4586354565
 30
0.0
 10
9.3291979667
 20
7.4575567334
 30
0.0
 10
9.3377003786
 20
7.456118436
 30
0.0
 10
9.3440771874
 20
7.455039713
 30
0.0
 10
9.3483283933
 20
7.4543205643
 30
0.0
  0
ENDSEC
  0
SECTION
  2
OBJECTS
  0
DICTIONARY
  5
C
100
AcDbDictionary
280
0
281
1
  3
ACAD_GROUP
350
D
  3
ACAD_MLINESTYLE
350
17
  3
ACAD_LAYOUT
350
1A
  3
ACAD_PLOTSETTINGS
350
19
  3
ACAD_PLOTSTYLENAME
350
E
  3
ACAD_IMAGE_DICT
350
       413
  3
ACAD_IMAGE_VARS
350
       414
  3
ACAD_TABLESTYLE
350
       415
  0
IMAGEDEF_REACTOR
  5
412
100
AcDbRasterImageDefReactor
 90
2
330
280
  0
DICTIONARY
  5
D
102
{ACAD_REACTORS
330
C
102
}
100
AcDbDictionary
280
0
281
1
  0
ACDBDICTIONARYWDFLT
  5
E
102
{ACAD_REACTORS
330
C
102
}
100
AcDbDictionary
281
1
  3
Normal
350
F
100
AcDbDictionaryWithDefault
340
F
  0
DICTIONARY
  5
413
330
C
100
AcDbDictionary
281
1
  3
Y6K_assy_2_img_1
350
       418
  0
RASTERVARIABLES
  5
414
330
C
100
AcDbRasterVariables
 90
0
 70
0
 71
1
 72
5
  0
DICTIONARY
  5
17
102
{ACAD_REACTORS
330
C
102
}
100
AcDbDictionary
280
0
281
1
  3
Standard
350
18
  0
DICTIONARY
  5
415
330
C
100
AcDbDictionary
281
1
  3
Standard
350
       419
  3
Standard1
350
       41A
  0
DICTIONARY
  5
19
102
{ACAD_REACTORS
330
C
102
}
100
AcDbDictionary
281
1
  0
DICTIONARY
  5
1A
102
{ACAD_REACTORS
330
C
102
}
100
AcDbDictionary
281
1
  3
Model
350
416
  3
Layout1
350
417
  0
ACDBPLACEHOLDER
  5
F
102
{ACAD_REACTORS
330
E
102
}
  0
MLINESTYLE
  5
18
102
{ACAD_REACTORS
330
17
102
}
100
AcDbMlineStyle
  2
STANDARD
 70
0
  3

 62
256
 51
90.0
 52
90.0
 71
2
 49
0.5
 62
256
  6
BYLAYER
 49
-0.5
 62
256
  6
BYLAYER
  0
LAYOUT
  5
416
102
{ACAD_REACTORS
330
1A
102
}
100
AcDbPlotSettings
  1

  2
none_device
  4
ANSI_C_(22.00_x_17.00_Inches)
  6

 40
0.0
 41
0.0
 42
0.0
 43
0.0
 44
558.8
 45
431.8
 46
0.0
 47
0.0
 48
0.0
 49
0.0
140
0.0
141
0.0
142
1.0
143
1.0
 70
1024
 72
0
 73
0
 74
0
  7

 75
0
147
1.0
148
0.0
149
0.0
100
AcDbLayout
  1
Model
 70
0
 71
0
 10
0.0
 20
0.0
 11
22.0
 21
17.0
 12
0.0
 22
0.0
 32
0.0
 14
0.0
 24
0.0
 34
0.0
 15
0.0
 25
0.0
 35
0.0
146
0.0
 13
0.0
 23
0.0
 33
0.0
 16
1.0
 26
0.0
 36
0.0
 17
0.0
 27
1.0
 37
0.0
 76
0
330
20C
345
0
346
0
  0
LAYOUT
  5
417
102
{ACAD_REACTORS
330
1A
102
}
100
AcDbPlotSettings
  1

  2
none_device
  4
ANSI_C_(22.00_x_17.00_Inches)
  6

 40
0.0
 41
0.0
 42
0.0
 43
0.0
 44
558.8
 45
431.8
 46
0.0
 47
0.0
 48
0.0
 49
0.0
140
0.0
141
0.0
142
1.0
143
1.0
 70
0
 72
0
 73
0
 74
0
  7

 75
0
147
1.0
148
0.0
149
0.0
100
AcDbLayout
  1
Layout1
 70
0
 71
1
 10
0.0
 20
0.0
 11
22.0
 21
17.0
 12
0.0
 22
0.0
 32
0.0
 14
0.0
 24
0.0
 34
0.0
 15
0.0
 25
0.0
 35
0.0
146
0.0
 13
0.0
 23
0.0
 33
0.0
 16
1.0
 26
0.0
 36
0.0
 17
0.0
 27
1.0
 37
0.0
 76
0
330
20D
345
0
346
0
  0
IMAGEDEF
  5
418
102
{ACAD_REACTORS
330
413
330
412
102
}
100
AcDbRasterImageDef
 90
0
  1
Y6K_assy_2_img_1.png
 10
369.0
 20
92.0
 11
0.0066666667
 21
0.0066666667
280
1
281
0
  0
TABLESTYLE
  5
419
102
{ACAD_REACTORS
330
415
330
283
330
284
102
}
330
415
100
AcDbTableStyle
  3
Standard
 70
0
 71
0
 40
0.06
 41
0.06
280
1
281
1
  7
Standard
140
0.18
170
1
 62
0
 63
7
283
0
  7
Standard
140
0.18
170
1
 62
0
 63
7
283
0
  7
Standard
140
0.18
170
1
 62
0
 63
7
283
0
  0
TABLESTYLE
  5
41A
102
{ACAD_REACTORS
330
415
330
282
102
}
330
415
100
AcDbTableStyle
  3
Standard1
 70
1
 71
0
 40
0.06
 41
0.06
280
1
281
1
  7
Standard
140
0.18
170
1
 62
0
 63
7
283
0
  7
Standard
140
0.18
170
1
 62
0
 63
7
283
0
  7
Standard
140
0.18
170
1
 62
0
 63
7
283
0
  0
ENDSEC
  0
EOF
