999
DXF file: Y6J_assy_2.dxf
999
Pro/ENGINEER 2014200 by Parametric Technology Corporation
  0
SECTION
  2
HEADER
  9
$ACADVER
  1
AC1021
  9
$DWGCODEPAGE
  3
ANSI_1252
  9
$EXTMAX
 10
22.0
 20
17.0
 30
0.0
  9
$EXTMIN
 10
0.0
 20
0.0
 30
0.0
  9
$LIMMIN
 10
0.0
 20
0.0
  9
$LIMMAX
 10
22.0
 20
17.0
  9
$VIEWCTR
 10
11.0
 20
8.5
  9
$VIEWSIZE
 40
17.0
  9
$CLAYER
  8
0
  9
$LTSCALE
 40
1.21
  9
$CELTYPE
  6
BYLAYER
  9
$DIMSCALE
 40
1.0
  9
$DIMASZ
 40
0.1875
  9
$DIMEXO
 40
0.0625
  9
$DIMDLI
 40
0.836
  9
$DIMEXE
 40
0.125
  9
$DIMCEN
 40
0.198
  9
$DIMLFAC
 40
1.0
  9
$DIMBLK
  1
_FILLED
  9
$DIMTXT
 40
0.1
  9
$DIMTOL
 70
0
  9
$DIMLIM
 70
0
  9
$DIMTFAC
 40
1.0
  9
$DIMGAP
 40
0.09
  9
$DIMDSEP
 70
46
  9
$AUNITS
 70
0
  9
$PDMODE
 70
3
  9
$PDSIZE
 40
0.3125
  9
$HANDSEED
  5
42F
  9
$TILEMODE
 70
1
  9
$MEASUREMENT
 70
0
  9
$INSUNITS
 70
1
  0
ENDSEC
  0
SECTION
  2
CLASSES
  0
CLASS
  1
ACDBDICTIONARYWDFLT
  2
AcDbDictionaryWithDefault
  3
AutoCAD 2000
 90
0
 91
1
280
0
281
0
  0
CLASS
  1
ACDBPLACEHOLDER
  2
AcDbPlaceHolder
  3
AutoCAD 2000
 90
0
 91
1
280
0
281
0
  0
CLASS
  1
LAYOUT
  2
AcDbLayout
  3
AutoCAD 2000
 90
0
 91
0
280
0
281
0
  0
CLASS
  1
RASTERVARIABLES
  2
AcDbRasterVariables
  3
ISM
 90
0
 91
1
280
0
281
0
  0
CLASS
  1
IMAGEDEF
  2
AcDbRasterImageDef
  3
ISM
 90
0
 91
1
280
0
281
0
  0
CLASS
  1
IMAGEDEF_REACTOR
  2
AcDbRasterImageDefReactor
  3
ISM
 90
0
 91
1
280
0
281
0
  0
CLASS
  1
IMAGE
  2
AcDbRasterImage
  3
ISM
 90
127
 91
1
280
0
281
1
  0
CLASS
  1
TABLESTYLE
  2
AcDbTableStyle
  3
ObjectDBX Classes
 90
2047
 91
1
280
0
281
0
  0
CLASS
  1
ACAD_TABLE
  2
AcDbTable
  3
ObjectDBX Classes
 90
1025
 91
3
280
0
281
1
  0
ENDSEC
  0
SECTION
  2
TABLES
  0
TABLE
  2
VPORT
  5
8
100
AcDbSymbolTable
 70
2
  0
VPORT
  5
1F4
100
AcDbSymbolTableRecord
100
AcDbViewportTableRecord
  2
*ACTIVE
 70
0
 10
0.0
 20
0.0
 11
1.0
 21
1.0
 12
11.0
 22
8.5
 13
0.0
 23
0.0
 14
1.0
 24
1.0
 15
0.0
 25
0.0
 16
0.0
 26
0.0
 36
1.0
 17
0.0
 27
0.0
 37
0.0
 40
17.0
 41
1.2941176471
 42
50.0
 43
0.0
 44
0.0
 50
0.0
 51
0.0
 71
0
 72
100
 73
1
 74
1
 75
0
 76
0
 77
0
 78
0
  0
ENDTAB
  0
TABLE
  2
LTYPE
  5
5
100
AcDbSymbolTable
 70
6
  0
LTYPE
  5
14
100
AcDbSymbolTableRecord
100
AcDbLinetypeTableRecord
  2
BYBLOCK
 70
0
  3

 72
65
 73
0
 40
0.0
  0
LTYPE
  5
15
100
AcDbSymbolTableRecord
100
AcDbLinetypeTableRecord
  2
BYLAYER
 70
0
  3

 72
65
 73
0
 40
0.0
  0
LTYPE
  5
16
100
AcDbSymbolTableRecord
100
AcDbLinetypeTableRecord
  2
CONTINUOUS
 70
64
  3
Solid line
 72
65
 73
0
 40
0.0
  0
LTYPE
  5
1F5
100
AcDbSymbolTableRecord
100
AcDbLinetypeTableRecord
  2
CENTER
 70
64
  3
____ _ ____ _ ____ _ ____ _ ____ _ ____ _ ____
 72
65
 73
4
 40
0.6
 49
0.375
 74
0
 49
-0.075
 74
0
 49
0.075
 74
0
 49
-0.075
 74
0
  0
LTYPE
  5
1F6
100
AcDbSymbolTableRecord
100
AcDbLinetypeTableRecord
  2
HIDDEN
 70
64
  3
- - - - - - - - - - - - - - - - - - - -
 72
65
 73
2
 40
0.2
 49
0.1
 74
0
 49
-0.1
 74
0
  0
LTYPE
  5
1F7
100
AcDbSymbolTableRecord
100
AcDbLinetypeTableRecord
  2
PHANTOM
 70
64
  3
_____ _ _ _____ _ _ _____ _ _ _____
 72
65
 73
6
 40
0.8
 49
0.45
 74
0
 49
-0.05
 74
0
 49
0.1
 74
0
 49
-0.05
 74
0
 49
0.1
 74
0
 49
-0.05
 74
0
  0
LTYPE
  5
1F8
100
AcDbSymbolTableRecord
100
AcDbLinetypeTableRecord
  2
DOT
 70
64
  3
. . . . . . . . . . . . . . . . . . . .
 72
65
 73
2
 40
0.2
 49
0.1
 74
0
 49
-0.1
 74
0
  0
LTYPE
  5
1F9
100
AcDbSymbolTableRecord
100
AcDbLinetypeTableRecord
  2
DASHED
 70
64
  3
- - - - - - - - - - - - - - - - - - - -
 72
65
 73
2
 40
0.2
 49
0.1
 74
0
 49
-0.1
 74
0
  0
ENDTAB
  0
TABLE
  2
LAYER
  5
2
100
AcDbSymbolTable
 70
36
  0
LAYER
  5
10
100
AcDbSymbolTableRecord
100
AcDbLayerTableRecord
  2
0
 70
0
 62
7
  6
CONTINUOUS
370
-3
390
F
  0
LAYER
  5
1FA
100
AcDbSymbolTableRecord
100
AcDbLayerTableRecord
  2
DEFAULT_1
 70
0
 62
7
  6
CENTER
370
-3
390
F
  0
LAYER
  5
1FB
100
AcDbSymbolTableRecord
100
AcDbLayerTableRecord
  2
DEFAULT_2
 70
0
 62
8
  6
HIDDEN
370
-3
390
F
  0
LAYER
  5
1FC
100
AcDbSymbolTableRecord
100
AcDbLayerTableRecord
  2
DEFAULT_3
 70
0
 62
7
  6
PHANTOM
370
-3
390
F
  0
LAYER
  5
1FD
100
AcDbSymbolTableRecord
100
AcDbLayerTableRecord
  2
01___PRT_ALL_DTM_PLN
 70
0
 62
7
  6
CONTINUOUS
370
-3
390
F
  0
LAYER
  5
1FE
100
AcDbSymbolTableRecord
100
AcDbLayerTableRecord
  2
01___PRT_DEF_DTM_PLN
 70
0
 62
7
  6
CONTINUOUS
370
-3
390
F
  0
LAYER
  5
1FF
100
AcDbSymbolTableRecord
100
AcDbLayerTableRecord
  2
02___PRT_ALL_AXES
 70
0
 62
7
  6
CONTINUOUS
370
-3
390
F
  0
LAYER
  5
200
100
AcDbSymbolTableRecord
100
AcDbLayerTableRecord
  2
03___PRT_ALL_CURVES
 70
0
 62
7
  6
CONTINUOUS
370
-3
390
F
  0
LAYER
  5
201
100
AcDbSymbolTableRecord
100
AcDbLayerTableRecord
  2
04___PRT_ALL_DTM_PNT
 70
0
 62
7
  6
CONTINUOUS
370
-3
390
F
  0
LAYER
  5
202
100
AcDbSymbolTableRecord
100
AcDbLayerTableRecord
  2
05___PRT_ALL_DTM_CSYS
 70
0
 62
7
  6
CONTINUOUS
370
-3
390
F
  0
LAYER
  5
203
100
AcDbSymbolTableRecord
100
AcDbLayerTableRecord
  2
05___PRT_DEF_DTM_CSYS
 70
0
 62
7
  6
CONTINUOUS
370
-3
390
F
  0
LAYER
  5
204
100
AcDbSymbolTableRecord
100
AcDbLayerTableRecord
  2
06___PRT_ALL_SURFS
 70
0
 62
7
  6
CONTINUOUS
370
-3
390
F
  0
LAYER
  5
205
100
AcDbSymbolTableRecord
100
AcDbLayerTableRecord
  2
DATUM_PLANES
 70
0
 62
7
  6
CONTINUOUS
370
-3
390
F
  0
LAYER
  5
206
100
AcDbSymbolTableRecord
100
AcDbLayerTableRecord
  2
PORT_AREAS
 70
0
 62
7
  6
CONTINUOUS
370
-3
390
F
  0
LAYER
  5
207
100
AcDbSymbolTableRecord
100
AcDbLayerTableRecord
  2
SUNNBOMCOSMETIC
 70
0
 62
7
  6
CONTINUOUS
370
-3
390
F
  0
LAYER
  5
208
100
AcDbSymbolTableRecord
100
AcDbLayerTableRecord
  2
SUNNBOMSTAMPING
 70
0
 62
7
  6
CONTINUOUS
370
-3
390
F
  0
LAYER
  5
209
100
AcDbSymbolTableRecord
100
AcDbLayerTableRecord
  2
THREADS
 70
0
 62
7
  6
CONTINUOUS
370
-3
390
F
  0
ENDTAB
  0
TABLE
  2
STYLE
  5
3
100
AcDbSymbolTable
 70
1
  0
STYLE
  5
11
100
AcDbSymbolTableRecord
100
AcDbTextStyleTableRecord
  2
STANDARD
 70
0
 40
0.0
 41
0.8
 50
0.0
 71
0
 42
0.2
  3
txt
  4

  0
STYLE
  5
20A
100
AcDbSymbolTableRecord
100
AcDbTextStyleTableRecord
  2
TEXTSTYLE_1
 70
0
 40
0.0
 41
0.8
 50
0.0
 71
0
 42
0.2
  3
gdt
  4

  0
ENDTAB
  0
TABLE
  2
VIEW
  5
6
100
AcDbSymbolTable
 70
0
  0
ENDTAB
  0
TABLE
  2
UCS
  5
7
100
AcDbSymbolTable
 70
0
  0
ENDTAB
  0
TABLE
  2
APPID
  5
9
100
AcDbSymbolTable
 70
1
  0
APPID
  5
20B
100
AcDbSymbolTableRecord
100
AcDbRegAppTableRecord
  2
ACAD
 70
0
  0
ENDTAB
  0
TABLE
  2
BLOCK_RECORD
  5
1
100
AcDbSymbolTable
 70
0
  0
BLOCK_RECORD
  5
20C
100
AcDbSymbolTableRecord
100
AcDbBlockTableRecord
  2
*Model_Space
  0
BLOCK_RECORD
  5
20D
100
AcDbSymbolTableRecord
100
AcDbBlockTableRecord
  2
*Paper_Space
  0
BLOCK_RECORD
  5
20E
100
AcDbSymbolTableRecord
100
AcDbBlockTableRecord
  2
SUN_FIRST_THIRD_ANGLE_BL0
  0
BLOCK_RECORD
  5
20F
100
AcDbSymbolTableRecord
100
AcDbBlockTableRecord
  2
*T1
  0
BLOCK_RECORD
  5
210
100
AcDbSymbolTableRecord
100
AcDbBlockTableRecord
  2
*T2
  0
BLOCK_RECORD
  5
211
100
AcDbSymbolTableRecord
100
AcDbBlockTableRecord
  2
*T3
  0
ENDTAB
  0
TABLE
  2
DIMSTYLE
  5
A
100
AcDbSymbolTable
 70
1
100
AcDbDimStyleTable
 71
0
  0
DIMSTYLE
105
212
100
AcDbSymbolTableRecord
100
AcDbDimStyleTableRecord
  2
STANDARD
 70
0
  3

  4

 40
1.0
 41
0.1875
 42
0.0625
 43
0.38
 44
0.125
 45
0.0
 46
0.0
 47
0.001
 48
0.001
140
0.1
141
0.09
142
0.0
143
25.4
144
1.0
145
0.0
146
1.0
147
0.09
 71
0.0
 72
0.0
 73
1
 74
1
 75
0
 76
0
 77
0
 78
4
170
0
171
2
172
0
173
0
174
0
175
0
176
0
177
0
178
0
270
2
271
3
272
3
273
2
274
2
275
0
280
0
281
0
282
0
283
1
284
4
285
0
286
0
287
3
288
0
340
11
278
46
  0
ENDTAB
  0
ENDSEC
  0
SECTION
  2
BLOCKS
  0
BLOCK
  5
20
100
AcDbEntity
  8
0
100
AcDbBlockBegin
  2
*Model_Space
 70
0
 10
0.0
 20
0.0
 30
0.0
  3
*Model_Space
  1

  0
ENDBLK
  5
21
100
AcDbEntity
  8
0
100
AcDbBlockEnd
  0
BLOCK
  5
1C
100
AcDbEntity
  8
0
100
AcDbBlockBegin
  2
*Paper_Space
 70
0
 10
0.0
 20
0.0
 30
0.0
  3
*Paper_Space
  1

  0
ENDBLK
  5
1D
100
AcDbEntity
  8
0
100
AcDbBlockEnd
  0
BLOCK
  5
213
100
AcDbEntity
  8
0
100
AcDbBlockBegin
 62
2
  6
CONTINUOUS
  2
SUN_FIRST_THIRD_ANGLE_BL0
 70
64
 10
20.4816717061
 20
1.2289683772
  3
SUN_FIRST_THIRD_ANGLE_BL0
  1

  0
TEXT
  5
214
100
AcDbEntity
  8
0
100
AcDbText
 62
2
  6
CONTINUOUS
 10
19.4750896608
 20
1.4136269581
  7
STANDARD
 40
0.08
  1
FIRST ANGLE
 41
0.8
 72
0
100
AcDbText
  0
TEXT
  5
215
100
AcDbEntity
  8
0
100
AcDbText
 62
2
  6
CONTINUOUS
 10
20.7842537513
 20
1.4047600029
  7
STANDARD
 40
0.08
  1
THIRD ANGLE
 41
0.8
 72
0
100
AcDbText
  0
LINE
  5
216
100
AcDbEntity
  8
0
100
AcDbLine
 62
7
  6
CONTINUOUS
 10
19.4767170086
 20
1.1727031207
 11
19.6334271527
 21
1.1717972817
  0
LINE
  5
217
100
AcDbEntity
  8
0
100
AcDbLine
 62
7
  6
CONTINUOUS
 10
19.6596964832
 20
1.1717972817
 11
19.6950230232
 21
1.171593082
  0
LINE
  5
218
100
AcDbEntity
  8
0
100
AcDbLine
 62
7
  6
CONTINUOUS
 10
19.7194818561
 20
1.1708914427
 11
19.8852396156
 21
1.1699333054
  0
LINE
  5
219
100
AcDbEntity
  8
0
100
AcDbLine
 62
7
  6
CONTINUOUS
 10
19.4758111696
 20
1.2723454088
 11
19.88525039
 21
1.3511534004
  0
LINE
  5
21A
100
AcDbEntity
  8
0
100
AcDbLine
 62
7
  6
CONTINUOUS
 10
19.88525039
 20
1.3511534004
 11
19.8831348489
 21
0.9851647912
  0
LINE
  5
21B
100
AcDbEntity
  8
0
100
AcDbLine
 62
7
  6
CONTINUOUS
 10
19.8831348489
 20
0.9851647912
 11
19.4767170086
 21
1.0658141206
  0
LINE
  5
21C
100
AcDbEntity
  8
0
100
AcDbLine
 62
7
  6
CONTINUOUS
 10
19.4767170086
 20
1.0658141206
 11
19.4779056764
 21
1.2714536432
  0
CIRCLE
  5
21D
100
AcDbEntity
  8
0
100
AcDbCircle
 62
7
  6
CONTINUOUS
 10
20.2068232291
 20
1.1717972817
 40
0.175742101
  0
CIRCLE
  5
21E
100
AcDbEntity
  8
0
100
AcDbCircle
 62
7
  6
CONTINUOUS
 10
20.2068232291
 20
1.1717972817
 40
0.1005522074
  0
LINE
  5
21F
100
AcDbEntity
  8
0
100
AcDbLine
 62
7
  6
CONTINUOUS
 10
20.2077290681
 20
1.3756110529
 11
20.2071171714
 21
1.2379342989
  0
LINE
  5
220
100
AcDbEntity
  8
0
100
AcDbLine
 62
7
  6
CONTINUOUS
 10
20.2077290681
 20
1.2016899681
 11
20.2074674401
 21
1.1428236749
  0
LINE
  5
221
100
AcDbEntity
  8
0
100
AcDbLine
 62
7
  6
CONTINUOUS
 10
20.208634907
 20
1.101141841
 11
20.2080230104
 21
0.963465087
  0
LINE
  5
222
100
AcDbEntity
  8
0
100
AcDbLine
 62
7
  6
CONTINUOUS
 10
20.0066328138
 20
1.1745147986
 11
20.1443095678
 21
1.1739029019
  0
LINE
  5
223
100
AcDbEntity
  8
0
100
AcDbLine
 62
7
  6
CONTINUOUS
 10
20.1832714155
 20
1.1727031207
 11
20.238153505
 21
1.172335442
  0
LINE
  5
224
100
AcDbEntity
  8
0
100
AcDbLine
 62
7
  6
CONTINUOUS
 10
20.2756669918
 20
1.1717972817
 11
20.407916871
 21
1.1712095044
  0
CIRCLE
  5
225
100
AcDbEntity
  8
0
100
AcDbCircle
 62
7
  6
CONTINUOUS
 10
20.7509457401
 20
1.1693297793
 40
0.1722024983
  0
CIRCLE
  5
226
100
AcDbEntity
  8
0
100
AcDbCircle
 62
7
  6
CONTINUOUS
 10
20.7509457401
 20
1.1693297793
 40
0.0985164967
  0
LINE
  5
227
100
AcDbEntity
  8
0
100
AcDbLine
 62
7
  6
CONTINUOUS
 10
20.7169767782
 20
1.170462078
 11
20.7825395137
 21
1.1682766535
  0
LINE
  5
228
100
AcDbEntity
  8
0
100
AcDbLine
 62
7
  6
CONTINUOUS
 10
20.8177513651
 20
1.1693297793
 11
20.947965719
 21
1.1693297793
  0
LINE
  5
229
100
AcDbEntity
  8
0
100
AcDbLine
 62
7
  6
CONTINUOUS
 10
20.6875370113
 20
1.170462078
 11
20.5573226574
 21
1.170462078
  0
LINE
  5
22A
100
AcDbEntity
  8
0
100
AcDbLine
 62
7
  6
CONTINUOUS
 10
20.7486811426
 20
1.1987695462
 11
20.7486811426
 21
1.1432869085
  0
LINE
  5
22B
100
AcDbEntity
  8
0
100
AcDbLine
 62
7
  6
CONTINUOUS
 10
20.7498134414
 20
1.1059210505
 11
20.7498134414
 21
0.9757066966
  0
LINE
  5
22C
100
AcDbEntity
  8
0
100
AcDbLine
 62
7
  6
CONTINUOUS
 10
20.7486811426
 20
1.2338708068
 11
20.7486811426
 21
1.3640851607
  0
LINE
  5
22D
100
AcDbEntity
  8
0
100
AcDbLine
 62
7
  6
CONTINUOUS
 10
21.0702539817
 20
1.2701043662
 11
21.4790138229
 21
1.3448360823
  0
LINE
  5
22E
100
AcDbEntity
  8
0
100
AcDbLine
 62
7
  6
CONTINUOUS
 10
21.4790138229
 20
1.3448360823
 11
21.4790138229
 21
0.9779712941
  0
LINE
  5
22F
100
AcDbEntity
  8
0
100
AcDbLine
 62
7
  6
CONTINUOUS
 10
21.4790138229
 20
0.9779712941
 11
21.069121683
 21
1.0617614
  0
LINE
  5
230
100
AcDbEntity
  8
0
100
AcDbLine
 62
7
  6
CONTINUOUS
 10
21.0702539817
 20
1.2701043662
 11
21.069121683
 21
1.0617614
  0
LINE
  5
231
100
AcDbEntity
  8
0
100
AcDbLine
 62
7
  6
CONTINUOUS
 10
21.4790138229
 20
1.1693297793
 11
21.3159628059
 21
1.1693297793
  0
LINE
  5
232
100
AcDbEntity
  8
0
100
AcDbLine
 62
7
  6
CONTINUOUS
 10
21.2876553377
 20
1.1693297793
 11
21.2502894796
 21
1.1693297793
  0
LINE
  5
233
100
AcDbEntity
  8
0
100
AcDbLine
 62
7
  6
CONTINUOUS
 10
21.2208497126
 20
1.1659328831
 11
21.0713862804
 21
1.1659328831
  0
LINE
  5
234
100
AcDbEntity
  8
0
100
AcDbLine
 62
7
  6
CONTINUOUS
 10
20.4796138713
 20
1.5284908897
 11
20.4766766948
 21
0.9294458646
  0
ENDBLK
  5
235
100
AcDbEntity
  8
0
  6
BYBLOCK
 62
0
100
AcDbBlockEnd
  0
BLOCK
  5
236
100
AcDbEntity
  8
0
100
AcDbBlockBegin
  2
*T1
 70
1
 10
0.0
 20
0.0
  3
*T1
  1

  0
LINE
  5
237
100
AcDbEntity
  8
0
100
AcDbLine
 62
2
  6
CONTINUOUS
 10
9.275
 20
0.0
 11
-0.0
 21
0.0
  0
LINE
  5
238
100
AcDbEntity
  8
0
100
AcDbLine
 62
2
  6
CONTINUOUS
 10
9.275
 20
0.0
 11
9.275
 21
1.25
  0
LINE
  5
239
100
AcDbEntity
  8
0
100
AcDbLine
 62
2
  6
CONTINUOUS
 10
9.275
 20
0.625
 11
-0.0
 21
0.625
  0
LINE
  5
23A
100
AcDbEntity
  8
0
100
AcDbLine
 62
2
  6
CONTINUOUS
 10
9.275
 20
1.25
 11
-0.0
 21
1.25
  0
LINE
  5
23B
100
AcDbEntity
  8
0
100
AcDbLine
 62
2
  6
CONTINUOUS
 10
6.8
 20
0.0
 11
6.8
 21
1.25
  0
LINE
  5
23C
100
AcDbEntity
  8
0
100
AcDbLine
 62
2
  6
CONTINUOUS
 10
6.4
 20
0.0
 11
6.4
 21
0.625
  0
LINE
  5
23D
100
AcDbEntity
  8
0
100
AcDbLine
 62
2
  6
CONTINUOUS
 10
5.9
 20
0.0
 11
5.9
 21
0.625
  0
LINE
  5
23E
100
AcDbEntity
  8
0
100
AcDbLine
 62
2
  6
CONTINUOUS
 10
5.2
 20
0.0
 11
5.2
 21
0.625
  0
LINE
  5
23F
100
AcDbEntity
  8
0
100
AcDbLine
 62
2
  6
CONTINUOUS
 10
4.1
 20
0.0
 11
4.1
 21
1.25
  0
LINE
  5
240
100
AcDbEntity
  8
0
100
AcDbLine
 62
2
  6
CONTINUOUS
 10
-0.0
 20
0.0
 11
-0.0
 21
1.25
  0
MTEXT
  5
241
100
AcDbEntity
  8
0
100
AcDbMText
 62
2
  6
CONTINUOUS
  7
STANDARD
 71
2
 72
1
 10
6.6
 20
0.325
 30
0.0
 11
1.0
 21
0.0
 31
0.0
 44
0.9
  1
2
 40
0.125
 41
0.2
  0
MTEXT
  5
242
100
AcDbEntity
  8
0
100
AcDbMText
 62
2
  6
CONTINUOUS
  7
STANDARD
 71
2
 72
1
 10
6.15
 20
0.325
 30
0.0
 11
1.0
 21
0.0
 31
0.0
 44
0.9
  1
C
 40
0.125
 41
0.2
  0
MTEXT
  5
243
100
AcDbEntity
  8
0
100
AcDbMText
 62
2
  6
CONTINUOUS
  7
STANDARD
 71
2
 72
1
 10
5.55
 20
0.325
 30
0.0
 11
1.0
 21
0.0
 31
0.0
 44
0.9
  1
1.000
 40
0.125
 41
1.0
  0
MTEXT
  5
244
100
AcDbEntity
  8
0
100
AcDbMText
 62
2
  6
CONTINUOUS
  7
STANDARD
 71
2
 72
1
 10
4.65
 20
0.325
 30
0.0
 11
1.0
 21
0.0
 31
0.0
 44
0.9
  1
Apr-27-22
 40
0.125
 41
1.8
  0
MTEXT
  5
245
100
AcDbEntity
  8
0
100
AcDbMText
 62
2
  6
CONTINUOUS
  7
STANDARD
 71
2
 72
1
 10
2.05
 20
0.4625
 30
0.0
 11
1.0
 21
0.0
 31
0.0
 44
0.9
  1
T-22A Line mount\PCross pilot with shuttle
 40
0.125
 41
4.8
  0
MTEXT
  5
246
100
AcDbEntity
  8
0
100
AcDbMText
 62
2
  6
CONTINUOUS
  7
STANDARD
 71
1
 72
1
 10
6.45
 20
0.5625
 30
0.0
 11
1.0
 21
0.0
 31
0.0
 44
0.9
  1
SHEET
 40
0.06
 41
0.48
  0
MTEXT
  5
247
100
AcDbEntity
  8
0
100
AcDbMText
 62
2
  6
CONTINUOUS
  7
STANDARD
 71
1
 72
1
 10
5.95
 20
0.5625
 30
0.0
 11
1.0
 21
0.0
 31
0.0
 44
0.9
  1
DWG SIZE
 40
0.06
 41
0.768
  0
MTEXT
  5
248
100
AcDbEntity
  8
0
100
AcDbMText
 62
2
  6
CONTINUOUS
  7
STANDARD
 71
1
 72
1
 10
5.25
 20
0.5625
 30
0.0
 11
1.0
 21
0.0
 31
0.0
 44
0.9
  1
SCALE
 40
0.06
 41
0.48
  0
MTEXT
  5
249
100
AcDbEntity
  8
0
100
AcDbMText
 62
2
  6
CONTINUOUS
  7
STANDARD
 71
1
 72
1
 10
4.15
 20
0.5625
 30
0.0
 11
1.0
 21
0.0
 31
0.0
 44
0.9
  1
DATE
 40
0.06
 41
0.384
  0
MTEXT
  5
24A
100
AcDbEntity
  8
0
100
AcDbMText
 62
2
  6
CONTINUOUS
  7
STANDARD
 71
1
 72
1
 10
0.05
 20
0.5625
 30
0.0
 11
1.0
 21
0.0
 31
0.0
 44
0.9
  1
DESCRIPTION
 40
0.06
 41
1.056
  0
MTEXT
  5
24B
100
AcDbEntity
  8
0
100
AcDbMText
 62
2
  6
CONTINUOUS
  7
STANDARD
 71
2
 72
1
 10
5.45
 20
1.0375
 30
0.0
 11
1.0
 21
0.0
 31
0.0
 44
0.9
  1
ALL DIMENSIONS IN INCH\PVIEWS ARE THIRD ANGLE
 40
0.12
 41
4.224
  0
MTEXT
  5
24C
100
AcDbEntity
  8
0
100
AcDbMText
 62
2
  6
CONTINUOUS
  7
STANDARD
 71
2
 72
1
 10
2.05
 20
0.95
 30
0.0
 11
1.0
 21
0.0
 31
0.0
 44
0.9
  1
Y6J
 40
0.125
 41
0.6
  0
MTEXT
  5
24D
100
AcDbEntity
  8
0
100
AcDbMText
 62
2
  6
CONTINUOUS
  7
STANDARD
 71
1
 72
1
 10
0.05
 20
1.1875
 30
0.0
 11
1.0
 21
0.0
 31
0.0
 44
0.9
  1
MODEL
 40
0.06
 41
0.48
  0
ENDBLK
  5
24E
100
AcDbEntity
  8
0
  6
BYBLOCK
 62
0
100
AcDbBlockEnd
  0
BLOCK
  5
24F
100
AcDbEntity
  8
0
100
AcDbBlockBegin
  2
*T2
 70
1
 10
0.0
 20
0.0
  3
*T2
  1

  0
LINE
  5
250
100
AcDbEntity
  8
0
100
AcDbLine
 62
2
  6
CONTINUOUS
 10
0.0
 20
0.0
 11
9.055
 21
0.0
  0
LINE
  5
251
100
AcDbEntity
  8
0
100
AcDbLine
 62
2
  6
CONTINUOUS
 10
0.0
 20
0.0
 11
0.0
 21
-2.844
  0
LINE
  5
252
100
AcDbEntity
  8
0
100
AcDbLine
 62
2
  6
CONTINUOUS
 10
0.0
 20
-0.344
 11
9.055
 21
-0.344
  0
LINE
  5
253
100
AcDbEntity
  8
0
100
AcDbLine
 62
2
  6
CONTINUOUS
 10
0.0
 20
-0.594
 11
9.055
 21
-0.594
  0
LINE
  5
254
100
AcDbEntity
  8
0
100
AcDbLine
 62
2
  6
CONTINUOUS
 10
0.0
 20
-0.844
 11
9.055
 21
-0.844
  0
LINE
  5
255
100
AcDbEntity
  8
0
100
AcDbLine
 62
2
  6
CONTINUOUS
 10
0.0
 20
-1.094
 11
9.055
 21
-1.094
  0
LINE
  5
256
100
AcDbEntity
  8
0
100
AcDbLine
 62
2
  6
CONTINUOUS
 10
0.0
 20
-1.344
 11
9.055
 21
-1.344
  0
LINE
  5
257
100
AcDbEntity
  8
0
100
AcDbLine
 62
2
  6
CONTINUOUS
 10
0.0
 20
-1.594
 11
9.055
 21
-1.594
  0
LINE
  5
258
100
AcDbEntity
  8
0
100
AcDbLine
 62
2
  6
CONTINUOUS
 10
0.0
 20
-1.844
 11
9.055
 21
-1.844
  0
LINE
  5
259
100
AcDbEntity
  8
0
100
AcDbLine
 62
2
  6
CONTINUOUS
 10
0.0
 20
-2.094
 11
9.055
 21
-2.094
  0
LINE
  5
25A
100
AcDbEntity
  8
0
100
AcDbLine
 62
2
  6
CONTINUOUS
 10
0.0
 20
-2.344
 11
9.055
 21
-2.344
  0
LINE
  5
25B
100
AcDbEntity
  8
0
100
AcDbLine
 62
2
  6
CONTINUOUS
 10
0.0
 20
-2.594
 11
9.055
 21
-2.594
  0
LINE
  5
25C
100
AcDbEntity
  8
0
100
AcDbLine
 62
2
  6
CONTINUOUS
 10
0.0
 20
-2.844
 11
9.055
 21
-2.844
  0
LINE
  5
25D
100
AcDbEntity
  8
0
100
AcDbLine
 62
2
  6
CONTINUOUS
 10
3.055
 20
0.0
 11
3.055
 21
-2.844
  0
LINE
  5
25E
100
AcDbEntity
  8
0
100
AcDbLine
 62
2
  6
CONTINUOUS
 10
9.055
 20
0.0
 11
9.055
 21
-2.844
  0
MTEXT
  5
25F
100
AcDbEntity
  8
0
100
AcDbMText
 62
2
  6
CONTINUOUS
  7
STANDARD
 71
2
 72
1
 10
1.5275
 20
-0.0995
 30
0.0
 11
1.0
 21
0.0
 31
0.0
 44
0.9
  1
Technical Data
 40
0.145
 41
3.248
  0
MTEXT
  5
260
100
AcDbEntity
  8
0
100
AcDbMText
 62
2
  6
CONTINUOUS
  7
STANDARD
 71
2
 72
1
 10
4.555
 20
-0.0995
 30
0.0
 11
1.0
 21
0.0
 31
0.0
 44
0.9
  1
U.S. Units
 40
0.145
 41
2.32
  0
MTEXT
  5
261
100
AcDbEntity
  8
0
100
AcDbMText
 62
2
  6
CONTINUOUS
  7
STANDARD
 71
2
 72
1
 10
7.555
 20
-0.0995
 30
0.0
 11
1.0
 21
0.0
 31
0.0
 44
0.9
  1
Metric Units
 40
0.145
 41
2.784
  0
MTEXT
  5
262
100
AcDbEntity
  8
0
100
AcDbMText
 62
2
  6
CONTINUOUS
  7
STANDARD
 71
2
 72
1
 10
1.5275
 20
-0.4065
 30
0.0
 11
1.0
 21
0.0
 31
0.0
 44
0.9
  1
Cavity
 40
0.125
 41
1.2
  0
MTEXT
  5
263
100
AcDbEntity
  8
0
100
AcDbMText
 62
2
  6
CONTINUOUS
  7
STANDARD
 71
2
 72
1
 10
6.055
 20
-0.4065
 30
0.0
 11
1.0
 21
0.0
 31
0.0
 44
0.9
  1
T-22A
 40
0.125
 41
1.0
  0
MTEXT
  5
264
100
AcDbEntity
  8
0
100
AcDbMText
 62
2
  6
CONTINUOUS
  7
STANDARD
 71
2
 72
1
 10
1.5275
 20
-0.6565
 30
0.0
 11
1.0
 21
0.0
 31
0.0
 44
0.9
  1
Body Features
 40
0.125
 41
2.6
  0
MTEXT
  5
265
100
AcDbEntity
  8
0
100
AcDbMText
 62
2
  6
CONTINUOUS
  7
STANDARD
 71
2
 72
1
 10
6.055
 20
-0.6565
 30
0.0
 11
1.0
 21
0.0
 31
0.0
 44
0.9
  1
Cross pilot with shuttle
 40
0.125
 41
4.8
  0
MTEXT
  5
266
100
AcDbEntity
  8
0
100
AcDbMText
 62
2
  6
CONTINUOUS
  7
STANDARD
 71
2
 72
1
 10
1.5275
 20
-0.9065
 30
0.0
 11
1.0
 21
0.0
 31
0.0
 44
0.9
  1
Body Type
 40
0.125
 41
1.8
  0
MTEXT
  5
267
100
AcDbEntity
  8
0
100
AcDbMText
 62
2
  6
CONTINUOUS
  7
STANDARD
 71
2
 72
1
 10
6.055
 20
-0.9065
 30
0.0
 11
1.0
 21
0.0
 31
0.0
 44
0.9
  1
Line mount
 40
0.125
 41
2.0
  0
MTEXT
  5
268
100
AcDbEntity
  8
0
100
AcDbMText
 62
2
  6
CONTINUOUS
  7
STANDARD
 71
2
 72
1
 10
1.5275
 20
-1.1565
 30
0.0
 11
1.0
 21
0.0
 31
0.0
 44
0.9
  1
Open Cavity Quantity
 40
0.125
 41
4.0
  0
MTEXT
  5
269
100
AcDbEntity
  8
0
100
AcDbMText
 62
2
  6
CONTINUOUS
  7
STANDARD
 71
2
 72
1
 10
6.055
 20
-1.1565
 30
0.0
 11
1.0
 21
0.0
 31
0.0
 44
0.9
  1
2
 40
0.125
 41
0.2
  0
MTEXT
  5
26A
100
AcDbEntity
  8
0
100
AcDbMText
 62
2
  6
CONTINUOUS
  7
STANDARD
 71
2
 72
1
 10
1.5275
 20
-1.4065
 30
0.0
 11
1.0
 21
0.0
 31
0.0
 44
0.9
  1
Weight
 40
0.125
 41
1.2
  0
MTEXT
  5
26B
100
AcDbEntity
  8
0
100
AcDbMText
 62
2
  6
CONTINUOUS
  7
STANDARD
 71
2
 72
1
 10
4.555
 20
-1.4065
 30
0.0
 11
1.0
 21
0.0
 31
0.0
 44
0.9
  1
4.705 lb.
 40
0.125
 41
1.8
  0
MTEXT
  5
26C
100
AcDbEntity
  8
0
100
AcDbMText
 62
2
  6
CONTINUOUS
  7
STANDARD
 71
2
 72
1
 10
7.555
 20
-1.4065
 30
0.0
 11
1.0
 21
0.0
 31
0.0
 44
0.9
  1
2,134 kg.
 40
0.125
 41
1.8
  0
MTEXT
  5
26D
100
AcDbEntity
  8
0
100
AcDbMText
 62
2
  6
CONTINUOUS
  7
STANDARD
 71
2
 72
1
 10
1.5275
 20
-1.6565
 30
0.0
 11
1.0
 21
0.0
 31
0.0
 44
0.9
  1
Maximum Operating Pressure - 6061-T651 Aluminum
 40
0.125
 41
9.4
  0
MTEXT
  5
26E
100
AcDbEntity
  8
0
100
AcDbMText
 62
2
  6
CONTINUOUS
  7
STANDARD
 71
2
 72
1
 10
4.555
 20
-1.6565
 30
0.0
 11
1.0
 21
0.0
 31
0.0
 44
0.9
  1
3000 psi
 40
0.125
 41
1.6
  0
MTEXT
  5
26F
100
AcDbEntity
  8
0
100
AcDbMText
 62
2
  6
CONTINUOUS
  7
STANDARD
 71
2
 72
1
 10
7.555
 20
-1.6565
 30
0.0
 11
1.0
 21
0.0
 31
0.0
 44
0.9
  1
210 bar
 40
0.125
 41
1.4
  0
MTEXT
  5
270
100
AcDbEntity
  8
0
100
AcDbMText
 62
2
  6
CONTINUOUS
  7
STANDARD
 71
2
 72
1
 10
1.5275
 20
-1.9065
 30
0.0
 11
1.0
 21
0.0
 31
0.0
 44
0.9
  1
Maximum Operating Pressure - 65-45-12 Ductile Iron
 40
0.125
 41
10.0
  0
MTEXT
  5
271
100
AcDbEntity
  8
0
100
AcDbMText
 62
2
  6
CONTINUOUS
  7
STANDARD
 71
2
 72
1
 10
4.555
 20
-1.9065
 30
0.0
 11
1.0
 21
0.0
 31
0.0
 44
0.9
  1
5000 psi
 40
0.125
 41
1.6
  0
MTEXT
  5
272
100
AcDbEntity
  8
0
100
AcDbMText
 62
2
  6
CONTINUOUS
  7
STANDARD
 71
2
 72
1
 10
7.555
 20
-1.9065
 30
0.0
 11
1.0
 21
0.0
 31
0.0
 44
0.9
  1
350 bar
 40
0.125
 41
1.4
  0
MTEXT
  5
273
100
AcDbEntity
  8
0
100
AcDbMText
 62
2
  6
CONTINUOUS
  7
STANDARD
 71
2
 72
1
 10
1.5275
 20
-2.1565
 30
0.0
 11
1.0
 21
0.0
 31
0.0
 44
0.9
  1
Mounting Hole Diameter
 40
0.125
 41
4.4
  0
MTEXT
  5
274
100
AcDbEntity
  8
0
100
AcDbMText
 62
2
  6
CONTINUOUS
  7
STANDARD
 71
2
 72
1
 10
4.555
 20
-2.1565
 30
0.0
 11
1.0
 21
0.0
 31
0.0
 44
0.9
  1
.42 in.
 40
0.125
 41
1.4
  0
MTEXT
  5
275
100
AcDbEntity
  8
0
100
AcDbMText
 62
2
  6
CONTINUOUS
  7
STANDARD
 71
2
 72
1
 10
7.555
 20
-2.1565
 30
0.0
 11
1.0
 21
0.0
 31
0.0
 44
0.9
  1
10,7 mm
 40
0.125
 41
1.4
  0
MTEXT
  5
276
100
AcDbEntity
  8
0
100
AcDbMText
 62
2
  6
CONTINUOUS
  7
STANDARD
 71
2
 72
1
 10
1.5275
 20
-2.4065
 30
0.0
 11
1.0
 21
0.0
 31
0.0
 44
0.9
  1
Mounting Hole Quantity
 40
0.125
 41
4.4
  0
MTEXT
  5
277
100
AcDbEntity
  8
0
100
AcDbMText
 62
2
  6
CONTINUOUS
  7
STANDARD
 71
2
 72
1
 10
6.055
 20
-2.4065
 30
0.0
 11
1.0
 21
0.0
 31
0.0
 44
0.9
  1
2
 40
0.125
 41
0.2
  0
MTEXT
  5
278
100
AcDbEntity
  8
0
100
AcDbMText
 62
2
  6
CONTINUOUS
  7
STANDARD
 71
2
 72
1
 10
1.5275
 20
-2.6565
 30
0.0
 11
1.0
 21
0.0
 31
0.0
 44
0.9
  1
Includes integral cartridge(s)
 40
0.125
 41
6.0
  0
MTEXT
  5
279
100
AcDbEntity
  8
0
100
AcDbMText
 62
2
  6
CONTINUOUS
  7
STANDARD
 71
2
 72
1
 10
6.055
 20
-2.6565
 30
0.0
 11
1.0
 21
0.0
 31
0.0
 44
0.9
  1
Yes (see Included Components)
 40
0.125
 41
5.8
  0
ENDBLK
  5
27A
100
AcDbEntity
  8
0
  6
BYBLOCK
 62
0
100
AcDbBlockEnd
  0
BLOCK
  5
27B
100
AcDbEntity
  8
0
100
AcDbBlockBegin
  2
*T3
 70
1
 10
0.0
 20
0.0
  3
*T3
  1

  0
LINE
  5
27C
100
AcDbEntity
  8
0
100
AcDbLine
 62
2
  6
CONTINUOUS
 10
0.0
 20
0.0
 11
4.6
 21
0.0
  0
LINE
  5
27D
100
AcDbEntity
  8
0
100
AcDbLine
 62
2
  6
CONTINUOUS
 10
0.0
 20
0.0
 11
0.0
 21
-1.43775
  0
LINE
  5
27E
100
AcDbEntity
  8
0
100
AcDbLine
 62
2
  6
CONTINUOUS
 10
0.0
 20
-0.34375
 11
4.6
 21
-0.34375
  0
LINE
  5
27F
100
AcDbEntity
  8
0
100
AcDbLine
 62
2
  6
CONTINUOUS
 10
0.0
 20
-0.68775
 11
4.6
 21
-0.68775
  0
LINE
  5
280
100
AcDbEntity
  8
0
100
AcDbLine
 62
2
  6
CONTINUOUS
 10
0.0
 20
-0.93775
 11
4.6
 21
-0.93775
  0
LINE
  5
281
100
AcDbEntity
  8
0
100
AcDbLine
 62
2
  6
CONTINUOUS
 10
0.0
 20
-1.18775
 11
4.6
 21
-1.18775
  0
LINE
  5
282
100
AcDbEntity
  8
0
100
AcDbLine
 62
2
  6
CONTINUOUS
 10
0.0
 20
-1.43775
 11
4.6
 21
-1.43775
  0
LINE
  5
283
100
AcDbEntity
  8
0
100
AcDbLine
 62
2
  6
CONTINUOUS
 10
1.3
 20
-0.34375
 11
1.3
 21
-1.43775
  0
LINE
  5
284
100
AcDbEntity
  8
0
100
AcDbLine
 62
2
  6
CONTINUOUS
 10
3.3
 20
-0.34375
 11
3.3
 21
-1.43775
  0
LINE
  5
285
100
AcDbEntity
  8
0
100
AcDbLine
 62
2
  6
CONTINUOUS
 10
4.6
 20
0.0
 11
4.6
 21
-1.43775
  0
MTEXT
  5
286
100
AcDbEntity
  8
0
100
AcDbMText
 62
2
  6
CONTINUOUS
  7
STANDARD
 71
2
 72
1
 10
2.3
 20
-0.099375
 30
0.0
 11
1.0
 21
0.0
 31
0.0
 44
0.9
  1
Port Headings
 40
0.145
 41
3.016
  0
MTEXT
  5
287
100
AcDbEntity
  8
0
100
AcDbMText
 62
2
  6
CONTINUOUS
  7
STANDARD
 71
2
 72
1
 10
0.65
 20
-0.44325
 30
0.0
 11
1.0
 21
0.0
 31
0.0
 44
0.9
  1
Product
 40
0.145
 41
1.624
  0
MTEXT
  5
288
100
AcDbEntity
  8
0
100
AcDbMText
 62
2
  6
CONTINUOUS
  7
STANDARD
 71
2
 72
1
 10
2.3
 20
-0.44325
 30
0.0
 11
1.0
 21
0.0
 31
0.0
 44
0.9
  1
Port
 40
0.145
 41
0.928
  0
MTEXT
  5
289
100
AcDbEntity
  8
0
100
AcDbMText
 62
2
  6
CONTINUOUS
  7
STANDARD
 71
2
 72
1
 10
3.95
 20
-0.44325
 30
0.0
 11
1.0
 21
0.0
 31
0.0
 44
0.9
  1
Size
 40
0.145
 41
0.928
  0
MTEXT
  5
28A
100
AcDbEntity
  8
0
100
AcDbMText
 62
2
  6
CONTINUOUS
  7
STANDARD
 71
2
 72
1
 10
0.65
 20
-0.75025
 30
0.0
 11
1.0
 21
0.0
 31
0.0
 44
0.9
  1
Y6J
 40
0.125
 41
0.6
  0
MTEXT
  5
28B
100
AcDbEntity
  8
0
100
AcDbMText
 62
2
  6
CONTINUOUS
  7
STANDARD
 71
2
 72
1
 10
2.3
 20
-0.75025
 30
0.0
 11
1.0
 21
0.0
 31
0.0
 44
0.9
  1
Ports 1A, 1B, 2A, 2B
 40
0.125
 41
4.0
  0
MTEXT
  5
28C
100
AcDbEntity
  8
0
100
AcDbMText
 62
2
  6
CONTINUOUS
  7
STANDARD
 71
2
 72
1
 10
3.95
 20
-0.75025
 30
0.0
 11
1.0
 21
0.0
 31
0.0
 44
0.9
  1
SAE 8
 40
0.125
 41
1.0
  0
MTEXT
  5
28D
100
AcDbEntity
  8
0
100
AcDbMText
 62
2
  6
CONTINUOUS
  7
STANDARD
 71
2
 72
1
 10
0.65
 20
-1.00025
 30
0.0
 11
1.0
 21
0.0
 31
0.0
 44
0.9
  1
Y6J
 40
0.125
 41
0.6
  0
MTEXT
  5
28E
100
AcDbEntity
  8
0
100
AcDbMText
 62
2
  6
CONTINUOUS
  7
STANDARD
 71
2
 72
1
 10
2.3
 20
-1.00025
 30
0.0
 11
1.0
 21
0.0
 31
0.0
 44
0.9
  1
Port 4
 40
0.125
 41
1.2
  0
MTEXT
  5
28F
100
AcDbEntity
  8
0
100
AcDbMText
 62
2
  6
CONTINUOUS
  7
STANDARD
 71
2
 72
1
 10
3.95
 20
-1.00025
 30
0.0
 11
1.0
 21
0.0
 31
0.0
 44
0.9
  1
SAE 6
 40
0.125
 41
1.0
  0
MTEXT
  5
290
100
AcDbEntity
  8
0
100
AcDbMText
 62
2
  6
CONTINUOUS
  7
STANDARD
 71
2
 72
1
 10
0.65
 20
-1.25025
 30
0.0
 11
1.0
 21
0.0
 31
0.0
 44
0.9
  1
Y6J
 40
0.125
 41
0.6
  0
MTEXT
  5
291
100
AcDbEntity
  8
0
100
AcDbMText
 62
2
  6
CONTINUOUS
  7
STANDARD
 71
2
 72
1
 10
2.3
 20
-1.25025
 30
0.0
 11
1.0
 21
0.0
 31
0.0
 44
0.9
  1
Port S
 40
0.125
 41
1.2
  0
MTEXT
  5
292
100
AcDbEntity
  8
0
100
AcDbMText
 62
2
  6
CONTINUOUS
  7
STANDARD
 71
2
 72
1
 10
3.95
 20
-1.25025
 30
0.0
 11
1.0
 21
0.0
 31
0.0
 44
0.9
  1
SAE 4
 40
0.125
 41
1.0
  0
ENDBLK
  5
293
100
AcDbEntity
  8
0
  6
BYBLOCK
 62
0
100
AcDbBlockEnd
  0
ENDSEC
  0
SECTION
  2
ENTITIES
  0
IMAGE
  5
294
100
AcDbEntity
  8
0
100
AcDbRasterImage
 62
7
  6
CONTINUOUS
 10
19.2297077316
 20
0.3094318264
 30
0.0
 11
0.0066666667
 21
0.0
 31
0.0
 12
0.0
 22
0.0066666667
 32
0.0
 13
369.0
 23
92.0
340
       42C
 70
9
280
0
281
50
282
50
283
0
360
       426
 71
1
 91
2
 14
-0.5
 24
-0.5
 14
368.5
 24
91.5
  0
INSERT
  5
295
100
AcDbEntity
  8
0
100
AcDbBlockReference
 62
2
  6
CONTINUOUS
  2
SUN_FIRST_THIRD_ANGLE_BL0
 10
20.4816717061
 20
1.2289683772
  0
ACAD_TABLE
  5
296
100
AcDbEntity
  8
0
 62
2
  6
CONTINUOUS
100
AcDbBlockReference
  2
*T1
 10
12.42375
 20
0.30125
 30
0.0
100
AcDbTable
342
       42E
343
20F
 11
1.0
 21
0.0
 31
0.0
 90
6
 91
4
 92
6
 93
20
 94
0
 95
0
 96
0
 70
1
 41
0.0
141
0.525
141
0.1
141
0.525
141
0.1
142
4.1
142
1.1
142
0.7
142
0.5
142
0.4
142
2.475
171
1
172
0
173
0
174
0
175
1
176
1
 91
33
178
0
145
0.0
301
CELL_VALUE
 90
4
  1
T-22A Line mount\PCross pilot with shuttle
304
ACVALUE_END
170
2
140
0.125
171
1
172
0
173
0
174
0
175
1
176
1
 91
33
178
0
145
0.0
301
CELL_VALUE
 90
4
  1
Apr-27-22
304
ACVALUE_END
170
5
140
0.125
171
1
172
0
173
0
174
0
175
1
176
1
 91
33
178
0
145
0.0
301
CELL_VALUE
 90
4
  1
1.000
304
ACVALUE_END
170
5
140
0.125
171
1
172
0
173
0
174
0
175
1
176
1
 91
33
178
0
145
0.0
301
CELL_VALUE
 90
4
  1
C
304
ACVALUE_END
170
5
140
0.125
171
1
172
0
173
0
174
0
175
1
176
1
 91
33
178
0
145
0.0
301
CELL_VALUE
 90
4
  1
2
304
ACVALUE_END
170
5
140
0.125
171
1
172
0
173
0
174
0
175
1
176
1
 91
33
178
0
145
0.0
301
CELL_VALUE
 90
4
  1
 
304
ACVALUE_END
170
1
140
0.125
171
1
172
0
173
0
174
0
175
1
176
1
 91
33
178
0
145
0.0
301
CELL_VALUE
 90
4
  1
DESCRIPTION
304
ACVALUE_END
170
1
140
0.06
171
1
172
0
173
0
174
0
175
1
176
1
 91
33
178
0
145
0.0
301
CELL_VALUE
 90
4
  1
DATE
304
ACVALUE_END
170
1
140
0.06
171
1
172
0
173
0
174
0
175
1
176
1
 91
33
178
0
145
0.0
301
CELL_VALUE
 90
4
  1
SCALE
304
ACVALUE_END
170
1
140
0.06
171
1
172
0
173
0
174
0
175
1
176
1
 91
33
178
0
145
0.0
301
CELL_VALUE
 90
4
  1
DWG SIZE
304
ACVALUE_END
170
1
140
0.06
171
1
172
0
173
0
174
0
175
1
176
1
 91
33
178
0
145
0.0
301
CELL_VALUE
 90
4
  1
SHEET
304
ACVALUE_END
170
1
140
0.06
171
1
172
0
173
0
174
0
175
1
176
1
 91
33
178
0
145
0.0
301
CELL_VALUE
 90
4
  1
 
304
ACVALUE_END
170
1
140
0.125
171
1
172
0
173
0
174
0
175
1
176
1
 91
33
178
0
145
0.0
301
CELL_VALUE
 90
4
  1
Y6J
304
ACVALUE_END
170
5
140
0.125
171
1
172
0
173
0
174
0
175
4
176
1
 91
33
178
0
145
0.0
301
CELL_VALUE
 90
4
  1
ALL DIMENSIONS IN INCH\PVIEWS ARE THIRD ANGLE
304
ACVALUE_END
170
5
140
0.12
171
1
172
0
173
1
174
0
175
1
176
1
 91
1
178
0
145
0.0
170
1
171
1
172
0
173
1
174
0
175
1
176
1
 91
1
178
0
145
0.0
170
1
171
1
172
0
173
1
174
0
175
1
176
1
 91
1
178
0
145
0.0
170
5
171
1
172
0
173
0
174
0
175
1
176
1
 91
33
178
0
145
0.0
301
CELL_VALUE
 90
4
  1
 
304
ACVALUE_END
170
1
140
0.125
171
1
172
0
173
0
174
0
175
1
176
1
 91
33
178
0
145
0.0
301
CELL_VALUE
 90
4
  1
MODEL
304
ACVALUE_END
170
1
140
0.06
171
1
172
0
173
0
174
0
175
1
176
1
 91
33
178
0
145
0.0
301
CELL_VALUE
 90
4
  1
 
304
ACVALUE_END
170
1
140
0.125
171
1
172
0
173
0
174
0
175
1
176
1
 91
33
178
0
145
0.0
301
CELL_VALUE
 90
4
  1
 
304
ACVALUE_END
170
1
140
0.125
171
1
172
0
173
0
174
0
175
1
176
1
 91
33
178
0
145
0.0
301
CELL_VALUE
 90
4
  1
 
304
ACVALUE_END
170
1
140
0.125
171
1
172
0
173
0
174
0
175
1
176
1
 91
33
178
0
145
0.0
301
CELL_VALUE
 90
4
  1
 
304
ACVALUE_END
170
1
140
0.125
171
1
172
0
173
0
174
0
175
1
176
1
 91
33
178
0
145
0.0
301
CELL_VALUE
 90
4
  1
 
304
ACVALUE_END
170
1
140
0.125
  0
ACAD_TABLE
  5
297
100
AcDbEntity
  8
0
 62
2
  6
CONTINUOUS
100
AcDbBlockReference
  2
*T2
 10
12.4237499994
 20
16.47875
 30
0.0
100
AcDbTable
342
       42D
343
210
 11
1.0
 21
0.0
 31
0.0
 90
22
 91
11
 92
3
 93
16
 94
0
 95
0
 96
0
 41
0.028
141
0.344
141
0.25
141
0.25
141
0.25
141
0.25
141
0.25
141
0.25
141
0.25
141
0.25
141
0.25
141
0.25
142
3.055
142
3.0
142
3.0
171
1
172
0
173
0
174
0
175
1
176
1
 91
33
178
0
145
0.0
301
CELL_VALUE
 90
4
  1
Technical Data
304
ACVALUE_END
170
5
140
0.145
171
1
172
0
173
0
174
0
175
1
176
1
 91
33
178
0
145
0.0
301
CELL_VALUE
 90
4
  1
U.S. Units
304
ACVALUE_END
170
5
140
0.145
171
1
172
0
173
0
174
0
175
1
176
1
 91
33
178
0
145
0.0
301
CELL_VALUE
 90
4
  1
Metric Units
304
ACVALUE_END
170
5
140
0.145
171
1
172
0
173
0
174
0
175
1
176
1
 91
33
178
0
145
0.0
301
CELL_VALUE
 90
4
  1
Cavity
304
ACVALUE_END
170
5
140
0.125
171
1
172
0
173
0
174
0
175
2
176
1
 91
33
178
0
145
0.0
301
CELL_VALUE
 90
4
  1
T-22A
304
ACVALUE_END
170
5
140
0.125
171
1
172
0
173
1
174
0
175
1
176
1
 91
1
178
0
145
0.0
170
1
171
1
172
0
173
0
174
0
175
1
176
1
 91
33
178
0
145
0.0
301
CELL_VALUE
 90
4
  1
Body Features
304
ACVALUE_END
170
5
140
0.125
171
1
172
0
173
0
174
0
175
2
176
1
 91
33
178
0
145
0.0
301
CELL_VALUE
 90
4
  1
Cross pilot with shuttle
304
ACVALUE_END
170
5
140
0.125
171
1
172
0
173
1
174
0
175
1
176
1
 91
1
178
0
145
0.0
170
1
171
1
172
0
173
0
174
0
175
1
176
1
 91
33
178
0
145
0.0
301
CELL_VALUE
 90
4
  1
Body Type
304
ACVALUE_END
170
5
140
0.125
171
1
172
0
173
0
174
0
175
2
176
1
 91
33
178
0
145
0.0
301
CELL_VALUE
 90
4
  1
Line mount
304
ACVALUE_END
170
5
140
0.125
171
1
172
0
173
1
174
0
175
1
176
1
 91
1
178
0
145
0.0
170
1
171
1
172
0
173
0
174
0
175
1
176
1
 91
33
178
0
145
0.0
301
CELL_VALUE
 90
4
  1
Open Cavity Quantity
304
ACVALUE_END
170
5
140
0.125
171
1
172
0
173
0
174
0
175
2
176
1
 91
33
178
0
145
0.0
301
CELL_VALUE
 90
4
  1
2
304
ACVALUE_END
170
5
140
0.125
171
1
172
0
173
1
174
0
175
1
176
1
 91
1
178
0
145
0.0
170
1
171
1
172
0
173
0
174
0
175
1
176
1
 91
33
178
0
145
0.0
301
CELL_VALUE
 90
4
  1
Weight
304
ACVALUE_END
170
5
140
0.125
171
1
172
0
173
0
174
0
175
1
176
1
 91
33
178
0
145
0.0
301
CELL_VALUE
 90
4
  1
4.705 lb.
304
ACVALUE_END
170
5
140
0.125
171
1
172
0
173
0
174
0
175
1
176
1
 91
33
178
0
145
0.0
301
CELL_VALUE
 90
4
  1
2,134 kg.
304
ACVALUE_END
170
5
140
0.125
171
1
172
0
173
0
174
0
175
1
176
1
 91
33
178
0
145
0.0
301
CELL_VALUE
 90
4
  1
Maximum Operating Pressure - 6061-T651 Aluminum
304
ACVALUE_END
170
5
140
0.125
171
1
172
0
173
0
174
0
175
1
176
1
 91
33
178
0
145
0.0
301
CELL_VALUE
 90
4
  1
3000 psi
304
ACVALUE_END
170
5
140
0.125
171
1
172
0
173
0
174
0
175
1
176
1
 91
33
178
0
145
0.0
301
CELL_VALUE
 90
4
  1
210 bar
304
ACVALUE_END
170
5
140
0.125
171
1
172
0
173
0
174
0
175
1
176
1
 91
33
178
0
145
0.0
301
CELL_VALUE
 90
4
  1
Maximum Operating Pressure - 65-45-12 Ductile Iron
304
ACVALUE_END
170
5
140
0.125
171
1
172
0
173
0
174
0
175
1
176
1
 91
33
178
0
145
0.0
301
CELL_VALUE
 90
4
  1
5000 psi
304
ACVALUE_END
170
5
140
0.125
171
1
172
0
173
0
174
0
175
1
176
1
 91
33
178
0
145
0.0
301
CELL_VALUE
 90
4
  1
350 bar
304
ACVALUE_END
170
5
140
0.125
171
1
172
0
173
0
174
0
175
1
176
1
 91
33
178
0
145
0.0
301
CELL_VALUE
 90
4
  1
Mounting Hole Diameter
304
ACVALUE_END
170
5
140
0.125
171
1
172
0
173
0
174
0
175
1
176
1
 91
33
178
0
145
0.0
301
CELL_VALUE
 90
4
  1
.42 in.
304
ACVALUE_END
170
5
140
0.125
171
1
172
0
173
0
174
0
175
1
176
1
 91
33
178
0
145
0.0
301
CELL_VALUE
 90
4
  1
10,7 mm
304
ACVALUE_END
170
5
140
0.125
171
1
172
0
173
0
174
0
175
1
176
1
 91
33
178
0
145
0.0
301
CELL_VALUE
 90
4
  1
Mounting Hole Quantity
304
ACVALUE_END
170
5
140
0.125
171
1
172
0
173
0
174
0
175
2
176
1
 91
33
178
0
145
0.0
301
CELL_VALUE
 90
4
  1
2
304
ACVALUE_END
170
5
140
0.125
171
1
172
0
173
1
174
0
175
1
176
1
 91
1
178
0
145
0.0
170
1
171
1
172
0
173
0
174
0
175
1
176
1
 91
33
178
0
145
0.0
301
CELL_VALUE
 90
4
  1
Includes integral cartridge(s)
304
ACVALUE_END
170
5
140
0.125
171
1
172
0
173
0
174
0
175
2
176
1
 91
33
178
0
145
0.0
301
CELL_VALUE
 90
4
  1
Yes (see Included Components)
304
ACVALUE_END
170
5
140
0.125
171
1
172
0
173
1
174
0
175
1
176
1
 91
1
178
0
145
0.0
170
1
  0
ACAD_TABLE
  5
298
100
AcDbEntity
  8
0
 62
2
  6
CONTINUOUS
100
AcDbBlockReference
  2
*T3
 10
0.52125
 20
1.959
 30
0.0
100
AcDbTable
342
       42D
343
211
 11
1.0
 21
0.0
 31
0.0
 90
22
 91
5
 92
3
 93
16
 94
0
 95
0
 96
0
 41
0.05
141
0.34375
141
0.344
141
0.25
141
0.25
141
0.25
142
1.3
142
2.0
142
1.3
171
1
172
0
173
0
174
0
175
3
176
1
 91
33
178
0
145
0.0
301
CELL_VALUE
 90
4
  1
Port Headings
304
ACVALUE_END
170
5
140
0.145
171
1
172
0
173
1
174
0
175
1
176
1
 91
1
178
0
145
0.0
170
1
171
1
172
0
173
1
174
0
175
1
176
1
 91
1
178
0
145
0.0
170
1
171
1
172
0
173
0
174
0
175
1
176
1
 91
33
178
0
145
0.0
301
CELL_VALUE
 90
4
  1
Product
304
ACVALUE_END
170
5
140
0.145
171
1
172
0
173
0
174
0
175
1
176
1
 91
33
178
0
145
0.0
301
CELL_VALUE
 90
4
  1
Port
304
ACVALUE_END
170
5
140
0.145
171
1
172
0
173
0
174
0
175
1
176
1
 91
33
178
0
145
0.0
301
CELL_VALUE
 90
4
  1
Size
304
ACVALUE_END
170
5
140
0.145
171
1
172
0
173
0
174
0
175
1
176
1
 91
33
178
0
145
0.0
301
CELL_VALUE
 90
4
  1
Y6J
304
ACVALUE_END
170
5
140
0.125
171
1
172
0
173
0
174
0
175
1
176
1
 91
33
178
0
145
0.0
301
CELL_VALUE
 90
4
  1
Ports 1A, 1B, 2A, 2B
304
ACVALUE_END
170
5
140
0.125
171
1
172
0
173
0
174
0
175
1
176
1
 91
33
178
0
145
0.0
301
CELL_VALUE
 90
4
  1
SAE 8
304
ACVALUE_END
170
5
140
0.125
171
1
172
0
173
0
174
0
175
1
176
1
 91
33
178
0
145
0.0
301
CELL_VALUE
 90
4
  1
Y6J
304
ACVALUE_END
170
5
140
0.125
171
1
172
0
173
0
174
0
175
1
176
1
 91
33
178
0
145
0.0
301
CELL_VALUE
 90
4
  1
Port 4
304
ACVALUE_END
170
5
140
0.125
171
1
172
0
173
0
174
0
175
1
176
1
 91
33
178
0
145
0.0
301
CELL_VALUE
 90
4
  1
SAE 6
304
ACVALUE_END
170
5
140
0.125
171
1
172
0
173
0
174
0
175
1
176
1
 91
33
178
0
145
0.0
301
CELL_VALUE
 90
4
  1
Y6J
304
ACVALUE_END
170
5
140
0.125
171
1
172
0
173
0
174
0
175
1
176
1
 91
33
178
0
145
0.0
301
CELL_VALUE
 90
4
  1
Port S
304
ACVALUE_END
170
5
140
0.125
171
1
172
0
173
0
174
0
175
1
176
1
 91
33
178
0
145
0.0
301
CELL_VALUE
 90
4
  1
SAE 4
304
ACVALUE_END
170
5
140
0.125
  0
MTEXT
  5
299
100
AcDbEntity
  8
0
100
AcDbMText
 62
2
  6
CONTINUOUS
  7
STANDARD
 71
1
 72
1
 10
0.52125
 20
5.75995
 30
0.0
 11
1.0
 21
0.0
 31
0.0
 44
0.6
  3
Notes\P \P1. Important: Carefully consider\P   the maximum system pressure. The\P   pressure rating of the manifold is\P   dependent on the manifold material,\P   with the port type/size a secondary\P   consideration. Manifolds\P   constructed of alu
  1
minum are not\P   rated for pressures higher than\P   3000 psi (210 bar), regardless of\P   the port type/size specified.
 40
0.1
 41
3.04
  0
LINE
  5
29A
100
AcDbEntity
  8
0
100
AcDbLine
 62
7
  6
CONTINUOUS
 10
0.30125
 20
0.30125
 11
0.30125
 21
16.69875
  0
LINE
  5
29B
100
AcDbEntity
  8
0
100
AcDbLine
 62
7
  6
CONTINUOUS
 10
0.30125
 20
0.30125
 11
21.69875
 21
0.30125
  0
LINE
  5
29C
100
AcDbEntity
  8
0
100
AcDbLine
 62
7
  6
CONTINUOUS
 10
0.30125
 20
16.69875
 11
21.69875
 21
16.69875
  0
LINE
  5
29D
100
AcDbEntity
  8
0
100
AcDbLine
 62
7
  6
CONTINUOUS
 10
21.69875
 20
0.30125
 11
21.69875
 21
16.69875
  0
LINE
  5
29E
100
AcDbEntity
  8
0
100
AcDbLine
 62
7
  6
CONTINUOUS
 10
9.3916717723
 20
11.6027703154
 11
8.7446246936
 21
10.9777707942
  0
LINE
  5
29F
100
AcDbEntity
  8
0
100
AcDbLine
 62
4
  6
CONTINUOUS
 10
9.0730394974
 20
5.8307583366
 11
9.1889506009
 21
5.7551050639
  0
LINE
  5
2A0
100
AcDbEntity
  8
0
100
AcDbLine
 62
7
  6
CONTINUOUS
 10
8.7446246936
 20
5.6651784348
 11
12.6083282277
 21
5.3972296846
  0
LINE
  5
2A1
100
AcDbEntity
  8
0
100
AcDbLine
 62
4
  6
CONTINUOUS
 10
9.2275876353
 20
5.8200403868
 11
9.0730394974
 21
5.8307583366
  0
LINE
  5
2A2
100
AcDbEntity
  8
0
100
AcDbLine
 62
4
  6
CONTINUOUS
 10
10.6384833643
 20
5.7318536943
 11
10.6642413812
 21
5.7300673697
  0
LINE
  5
2A3
100
AcDbEntity
  8
0
100
AcDbLine
 62
4
  6
CONTINUOUS
 10
10.7286364417
 20
5.6579867468
 11
10.7672734762
 21
5.6456480007
  0
LINE
  5
2A4
100
AcDbEntity
  8
0
100
AcDbLine
 62
4
  6
CONTINUOUS
 10
8.8315580265
 20
9.9043938237
 11
8.844437035
 21
9.9228191787
  0
LINE
  5
2A5
100
AcDbEntity
  8
0
100
AcDbLine
 62
4
  6
CONTINUOUS
 10
10.7672734762
 20
5.79053688
 11
10.6127253383
 21
5.8495511229
  0
LINE
  5
2A6
100
AcDbEntity
  8
0
100
AcDbLine
 62
4
  6
CONTINUOUS
 10
8.8315580265
 20
9.44074941
 11
8.844437035
 21
9.459174765
  0
LINE
  5
2A7
100
AcDbEntity
  8
0
100
AcDbLine
 62
4
  6
CONTINUOUS
 10
8.844437035
 20
9.9228191787
 11
8.8573160526
 21
9.9315852744
  0
LINE
  5
2A8
100
AcDbEntity
  8
0
100
AcDbLine
 62
4
  6
CONTINUOUS
 10
10.6127253383
 20
5.8495511229
 11
10.7672734762
 21
5.8871294662
  0
LINE
  5
2A9
100
AcDbEntity
  8
0
100
AcDbLine
 62
4
  6
CONTINUOUS
 10
10.6384833643
 20
5.6545796253
 11
10.6256043467
 21
5.6651320468
  0
LINE
  5
2AA
100
AcDbEntity
  8
0
100
AcDbLine
 62
4
  6
CONTINUOUS
 10
8.8573160526
 20
7.1835261513
 11
8.844437035
 21
7.1940785729
  0
LINE
  5
2AB
100
AcDbEntity
  8
0
100
AcDbLine
 62
4
  6
CONTINUOUS
 10
10.7028784202
 20
5.6790915889
 11
10.7286364417
 21
5.6579867468
  0
LINE
  5
2AC
100
AcDbEntity
  8
0
100
AcDbLine
 62
4
  6
CONTINUOUS
 10
10.6642413812
 20
5.7300673697
 11
10.6771203988
 21
5.7195149482
  0
LINE
  5
2AD
100
AcDbEntity
  8
0
100
AcDbLine
 62
4
  6
CONTINUOUS
 10
8.9217111085
 20
7.2080381149
 11
8.94746913
 21
7.1869332728
  0
LINE
  5
2AE
100
AcDbEntity
  8
0
100
AcDbLine
 62
4
  6
CONTINUOUS
 10
8.8830740694
 20
7.2590138957
 11
8.8959530871
 21
7.2484614742
  0
LINE
  5
2AF
100
AcDbEntity
  8
0
100
AcDbLine
 62
4
  6
CONTINUOUS
 10
8.844437035
 20
7.1940785729
 11
8.8315580265
 21
7.2142902524
  0
LINE
  5
2B0
100
AcDbEntity
  8
0
100
AcDbLine
 62
4
  6
CONTINUOUS
 10
8.8959530871
 20
7.2484614742
 11
8.9217111085
 21
7.2080381149
  0
LINE
  5
2B1
100
AcDbEntity
  8
0
100
AcDbLine
 62
4
  6
CONTINUOUS
 10
8.844437035
 20
7.3486267108
 11
8.8315580265
 21
7.3688383903
  0
LINE
  5
2B2
100
AcDbEntity
  8
0
100
AcDbLine
 62
4
  6
CONTINUOUS
 10
8.8959530871
 20
7.4030096121
 11
8.9217111085
 21
7.3625862528
  0
LINE
  5
2B3
100
AcDbEntity
  8
0
100
AcDbLine
 62
7
  6
CONTINUOUS
 10
8.7446246936
 20
5.6651784348
 11
8.7446246936
 21
10.9777707942
  0
LINE
  5
2B4
100
AcDbEntity
  8
0
100
AcDbLine
 62
4
  6
CONTINUOUS
 10
8.8315580265
 20
6.8665569421
 11
8.8315580265
 21
6.9631495283
  0
LINE
  5
2B5
100
AcDbEntity
  8
0
100
AcDbLine
 62
4
  6
CONTINUOUS
 10
8.8315580265
 20
7.2142902524
 11
8.8315580265
 21
7.2336087696
  0
LINE
  5
2B6
100
AcDbEntity
  8
0
100
AcDbLine
 62
4
  6
CONTINUOUS
 10
8.8315580265
 20
7.3688383903
 11
8.8315580265
 21
7.3881569075
  0
LINE
  5
2B7
100
AcDbEntity
  8
0
100
AcDbLine
 62
4
  6
CONTINUOUS
 10
8.8315580265
 20
8.9191494445
 11
8.8315580265
 21
9.0157420307
  0
LINE
  5
2B8
100
AcDbEntity
  8
0
100
AcDbLine
 62
4
  6
CONTINUOUS
 10
8.8315580265
 20
9.2668827548
 11
8.8315580265
 21
9.2862012721
  0
LINE
  5
2B9
100
AcDbEntity
  8
0
100
AcDbLine
 62
4
  6
CONTINUOUS
 10
8.8315580265
 20
9.4214308928
 11
8.8315580265
 21
9.44074941
  0
LINE
  5
2BA
100
AcDbEntity
  8
0
100
AcDbLine
 62
4
  6
CONTINUOUS
 10
8.8315580265
 20
9.8850753065
 11
8.8315580265
 21
9.9043938237
  0
LINE
  5
2BB
100
AcDbEntity
  8
0
100
AcDbLine
 62
4
  6
CONTINUOUS
 10
8.9088320955
 20
7.0350646223
 11
8.9088320955
 21
7.093020174
  0
LINE
  5
2BC
100
AcDbEntity
  8
0
100
AcDbLine
 62
4
  6
CONTINUOUS
 10
8.9088320955
 20
7.653257174
 11
8.9088320955
 21
7.7112127257
  0
LINE
  5
2BD
100
AcDbEntity
  8
0
100
AcDbLine
 62
4
  6
CONTINUOUS
 10
8.9088320955
 20
9.0876571248
 11
8.9088320955
 21
9.1456126765
  0
LINE
  5
2BE
100
AcDbEntity
  8
0
100
AcDbLine
 62
4
  6
CONTINUOUS
 10
8.9088320955
 20
9.7058496765
 11
8.9088320955
 21
9.7638052282
  0
LINE
  5
2BF
100
AcDbEntity
  8
0
100
AcDbLine
 62
4
  6
CONTINUOUS
 10
8.9345901169
 20
7.4969227112
 11
8.9345901169
 21
7.5548782629
  0
LINE
  5
2C0
100
AcDbEntity
  8
0
100
AcDbLine
 62
4
  6
CONTINUOUS
 10
8.9345901169
 20
9.5495152137
 11
8.9345901169
 21
9.6074707654
  0
LINE
  5
2C1
100
AcDbEntity
  8
0
100
AcDbLine
 62
4
  6
CONTINUOUS
 10
8.9861061645
 20
7.1745945267
 11
8.9861061645
 21
7.2518685957
  0
LINE
  5
2C2
100
AcDbEntity
  8
0
100
AcDbLine
 62
4
  6
CONTINUOUS
 10
8.9861061645
 20
7.3291426646
 11
8.9861061645
 21
7.4064167336
  0
LINE
  5
2C3
100
AcDbEntity
  8
0
100
AcDbLine
 62
4
  6
CONTINUOUS
 10
8.9861061645
 20
9.2271870292
 11
8.9861061645
 21
9.3044610982
  0
LINE
  5
2C4
100
AcDbEntity
  8
0
100
AcDbLine
 62
4
  6
CONTINUOUS
 10
8.9861061645
 20
9.3817351671
 11
8.9861061645
 21
9.4590092361
  0
LINE
  5
2C5
100
AcDbEntity
  8
0
100
AcDbLine
 62
4
  6
CONTINUOUS
 10
8.9861061645
 20
9.8453795809
 11
8.9861061645
 21
9.9226536498
  0
LINE
  5
2C6
100
AcDbEntity
  8
0
100
AcDbLine
 62
4
  6
CONTINUOUS
 10
8.8315580265
 20
9.2862012721
 11
8.844437035
 21
9.3046266271
  0
LINE
  5
2C7
100
AcDbEntity
  8
0
100
AcDbLine
 62
4
  6
CONTINUOUS
 10
10.6256043467
 20
10.76811868
 11
10.6127253383
 21
10.7593525837
  0
LINE
  5
2C8
100
AcDbEntity
  8
0
100
AcDbLine
 62
4
  6
CONTINUOUS
 10
10.7028784202
 20
10.7724189634
 11
10.6771203988
 21
10.7548867711
  0
LINE
  5
2C9
100
AcDbEntity
  8
0
100
AcDbLine
 62
4
  6
CONTINUOUS
 10
8.8573160526
 20
7.3380742892
 11
8.844437035
 21
7.3486267108
  0
LINE
  5
2CA
100
AcDbEntity
  8
0
100
AcDbLine
 62
4
  6
CONTINUOUS
 10
8.9217111085
 20
7.3625862528
 11
8.94746913
 21
7.3414814107
  0
LINE
  5
2CB
100
AcDbEntity
  8
0
100
AcDbLine
 62
4
  6
CONTINUOUS
 10
8.8830740694
 20
7.4135620337
 11
8.8959530871
 21
7.4030096121
  0
LINE
  5
2CC
100
AcDbEntity
  8
0
100
AcDbLine
 62
4
  6
CONTINUOUS
 10
9.1889506009
 20
5.7551050639
 11
9.1889506009
 21
5.8420383915
  0
LINE
  5
2CD
100
AcDbEntity
  8
0
100
AcDbLine
 62
4
  6
CONTINUOUS
 10
8.844437035
 20
9.459174765
 11
8.8573160526
 21
9.4679408607
  0
LINE
  5
2CE
100
AcDbEntity
  8
0
100
AcDbLine
 62
4
  6
CONTINUOUS
 10
10.6256043467
 20
10.6135705421
 11
10.6384833643
 21
10.6223366378
  0
LINE
  5
2CF
100
AcDbEntity
  8
0
100
AcDbLine
 62
4
  6
CONTINUOUS
 10
8.844437035
 20
9.3046266271
 11
8.8573160526
 21
9.3133927228
  0
LINE
  5
2D0
100
AcDbEntity
  8
0
100
AcDbLine
 62
4
  6
CONTINUOUS
 10
8.94746913
 20
7.1869332728
 11
8.9861061645
 21
7.1745945267
  0
LINE
  5
2D1
100
AcDbEntity
  8
0
100
AcDbLine
 62
4
  6
CONTINUOUS
 10
9.2931326059
 20
7.5603709746
 11
9.2710543018
 21
7.5839804166
  0
LINE
  5
2D2
100
AcDbEntity
  8
0
100
AcDbLine
 62
4
  6
CONTINUOUS
 10
9.4256024397
 20
7.6063799253
 11
9.4035241333
 21
7.6299893651
  0
LINE
  5
2D3
100
AcDbEntity
  8
0
100
AcDbLine
 62
4
  6
CONTINUOUS
 10
10.6256043467
 20
5.6651320468
 11
10.6127253383
 21
5.6853437263
  0
LINE
  5
2D4
100
AcDbEntity
  8
0
100
AcDbLine
 62
4
  6
CONTINUOUS
 10
10.6771203988
 20
5.7195149482
 11
10.7028784202
 21
5.6790915889
  0
LINE
  5
2D5
100
AcDbEntity
  8
0
100
AcDbLine
 62
4
  6
CONTINUOUS
 10
9.2710543018
 20
7.5839804166
 11
9.2710543018
 21
7.6281370271
  0
LINE
  5
2D6
100
AcDbEntity
  8
0
100
AcDbLine
 62
4
  6
CONTINUOUS
 10
9.2710543018
 20
8.7835683256
 11
9.2710543018
 21
8.7872480292
  0
LINE
  5
2D7
100
AcDbEntity
  8
0
100
AcDbLine
 62
4
  6
CONTINUOUS
 10
9.31521091
 20
8.5155664421
 11
9.31521091
 21
8.4603706681
  0
LINE
  5
2D8
100
AcDbEntity
  8
0
100
AcDbLine
 62
4
  6
CONTINUOUS
 10
9.31521091
 20
8.0445625476
 11
9.31521091
 21
8.0997583217
  0
LINE
  5
2D9
100
AcDbEntity
  8
0
100
AcDbLine
 62
4
  6
CONTINUOUS
 10
9.31521091
 20
8.272705051
 11
9.31521091
 21
8.3168616407
  0
LINE
  5
2DA
100
AcDbEntity
  8
0
100
AcDbLine
 62
4
  6
CONTINUOUS
 10
9.31521091
 20
8.3610183042
 11
9.31521091
 21
8.405174894
  0
LINE
  5
2DB
100
AcDbEntity
  8
0
100
AcDbLine
 62
4
  6
CONTINUOUS
 10
9.31521091
 20
8.8504206427
 11
9.31521091
 21
8.8945773798
  0
LINE
  5
2DC
100
AcDbEntity
  8
0
100
AcDbLine
 62
4
  6
CONTINUOUS
 10
9.31521091
 20
8.9497730802
 11
9.31521091
 21
8.99392967
  0
LINE
  5
2DD
100
AcDbEntity
  8
0
100
AcDbLine
 62
4
  6
CONTINUOUS
 10
9.3704066749
 20
8.4786211236
 11
9.3704066749
 21
8.5227777134
  0
LINE
  5
2DE
100
AcDbEntity
  8
0
100
AcDbLine
 62
4
  6
CONTINUOUS
 10
9.4256024397
 20
8.8869217012
 11
9.4256024397
 21
8.8427649641
  0
LINE
  5
2DF
100
AcDbEntity
  8
0
100
AcDbLine
 62
4
  6
CONTINUOUS
 10
9.4256024397
 20
8.7066154912
 11
9.4256024397
 21
8.6845371963
  0
LINE
  5
2E0
100
AcDbEntity
  8
0
100
AcDbLine
 62
4
  6
CONTINUOUS
 10
9.4256024397
 20
8.5189498741
 11
9.4256024397
 21
8.4747932844
  0
LINE
  5
2E1
100
AcDbEntity
  8
0
100
AcDbLine
 62
4
  6
CONTINUOUS
 10
9.4256024397
 20
8.3092059622
 11
9.4256024397
 21
8.2650493724
  0
LINE
  5
2E2
100
AcDbEntity
  8
0
100
AcDbLine
 62
4
  6
CONTINUOUS
 10
9.4256024397
 20
7.5622233136
 11
9.4256024397
 21
7.6063799253
  0
LINE
  5
2E3
100
AcDbEntity
  8
0
100
AcDbLine
 62
4
  6
CONTINUOUS
 10
9.4256024397
 20
7.6946931417
 11
9.4256024397
 21
7.7278106117
  0
LINE
  5
2E4
100
AcDbEntity
  8
0
100
AcDbLine
 62
4
  6
CONTINUOUS
 10
9.4256024397
 20
8.5741456482
 11
9.4256024397
 21
8.6293414223
  0
LINE
  5
2E5
100
AcDbEntity
  8
0
100
AcDbLine
 62
4
  6
CONTINUOUS
 10
9.4256024397
 20
8.9421174016
 11
9.4256024397
 21
8.9862739914
  0
LINE
  5
2E6
100
AcDbEntity
  8
0
100
AcDbLine
 62
4
  6
CONTINUOUS
 10
9.4623996155
 20
8.1447465244
 11
9.4623996155
 21
8.1668248193
  0
LINE
  5
2E7
100
AcDbEntity
  8
0
100
AcDbLine
 62
4
  6
CONTINUOUS
 10
9.3740863922
 20
8.9898466414
 11
9.3667269575
 21
8.9462004302
  0
LINE
  5
2E8
100
AcDbEntity
  8
0
100
AcDbLine
 62
4
  6
CONTINUOUS
 10
9.3814458269
 20
9.0003753735
 11
9.3740863922
 21
8.9898466414
  0
LINE
  5
2E9
100
AcDbEntity
  8
0
100
AcDbLine
 62
4
  6
CONTINUOUS
 10
9.3667269575
 20
8.9462004302
 11
9.3593675228
 21
8.9356716981
  0
LINE
  5
2EA
100
AcDbEntity
  8
0
100
AcDbLine
 62
4
  6
CONTINUOUS
 10
10.6127253383
 20
10.5951451871
 11
10.6256043467
 21
10.6135705421
  0
LINE
  5
2EB
100
AcDbEntity
  8
0
100
AcDbLine
 62
4
  6
CONTINUOUS
 10
9.31521091
 20
8.99392967
 11
9.3262500667
 21
9.0042032125
  0
LINE
  5
2EC
100
AcDbEntity
  8
0
100
AcDbLine
 62
4
  6
CONTINUOUS
 10
12.3330393543
 20
7.2612394669
 11
12.4875874922
 21
7.2988178102
  0
LINE
  5
2ED
100
AcDbEntity
  8
0
100
AcDbLine
 62
4
  6
CONTINUOUS
 10
8.8315580265
 20
6.9148532352
 11
8.9861061645
 21
6.9041352854
  0
LINE
  5
2EE
100
AcDbEntity
  8
0
100
AcDbLine
 62
4
  6
CONTINUOUS
 10
8.94746913
 20
7.3414814107
 11
8.9861061645
 21
7.3291426646
  0
LINE
  5
2EF
100
AcDbEntity
  8
0
100
AcDbLine
 62
4
  6
CONTINUOUS
 10
8.9861061645
 20
7.4740315439
 11
8.8315580265
 21
7.5330457868
  0
LINE
  5
2F0
100
AcDbEntity
  8
0
100
AcDbLine
 62
4
  6
CONTINUOUS
 10
9.4256024397
 20
7.7278106117
 11
9.4035241333
 21
7.7514200423
  0
LINE
  5
2F1
100
AcDbEntity
  8
0
100
AcDbLine
 62
4
  6
CONTINUOUS
 10
9.3262500667
 20
8.249861188
 11
9.31521091
 21
8.272705051
  0
LINE
  5
2F2
100
AcDbEntity
  8
0
100
AcDbLine
 62
4
  6
CONTINUOUS
 10
9.4256024397
 20
8.4747932844
 11
9.4145632865
 21
8.4534805573
  0
LINE
  5
2F3
100
AcDbEntity
  8
0
100
AcDbLine
 62
4
  6
CONTINUOUS
 10
9.4256024397
 20
8.2650493724
 11
9.4145632865
 21
8.2437366454
  0
LINE
  5
2F4
100
AcDbEntity
  8
0
100
AcDbLine
 62
4
  6
CONTINUOUS
 10
9.4145632865
 20
8.9318438589
 11
9.4256024397
 21
8.9421174016
  0
LINE
  5
2F5
100
AcDbEntity
  8
0
100
AcDbLine
 62
4
  6
CONTINUOUS
 10
9.4256024397
 20
8.8427649641
 11
9.4145632865
 21
8.8324914214
  0
LINE
  5
2F6
100
AcDbEntity
  8
0
100
AcDbLine
 62
4
  6
CONTINUOUS
 10
8.8573160526
 20
7.2608002203
 11
8.8830740694
 21
7.2590138957
  0
LINE
  5
2F7
100
AcDbEntity
  8
0
100
AcDbLine
 62
4
  6
CONTINUOUS
 10
12.3330393543
 20
7.106691329
 11
12.4875874922
 21
7.0959733792
  0
LINE
  5
2F8
100
AcDbEntity
  8
0
100
AcDbLine
 62
4
  6
CONTINUOUS
 10
8.844437035
 20
9.2466710753
 11
8.8315580265
 21
9.2668827548
  0
LINE
  5
2F9
100
AcDbEntity
  8
0
100
AcDbLine
 62
4
  6
CONTINUOUS
 10
8.8959530871
 20
9.3010539767
 11
8.9217111085
 21
9.2606306174
  0
LINE
  5
2FA
100
AcDbEntity
  8
0
100
AcDbLine
 62
4
  6
CONTINUOUS
 10
8.844437035
 20
9.4012192132
 11
8.8315580265
 21
9.4214308928
  0
LINE
  5
2FB
100
AcDbEntity
  8
0
100
AcDbLine
 62
4
  6
CONTINUOUS
 10
8.8959530871
 20
9.4556021146
 11
8.9217111085
 21
9.4151787553
  0
LINE
  5
2FC
100
AcDbEntity
  8
0
100
AcDbLine
 62
4
  6
CONTINUOUS
 10
9.3814458269
 20
8.455777261
 11
9.3704066749
 21
8.4786211236
  0
LINE
  5
2FD
100
AcDbEntity
  8
0
100
AcDbLine
 62
4
  6
CONTINUOUS
 10
9.7854788141
 20
8.2824086256
 11
9.7854788141
 21
8.2345722954
  0
LINE
  5
2FE
100
AcDbEntity
  8
0
100
AcDbLine
 62
4
  6
CONTINUOUS
 10
9.8737920397
 20
8.2431666218
 11
9.8737920397
 21
8.2762840826
  0
LINE
  5
2FF
100
AcDbEntity
  8
0
100
AcDbLine
 62
4
  6
CONTINUOUS
 10
9.8737920397
 20
8.3425190041
 11
9.8737920397
 21
8.3756364464
  0
LINE
  5
300
100
AcDbEntity
  8
0
100
AcDbLine
 62
4
  6
CONTINUOUS
 10
8.8315580265
 20
7.3881569075
 11
8.844437035
 21
7.4065822625
  0
LINE
  5
301
100
AcDbEntity
  8
0
100
AcDbLine
 62
4
  6
CONTINUOUS
 10
8.8315580265
 20
7.2336087696
 11
8.844437035
 21
7.2520341246
  0
LINE
  5
302
100
AcDbEntity
  8
0
100
AcDbLine
 62
4
  6
CONTINUOUS
 10
9.4256024397
 20
8.6845371963
 11
9.4145632865
 21
8.6742635799
  0
LINE
  5
303
100
AcDbEntity
  8
0
100
AcDbLine
 62
4
  6
CONTINUOUS
 10
9.4145632865
 20
8.5638720318
 11
9.4256024397
 21
8.5741456482
  0
LINE
  5
304
100
AcDbEntity
  8
0
100
AcDbLine
 62
4
  6
CONTINUOUS
 10
8.8573160526
 20
7.4153483582
 11
8.8830740694
 21
7.4135620337
  0
LINE
  5
305
100
AcDbEntity
  8
0
100
AcDbLine
 62
4
  6
CONTINUOUS
 10
9.31521091
 20
7.558839839
 11
9.2931326059
 21
7.5603709746
  0
LINE
  5
306
100
AcDbEntity
  8
0
100
AcDbLine
 62
4
  6
CONTINUOUS
 10
9.7854788141
 20
8.1388996397
 11
9.7192439018
 21
8.1876496593
  0
LINE
  5
307
100
AcDbEntity
  8
0
100
AcDbLine
 62
4
  6
CONTINUOUS
 10
10.1917196367
 20
7.7445949133
 11
10.2137979431
 21
7.7209854735
  0
LINE
  5
308
100
AcDbEntity
  8
0
100
AcDbLine
 62
4
  6
CONTINUOUS
 10
9.7192439018
 20
8.2870020324
 11
9.7523613625
 21
8.2515878679
  0
LINE
  5
309
100
AcDbEntity
  8
0
100
AcDbLine
 62
4
  6
CONTINUOUS
 10
9.3262500667
 20
8.838615964
 11
9.31521091
 21
8.8504206427
  0
LINE
  5
30A
100
AcDbEntity
  8
0
100
AcDbLine
 62
4
  6
CONTINUOUS
 10
8.844437035
 20
9.864863627
 11
8.8315580265
 21
9.8850753065
  0
LINE
  5
30B
100
AcDbEntity
  8
0
100
AcDbLine
 62
4
  6
CONTINUOUS
 10
8.8959530871
 20
9.9192465283
 11
8.9217111085
 21
9.878823169
  0
LINE
  5
30C
100
AcDbEntity
  8
0
100
AcDbLine
 62
4
  6
CONTINUOUS
 10
10.1181252828
 20
7.642986896
 11
10.1475630262
 21
7.5820698993
  0
LINE
  5
30D
100
AcDbEntity
  8
0
100
AcDbLine
 62
4
  6
CONTINUOUS
 10
10.0592498052
 20
7.6765076676
 11
10.0592498052
 21
7.7317034233
  0
LINE
  5
30E
100
AcDbEntity
  8
0
100
AcDbLine
 62
4
  6
CONTINUOUS
 10
10.0592498052
 20
7.9488067515
 11
10.0592498052
 21
8.0371199679
  0
LINE
  5
30F
100
AcDbEntity
  8
0
100
AcDbLine
 62
4
  6
CONTINUOUS
 10
10.0592498052
 20
8.0812765945
 11
10.0592498052
 21
8.147511516
  0
LINE
  5
310
100
AcDbEntity
  8
0
100
AcDbLine
 62
4
  6
CONTINUOUS
 10
10.0592498052
 20
8.3351771331
 11
10.0592498052
 21
8.3793337229
  0
LINE
  5
311
100
AcDbEntity
  8
0
100
AcDbLine
 62
4
  6
CONTINUOUS
 10
10.0592498052
 20
8.4639671989
 11
10.0592498052
 21
8.4970846781
  0
LINE
  5
312
100
AcDbEntity
  8
0
100
AcDbLine
 62
4
  6
CONTINUOUS
 10
10.0592498052
 20
8.5633195628
 11
10.0592498052
 21
8.6185153368
  0
LINE
  5
313
100
AcDbEntity
  8
0
100
AcDbLine
 62
4
  6
CONTINUOUS
 10
10.0592498052
 20
8.7031488866
 11
10.0592498052
 21
8.7693837712
  0
LINE
  5
314
100
AcDbEntity
  8
0
100
AcDbLine
 62
4
  6
CONTINUOUS
 10
10.1254847175
 20
8.7427120696
 11
10.1254847175
 21
8.6985554798
  0
LINE
  5
315
100
AcDbEntity
  8
0
100
AcDbLine
 62
4
  6
CONTINUOUS
 10
10.1254847175
 20
8.1208398144
 11
10.1254847175
 21
8.0766831878
  0
LINE
  5
316
100
AcDbEntity
  8
0
100
AcDbLine
 62
4
  6
CONTINUOUS
 10
10.1696413303
 20
7.8234001181
 11
10.1696413303
 21
7.8822755956
  0
LINE
  5
317
100
AcDbEntity
  8
0
100
AcDbLine
 62
4
  6
CONTINUOUS
 10
10.2137979431
 20
8.6077973871
 11
10.2137979431
 21
8.552601613
  0
LINE
  5
318
100
AcDbEntity
  8
0
100
AcDbLine
 62
4
  6
CONTINUOUS
 10
10.2137979431
 20
8.4863667283
 11
10.2137979431
 21
8.4532492492
  0
LINE
  5
319
100
AcDbEntity
  8
0
100
AcDbLine
 62
4
  6
CONTINUOUS
 10
10.2137979431
 20
8.3686157731
 11
10.2137979431
 21
8.3244591834
  0
LINE
  5
31A
100
AcDbEntity
  8
0
100
AcDbLine
 62
4
  6
CONTINUOUS
 10
10.2137979431
 20
7.7209854735
 11
10.2137979431
 21
7.6657897179
  0
LINE
  5
31B
100
AcDbEntity
  8
0
100
AcDbLine
 62
4
  6
CONTINUOUS
 10
10.2137979431
 20
8.0705586448
 11
10.2137979431
 21
8.1367935663
  0
LINE
  5
31C
100
AcDbEntity
  8
0
100
AcDbLine
 62
4
  6
CONTINUOUS
 10
10.2137979431
 20
8.6924309368
 11
10.2137979431
 21
8.7586658215
  0
LINE
  5
31D
100
AcDbEntity
  8
0
100
AcDbLine
 62
4
  6
CONTINUOUS
 10
10.1181252828
 20
8.8094573328
 11
10.1475630262
 21
8.8662912959
  0
LINE
  5
31E
100
AcDbEntity
  8
0
100
AcDbLine
 62
4
  6
CONTINUOUS
 10
9.31521091
 20
8.0997583217
 11
9.3262500667
 21
8.110031901
  0
LINE
  5
31F
100
AcDbEntity
  8
0
100
AcDbLine
 62
4
  6
CONTINUOUS
 10
9.31521091
 20
8.405174894
 11
9.3262500667
 21
8.4117687329
  0
LINE
  5
320
100
AcDbEntity
  8
0
100
AcDbLine
 62
4
  6
CONTINUOUS
 10
9.4035241333
 20
7.6299893651
 11
9.3814458269
 21
7.6315205009
  0
LINE
  5
321
100
AcDbEntity
  8
0
100
AcDbLine
 62
4
  6
CONTINUOUS
 10
9.2710543018
 20
7.6833327874
 11
9.4035241333
 21
7.6741459733
  0
LINE
  5
322
100
AcDbEntity
  8
0
100
AcDbLine
 62
4
  6
CONTINUOUS
 10
10.2137979431
 20
7.6657897179
 11
10.0592498052
 21
7.6765076676
  0
LINE
  5
323
100
AcDbEntity
  8
0
100
AcDbLine
 62
4
  6
CONTINUOUS
 10
9.4035241333
 20
7.7514200423
 11
9.2710543018
 21
7.7606068563
  0
LINE
  5
324
100
AcDbEntity
  8
0
100
AcDbLine
 62
4
  6
CONTINUOUS
 10
9.4256024397
 20
7.7940455147
 11
9.2710543018
 21
7.8047634645
  0
LINE
  5
325
100
AcDbEntity
  8
0
100
AcDbLine
 62
4
  6
CONTINUOUS
 10
10.0813281093
 20
7.7522505918
 11
10.1917196367
 21
7.7445949133
  0
LINE
  5
326
100
AcDbEntity
  8
0
100
AcDbLine
 62
4
  6
CONTINUOUS
 10
8.8315580265
 20
7.8421420626
 11
8.9861061645
 21
7.8314241128
  0
LINE
  5
327
100
AcDbEntity
  8
0
100
AcDbLine
 62
4
  6
CONTINUOUS
 10
9.4256024397
 20
7.8713195837
 11
9.2710543018
 21
7.8820375335
  0
LINE
  5
328
100
AcDbEntity
  8
0
100
AcDbLine
 62
4
  6
CONTINUOUS
 10
10.2137979431
 20
7.8056189772
 11
10.0592498052
 21
7.8604935351
  0
LINE
  5
329
100
AcDbEntity
  8
0
100
AcDbLine
 62
4
  6
CONTINUOUS
 10
9.4623996155
 20
8.1668248193
 11
9.31521091
 21
8.2211889804
  0
LINE
  5
32A
100
AcDbEntity
  8
0
100
AcDbLine
 62
4
  6
CONTINUOUS
 10
9.7523613625
 20
8.2515878679
 11
9.7965179707
 21
8.2264472926
  0
LINE
  5
32B
100
AcDbEntity
  8
0
100
AcDbLine
 62
4
  6
CONTINUOUS
 10
8.8573160526
 20
9.2361186538
 11
8.844437035
 21
9.2466710753
  0
LINE
  5
32C
100
AcDbEntity
  8
0
100
AcDbLine
 62
4
  6
CONTINUOUS
 10
9.8737920397
 20
8.2762840826
 11
9.8517137333
 21
8.2998935132
  0
LINE
  5
32D
100
AcDbEntity
  8
0
100
AcDbLine
 62
4
  6
CONTINUOUS
 10
9.3262500667
 20
8.9379684015
 11
9.31521091
 21
8.9497730802
  0
LINE
  5
32E
100
AcDbEntity
  8
0
100
AcDbLine
 62
4
  6
CONTINUOUS
 10
9.8737920397
 20
8.3756364464
 11
9.8517137333
 21
8.3992458955
  0
LINE
  5
32F
100
AcDbEntity
  8
0
100
AcDbLine
 62
4
  6
CONTINUOUS
 10
9.4256024397
 20
8.9862739914
 11
9.4145632865
 21
8.9980786699
  0
LINE
  5
330
100
AcDbEntity
  8
0
100
AcDbLine
 62
4
  6
CONTINUOUS
 10
10.0813281093
 20
8.3115677027
 11
10.0592498052
 21
8.3351771331
  0
LINE
  5
331
100
AcDbEntity
  8
0
100
AcDbLine
 62
4
  6
CONTINUOUS
 10
10.6555480666
 20
8.8699293746
 11
10.6426690581
 21
8.8515040196
  0
LINE
  5
332
100
AcDbEntity
  8
0
100
AcDbLine
 62
4
  6
CONTINUOUS
 10
9.3814458269
 20
7.6315205009
 11
9.31521091
 21
7.558839839
  0
LINE
  5
333
100
AcDbEntity
  8
0
100
AcDbLine
 62
4
  6
CONTINUOUS
 10
10.0592498052
 20
8.6185153368
 11
10.0813281093
 21
8.6390624961
  0
LINE
  5
334
100
AcDbEntity
  8
0
100
AcDbLine
 62
4
  6
CONTINUOUS
 10
9.8075571228
 20
8.3029557846
 11
9.7854788141
 21
8.2824086256
  0
LINE
  5
335
100
AcDbEntity
  8
0
100
AcDbLine
 62
4
  6
CONTINUOUS
 10
10.0592498052
 20
8.4970846781
 11
10.0813281093
 21
8.5176318374
  0
LINE
  5
336
100
AcDbEntity
  8
0
100
AcDbLine
 62
4
  6
CONTINUOUS
 10
9.8517137333
 20
8.2226194535
 11
9.8737920397
 21
8.2431666218
  0
LINE
  5
337
100
AcDbEntity
  8
0
100
AcDbLine
 62
4
  6
CONTINUOUS
 10
9.2710543018
 20
7.6281370271
 11
9.2820934585
 21
7.638410611
  0
LINE
  5
338
100
AcDbEntity
  8
0
100
AcDbLine
 62
4
  6
CONTINUOUS
 10
10.2137979431
 20
8.4532492492
 11
10.1917196367
 21
8.43270209
  0
LINE
  5
339
100
AcDbEntity
  8
0
100
AcDbLine
 62
4
  6
CONTINUOUS
 10
9.4035241333
 20
7.6741459733
 11
9.4256024397
 21
7.6946931417
  0
LINE
  5
33A
100
AcDbEntity
  8
0
100
AcDbLine
 62
4
  6
CONTINUOUS
 10
10.6684270842
 20
8.8786954703
 11
10.6555480666
 21
8.8699293746
  0
LINE
  5
33B
100
AcDbEntity
  8
0
100
AcDbLine
 62
4
  6
CONTINUOUS
 10
9.3372892141
 20
8.5250744171
 11
9.31521091
 21
8.5155664421
  0
LINE
  5
33C
100
AcDbEntity
  8
0
100
AcDbLine
 62
4
  6
CONTINUOUS
 10
11.3622838388
 20
7.9081171239
 11
11.3236468043
 21
7.9011373527
  0
LINE
  5
33D
100
AcDbEntity
  8
0
100
AcDbLine
 62
4
  6
CONTINUOUS
 10
9.4256024397
 20
8.036906869
 11
9.2710543018
 21
8.0476248188
  0
LINE
  5
33E
100
AcDbEntity
  8
0
100
AcDbLine
 62
4
  6
CONTINUOUS
 10
10.2137979431
 20
7.9822454284
 11
10.0592498052
 21
7.9929633781
  0
LINE
  5
33F
100
AcDbEntity
  8
0
100
AcDbLine
 62
4
  6
CONTINUOUS
 10
9.3262500667
 20
8.110031901
 11
9.4256024397
 21
8.1031417906
  0
LINE
  5
340
100
AcDbEntity
  8
0
100
AcDbLine
 62
4
  6
CONTINUOUS
 10
10.2137979431
 20
8.0705586448
 11
10.0592498052
 21
8.0812765945
  0
LINE
  5
341
100
AcDbEntity
  8
0
100
AcDbLine
 62
4
  6
CONTINUOUS
 10
12.4875874922
 20
7.202225224
 11
12.3330393543
 21
7.2612394669
  0
LINE
  5
342
100
AcDbEntity
  8
0
100
AcDbLine
 62
4
  6
CONTINUOUS
 10
8.9217111085
 20
9.2606306174
 11
8.94746913
 21
9.2395257753
  0
LINE
  5
343
100
AcDbEntity
  8
0
100
AcDbLine
 62
4
  6
CONTINUOUS
 10
8.8830740694
 20
9.3116063982
 11
8.8959530871
 21
9.3010539767
  0
LINE
  5
344
100
AcDbEntity
  8
0
100
AcDbLine
 62
4
  6
CONTINUOUS
 10
8.8573160526
 20
9.3906667917
 11
8.844437035
 21
9.4012192132
  0
LINE
  5
345
100
AcDbEntity
  8
0
100
AcDbLine
 62
4
  6
CONTINUOUS
 10
8.9217111085
 20
9.4151787553
 11
8.94746913
 21
9.3940739132
  0
LINE
  5
346
100
AcDbEntity
  8
0
100
AcDbLine
 62
4
  6
CONTINUOUS
 10
8.8830740694
 20
9.4661545361
 11
8.8959530871
 21
9.4556021146
  0
LINE
  5
347
100
AcDbEntity
  8
0
100
AcDbLine
 62
4
  6
CONTINUOUS
 10
10.0813281093
 20
8.4403577685
 11
10.0592498052
 21
8.4639671989
  0
LINE
  5
348
100
AcDbEntity
  8
0
100
AcDbLine
 62
4
  6
CONTINUOUS
 10
10.1917196367
 20
8.509976159
 11
10.2137979431
 21
8.4863667283
  0
LINE
  5
349
100
AcDbEntity
  8
0
100
AcDbLine
 62
4
  6
CONTINUOUS
 10
10.1917196367
 20
8.6314068177
 11
10.2137979431
 21
8.6077973871
  0
LINE
  5
34A
100
AcDbEntity
  8
0
100
AcDbLine
 62
4
  6
CONTINUOUS
 10
10.1475630262
 20
8.8662912959
 11
10.1770007673
 21
8.805374304
  0
LINE
  5
34B
100
AcDbEntity
  8
0
100
AcDbLine
 62
4
  6
CONTINUOUS
 10
10.6127253383
 20
10.7593525837
 11
10.6127253383
 21
10.6917377733
  0
LINE
  5
34C
100
AcDbEntity
  8
0
100
AcDbLine
 62
4
  6
CONTINUOUS
 10
10.6127253383
 20
5.6853437263
 11
10.6127253383
 21
5.7046622436
  0
LINE
  5
34D
100
AcDbEntity
  8
0
100
AcDbLine
 62
4
  6
CONTINUOUS
 10
10.6127253383
 20
10.5758266699
 11
10.6127253383
 21
10.5951451871
  0
LINE
  5
34E
100
AcDbEntity
  8
0
100
AcDbLine
 62
4
  6
CONTINUOUS
 10
10.6426690581
 20
8.8515040196
 11
10.6426690581
 21
8.8321855024
  0
LINE
  5
34F
100
AcDbEntity
  8
0
100
AcDbLine
 62
4
  6
CONTINUOUS
 10
10.6771203988
 20
10.6872719607
 11
10.6771203988
 21
10.7548867711
  0
LINE
  5
350
100
AcDbEntity
  8
0
100
AcDbLine
 62
4
  6
CONTINUOUS
 10
10.7157574287
 20
5.8134280473
 11
10.7157574287
 21
5.871383599
  0
LINE
  5
351
100
AcDbEntity
  8
0
100
AcDbLine
 62
4
  6
CONTINUOUS
 10
10.7672734762
 20
5.6456480007
 11
10.7672734762
 21
5.7229220697
  0
LINE
  5
352
100
AcDbEntity
  8
0
100
AcDbLine
 62
4
  6
CONTINUOUS
 10
10.7672734762
 20
10.5361309443
 11
10.7672734762
 21
10.6134050132
  0
LINE
  5
353
100
AcDbEntity
  8
0
100
AcDbLine
 62
4
  6
CONTINUOUS
 10
10.7672734762
 20
10.6810198236
 11
10.7672734762
 21
10.7486346339
  0
LINE
  5
354
100
AcDbEntity
  8
0
100
AcDbLine
 62
4
  6
CONTINUOUS
 10
10.1475630262
 20
7.5820698993
 11
10.1770007673
 21
7.6389038673
  0
LINE
  5
355
100
AcDbEntity
  8
0
100
AcDbLine
 62
4
  6
CONTINUOUS
 10
10.694185101
 20
8.8092943354
 11
10.7328221401
 21
8.8645703994
  0
LINE
  5
356
100
AcDbEntity
  8
0
100
AcDbLine
 62
4
  6
CONTINUOUS
 10
10.7972171961
 20
8.8214675526
 11
10.7843381842
 21
8.8030421979
  0
LINE
  5
357
100
AcDbEntity
  8
0
100
AcDbLine
 62
7
  6
CONTINUOUS
 10
12.6083282277
 20
10.709822044
 11
13.2553753064
 21
11.3348215652
  0
LINE
  5
358
100
AcDbEntity
  8
0
100
AcDbLine
 62
7
  6
CONTINUOUS
 10
10.3734143284
 20
8.3777466974
 11
10.249115584
 21
8.2576833229
  0
LINE
  5
359
100
AcDbEntity
  8
0
100
AcDbLine
 62
7
  6
CONTINUOUS
 10
10.7044856892
 20
8.5459309598
 11
10.5801869447
 21
8.4258675853
  0
LINE
  5
35A
100
AcDbEntity
  8
0
100
AcDbLine
 62
4
  6
CONTINUOUS
 10
10.2137979431
 20
8.3244591834
 11
10.1917196367
 21
8.3039120242
  0
LINE
  5
35B
100
AcDbEntity
  8
0
100
AcDbLine
 62
4
  6
CONTINUOUS
 10
9.4145632865
 20
7.5519497283
 11
9.4256024397
 21
7.5622233136
  0
LINE
  5
35C
100
AcDbEntity
  8
0
100
AcDbLine
 62
4
  6
CONTINUOUS
 10
10.7328221401
 20
8.8645703994
 11
10.7457011486
 21
8.8733364957
  0
LINE
  5
35D
100
AcDbEntity
  8
0
100
AcDbLine
 62
4
  6
CONTINUOUS
 10
10.6813060926
 20
8.8005282391
 11
10.694185101
 21
8.8092943354
  0
LINE
  5
35E
100
AcDbEntity
  8
0
100
AcDbLine
 62
4
  6
CONTINUOUS
 10
10.7843381842
 20
8.8030421979
 11
10.7585801616
 21
8.7855100056
  0
LINE
  5
35F
100
AcDbEntity
  8
0
100
AcDbLine
 62
4
  6
CONTINUOUS
 10
8.844437035
 20
7.4065822625
 11
8.8573160526
 21
7.4153483582
  0
LINE
  5
360
100
AcDbEntity
  8
0
100
AcDbLine
 62
4
  6
CONTINUOUS
 10
9.7192439018
 20
8.0993364337
 11
9.7854788141
 21
8.1388996397
  0
LINE
  5
361
100
AcDbEntity
  8
0
100
AcDbLine
 62
4
  6
CONTINUOUS
 10
8.8315580265
 20
7.5330457868
 11
8.9861061645
 21
7.5706241301
  0
LINE
  5
362
100
AcDbEntity
  8
0
100
AcDbLine
 62
4
  6
CONTINUOUS
 10
11.2463727354
 20
8.2735481551
 11
11.4009208733
 21
8.3111264985
  0
LINE
  5
363
100
AcDbEntity
  8
0
100
AcDbLine
 62
4
  6
CONTINUOUS
 10
10.0592498052
 20
7.8604935351
 11
10.2137979431
 21
7.893932212
  0
LINE
  5
364
100
AcDbEntity
  8
0
100
AcDbLine
 62
4
  6
CONTINUOUS
 10
9.7854788141
 20
8.1388996397
 11
9.8737920397
 21
8.1327750967
  0
LINE
  5
365
100
AcDbEntity
  8
0
100
AcDbLine
 62
4
  6
CONTINUOUS
 10
11.2721307614
 20
8.0785766576
 11
11.2850097698
 21
8.0776834953
  0
LINE
  5
366
100
AcDbEntity
  8
0
100
AcDbLine
 62
4
  6
CONTINUOUS
 10
9.4145632865
 20
8.2437366454
 11
9.3262500667
 21
8.249861188
  0
LINE
  5
367
100
AcDbEntity
  8
0
100
AcDbLine
 62
4
  6
CONTINUOUS
 10
9.7965179707
 20
8.2264472926
 11
9.8517137333
 21
8.2226194535
  0
LINE
  5
368
100
AcDbEntity
  8
0
100
AcDbLine
 62
4
  6
CONTINUOUS
 10
11.3494048258
 20
8.150491752
 11
11.3751628495
 21
8.148705427
  0
LINE
  5
369
100
AcDbEntity
  8
0
100
AcDbLine
 62
4
  6
CONTINUOUS
 10
9.2710543018
 20
8.3199239119
 11
9.4256024397
 21
8.3092059622
  0
LINE
  5
36A
100
AcDbEntity
  8
0
100
AcDbLine
 62
4
  6
CONTINUOUS
 10
9.8517137333
 20
8.2998935132
 11
9.8075571228
 21
8.3029557846
  0
LINE
  5
36B
100
AcDbEntity
  8
0
100
AcDbLine
 62
4
  6
CONTINUOUS
 10
9.4256024397
 20
8.3533626256
 11
9.31521091
 21
8.3610183042
  0
LINE
  5
36C
100
AcDbEntity
  8
0
100
AcDbLine
 62
4
  6
CONTINUOUS
 10
10.1917196367
 20
8.3039120242
 11
10.0813281093
 21
8.3115677027
  0
LINE
  5
36D
100
AcDbEntity
  8
0
100
AcDbLine
 62
4
  6
CONTINUOUS
 10
11.3236468043
 20
7.9011373527
 11
11.2850097698
 21
7.9134760988
  0
LINE
  5
36E
100
AcDbEntity
  8
0
100
AcDbLine
 62
4
  6
CONTINUOUS
 10
9.2710543018
 20
8.7872480292
 11
9.2820934585
 21
8.7828027575
  0
LINE
  5
36F
100
AcDbEntity
  8
0
100
AcDbLine
 62
4
  6
CONTINUOUS
 10
8.8573160526
 20
9.8543112054
 11
8.844437035
 21
9.864863627
  0
LINE
  5
370
100
AcDbEntity
  8
0
100
AcDbLine
 62
4
  6
CONTINUOUS
 10
11.2850097698
 20
7.9134760988
 11
11.2592517438
 21
7.9345809412
  0
LINE
  5
371
100
AcDbEntity
  8
0
100
AcDbLine
 62
4
  6
CONTINUOUS
 10
8.9217111085
 20
9.878823169
 11
8.94746913
 21
9.8577183269
  0
LINE
  5
372
100
AcDbEntity
  8
0
100
AcDbLine
 62
4
  6
CONTINUOUS
 10
8.8830740694
 20
9.9297989499
 11
8.8959530871
 21
9.9192465283
  0
LINE
  5
373
100
AcDbEntity
  8
0
100
AcDbLine
 62
4
  6
CONTINUOUS
 10
10.7972171961
 20
8.8407860699
 11
10.7972171961
 21
8.8214675526
  0
LINE
  5
374
100
AcDbEntity
  8
0
100
AcDbLine
 62
7
  6
CONTINUOUS
 10
10.7356259094
 20
8.5437713782
 11
10.6113271649
 21
8.4237080037
  0
LINE
  5
375
100
AcDbEntity
  8
0
100
AcDbLine
 62
4
  6
CONTINUOUS
 10
10.0592498052
 20
7.7317034233
 11
10.0813281093
 21
7.7522505918
  0
LINE
  5
376
100
AcDbEntity
  8
0
100
AcDbLine
 62
4
  6
CONTINUOUS
 10
8.844437035
 20
7.2520341246
 11
8.8573160526
 21
7.2608002203
  0
LINE
  5
377
100
AcDbEntity
  8
0
100
AcDbLine
 62
4
  6
CONTINUOUS
 10
9.2710543018
 20
7.8047634645
 11
9.4256024397
 21
7.8713195837
  0
LINE
  5
378
100
AcDbEntity
  8
0
100
AcDbLine
 62
4
  6
CONTINUOUS
 10
11.2463727354
 20
8.3701407413
 11
11.4009208733
 21
8.3884005674
  0
LINE
  5
379
100
AcDbEntity
  8
0
100
AcDbLine
 62
4
  6
CONTINUOUS
 10
11.2463727354
 20
8.4280962931
 11
11.4009208733
 21
8.4463561191
  0
LINE
  5
37A
100
AcDbEntity
  8
0
100
AcDbLine
 62
4
  6
CONTINUOUS
 10
9.3262500667
 20
8.4117687329
 11
9.3483283708
 21
8.4102375973
  0
LINE
  5
37B
100
AcDbEntity
  8
0
100
AcDbLine
 62
4
  6
CONTINUOUS
 10
9.8517137333
 20
8.3992458955
 11
9.7192439018
 21
8.4084327095
  0
LINE
  5
37C
100
AcDbEntity
  8
0
100
AcDbLine
 62
4
  6
CONTINUOUS
 10
9.4145632865
 20
8.4534805573
 11
9.3814458269
 21
8.455777261
  0
LINE
  5
37D
100
AcDbEntity
  8
0
100
AcDbLine
 62
4
  6
CONTINUOUS
 10
10.1917196367
 20
8.43270209
 11
10.0813281093
 21
8.4403577685
  0
LINE
  5
37E
100
AcDbEntity
  8
0
100
AcDbLine
 62
4
  6
CONTINUOUS
 10
9.4256024397
 20
8.5189498741
 11
9.3372892141
 21
8.5250744171
  0
LINE
  5
37F
100
AcDbEntity
  8
0
100
AcDbLine
 62
4
  6
CONTINUOUS
 10
9.31521091
 20
8.5707621425
 11
9.4145632865
 21
8.5638720318
  0
LINE
  5
380
100
AcDbEntity
  8
0
100
AcDbLine
 62
4
  6
CONTINUOUS
 10
10.0813281093
 20
8.5176318374
 11
10.1917196367
 21
8.509976159
  0
LINE
  5
381
100
AcDbEntity
  8
0
100
AcDbLine
 62
4
  6
CONTINUOUS
 10
10.2137979431
 20
8.552601613
 11
10.0592498052
 21
8.5633195628
  0
LINE
  5
382
100
AcDbEntity
  8
0
100
AcDbLine
 62
4
  6
CONTINUOUS
 10
9.4256024397
 20
8.6293414223
 11
9.31521091
 21
8.6369971008
  0
LINE
  5
383
100
AcDbEntity
  8
0
100
AcDbLine
 62
4
  6
CONTINUOUS
 10
11.4009208733
 20
8.3884005674
 11
11.2463727354
 21
8.4280962931
  0
LINE
  5
384
100
AcDbEntity
  8
0
100
AcDbLine
 62
4
  6
CONTINUOUS
 10
11.4009208733
 20
8.2145339123
 11
11.2463727354
 21
8.2735481551
  0
LINE
  5
385
100
AcDbEntity
  8
0
100
AcDbLine
 62
4
  6
CONTINUOUS
 10
11.2592517438
 20
8.0891290791
 11
11.2721307614
 21
8.0785766576
  0
LINE
  5
386
100
AcDbEntity
  8
0
100
AcDbLine
 62
4
  6
CONTINUOUS
 10
11.3751628495
 20
7.9941572891
 11
11.3880418614
 21
7.9836048679
  0
LINE
  5
387
100
AcDbEntity
  8
0
100
AcDbLine
 62
4
  6
CONTINUOUS
 10
11.3751628495
 20
8.148705427
 11
11.3880418614
 21
8.1381530058
  0
LINE
  5
388
100
AcDbEntity
  8
0
100
AcDbLine
 62
4
  6
CONTINUOUS
 10
10.6555480666
 20
8.8119738229
 11
10.6684270842
 21
8.8014214014
  0
LINE
  5
389
100
AcDbEntity
  8
0
100
AcDbLine
 62
4
  6
CONTINUOUS
 10
10.6426690581
 20
8.8321855024
 11
10.6555480666
 21
8.8119738229
  0
LINE
  5
38A
100
AcDbEntity
  8
0
100
AcDbLine
 62
4
  6
CONTINUOUS
 10
11.2592517438
 20
7.9345809412
 11
11.2463727354
 21
7.9547926207
  0
LINE
  5
38B
100
AcDbEntity
  8
0
100
AcDbLine
 62
4
  6
CONTINUOUS
 10
11.2463727354
 20
8.1093407586
 11
11.2592517438
 21
8.0891290791
  0
LINE
  5
38C
100
AcDbEntity
  8
0
100
AcDbLine
 62
4
  6
CONTINUOUS
 10
10.7843381842
 20
8.8609977496
 11
10.7972171961
 21
8.8407860699
  0
LINE
  5
38D
100
AcDbEntity
  8
0
100
AcDbLine
 62
4
  6
CONTINUOUS
 10
11.2463727354
 20
8.1286592759
 11
11.2463727354
 21
8.1093407586
  0
LINE
  5
38E
100
AcDbEntity
  8
0
100
AcDbLine
 62
4
  6
CONTINUOUS
 10
11.2463727354
 20
7.9547926207
 11
11.2463727354
 21
7.9741111379
  0
LINE
  5
38F
100
AcDbEntity
  8
0
100
AcDbLine
 62
7
  6
CONTINUOUS
 10
11.0666972702
 20
8.3296673621
 11
10.9423985257
 21
8.2096039875
  0
LINE
  5
390
100
AcDbEntity
  8
0
100
AcDbLine
 62
7
  6
CONTINUOUS
 10
11.0822673803
 20
8.3016193495
 11
10.9579686358
 21
8.181555975
  0
LINE
  5
391
100
AcDbEntity
  8
0
100
AcDbLine
 62
4
  6
CONTINUOUS
 10
12.3459183627
 20
9.2211758475
 11
12.3330393543
 21
9.2124097512
  0
LINE
  5
392
100
AcDbEntity
  8
0
100
AcDbLine
 62
4
  6
CONTINUOUS
 10
12.4231924363
 20
9.2254761309
 11
12.3974344148
 21
9.2079439386
  0
LINE
  5
393
100
AcDbEntity
  8
0
100
AcDbLine
 62
4
  6
CONTINUOUS
 10
9.31521091
 20
8.1549540958
 11
9.4256024397
 21
8.1804158964
  0
LINE
  5
394
100
AcDbEntity
  8
0
100
AcDbLine
 62
4
  6
CONTINUOUS
 10
9.4145632865
 20
8.6742635799
 11
9.2710543018
 21
8.6842159618
  0
LINE
  5
395
100
AcDbEntity
  8
0
100
AcDbLine
 62
4
  6
CONTINUOUS
 10
10.0813281093
 20
8.6390624961
 11
10.1917196367
 21
8.6314068177
  0
LINE
  5
396
100
AcDbEntity
  8
0
100
AcDbLine
 62
4
  6
CONTINUOUS
 10
10.2137979431
 20
8.6924309368
 11
10.0592498052
 21
8.7031488866
  0
LINE
  5
397
100
AcDbEntity
  8
0
100
AcDbLine
 62
4
  6
CONTINUOUS
 10
9.4256024397
 20
8.7728503759
 11
9.31521091
 21
8.7805060545
  0
LINE
  5
398
100
AcDbEntity
  8
0
100
AcDbLine
 62
4
  6
CONTINUOUS
 10
9.2820934585
 20
8.7828027575
 11
9.2710543018
 21
8.7835683256
  0
LINE
  5
399
100
AcDbEntity
  8
0
100
AcDbLine
 62
4
  6
CONTINUOUS
 10
9.4145632865
 20
8.8324914214
 11
9.3262500667
 21
8.838615964
  0
LINE
  5
39A
100
AcDbEntity
  8
0
100
AcDbLine
 62
4
  6
CONTINUOUS
 10
10.6684270842
 20
8.8014214014
 11
10.6813060926
 21
8.8005282391
  0
LINE
  5
39B
100
AcDbEntity
  8
0
100
AcDbLine
 62
4
  6
CONTINUOUS
 10
11.4009208733
 20
8.4463561191
 11
11.2463727354
 21
8.4860518448
  0
LINE
  5
39C
100
AcDbEntity
  8
0
100
AcDbLine
 62
4
  6
CONTINUOUS
 10
8.94746913
 20
9.2395257753
 11
8.9861061645
 21
9.2271870292
  0
LINE
  5
39D
100
AcDbEntity
  8
0
100
AcDbLine
 62
4
  6
CONTINUOUS
 10
8.94746913
 20
9.3940739132
 11
8.9861061645
 21
9.3817351671
  0
LINE
  5
39E
100
AcDbEntity
  8
0
100
AcDbLine
 62
4
  6
CONTINUOUS
 10
8.9861061645
 20
9.5266240464
 11
8.8315580265
 21
9.5856382893
  0
LINE
  5
39F
100
AcDbEntity
  8
0
100
AcDbLine
 62
4
  6
CONTINUOUS
 10
10.7714591723
 20
8.8715501707
 11
10.7843381842
 21
8.8609977496
  0
LINE
  5
3A0
100
AcDbEntity
  8
0
100
AcDbLine
 62
4
  6
CONTINUOUS
 10
11.3880418614
 20
7.9836048679
 11
11.4009208733
 21
7.9633931882
  0
LINE
  5
3A1
100
AcDbEntity
  8
0
100
AcDbLine
 62
4
  6
CONTINUOUS
 10
11.3880418614
 20
8.1381530058
 11
11.4009208733
 21
8.1179413261
  0
LINE
  5
3A2
100
AcDbEntity
  8
0
100
AcDbLine
 62
4
  6
CONTINUOUS
 10
11.3494048258
 20
8.2374250796
 11
11.3494048258
 21
8.2953806313
  0
LINE
  5
3A3
100
AcDbEntity
  8
0
100
AcDbLine
 62
4
  6
CONTINUOUS
 10
11.4009208733
 20
8.1179413261
 11
11.4009208733
 21
8.0986228089
  0
LINE
  5
3A4
100
AcDbEntity
  8
0
100
AcDbLine
 62
4
  6
CONTINUOUS
 10
11.4009208733
 20
7.9633931882
 11
11.4009208733
 21
7.9440746709
  0
LINE
  5
3A5
100
AcDbEntity
  8
0
100
AcDbLine
 62
4
  6
CONTINUOUS
 10
11.2592517438
 20
8.1470846308
 11
11.2463727354
 21
8.1286592759
  0
LINE
  5
3A6
100
AcDbEntity
  8
0
100
AcDbLine
 62
4
  6
CONTINUOUS
 10
11.2978887783
 20
8.0864495917
 11
11.3365258173
 21
8.1417256556
  0
LINE
  5
3A7
100
AcDbEntity
  8
0
100
AcDbLine
 62
4
  6
CONTINUOUS
 10
11.2463727354
 20
7.9741111379
 11
11.2592517438
 21
7.9925364929
  0
LINE
  5
3A8
100
AcDbEntity
  8
0
100
AcDbLine
 62
7
  6
CONTINUOUS
 10
11.0822673803
 20
7.919331071
 11
10.9579686358
 21
7.7992676964
  0
LINE
  5
3A9
100
AcDbEntity
  8
0
100
AcDbLine
 62
7
  6
CONTINUOUS
 10
11.0666972702
 20
7.89344264
 11
10.9423985257
 21
7.7733792655
  0
LINE
  5
3AA
100
AcDbEntity
  8
0
100
AcDbLine
 62
4
  6
CONTINUOUS
 10
11.2721307614
 20
8.1558507265
 11
11.2592517438
 21
8.1470846308
  0
LINE
  5
3AB
100
AcDbEntity
  8
0
100
AcDbLine
 62
4
  6
CONTINUOUS
 10
11.3365258173
 20
8.1417256556
 11
11.3494048258
 21
8.150491752
  0
LINE
  5
3AC
100
AcDbEntity
  8
0
100
AcDbLine
 62
4
  6
CONTINUOUS
 10
11.2850097698
 20
8.0776834953
 11
11.2978887783
 21
8.0864495917
  0
LINE
  5
3AD
100
AcDbEntity
  8
0
100
AcDbLine
 62
4
  6
CONTINUOUS
 10
8.8315580265
 20
8.9674457376
 11
8.9861061645
 21
8.9567277879
  0
LINE
  5
3AE
100
AcDbEntity
  8
0
100
AcDbLine
 62
4
  6
CONTINUOUS
 10
9.3593675228
 20
8.9356716981
 11
9.3262500667
 21
8.9379684015
  0
LINE
  5
3AF
100
AcDbEntity
  8
0
100
AcDbLine
 62
4
  6
CONTINUOUS
 10
10.7457011486
 20
8.8733364957
 11
10.7714591723
 21
8.8715501707
  0
LINE
  5
3B0
100
AcDbEntity
  8
0
100
AcDbLine
 62
4
  6
CONTINUOUS
 10
9.4145632865
 20
8.9980786699
 11
9.3814458269
 21
9.0003753735
  0
LINE
  5
3B1
100
AcDbEntity
  8
0
100
AcDbLine
 62
4
  6
CONTINUOUS
 10
11.4009208733
 20
8.0986228089
 11
11.3880418614
 21
8.0801974541
  0
LINE
  5
3B2
100
AcDbEntity
  8
0
100
AcDbLine
 62
4
  6
CONTINUOUS
 10
11.4009208733
 20
7.9440746709
 11
11.3880418614
 21
7.9256493162
  0
LINE
  5
3B3
100
AcDbEntity
  8
0
100
AcDbLine
 62
4
  6
CONTINUOUS
 10
11.3880418614
 20
8.0801974541
 11
11.3622838388
 21
8.0626652618
  0
LINE
  5
3B4
100
AcDbEntity
  8
0
100
AcDbLine
 62
4
  6
CONTINUOUS
 10
11.2592517438
 20
7.9925364929
 11
11.2721307614
 21
8.0013025886
  0
LINE
  5
3B5
100
AcDbEntity
  8
0
100
AcDbLine
 62
4
  6
CONTINUOUS
 10
11.3880418614
 20
7.9256493162
 11
11.3622838388
 21
7.9081171239
  0
LINE
  5
3B6
100
AcDbEntity
  8
0
100
AcDbLine
 62
4
  6
CONTINUOUS
 10
12.3330393543
 20
9.038543096
 11
12.4875874922
 21
9.0278251463
  0
LINE
  5
3B7
100
AcDbEntity
  8
0
100
AcDbLine
 62
4
  6
CONTINUOUS
 10
8.8573160526
 20
9.3133927228
 11
8.8830740694
 21
9.3116063982
  0
LINE
  5
3B8
100
AcDbEntity
  8
0
100
AcDbLine
 62
4
  6
CONTINUOUS
 10
12.3330393543
 20
9.1447949408
 11
12.4875874922
 21
9.1340769911
  0
LINE
  5
3B9
100
AcDbEntity
  8
0
100
AcDbLine
 62
4
  6
CONTINUOUS
 10
8.94746913
 20
9.8577183269
 11
8.9861061645
 21
9.8453795809
  0
LINE
  5
3BA
100
AcDbEntity
  8
0
100
AcDbLine
 62
4
  6
CONTINUOUS
 10
10.6256043467
 20
10.5556149904
 11
10.6127253383
 21
10.5758266699
  0
LINE
  5
3BB
100
AcDbEntity
  8
0
100
AcDbLine
 62
4
  6
CONTINUOUS
 10
12.3845553972
 20
9.2184963601
 11
12.3459183627
 21
9.2211758475
  0
LINE
  5
3BC
100
AcDbEntity
  8
0
100
AcDbLine
 62
4
  6
CONTINUOUS
 10
8.8573160526
 20
9.4679408607
 11
8.8830740694
 21
9.4661545361
  0
LINE
  5
3BD
100
AcDbEntity
  8
0
100
AcDbLine
 62
4
  6
CONTINUOUS
 10
12.4618294685
 20
9.2227966437
 11
12.4231924363
 21
9.2254761309
  0
LINE
  5
3BE
100
AcDbEntity
  8
0
100
AcDbLine
 62
4
  6
CONTINUOUS
 10
10.6771203988
 20
10.6099978918
 11
10.7028784202
 21
10.5695745324
  0
LINE
  5
3BF
100
AcDbEntity
  8
0
100
AcDbLine
 62
4
  6
CONTINUOUS
 10
10.6127253383
 20
5.7046622436
 11
10.6256043467
 21
5.7230875986
  0
LINE
  5
3C0
100
AcDbEntity
  8
0
100
AcDbLine
 62
4
  6
CONTINUOUS
 10
8.8573160526
 20
9.9315852744
 11
8.8830740694
 21
9.9297989499
  0
LINE
  5
3C1
100
AcDbEntity
  8
0
100
AcDbLine
 62
4
  6
CONTINUOUS
 10
12.3330393543
 20
9.2124097512
 11
12.3330393543
 21
9.1447949408
  0
LINE
  5
3C2
100
AcDbEntity
  8
0
100
AcDbLine
 62
4
  6
CONTINUOUS
 10
12.3974344148
 20
9.1403291282
 11
12.3974344148
 21
9.2079439386
  0
LINE
  5
3C3
100
AcDbEntity
  8
0
100
AcDbLine
 62
4
  6
CONTINUOUS
 10
12.4360714447
 20
7.2251163913
 11
12.4360714447
 21
7.283071943
  0
LINE
  5
3C4
100
AcDbEntity
  8
0
100
AcDbLine
 62
4
  6
CONTINUOUS
 10
12.4875874922
 20
9.1340769911
 11
12.4875874922
 21
9.2016918014
  0
LINE
  5
3C5
100
AcDbEntity
  8
0
100
AcDbLine
 62
4
  6
CONTINUOUS
 10
8.8315580265
 20
9.5856382893
 11
8.9861061645
 21
9.6232166326
  0
LINE
  5
3C6
100
AcDbEntity
  8
0
100
AcDbLine
 62
4
  6
CONTINUOUS
 10
10.6384833643
 20
10.5450625689
 11
10.6256043467
 21
10.5556149904
  0
LINE
  5
3C7
100
AcDbEntity
  8
0
100
AcDbLine
 62
4
  6
CONTINUOUS
 10
10.7028784202
 20
10.5695745324
 11
10.7286364417
 21
10.5484696903
  0
LINE
  5
3C8
100
AcDbEntity
  8
0
100
AcDbLine
 62
4
  6
CONTINUOUS
 10
10.6642413812
 20
10.6205503133
 11
10.6771203988
 21
10.6099978918
  0
LINE
  5
3C9
100
AcDbEntity
  8
0
100
AcDbLine
 62
4
  6
CONTINUOUS
 10
12.3974344148
 20
9.2079439386
 11
12.3845553972
 21
9.2184963601
  0
LINE
  5
3CA
100
AcDbEntity
  8
0
100
AcDbLine
 62
4
  6
CONTINUOUS
 10
12.4875874922
 20
9.2016918014
 11
12.4618294685
 21
9.2227966437
  0
LINE
  5
3CB
100
AcDbEntity
  8
0
100
AcDbLine
 62
4
  6
CONTINUOUS
 10
10.6771203988
 20
10.7548867711
 11
10.6642413812
 21
10.7654391926
  0
LINE
  5
3CC
100
AcDbEntity
  8
0
100
AcDbLine
 62
7
  6
CONTINUOUS
 10
12.6083282277
 20
5.3972296846
 11
12.6083282277
 21
10.709822044
  0
LINE
  5
3CD
100
AcDbEntity
  8
0
100
AcDbLine
 62
4
  6
CONTINUOUS
 10
10.7672734762
 20
10.7486346339
 11
10.7415154524
 21
10.7697394762
  0
LINE
  5
3CE
100
AcDbEntity
  8
0
100
AcDbLine
 62
4
  6
CONTINUOUS
 10
10.7286364417
 20
10.5484696903
 11
10.7672734762
 21
10.5361309443
  0
LINE
  5
3CF
100
AcDbEntity
  8
0
100
AcDbLine
 62
7
  6
CONTINUOUS
 10
13.2553753064
 20
6.0222292058
 11
13.2553753064
 21
11.3348215652
  0
LINE
  5
3D0
100
AcDbEntity
  8
0
100
AcDbLine
 62
4
  6
CONTINUOUS
 10
10.6256043467
 20
5.7230875986
 11
10.6384833643
 21
5.7318536943
  0
LINE
  5
3D1
100
AcDbEntity
  8
0
100
AcDbLine
 62
4
  6
CONTINUOUS
 10
10.6384833643
 20
10.6223366378
 11
10.6642413812
 21
10.6205503133
  0
LINE
  5
3D2
100
AcDbEntity
  8
0
100
AcDbLine
 62
4
  6
CONTINUOUS
 10
10.6127253383
 20
10.6917377733
 11
10.7672734762
 21
10.6810198236
  0
LINE
  5
3D3
100
AcDbEntity
  8
0
100
AcDbLine
 62
4
  6
CONTINUOUS
 10
10.6642413812
 20
10.7654391926
 11
10.6256043467
 21
10.76811868
  0
LINE
  5
3D4
100
AcDbEntity
  8
0
100
AcDbLine
 62
4
  6
CONTINUOUS
 10
10.7415154524
 20
10.7697394762
 11
10.7028784202
 21
10.7724189634
  0
LINE
  5
3D5
100
AcDbEntity
  8
0
100
AcDbLine
 62
7
  6
CONTINUOUS
 10
8.7446246936
 20
10.9777707942
 11
12.6083282277
 21
10.709822044
  0
LINE
  5
3D6
100
AcDbEntity
  8
0
100
AcDbLine
 62
7
  6
CONTINUOUS
 10
13.2553753064
 20
11.3348215652
 11
9.3916717723
 21
11.6027703154
  0
LINE
  5
3D7
100
AcDbEntity
  8
0
100
AcDbLine
 62
7
  6
CONTINUOUS
 10
12.6083282277
 20
5.3972296846
 11
13.2553753064
 21
6.0222292058
  0
ARC
  5
3D8
100
AcDbEntity
  8
0
100
AcDbCircle
 62
7
  6
CONTINUOUS
 10
10.68352728
 20
8.098615034
 40
0.4474420853
100
AcDbArc
 50
26.981298304
 51
31.0900673765
  0
ARC
  5
3D9
100
AcDbEntity
  8
0
100
AcDbCircle
 62
7
  6
CONTINUOUS
 10
10.6322855741
 20
8.0525109288
 40
0.4474420853
100
AcDbArc
 50
206.981298304
 51
211.0900673765
  0
ARC
  5
3DA
100
AcDbEntity
  8
0
100
AcDbCircle
 62
7
  6
CONTINUOUS
 10
10.5592285355
 20
7.9785516595
 40
0.4474420853
100
AcDbArc
 50
26.981298304
 51
31.0900673765
  0
ARC
  5
3DB
100
AcDbEntity
  8
0
100
AcDbCircle
 62
7
  6
CONTINUOUS
 10
10.6913703198
 20
8.1317369917
 40
0.4144042626
100
AcDbArc
 50
83.8695051667
 51
86.0307544453
  0
ARC
  5
3DC
100
AcDbEntity
  8
0
100
AcDbCircle
 62
7
  6
CONTINUOUS
 10
10.6244425343
 20
8.0193889711
 40
0.4144042626
100
AcDbArc
 50
263.8695051668
 51
266.0307544453
  0
ARC
  5
3DD
100
AcDbEntity
  8
0
100
AcDbCircle
 62
7
  6
CONTINUOUS
 10
10.5670715753
 20
8.0116736172
 40
0.4144042626
100
AcDbArc
 50
83.8695051667
 51
86.0307544453
  0
ARC
  5
3DE
100
AcDbEntity
  8
0
100
AcDbCircle
 62
7
  6
CONTINUOUS
 10
10.6242077139
 20
8.0161507963
 40
0.4111576007
100
AcDbArc
 50
266.0321629527
 51
268.2047714632
  0
ARC
  5
3DF
100
AcDbEntity
  8
0
100
AcDbCircle
 62
7
  6
CONTINUOUS
 10
10.5673063958
 20
8.014911792
 40
0.4111576007
100
AcDbArc
 50
86.0321629527
 51
88.2047714632
  0
ARC
  5
3E0
100
AcDbEntity
  8
0
100
AcDbCircle
 62
7
  6
CONTINUOUS
 10
10.6916323332
 20
8.1355154081
 40
0.4106167725
100
AcDbArc
 50
86.0307319968
 51
88.2062024191
  0
ARC
  5
3E1
100
AcDbEntity
  8
0
100
AcDbCircle
 62
7
  6
CONTINUOUS
 10
10.7544930309
 20
8.0988384007
 40
0.373709654
100
AcDbArc
 50
326.6595187369
 51
331.2924535874
  0
ARC
  5
3E2
100
AcDbEntity
  8
0
100
AcDbCircle
 62
7
  6
CONTINUOUS
 10
10.5613198232
 20
8.0522875622
 40
0.373709654
100
AcDbArc
 50
146.6595187369
 51
151.2924535874
  0
ARC
  5
3E3
100
AcDbEntity
  8
0
100
AcDbCircle
 62
7
  6
CONTINUOUS
 10
10.6301942865
 20
7.9787750261
 40
0.373709654
100
AcDbArc
 50
326.6595187369
 51
331.2924535874
  0
SPLINE
  5
3E4
100
AcDbEntity
  8
0
100
AcDbSpline
 62
7
  6
CONTINUOUS
 70
0
 71
3
 72
15
 73
11
 74
0
 42
0.0000001
 43
0.0000001
 44
0.0000000001
 40
0.0
 40
0.0
 40
0.0
 40
0.0
 40
0.1309044479
 40
0.2613640512
 40
0.3907957226
 40
0.5184622544
 40
0.6436178655
 40
0.7657027983
 40
0.884473687
 40
1.0
 40
1.0
 40
1.0
 40
1.0
 10
10.2335454739
 20
8.2317948919
 30
0.0
 10
10.2324210991
 20
8.2151359705
 30
0.0
 10
10.2303754058
 20
8.1818607734
 30
0.0
 10
10.2280385736
 20
8.1320676922
 30
0.0
 10
10.2265652476
 20
8.0826539965
 30
0.0
 10
10.2260546147
 20
8.033896992
 30
0.0
 10
10.2265457378
 20
7.9860766957
 30
0.0
 10
10.228004108
 20
7.9394114815
 30
0.0
 10
10.230332619
 20
7.8940120325
 30
0.0
 10
10.2324052373
 20
7.8641977768
 30
0.0
 10
10.2335454739
 20
7.8495066134
 30
0.0
  0
SPLINE
  5
3E5
100
AcDbEntity
  8
0
100
AcDbSpline
 62
7
  6
CONTINUOUS
 70
0
 71
3
 72
19
 73
15
 74
0
 42
0.0000001
 43
0.0000001
 44
0.0000000001
 40
0.0
 40
0.0
 40
0.0
 40
0.0
 40
0.1208891894
 40
0.2436787837
 40
0.3057539989
 40
0.3682338184
 40
0.4310620126
 40
0.4941687729
 40
0.5574749478
 40
0.6208974869
 40
0.6843552588
 40
0.7477743319
 40
0.8742562402
 40
1.0
 40
1.0
 40
1.0
 40
1.0
 10
10.249115584
 20
7.8214586008
 30
0.0
 10
10.261582206
 20
7.8115679053
 30
0.0
 10
10.2869010044
 20
7.7918683386
 30
0.0
 10
10.3192058383
 20
7.7678540797
 30
0.0
 10
10.3456930255
 20
7.7489166128
 30
0.0
 10
10.3659433035
 20
7.7348308041
 30
0.0
 10
10.3864923618
 20
7.720940582
 30
0.0
 10
10.4073189695
 20
7.7072707739
 30
0.0
 10
10.4283953608
 20
7.693843158
 30
0.0
 10
10.4496890358
 20
7.6806748514
 30
0.0
 10
10.4711650662
 20
7.6677772565
 30
0.0
 10
10.4999693434
 20
7.6509638004
 30
0.0
 10
10.5362223011
 20
7.6306537754
 30
0.0
 10
10.5655168147
 20
7.615021214
 30
0.0
 10
10.5801869447
 20
7.6073545847
 30
0.0
  0
SPLINE
  5
3E6
100
AcDbEntity
  8
0
100
AcDbSpline
 62
7
  6
CONTINUOUS
 70
0
 71
3
 72
15
 73
11
 74
0
 42
0.0000001
 43
0.0000001
 44
0.0000000001
 40
0.0
 40
0.0
 40
0.0
 40
0.0
 40
0.1121786521
 40
0.2284761286
 40
0.3490753419
 40
0.4737992527
 40
0.6020827469
 40
0.7331004723
 40
0.8659837967
 40
1.0
 40
1.0
 40
1.0
 40
1.0
 10
10.6113271649
 20
7.605195003
 30
0.0
 10
10.623913615
 20
7.6110646963
 30
0.0
 10
10.6495052424
 20
7.6231129783
 30
0.0
 10
10.6884557873
 20
7.6418349385
 30
0.0
 10
10.7286357938
 20
7.6615804597
 30
0.0
 10
10.7699630012
 20
7.6823518195
 30
0.0
 10
10.8122549864
 20
7.7040716684
 30
0.0
 10
10.8552668093
 20
7.7265973971
 30
0.0
 10
10.8987469409
 20
7.7497558144
 30
0.0
 10
10.9278194998
 20
7.7654593615
 30
0.0
 10
10.9423985257
 20
7.7733792655
 30
0.0
  0
SPLINE
  5
3E7
100
AcDbEntity
  8
0
100
AcDbSpline
 62
7
  6
CONTINUOUS
 70
0
 71
3
 72
15
 73
11
 74
0
 42
0.0000001
 43
0.0000001
 44
0.0000000001
 40
0.0
 40
0.0
 40
0.0
 40
0.0
 40
0.1309044479
 40
0.2613640512
 40
0.3907957226
 40
0.5184622544
 40
0.6436178655
 40
0.7657027983
 40
0.884473687
 40
1.0
 40
1.0
 40
1.0
 40
1.0
 10
11.0822673803
 20
7.919331071
 30
0.0
 10
11.0833917551
 20
7.9359899923
 30
0.0
 10
11.0854374483
 20
7.9692651895
 30
0.0
 10
11.0877742805
 20
8.0190582707
 30
0.0
 10
11.0892476065
 20
8.0684719663
 30
0.0
 10
11.0897582394
 20
8.1172289709
 30
0.0
 10
11.0892671163
 20
8.1650492672
 30
0.0
 10
11.0878087461
 20
8.2117144814
 30
0.0
 10
11.0854802351
 20
8.2571139304
 30
0.0
 10
11.0834076168
 20
8.2869281861
 30
0.0
 10
11.0822673803
 20
8.3016193495
 30
0.0
  0
SPLINE
  5
3E8
100
AcDbEntity
  8
0
100
AcDbSpline
 62
7
  6
CONTINUOUS
 70
0
 71
3
 72
19
 73
15
 74
0
 42
0.0000001
 43
0.0000001
 44
0.0000000001
 40
0.0
 40
0.0
 40
0.0
 40
0.0
 40
0.1208891894
 40
0.2436787837
 40
0.3057539989
 40
0.3682338184
 40
0.4310620126
 40
0.4941687729
 40
0.5574749478
 40
0.6208974869
 40
0.6843552588
 40
0.7477743319
 40
0.8742562402
 40
1.0
 40
1.0
 40
1.0
 40
1.0
 10
11.0666972702
 20
8.3296673621
 30
0.0
 10
11.0542306481
 20
8.3395580576
 30
0.0
 10
11.0289118497
 20
8.3592576243
 30
0.0
 10
10.9966070158
 20
8.3832718832
 30
0.0
 10
10.9701198286
 20
8.4022093501
 30
0.0
 10
10.9498695506
 20
8.4162951587
 30
0.0
 10
10.9293204923
 20
8.4301853809
 30
0.0
 10
10.9084938846
 20
8.443855189
 30
0.0
 10
10.8874174933
 20
8.4572828049
 30
0.0
 10
10.8661238183
 20
8.4704511115
 30
0.0
 10
10.844647788
 20
8.4833487064
 30
0.0
 10
10.8158435108
 20
8.5001621625
 30
0.0
 10
10.779590553
 20
8.5204721875
 30
0.0
 10
10.7502960394
 20
8.5361047488
 30
0.0
 10
10.7356259094
 20
8.5437713782
 30
0.0
  0
SPLINE
  5
3E9
100
AcDbEntity
  8
0
100
AcDbSpline
 62
7
  6
CONTINUOUS
 70
0
 71
3
 72
15
 73
11
 74
0
 42
0.0000001
 43
0.0000001
 44
0.0000000001
 40
0.0
 40
0.0
 40
0.0
 40
0.0
 40
0.1121786521
 40
0.2284761286
 40
0.3490753419
 40
0.4737992527
 40
0.6020827469
 40
0.7331004723
 40
0.8659837967
 40
1.0
 40
1.0
 40
1.0
 40
1.0
 10
10.7044856892
 20
8.5459309598
 30
0.0
 10
10.6918992392
 20
8.5400612665
 30
0.0
 10
10.6663076118
 20
8.5280129845
 30
0.0
 10
10.6273570668
 20
8.5092910243
 30
0.0
 10
10.5871770603
 20
8.4895455031
 30
0.0
 10
10.545849853
 20
8.4687741434
 30
0.0
 10
10.5035578677
 20
8.4470542945
 30
0.0
 10
10.4605460448
 20
8.4245285658
 30
0.0
 10
10.4170659133
 20
8.4013701485
 30
0.0
 10
10.3879933544
 20
8.3856666014
 30
0.0
 10
10.3734143284
 20
8.3777466974
 30
0.0
  0
SPLINE
  5
3EA
100
AcDbEntity
  8
0
100
AcDbSpline
 62
7
  6
CONTINUOUS
 70
0
 71
3
 72
52
 73
48
 74
0
 42
0.0000001
 43
0.0000001
 44
0.0000000001
 40
0.0
 40
0.0
 40
0.0
 40
0.0
 40
0.0311866655
 40
0.0621624582
 40
0.0775790412
 40
0.0929473314
 40
0.1082695123
 40
0.123548568
 40
0.1387878901
 40
0.1539911696
 40
0.1691625264
 40
0.1843064009
 40
0.1994275511
 40
0.2145309433
 40
0.2296217509
 40
0.2447052634
 40
0.259786869
 40
0.2748719753
 40
0.2899659335
 40
0.3050740164
 40
0.3202013322
 40
0.3353528119
 40
0.3505330985
 40
0.3657465608
 40
0.3809971866
 40
0.3962886124
 40
0.4116240385
 40
0.4270062211
 40
0.4424374298
 40
0.457919452
 40
0.4890310877
 40
0.5203549267
 40
0.5518869196
 40
0.5836151951
 40
0.6155205872
 40
0.6475775356
 40
0.6797550126
 40
0.7120177617
 40
0.7443275151
 40
0.7766443769
 40
0.8089282056
 40
0.8411399939
 40
0.8732432958
 40
0.9052053838
 40
0.9369988317
 40
0.9686016371
 40
1.0
 40
1.0
 40
1.0
 40
1.0
 10
10.5879120259
 20
7.649112112
 30
0.0
 10
10.5996105888
 20
7.6483008139
 30
0.0
 10
10.623023014
 20
7.6478188594
 30
0.0
 10
10.6521544715
 20
7.650110904
 30
0.0
 10
10.6751112227
 20
7.6536723725
 30
0.0
 10
10.692094811
 20
7.6571929712
 30
0.0
 10
10.7088272352
 20
7.6615589795
 30
0.0
 10
10.7252686323
 20
7.6667596426
 30
0.0
 10
10.7413792756
 20
7.6727825168
 30
0.0
 10
10.757120305
 20
7.6796132122
 30
0.0
 10
10.7724538251
 20
7.6872350826
 30
0.0
 10
10.7873426854
 20
7.6956300974
 30
0.0
 10
10.8017512225
 20
7.7047776014
 30
0.0
 10
10.8156443402
 20
7.714656073
 30
0.0
 10
10.8289889328
 20
7.7252411182
 30
0.0
 10
10.8417523224
 20
7.7365078203
 30
0.0
 10
10.8539042563
 20
7.7484284037
 30
0.0
 10
10.8654148602
 20
7.7609746932
 30
0.0
 10
10.8762569451
 20
7.7741158946
 30
0.0
 10
10.88640382
 20
7.7878207579
 30
0.0
 10
10.8958315215
 20
7.8020558478
 30
0.0
 10
10.9045169172
 20
7.8167871044
 30
0.0
 10
10.9124394012
 20
7.8319787984
 30
0.0
 10
10.919579698
 20
7.8475943911
 30
0.0
 10
10.9259206912
 20
7.8635961801
 30
0.0
 10
10.9314471995
 20
7.8799455453
 30
0.0
 10
10.9361457255
 20
7.8966031686
 30
0.0
 10
10.9400053372
 20
7.9135286521
 30
0.0
 10
10.9430163028
 20
7.9306818344
 30
0.0
 10
10.9458949189
 20
7.9538338739
 30
0.0
 10
10.9473305144
 20
7.9831491589
 30
0.0
 10
10.9455880339
 20
8.0184940147
 30
0.0
 10
10.9404026507
 20
8.0537349171
 30
0.0
 10
10.9318250854
 20
8.0885307941
 30
0.0
 10
10.919938885
 20
8.1225480963
 30
0.0
 10
10.90485906
 20
8.1554601261
 30
0.0
 10
10.8867310784
 20
8.1869511397
 30
0.0
 10
10.8657294471
 20
8.2167190091
 30
0.0
 10
10.8420560533
 20
8.2444781528
 30
0.0
 10
10.8159382442
 20
8.2699621782
 30
0.0
 10
10.7876266876
 20
8.2929264119
 30
0.0
 10
10.7573930294
 20
8.3131502139
 30
0.0
 10
10.7255272105
 20
8.330439002
 30
0.0
 10
10.6923352483
 20
8.3446262742
 30
0.0
 10
10.658134519
 20
8.3555748609
 30
0.0
 10
10.6232577802
 20
8.3631786131
 30
0.0
 10
10.5996899995
 20
8.3659782382
 30
0.0
 10
10.5879120259
 20
8.3667950434
 30
0.0
  0
SPLINE
  5
3EB
100
AcDbEntity
  8
0
100
AcDbSpline
 62
7
  6
CONTINUOUS
 70
0
 71
3
 72
52
 73
48
 74
0
 42
0.0000001
 43
0.0000001
 44
0.0000000001
 40
0.0
 40
0.0
 40
0.0
 40
0.0
 40
0.0311866655
 40
0.0621624582
 40
0.0775790412
 40
0.0929473314
 40
0.1082695123
 40
0.123548568
 40
0.1387878901
 40
0.1539911696
 40
0.1691625264
 40
0.1843064009
 40
0.1994275511
 40
0.2145309433
 40
0.2296217509
 40
0.2447052634
 40
0.259786869
 40
0.2748719753
 40
0.2899659335
 40
0.3050740164
 40
0.3202013322
 40
0.3353528119
 40
0.3505330985
 40
0.3657465608
 40
0.3809971866
 40
0.3962886124
 40
0.4116240385
 40
0.4270062211
 40
0.4424374298
 40
0.457919452
 40
0.4890310877
 40
0.5203549267
 40
0.5518869196
 40
0.5836151951
 40
0.6155205872
 40
0.6475775356
 40
0.6797550126
 40
0.7120177617
 40
0.7443275151
 40
0.7766443769
 40
0.8089282056
 40
0.8411399939
 40
0.8732432958
 40
0.9052053838
 40
0.9369988317
 40
0.9686016371
 40
1.0
 40
1.0
 40
1.0
 40
1.0
 10
10.5879120259
 20
8.3667950434
 30
0.0
 10
10.5762134631
 20
8.3676063415
 30
0.0
 10
10.5528010378
 20
8.368088296
 30
0.0
 10
10.5236695804
 20
8.3657962514
 30
0.0
 10
10.5007128292
 20
8.3622347829
 30
0.0
 10
10.4837292408
 20
8.3587141842
 30
0.0
 10
10.4669968167
 20
8.3543481759
 30
0.0
 10
10.4505554196
 20
8.3491475128
 30
0.0
 10
10.4344447762
 20
8.3431246386
 30
0.0
 10
10.4187037469
 20
8.3362939432
 30
0.0
 10
10.4033702268
 20
8.3286720728
 30
0.0
 10
10.3884813665
 20
8.320277058
 30
0.0
 10
10.3740728294
 20
8.311129554
 30
0.0
 10
10.3601797117
 20
8.3012510824
 30
0.0
 10
10.346835119
 20
8.2906660371
 30
0.0
 10
10.3340717294
 20
8.279399335
 30
0.0
 10
10.3219197956
 20
8.2674787516
 30
0.0
 10
10.3104091917
 20
8.2549324621
 30
0.0
 10
10.2995671068
 20
8.2417912607
 30
0.0
 10
10.2894202319
 20
8.2280863975
 30
0.0
 10
10.2799925303
 20
8.2138513076
 30
0.0
 10
10.2713071347
 20
8.1991200509
 30
0.0
 10
10.2633846506
 20
8.1839283569
 30
0.0
 10
10.2562443539
 20
8.1683127643
 30
0.0
 10
10.2499033607
 20
8.1523109753
 30
0.0
 10
10.2443768524
 20
8.1359616101
 30
0.0
 10
10.2396783264
 20
8.1193039868
 30
0.0
 10
10.2358187147
 20
8.1023785032
 30
0.0
 10
10.2328077491
 20
8.085225321
 30
0.0
 10
10.229929133
 20
8.0620732815
 30
0.0
 10
10.2284935374
 20
8.0327579965
 30
0.0
 10
10.230236018
 20
7.9974131407
 30
0.0
 10
10.2354214012
 20
7.9621722382
 30
0.0
 10
10.2439989665
 20
7.9273763613
 30
0.0
 10
10.2558851669
 20
7.8933590591
 30
0.0
 10
10.2709649919
 20
7.8604470293
 30
0.0
 10
10.2890929735
 20
7.8289560156
 30
0.0
 10
10.3100946048
 20
7.7991881463
 30
0.0
 10
10.3337679986
 20
7.7714290026
 30
0.0
 10
10.3598858077
 20
7.7459449772
 30
0.0
 10
10.3881973643
 20
7.7229807434
 30
0.0
 10
10.4184310225
 20
7.7027569415
 30
0.0
 10
10.4502968414
 20
7.6854681534
 30
0.0
 10
10.4834888036
 20
7.6712808812
 30
0.0
 10
10.5176895329
 20
7.6603322945
 30
0.0
 10
10.5525662717
 20
7.6527285422
 30
0.0
 10
10.5761340524
 20
7.6499289172
 30
0.0
 10
10.5879120259
 20
7.649112112
 30
0.0
  0
SPLINE
  5
3EC
100
AcDbEntity
  8
0
100
AcDbSpline
 62
7
  6
CONTINUOUS
 70
0
 71
3
 72
15
 73
11
 74
0
 42
0.0000001
 43
0.0000001
 44
0.0000000001
 40
0.0
 40
0.0
 40
0.0
 40
0.0
 40
0.115526313
 40
0.2342972017
 40
0.3563821345
 40
0.4815377457
 40
0.6092042774
 40
0.7386359488
 40
0.8690955521
 40
1.0
 40
1.0
 40
1.0
 40
1.0
 10
10.9579686358
 20
7.7992676964
 30
0.0
 10
10.9568283993
 20
7.8139588598
 30
0.0
 10
10.954755781
 20
7.8437731156
 30
0.0
 10
10.9524272699
 20
7.8891725646
 30
0.0
 10
10.9509688997
 20
7.9358377788
 30
0.0
 10
10.9504777766
 20
7.9836580751
 30
0.0
 10
10.9509884095
 20
8.0324150796
 30
0.0
 10
10.9524617356
 20
8.0818287753
 30
0.0
 10
10.9547985678
 20
8.1316218565
 30
0.0
 10
10.956844261
 20
8.1648970536
 30
0.0
 10
10.9579686358
 20
8.181555975
 30
0.0
  0
SPLINE
  5
3ED
100
AcDbEntity
  8
0
100
AcDbSpline
 62
7
  6
CONTINUOUS
 70
0
 71
3
 72
19
 73
15
 74
0
 42
0.0000001
 43
0.0000001
 44
0.0000000001
 40
0.0
 40
0.0
 40
0.0
 40
0.0
 40
0.1257437598
 40
0.2522256681
 40
0.3156447412
 40
0.3791025131
 40
0.4425250522
 40
0.5058312272
 40
0.5689379875
 40
0.6317661817
 40
0.6942460012
 40
0.7563212163
 40
0.8791108107
 40
1.0
 40
1.0
 40
1.0
 40
1.0
 10
10.9423985257
 20
8.2096039875
 30
0.0
 10
10.9277283957
 20
8.2172706169
 30
0.0
 10
10.8984338821
 20
8.2329031783
 30
0.0
 10
10.8621809243
 20
8.2532132033
 30
0.0
 10
10.8333766471
 20
8.2700266594
 30
0.0
 10
10.8119006168
 20
8.2829242543
 30
0.0
 10
10.7906069418
 20
8.2960925609
 30
0.0
 10
10.7695305505
 20
8.3095201768
 30
0.0
 10
10.7487039428
 20
8.3231899849
 30
0.0
 10
10.7281548845
 20
8.337080207
 30
0.0
 10
10.7079046064
 20
8.3511660157
 30
0.0
 10
10.6814174193
 20
8.3701034826
 30
0.0
 10
10.6491125854
 20
8.3941177415
 30
0.0
 10
10.623793787
 20
8.4138173081
 30
0.0
 10
10.6113271649
 20
8.4237080037
 30
0.0
  0
SPLINE
  5
3EE
100
AcDbEntity
  8
0
100
AcDbSpline
 62
7
  6
CONTINUOUS
 70
0
 71
3
 72
15
 73
11
 74
0
 42
0.0000001
 43
0.0000001
 44
0.0000000001
 40
0.0
 40
0.0
 40
0.0
 40
0.0
 40
0.1340162033
 40
0.2668995277
 40
0.3979172531
 40
0.5262007474
 40
0.6509246582
 40
0.7715238714
 40
0.8878213479
 40
1.0
 40
1.0
 40
1.0
 40
1.0
 10
10.5801869447
 20
8.4258675853
 30
0.0
 10
10.5656079188
 20
8.4179476813
 30
0.0
 10
10.5365353599
 20
8.4022441342
 30
0.0
 10
10.4930552283
 20
8.3790857169
 30
0.0
 10
10.4500434054
 20
8.3565599882
 30
0.0
 10
10.4077514202
 20
8.3348401393
 30
0.0
 10
10.3664242128
 20
8.3140687795
 30
0.0
 10
10.3262442063
 20
8.2943232583
 30
0.0
 10
10.2872936614
 20
8.2756012981
 30
0.0
 10
10.261702034
 20
8.2635530161
 30
0.0
 10
10.249115584
 20
8.2576833229
 30
0.0
  0
SPLINE
  5
3EF
100
AcDbEntity
  8
0
100
AcDbSpline
 62
7
  6
CONTINUOUS
 70
0
 71
3
 72
41
 73
37
 74
0
 42
0.0000001
 43
0.0000001
 44
0.0000000001
 40
0.0
 40
0.0
 40
0.0
 40
0.0
 40
0.095831117
 40
0.1428223828
 40
0.1891016657
 40
0.2345981013
 40
0.2792429722
 40
0.3229696121
 40
0.3657132006
 40
0.4074112622
 40
0.448003761
 40
0.4874332724
 40
0.5256453013
 40
0.5625885702
 40
0.5982152284
 40
0.6324812004
 40
0.665346694
 40
0.6967765908
 40
0.7267409665
 40
0.7552158729
 40
0.7821842525
 40
0.8076369368
 40
0.8315740791
 40
0.8540071168
 40
0.8749610733
 40
0.8944776011
 40
0.9126190189
 40
0.9294732547
 40
0.945159461
 40
0.9598339275
 40
0.9668559389
 40
0.9737029555
 40
0.9804063486
 40
0.986999737
 40
0.9935186587
 40
1.0
 40
1.0
 40
1.0
 40
1.0
 10
10.8410368431
 20
10.9087495701
 30
0.0
 10
10.8256696602
 20
10.9098152878
 30
0.0
 10
10.8027835062
 20
10.9116587888
 30
0.0
 10
10.7725328884
 20
10.914639495
 30
0.0
 10
10.7503623725
 20
10.9170970061
 30
0.0
 10
10.7285988495
 20
10.9197868388
 30
0.0
 10
10.7072787149
 20
10.9227044833
 30
0.0
 10
10.6864376244
 20
10.9258450237
 30
0.0
 10
10.6661103949
 20
10.9292032049
 30
0.0
 10
10.6463309929
 20
10.9327733657
 30
0.0
 10
10.6271324518
 20
10.9365494976
 30
0.0
 10
10.6085468334
 20
10.9405252632
 30
0.0
 10
10.5906051573
 20
10.9446939794
 30
0.0
 10
10.5733373408
 20
10.9490486202
 30
0.0
 10
10.5567721631
 20
10.953581864
 30
0.0
 10
10.5409372096
 20
10.9582861088
 30
0.0
 10
10.5258587986
 20
10.9631534374
 30
0.0
 10
10.5115619429
 20
10.9681756751
 30
0.0
 10
10.4980703132
 20
10.973344426
 30
0.0
 10
10.4854061666
 20
10.9786510729
 30
0.0
 10
10.4735902832
 20
10.9840867913
 30
0.0
 10
10.4626419435
 20
10.9896426413
 30
0.0
 10
10.4525788884
 20
10.9953096354
 30
0.0
 10
10.4434172404
 20
11.0010787676
 30
0.0
 10
10.4351715248
 20
11.0069411691
 30
0.0
 10
10.4278547353
 20
11.0128883419
 30
0.0
 10
10.4214785274
 20
11.0189121692
 30
0.0
 10
10.416053355
 20
11.0250055843
 30
0.0
 10
10.4115897661
 20
11.0311608553
 30
0.0
 10
10.4086373715
 20
11.0364140147
 30
0.0
 10
10.4067969427
 20
11.0406202367
 30
0.0
 10
10.405682676
 20
11.0437367129
 30
0.0
 10
10.4048151601
 20
11.0468593187
 30
0.0
 10
10.4041950367
 20
11.0499867955
 30
0.0
 10
10.4038227883
 20
11.0531173135
 30
0.0
 10
10.4037399513
 20
11.0552079348
 30
0.0
 10
10.4037399553
 20
11.056249759
 30
0.0
  0
SPLINE
  5
3F0
100
AcDbEntity
  8
0
100
AcDbSpline
 62
7
  6
CONTINUOUS
 70
0
 71
3
 72
19
 73
15
 74
0
 42
0.0000001
 43
0.0000001
 44
0.0000000001
 40
0.0
 40
0.0
 40
0.0
 40
0.0
 40
0.12732766
 40
0.2538196711
 40
0.3795264658
 40
0.5045235362
 40
0.5668075958
 40
0.6289556124
 40
0.6909843715
 40
0.7529118454
 40
0.8147570127
 40
0.8765397119
 40
0.9382804145
 40
1.0
 40
1.0
 40
1.0
 40
1.0
 10
12.0876941764
 20
10.2629651963
 30
0.0
 10
12.0876941764
 20
10.2564668163
 30
0.0
 10
12.0870737242
 20
10.243503766
 30
0.0
 10
12.0842676527
 20
10.2243082573
 30
0.0
 10
12.0796152102
 20
10.2055959673
 30
0.0
 10
12.0742257343
 20
10.1905277159
 30
0.0
 10
12.0690425338
 20
10.1788957649
 30
0.0
 10
12.0647323425
 20
10.1704066958
 30
0.0
 10
12.0600054239
 20
10.1621636361
 30
0.0
 10
12.0548725365
 20
10.1541853255
 30
0.0
 10
12.0493455229
 20
10.1464902869
 30
0.0
 10
12.0434371202
 20
10.1390961431
 30
0.0
 10
12.0371611413
 20
10.1320202211
 30
0.0
 10
12.0327409056
 20
10.1275251568
 30
0.0
 10
12.0304752804
 20
10.1253367317
 30
0.0
  0
SPLINE
  5
3F1
100
AcDbEntity
  8
0
100
AcDbSpline
 62
7
  6
CONTINUOUS
 70
0
 71
3
 72
19
 73
15
 74
0
 42
0.0000001
 43
0.0000001
 44
0.0000000001
 40
0.0
 40
0.0
 40
0.0
 40
0.0
 40
0.12732766
 40
0.2538196711
 40
0.3795264658
 40
0.5045235362
 40
0.5668075958
 40
0.6289556124
 40
0.6909843715
 40
0.7529118454
 40
0.8147570127
 40
0.8765397119
 40
0.9382804145
 40
1.0
 40
1.0
 40
1.0
 40
1.0
 10
12.0876941764
 20
5.9162987205
 30
0.0
 10
12.0876941764
 20
5.9098003405
 30
0.0
 10
12.0870737242
 20
5.8968372902
 30
0.0
 10
12.0842676527
 20
5.8776417814
 30
0.0
 10
12.0796152102
 20
5.8589294915
 30
0.0
 10
12.0742257343
 20
5.8438612401
 30
0.0
 10
12.0690425338
 20
5.832229289
 30
0.0
 10
12.0647323425
 20
5.82374022
 30
0.0
 10
12.0600054239
 20
5.8154971602
 30
0.0
 10
12.0548725365
 20
5.8075188496
 30
0.0
 10
12.0493455229
 20
5.799823811
 30
0.0
 10
12.0434371202
 20
5.7924296672
 30
0.0
 10
12.0371611413
 20
5.7853537453
 30
0.0
 10
12.0327409056
 20
5.780858681
 30
0.0
 10
12.0304752804
 20
5.7786702559
 30
0.0
  0
SPLINE
  5
3F2
100
AcDbEntity
  8
0
100
AcDbSpline
 62
7
  6
CONTINUOUS
 70
0
 71
3
 72
11
 73
7
 74
0
 42
0.0000001
 43
0.0000001
 44
0.0000000001
 40
0.0
 40
0.0
 40
0.0
 40
0.0
 40
0.2521073359
 40
0.5027589691
 40
0.7520228765
 40
1.0
 40
1.0
 40
1.0
 40
1.0
 10
11.1077623501
 20
8.1575904614
 30
0.0
 10
11.1077623501
 20
8.1480725833
 30
0.0
 10
11.1069656077
 20
8.1290818309
 30
0.0
 10
11.10336333
 20
8.1008861334
 30
0.0
 10
11.0973834023
 20
8.0732564969
 30
0.0
 10
11.0918236886
 20
8.0552966006
 30
0.0
 10
11.0886641084
 20
8.0464839312
 30
0.0
  0
SPLINE
  5
3F3
100
AcDbEntity
  8
0
100
AcDbSpline
 62
7
  6
CONTINUOUS
 70
0
 71
3
 72
51
 73
47
 74
0
 42
0.0000001
 43
0.0000001
 44
0.0000000001
 40
0.0
 40
0.0
 40
0.0
 40
0.0
 40
0.0417744683
 40
0.0840379783
 40
0.1266600061
 40
0.1695085183
 40
0.2124506398
 40
0.2553531056
 40
0.2980828147
 40
0.340507344
 40
0.3824954781
 40
0.4239177372
 40
0.4646469112
 40
0.5045585996
 40
0.5435317641
 40
0.5814492947
 40
0.618198601
 40
0.6536722357
 40
0.687768567
 40
0.7203925213
 40
0.7514564269
 40
0.7663786334
 40
0.7808818693
 40
0.7949577079
 40
0.8085984786
 40
0.8217971992
 40
0.8345477656
 40
0.8468449089
 40
0.8586844038
 40
0.8700630626
 40
0.8809789739
 40
0.8914315506
 40
0.9014218177
 40
0.9109525401
 40
0.9200285868
 40
0.9286571749
 40
0.9368483468
 40
0.9446153723
 40
0.951975373
 40
0.9589498998
 40
0.9655656818
 40
0.9778458874
 40
0.9836071498
 40
0.9891799107
 40
0.9946230128
 40
1.0
 40
1.0
 40
1.0
 40
1.0
 10
12.7791486565
 20
9.1844516214
 30
0.0
 10
12.7791486565
 20
9.1954585608
 30
0.0
 10
12.7793203775
 20
9.2176016406
 30
0.0
 10
12.7800795172
 20
9.2509671563
 30
0.0
 10
12.7813395099
 20
9.2846007613
 30
0.0
 10
12.7830962157
 20
9.3183910884
 30
0.0
 10
12.785343836
 20
9.3522263678
 30
0.0
 10
12.7880749382
 20
9.385994654
 30
0.0
 10
12.7912804765
 20
9.4195842301
 30
0.0
 10
12.7949498241
 20
9.4528839733
 30
0.0
 10
12.7990708071
 20
9.4857837264
 30
0.0
 10
12.8036297444
 20
9.5181746649
 30
0.0
 10
12.8086114927
 20
9.5499496607
 30
0.0
 10
12.813999495
 20
9.5810036403
 30
0.0
 10
12.8197758347
 20
9.6112339387
 30
0.0
 10
12.8259212938
 20
9.6405406434
 30
0.0
 10
12.8324154141
 20
9.6688269421
 30
0.0
 10
12.8392365677
 20
9.6959994274
 30
0.0
 10
12.8463620163
 20
9.7219685175
 30
0.0
 10
12.8537680294
 20
9.7466484434
 30
0.0
 10
12.8602364921
 20
9.7663281151
 30
0.0
 10
12.8655446534
 20
9.7813567761
 30
0.0
 10
12.8695270858
 20
9.7921051339
 30
0.0
 10
12.8735609157
 20
9.8024728469
 30
0.0
 10
12.8776427922
 20
9.8124513862
 30
0.0
 10
12.8817693686
 20
9.8220325213
 30
0.0
 10
12.8859371907
 20
9.8312083792
 30
0.0
 10
12.890142855
 20
9.8399714089
 30
0.0
 10
12.8943828503
 20
9.8483144326
 30
0.0
 10
12.8986537268
 20
9.8562306064
 30
0.0
 10
12.90295194
 20
9.8637134778
 30
0.0
 10
12.9072740182
 20
9.8707569373
 30
0.0
 10
12.9116164138
 20
9.8773552841
 30
0.0
 10
12.9159756698
 20
9.8835031654
 30
0.0
 10
12.9203482792
 20
9.8891956477
 30
0.0
 10
12.9247308599
 20
9.8944281441
 30
0.0
 10
12.9291199896
 20
9.8991964672
 30
0.0
 10
12.9335125125
 20
9.9034967976
 30
0.0
 10
12.9379049052
 20
9.9073254835
 30
0.0
 10
12.9422952177
 20
9.9106797964
 30
0.0
 10
12.9479970064
 20
9.9144211991
 30
0.0
 10
12.9538428616
 20
9.9173471886
 30
0.0
 10
12.959764119
 20
9.9192880004
 30
0.0
 10
12.9640933826
 20
9.92022405
 30
0.0
 10
12.9683983735
 20
9.9206684284
 30
0.0
 10
12.9712565703
 20
9.9206358465
 30
0.0
 10
12.9726699309
 20
9.920537838
 30
0.0
  0
SPLINE
  5
3F4
100
AcDbEntity
  8
0
100
AcDbSpline
 62
7
  6
CONTINUOUS
 70
0
 71
3
 72
51
 73
47
 74
0
 42
0.0000001
 43
0.0000001
 44
0.0000000001
 40
0.0
 40
0.0
 40
0.0
 40
0.0
 40
0.0417744683
 40
0.0840379783
 40
0.1266600061
 40
0.1695085183
 40
0.2124506398
 40
0.2553531056
 40
0.2980828147
 40
0.340507344
 40
0.3824954781
 40
0.4239177372
 40
0.4646469112
 40
0.5045585996
 40
0.5435317641
 40
0.5814492947
 40
0.618198601
 40
0.6536722357
 40
0.687768567
 40
0.7203925213
 40
0.7514564269
 40
0.7663786334
 40
0.7808818693
 40
0.7949577079
 40
0.8085984786
 40
0.8217971992
 40
0.8345477656
 40
0.8468449089
 40
0.8586844038
 40
0.8700630626
 40
0.8809789739
 40
0.8914315506
 40
0.9014218177
 40
0.9109525401
 40
0.9200285868
 40
0.9286571749
 40
0.9368483468
 40
0.9446153723
 40
0.951975373
 40
0.9589498998
 40
0.9655656818
 40
0.9778458874
 40
0.9836071498
 40
0.9891799107
 40
0.9946230128
 40
1.0
 40
1.0
 40
1.0
 40
1.0
 10
12.7791486565
 20
7.2525998544
 30
0.0
 10
12.7791486565
 20
7.2636067938
 30
0.0
 10
12.7793203775
 20
7.2857498736
 30
0.0
 10
12.7800795172
 20
7.3191153893
 30
0.0
 10
12.7813395099
 20
7.3527489943
 30
0.0
 10
12.7830962157
 20
7.3865393213
 30
0.0
 10
12.785343836
 20
7.4203746008
 30
0.0
 10
12.7880749382
 20
7.454142887
 30
0.0
 10
12.7912804765
 20
7.487732463
 30
0.0
 10
12.7949498241
 20
7.5210322062
 30
0.0
 10
12.7990708071
 20
7.5539319593
 30
0.0
 10
12.8036297444
 20
7.5863228978
 30
0.0
 10
12.8086114927
 20
7.6180978936
 30
0.0
 10
12.813999495
 20
7.6491518732
 30
0.0
 10
12.8197758347
 20
7.6793821716
 30
0.0
 10
12.8259212938
 20
7.7086888764
 30
0.0
 10
12.8324154141
 20
7.736975175
 30
0.0
 10
12.8392365677
 20
7.7641476604
 30
0.0
 10
12.8463620163
 20
7.7901167505
 30
0.0
 10
12.8537680294
 20
7.8147966763
 30
0.0
 10
12.8602364921
 20
7.834476348
 30
0.0
 10
12.8655446534
 20
7.8495050091
 30
0.0
 10
12.8695270858
 20
7.8602533668
 30
0.0
 10
12.8735609157
 20
7.8706210799
 30
0.0
 10
12.8776427922
 20
7.8805996191
 30
0.0
 10
12.8817693686
 20
7.8901807543
 30
0.0
 10
12.8859371907
 20
7.8993566122
 30
0.0
 10
12.890142855
 20
7.9081196419
 30
0.0
 10
12.8943828503
 20
7.9164626656
 30
0.0
 10
12.8986537268
 20
7.9243788393
 30
0.0
 10
12.90295194
 20
7.9318617108
 30
0.0
 10
12.9072740182
 20
7.9389051703
 30
0.0
 10
12.9116164138
 20
7.9455035171
 30
0.0
 10
12.9159756698
 20
7.9516513984
 30
0.0
 10
12.9203482792
 20
7.9573438806
 30
0.0
 10
12.9247308599
 20
7.9625763771
 30
0.0
 10
12.9291199896
 20
7.9673447001
 30
0.0
 10
12.9335125125
 20
7.9716450306
 30
0.0
 10
12.9379049052
 20
7.9754737164
 30
0.0
 10
12.9422952177
 20
7.9788280294
 30
0.0
 10
12.9479970064
 20
7.9825694321
 30
0.0
 10
12.9538428616
 20
7.9854954215
 30
0.0
 10
12.959764119
 20
7.9874362333
 30
0.0
 10
12.9640933826
 20
7.988372283
 30
0.0
 10
12.9683983735
 20
7.9888166614
 30
0.0
 10
12.9712565703
 20
7.9887840795
 30
0.0
 10
12.9726699309
 20
7.988686071
 30
0.0
  0
SPLINE
  5
3F5
100
AcDbEntity
  8
0
100
AcDbSpline
 62
7
  6
CONTINUOUS
 70
0
 71
3
 72
52
 73
48
 74
0
 42
0.0000001
 43
0.0000001
 44
0.0000000001
 40
0.0
 40
0.0
 40
0.0
 40
0.0
 40
0.0055575385
 40
0.0111779654
 40
0.0169219129
 40
0.0228458065
 40
0.0290006049
 40
0.0354310191
 40
0.0421754984
 40
0.0492663608
 40
0.0567304501
 40
0.0645895722
 40
0.0728612975
 40
0.0815593507
 40
0.0906943324
 40
0.1002739614
 40
0.1103036706
 40
0.120786711
 40
0.131724639
 40
0.1431173184
 40
0.1549633281
 40
0.1672598946
 40
0.1800032447
 40
0.1931884924
 40
0.2068099532
 40
0.2208610037
 40
0.2353343665
 40
0.2502219557
 40
0.2812037941
 40
0.3137309028
 40
0.3477182693
 40
0.383073415
 40
0.4196972551
 40
0.4574848508
 40
0.4963260881
 40
0.5361063043
 40
0.5767068783
 40
0.6180057966
 40
0.6598782005
 40
0.7021969227
 40
0.7448330149
 40
0.7876562701
 40
0.8305357432
 40
0.8733402649
 40
0.9159389686
 40
0.9582017827
 40
1.0
 40
1.0
 40
1.0
 40
1.0
 10
11.5837399522
 20
11.0562491552
 30
0.0
 10
11.5837399466
 20
11.0547896111
 30
0.0
 10
11.5835764696
 20
11.0518514701
 30
0.0
 10
11.5828430664
 20
11.0474599289
 30
0.0
 10
11.5816224841
 20
11.0430782047
 30
0.0
 10
11.579917272
 20
11.0387113288
 30
0.0
 10
11.5777300759
 20
11.0343629076
 30
0.0
 10
11.575063987
 20
11.0300361936
 30
0.0
 10
11.5719219039
 20
11.0257342475
 30
0.0
 10
11.5683070294
 20
11.0214598696
 30
0.0
 10
11.5642224897
 20
11.0172160399
 30
0.0
 10
11.5596718008
 20
11.0130056041
 30
0.0
 10
11.5546585833
 20
11.0088316748
 30
0.0
 10
11.5491869167
 20
11.004697234
 30
0.0
 10
11.5432611003
 20
11.0006055109
 30
0.0
 10
11.5368859067
 20
10.9965595727
 30
0.0
 10
11.5300663841
 20
10.9925626935
 30
0.0
 10
11.5228080379
 20
10.9886179591
 30
0.0
 10
11.5151166736
 20
10.9847286264
 30
0.0
 10
11.5069985273
 20
10.9808977492
 30
0.0
 10
11.4984601432
 20
10.9771285242
 30
0.0
 10
11.4895084686
 20
10.973423939
 30
0.0
 10
11.4801507596
 20
10.9697871018
 30
0.0
 10
11.4703946488
 20
10.9662209105
 30
0.0
 10
11.4602480728
 20
10.9627283635
 30
0.0
 10
11.449719324
 20
10.9593122594
 30
0.0
 10
11.4388169769
 20
10.9559754421
 30
0.0
 10
11.4235914889
 20
10.9515772089
 30
0.0
 10
11.4036840157
 20
10.9463123169
 30
0.0
 10
11.3787604781
 20
10.9404330854
 30
0.0
 10
11.3525763805
 20
10.934931039
 30
0.0
 10
11.3252173829
 20
10.9298243645
 30
0.0
 10
11.2967728169
 20
10.9251299794
 30
0.0
 10
11.2673357153
 20
10.9208634166
 30
0.0
 10
11.2370023923
 20
10.91703879
 30
0.0
 10
11.2058721436
 20
10.9136687452
 30
0.0
 10
11.1740469037
 20
10.9107644204
 30
0.0
 10
11.1416309075
 20
10.9083354111
 30
0.0
 10
11.1087303423
 20
10.9063897401
 30
0.0
 10
11.0754529961
 20
10.9049338323
 30
0.0
 10
11.0419079005
 20
10.9039724943
 30
0.0
 10
11.0082049708
 20
10.9035088995
 30
0.0
 10
10.9744546412
 20
10.9035445785
 30
0.0
 10
10.9407675106
 20
10.9040794127
 30
0.0
 10
10.9072539354
 20
10.9051116389
 30
0.0
 10
10.8740238342
 20
10.9066378426
 30
0.0
 10
10.8519877643
 20
10.9079901211
 30
0.0
 10
10.8410368431
 20
10.9087495701
 30
0.0
  0
SPLINE
  5
3F6
100
AcDbEntity
  8
0
100
AcDbSpline
 62
7
  6
CONTINUOUS
 70
0
 71
3
 72
49
 73
45
 74
0
 42
0.0000001
 43
0.0000001
 44
0.0000000001
 40
0.0
 40
0.0
 40
0.0
 40
0.0
 40
0.005676915
 40
0.0115454859
 40
0.0176490282
 40
0.02402547
 40
0.0307072837
 40
0.0377218368
 40
0.0450919152
 40
0.0528360595
 40
0.0609693424
 40
0.0695035324
 40
0.0784478057
 40
0.0878089062
 40
0.0975915365
 40
0.1077986894
 40
0.1184316645
 40
0.1294905585
 40
0.1409740751
 40
0.1528799729
 40
0.1652049524
 40
0.1779448391
 40
0.2046478131
 40
0.2329419067
 40
0.2627688633
 40
0.2940617681
 40
0.3267461325
 40
0.3607407783
 40
0.395958585
 40
0.4323071408
 40
0.4696893223
 40
0.5080038271
 40
0.5471456873
 40
0.5870067499
 40
0.6274761372
 40
0.6684406969
 40
0.709785441
 40
0.7513939809
 40
0.7931489736
 40
0.8349324843
 40
0.8766267078
 40
0.9181134439
 40
0.9592770498
 40
1.0
 40
1.0
 40
1.0
 40
1.0
 10
11.3976947234
 20
11.0178138953
 30
0.0
 10
11.3974243622
 20
11.0168417953
 30
0.0
 10
11.396774539
 20
11.014891338
 30
0.0
 10
11.3955072354
 20
11.0120174574
 30
0.0
 10
11.3939353778
 20
11.0091556578
 30
0.0
 10
11.3920607461
 20
11.0063083167
 30
0.0
 10
11.3898851704
 20
11.0034771161
 30
0.0
 10
11.3874105536
 20
11.0006638508
 30
0.0
 10
11.3846388286
 20
10.9978703626
 30
0.0
 10
11.3815721911
 20
10.995098393
 30
0.0
 10
11.3782128569
 20
10.9923499053
 30
0.0
 10
11.3745633745
 20
10.9896267042
 30
0.0
 10
11.3706263893
 20
10.9869307776
 30
0.0
 10
11.3664048235
 20
10.9842640331
 30
0.0
 10
11.3619017991
 20
10.9816284003
 30
0.0
 10
11.3571206358
 20
10.9790258694
 30
0.0
 10
11.3520649167
 20
10.9764582949
 30
0.0
 10
11.3467383821
 20
10.9739276808
 30
0.0
 10
11.3411450398
 20
10.9714358428
 30
0.0
 10
11.3352890646
 20
10.9689847209
 30
0.0
 10
11.3291748524
 20
10.9665761061
 30
0.0
 10
11.3205486394
 20
10.9633734651
 30
0.0
 10
11.3091459989
 20
10.9595016186
 30
0.0
 10
11.2947171961
 20
10.9551227287
 30
0.0
 10
11.2793792295
 20
10.9509546202
 30
0.0
 10
11.2631783144
 20
10.9470099999
 30
0.0
 10
11.2461631163
 20
10.9433009226
 30
0.0
 10
11.2283849076
 20
10.9398387188
 30
0.0
 10
11.2098972999
 20
10.9366339647
 30
0.0
 10
11.1907560977
 20
10.9336964472
 30
0.0
 10
11.1710191132
 20
10.9310351339
 30
0.0
 10
11.1507459877
 20
10.9286581416
 30
0.0
 10
11.129998002
 20
10.9265727184
 30
0.0
 10
11.108837886
 20
10.9247852215
 30
0.0
 10
11.0873296257
 20
10.9233010987
 30
0.0
 10
11.0655382682
 20
10.9221248729
 30
0.0
 10
11.0435297236
 20
10.9212601293
 30
0.0
 10
11.0213705628
 20
10.920709503
 30
0.0
 10
10.9991278248
 20
10.9204746716
 30
0.0
 10
10.9768687684
 20
10.920556341
 30
0.0
 10
10.9546608053
 20
10.9209542797
 30
0.0
 10
10.9325709339
 20
10.9216672441
 30
0.0
 10
10.9106662347
 20
10.9226931075
 30
0.0
 10
10.8961389479
 20
10.9235891539
 30
0.0
 10
10.888918327
 20
10.9240899056
 30
0.0
  0
SPLINE
  5
3F7
100
AcDbEntity
  8
0
100
AcDbSpline
 62
7
  6
CONTINUOUS
 70
0
 71
3
 72
35
 73
31
 74
0
 42
0.0000001
 43
0.0000001
 44
0.0000000001
 40
0.0
 40
0.0
 40
0.0
 40
0.0
 40
0.0132340089
 40
0.0271505403
 40
0.041932851
 40
0.0577292729
 40
0.0746562019
 40
0.0928020744
 40
0.1122321549
 40
0.1329927633
 40
0.1551144401
 40
0.1786152284
 40
0.2035024613
 40
0.2297747089
 40
0.2574232249
 40
0.2864326418
 40
0.3167822979
 40
0.3484465022
 40
0.3813952571
 40
0.4155948246
 40
0.4510077423
 40
0.4875935822
 40
0.5253088794
 40
0.5641074959
 40
0.6039409626
 40
0.6447583717
 40
0.7291297546
 40
0.8167785435
 40
0.9072322561
 40
1.0
 40
1.0
 40
1.0
 40
1.0
 10
10.5897852637
 20
11.0178135901
 30
0.0
 10
10.5901675325
 20
11.0164391474
 30
0.0
 10
10.5911541409
 20
11.0136725162
 30
0.0
 10
10.593209034
 20
11.0096346476
 30
0.0
 10
10.595862652
 20
11.0056277894
 30
0.0
 10
10.5991084698
 20
11.0016571683
 30
0.0
 10
10.602940818
 20
10.9977265144
 30
0.0
 10
10.6073536824
 20
10.9938401369
 30
0.0
 10
10.6123406858
 20
10.9900025941
 30
0.0
 10
10.617894783
 20
10.9862188379
 30
0.0
 10
10.6240080543
 20
10.9824938797
 30
0.0
 10
10.6306717985
 20
10.9788329954
 30
0.0
 10
10.6378763892
 20
10.9752413963
 30
0.0
 10
10.6456113563
 20
10.971724307
 30
0.0
 10
10.653865401
 20
10.9682869595
 30
0.0
 10
10.6626263718
 20
10.9649343899
 30
0.0
 10
10.6718813545
 20
10.9616716511
 30
0.0
 10
10.6816166464
 20
10.9585035985
 30
0.0
 10
10.6918178072
 20
10.9554349632
 30
0.0
 10
10.7024696889
 20
10.9524703927
 30
0.0
 10
10.7135564399
 20
10.9496142804
 30
0.0
 10
10.7250615575
 20
10.946870957
 30
0.0
 10
10.7369678986
 20
10.9442445249
 30
0.0
 10
10.7492577067
 20
10.9417389174
 30
0.0
 10
10.7619126731
 20
10.9393579075
 30
0.0
 10
10.7794412161
 20
10.9363206629
 30
0.0
 10
10.8021274911
 20
10.932874019
 30
0.0
 10
10.8302018249
 20
10.9293302332
 30
0.0
 10
10.8592519488
 20
10.9263559709
 30
0.0
 10
10.8789420246
 20
10.9247817646
 30
0.0
 10
10.888918327
 20
10.9240899056
 30
0.0
  0
SPLINE
  5
3F8
100
AcDbEntity
  8
0
100
AcDbSpline
 62
7
  6
CONTINUOUS
 70
0
 71
3
 72
42
 73
38
 74
0
 42
0.0000001
 43
0.0000001
 44
0.0000000001
 40
0.0
 40
0.0
 40
0.0
 40
0.0
 40
0.0299419644
 40
0.0449235317
 40
0.0599142035
 40
0.0899287023
 40
0.1200139727
 40
0.1350926544
 40
0.1501966973
 40
0.1804840373
 40
0.210897868
 40
0.2414513286
 40
0.2721543342
 40
0.3030133956
 40
0.3340315238
 40
0.3652082165
 40
0.3965395222
 40
0.4280181758
 40
0.459633799
 40
0.4913731572
 40
0.5232204671
 40
0.5551577446
 40
0.5871651885
 40
0.6192215901
 40
0.6513047644
 40
0.683391994
 40
0.715460481
 40
0.7474877999
 40
0.7794523452
 40
0.8113337678
 40
0.8431133918
 40
0.8747746145
 40
0.906303246
 40
0.9376878974
 40
0.9533257627
 40
0.9689252947
 40
1.0
 40
1.0
 40
1.0
 40
1.0
 10
11.7372923496
 20
10.428862254
 30
0.0
 10
11.7407927694
 20
10.4322433985
 30
0.0
 10
11.746249724
 20
10.4371102442
 30
0.0
 10
11.7538920379
 20
10.4431489902
 30
0.0
 10
11.7617777883
 20
10.4488871581
 30
0.0
 10
11.7720673394
 20
10.4554765194
 30
0.0
 10
11.7828572201
 20
10.4612402475
 30
0.0
 10
11.7917560356
 20
10.4653406632
 30
0.0
 10
11.8008387324
 20
10.4691024663
 30
0.0
 10
11.8124913774
 20
10.4731475738
 30
0.0
 10
11.8268515219
 20
10.4769174872
 30
0.0
 10
11.8415250071
 20
10.4795882079
 30
0.0
 10
11.8564305212
 20
10.4811449855
 30
0.0
 10
11.871486183
 20
10.4815795162
 30
0.0
 10
11.8866091522
 20
10.4808895871
 30
0.0
 10
11.901716309
 20
10.4790791839
 30
0.0
 10
11.9167246459
 20
10.4761584317
 30
0.0
 10
11.931551735
 20
10.4721435404
 30
0.0
 10
11.9461161698
 20
10.4670567081
 30
0.0
 10
11.9603380076
 20
10.4609259961
 30
0.0
 10
11.9741392011
 20
10.4537851728
 30
0.0
 10
11.9874440216
 20
10.4456735274
 30
0.0
 10
12.0001794681
 20
10.4366356545
 30
0.0
 10
12.0122756637
 20
10.4267212101
 30
0.0
 10
12.0236662336
 20
10.4159846417
 30
0.0
 10
12.0342886659
 20
10.4044848908
 30
0.0
 10
12.0440846507
 20
10.3922850738
 30
0.0
 10
12.0530003971
 20
10.3794521374
 30
0.0
 10
12.0609869257
 20
10.3660564995
 30
0.0
 10
12.0680003366
 20
10.3521716519
 30
0.0
 10
12.0740020445
 20
10.3378738194
 30
0.0
 10
12.0789590092
 20
10.3232413342
 30
0.0
 10
12.0828438389
 20
10.3083550002
 30
0.0
 10
12.0851728867
 20
10.2957893238
 30
0.0
 10
12.0864794091
 20
10.2856929453
 30
0.0
 10
12.0874118426
 20
10.2756062305
 30
0.0
 10
12.0876941764
 20
10.2680160423
 30
0.0
 10
12.0876941764
 20
10.2629651963
 30
0.0
  0
SPLINE
  5
3F9
100
AcDbEntity
  8
0
100
AcDbSpline
 62
7
  6
CONTINUOUS
 70
0
 71
3
 72
42
 73
38
 74
0
 42
0.0000001
 43
0.0000001
 44
0.0000000001
 40
0.0
 40
0.0
 40
0.0
 40
0.0
 40
0.0299419644
 40
0.0449235317
 40
0.0599142035
 40
0.0899287023
 40
0.1200139727
 40
0.1350926544
 40
0.1501966973
 40
0.1804840373
 40
0.210897868
 40
0.2414513286
 40
0.2721543342
 40
0.3030133956
 40
0.3340315238
 40
0.3652082165
 40
0.3965395222
 40
0.4280181758
 40
0.459633799
 40
0.4913731572
 40
0.5232204671
 40
0.5551577446
 40
0.5871651885
 40
0.6192215901
 40
0.6513047644
 40
0.683391994
 40
0.715460481
 40
0.7474877999
 40
0.7794523452
 40
0.8113337678
 40
0.8431133918
 40
0.8747746145
 40
0.906303246
 40
0.9376878974
 40
0.9533257627
 40
0.9689252947
 40
1.0
 40
1.0
 40
1.0
 40
1.0
 10
11.7372923496
 20
6.0821957782
 30
0.0
 10
11.7407927694
 20
6.0855769227
 30
0.0
 10
11.746249724
 20
6.0904437683
 30
0.0
 10
11.7538920379
 20
6.0964825143
 30
0.0
 10
11.7617777883
 20
6.1022206823
 30
0.0
 10
11.7720673394
 20
6.1088100435
 30
0.0
 10
11.7828572201
 20
6.1145737717
 30
0.0
 10
11.7917560356
 20
6.1186741873
 30
0.0
 10
11.8008387324
 20
6.1224359905
 30
0.0
 10
11.8124913774
 20
6.126481098
 30
0.0
 10
11.8268515219
 20
6.1302510114
 30
0.0
 10
11.8415250071
 20
6.1329217321
 30
0.0
 10
11.8564305212
 20
6.1344785097
 30
0.0
 10
11.871486183
 20
6.1349130403
 30
0.0
 10
11.8866091522
 20
6.1342231113
 30
0.0
 10
11.901716309
 20
6.132412708
 30
0.0
 10
11.9167246459
 20
6.1294919559
 30
0.0
 10
11.931551735
 20
6.1254770646
 30
0.0
 10
11.9461161698
 20
6.1203902322
 30
0.0
 10
11.9603380076
 20
6.1142595202
 30
0.0
 10
11.9741392011
 20
6.1071186969
 30
0.0
 10
11.9874440216
 20
6.0990070516
 30
0.0
 10
12.0001794681
 20
6.0899691786
 30
0.0
 10
12.0122756637
 20
6.0800547343
 30
0.0
 10
12.0236662336
 20
6.0693181658
 30
0.0
 10
12.0342886659
 20
6.057818415
 30
0.0
 10
12.0440846507
 20
6.045618598
 30
0.0
 10
12.0530003971
 20
6.0327856616
 30
0.0
 10
12.0609869257
 20
6.0193900237
 30
0.0
 10
12.0680003366
 20
6.0055051761
 30
0.0
 10
12.0740020445
 20
5.9912073436
 30
0.0
 10
12.0789590092
 20
5.9765748583
 30
0.0
 10
12.0828438389
 20
5.9616885243
 30
0.0
 10
12.0851728867
 20
5.9491228479
 30
0.0
 10
12.0864794091
 20
5.9390264694
 30
0.0
 10
12.0874118426
 20
5.9289397546
 30
0.0
 10
12.0876941764
 20
5.9213495664
 30
0.0
 10
12.0876941764
 20
5.9162987205
 30
0.0
  0
SPLINE
  5
3FA
100
AcDbEntity
  8
0
100
AcDbSpline
 62
7
  6
CONTINUOUS
 70
0
 71
3
 72
23
 73
19
 74
0
 42
0.0000001
 43
0.0000001
 44
0.0000000001
 40
0.0
 40
0.0
 40
0.0
 40
0.0
 40
0.0612826216
 40
0.1228198277
 40
0.1846013176
 40
0.2466131272
 40
0.3088378774
 40
0.3712550642
 40
0.4338413869
 40
0.496571107
 40
0.5594164343
 40
0.6223479341
 40
0.685334952
 40
0.7483460501
 40
0.8113494511
 40
0.8743134863
 40
0.9372070419
 40
1.0
 40
1.0
 40
1.0
 40
1.0
 10
10.7787403879
 20
8.5207039408
 30
0.0
 10
10.7858390339
 20
8.519972442
 30
0.0
 10
10.8000241697
 20
8.5180647813
 30
0.0
 10
10.8211255245
 20
8.5138962675
 30
0.0
 10
10.8420171662
 20
8.5084306644
 30
0.0
 10
10.8626166325
 20
8.5016894806
 30
0.0
 10
10.882843983
 20
8.4936990455
 30
0.0
 10
10.9026203678
 20
8.484490577
 30
0.0
 10
10.9218687998
 20
8.4741000131
 30
0.0
 10
10.9405143262
 20
8.4625678842
 30
0.0
 10
10.9584843508
 20
8.4499391523
 30
0.0
 10
10.9757089059
 20
8.4362630358
 30
0.0
 10
10.9921209213
 20
8.4215928254
 30
0.0
 10
11.0076564977
 20
8.4059856512
 30
0.0
 10
11.022255097
 20
8.389502362
 30
0.0
 10
11.0358599877
 20
8.3722069144
 30
0.0
 10
11.0484176772
 20
8.3541675263
 30
0.0
 10
11.0560672128
 20
8.3416780752
 30
0.0
 10
11.0597012651
 20
8.3353329477
 30
0.0
  0
SPLINE
  5
3FB
100
AcDbEntity
  8
0
100
AcDbSpline
 62
7
  6
CONTINUOUS
 70
0
 71
3
 72
11
 73
7
 74
0
 42
0.0000001
 43
0.0000001
 44
0.0000000001
 40
0.0
 40
0.0
 40
0.0
 40
0.0
 40
0.2521829303
 40
0.5029936262
 40
0.7522931759
 40
1.0
 40
1.0
 40
1.0
 40
1.0
 10
11.0834717558
 20
8.2855735571
 30
0.0
 10
11.0874600358
 20
8.2753119616
 30
0.0
 10
11.09449401
 20
8.2544724536
 30
0.0
 10
11.1021190501
 20
8.2224813598
 30
0.0
 10
11.1067272563
 20
8.1901153397
 30
0.0
 10
11.1077623501
 20
8.1684044431
 30
0.0
 10
11.1077623501
 20
8.1575904614
 30
0.0
  0
SPLINE
  5
3FC
100
AcDbEntity
  8
0
100
AcDbSpline
 62
7
  6
CONTINUOUS
 70
0
 71
3
 72
41
 73
37
 74
0
 42
0.0000001
 43
0.0000001
 44
0.0000000001
 40
0.0
 40
0.0
 40
0.0
 40
0.0
 40
0.0063160079
 40
0.012670914
 40
0.0191028693
 40
0.0256485311
 40
0.0323425104
 40
0.0392169797
 40
0.0536150169
 40
0.0611958751
 40
0.0690577399
 40
0.0856909608
 40
0.1036391145
 40
0.1229890565
 40
0.143801821
 40
0.1661176928
 40
0.1899604125
 40
0.2153403247
 40
0.2422566544
 40
0.2706994287
 40
0.3006509523
 40
0.3320868137
 40
0.3649767025
 40
0.3992852168
 40
0.4349723983
 40
0.4719940776
 40
0.5103023547
 40
0.5498459695
 40
0.5905705077
 40
0.6324186414
 40
0.6753304665
 40
0.7192436716
 40
0.7640936164
 40
0.8098138291
 40
0.9035871702
 40
1.0
 40
1.0
 40
1.0
 40
1.0
 10
12.8910336032
 20
8.7433651789
 30
0.0
 10
12.8900363904
 20
8.7434343299
 30
0.0
 10
12.8880405363
 20
8.7436546829
 30
0.0
 10
12.8850691098
 20
8.744229001
 30
0.0
 10
12.8821175547
 20
8.7450471899
 30
0.0
 10
12.8791875903
 20
8.7461085402
 30
0.0
 10
12.8762803439
 20
8.7474124095
 30
0.0
 10
12.8723767299
 20
8.7495049543
 30
0.0
 10
12.8685790995
 20
8.7520664683
 30
0.0
 10
12.8649039347
 20
8.7550349733
 30
0.0
 10
12.8611318429
 20
8.7584359349
 30
0.0
 10
12.8564957152
 20
8.7633118644
 30
0.0
 10
12.8511638904
 20
8.7699881814
 30
0.0
 10
12.845968351
 20
8.7775859035
 30
0.0
 10
12.8409163187
 20
8.7860928225
 30
0.0
 10
12.8360148081
 20
8.7954959953
 30
0.0
 10
12.8312712593
 20
8.8057807351
 30
0.0
 10
12.8266931176
 20
8.8169308419
 30
0.0
 10
12.8222877161
 20
8.8289285089
 30
0.0
 10
12.8180622204
 20
8.8417544195
 30
0.0
 10
12.8140235935
 20
8.8553878042
 30
0.0
 10
12.8101785205
 20
8.8698064731
 30
0.0
 10
12.8065333614
 20
8.884986865
 30
0.0
 10
12.8030941808
 20
8.9009041231
 30
0.0
 10
12.7998667229
 20
8.9175321395
 30
0.0
 10
12.7968563485
 20
8.9348435908
 30
0.0
 10
12.7940680673
 20
8.9528100027
 30
0.0
 10
12.7915065391
 20
8.9714018098
 30
0.0
 10
12.7891760361
 20
8.9905883944
 30
0.0
 10
12.7870804269
 20
9.0103381397
 30
0.0
 10
12.7852232058
 20
9.0306184984
 30
0.0
 10
12.7836074939
 20
9.0513960267
 30
0.0
 10
12.7822359331
 20
9.0726364988
 30
0.0
 10
12.7807231899
 20
9.1017731702
 30
0.0
 10
12.7794719339
 20
9.1390917503
 30
0.0
 10
12.7791486565
 20
9.1691927757
 30
0.0
 10
12.7791486565
 20
9.1844516214
 30
0.0
  0
SPLINE
  5
3FD
100
AcDbEntity
  8
0
100
AcDbSpline
 62
7
  6
CONTINUOUS
 70
0
 71
3
 72
35
 73
31
 74
0
 42
0.0000001
 43
0.0000001
 44
0.0000000001
 40
0.0
 40
0.0
 40
0.0
 40
0.0
 40
0.0129109927
 40
0.0265158867
 40
0.0410039265
 40
0.0565272186
 40
0.0732042017
 40
0.0911242813
 40
0.1103528487
 40
0.1309360363
 40
0.1529039471
 40
0.1762740718
 40
0.2010532727
 40
0.2272395667
 40
0.2548237861
 40
0.2837901628
 40
0.3141176635
 40
0.3457803491
 40
0.3787479401
 40
0.4129865194
 40
0.448458458
 40
0.4851231769
 40
0.5229371298
 40
0.5618540682
 40
0.6018254662
 40
0.6428003558
 40
0.7275452331
 40
0.8156451403
 40
0.9066271953
 40
1.0
 40
1.0
 40
1.0
 40
1.0
 10
12.8660012093
 20
8.9315183876
 30
0.0
 10
12.8647075756
 20
8.9319757674
 30
0.0
 10
12.8621171445
 20
8.9331119567
 30
0.0
 10
12.8583817621
 20
8.9353763598
 30
0.0
 10
12.8547172113
 20
8.9382301443
 30
0.0
 10
12.8511278115
 20
8.9416665074
 30
0.0
 10
12.8476164426
 20
8.9456797185
 30
0.0
 10
12.8441866918
 20
8.9502637627
 30
0.0
 10
12.8408423341
 20
8.9554121988
 30
0.0
 10
12.8375875908
 20
8.9611179344
 30
0.0
 10
12.834426673
 20
8.9673729819
 30
0.0
 10
12.8313639929
 20
8.9741685525
 30
0.0
 10
12.8284038919
 20
8.9814949623
 30
0.0
 10
12.8255506126
 20
8.9893416746
 30
0.0
 10
12.8228083967
 20
8.997697346
 30
0.0
 10
12.8201812221
 20
9.0065498038
 30
0.0
 10
12.8176730232
 20
9.015886121
 30
0.0
 10
12.8152875238
 20
9.025692614
 30
0.0
 10
12.8130282445
 20
9.0359548786
 30
0.0
 10
12.8108986067
 20
9.0466578213
 30
0.0
 10
12.8089017329
 20
9.0577856744
 30
0.0
 10
12.8070406363
 20
9.0693220321
 30
0.0
 10
12.8053180897
 20
9.0812498745
 30
0.0
 10
12.8037366437
 20
9.0935515891
 30
0.0
 10
12.8022986758
 20
9.1062090267
 30
0.0
 10
12.8005560505
 20
9.1237318156
 30
0.0
 10
12.7987642688
 20
9.1463873931
 30
0.0
 10
12.797237372
 20
9.1743863792
 30
0.0
 10
12.7963198794
 20
9.2033291255
 30
0.0
 10
12.7961205113
 20
9.2229220262
 30
0.0
 10
12.7961205113
 20
9.2328451761
 30
0.0
  0
SPLINE
  5
3FE
100
AcDbEntity
  8
0
100
AcDbSpline
 62
7
  6
CONTINUOUS
 70
0
 71
3
 72
49
 73
45
 74
0
 42
0.0000001
 43
0.0000001
 44
0.0000000001
 40
0.0
 40
0.0
 40
0.0
 40
0.0
 40
0.0054989017
 40
0.0111936889
 40
0.0171298617
 40
0.023346907
 40
0.0298784864
 40
0.0367526419
 40
0.0439925951
 40
0.0516170572
 40
0.0596410614
 40
0.0680763167
 40
0.0769317186
 40
0.0862138313
 40
0.0959270022
 40
0.1060739505
 40
0.1166556471
 40
0.1276718299
 40
0.1391209287
 40
0.1510003037
 40
0.1633063979
 40
0.1760346532
 40
0.2027349871
 40
0.2310517004
 40
0.2609240163
 40
0.2922825191
 40
0.325050225
 40
0.3591434579
 40
0.3944725909
 40
0.4309426937
 40
0.4684541089
 40
0.506902997
 40
0.5461818478
 40
0.5861799633
 40
0.6267839246
 40
0.6678780486
 40
0.7093448348
 40
0.7510654089
 40
0.79291998
 40
0.8347882094
 40
0.8765499375
 40
0.9180846979
 40
0.9592745754
 40
1.0
 40
1.0
 40
1.0
 40
1.0
 10
12.9219067357
 20
9.7376412618
 30
0.0
 10
12.9209449807
 20
9.7374449496
 30
0.0
 10
12.9190069914
 20
9.7369421648
 30
0.0
 10
12.91613191
 20
9.7358887459
 30
0.0
 10
12.9132473852
 20
9.734526581
 30
0.0
 10
12.9103557841
 20
9.7328574976
 30
0.0
 10
12.9074588936
 20
9.730883126
 30
0.0
 10
12.9045584909
 20
9.7286053618
 30
0.0
 10
12.9016565149
 20
9.7260259738
 30
0.0
 10
12.8987547984
 20
9.7231470553
 30
0.0
 10
12.8958553699
 20
9.7199707305
 30
0.0
 10
12.8929602362
 20
9.716499394
 30
0.0
 10
12.8900714497
 20
9.7127356379
 30
0.0
 10
12.8871911696
 20
9.7086822383
 30
0.0
 10
12.8843214451
 20
9.7043422653
 30
0.0
 10
12.8814645077
 20
9.6997189312
 30
0.0
 10
12.8786224254
 20
9.694815753
 30
0.0
 10
12.8757974098
 20
9.6896364068
 30
0.0
 10
12.8729915765
 20
9.684184826
 30
0.0
 10
12.8702070683
 20
9.678465147
 30
0.0
 10
12.8674460163
 20
9.6724817035
 30
0.0
 10
12.8637394298
 20
9.6640227287
 30
0.0
 10
12.85919173
 20
9.6528146717
 30
0.0
 10
12.8539442272
 20
9.6385967038
 30
0.0
 10
12.8488391561
 20
9.6234469824
 30
0.0
 10
12.8438922547
 20
9.6074117428
 30
0.0
 10
12.8391187972
 20
9.5905397773
 30
0.0
 10
12.8345335165
 20
9.5728825864
 30
0.0
 10
12.8301505622
 20
9.5544941096
 30
0.0
 10
12.8259834546
 20
9.5354305748
 30
0.0
 10
12.8220450393
 20
9.5157503109
 30
0.0
 10
12.81834745
 20
9.495513562
 30
0.0
 10
12.8149020739
 20
9.4747822947
 30
0.0
 10
12.8117195166
 20
9.4536200038
 30
0.0
 10
12.8088095705
 20
9.4320915151
 30
0.0
 10
12.8061811855
 20
9.4102627848
 30
0.0
 10
12.8038424426
 20
9.3882006966
 30
0.0
 10
12.8018005258
 20
9.3659728529
 30
0.0
 10
12.8000617048
 20
9.343647377
 30
0.0
 10
12.7986313017
 20
9.3212926593
 30
0.0
 10
12.7975137189
 20
9.2989772789
 30
0.0
 10
12.7967123306
 20
9.2767694499
 30
0.0
 10
12.7962296352
 20
9.2547374718
 30
0.0
 10
12.7961205113
 20
9.2401149014
 30
0.0
 10
12.7961205113
 20
9.2328451761
 30
0.0
  0
SPLINE
  5
3FF
100
AcDbEntity
  8
0
100
AcDbSpline
 62
7
  6
CONTINUOUS
 70
0
 71
3
 72
41
 73
37
 74
0
 42
0.0000001
 43
0.0000001
 44
0.0000000001
 40
0.0
 40
0.0
 40
0.0
 40
0.0
 40
0.0063160079
 40
0.012670914
 40
0.0191028693
 40
0.0256485311
 40
0.0323425104
 40
0.0392169797
 40
0.0536150169
 40
0.0611958751
 40
0.0690577399
 40
0.0856909608
 40
0.1036391145
 40
0.1229890565
 40
0.143801821
 40
0.1661176928
 40
0.1899604125
 40
0.2153403247
 40
0.2422566544
 40
0.2706994287
 40
0.3006509523
 40
0.3320868137
 40
0.3649767025
 40
0.3992852168
 40
0.4349723983
 40
0.4719940776
 40
0.5103023547
 40
0.5498459695
 40
0.5905705077
 40
0.6324186414
 40
0.6753304665
 40
0.7192436716
 40
0.7640936164
 40
0.8098138291
 40
0.9035871702
 40
1.0
 40
1.0
 40
1.0
 40
1.0
 10
12.8910336032
 20
6.8115134118
 30
0.0
 10
12.8900363904
 20
6.8115825628
 30
0.0
 10
12.8880405363
 20
6.8118029158
 30
0.0
 10
12.8850691098
 20
6.8123772339
 30
0.0
 10
12.8821175547
 20
6.8131954229
 30
0.0
 10
12.8791875903
 20
6.8142567732
 30
0.0
 10
12.8762803439
 20
6.8155606425
 30
0.0
 10
12.8723767299
 20
6.8176531873
 30
0.0
 10
12.8685790995
 20
6.8202147013
 30
0.0
 10
12.8649039347
 20
6.8231832062
 30
0.0
 10
12.8611318429
 20
6.8265841678
 30
0.0
 10
12.8564957152
 20
6.8314600973
 30
0.0
 10
12.8511638904
 20
6.8381364143
 30
0.0
 10
12.845968351
 20
6.8457341364
 30
0.0
 10
12.8409163187
 20
6.8542410555
 30
0.0
 10
12.8360148081
 20
6.8636442282
 30
0.0
 10
12.8312712593
 20
6.8739289681
 30
0.0
 10
12.8266931176
 20
6.8850790749
 30
0.0
 10
12.8222877161
 20
6.8970767419
 30
0.0
 10
12.8180622204
 20
6.9099026525
 30
0.0
 10
12.8140235935
 20
6.9235360371
 30
0.0
 10
12.8101785205
 20
6.937954706
 30
0.0
 10
12.8065333614
 20
6.953135098
 30
0.0
 10
12.8030941808
 20
6.969052356
 30
0.0
 10
12.7998667229
 20
6.9856803724
 30
0.0
 10
12.7968563485
 20
7.0029918238
 30
0.0
 10
12.7940680673
 20
7.0209582356
 30
0.0
 10
12.7915065391
 20
7.0395500427
 30
0.0
 10
12.7891760361
 20
7.0587366274
 30
0.0
 10
12.7870804269
 20
7.0784863726
 30
0.0
 10
12.7852232058
 20
7.0987667313
 30
0.0
 10
12.7836074939
 20
7.1195442596
 30
0.0
 10
12.7822359331
 20
7.1407847318
 30
0.0
 10
12.7807231899
 20
7.1699214031
 30
0.0
 10
12.7794719339
 20
7.2072399833
 30
0.0
 10
12.7791486565
 20
7.2373410086
 30
0.0
 10
12.7791486565
 20
7.2525998544
 30
0.0
  0
SPLINE
  5
400
100
AcDbEntity
  8
0
100
AcDbSpline
 62
7
  6
CONTINUOUS
 70
0
 71
3
 72
35
 73
31
 74
0
 42
0.0000001
 43
0.0000001
 44
0.0000000001
 40
0.0
 40
0.0
 40
0.0
 40
0.0
 40
0.0129109927
 40
0.0265158867
 40
0.0410039265
 40
0.0565272186
 40
0.0732042017
 40
0.0911242813
 40
0.1103528487
 40
0.1309360363
 40
0.1529039471
 40
0.1762740718
 40
0.2010532727
 40
0.2272395667
 40
0.2548237861
 40
0.2837901628
 40
0.3141176635
 40
0.3457803491
 40
0.3787479401
 40
0.4129865194
 40
0.448458458
 40
0.4851231769
 40
0.5229371298
 40
0.5618540682
 40
0.6018254662
 40
0.6428003558
 40
0.7275452331
 40
0.8156451403
 40
0.9066271953
 40
1.0
 40
1.0
 40
1.0
 40
1.0
 10
12.8660012093
 20
6.9996666205
 30
0.0
 10
12.8647075756
 20
7.0001240004
 30
0.0
 10
12.8621171445
 20
7.0012601896
 30
0.0
 10
12.8583817621
 20
7.0035245928
 30
0.0
 10
12.8547172113
 20
7.0063783772
 30
0.0
 10
12.8511278115
 20
7.0098147404
 30
0.0
 10
12.8476164426
 20
7.0138279514
 30
0.0
 10
12.8441866918
 20
7.0184119956
 30
0.0
 10
12.8408423341
 20
7.0235604317
 30
0.0
 10
12.8375875908
 20
7.0292661673
 30
0.0
 10
12.834426673
 20
7.0355212148
 30
0.0
 10
12.8313639929
 20
7.0423167854
 30
0.0
 10
12.8284038919
 20
7.0496431953
 30
0.0
 10
12.8255506126
 20
7.0574899076
 30
0.0
 10
12.8228083967
 20
7.065845579
 30
0.0
 10
12.8201812221
 20
7.0746980368
 30
0.0
 10
12.8176730232
 20
7.0840343539
 30
0.0
 10
12.8152875238
 20
7.0938408469
 30
0.0
 10
12.8130282445
 20
7.1041031115
 30
0.0
 10
12.8108986067
 20
7.1148060543
 30
0.0
 10
12.8089017329
 20
7.1259339074
 30
0.0
 10
12.8070406363
 20
7.137470265
 30
0.0
 10
12.8053180897
 20
7.1493981074
 30
0.0
 10
12.8037366437
 20
7.1616998221
 30
0.0
 10
12.8022986758
 20
7.1743572597
 30
0.0
 10
12.8005560505
 20
7.1918800486
 30
0.0
 10
12.7987642688
 20
7.214535626
 30
0.0
 10
12.797237372
 20
7.2425346122
 30
0.0
 10
12.7963198794
 20
7.2714773585
 30
0.0
 10
12.7961205113
 20
7.2910702592
 30
0.0
 10
12.7961205113
 20
7.300993409
 30
0.0
  0
SPLINE
  5
401
100
AcDbEntity
  8
0
100
AcDbSpline
 62
7
  6
CONTINUOUS
 70
0
 71
3
 72
49
 73
45
 74
0
 42
0.0000001
 43
0.0000001
 44
0.0000000001
 40
0.0
 40
0.0
 40
0.0
 40
0.0
 40
0.0054989017
 40
0.0111936889
 40
0.0171298617
 40
0.023346907
 40
0.0298784864
 40
0.0367526419
 40
0.0439925951
 40
0.0516170572
 40
0.0596410614
 40
0.0680763167
 40
0.0769317186
 40
0.0862138313
 40
0.0959270022
 40
0.1060739505
 40
0.1166556471
 40
0.1276718299
 40
0.1391209287
 40
0.1510003037
 40
0.1633063979
 40
0.1760346532
 40
0.2027349871
 40
0.2310517004
 40
0.2609240163
 40
0.2922825191
 40
0.325050225
 40
0.3591434579
 40
0.3944725909
 40
0.4309426937
 40
0.4684541089
 40
0.506902997
 40
0.5461818478
 40
0.5861799633
 40
0.6267839246
 40
0.6678780486
 40
0.7093448348
 40
0.7510654089
 40
0.79291998
 40
0.8347882094
 40
0.8765499375
 40
0.9180846979
 40
0.9592745754
 40
1.0
 40
1.0
 40
1.0
 40
1.0
 10
12.9219067357
 20
7.8057894947
 30
0.0
 10
12.9209449807
 20
7.8055931825
 30
0.0
 10
12.9190069914
 20
7.8050903978
 30
0.0
 10
12.91613191
 20
7.8040369788
 30
0.0
 10
12.9132473852
 20
7.802674814
 30
0.0
 10
12.9103557841
 20
7.8010057305
 30
0.0
 10
12.9074588936
 20
7.799031359
 30
0.0
 10
12.9045584909
 20
7.7967535947
 30
0.0
 10
12.9016565149
 20
7.7941742068
 30
0.0
 10
12.8987547984
 20
7.7912952883
 30
0.0
 10
12.8958553699
 20
7.7881189634
 30
0.0
 10
12.8929602362
 20
7.784647627
 30
0.0
 10
12.8900714497
 20
7.7808838709
 30
0.0
 10
12.8871911696
 20
7.7768304713
 30
0.0
 10
12.8843214451
 20
7.7724904983
 30
0.0
 10
12.8814645077
 20
7.7678671641
 30
0.0
 10
12.8786224254
 20
7.7629639859
 30
0.0
 10
12.8757974098
 20
7.7577846397
 30
0.0
 10
12.8729915765
 20
7.752333059
 30
0.0
 10
12.8702070683
 20
7.7466133799
 30
0.0
 10
12.8674460163
 20
7.7406299365
 30
0.0
 10
12.8637394298
 20
7.7321709617
 30
0.0
 10
12.85919173
 20
7.7209629047
 30
0.0
 10
12.8539442272
 20
7.7067449367
 30
0.0
 10
12.8488391561
 20
7.6915952154
 30
0.0
 10
12.8438922547
 20
7.6755599757
 30
0.0
 10
12.8391187972
 20
7.6586880102
 30
0.0
 10
12.8345335165
 20
7.6410308194
 30
0.0
 10
12.8301505622
 20
7.6226423425
 30
0.0
 10
12.8259834546
 20
7.6035788078
 30
0.0
 10
12.8220450393
 20
7.5838985439
 30
0.0
 10
12.81834745
 20
7.563661795
 30
0.0
 10
12.8149020739
 20
7.5429305277
 30
0.0
 10
12.8117195166
 20
7.5217682368
 30
0.0
 10
12.8088095705
 20
7.500239748
 30
0.0
 10
12.8061811855
 20
7.4784110177
 30
0.0
 10
12.8038424426
 20
7.4563489295
 30
0.0
 10
12.8018005258
 20
7.4341210859
 30
0.0
 10
12.8000617048
 20
7.4117956099
 30
0.0
 10
12.7986313017
 20
7.3894408922
 30
0.0
 10
12.7975137189
 20
7.3671255119
 30
0.0
 10
12.7967123306
 20
7.3449176828
 30
0.0
 10
12.7962296352
 20
7.3228857048
 30
0.0
 10
12.7961205113
 20
7.3082631343
 30
0.0
 10
12.7961205113
 20
7.300993409
 30
0.0
  0
SPLINE
  5
402
100
AcDbEntity
  8
0
100
AcDbSpline
 62
7
  6
CONTINUOUS
 70
0
 71
3
 72
51
 73
47
 74
0
 42
0.0000001
 43
0.0000001
 44
0.0000000001
 40
0.0
 40
0.0
 40
0.0
 40
0.0
 40
0.0417744683
 40
0.0840379783
 40
0.1266600061
 40
0.1695085183
 40
0.2124506398
 40
0.2553531056
 40
0.2980828147
 40
0.340507344
 40
0.3824954781
 40
0.4239177372
 40
0.4646469112
 40
0.5045585996
 40
0.5435317641
 40
0.5814492947
 40
0.618198601
 40
0.6536722357
 40
0.687768567
 40
0.7203925213
 40
0.7514564269
 40
0.7663786334
 40
0.7808818693
 40
0.7949577079
 40
0.8085984786
 40
0.8217971992
 40
0.8345477656
 40
0.8468449089
 40
0.8586844038
 40
0.8700630626
 40
0.8809789739
 40
0.8914315506
 40
0.9014218177
 40
0.9109525401
 40
0.9200285868
 40
0.9286571749
 40
0.9368483468
 40
0.9446153723
 40
0.951975373
 40
0.9589498998
 40
0.9655656818
 40
0.9778458874
 40
0.9836071498
 40
0.9891799107
 40
0.9946230128
 40
1.0
 40
1.0
 40
1.0
 40
1.0
 10
13.0845548776
 20
7.5475996284
 30
0.0
 10
13.0845548776
 20
7.536592689
 30
0.0
 10
13.0843831566
 20
7.5144496092
 30
0.0
 10
13.0836240169
 20
7.4810840935
 30
0.0
 10
13.0823640242
 20
7.4474504885
 30
0.0
 10
13.0806073184
 20
7.4136601615
 30
0.0
 10
13.078359698
 20
7.379824882
 30
0.0
 10
13.0756285959
 20
7.3460565958
 30
0.0
 10
13.0724230576
 20
7.3124670198
 30
0.0
 10
13.06875371
 20
7.2791672766
 30
0.0
 10
13.064632727
 20
7.2462675235
 30
0.0
 10
13.0600737897
 20
7.2138765849
 30
0.0
 10
13.0550920414
 20
7.1821015892
 30
0.0
 10
13.0497040391
 20
7.1510476096
 30
0.0
 10
13.0439276994
 20
7.1208173112
 30
0.0
 10
13.0377822403
 20
7.0915106064
 30
0.0
 10
13.03128812
 20
7.0632243078
 30
0.0
 10
13.0244669664
 20
7.0360518224
 30
0.0
 10
13.0173415178
 20
7.0100827323
 30
0.0
 10
13.0099355047
 20
6.9854028065
 30
0.0
 10
13.003467042
 20
6.9657231348
 30
0.0
 10
12.9981588807
 20
6.9506944737
 30
0.0
 10
12.9941764483
 20
6.939946116
 30
0.0
 10
12.9901426184
 20
6.9295784029
 30
0.0
 10
12.9860607419
 20
6.9195998637
 30
0.0
 10
12.9819341655
 20
6.9100187285
 30
0.0
 10
12.9777663434
 20
6.9008428706
 30
0.0
 10
12.9735606791
 20
6.8920798409
 30
0.0
 10
12.9693206838
 20
6.8837368172
 30
0.0
 10
12.9650498073
 20
6.8758206434
 30
0.0
 10
12.9607515941
 20
6.868337772
 30
0.0
 10
12.9564295159
 20
6.8612943125
 30
0.0
 10
12.9520871203
 20
6.8546959657
 30
0.0
 10
12.9477278643
 20
6.8485480844
 30
0.0
 10
12.9433552549
 20
6.8428556022
 30
0.0
 10
12.9389726742
 20
6.8376231057
 30
0.0
 10
12.9345835445
 20
6.8328547827
 30
0.0
 10
12.9301910216
 20
6.8285544522
 30
0.0
 10
12.9257986289
 20
6.8247257664
 30
0.0
 10
12.9214083164
 20
6.8213714534
 30
0.0
 10
12.9157065277
 20
6.8176300507
 30
0.0
 10
12.9098606725
 20
6.8147040613
 30
0.0
 10
12.9039394151
 20
6.8127632495
 30
0.0
 10
12.8996101515
 20
6.8118271998
 30
0.0
 10
12.8953051606
 20
6.8113828214
 30
0.0
 10
12.8924469638
 20
6.8114154033
 30
0.0
 10
12.8910336032
 20
6.8115134118
 30
0.0
  0
SPLINE
  5
403
100
AcDbEntity
  8
0
100
AcDbSpline
 62
7
  6
CONTINUOUS
 70
0
 71
3
 72
49
 73
45
 74
0
 42
0.0000001
 43
0.0000001
 44
0.0000000001
 40
0.0
 40
0.0
 40
0.0
 40
0.0
 40
0.0402902238
 40
0.0810105407
 40
0.1220495948
 40
0.1632959678
 40
0.2046368656
 40
0.2459594376
 40
0.2871507956
 40
0.3280985483
 40
0.3686911543
 40
0.408818337
 40
0.4483714838
 40
0.4872440563
 40
0.5253320046
 40
0.562534194
 40
0.598752844
 40
0.6338939898
 40
0.6678679708
 40
0.7005899584
 40
0.7319805407
 40
0.7619663865
 40
0.7904810207
 40
0.8174657604
 40
0.8303690282
 40
0.842871973
 40
0.8549700867
 40
0.8666595324
 40
0.8779374063
 40
0.8888016841
 40
0.8992514215
 40
0.9092868376
 40
0.9189094504
 40
0.928122321
 40
0.936930145
 40
0.9453396654
 40
0.953359767
 40
0.9610020443
 40
0.9682809599
 40
0.975214519
 40
0.9818245265
 40
0.9881372506
 40
0.9941836948
 40
1.0
 40
1.0
 40
1.0
 40
1.0
 10
11.1464430643
 20
11.1728397151
 30
0.0
 10
11.1360981716
 20
11.1735571358
 30
0.0
 10
11.1152868132
 20
11.1748434283
 30
0.0
 10
11.0839080665
 20
11.1763244253
 30
0.0
 10
11.0522653426
 20
11.1773645824
 30
0.0
 10
11.0204514277
 20
11.1779608546
 30
0.0
 10
10.9885593121
 20
11.1781114697
 30
0.0
 10
10.95668237
 20
11.1778159943
 30
0.0
 10
10.924913868
 20
11.1770752935
 30
0.0
 10
10.8933467763
 20
11.1758915517
 30
0.0
 10
10.8620734644
 20
11.1742682551
 30
0.0
 10
10.8311854391
 20
11.1722101867
 30
0.0
 10
10.8007730715
 20
11.1697234114
 30
0.0
 10
10.7709253304
 20
11.1668152587
 30
0.0
 10
10.7417295195
 20
11.1634943029
 30
0.0
 10
10.713271017
 20
11.159770338
 30
0.0
 10
10.6856330211
 20
11.1556543507
 30
0.0
 10
10.6588962988
 20
11.1511584892
 30
0.0
 10
10.6331389435
 20
11.1462960284
 30
0.0
 10
10.6084361249
 20
11.1410813308
 30
0.0
 10
10.5848598879
 20
11.135529802
 30
0.0
 10
10.5624788011
 20
11.1296578489
 30
0.0
 10
10.5413581396
 20
11.1234827974
 30
0.0
 10
10.5246178291
 20
11.1180211343
 30
0.0
 10
10.5119131727
 20
11.1135009435
 30
0.0
 10
10.5028798918
 20
11.1100970617
 30
0.0
 10
10.4942056642
 20
11.1066313496
 30
0.0
 10
10.4858967958
 20
11.1031062413
 30
0.0
 10
10.4779593111
 20
11.0995243644
 30
0.0
 10
10.4703989683
 20
11.0958882916
 30
0.0
 10
10.4632212334
 20
11.0922006714
 30
0.0
 10
10.4564312797
 20
11.0884641744
 30
0.0
 10
10.450034006
 20
11.084681451
 30
0.0
 10
10.4440339773
 20
11.0808552458
 30
0.0
 10
10.4384355213
 20
11.0769881822
 30
0.0
 10
10.4332425843
 20
11.0730830369
 30
0.0
 10
10.4284589338
 20
11.0691423745
 30
0.0
 10
10.4240879192
 20
11.0651689405
 30
0.0
 10
10.4201327922
 20
11.0611652163
 30
0.0
 10
10.4165963893
 20
11.0571338413
 30
0.0
 10
10.4134815619
 20
11.0530772589
 30
0.0
 10
10.4107907702
 20
11.0489978911
 30
0.0
 10
10.4085267717
 20
11.0448987122
 30
0.0
 10
10.4072818693
 20
11.0421056361
 30
0.0
 10
10.4067368306
 20
11.0407114068
 30
0.0
  0
SPLINE
  5
404
100
AcDbEntity
  8
0
100
AcDbSpline
 62
7
  6
CONTINUOUS
 70
0
 71
3
 72
36
 73
32
 74
0
 42
0.0000001
 43
0.0000001
 44
0.0000000001
 40
0.0
 40
0.0
 40
0.0
 40
0.0
 40
0.0914894542
 40
0.1807639173
 40
0.2673614381
 40
0.3095171994
 40
0.3508388755
 40
0.3912745997
 40
0.4307743053
 40
0.4692898545
 40
0.5067750386
 40
0.5431859184
 40
0.5784809716
 40
0.6126211619
 40
0.6455703865
 40
0.6772956281
 40
0.707767182
 40
0.7369592632
 40
0.7648502603
 40
0.7914232719
 40
0.8166669968
 40
0.8405763367
 40
0.8631535371
 40
0.8844096934
 40
0.9043662271
 40
0.9230572222
 40
0.9405322288
 40
0.9568594091
 40
0.9721296206
 40
0.986460512
 40
1.0
 40
1.0
 40
1.0
 40
1.0
 10
11.1464430643
 20
11.1728397151
 30
0.0
 10
11.1606311568
 20
11.1718557675
 30
0.0
 10
11.1886448573
 20
11.1696231379
 30
0.0
 10
11.2299969881
 20
11.16542301
 30
0.0
 10
11.2636325012
 20
11.1612265573
 30
0.0
 10
11.2898028627
 20
11.1574672391
 30
0.0
 10
11.3088336942
 20
11.1544852263
 30
0.0
 10
11.3274161858
 20
11.1513197991
 30
0.0
 10
11.3455239409
 20
11.1479754482
 30
0.0
 10
11.3631312191
 20
11.1444569899
 30
0.0
 10
11.3802129987
 20
11.1407694227
 30
0.0
 10
11.3967450172
 20
11.1369180271
 30
0.0
 10
11.4127038078
 20
11.1329083324
 30
0.0
 10
11.4280667211
 20
11.1287460353
 30
0.0
 10
11.4428119819
 20
11.1244371053
 30
0.0
 10
11.4569187124
 20
11.1199877131
 30
0.0
 10
11.4703669522
 20
11.1154041702
 30
0.0
 10
11.4831377262
 20
11.1106930432
 30
0.0
 10
11.495213052
 20
11.1058610361
 30
0.0
 10
11.5065759628
 20
11.1009149587
 30
0.0
 10
11.5172105878
 20
11.0958618276
 30
0.0
 10
11.5271021348
 20
11.0907086974
 30
0.0
 10
11.536236921
 20
11.085462652
 30
0.0
 10
11.5446024509
 20
11.0801308538
 30
0.0
 10
11.5521873383
 20
11.0747202992
 30
0.0
 10
11.5589813028
 20
11.0692378292
 30
0.0
 10
11.5649751607
 20
11.0636900103
 30
0.0
 10
11.5701604292
 20
11.0580830758
 30
0.0
 10
11.5745293285
 20
11.0524223399
 30
0.0
 10
11.5780735488
 20
11.0467147917
 30
0.0
 10
11.5799266997
 20
11.04278452
 30
0.0
 10
11.5806980261
 20
11.0408262151
 30
0.0
  0
SPLINE
  5
405
100
AcDbEntity
  8
0
100
AcDbSpline
 62
7
  6
CONTINUOUS
 70
0
 71
3
 72
36
 73
32
 74
0
 42
0.0000001
 43
0.0000001
 44
0.0000000001
 40
0.0
 40
0.0
 40
0.0
 40
0.0
 40
0.091785895
 40
0.1813049905
 40
0.2681011153
 40
0.3103405694
 40
0.3517364447
 40
0.3922374638
 40
0.4317941436
 40
0.4703588511
 40
0.5078858236
 40
0.5443315453
 40
0.5796547861
 40
0.6138167429
 40
0.64678148
 40
0.6785159612
 40
0.7089904034
 40
0.7381787866
 40
0.7660590246
 40
0.792613651
 40
0.8178305071
 40
0.841703325
 40
0.8642329986
 40
0.8854287998
 40
0.9053099166
 40
0.9239078675
 40
0.941269026
 40
0.9574579937
 40
0.9725618369
 40
0.9866942927
 40
1.0
 40
1.0
 40
1.0
 40
1.0
 10
13.0536452486
 20
9.4815949855
 30
0.0
 10
13.0536452486
 20
9.4956344927
 30
0.0
 10
13.0533711585
 20
9.523367714
 30
0.0
 10
13.0521104805
 20
9.5643597795
 30
0.0
 10
13.0503464912
 20
9.5977464307
 30
0.0
 10
13.0485059576
 20
9.6237509962
 30
0.0
 10
13.0469325849
 20
9.6426740251
 30
0.0
 10
13.0451560237
 20
9.6611668683
 30
0.0
 10
13.0431787534
 20
9.6792037875
 30
0.0
 10
13.0410035813
 20
9.6967596575
 30
0.0
 10
13.0386335284
 20
9.7138100347
 30
0.0
 10
13.036071951
 20
9.7303311894
 30
0.0
 10
13.0333224579
 20
9.7463001383
 30
0.0
 10
13.030388879
 20
9.7616946752
 30
0.0
 10
13.0272753738
 20
9.7764934171
 30
0.0
 10
13.0239863072
 20
9.7906758245
 30
0.0
 10
13.0205262701
 20
9.8042222349
 30
0.0
 10
13.0169001561
 20
9.8171139132
 30
0.0
 10
13.0131130106
 20
9.8293330591
 30
0.0
 10
13.0091701046
 20
9.8408628542
 30
0.0
 10
13.005076948
 20
9.8516875097
 30
0.0
 10
13.0008391253
 20
9.8617922593
 30
0.0
 10
12.996462405
 20
9.8711634315
 30
0.0
 10
12.9919526474
 20
9.8797884722
 30
0.0
 10
12.9873156196
 20
9.8876559053
 30
0.0
 10
12.9825571033
 20
9.8947553991
 30
0.0
 10
12.9776825785
 20
9.901077674
 30
0.0
 10
12.9726972557
 20
9.9066141937
 30
0.0
 10
12.9676054953
 20
9.9113573017
 30
0.0
 10
12.9624129983
 20
9.9152985509
 30
0.0
 10
12.9587906177
 20
9.9174425726
 30
0.0
 10
12.9569747745
 20
9.9183617472
 30
0.0
  0
SPLINE
  5
406
100
AcDbEntity
  8
0
100
AcDbSpline
 62
7
  6
CONTINUOUS
 70
0
 71
3
 72
49
 73
45
 74
0
 42
0.0000001
 43
0.0000001
 44
0.0000000001
 40
0.0
 40
0.0
 40
0.0
 40
0.0
 40
0.0401880976
 40
0.0808270924
 40
0.1218047438
 40
0.1630086358
 40
0.2043249437
 40
0.2456397127
 40
0.2868388961
 40
0.3278088848
 40
0.3684368642
 40
0.4086112289
 40
0.4482219831
 40
0.4871611501
 40
0.5253231863
 40
0.5626054046
 40
0.5989084106
 40
0.6341365573
 40
0.6681984259
 40
0.7010073426
 40
0.7324819464
 40
0.7625468319
 40
0.7911332954
 40
0.8181802325
 40
0.8311101307
 40
0.8436362697
 40
0.8557537673
 40
0.8674583656
 40
0.8787467438
 40
0.8896163897
 40
0.9000658819
 40
0.9100948738
 40
0.9197043272
 40
0.9288966488
 40
0.9376758813
 40
0.9460480212
 40
0.9540211986
 40
0.9616061873
 40
0.9688166249
 40
0.9756696952
 40
0.9821864254
 40
0.9883924437
 40
0.9943182929
 40
1.0
 40
1.0
 40
1.0
 40
1.0
 10
13.0536452486
 20
9.4815949855
 30
0.0
 10
13.0536452486
 20
9.4712184615
 30
0.0
 10
13.0534926517
 20
9.4503487009
 30
0.0
 10
13.0528173822
 20
9.4189051211
 30
0.0
 10
13.0516961782
 20
9.3872117957
 30
0.0
 10
13.0501323474
 20
9.3553621673
 30
0.0
 10
13.0481304573
 20
9.3234498576
 30
0.0
 10
13.0456964071
 20
9.2915688187
 30
0.0
 10
13.0428373579
 20
9.2598128512
 30
0.0
 10
13.0395617388
 20
9.2282754064
 30
0.0
 10
13.0358792094
 20
9.1970492818
 30
0.0
 10
13.0318006371
 20
9.1662263554
 30
0.0
 10
13.0273380636
 20
9.1358973104
 30
0.0
 10
13.0225046705
 20
9.1061513665
 30
0.0
 10
13.017314741
 20
9.0770760145
 30
0.0
 10
13.011783619
 20
9.0487567546
 30
0.0
 10
13.0059276643
 20
9.0212768404
 30
0.0
 10
12.9997642057
 20
8.9947170262
 30
0.0
 10
12.9933114907
 20
8.9691553238
 30
0.0
 10
12.9865886315
 20
8.9446667518
 30
0.0
 10
12.9796155468
 20
8.9213231328
 30
0.0
 10
12.9724129024
 20
8.8991927489
 30
0.0
 10
12.9650020326
 20
8.878340502
 30
0.0
 10
12.9585783684
 20
8.8618405441
 30
0.0
 10
12.9533396707
 20
8.8493368147
 30
0.0
 10
12.9494312627
 20
8.8404568739
 30
0.0
 10
12.945487375
 20
8.8319400256
 30
0.0
 10
12.9415107921
 20
8.8237925071
 30
0.0
 10
12.9375045112
 20
8.8160202493
 30
0.0
 10
12.9334714039
 20
8.8086289336
 30
0.0
 10
12.9294144603
 20
8.8016239209
 30
0.0
 10
12.9253366019
 20
8.795010302
 30
0.0
 10
12.9212407878
 20
8.7887928587
 30
0.0
 10
12.9171299696
 20
8.7829760666
 30
0.0
 10
12.9130070397
 20
8.7775641245
 30
0.0
 10
12.9088749442
 20
8.7725608784
 30
0.0
 10
12.9047364667
 20
8.7679699575
 30
0.0
 10
12.9005944901
 20
8.763794591
 30
0.0
 10
12.8964516497
 20
8.7600378892
 30
0.0
 10
12.8923106899
 20
8.7567025389
 30
0.0
 10
12.8881741274
 20
8.7537912599
 30
0.0
 10
12.8840444384
 20
8.7513063392
 30
0.0
 10
12.8799245989
 20
8.7492504277
 30
0.0
 10
12.8771331468
 20
8.7481463375
 30
0.0
 10
12.8757448796
 20
8.7476721702
 30
0.0
  0
SPLINE
  5
407
100
AcDbEntity
  8
0
100
AcDbSpline
 62
7
  6
CONTINUOUS
 70
0
 71
3
 72
51
 73
47
 74
0
 42
0.0000001
 43
0.0000001
 44
0.0000000001
 40
0.0
 40
0.0
 40
0.0
 40
0.0
 40
0.0427960306
 40
0.0861070234
 40
0.1297881032
 40
0.1736941675
 40
0.2176783436
 40
0.2615937773
 40
0.305293777
 40
0.3486326089
 40
0.3914660654
 40
0.433652112
 40
0.4750515178
 40
0.5155285026
 40
0.5549513983
 40
0.5931933327
 40
0.6301329476
 40
0.6656551675
 40
0.6996520402
 40
0.7320236828
 40
0.7626793848
 40
0.7915389448
 40
0.8052740339
 40
0.8185356808
 40
0.8313177441
 40
0.8436149942
 40
0.8554235871
 40
0.8667408362
 40
0.8775657535
 40
0.8878989116
 40
0.8977430063
 40
0.907102913
 40
0.9159862546
 40
0.9244037454
 40
0.9323697865
 40
0.9399031545
 40
0.9470276561
 40
0.9537731099
 40
0.9601759823
 40
0.9662803199
 40
0.9721379292
 40
0.9778084115
 40
0.9833580191
 40
0.9888578602
 40
0.9943811235
 40
1.0
 40
1.0
 40
1.0
 40
1.0
 10
13.0057637648
 20
9.4353450209
 30
0.0
 10
13.0057637648
 20
9.4275034409
 30
0.0
 10
13.0056367815
 20
9.4117256591
 30
0.0
 10
13.0050758236
 20
9.3879501232
 30
0.0
 10
13.0041449666
 20
9.3639826065
 30
0.0
 10
13.0028475357
 20
9.3399086393
 30
0.0
 10
13.0011881186
 20
9.3158138697
 30
0.0
 10
12.9991726381
 20
9.2917841556
 30
0.0
 10
12.9968082768
 20
9.2679050664
 30
0.0
 10
12.9941034787
 20
9.244261651
 30
0.0
 10
12.9910679077
 20
9.2209381062
 30
0.0
 10
12.9877124181
 20
9.1980174827
 30
0.0
 10
12.9840490151
 20
9.1755813832
 30
0.0
 10
12.9800908137
 20
9.1537096691
 30
0.0
 10
12.9758519922
 20
9.1324801703
 30
0.0
 10
12.9713477439
 20
9.1119684007
 30
0.0
 10
12.9665942227
 20
9.0922472823
 30
0.0
 10
12.9616084876
 20
9.0733868641
 30
0.0
 10
12.9564084394
 20
9.055454086
 30
0.0
 10
12.9510127595
 20
9.0385124078
 30
0.0
 10
12.9454408122
 20
9.0226219253
 30
0.0
 10
12.9405906496
 20
9.0101039194
 30
0.0
 10
12.9366262976
 20
9.000667659
 30
0.0
 10
12.9336705114
 20
8.9940045894
 30
0.0
 10
12.9306857757
 20
8.9876442645
 30
0.0
 10
12.927674624
 20
8.9815923198
 30
0.0
 10
12.9246398249
 20
8.9758540648
 30
0.0
 10
12.9215839685
 20
8.9704345746
 30
0.0
 10
12.9185098306
 20
8.9653385688
 30
0.0
 10
12.9154200214
 20
8.9605705292
 30
0.0
 10
12.9123172834
 20
8.9561345746
 30
0.0
 10
12.9092042244
 20
8.9520345687
 30
0.0
 10
12.9060834939
 20
8.9482740344
 30
0.0
 10
12.9029576529
 20
8.9448562118
 30
0.0
 10
12.8998291854
 20
8.9417840725
 30
0.0
 10
12.8967005396
 20
8.9390602832
 30
0.0
 10
12.8935739776
 20
8.9366873972
 30
0.0
 10
12.8904518069
 20
8.9346676754
 30
0.0
 10
12.8873361567
 20
8.9330035131
 30
0.0
 10
12.8842294029
 20
8.9316970417
 30
0.0
 10
12.8811340356
 20
8.930750698
 30
0.0
 10
12.8780531418
 20
8.9301664548
 30
0.0
 10
12.8749903641
 20
8.9299462263
 30
0.0
 10
12.8719497904
 20
8.9300908501
 30
0.0
 10
12.8689363052
 20
8.9306002174
 30
0.0
 10
12.8669718805
 20
8.931175195
 30
0.0
 10
12.8660012093
 20
8.9315183876
 30
0.0
  0
SPLINE
  5
408
100
AcDbEntity
  8
0
100
AcDbSpline
 62
7
  6
CONTINUOUS
 70
0
 71
3
 72
29
 73
25
 74
0
 42
0.0000001
 43
0.0000001
 44
0.0000000001
 40
0.0
 40
0.0
 40
0.0
 40
0.0
 40
0.0701063144
 40
0.1412507717
 40
0.2129806505
 40
0.2848361254
 40
0.3563572583
 40
0.4270866844
 40
0.4965735195
 40
0.5643771194
 40
0.6300709502
 40
0.6932465836
 40
0.7237691774
 40
0.753519436
 40
0.7824532685
 40
0.8105286777
 40
0.837705705
 40
0.8639468181
 40
0.8892171151
 40
0.9134844013
 40
0.9367197742
 40
0.9588977796
 40
0.9799968314
 40
1.0
 40
1.0
 40
1.0
 40
1.0
 10
12.891883385
 20
9.4353450144
 30
0.0
 10
12.891883385
 20
9.4252530182
 30
0.0
 10
12.8916564592
 20
9.4049189513
 30
0.0
 10
12.8906612294
 20
9.3742738231
 30
0.0
 10
12.8890146355
 20
9.3434045212
 30
0.0
 10
12.8867278175
 20
9.3125217175
 30
0.0
 10
12.8838164022
 20
9.2818361455
 30
0.0
 10
12.8803003435
 20
9.2515571268
 30
0.0
 10
12.8762037807
 20
9.2218911929
 30
0.0
 10
12.8715548939
 20
9.1930405652
 30
0.0
 10
12.8663856534
 20
9.1652020509
 30
0.0
 10
12.8616211491
 20
9.1427541512
 30
0.0
 10
12.8575646285
 20
9.125452043
 30
0.0
 10
12.8544500674
 20
9.1129934041
 30
0.0
 10
12.8512338049
 20
9.1009248274
 30
0.0
 10
12.8479213592
 20
9.0892668647
 30
0.0
 10
12.8445183886
 20
9.0780393886
 30
0.0
 10
12.8410307308
 20
9.0672615134
 30
0.0
 10
12.8374643943
 20
9.0569515694
 30
0.0
 10
12.833825448
 20
9.0471270812
 30
0.0
 10
12.8301201619
 20
9.0378047191
 30
0.0
 10
12.8263548619
 20
9.0290002186
 30
0.0
 10
12.8225359991
 20
9.0207286029
 30
0.0
 10
12.8198874778
 20
9.0154362364
 30
0.0
 10
12.8185524753
 20
9.0128848933
 30
0.0
  0
SPLINE
  5
409
100
AcDbEntity
  8
0
100
AcDbSpline
 62
7
  6
CONTINUOUS
 70
0
 71
3
 72
23
 73
19
 74
0
 42
0.0000001
 43
0.0000001
 44
0.0000000001
 40
0.0
 40
0.0
 40
0.0
 40
0.0
 40
0.0663097626
 40
0.1335017735
 40
0.2012756888
 40
0.2693269963
 40
0.3373500718
 40
0.4050392689
 40
0.4720909092
 40
0.5382049507
 40
0.6030867769
 40
0.6664489748
 40
0.7280131609
 40
0.7875118637
 40
0.8446905027
 40
0.8993095149
 40
0.9511467122
 40
1.0
 40
1.0
 40
1.0
 40
1.0
 10
12.8544973314
 20
9.4297584464
 30
0.0
 10
12.8544973314
 20
9.4220031042
 30
0.0
 10
12.8543514895
 20
9.4063888884
 30
0.0
 10
12.8537091326
 20
9.3828560335
 30
0.0
 10
12.8526444385
 20
9.3591345559
 30
0.0
 10
12.8511624653
 20
9.3353381382
 30
0.0
 10
12.8492703102
 20
9.3115807505
 30
0.0
 10
12.8469770437
 20
9.2879761708
 30
0.0
 10
12.8442936856
 20
9.2646374444
 30
0.0
 10
12.8412331429
 20
9.2416763278
 30
0.0
 10
12.8378101541
 20
9.2192027509
 30
0.0
 10
12.8340412177
 20
9.1973242799
 30
0.0
 10
12.8299445172
 20
9.1761455957
 30
0.0
 10
12.8255398334
 20
9.1557679652
 30
0.0
 10
12.8208484634
 20
9.1362887807
 30
0.0
 10
12.8158930793
 20
9.1178009088
 30
0.0
 10
12.8106977594
 20
9.1003927467
 30
0.0
 10
12.8069761454
 20
9.0892170857
 30
0.0
 10
12.8050713766
 20
9.0838302312
 30
0.0
  0
SPLINE
  5
40A
100
AcDbEntity
  8
0
100
AcDbSpline
 62
7
  6
CONTINUOUS
 70
0
 71
3
 72
41
 73
37
 74
0
 42
0.0000001
 43
0.0000001
 44
0.0000000001
 40
0.0
 40
0.0
 40
0.0
 40
0.0
 40
0.0993185995
 40
0.1957378905
 40
0.242659217
 40
0.2886161494
 40
0.3335333527
 40
0.3773378893
 40
0.4199595273
 40
0.4613310191
 40
0.5013885458
 40
0.5400718482
 40
0.5773245363
 40
0.6130947421
 40
0.6473353604
 40
0.6800045616
 40
0.71106675
 40
0.7404931552
 40
0.7682628528
 40
0.7943644297
 40
0.818797509
 40
0.8415750702
 40
0.8627268826
 40
0.8823034004
 40
0.9003811735
 40
0.9170699788
 40
0.9325206031
 40
0.9469328147
 40
0.9538317884
 40
0.9605709853
 40
0.9671901854
 40
0.9737315336
 40
0.9802388361
 40
0.9867566606
 40
0.9933293294
 40
1.0
 40
1.0
 40
1.0
 40
1.0
 10
13.0057637648
 20
9.4353450209
 30
0.0
 10
13.0057637648
 20
9.4463695608
 30
0.0
 10
13.005518209
 20
9.468097677
 30
0.0
 10
13.0045660688
 20
9.495019407
 30
0.0
 10
13.0034143851
 20
9.5160007214
 30
0.0
 10
13.0023711572
 20
9.5312611361
 30
0.0
 10
13.0011426557
 20
9.5461606546
 30
0.0
 10
12.999731147
 20
9.5606720682
 30
0.0
 10
12.9981392524
 20
9.5747688352
 30
0.0
 10
12.9963698908
 20
9.588425187
 30
0.0
 10
12.994426361
 20
9.6016161787
 30
0.0
 10
12.9923122632
 20
9.6143177265
 30
0.0
 10
12.99003148
 20
9.6265066536
 30
0.0
 10
12.9875882568
 20
9.6381607523
 30
0.0
 10
12.9849871159
 20
9.6492588177
 30
0.0
 10
12.9822328271
 20
9.659780688
 30
0.0
 10
12.9793304945
 20
9.6697073159
 30
0.0
 10
12.9762854526
 20
9.679020798
 30
0.0
 10
12.9731032176
 20
9.6877044111
 30
0.0
 10
12.9697895642
 20
9.6957427018
 30
0.0
 10
12.9663503778
 20
9.7031215066
 30
0.0
 10
12.9627915362
 20
9.7098279698
 30
0.0
 10
12.9591189313
 20
9.715850621
 30
0.0
 10
12.9553381407
 20
9.7211793038
 30
0.0
 10
12.9514543083
 20
9.7258049159
 30
0.0
 10
12.9474716094
 20
9.7297192579
 30
0.0
 10
12.9433947128
 20
9.7329137388
 30
0.0
 10
12.939869447
 20
9.7349982691
 30
0.0
 10
12.9370253007
 20
9.7362720234
 30
0.0
 10
12.93490532
 20
9.7370289441
 30
0.0
 10
12.9327690441
 20
9.7376005188
 30
0.0
 10
12.930617566
 20
9.7379863174
 30
0.0
 10
12.9284521762
 20
9.7381859196
 30
0.0
 10
12.926274148
 20
9.7381992675
 30
0.0
 10
12.9240849637
 20
9.7380264317
 30
0.0
 10
12.9226322324
 20
9.7377893492
 30
0.0
 10
12.9219067357
 20
9.7376412618
 30
0.0
  0
SPLINE
  5
40B
100
AcDbEntity
  8
0
100
AcDbSpline
 62
7
  6
CONTINUOUS
 70
0
 71
3
 72
41
 73
37
 74
0
 42
0.0000001
 43
0.0000001
 44
0.0000000001
 40
0.0
 40
0.0
 40
0.0
 40
0.0
 40
0.095831117
 40
0.1428223828
 40
0.1891016657
 40
0.2345981013
 40
0.2792429722
 40
0.3229696121
 40
0.3657132006
 40
0.4074112622
 40
0.448003761
 40
0.4874332724
 40
0.5256453013
 40
0.5625885702
 40
0.5982152284
 40
0.6324812004
 40
0.665346694
 40
0.6967765908
 40
0.7267409665
 40
0.7552158729
 40
0.7821842525
 40
0.8076369368
 40
0.8315740791
 40
0.8540071168
 40
0.8749610733
 40
0.8944776011
 40
0.9126190189
 40
0.9294732547
 40
0.945159461
 40
0.9598339275
 40
0.9668559389
 40
0.9737029555
 40
0.9804063486
 40
0.986999737
 40
0.9935186587
 40
1.0
 40
1.0
 40
1.0
 40
1.0
 10
11.1464430643
 20
11.2037493441
 30
0.0
 10
11.1618102473
 20
11.2026836263
 30
0.0
 10
11.1846964013
 20
11.2008401253
 30
0.0
 10
11.2149470191
 20
11.1978594192
 30
0.0
 10
11.237117535
 20
11.1954019081
 30
0.0
 10
11.258881058
 20
11.1927120754
 30
0.0
 10
11.2802011926
 20
11.1897944309
 30
0.0
 10
11.3010422831
 20
11.1866538905
 30
0.0
 10
11.3213695125
 20
11.1832957093
 30
0.0
 10
11.3411489146
 20
11.1797255485
 30
0.0
 10
11.3603474556
 20
11.1759494166
 30
0.0
 10
11.378933074
 20
11.171973651
 30
0.0
 10
11.3968747502
 20
11.1678049347
 30
0.0
 10
11.4141425667
 20
11.1634502939
 30
0.0
 10
11.4307077443
 20
11.1589170501
 30
0.0
 10
11.4465426978
 20
11.1542128054
 30
0.0
 10
11.4616211089
 20
11.1493454768
 30
0.0
 10
11.4759179646
 20
11.1443232391
 30
0.0
 10
11.4894095943
 20
11.1391544882
 30
0.0
 10
11.5020737408
 20
11.1338478413
 30
0.0
 10
11.5138896243
 20
11.1284121228
 30
0.0
 10
11.524837964
 20
11.1228562729
 30
0.0
 10
11.5349010191
 20
11.1171892787
 30
0.0
 10
11.5440626671
 20
11.1114201465
 30
0.0
 10
11.5523083827
 20
11.1055577451
 30
0.0
 10
11.5596251721
 20
11.0996105723
 30
0.0
 10
11.5660013801
 20
11.093586745
 30
0.0
 10
11.5714265525
 20
11.0874933299
 30
0.0
 10
11.5758901414
 20
11.0813380589
 30
0.0
 10
11.578842536
 20
11.0760848995
 30
0.0
 10
11.5806829648
 20
11.0718786775
 30
0.0
 10
11.5817972315
 20
11.0687622013
 30
0.0
 10
11.5826647473
 20
11.0656395954
 30
0.0
 10
11.5832848708
 20
11.0625121187
 30
0.0
 10
11.5836571192
 20
11.0593816007
 30
0.0
 10
11.5837399562
 20
11.0572909794
 30
0.0
 10
11.5837399522
 20
11.0562491552
 30
0.0
  0
SPLINE
  5
40C
100
AcDbEntity
  8
0
100
AcDbSpline
 62
7
  6
CONTINUOUS
 70
0
 71
3
 72
22
 73
18
 74
0
 42
0.0000001
 43
0.0000001
 44
0.0000000001
 40
0.0
 40
0.0
 40
0.0
 40
0.0
 40
0.1512805785
 40
0.2250485617
 40
0.2973530092
 40
0.3680357228
 40
0.4369449678
 40
0.5039346493
 40
0.5688645598
 40
0.6316014428
 40
0.6920197255
 40
0.7500022272
 40
0.805441055
 40
0.8582387804
 40
0.908309932
 40
0.9555824947
 40
1.0
 40
1.0
 40
1.0
 40
1.0
 10
12.891883385
 20
9.4353450144
 30
0.0
 10
12.891883385
 20
9.4469920516
 30
0.0
 10
12.8916605998
 20
9.4643198181
 30
0.0
 10
12.8908864849
 20
9.4872003793
 30
0.0
 10
12.8900817614
 20
9.5038695095
 30
0.0
 10
12.8890500649
 20
9.520151317
 30
0.0
 10
12.8877938848
 20
9.5360069774
 30
0.0
 10
12.8863162772
 20
9.5513987098
 30
0.0
 10
12.8846208061
 20
9.5662898613
 30
0.0
 10
12.8827115657
 20
9.580644974
 30
0.0
 10
12.8805931874
 20
9.5944299067
 30
0.0
 10
12.8782707998
 20
9.6076119025
 30
0.0
 10
12.8757500128
 20
9.6201596776
 30
0.0
 10
12.8730369144
 20
9.6320434833
 30
0.0
 10
12.8701380441
 20
9.6432353315
 30
0.0
 10
12.8670604626
 20
9.6537086328
 30
0.0
 10
12.8648240655
 20
9.6604064688
 30
0.0
 10
12.8636717272
 20
9.6636261552
 30
0.0
  0
SPLINE
  5
40D
100
AcDbEntity
  8
0
100
AcDbSpline
 62
7
  6
CONTINUOUS
 70
0
 71
3
 72
15
 73
11
 74
0
 42
0.0000001
 43
0.0000001
 44
0.0000000001
 40
0.0
 40
0.0
 40
0.0
 40
0.0
 40
0.1405865
 40
0.2779141028
 40
0.4113511816
 40
0.5402880248
 40
0.6641457675
 40
0.7823793234
 40
0.8944836677
 40
1.0
 40
1.0
 40
1.0
 40
1.0
 10
12.8544973314
 20
9.4297584464
 30
0.0
 10
12.8544973314
 20
9.4375554302
 30
0.0
 10
12.8543526202
 20
9.4529691102
 30
0.0
 10
12.8536877758
 20
9.4757746145
 30
0.0
 10
12.8525808861
 20
9.4979162845
 30
0.0
 10
12.8510376816
 20
9.5192830712
 30
0.0
 10
12.8490661754
 20
9.5397678873
 30
0.0
 10
12.8466765464
 20
9.5592683415
 30
0.0
 10
12.8438811912
 20
9.5776866556
 30
0.0
 10
12.8416875563
 20
9.589557862
 30
0.0
 10
12.8405157577
 20
9.5952913197
 30
0.0
  0
SPLINE
  5
40E
100
AcDbEntity
  8
0
100
AcDbSpline
 62
7
  6
CONTINUOUS
 70
0
 71
3
 72
36
 73
32
 74
0
 42
0.0000001
 43
0.0000001
 44
0.0000000001
 40
0.0
 40
0.0
 40
0.0
 40
0.0
 40
0.091785895
 40
0.1813049905
 40
0.2681011153
 40
0.3103405694
 40
0.3517364447
 40
0.3922374638
 40
0.4317941436
 40
0.4703588511
 40
0.5078858236
 40
0.5443315453
 40
0.5796547861
 40
0.6138167429
 40
0.64678148
 40
0.6785159612
 40
0.7089904034
 40
0.7381787866
 40
0.7660590246
 40
0.792613651
 40
0.8178305071
 40
0.841703325
 40
0.8642329986
 40
0.8854287998
 40
0.9053099166
 40
0.9239078675
 40
0.941269026
 40
0.9574579937
 40
0.9725618369
 40
0.9866942927
 40
1.0
 40
1.0
 40
1.0
 40
1.0
 10
13.0536452486
 20
7.5497432185
 30
0.0
 10
13.0536452486
 20
7.5637827257
 30
0.0
 10
13.0533711585
 20
7.591515947
 30
0.0
 10
13.0521104805
 20
7.6325080124
 30
0.0
 10
13.0503464912
 20
7.6658946637
 30
0.0
 10
13.0485059576
 20
7.6918992292
 30
0.0
 10
13.0469325849
 20
7.7108222581
 30
0.0
 10
13.0451560237
 20
7.7293151013
 30
0.0
 10
13.0431787534
 20
7.7473520205
 30
0.0
 10
13.0410035813
 20
7.7649078904
 30
0.0
 10
13.0386335284
 20
7.7819582677
 30
0.0
 10
13.036071951
 20
7.7984794223
 30
0.0
 10
13.0333224579
 20
7.8144483712
 30
0.0
 10
13.030388879
 20
7.8298429082
 30
0.0
 10
13.0272753738
 20
7.84464165
 30
0.0
 10
13.0239863072
 20
7.8588240574
 30
0.0
 10
13.0205262701
 20
7.8723704679
 30
0.0
 10
13.0169001561
 20
7.8852621461
 30
0.0
 10
13.0131130106
 20
7.897481292
 30
0.0
 10
13.0091701046
 20
7.9090110871
 30
0.0
 10
13.005076948
 20
7.9198357426
 30
0.0
 10
13.0008391253
 20
7.9299404922
 30
0.0
 10
12.996462405
 20
7.9393116644
 30
0.0
 10
12.9919526474
 20
7.9479367052
 30
0.0
 10
12.9873156196
 20
7.9558041383
 30
0.0
 10
12.9825571033
 20
7.9629036321
 30
0.0
 10
12.9776825785
 20
7.969225907
 30
0.0
 10
12.9726972557
 20
7.9747624266
 30
0.0
 10
12.9676054953
 20
7.9795055346
 30
0.0
 10
12.9624129983
 20
7.9834467838
 30
0.0
 10
12.9587906177
 20
7.9855908056
 30
0.0
 10
12.9569747745
 20
7.9865099802
 30
0.0
  0
SPLINE
  5
40F
100
AcDbEntity
  8
0
100
AcDbSpline
 62
7
  6
CONTINUOUS
 70
0
 71
3
 72
49
 73
45
 74
0
 42
0.0000001
 43
0.0000001
 44
0.0000000001
 40
0.0
 40
0.0
 40
0.0
 40
0.0
 40
0.0401880976
 40
0.0808270924
 40
0.1218047438
 40
0.1630086358
 40
0.2043249437
 40
0.2456397127
 40
0.2868388961
 40
0.3278088848
 40
0.3684368642
 40
0.4086112289
 40
0.4482219831
 40
0.4871611501
 40
0.5253231863
 40
0.5626054046
 40
0.5989084106
 40
0.6341365573
 40
0.6681984259
 40
0.7010073426
 40
0.7324819464
 40
0.7625468319
 40
0.7911332954
 40
0.8181802325
 40
0.8311101307
 40
0.8436362697
 40
0.8557537673
 40
0.8674583656
 40
0.8787467438
 40
0.8896163897
 40
0.9000658819
 40
0.9100948738
 40
0.9197043272
 40
0.9288966488
 40
0.9376758813
 40
0.9460480212
 40
0.9540211986
 40
0.9616061873
 40
0.9688166249
 40
0.9756696952
 40
0.9821864254
 40
0.9883924437
 40
0.9943182929
 40
1.0
 40
1.0
 40
1.0
 40
1.0
 10
13.0536452486
 20
7.5497432185
 30
0.0
 10
13.0536452486
 20
7.5393666945
 30
0.0
 10
13.0534926517
 20
7.5184969339
 30
0.0
 10
13.0528173822
 20
7.4870533541
 30
0.0
 10
13.0516961782
 20
7.4553600287
 30
0.0
 10
13.0501323474
 20
7.4235104002
 30
0.0
 10
13.0481304573
 20
7.3915980906
 30
0.0
 10
13.0456964071
 20
7.3597170517
 30
0.0
 10
13.0428373579
 20
7.3279610841
 30
0.0
 10
13.0395617388
 20
7.2964236393
 30
0.0
 10
13.0358792094
 20
7.2651975147
 30
0.0
 10
13.0318006371
 20
7.2343745884
 30
0.0
 10
13.0273380636
 20
7.2040455433
 30
0.0
 10
13.0225046705
 20
7.1742995994
 30
0.0
 10
13.017314741
 20
7.1452242474
 30
0.0
 10
13.011783619
 20
7.1169049875
 30
0.0
 10
13.0059276643
 20
7.0894250733
 30
0.0
 10
12.9997642057
 20
7.0628652592
 30
0.0
 10
12.9933114907
 20
7.0373035567
 30
0.0
 10
12.9865886315
 20
7.0128149847
 30
0.0
 10
12.9796155468
 20
6.9894713658
 30
0.0
 10
12.9724129024
 20
6.9673409818
 30
0.0
 10
12.9650020326
 20
6.946488735
 30
0.0
 10
12.9585783684
 20
6.929988777
 30
0.0
 10
12.9533396707
 20
6.9174850476
 30
0.0
 10
12.9494312627
 20
6.9086051068
 30
0.0
 10
12.945487375
 20
6.9000882585
 30
0.0
 10
12.9415107921
 20
6.89194074
 30
0.0
 10
12.9375045112
 20
6.8841684822
 30
0.0
 10
12.9334714039
 20
6.8767771665
 30
0.0
 10
12.9294144603
 20
6.8697721538
 30
0.0
 10
12.9253366019
 20
6.863158535
 30
0.0
 10
12.9212407878
 20
6.8569410917
 30
0.0
 10
12.9171299696
 20
6.8511242996
 30
0.0
 10
12.9130070397
 20
6.8457123575
 30
0.0
 10
12.9088749442
 20
6.8407091114
 30
0.0
 10
12.9047364667
 20
6.8361181904
 30
0.0
 10
12.9005944901
 20
6.8319428239
 30
0.0
 10
12.8964516497
 20
6.8281861222
 30
0.0
 10
12.8923106899
 20
6.8248507718
 30
0.0
 10
12.8881741274
 20
6.8219394928
 30
0.0
 10
12.8840444384
 20
6.8194545722
 30
0.0
 10
12.8799245989
 20
6.8173986606
 30
0.0
 10
12.8771331468
 20
6.8162945704
 30
0.0
 10
12.8757448796
 20
6.8158204032
 30
0.0
  0
SPLINE
  5
410
100
AcDbEntity
  8
0
100
AcDbSpline
 62
7
  6
CONTINUOUS
 70
0
 71
3
 72
51
 73
47
 74
0
 42
0.0000001
 43
0.0000001
 44
0.0000000001
 40
0.0
 40
0.0
 40
0.0
 40
0.0
 40
0.0427960306
 40
0.0861070234
 40
0.1297881032
 40
0.1736941675
 40
0.2176783436
 40
0.2615937773
 40
0.305293777
 40
0.3486326089
 40
0.3914660654
 40
0.433652112
 40
0.4750515178
 40
0.5155285026
 40
0.5549513983
 40
0.5931933327
 40
0.6301329476
 40
0.6656551675
 40
0.6996520402
 40
0.7320236828
 40
0.7626793848
 40
0.7915389448
 40
0.8052740339
 40
0.8185356808
 40
0.8313177441
 40
0.8436149942
 40
0.8554235871
 40
0.8667408362
 40
0.8775657535
 40
0.8878989116
 40
0.8977430063
 40
0.907102913
 40
0.9159862546
 40
0.9244037454
 40
0.9323697865
 40
0.9399031545
 40
0.9470276561
 40
0.9537731099
 40
0.9601759823
 40
0.9662803199
 40
0.9721379292
 40
0.9778084115
 40
0.9833580191
 40
0.9888578602
 40
0.9943811235
 40
1.0
 40
1.0
 40
1.0
 40
1.0
 10
13.0057637648
 20
7.5034932539
 30
0.0
 10
13.0057637648
 20
7.4956516739
 30
0.0
 10
13.0056367815
 20
7.4798738921
 30
0.0
 10
13.0050758236
 20
7.4560983561
 30
0.0
 10
13.0041449666
 20
7.4321308395
 30
0.0
 10
13.0028475357
 20
7.4080568723
 30
0.0
 10
13.0011881186
 20
7.3839621027
 30
0.0
 10
12.9991726381
 20
7.3599323885
 30
0.0
 10
12.9968082768
 20
7.3360532994
 30
0.0
 10
12.9941034787
 20
7.312409884
 30
0.0
 10
12.9910679077
 20
7.2890863392
 30
0.0
 10
12.9877124181
 20
7.2661657156
 30
0.0
 10
12.9840490151
 20
7.2437296162
 30
0.0
 10
12.9800908137
 20
7.2218579021
 30
0.0
 10
12.9758519922
 20
7.2006284033
 30
0.0
 10
12.9713477439
 20
7.1801166336
 30
0.0
 10
12.9665942227
 20
7.1603955153
 30
0.0
 10
12.9616084876
 20
7.1415350971
 30
0.0
 10
12.9564084394
 20
7.1236023189
 30
0.0
 10
12.9510127595
 20
7.1066606408
 30
0.0
 10
12.9454408122
 20
7.0907701583
 30
0.0
 10
12.9405906496
 20
7.0782521523
 30
0.0
 10
12.9366262976
 20
7.0688158919
 30
0.0
 10
12.9336705114
 20
7.0621528223
 30
0.0
 10
12.9306857757
 20
7.0557924975
 30
0.0
 10
12.927674624
 20
7.0497405527
 30
0.0
 10
12.9246398249
 20
7.0440022977
 30
0.0
 10
12.9215839685
 20
7.0385828075
 30
0.0
 10
12.9185098306
 20
7.0334868018
 30
0.0
 10
12.9154200214
 20
7.0287187622
 30
0.0
 10
12.9123172834
 20
7.0242828075
 30
0.0
 10
12.9092042244
 20
7.0201828017
 30
0.0
 10
12.9060834939
 20
7.0164222673
 30
0.0
 10
12.9029576529
 20
7.0130044447
 30
0.0
 10
12.8998291854
 20
7.0099323055
 30
0.0
 10
12.8967005396
 20
7.0072085161
 30
0.0
 10
12.8935739776
 20
7.0048356302
 30
0.0
 10
12.8904518069
 20
7.0028159084
 30
0.0
 10
12.8873361567
 20
7.001151746
 30
0.0
 10
12.8842294029
 20
6.9998452746
 30
0.0
 10
12.8811340356
 20
6.998898931
 30
0.0
 10
12.8780531418
 20
6.9983146877
 30
0.0
 10
12.8749903641
 20
6.9980944592
 30
0.0
 10
12.8719497904
 20
6.998239083
 30
0.0
 10
12.8689363052
 20
6.9987484504
 30
0.0
 10
12.8669718805
 20
6.999323428
 30
0.0
 10
12.8660012093
 20
6.9996666205
 30
0.0
  0
SPLINE
  5
411
100
AcDbEntity
  8
0
100
AcDbSpline
 62
7
  6
CONTINUOUS
 70
0
 71
3
 72
29
 73
25
 74
0
 42
0.0000001
 43
0.0000001
 44
0.0000000001
 40
0.0
 40
0.0
 40
0.0
 40
0.0
 40
0.0701063144
 40
0.1412507717
 40
0.2129806505
 40
0.2848361254
 40
0.3563572583
 40
0.4270866844
 40
0.4965735195
 40
0.5643771194
 40
0.6300709502
 40
0.6932465836
 40
0.7237691774
 40
0.753519436
 40
0.7824532685
 40
0.8105286777
 40
0.837705705
 40
0.8639468181
 40
0.8892171151
 40
0.9134844013
 40
0.9367197742
 40
0.9588977796
 40
0.9799968314
 40
1.0
 40
1.0
 40
1.0
 40
1.0
 10
12.891883385
 20
7.5034932474
 30
0.0
 10
12.891883385
 20
7.4934012511
 30
0.0
 10
12.8916564592
 20
7.4730671843
 30
0.0
 10
12.8906612294
 20
7.4424220561
 30
0.0
 10
12.8890146355
 20
7.4115527542
 30
0.0
 10
12.8867278175
 20
7.3806699504
 30
0.0
 10
12.8838164022
 20
7.3499843785
 30
0.0
 10
12.8803003435
 20
7.3197053597
 30
0.0
 10
12.8762037807
 20
7.2900394258
 30
0.0
 10
12.8715548939
 20
7.2611887982
 30
0.0
 10
12.8663856534
 20
7.2333502839
 30
0.0
 10
12.8616211491
 20
7.2109023842
 30
0.0
 10
12.8575646285
 20
7.1936002759
 30
0.0
 10
12.8544500674
 20
7.181141637
 30
0.0
 10
12.8512338049
 20
7.1690730604
 30
0.0
 10
12.8479213592
 20
7.1574150977
 30
0.0
 10
12.8445183886
 20
7.1461876216
 30
0.0
 10
12.8410307308
 20
7.1354097464
 30
0.0
 10
12.8374643943
 20
7.1250998024
 30
0.0
 10
12.833825448
 20
7.1152753141
 30
0.0
 10
12.8301201619
 20
7.1059529521
 30
0.0
 10
12.8263548619
 20
7.0971484515
 30
0.0
 10
12.8225359991
 20
7.0888768359
 30
0.0
 10
12.8198874778
 20
7.0835844693
 30
0.0
 10
12.8185524753
 20
7.0810331262
 30
0.0
  0
SPLINE
  5
412
100
AcDbEntity
  8
0
100
AcDbSpline
 62
7
  6
CONTINUOUS
 70
0
 71
3
 72
23
 73
19
 74
0
 42
0.0000001
 43
0.0000001
 44
0.0000000001
 40
0.0
 40
0.0
 40
0.0
 40
0.0
 40
0.0663097626
 40
0.1335017735
 40
0.2012756888
 40
0.2693269963
 40
0.3373500718
 40
0.4050392689
 40
0.4720909092
 40
0.5382049507
 40
0.6030867769
 40
0.6664489748
 40
0.7280131609
 40
0.7875118637
 40
0.8446905027
 40
0.8993095149
 40
0.9511467122
 40
1.0
 40
1.0
 40
1.0
 40
1.0
 10
12.8544973314
 20
7.4979066794
 30
0.0
 10
12.8544973314
 20
7.4901513371
 30
0.0
 10
12.8543514895
 20
7.4745371213
 30
0.0
 10
12.8537091326
 20
7.4510042665
 30
0.0
 10
12.8526444385
 20
7.4272827889
 30
0.0
 10
12.8511624653
 20
7.4034863712
 30
0.0
 10
12.8492703102
 20
7.3797289834
 30
0.0
 10
12.8469770437
 20
7.3561244038
 30
0.0
 10
12.8442936856
 20
7.3327856774
 30
0.0
 10
12.8412331429
 20
7.3098245608
 30
0.0
 10
12.8378101541
 20
7.2873509838
 30
0.0
 10
12.8340412177
 20
7.2654725129
 30
0.0
 10
12.8299445172
 20
7.2442938287
 30
0.0
 10
12.8255398334
 20
7.2239161982
 30
0.0
 10
12.8208484634
 20
7.2044370137
 30
0.0
 10
12.8158930793
 20
7.1859491417
 30
0.0
 10
12.8106977594
 20
7.1685409797
 30
0.0
 10
12.8069761454
 20
7.1573653187
 30
0.0
 10
12.8050713766
 20
7.1519784641
 30
0.0
  0
SPLINE
  5
413
100
AcDbEntity
  8
0
100
AcDbSpline
 62
7
  6
CONTINUOUS
 70
0
 71
3
 72
41
 73
37
 74
0
 42
0.0000001
 43
0.0000001
 44
0.0000000001
 40
0.0
 40
0.0
 40
0.0
 40
0.0
 40
0.0993185995
 40
0.1957378905
 40
0.242659217
 40
0.2886161494
 40
0.3335333527
 40
0.3773378893
 40
0.4199595273
 40
0.4613310191
 40
0.5013885458
 40
0.5400718482
 40
0.5773245363
 40
0.6130947421
 40
0.6473353604
 40
0.6800045616
 40
0.71106675
 40
0.7404931552
 40
0.7682628528
 40
0.7943644297
 40
0.818797509
 40
0.8415750702
 40
0.8627268826
 40
0.8823034004
 40
0.9003811735
 40
0.9170699788
 40
0.9325206031
 40
0.9469328147
 40
0.9538317884
 40
0.9605709853
 40
0.9671901854
 40
0.9737315336
 40
0.9802388361
 40
0.9867566606
 40
0.9933293294
 40
1.0
 40
1.0
 40
1.0
 40
1.0
 10
13.0057637648
 20
7.5034932539
 30
0.0
 10
13.0057637648
 20
7.5145177938
 30
0.0
 10
13.005518209
 20
7.53624591
 30
0.0
 10
13.0045660688
 20
7.56316764
 30
0.0
 10
13.0034143851
 20
7.5841489544
 30
0.0
 10
13.0023711572
 20
7.599409369
 30
0.0
 10
13.0011426557
 20
7.6143088876
 30
0.0
 10
12.999731147
 20
7.6288203012
 30
0.0
 10
12.9981392524
 20
7.6429170682
 30
0.0
 10
12.9963698908
 20
7.6565734199
 30
0.0
 10
12.994426361
 20
7.6697644117
 30
0.0
 10
12.9923122632
 20
7.6824659595
 30
0.0
 10
12.99003148
 20
7.6946548865
 30
0.0
 10
12.9875882568
 20
7.7063089853
 30
0.0
 10
12.9849871159
 20
7.7174070507
 30
0.0
 10
12.9822328271
 20
7.7279289209
 30
0.0
 10
12.9793304945
 20
7.7378555489
 30
0.0
 10
12.9762854526
 20
7.747169031
 30
0.0
 10
12.9731032176
 20
7.7558526441
 30
0.0
 10
12.9697895642
 20
7.7638909347
 30
0.0
 10
12.9663503778
 20
7.7712697396
 30
0.0
 10
12.9627915362
 20
7.7779762027
 30
0.0
 10
12.9591189313
 20
7.783998854
 30
0.0
 10
12.9553381407
 20
7.7893275367
 30
0.0
 10
12.9514543083
 20
7.7939531489
 30
0.0
 10
12.9474716094
 20
7.7978674908
 30
0.0
 10
12.9433947128
 20
7.8010619717
 30
0.0
 10
12.939869447
 20
7.8031465021
 30
0.0
 10
12.9370253007
 20
7.8044202563
 30
0.0
 10
12.93490532
 20
7.8051771771
 30
0.0
 10
12.9327690441
 20
7.8057487518
 30
0.0
 10
12.930617566
 20
7.8061345504
 30
0.0
 10
12.9284521762
 20
7.8063341525
 30
0.0
 10
12.926274148
 20
7.8063475004
 30
0.0
 10
12.9240849637
 20
7.8061746647
 30
0.0
 10
12.9226322324
 20
7.8059375822
 30
0.0
 10
12.9219067357
 20
7.8057894947
 30
0.0
  0
SPLINE
  5
414
100
AcDbEntity
  8
0
100
AcDbSpline
 62
7
  6
CONTINUOUS
 70
0
 71
3
 72
22
 73
18
 74
0
 42
0.0000001
 43
0.0000001
 44
0.0000000001
 40
0.0
 40
0.0
 40
0.0
 40
0.0
 40
0.1512805785
 40
0.2250485617
 40
0.2973530092
 40
0.3680357228
 40
0.4369449678
 40
0.5039346493
 40
0.5688645598
 40
0.6316014428
 40
0.6920197255
 40
0.7500022272
 40
0.805441055
 40
0.8582387804
 40
0.908309932
 40
0.9555824947
 40
1.0
 40
1.0
 40
1.0
 40
1.0
 10
12.891883385
 20
7.5034932474
 30
0.0
 10
12.891883385
 20
7.5151402845
 30
0.0
 10
12.8916605998
 20
7.532468051
 30
0.0
 10
12.8908864849
 20
7.5553486122
 30
0.0
 10
12.8900817614
 20
7.5720177425
 30
0.0
 10
12.8890500649
 20
7.58829955
 30
0.0
 10
12.8877938848
 20
7.6041552104
 30
0.0
 10
12.8863162772
 20
7.6195469428
 30
0.0
 10
12.8846208061
 20
7.6344380943
 30
0.0
 10
12.8827115657
 20
7.6487932069
 30
0.0
 10
12.8805931874
 20
7.6625781397
 30
0.0
 10
12.8782707998
 20
7.6757601355
 30
0.0
 10
12.8757500128
 20
7.6883079105
 30
0.0
 10
12.8730369144
 20
7.7001917163
 30
0.0
 10
12.8701380441
 20
7.7113835644
 30
0.0
 10
12.8670604626
 20
7.7218568658
 30
0.0
 10
12.8648240655
 20
7.7285547017
 30
0.0
 10
12.8636717272
 20
7.7317743881
 30
0.0
  0
SPLINE
  5
415
100
AcDbEntity
  8
0
100
AcDbSpline
 62
7
  6
CONTINUOUS
 70
0
 71
3
 72
15
 73
11
 74
0
 42
0.0000001
 43
0.0000001
 44
0.0000000001
 40
0.0
 40
0.0
 40
0.0
 40
0.0
 40
0.1405865
 40
0.2779141028
 40
0.4113511816
 40
0.5402880248
 40
0.6641457675
 40
0.7823793234
 40
0.8944836677
 40
1.0
 40
1.0
 40
1.0
 40
1.0
 10
12.8544973314
 20
7.4979066794
 30
0.0
 10
12.8544973314
 20
7.5057036632
 30
0.0
 10
12.8543526202
 20
7.5211173431
 30
0.0
 10
12.8536877758
 20
7.5439228475
 30
0.0
 10
12.8525808861
 20
7.5660645175
 30
0.0
 10
12.8510376816
 20
7.5874313042
 30
0.0
 10
12.8490661754
 20
7.6079161202
 30
0.0
 10
12.8466765464
 20
7.6274165744
 30
0.0
 10
12.8438811912
 20
7.6458348885
 30
0.0
 10
12.8416875563
 20
7.657706095
 30
0.0
 10
12.8405157577
 20
7.6634395527
 30
0.0
  0
SPLINE
  5
416
100
AcDbEntity
  8
0
100
AcDbSpline
 62
7
  6
CONTINUOUS
 70
0
 71
3
 72
41
 73
37
 74
0
 42
0.0000001
 43
0.0000001
 44
0.0000000001
 40
0.0
 40
0.0
 40
0.0
 40
0.0
 40
0.0987511387
 40
0.1946803343
 40
0.2413844152
 40
0.2871419707
 40
0.3318772102
 40
0.3755167512
 40
0.4179899991
 40
0.4592293783
 40
0.4991707796
 40
0.537753775
 40
0.5749218749
 40
0.61062318
 40
0.6448107446
 40
0.6774430165
 40
0.7084847979
 40
0.7379080061
 40
0.7656926062
 40
0.7918282814
 40
0.8163161764
 40
0.8391711074
 40
0.8604249745
 40
0.8801308475
 40
0.8983681101
 40
0.9152492846
 40
0.9309274972
 40
0.9456034147
 40
0.9526473141
 40
0.9595395611
 40
0.9663191483
 40
0.9730272033
 40
0.9797063416
 40
0.9863997726
 40
0.9931504139
 40
1.0
 40
1.0
 40
1.0
 40
1.0
 10
11.0985615805
 20
11.1265897505
 30
0.0
 10
11.1096817145
 20
11.1258185666
 30
0.0
 10
11.1315872914
 20
11.1240406765
 30
0.0
 10
11.1586847558
 20
11.1211592096
 30
0.0
 10
11.1797816175
 20
11.118484127
 30
0.0
 10
11.1951170971
 20
11.1163226293
 30
0.0
 10
11.2100778389
 20
11.1139922082
 30
0.0
 10
11.2246360674
 20
11.1114972087
 30
0.0
 10
11.2387647145
 20
11.1088423163
 30
0.0
 10
11.2524375233
 20
11.1060324739
 30
0.0
 10
11.2656291062
 20
11.1030729599
 30
0.0
 10
11.2783149831
 20
11.099969328
 30
0.0
 10
11.2904716222
 20
11.0967273608
 30
0.0
 10
11.3020765106
 20
11.0933531422
 30
0.0
 10
11.3131081916
 20
11.0898530006
 30
0.0
 10
11.3235462949
 20
11.086233444
 30
0.0
 10
11.3333716148
 20
11.0825012323
 30
0.0
 10
11.342566149
 20
11.0786633173
 30
0.0
 10
11.3511131171
 20
11.0747267475
 30
0.0
 10
11.3589970477
 20
11.0706987206
 30
0.0
 10
11.3662038179
 20
11.0665864979
 30
0.0
 10
11.3727206335
 20
11.0623972299
 30
0.0
 10
11.3785360785
 20
11.058137944
 30
0.0
 10
11.3836400653
 20
11.0538153203
 30
0.0
 10
11.3880235136
 20
11.0494355385
 30
0.0
 10
11.3916780917
 20
11.0450037737
 30
0.0
 10
11.3945951968
 20
11.0405259155
 30
0.0
 10
11.3964286616
 20
11.0367067777
 30
0.0
 10
11.3974951456
 20
11.033655397
 30
0.0
 10
11.3980956883
 20
11.0313929351
 30
0.0
 10
11.3985071008
 20
11.0291270341
 30
0.0
 10
11.3987289834
 20
11.0268588617
 30
0.0
 10
11.3987611217
 20
11.0245897971
 30
0.0
 10
11.3986035439
 20
11.0223211426
 30
0.0
 10
11.3982563632
 20
11.0200544229
 30
0.0
 10
11.3979018943
 20
11.018558791
 30
0.0
 10
11.3976947234
 20
11.0178138953
 30
0.0
  0
SPLINE
  5
417
100
AcDbEntity
  8
0
100
AcDbSpline
 62
7
  6
CONTINUOUS
 70
0
 71
3
 72
23
 73
19
 74
0
 42
0.0000001
 43
0.0000001
 44
0.0000000001
 40
0.0
 40
0.0
 40
0.0
 40
0.0
 40
0.0769047607
 40
0.1526433554
 40
0.2270283376
 40
0.2998868809
 40
0.3710457823
 40
0.4403393484
 40
0.5076082134
 40
0.5727002058
 40
0.6354713241
 40
0.6957865611
 40
0.7535211017
 40
0.8085614745
 40
0.8608069615
 40
0.9101713943
 40
0.9565855121
 40
1.0
 40
1.0
 40
1.0
 40
1.0
 10
11.0909330478
 20
11.0129693062
 30
0.0
 10
11.0970705405
 20
11.0125436696
 30
0.0
 10
11.1092467323
 20
11.0116135351
 30
0.0
 10
11.1273344853
 20
11.0099678918
 30
0.0
 10
11.1450737428
 20
11.0080855827
 30
0.0
 10
11.1624179056
 20
11.0059716595
 30
0.0
 10
11.1793219696
 20
11.0036316038
 30
0.0
 10
11.1957417673
 20
11.0010715939
 30
0.0
 10
11.2116345257
 20
10.9982983669
 30
0.0
 10
11.2269588441
 20
10.9953192188
 30
0.0
 10
11.2416748202
 20
10.9921419916
 30
0.0
 10
11.2557441739
 20
10.9887750386
 30
0.0
 10
11.2691303582
 20
10.9852272315
 30
0.0
 10
11.2817986793
 20
10.9815079068
 30
0.0
 10
11.2937163438
 20
10.9776268529
 30
0.0
 10
11.3048527378
 20
10.9735941978
 30
0.0
 10
11.3151789678
 20
10.9694206038
 30
0.0
 10
11.3217261665
 20
10.9664514176
 30
0.0
 10
11.3248526394
 20
10.9649389943
 30
0.0
  0
SPLINE
  5
418
100
AcDbEntity
  8
0
100
AcDbSpline
 62
7
  6
CONTINUOUS
 70
0
 71
3
 72
19
 73
15
 74
0
 42
0.0000001
 43
0.0000001
 44
0.0000000001
 40
0.0
 40
0.0
 40
0.0
 40
0.0
 40
0.12732766
 40
0.2538196711
 40
0.3795264658
 40
0.5045235362
 40
0.5668075958
 40
0.6289556124
 40
0.6909843715
 40
0.7529118454
 40
0.8147570127
 40
0.8765397119
 40
0.9382804145
 40
1.0
 40
1.0
 40
1.0
 40
1.0
 10
11.6800734536
 20
10.2912337895
 30
0.0
 10
11.6800734536
 20
10.2977321694
 30
0.0
 10
11.6806939058
 20
10.3106952197
 30
0.0
 10
11.6834999774
 20
10.3298907285
 30
0.0
 10
11.6881524198
 20
10.3486030184
 30
0.0
 10
11.6935418957
 20
10.3636712698
 30
0.0
 10
11.6987250962
 20
10.3753032209
 30
0.0
 10
11.7030352876
 20
10.3837922899
 30
0.0
 10
11.7077622062
 20
10.3920353497
 30
0.0
 10
11.7128950935
 20
10.4000136603
 30
0.0
 10
11.7184221071
 20
10.4077086989
 30
0.0
 10
11.7243305098
 20
10.4151028427
 30
0.0
 10
11.7306064887
 20
10.4221787646
 30
0.0
 10
11.7350267244
 20
10.4266738289
 30
0.0
 10
11.7372923496
 20
10.428862254
 30
0.0
  0
SPLINE
  5
419
100
AcDbEntity
  8
0
100
AcDbSpline
 62
7
  6
CONTINUOUS
 70
0
 71
3
 72
51
 73
47
 74
0
 42
0.0000001
 43
0.0000001
 44
0.0000000001
 40
0.0
 40
0.0
 40
0.0
 40
0.0
 40
0.0428441027
 40
0.0861780751
 40
0.1298585219
 40
0.1737419869
 40
0.2176832896
 40
0.2615373713
 40
0.305159409
 40
0.3484056161
 40
0.3911338031
 40
0.4332040228
 40
0.4744791984
 40
0.5148257704
 40
0.5541143586
 40
0.5922204504
 40
0.6290251266
 40
0.6644158419
 40
0.6982872818
 40
0.7305423346
 40
0.7610932305
 40
0.7898629277
 40
0.8035597998
 40
0.8167882809
 40
0.8295427309
 40
0.8418184389
 40
0.8536121098
 40
0.8649216676
 40
0.8757467386
 40
0.8860886133
 40
0.8959506896
 40
0.9053386748
 40
0.9142609946
 40
0.9227292919
 40
0.9307588448
 40
0.9383693719
 40
0.9455855005
 40
0.9524377719
 40
0.9589630805
 40
0.9652054983
 40
0.9712162749
 40
0.9770537106
 40
0.9827819811
 40
0.9884693815
 40
0.9941858044
 40
1.0
 40
1.0
 40
1.0
 40
1.0
 10
11.0985615805
 20
11.1265897505
 30
0.0
 10
11.0907478259
 20
11.1271316362
 30
0.0
 10
11.0750216904
 20
11.1280917502
 30
0.0
 10
11.0513047651
 20
11.12915962
 30
0.0
 10
11.0273840404
 20
11.1298611144
 30
0.0
 10
11.0033443359
 20
11.1301937529
 30
0.0
 10
10.9792706151
 20
11.1301563317
 30
0.0
 10
10.9552481068
 20
11.1297489953
 30
0.0
 10
10.9313617986
 20
11.1289731911
 30
0.0
 10
10.9076962137
 20
11.1278316889
 30
0.0
 10
10.8843350812
 20
11.12632856
 30
0.0
 10
10.8613610465
 20
11.1244691685
 30
0.0
 10
10.8388553727
 20
11.122260151
 30
0.0
 10
10.8168976492
 20
11.1197093952
 30
0.0
 10
10.7955655053
 20
11.1168260126
 30
0.0
 10
10.7749343274
 20
11.1136203081
 30
0.0
 10
10.7550769849
 20
11.1101037441
 30
0.0
 10
10.7360635501
 20
11.1062889022
 30
0.0
 10
10.7179610649
 20
11.1021894346
 30
0.0
 10
10.7008331649
 20
11.0978200228
 30
0.0
 10
10.6847402134
 20
11.0931962811
 30
0.0
 10
10.6720385764
 20
11.0890803955
 30
0.0
 10
10.6624473988
 20
11.0856610801
 30
0.0
 10
10.6556654309
 20
11.0830854019
 30
0.0
 10
10.6491824663
 20
11.0804588275
 30
0.0
 10
10.6430042042
 20
11.0777835513
 30
0.0
 10
10.6371360368
 20
11.0750620231
 30
0.0
 10
10.6315831109
 20
11.0722965508
 30
0.0
 10
10.6263502443
 20
11.0694896124
 30
0.0
 10
10.6214419941
 20
11.0666435929
 30
0.0
 10
10.6168625954
 20
11.0637609614
 30
0.0
 10
10.6126159914
 20
11.0608441547
 30
0.0
 10
10.6087058414
 20
11.0578955801
 30
0.0
 10
10.6051354713
 20
11.0549176781
 30
0.0
 10
10.6019080103
 20
11.0519127339
 30
0.0
 10
10.5990262224
 20
11.048883124
 30
0.0
 10
10.5964928309
 20
11.0458309781
 30
0.0
 10
10.5943102066
 20
11.0427585841
 30
0.0
 10
10.5924808886
 20
11.0396680294
 30
0.0
 10
10.5910071074
 20
11.0365617176
 30
0.0
 10
10.5898913435
 20
11.0334421592
 30
0.0
 10
10.5891356322
 20
11.0303124412
 30
0.0
 10
10.5887418469
 20
11.0271761514
 30
0.0
 10
10.5887109716
 20
11.0240372644
 30
0.0
 10
10.5890430252
 20
11.0209005142
 30
0.0
 10
10.5895004486
 20
11.0188376395
 30
0.0
 10
10.5897852637
 20
11.0178135901
 30
0.0
  0
SPLINE
  5
41A
100
AcDbEntity
  8
0
100
AcDbSpline
 62
7
  6
CONTINUOUS
 70
0
 71
3
 72
18
 73
14
 74
0
 42
0.0000001
 43
0.0000001
 44
0.0000000001
 40
0.0
 40
0.0
 40
0.0
 40
0.0
 40
0.1424259799
 40
0.2812920069
 40
0.4158419657
 40
0.5453480654
 40
0.6691249107
 40
0.7286650105
 40
0.7865377913
 40
0.8426721168
 40
0.8970013949
 40
0.949463112
 40
1.0
 40
1.0
 40
1.0
 40
1.0
 10
11.0830324506
 20
10.9758524585
 30
0.0
 10
11.0915447576
 20
10.975262128
 30
0.0
 10
11.1083449269
 20
10.9739186792
 30
0.0
 10
11.1331304136
 20
10.971379631
 30
0.0
 10
11.157081594
 20
10.9683539331
 30
0.0
 10
11.1800550672
 20
10.9648599028
 30
0.0
 10
11.1985018433
 20
10.961534273
 30
0.0
 10
11.2126600223
 20
10.9586438448
 30
0.0
 10
11.2228129251
 20
10.9564008513
 30
0.0
 10
11.2326225932
 20
10.9540580182
 30
0.0
 10
11.242074399
 20
10.9516188989
 30
0.0
 10
11.2511541499
 20
10.9490871339
 30
0.0
 10
11.2570628133
 20
10.9473061786
 30
0.0
 10
11.2599514458
 20
10.9463992151
 30
0.0
  0
SPLINE
  5
41B
100
AcDbEntity
  8
0
100
AcDbSpline
 62
7
  6
CONTINUOUS
 70
0
 71
3
 72
30
 73
26
 74
0
 42
0.0000001
 43
0.0000001
 44
0.0000000001
 40
0.0
 40
0.0
 40
0.0
 40
0.0
 40
0.0707955727
 40
0.1425914081
 40
0.2149200691
 40
0.2873072897
 40
0.3592791782
 40
0.4303652382
 40
0.5001025076
 40
0.5680396185
 40
0.6337410107
 40
0.6656233596
 40
0.6967928267
 40
0.7272013724
 40
0.7568028565
 40
0.7855530516
 40
0.8134100402
 40
0.8403343119
 40
0.8662889036
 40
0.8912399097
 40
0.9151565654
 40
0.9380116451
 40
0.959782099
 40
0.9804493212
 40
1.0
 40
1.0
 40
1.0
 40
1.0
 10
11.0909330478
 20
11.0129693062
 30
0.0
 10
11.0807049636
 20
11.0136786262
 30
0.0
 10
11.0600869343
 20
11.0148672634
 30
0.0
 10
11.0289791258
 20
11.0159660358
 30
0.0
 10
10.9976241487
 20
11.0163892402
 30
0.0
 10
10.9662419132
 20
11.01613381
 30
0.0
 10
10.9350524634
 20
11.0152015779
 30
0.0
 10
10.9042744575
 20
11.0135991884
 30
0.0
 10
10.8741235605
 20
11.011338073
 30
0.0
 10
10.8448112065
 20
11.0084342862
 30
0.0
 10
10.8210216133
 20
11.0054674171
 30
0.0
 10
10.8025700421
 20
11.0027773687
 30
0.0
 10
10.7892054461
 20
11.0006333883
 30
0.0
 10
10.7761997758
 20
10.9983466426
 30
0.0
 10
10.763575807
 20
10.9959211643
 30
0.0
 10
10.7513556704
 20
10.9933612063
 30
0.0
 10
10.739560765
 20
10.9906713058
 30
0.0
 10
10.7282117351
 20
10.9878562252
 30
0.0
 10
10.717328436
 20
10.9849208951
 30
0.0
 10
10.7069298758
 20
10.9818705321
 30
0.0
 10
10.6970341908
 20
10.9787105091
 30
0.0
 10
10.6876586342
 20
10.9754463674
 30
0.0
 10
10.6788194218
 20
10.9720838672
 30
0.0
 10
10.670532037
 20
10.9686289501
 30
0.0
 10
10.6652364585
 20
10.9662001685
 30
0.0
 10
10.6626872858
 20
10.9649680159
 30
0.0
  0
SPLINE
  5
41C
100
AcDbEntity
  8
0
100
AcDbSpline
 62
7
  6
CONTINUOUS
 70
0
 71
3
 72
42
 73
38
 74
0
 42
0.0000001
 43
0.0000001
 44
0.0000000001
 40
0.0
 40
0.0
 40
0.0
 40
0.0
 40
0.0299419644
 40
0.0449235317
 40
0.0599142035
 40
0.0899287023
 40
0.1200139727
 40
0.1350926544
 40
0.1501966973
 40
0.1804840373
 40
0.210897868
 40
0.2414513286
 40
0.2721543342
 40
0.3030133956
 40
0.3340315238
 40
0.3652082165
 40
0.3965395222
 40
0.4280181758
 40
0.459633799
 40
0.4913731572
 40
0.5232204671
 40
0.5551577446
 40
0.5871651885
 40
0.6192215901
 40
0.6513047644
 40
0.683391994
 40
0.715460481
 40
0.7474877999
 40
0.7794523452
 40
0.8113337678
 40
0.8431133918
 40
0.8747746145
 40
0.906303246
 40
0.9376878974
 40
0.9533257627
 40
0.9689252947
 40
1.0
 40
1.0
 40
1.0
 40
1.0
 10
12.0304752804
 20
10.1253367317
 30
0.0
 10
12.0269748607
 20
10.1219555872
 30
0.0
 10
12.021517906
 20
10.1170887416
 30
0.0
 10
12.0138755922
 20
10.1110499956
 30
0.0
 10
12.0059898417
 20
10.1053118276
 30
0.0
 10
11.9957002906
 20
10.0987224664
 30
0.0
 10
11.98491041
 20
10.0929587382
 30
0.0
 10
11.9760115944
 20
10.0888583226
 30
0.0
 10
11.9669288976
 20
10.0850965194
 30
0.0
 10
11.9552762526
 20
10.081051412
 30
0.0
 10
11.9409161081
 20
10.0772814985
 30
0.0
 10
11.926242623
 20
10.0746107778
 30
0.0
 10
11.9113371089
 20
10.0730540002
 30
0.0
 10
11.896281447
 20
10.0726194696
 30
0.0
 10
11.8811584779
 20
10.0733093987
 30
0.0
 10
11.8660513211
 20
10.0751198019
 30
0.0
 10
11.8510429841
 20
10.078040554
 30
0.0
 10
11.836215895
 20
10.0820554453
 30
0.0
 10
11.8216514602
 20
10.0871422777
 30
0.0
 10
11.8074296225
 20
10.0932729897
 30
0.0
 10
11.7936284289
 20
10.100413813
 30
0.0
 10
11.7803236085
 20
10.1085254584
 30
0.0
 10
11.7675881619
 20
10.1175633313
 30
0.0
 10
11.7554919664
 20
10.1274777756
 30
0.0
 10
11.7441013964
 20
10.1382143441
 30
0.0
 10
11.7334789641
 20
10.1497140949
 30
0.0
 10
11.7236829793
 20
10.1619139119
 30
0.0
 10
11.7147672329
 20
10.1747468484
 30
0.0
 10
11.7067807043
 20
10.1881424863
 30
0.0
 10
11.6997672935
 20
10.2020273339
 30
0.0
 10
11.6937655856
 20
10.2163251663
 30
0.0
 10
11.6888086208
 20
10.2309576516
 30
0.0
 10
11.6849237912
 20
10.2458439856
 30
0.0
 10
11.6825947434
 20
10.258409662
 30
0.0
 10
11.681288221
 20
10.2685060405
 30
0.0
 10
11.6803557874
 20
10.2785927553
 30
0.0
 10
11.6800734536
 20
10.2861829435
 30
0.0
 10
11.6800734536
 20
10.2912337895
 30
0.0
  0
SPLINE
  5
41D
100
AcDbEntity
  8
0
100
AcDbSpline
 62
7
  6
CONTINUOUS
 70
0
 71
3
 72
42
 73
38
 74
0
 42
0.0000001
 43
0.0000001
 44
0.0000000001
 40
0.0
 40
0.0
 40
0.0
 40
0.0
 40
0.0299419644
 40
0.0449235317
 40
0.0599142035
 40
0.0899287023
 40
0.1200139727
 40
0.1350926544
 40
0.1501966973
 40
0.1804840373
 40
0.210897868
 40
0.2414513286
 40
0.2721543342
 40
0.3030133956
 40
0.3340315238
 40
0.3652082165
 40
0.3965395222
 40
0.4280181758
 40
0.459633799
 40
0.4913731572
 40
0.5232204671
 40
0.5551577446
 40
0.5871651885
 40
0.6192215901
 40
0.6513047644
 40
0.683391994
 40
0.715460481
 40
0.7474877999
 40
0.7794523452
 40
0.8113337678
 40
0.8431133918
 40
0.8747746145
 40
0.906303246
 40
0.9376878974
 40
0.9533257627
 40
0.9689252947
 40
1.0
 40
1.0
 40
1.0
 40
1.0
 10
12.0304752804
 20
5.7786702559
 30
0.0
 10
12.0269748607
 20
5.7752891114
 30
0.0
 10
12.021517906
 20
5.7704222657
 30
0.0
 10
12.0138755922
 20
5.7643835197
 30
0.0
 10
12.0059898417
 20
5.7586453518
 30
0.0
 10
11.9957002906
 20
5.7520559905
 30
0.0
 10
11.98491041
 20
5.7462922624
 30
0.0
 10
11.9760115944
 20
5.7421918467
 30
0.0
 10
11.9669288976
 20
5.7384300436
 30
0.0
 10
11.9552762526
 20
5.7343849361
 30
0.0
 10
11.9409161081
 20
5.7306150227
 30
0.0
 10
11.926242623
 20
5.727944302
 30
0.0
 10
11.9113371089
 20
5.7263875244
 30
0.0
 10
11.896281447
 20
5.7259529937
 30
0.0
 10
11.8811584779
 20
5.7266429228
 30
0.0
 10
11.8660513211
 20
5.728453326
 30
0.0
 10
11.8510429841
 20
5.7313740782
 30
0.0
 10
11.836215895
 20
5.7353889695
 30
0.0
 10
11.8216514602
 20
5.7404758018
 30
0.0
 10
11.8074296225
 20
5.7466065139
 30
0.0
 10
11.7936284289
 20
5.7537473371
 30
0.0
 10
11.7803236085
 20
5.7618589825
 30
0.0
 10
11.7675881619
 20
5.7708968554
 30
0.0
 10
11.7554919664
 20
5.7808112998
 30
0.0
 10
11.7441013964
 20
5.7915478682
 30
0.0
 10
11.7334789641
 20
5.8030476191
 30
0.0
 10
11.7236829793
 20
5.8152474361
 30
0.0
 10
11.7147672329
 20
5.8280803725
 30
0.0
 10
11.7067807043
 20
5.8414760104
 30
0.0
 10
11.6997672935
 20
5.855360858
 30
0.0
 10
11.6937655856
 20
5.8696586905
 30
0.0
 10
11.6888086208
 20
5.8842911758
 30
0.0
 10
11.6849237912
 20
5.8991775098
 30
0.0
 10
11.6825947434
 20
5.9117431862
 30
0.0
 10
11.681288221
 20
5.9218395647
 30
0.0
 10
11.6803557874
 20
5.9319262795
 30
0.0
 10
11.6800734536
 20
5.9395164676
 30
0.0
 10
11.6800734536
 20
5.9445673136
 30
0.0
  0
SPLINE
  5
41E
100
AcDbEntity
  8
0
100
AcDbSpline
 62
7
  6
CONTINUOUS
 70
0
 71
3
 72
25
 73
21
 74
0
 42
0.0000001
 43
0.0000001
 44
0.0000000001
 40
0.0
 40
0.0
 40
0.0
 40
0.0
 40
0.0671269299
 40
0.1351194366
 40
0.2036556282
 40
0.2724088371
 40
0.341051835
 40
0.4092577892
 40
0.4767026455
 40
0.5430670384
 40
0.6080383676
 40
0.6713128689
 40
0.7325977558
 40
0.7916134508
 40
0.8480959649
 40
0.9017995084
 40
0.9275388978
 40
0.9525012985
 40
0.9766624123
 40
1.0
 40
1.0
 40
1.0
 40
1.0
 10
11.0830324506
 20
10.9758524585
 30
0.0
 10
11.0750298503
 20
10.9764074407
 30
0.0
 10
11.0589099608
 20
10.9773646332
 30
0.0
 10
11.0345909605
 20
10.9783431695
 30
0.0
 10
11.0100635477
 20
10.9788708982
 30
0.0
 10
10.985452875
 20
10.9789450722
 30
0.0
 10
10.9608844754
 20
10.978565323
 30
0.0
 10
10.9364836381
 20
10.9777336025
 30
0.0
 10
10.912374803
 20
10.976454205
 30
0.0
 10
10.8886808985
 20
10.9747337321
 30
0.0
 10
10.8655227143
 20
10.9725810668
 30
0.0
 10
10.8430182646
 20
10.9700073308
 30
0.0
 10
10.821282197
 20
10.9670258251
 30
0.0
 10
10.8004250953
 20
10.9636519904
 30
0.0
 10
10.7805532065
 20
10.9599032446
 30
0.0
 10
10.7646813508
 20
10.9564359198
 30
0.0
 10
10.7525599255
 20
10.9534777317
 30
0.0
 10
10.7439055356
 20
10.951209216
 30
0.0
 10
10.7355698861
 20
10.9488623075
 30
0.0
 10
10.7301364477
 20
10.94721847
 30
0.0
 10
10.7274757411
 20
10.9463826616
 30
0.0
  0
SPLINE
  5
41F
100
AcDbEntity
  8
0
100
AcDbSpline
 62
7
  6
CONTINUOUS
 70
0
 71
3
 72
19
 73
15
 74
0
 42
0.0000001
 43
0.0000001
 44
0.0000000001
 40
0.0
 40
0.0
 40
0.0
 40
0.0
 40
0.12732766
 40
0.2538196711
 40
0.3795264658
 40
0.5045235362
 40
0.5668075958
 40
0.6289556124
 40
0.6909843715
 40
0.7529118454
 40
0.8147570127
 40
0.8765397119
 40
0.9382804145
 40
1.0
 40
1.0
 40
1.0
 40
1.0
 10
11.6800734536
 20
5.9445673136
 30
0.0
 10
11.6800734536
 20
5.9510656936
 30
0.0
 10
11.6806939058
 20
5.9640287439
 30
0.0
 10
11.6834999774
 20
5.9832242526
 30
0.0
 10
11.6881524198
 20
6.0019365426
 30
0.0
 10
11.6935418957
 20
6.017004794
 30
0.0
 10
11.6987250962
 20
6.0286367451
 30
0.0
 10
11.7030352876
 20
6.0371258141
 30
0.0
 10
11.7077622062
 20
6.0453688738
 30
0.0
 10
11.7128950935
 20
6.0533471845
 30
0.0
 10
11.7184221071
 20
6.061042223
 30
0.0
 10
11.7243305098
 20
6.0684363668
 30
0.0
 10
11.7306064887
 20
6.0755122888
 30
0.0
 10
11.7350267244
 20
6.0800073531
 30
0.0
 10
11.7372923496
 20
6.0821957782
 30
0.0
  0
SPLINE
  5
420
100
AcDbEntity
  8
0
100
AcDbSpline
 62
7
  6
CONTINUOUS
 70
0
 71
3
 72
52
 73
48
 74
0
 42
0.0000001
 43
0.0000001
 44
0.0000000001
 40
0.0
 40
0.0
 40
0.0
 40
0.0
 40
0.0055575385
 40
0.0111779654
 40
0.0169219129
 40
0.0228458065
 40
0.0290006049
 40
0.0354310191
 40
0.0421754984
 40
0.0492663608
 40
0.0567304501
 40
0.0645895722
 40
0.0728612975
 40
0.0815593507
 40
0.0906943324
 40
0.1002739614
 40
0.1103036706
 40
0.120786711
 40
0.131724639
 40
0.1431173184
 40
0.1549633281
 40
0.1672598946
 40
0.1800032447
 40
0.1931884924
 40
0.2068099532
 40
0.2208610037
 40
0.2353343665
 40
0.2502219557
 40
0.2812037941
 40
0.3137309028
 40
0.3477182693
 40
0.383073415
 40
0.4196972551
 40
0.4574848508
 40
0.4963260881
 40
0.5361063043
 40
0.5767068783
 40
0.6180057966
 40
0.6598782005
 40
0.7021969227
 40
0.7448330149
 40
0.7876562701
 40
0.8305357432
 40
0.8733402649
 40
0.9159389686
 40
0.9582017827
 40
1.0
 40
1.0
 40
1.0
 40
1.0
 10
10.4037399553
 20
11.056249759
 30
0.0
 10
10.4037399608
 20
11.0577093031
 30
0.0
 10
10.4039034379
 20
11.060647444
 30
0.0
 10
10.404636841
 20
11.0650389852
 30
0.0
 10
10.4058574234
 20
11.0694207095
 30
0.0
 10
10.4075626355
 20
11.0737875853
 30
0.0
 10
10.4097498315
 20
11.0781360065
 30
0.0
 10
10.4124159205
 20
11.0824627205
 30
0.0
 10
10.4155580036
 20
11.0867646667
 30
0.0
 10
10.419172878
 20
11.0910390446
 30
0.0
 10
10.4232574177
 20
11.0952828743
 30
0.0
 10
10.4278081067
 20
11.0994933101
 30
0.0
 10
10.4328213242
 20
11.1036672393
 30
0.0
 10
10.4382929908
 20
11.1078016802
 30
0.0
 10
10.4442188071
 20
11.1118934033
 30
0.0
 10
10.4505940008
 20
11.1159393415
 30
0.0
 10
10.4574135234
 20
11.1199362207
 30
0.0
 10
10.4646718696
 20
11.123880955
 30
0.0
 10
10.4723632338
 20
11.1277702878
 30
0.0
 10
10.4804813802
 20
11.131601165
 30
0.0
 10
10.4890197643
 20
11.13537039
 30
0.0
 10
10.4979714388
 20
11.1390749752
 30
0.0
 10
10.5073291478
 20
11.1427118124
 30
0.0
 10
10.5170852587
 20
11.1462780037
 30
0.0
 10
10.5272318347
 20
11.1497705507
 30
0.0
 10
10.5377605835
 20
11.1531866547
 30
0.0
 10
10.5486629306
 20
11.156523472
 30
0.0
 10
10.5638884186
 20
11.1609217053
 30
0.0
 10
10.5837958918
 20
11.1661865973
 30
0.0
 10
10.6087194294
 20
11.1720658288
 30
0.0
 10
10.634903527
 20
11.1775678751
 30
0.0
 10
10.6622625246
 20
11.1826745497
 30
0.0
 10
10.6907070906
 20
11.1873689347
 30
0.0
 10
10.7201441922
 20
11.1916354976
 30
0.0
 10
10.7504775151
 20
11.1954601242
 30
0.0
 10
10.7816077639
 20
11.198830169
 30
0.0
 10
10.8134330038
 20
11.2017344938
 30
0.0
 10
10.845849
 20
11.2041635031
 30
0.0
 10
10.8787495651
 20
11.2061091741
 30
0.0
 10
10.9120269113
 20
11.2075650819
 30
0.0
 10
10.945572007
 20
11.2085264199
 30
0.0
 10
10.9792749367
 20
11.2089900146
 30
0.0
 10
11.0130252663
 20
11.2089543357
 30
0.0
 10
11.0467123968
 20
11.2084195015
 30
0.0
 10
11.0802259721
 20
11.2073872753
 30
0.0
 10
11.1134560733
 20
11.2058610715
 30
0.0
 10
11.1354921432
 20
11.2045087931
 30
0.0
 10
11.1464430643
 20
11.2037493441
 30
0.0
  0
SPLINE
  5
421
100
AcDbEntity
  8
0
100
AcDbSpline
 62
7
  6
CONTINUOUS
 70
0
 71
3
 72
51
 73
47
 74
0
 42
0.0000001
 43
0.0000001
 44
0.0000000001
 40
0.0
 40
0.0
 40
0.0
 40
0.0
 40
0.0417744683
 40
0.0840379783
 40
0.1266600061
 40
0.1695085183
 40
0.2124506398
 40
0.2553531056
 40
0.2980828147
 40
0.340507344
 40
0.3824954781
 40
0.4239177372
 40
0.4646469112
 40
0.5045585996
 40
0.5435317641
 40
0.5814492947
 40
0.618198601
 40
0.6536722357
 40
0.687768567
 40
0.7203925213
 40
0.7514564269
 40
0.7663786334
 40
0.7808818693
 40
0.7949577079
 40
0.8085984786
 40
0.8217971992
 40
0.8345477656
 40
0.8468449089
 40
0.8586844038
 40
0.8700630626
 40
0.8809789739
 40
0.8914315506
 40
0.9014218177
 40
0.9109525401
 40
0.9200285868
 40
0.9286571749
 40
0.9368483468
 40
0.9446153723
 40
0.951975373
 40
0.9589498998
 40
0.9655656818
 40
0.9778458874
 40
0.9836071498
 40
0.9891799107
 40
0.9946230128
 40
1.0
 40
1.0
 40
1.0
 40
1.0
 10
13.0845548776
 20
9.4794513955
 30
0.0
 10
13.0845548776
 20
9.4684444561
 30
0.0
 10
13.0843831566
 20
9.4463013763
 30
0.0
 10
13.0836240169
 20
9.4129358606
 30
0.0
 10
13.0823640242
 20
9.3793022556
 30
0.0
 10
13.0806073184
 20
9.3455119285
 30
0.0
 10
13.078359698
 20
9.3116766491
 30
0.0
 10
13.0756285959
 20
9.2779083629
 30
0.0
 10
13.0724230576
 20
9.2443187868
 30
0.0
 10
13.06875371
 20
9.2110190436
 30
0.0
 10
13.064632727
 20
9.1781192905
 30
0.0
 10
13.0600737897
 20
9.145728352
 30
0.0
 10
13.0550920414
 20
9.1139533562
 30
0.0
 10
13.0497040391
 20
9.0828993766
 30
0.0
 10
13.0439276994
 20
9.0526690782
 30
0.0
 10
13.0377822403
 20
9.0233623734
 30
0.0
 10
13.03128812
 20
8.9950760748
 30
0.0
 10
13.0244669664
 20
8.9679035894
 30
0.0
 10
13.0173415178
 20
8.9419344994
 30
0.0
 10
13.0099355047
 20
8.9172545735
 30
0.0
 10
13.003467042
 20
8.8975749018
 30
0.0
 10
12.9981588807
 20
8.8825462407
 30
0.0
 10
12.9941764483
 20
8.871797883
 30
0.0
 10
12.9901426184
 20
8.8614301699
 30
0.0
 10
12.9860607419
 20
8.8514516307
 30
0.0
 10
12.9819341655
 20
8.8418704955
 30
0.0
 10
12.9777663434
 20
8.8326946377
 30
0.0
 10
12.9735606791
 20
8.823931608
 30
0.0
 10
12.9693206838
 20
8.8155885842
 30
0.0
 10
12.9650498073
 20
8.8076724105
 30
0.0
 10
12.9607515941
 20
8.8001895391
 30
0.0
 10
12.9564295159
 20
8.7931460796
 30
0.0
 10
12.9520871203
 20
8.7865477327
 30
0.0
 10
12.9477278643
 20
8.7803998515
 30
0.0
 10
12.9433552549
 20
8.7747073692
 30
0.0
 10
12.9389726742
 20
8.7694748727
 30
0.0
 10
12.9345835445
 20
8.7647065497
 30
0.0
 10
12.9301910216
 20
8.7604062193
 30
0.0
 10
12.9257986289
 20
8.7565775334
 30
0.0
 10
12.9214083164
 20
8.7532232205
 30
0.0
 10
12.9157065277
 20
8.7494818177
 30
0.0
 10
12.9098606725
 20
8.7465558283
 30
0.0
 10
12.9039394151
 20
8.7446150165
 30
0.0
 10
12.8996101515
 20
8.7436789669
 30
0.0
 10
12.8953051606
 20
8.7432345885
 30
0.0
 10
12.8924469638
 20
8.7432671703
 30
0.0
 10
12.8910336032
 20
8.7433651789
 30
0.0
  0
SPLINE
  5
422
100
AcDbEntity
  8
0
100
AcDbSpline
 62
7
  6
CONTINUOUS
 70
0
 71
3
 72
41
 73
37
 74
0
 42
0.0000001
 43
0.0000001
 44
0.0000000001
 40
0.0
 40
0.0
 40
0.0
 40
0.0
 40
0.0063160079
 40
0.012670914
 40
0.0191028693
 40
0.0256485311
 40
0.0323425104
 40
0.0392169797
 40
0.0536150169
 40
0.0611958751
 40
0.0690577399
 40
0.0856909608
 40
0.1036391145
 40
0.1229890565
 40
0.143801821
 40
0.1661176928
 40
0.1899604125
 40
0.2153403247
 40
0.2422566544
 40
0.2706994287
 40
0.3006509523
 40
0.3320868137
 40
0.3649767025
 40
0.3992852168
 40
0.4349723983
 40
0.4719940776
 40
0.5103023547
 40
0.5498459695
 40
0.5905705077
 40
0.6324186414
 40
0.6753304665
 40
0.7192436716
 40
0.7640936164
 40
0.8098138291
 40
0.9035871702
 40
1.0
 40
1.0
 40
1.0
 40
1.0
 10
12.9726699309
 20
9.920537838
 30
0.0
 10
12.9736671437
 20
9.920468687
 30
0.0
 10
12.9756629978
 20
9.920248334
 30
0.0
 10
12.9786344243
 20
9.9196740159
 30
0.0
 10
12.9815859794
 20
9.918855827
 30
0.0
 10
12.9845159438
 20
9.9177944767
 30
0.0
 10
12.9874231901
 20
9.9164906073
 30
0.0
 10
12.9913268042
 20
9.9143980626
 30
0.0
 10
12.9951244346
 20
9.9118365486
 30
0.0
 10
12.9987995994
 20
9.9088680436
 30
0.0
 10
13.0025716912
 20
9.905467082
 30
0.0
 10
13.0072078189
 20
9.9005911525
 30
0.0
 10
13.0125396437
 20
9.8939148355
 30
0.0
 10
13.0177351831
 20
9.8863171134
 30
0.0
 10
13.0227872154
 20
9.8778101943
 30
0.0
 10
13.027688726
 20
9.8684070216
 30
0.0
 10
13.0324322748
 20
9.8581222817
 30
0.0
 10
13.0370104165
 20
9.846972175
 30
0.0
 10
13.041415818
 20
9.8349745079
 30
0.0
 10
13.0456413137
 20
9.8221485973
 30
0.0
 10
13.0496799406
 20
9.8085152127
 30
0.0
 10
13.0535250136
 20
9.7940965438
 30
0.0
 10
13.0571701727
 20
9.7789161519
 30
0.0
 10
13.0606093533
 20
9.7629988938
 30
0.0
 10
13.0638368112
 20
9.7463708774
 30
0.0
 10
13.0668471856
 20
9.7290594261
 30
0.0
 10
13.0696354668
 20
9.7110930142
 30
0.0
 10
13.072196995
 20
9.6925012071
 30
0.0
 10
13.0745274979
 20
9.6733146224
 30
0.0
 10
13.0766231072
 20
9.6535648772
 30
0.0
 10
13.0784803283
 20
9.6332845185
 30
0.0
 10
13.0800960402
 20
9.6125069902
 30
0.0
 10
13.081467601
 20
9.591266518
 30
0.0
 10
13.0829803442
 20
9.5621298467
 30
0.0
 10
13.0842316002
 20
9.5248112666
 30
0.0
 10
13.0845548776
 20
9.4947102412
 30
0.0
 10
13.0845548776
 20
9.4794513955
 30
0.0
  0
SPLINE
  5
423
100
AcDbEntity
  8
0
100
AcDbSpline
 62
7
  6
CONTINUOUS
 70
0
 71
3
 72
41
 73
37
 74
0
 42
0.0000001
 43
0.0000001
 44
0.0000000001
 40
0.0
 40
0.0
 40
0.0
 40
0.0
 40
0.0063160079
 40
0.012670914
 40
0.0191028693
 40
0.0256485311
 40
0.0323425104
 40
0.0392169797
 40
0.0536150169
 40
0.0611958751
 40
0.0690577399
 40
0.0856909608
 40
0.1036391145
 40
0.1229890565
 40
0.143801821
 40
0.1661176928
 40
0.1899604125
 40
0.2153403247
 40
0.2422566544
 40
0.2706994287
 40
0.3006509523
 40
0.3320868137
 40
0.3649767025
 40
0.3992852168
 40
0.4349723983
 40
0.4719940776
 40
0.5103023547
 40
0.5498459695
 40
0.5905705077
 40
0.6324186414
 40
0.6753304665
 40
0.7192436716
 40
0.7640936164
 40
0.8098138291
 40
0.9035871702
 40
1.0
 40
1.0
 40
1.0
 40
1.0
 10
12.9726699309
 20
7.988686071
 30
0.0
 10
12.9736671437
 20
7.98861692
 30
0.0
 10
12.9756629978
 20
7.9883965669
 30
0.0
 10
12.9786344243
 20
7.9878222489
 30
0.0
 10
12.9815859794
 20
7.9870040599
 30
0.0
 10
12.9845159438
 20
7.9859427096
 30
0.0
 10
12.9874231901
 20
7.9846388403
 30
0.0
 10
12.9913268042
 20
7.9825462955
 30
0.0
 10
12.9951244346
 20
7.9799847815
 30
0.0
 10
12.9987995994
 20
7.9770162766
 30
0.0
 10
13.0025716912
 20
7.973615315
 30
0.0
 10
13.0072078189
 20
7.9687393855
 30
0.0
 10
13.0125396437
 20
7.9620630685
 30
0.0
 10
13.0177351831
 20
7.9544653463
 30
0.0
 10
13.0227872154
 20
7.9459584273
 30
0.0
 10
13.027688726
 20
7.9365552546
 30
0.0
 10
13.0324322748
 20
7.9262705147
 30
0.0
 10
13.0370104165
 20
7.9151204079
 30
0.0
 10
13.041415818
 20
7.9031227409
 30
0.0
 10
13.0456413137
 20
7.8902968303
 30
0.0
 10
13.0496799406
 20
7.8766634457
 30
0.0
 10
13.0535250136
 20
7.8622447767
 30
0.0
 10
13.0571701727
 20
7.8470643848
 30
0.0
 10
13.0606093533
 20
7.8311471267
 30
0.0
 10
13.0638368112
 20
7.8145191103
 30
0.0
 10
13.0668471856
 20
7.797207659
 30
0.0
 10
13.0696354668
 20
7.7792412472
 30
0.0
 10
13.072196995
 20
7.76064944
 30
0.0
 10
13.0745274979
 20
7.7414628554
 30
0.0
 10
13.0766231072
 20
7.7217131102
 30
0.0
 10
13.0784803283
 20
7.7014327514
 30
0.0
 10
13.0800960402
 20
7.6806552232
 30
0.0
 10
13.081467601
 20
7.659414751
 30
0.0
 10
13.0829803442
 20
7.6302780797
 30
0.0
 10
13.0842316002
 20
7.5929594995
 30
0.0
 10
13.0845548776
 20
7.5628584742
 30
0.0
 10
13.0845548776
 20
7.5475996284
 30
0.0
  0
SPLINE
  5
424
100
AcDbEntity
  8
0
100
AcDbSpline
 62
4
  6
CONTINUOUS
 70
0
 71
3
 72
397
 73
393
 74
0
 42
0.0000001
 43
0.0000001
 44
0.0000000001
 40
0.0
 40
0.0
 40
0.0
 40
0.0
 40
0.015625
 40
0.0234375
 40
0.03125
 40
0.0390625
 40
0.04296875
 40
0.046875
 40
0.05078125
 40
0.0546875
 40
0.056640625
 40
0.05859375
 40
0.0595703125
 40
0.060546875
 40
0.0615234375
 40
0.0620117188
 40
0.0622558594
 40
0.0625
 40
0.0627441406
 40
0.0629882812
 40
0.0634765625
 40
0.064453125
 40
0.0654296875
 40
0.06640625
 40
0.068359375
 40
0.0703125
 40
0.07421875
 40
0.078125
 40
0.08203125
 40
0.0859375
 40
0.09375
 40
0.1015625
 40
0.10546875
 40
0.109375
 40
0.11328125
 40
0.1171875
 40
0.119140625
 40
0.12109375
 40
0.1220703125
 40
0.123046875
 40
0.1240234375
 40
0.1245117188
 40
0.1247558594
 40
0.125
 40
0.1252441406
 40
0.1254882812
 40
0.1259765625
 40
0.126953125
 40
0.1279296875
 40
0.12890625
 40
0.130859375
 40
0.1328125
 40
0.13671875
 40
0.140625
 40
0.14453125
 40
0.1484375
 40
0.15625
 40
0.1640625
 40
0.16796875
 40
0.171875
 40
0.17578125
 40
0.1796875
 40
0.181640625
 40
0.18359375
 40
0.1845703125
 40
0.185546875
 40
0.1865234375
 40
0.1870117188
 40
0.1872558594
 40
0.1875
 40
0.1877441406
 40
0.1879882812
 40
0.1884765625
 40
0.189453125
 40
0.1904296875
 40
0.19140625
 40
0.193359375
 40
0.1953125
 40
0.19921875
 40
0.203125
 40
0.20703125
 40
0.2109375
 40
0.21875
 40
0.2265625
 40
0.23046875
 40
0.234375
 40
0.23828125
 40
0.2421875
 40
0.244140625
 40
0.24609375
 40
0.2470703125
 40
0.248046875
 40
0.2490234375
 40
0.2495117188
 40
0.2497558594
 40
0.25
 40
0.2502441406
 40
0.2504882812
 40
0.2509765625
 40
0.251953125
 40
0.2529296875
 40
0.25390625
 40
0.255859375
 40
0.2578125
 40
0.26171875
 40
0.265625
 40
0.26953125
 40
0.2734375
 40
0.28125
 40
0.2890625
 40
0.29296875
 40
0.296875
 40
0.30078125
 40
0.3046875
 40
0.306640625
 40
0.30859375
 40
0.3095703125
 40
0.310546875
 40
0.3115234375
 40
0.3120117188
 40
0.3122558594
 40
0.3125
 40
0.3127441406
 40
0.3129882812
 40
0.3134765625
 40
0.314453125
 40
0.3154296875
 40
0.31640625
 40
0.318359375
 40
0.3203125
 40
0.32421875
 40
0.328125
 40
0.33203125
 40
0.3359375
 40
0.34375
 40
0.3515625
 40
0.35546875
 40
0.359375
 40
0.36328125
 40
0.3671875
 40
0.369140625
 40
0.37109375
 40
0.3720703125
 40
0.373046875
 40
0.3740234375
 40
0.3745117188
 40
0.3747558594
 40
0.375
 40
0.3752441406
 40
0.3754882812
 40
0.3759765625
 40
0.376953125
 40
0.3779296875
 40
0.37890625
 40
0.380859375
 40
0.3828125
 40
0.38671875
 40
0.390625
 40
0.39453125
 40
0.3984375
 40
0.40625
 40
0.4140625
 40
0.41796875
 40
0.421875
 40
0.42578125
 40
0.4296875
 40
0.431640625
 40
0.43359375
 40
0.4345703125
 40
0.435546875
 40
0.4365234375
 40
0.4370117188
 40
0.4372558594
 40
0.4375
 40
0.4377441406
 40
0.4379882812
 40
0.4384765625
 40
0.439453125
 40
0.4404296875
 40
0.44140625
 40
0.443359375
 40
0.4453125
 40
0.44921875
 40
0.453125
 40
0.45703125
 40
0.4609375
 40
0.46875
 40
0.4765625
 40
0.48046875
 40
0.484375
 40
0.48828125
 40
0.4921875
 40
0.494140625
 40
0.49609375
 40
0.4970703125
 40
0.498046875
 40
0.4990234375
 40
0.4995117188
 40
0.4997558594
 40
0.5
 40
0.5002441406
 40
0.5004882812
 40
0.5009765625
 40
0.501953125
 40
0.5029296875
 40
0.50390625
 40
0.505859375
 40
0.5078125
 40
0.51171875
 40
0.515625
 40
0.51953125
 40
0.5234375
 40
0.53125
 40
0.5390625
 40
0.54296875
 40
0.546875
 40
0.55078125
 40
0.5546875
 40
0.556640625
 40
0.55859375
 40
0.5595703125
 40
0.560546875
 40
0.5615234375
 40
0.5620117188
 40
0.5622558594
 40
0.5625
 40
0.5627441406
 40
0.5629882812
 40
0.5634765625
 40
0.564453125
 40
0.5654296875
 40
0.56640625
 40
0.568359375
 40
0.5703125
 40
0.57421875
 40
0.578125
 40
0.58203125
 40
0.5859375
 40
0.59375
 40
0.6015625
 40
0.60546875
 40
0.609375
 40
0.61328125
 40
0.6171875
 40
0.619140625
 40
0.62109375
 40
0.6220703125
 40
0.623046875
 40
0.6240234375
 40
0.6245117188
 40
0.625
 40
0.6254882812
 40
0.6259765625
 40
0.626953125
 40
0.6279296875
 40
0.62890625
 40
0.630859375
 40
0.6328125
 40
0.63671875
 40
0.640625
 40
0.64453125
 40
0.6484375
 40
0.65625
 40
0.6640625
 40
0.66796875
 40
0.671875
 40
0.67578125
 40
0.6796875
 40
0.681640625
 40
0.68359375
 40
0.6845703125
 40
0.685546875
 40
0.6865234375
 40
0.6870117188
 40
0.6872558594
 40
0.6875
 40
0.6877441406
 40
0.6879882812
 40
0.6884765625
 40
0.689453125
 40
0.6904296875
 40
0.69140625
 40
0.693359375
 40
0.6953125
 40
0.69921875
 40
0.703125
 40
0.70703125
 40
0.7109375
 40
0.71875
 40
0.7265625
 40
0.73046875
 40
0.734375
 40
0.73828125
 40
0.7421875
 40
0.744140625
 40
0.74609375
 40
0.7470703125
 40
0.748046875
 40
0.7490234375
 40
0.7495117188
 40
0.7497558594
 40
0.75
 40
0.7502441406
 40
0.7504882812
 40
0.7509765625
 40
0.751953125
 40
0.7529296875
 40
0.75390625
 40
0.755859375
 40
0.7578125
 40
0.76171875
 40
0.765625
 40
0.76953125
 40
0.7734375
 40
0.78125
 40
0.7890625
 40
0.79296875
 40
0.796875
 40
0.80078125
 40
0.8046875
 40
0.806640625
 40
0.80859375
 40
0.8095703125
 40
0.810546875
 40
0.8115234375
 40
0.8120117188
 40
0.8125
 40
0.8129882812
 40
0.8134765625
 40
0.814453125
 40
0.8154296875
 40
0.81640625
 40
0.818359375
 40
0.8203125
 40
0.82421875
 40
0.828125
 40
0.83203125
 40
0.8359375
 40
0.84375
 40
0.8515625
 40
0.85546875
 40
0.859375
 40
0.86328125
 40
0.8671875
 40
0.869140625
 40
0.87109375
 40
0.8720703125
 40
0.873046875
 40
0.8740234375
 40
0.8745117188
 40
0.875
 40
0.8754882812
 40
0.8759765625
 40
0.876953125
 40
0.8779296875
 40
0.87890625
 40
0.880859375
 40
0.8828125
 40
0.88671875
 40
0.890625
 40
0.89453125
 40
0.8984375
 40
0.90625
 40
0.9140625
 40
0.91796875
 40
0.921875
 40
0.92578125
 40
0.9296875
 40
0.931640625
 40
0.93359375
 40
0.9345703125
 40
0.935546875
 40
0.9365234375
 40
0.9370117188
 40
0.9372558594
 40
0.9375
 40
0.9377441406
 40
0.9379882812
 40
0.9384765625
 40
0.939453125
 40
0.9404296875
 40
0.94140625
 40
0.943359375
 40
0.9453125
 40
0.94921875
 40
0.953125
 40
0.95703125
 40
0.9609375
 40
0.96875
 40
0.9765625
 40
0.984375
 40
1.0
 40
1.0
 40
1.0
 40
1.0
 10
9.3483283708
 20
7.4543205658
 30
0.0
 10
9.3525059533
 20
7.454440465
 30
0.0
 10
9.3587723272
 20
7.4546203139
 30
0.0
 10
9.3671274923
 20
7.4548601123
 30
0.0
 10
9.3733938661
 20
7.4550399612
 30
0.0
 10
9.3786158443
 20
7.455189835
 30
0.0
 10
9.3827934268
 20
7.4553097346
 30
0.0
 10
9.385926614
 20
7.4553996577
 30
0.0
 10
9.3890597999
 20
7.4554895871
 30
0.0
 10
9.3916707921
 20
7.4555645086
 30
0.0
 10
9.3937595772
 20
7.4556244898
 30
0.0
 10
9.3950650874
 20
7.4556618779
 30
0.0
 10
9.3961094508
 20
7.4556920177
 30
0.0
 10
9.396892846
 20
7.4557139948
 30
0.0
 10
9.3975452852
 20
7.4557343062
 30
0.0
 10
9.3980027583
 20
7.4557446046
 30
0.0
 10
9.398262976
 20
7.4557566095
 30
0.0
 10
9.3984615068
 20
7.4557483729
 30
0.0
 10
9.3986471655
 20
7.4558060375
 30
0.0
 10
9.3988992004
 20
7.4558599365
 30
0.0
 10
9.3993381695
 20
7.4559649699
 30
0.0
 10
9.3999663619
 20
7.4561094182
 30
0.0
 10
9.4007197246
 20
7.456285153
 30
0.0
 10
9.4017243718
 20
7.4565186288
 30
0.0
 10
9.4029801248
 20
7.4568107603
 30
0.0
 10
9.4049893608
 20
7.4572780104
 30
0.0
 10
9.4075008951
 20
7.457862128
 30
0.0
 10
9.4105147409
 20
7.4585630456
 30
0.0
 10
9.4135285854
 20
7.4592639694
 30
0.0
 10
9.4175470452
 20
7.4601985324
 30
0.0
 10
9.4225701198
 20
7.4613667369
 30
0.0
 10
9.4275931946
 20
7.4625349409
 30
0.0
 10
9.4316116542
 20
7.4634695047
 30
0.0
 10
9.4346254995
 20
7.464170426
 30
0.0
 10
9.4376393424
 20
7.4648713533
 30
0.0
 10
9.4401508857
 20
7.4654554406
 30
0.0
 10
9.4421601034
 20
7.4659227525
 30
0.0
 10
9.4434159029
 20
7.4662147267
 30
0.0
 10
9.4444204546
 20
7.4664485253
 30
0.0
 10
9.445174109
 20
7.4666232739
 30
0.0
 10
9.4458013889
 20
7.4667708077
 30
0.0
 10
9.4462419869
 20
7.4668703331
 30
0.0
 10
9.4464914119
 20
7.4669330573
 30
0.0
 10
9.4466850873
 20
7.4669636136
 30
0.0
 10
9.4468535088
 20
7.4670571914
 30
0.0
 10
9.4470868797
 20
7.4671599792
 30
0.0
 10
9.4474911746
 20
7.4673501001
 30
0.0
 10
9.4480708845
 20
7.4676163465
 30
0.0
 10
9.4487656179
 20
7.4679381343
 30
0.0
 10
9.4496922499
 20
7.4683663841
 30
0.0
 10
9.45085043
 20
7.4689019704
 30
0.0
 10
9.4527035797
 20
7.4697587554
 30
0.0
 10
9.4550199956
 20
7.4708297892
 30
0.0
 10
9.4577997038
 20
7.4721150072
 30
0.0
 10
9.4605794096
 20
7.4734002312
 30
0.0
 10
9.4642856848
 20
7.4751138611
 30
0.0
 10
9.4689185284
 20
7.4772558993
 30
0.0
 10
9.4735513724
 20
7.479397937
 30
0.0
 10
9.4772576472
 20
7.4811115678
 30
0.0
 10
9.4800373541
 20
7.4823967893
 30
0.0
 10
9.4828170579
 20
7.4836820167
 30
0.0
 10
9.4851334874
 20
7.4847530212
 30
0.0
 10
9.4869866094
 20
7.4856098659
 30
0.0
 10
9.4881448599
 20
7.4861453001
 30
0.0
 10
9.4890713476
 20
7.4865738622
 30
0.0
 10
9.4897665218
 20
7.4868946957
 30
0.0
 10
9.4903448525
 20
7.4871639278
 30
0.0
 10
9.4907516094
 20
7.4873487188
 30
0.0
 10
9.4909810356
 20
7.4874600464
 30
0.0
 10
9.491161574
 20
7.4875273929
 30
0.0
 10
9.4913097406
 20
7.4876564696
 30
0.0
 10
9.4915185878
 20
7.4878070397
 30
0.0
 10
9.4918788094
 20
7.4880805697
 30
0.0
 10
9.4923961622
 20
7.4884660817
 30
0.0
 10
9.4930158082
 20
7.4889309412
 30
0.0
 10
9.4938424141
 20
7.4895499697
 30
0.0
 10
9.4948755307
 20
7.4903240238
 30
0.0
 10
9.4965285959
 20
7.4915623603
 30
0.0
 10
9.4985949004
 20
7.4931103325
 30
0.0
 10
9.5010744774
 20
7.494967877
 30
0.0
 10
9.5035540513
 20
7.4968254274
 30
0.0
 10
9.5068601509
 20
7.4993021592
 30
0.0
 10
9.510992775
 20
7.5023980748
 30
0.0
 10
9.5151253994
 20
7.5054939898
 30
0.0
 10
9.5184314985
 20
7.5079707224
 30
0.0
 10
9.5209110741
 20
7.5098282706
 30
0.0
 10
9.5233906447
 20
7.5116858233
 30
0.0
 10
9.525456969
 20
7.5132337699
 30
0.0
 10
9.5271099939
 20
7.5144721586
 30
0.0
 10
9.5281432132
 20
7.51524608
 30
0.0
 10
9.5289696081
 20
7.515865381
 30
0.0
 10
9.5295898988
 20
7.516329408
 30
0.0
 10
9.5301052345
 20
7.5167175245
 30
0.0
 10
9.530469057
 20
7.5169864052
 30
0.0
 10
9.5306721346
 20
7.5171444245
 30
0.0
 10
9.5308380236
 20
7.5172506196
 30
0.0
 10
9.5309519996
 20
7.5174039056
 30
0.0
 10
9.5311220755
 20
7.5175918611
 30
0.0
 10
9.5314112714
 20
7.5179284364
 30
0.0
 10
9.5318288193
 20
7.5184052571
 30
0.0
 10
9.5323279887
 20
7.5189791545
 30
0.0
 10
9.5329942075
 20
7.5197437529
 30
0.0
 10
9.5338267551
 20
7.5206997058
 30
0.0
 10
9.5351589575
 20
7.5222291158
 30
0.0
 10
9.5368241672
 20
7.5241409177
 30
0.0
 10
9.5388224373
 20
7.526435063
 30
0.0
 10
9.5408207026
 20
7.5287292129
 30
0.0
 10
9.5434850579
 20
7.5317880778
 30
0.0
 10
9.5468155015
 20
7.5356116596
 30
0.0
 10
9.5501459455
 20
7.539435241
 30
0.0
 10
9.5528103002
 20
7.5424941065
 30
0.0
 10
9.5548085675
 20
7.5447882546
 30
0.0
 10
9.5568068296
 20
7.5470824066
 30
0.0
 10
9.5584720645
 20
7.5489941878
 30
0.0
 10
9.5598042156
 20
7.5505236399
 30
0.0
 10
9.5606368937
 20
7.5514794857
 30
0.0
 10
9.5613028446
 20
7.5522443039
 30
0.0
 10
9.5618028324
 20
7.5528175299
 30
0.0
 10
9.5622178199
 20
7.5532964513
 30
0.0
 10
9.5625115865
 20
7.5536292764
 30
0.0
 10
9.5626743389
 20
7.5538232406
 30
0.0
 10
9.56281081
 20
7.5539580701
 30
0.0
 10
9.5628922112
 20
7.5541335848
 30
0.0
 10
9.5630199551
 20
7.5543534129
 30
0.0
 10
9.5632345571
 20
7.5547447243
 30
0.0
 10
9.5635458105
 20
7.5553002836
 30
0.0
 10
9.5639173118
 20
7.5559684344
 30
0.0
 10
9.5644133463
 20
7.5568587854
 30
0.0
 10
9.56503315
 20
7.5579719011
 30
0.0
 10
9.5660249698
 20
7.5597527873
 30
0.0
 10
9.5672646985
 20
7.5619789289
 30
0.0
 10
9.5687523927
 20
7.5646502844
 30
0.0
 10
9.5702400816
 20
7.5673216437
 30
0.0
 10
9.5722236687
 20
7.5708834548
 30
0.0
 10
9.5747031518
 20
7.5753357191
 30
0.0
 10
9.5771826354
 20
7.5797879832
 30
0.0
 10
9.5791662217
 20
7.5833497948
 30
0.0
 10
9.580653913
 20
7.5860211527
 30
0.0
 10
9.5821415984
 20
7.5886925134
 30
0.0
 10
9.5833813544
 20
7.5909186385
 30
0.0
 10
9.5843731185
 20
7.5926995585
 30
0.0
 10
9.5849930639
 20
7.5938125883
 30
0.0
 10
9.5854888074
 20
7.5947031155
 30
0.0
 10
9.5858611979
 20
7.5953707279
 30
0.0
 10
9.5861696691
 20
7.5959279719
 30
0.0
 10
9.5863892378
 20
7.5963162757
 30
0.0
 10
9.5865090239
 20
7.5965409227
 30
0.0
 10
9.5866148691
 20
7.5967016355
 30
0.0
 10
9.5866595325
 20
7.5968920587
 30
0.0
 10
9.5867404246
 20
7.597135593
 30
0.0
 10
9.5868720428
 20
7.5975666064
 30
0.0
 10
9.587065267
 20
7.5981798156
 30
0.0
 10
9.5872949111
 20
7.598916747
 30
0.0
 10
9.5876018803
 20
7.599898945
 30
0.0
 10
9.5879853257
 20
7.6011268216
 30
0.0
 10
9.5885989871
 20
7.6030913519
 30
0.0
 10
9.5893660128
 20
7.6055470396
 30
0.0
 10
9.5902864656
 20
7.6084938543
 30
0.0
 10
9.5912069125
 20
7.6114406718
 30
0.0
 10
9.5924341771
 20
7.6153697607
 30
0.0
 10
9.593968257
 20
7.6202811223
 30
0.0
 10
9.5955023375
 20
7.6251924837
 30
0.0
 10
9.5967296013
 20
7.629121573
 30
0.0
 10
9.5976500507
 20
7.6320683895
 30
0.0
 10
9.5985704939
 20
7.6350152081
 30
0.0
 10
9.5993375493
 20
7.6374708833
 30
0.0
 10
9.5999511503
 20
7.6394354392
 30
0.0
 10
9.6003347495
 20
7.6406632507
 30
0.0
 10
9.600641403
 20
7.6416455823
 30
0.0
 10
9.6008720118
 20
7.6423821054
 30
0.0
 10
9.6010622174
 20
7.6429965922
 30
0.0
 10
9.6011992244
 20
7.6434253248
 30
0.0
 10
9.6012714822
 20
7.6436725137
 30
0.0
 10
9.6013426676
 20
7.6438517113
 30
0.0
 10
9.6013489005
 20
7.6440545855
 30
0.0
 10
9.6013798671
 20
7.6443168258
 30
0.0
 10
9.6014235029
 20
7.6447795942
 30
0.0
 10
9.6014913584
 20
7.6454386802
 30
0.0
 10
9.6015704228
 20
7.6462304445
 30
0.0
 10
9.601676667
 20
7.6472858294
 30
0.0
 10
9.6018091899
 20
7.6486051636
 30
0.0
 10
9.6020213843
 20
7.6507160407
 30
0.0
 10
9.6022865731
 20
7.6533546568
 30
0.0
 10
9.602604823
 20
7.6565209877
 30
0.0
 10
9.6029230666
 20
7.6596873208
 30
0.0
 10
9.6033473936
 20
7.6639090975
 30
0.0
 10
9.6038778015
 20
7.6691863187
 30
0.0
 10
9.60440821
 20
7.6744635398
 30
0.0
 10
9.6048325361
 20
7.6786853167
 30
0.0
 10
9.6051507824
 20
7.6818516494
 30
0.0
 10
9.6054690223
 20
7.6850179819
 30
0.0
 10
9.6057342422
 20
7.6876565928
 30
0.0
 10
9.6059463732
 20
7.6897674806
 30
0.0
 10
9.6060790575
 20
7.6910867875
 30
0.0
 10
9.6061849703
 20
7.6921422285
 30
0.0
 10
9.6062650475
 20
7.6929338214
 30
0.0
 10
9.606329734
 20
7.6935934435
 30
0.0
 10
9.6063790269
 20
7.6940552549
 30
0.0
 10
9.6064009294
 20
7.6943190285
 30
0.0
 10
9.6064350045
 20
7.6945171929
 30
0.0
 10
9.606401619
 20
7.6947140801
 30
0.0
 10
9.6063806359
 20
7.6949770419
 30
0.0
 10
9.6063329521
 20
7.6954370174
 30
0.0
 10
9.6062705642
 20
7.6960942338
 30
0.0
 10
9.6061932452
 20
7.6968828471
 30
0.0
 10
9.6060910102
 20
7.6979343476
 30
0.0
 10
9.6059629231
 20
7.6992487178
 30
0.0
 10
9.6057581476
 20
7.7013517132
 30
0.0
 10
9.6055021221
 20
7.7039804563
 30
0.0
 10
9.6051949155
 20
7.7071349485
 30
0.0
 10
9.6048877025
 20
7.7102894406
 30
0.0
 10
9.6044780874
 20
7.7144954301
 30
0.0
 10
9.6039660677
 20
7.719752917
 30
0.0
 10
9.6034540485
 20
7.7250104039
 30
0.0
 10
9.6030444325
 20
7.7292163933
 30
0.0
 10
9.6027372222
 20
7.7323708856
 30
0.0
 10
9.6024300056
 20
7.7355253771
 30
0.0
 10
9.6021740111
 20
7.7381541225
 30
0.0
 10
9.6019691722
 20
7.7402571132
 30
0.0
 10
9.6018412466
 20
7.7415714951
 30
0.0
 10
9.60173868
 20
7.7426229716
 30
0.0
 10
9.6016623743
 20
7.7434116586
 30
0.0
 10
9.6015968161
 20
7.7440686443
 30
0.0
 10
9.6015547918
 20
7.7445290317
 30
0.0
 10
9.6015247407
 20
7.7447913335
 30
0.0
 10
9.6015192092
 20
7.7449902479
 30
0.0
 10
9.6014486692
 20
7.7451807986
 30
0.0
 10
9.6013772915
 20
7.7454377835
 30
0.0
 10
9.6012418155
 20
7.7458861479
 30
0.0
 10
9.6010538018
 20
7.7465273791
 30
0.0
 10
9.6008258212
 20
7.7472965523
 30
0.0
 10
9.6005226728
 20
7.7483222229
 30
0.0
 10
9.6001434546
 20
7.7496042747
 30
0.0
 10
9.5995368635
 20
7.751655578
 30
0.0
 10
9.5987785704
 20
7.7542197001
 30
0.0
 10
9.5978686419
 20
7.7572966496
 30
0.0
 10
9.5969587072
 20
7.7603735984
 30
0.0
 10
9.5957454631
 20
7.764476197
 30
0.0
 10
9.5942289074
 20
7.7696044451
 30
0.0
 10
9.5927123513
 20
7.7747326931
 30
0.0
 10
9.5914991079
 20
7.778835292
 30
0.0
 10
9.590589171
 20
7.7819122397
 30
0.0
 10
9.5896792507
 20
7.7849891931
 30
0.0
 10
9.5889209322
 20
7.7875533033
 30
0.0
 10
9.5883143928
 20
7.7896046309
 30
0.0
 10
9.587935043
 20
7.7908866207
 30
0.0
 10
9.5876321647
 20
7.7919124187
 30
0.0
 10
9.587403359
 20
7.7926812026
 30
0.0
 10
9.5872179271
 20
7.793323652
 30
0.0
 10
9.5870578301
 20
7.793833583
 30
0.0
 10
9.586969868
 20
7.7942270394
 30
0.0
 10
9.5867593389
 20
7.7945784773
 30
0.0
 10
9.5865214476
 20
7.7950617388
 30
0.0
 10
9.5862093942
 20
7.7956607799
 30
0.0
 10
9.5858412177
 20
7.7963817846
 30
0.0
 10
9.5853481195
 20
7.7973423714
 30
0.0
 10
9.5847324986
 20
7.7985433628
 30
0.0
 10
9.5837470851
 20
7.8004648048
 30
0.0
 10
9.5825154624
 20
7.8028666567
 30
0.0
 10
9.5810374533
 20
7.8057488579
 30
0.0
 10
9.5795594607
 20
7.8086310648
 30
0.0
 10
9.5775887982
 20
7.8124740052
 30
0.0
 10
9.5751254719
 20
7.8172776815
 30
0.0
 10
9.5726621452
 20
7.8220813576
 30
0.0
 10
9.5706914835
 20
7.8259242983
 30
0.0
 10
9.5692134886
 20
7.8288065045
 30
0.0
 10
9.5677354881
 20
7.831688708
 30
0.0
 10
9.5665038387
 20
7.8340905527
 30
0.0
 10
9.5655184795
 20
7.8360120096
 30
0.0
 10
9.5649027204
 20
7.8372129631
 30
0.0
 10
9.5644099061
 20
7.8381736275
 30
0.0
 10
9.5640408621
 20
7.838894395
 30
0.0
 10
9.5637315226
 20
7.8394941785
 30
0.0
 10
9.5635185229
 20
7.839915707
 30
0.0
 10
9.5633912846
 20
7.8401539572
 30
0.0
 10
9.5633114177
 20
7.8403400344
 30
0.0
 10
9.5631720656
 20
7.8404978651
 30
0.0
 10
9.5630070119
 20
7.8407181588
 30
0.0
 10
9.5627085005
 20
7.8410990823
 30
0.0
 10
9.5622871099
 20
7.8416456586
 30
0.0
 10
9.5617792779
 20
7.8423005228
 30
0.0
 10
9.561102924
 20
7.843174034
 30
0.0
 10
9.560257223
 20
7.8442658002
 30
0.0
 10
9.558904246
 20
7.8460126947
 30
0.0
 10
9.5572129752
 20
7.8481962892
 30
0.0
 10
9.5551834714
 20
7.8508166128
 30
0.0
 10
9.553153962
 20
7.8534369336
 30
0.0
 10
9.5504479514
 20
7.8569306957
 30
0.0
 10
9.5470654374
 20
7.861297898
 30
0.0
 10
9.5436829238
 20
7.8656651005
 30
0.0
 10
9.5409769125
 20
7.8691588621
 30
0.0
 10
9.5389474052
 20
7.8717791845
 30
0.0
 10
9.5369178936
 20
7.8743995022
 30
0.0
 10
9.535226647
 20
7.8765831149
 30
0.0
 10
9.5338736206
 20
7.8783299724
 30
0.0
 10
9.5330280452
 20
7.8794218327
 30
0.0
 10
9.5323514336
 20
7.8802951507
 30
0.0
 10
9.5318443892
 20
7.8809506051
 30
0.0
 10
9.5314205341
 20
7.8814953352
 30
0.0
 10
9.5311264223
 20
7.8818795544
 30
0.0
 10
9.5309543195
 20
7.8820945674
 30
0.0
 10
9.5308366199
 20
7.8822686189
 30
0.0
 10
9.5306754296
 20
7.8823937735
 30
0.0
 10
9.5304756793
 20
7.8825777021
 30
0.0
 10
9.5301190482
 20
7.8828916304
 30
0.0
 10
9.5296132705
 20
7.8833442541
 30
0.0
 10
9.5290047555
 20
7.8838856242
 30
0.0
 10
9.5281939547
 20
7.8846080722
 30
0.0
 10
9.5271802645
 20
7.8855109195
 30
0.0
 10
9.5255584659
 20
7.886955594
 30
0.0
 10
9.5235311814
 20
7.8887613963
 30
0.0
 10
9.5210984555
 20
7.8909283766
 30
0.0
 10
9.5186657254
 20
7.8930953523
 30
0.0
 10
9.5154220868
 20
7.8959846547
 30
0.0
 10
9.5113675382
 20
7.8995962824
 30
0.0
 10
9.5073129893
 20
7.9032079096
 30
0.0
 10
9.5040693511
 20
7.9060972127
 30
0.0
 10
9.5016366198
 20
7.9082641863
 30
0.0
 10
9.4992038985
 20
7.9104311741
 30
0.0
 10
9.4971765997
 20
7.9122369532
 30
0.0
 10
9.4955548301
 20
7.9136816752
 30
0.0
 10
9.4945410661
 20
7.9145844014
 30
0.0
 10
9.4937304168
 20
7.915307098
 30
0.0
 10
9.4931214388
 20
7.9158477087
 30
0.0
 10
9.4926171098
 20
7.9163027083
 30
0.0
 10
9.4922065758
 20
7.9166566362
 30
0.0
 10
9.4919179961
 20
7.9169496033
 30
0.0
 10
9.4915556684
 20
7.9171375213
 30
0.0
 10
9.4910983258
 20
7.9174247736
 30
0.0
 10
9.4905178092
 20
7.9177712492
 30
0.0
 10
9.4898249723
 20
7.9181924087
 30
0.0
 10
9.4888998685
 20
7.9187520725
 30
0.0
 10
9.4877439411
 20
7.9194522967
 30
0.0
 10
9.4858942045
 20
7.9205722952
 30
0.0
 10
9.4835821205
 20
7.921972417
 30
0.0
 10
9.4808075824
 20
7.9236525101
 30
0.0
 10
9.4780330544
 20
7.9253326175
 30
0.0
 10
9.4743336801
 20
7.9275727556
 30
0.0
 10
9.4697094636
 20
7.9303729302
 30
0.0
 10
9.4650852463
 20
7.9331731034
 30
0.0
 10
9.4613858732
 20
7.9354132436
 30
0.0
 10
9.4586113416
 20
7.9370933446
 30
0.0
 10
9.4558368169
 20
7.9387734616
 30
0.0
 10
9.4535246915
 20
7.9401735092
 30
0.0
 10
9.4516750392
 20
7.9412936591
 30
0.0
 10
9.4505188973
 20
7.9419934981
 30
0.0
 10
9.4495942338
 20
7.9425539526
 30
0.0
 10
9.4489000516
 20
7.9429726963
 30
0.0
 10
9.4483237443
 20
7.9433267303
 30
0.0
 10
9.4478578138
 20
7.9435985618
 30
0.0
 10
9.4475217131
 20
7.9438335741
 30
0.0
 10
9.4471346663
 20
7.9439497295
 30
0.0
 10
9.4466364
 20
7.9441461217
 30
0.0
 10
9.4460074614
 20
7.9443773672
 30
0.0
 10
9.4452553485
 20
7.9446609589
 30
0.0
 10
9.4442516186
 20
7.9450369516
 30
0.0
 10
9.4429972686
 20
7.9455076717
 30
0.0
 10
9.4409901341
 20
7.9462604163
 30
0.0
 10
9.4384812758
 20
7.9472014869
 30
0.0
 10
9.4354706202
 20
7.9483307117
 30
0.0
 10
9.4324599715
 20
7.9494599525
 30
0.0
 10
9.4284457708
 20
7.9509656013
 30
0.0
 10
9.4234280207
 20
7.9528476642
 30
0.0
 10
9.4184102704
 20
7.9547297266
 30
0.0
 10
9.41439607
 20
7.9562353761
 30
0.0
 10
9.4113854202
 20
7.9573646148
 30
0.0
 10
9.4083747686
 20
7.9584938475
 30
0.0
 10
9.4058658979
 20
7.9594348936
 30
0.0
 10
9.4038587886
 20
7.9601876881
 30
0.0
 10
9.4026043744
 20
7.9606582813
 30
0.0
 10
9.4016007764
 20
7.9610345344
 30
0.0
 10
9.4008482605
 20
7.9613173305
 30
0.0
 10
9.4002205829
 20
7.9615510656
 30
0.0
 10
9.3997823488
 20
7.9617184643
 30
0.0
 10
9.3995301489
 20
7.9618082121
 30
0.0
 10
9.3993460146
 20
7.9618921674
 30
0.0
 10
9.399142708
 20
7.9619124996
 30
0.0
 10
9.39887832
 20
7.9619618016
 30
0.0
 10
9.3984125253
 20
7.9620377403
 30
0.0
 10
9.3977487332
 20
7.9621516299
 30
0.0
 10
9.3969514854
 20
7.9622859837
 30
0.0
 10
9.3958887319
 20
7.9624659301
 30
0.0
 10
9.3945602067
 20
7.9626905865
 30
0.0
 10
9.3924346129
 20
7.9630501913
 30
0.0
 10
9.3897776047
 20
7.9634996443
 30
0.0
 10
9.3865892017
 20
7.9640390107
 30
0.0
 10
9.3834007969
 20
7.9645783709
 30
0.0
 10
9.3791495911
 20
7.96529752
 30
0.0
 10
9.3738355837
 20
7.9661964557
 30
0.0
 10
9.3674587748
 20
7.9672751788
 30
0.0
 10
9.358956363
 20
7.9687134762
 30
0.0
 10
9.3525795541
 20
7.9697921993
 30
0.0
 10
9.3483283482
 20
7.970511348
 30
0.0
  0
SPLINE
  5
425
100
AcDbEntity
  8
0
100
AcDbSpline
 62
4
  6
CONTINUOUS
 70
0
 71
3
 72
397
 73
393
 74
0
 42
0.0000001
 43
0.0000001
 44
0.0000000001
 40
0.0
 40
0.0
 40
0.0
 40
0.0
 40
0.015625
 40
0.0234375
 40
0.03125
 40
0.0390625
 40
0.04296875
 40
0.046875
 40
0.05078125
 40
0.0546875
 40
0.056640625
 40
0.05859375
 40
0.0595703125
 40
0.060546875
 40
0.0615234375
 40
0.0620117188
 40
0.0622558594
 40
0.0625
 40
0.0627441406
 40
0.0629882812
 40
0.0634765625
 40
0.064453125
 40
0.0654296875
 40
0.06640625
 40
0.068359375
 40
0.0703125
 40
0.07421875
 40
0.078125
 40
0.08203125
 40
0.0859375
 40
0.09375
 40
0.1015625
 40
0.10546875
 40
0.109375
 40
0.11328125
 40
0.1171875
 40
0.119140625
 40
0.12109375
 40
0.1220703125
 40
0.123046875
 40
0.1240234375
 40
0.1245117188
 40
0.1247558594
 40
0.125
 40
0.1252441406
 40
0.1254882812
 40
0.1259765625
 40
0.126953125
 40
0.1279296875
 40
0.12890625
 40
0.130859375
 40
0.1328125
 40
0.13671875
 40
0.140625
 40
0.14453125
 40
0.1484375
 40
0.15625
 40
0.1640625
 40
0.16796875
 40
0.171875
 40
0.17578125
 40
0.1796875
 40
0.181640625
 40
0.18359375
 40
0.1845703125
 40
0.185546875
 40
0.1865234375
 40
0.1870117188
 40
0.1872558594
 40
0.1875
 40
0.1877441406
 40
0.1879882812
 40
0.1884765625
 40
0.189453125
 40
0.1904296875
 40
0.19140625
 40
0.193359375
 40
0.1953125
 40
0.19921875
 40
0.203125
 40
0.20703125
 40
0.2109375
 40
0.21875
 40
0.2265625
 40
0.23046875
 40
0.234375
 40
0.23828125
 40
0.2421875
 40
0.244140625
 40
0.24609375
 40
0.2470703125
 40
0.248046875
 40
0.2490234375
 40
0.2495117188
 40
0.2497558594
 40
0.25
 40
0.2502441406
 40
0.2504882812
 40
0.2509765625
 40
0.251953125
 40
0.2529296875
 40
0.25390625
 40
0.255859375
 40
0.2578125
 40
0.26171875
 40
0.265625
 40
0.26953125
 40
0.2734375
 40
0.28125
 40
0.2890625
 40
0.29296875
 40
0.296875
 40
0.30078125
 40
0.3046875
 40
0.306640625
 40
0.30859375
 40
0.3095703125
 40
0.310546875
 40
0.3115234375
 40
0.3120117188
 40
0.3122558594
 40
0.3125
 40
0.3127441406
 40
0.3129882812
 40
0.3134765625
 40
0.314453125
 40
0.3154296875
 40
0.31640625
 40
0.318359375
 40
0.3203125
 40
0.32421875
 40
0.328125
 40
0.33203125
 40
0.3359375
 40
0.34375
 40
0.3515625
 40
0.35546875
 40
0.359375
 40
0.36328125
 40
0.3671875
 40
0.369140625
 40
0.37109375
 40
0.3720703125
 40
0.373046875
 40
0.3740234375
 40
0.3745117188
 40
0.3747558594
 40
0.375
 40
0.3752441406
 40
0.3754882812
 40
0.3759765625
 40
0.376953125
 40
0.3779296875
 40
0.37890625
 40
0.380859375
 40
0.3828125
 40
0.38671875
 40
0.390625
 40
0.39453125
 40
0.3984375
 40
0.40625
 40
0.4140625
 40
0.41796875
 40
0.421875
 40
0.42578125
 40
0.4296875
 40
0.431640625
 40
0.43359375
 40
0.4345703125
 40
0.435546875
 40
0.4365234375
 40
0.4370117188
 40
0.4372558594
 40
0.4375
 40
0.4377441406
 40
0.4379882812
 40
0.4384765625
 40
0.439453125
 40
0.4404296875
 40
0.44140625
 40
0.443359375
 40
0.4453125
 40
0.44921875
 40
0.453125
 40
0.45703125
 40
0.4609375
 40
0.46875
 40
0.4765625
 40
0.48046875
 40
0.484375
 40
0.48828125
 40
0.4921875
 40
0.494140625
 40
0.49609375
 40
0.4970703125
 40
0.498046875
 40
0.4990234375
 40
0.4995117188
 40
0.4997558594
 40
0.5
 40
0.5002441406
 40
0.5004882812
 40
0.5009765625
 40
0.501953125
 40
0.5029296875
 40
0.50390625
 40
0.505859375
 40
0.5078125
 40
0.51171875
 40
0.515625
 40
0.51953125
 40
0.5234375
 40
0.53125
 40
0.5390625
 40
0.54296875
 40
0.546875
 40
0.55078125
 40
0.5546875
 40
0.556640625
 40
0.55859375
 40
0.5595703125
 40
0.560546875
 40
0.5615234375
 40
0.5620117188
 40
0.5622558594
 40
0.5625
 40
0.5627441406
 40
0.5629882812
 40
0.5634765625
 40
0.564453125
 40
0.5654296875
 40
0.56640625
 40
0.568359375
 40
0.5703125
 40
0.57421875
 40
0.578125
 40
0.58203125
 40
0.5859375
 40
0.59375
 40
0.6015625
 40
0.60546875
 40
0.609375
 40
0.61328125
 40
0.6171875
 40
0.619140625
 40
0.62109375
 40
0.6220703125
 40
0.623046875
 40
0.6240234375
 40
0.6245117188
 40
0.625
 40
0.6254882812
 40
0.6259765625
 40
0.626953125
 40
0.6279296875
 40
0.62890625
 40
0.630859375
 40
0.6328125
 40
0.63671875
 40
0.640625
 40
0.64453125
 40
0.6484375
 40
0.65625
 40
0.6640625
 40
0.66796875
 40
0.671875
 40
0.67578125
 40
0.6796875
 40
0.681640625
 40
0.68359375
 40
0.6845703125
 40
0.685546875
 40
0.6865234375
 40
0.6870117188
 40
0.6872558594
 40
0.6875
 40
0.6877441406
 40
0.6879882812
 40
0.6884765625
 40
0.689453125
 40
0.6904296875
 40
0.69140625
 40
0.693359375
 40
0.6953125
 40
0.69921875
 40
0.703125
 40
0.70703125
 40
0.7109375
 40
0.71875
 40
0.7265625
 40
0.73046875
 40
0.734375
 40
0.73828125
 40
0.7421875
 40
0.744140625
 40
0.74609375
 40
0.7470703125
 40
0.748046875
 40
0.7490234375
 40
0.7495117188
 40
0.7497558594
 40
0.75
 40
0.7502441406
 40
0.7504882812
 40
0.7509765625
 40
0.751953125
 40
0.7529296875
 40
0.75390625
 40
0.755859375
 40
0.7578125
 40
0.76171875
 40
0.765625
 40
0.76953125
 40
0.7734375
 40
0.78125
 40
0.7890625
 40
0.79296875
 40
0.796875
 40
0.80078125
 40
0.8046875
 40
0.806640625
 40
0.80859375
 40
0.8095703125
 40
0.810546875
 40
0.8115234375
 40
0.8120117188
 40
0.8125
 40
0.8129882812
 40
0.8134765625
 40
0.814453125
 40
0.8154296875
 40
0.81640625
 40
0.818359375
 40
0.8203125
 40
0.82421875
 40
0.828125
 40
0.83203125
 40
0.8359375
 40
0.84375
 40
0.8515625
 40
0.85546875
 40
0.859375
 40
0.86328125
 40
0.8671875
 40
0.869140625
 40
0.87109375
 40
0.8720703125
 40
0.873046875
 40
0.8740234375
 40
0.8745117188
 40
0.875
 40
0.8754882812
 40
0.8759765625
 40
0.876953125
 40
0.8779296875
 40
0.87890625
 40
0.880859375
 40
0.8828125
 40
0.88671875
 40
0.890625
 40
0.89453125
 40
0.8984375
 40
0.90625
 40
0.9140625
 40
0.91796875
 40
0.921875
 40
0.92578125
 40
0.9296875
 40
0.931640625
 40
0.93359375
 40
0.9345703125
 40
0.935546875
 40
0.9365234375
 40
0.9370117188
 40
0.9372558594
 40
0.9375
 40
0.9377441406
 40
0.9379882812
 40
0.9384765625
 40
0.939453125
 40
0.9404296875
 40
0.94140625
 40
0.943359375
 40
0.9453125
 40
0.94921875
 40
0.953125
 40
0.95703125
 40
0.9609375
 40
0.96875
 40
0.9765625
 40
0.984375
 40
1.0
 40
1.0
 40
1.0
 40
1.0
 10
9.3483283708
 20
7.9705113464
 30
0.0
 10
9.3441507882
 20
7.9703914472
 30
0.0
 10
9.3378844144
 20
7.9702115984
 30
0.0
 10
9.3295292493
 20
7.9699718
 30
0.0
 10
9.3232628754
 20
7.9697919511
 30
0.0
 10
9.3180408972
 20
7.9696420773
 30
0.0
 10
9.3138633147
 20
7.9695221776
 30
0.0
 10
9.3107301276
 20
7.9694322545
 30
0.0
 10
9.3075969416
 20
7.9693423251
 30
0.0
 10
9.3049859495
 20
7.9692674036
 30
0.0
 10
9.3028971644
 20
7.9692074224
 30
0.0
 10
9.3015916541
 20
7.9691700343
 30
0.0
 10
9.3005472907
 20
7.9691398945
 30
0.0
 10
9.2997638955
 20
7.9691179175
 30
0.0
 10
9.2991114563
 20
7.9690976061
 30
0.0
 10
9.2986539833
 20
7.9690873076
 30
0.0
 10
9.2983937655
 20
7.9690753027
 30
0.0
 10
9.2981952347
 20
7.9690835394
 30
0.0
 10
9.298009576
 20
7.9690258748
 30
0.0
 10
9.2977575412
 20
7.9689719758
 30
0.0
 10
9.2973185721
 20
7.9688669424
 30
0.0
 10
9.2966903797
 20
7.968722494
 30
0.0
 10
9.2959370169
 20
7.9685467593
 30
0.0
 10
9.2949323698
 20
7.9683132834
 30
0.0
 10
9.2936766168
 20
7.968021152
 30
0.0
 10
9.2916673808
 20
7.9675539019
 30
0.0
 10
9.2891558464
 20
7.9669697843
 30
0.0
 10
9.2861420007
 20
7.9662688667
 30
0.0
 10
9.2831281561
 20
7.9655679428
 30
0.0
 10
9.2791096963
 20
7.9646333799
 30
0.0
 10
9.2740866217
 20
7.9634651754
 30
0.0
 10
9.2690635469
 20
7.9622969714
 30
0.0
 10
9.2650450874
 20
7.9613624076
 30
0.0
 10
9.2620312421
 20
7.9606614863
 30
0.0
 10
9.2590173992
 20
7.959960559
 30
0.0
 10
9.2565058559
 20
7.9593764717
 30
0.0
 10
9.2544966381
 20
7.9589091598
 30
0.0
 10
9.2532408387
 20
7.9586171856
 30
0.0
 10
9.252236287
 20
7.9583833869
 30
0.0
 10
9.2514826326
 20
7.9582086384
 30
0.0
 10
9.2508553526
 20
7.9580611046
 30
0.0
 10
9.2504147547
 20
7.9579615792
 30
0.0
 10
9.2501653297
 20
7.9578988549
 30
0.0
 10
9.2499716543
 20
7.9578682987
 30
0.0
 10
9.2498032327
 20
7.9577747208
 30
0.0
 10
9.2495698618
 20
7.957671933
 30
0.0
 10
9.2491655669
 20
7.9574818122
 30
0.0
 10
9.248585857
 20
7.9572155657
 30
0.0
 10
9.2478911237
 20
7.956893778
 30
0.0
 10
9.2469644917
 20
7.9564655282
 30
0.0
 10
9.2458063115
 20
7.9559299418
 30
0.0
 10
9.2439531619
 20
7.9550731568
 30
0.0
 10
9.2416367459
 20
7.9540021231
 30
0.0
 10
9.2388570378
 20
7.9527169051
 30
0.0
 10
9.236077332
 20
7.951431681
 30
0.0
 10
9.2323710568
 20
7.9497180511
 30
0.0
 10
9.2277382131
 20
7.9475760129
 30
0.0
 10
9.2231053692
 20
7.9454339753
 30
0.0
 10
9.2193990944
 20
7.9437203445
 30
0.0
 10
9.2166193875
 20
7.942435123
 30
0.0
 10
9.2138396836
 20
7.9411498956
 30
0.0
 10
9.2115232541
 20
7.9400788911
 30
0.0
 10
9.2096701321
 20
7.9392220463
 30
0.0
 10
9.2085118817
 20
7.9386866122
 30
0.0
 10
9.207585394
 20
7.93825805
 30
0.0
 10
9.2068902198
 20
7.9379372165
 30
0.0
 10
9.2063118891
 20
7.9376679844
 30
0.0
 10
9.2059051322
 20
7.9374831934
 30
0.0
 10
9.205675706
 20
7.9373718659
 30
0.0
 10
9.2054951676
 20
7.9373045193
 30
0.0
 10
9.2053470009
 20
7.9371754426
 30
0.0
 10
9.2051381537
 20
7.9370248725
 30
0.0
 10
9.2047779322
 20
7.9367513426
 30
0.0
 10
9.2042605794
 20
7.9363658305
 30
0.0
 10
9.2036409334
 20
7.9359009711
 30
0.0
 10
9.2028143275
 20
7.9352819426
 30
0.0
 10
9.2017812109
 20
7.9345078884
 30
0.0
 10
9.2001281457
 20
7.9332695519
 30
0.0
 10
9.1980618412
 20
7.9317215798
 30
0.0
 10
9.1955822642
 20
7.9298640353
 30
0.0
 10
9.1931026903
 20
7.9280064848
 30
0.0
 10
9.1897965907
 20
7.925529753
 30
0.0
 10
9.1856639666
 20
7.9224338375
 30
0.0
 10
9.1815313421
 20
7.9193379224
 30
0.0
 10
9.1782252431
 20
7.9168611899
 30
0.0
 10
9.1757456675
 20
7.9150036416
 30
0.0
 10
9.1732660968
 20
7.9131460889
 30
0.0
 10
9.1711997725
 20
7.9115981423
 30
0.0
 10
9.1695467477
 20
7.9103597536
 30
0.0
 10
9.1685135283
 20
7.9095858323
 30
0.0
 10
9.1676871334
 20
7.9089665313
 30
0.0
 10
9.1670668427
 20
7.9085025042
 30
0.0
 10
9.1665515071
 20
7.9081143878
 30
0.0
 10
9.1661876846
 20
7.9078455071
 30
0.0
 10
9.165984607
 20
7.9076874878
 30
0.0
 10
9.1658187179
 20
7.9075812927
 30
0.0
 10
9.1657047419
 20
7.9074280067
 30
0.0
 10
9.1655346661
 20
7.9072400511
 30
0.0
 10
9.1652454702
 20
7.9069034759
 30
0.0
 10
9.1648279223
 20
7.9064266552
 30
0.0
 10
9.1643287528
 20
7.9058527577
 30
0.0
 10
9.1636625341
 20
7.9050881593
 30
0.0
 10
9.1628299865
 20
7.9041322065
 30
0.0
 10
9.1614977841
 20
7.9026027964
 30
0.0
 10
9.1598325744
 20
7.9006909946
 30
0.0
 10
9.1578343042
 20
7.8983968492
 30
0.0
 10
9.155836039
 20
7.8961026993
 30
0.0
 10
9.1531716836
 20
7.8930438344
 30
0.0
 10
9.1498412401
 20
7.8892202527
 30
0.0
 10
9.1465107961
 20
7.8853966713
 30
0.0
 10
9.1438464414
 20
7.8823378058
 30
0.0
 10
9.141848174
 20
7.8800436577
 30
0.0
 10
9.1398499119
 20
7.8777495057
 30
0.0
 10
9.1381846771
 20
7.8758377245
 30
0.0
 10
9.136852526
 20
7.8743082723
 30
0.0
 10
9.1360198479
 20
7.8733524266
 30
0.0
 10
9.135353897
 20
7.8725876084
 30
0.0
 10
9.1348539092
 20
7.8720143824
 30
0.0
 10
9.1344389217
 20
7.871535461
 30
0.0
 10
9.1341451551
 20
7.8712026358
 30
0.0
 10
9.1339824026
 20
7.8710086717
 30
0.0
 10
9.1338459315
 20
7.8708738422
 30
0.0
 10
9.1337645303
 20
7.8706983275
 30
0.0
 10
9.1336367864
 20
7.8704784993
 30
0.0
 10
9.1334221844
 20
7.870087188
 30
0.0
 10
9.133110931
 20
7.8695316286
 30
0.0
 10
9.1327394298
 20
7.8688634778
 30
0.0
 10
9.1322433952
 20
7.8679731268
 30
0.0
 10
9.1316235915
 20
7.8668600112
 30
0.0
 10
9.1306317718
 20
7.865079125
 30
0.0
 10
9.129392043
 20
7.8628529833
 30
0.0
 10
9.1279043489
 20
7.8601816279
 30
0.0
 10
9.1264166599
 20
7.8575102685
 30
0.0
 10
9.1244330729
 20
7.8539484575
 30
0.0
 10
9.1219535897
 20
7.8494961931
 30
0.0
 10
9.1194741061
 20
7.8450439291
 30
0.0
 10
9.1174905198
 20
7.8414821175
 30
0.0
 10
9.1160028286
 20
7.8388107596
 30
0.0
 10
9.1145151432
 20
7.8361393988
 30
0.0
 10
9.1132753871
 20
7.8339132737
 30
0.0
 10
9.1122836231
 20
7.8321323538
 30
0.0
 10
9.1116636776
 20
7.831019324
 30
0.0
 10
9.1111679341
 20
7.8301287968
 30
0.0
 10
9.1107955436
 20
7.8294611844
 30
0.0
 10
9.1104870724
 20
7.8289039403
 30
0.0
 10
9.1102675037
 20
7.8285156365
 30
0.0
 10
9.1101477177
 20
7.8282909895
 30
0.0
 10
9.1100418725
 20
7.8281302768
 30
0.0
 10
9.1099972091
 20
7.8279398536
 30
0.0
 10
9.1099163169
 20
7.8276963193
 30
0.0
 10
9.1097846988
 20
7.8272653058
 30
0.0
 10
9.1095914745
 20
7.8266520967
 30
0.0
 10
9.1093618305
 20
7.8259151652
 30
0.0
 10
9.1090548613
 20
7.8249329673
 30
0.0
 10
9.1086714158
 20
7.8237050907
 30
0.0
 10
9.1080577544
 20
7.8217405603
 30
0.0
 10
9.1072907287
 20
7.8192848726
 30
0.0
 10
9.106370276
 20
7.816338058
 30
0.0
 10
9.1054498291
 20
7.8133912405
 30
0.0
 10
9.1042225645
 20
7.8094621515
 30
0.0
 10
9.1026884845
 20
7.8045507899
 30
0.0
 10
9.101154404
 20
7.7996394285
 30
0.0
 10
9.0999271403
 20
7.7957103392
 30
0.0
 10
9.0990066908
 20
7.7927635228
 30
0.0
 10
9.0980862476
 20
7.7898167041
 30
0.0
 10
9.0973191922
 20
7.7873610289
 30
0.0
 10
9.0967055913
 20
7.785396473
 30
0.0
 10
9.096321992
 20
7.7841686615
 30
0.0
 10
9.0960153386
 20
7.7831863299
 30
0.0
 10
9.0957847297
 20
7.7824498068
 30
0.0
 10
9.0955945242
 20
7.78183532
 30
0.0
 10
9.0954575171
 20
7.7814065874
 30
0.0
 10
9.0953852594
 20
7.7811593986
 30
0.0
 10
9.0953140739
 20
7.780980201
 30
0.0
 10
9.0953078411
 20
7.7807773268
 30
0.0
 10
9.0952768744
 20
7.7805150864
 30
0.0
 10
9.0952332387
 20
7.7800523181
 30
0.0
 10
9.0951653832
 20
7.7793932321
 30
0.0
 10
9.0950863188
 20
7.7786014678
 30
0.0
 10
9.0949800745
 20
7.7775460828
 30
0.0
 10
9.0948475517
 20
7.7762267487
 30
0.0
 10
9.0946353573
 20
7.7741158716
 30
0.0
 10
9.0943701684
 20
7.7714772555
 30
0.0
 10
9.0940519186
 20
7.7683109246
 30
0.0
 10
9.093733675
 20
7.7651445915
 30
0.0
 10
9.093309348
 20
7.7609228147
 30
0.0
 10
9.09277894
 20
7.7556455935
 30
0.0
 10
9.0922485315
 20
7.7503683724
 30
0.0
 10
9.0918242054
 20
7.7461465956
 30
0.0
 10
9.0915059591
 20
7.7429802629
 30
0.0
 10
9.0911877193
 20
7.7398139303
 30
0.0
 10
9.0909224993
 20
7.7371753195
 30
0.0
 10
9.0907103684
 20
7.7350644316
 30
0.0
 10
9.090577684
 20
7.7337451248
 30
0.0
 10
9.0904717713
 20
7.7326896838
 30
0.0
 10
9.090391694
 20
7.7318980908
 30
0.0
 10
9.0903270075
 20
7.7312384688
 30
0.0
 10
9.0902777146
 20
7.7307766573
 30
0.0
 10
9.0902558122
 20
7.7305128837
 30
0.0
 10
9.090221737
 20
7.7303147194
 30
0.0
 10
9.0902551226
 20
7.7301178322
 30
0.0
 10
9.0902761056
 20
7.7298548704
 30
0.0
 10
9.0903237895
 20
7.7293948949
 30
0.0
 10
9.0903861774
 20
7.7287376784
 30
0.0
 10
9.0904634963
 20
7.7279490652
 30
0.0
 10
9.0905657313
 20
7.7268975646
 30
0.0
 10
9.0906938185
 20
7.7255831944
 30
0.0
 10
9.0908985939
 20
7.7234801991
 30
0.0
 10
9.0911546195
 20
7.720851456
 30
0.0
 10
9.091461826
 20
7.7176969637
 30
0.0
 10
9.0917690391
 20
7.7145424716
 30
0.0
 10
9.0921786542
 20
7.7103364821
 30
0.0
 10
9.0926906739
 20
7.7050789953
 30
0.0
 10
9.093202693
 20
7.6998215084
 30
0.0
 10
9.093612309
 20
7.695615519
 30
0.0
 10
9.0939195194
 20
7.6924610267
 30
0.0
 10
9.094226736
 20
7.6893065352
 30
0.0
 10
9.0944827304
 20
7.6866777898
 30
0.0
 10
9.0946875693
 20
7.684574799
 30
0.0
 10
9.0948154949
 20
7.6832604171
 30
0.0
 10
9.0949180616
 20
7.6822089407
 30
0.0
 10
9.0949943672
 20
7.6814202537
 30
0.0
 10
9.0950599255
 20
7.680763268
 30
0.0
 10
9.0951019498
 20
7.6803028806
 30
0.0
 10
9.0951320008
 20
7.6800405788
 30
0.0
 10
9.0951375323
 20
7.6798416644
 30
0.0
 10
9.0952080724
 20
7.6796511137
 30
0.0
 10
9.0952794501
 20
7.6793941288
 30
0.0
 10
9.0954149261
 20
7.6789457644
 30
0.0
 10
9.0956029397
 20
7.6783045332
 30
0.0
 10
9.0958309203
 20
7.6775353599
 30
0.0
 10
9.0961340687
 20
7.6765096894
 30
0.0
 10
9.0965132869
 20
7.6752276375
 30
0.0
 10
9.097119878
 20
7.6731763343
 30
0.0
 10
9.0978781711
 20
7.6706122121
 30
0.0
 10
9.0987880996
 20
7.6675352626
 30
0.0
 10
9.0996980343
 20
7.6644583139
 30
0.0
 10
9.1009112784
 20
7.6603557153
 30
0.0
 10
9.1024278341
 20
7.6552274671
 30
0.0
 10
9.1039443903
 20
7.6500992191
 30
0.0
 10
9.1051576337
 20
7.6459966202
 30
0.0
 10
9.1060675706
 20
7.6429196725
 30
0.0
 10
9.1069774909
 20
7.6398427191
 30
0.0
 10
9.1077358094
 20
7.637278609
 30
0.0
 10
9.1083423487
 20
7.6352272813
 30
0.0
 10
9.1087216985
 20
7.6339452916
 30
0.0
 10
9.1090245768
 20
7.6329194935
 30
0.0
 10
9.1092533826
 20
7.6321507097
 30
0.0
 10
9.1094388145
 20
7.6315082602
 30
0.0
 10
9.1095989115
 20
7.6309983293
 30
0.0
 10
9.1096868735
 20
7.6306048729
 30
0.0
 10
9.1098974027
 20
7.630253435
 30
0.0
 10
9.1101352939
 20
7.6297701735
 30
0.0
 10
9.1104473473
 20
7.6291711324
 30
0.0
 10
9.1108155239
 20
7.6284501276
 30
0.0
 10
9.1113086221
 20
7.6274895408
 30
0.0
 10
9.1119242429
 20
7.6262885495
 30
0.0
 10
9.1129096565
 20
7.6243671075
 30
0.0
 10
9.1141412792
 20
7.6219652555
 30
0.0
 10
9.1156192883
 20
7.6190830543
 30
0.0
 10
9.1170972809
 20
7.6162008475
 30
0.0
 10
9.1190679434
 20
7.612357907
 30
0.0
 10
9.1215312696
 20
7.6075542308
 30
0.0
 10
9.1239945963
 20
7.6027505547
 30
0.0
 10
9.1259652581
 20
7.598907614
 30
0.0
 10
9.1274432529
 20
7.5960254078
 30
0.0
 10
9.1289212535
 20
7.5931432042
 30
0.0
 10
9.1301529029
 20
7.5907413596
 30
0.0
 10
9.1311382621
 20
7.5888199027
 30
0.0
 10
9.1317540212
 20
7.5876189492
 30
0.0
 10
9.1322468355
 20
7.5866582847
 30
0.0
 10
9.1326158795
 20
7.5859375172
 30
0.0
 10
9.1329252189
 20
7.5853377337
 30
0.0
 10
9.1331382186
 20
7.5849162053
 30
0.0
 10
9.1332654569
 20
7.5846779551
 30
0.0
 10
9.1333453239
 20
7.5844918779
 30
0.0
 10
9.133484676
 20
7.5843340471
 30
0.0
 10
9.1336497297
 20
7.5841137534
 30
0.0
 10
9.133948241
 20
7.58373283
 30
0.0
 10
9.1343696316
 20
7.5831862537
 30
0.0
 10
9.1348774637
 20
7.5825313894
 30
0.0
 10
9.1355538175
 20
7.5816578782
 30
0.0
 10
9.1363995185
 20
7.5805661121
 30
0.0
 10
9.1377524955
 20
7.5788192176
 30
0.0
 10
9.1394437664
 20
7.576635623
 30
0.0
 10
9.1414732701
 20
7.5740152995
 30
0.0
 10
9.1435027796
 20
7.5713949786
 30
0.0
 10
9.1462087902
 20
7.5679012165
 30
0.0
 10
9.1495913042
 20
7.5635340143
 30
0.0
 10
9.1529738177
 20
7.5591668117
 30
0.0
 10
9.155679829
 20
7.5556730502
 30
0.0
 10
9.1577093364
 20
7.5530527277
 30
0.0
 10
9.1597388479
 20
7.55043241
 30
0.0
 10
9.1614300946
 20
7.5482487973
 30
0.0
 10
9.1627831209
 20
7.5465019398
 30
0.0
 10
9.1636286963
 20
7.5454100796
 30
0.0
 10
9.164305308
 20
7.5445367615
 30
0.0
 10
9.1648123524
 20
7.5438813072
 30
0.0
 10
9.1652362074
 20
7.5433365771
 30
0.0
 10
9.1655303193
 20
7.5429523578
 30
0.0
 10
9.1657024221
 20
7.5427373449
 30
0.0
 10
9.1658201216
 20
7.5425632933
 30
0.0
 10
9.1659813119
 20
7.5424381388
 30
0.0
 10
9.1661810623
 20
7.5422542102
 30
0.0
 10
9.1665376933
 20
7.5419402818
 30
0.0
 10
9.1670434711
 20
7.5414876581
 30
0.0
 10
9.167651986
 20
7.540946288
 30
0.0
 10
9.1684627869
 20
7.5402238401
 30
0.0
 10
9.1694764771
 20
7.5393209928
 30
0.0
 10
9.1710982757
 20
7.5378763183
 30
0.0
 10
9.1731255602
 20
7.5360705159
 30
0.0
 10
9.1755582861
 20
7.5339035356
 30
0.0
 10
9.1779910161
 20
7.53173656
 30
0.0
 10
9.1812346547
 20
7.5288472576
 30
0.0
 10
9.1852892034
 20
7.5252356299
 30
0.0
 10
9.1893437523
 20
7.5216240027
 30
0.0
 10
9.1925873905
 20
7.5187346995
 30
0.0
 10
9.1950201218
 20
7.5165677259
 30
0.0
 10
9.1974528431
 20
7.5144007381
 30
0.0
 10
9.1994801418
 20
7.5125949591
 30
0.0
 10
9.2011019114
 20
7.511150237
 30
0.0
 10
9.2021156754
 20
7.5102475108
 30
0.0
 10
9.2029263247
 20
7.5095248143
 30
0.0
 10
9.2035353027
 20
7.5089842036
 30
0.0
 10
9.2040396317
 20
7.5085292039
 30
0.0
 10
9.2044501658
 20
7.5081752761
 30
0.0
 10
9.2047387454
 20
7.5078823089
 30
0.0
 10
9.2051010732
 20
7.507694391
 30
0.0
 10
9.2055584157
 20
7.5074071386
 30
0.0
 10
9.2061389324
 20
7.5070606631
 30
0.0
 10
9.2068317692
 20
7.5066395036
 30
0.0
 10
9.2077568731
 20
7.5060798398
 30
0.0
 10
9.2089128004
 20
7.5053796156
 30
0.0
 10
9.210762537
 20
7.504259617
 30
0.0
 10
9.2130746211
 20
7.5028594953
 30
0.0
 10
9.2158491591
 20
7.5011794021
 30
0.0
 10
9.2186236872
 20
7.4994992948
 30
0.0
 10
9.2223230614
 20
7.4972591566
 30
0.0
 10
9.226947278
 20
7.4944589821
 30
0.0
 10
9.2315714953
 20
7.4916588089
 30
0.0
 10
9.2352708683
 20
7.4894186686
 30
0.0
 10
9.2380453999
 20
7.4877385677
 30
0.0
 10
9.2408199247
 20
7.4860584506
 30
0.0
 10
9.2431320501
 20
7.4846584031
 30
0.0
 10
9.2449817024
 20
7.4835382532
 30
0.0
 10
9.2461378443
 20
7.4828384142
 30
0.0
 10
9.2470625077
 20
7.4822779597
 30
0.0
 10
9.24775669
 20
7.481859216
 30
0.0
 10
9.2483329973
 20
7.4815051819
 30
0.0
 10
9.2487989277
 20
7.4812333504
 30
0.0
 10
9.2491350285
 20
7.4809983381
 30
0.0
 10
9.2495220753
 20
7.4808821827
 30
0.0
 10
9.2500203415
 20
7.4806857906
 30
0.0
 10
9.2506492801
 20
7.4804545451
 30
0.0
 10
9.251401393
 20
7.4801709533
 30
0.0
 10
9.252405123
 20
7.4797949606
 30
0.0
 10
9.2536594729
 20
7.4793242405
 30
0.0
 10
9.2556666075
 20
7.4785714959
 30
0.0
 10
9.2581754657
 20
7.4776304253
 30
0.0
 10
9.2611861213
 20
7.4765012006
 30
0.0
 10
9.2641967701
 20
7.4753719598
 30
0.0
 10
9.2682109708
 20
7.4738663109
 30
0.0
 10
9.2732287209
 20
7.4719842481
 30
0.0
 10
9.2782464712
 20
7.4701021856
 30
0.0
 10
9.2822606715
 20
7.4685965361
 30
0.0
 10
9.2852713213
 20
7.4674672974
 30
0.0
 10
9.288281973
 20
7.4663380648
 30
0.0
 10
9.2907908436
 20
7.4653970187
 30
0.0
 10
9.2927979529
 20
7.4646442242
 30
0.0
 10
9.2940523671
 20
7.464173631
 30
0.0
 10
9.2950559652
 20
7.4637973778
 30
0.0
 10
9.2958084811
 20
7.4635145818
 30
0.0
 10
9.2964361587
 20
7.4632808466
 30
0.0
 10
9.2968743927
 20
7.463113448
 30
0.0
 10
9.2971265927
 20
7.4630237001
 30
0.0
 10
9.297310727
 20
7.4629397449
 30
0.0
 10
9.2975140336
 20
7.4629194127
 30
0.0
 10
9.2977784215
 20
7.4628701106
 30
0.0
 10
9.2982442163
 20
7.462794172
 30
0.0
 10
9.2989080084
 20
7.4626802823
 30
0.0
 10
9.2997052561
 20
7.4625459286
 30
0.0
 10
9.3007680096
 20
7.4623659821
 30
0.0
 10
9.3020965348
 20
7.4621413258
 30
0.0
 10
9.3042221286
 20
7.4617817209
 30
0.0
 10
9.3068791368
 20
7.4613322679
 30
0.0
 10
9.3100675398
 20
7.4607929016
 30
0.0
 10
9.3132559446
 20
7.4602535413
 30
0.0
 10
9.3175071504
 20
7.4595343922
 30
0.0
 10
9.3228211579
 20
7.4586354565
 30
0.0
 10
9.3291979667
 20
7.4575567334
 30
0.0
 10
9.3377003786
 20
7.456118436
 30
0.0
 10
9.3440771874
 20
7.455039713
 30
0.0
 10
9.3483283933
 20
7.4543205643
 30
0.0
  0
ENDSEC
  0
SECTION
  2
OBJECTS
  0
DICTIONARY
  5
C
100
AcDbDictionary
280
0
281
1
  3
ACAD_GROUP
350
D
  3
ACAD_MLINESTYLE
350
17
  3
ACAD_LAYOUT
350
1A
  3
ACAD_PLOTSETTINGS
350
19
  3
ACAD_PLOTSTYLENAME
350
E
  3
ACAD_IMAGE_DICT
350
       427
  3
ACAD_IMAGE_VARS
350
       428
  3
ACAD_TABLESTYLE
350
       429
  0
IMAGEDEF_REACTOR
  5
426
100
AcDbRasterImageDefReactor
 90
2
330
294
  0
DICTIONARY
  5
D
102
{ACAD_REACTORS
330
C
102
}
100
AcDbDictionary
280
0
281
1
  0
ACDBDICTIONARYWDFLT
  5
E
102
{ACAD_REACTORS
330
C
102
}
100
AcDbDictionary
281
1
  3
Normal
350
F
100
AcDbDictionaryWithDefault
340
F
  0
DICTIONARY
  5
427
330
C
100
AcDbDictionary
281
1
  3
Y6J_assy_2_img_1
350
       42C
  0
RASTERVARIABLES
  5
428
330
C
100
AcDbRasterVariables
 90
0
 70
0
 71
1
 72
5
  0
DICTIONARY
  5
17
102
{ACAD_REACTORS
330
C
102
}
100
AcDbDictionary
280
0
281
1
  3
Standard
350
18
  0
DICTIONARY
  5
429
330
C
100
AcDbDictionary
281
1
  3
Standard
350
       42D
  3
Standard1
350
       42E
  0
DICTIONARY
  5
19
102
{ACAD_REACTORS
330
C
102
}
100
AcDbDictionary
281
1
  0
DICTIONARY
  5
1A
102
{ACAD_REACTORS
330
C
102
}
100
AcDbDictionary
281
1
  3
Model
350
42A
  3
Layout1
350
42B
  0
ACDBPLACEHOLDER
  5
F
102
{ACAD_REACTORS
330
E
102
}
  0
MLINESTYLE
  5
18
102
{ACAD_REACTORS
330
17
102
}
100
AcDbMlineStyle
  2
STANDARD
 70
0
  3

 62
256
 51
90.0
 52
90.0
 71
2
 49
0.5
 62
256
  6
BYLAYER
 49
-0.5
 62
256
  6
BYLAYER
  0
LAYOUT
  5
42A
102
{ACAD_REACTORS
330
1A
102
}
100
AcDbPlotSettings
  1

  2
none_device
  4
ANSI_C_(22.00_x_17.00_Inches)
  6

 40
0.0
 41
0.0
 42
0.0
 43
0.0
 44
558.8
 45
431.8
 46
0.0
 47
0.0
 48
0.0
 49
0.0
140
0.0
141
0.0
142
1.0
143
1.0
 70
1024
 72
0
 73
0
 74
0
  7

 75
0
147
1.0
148
0.0
149
0.0
100
AcDbLayout
  1
Model
 70
0
 71
0
 10
0.0
 20
0.0
 11
22.0
 21
17.0
 12
0.0
 22
0.0
 32
0.0
 14
0.0
 24
0.0
 34
0.0
 15
0.0
 25
0.0
 35
0.0
146
0.0
 13
0.0
 23
0.0
 33
0.0
 16
1.0
 26
0.0
 36
0.0
 17
0.0
 27
1.0
 37
0.0
 76
0
330
20C
345
0
346
0
  0
LAYOUT
  5
42B
102
{ACAD_REACTORS
330
1A
102
}
100
AcDbPlotSettings
  1

  2
none_device
  4
ANSI_C_(22.00_x_17.00_Inches)
  6

 40
0.0
 41
0.0
 42
0.0
 43
0.0
 44
558.8
 45
431.8
 46
0.0
 47
0.0
 48
0.0
 49
0.0
140
0.0
141
0.0
142
1.0
143
1.0
 70
0
 72
0
 73
0
 74
0
  7

 75
0
147
1.0
148
0.0
149
0.0
100
AcDbLayout
  1
Layout1
 70
0
 71
1
 10
0.0
 20
0.0
 11
22.0
 21
17.0
 12
0.0
 22
0.0
 32
0.0
 14
0.0
 24
0.0
 34
0.0
 15
0.0
 25
0.0
 35
0.0
146
0.0
 13
0.0
 23
0.0
 33
0.0
 16
1.0
 26
0.0
 36
0.0
 17
0.0
 27
1.0
 37
0.0
 76
0
330
20D
345
0
346
0
  0
IMAGEDEF
  5
42C
102
{ACAD_REACTORS
330
427
330
426
102
}
100
AcDbRasterImageDef
 90
0
  1
Y6J_assy_2_img_1.png
 10
369.0
 20
92.0
 11
0.0066666667
 21
0.0066666667
280
1
281
0
  0
TABLESTYLE
  5
42D
102
{ACAD_REACTORS
330
429
330
297
330
298
102
}
330
429
100
AcDbTableStyle
  3
Standard
 70
0
 71
0
 40
0.06
 41
0.06
280
1
281
1
  7
Standard
140
0.18
170
1
 62
0
 63
7
283
0
  7
Standard
140
0.18
170
1
 62
0
 63
7
283
0
  7
Standard
140
0.18
170
1
 62
0
 63
7
283
0
  0
TABLESTYLE
  5
42E
102
{ACAD_REACTORS
330
429
330
296
102
}
330
429
100
AcDbTableStyle
  3
Standard1
 70
1
 71
0
 40
0.06
 41
0.06
280
1
281
1
  7
Standard
140
0.18
170
1
 62
0
 63
7
283
0
  7
Standard
140
0.18
170
1
 62
0
 63
7
283
0
  7
Standard
140
0.18
170
1
 62
0
 63
7
283
0
  0
ENDSEC
  0
EOF
