999
DXF file: Y6D_assy_2.dxf
999
Pro/ENGINEER 2014200 by Parametric Technology Corporation
  0
SECTION
  2
HEADER
  9
$ACADVER
  1
AC1021
  9
$DWGCODEPAGE
  3
ANSI_1252
  9
$EXTMAX
 10
22.0
 20
17.0
 30
0.0
  9
$EXTMIN
 10
0.0
 20
0.0
 30
0.0
  9
$LIMMIN
 10
0.0
 20
0.0
  9
$LIMMAX
 10
22.0
 20
17.0
  9
$VIEWCTR
 10
11.0
 20
8.5
  9
$VIEWSIZE
 40
17.0
  9
$CLAYER
  8
0
  9
$LTSCALE
 40
1.21
  9
$CELTYPE
  6
BYLAYER
  9
$DIMSCALE
 40
1.0
  9
$DIMASZ
 40
0.1875
  9
$DIMEXO
 40
0.0625
  9
$DIMDLI
 40
0.836
  9
$DIMEXE
 40
0.125
  9
$DIMCEN
 40
0.198
  9
$DIMLFAC
 40
1.0
  9
$DIMBLK
  1
_FILLED
  9
$DIMTXT
 40
0.1
  9
$DIMTOL
 70
0
  9
$DIMLIM
 70
0
  9
$DIMTFAC
 40
1.0
  9
$DIMGAP
 40
0.09
  9
$DIMDSEP
 70
46
  9
$AUNITS
 70
0
  9
$PDMODE
 70
3
  9
$PDSIZE
 40
0.3125
  9
$HANDSEED
  5
41A
  9
$TILEMODE
 70
1
  9
$MEASUREMENT
 70
0
  9
$INSUNITS
 70
1
  0
ENDSEC
  0
SECTION
  2
CLASSES
  0
CLASS
  1
ACDBDICTIONARYWDFLT
  2
AcDbDictionaryWithDefault
  3
AutoCAD 2000
 90
0
 91
1
280
0
281
0
  0
CLASS
  1
ACDBPLACEHOLDER
  2
AcDbPlaceHolder
  3
AutoCAD 2000
 90
0
 91
1
280
0
281
0
  0
CLASS
  1
LAYOUT
  2
AcDbLayout
  3
AutoCAD 2000
 90
0
 91
0
280
0
281
0
  0
CLASS
  1
RASTERVARIABLES
  2
AcDbRasterVariables
  3
ISM
 90
0
 91
1
280
0
281
0
  0
CLASS
  1
IMAGEDEF
  2
AcDbRasterImageDef
  3
ISM
 90
0
 91
1
280
0
281
0
  0
CLASS
  1
IMAGEDEF_REACTOR
  2
AcDbRasterImageDefReactor
  3
ISM
 90
0
 91
1
280
0
281
0
  0
CLASS
  1
IMAGE
  2
AcDbRasterImage
  3
ISM
 90
127
 91
1
280
0
281
1
  0
CLASS
  1
TABLESTYLE
  2
AcDbTableStyle
  3
ObjectDBX Classes
 90
2047
 91
1
280
0
281
0
  0
CLASS
  1
ACAD_TABLE
  2
AcDbTable
  3
ObjectDBX Classes
 90
1025
 91
3
280
0
281
1
  0
ENDSEC
  0
SECTION
  2
TABLES
  0
TABLE
  2
VPORT
  5
8
100
AcDbSymbolTable
 70
2
  0
VPORT
  5
1F4
100
AcDbSymbolTableRecord
100
AcDbViewportTableRecord
  2
*ACTIVE
 70
0
 10
0.0
 20
0.0
 11
1.0
 21
1.0
 12
11.0
 22
8.5
 13
0.0
 23
0.0
 14
1.0
 24
1.0
 15
0.0
 25
0.0
 16
0.0
 26
0.0
 36
1.0
 17
0.0
 27
0.0
 37
0.0
 40
17.0
 41
1.2941176471
 42
50.0
 43
0.0
 44
0.0
 50
0.0
 51
0.0
 71
0
 72
100
 73
1
 74
1
 75
0
 76
0
 77
0
 78
0
  0
ENDTAB
  0
TABLE
  2
LTYPE
  5
5
100
AcDbSymbolTable
 70
6
  0
LTYPE
  5
14
100
AcDbSymbolTableRecord
100
AcDbLinetypeTableRecord
  2
BYBLOCK
 70
0
  3

 72
65
 73
0
 40
0.0
  0
LTYPE
  5
15
100
AcDbSymbolTableRecord
100
AcDbLinetypeTableRecord
  2
BYLAYER
 70
0
  3

 72
65
 73
0
 40
0.0
  0
LTYPE
  5
16
100
AcDbSymbolTableRecord
100
AcDbLinetypeTableRecord
  2
CONTINUOUS
 70
64
  3
Solid line
 72
65
 73
0
 40
0.0
  0
LTYPE
  5
1F5
100
AcDbSymbolTableRecord
100
AcDbLinetypeTableRecord
  2
CENTER
 70
64
  3
____ _ ____ _ ____ _ ____ _ ____ _ ____ _ ____
 72
65
 73
4
 40
0.6
 49
0.375
 74
0
 49
-0.075
 74
0
 49
0.075
 74
0
 49
-0.075
 74
0
  0
LTYPE
  5
1F6
100
AcDbSymbolTableRecord
100
AcDbLinetypeTableRecord
  2
HIDDEN
 70
64
  3
- - - - - - - - - - - - - - - - - - - -
 72
65
 73
2
 40
0.2
 49
0.1
 74
0
 49
-0.1
 74
0
  0
LTYPE
  5
1F7
100
AcDbSymbolTableRecord
100
AcDbLinetypeTableRecord
  2
PHANTOM
 70
64
  3
_____ _ _ _____ _ _ _____ _ _ _____
 72
65
 73
6
 40
0.8
 49
0.45
 74
0
 49
-0.05
 74
0
 49
0.1
 74
0
 49
-0.05
 74
0
 49
0.1
 74
0
 49
-0.05
 74
0
  0
LTYPE
  5
1F8
100
AcDbSymbolTableRecord
100
AcDbLinetypeTableRecord
  2
DOT
 70
64
  3
. . . . . . . . . . . . . . . . . . . .
 72
65
 73
2
 40
0.2
 49
0.1
 74
0
 49
-0.1
 74
0
  0
LTYPE
  5
1F9
100
AcDbSymbolTableRecord
100
AcDbLinetypeTableRecord
  2
DASHED
 70
64
  3
- - - - - - - - - - - - - - - - - - - -
 72
65
 73
2
 40
0.2
 49
0.1
 74
0
 49
-0.1
 74
0
  0
ENDTAB
  0
TABLE
  2
LAYER
  5
2
100
AcDbSymbolTable
 70
36
  0
LAYER
  5
10
100
AcDbSymbolTableRecord
100
AcDbLayerTableRecord
  2
0
 70
0
 62
7
  6
CONTINUOUS
370
-3
390
F
  0
LAYER
  5
1FA
100
AcDbSymbolTableRecord
100
AcDbLayerTableRecord
  2
DEFAULT_1
 70
0
 62
7
  6
CENTER
370
-3
390
F
  0
LAYER
  5
1FB
100
AcDbSymbolTableRecord
100
AcDbLayerTableRecord
  2
DEFAULT_2
 70
0
 62
8
  6
HIDDEN
370
-3
390
F
  0
LAYER
  5
1FC
100
AcDbSymbolTableRecord
100
AcDbLayerTableRecord
  2
DEFAULT_3
 70
0
 62
7
  6
PHANTOM
370
-3
390
F
  0
LAYER
  5
1FD
100
AcDbSymbolTableRecord
100
AcDbLayerTableRecord
  2
01___PRT_ALL_DTM_PLN
 70
0
 62
7
  6
CONTINUOUS
370
-3
390
F
  0
LAYER
  5
1FE
100
AcDbSymbolTableRecord
100
AcDbLayerTableRecord
  2
01___PRT_DEF_DTM_PLN
 70
0
 62
7
  6
CONTINUOUS
370
-3
390
F
  0
LAYER
  5
1FF
100
AcDbSymbolTableRecord
100
AcDbLayerTableRecord
  2
02___PRT_ALL_AXES
 70
0
 62
7
  6
CONTINUOUS
370
-3
390
F
  0
LAYER
  5
200
100
AcDbSymbolTableRecord
100
AcDbLayerTableRecord
  2
03___PRT_ALL_CURVES
 70
0
 62
7
  6
CONTINUOUS
370
-3
390
F
  0
LAYER
  5
201
100
AcDbSymbolTableRecord
100
AcDbLayerTableRecord
  2
04___PRT_ALL_DTM_PNT
 70
0
 62
7
  6
CONTINUOUS
370
-3
390
F
  0
LAYER
  5
202
100
AcDbSymbolTableRecord
100
AcDbLayerTableRecord
  2
05___PRT_ALL_DTM_CSYS
 70
0
 62
7
  6
CONTINUOUS
370
-3
390
F
  0
LAYER
  5
203
100
AcDbSymbolTableRecord
100
AcDbLayerTableRecord
  2
05___PRT_DEF_DTM_CSYS
 70
0
 62
7
  6
CONTINUOUS
370
-3
390
F
  0
LAYER
  5
204
100
AcDbSymbolTableRecord
100
AcDbLayerTableRecord
  2
06___PRT_ALL_SURFS
 70
0
 62
7
  6
CONTINUOUS
370
-3
390
F
  0
LAYER
  5
205
100
AcDbSymbolTableRecord
100
AcDbLayerTableRecord
  2
DATUM_PLANES
 70
0
 62
7
  6
CONTINUOUS
370
-3
390
F
  0
LAYER
  5
206
100
AcDbSymbolTableRecord
100
AcDbLayerTableRecord
  2
PORT_AREAS
 70
0
 62
7
  6
CONTINUOUS
370
-3
390
F
  0
LAYER
  5
207
100
AcDbSymbolTableRecord
100
AcDbLayerTableRecord
  2
SUNNBOMCOSMETIC
 70
0
 62
7
  6
CONTINUOUS
370
-3
390
F
  0
LAYER
  5
208
100
AcDbSymbolTableRecord
100
AcDbLayerTableRecord
  2
SUNNBOMSTAMPING
 70
0
 62
7
  6
CONTINUOUS
370
-3
390
F
  0
LAYER
  5
209
100
AcDbSymbolTableRecord
100
AcDbLayerTableRecord
  2
THREADS
 70
0
 62
7
  6
CONTINUOUS
370
-3
390
F
  0
ENDTAB
  0
TABLE
  2
STYLE
  5
3
100
AcDbSymbolTable
 70
1
  0
STYLE
  5
11
100
AcDbSymbolTableRecord
100
AcDbTextStyleTableRecord
  2
STANDARD
 70
0
 40
0.0
 41
0.8
 50
0.0
 71
0
 42
0.2
  3
txt
  4

  0
STYLE
  5
20A
100
AcDbSymbolTableRecord
100
AcDbTextStyleTableRecord
  2
TEXTSTYLE_1
 70
0
 40
0.0
 41
0.8
 50
0.0
 71
0
 42
0.2
  3
gdt
  4

  0
ENDTAB
  0
TABLE
  2
VIEW
  5
6
100
AcDbSymbolTable
 70
0
  0
ENDTAB
  0
TABLE
  2
UCS
  5
7
100
AcDbSymbolTable
 70
0
  0
ENDTAB
  0
TABLE
  2
APPID
  5
9
100
AcDbSymbolTable
 70
1
  0
APPID
  5
20B
100
AcDbSymbolTableRecord
100
AcDbRegAppTableRecord
  2
ACAD
 70
0
  0
ENDTAB
  0
TABLE
  2
BLOCK_RECORD
  5
1
100
AcDbSymbolTable
 70
0
  0
BLOCK_RECORD
  5
20C
100
AcDbSymbolTableRecord
100
AcDbBlockTableRecord
  2
*Model_Space
  0
BLOCK_RECORD
  5
20D
100
AcDbSymbolTableRecord
100
AcDbBlockTableRecord
  2
*Paper_Space
  0
BLOCK_RECORD
  5
20E
100
AcDbSymbolTableRecord
100
AcDbBlockTableRecord
  2
SUN_FIRST_THIRD_ANGLE_BL0
  0
BLOCK_RECORD
  5
20F
100
AcDbSymbolTableRecord
100
AcDbBlockTableRecord
  2
*T1
  0
BLOCK_RECORD
  5
210
100
AcDbSymbolTableRecord
100
AcDbBlockTableRecord
  2
*T2
  0
BLOCK_RECORD
  5
211
100
AcDbSymbolTableRecord
100
AcDbBlockTableRecord
  2
*T3
  0
ENDTAB
  0
TABLE
  2
DIMSTYLE
  5
A
100
AcDbSymbolTable
 70
1
100
AcDbDimStyleTable
 71
0
  0
DIMSTYLE
105
212
100
AcDbSymbolTableRecord
100
AcDbDimStyleTableRecord
  2
STANDARD
 70
0
  3

  4

 40
1.0
 41
0.1875
 42
0.0625
 43
0.38
 44
0.125
 45
0.0
 46
0.0
 47
0.001
 48
0.001
140
0.1
141
0.09
142
0.0
143
25.4
144
1.0
145
0.0
146
1.0
147
0.09
 71
0.0
 72
0.0
 73
1
 74
1
 75
0
 76
0
 77
0
 78
4
170
0
171
2
172
0
173
0
174
0
175
0
176
0
177
0
178
0
270
2
271
3
272
3
273
2
274
2
275
0
280
0
281
0
282
0
283
1
284
4
285
0
286
0
287
3
288
0
340
11
278
46
  0
ENDTAB
  0
ENDSEC
  0
SECTION
  2
BLOCKS
  0
BLOCK
  5
20
100
AcDbEntity
  8
0
100
AcDbBlockBegin
  2
*Model_Space
 70
0
 10
0.0
 20
0.0
 30
0.0
  3
*Model_Space
  1

  0
ENDBLK
  5
21
100
AcDbEntity
  8
0
100
AcDbBlockEnd
  0
BLOCK
  5
1C
100
AcDbEntity
  8
0
100
AcDbBlockBegin
  2
*Paper_Space
 70
0
 10
0.0
 20
0.0
 30
0.0
  3
*Paper_Space
  1

  0
ENDBLK
  5
1D
100
AcDbEntity
  8
0
100
AcDbBlockEnd
  0
BLOCK
  5
213
100
AcDbEntity
  8
0
100
AcDbBlockBegin
 62
2
  6
CONTINUOUS
  2
SUN_FIRST_THIRD_ANGLE_BL0
 70
64
 10
20.4816717061
 20
1.2289683772
  3
SUN_FIRST_THIRD_ANGLE_BL0
  1

  0
TEXT
  5
214
100
AcDbEntity
  8
0
100
AcDbText
 62
2
  6
CONTINUOUS
 10
19.4750896608
 20
1.4136269581
  7
STANDARD
 40
0.08
  1
FIRST ANGLE
 41
0.8
 72
0
100
AcDbText
  0
TEXT
  5
215
100
AcDbEntity
  8
0
100
AcDbText
 62
2
  6
CONTINUOUS
 10
20.7842537513
 20
1.4047600029
  7
STANDARD
 40
0.08
  1
THIRD ANGLE
 41
0.8
 72
0
100
AcDbText
  0
LINE
  5
216
100
AcDbEntity
  8
0
100
AcDbLine
 62
7
  6
CONTINUOUS
 10
19.4767170086
 20
1.1727031207
 11
19.6334271527
 21
1.1717972817
  0
LINE
  5
217
100
AcDbEntity
  8
0
100
AcDbLine
 62
7
  6
CONTINUOUS
 10
19.6596964832
 20
1.1717972817
 11
19.6950230232
 21
1.171593082
  0
LINE
  5
218
100
AcDbEntity
  8
0
100
AcDbLine
 62
7
  6
CONTINUOUS
 10
19.7194818561
 20
1.1708914427
 11
19.8852396156
 21
1.1699333054
  0
LINE
  5
219
100
AcDbEntity
  8
0
100
AcDbLine
 62
7
  6
CONTINUOUS
 10
19.4758111696
 20
1.2723454088
 11
19.88525039
 21
1.3511534004
  0
LINE
  5
21A
100
AcDbEntity
  8
0
100
AcDbLine
 62
7
  6
CONTINUOUS
 10
19.88525039
 20
1.3511534004
 11
19.8831348489
 21
0.9851647912
  0
LINE
  5
21B
100
AcDbEntity
  8
0
100
AcDbLine
 62
7
  6
CONTINUOUS
 10
19.8831348489
 20
0.9851647912
 11
19.4767170086
 21
1.0658141206
  0
LINE
  5
21C
100
AcDbEntity
  8
0
100
AcDbLine
 62
7
  6
CONTINUOUS
 10
19.4767170086
 20
1.0658141206
 11
19.4779056764
 21
1.2714536432
  0
CIRCLE
  5
21D
100
AcDbEntity
  8
0
100
AcDbCircle
 62
7
  6
CONTINUOUS
 10
20.2068232291
 20
1.1717972817
 40
0.175742101
  0
CIRCLE
  5
21E
100
AcDbEntity
  8
0
100
AcDbCircle
 62
7
  6
CONTINUOUS
 10
20.2068232291
 20
1.1717972817
 40
0.1005522074
  0
LINE
  5
21F
100
AcDbEntity
  8
0
100
AcDbLine
 62
7
  6
CONTINUOUS
 10
20.2077290681
 20
1.3756110529
 11
20.2071171714
 21
1.2379342989
  0
LINE
  5
220
100
AcDbEntity
  8
0
100
AcDbLine
 62
7
  6
CONTINUOUS
 10
20.2077290681
 20
1.2016899681
 11
20.2074674401
 21
1.1428236749
  0
LINE
  5
221
100
AcDbEntity
  8
0
100
AcDbLine
 62
7
  6
CONTINUOUS
 10
20.208634907
 20
1.101141841
 11
20.2080230104
 21
0.963465087
  0
LINE
  5
222
100
AcDbEntity
  8
0
100
AcDbLine
 62
7
  6
CONTINUOUS
 10
20.0066328138
 20
1.1745147986
 11
20.1443095678
 21
1.1739029019
  0
LINE
  5
223
100
AcDbEntity
  8
0
100
AcDbLine
 62
7
  6
CONTINUOUS
 10
20.1832714155
 20
1.1727031207
 11
20.238153505
 21
1.172335442
  0
LINE
  5
224
100
AcDbEntity
  8
0
100
AcDbLine
 62
7
  6
CONTINUOUS
 10
20.2756669918
 20
1.1717972817
 11
20.407916871
 21
1.1712095044
  0
CIRCLE
  5
225
100
AcDbEntity
  8
0
100
AcDbCircle
 62
7
  6
CONTINUOUS
 10
20.7509457401
 20
1.1693297793
 40
0.1722024983
  0
CIRCLE
  5
226
100
AcDbEntity
  8
0
100
AcDbCircle
 62
7
  6
CONTINUOUS
 10
20.7509457401
 20
1.1693297793
 40
0.0985164967
  0
LINE
  5
227
100
AcDbEntity
  8
0
100
AcDbLine
 62
7
  6
CONTINUOUS
 10
20.7169767782
 20
1.170462078
 11
20.7825395137
 21
1.1682766535
  0
LINE
  5
228
100
AcDbEntity
  8
0
100
AcDbLine
 62
7
  6
CONTINUOUS
 10
20.8177513651
 20
1.1693297793
 11
20.947965719
 21
1.1693297793
  0
LINE
  5
229
100
AcDbEntity
  8
0
100
AcDbLine
 62
7
  6
CONTINUOUS
 10
20.6875370113
 20
1.170462078
 11
20.5573226574
 21
1.170462078
  0
LINE
  5
22A
100
AcDbEntity
  8
0
100
AcDbLine
 62
7
  6
CONTINUOUS
 10
20.7486811426
 20
1.1987695462
 11
20.7486811426
 21
1.1432869085
  0
LINE
  5
22B
100
AcDbEntity
  8
0
100
AcDbLine
 62
7
  6
CONTINUOUS
 10
20.7498134414
 20
1.1059210505
 11
20.7498134414
 21
0.9757066966
  0
LINE
  5
22C
100
AcDbEntity
  8
0
100
AcDbLine
 62
7
  6
CONTINUOUS
 10
20.7486811426
 20
1.2338708068
 11
20.7486811426
 21
1.3640851607
  0
LINE
  5
22D
100
AcDbEntity
  8
0
100
AcDbLine
 62
7
  6
CONTINUOUS
 10
21.0702539817
 20
1.2701043662
 11
21.4790138229
 21
1.3448360823
  0
LINE
  5
22E
100
AcDbEntity
  8
0
100
AcDbLine
 62
7
  6
CONTINUOUS
 10
21.4790138229
 20
1.3448360823
 11
21.4790138229
 21
0.9779712941
  0
LINE
  5
22F
100
AcDbEntity
  8
0
100
AcDbLine
 62
7
  6
CONTINUOUS
 10
21.4790138229
 20
0.9779712941
 11
21.069121683
 21
1.0617614
  0
LINE
  5
230
100
AcDbEntity
  8
0
100
AcDbLine
 62
7
  6
CONTINUOUS
 10
21.0702539817
 20
1.2701043662
 11
21.069121683
 21
1.0617614
  0
LINE
  5
231
100
AcDbEntity
  8
0
100
AcDbLine
 62
7
  6
CONTINUOUS
 10
21.4790138229
 20
1.1693297793
 11
21.3159628059
 21
1.1693297793
  0
LINE
  5
232
100
AcDbEntity
  8
0
100
AcDbLine
 62
7
  6
CONTINUOUS
 10
21.2876553377
 20
1.1693297793
 11
21.2502894796
 21
1.1693297793
  0
LINE
  5
233
100
AcDbEntity
  8
0
100
AcDbLine
 62
7
  6
CONTINUOUS
 10
21.2208497126
 20
1.1659328831
 11
21.0713862804
 21
1.1659328831
  0
LINE
  5
234
100
AcDbEntity
  8
0
100
AcDbLine
 62
7
  6
CONTINUOUS
 10
20.4796138713
 20
1.5284908897
 11
20.4766766948
 21
0.9294458646
  0
ENDBLK
  5
235
100
AcDbEntity
  8
0
  6
BYBLOCK
 62
0
100
AcDbBlockEnd
  0
BLOCK
  5
236
100
AcDbEntity
  8
0
100
AcDbBlockBegin
  2
*T1
 70
1
 10
0.0
 20
0.0
  3
*T1
  1

  0
LINE
  5
237
100
AcDbEntity
  8
0
100
AcDbLine
 62
2
  6
CONTINUOUS
 10
9.275
 20
0.0
 11
-0.0
 21
0.0
  0
LINE
  5
238
100
AcDbEntity
  8
0
100
AcDbLine
 62
2
  6
CONTINUOUS
 10
9.275
 20
0.0
 11
9.275
 21
1.25
  0
LINE
  5
239
100
AcDbEntity
  8
0
100
AcDbLine
 62
2
  6
CONTINUOUS
 10
9.275
 20
0.625
 11
-0.0
 21
0.625
  0
LINE
  5
23A
100
AcDbEntity
  8
0
100
AcDbLine
 62
2
  6
CONTINUOUS
 10
9.275
 20
1.25
 11
-0.0
 21
1.25
  0
LINE
  5
23B
100
AcDbEntity
  8
0
100
AcDbLine
 62
2
  6
CONTINUOUS
 10
6.8
 20
0.0
 11
6.8
 21
1.25
  0
LINE
  5
23C
100
AcDbEntity
  8
0
100
AcDbLine
 62
2
  6
CONTINUOUS
 10
6.4
 20
0.0
 11
6.4
 21
0.625
  0
LINE
  5
23D
100
AcDbEntity
  8
0
100
AcDbLine
 62
2
  6
CONTINUOUS
 10
5.9
 20
0.0
 11
5.9
 21
0.625
  0
LINE
  5
23E
100
AcDbEntity
  8
0
100
AcDbLine
 62
2
  6
CONTINUOUS
 10
5.2
 20
0.0
 11
5.2
 21
0.625
  0
LINE
  5
23F
100
AcDbEntity
  8
0
100
AcDbLine
 62
2
  6
CONTINUOUS
 10
4.1
 20
0.0
 11
4.1
 21
1.25
  0
LINE
  5
240
100
AcDbEntity
  8
0
100
AcDbLine
 62
2
  6
CONTINUOUS
 10
-0.0
 20
0.0
 11
-0.0
 21
1.25
  0
MTEXT
  5
241
100
AcDbEntity
  8
0
100
AcDbMText
 62
2
  6
CONTINUOUS
  7
STANDARD
 71
2
 72
1
 10
6.6
 20
0.325
 30
0.0
 11
1.0
 21
0.0
 31
0.0
 44
0.9
  1
2
 40
0.125
 41
0.2
  0
MTEXT
  5
242
100
AcDbEntity
  8
0
100
AcDbMText
 62
2
  6
CONTINUOUS
  7
STANDARD
 71
2
 72
1
 10
6.15
 20
0.325
 30
0.0
 11
1.0
 21
0.0
 31
0.0
 44
0.9
  1
C
 40
0.125
 41
0.2
  0
MTEXT
  5
243
100
AcDbEntity
  8
0
100
AcDbMText
 62
2
  6
CONTINUOUS
  7
STANDARD
 71
2
 72
1
 10
5.55
 20
0.325
 30
0.0
 11
1.0
 21
0.0
 31
0.0
 44
0.9
  1
1.000
 40
0.125
 41
1.0
  0
MTEXT
  5
244
100
AcDbEntity
  8
0
100
AcDbMText
 62
2
  6
CONTINUOUS
  7
STANDARD
 71
2
 72
1
 10
4.65
 20
0.325
 30
0.0
 11
1.0
 21
0.0
 31
0.0
 44
0.9
  1
Apr-27-22
 40
0.125
 41
1.8
  0
MTEXT
  5
245
100
AcDbEntity
  8
0
100
AcDbMText
 62
2
  6
CONTINUOUS
  7
STANDARD
 71
2
 72
1
 10
2.05
 20
0.4625
 30
0.0
 11
1.0
 21
0.0
 31
0.0
 44
0.9
  1
T-22A Line mount\PCross pilot with shuttle
 40
0.125
 41
4.8
  0
MTEXT
  5
246
100
AcDbEntity
  8
0
100
AcDbMText
 62
2
  6
CONTINUOUS
  7
STANDARD
 71
1
 72
1
 10
6.45
 20
0.5625
 30
0.0
 11
1.0
 21
0.0
 31
0.0
 44
0.9
  1
SHEET
 40
0.06
 41
0.48
  0
MTEXT
  5
247
100
AcDbEntity
  8
0
100
AcDbMText
 62
2
  6
CONTINUOUS
  7
STANDARD
 71
1
 72
1
 10
5.95
 20
0.5625
 30
0.0
 11
1.0
 21
0.0
 31
0.0
 44
0.9
  1
DWG SIZE
 40
0.06
 41
0.768
  0
MTEXT
  5
248
100
AcDbEntity
  8
0
100
AcDbMText
 62
2
  6
CONTINUOUS
  7
STANDARD
 71
1
 72
1
 10
5.25
 20
0.5625
 30
0.0
 11
1.0
 21
0.0
 31
0.0
 44
0.9
  1
SCALE
 40
0.06
 41
0.48
  0
MTEXT
  5
249
100
AcDbEntity
  8
0
100
AcDbMText
 62
2
  6
CONTINUOUS
  7
STANDARD
 71
1
 72
1
 10
4.15
 20
0.5625
 30
0.0
 11
1.0
 21
0.0
 31
0.0
 44
0.9
  1
DATE
 40
0.06
 41
0.384
  0
MTEXT
  5
24A
100
AcDbEntity
  8
0
100
AcDbMText
 62
2
  6
CONTINUOUS
  7
STANDARD
 71
1
 72
1
 10
0.05
 20
0.5625
 30
0.0
 11
1.0
 21
0.0
 31
0.0
 44
0.9
  1
DESCRIPTION
 40
0.06
 41
1.056
  0
MTEXT
  5
24B
100
AcDbEntity
  8
0
100
AcDbMText
 62
2
  6
CONTINUOUS
  7
STANDARD
 71
2
 72
1
 10
5.45
 20
1.0375
 30
0.0
 11
1.0
 21
0.0
 31
0.0
 44
0.9
  1
ALL DIMENSIONS IN INCH\PVIEWS ARE THIRD ANGLE
 40
0.12
 41
4.224
  0
MTEXT
  5
24C
100
AcDbEntity
  8
0
100
AcDbMText
 62
2
  6
CONTINUOUS
  7
STANDARD
 71
2
 72
1
 10
2.05
 20
0.95
 30
0.0
 11
1.0
 21
0.0
 31
0.0
 44
0.9
  1
Y6D
 40
0.125
 41
0.6
  0
MTEXT
  5
24D
100
AcDbEntity
  8
0
100
AcDbMText
 62
2
  6
CONTINUOUS
  7
STANDARD
 71
1
 72
1
 10
0.05
 20
1.1875
 30
0.0
 11
1.0
 21
0.0
 31
0.0
 44
0.9
  1
MODEL
 40
0.06
 41
0.48
  0
ENDBLK
  5
24E
100
AcDbEntity
  8
0
  6
BYBLOCK
 62
0
100
AcDbBlockEnd
  0
BLOCK
  5
24F
100
AcDbEntity
  8
0
100
AcDbBlockBegin
  2
*T2
 70
1
 10
0.0
 20
0.0
  3
*T2
  1

  0
LINE
  5
250
100
AcDbEntity
  8
0
100
AcDbLine
 62
2
  6
CONTINUOUS
 10
0.0
 20
0.0
 11
9.055
 21
0.0
  0
LINE
  5
251
100
AcDbEntity
  8
0
100
AcDbLine
 62
2
  6
CONTINUOUS
 10
0.0
 20
0.0
 11
0.0
 21
-2.844
  0
LINE
  5
252
100
AcDbEntity
  8
0
100
AcDbLine
 62
2
  6
CONTINUOUS
 10
0.0
 20
-0.344
 11
9.055
 21
-0.344
  0
LINE
  5
253
100
AcDbEntity
  8
0
100
AcDbLine
 62
2
  6
CONTINUOUS
 10
0.0
 20
-0.594
 11
9.055
 21
-0.594
  0
LINE
  5
254
100
AcDbEntity
  8
0
100
AcDbLine
 62
2
  6
CONTINUOUS
 10
0.0
 20
-0.844
 11
9.055
 21
-0.844
  0
LINE
  5
255
100
AcDbEntity
  8
0
100
AcDbLine
 62
2
  6
CONTINUOUS
 10
0.0
 20
-1.094
 11
9.055
 21
-1.094
  0
LINE
  5
256
100
AcDbEntity
  8
0
100
AcDbLine
 62
2
  6
CONTINUOUS
 10
0.0
 20
-1.344
 11
9.055
 21
-1.344
  0
LINE
  5
257
100
AcDbEntity
  8
0
100
AcDbLine
 62
2
  6
CONTINUOUS
 10
0.0
 20
-1.594
 11
9.055
 21
-1.594
  0
LINE
  5
258
100
AcDbEntity
  8
0
100
AcDbLine
 62
2
  6
CONTINUOUS
 10
0.0
 20
-1.844
 11
9.055
 21
-1.844
  0
LINE
  5
259
100
AcDbEntity
  8
0
100
AcDbLine
 62
2
  6
CONTINUOUS
 10
0.0
 20
-2.094
 11
9.055
 21
-2.094
  0
LINE
  5
25A
100
AcDbEntity
  8
0
100
AcDbLine
 62
2
  6
CONTINUOUS
 10
0.0
 20
-2.344
 11
9.055
 21
-2.344
  0
LINE
  5
25B
100
AcDbEntity
  8
0
100
AcDbLine
 62
2
  6
CONTINUOUS
 10
0.0
 20
-2.594
 11
9.055
 21
-2.594
  0
LINE
  5
25C
100
AcDbEntity
  8
0
100
AcDbLine
 62
2
  6
CONTINUOUS
 10
0.0
 20
-2.844
 11
9.055
 21
-2.844
  0
LINE
  5
25D
100
AcDbEntity
  8
0
100
AcDbLine
 62
2
  6
CONTINUOUS
 10
3.055
 20
0.0
 11
3.055
 21
-2.844
  0
LINE
  5
25E
100
AcDbEntity
  8
0
100
AcDbLine
 62
2
  6
CONTINUOUS
 10
9.055
 20
0.0
 11
9.055
 21
-2.844
  0
MTEXT
  5
25F
100
AcDbEntity
  8
0
100
AcDbMText
 62
2
  6
CONTINUOUS
  7
STANDARD
 71
2
 72
1
 10
1.5275
 20
-0.0995
 30
0.0
 11
1.0
 21
0.0
 31
0.0
 44
0.9
  1
Technical Data
 40
0.145
 41
3.248
  0
MTEXT
  5
260
100
AcDbEntity
  8
0
100
AcDbMText
 62
2
  6
CONTINUOUS
  7
STANDARD
 71
2
 72
1
 10
4.555
 20
-0.0995
 30
0.0
 11
1.0
 21
0.0
 31
0.0
 44
0.9
  1
U.S. Units
 40
0.145
 41
2.32
  0
MTEXT
  5
261
100
AcDbEntity
  8
0
100
AcDbMText
 62
2
  6
CONTINUOUS
  7
STANDARD
 71
2
 72
1
 10
7.555
 20
-0.0995
 30
0.0
 11
1.0
 21
0.0
 31
0.0
 44
0.9
  1
Metric Units
 40
0.145
 41
2.784
  0
MTEXT
  5
262
100
AcDbEntity
  8
0
100
AcDbMText
 62
2
  6
CONTINUOUS
  7
STANDARD
 71
2
 72
1
 10
1.5275
 20
-0.4065
 30
0.0
 11
1.0
 21
0.0
 31
0.0
 44
0.9
  1
Cavity
 40
0.125
 41
1.2
  0
MTEXT
  5
263
100
AcDbEntity
  8
0
100
AcDbMText
 62
2
  6
CONTINUOUS
  7
STANDARD
 71
2
 72
1
 10
6.055
 20
-0.4065
 30
0.0
 11
1.0
 21
0.0
 31
0.0
 44
0.9
  1
T-22A
 40
0.125
 41
1.0
  0
MTEXT
  5
264
100
AcDbEntity
  8
0
100
AcDbMText
 62
2
  6
CONTINUOUS
  7
STANDARD
 71
2
 72
1
 10
1.5275
 20
-0.6565
 30
0.0
 11
1.0
 21
0.0
 31
0.0
 44
0.9
  1
Body Features
 40
0.125
 41
2.6
  0
MTEXT
  5
265
100
AcDbEntity
  8
0
100
AcDbMText
 62
2
  6
CONTINUOUS
  7
STANDARD
 71
2
 72
1
 10
6.055
 20
-0.6565
 30
0.0
 11
1.0
 21
0.0
 31
0.0
 44
0.9
  1
Cross pilot with shuttle
 40
0.125
 41
4.8
  0
MTEXT
  5
266
100
AcDbEntity
  8
0
100
AcDbMText
 62
2
  6
CONTINUOUS
  7
STANDARD
 71
2
 72
1
 10
1.5275
 20
-0.9065
 30
0.0
 11
1.0
 21
0.0
 31
0.0
 44
0.9
  1
Body Type
 40
0.125
 41
1.8
  0
MTEXT
  5
267
100
AcDbEntity
  8
0
100
AcDbMText
 62
2
  6
CONTINUOUS
  7
STANDARD
 71
2
 72
1
 10
6.055
 20
-0.9065
 30
0.0
 11
1.0
 21
0.0
 31
0.0
 44
0.9
  1
Line mount
 40
0.125
 41
2.0
  0
MTEXT
  5
268
100
AcDbEntity
  8
0
100
AcDbMText
 62
2
  6
CONTINUOUS
  7
STANDARD
 71
2
 72
1
 10
1.5275
 20
-1.1565
 30
0.0
 11
1.0
 21
0.0
 31
0.0
 44
0.9
  1
Open Cavity Quantity
 40
0.125
 41
4.0
  0
MTEXT
  5
269
100
AcDbEntity
  8
0
100
AcDbMText
 62
2
  6
CONTINUOUS
  7
STANDARD
 71
2
 72
1
 10
6.055
 20
-1.1565
 30
0.0
 11
1.0
 21
0.0
 31
0.0
 44
0.9
  1
2
 40
0.125
 41
0.2
  0
MTEXT
  5
26A
100
AcDbEntity
  8
0
100
AcDbMText
 62
2
  6
CONTINUOUS
  7
STANDARD
 71
2
 72
1
 10
1.5275
 20
-1.4065
 30
0.0
 11
1.0
 21
0.0
 31
0.0
 44
0.9
  1
Weight
 40
0.125
 41
1.2
  0
MTEXT
  5
26B
100
AcDbEntity
  8
0
100
AcDbMText
 62
2
  6
CONTINUOUS
  7
STANDARD
 71
2
 72
1
 10
4.555
 20
-1.4065
 30
0.0
 11
1.0
 21
0.0
 31
0.0
 44
0.9
  1
4.544 lb.
 40
0.125
 41
1.8
  0
MTEXT
  5
26C
100
AcDbEntity
  8
0
100
AcDbMText
 62
2
  6
CONTINUOUS
  7
STANDARD
 71
2
 72
1
 10
7.555
 20
-1.4065
 30
0.0
 11
1.0
 21
0.0
 31
0.0
 44
0.9
  1
2,061 kg.
 40
0.125
 41
1.8
  0
MTEXT
  5
26D
100
AcDbEntity
  8
0
100
AcDbMText
 62
2
  6
CONTINUOUS
  7
STANDARD
 71
2
 72
1
 10
1.5275
 20
-1.6565
 30
0.0
 11
1.0
 21
0.0
 31
0.0
 44
0.9
  1
Maximum Operating Pressure - 6061-T651 Aluminum
 40
0.125
 41
9.4
  0
MTEXT
  5
26E
100
AcDbEntity
  8
0
100
AcDbMText
 62
2
  6
CONTINUOUS
  7
STANDARD
 71
2
 72
1
 10
4.555
 20
-1.6565
 30
0.0
 11
1.0
 21
0.0
 31
0.0
 44
0.9
  1
3000 psi
 40
0.125
 41
1.6
  0
MTEXT
  5
26F
100
AcDbEntity
  8
0
100
AcDbMText
 62
2
  6
CONTINUOUS
  7
STANDARD
 71
2
 72
1
 10
7.555
 20
-1.6565
 30
0.0
 11
1.0
 21
0.0
 31
0.0
 44
0.9
  1
210 bar
 40
0.125
 41
1.4
  0
MTEXT
  5
270
100
AcDbEntity
  8
0
100
AcDbMText
 62
2
  6
CONTINUOUS
  7
STANDARD
 71
2
 72
1
 10
1.5275
 20
-1.9065
 30
0.0
 11
1.0
 21
0.0
 31
0.0
 44
0.9
  1
Maximum Operating Pressure - 65-45-12 Ductile Iron
 40
0.125
 41
10.0
  0
MTEXT
  5
271
100
AcDbEntity
  8
0
100
AcDbMText
 62
2
  6
CONTINUOUS
  7
STANDARD
 71
2
 72
1
 10
4.555
 20
-1.9065
 30
0.0
 11
1.0
 21
0.0
 31
0.0
 44
0.9
  1
5000 psi
 40
0.125
 41
1.6
  0
MTEXT
  5
272
100
AcDbEntity
  8
0
100
AcDbMText
 62
2
  6
CONTINUOUS
  7
STANDARD
 71
2
 72
1
 10
7.555
 20
-1.9065
 30
0.0
 11
1.0
 21
0.0
 31
0.0
 44
0.9
  1
350 bar
 40
0.125
 41
1.4
  0
MTEXT
  5
273
100
AcDbEntity
  8
0
100
AcDbMText
 62
2
  6
CONTINUOUS
  7
STANDARD
 71
2
 72
1
 10
1.5275
 20
-2.1565
 30
0.0
 11
1.0
 21
0.0
 31
0.0
 44
0.9
  1
Mounting Hole Diameter
 40
0.125
 41
4.4
  0
MTEXT
  5
274
100
AcDbEntity
  8
0
100
AcDbMText
 62
2
  6
CONTINUOUS
  7
STANDARD
 71
2
 72
1
 10
4.555
 20
-2.1565
 30
0.0
 11
1.0
 21
0.0
 31
0.0
 44
0.9
  1
.42 in.
 40
0.125
 41
1.4
  0
MTEXT
  5
275
100
AcDbEntity
  8
0
100
AcDbMText
 62
2
  6
CONTINUOUS
  7
STANDARD
 71
2
 72
1
 10
7.555
 20
-2.1565
 30
0.0
 11
1.0
 21
0.0
 31
0.0
 44
0.9
  1
10,7 mm
 40
0.125
 41
1.4
  0
MTEXT
  5
276
100
AcDbEntity
  8
0
100
AcDbMText
 62
2
  6
CONTINUOUS
  7
STANDARD
 71
2
 72
1
 10
1.5275
 20
-2.4065
 30
0.0
 11
1.0
 21
0.0
 31
0.0
 44
0.9
  1
Mounting Hole Quantity
 40
0.125
 41
4.4
  0
MTEXT
  5
277
100
AcDbEntity
  8
0
100
AcDbMText
 62
2
  6
CONTINUOUS
  7
STANDARD
 71
2
 72
1
 10
6.055
 20
-2.4065
 30
0.0
 11
1.0
 21
0.0
 31
0.0
 44
0.9
  1
2
 40
0.125
 41
0.2
  0
MTEXT
  5
278
100
AcDbEntity
  8
0
100
AcDbMText
 62
2
  6
CONTINUOUS
  7
STANDARD
 71
2
 72
1
 10
1.5275
 20
-2.6565
 30
0.0
 11
1.0
 21
0.0
 31
0.0
 44
0.9
  1
Includes integral cartridge(s)
 40
0.125
 41
6.0
  0
MTEXT
  5
279
100
AcDbEntity
  8
0
100
AcDbMText
 62
2
  6
CONTINUOUS
  7
STANDARD
 71
2
 72
1
 10
6.055
 20
-2.6565
 30
0.0
 11
1.0
 21
0.0
 31
0.0
 44
0.9
  1
Yes (see Included Components)
 40
0.125
 41
5.8
  0
ENDBLK
  5
27A
100
AcDbEntity
  8
0
  6
BYBLOCK
 62
0
100
AcDbBlockEnd
  0
BLOCK
  5
27B
100
AcDbEntity
  8
0
100
AcDbBlockBegin
  2
*T3
 70
1
 10
0.0
 20
0.0
  3
*T3
  1

  0
LINE
  5
27C
100
AcDbEntity
  8
0
100
AcDbLine
 62
2
  6
CONTINUOUS
 10
0.0
 20
0.0
 11
4.6
 21
0.0
  0
LINE
  5
27D
100
AcDbEntity
  8
0
100
AcDbLine
 62
2
  6
CONTINUOUS
 10
0.0
 20
0.0
 11
0.0
 21
-1.43775
  0
LINE
  5
27E
100
AcDbEntity
  8
0
100
AcDbLine
 62
2
  6
CONTINUOUS
 10
0.0
 20
-0.34375
 11
4.6
 21
-0.34375
  0
LINE
  5
27F
100
AcDbEntity
  8
0
100
AcDbLine
 62
2
  6
CONTINUOUS
 10
0.0
 20
-0.68775
 11
4.6
 21
-0.68775
  0
LINE
  5
280
100
AcDbEntity
  8
0
100
AcDbLine
 62
2
  6
CONTINUOUS
 10
0.0
 20
-0.93775
 11
4.6
 21
-0.93775
  0
LINE
  5
281
100
AcDbEntity
  8
0
100
AcDbLine
 62
2
  6
CONTINUOUS
 10
0.0
 20
-1.18775
 11
4.6
 21
-1.18775
  0
LINE
  5
282
100
AcDbEntity
  8
0
100
AcDbLine
 62
2
  6
CONTINUOUS
 10
0.0
 20
-1.43775
 11
4.6
 21
-1.43775
  0
LINE
  5
283
100
AcDbEntity
  8
0
100
AcDbLine
 62
2
  6
CONTINUOUS
 10
1.3
 20
-0.34375
 11
1.3
 21
-1.43775
  0
LINE
  5
284
100
AcDbEntity
  8
0
100
AcDbLine
 62
2
  6
CONTINUOUS
 10
3.3
 20
-0.34375
 11
3.3
 21
-1.43775
  0
LINE
  5
285
100
AcDbEntity
  8
0
100
AcDbLine
 62
2
  6
CONTINUOUS
 10
4.6
 20
0.0
 11
4.6
 21
-1.43775
  0
MTEXT
  5
286
100
AcDbEntity
  8
0
100
AcDbMText
 62
2
  6
CONTINUOUS
  7
STANDARD
 71
2
 72
1
 10
2.3
 20
-0.099375
 30
0.0
 11
1.0
 21
0.0
 31
0.0
 44
0.9
  1
Port Headings
 40
0.145
 41
3.016
  0
MTEXT
  5
287
100
AcDbEntity
  8
0
100
AcDbMText
 62
2
  6
CONTINUOUS
  7
STANDARD
 71
2
 72
1
 10
0.65
 20
-0.44325
 30
0.0
 11
1.0
 21
0.0
 31
0.0
 44
0.9
  1
Product
 40
0.145
 41
1.624
  0
MTEXT
  5
288
100
AcDbEntity
  8
0
100
AcDbMText
 62
2
  6
CONTINUOUS
  7
STANDARD
 71
2
 72
1
 10
2.3
 20
-0.44325
 30
0.0
 11
1.0
 21
0.0
 31
0.0
 44
0.9
  1
Port
 40
0.145
 41
0.928
  0
MTEXT
  5
289
100
AcDbEntity
  8
0
100
AcDbMText
 62
2
  6
CONTINUOUS
  7
STANDARD
 71
2
 72
1
 10
3.95
 20
-0.44325
 30
0.0
 11
1.0
 21
0.0
 31
0.0
 44
0.9
  1
Size
 40
0.145
 41
0.928
  0
MTEXT
  5
28A
100
AcDbEntity
  8
0
100
AcDbMText
 62
2
  6
CONTINUOUS
  7
STANDARD
 71
2
 72
1
 10
0.65
 20
-0.75025
 30
0.0
 11
1.0
 21
0.0
 31
0.0
 44
0.9
  1
Y6D
 40
0.125
 41
0.6
  0
MTEXT
  5
28B
100
AcDbEntity
  8
0
100
AcDbMText
 62
2
  6
CONTINUOUS
  7
STANDARD
 71
2
 72
1
 10
2.3
 20
-0.75025
 30
0.0
 11
1.0
 21
0.0
 31
0.0
 44
0.9
  1
Ports 1A, 1B, 2A, 2B
 40
0.125
 41
4.0
  0
MTEXT
  5
28C
100
AcDbEntity
  8
0
100
AcDbMText
 62
2
  6
CONTINUOUS
  7
STANDARD
 71
2
 72
1
 10
3.95
 20
-0.75025
 30
0.0
 11
1.0
 21
0.0
 31
0.0
 44
0.9
  1
3/4" NPTF
 40
0.125
 41
1.8
  0
MTEXT
  5
28D
100
AcDbEntity
  8
0
100
AcDbMText
 62
2
  6
CONTINUOUS
  7
STANDARD
 71
2
 72
1
 10
0.65
 20
-1.00025
 30
0.0
 11
1.0
 21
0.0
 31
0.0
 44
0.9
  1
Y6D
 40
0.125
 41
0.6
  0
MTEXT
  5
28E
100
AcDbEntity
  8
0
100
AcDbMText
 62
2
  6
CONTINUOUS
  7
STANDARD
 71
2
 72
1
 10
2.3
 20
-1.00025
 30
0.0
 11
1.0
 21
0.0
 31
0.0
 44
0.9
  1
Port 4
 40
0.125
 41
1.2
  0
MTEXT
  5
28F
100
AcDbEntity
  8
0
100
AcDbMText
 62
2
  6
CONTINUOUS
  7
STANDARD
 71
2
 72
1
 10
3.95
 20
-1.00025
 30
0.0
 11
1.0
 21
0.0
 31
0.0
 44
0.9
  1
1/4" NPTF
 40
0.125
 41
1.8
  0
MTEXT
  5
290
100
AcDbEntity
  8
0
100
AcDbMText
 62
2
  6
CONTINUOUS
  7
STANDARD
 71
2
 72
1
 10
0.65
 20
-1.25025
 30
0.0
 11
1.0
 21
0.0
 31
0.0
 44
0.9
  1
Y6D
 40
0.125
 41
0.6
  0
MTEXT
  5
291
100
AcDbEntity
  8
0
100
AcDbMText
 62
2
  6
CONTINUOUS
  7
STANDARD
 71
2
 72
1
 10
2.3
 20
-1.25025
 30
0.0
 11
1.0
 21
0.0
 31
0.0
 44
0.9
  1
Port S
 40
0.125
 41
1.2
  0
MTEXT
  5
292
100
AcDbEntity
  8
0
100
AcDbMText
 62
2
  6
CONTINUOUS
  7
STANDARD
 71
2
 72
1
 10
3.95
 20
-1.25025
 30
0.0
 11
1.0
 21
0.0
 31
0.0
 44
0.9
  1
SAE 4
 40
0.125
 41
1.0
  0
ENDBLK
  5
293
100
AcDbEntity
  8
0
  6
BYBLOCK
 62
0
100
AcDbBlockEnd
  0
ENDSEC
  0
SECTION
  2
ENTITIES
  0
IMAGE
  5
294
100
AcDbEntity
  8
0
100
AcDbRasterImage
 62
7
  6
CONTINUOUS
 10
19.2297077316
 20
0.3094318264
 30
0.0
 11
0.0066666667
 21
0.0
 31
0.0
 12
0.0
 22
0.0066666667
 32
0.0
 13
369.0
 23
92.0
340
       417
 70
9
280
0
281
50
282
50
283
0
360
       411
 71
1
 91
2
 14
-0.5
 24
-0.5
 14
368.5
 24
91.5
  0
INSERT
  5
295
100
AcDbEntity
  8
0
100
AcDbBlockReference
 62
2
  6
CONTINUOUS
  2
SUN_FIRST_THIRD_ANGLE_BL0
 10
20.4816717061
 20
1.2289683772
  0
ACAD_TABLE
  5
296
100
AcDbEntity
  8
0
 62
2
  6
CONTINUOUS
100
AcDbBlockReference
  2
*T1
 10
12.42375
 20
0.30125
 30
0.0
100
AcDbTable
342
       419
343
20F
 11
1.0
 21
0.0
 31
0.0
 90
6
 91
4
 92
6
 93
20
 94
0
 95
0
 96
0
 70
1
 41
0.0
141
0.525
141
0.1
141
0.525
141
0.1
142
4.1
142
1.1
142
0.7
142
0.5
142
0.4
142
2.475
171
1
172
0
173
0
174
0
175
1
176
1
 91
33
178
0
145
0.0
301
CELL_VALUE
 90
4
  1
T-22A Line mount\PCross pilot with shuttle
304
ACVALUE_END
170
2
140
0.125
171
1
172
0
173
0
174
0
175
1
176
1
 91
33
178
0
145
0.0
301
CELL_VALUE
 90
4
  1
Apr-27-22
304
ACVALUE_END
170
5
140
0.125
171
1
172
0
173
0
174
0
175
1
176
1
 91
33
178
0
145
0.0
301
CELL_VALUE
 90
4
  1
1.000
304
ACVALUE_END
170
5
140
0.125
171
1
172
0
173
0
174
0
175
1
176
1
 91
33
178
0
145
0.0
301
CELL_VALUE
 90
4
  1
C
304
ACVALUE_END
170
5
140
0.125
171
1
172
0
173
0
174
0
175
1
176
1
 91
33
178
0
145
0.0
301
CELL_VALUE
 90
4
  1
2
304
ACVALUE_END
170
5
140
0.125
171
1
172
0
173
0
174
0
175
1
176
1
 91
33
178
0
145
0.0
301
CELL_VALUE
 90
4
  1
 
304
ACVALUE_END
170
1
140
0.125
171
1
172
0
173
0
174
0
175
1
176
1
 91
33
178
0
145
0.0
301
CELL_VALUE
 90
4
  1
DESCRIPTION
304
ACVALUE_END
170
1
140
0.06
171
1
172
0
173
0
174
0
175
1
176
1
 91
33
178
0
145
0.0
301
CELL_VALUE
 90
4
  1
DATE
304
ACVALUE_END
170
1
140
0.06
171
1
172
0
173
0
174
0
175
1
176
1
 91
33
178
0
145
0.0
301
CELL_VALUE
 90
4
  1
SCALE
304
ACVALUE_END
170
1
140
0.06
171
1
172
0
173
0
174
0
175
1
176
1
 91
33
178
0
145
0.0
301
CELL_VALUE
 90
4
  1
DWG SIZE
304
ACVALUE_END
170
1
140
0.06
171
1
172
0
173
0
174
0
175
1
176
1
 91
33
178
0
145
0.0
301
CELL_VALUE
 90
4
  1
SHEET
304
ACVALUE_END
170
1
140
0.06
171
1
172
0
173
0
174
0
175
1
176
1
 91
33
178
0
145
0.0
301
CELL_VALUE
 90
4
  1
 
304
ACVALUE_END
170
1
140
0.125
171
1
172
0
173
0
174
0
175
1
176
1
 91
33
178
0
145
0.0
301
CELL_VALUE
 90
4
  1
Y6D
304
ACVALUE_END
170
5
140
0.125
171
1
172
0
173
0
174
0
175
4
176
1
 91
33
178
0
145
0.0
301
CELL_VALUE
 90
4
  1
ALL DIMENSIONS IN INCH\PVIEWS ARE THIRD ANGLE
304
ACVALUE_END
170
5
140
0.12
171
1
172
0
173
1
174
0
175
1
176
1
 91
1
178
0
145
0.0
170
1
171
1
172
0
173
1
174
0
175
1
176
1
 91
1
178
0
145
0.0
170
1
171
1
172
0
173
1
174
0
175
1
176
1
 91
1
178
0
145
0.0
170
5
171
1
172
0
173
0
174
0
175
1
176
1
 91
33
178
0
145
0.0
301
CELL_VALUE
 90
4
  1
 
304
ACVALUE_END
170
1
140
0.125
171
1
172
0
173
0
174
0
175
1
176
1
 91
33
178
0
145
0.0
301
CELL_VALUE
 90
4
  1
MODEL
304
ACVALUE_END
170
1
140
0.06
171
1
172
0
173
0
174
0
175
1
176
1
 91
33
178
0
145
0.0
301
CELL_VALUE
 90
4
  1
 
304
ACVALUE_END
170
1
140
0.125
171
1
172
0
173
0
174
0
175
1
176
1
 91
33
178
0
145
0.0
301
CELL_VALUE
 90
4
  1
 
304
ACVALUE_END
170
1
140
0.125
171
1
172
0
173
0
174
0
175
1
176
1
 91
33
178
0
145
0.0
301
CELL_VALUE
 90
4
  1
 
304
ACVALUE_END
170
1
140
0.125
171
1
172
0
173
0
174
0
175
1
176
1
 91
33
178
0
145
0.0
301
CELL_VALUE
 90
4
  1
 
304
ACVALUE_END
170
1
140
0.125
171
1
172
0
173
0
174
0
175
1
176
1
 91
33
178
0
145
0.0
301
CELL_VALUE
 90
4
  1
 
304
ACVALUE_END
170
1
140
0.125
  0
ACAD_TABLE
  5
297
100
AcDbEntity
  8
0
 62
2
  6
CONTINUOUS
100
AcDbBlockReference
  2
*T2
 10
12.4237499994
 20
16.47875
 30
0.0
100
AcDbTable
342
       418
343
210
 11
1.0
 21
0.0
 31
0.0
 90
22
 91
11
 92
3
 93
16
 94
0
 95
0
 96
0
 41
0.028
141
0.344
141
0.25
141
0.25
141
0.25
141
0.25
141
0.25
141
0.25
141
0.25
141
0.25
141
0.25
141
0.25
142
3.055
142
3.0
142
3.0
171
1
172
0
173
0
174
0
175
1
176
1
 91
33
178
0
145
0.0
301
CELL_VALUE
 90
4
  1
Technical Data
304
ACVALUE_END
170
5
140
0.145
171
1
172
0
173
0
174
0
175
1
176
1
 91
33
178
0
145
0.0
301
CELL_VALUE
 90
4
  1
U.S. Units
304
ACVALUE_END
170
5
140
0.145
171
1
172
0
173
0
174
0
175
1
176
1
 91
33
178
0
145
0.0
301
CELL_VALUE
 90
4
  1
Metric Units
304
ACVALUE_END
170
5
140
0.145
171
1
172
0
173
0
174
0
175
1
176
1
 91
33
178
0
145
0.0
301
CELL_VALUE
 90
4
  1
Cavity
304
ACVALUE_END
170
5
140
0.125
171
1
172
0
173
0
174
0
175
2
176
1
 91
33
178
0
145
0.0
301
CELL_VALUE
 90
4
  1
T-22A
304
ACVALUE_END
170
5
140
0.125
171
1
172
0
173
1
174
0
175
1
176
1
 91
1
178
0
145
0.0
170
1
171
1
172
0
173
0
174
0
175
1
176
1
 91
33
178
0
145
0.0
301
CELL_VALUE
 90
4
  1
Body Features
304
ACVALUE_END
170
5
140
0.125
171
1
172
0
173
0
174
0
175
2
176
1
 91
33
178
0
145
0.0
301
CELL_VALUE
 90
4
  1
Cross pilot with shuttle
304
ACVALUE_END
170
5
140
0.125
171
1
172
0
173
1
174
0
175
1
176
1
 91
1
178
0
145
0.0
170
1
171
1
172
0
173
0
174
0
175
1
176
1
 91
33
178
0
145
0.0
301
CELL_VALUE
 90
4
  1
Body Type
304
ACVALUE_END
170
5
140
0.125
171
1
172
0
173
0
174
0
175
2
176
1
 91
33
178
0
145
0.0
301
CELL_VALUE
 90
4
  1
Line mount
304
ACVALUE_END
170
5
140
0.125
171
1
172
0
173
1
174
0
175
1
176
1
 91
1
178
0
145
0.0
170
1
171
1
172
0
173
0
174
0
175
1
176
1
 91
33
178
0
145
0.0
301
CELL_VALUE
 90
4
  1
Open Cavity Quantity
304
ACVALUE_END
170
5
140
0.125
171
1
172
0
173
0
174
0
175
2
176
1
 91
33
178
0
145
0.0
301
CELL_VALUE
 90
4
  1
2
304
ACVALUE_END
170
5
140
0.125
171
1
172
0
173
1
174
0
175
1
176
1
 91
1
178
0
145
0.0
170
1
171
1
172
0
173
0
174
0
175
1
176
1
 91
33
178
0
145
0.0
301
CELL_VALUE
 90
4
  1
Weight
304
ACVALUE_END
170
5
140
0.125
171
1
172
0
173
0
174
0
175
1
176
1
 91
33
178
0
145
0.0
301
CELL_VALUE
 90
4
  1
4.544 lb.
304
ACVALUE_END
170
5
140
0.125
171
1
172
0
173
0
174
0
175
1
176
1
 91
33
178
0
145
0.0
301
CELL_VALUE
 90
4
  1
2,061 kg.
304
ACVALUE_END
170
5
140
0.125
171
1
172
0
173
0
174
0
175
1
176
1
 91
33
178
0
145
0.0
301
CELL_VALUE
 90
4
  1
Maximum Operating Pressure - 6061-T651 Aluminum
304
ACVALUE_END
170
5
140
0.125
171
1
172
0
173
0
174
0
175
1
176
1
 91
33
178
0
145
0.0
301
CELL_VALUE
 90
4
  1
3000 psi
304
ACVALUE_END
170
5
140
0.125
171
1
172
0
173
0
174
0
175
1
176
1
 91
33
178
0
145
0.0
301
CELL_VALUE
 90
4
  1
210 bar
304
ACVALUE_END
170
5
140
0.125
171
1
172
0
173
0
174
0
175
1
176
1
 91
33
178
0
145
0.0
301
CELL_VALUE
 90
4
  1
Maximum Operating Pressure - 65-45-12 Ductile Iron
304
ACVALUE_END
170
5
140
0.125
171
1
172
0
173
0
174
0
175
1
176
1
 91
33
178
0
145
0.0
301
CELL_VALUE
 90
4
  1
5000 psi
304
ACVALUE_END
170
5
140
0.125
171
1
172
0
173
0
174
0
175
1
176
1
 91
33
178
0
145
0.0
301
CELL_VALUE
 90
4
  1
350 bar
304
ACVALUE_END
170
5
140
0.125
171
1
172
0
173
0
174
0
175
1
176
1
 91
33
178
0
145
0.0
301
CELL_VALUE
 90
4
  1
Mounting Hole Diameter
304
ACVALUE_END
170
5
140
0.125
171
1
172
0
173
0
174
0
175
1
176
1
 91
33
178
0
145
0.0
301
CELL_VALUE
 90
4
  1
.42 in.
304
ACVALUE_END
170
5
140
0.125
171
1
172
0
173
0
174
0
175
1
176
1
 91
33
178
0
145
0.0
301
CELL_VALUE
 90
4
  1
10,7 mm
304
ACVALUE_END
170
5
140
0.125
171
1
172
0
173
0
174
0
175
1
176
1
 91
33
178
0
145
0.0
301
CELL_VALUE
 90
4
  1
Mounting Hole Quantity
304
ACVALUE_END
170
5
140
0.125
171
1
172
0
173
0
174
0
175
2
176
1
 91
33
178
0
145
0.0
301
CELL_VALUE
 90
4
  1
2
304
ACVALUE_END
170
5
140
0.125
171
1
172
0
173
1
174
0
175
1
176
1
 91
1
178
0
145
0.0
170
1
171
1
172
0
173
0
174
0
175
1
176
1
 91
33
178
0
145
0.0
301
CELL_VALUE
 90
4
  1
Includes integral cartridge(s)
304
ACVALUE_END
170
5
140
0.125
171
1
172
0
173
0
174
0
175
2
176
1
 91
33
178
0
145
0.0
301
CELL_VALUE
 90
4
  1
Yes (see Included Components)
304
ACVALUE_END
170
5
140
0.125
171
1
172
0
173
1
174
0
175
1
176
1
 91
1
178
0
145
0.0
170
1
  0
ACAD_TABLE
  5
298
100
AcDbEntity
  8
0
 62
2
  6
CONTINUOUS
100
AcDbBlockReference
  2
*T3
 10
0.52125
 20
1.959
 30
0.0
100
AcDbTable
342
       418
343
211
 11
1.0
 21
0.0
 31
0.0
 90
22
 91
5
 92
3
 93
16
 94
0
 95
0
 96
0
 41
0.05
141
0.34375
141
0.344
141
0.25
141
0.25
141
0.25
142
1.3
142
2.0
142
1.3
171
1
172
0
173
0
174
0
175
3
176
1
 91
33
178
0
145
0.0
301
CELL_VALUE
 90
4
  1
Port Headings
304
ACVALUE_END
170
5
140
0.145
171
1
172
0
173
1
174
0
175
1
176
1
 91
1
178
0
145
0.0
170
1
171
1
172
0
173
1
174
0
175
1
176
1
 91
1
178
0
145
0.0
170
1
171
1
172
0
173
0
174
0
175
1
176
1
 91
33
178
0
145
0.0
301
CELL_VALUE
 90
4
  1
Product
304
ACVALUE_END
170
5
140
0.145
171
1
172
0
173
0
174
0
175
1
176
1
 91
33
178
0
145
0.0
301
CELL_VALUE
 90
4
  1
Port
304
ACVALUE_END
170
5
140
0.145
171
1
172
0
173
0
174
0
175
1
176
1
 91
33
178
0
145
0.0
301
CELL_VALUE
 90
4
  1
Size
304
ACVALUE_END
170
5
140
0.145
171
1
172
0
173
0
174
0
175
1
176
1
 91
33
178
0
145
0.0
301
CELL_VALUE
 90
4
  1
Y6D
304
ACVALUE_END
170
5
140
0.125
171
1
172
0
173
0
174
0
175
1
176
1
 91
33
178
0
145
0.0
301
CELL_VALUE
 90
4
  1
Ports 1A, 1B, 2A, 2B
304
ACVALUE_END
170
5
140
0.125
171
1
172
0
173
0
174
0
175
1
176
1
 91
33
178
0
145
0.0
301
CELL_VALUE
 90
4
  1
3/4" NPTF
304
ACVALUE_END
170
5
140
0.125
171
1
172
0
173
0
174
0
175
1
176
1
 91
33
178
0
145
0.0
301
CELL_VALUE
 90
4
  1
Y6D
304
ACVALUE_END
170
5
140
0.125
171
1
172
0
173
0
174
0
175
1
176
1
 91
33
178
0
145
0.0
301
CELL_VALUE
 90
4
  1
Port 4
304
ACVALUE_END
170
5
140
0.125
171
1
172
0
173
0
174
0
175
1
176
1
 91
33
178
0
145
0.0
301
CELL_VALUE
 90
4
  1
1/4" NPTF
304
ACVALUE_END
170
5
140
0.125
171
1
172
0
173
0
174
0
175
1
176
1
 91
33
178
0
145
0.0
301
CELL_VALUE
 90
4
  1
Y6D
304
ACVALUE_END
170
5
140
0.125
171
1
172
0
173
0
174
0
175
1
176
1
 91
33
178
0
145
0.0
301
CELL_VALUE
 90
4
  1
Port S
304
ACVALUE_END
170
5
140
0.125
171
1
172
0
173
0
174
0
175
1
176
1
 91
33
178
0
145
0.0
301
CELL_VALUE
 90
4
  1
SAE 4
304
ACVALUE_END
170
5
140
0.125
  0
MTEXT
  5
299
100
AcDbEntity
  8
0
100
AcDbMText
 62
2
  6
CONTINUOUS
  7
STANDARD
 71
1
 72
1
 10
0.52125
 20
5.75995
 30
0.0
 11
1.0
 21
0.0
 31
0.0
 44
0.6
  3
Notes\P \P1. Important: Carefully consider\P   the maximum system pressure. The\P   pressure rating of the manifold is\P   dependent on the manifold material,\P   with the port type/size a secondary\P   consideration. Manifolds\P   constructed of alu
  1
minum are not\P   rated for pressures higher than\P   3000 psi (210 bar), regardless of\P   the port type/size specified.
 40
0.1
 41
3.04
  0
LINE
  5
29A
100
AcDbEntity
  8
0
100
AcDbLine
 62
7
  6
CONTINUOUS
 10
0.30125
 20
0.30125
 11
0.30125
 21
16.69875
  0
LINE
  5
29B
100
AcDbEntity
  8
0
100
AcDbLine
 62
7
  6
CONTINUOUS
 10
0.30125
 20
0.30125
 11
21.69875
 21
0.30125
  0
LINE
  5
29C
100
AcDbEntity
  8
0
100
AcDbLine
 62
7
  6
CONTINUOUS
 10
0.30125
 20
16.69875
 11
21.69875
 21
16.69875
  0
LINE
  5
29D
100
AcDbEntity
  8
0
100
AcDbLine
 62
7
  6
CONTINUOUS
 10
21.69875
 20
0.30125
 11
21.69875
 21
16.69875
  0
LINE
  5
29E
100
AcDbEntity
  8
0
100
AcDbLine
 62
7
  6
CONTINUOUS
 10
9.3916717723
 20
11.6027703154
 11
8.7446246936
 21
10.9777707942
  0
LINE
  5
29F
100
AcDbEntity
  8
0
100
AcDbLine
 62
4
  6
CONTINUOUS
 10
9.0730394974
 20
5.8307583366
 11
9.1889506009
 21
5.7551050639
  0
LINE
  5
2A0
100
AcDbEntity
  8
0
100
AcDbLine
 62
7
  6
CONTINUOUS
 10
8.7446246936
 20
5.6651784348
 11
12.6083282277
 21
5.3972296846
  0
LINE
  5
2A1
100
AcDbEntity
  8
0
100
AcDbLine
 62
4
  6
CONTINUOUS
 10
9.2275876353
 20
5.8200403868
 11
9.0730394974
 21
5.8307583366
  0
LINE
  5
2A2
100
AcDbEntity
  8
0
100
AcDbLine
 62
4
  6
CONTINUOUS
 10
10.6384833643
 20
5.7318536943
 11
10.6642413812
 21
5.7300673697
  0
LINE
  5
2A3
100
AcDbEntity
  8
0
100
AcDbLine
 62
4
  6
CONTINUOUS
 10
10.7286364417
 20
5.6579867468
 11
10.7672734762
 21
5.6456480007
  0
LINE
  5
2A4
100
AcDbEntity
  8
0
100
AcDbLine
 62
4
  6
CONTINUOUS
 10
8.8315580265
 20
9.9043938237
 11
8.844437035
 21
9.9228191787
  0
LINE
  5
2A5
100
AcDbEntity
  8
0
100
AcDbLine
 62
4
  6
CONTINUOUS
 10
10.7672734762
 20
5.79053688
 11
10.6127253383
 21
5.8495511229
  0
LINE
  5
2A6
100
AcDbEntity
  8
0
100
AcDbLine
 62
4
  6
CONTINUOUS
 10
8.8315580265
 20
9.44074941
 11
8.844437035
 21
9.459174765
  0
LINE
  5
2A7
100
AcDbEntity
  8
0
100
AcDbLine
 62
4
  6
CONTINUOUS
 10
8.844437035
 20
9.9228191787
 11
8.8573160526
 21
9.9315852744
  0
LINE
  5
2A8
100
AcDbEntity
  8
0
100
AcDbLine
 62
4
  6
CONTINUOUS
 10
10.6127253383
 20
5.8495511229
 11
10.7672734762
 21
5.8871294662
  0
LINE
  5
2A9
100
AcDbEntity
  8
0
100
AcDbLine
 62
4
  6
CONTINUOUS
 10
10.6384833643
 20
5.6545796253
 11
10.6256043467
 21
5.6651320468
  0
LINE
  5
2AA
100
AcDbEntity
  8
0
100
AcDbLine
 62
4
  6
CONTINUOUS
 10
8.8573160526
 20
7.1835261513
 11
8.844437035
 21
7.1940785729
  0
LINE
  5
2AB
100
AcDbEntity
  8
0
100
AcDbLine
 62
4
  6
CONTINUOUS
 10
10.7028784202
 20
5.6790915889
 11
10.7286364417
 21
5.6579867468
  0
LINE
  5
2AC
100
AcDbEntity
  8
0
100
AcDbLine
 62
4
  6
CONTINUOUS
 10
10.6642413812
 20
5.7300673697
 11
10.6771203988
 21
5.7195149482
  0
LINE
  5
2AD
100
AcDbEntity
  8
0
100
AcDbLine
 62
4
  6
CONTINUOUS
 10
8.9217111085
 20
7.2080381149
 11
8.94746913
 21
7.1869332728
  0
LINE
  5
2AE
100
AcDbEntity
  8
0
100
AcDbLine
 62
4
  6
CONTINUOUS
 10
8.8830740694
 20
7.2590138957
 11
8.8959530871
 21
7.2484614742
  0
LINE
  5
2AF
100
AcDbEntity
  8
0
100
AcDbLine
 62
4
  6
CONTINUOUS
 10
8.844437035
 20
7.1940785729
 11
8.8315580265
 21
7.2142902524
  0
LINE
  5
2B0
100
AcDbEntity
  8
0
100
AcDbLine
 62
4
  6
CONTINUOUS
 10
8.8959530871
 20
7.2484614742
 11
8.9217111085
 21
7.2080381149
  0
LINE
  5
2B1
100
AcDbEntity
  8
0
100
AcDbLine
 62
4
  6
CONTINUOUS
 10
8.844437035
 20
7.3486267108
 11
8.8315580265
 21
7.3688383903
  0
LINE
  5
2B2
100
AcDbEntity
  8
0
100
AcDbLine
 62
4
  6
CONTINUOUS
 10
8.8959530871
 20
7.4030096121
 11
8.9217111085
 21
7.3625862528
  0
LINE
  5
2B3
100
AcDbEntity
  8
0
100
AcDbLine
 62
7
  6
CONTINUOUS
 10
8.7446246936
 20
5.6651784348
 11
8.7446246936
 21
10.9777707942
  0
LINE
  5
2B4
100
AcDbEntity
  8
0
100
AcDbLine
 62
4
  6
CONTINUOUS
 10
8.8315580265
 20
6.8665569421
 11
8.8315580265
 21
6.9631495283
  0
LINE
  5
2B5
100
AcDbEntity
  8
0
100
AcDbLine
 62
4
  6
CONTINUOUS
 10
8.8315580265
 20
7.2142902524
 11
8.8315580265
 21
7.2336087696
  0
LINE
  5
2B6
100
AcDbEntity
  8
0
100
AcDbLine
 62
4
  6
CONTINUOUS
 10
8.8315580265
 20
7.3688383903
 11
8.8315580265
 21
7.3881569075
  0
LINE
  5
2B7
100
AcDbEntity
  8
0
100
AcDbLine
 62
4
  6
CONTINUOUS
 10
8.8315580265
 20
8.9191494445
 11
8.8315580265
 21
9.0157420307
  0
LINE
  5
2B8
100
AcDbEntity
  8
0
100
AcDbLine
 62
4
  6
CONTINUOUS
 10
8.8315580265
 20
9.2668827548
 11
8.8315580265
 21
9.2862012721
  0
LINE
  5
2B9
100
AcDbEntity
  8
0
100
AcDbLine
 62
4
  6
CONTINUOUS
 10
8.8315580265
 20
9.4214308928
 11
8.8315580265
 21
9.44074941
  0
LINE
  5
2BA
100
AcDbEntity
  8
0
100
AcDbLine
 62
4
  6
CONTINUOUS
 10
8.8315580265
 20
9.8850753065
 11
8.8315580265
 21
9.9043938237
  0
LINE
  5
2BB
100
AcDbEntity
  8
0
100
AcDbLine
 62
4
  6
CONTINUOUS
 10
8.9088320955
 20
7.0350646223
 11
8.9088320955
 21
7.093020174
  0
LINE
  5
2BC
100
AcDbEntity
  8
0
100
AcDbLine
 62
4
  6
CONTINUOUS
 10
8.9088320955
 20
7.653257174
 11
8.9088320955
 21
7.7112127257
  0
LINE
  5
2BD
100
AcDbEntity
  8
0
100
AcDbLine
 62
4
  6
CONTINUOUS
 10
8.9088320955
 20
9.0876571248
 11
8.9088320955
 21
9.1456126765
  0
LINE
  5
2BE
100
AcDbEntity
  8
0
100
AcDbLine
 62
4
  6
CONTINUOUS
 10
8.9088320955
 20
9.7058496765
 11
8.9088320955
 21
9.7638052282
  0
LINE
  5
2BF
100
AcDbEntity
  8
0
100
AcDbLine
 62
4
  6
CONTINUOUS
 10
8.9345901169
 20
7.4969227112
 11
8.9345901169
 21
7.5548782629
  0
LINE
  5
2C0
100
AcDbEntity
  8
0
100
AcDbLine
 62
4
  6
CONTINUOUS
 10
8.9345901169
 20
9.5495152137
 11
8.9345901169
 21
9.6074707654
  0
LINE
  5
2C1
100
AcDbEntity
  8
0
100
AcDbLine
 62
4
  6
CONTINUOUS
 10
8.9861061645
 20
7.1745945267
 11
8.9861061645
 21
7.2518685957
  0
LINE
  5
2C2
100
AcDbEntity
  8
0
100
AcDbLine
 62
4
  6
CONTINUOUS
 10
8.9861061645
 20
7.3291426646
 11
8.9861061645
 21
7.4064167336
  0
LINE
  5
2C3
100
AcDbEntity
  8
0
100
AcDbLine
 62
4
  6
CONTINUOUS
 10
8.9861061645
 20
9.2271870292
 11
8.9861061645
 21
9.3044610982
  0
LINE
  5
2C4
100
AcDbEntity
  8
0
100
AcDbLine
 62
4
  6
CONTINUOUS
 10
8.9861061645
 20
9.3817351671
 11
8.9861061645
 21
9.4590092361
  0
LINE
  5
2C5
100
AcDbEntity
  8
0
100
AcDbLine
 62
4
  6
CONTINUOUS
 10
8.9861061645
 20
9.8453795809
 11
8.9861061645
 21
9.9226536498
  0
LINE
  5
2C6
100
AcDbEntity
  8
0
100
AcDbLine
 62
4
  6
CONTINUOUS
 10
8.8315580265
 20
9.2862012721
 11
8.844437035
 21
9.3046266271
  0
LINE
  5
2C7
100
AcDbEntity
  8
0
100
AcDbLine
 62
4
  6
CONTINUOUS
 10
10.6256043467
 20
10.76811868
 11
10.6127253383
 21
10.7593525837
  0
LINE
  5
2C8
100
AcDbEntity
  8
0
100
AcDbLine
 62
4
  6
CONTINUOUS
 10
10.7028784202
 20
10.7724189634
 11
10.6771203988
 21
10.7548867711
  0
LINE
  5
2C9
100
AcDbEntity
  8
0
100
AcDbLine
 62
4
  6
CONTINUOUS
 10
8.8573160526
 20
7.3380742892
 11
8.844437035
 21
7.3486267108
  0
LINE
  5
2CA
100
AcDbEntity
  8
0
100
AcDbLine
 62
4
  6
CONTINUOUS
 10
8.9217111085
 20
7.3625862528
 11
8.94746913
 21
7.3414814107
  0
LINE
  5
2CB
100
AcDbEntity
  8
0
100
AcDbLine
 62
4
  6
CONTINUOUS
 10
8.8830740694
 20
7.4135620337
 11
8.8959530871
 21
7.4030096121
  0
LINE
  5
2CC
100
AcDbEntity
  8
0
100
AcDbLine
 62
4
  6
CONTINUOUS
 10
9.1889506009
 20
5.7551050639
 11
9.1889506009
 21
5.8420383915
  0
LINE
  5
2CD
100
AcDbEntity
  8
0
100
AcDbLine
 62
4
  6
CONTINUOUS
 10
8.844437035
 20
9.459174765
 11
8.8573160526
 21
9.4679408607
  0
LINE
  5
2CE
100
AcDbEntity
  8
0
100
AcDbLine
 62
4
  6
CONTINUOUS
 10
10.6256043467
 20
10.6135705421
 11
10.6384833643
 21
10.6223366378
  0
LINE
  5
2CF
100
AcDbEntity
  8
0
100
AcDbLine
 62
4
  6
CONTINUOUS
 10
8.844437035
 20
9.3046266271
 11
8.8573160526
 21
9.3133927228
  0
LINE
  5
2D0
100
AcDbEntity
  8
0
100
AcDbLine
 62
4
  6
CONTINUOUS
 10
8.94746913
 20
7.1869332728
 11
8.9861061645
 21
7.1745945267
  0
LINE
  5
2D1
100
AcDbEntity
  8
0
100
AcDbLine
 62
4
  6
CONTINUOUS
 10
9.2931326059
 20
7.5603709746
 11
9.2710543018
 21
7.5839804166
  0
LINE
  5
2D2
100
AcDbEntity
  8
0
100
AcDbLine
 62
4
  6
CONTINUOUS
 10
9.4256024397
 20
7.6063799253
 11
9.4035241333
 21
7.6299893651
  0
LINE
  5
2D3
100
AcDbEntity
  8
0
100
AcDbLine
 62
4
  6
CONTINUOUS
 10
10.6256043467
 20
5.6651320468
 11
10.6127253383
 21
5.6853437263
  0
LINE
  5
2D4
100
AcDbEntity
  8
0
100
AcDbLine
 62
4
  6
CONTINUOUS
 10
10.6771203988
 20
5.7195149482
 11
10.7028784202
 21
5.6790915889
  0
LINE
  5
2D5
100
AcDbEntity
  8
0
100
AcDbLine
 62
4
  6
CONTINUOUS
 10
9.2710543018
 20
7.5839804166
 11
9.2710543018
 21
7.6281370271
  0
LINE
  5
2D6
100
AcDbEntity
  8
0
100
AcDbLine
 62
4
  6
CONTINUOUS
 10
9.2710543018
 20
8.7835683256
 11
9.2710543018
 21
8.7872480292
  0
LINE
  5
2D7
100
AcDbEntity
  8
0
100
AcDbLine
 62
4
  6
CONTINUOUS
 10
9.31521091
 20
8.5155664421
 11
9.31521091
 21
8.4603706681
  0
LINE
  5
2D8
100
AcDbEntity
  8
0
100
AcDbLine
 62
4
  6
CONTINUOUS
 10
9.31521091
 20
8.0445625476
 11
9.31521091
 21
8.0997583217
  0
LINE
  5
2D9
100
AcDbEntity
  8
0
100
AcDbLine
 62
4
  6
CONTINUOUS
 10
9.31521091
 20
8.272705051
 11
9.31521091
 21
8.3168616407
  0
LINE
  5
2DA
100
AcDbEntity
  8
0
100
AcDbLine
 62
4
  6
CONTINUOUS
 10
9.31521091
 20
8.3610183042
 11
9.31521091
 21
8.405174894
  0
LINE
  5
2DB
100
AcDbEntity
  8
0
100
AcDbLine
 62
4
  6
CONTINUOUS
 10
9.31521091
 20
8.8504206427
 11
9.31521091
 21
8.8945773798
  0
LINE
  5
2DC
100
AcDbEntity
  8
0
100
AcDbLine
 62
4
  6
CONTINUOUS
 10
9.31521091
 20
8.9497730802
 11
9.31521091
 21
8.99392967
  0
LINE
  5
2DD
100
AcDbEntity
  8
0
100
AcDbLine
 62
4
  6
CONTINUOUS
 10
9.3704066749
 20
8.4786211236
 11
9.3704066749
 21
8.5227777134
  0
LINE
  5
2DE
100
AcDbEntity
  8
0
100
AcDbLine
 62
4
  6
CONTINUOUS
 10
9.4256024397
 20
8.8869217012
 11
9.4256024397
 21
8.8427649641
  0
LINE
  5
2DF
100
AcDbEntity
  8
0
100
AcDbLine
 62
4
  6
CONTINUOUS
 10
9.4256024397
 20
8.7066154912
 11
9.4256024397
 21
8.6845371963
  0
LINE
  5
2E0
100
AcDbEntity
  8
0
100
AcDbLine
 62
4
  6
CONTINUOUS
 10
9.4256024397
 20
8.5189498741
 11
9.4256024397
 21
8.4747932844
  0
LINE
  5
2E1
100
AcDbEntity
  8
0
100
AcDbLine
 62
4
  6
CONTINUOUS
 10
9.4256024397
 20
8.3092059622
 11
9.4256024397
 21
8.2650493724
  0
LINE
  5
2E2
100
AcDbEntity
  8
0
100
AcDbLine
 62
4
  6
CONTINUOUS
 10
9.4256024397
 20
7.5622233136
 11
9.4256024397
 21
7.6063799253
  0
LINE
  5
2E3
100
AcDbEntity
  8
0
100
AcDbLine
 62
4
  6
CONTINUOUS
 10
9.4256024397
 20
7.6946931417
 11
9.4256024397
 21
7.7278106117
  0
LINE
  5
2E4
100
AcDbEntity
  8
0
100
AcDbLine
 62
4
  6
CONTINUOUS
 10
9.4256024397
 20
8.5741456482
 11
9.4256024397
 21
8.6293414223
  0
LINE
  5
2E5
100
AcDbEntity
  8
0
100
AcDbLine
 62
4
  6
CONTINUOUS
 10
9.4256024397
 20
8.9421174016
 11
9.4256024397
 21
8.9862739914
  0
LINE
  5
2E6
100
AcDbEntity
  8
0
100
AcDbLine
 62
4
  6
CONTINUOUS
 10
9.4623996155
 20
8.1447465244
 11
9.4623996155
 21
8.1668248193
  0
LINE
  5
2E7
100
AcDbEntity
  8
0
100
AcDbLine
 62
4
  6
CONTINUOUS
 10
9.3740863922
 20
8.9898466414
 11
9.3667269575
 21
8.9462004302
  0
LINE
  5
2E8
100
AcDbEntity
  8
0
100
AcDbLine
 62
4
  6
CONTINUOUS
 10
9.3814458269
 20
9.0003753735
 11
9.3740863922
 21
8.9898466414
  0
LINE
  5
2E9
100
AcDbEntity
  8
0
100
AcDbLine
 62
4
  6
CONTINUOUS
 10
9.3667269575
 20
8.9462004302
 11
9.3593675228
 21
8.9356716981
  0
LINE
  5
2EA
100
AcDbEntity
  8
0
100
AcDbLine
 62
4
  6
CONTINUOUS
 10
10.6127253383
 20
10.5951451871
 11
10.6256043467
 21
10.6135705421
  0
LINE
  5
2EB
100
AcDbEntity
  8
0
100
AcDbLine
 62
4
  6
CONTINUOUS
 10
9.31521091
 20
8.99392967
 11
9.3262500667
 21
9.0042032125
  0
LINE
  5
2EC
100
AcDbEntity
  8
0
100
AcDbLine
 62
4
  6
CONTINUOUS
 10
12.3330393543
 20
7.2612394669
 11
12.4875874922
 21
7.2988178102
  0
LINE
  5
2ED
100
AcDbEntity
  8
0
100
AcDbLine
 62
4
  6
CONTINUOUS
 10
8.8315580265
 20
6.9148532352
 11
8.9861061645
 21
6.9041352854
  0
LINE
  5
2EE
100
AcDbEntity
  8
0
100
AcDbLine
 62
4
  6
CONTINUOUS
 10
8.94746913
 20
7.3414814107
 11
8.9861061645
 21
7.3291426646
  0
LINE
  5
2EF
100
AcDbEntity
  8
0
100
AcDbLine
 62
4
  6
CONTINUOUS
 10
8.9861061645
 20
7.4740315439
 11
8.8315580265
 21
7.5330457868
  0
LINE
  5
2F0
100
AcDbEntity
  8
0
100
AcDbLine
 62
4
  6
CONTINUOUS
 10
9.4256024397
 20
7.7278106117
 11
9.4035241333
 21
7.7514200423
  0
LINE
  5
2F1
100
AcDbEntity
  8
0
100
AcDbLine
 62
4
  6
CONTINUOUS
 10
9.3262500667
 20
8.249861188
 11
9.31521091
 21
8.272705051
  0
LINE
  5
2F2
100
AcDbEntity
  8
0
100
AcDbLine
 62
4
  6
CONTINUOUS
 10
9.7192439018
 20
8.3421977785
 11
9.7192439018
 21
8.3973935342
  0
LINE
  5
2F3
100
AcDbEntity
  8
0
100
AcDbLine
 62
4
  6
CONTINUOUS
 10
9.4256024397
 20
8.4747932844
 11
9.4145632865
 21
8.4534805573
  0
LINE
  5
2F4
100
AcDbEntity
  8
0
100
AcDbLine
 62
4
  6
CONTINUOUS
 10
9.4256024397
 20
8.2650493724
 11
9.4145632865
 21
8.2437366454
  0
LINE
  5
2F5
100
AcDbEntity
  8
0
100
AcDbLine
 62
4
  6
CONTINUOUS
 10
9.4145632865
 20
8.9318438589
 11
9.4256024397
 21
8.9421174016
  0
LINE
  5
2F6
100
AcDbEntity
  8
0
100
AcDbLine
 62
4
  6
CONTINUOUS
 10
9.4256024397
 20
8.8427649641
 11
9.4145632865
 21
8.8324914214
  0
LINE
  5
2F7
100
AcDbEntity
  8
0
100
AcDbLine
 62
4
  6
CONTINUOUS
 10
8.8573160526
 20
7.2608002203
 11
8.8830740694
 21
7.2590138957
  0
LINE
  5
2F8
100
AcDbEntity
  8
0
100
AcDbLine
 62
4
  6
CONTINUOUS
 10
12.3330393543
 20
7.106691329
 11
12.4875874922
 21
7.0959733792
  0
LINE
  5
2F9
100
AcDbEntity
  8
0
100
AcDbLine
 62
4
  6
CONTINUOUS
 10
8.844437035
 20
9.2466710753
 11
8.8315580265
 21
9.2668827548
  0
LINE
  5
2FA
100
AcDbEntity
  8
0
100
AcDbLine
 62
4
  6
CONTINUOUS
 10
8.8959530871
 20
9.3010539767
 11
8.9217111085
 21
9.2606306174
  0
LINE
  5
2FB
100
AcDbEntity
  8
0
100
AcDbLine
 62
4
  6
CONTINUOUS
 10
8.844437035
 20
9.4012192132
 11
8.8315580265
 21
9.4214308928
  0
LINE
  5
2FC
100
AcDbEntity
  8
0
100
AcDbLine
 62
4
  6
CONTINUOUS
 10
8.8959530871
 20
9.4556021146
 11
8.9217111085
 21
9.4151787553
  0
LINE
  5
2FD
100
AcDbEntity
  8
0
100
AcDbLine
 62
4
  6
CONTINUOUS
 10
9.3814458269
 20
8.455777261
 11
9.3704066749
 21
8.4786211236
  0
LINE
  5
2FE
100
AcDbEntity
  8
0
100
AcDbLine
 62
4
  6
CONTINUOUS
 10
9.7854788141
 20
8.2713694503
 11
9.7854788141
 21
8.2235331201
  0
LINE
  5
2FF
100
AcDbEntity
  8
0
100
AcDbLine
 62
4
  6
CONTINUOUS
 10
9.8737920397
 20
8.3866755844
 11
9.8737920397
 21
8.3314798288
  0
LINE
  5
300
100
AcDbEntity
  8
0
100
AcDbLine
 62
4
  6
CONTINUOUS
 10
9.8737920397
 20
8.2321274465
 11
9.8737920397
 21
8.2652449073
  0
LINE
  5
301
100
AcDbEntity
  8
0
100
AcDbLine
 62
4
  6
CONTINUOUS
 10
8.8315580265
 20
7.3881569075
 11
8.844437035
 21
7.4065822625
  0
LINE
  5
302
100
AcDbEntity
  8
0
100
AcDbLine
 62
4
  6
CONTINUOUS
 10
8.8315580265
 20
7.2336087696
 11
8.844437035
 21
7.2520341246
  0
LINE
  5
303
100
AcDbEntity
  8
0
100
AcDbLine
 62
4
  6
CONTINUOUS
 10
9.4256024397
 20
8.6845371963
 11
9.4145632865
 21
8.6742635799
  0
LINE
  5
304
100
AcDbEntity
  8
0
100
AcDbLine
 62
4
  6
CONTINUOUS
 10
9.4145632865
 20
8.5638720318
 11
9.4256024397
 21
8.5741456482
  0
LINE
  5
305
100
AcDbEntity
  8
0
100
AcDbLine
 62
4
  6
CONTINUOUS
 10
8.8573160526
 20
7.4153483582
 11
8.8830740694
 21
7.4135620337
  0
LINE
  5
306
100
AcDbEntity
  8
0
100
AcDbLine
 62
4
  6
CONTINUOUS
 10
9.31521091
 20
7.558839839
 11
9.2931326059
 21
7.5603709746
  0
LINE
  5
307
100
AcDbEntity
  8
0
100
AcDbLine
 62
4
  6
CONTINUOUS
 10
9.7854788141
 20
8.1278604644
 11
9.7192439018
 21
8.176610484
  0
LINE
  5
308
100
AcDbEntity
  8
0
100
AcDbLine
 62
4
  6
CONTINUOUS
 10
10.1917196367
 20
7.7445949133
 11
10.2137979431
 21
7.7209854735
  0
LINE
  5
309
100
AcDbEntity
  8
0
100
AcDbLine
 62
4
  6
CONTINUOUS
 10
9.7192439018
 20
8.275962857
 11
9.7523613625
 21
8.2405486926
  0
LINE
  5
30A
100
AcDbEntity
  8
0
100
AcDbLine
 62
4
  6
CONTINUOUS
 10
9.3262500667
 20
8.838615964
 11
9.31521091
 21
8.8504206427
  0
LINE
  5
30B
100
AcDbEntity
  8
0
100
AcDbLine
 62
4
  6
CONTINUOUS
 10
8.844437035
 20
9.864863627
 11
8.8315580265
 21
9.8850753065
  0
LINE
  5
30C
100
AcDbEntity
  8
0
100
AcDbLine
 62
4
  6
CONTINUOUS
 10
8.8959530871
 20
9.9192465283
 11
8.9217111085
 21
9.878823169
  0
LINE
  5
30D
100
AcDbEntity
  8
0
100
AcDbLine
 62
4
  6
CONTINUOUS
 10
10.1181252828
 20
7.642986896
 11
10.1475630262
 21
7.5820698993
  0
LINE
  5
30E
100
AcDbEntity
  8
0
100
AcDbLine
 62
4
  6
CONTINUOUS
 10
10.0592498052
 20
7.6765076676
 11
10.0592498052
 21
7.7317034233
  0
LINE
  5
30F
100
AcDbEntity
  8
0
100
AcDbLine
 62
4
  6
CONTINUOUS
 10
10.0592498052
 20
7.9488067515
 11
10.0592498052
 21
8.0371199679
  0
LINE
  5
310
100
AcDbEntity
  8
0
100
AcDbLine
 62
4
  6
CONTINUOUS
 10
10.0592498052
 20
8.0812765945
 11
10.0592498052
 21
8.147511516
  0
LINE
  5
311
100
AcDbEntity
  8
0
100
AcDbLine
 62
4
  6
CONTINUOUS
 10
10.0592498052
 20
8.3351771331
 11
10.0592498052
 21
8.3793337229
  0
LINE
  5
312
100
AcDbEntity
  8
0
100
AcDbLine
 62
4
  6
CONTINUOUS
 10
10.0592498052
 20
8.4639671989
 11
10.0592498052
 21
8.4970846781
  0
LINE
  5
313
100
AcDbEntity
  8
0
100
AcDbLine
 62
4
  6
CONTINUOUS
 10
10.0592498052
 20
8.5633195628
 11
10.0592498052
 21
8.6185153368
  0
LINE
  5
314
100
AcDbEntity
  8
0
100
AcDbLine
 62
4
  6
CONTINUOUS
 10
10.0592498052
 20
8.7031488866
 11
10.0592498052
 21
8.7693837712
  0
LINE
  5
315
100
AcDbEntity
  8
0
100
AcDbLine
 62
4
  6
CONTINUOUS
 10
10.1254847175
 20
8.7427120696
 11
10.1254847175
 21
8.6985554798
  0
LINE
  5
316
100
AcDbEntity
  8
0
100
AcDbLine
 62
4
  6
CONTINUOUS
 10
10.1254847175
 20
8.1208398144
 11
10.1254847175
 21
8.0766831878
  0
LINE
  5
317
100
AcDbEntity
  8
0
100
AcDbLine
 62
4
  6
CONTINUOUS
 10
10.1696413303
 20
7.8234001181
 11
10.1696413303
 21
7.8822755956
  0
LINE
  5
318
100
AcDbEntity
  8
0
100
AcDbLine
 62
4
  6
CONTINUOUS
 10
10.2137979431
 20
8.6077973871
 11
10.2137979431
 21
8.552601613
  0
LINE
  5
319
100
AcDbEntity
  8
0
100
AcDbLine
 62
4
  6
CONTINUOUS
 10
10.2137979431
 20
8.4863667283
 11
10.2137979431
 21
8.4532492492
  0
LINE
  5
31A
100
AcDbEntity
  8
0
100
AcDbLine
 62
4
  6
CONTINUOUS
 10
10.2137979431
 20
8.3686157731
 11
10.2137979431
 21
8.3244591834
  0
LINE
  5
31B
100
AcDbEntity
  8
0
100
AcDbLine
 62
4
  6
CONTINUOUS
 10
10.2137979431
 20
7.7209854735
 11
10.2137979431
 21
7.6657897179
  0
LINE
  5
31C
100
AcDbEntity
  8
0
100
AcDbLine
 62
4
  6
CONTINUOUS
 10
10.2137979431
 20
8.0705586448
 11
10.2137979431
 21
8.1367935663
  0
LINE
  5
31D
100
AcDbEntity
  8
0
100
AcDbLine
 62
4
  6
CONTINUOUS
 10
10.2137979431
 20
8.6924309368
 11
10.2137979431
 21
8.7586658215
  0
LINE
  5
31E
100
AcDbEntity
  8
0
100
AcDbLine
 62
4
  6
CONTINUOUS
 10
10.1181252828
 20
8.8094573328
 11
10.1475630262
 21
8.8662912959
  0
LINE
  5
31F
100
AcDbEntity
  8
0
100
AcDbLine
 62
4
  6
CONTINUOUS
 10
9.31521091
 20
8.0997583217
 11
9.3262500667
 21
8.110031901
  0
LINE
  5
320
100
AcDbEntity
  8
0
100
AcDbLine
 62
4
  6
CONTINUOUS
 10
9.7192439018
 20
8.3973935342
 11
9.7413222059
 21
8.4179406935
  0
LINE
  5
321
100
AcDbEntity
  8
0
100
AcDbLine
 62
4
  6
CONTINUOUS
 10
9.31521091
 20
8.405174894
 11
9.3262500667
 21
8.4117687329
  0
LINE
  5
322
100
AcDbEntity
  8
0
100
AcDbLine
 62
4
  6
CONTINUOUS
 10
9.4035241333
 20
7.6299893651
 11
9.3814458269
 21
7.6315205009
  0
LINE
  5
323
100
AcDbEntity
  8
0
100
AcDbLine
 62
4
  6
CONTINUOUS
 10
9.2710543018
 20
7.6833327874
 11
9.4035241333
 21
7.6741459733
  0
LINE
  5
324
100
AcDbEntity
  8
0
100
AcDbLine
 62
4
  6
CONTINUOUS
 10
10.2137979431
 20
7.6657897179
 11
10.0592498052
 21
7.6765076676
  0
LINE
  5
325
100
AcDbEntity
  8
0
100
AcDbLine
 62
4
  6
CONTINUOUS
 10
9.4035241333
 20
7.7514200423
 11
9.2710543018
 21
7.7606068563
  0
LINE
  5
326
100
AcDbEntity
  8
0
100
AcDbLine
 62
4
  6
CONTINUOUS
 10
9.4256024397
 20
7.7940455147
 11
9.2710543018
 21
7.8047634645
  0
LINE
  5
327
100
AcDbEntity
  8
0
100
AcDbLine
 62
4
  6
CONTINUOUS
 10
10.0813281093
 20
7.7522505918
 11
10.1917196367
 21
7.7445949133
  0
LINE
  5
328
100
AcDbEntity
  8
0
100
AcDbLine
 62
4
  6
CONTINUOUS
 10
8.8315580265
 20
7.8421420626
 11
8.9861061645
 21
7.8314241128
  0
LINE
  5
329
100
AcDbEntity
  8
0
100
AcDbLine
 62
4
  6
CONTINUOUS
 10
9.4256024397
 20
7.8713195837
 11
9.2710543018
 21
7.8820375335
  0
LINE
  5
32A
100
AcDbEntity
  8
0
100
AcDbLine
 62
4
  6
CONTINUOUS
 10
10.2137979431
 20
7.8056189772
 11
10.0592498052
 21
7.8604935351
  0
LINE
  5
32B
100
AcDbEntity
  8
0
100
AcDbLine
 62
4
  6
CONTINUOUS
 10
9.4623996155
 20
8.1668248193
 11
9.31521091
 21
8.2211889804
  0
LINE
  5
32C
100
AcDbEntity
  8
0
100
AcDbLine
 62
4
  6
CONTINUOUS
 10
9.7523613625
 20
8.2405486926
 11
9.7965179707
 21
8.2154081173
  0
LINE
  5
32D
100
AcDbEntity
  8
0
100
AcDbLine
 62
4
  6
CONTINUOUS
 10
8.8573160526
 20
9.2361186538
 11
8.844437035
 21
9.2466710753
  0
LINE
  5
32E
100
AcDbEntity
  8
0
100
AcDbLine
 62
4
  6
CONTINUOUS
 10
9.8737920397
 20
8.2652449073
 11
9.8517137333
 21
8.2888543379
  0
LINE
  5
32F
100
AcDbEntity
  8
0
100
AcDbLine
 62
4
  6
CONTINUOUS
 10
9.3262500667
 20
8.9379684015
 11
9.31521091
 21
8.9497730802
  0
LINE
  5
330
100
AcDbEntity
  8
0
100
AcDbLine
 62
4
  6
CONTINUOUS
 10
9.8517137333
 20
8.4102850151
 11
9.8737920397
 21
8.3866755844
  0
LINE
  5
331
100
AcDbEntity
  8
0
100
AcDbLine
 62
4
  6
CONTINUOUS
 10
9.4256024397
 20
8.9862739914
 11
9.4145632865
 21
8.9980786699
  0
LINE
  5
332
100
AcDbEntity
  8
0
100
AcDbLine
 62
4
  6
CONTINUOUS
 10
10.0813281093
 20
8.3115677027
 11
10.0592498052
 21
8.3351771331
  0
LINE
  5
333
100
AcDbEntity
  8
0
100
AcDbLine
 62
4
  6
CONTINUOUS
 10
10.6555480666
 20
8.8699293746
 11
10.6426690581
 21
8.8515040196
  0
LINE
  5
334
100
AcDbEntity
  8
0
100
AcDbLine
 62
4
  6
CONTINUOUS
 10
9.3814458269
 20
7.6315205009
 11
9.31521091
 21
7.558839839
  0
LINE
  5
335
100
AcDbEntity
  8
0
100
AcDbLine
 62
4
  6
CONTINUOUS
 10
10.0592498052
 20
8.6185153368
 11
10.0813281093
 21
8.6390624961
  0
LINE
  5
336
100
AcDbEntity
  8
0
100
AcDbLine
 62
4
  6
CONTINUOUS
 10
9.8075571228
 20
8.2919166092
 11
9.7854788141
 21
8.2713694503
  0
LINE
  5
337
100
AcDbEntity
  8
0
100
AcDbLine
 62
4
  6
CONTINUOUS
 10
10.0592498052
 20
8.4970846781
 11
10.0813281093
 21
8.5176318374
  0
LINE
  5
338
100
AcDbEntity
  8
0
100
AcDbLine
 62
4
  6
CONTINUOUS
 10
9.8517137333
 20
8.2115802782
 11
9.8737920397
 21
8.2321274465
  0
LINE
  5
339
100
AcDbEntity
  8
0
100
AcDbLine
 62
4
  6
CONTINUOUS
 10
9.2710543018
 20
7.6281370271
 11
9.2820934585
 21
7.638410611
  0
LINE
  5
33A
100
AcDbEntity
  8
0
100
AcDbLine
 62
4
  6
CONTINUOUS
 10
10.2137979431
 20
8.4532492492
 11
10.1917196367
 21
8.43270209
  0
LINE
  5
33B
100
AcDbEntity
  8
0
100
AcDbLine
 62
4
  6
CONTINUOUS
 10
9.4035241333
 20
7.6741459733
 11
9.4256024397
 21
7.6946931417
  0
LINE
  5
33C
100
AcDbEntity
  8
0
100
AcDbLine
 62
4
  6
CONTINUOUS
 10
10.6684270842
 20
8.8786954703
 11
10.6555480666
 21
8.8699293746
  0
LINE
  5
33D
100
AcDbEntity
  8
0
100
AcDbLine
 62
4
  6
CONTINUOUS
 10
9.3372892141
 20
8.5250744171
 11
9.31521091
 21
8.5155664421
  0
LINE
  5
33E
100
AcDbEntity
  8
0
100
AcDbLine
 62
4
  6
CONTINUOUS
 10
11.3622838388
 20
7.9081171239
 11
11.3236468043
 21
7.9011373527
  0
LINE
  5
33F
100
AcDbEntity
  8
0
100
AcDbLine
 62
4
  6
CONTINUOUS
 10
9.4256024397
 20
8.036906869
 11
9.2710543018
 21
8.0476248188
  0
LINE
  5
340
100
AcDbEntity
  8
0
100
AcDbLine
 62
4
  6
CONTINUOUS
 10
10.2137979431
 20
7.9822454284
 11
10.0592498052
 21
7.9929633781
  0
LINE
  5
341
100
AcDbEntity
  8
0
100
AcDbLine
 62
4
  6
CONTINUOUS
 10
9.3262500667
 20
8.110031901
 11
9.4256024397
 21
8.1031417906
  0
LINE
  5
342
100
AcDbEntity
  8
0
100
AcDbLine
 62
4
  6
CONTINUOUS
 10
10.2137979431
 20
8.0705586448
 11
10.0592498052
 21
8.0812765945
  0
LINE
  5
343
100
AcDbEntity
  8
0
100
AcDbLine
 62
4
  6
CONTINUOUS
 10
12.4875874922
 20
7.202225224
 11
12.3330393543
 21
7.2612394669
  0
LINE
  5
344
100
AcDbEntity
  8
0
100
AcDbLine
 62
4
  6
CONTINUOUS
 10
8.9217111085
 20
9.2606306174
 11
8.94746913
 21
9.2395257753
  0
LINE
  5
345
100
AcDbEntity
  8
0
100
AcDbLine
 62
4
  6
CONTINUOUS
 10
8.8830740694
 20
9.3116063982
 11
8.8959530871
 21
9.3010539767
  0
LINE
  5
346
100
AcDbEntity
  8
0
100
AcDbLine
 62
4
  6
CONTINUOUS
 10
8.8573160526
 20
9.3906667917
 11
8.844437035
 21
9.4012192132
  0
LINE
  5
347
100
AcDbEntity
  8
0
100
AcDbLine
 62
4
  6
CONTINUOUS
 10
8.9217111085
 20
9.4151787553
 11
8.94746913
 21
9.3940739132
  0
LINE
  5
348
100
AcDbEntity
  8
0
100
AcDbLine
 62
4
  6
CONTINUOUS
 10
8.8830740694
 20
9.4661545361
 11
8.8959530871
 21
9.4556021146
  0
LINE
  5
349
100
AcDbEntity
  8
0
100
AcDbLine
 62
4
  6
CONTINUOUS
 10
10.0813281093
 20
8.4403577685
 11
10.0592498052
 21
8.4639671989
  0
LINE
  5
34A
100
AcDbEntity
  8
0
100
AcDbLine
 62
4
  6
CONTINUOUS
 10
10.1917196367
 20
8.509976159
 11
10.2137979431
 21
8.4863667283
  0
LINE
  5
34B
100
AcDbEntity
  8
0
100
AcDbLine
 62
4
  6
CONTINUOUS
 10
10.1917196367
 20
8.6314068177
 11
10.2137979431
 21
8.6077973871
  0
LINE
  5
34C
100
AcDbEntity
  8
0
100
AcDbLine
 62
4
  6
CONTINUOUS
 10
10.1475630262
 20
8.8662912959
 11
10.1770007673
 21
8.805374304
  0
LINE
  5
34D
100
AcDbEntity
  8
0
100
AcDbLine
 62
4
  6
CONTINUOUS
 10
10.6127253383
 20
10.7593525837
 11
10.6127253383
 21
10.6917377733
  0
LINE
  5
34E
100
AcDbEntity
  8
0
100
AcDbLine
 62
4
  6
CONTINUOUS
 10
10.6127253383
 20
5.6853437263
 11
10.6127253383
 21
5.7046622436
  0
LINE
  5
34F
100
AcDbEntity
  8
0
100
AcDbLine
 62
4
  6
CONTINUOUS
 10
10.6127253383
 20
10.5758266699
 11
10.6127253383
 21
10.5951451871
  0
LINE
  5
350
100
AcDbEntity
  8
0
100
AcDbLine
 62
4
  6
CONTINUOUS
 10
10.6426690581
 20
8.8515040196
 11
10.6426690581
 21
8.8321855024
  0
LINE
  5
351
100
AcDbEntity
  8
0
100
AcDbLine
 62
4
  6
CONTINUOUS
 10
10.6771203988
 20
10.6872719607
 11
10.6771203988
 21
10.7548867711
  0
LINE
  5
352
100
AcDbEntity
  8
0
100
AcDbLine
 62
4
  6
CONTINUOUS
 10
10.7157574287
 20
5.8134280473
 11
10.7157574287
 21
5.871383599
  0
LINE
  5
353
100
AcDbEntity
  8
0
100
AcDbLine
 62
4
  6
CONTINUOUS
 10
10.7672734762
 20
5.6456480007
 11
10.7672734762
 21
5.7229220697
  0
LINE
  5
354
100
AcDbEntity
  8
0
100
AcDbLine
 62
4
  6
CONTINUOUS
 10
10.7672734762
 20
10.5361309443
 11
10.7672734762
 21
10.6134050132
  0
LINE
  5
355
100
AcDbEntity
  8
0
100
AcDbLine
 62
4
  6
CONTINUOUS
 10
10.7672734762
 20
10.6810198236
 11
10.7672734762
 21
10.7486346339
  0
LINE
  5
356
100
AcDbEntity
  8
0
100
AcDbLine
 62
4
  6
CONTINUOUS
 10
10.1475630262
 20
7.5820698993
 11
10.1770007673
 21
7.6389038673
  0
LINE
  5
357
100
AcDbEntity
  8
0
100
AcDbLine
 62
4
  6
CONTINUOUS
 10
10.694185101
 20
8.8092943354
 11
10.7328221401
 21
8.8645703994
  0
LINE
  5
358
100
AcDbEntity
  8
0
100
AcDbLine
 62
4
  6
CONTINUOUS
 10
10.7972171961
 20
8.8214675526
 11
10.7843381842
 21
8.8030421979
  0
LINE
  5
359
100
AcDbEntity
  8
0
100
AcDbLine
 62
7
  6
CONTINUOUS
 10
12.6083282277
 20
10.709822044
 11
13.2553753064
 21
11.3348215652
  0
LINE
  5
35A
100
AcDbEntity
  8
0
100
AcDbLine
 62
7
  6
CONTINUOUS
 10
10.3734143284
 20
8.3777466974
 11
10.249115584
 21
8.2576833229
  0
LINE
  5
35B
100
AcDbEntity
  8
0
100
AcDbLine
 62
7
  6
CONTINUOUS
 10
10.7044856892
 20
8.5459309598
 11
10.5801869447
 21
8.4258675853
  0
LINE
  5
35C
100
AcDbEntity
  8
0
100
AcDbLine
 62
4
  6
CONTINUOUS
 10
10.2137979431
 20
8.3244591834
 11
10.1917196367
 21
8.3039120242
  0
LINE
  5
35D
100
AcDbEntity
  8
0
100
AcDbLine
 62
4
  6
CONTINUOUS
 10
9.4145632865
 20
7.5519497283
 11
9.4256024397
 21
7.5622233136
  0
LINE
  5
35E
100
AcDbEntity
  8
0
100
AcDbLine
 62
4
  6
CONTINUOUS
 10
10.7328221401
 20
8.8645703994
 11
10.7457011486
 21
8.8733364957
  0
LINE
  5
35F
100
AcDbEntity
  8
0
100
AcDbLine
 62
4
  6
CONTINUOUS
 10
10.6813060926
 20
8.8005282391
 11
10.694185101
 21
8.8092943354
  0
LINE
  5
360
100
AcDbEntity
  8
0
100
AcDbLine
 62
4
  6
CONTINUOUS
 10
10.7843381842
 20
8.8030421979
 11
10.7585801616
 21
8.7855100056
  0
LINE
  5
361
100
AcDbEntity
  8
0
100
AcDbLine
 62
4
  6
CONTINUOUS
 10
8.844437035
 20
7.4065822625
 11
8.8573160526
 21
7.4153483582
  0
LINE
  5
362
100
AcDbEntity
  8
0
100
AcDbLine
 62
4
  6
CONTINUOUS
 10
9.7192439018
 20
8.0882972584
 11
9.7854788141
 21
8.1278604644
  0
LINE
  5
363
100
AcDbEntity
  8
0
100
AcDbLine
 62
4
  6
CONTINUOUS
 10
8.8315580265
 20
7.5330457868
 11
8.9861061645
 21
7.5706241301
  0
LINE
  5
364
100
AcDbEntity
  8
0
100
AcDbLine
 62
4
  6
CONTINUOUS
 10
11.2463727354
 20
8.2735481551
 11
11.4009208733
 21
8.3111264985
  0
LINE
  5
365
100
AcDbEntity
  8
0
100
AcDbLine
 62
4
  6
CONTINUOUS
 10
10.0592498052
 20
7.8604935351
 11
10.2137979431
 21
7.893932212
  0
LINE
  5
366
100
AcDbEntity
  8
0
100
AcDbLine
 62
4
  6
CONTINUOUS
 10
9.7854788141
 20
8.1278604644
 11
9.8737920397
 21
8.1217359214
  0
LINE
  5
367
100
AcDbEntity
  8
0
100
AcDbLine
 62
4
  6
CONTINUOUS
 10
11.2721307614
 20
8.0785766576
 11
11.2850097698
 21
8.0776834953
  0
LINE
  5
368
100
AcDbEntity
  8
0
100
AcDbLine
 62
4
  6
CONTINUOUS
 10
9.7965179707
 20
8.2154081173
 11
9.8517137333
 21
8.2115802782
  0
LINE
  5
369
100
AcDbEntity
  8
0
100
AcDbLine
 62
4
  6
CONTINUOUS
 10
9.4145632865
 20
8.2437366454
 11
9.3262500667
 21
8.249861188
  0
LINE
  5
36A
100
AcDbEntity
  8
0
100
AcDbLine
 62
4
  6
CONTINUOUS
 10
11.3494048258
 20
8.150491752
 11
11.3751628495
 21
8.148705427
  0
LINE
  5
36B
100
AcDbEntity
  8
0
100
AcDbLine
 62
4
  6
CONTINUOUS
 10
9.2710543018
 20
8.3199239119
 11
9.4256024397
 21
8.3092059622
  0
LINE
  5
36C
100
AcDbEntity
  8
0
100
AcDbLine
 62
4
  6
CONTINUOUS
 10
9.8517137333
 20
8.2888543379
 11
9.8075571228
 21
8.2919166092
  0
LINE
  5
36D
100
AcDbEntity
  8
0
100
AcDbLine
 62
4
  6
CONTINUOUS
 10
9.4256024397
 20
8.3533626256
 11
9.31521091
 21
8.3610183042
  0
LINE
  5
36E
100
AcDbEntity
  8
0
100
AcDbLine
 62
4
  6
CONTINUOUS
 10
10.1917196367
 20
8.3039120242
 11
10.0813281093
 21
8.3115677027
  0
LINE
  5
36F
100
AcDbEntity
  8
0
100
AcDbLine
 62
4
  6
CONTINUOUS
 10
9.8737920397
 20
8.3314798288
 11
9.7192439018
 21
8.3421977785
  0
LINE
  5
370
100
AcDbEntity
  8
0
100
AcDbLine
 62
4
  6
CONTINUOUS
 10
11.3236468043
 20
7.9011373527
 11
11.2850097698
 21
7.9134760988
  0
LINE
  5
371
100
AcDbEntity
  8
0
100
AcDbLine
 62
4
  6
CONTINUOUS
 10
9.2710543018
 20
8.7872480292
 11
9.2820934585
 21
8.7828027575
  0
LINE
  5
372
100
AcDbEntity
  8
0
100
AcDbLine
 62
4
  6
CONTINUOUS
 10
8.8573160526
 20
9.8543112054
 11
8.844437035
 21
9.864863627
  0
LINE
  5
373
100
AcDbEntity
  8
0
100
AcDbLine
 62
4
  6
CONTINUOUS
 10
11.2850097698
 20
7.9134760988
 11
11.2592517438
 21
7.9345809412
  0
LINE
  5
374
100
AcDbEntity
  8
0
100
AcDbLine
 62
4
  6
CONTINUOUS
 10
8.9217111085
 20
9.878823169
 11
8.94746913
 21
9.8577183269
  0
LINE
  5
375
100
AcDbEntity
  8
0
100
AcDbLine
 62
4
  6
CONTINUOUS
 10
8.8830740694
 20
9.9297989499
 11
8.8959530871
 21
9.9192465283
  0
LINE
  5
376
100
AcDbEntity
  8
0
100
AcDbLine
 62
4
  6
CONTINUOUS
 10
10.7972171961
 20
8.8407860699
 11
10.7972171961
 21
8.8214675526
  0
LINE
  5
377
100
AcDbEntity
  8
0
100
AcDbLine
 62
7
  6
CONTINUOUS
 10
10.7356259094
 20
8.5437713782
 11
10.6113271649
 21
8.4237080037
  0
LINE
  5
378
100
AcDbEntity
  8
0
100
AcDbLine
 62
4
  6
CONTINUOUS
 10
10.0592498052
 20
7.7317034233
 11
10.0813281093
 21
7.7522505918
  0
LINE
  5
379
100
AcDbEntity
  8
0
100
AcDbLine
 62
4
  6
CONTINUOUS
 10
8.844437035
 20
7.2520341246
 11
8.8573160526
 21
7.2608002203
  0
LINE
  5
37A
100
AcDbEntity
  8
0
100
AcDbLine
 62
4
  6
CONTINUOUS
 10
9.2710543018
 20
7.8047634645
 11
9.4256024397
 21
7.8713195837
  0
LINE
  5
37B
100
AcDbEntity
  8
0
100
AcDbLine
 62
4
  6
CONTINUOUS
 10
11.2463727354
 20
8.3701407413
 11
11.4009208733
 21
8.3884005674
  0
LINE
  5
37C
100
AcDbEntity
  8
0
100
AcDbLine
 62
4
  6
CONTINUOUS
 10
11.2463727354
 20
8.4280962931
 11
11.4009208733
 21
8.4463561191
  0
LINE
  5
37D
100
AcDbEntity
  8
0
100
AcDbLine
 62
4
  6
CONTINUOUS
 10
9.3262500667
 20
8.4117687329
 11
9.3483283708
 21
8.4102375973
  0
LINE
  5
37E
100
AcDbEntity
  8
0
100
AcDbLine
 62
4
  6
CONTINUOUS
 10
9.7413222059
 20
8.4179406935
 11
9.8517137333
 21
8.4102850151
  0
LINE
  5
37F
100
AcDbEntity
  8
0
100
AcDbLine
 62
4
  6
CONTINUOUS
 10
9.4145632865
 20
8.4534805573
 11
9.3814458269
 21
8.455777261
  0
LINE
  5
380
100
AcDbEntity
  8
0
100
AcDbLine
 62
4
  6
CONTINUOUS
 10
10.1917196367
 20
8.43270209
 11
10.0813281093
 21
8.4403577685
  0
LINE
  5
381
100
AcDbEntity
  8
0
100
AcDbLine
 62
4
  6
CONTINUOUS
 10
9.4256024397
 20
8.5189498741
 11
9.3372892141
 21
8.5250744171
  0
LINE
  5
382
100
AcDbEntity
  8
0
100
AcDbLine
 62
4
  6
CONTINUOUS
 10
9.31521091
 20
8.5707621425
 11
9.4145632865
 21
8.5638720318
  0
LINE
  5
383
100
AcDbEntity
  8
0
100
AcDbLine
 62
4
  6
CONTINUOUS
 10
10.0813281093
 20
8.5176318374
 11
10.1917196367
 21
8.509976159
  0
LINE
  5
384
100
AcDbEntity
  8
0
100
AcDbLine
 62
4
  6
CONTINUOUS
 10
10.2137979431
 20
8.552601613
 11
10.0592498052
 21
8.5633195628
  0
LINE
  5
385
100
AcDbEntity
  8
0
100
AcDbLine
 62
4
  6
CONTINUOUS
 10
9.4256024397
 20
8.6293414223
 11
9.31521091
 21
8.6369971008
  0
LINE
  5
386
100
AcDbEntity
  8
0
100
AcDbLine
 62
4
  6
CONTINUOUS
 10
11.4009208733
 20
8.3884005674
 11
11.2463727354
 21
8.4280962931
  0
LINE
  5
387
100
AcDbEntity
  8
0
100
AcDbLine
 62
4
  6
CONTINUOUS
 10
11.4009208733
 20
8.2145339123
 11
11.2463727354
 21
8.2735481551
  0
LINE
  5
388
100
AcDbEntity
  8
0
100
AcDbLine
 62
4
  6
CONTINUOUS
 10
11.2592517438
 20
8.0891290791
 11
11.2721307614
 21
8.0785766576
  0
LINE
  5
389
100
AcDbEntity
  8
0
100
AcDbLine
 62
4
  6
CONTINUOUS
 10
11.3751628495
 20
7.9941572891
 11
11.3880418614
 21
7.9836048679
  0
LINE
  5
38A
100
AcDbEntity
  8
0
100
AcDbLine
 62
4
  6
CONTINUOUS
 10
11.3751628495
 20
8.148705427
 11
11.3880418614
 21
8.1381530058
  0
LINE
  5
38B
100
AcDbEntity
  8
0
100
AcDbLine
 62
4
  6
CONTINUOUS
 10
10.6555480666
 20
8.8119738229
 11
10.6684270842
 21
8.8014214014
  0
LINE
  5
38C
100
AcDbEntity
  8
0
100
AcDbLine
 62
4
  6
CONTINUOUS
 10
10.6426690581
 20
8.8321855024
 11
10.6555480666
 21
8.8119738229
  0
LINE
  5
38D
100
AcDbEntity
  8
0
100
AcDbLine
 62
4
  6
CONTINUOUS
 10
11.2592517438
 20
7.9345809412
 11
11.2463727354
 21
7.9547926207
  0
LINE
  5
38E
100
AcDbEntity
  8
0
100
AcDbLine
 62
4
  6
CONTINUOUS
 10
11.2463727354
 20
8.1093407586
 11
11.2592517438
 21
8.0891290791
  0
LINE
  5
38F
100
AcDbEntity
  8
0
100
AcDbLine
 62
4
  6
CONTINUOUS
 10
10.7843381842
 20
8.8609977496
 11
10.7972171961
 21
8.8407860699
  0
LINE
  5
390
100
AcDbEntity
  8
0
100
AcDbLine
 62
4
  6
CONTINUOUS
 10
11.2463727354
 20
8.1286592759
 11
11.2463727354
 21
8.1093407586
  0
LINE
  5
391
100
AcDbEntity
  8
0
100
AcDbLine
 62
4
  6
CONTINUOUS
 10
11.2463727354
 20
7.9547926207
 11
11.2463727354
 21
7.9741111379
  0
LINE
  5
392
100
AcDbEntity
  8
0
100
AcDbLine
 62
7
  6
CONTINUOUS
 10
11.0666972702
 20
8.3296673621
 11
10.9423985257
 21
8.2096039875
  0
LINE
  5
393
100
AcDbEntity
  8
0
100
AcDbLine
 62
7
  6
CONTINUOUS
 10
11.0822673803
 20
8.3016193495
 11
10.9579686358
 21
8.181555975
  0
LINE
  5
394
100
AcDbEntity
  8
0
100
AcDbLine
 62
4
  6
CONTINUOUS
 10
12.3459183627
 20
9.2211758475
 11
12.3330393543
 21
9.2124097512
  0
LINE
  5
395
100
AcDbEntity
  8
0
100
AcDbLine
 62
4
  6
CONTINUOUS
 10
12.4231924363
 20
9.2254761309
 11
12.3974344148
 21
9.2079439386
  0
LINE
  5
396
100
AcDbEntity
  8
0
100
AcDbLine
 62
4
  6
CONTINUOUS
 10
9.31521091
 20
8.1549540958
 11
9.4256024397
 21
8.1804158964
  0
LINE
  5
397
100
AcDbEntity
  8
0
100
AcDbLine
 62
4
  6
CONTINUOUS
 10
9.4145632865
 20
8.6742635799
 11
9.2710543018
 21
8.6842159618
  0
LINE
  5
398
100
AcDbEntity
  8
0
100
AcDbLine
 62
4
  6
CONTINUOUS
 10
10.0813281093
 20
8.6390624961
 11
10.1917196367
 21
8.6314068177
  0
LINE
  5
399
100
AcDbEntity
  8
0
100
AcDbLine
 62
4
  6
CONTINUOUS
 10
10.2137979431
 20
8.6924309368
 11
10.0592498052
 21
8.7031488866
  0
LINE
  5
39A
100
AcDbEntity
  8
0
100
AcDbLine
 62
4
  6
CONTINUOUS
 10
9.4256024397
 20
8.7728503759
 11
9.31521091
 21
8.7805060545
  0
LINE
  5
39B
100
AcDbEntity
  8
0
100
AcDbLine
 62
4
  6
CONTINUOUS
 10
9.2820934585
 20
8.7828027575
 11
9.2710543018
 21
8.7835683256
  0
LINE
  5
39C
100
AcDbEntity
  8
0
100
AcDbLine
 62
4
  6
CONTINUOUS
 10
9.4145632865
 20
8.8324914214
 11
9.3262500667
 21
8.838615964
  0
LINE
  5
39D
100
AcDbEntity
  8
0
100
AcDbLine
 62
4
  6
CONTINUOUS
 10
10.6684270842
 20
8.8014214014
 11
10.6813060926
 21
8.8005282391
  0
LINE
  5
39E
100
AcDbEntity
  8
0
100
AcDbLine
 62
4
  6
CONTINUOUS
 10
11.4009208733
 20
8.4463561191
 11
11.2463727354
 21
8.4860518448
  0
LINE
  5
39F
100
AcDbEntity
  8
0
100
AcDbLine
 62
4
  6
CONTINUOUS
 10
8.94746913
 20
9.2395257753
 11
8.9861061645
 21
9.2271870292
  0
LINE
  5
3A0
100
AcDbEntity
  8
0
100
AcDbLine
 62
4
  6
CONTINUOUS
 10
8.94746913
 20
9.3940739132
 11
8.9861061645
 21
9.3817351671
  0
LINE
  5
3A1
100
AcDbEntity
  8
0
100
AcDbLine
 62
4
  6
CONTINUOUS
 10
8.9861061645
 20
9.5266240464
 11
8.8315580265
 21
9.5856382893
  0
LINE
  5
3A2
100
AcDbEntity
  8
0
100
AcDbLine
 62
4
  6
CONTINUOUS
 10
10.7714591723
 20
8.8715501707
 11
10.7843381842
 21
8.8609977496
  0
LINE
  5
3A3
100
AcDbEntity
  8
0
100
AcDbLine
 62
4
  6
CONTINUOUS
 10
11.3880418614
 20
7.9836048679
 11
11.4009208733
 21
7.9633931882
  0
LINE
  5
3A4
100
AcDbEntity
  8
0
100
AcDbLine
 62
4
  6
CONTINUOUS
 10
11.3880418614
 20
8.1381530058
 11
11.4009208733
 21
8.1179413261
  0
LINE
  5
3A5
100
AcDbEntity
  8
0
100
AcDbLine
 62
4
  6
CONTINUOUS
 10
11.3494048258
 20
8.2374250796
 11
11.3494048258
 21
8.2953806313
  0
LINE
  5
3A6
100
AcDbEntity
  8
0
100
AcDbLine
 62
4
  6
CONTINUOUS
 10
11.4009208733
 20
8.1179413261
 11
11.4009208733
 21
8.0986228089
  0
LINE
  5
3A7
100
AcDbEntity
  8
0
100
AcDbLine
 62
4
  6
CONTINUOUS
 10
11.4009208733
 20
7.9633931882
 11
11.4009208733
 21
7.9440746709
  0
LINE
  5
3A8
100
AcDbEntity
  8
0
100
AcDbLine
 62
4
  6
CONTINUOUS
 10
11.2592517438
 20
8.1470846308
 11
11.2463727354
 21
8.1286592759
  0
LINE
  5
3A9
100
AcDbEntity
  8
0
100
AcDbLine
 62
4
  6
CONTINUOUS
 10
11.2978887783
 20
8.0864495917
 11
11.3365258173
 21
8.1417256556
  0
LINE
  5
3AA
100
AcDbEntity
  8
0
100
AcDbLine
 62
4
  6
CONTINUOUS
 10
11.2463727354
 20
7.9741111379
 11
11.2592517438
 21
7.9925364929
  0
LINE
  5
3AB
100
AcDbEntity
  8
0
100
AcDbLine
 62
7
  6
CONTINUOUS
 10
11.0822673803
 20
7.919331071
 11
10.9579686358
 21
7.7992676964
  0
LINE
  5
3AC
100
AcDbEntity
  8
0
100
AcDbLine
 62
7
  6
CONTINUOUS
 10
11.0666972702
 20
7.89344264
 11
10.9423985257
 21
7.7733792655
  0
LINE
  5
3AD
100
AcDbEntity
  8
0
100
AcDbLine
 62
4
  6
CONTINUOUS
 10
11.2721307614
 20
8.1558507265
 11
11.2592517438
 21
8.1470846308
  0
LINE
  5
3AE
100
AcDbEntity
  8
0
100
AcDbLine
 62
4
  6
CONTINUOUS
 10
11.3365258173
 20
8.1417256556
 11
11.3494048258
 21
8.150491752
  0
LINE
  5
3AF
100
AcDbEntity
  8
0
100
AcDbLine
 62
4
  6
CONTINUOUS
 10
11.2850097698
 20
8.0776834953
 11
11.2978887783
 21
8.0864495917
  0
LINE
  5
3B0
100
AcDbEntity
  8
0
100
AcDbLine
 62
4
  6
CONTINUOUS
 10
8.8315580265
 20
8.9674457376
 11
8.9861061645
 21
8.9567277879
  0
LINE
  5
3B1
100
AcDbEntity
  8
0
100
AcDbLine
 62
4
  6
CONTINUOUS
 10
9.3593675228
 20
8.9356716981
 11
9.3262500667
 21
8.9379684015
  0
LINE
  5
3B2
100
AcDbEntity
  8
0
100
AcDbLine
 62
4
  6
CONTINUOUS
 10
10.7457011486
 20
8.8733364957
 11
10.7714591723
 21
8.8715501707
  0
LINE
  5
3B3
100
AcDbEntity
  8
0
100
AcDbLine
 62
4
  6
CONTINUOUS
 10
9.4145632865
 20
8.9980786699
 11
9.3814458269
 21
9.0003753735
  0
LINE
  5
3B4
100
AcDbEntity
  8
0
100
AcDbLine
 62
4
  6
CONTINUOUS
 10
11.4009208733
 20
8.0986228089
 11
11.3880418614
 21
8.0801974541
  0
LINE
  5
3B5
100
AcDbEntity
  8
0
100
AcDbLine
 62
4
  6
CONTINUOUS
 10
11.4009208733
 20
7.9440746709
 11
11.3880418614
 21
7.9256493162
  0
LINE
  5
3B6
100
AcDbEntity
  8
0
100
AcDbLine
 62
4
  6
CONTINUOUS
 10
11.3880418614
 20
8.0801974541
 11
11.3622838388
 21
8.0626652618
  0
LINE
  5
3B7
100
AcDbEntity
  8
0
100
AcDbLine
 62
4
  6
CONTINUOUS
 10
11.2592517438
 20
7.9925364929
 11
11.2721307614
 21
8.0013025886
  0
LINE
  5
3B8
100
AcDbEntity
  8
0
100
AcDbLine
 62
4
  6
CONTINUOUS
 10
11.3880418614
 20
7.9256493162
 11
11.3622838388
 21
7.9081171239
  0
LINE
  5
3B9
100
AcDbEntity
  8
0
100
AcDbLine
 62
4
  6
CONTINUOUS
 10
12.3330393543
 20
9.038543096
 11
12.4875874922
 21
9.0278251463
  0
LINE
  5
3BA
100
AcDbEntity
  8
0
100
AcDbLine
 62
4
  6
CONTINUOUS
 10
8.8573160526
 20
9.3133927228
 11
8.8830740694
 21
9.3116063982
  0
LINE
  5
3BB
100
AcDbEntity
  8
0
100
AcDbLine
 62
4
  6
CONTINUOUS
 10
12.3330393543
 20
9.1447949408
 11
12.4875874922
 21
9.1340769911
  0
LINE
  5
3BC
100
AcDbEntity
  8
0
100
AcDbLine
 62
4
  6
CONTINUOUS
 10
8.94746913
 20
9.8577183269
 11
8.9861061645
 21
9.8453795809
  0
LINE
  5
3BD
100
AcDbEntity
  8
0
100
AcDbLine
 62
4
  6
CONTINUOUS
 10
10.6256043467
 20
10.5556149904
 11
10.6127253383
 21
10.5758266699
  0
LINE
  5
3BE
100
AcDbEntity
  8
0
100
AcDbLine
 62
4
  6
CONTINUOUS
 10
12.3845553972
 20
9.2184963601
 11
12.3459183627
 21
9.2211758475
  0
LINE
  5
3BF
100
AcDbEntity
  8
0
100
AcDbLine
 62
4
  6
CONTINUOUS
 10
8.8573160526
 20
9.4679408607
 11
8.8830740694
 21
9.4661545361
  0
LINE
  5
3C0
100
AcDbEntity
  8
0
100
AcDbLine
 62
4
  6
CONTINUOUS
 10
12.4618294685
 20
9.2227966437
 11
12.4231924363
 21
9.2254761309
  0
LINE
  5
3C1
100
AcDbEntity
  8
0
100
AcDbLine
 62
4
  6
CONTINUOUS
 10
10.6771203988
 20
10.6099978918
 11
10.7028784202
 21
10.5695745324
  0
LINE
  5
3C2
100
AcDbEntity
  8
0
100
AcDbLine
 62
4
  6
CONTINUOUS
 10
10.6127253383
 20
5.7046622436
 11
10.6256043467
 21
5.7230875986
  0
LINE
  5
3C3
100
AcDbEntity
  8
0
100
AcDbLine
 62
4
  6
CONTINUOUS
 10
8.8573160526
 20
9.9315852744
 11
8.8830740694
 21
9.9297989499
  0
LINE
  5
3C4
100
AcDbEntity
  8
0
100
AcDbLine
 62
4
  6
CONTINUOUS
 10
12.3330393543
 20
9.2124097512
 11
12.3330393543
 21
9.1447949408
  0
LINE
  5
3C5
100
AcDbEntity
  8
0
100
AcDbLine
 62
4
  6
CONTINUOUS
 10
12.3974344148
 20
9.1403291282
 11
12.3974344148
 21
9.2079439386
  0
LINE
  5
3C6
100
AcDbEntity
  8
0
100
AcDbLine
 62
4
  6
CONTINUOUS
 10
12.4360714447
 20
7.2251163913
 11
12.4360714447
 21
7.283071943
  0
LINE
  5
3C7
100
AcDbEntity
  8
0
100
AcDbLine
 62
4
  6
CONTINUOUS
 10
12.4875874922
 20
9.1340769911
 11
12.4875874922
 21
9.2016918014
  0
LINE
  5
3C8
100
AcDbEntity
  8
0
100
AcDbLine
 62
4
  6
CONTINUOUS
 10
8.8315580265
 20
9.5856382893
 11
8.9861061645
 21
9.6232166326
  0
LINE
  5
3C9
100
AcDbEntity
  8
0
100
AcDbLine
 62
4
  6
CONTINUOUS
 10
10.6384833643
 20
10.5450625689
 11
10.6256043467
 21
10.5556149904
  0
LINE
  5
3CA
100
AcDbEntity
  8
0
100
AcDbLine
 62
4
  6
CONTINUOUS
 10
10.7028784202
 20
10.5695745324
 11
10.7286364417
 21
10.5484696903
  0
LINE
  5
3CB
100
AcDbEntity
  8
0
100
AcDbLine
 62
4
  6
CONTINUOUS
 10
10.6642413812
 20
10.6205503133
 11
10.6771203988
 21
10.6099978918
  0
LINE
  5
3CC
100
AcDbEntity
  8
0
100
AcDbLine
 62
4
  6
CONTINUOUS
 10
12.3974344148
 20
9.2079439386
 11
12.3845553972
 21
9.2184963601
  0
LINE
  5
3CD
100
AcDbEntity
  8
0
100
AcDbLine
 62
4
  6
CONTINUOUS
 10
12.4875874922
 20
9.2016918014
 11
12.4618294685
 21
9.2227966437
  0
LINE
  5
3CE
100
AcDbEntity
  8
0
100
AcDbLine
 62
4
  6
CONTINUOUS
 10
10.6771203988
 20
10.7548867711
 11
10.6642413812
 21
10.7654391926
  0
LINE
  5
3CF
100
AcDbEntity
  8
0
100
AcDbLine
 62
7
  6
CONTINUOUS
 10
12.6083282277
 20
5.3972296846
 11
12.6083282277
 21
10.709822044
  0
LINE
  5
3D0
100
AcDbEntity
  8
0
100
AcDbLine
 62
4
  6
CONTINUOUS
 10
10.7672734762
 20
10.7486346339
 11
10.7415154524
 21
10.7697394762
  0
LINE
  5
3D1
100
AcDbEntity
  8
0
100
AcDbLine
 62
4
  6
CONTINUOUS
 10
10.7286364417
 20
10.5484696903
 11
10.7672734762
 21
10.5361309443
  0
LINE
  5
3D2
100
AcDbEntity
  8
0
100
AcDbLine
 62
7
  6
CONTINUOUS
 10
13.2553753064
 20
6.0222292058
 11
13.2553753064
 21
11.3348215652
  0
LINE
  5
3D3
100
AcDbEntity
  8
0
100
AcDbLine
 62
4
  6
CONTINUOUS
 10
10.6256043467
 20
5.7230875986
 11
10.6384833643
 21
5.7318536943
  0
LINE
  5
3D4
100
AcDbEntity
  8
0
100
AcDbLine
 62
4
  6
CONTINUOUS
 10
10.6384833643
 20
10.6223366378
 11
10.6642413812
 21
10.6205503133
  0
LINE
  5
3D5
100
AcDbEntity
  8
0
100
AcDbLine
 62
4
  6
CONTINUOUS
 10
10.6127253383
 20
10.6917377733
 11
10.7672734762
 21
10.6810198236
  0
LINE
  5
3D6
100
AcDbEntity
  8
0
100
AcDbLine
 62
4
  6
CONTINUOUS
 10
10.6642413812
 20
10.7654391926
 11
10.6256043467
 21
10.76811868
  0
LINE
  5
3D7
100
AcDbEntity
  8
0
100
AcDbLine
 62
4
  6
CONTINUOUS
 10
10.7415154524
 20
10.7697394762
 11
10.7028784202
 21
10.7724189634
  0
LINE
  5
3D8
100
AcDbEntity
  8
0
100
AcDbLine
 62
7
  6
CONTINUOUS
 10
8.7446246936
 20
10.9777707942
 11
12.6083282277
 21
10.709822044
  0
LINE
  5
3D9
100
AcDbEntity
  8
0
100
AcDbLine
 62
7
  6
CONTINUOUS
 10
13.2553753064
 20
11.3348215652
 11
9.3916717723
 21
11.6027703154
  0
LINE
  5
3DA
100
AcDbEntity
  8
0
100
AcDbLine
 62
7
  6
CONTINUOUS
 10
12.6083282277
 20
5.3972296846
 11
13.2553753064
 21
6.0222292058
  0
ARC
  5
3DB
100
AcDbEntity
  8
0
100
AcDbCircle
 62
7
  6
CONTINUOUS
 10
10.68352728
 20
8.098615034
 40
0.4474420853
100
AcDbArc
 50
26.981298304
 51
31.0900673765
  0
ARC
  5
3DC
100
AcDbEntity
  8
0
100
AcDbCircle
 62
7
  6
CONTINUOUS
 10
10.6322855741
 20
8.0525109288
 40
0.4474420853
100
AcDbArc
 50
206.981298304
 51
211.0900673765
  0
ARC
  5
3DD
100
AcDbEntity
  8
0
100
AcDbCircle
 62
7
  6
CONTINUOUS
 10
10.5592285355
 20
7.9785516595
 40
0.4474420853
100
AcDbArc
 50
26.981298304
 51
31.0900673765
  0
ARC
  5
3DE
100
AcDbEntity
  8
0
100
AcDbCircle
 62
7
  6
CONTINUOUS
 10
10.6913703198
 20
8.1317369917
 40
0.4144042626
100
AcDbArc
 50
83.8695051667
 51
86.0307544453
  0
ARC
  5
3DF
100
AcDbEntity
  8
0
100
AcDbCircle
 62
7
  6
CONTINUOUS
 10
10.6244425343
 20
8.0193889711
 40
0.4144042626
100
AcDbArc
 50
263.8695051668
 51
266.0307544453
  0
ARC
  5
3E0
100
AcDbEntity
  8
0
100
AcDbCircle
 62
7
  6
CONTINUOUS
 10
10.5670715753
 20
8.0116736172
 40
0.4144042626
100
AcDbArc
 50
83.8695051667
 51
86.0307544453
  0
ARC
  5
3E1
100
AcDbEntity
  8
0
100
AcDbCircle
 62
7
  6
CONTINUOUS
 10
10.6242077139
 20
8.0161507963
 40
0.4111576007
100
AcDbArc
 50
266.0321629527
 51
268.2047714632
  0
ARC
  5
3E2
100
AcDbEntity
  8
0
100
AcDbCircle
 62
7
  6
CONTINUOUS
 10
10.5673063958
 20
8.014911792
 40
0.4111576007
100
AcDbArc
 50
86.0321629527
 51
88.2047714632
  0
ARC
  5
3E3
100
AcDbEntity
  8
0
100
AcDbCircle
 62
7
  6
CONTINUOUS
 10
10.6916323332
 20
8.1355154081
 40
0.4106167725
100
AcDbArc
 50
86.0307319968
 51
88.2062024191
  0
ARC
  5
3E4
100
AcDbEntity
  8
0
100
AcDbCircle
 62
7
  6
CONTINUOUS
 10
10.7544930309
 20
8.0988384007
 40
0.373709654
100
AcDbArc
 50
326.6595187369
 51
331.2924535874
  0
ARC
  5
3E5
100
AcDbEntity
  8
0
100
AcDbCircle
 62
7
  6
CONTINUOUS
 10
10.5613198232
 20
8.0522875622
 40
0.373709654
100
AcDbArc
 50
146.6595187369
 51
151.2924535874
  0
ARC
  5
3E6
100
AcDbEntity
  8
0
100
AcDbCircle
 62
7
  6
CONTINUOUS
 10
10.6301942865
 20
7.9787750261
 40
0.373709654
100
AcDbArc
 50
326.6595187369
 51
331.2924535874
  0
SPLINE
  5
3E7
100
AcDbEntity
  8
0
100
AcDbSpline
 62
7
  6
CONTINUOUS
 70
0
 71
3
 72
15
 73
11
 74
0
 42
0.0000001
 43
0.0000001
 44
0.0000000001
 40
0.0
 40
0.0
 40
0.0
 40
0.0
 40
0.1309044479
 40
0.2613640512
 40
0.3907957226
 40
0.5184622544
 40
0.6436178655
 40
0.7657027983
 40
0.884473687
 40
1.0
 40
1.0
 40
1.0
 40
1.0
 10
10.2335454739
 20
8.2317948919
 30
0.0
 10
10.2324210991
 20
8.2151359705
 30
0.0
 10
10.2303754058
 20
8.1818607734
 30
0.0
 10
10.2280385736
 20
8.1320676922
 30
0.0
 10
10.2265652476
 20
8.0826539965
 30
0.0
 10
10.2260546147
 20
8.033896992
 30
0.0
 10
10.2265457378
 20
7.9860766957
 30
0.0
 10
10.228004108
 20
7.9394114815
 30
0.0
 10
10.230332619
 20
7.8940120325
 30
0.0
 10
10.2324052373
 20
7.8641977768
 30
0.0
 10
10.2335454739
 20
7.8495066134
 30
0.0
  0
SPLINE
  5
3E8
100
AcDbEntity
  8
0
100
AcDbSpline
 62
7
  6
CONTINUOUS
 70
0
 71
3
 72
19
 73
15
 74
0
 42
0.0000001
 43
0.0000001
 44
0.0000000001
 40
0.0
 40
0.0
 40
0.0
 40
0.0
 40
0.1208891894
 40
0.2436787837
 40
0.3057539989
 40
0.3682338184
 40
0.4310620126
 40
0.4941687729
 40
0.5574749478
 40
0.6208974869
 40
0.6843552588
 40
0.7477743319
 40
0.8742562402
 40
1.0
 40
1.0
 40
1.0
 40
1.0
 10
10.249115584
 20
7.8214586008
 30
0.0
 10
10.261582206
 20
7.8115679053
 30
0.0
 10
10.2869010044
 20
7.7918683386
 30
0.0
 10
10.3192058383
 20
7.7678540797
 30
0.0
 10
10.3456930255
 20
7.7489166128
 30
0.0
 10
10.3659433035
 20
7.7348308041
 30
0.0
 10
10.3864923618
 20
7.720940582
 30
0.0
 10
10.4073189695
 20
7.7072707739
 30
0.0
 10
10.4283953608
 20
7.693843158
 30
0.0
 10
10.4496890358
 20
7.6806748514
 30
0.0
 10
10.4711650662
 20
7.6677772565
 30
0.0
 10
10.4999693434
 20
7.6509638004
 30
0.0
 10
10.5362223011
 20
7.6306537754
 30
0.0
 10
10.5655168147
 20
7.615021214
 30
0.0
 10
10.5801869447
 20
7.6073545847
 30
0.0
  0
SPLINE
  5
3E9
100
AcDbEntity
  8
0
100
AcDbSpline
 62
7
  6
CONTINUOUS
 70
0
 71
3
 72
15
 73
11
 74
0
 42
0.0000001
 43
0.0000001
 44
0.0000000001
 40
0.0
 40
0.0
 40
0.0
 40
0.0
 40
0.1121786521
 40
0.2284761286
 40
0.3490753419
 40
0.4737992527
 40
0.6020827469
 40
0.7331004723
 40
0.8659837967
 40
1.0
 40
1.0
 40
1.0
 40
1.0
 10
10.6113271649
 20
7.605195003
 30
0.0
 10
10.623913615
 20
7.6110646963
 30
0.0
 10
10.6495052424
 20
7.6231129783
 30
0.0
 10
10.6884557873
 20
7.6418349385
 30
0.0
 10
10.7286357938
 20
7.6615804597
 30
0.0
 10
10.7699630012
 20
7.6823518195
 30
0.0
 10
10.8122549864
 20
7.7040716684
 30
0.0
 10
10.8552668093
 20
7.7265973971
 30
0.0
 10
10.8987469409
 20
7.7497558144
 30
0.0
 10
10.9278194998
 20
7.7654593615
 30
0.0
 10
10.9423985257
 20
7.7733792655
 30
0.0
  0
SPLINE
  5
3EA
100
AcDbEntity
  8
0
100
AcDbSpline
 62
7
  6
CONTINUOUS
 70
0
 71
3
 72
15
 73
11
 74
0
 42
0.0000001
 43
0.0000001
 44
0.0000000001
 40
0.0
 40
0.0
 40
0.0
 40
0.0
 40
0.1309044479
 40
0.2613640512
 40
0.3907957226
 40
0.5184622544
 40
0.6436178655
 40
0.7657027983
 40
0.884473687
 40
1.0
 40
1.0
 40
1.0
 40
1.0
 10
11.0822673803
 20
7.919331071
 30
0.0
 10
11.0833917551
 20
7.9359899923
 30
0.0
 10
11.0854374483
 20
7.9692651895
 30
0.0
 10
11.0877742805
 20
8.0190582707
 30
0.0
 10
11.0892476065
 20
8.0684719663
 30
0.0
 10
11.0897582394
 20
8.1172289709
 30
0.0
 10
11.0892671163
 20
8.1650492672
 30
0.0
 10
11.0878087461
 20
8.2117144814
 30
0.0
 10
11.0854802351
 20
8.2571139304
 30
0.0
 10
11.0834076168
 20
8.2869281861
 30
0.0
 10
11.0822673803
 20
8.3016193495
 30
0.0
  0
SPLINE
  5
3EB
100
AcDbEntity
  8
0
100
AcDbSpline
 62
7
  6
CONTINUOUS
 70
0
 71
3
 72
19
 73
15
 74
0
 42
0.0000001
 43
0.0000001
 44
0.0000000001
 40
0.0
 40
0.0
 40
0.0
 40
0.0
 40
0.1208891894
 40
0.2436787837
 40
0.3057539989
 40
0.3682338184
 40
0.4310620126
 40
0.4941687729
 40
0.5574749478
 40
0.6208974869
 40
0.6843552588
 40
0.7477743319
 40
0.8742562402
 40
1.0
 40
1.0
 40
1.0
 40
1.0
 10
11.0666972702
 20
8.3296673621
 30
0.0
 10
11.0542306481
 20
8.3395580576
 30
0.0
 10
11.0289118497
 20
8.3592576243
 30
0.0
 10
10.9966070158
 20
8.3832718832
 30
0.0
 10
10.9701198286
 20
8.4022093501
 30
0.0
 10
10.9498695506
 20
8.4162951587
 30
0.0
 10
10.9293204923
 20
8.4301853809
 30
0.0
 10
10.9084938846
 20
8.443855189
 30
0.0
 10
10.8874174933
 20
8.4572828049
 30
0.0
 10
10.8661238183
 20
8.4704511115
 30
0.0
 10
10.844647788
 20
8.4833487064
 30
0.0
 10
10.8158435108
 20
8.5001621625
 30
0.0
 10
10.779590553
 20
8.5204721875
 30
0.0
 10
10.7502960394
 20
8.5361047488
 30
0.0
 10
10.7356259094
 20
8.5437713782
 30
0.0
  0
SPLINE
  5
3EC
100
AcDbEntity
  8
0
100
AcDbSpline
 62
7
  6
CONTINUOUS
 70
0
 71
3
 72
15
 73
11
 74
0
 42
0.0000001
 43
0.0000001
 44
0.0000000001
 40
0.0
 40
0.0
 40
0.0
 40
0.0
 40
0.1121786521
 40
0.2284761286
 40
0.3490753419
 40
0.4737992527
 40
0.6020827469
 40
0.7331004723
 40
0.8659837967
 40
1.0
 40
1.0
 40
1.0
 40
1.0
 10
10.7044856892
 20
8.5459309598
 30
0.0
 10
10.6918992392
 20
8.5400612665
 30
0.0
 10
10.6663076118
 20
8.5280129845
 30
0.0
 10
10.6273570668
 20
8.5092910243
 30
0.0
 10
10.5871770603
 20
8.4895455031
 30
0.0
 10
10.545849853
 20
8.4687741434
 30
0.0
 10
10.5035578677
 20
8.4470542945
 30
0.0
 10
10.4605460448
 20
8.4245285658
 30
0.0
 10
10.4170659133
 20
8.4013701485
 30
0.0
 10
10.3879933544
 20
8.3856666014
 30
0.0
 10
10.3734143284
 20
8.3777466974
 30
0.0
  0
SPLINE
  5
3ED
100
AcDbEntity
  8
0
100
AcDbSpline
 62
7
  6
CONTINUOUS
 70
0
 71
3
 72
52
 73
48
 74
0
 42
0.0000001
 43
0.0000001
 44
0.0000000001
 40
0.0
 40
0.0
 40
0.0
 40
0.0
 40
0.0311866655
 40
0.0621624582
 40
0.0775790412
 40
0.0929473314
 40
0.1082695123
 40
0.123548568
 40
0.1387878901
 40
0.1539911696
 40
0.1691625264
 40
0.1843064009
 40
0.1994275511
 40
0.2145309433
 40
0.2296217509
 40
0.2447052634
 40
0.259786869
 40
0.2748719753
 40
0.2899659335
 40
0.3050740164
 40
0.3202013322
 40
0.3353528119
 40
0.3505330985
 40
0.3657465608
 40
0.3809971866
 40
0.3962886124
 40
0.4116240385
 40
0.4270062211
 40
0.4424374298
 40
0.457919452
 40
0.4890310877
 40
0.5203549267
 40
0.5518869196
 40
0.5836151951
 40
0.6155205872
 40
0.6475775356
 40
0.6797550126
 40
0.7120177617
 40
0.7443275151
 40
0.7766443769
 40
0.8089282056
 40
0.8411399939
 40
0.8732432958
 40
0.9052053838
 40
0.9369988317
 40
0.9686016371
 40
1.0
 40
1.0
 40
1.0
 40
1.0
 10
10.5879120259
 20
7.649112112
 30
0.0
 10
10.5996105888
 20
7.6483008139
 30
0.0
 10
10.623023014
 20
7.6478188594
 30
0.0
 10
10.6521544715
 20
7.650110904
 30
0.0
 10
10.6751112227
 20
7.6536723725
 30
0.0
 10
10.692094811
 20
7.6571929712
 30
0.0
 10
10.7088272352
 20
7.6615589795
 30
0.0
 10
10.7252686323
 20
7.6667596426
 30
0.0
 10
10.7413792756
 20
7.6727825168
 30
0.0
 10
10.757120305
 20
7.6796132122
 30
0.0
 10
10.7724538251
 20
7.6872350826
 30
0.0
 10
10.7873426854
 20
7.6956300974
 30
0.0
 10
10.8017512225
 20
7.7047776014
 30
0.0
 10
10.8156443402
 20
7.714656073
 30
0.0
 10
10.8289889328
 20
7.7252411182
 30
0.0
 10
10.8417523224
 20
7.7365078203
 30
0.0
 10
10.8539042563
 20
7.7484284037
 30
0.0
 10
10.8654148602
 20
7.7609746932
 30
0.0
 10
10.8762569451
 20
7.7741158946
 30
0.0
 10
10.88640382
 20
7.7878207579
 30
0.0
 10
10.8958315215
 20
7.8020558478
 30
0.0
 10
10.9045169172
 20
7.8167871044
 30
0.0
 10
10.9124394012
 20
7.8319787984
 30
0.0
 10
10.919579698
 20
7.8475943911
 30
0.0
 10
10.9259206912
 20
7.8635961801
 30
0.0
 10
10.9314471995
 20
7.8799455453
 30
0.0
 10
10.9361457255
 20
7.8966031686
 30
0.0
 10
10.9400053372
 20
7.9135286521
 30
0.0
 10
10.9430163028
 20
7.9306818344
 30
0.0
 10
10.9458949189
 20
7.9538338739
 30
0.0
 10
10.9473305144
 20
7.9831491589
 30
0.0
 10
10.9455880339
 20
8.0184940147
 30
0.0
 10
10.9404026507
 20
8.0537349171
 30
0.0
 10
10.9318250854
 20
8.0885307941
 30
0.0
 10
10.919938885
 20
8.1225480963
 30
0.0
 10
10.90485906
 20
8.1554601261
 30
0.0
 10
10.8867310784
 20
8.1869511397
 30
0.0
 10
10.8657294471
 20
8.2167190091
 30
0.0
 10
10.8420560533
 20
8.2444781528
 30
0.0
 10
10.8159382442
 20
8.2699621782
 30
0.0
 10
10.7876266876
 20
8.2929264119
 30
0.0
 10
10.7573930294
 20
8.3131502139
 30
0.0
 10
10.7255272105
 20
8.330439002
 30
0.0
 10
10.6923352483
 20
8.3446262742
 30
0.0
 10
10.658134519
 20
8.3555748609
 30
0.0
 10
10.6232577802
 20
8.3631786131
 30
0.0
 10
10.5996899995
 20
8.3659782382
 30
0.0
 10
10.5879120259
 20
8.3667950434
 30
0.0
  0
SPLINE
  5
3EE
100
AcDbEntity
  8
0
100
AcDbSpline
 62
7
  6
CONTINUOUS
 70
0
 71
3
 72
52
 73
48
 74
0
 42
0.0000001
 43
0.0000001
 44
0.0000000001
 40
0.0
 40
0.0
 40
0.0
 40
0.0
 40
0.0311866655
 40
0.0621624582
 40
0.0775790412
 40
0.0929473314
 40
0.1082695123
 40
0.123548568
 40
0.1387878901
 40
0.1539911696
 40
0.1691625264
 40
0.1843064009
 40
0.1994275511
 40
0.2145309433
 40
0.2296217509
 40
0.2447052634
 40
0.259786869
 40
0.2748719753
 40
0.2899659335
 40
0.3050740164
 40
0.3202013322
 40
0.3353528119
 40
0.3505330985
 40
0.3657465608
 40
0.3809971866
 40
0.3962886124
 40
0.4116240385
 40
0.4270062211
 40
0.4424374298
 40
0.457919452
 40
0.4890310877
 40
0.5203549267
 40
0.5518869196
 40
0.5836151951
 40
0.6155205872
 40
0.6475775356
 40
0.6797550126
 40
0.7120177617
 40
0.7443275151
 40
0.7766443769
 40
0.8089282056
 40
0.8411399939
 40
0.8732432958
 40
0.9052053838
 40
0.9369988317
 40
0.9686016371
 40
1.0
 40
1.0
 40
1.0
 40
1.0
 10
10.5879120259
 20
8.3667950434
 30
0.0
 10
10.5762134631
 20
8.3676063415
 30
0.0
 10
10.5528010378
 20
8.368088296
 30
0.0
 10
10.5236695804
 20
8.3657962514
 30
0.0
 10
10.5007128292
 20
8.3622347829
 30
0.0
 10
10.4837292408
 20
8.3587141842
 30
0.0
 10
10.4669968167
 20
8.3543481759
 30
0.0
 10
10.4505554196
 20
8.3491475128
 30
0.0
 10
10.4344447762
 20
8.3431246386
 30
0.0
 10
10.4187037469
 20
8.3362939432
 30
0.0
 10
10.4033702268
 20
8.3286720728
 30
0.0
 10
10.3884813665
 20
8.320277058
 30
0.0
 10
10.3740728294
 20
8.311129554
 30
0.0
 10
10.3601797117
 20
8.3012510824
 30
0.0
 10
10.346835119
 20
8.2906660371
 30
0.0
 10
10.3340717294
 20
8.279399335
 30
0.0
 10
10.3219197956
 20
8.2674787516
 30
0.0
 10
10.3104091917
 20
8.2549324621
 30
0.0
 10
10.2995671068
 20
8.2417912607
 30
0.0
 10
10.2894202319
 20
8.2280863975
 30
0.0
 10
10.2799925303
 20
8.2138513076
 30
0.0
 10
10.2713071347
 20
8.1991200509
 30
0.0
 10
10.2633846506
 20
8.1839283569
 30
0.0
 10
10.2562443539
 20
8.1683127643
 30
0.0
 10
10.2499033607
 20
8.1523109753
 30
0.0
 10
10.2443768524
 20
8.1359616101
 30
0.0
 10
10.2396783264
 20
8.1193039868
 30
0.0
 10
10.2358187147
 20
8.1023785032
 30
0.0
 10
10.2328077491
 20
8.085225321
 30
0.0
 10
10.229929133
 20
8.0620732815
 30
0.0
 10
10.2284935374
 20
8.0327579965
 30
0.0
 10
10.230236018
 20
7.9974131407
 30
0.0
 10
10.2354214012
 20
7.9621722382
 30
0.0
 10
10.2439989665
 20
7.9273763613
 30
0.0
 10
10.2558851669
 20
7.8933590591
 30
0.0
 10
10.2709649919
 20
7.8604470293
 30
0.0
 10
10.2890929735
 20
7.8289560156
 30
0.0
 10
10.3100946048
 20
7.7991881463
 30
0.0
 10
10.3337679986
 20
7.7714290026
 30
0.0
 10
10.3598858077
 20
7.7459449772
 30
0.0
 10
10.3881973643
 20
7.7229807434
 30
0.0
 10
10.4184310225
 20
7.7027569415
 30
0.0
 10
10.4502968414
 20
7.6854681534
 30
0.0
 10
10.4834888036
 20
7.6712808812
 30
0.0
 10
10.5176895329
 20
7.6603322945
 30
0.0
 10
10.5525662717
 20
7.6527285422
 30
0.0
 10
10.5761340524
 20
7.6499289172
 30
0.0
 10
10.5879120259
 20
7.649112112
 30
0.0
  0
SPLINE
  5
3EF
100
AcDbEntity
  8
0
100
AcDbSpline
 62
7
  6
CONTINUOUS
 70
0
 71
3
 72
15
 73
11
 74
0
 42
0.0000001
 43
0.0000001
 44
0.0000000001
 40
0.0
 40
0.0
 40
0.0
 40
0.0
 40
0.115526313
 40
0.2342972017
 40
0.3563821345
 40
0.4815377457
 40
0.6092042774
 40
0.7386359488
 40
0.8690955521
 40
1.0
 40
1.0
 40
1.0
 40
1.0
 10
10.9579686358
 20
7.7992676964
 30
0.0
 10
10.9568283993
 20
7.8139588598
 30
0.0
 10
10.954755781
 20
7.8437731156
 30
0.0
 10
10.9524272699
 20
7.8891725646
 30
0.0
 10
10.9509688997
 20
7.9358377788
 30
0.0
 10
10.9504777766
 20
7.9836580751
 30
0.0
 10
10.9509884095
 20
8.0324150796
 30
0.0
 10
10.9524617356
 20
8.0818287753
 30
0.0
 10
10.9547985678
 20
8.1316218565
 30
0.0
 10
10.956844261
 20
8.1648970536
 30
0.0
 10
10.9579686358
 20
8.181555975
 30
0.0
  0
SPLINE
  5
3F0
100
AcDbEntity
  8
0
100
AcDbSpline
 62
7
  6
CONTINUOUS
 70
0
 71
3
 72
19
 73
15
 74
0
 42
0.0000001
 43
0.0000001
 44
0.0000000001
 40
0.0
 40
0.0
 40
0.0
 40
0.0
 40
0.1257437598
 40
0.2522256681
 40
0.3156447412
 40
0.3791025131
 40
0.4425250522
 40
0.5058312272
 40
0.5689379875
 40
0.6317661817
 40
0.6942460012
 40
0.7563212163
 40
0.8791108107
 40
1.0
 40
1.0
 40
1.0
 40
1.0
 10
10.9423985257
 20
8.2096039875
 30
0.0
 10
10.9277283957
 20
8.2172706169
 30
0.0
 10
10.8984338821
 20
8.2329031783
 30
0.0
 10
10.8621809243
 20
8.2532132033
 30
0.0
 10
10.8333766471
 20
8.2700266594
 30
0.0
 10
10.8119006168
 20
8.2829242543
 30
0.0
 10
10.7906069418
 20
8.2960925609
 30
0.0
 10
10.7695305505
 20
8.3095201768
 30
0.0
 10
10.7487039428
 20
8.3231899849
 30
0.0
 10
10.7281548845
 20
8.337080207
 30
0.0
 10
10.7079046064
 20
8.3511660157
 30
0.0
 10
10.6814174193
 20
8.3701034826
 30
0.0
 10
10.6491125854
 20
8.3941177415
 30
0.0
 10
10.623793787
 20
8.4138173081
 30
0.0
 10
10.6113271649
 20
8.4237080037
 30
0.0
  0
SPLINE
  5
3F1
100
AcDbEntity
  8
0
100
AcDbSpline
 62
7
  6
CONTINUOUS
 70
0
 71
3
 72
15
 73
11
 74
0
 42
0.0000001
 43
0.0000001
 44
0.0000000001
 40
0.0
 40
0.0
 40
0.0
 40
0.0
 40
0.1340162033
 40
0.2668995277
 40
0.3979172531
 40
0.5262007474
 40
0.6509246582
 40
0.7715238714
 40
0.8878213479
 40
1.0
 40
1.0
 40
1.0
 40
1.0
 10
10.5801869447
 20
8.4258675853
 30
0.0
 10
10.5656079188
 20
8.4179476813
 30
0.0
 10
10.5365353599
 20
8.4022441342
 30
0.0
 10
10.4930552283
 20
8.3790857169
 30
0.0
 10
10.4500434054
 20
8.3565599882
 30
0.0
 10
10.4077514202
 20
8.3348401393
 30
0.0
 10
10.3664242128
 20
8.3140687795
 30
0.0
 10
10.3262442063
 20
8.2943232583
 30
0.0
 10
10.2872936614
 20
8.2756012981
 30
0.0
 10
10.261702034
 20
8.2635530161
 30
0.0
 10
10.249115584
 20
8.2576833229
 30
0.0
  0
SPLINE
  5
3F2
100
AcDbEntity
  8
0
100
AcDbSpline
 62
7
  6
CONTINUOUS
 70
0
 71
3
 72
32
 73
28
 74
0
 42
0.0000001
 43
0.0000001
 44
0.0000000001
 40
0.0
 40
0.0
 40
0.0
 40
0.0
 40
0.0845019947
 40
0.1673009862
 40
0.2480798133
 40
0.3265302078
 40
0.4023576206
 40
0.4752819967
 40
0.54504042
 40
0.5786563571
 40
0.6113913267
 40
0.6432183758
 40
0.6741123424
 40
0.7040496176
 40
0.7330086836
 40
0.7609699193
 40
0.7879160802
 40
0.8138323628
 40
0.8387067023
 40
0.8625302246
 40
0.8852973813
 40
0.9070068012
 40
0.9276614528
 40
0.9472698026
 40
0.9658463334
 40
0.9834129144
 40
1.0
 40
1.0
 40
1.0
 40
1.0
 10
10.8552718789
 20
10.9224995595
 30
0.0
 10
10.8441970126
 20
10.9232676041
 30
0.0
 10
10.8222833899
 20
10.9249825917
 30
0.0
 10
10.7898420578
 20
10.928127328
 30
0.0
 10
10.758257185
 20
10.9318081286
 30
0.0
 10
10.727661404
 20
10.9360093871
 30
0.0
 10
10.6981830417
 20
10.9407132034
 30
0.0
 10
10.669945849
 20
10.9458996207
 30
0.0
 10
10.6472763699
 20
10.9506621425
 30
0.0
 10
10.6298584881
 20
10.9547094679
 30
0.0
 10
10.6173390201
 20
10.9578140238
 30
0.0
 10
10.6052151293
 20
10.9610218286
 30
0.0
 10
10.5934995086
 20
10.9643294724
 30
0.0
 10
10.5822044456
 20
10.967733522
 30
0.0
 10
10.5713417603
 20
10.9712303314
 30
0.0
 10
10.5609228231
 20
10.9748162633
 30
0.0
 10
10.5509585168
 20
10.9784875155
 30
0.0
 10
10.541459237
 20
10.9822402339
 30
0.0
 10
10.5324348809
 20
10.9860705043
 30
0.0
 10
10.5238948103
 20
10.9899742751
 30
0.0
 10
10.5158478888
 20
10.9939475507
 30
0.0
 10
10.5083023938
 20
10.9979861388
 30
0.0
 10
10.5012660992
 20
11.0020859894
 30
0.0
 10
10.4947461883
 20
11.0062428553
 30
0.0
 10
10.488749234
 20
11.0104527373
 30
0.0
 10
10.4832815769
 20
11.0147112543
 30
0.0
 10
10.4798980428
 20
11.0176629455
 30
0.0
 10
10.4783028121
 20
11.0191474838
 30
0.0
  0
SPLINE
  5
3F3
100
AcDbEntity
  8
0
100
AcDbSpline
 62
7
  6
CONTINUOUS
 70
0
 71
3
 72
19
 73
15
 74
0
 42
0.0000001
 43
0.0000001
 44
0.0000000001
 40
0.0
 40
0.0
 40
0.0
 40
0.0
 40
0.12732766
 40
0.2538196711
 40
0.3795264658
 40
0.5045235362
 40
0.5668075958
 40
0.6289556124
 40
0.6909843715
 40
0.7529118454
 40
0.8147570127
 40
0.8765397119
 40
0.9382804145
 40
1.0
 40
1.0
 40
1.0
 40
1.0
 10
12.0876941764
 20
10.2629651963
 30
0.0
 10
12.0876941764
 20
10.2564668163
 30
0.0
 10
12.0870737242
 20
10.243503766
 30
0.0
 10
12.0842676527
 20
10.2243082573
 30
0.0
 10
12.0796152102
 20
10.2055959673
 30
0.0
 10
12.0742257343
 20
10.1905277159
 30
0.0
 10
12.0690425338
 20
10.1788957649
 30
0.0
 10
12.0647323425
 20
10.1704066958
 30
0.0
 10
12.0600054239
 20
10.1621636361
 30
0.0
 10
12.0548725365
 20
10.1541853255
 30
0.0
 10
12.0493455229
 20
10.1464902869
 30
0.0
 10
12.0434371202
 20
10.1390961431
 30
0.0
 10
12.0371611413
 20
10.1320202211
 30
0.0
 10
12.0327409056
 20
10.1275251568
 30
0.0
 10
12.0304752804
 20
10.1253367317
 30
0.0
  0
SPLINE
  5
3F4
100
AcDbEntity
  8
0
100
AcDbSpline
 62
7
  6
CONTINUOUS
 70
0
 71
3
 72
19
 73
15
 74
0
 42
0.0000001
 43
0.0000001
 44
0.0000000001
 40
0.0
 40
0.0
 40
0.0
 40
0.0
 40
0.12732766
 40
0.2538196711
 40
0.3795264658
 40
0.5045235362
 40
0.5668075958
 40
0.6289556124
 40
0.6909843715
 40
0.7529118454
 40
0.8147570127
 40
0.8765397119
 40
0.9382804145
 40
1.0
 40
1.0
 40
1.0
 40
1.0
 10
12.0876941764
 20
5.9162987205
 30
0.0
 10
12.0876941764
 20
5.9098003405
 30
0.0
 10
12.0870737242
 20
5.8968372902
 30
0.0
 10
12.0842676527
 20
5.8776417814
 30
0.0
 10
12.0796152102
 20
5.8589294915
 30
0.0
 10
12.0742257343
 20
5.8438612401
 30
0.0
 10
12.0690425338
 20
5.832229289
 30
0.0
 10
12.0647323425
 20
5.82374022
 30
0.0
 10
12.0600054239
 20
5.8154971602
 30
0.0
 10
12.0548725365
 20
5.8075188496
 30
0.0
 10
12.0493455229
 20
5.799823811
 30
0.0
 10
12.0434371202
 20
5.7924296672
 30
0.0
 10
12.0371611413
 20
5.7853537453
 30
0.0
 10
12.0327409056
 20
5.780858681
 30
0.0
 10
12.0304752804
 20
5.7786702559
 30
0.0
  0
SPLINE
  5
3F5
100
AcDbEntity
  8
0
100
AcDbSpline
 62
7
  6
CONTINUOUS
 70
0
 71
3
 72
11
 73
7
 74
0
 42
0.0000001
 43
0.0000001
 44
0.0000000001
 40
0.0
 40
0.0
 40
0.0
 40
0.0
 40
0.2521073359
 40
0.5027589691
 40
0.7520228765
 40
1.0
 40
1.0
 40
1.0
 40
1.0
 10
11.1077623501
 20
8.1575904614
 30
0.0
 10
11.1077623501
 20
8.1480725833
 30
0.0
 10
11.1069656077
 20
8.1290818309
 30
0.0
 10
11.10336333
 20
8.1008861334
 30
0.0
 10
11.0973834023
 20
8.0732564969
 30
0.0
 10
11.0918236886
 20
8.0552966006
 30
0.0
 10
11.0886641084
 20
8.0464839312
 30
0.0
  0
SPLINE
  5
3F6
100
AcDbEntity
  8
0
100
AcDbSpline
 62
7
  6
CONTINUOUS
 70
0
 71
3
 72
41
 73
37
 74
0
 42
0.0000001
 43
0.0000001
 44
0.0000000001
 40
0.0
 40
0.0
 40
0.0
 40
0.0
 40
0.076275795
 40
0.153785311
 40
0.2318222448
 40
0.3096735911
 40
0.3483080105
 40
0.3866301404
 40
0.4245528434
 40
0.4619901553
 40
0.4988575499
 40
0.5350722061
 40
0.5705532888
 40
0.605222228
 40
0.6390030049
 40
0.6718224544
 40
0.7036105859
 40
0.7343009298
 40
0.7638309235
 40
0.7921423508
 40
0.8191818278
 40
0.8449013876
 40
0.8692591948
 40
0.8922204414
 40
0.9031691836
 40
0.9137596068
 40
0.9239898575
 40
0.9338589222
 40
0.9433665267
 40
0.952513316
 40
0.9613009908
 40
0.9697323056
 40
0.9778114315
 40
0.9855438992
 40
0.9929370219
 40
1.0
 40
1.0
 40
1.0
 40
1.0
 10
12.7933836922
 20
9.1982016109
 30
0.0
 10
12.7933836922
 20
9.2154056109
 30
0.0
 10
12.793846528
 20
9.2500933668
 30
0.0
 10
12.7958657885
 20
9.3023470137
 30
0.0
 10
12.7991985269
 20
9.3548895361
 30
0.0
 10
12.8030528927
 20
9.3985994053
 30
0.0
 10
12.8067730074
 20
9.4333183474
 30
0.0
 10
12.8098604133
 20
9.459045502
 30
0.0
 10
12.8132444409
 20
9.4844629414
 30
0.0
 10
12.8169168584
 20
9.5095087788
 30
0.0
 10
12.8208686789
 20
9.5341219791
 30
0.0
 10
12.8250902434
 20
9.5582425832
 30
0.0
 10
12.8295712225
 20
9.5818118389
 30
0.0
 10
12.8343006491
 20
9.6047723511
 30
0.0
 10
12.8392669449
 20
9.6270682213
 30
0.0
 10
12.8444579482
 20
9.6486451868
 30
0.0
 10
12.8498609432
 20
9.6694507559
 30
0.0
 10
12.8554626914
 20
9.6894343435
 30
0.0
 10
12.8612494643
 20
9.7085474019
 30
0.0
 10
12.8672070744
 20
9.7267435619
 30
0.0
 10
12.8733209194
 20
9.7439787252
 30
0.0
 10
12.8795760263
 20
9.7602112985
 30
0.0
 10
12.8859570946
 20
9.7754019375
 30
0.0
 10
12.8914502795
 20
9.7873445838
 30
0.0
 10
12.8959060486
 20
9.7963390432
 30
0.0
 10
12.8992165672
 20
9.8026946571
 30
0.0
 10
12.9025469119
 20
9.8087635797
 30
0.0
 10
12.9058950528
 20
9.8145421715
 30
0.0
 10
12.909258982
 20
9.8200269446
 30
0.0
 10
12.9126366927
 20
9.8252145958
 30
0.0
 10
12.9160261185
 20
9.8301020381
 30
0.0
 10
12.9194253196
 20
9.834686313
 30
0.0
 10
12.9228322056
 20
9.8389647216
 30
0.0
 10
12.9262448991
 20
9.842934706
 30
0.0
 10
12.9296612729
 20
9.8465938118
 30
0.0
 10
12.9319923248
 20
9.8488756877
 30
0.0
 10
12.9331584661
 20
9.8499610154
 30
0.0
  0
SPLINE
  5
3F7
100
AcDbEntity
  8
0
100
AcDbSpline
 62
7
  6
CONTINUOUS
 70
0
 71
3
 72
41
 73
37
 74
0
 42
0.0000001
 43
0.0000001
 44
0.0000000001
 40
0.0
 40
0.0
 40
0.0
 40
0.0
 40
0.076275795
 40
0.153785311
 40
0.2318222448
 40
0.3096735911
 40
0.3483080105
 40
0.3866301404
 40
0.4245528434
 40
0.4619901553
 40
0.4988575499
 40
0.5350722061
 40
0.5705532888
 40
0.605222228
 40
0.6390030049
 40
0.6718224544
 40
0.7036105859
 40
0.7343009298
 40
0.7638309235
 40
0.7921423508
 40
0.8191818278
 40
0.8449013876
 40
0.8692591948
 40
0.8922204414
 40
0.9031691836
 40
0.9137596068
 40
0.9239898575
 40
0.9338589222
 40
0.9433665267
 40
0.952513316
 40
0.9613009908
 40
0.9697323056
 40
0.9778114315
 40
0.9855438992
 40
0.9929370219
 40
1.0
 40
1.0
 40
1.0
 40
1.0
 10
12.7933836922
 20
7.2663498439
 30
0.0
 10
12.7933836922
 20
7.2835538439
 30
0.0
 10
12.793846528
 20
7.3182415998
 30
0.0
 10
12.7958657885
 20
7.3704952467
 30
0.0
 10
12.7991985269
 20
7.4230377691
 30
0.0
 10
12.8030528927
 20
7.4667476382
 30
0.0
 10
12.8067730074
 20
7.5014665803
 30
0.0
 10
12.8098604133
 20
7.5271937349
 30
0.0
 10
12.8132444409
 20
7.5526111744
 30
0.0
 10
12.8169168584
 20
7.5776570117
 30
0.0
 10
12.8208686789
 20
7.602270212
 30
0.0
 10
12.8250902434
 20
7.6263908162
 30
0.0
 10
12.8295712225
 20
7.6499600719
 30
0.0
 10
12.8343006491
 20
7.672920584
 30
0.0
 10
12.8392669449
 20
7.6952164543
 30
0.0
 10
12.8444579482
 20
7.7167934198
 30
0.0
 10
12.8498609432
 20
7.7375989889
 30
0.0
 10
12.8554626914
 20
7.7575825764
 30
0.0
 10
12.8612494643
 20
7.7766956348
 30
0.0
 10
12.8672070744
 20
7.7948917948
 30
0.0
 10
12.8733209194
 20
7.8121269582
 30
0.0
 10
12.8795760263
 20
7.8283595315
 30
0.0
 10
12.8859570946
 20
7.8435501705
 30
0.0
 10
12.8914502795
 20
7.8554928167
 30
0.0
 10
12.8959060486
 20
7.8644872761
 30
0.0
 10
12.8992165672
 20
7.87084289
 30
0.0
 10
12.9025469119
 20
7.8769118126
 30
0.0
 10
12.9058950528
 20
7.8826904044
 30
0.0
 10
12.909258982
 20
7.8881751776
 30
0.0
 10
12.9126366927
 20
7.8933628288
 30
0.0
 10
12.9160261185
 20
7.8982502711
 30
0.0
 10
12.9194253196
 20
7.902834546
 30
0.0
 10
12.9228322056
 20
7.9071129545
 30
0.0
 10
12.9262448991
 20
7.911082939
 30
0.0
 10
12.9296612729
 20
7.9147420447
 30
0.0
 10
12.9319923248
 20
7.9170239207
 30
0.0
 10
12.9331584661
 20
7.9181092483
 30
0.0
  0
SPLINE
  5
3F8
100
AcDbEntity
  8
0
100
AcDbSpline
 62
7
  6
CONTINUOUS
 70
0
 71
3
 72
40
 73
36
 74
0
 42
0.0000001
 43
0.0000001
 44
0.0000000001
 40
0.0
 40
0.0
 40
0.0
 40
0.0
 40
0.0072740092
 40
0.0148705161
 40
0.0227980737
 40
0.0310633582
 40
0.0396715987
 40
0.0486265991
 40
0.0579309613
 40
0.0675862724
 40
0.0775930644
 40
0.0879511367
 40
0.1097150673
 40
0.1328631233
 40
0.1573697107
 40
0.1832013393
 40
0.2103177237
 40
0.2386726458
 40
0.268214641
 40
0.2988875636
 40
0.3306310652
 40
0.363381
 40
0.3970698012
 40
0.4316268253
 40
0.4669786637
 40
0.5030494338
 40
0.5397610574
 40
0.5770335258
 40
0.6147851637
 40
0.6529328932
 40
0.6913924876
 40
0.7689045402
 40
0.8466355051
 40
0.9238953309
 40
1.0
 40
1.0
 40
1.0
 40
1.0
 10
11.5091770954
 20
11.0191474838
 30
0.0
 10
11.5079856023
 20
11.0180386679
 30
0.0
 10
11.5054949999
 20
11.0158301844
 30
0.0
 10
11.5015348404
 20
11.0126124857
 30
0.0
 10
11.4972730191
 20
11.0094210071
 30
0.0
 10
11.4927121835
 20
11.0062575731
 30
0.0
 10
11.4878549236
 20
11.0031240179
 30
0.0
 10
11.4827041013
 20
11.0000221288
 30
0.0
 10
11.4772627292
 20
10.9969536895
 30
0.0
 10
11.4715339828
 20
10.9939205506
 30
0.0
 10
11.4655212438
 20
10.9909243863
 30
0.0
 10
11.4569889782
 20
10.9869150249
 30
0.0
 10
11.445626811
 20
10.9820223086
 30
0.0
 10
11.4311363989
 20
10.976419115
 30
0.0
 10
11.4156074633
 20
10.9710043707
 30
0.0
 10
11.3990766825
 20
10.9657909982
 30
0.0
 10
11.3815828975
 20
10.9607914548
 30
0.0
 10
11.3631674346
 20
10.9560177167
 30
0.0
 10
11.3438738531
 20
10.9514812266
 30
0.0
 10
11.3237478636
 20
10.9471928629
 30
0.0
 10
11.3028371978
 20
10.9431629112
 30
0.0
 10
11.2811914918
 20
10.9394010314
 30
0.0
 10
11.258862158
 20
10.9359162368
 30
0.0
 10
11.2359022541
 20
10.9327168762
 30
0.0
 10
11.2123663517
 20
10.9298106129
 30
0.0
 10
11.1883104033
 20
10.9272044069
 30
0.0
 10
11.1637916105
 20
10.9249045009
 30
0.0
 10
11.1388682814
 20
10.922916398
 30
0.0
 10
11.113599711
 20
10.9212448616
 30
0.0
 10
11.0880459567
 20
10.9198938562
 30
0.0
 10
11.0535871341
 20
10.9185208558
 30
0.0
 10
11.010248829
 20
10.9176286126
 30
0.0
 10
10.9582196854
 20
10.9178677881
 30
0.0
 10
10.9065280743
 20
10.919411978
 30
0.0
 10
10.8722600681
 20
10.9213214246
 30
0.0
 10
10.8552718789
 20
10.9224995595
 30
0.0
  0
SPLINE
  5
3F9
100
AcDbEntity
  8
0
100
AcDbSpline
 62
7
  6
CONTINUOUS
 70
0
 71
3
 72
42
 73
38
 74
0
 42
0.0000001
 43
0.0000001
 44
0.0000000001
 40
0.0
 40
0.0
 40
0.0
 40
0.0
 40
0.0299419644
 40
0.0449235317
 40
0.0599142035
 40
0.0899287023
 40
0.1200139727
 40
0.1350926544
 40
0.1501966973
 40
0.1804840373
 40
0.210897868
 40
0.2414513286
 40
0.2721543342
 40
0.3030133956
 40
0.3340315238
 40
0.3652082165
 40
0.3965395222
 40
0.4280181758
 40
0.459633799
 40
0.4913731572
 40
0.5232204671
 40
0.5551577446
 40
0.5871651885
 40
0.6192215901
 40
0.6513047644
 40
0.683391994
 40
0.715460481
 40
0.7474877999
 40
0.7794523452
 40
0.8113337678
 40
0.8431133918
 40
0.8747746145
 40
0.906303246
 40
0.9376878974
 40
0.9533257627
 40
0.9689252947
 40
1.0
 40
1.0
 40
1.0
 40
1.0
 10
11.7372923496
 20
10.428862254
 30
0.0
 10
11.7407927694
 20
10.4322433985
 30
0.0
 10
11.746249724
 20
10.4371102442
 30
0.0
 10
11.7538920379
 20
10.4431489902
 30
0.0
 10
11.7617777883
 20
10.4488871581
 30
0.0
 10
11.7720673394
 20
10.4554765194
 30
0.0
 10
11.7828572201
 20
10.4612402475
 30
0.0
 10
11.7917560356
 20
10.4653406632
 30
0.0
 10
11.8008387324
 20
10.4691024663
 30
0.0
 10
11.8124913774
 20
10.4731475738
 30
0.0
 10
11.8268515219
 20
10.4769174872
 30
0.0
 10
11.8415250071
 20
10.4795882079
 30
0.0
 10
11.8564305212
 20
10.4811449855
 30
0.0
 10
11.871486183
 20
10.4815795162
 30
0.0
 10
11.8866091522
 20
10.4808895871
 30
0.0
 10
11.901716309
 20
10.4790791839
 30
0.0
 10
11.9167246459
 20
10.4761584317
 30
0.0
 10
11.931551735
 20
10.4721435404
 30
0.0
 10
11.9461161698
 20
10.4670567081
 30
0.0
 10
11.9603380076
 20
10.4609259961
 30
0.0
 10
11.9741392011
 20
10.4537851728
 30
0.0
 10
11.9874440216
 20
10.4456735274
 30
0.0
 10
12.0001794681
 20
10.4366356545
 30
0.0
 10
12.0122756637
 20
10.4267212101
 30
0.0
 10
12.0236662336
 20
10.4159846417
 30
0.0
 10
12.0342886659
 20
10.4044848908
 30
0.0
 10
12.0440846507
 20
10.3922850738
 30
0.0
 10
12.0530003971
 20
10.3794521374
 30
0.0
 10
12.0609869257
 20
10.3660564995
 30
0.0
 10
12.0680003366
 20
10.3521716519
 30
0.0
 10
12.0740020445
 20
10.3378738194
 30
0.0
 10
12.0789590092
 20
10.3232413342
 30
0.0
 10
12.0828438389
 20
10.3083550002
 30
0.0
 10
12.0851728867
 20
10.2957893238
 30
0.0
 10
12.0864794091
 20
10.2856929453
 30
0.0
 10
12.0874118426
 20
10.2756062305
 30
0.0
 10
12.0876941764
 20
10.2680160423
 30
0.0
 10
12.0876941764
 20
10.2629651963
 30
0.0
  0
SPLINE
  5
3FA
100
AcDbEntity
  8
0
100
AcDbSpline
 62
7
  6
CONTINUOUS
 70
0
 71
3
 72
42
 73
38
 74
0
 42
0.0000001
 43
0.0000001
 44
0.0000000001
 40
0.0
 40
0.0
 40
0.0
 40
0.0
 40
0.0299419644
 40
0.0449235317
 40
0.0599142035
 40
0.0899287023
 40
0.1200139727
 40
0.1350926544
 40
0.1501966973
 40
0.1804840373
 40
0.210897868
 40
0.2414513286
 40
0.2721543342
 40
0.3030133956
 40
0.3340315238
 40
0.3652082165
 40
0.3965395222
 40
0.4280181758
 40
0.459633799
 40
0.4913731572
 40
0.5232204671
 40
0.5551577446
 40
0.5871651885
 40
0.6192215901
 40
0.6513047644
 40
0.683391994
 40
0.715460481
 40
0.7474877999
 40
0.7794523452
 40
0.8113337678
 40
0.8431133918
 40
0.8747746145
 40
0.906303246
 40
0.9376878974
 40
0.9533257627
 40
0.9689252947
 40
1.0
 40
1.0
 40
1.0
 40
1.0
 10
11.7372923496
 20
6.0821957782
 30
0.0
 10
11.7407927694
 20
6.0855769227
 30
0.0
 10
11.746249724
 20
6.0904437683
 30
0.0
 10
11.7538920379
 20
6.0964825143
 30
0.0
 10
11.7617777883
 20
6.1022206823
 30
0.0
 10
11.7720673394
 20
6.1088100435
 30
0.0
 10
11.7828572201
 20
6.1145737717
 30
0.0
 10
11.7917560356
 20
6.1186741873
 30
0.0
 10
11.8008387324
 20
6.1224359905
 30
0.0
 10
11.8124913774
 20
6.126481098
 30
0.0
 10
11.8268515219
 20
6.1302510114
 30
0.0
 10
11.8415250071
 20
6.1329217321
 30
0.0
 10
11.8564305212
 20
6.1344785097
 30
0.0
 10
11.871486183
 20
6.1349130403
 30
0.0
 10
11.8866091522
 20
6.1342231113
 30
0.0
 10
11.901716309
 20
6.132412708
 30
0.0
 10
11.9167246459
 20
6.1294919559
 30
0.0
 10
11.931551735
 20
6.1254770646
 30
0.0
 10
11.9461161698
 20
6.1203902322
 30
0.0
 10
11.9603380076
 20
6.1142595202
 30
0.0
 10
11.9741392011
 20
6.1071186969
 30
0.0
 10
11.9874440216
 20
6.0990070516
 30
0.0
 10
12.0001794681
 20
6.0899691786
 30
0.0
 10
12.0122756637
 20
6.0800547343
 30
0.0
 10
12.0236662336
 20
6.0693181658
 30
0.0
 10
12.0342886659
 20
6.057818415
 30
0.0
 10
12.0440846507
 20
6.045618598
 30
0.0
 10
12.0530003971
 20
6.0327856616
 30
0.0
 10
12.0609869257
 20
6.0193900237
 30
0.0
 10
12.0680003366
 20
6.0055051761
 30
0.0
 10
12.0740020445
 20
5.9912073436
 30
0.0
 10
12.0789590092
 20
5.9765748583
 30
0.0
 10
12.0828438389
 20
5.9616885243
 30
0.0
 10
12.0851728867
 20
5.9491228479
 30
0.0
 10
12.0864794091
 20
5.9390264694
 30
0.0
 10
12.0874118426
 20
5.9289397546
 30
0.0
 10
12.0876941764
 20
5.9213495664
 30
0.0
 10
12.0876941764
 20
5.9162987205
 30
0.0
  0
SPLINE
  5
3FB
100
AcDbEntity
  8
0
100
AcDbSpline
 62
7
  6
CONTINUOUS
 70
0
 71
3
 72
23
 73
19
 74
0
 42
0.0000001
 43
0.0000001
 44
0.0000000001
 40
0.0
 40
0.0
 40
0.0
 40
0.0
 40
0.0612826216
 40
0.1228198277
 40
0.1846013176
 40
0.2466131272
 40
0.3088378774
 40
0.3712550642
 40
0.4338413869
 40
0.496571107
 40
0.5594164343
 40
0.6223479341
 40
0.685334952
 40
0.7483460501
 40
0.8113494511
 40
0.8743134863
 40
0.9372070419
 40
1.0
 40
1.0
 40
1.0
 40
1.0
 10
10.7787403879
 20
8.5207039408
 30
0.0
 10
10.7858390339
 20
8.519972442
 30
0.0
 10
10.8000241697
 20
8.5180647813
 30
0.0
 10
10.8211255245
 20
8.5138962675
 30
0.0
 10
10.8420171662
 20
8.5084306644
 30
0.0
 10
10.8626166325
 20
8.5016894806
 30
0.0
 10
10.882843983
 20
8.4936990455
 30
0.0
 10
10.9026203678
 20
8.484490577
 30
0.0
 10
10.9218687998
 20
8.4741000131
 30
0.0
 10
10.9405143262
 20
8.4625678842
 30
0.0
 10
10.9584843508
 20
8.4499391523
 30
0.0
 10
10.9757089059
 20
8.4362630358
 30
0.0
 10
10.9921209213
 20
8.4215928254
 30
0.0
 10
11.0076564977
 20
8.4059856512
 30
0.0
 10
11.022255097
 20
8.389502362
 30
0.0
 10
11.0358599877
 20
8.3722069144
 30
0.0
 10
11.0484176772
 20
8.3541675263
 30
0.0
 10
11.0560672128
 20
8.3416780752
 30
0.0
 10
11.0597012651
 20
8.3353329477
 30
0.0
  0
SPLINE
  5
3FC
100
AcDbEntity
  8
0
100
AcDbSpline
 62
7
  6
CONTINUOUS
 70
0
 71
3
 72
11
 73
7
 74
0
 42
0.0000001
 43
0.0000001
 44
0.0000000001
 40
0.0
 40
0.0
 40
0.0
 40
0.0
 40
0.2521829303
 40
0.5029936262
 40
0.7522931759
 40
1.0
 40
1.0
 40
1.0
 40
1.0
 10
11.0834717558
 20
8.2855735571
 30
0.0
 10
11.0874600358
 20
8.2753119616
 30
0.0
 10
11.09449401
 20
8.2544724536
 30
0.0
 10
11.1021190501
 20
8.2224813598
 30
0.0
 10
11.1067272563
 20
8.1901153397
 30
0.0
 10
11.1077623501
 20
8.1684044431
 30
0.0
 10
11.1077623501
 20
8.1575904614
 30
0.0
  0
SPLINE
  5
3FD
100
AcDbEntity
  8
0
100
AcDbSpline
 62
7
  6
CONTINUOUS
 70
0
 71
3
 72
32
 73
28
 74
0
 42
0.0000001
 43
0.0000001
 44
0.0000000001
 40
0.0
 40
0.0
 40
0.0
 40
0.0
 40
0.0162143674
 40
0.0334274059
 40
0.0516717689
 40
0.0709708909
 40
0.0913403921
 40
0.112789524
 40
0.1353217965
 40
0.1589361955
 40
0.1836273734
 40
0.2093865654
 40
0.2362017076
 40
0.2640579491
 40
0.2929379222
 40
0.3228218486
 40
0.353688004
 40
0.3855125376
 40
0.4182700178
 40
0.4519331819
 40
0.521858914
 40
0.595045151
 40
0.6712256129
 40
0.75011651
 40
0.8314192079
 40
0.9148210025
 40
1.0
 40
1.0
 40
1.0
 40
1.0
 10
12.8616423905
 20
8.8187196059
 30
0.0
 10
12.8603109752
 20
8.8203566411
 30
0.0
 10
12.8576782052
 20
8.82382375
 30
0.0
 10
12.8539235655
 20
8.8294060213
 30
0.0
 10
12.8502514629
 20
8.8355162016
 30
0.0
 10
12.8466656914
 20
8.842147828
 30
0.0
 10
12.8431696706
 20
8.8492942524
 30
0.0
 10
12.8397670239
 20
8.8569481772
 30
0.0
 10
12.8364611538
 20
8.8651017261
 30
0.0
 10
12.8332555732
 20
8.8737464982
 30
0.0
 10
12.8301535587
 20
8.8828735132
 30
0.0
 10
12.8271584211
 20
8.8924732825
 30
0.0
 10
12.8242732881
 20
8.9025357841
 30
0.0
 10
12.8215012101
 20
8.9130504969
 30
0.0
 10
12.8188451417
 20
8.9240064089
 30
0.0
 10
12.8163078544
 20
8.9353920278
 30
0.0
 10
12.813892091
 20
8.9471954038
 30
0.0
 10
12.8116003593
 20
8.9594041307
 30
0.0
 10
12.8094351167
 20
8.9720053899
 30
0.0
 10
12.8066850081
 20
8.9895353607
 30
0.0
 10
12.8035953403
 20
9.01233509
 30
0.0
 10
12.8004699716
 20
9.040704353
 30
0.0
 10
12.7978951299
 20
9.0703000086
 30
0.0
 10
12.7958818696
 20
9.1009974872
 30
0.0
 10
12.7944389434
 20
9.1326676826
 30
0.0
 10
12.793572582
 20
9.1651772614
 30
0.0
 10
12.7933836922
 20
9.1871165787
 30
0.0
 10
12.7933836922
 20
9.1982016109
 30
0.0
  0
SPLINE
  5
3FE
100
AcDbEntity
  8
0
100
AcDbSpline
 62
7
  6
CONTINUOUS
 70
0
 71
3
 72
32
 73
28
 74
0
 42
0.0000001
 43
0.0000001
 44
0.0000000001
 40
0.0
 40
0.0
 40
0.0
 40
0.0
 40
0.0162143674
 40
0.0334274059
 40
0.0516717689
 40
0.0709708909
 40
0.0913403921
 40
0.112789524
 40
0.1353217965
 40
0.1589361955
 40
0.1836273734
 40
0.2093865654
 40
0.2362017076
 40
0.2640579491
 40
0.2929379222
 40
0.3228218486
 40
0.353688004
 40
0.3855125376
 40
0.4182700178
 40
0.4519331819
 40
0.521858914
 40
0.595045151
 40
0.6712256129
 40
0.75011651
 40
0.8314192079
 40
0.9148210025
 40
1.0
 40
1.0
 40
1.0
 40
1.0
 10
12.8616423905
 20
6.8868678389
 30
0.0
 10
12.8603109752
 20
6.8885048741
 30
0.0
 10
12.8576782052
 20
6.891971983
 30
0.0
 10
12.8539235655
 20
6.8975542543
 30
0.0
 10
12.8502514629
 20
6.9036644346
 30
0.0
 10
12.8466656914
 20
6.9102960609
 30
0.0
 10
12.8431696706
 20
6.9174424854
 30
0.0
 10
12.8397670239
 20
6.9250964102
 30
0.0
 10
12.8364611538
 20
6.9332499591
 30
0.0
 10
12.8332555732
 20
6.9418947311
 30
0.0
 10
12.8301535587
 20
6.9510217461
 30
0.0
 10
12.8271584211
 20
6.9606215154
 30
0.0
 10
12.8242732881
 20
6.9706840171
 30
0.0
 10
12.8215012101
 20
6.9811987299
 30
0.0
 10
12.8188451417
 20
6.9921546418
 30
0.0
 10
12.8163078544
 20
7.0035402607
 30
0.0
 10
12.813892091
 20
7.0153436368
 30
0.0
 10
12.8116003593
 20
7.0275523636
 30
0.0
 10
12.8094351167
 20
7.0401536229
 30
0.0
 10
12.8066850081
 20
7.0576835937
 30
0.0
 10
12.8035953403
 20
7.0804833229
 30
0.0
 10
12.8004699716
 20
7.108852586
 30
0.0
 10
12.7978951299
 20
7.1384482416
 30
0.0
 10
12.7958818696
 20
7.1691457202
 30
0.0
 10
12.7944389434
 20
7.2008159155
 30
0.0
 10
12.793572582
 20
7.2333254943
 30
0.0
 10
12.7933836922
 20
7.2552648117
 30
0.0
 10
12.7933836922
 20
7.2663498439
 30
0.0
  0
SPLINE
  5
3FF
100
AcDbEntity
  8
0
100
AcDbSpline
 62
7
  6
CONTINUOUS
 70
0
 71
3
 72
49
 73
45
 74
0
 42
0.0000001
 43
0.0000001
 44
0.0000000001
 40
0.0
 40
0.0
 40
0.0
 40
0.0
 40
0.0407240268
 40
0.0819121466
 40
0.1234454262
 40
0.1652055429
 40
0.2070722182
 40
0.2489252605
 40
0.2906443586
 40
0.3321097432
 40
0.373202557
 40
0.4138053153
 40
0.4538023466
 40
0.4930802455
 40
0.531528329
 40
0.5690391037
 40
0.6055087493
 40
0.6408376244
 40
0.6749308044
 40
0.7076986651
 40
0.7390575316
 40
0.7689304204
 40
0.7972479179
 40
0.8239492544
 40
0.8366781195
 40
0.8489848292
 40
0.8608649183
 40
0.8723147373
 40
0.8833317175
 40
0.8939142369
 40
0.9040620502
 40
0.9137761318
 40
0.923059169
 40
0.9319155371
 40
0.9403517602
 40
0.9483767466
 40
0.956002185
 40
0.9632430917
 40
0.9701181735
 40
0.9766506212
 40
0.9828684595
 40
0.9888053309
 40
0.9945006793
 40
1.0
 40
1.0
 40
1.0
 40
1.0
 10
12.9698907753
 20
9.4506943711
 30
0.0
 10
12.9698907753
 20
9.4425634875
 30
0.0
 10
12.9697687351
 20
9.426208823
 30
0.0
 10
12.9692288873
 20
9.4015670568
 30
0.0
 10
12.9683326273
 20
9.3767286426
 30
0.0
 10
12.9670827265
 20
9.3517698902
 30
0.0
 10
12.9654829733
 20
9.3267671456
 30
0.0
 10
12.9635382844
 20
9.3017970773
 30
0.0
 10
12.9612546146
 20
9.2769361756
 30
0.0
 10
12.9586389765
 20
9.252260622
 30
0.0
 10
12.9556994026
 20
9.2278460181
 30
0.0
 10
12.9524449273
 20
9.2037671636
 30
0.0
 10
12.9488855573
 20
9.1800978221
 30
0.0
 10
12.9450322439
 20
9.1569104919
 30
0.0
 10
12.940896848
 20
9.1342761819
 30
0.0
 10
12.9364921046
 20
9.1122641902
 30
0.0
 10
12.9318315845
 20
9.0909418878
 30
0.0
 10
12.9269296534
 20
9.0703745055
 30
0.0
 10
12.9218014283
 20
9.0506249285
 30
0.0
 10
12.9164627312
 20
9.0317534845
 30
0.0
 10
12.910930038
 20
9.0138177738
 30
0.0
 10
12.9052204274
 20
8.9968723685
 30
0.0
 10
12.8993515056
 20
8.9809689742
 30
0.0
 10
12.8942652395
 20
8.9684321565
 30
0.0
 10
12.8901197249
 20
8.9589702099
 30
0.0
 10
12.88703166
 20
8.9522772481
 30
0.0
 10
12.8839174008
 20
8.9458792529
 30
0.0
 10
12.8807792445
 20
8.9397810962
 30
0.0
 10
12.8776196591
 20
8.9339873829
 30
0.0
 10
12.8744409625
 20
8.9285025275
 30
0.0
 10
12.8712456477
 20
8.9233306364
 30
0.0
 10
12.8680360351
 20
8.9184756371
 30
0.0
 10
12.8648145926
 20
8.9139411383
 30
0.0
 10
12.861583649
 20
8.9097305535
 30
0.0
 10
12.8583455835
 20
8.9058470088
 30
0.0
 10
12.8551027168
 20
8.9022933888
 30
0.0
 10
12.8518572828
 20
8.8990723778
 30
0.0
 10
12.8486115469
 20
8.8961863571
 30
0.0
 10
12.8453675709
 20
8.893637655
 30
0.0
 10
12.8421275117
 20
8.8914282625
 30
0.0
 10
12.8388933597
 20
8.8895602999
 30
0.0
 10
12.8356671242
 20
8.8880355662
 30
0.0
 10
12.8324514266
 20
8.8868561623
 30
0.0
 10
12.830283814
 20
8.8862929473
 30
0.0
 10
12.8292080953
 20
8.886072951
 30
0.0
  0
SPLINE
  5
400
100
AcDbEntity
  8
0
100
AcDbSpline
 62
7
  6
CONTINUOUS
 70
0
 71
3
 72
35
 73
31
 74
0
 42
0.0000001
 43
0.0000001
 44
0.0000000001
 40
0.0
 40
0.0
 40
0.0
 40
0.0
 40
0.0933765687
 40
0.1843621282
 40
0.272465087
 40
0.3572126041
 40
0.3981885962
 40
0.4381609428
 40
0.4770787413
 40
0.514893316
 40
0.5515585542
 40
0.5870308295
 40
0.6212695175
 40
0.6542371487
 40
0.6858995829
 40
0.7162267099
 40
0.7451925579
 40
0.772775971
 40
0.798961421
 40
0.823739512
 40
0.8471083984
 40
0.8690749991
 40
0.889656641
 40
0.9088836958
 40
0.9268021606
 40
0.9434775189
 40
0.9589993238
 40
0.9734859546
 40
0.9870897492
 40
1.0
 40
1.0
 40
1.0
 40
1.0
 10
12.9698907753
 20
9.4506943711
 30
0.0
 10
12.9698907753
 20
9.4617943557
 30
0.0
 10
12.9696677472
 20
9.4837108548
 30
0.0
 10
12.968641376
 20
9.516085982
 30
0.0
 10
12.9669332821
 20
9.5474053274
 30
0.0
 10
12.9649288673
 20
9.5727475123
 30
0.0
 10
12.9629794425
 20
9.5923481637
 30
0.0
 10
12.9613708209
 20
9.6065064654
 30
0.0
 10
12.959601726
 20
9.6202668155
 30
0.0
 10
12.9576747497
 20
9.6336089097
 30
0.0
 10
12.955592813
 20
9.6465130445
 30
0.0
 10
12.9533589838
 20
9.6589601786
 30
0.0
 10
12.9509766117
 20
9.6709319589
 30
0.0
 10
12.9484492681
 20
9.6824107506
 30
0.0
 10
12.9457806775
 20
9.6933796596
 30
0.0
 10
12.942974858
 20
9.7038225794
 30
0.0
 10
12.9400359633
 20
9.7137242034
 30
0.0
 10
12.9369683277
 20
9.7230700572
 30
0.0
 10
12.933776525
 20
9.7318465496
 30
0.0
 10
12.9304651767
 20
9.7400409637
 30
0.0
 10
12.9270390936
 20
9.7476415253
 30
0.0
 10
12.9235031639
 20
9.7546374203
 30
0.0
 10
12.9198622052
 20
9.7610187648
 30
0.0
 10
12.9161210817
 20
9.7667766958
 30
0.0
 10
12.9122843996
 20
9.7719032275
 30
0.0
 10
12.9083564079
 20
9.7763911524
 30
0.0
 10
12.9043411865
 20
9.7802338161
 30
0.0
 10
12.900241831
 20
9.7834246729
 30
0.0
 10
12.8960633029
 20
9.7859562653
 30
0.0
 10
12.893165581
 20
9.7872261711
 30
0.0
 10
12.8917185125
 20
9.7877372971
 30
0.0
  0
SPLINE
  5
401
100
AcDbEntity
  8
0
100
AcDbSpline
 62
7
  6
CONTINUOUS
 70
0
 71
3
 72
49
 73
45
 74
0
 42
0.0000001
 43
0.0000001
 44
0.0000000001
 40
0.0
 40
0.0
 40
0.0
 40
0.0
 40
0.0407240268
 40
0.0819121466
 40
0.1234454262
 40
0.1652055429
 40
0.2070722182
 40
0.2489252605
 40
0.2906443586
 40
0.3321097432
 40
0.373202557
 40
0.4138053153
 40
0.4538023466
 40
0.4930802455
 40
0.531528329
 40
0.5690391037
 40
0.6055087493
 40
0.6408376244
 40
0.6749308044
 40
0.7076986651
 40
0.7390575316
 40
0.7689304204
 40
0.7972479179
 40
0.8239492544
 40
0.8366781195
 40
0.8489848292
 40
0.8608649183
 40
0.8723147373
 40
0.8833317175
 40
0.8939142369
 40
0.9040620502
 40
0.9137761318
 40
0.923059169
 40
0.9319155371
 40
0.9403517602
 40
0.9483767466
 40
0.956002185
 40
0.9632430917
 40
0.9701181735
 40
0.9766506212
 40
0.9828684595
 40
0.9888053309
 40
0.9945006793
 40
1.0
 40
1.0
 40
1.0
 40
1.0
 10
12.9698907753
 20
7.518842604
 30
0.0
 10
12.9698907753
 20
7.5107117205
 30
0.0
 10
12.9697687351
 20
7.494357056
 30
0.0
 10
12.9692288873
 20
7.4697152897
 30
0.0
 10
12.9683326273
 20
7.4448768756
 30
0.0
 10
12.9670827265
 20
7.4199181231
 30
0.0
 10
12.9654829733
 20
7.3949153785
 30
0.0
 10
12.9635382844
 20
7.3699453102
 30
0.0
 10
12.9612546146
 20
7.3450844086
 30
0.0
 10
12.9586389765
 20
7.320408855
 30
0.0
 10
12.9556994026
 20
7.295994251
 30
0.0
 10
12.9524449273
 20
7.2719153966
 30
0.0
 10
12.9488855573
 20
7.248246055
 30
0.0
 10
12.9450322439
 20
7.2250587248
 30
0.0
 10
12.940896848
 20
7.2024244149
 30
0.0
 10
12.9364921046
 20
7.1804124232
 30
0.0
 10
12.9318315845
 20
7.1590901208
 30
0.0
 10
12.9269296534
 20
7.1385227385
 30
0.0
 10
12.9218014283
 20
7.1187731614
 30
0.0
 10
12.9164627312
 20
7.0999017174
 30
0.0
 10
12.910930038
 20
7.0819660067
 30
0.0
 10
12.9052204274
 20
7.0650206014
 30
0.0
 10
12.8993515056
 20
7.0491172071
 30
0.0
 10
12.8942652395
 20
7.0365803894
 30
0.0
 10
12.8901197249
 20
7.0271184428
 30
0.0
 10
12.88703166
 20
7.0204254811
 30
0.0
 10
12.8839174008
 20
7.0140274858
 30
0.0
 10
12.8807792445
 20
7.0079293291
 30
0.0
 10
12.8776196591
 20
7.0021356158
 30
0.0
 10
12.8744409625
 20
6.9966507604
 30
0.0
 10
12.8712456477
 20
6.9914788693
 30
0.0
 10
12.8680360351
 20
6.9866238701
 30
0.0
 10
12.8648145926
 20
6.9820893713
 30
0.0
 10
12.861583649
 20
6.9778787864
 30
0.0
 10
12.8583455835
 20
6.9739952418
 30
0.0
 10
12.8551027168
 20
6.9704416217
 30
0.0
 10
12.8518572828
 20
6.9672206108
 30
0.0
 10
12.8486115469
 20
6.9643345901
 30
0.0
 10
12.8453675709
 20
6.9617858879
 30
0.0
 10
12.8421275117
 20
6.9595764954
 30
0.0
 10
12.8388933597
 20
6.9577085329
 30
0.0
 10
12.8356671242
 20
6.9561837992
 30
0.0
 10
12.8324514266
 20
6.9550043952
 30
0.0
 10
12.830283814
 20
6.9544411803
 30
0.0
 10
12.8292080953
 20
6.9542211839
 30
0.0
  0
SPLINE
  5
402
100
AcDbEntity
  8
0
100
AcDbSpline
 62
7
  6
CONTINUOUS
 70
0
 71
3
 72
35
 73
31
 74
0
 42
0.0000001
 43
0.0000001
 44
0.0000000001
 40
0.0
 40
0.0
 40
0.0
 40
0.0
 40
0.0933765687
 40
0.1843621282
 40
0.272465087
 40
0.3572126041
 40
0.3981885962
 40
0.4381609428
 40
0.4770787413
 40
0.514893316
 40
0.5515585542
 40
0.5870308295
 40
0.6212695175
 40
0.6542371487
 40
0.6858995829
 40
0.7162267099
 40
0.7451925579
 40
0.772775971
 40
0.798961421
 40
0.823739512
 40
0.8471083984
 40
0.8690749991
 40
0.889656641
 40
0.9088836958
 40
0.9268021606
 40
0.9434775189
 40
0.9589993238
 40
0.9734859546
 40
0.9870897492
 40
1.0
 40
1.0
 40
1.0
 40
1.0
 10
12.9698907753
 20
7.518842604
 30
0.0
 10
12.9698907753
 20
7.5299425886
 30
0.0
 10
12.9696677472
 20
7.5518590878
 30
0.0
 10
12.968641376
 20
7.584234215
 30
0.0
 10
12.9669332821
 20
7.6155535604
 30
0.0
 10
12.9649288673
 20
7.6408957453
 30
0.0
 10
12.9629794425
 20
7.6604963967
 30
0.0
 10
12.9613708209
 20
7.6746546984
 30
0.0
 10
12.959601726
 20
7.6884150485
 30
0.0
 10
12.9576747497
 20
7.7017571426
 30
0.0
 10
12.955592813
 20
7.7146612775
 30
0.0
 10
12.9533589838
 20
7.7271084116
 30
0.0
 10
12.9509766117
 20
7.7390801918
 30
0.0
 10
12.9484492681
 20
7.7505589835
 30
0.0
 10
12.9457806775
 20
7.7615278925
 30
0.0
 10
12.942974858
 20
7.7719708124
 30
0.0
 10
12.9400359633
 20
7.7818724364
 30
0.0
 10
12.9369683277
 20
7.7912182901
 30
0.0
 10
12.933776525
 20
7.7999947825
 30
0.0
 10
12.9304651767
 20
7.8081891967
 30
0.0
 10
12.9270390936
 20
7.8157897583
 30
0.0
 10
12.9235031639
 20
7.8227856532
 30
0.0
 10
12.9198622052
 20
7.8291669977
 30
0.0
 10
12.9161210817
 20
7.8349249288
 30
0.0
 10
12.9122843996
 20
7.8400514604
 30
0.0
 10
12.9083564079
 20
7.8445393854
 30
0.0
 10
12.9043411865
 20
7.848382049
 30
0.0
 10
12.900241831
 20
7.8515729059
 30
0.0
 10
12.8960633029
 20
7.8541044982
 30
0.0
 10
12.893165581
 20
7.855374404
 30
0.0
 10
12.8917185125
 20
7.85588553
 30
0.0
  0
SPLINE
  5
403
100
AcDbEntity
  8
0
100
AcDbSpline
 62
7
  6
CONTINUOUS
 70
0
 71
3
 72
56
 73
52
 74
0
 42
0.0000001
 43
0.0000001
 44
0.0000000001
 40
0.0
 40
0.0
 40
0.0
 40
0.0
 40
0.0452110821
 40
0.0910028416
 40
0.137191398
 40
0.1835897625
 40
0.2300103992
 40
0.2762654921
 40
0.3221681167
 40
0.3675331544
 40
0.4121782762
 40
0.4559249248
 40
0.4985993111
 40
0.5400334363
 40
0.5800661533
 40
0.6185442889
 40
0.6553238573
 40
0.6730349525
 40
0.6902723337
 40
0.7070211838
 40
0.7232676448
 40
0.7389987385
 40
0.7542025355
 40
0.768868233
 40
0.7829861927
 40
0.7965482101
 40
0.8095474667
 40
0.8219789328
 40
0.8338393804
 40
0.845127812
 40
0.8558457126
 40
0.8659974615
 40
0.8755909414
 40
0.8846380208
 40
0.8931555532
 40
0.901166129
 40
0.9086993909
 40
0.9157931751
 40
0.9224948492
 40
0.9288623962
 40
0.9349648332
 40
0.9408817182
 40
0.9467010143
 40
0.9525155609
 40
0.9584184375
 40
0.9644982986
 40
0.97083565
 40
0.9775006623
 40
0.9845523835
 40
0.9920392588
 40
1.0
 40
1.0
 40
1.0
 40
1.0
 10
13.0703198419
 20
7.5338496389
 30
0.0
 10
13.0703198419
 20
7.5224430401
 30
0.0
 10
13.0701164124
 20
7.4994828778
 30
0.0
 10
13.0692193914
 20
7.4648800387
 30
0.0
 10
13.0677319644
 20
7.4299976545
 30
0.0
 10
13.0656604778
 20
7.3949861874
 30
0.0
 10
13.0630138678
 20
7.3599966524
 30
0.0
 10
13.0598035478
 20
7.3251799166
 30
0.0
 10
13.0560433976
 20
7.2906861158
 30
0.0
 10
13.0517496881
 20
7.2566639765
 30
0.0
 10
13.0469410187
 20
7.2232601731
 30
0.0
 10
13.0416382386
 20
7.1906186867
 30
0.0
 10
13.0358643579
 20
7.1588801676
 30
0.0
 10
13.029644446
 20
7.1281813423
 30
0.0
 10
13.0230055447
 20
7.0986543133
 30
0.0
 10
13.0159764899
 20
7.0704262948
 30
0.0
 10
13.009743595
 20
7.0478107957
 30
0.0
 10
13.0045729062
 20
7.0304679323
 30
0.0
 10
13.0006654752
 20
7.0180234072
 30
0.0
 10
12.9966840437
 20
7.0059909569
 30
0.0
 10
12.9926329279
 20
6.9943835106
 30
0.0
 10
12.9885164908
 20
6.9832135571
 30
0.0
 10
12.9843391851
 20
6.9724930972
 30
0.0
 10
12.9801055451
 20
6.9622336338
 30
0.0
 10
12.975820098
 20
6.9524461754
 30
0.0
 10
12.9714875251
 20
6.9431411813
 30
0.0
 10
12.9671124188
 20
6.9343286087
 30
0.0
 10
12.9626995392
 20
6.9260178239
 30
0.0
 10
12.958253549
 20
6.9182176654
 30
0.0
 10
12.9537791944
 20
6.9109363701
 30
0.0
 10
12.9492811847
 20
6.904181592
 30
0.0
 10
12.9447641539
 20
6.8979604146
 30
0.0
 10
12.9402327655
 20
6.8922792687
 30
0.0
 10
12.9356914332
 20
6.8871440909
 30
0.0
 10
12.9311445886
 20
6.8825601483
 30
0.0
 10
12.926596306
 20
6.878532339
 30
0.0
 10
12.9220505715
 20
6.8750650692
 30
0.0
 10
12.9175110998
 20
6.8721625838
 30
0.0
 10
12.9129815675
 20
6.8698291043
 30
0.0
 10
12.9084659391
 20
6.8680688869
 30
0.0
 10
12.9039688474
 20
6.8668864619
 30
0.0
 10
12.899496257
 20
6.8662857615
 30
0.0
 10
12.89505551
 20
6.8662698358
 30
0.0
 10
12.8906549368
 20
6.8668393444
 30
0.0
 10
12.8863027482
 20
6.8679926828
 30
0.0
 10
12.8820059983
 20
6.8697260853
 30
0.0
 10
12.8777701253
 20
6.872034732
 30
0.0
 10
12.8735993147
 20
6.8749136488
 30
0.0
 10
12.8694967902
 20
6.878357952
 30
0.0
 10
12.8654659199
 20
6.8823628257
 30
0.0
 10
12.8629096743
 20
6.8853096564
 30
0.0
 10
12.8616423905
 20
6.8868678389
 30
0.0
  0
SPLINE
  5
404
100
AcDbEntity
  8
0
100
AcDbSpline
 62
7
  6
CONTINUOUS
 70
0
 71
3
 72
50
 73
46
 74
0
 42
0.0000001
 43
0.0000001
 44
0.0000000001
 40
0.0
 40
0.0
 40
0.0
 40
0.0
 40
0.0411096842
 40
0.082668518
 40
0.124555203
 40
0.1666489361
 40
0.2088270953
 40
0.2509671839
 40
0.2929466889
 40
0.334643751
 40
0.3759375584
 40
0.4167088298
 40
0.4568402768
 40
0.4962170803
 40
0.5347273751
 40
0.5722627466
 40
0.6087187464
 40
0.6439954369
 40
0.6779979749
 40
0.710637251
 40
0.7418306096
 40
0.7715026819
 40
0.7995863831
 40
0.8130147052
 40
0.8260252645
 40
0.8386125434
 40
0.8507719892
 40
0.862499827
 40
0.8737933681
 40
0.8846509813
 40
0.8950722819
 40
0.905058324
 40
0.9146116687
 40
0.9237368091
 40
0.9324401823
 40
0.9407307854
 40
0.9486202531
 40
0.9561235764
 40
0.9632593669
 40
0.9700505675
 40
0.9765249075
 40
0.9827154303
 40
0.9886608901
 40
0.9944057571
 40
1.0
 40
1.0
 40
1.0
 40
1.0
 10
11.1109848844
 20
11.0902934479
 30
0.0
 10
11.1027894753
 20
11.0908618014
 30
0.0
 10
11.086300001
 20
11.0918770211
 30
0.0
 10
11.0614357036
 20
11.0930334155
 30
0.0
 10
11.0363604754
 20
11.0938294528
 30
0.0
 10
11.0111526051
 20
11.0942626642
 30
0.0
 10
10.9858904689
 20
11.0943316699
 30
0.0
 10
10.9606527927
 20
11.0940362667
 30
0.0
 10
10.9355181515
 20
11.0933773745
 30
0.0
 10
10.9105648238
 20
11.0923570623
 30
0.0
 10
10.8858705117
 20
11.0909785289
 30
0.0
 10
10.8615121078
 20
11.0892460988
 30
0.0
 10
10.8375654506
 20
11.0871652069
 30
0.0
 10
10.814105086
 20
11.0847423838
 30
0.0
 10
10.7912040309
 20
11.0819852367
 30
0.0
 10
10.7689335424
 20
11.078902425
 30
0.0
 10
10.7473628899
 20
11.0755036348
 30
0.0
 10
10.7265591348
 20
11.0717995491
 30
0.0
 10
10.7065869044
 20
11.0678018162
 30
0.0
 10
10.6875082052
 20
11.0635230092
 30
0.0
 10
10.6693821165
 20
11.0589765976
 30
0.0
 10
10.6522649157
 20
11.0541768554
 30
0.0
 10
10.6386896905
 20
11.0499174039
 30
0.0
 10
10.628382593
 20
11.0463839216
 30
0.0
 10
10.6210525793
 20
11.0437195936
 30
0.0
 10
10.6140127023
 20
11.0410034438
 30
0.0
 10
10.6072683887
 20
11.0382376216
 30
0.0
 10
10.6008248639
 20
11.0354242295
 30
0.0
 10
10.5946870913
 20
11.0325654806
 30
0.0
 10
10.588859798
 20
11.0296635728
 30
0.0
 10
10.5833474661
 20
11.026720724
 30
0.0
 10
10.5781543003
 20
11.0237392257
 30
0.0
 10
10.5732842935
 20
11.0207212758
 30
0.0
 10
10.568741111
 20
11.0176692264
 30
0.0
 10
10.5645282515
 20
11.0145852403
 30
0.0
 10
10.5606488481
 20
11.0114716661
 30
0.0
 10
10.5571059099
 20
11.0083306226
 30
0.0
 10
10.5539020956
 20
11.0051643718
 30
0.0
 10
10.551039965
 20
11.0019749827
 30
0.0
 10
10.5485218376
 20
10.9987645824
 30
0.0
 10
10.5463499336
 20
10.9955352212
 30
0.0
 10
10.5445264425
 20
10.99228902
 30
0.0
 10
10.5430533596
 20
10.9890280997
 30
0.0
 10
10.5419329006
 20
10.9857553731
 30
0.0
 10
10.5414167421
 20
10.983544131
 30
0.0
 10
10.5412206813
 20
10.9824435406
 30
0.0
  0
SPLINE
  5
405
100
AcDbEntity
  8
0
100
AcDbSpline
 62
7
  6
CONTINUOUS
 70
0
 71
3
 72
57
 73
53
 74
0
 42
0.0000001
 43
0.0000001
 44
0.0000000001
 40
0.0
 40
0.0
 40
0.0
 40
0.0
 40
0.0082490316
 40
0.0160248414
 40
0.0233637939
 40
0.0303112656
 40
0.0369224454
 40
0.043262926
 40
0.0494081764
 40
0.0554418789
 40
0.0614528673
 40
0.0675310688
 40
0.0737632072
 40
0.0802292121
 40
0.0869997487
 40
0.0941352606
 40
0.1016859567
 40
0.1096925942
 40
0.1181876014
 40
0.1271961379
 40
0.1367373563
 40
0.1468251615
 40
0.15746923
 40
0.1686755082
 40
0.1804468671
 40
0.1927835203
 40
0.2056833202
 40
0.2191421913
 40
0.2331541714
 40
0.2477118263
 40
0.2628062093
 40
0.2784271526
 40
0.2945632987
 40
0.3112022011
 40
0.3283304856
 40
0.3459337859
 40
0.3639969859
 40
0.3825040958
 40
0.4207819723
 40
0.4606269098
 40
0.5018880399
 40
0.5444062511
 40
0.5880153451
 40
0.6325431247
 40
0.6778124354
 40
0.7236421777
 40
0.7698483017
 40
0.8162448021
 40
0.8626446417
 40
0.9088609325
 40
0.9547072079
 40
1.0
 40
1.0
 40
1.0
 40
1.0
 10
10.4783028121
 20
11.0191474838
 30
0.0
 10
10.4767779059
 20
11.0205665774
 30
0.0
 10
10.4738991248
 20
11.0234155402
 30
0.0
 10
10.4700083075
 20
11.027857848
 30
0.0
 10
10.4666812946
 20
11.0323349528
 30
0.0
 10
10.4639226744
 20
11.0368428805
 30
0.0
 10
10.4617370152
 20
11.0413778697
 30
0.0
 10
10.4601288144
 20
11.045935356
 30
0.0
 10
10.4591024224
 20
11.0505097932
 30
0.0
 10
10.4586612532
 20
11.0550942721
 30
0.0
 10
10.4588068964
 20
11.0596808369
 30
0.0
 10
10.4595389104
 20
11.0642612663
 30
0.0
 10
10.4608545272
 20
11.0688280834
 30
0.0
 10
10.4627499423
 20
11.0733750063
 30
0.0
 10
10.4652205308
 20
11.0778970939
 30
0.0
 10
10.4682618169
 20
11.0823901697
 30
0.0
 10
10.4718692822
 20
11.0868505078
 30
0.0
 10
10.4760384135
 20
11.0912744496
 30
0.0
 10
10.4807645508
 20
11.0956581647
 30
0.0
 10
10.4860425871
 20
11.0999977891
 30
0.0
 10
10.4918670656
 20
11.1042891417
 30
0.0
 10
10.498231878
 20
11.1085281061
 30
0.0
 10
10.5051304333
 20
11.1127103328
 30
0.0
 10
10.5125554882
 20
11.1168315536
 30
0.0
 10
10.5204992358
 20
11.1208874417
 30
0.0
 10
10.5289532803
 20
11.124873682
 30
0.0
 10
10.5379086297
 20
11.1287860707
 30
0.0
 10
10.5473557569
 20
11.1326203452
 30
0.0
 10
10.5572845488
 20
11.1363724508
 30
0.0
 10
10.5676843843
 20
11.1400382722
 30
0.0
 10
10.578544096
 20
11.1436138961
 30
0.0
 10
10.5898520204
 20
11.1470954267
 30
0.0
 10
10.6015959949
 20
11.1504790934
 30
0.0
 10
10.613763375
 20
11.1537612534
 30
0.0
 10
10.6263410588
 20
11.1569383073
 30
0.0
 10
10.6393154823
 20
11.1600068584
 30
0.0
 10
10.6526726752
 20
11.1629635519
 30
0.0
 10
10.6711815299
 20
11.1667954129
 30
0.0
 10
10.6951720337
 20
11.1712690924
 30
0.0
 10
10.7249345102
 20
11.1760856282
 30
0.0
 10
10.7558570449
 20
11.1803875725
 30
0.0
 10
10.7878061848
 20
11.1841561661
 30
0.0
 10
10.8206442011
 20
11.1873749365
 30
0.0
 10
10.8542294101
 20
11.1900298355
 30
0.0
 10
10.8884168808
 20
11.192109277
 30
0.0
 10
10.923059048
 20
11.193604192
 30
0.0
 10
10.9580063665
 20
11.1945080646
 30
0.0
 10
10.9931079567
 20
11.1948169521
 30
0.0
 10
11.0282122875
 20
11.1945295159
 30
0.0
 10
11.0631677646
 20
11.1936469923
 30
0.0
 10
11.0978234261
 20
11.1921732607
 30
0.0
 10
11.1207979829
 20
11.190790644
 30
0.0
 10
11.1322080286
 20
11.1899993546
 30
0.0
  0
SPLINE
  5
406
100
AcDbEntity
  8
0
100
AcDbSpline
 62
7
  6
CONTINUOUS
 70
0
 71
3
 72
42
 73
38
 74
0
 42
0.0000001
 43
0.0000001
 44
0.0000000001
 40
0.0
 40
0.0
 40
0.0
 40
0.0
 40
0.0299419644
 40
0.0449235317
 40
0.0599142035
 40
0.0899287023
 40
0.1200139727
 40
0.1350926544
 40
0.1501966973
 40
0.1804840373
 40
0.210897868
 40
0.2414513286
 40
0.2721543342
 40
0.3030133956
 40
0.3340315238
 40
0.3652082165
 40
0.3965395222
 40
0.4280181758
 40
0.459633799
 40
0.4913731572
 40
0.5232204671
 40
0.5551577446
 40
0.5871651885
 40
0.6192215901
 40
0.6513047644
 40
0.683391994
 40
0.715460481
 40
0.7474877999
 40
0.7794523452
 40
0.8113337678
 40
0.8431133918
 40
0.8747746145
 40
0.906303246
 40
0.9376878974
 40
0.9533257627
 40
0.9689252947
 40
1.0
 40
1.0
 40
1.0
 40
1.0
 10
12.0304752804
 20
10.1253367317
 30
0.0
 10
12.0269748607
 20
10.1219555872
 30
0.0
 10
12.021517906
 20
10.1170887416
 30
0.0
 10
12.0138755922
 20
10.1110499956
 30
0.0
 10
12.0059898417
 20
10.1053118276
 30
0.0
 10
11.9957002906
 20
10.0987224664
 30
0.0
 10
11.98491041
 20
10.0929587382
 30
0.0
 10
11.9760115944
 20
10.0888583226
 30
0.0
 10
11.9669288976
 20
10.0850965194
 30
0.0
 10
11.9552762526
 20
10.081051412
 30
0.0
 10
11.9409161081
 20
10.0772814985
 30
0.0
 10
11.926242623
 20
10.0746107778
 30
0.0
 10
11.9113371089
 20
10.0730540002
 30
0.0
 10
11.896281447
 20
10.0726194696
 30
0.0
 10
11.8811584779
 20
10.0733093987
 30
0.0
 10
11.8660513211
 20
10.0751198019
 30
0.0
 10
11.8510429841
 20
10.078040554
 30
0.0
 10
11.836215895
 20
10.0820554453
 30
0.0
 10
11.8216514602
 20
10.0871422777
 30
0.0
 10
11.8074296225
 20
10.0932729897
 30
0.0
 10
11.7936284289
 20
10.100413813
 30
0.0
 10
11.7803236085
 20
10.1085254584
 30
0.0
 10
11.7675881619
 20
10.1175633313
 30
0.0
 10
11.7554919664
 20
10.1274777756
 30
0.0
 10
11.7441013964
 20
10.1382143441
 30
0.0
 10
11.7334789641
 20
10.1497140949
 30
0.0
 10
11.7236829793
 20
10.1619139119
 30
0.0
 10
11.7147672329
 20
10.1747468484
 30
0.0
 10
11.7067807043
 20
10.1881424863
 30
0.0
 10
11.6997672935
 20
10.2020273339
 30
0.0
 10
11.6937655856
 20
10.2163251663
 30
0.0
 10
11.6888086208
 20
10.2309576516
 30
0.0
 10
11.6849237912
 20
10.2458439856
 30
0.0
 10
11.6825947434
 20
10.258409662
 30
0.0
 10
11.681288221
 20
10.2685060405
 30
0.0
 10
11.6803557874
 20
10.2785927553
 30
0.0
 10
11.6800734536
 20
10.2861829435
 30
0.0
 10
11.6800734536
 20
10.2912337895
 30
0.0
  0
SPLINE
  5
407
100
AcDbEntity
  8
0
100
AcDbSpline
 62
7
  6
CONTINUOUS
 70
0
 71
3
 72
42
 73
38
 74
0
 42
0.0000001
 43
0.0000001
 44
0.0000000001
 40
0.0
 40
0.0
 40
0.0
 40
0.0
 40
0.0299419644
 40
0.0449235317
 40
0.0599142035
 40
0.0899287023
 40
0.1200139727
 40
0.1350926544
 40
0.1501966973
 40
0.1804840373
 40
0.210897868
 40
0.2414513286
 40
0.2721543342
 40
0.3030133956
 40
0.3340315238
 40
0.3652082165
 40
0.3965395222
 40
0.4280181758
 40
0.459633799
 40
0.4913731572
 40
0.5232204671
 40
0.5551577446
 40
0.5871651885
 40
0.6192215901
 40
0.6513047644
 40
0.683391994
 40
0.715460481
 40
0.7474877999
 40
0.7794523452
 40
0.8113337678
 40
0.8431133918
 40
0.8747746145
 40
0.906303246
 40
0.9376878974
 40
0.9533257627
 40
0.9689252947
 40
1.0
 40
1.0
 40
1.0
 40
1.0
 10
12.0304752804
 20
5.7786702559
 30
0.0
 10
12.0269748607
 20
5.7752891114
 30
0.0
 10
12.021517906
 20
5.7704222657
 30
0.0
 10
12.0138755922
 20
5.7643835197
 30
0.0
 10
12.0059898417
 20
5.7586453518
 30
0.0
 10
11.9957002906
 20
5.7520559905
 30
0.0
 10
11.98491041
 20
5.7462922624
 30
0.0
 10
11.9760115944
 20
5.7421918467
 30
0.0
 10
11.9669288976
 20
5.7384300436
 30
0.0
 10
11.9552762526
 20
5.7343849361
 30
0.0
 10
11.9409161081
 20
5.7306150227
 30
0.0
 10
11.926242623
 20
5.727944302
 30
0.0
 10
11.9113371089
 20
5.7263875244
 30
0.0
 10
11.896281447
 20
5.7259529937
 30
0.0
 10
11.8811584779
 20
5.7266429228
 30
0.0
 10
11.8660513211
 20
5.728453326
 30
0.0
 10
11.8510429841
 20
5.7313740782
 30
0.0
 10
11.836215895
 20
5.7353889695
 30
0.0
 10
11.8216514602
 20
5.7404758018
 30
0.0
 10
11.8074296225
 20
5.7466065139
 30
0.0
 10
11.7936284289
 20
5.7537473371
 30
0.0
 10
11.7803236085
 20
5.7618589825
 30
0.0
 10
11.7675881619
 20
5.7708968554
 30
0.0
 10
11.7554919664
 20
5.7808112998
 30
0.0
 10
11.7441013964
 20
5.7915478682
 30
0.0
 10
11.7334789641
 20
5.8030476191
 30
0.0
 10
11.7236829793
 20
5.8152474361
 30
0.0
 10
11.7147672329
 20
5.8280803725
 30
0.0
 10
11.7067807043
 20
5.8414760104
 30
0.0
 10
11.6997672935
 20
5.855360858
 30
0.0
 10
11.6937655856
 20
5.8696586905
 30
0.0
 10
11.6888086208
 20
5.8842911758
 30
0.0
 10
11.6849237912
 20
5.8991775098
 30
0.0
 10
11.6825947434
 20
5.9117431862
 30
0.0
 10
11.681288221
 20
5.9218395647
 30
0.0
 10
11.6803557874
 20
5.9319262795
 30
0.0
 10
11.6800734536
 20
5.9395164676
 30
0.0
 10
11.6800734536
 20
5.9445673136
 30
0.0
  0
SPLINE
  5
408
100
AcDbEntity
  8
0
100
AcDbSpline
 62
7
  6
CONTINUOUS
 70
0
 71
3
 72
19
 73
15
 74
0
 42
0.0000001
 43
0.0000001
 44
0.0000000001
 40
0.0
 40
0.0
 40
0.0
 40
0.0
 40
0.12732766
 40
0.2538196711
 40
0.3795264658
 40
0.5045235362
 40
0.5668075958
 40
0.6289556124
 40
0.6909843715
 40
0.7529118454
 40
0.8147570127
 40
0.8765397119
 40
0.9382804145
 40
1.0
 40
1.0
 40
1.0
 40
1.0
 10
11.6800734536
 20
10.2912337895
 30
0.0
 10
11.6800734536
 20
10.2977321694
 30
0.0
 10
11.6806939058
 20
10.3106952197
 30
0.0
 10
11.6834999774
 20
10.3298907285
 30
0.0
 10
11.6881524198
 20
10.3486030184
 30
0.0
 10
11.6935418957
 20
10.3636712698
 30
0.0
 10
11.6987250962
 20
10.3753032209
 30
0.0
 10
11.7030352876
 20
10.3837922899
 30
0.0
 10
11.7077622062
 20
10.3920353497
 30
0.0
 10
11.7128950935
 20
10.4000136603
 30
0.0
 10
11.7184221071
 20
10.4077086989
 30
0.0
 10
11.7243305098
 20
10.4151028427
 30
0.0
 10
11.7306064887
 20
10.4221787646
 30
0.0
 10
11.7350267244
 20
10.4266738289
 30
0.0
 10
11.7372923496
 20
10.428862254
 30
0.0
  0
SPLINE
  5
409
100
AcDbEntity
  8
0
100
AcDbSpline
 62
7
  6
CONTINUOUS
 70
0
 71
3
 72
54
 73
50
 74
0
 42
0.0000001
 43
0.0000001
 44
0.0000000001
 40
0.0
 40
0.0
 40
0.0
 40
0.0
 40
0.0528986128
 40
0.105025369
 40
0.1562616139
 40
0.2064950117
 40
0.255614256
 40
0.3035123979
 40
0.3500861977
 40
0.3952369059
 40
0.4388706917
 40
0.4808991781
 40
0.5212400491
 40
0.559817741
 40
0.5965642627
 40
0.6314201909
 40
0.6643359227
 40
0.680054539
 40
0.6952748201
 40
0.7099941772
 40
0.7242108785
 40
0.7379244789
 40
0.7511356106
 40
0.7638463945
 40
0.776060467
 40
0.7877831688
 40
0.7990219364
 40
0.8097863021
 40
0.8200885256
 40
0.8299436535
 40
0.8393701204
 40
0.8483900987
 40
0.8570298891
 40
0.8732869554
 40
0.8809921284
 40
0.8884714397
 40
0.8957760668
 40
0.9029613612
 40
0.9100857343
 40
0.9172092611
 40
0.9243920388
 40
0.9316925474
 40
0.9391662392
 40
0.9468644228
 40
0.9631039336
 40
0.9717334853
 40
0.9807424194
 40
0.9901571649
 40
1.0
 40
1.0
 40
1.0
 40
1.0
 10
11.1322080286
 20
11.1899993546
 30
0.0
 10
11.140659019
 20
11.1894132765
 30
0.0
 10
11.1574300582
 20
11.1881361033
 30
0.0
 10
11.1823536333
 20
11.1858870192
 30
0.0
 10
11.2068177311
 20
11.1833226967
 30
0.0
 10
11.2307625054
 20
11.1804495038
 30
0.0
 10
11.2541298199
 20
11.177274433
 30
0.0
 10
11.2768627007
 20
11.1738053031
 30
0.0
 10
11.2989058369
 20
11.1700506159
 30
0.0
 10
11.3202055889
 20
11.1660195934
 30
0.0
 10
11.3407101664
 20
11.161722138
 30
0.0
 10
11.360369749
 20
11.1571688074
 30
0.0
 10
11.3791366246
 20
11.152370788
 30
0.0
 10
11.3969652887
 20
11.147339864
 30
0.0
 10
11.4138126792
 20
11.1420883814
 30
0.0
 10
11.4296379365
 20
11.1366292078
 30
0.0
 10
11.4421272509
 20
11.131847316
 30
0.0
 10
11.4515684571
 20
11.1279176101
 30
0.0
 10
11.4582613025
 20
11.1249720706
 30
0.0
 10
11.4646712442
 20
11.1219847804
 30
0.0
 10
11.4707943972
 20
11.1189574441
 30
0.0
 10
11.4766270915
 20
11.1158919715
 30
0.0
 10
11.4821657979
 20
11.1127901466
 30
0.0
 10
11.4874072
 20
11.109653856
 30
0.0
 10
11.4923481635
 20
11.1064849728
 30
0.0
 10
11.49698571
 20
11.1032853222
 30
0.0
 10
11.501317112
 20
11.1000568464
 30
0.0
 10
11.5053397355
 20
11.0968013173
 30
0.0
 10
11.5090512196
 20
11.0935206753
 30
0.0
 10
11.5124493193
 20
11.0902166504
 30
0.0
 10
11.5155318809
 20
11.0868912206
 30
0.0
 10
11.5182973036
 20
11.0835456549
 30
0.0
 10
11.5214933258
 20
11.0791514112
 30
0.0
 10
11.5241425568
 20
11.0746265559
 30
0.0
 10
11.5261490492
 20
11.0700032239
 30
0.0
 10
11.5273018726
 20
11.0665863852
 30
0.0
 10
11.5281276583
 20
11.0631615412
 30
0.0
 10
11.5286255098
 20
11.0597310291
 30
0.0
 10
11.5287945663
 20
11.0562976167
 30
0.0
 10
11.5286347353
 20
11.0528641642
 30
0.0
 10
11.5281460982
 20
11.049433532
 30
0.0
 10
11.5273294974
 20
11.0460084954
 30
0.0
 10
11.5261858292
 20
11.0425913945
 30
0.0
 10
11.5241918292
 20
11.0379679083
 30
0.0
 10
11.521554668
 20
11.0334423676
 30
0.0
 10
11.5183702739
 20
11.0290473641
 30
0.0
 10
11.5156137677
 20
11.0257012522
 30
0.0
 10
11.5125401431
 20
11.0223753068
 30
0.0
 10
11.510330988
 20
11.0202213083
 30
0.0
 10
11.5091770954
 20
11.0191474838
 30
0.0
  0
SPLINE
  5
40A
100
AcDbEntity
  8
0
100
AcDbSpline
 62
7
  6
CONTINUOUS
 70
0
 71
3
 72
54
 73
50
 74
0
 42
0.0000001
 43
0.0000001
 44
0.0000000001
 40
0.0
 40
0.0
 40
0.0
 40
0.0
 40
0.0095826749
 40
0.0187373859
 40
0.0274873207
 40
0.0358602131
 40
0.0515987747
 40
0.0590566793
 40
0.0662994956
 40
0.0733807643
 40
0.080358085
 40
0.0872919371
 40
0.0942440202
 40
0.1012755204
 40
0.1084453882
 40
0.1158089758
 40
0.123416903
 40
0.1313146155
 40
0.1395420501
 40
0.1481338299
 40
0.1571195933
 40
0.166524286
 40
0.1763688701
 40
0.1866705055
 40
0.197443259
 40
0.2086983351
 40
0.2204444529
 40
0.2326882871
 40
0.2454344639
 40
0.2586861183
 40
0.2724447709
 40
0.2867107057
 40
0.3014830464
 40
0.3325365695
 40
0.365580417
 40
0.4005750924
 40
0.4374702556
 40
0.4762061872
 40
0.5167149459
 40
0.5589213206
 40
0.6027436037
 40
0.6480942408
 40
0.6948804066
 40
0.7430045053
 40
0.7923645726
 40
0.842855035
 40
0.8943659956
 40
0.9467867504
 40
1.0
 40
1.0
 40
1.0
 40
1.0
 10
12.9331584661
 20
9.8499610154
 30
0.0
 10
12.9342589877
 20
9.8509852708
 30
0.0
 10
12.9364590564
 20
9.8529372753
 30
0.0
 10
12.9398345
 20
9.8556245104
 30
0.0
 10
12.9432069167
 20
9.8580009455
 30
0.0
 10
12.9476041132
 20
9.8606965421
 30
0.0
 10
12.9520901424
 20
9.8628489329
 30
0.0
 10
12.956623853
 20
9.8643651356
 30
0.0
 10
12.959951338
 20
9.8651640427
 30
0.0
 10
12.9632636094
 20
9.8656436355
 30
0.0
 10
12.966558367
 20
9.865803055
 30
0.0
 10
12.9698328401
 20
9.8656419893
 30
0.0
 10
12.9730842742
 20
9.8651604733
 30
0.0
 10
12.9763099555
 20
9.8643590804
 30
0.0
 10
12.9795074241
 20
9.8632389003
 30
0.0
 10
12.9826744108
 20
9.861801131
 30
0.0
 10
12.9858090257
 20
9.8600474046
 30
0.0
 10
12.9889094717
 20
9.8579792144
 30
0.0
 10
12.9919741859
 20
9.8555982745
 30
0.0
 10
12.9950016453
 20
9.8529062749
 30
0.0
 10
12.9979903099
 20
9.8499049499
 30
0.0
 10
13.0009387533
 20
9.8465962198
 30
0.0
 10
13.0038453695
 20
9.842981996
 30
0.0
 10
13.0067087055
 20
9.839064458
 30
0.0
 10
13.0095271594
 20
9.8348458481
 30
0.0
 10
13.0122991859
 20
9.8303286237
 30
0.0
 10
13.0150232561
 20
9.8255154155
 30
0.0
 10
13.017697753
 20
9.8204089966
 30
0.0
 10
13.0203212136
 20
9.8150123736
 30
0.0
 10
13.0228920391
 20
9.8093286742
 30
0.0
 10
13.0254087685
 20
9.8033612507
 30
0.0
 10
13.0278699374
 20
9.7971135917
 30
0.0
 10
13.0311297973
 20
9.7882667095
 30
0.0
 10
13.0350407431
 20
9.776523601
 30
0.0
 10
13.039415242
 20
9.761602348
 30
0.0
 10
13.0435354905
 20
9.7456607181
 30
0.0
 10
13.047391606
 20
9.728736381
 30
0.0
 10
13.0509743013
 20
9.7108691423
 30
0.0
 10
13.0542749433
 20
9.6921012437
 30
0.0
 10
13.0572855697
 20
9.6724771109
 30
0.0
 10
13.059998916
 20
9.6520432651
 30
0.0
 10
13.0624084337
 20
9.6308481886
 30
0.0
 10
13.0645083059
 20
9.6089422051
 30
0.0
 10
13.0662934597
 20
9.5863773632
 30
0.0
 10
13.0677595969
 20
9.5632072673
 30
0.0
 10
13.0689031535
 20
9.5394870837
 30
0.0
 10
13.0697214053
 20
9.5152730234
 30
0.0
 10
13.0702123036
 20
9.4906229394
 30
0.0
 10
13.0703198419
 20
9.4740499543
 30
0.0
 10
13.0703198419
 20
9.465701406
 30
0.0
  0
SPLINE
  5
40B
100
AcDbEntity
  8
0
100
AcDbSpline
 62
7
  6
CONTINUOUS
 70
0
 71
3
 72
54
 73
50
 74
0
 42
0.0000001
 43
0.0000001
 44
0.0000000001
 40
0.0
 40
0.0
 40
0.0
 40
0.0
 40
0.0095826749
 40
0.0187373859
 40
0.0274873207
 40
0.0358602131
 40
0.0515987747
 40
0.0590566793
 40
0.0662994956
 40
0.0733807643
 40
0.080358085
 40
0.0872919371
 40
0.0942440202
 40
0.1012755204
 40
0.1084453882
 40
0.1158089758
 40
0.123416903
 40
0.1313146155
 40
0.1395420501
 40
0.1481338299
 40
0.1571195933
 40
0.166524286
 40
0.1763688701
 40
0.1866705055
 40
0.197443259
 40
0.2086983351
 40
0.2204444529
 40
0.2326882871
 40
0.2454344639
 40
0.2586861183
 40
0.2724447709
 40
0.2867107057
 40
0.3014830464
 40
0.3325365695
 40
0.365580417
 40
0.4005750924
 40
0.4374702556
 40
0.4762061872
 40
0.5167149459
 40
0.5589213206
 40
0.6027436037
 40
0.6480942408
 40
0.6948804066
 40
0.7430045053
 40
0.7923645726
 40
0.842855035
 40
0.8943659956
 40
0.9467867504
 40
1.0
 40
1.0
 40
1.0
 40
1.0
 10
12.9331584661
 20
7.9181092483
 30
0.0
 10
12.9342589877
 20
7.9191335037
 30
0.0
 10
12.9364590564
 20
7.9210855082
 30
0.0
 10
12.9398345
 20
7.9237727434
 30
0.0
 10
12.9432069167
 20
7.9261491785
 30
0.0
 10
12.9476041132
 20
7.9288447751
 30
0.0
 10
12.9520901424
 20
7.9309971658
 30
0.0
 10
12.956623853
 20
7.9325133685
 30
0.0
 10
12.959951338
 20
7.9333122757
 30
0.0
 10
12.9632636094
 20
7.9337918685
 30
0.0
 10
12.966558367
 20
7.9339512879
 30
0.0
 10
12.9698328401
 20
7.9337902222
 30
0.0
 10
12.9730842742
 20
7.9333087063
 30
0.0
 10
12.9763099555
 20
7.9325073134
 30
0.0
 10
12.9795074241
 20
7.9313871332
 30
0.0
 10
12.9826744108
 20
7.9299493639
 30
0.0
 10
12.9858090257
 20
7.9281956376
 30
0.0
 10
12.9889094717
 20
7.9261274474
 30
0.0
 10
12.9919741859
 20
7.9237465074
 30
0.0
 10
12.9950016453
 20
7.9210545079
 30
0.0
 10
12.9979903099
 20
7.9180531829
 30
0.0
 10
13.0009387533
 20
7.9147444528
 30
0.0
 10
13.0038453695
 20
7.911130229
 30
0.0
 10
13.0067087055
 20
7.907212691
 30
0.0
 10
13.0095271594
 20
7.9029940811
 30
0.0
 10
13.0122991859
 20
7.8984768566
 30
0.0
 10
13.0150232561
 20
7.8936636485
 30
0.0
 10
13.017697753
 20
7.8885572295
 30
0.0
 10
13.0203212136
 20
7.8831606065
 30
0.0
 10
13.0228920391
 20
7.8774769072
 30
0.0
 10
13.0254087685
 20
7.8715094837
 30
0.0
 10
13.0278699374
 20
7.8652618246
 30
0.0
 10
13.0311297973
 20
7.8564149425
 30
0.0
 10
13.0350407431
 20
7.844671834
 30
0.0
 10
13.039415242
 20
7.829750581
 30
0.0
 10
13.0435354905
 20
7.813808951
 30
0.0
 10
13.047391606
 20
7.796884614
 30
0.0
 10
13.0509743013
 20
7.7790173753
 30
0.0
 10
13.0542749433
 20
7.7602494766
 30
0.0
 10
13.0572855697
 20
7.7406253439
 30
0.0
 10
13.059998916
 20
7.720191498
 30
0.0
 10
13.0624084337
 20
7.6989964215
 30
0.0
 10
13.0645083059
 20
7.6770904381
 30
0.0
 10
13.0662934597
 20
7.6545255962
 30
0.0
 10
13.0677595969
 20
7.6313555002
 30
0.0
 10
13.0689031535
 20
7.6076353167
 30
0.0
 10
13.0697214053
 20
7.5834212563
 30
0.0
 10
13.0702123036
 20
7.5587711723
 30
0.0
 10
13.0703198419
 20
7.5421981873
 30
0.0
 10
13.0703198419
 20
7.5338496389
 30
0.0
  0
SPLINE
  5
40C
100
AcDbEntity
  8
0
100
AcDbSpline
 62
7
  6
CONTINUOUS
 70
0
 71
3
 72
19
 73
15
 74
0
 42
0.0000001
 43
0.0000001
 44
0.0000000001
 40
0.0
 40
0.0
 40
0.0
 40
0.0
 40
0.12732766
 40
0.2538196711
 40
0.3795264658
 40
0.5045235362
 40
0.5668075958
 40
0.6289556124
 40
0.6909843715
 40
0.7529118454
 40
0.8147570127
 40
0.8765397119
 40
0.9382804145
 40
1.0
 40
1.0
 40
1.0
 40
1.0
 10
11.6800734536
 20
5.9445673136
 30
0.0
 10
11.6800734536
 20
5.9510656936
 30
0.0
 10
11.6806939058
 20
5.9640287439
 30
0.0
 10
11.6834999774
 20
5.9832242526
 30
0.0
 10
11.6881524198
 20
6.0019365426
 30
0.0
 10
11.6935418957
 20
6.017004794
 30
0.0
 10
11.6987250962
 20
6.0286367451
 30
0.0
 10
11.7030352876
 20
6.0371258141
 30
0.0
 10
11.7077622062
 20
6.0453688738
 30
0.0
 10
11.7128950935
 20
6.0533471845
 30
0.0
 10
11.7184221071
 20
6.061042223
 30
0.0
 10
11.7243305098
 20
6.0684363668
 30
0.0
 10
11.7306064887
 20
6.0755122888
 30
0.0
 10
11.7350267244
 20
6.0800073531
 30
0.0
 10
11.7372923496
 20
6.0821957782
 30
0.0
  0
SPLINE
  5
40D
100
AcDbEntity
  8
0
100
AcDbSpline
 62
7
  6
CONTINUOUS
 70
0
 71
3
 72
37
 73
33
 74
0
 42
0.0000001
 43
0.0000001
 44
0.0000000001
 40
0.0
 40
0.0
 40
0.0
 40
0.0
 40
0.0939027205
 40
0.18540148
 40
0.2739782362
 40
0.3170151917
 40
0.3591374703
 40
0.4002873761
 40
0.4404094434
 40
0.4794505133
 40
0.5173597816
 40
0.5540892851
 40
0.5895939597
 40
0.6238318655
 40
0.6567647596
 40
0.688358181
 40
0.7185819822
 40
0.747411025
 40
0.7748255213
 40
0.8008120713
 40
0.8253646987
 40
0.8484859004
 40
0.8701886314
 40
0.8904983034
 40
0.909455418
 40
0.9271193576
 40
0.9435723884
 40
0.9589246043
 40
0.9733191219
 40
0.9869357046
 40
0.9935228928
 40
1.0
 40
1.0
 40
1.0
 40
1.0
 10
11.1109848844
 20
11.0902934479
 30
0.0
 10
11.1223791983
 20
11.0895032495
 30
0.0
 10
11.1448602376
 20
11.0877009043
 30
0.0
 10
11.1780120876
 20
11.0842825607
 30
0.0
 10
11.2049350826
 20
11.0808492141
 30
0.0
 10
11.2258414075
 20
11.0777651282
 30
0.0
 10
11.2410090743
 20
11.0753175314
 30
0.0
 10
11.2557914413
 20
11.0727171153
 30
0.0
 10
11.2701655167
 20
11.0699679347
 30
0.0
 10
11.2841089282
 20
11.067074322
 30
0.0
 10
11.2975999815
 20
11.0640407726
 30
0.0
 10
11.3106177031
 20
11.0608720648
 30
0.0
 10
11.3231418664
 20
11.0575731678
 30
0.0
 10
11.3351530204
 20
11.0541492142
 30
0.0
 10
11.3466325455
 20
11.0506056022
 30
0.0
 10
11.3575626632
 20
11.0469478623
 30
0.0
 10
11.3679264731
 20
11.0431816847
 30
0.0
 10
11.3777080111
 20
11.0393129817
 30
0.0
 10
11.3868922412
 20
11.0353477284
 30
0.0
 10
11.3954651149
 20
11.0312920413
 30
0.0
 10
11.4034136168
 20
11.027152163
 30
0.0
 10
11.4107257346
 20
11.0229342881
 30
0.0
 10
11.4173905434
 20
11.0186446617
 30
0.0
 10
11.4233981891
 20
11.0142894312
 30
0.0
 10
11.4287397775
 20
11.0098744655
 30
0.0
 10
11.4334073971
 20
11.0054053841
 30
0.0
 10
11.4373937781
 20
11.0008874291
 30
0.0
 10
11.4406919172
 20
10.9963250723
 30
0.0
 10
11.4432945418
 20
10.991723895
 30
0.0
 10
11.444894967
 20
10.9878168866
 30
0.0
 10
11.4458028693
 20
10.984698843
 30
0.0
 10
11.4461363886
 20
10.9831434118
 30
0.0
 10
11.4462726671
 20
10.9823674572
 30
0.0
  0
SPLINE
  5
40E
100
AcDbEntity
  8
0
100
AcDbSpline
 62
7
  6
CONTINUOUS
 70
0
 71
3
 72
56
 73
52
 74
0
 42
0.0000001
 43
0.0000001
 44
0.0000000001
 40
0.0
 40
0.0
 40
0.0
 40
0.0
 40
0.0452110821
 40
0.0910028416
 40
0.137191398
 40
0.1835897625
 40
0.2300103992
 40
0.2762654921
 40
0.3221681167
 40
0.3675331544
 40
0.4121782762
 40
0.4559249248
 40
0.4985993111
 40
0.5400334363
 40
0.5800661533
 40
0.6185442889
 40
0.6553238573
 40
0.6730349525
 40
0.6902723337
 40
0.7070211838
 40
0.7232676448
 40
0.7389987385
 40
0.7542025355
 40
0.768868233
 40
0.7829861927
 40
0.7965482101
 40
0.8095474667
 40
0.8219789328
 40
0.8338393804
 40
0.845127812
 40
0.8558457126
 40
0.8659974615
 40
0.8755909414
 40
0.8846380208
 40
0.8931555532
 40
0.901166129
 40
0.9086993909
 40
0.9157931751
 40
0.9224948492
 40
0.9288623962
 40
0.9349648332
 40
0.9408817182
 40
0.9467010143
 40
0.9525155609
 40
0.9584184375
 40
0.9644982986
 40
0.97083565
 40
0.9775006623
 40
0.9845523835
 40
0.9920392588
 40
1.0
 40
1.0
 40
1.0
 40
1.0
 10
13.0703198419
 20
9.465701406
 30
0.0
 10
13.0703198419
 20
9.4542948072
 30
0.0
 10
13.0701164124
 20
9.4313346448
 30
0.0
 10
13.0692193914
 20
9.3967318058
 30
0.0
 10
13.0677319644
 20
9.3618494215
 30
0.0
 10
13.0656604778
 20
9.3268379545
 30
0.0
 10
13.0630138678
 20
9.2918484195
 30
0.0
 10
13.0598035478
 20
9.2570316837
 30
0.0
 10
13.0560433976
 20
9.2225378828
 30
0.0
 10
13.0517496881
 20
9.1885157436
 30
0.0
 10
13.0469410187
 20
9.1551119401
 30
0.0
 10
13.0416382386
 20
9.1224704537
 30
0.0
 10
13.0358643579
 20
9.0907319346
 30
0.0
 10
13.029644446
 20
9.0600331093
 30
0.0
 10
13.0230055447
 20
9.0305060803
 30
0.0
 10
13.0159764899
 20
9.0022780619
 30
0.0
 10
13.009743595
 20
8.9796625628
 30
0.0
 10
13.0045729062
 20
8.9623196994
 30
0.0
 10
13.0006654752
 20
8.9498751742
 30
0.0
 10
12.9966840437
 20
8.937842724
 30
0.0
 10
12.9926329279
 20
8.9262352776
 30
0.0
 10
12.9885164908
 20
8.9150653242
 30
0.0
 10
12.9843391851
 20
8.9043448642
 30
0.0
 10
12.9801055451
 20
8.8940854009
 30
0.0
 10
12.975820098
 20
8.8842979424
 30
0.0
 10
12.9714875251
 20
8.8749929484
 30
0.0
 10
12.9671124188
 20
8.8661803758
 30
0.0
 10
12.9626995392
 20
8.8578695909
 30
0.0
 10
12.958253549
 20
8.8500694324
 30
0.0
 10
12.9537791944
 20
8.8427881371
 30
0.0
 10
12.9492811847
 20
8.8360333591
 30
0.0
 10
12.9447641539
 20
8.8298121816
 30
0.0
 10
12.9402327655
 20
8.8241310357
 30
0.0
 10
12.9356914332
 20
8.8189958579
 30
0.0
 10
12.9311445886
 20
8.8144119153
 30
0.0
 10
12.926596306
 20
8.8103841061
 30
0.0
 10
12.9220505715
 20
8.8069168362
 30
0.0
 10
12.9175110998
 20
8.8040143508
 30
0.0
 10
12.9129815675
 20
8.8016808713
 30
0.0
 10
12.9084659391
 20
8.7999206539
 30
0.0
 10
12.9039688474
 20
8.798738229
 30
0.0
 10
12.899496257
 20
8.7981375285
 30
0.0
 10
12.89505551
 20
8.7981216029
 30
0.0
 10
12.8906549368
 20
8.7986911114
 30
0.0
 10
12.8863027482
 20
8.7998444498
 30
0.0
 10
12.8820059983
 20
8.8015778523
 30
0.0
 10
12.8777701253
 20
8.8038864991
 30
0.0
 10
12.8735993147
 20
8.8067654158
 30
0.0
 10
12.8694967902
 20
8.8102097191
 30
0.0
 10
12.8654659199
 20
8.8142145928
 30
0.0
 10
12.8629096743
 20
8.8171614234
 30
0.0
 10
12.8616423905
 20
8.8187196059
 30
0.0
  0
SPLINE
  5
40F
100
AcDbEntity
  8
0
100
AcDbSpline
 62
4
  6
CONTINUOUS
 70
0
 71
3
 72
397
 73
393
 74
0
 42
0.0000001
 43
0.0000001
 44
0.0000000001
 40
0.0
 40
0.0
 40
0.0
 40
0.0
 40
0.015625
 40
0.0234375
 40
0.03125
 40
0.0390625
 40
0.04296875
 40
0.046875
 40
0.05078125
 40
0.0546875
 40
0.056640625
 40
0.05859375
 40
0.0595703125
 40
0.060546875
 40
0.0615234375
 40
0.0620117188
 40
0.0622558594
 40
0.0625
 40
0.0627441406
 40
0.0629882812
 40
0.0634765625
 40
0.064453125
 40
0.0654296875
 40
0.06640625
 40
0.068359375
 40
0.0703125
 40
0.07421875
 40
0.078125
 40
0.08203125
 40
0.0859375
 40
0.09375
 40
0.1015625
 40
0.10546875
 40
0.109375
 40
0.11328125
 40
0.1171875
 40
0.119140625
 40
0.12109375
 40
0.1220703125
 40
0.123046875
 40
0.1240234375
 40
0.1245117188
 40
0.1247558594
 40
0.125
 40
0.1252441406
 40
0.1254882812
 40
0.1259765625
 40
0.126953125
 40
0.1279296875
 40
0.12890625
 40
0.130859375
 40
0.1328125
 40
0.13671875
 40
0.140625
 40
0.14453125
 40
0.1484375
 40
0.15625
 40
0.1640625
 40
0.16796875
 40
0.171875
 40
0.17578125
 40
0.1796875
 40
0.181640625
 40
0.18359375
 40
0.1845703125
 40
0.185546875
 40
0.1865234375
 40
0.1870117188
 40
0.1872558594
 40
0.1875
 40
0.1877441406
 40
0.1879882812
 40
0.1884765625
 40
0.189453125
 40
0.1904296875
 40
0.19140625
 40
0.193359375
 40
0.1953125
 40
0.19921875
 40
0.203125
 40
0.20703125
 40
0.2109375
 40
0.21875
 40
0.2265625
 40
0.23046875
 40
0.234375
 40
0.23828125
 40
0.2421875
 40
0.244140625
 40
0.24609375
 40
0.2470703125
 40
0.248046875
 40
0.2490234375
 40
0.2495117188
 40
0.2497558594
 40
0.25
 40
0.2502441406
 40
0.2504882812
 40
0.2509765625
 40
0.251953125
 40
0.2529296875
 40
0.25390625
 40
0.255859375
 40
0.2578125
 40
0.26171875
 40
0.265625
 40
0.26953125
 40
0.2734375
 40
0.28125
 40
0.2890625
 40
0.29296875
 40
0.296875
 40
0.30078125
 40
0.3046875
 40
0.306640625
 40
0.30859375
 40
0.3095703125
 40
0.310546875
 40
0.3115234375
 40
0.3120117188
 40
0.3122558594
 40
0.3125
 40
0.3127441406
 40
0.3129882812
 40
0.3134765625
 40
0.314453125
 40
0.3154296875
 40
0.31640625
 40
0.318359375
 40
0.3203125
 40
0.32421875
 40
0.328125
 40
0.33203125
 40
0.3359375
 40
0.34375
 40
0.3515625
 40
0.35546875
 40
0.359375
 40
0.36328125
 40
0.3671875
 40
0.369140625
 40
0.37109375
 40
0.3720703125
 40
0.373046875
 40
0.3740234375
 40
0.3745117188
 40
0.3747558594
 40
0.375
 40
0.3752441406
 40
0.3754882812
 40
0.3759765625
 40
0.376953125
 40
0.3779296875
 40
0.37890625
 40
0.380859375
 40
0.3828125
 40
0.38671875
 40
0.390625
 40
0.39453125
 40
0.3984375
 40
0.40625
 40
0.4140625
 40
0.41796875
 40
0.421875
 40
0.42578125
 40
0.4296875
 40
0.431640625
 40
0.43359375
 40
0.4345703125
 40
0.435546875
 40
0.4365234375
 40
0.4370117188
 40
0.4372558594
 40
0.4375
 40
0.4377441406
 40
0.4379882812
 40
0.4384765625
 40
0.439453125
 40
0.4404296875
 40
0.44140625
 40
0.443359375
 40
0.4453125
 40
0.44921875
 40
0.453125
 40
0.45703125
 40
0.4609375
 40
0.46875
 40
0.4765625
 40
0.48046875
 40
0.484375
 40
0.48828125
 40
0.4921875
 40
0.494140625
 40
0.49609375
 40
0.4970703125
 40
0.498046875
 40
0.4990234375
 40
0.4995117188
 40
0.4997558594
 40
0.5
 40
0.5002441406
 40
0.5004882812
 40
0.5009765625
 40
0.501953125
 40
0.5029296875
 40
0.50390625
 40
0.505859375
 40
0.5078125
 40
0.51171875
 40
0.515625
 40
0.51953125
 40
0.5234375
 40
0.53125
 40
0.5390625
 40
0.54296875
 40
0.546875
 40
0.55078125
 40
0.5546875
 40
0.556640625
 40
0.55859375
 40
0.5595703125
 40
0.560546875
 40
0.5615234375
 40
0.5620117188
 40
0.5622558594
 40
0.5625
 40
0.5627441406
 40
0.5629882812
 40
0.5634765625
 40
0.564453125
 40
0.5654296875
 40
0.56640625
 40
0.568359375
 40
0.5703125
 40
0.57421875
 40
0.578125
 40
0.58203125
 40
0.5859375
 40
0.59375
 40
0.6015625
 40
0.60546875
 40
0.609375
 40
0.61328125
 40
0.6171875
 40
0.619140625
 40
0.62109375
 40
0.6220703125
 40
0.623046875
 40
0.6240234375
 40
0.6245117188
 40
0.625
 40
0.6254882812
 40
0.6259765625
 40
0.626953125
 40
0.6279296875
 40
0.62890625
 40
0.630859375
 40
0.6328125
 40
0.63671875
 40
0.640625
 40
0.64453125
 40
0.6484375
 40
0.65625
 40
0.6640625
 40
0.66796875
 40
0.671875
 40
0.67578125
 40
0.6796875
 40
0.681640625
 40
0.68359375
 40
0.6845703125
 40
0.685546875
 40
0.6865234375
 40
0.6870117188
 40
0.6872558594
 40
0.6875
 40
0.6877441406
 40
0.6879882812
 40
0.6884765625
 40
0.689453125
 40
0.6904296875
 40
0.69140625
 40
0.693359375
 40
0.6953125
 40
0.69921875
 40
0.703125
 40
0.70703125
 40
0.7109375
 40
0.71875
 40
0.7265625
 40
0.73046875
 40
0.734375
 40
0.73828125
 40
0.7421875
 40
0.744140625
 40
0.74609375
 40
0.7470703125
 40
0.748046875
 40
0.7490234375
 40
0.7495117188
 40
0.7497558594
 40
0.75
 40
0.7502441406
 40
0.7504882812
 40
0.7509765625
 40
0.751953125
 40
0.7529296875
 40
0.75390625
 40
0.755859375
 40
0.7578125
 40
0.76171875
 40
0.765625
 40
0.76953125
 40
0.7734375
 40
0.78125
 40
0.7890625
 40
0.79296875
 40
0.796875
 40
0.80078125
 40
0.8046875
 40
0.806640625
 40
0.80859375
 40
0.8095703125
 40
0.810546875
 40
0.8115234375
 40
0.8120117188
 40
0.8125
 40
0.8129882812
 40
0.8134765625
 40
0.814453125
 40
0.8154296875
 40
0.81640625
 40
0.818359375
 40
0.8203125
 40
0.82421875
 40
0.828125
 40
0.83203125
 40
0.8359375
 40
0.84375
 40
0.8515625
 40
0.85546875
 40
0.859375
 40
0.86328125
 40
0.8671875
 40
0.869140625
 40
0.87109375
 40
0.8720703125
 40
0.873046875
 40
0.8740234375
 40
0.8745117188
 40
0.875
 40
0.8754882812
 40
0.8759765625
 40
0.876953125
 40
0.8779296875
 40
0.87890625
 40
0.880859375
 40
0.8828125
 40
0.88671875
 40
0.890625
 40
0.89453125
 40
0.8984375
 40
0.90625
 40
0.9140625
 40
0.91796875
 40
0.921875
 40
0.92578125
 40
0.9296875
 40
0.931640625
 40
0.93359375
 40
0.9345703125
 40
0.935546875
 40
0.9365234375
 40
0.9370117188
 40
0.9372558594
 40
0.9375
 40
0.9377441406
 40
0.9379882812
 40
0.9384765625
 40
0.939453125
 40
0.9404296875
 40
0.94140625
 40
0.943359375
 40
0.9453125
 40
0.94921875
 40
0.953125
 40
0.95703125
 40
0.9609375
 40
0.96875
 40
0.9765625
 40
0.984375
 40
1.0
 40
1.0
 40
1.0
 40
1.0
 10
9.3483283708
 20
7.4543205658
 30
0.0
 10
9.3525059533
 20
7.454440465
 30
0.0
 10
9.3587723272
 20
7.4546203139
 30
0.0
 10
9.3671274923
 20
7.4548601123
 30
0.0
 10
9.3733938661
 20
7.4550399612
 30
0.0
 10
9.3786158443
 20
7.455189835
 30
0.0
 10
9.3827934268
 20
7.4553097346
 30
0.0
 10
9.385926614
 20
7.4553996577
 30
0.0
 10
9.3890597999
 20
7.4554895871
 30
0.0
 10
9.3916707921
 20
7.4555645086
 30
0.0
 10
9.3937595772
 20
7.4556244898
 30
0.0
 10
9.3950650874
 20
7.4556618779
 30
0.0
 10
9.3961094508
 20
7.4556920177
 30
0.0
 10
9.396892846
 20
7.4557139948
 30
0.0
 10
9.3975452852
 20
7.4557343062
 30
0.0
 10
9.3980027583
 20
7.4557446046
 30
0.0
 10
9.398262976
 20
7.4557566095
 30
0.0
 10
9.3984615068
 20
7.4557483729
 30
0.0
 10
9.3986471655
 20
7.4558060375
 30
0.0
 10
9.3988992004
 20
7.4558599365
 30
0.0
 10
9.3993381695
 20
7.4559649699
 30
0.0
 10
9.3999663619
 20
7.4561094182
 30
0.0
 10
9.4007197246
 20
7.456285153
 30
0.0
 10
9.4017243718
 20
7.4565186288
 30
0.0
 10
9.4029801248
 20
7.4568107603
 30
0.0
 10
9.4049893608
 20
7.4572780104
 30
0.0
 10
9.4075008951
 20
7.457862128
 30
0.0
 10
9.4105147409
 20
7.4585630456
 30
0.0
 10
9.4135285854
 20
7.4592639694
 30
0.0
 10
9.4175470452
 20
7.4601985324
 30
0.0
 10
9.4225701198
 20
7.4613667369
 30
0.0
 10
9.4275931946
 20
7.4625349409
 30
0.0
 10
9.4316116542
 20
7.4634695047
 30
0.0
 10
9.4346254995
 20
7.464170426
 30
0.0
 10
9.4376393424
 20
7.4648713533
 30
0.0
 10
9.4401508857
 20
7.4654554406
 30
0.0
 10
9.4421601034
 20
7.4659227525
 30
0.0
 10
9.4434159029
 20
7.4662147267
 30
0.0
 10
9.4444204546
 20
7.4664485253
 30
0.0
 10
9.445174109
 20
7.4666232739
 30
0.0
 10
9.4458013889
 20
7.4667708077
 30
0.0
 10
9.4462419869
 20
7.4668703331
 30
0.0
 10
9.4464914119
 20
7.4669330573
 30
0.0
 10
9.4466850873
 20
7.4669636136
 30
0.0
 10
9.4468535088
 20
7.4670571914
 30
0.0
 10
9.4470868797
 20
7.4671599792
 30
0.0
 10
9.4474911746
 20
7.4673501001
 30
0.0
 10
9.4480708845
 20
7.4676163465
 30
0.0
 10
9.4487656179
 20
7.4679381343
 30
0.0
 10
9.4496922499
 20
7.4683663841
 30
0.0
 10
9.45085043
 20
7.4689019704
 30
0.0
 10
9.4527035797
 20
7.4697587554
 30
0.0
 10
9.4550199956
 20
7.4708297892
 30
0.0
 10
9.4577997038
 20
7.4721150072
 30
0.0
 10
9.4605794096
 20
7.4734002312
 30
0.0
 10
9.4642856848
 20
7.4751138611
 30
0.0
 10
9.4689185284
 20
7.4772558993
 30
0.0
 10
9.4735513724
 20
7.479397937
 30
0.0
 10
9.4772576472
 20
7.4811115678
 30
0.0
 10
9.4800373541
 20
7.4823967893
 30
0.0
 10
9.4828170579
 20
7.4836820167
 30
0.0
 10
9.4851334874
 20
7.4847530212
 30
0.0
 10
9.4869866094
 20
7.4856098659
 30
0.0
 10
9.4881448599
 20
7.4861453001
 30
0.0
 10
9.4890713476
 20
7.4865738622
 30
0.0
 10
9.4897665218
 20
7.4868946957
 30
0.0
 10
9.4903448525
 20
7.4871639278
 30
0.0
 10
9.4907516094
 20
7.4873487188
 30
0.0
 10
9.4909810356
 20
7.4874600464
 30
0.0
 10
9.491161574
 20
7.4875273929
 30
0.0
 10
9.4913097406
 20
7.4876564696
 30
0.0
 10
9.4915185878
 20
7.4878070397
 30
0.0
 10
9.4918788094
 20
7.4880805697
 30
0.0
 10
9.4923961622
 20
7.4884660817
 30
0.0
 10
9.4930158082
 20
7.4889309412
 30
0.0
 10
9.4938424141
 20
7.4895499697
 30
0.0
 10
9.4948755307
 20
7.4903240238
 30
0.0
 10
9.4965285959
 20
7.4915623603
 30
0.0
 10
9.4985949004
 20
7.4931103325
 30
0.0
 10
9.5010744774
 20
7.494967877
 30
0.0
 10
9.5035540513
 20
7.4968254274
 30
0.0
 10
9.5068601509
 20
7.4993021592
 30
0.0
 10
9.510992775
 20
7.5023980748
 30
0.0
 10
9.5151253994
 20
7.5054939898
 30
0.0
 10
9.5184314985
 20
7.5079707224
 30
0.0
 10
9.5209110741
 20
7.5098282706
 30
0.0
 10
9.5233906447
 20
7.5116858233
 30
0.0
 10
9.525456969
 20
7.5132337699
 30
0.0
 10
9.5271099939
 20
7.5144721586
 30
0.0
 10
9.5281432132
 20
7.51524608
 30
0.0
 10
9.5289696081
 20
7.515865381
 30
0.0
 10
9.5295898988
 20
7.516329408
 30
0.0
 10
9.5301052345
 20
7.5167175245
 30
0.0
 10
9.530469057
 20
7.5169864052
 30
0.0
 10
9.5306721346
 20
7.5171444245
 30
0.0
 10
9.5308380236
 20
7.5172506196
 30
0.0
 10
9.5309519996
 20
7.5174039056
 30
0.0
 10
9.5311220755
 20
7.5175918611
 30
0.0
 10
9.5314112714
 20
7.5179284364
 30
0.0
 10
9.5318288193
 20
7.5184052571
 30
0.0
 10
9.5323279887
 20
7.5189791545
 30
0.0
 10
9.5329942075
 20
7.5197437529
 30
0.0
 10
9.5338267551
 20
7.5206997058
 30
0.0
 10
9.5351589575
 20
7.5222291158
 30
0.0
 10
9.5368241672
 20
7.5241409177
 30
0.0
 10
9.5388224373
 20
7.526435063
 30
0.0
 10
9.5408207026
 20
7.5287292129
 30
0.0
 10
9.5434850579
 20
7.5317880778
 30
0.0
 10
9.5468155015
 20
7.5356116596
 30
0.0
 10
9.5501459455
 20
7.539435241
 30
0.0
 10
9.5528103002
 20
7.5424941065
 30
0.0
 10
9.5548085675
 20
7.5447882546
 30
0.0
 10
9.5568068296
 20
7.5470824066
 30
0.0
 10
9.5584720645
 20
7.5489941878
 30
0.0
 10
9.5598042156
 20
7.5505236399
 30
0.0
 10
9.5606368937
 20
7.5514794857
 30
0.0
 10
9.5613028446
 20
7.5522443039
 30
0.0
 10
9.5618028324
 20
7.5528175299
 30
0.0
 10
9.5622178199
 20
7.5532964513
 30
0.0
 10
9.5625115865
 20
7.5536292764
 30
0.0
 10
9.5626743389
 20
7.5538232406
 30
0.0
 10
9.56281081
 20
7.5539580701
 30
0.0
 10
9.5628922112
 20
7.5541335848
 30
0.0
 10
9.5630199551
 20
7.5543534129
 30
0.0
 10
9.5632345571
 20
7.5547447243
 30
0.0
 10
9.5635458105
 20
7.5553002836
 30
0.0
 10
9.5639173118
 20
7.5559684344
 30
0.0
 10
9.5644133463
 20
7.5568587854
 30
0.0
 10
9.56503315
 20
7.5579719011
 30
0.0
 10
9.5660249698
 20
7.5597527873
 30
0.0
 10
9.5672646985
 20
7.5619789289
 30
0.0
 10
9.5687523927
 20
7.5646502844
 30
0.0
 10
9.5702400816
 20
7.5673216437
 30
0.0
 10
9.5722236687
 20
7.5708834548
 30
0.0
 10
9.5747031518
 20
7.5753357191
 30
0.0
 10
9.5771826354
 20
7.5797879832
 30
0.0
 10
9.5791662217
 20
7.5833497948
 30
0.0
 10
9.580653913
 20
7.5860211527
 30
0.0
 10
9.5821415984
 20
7.5886925134
 30
0.0
 10
9.5833813544
 20
7.5909186385
 30
0.0
 10
9.5843731185
 20
7.5926995585
 30
0.0
 10
9.5849930639
 20
7.5938125883
 30
0.0
 10
9.5854888074
 20
7.5947031155
 30
0.0
 10
9.5858611979
 20
7.5953707279
 30
0.0
 10
9.5861696691
 20
7.5959279719
 30
0.0
 10
9.5863892378
 20
7.5963162757
 30
0.0
 10
9.5865090239
 20
7.5965409227
 30
0.0
 10
9.5866148691
 20
7.5967016355
 30
0.0
 10
9.5866595325
 20
7.5968920587
 30
0.0
 10
9.5867404246
 20
7.597135593
 30
0.0
 10
9.5868720428
 20
7.5975666064
 30
0.0
 10
9.587065267
 20
7.5981798156
 30
0.0
 10
9.5872949111
 20
7.598916747
 30
0.0
 10
9.5876018803
 20
7.599898945
 30
0.0
 10
9.5879853257
 20
7.6011268216
 30
0.0
 10
9.5885989871
 20
7.6030913519
 30
0.0
 10
9.5893660128
 20
7.6055470396
 30
0.0
 10
9.5902864656
 20
7.6084938543
 30
0.0
 10
9.5912069125
 20
7.6114406718
 30
0.0
 10
9.5924341771
 20
7.6153697607
 30
0.0
 10
9.593968257
 20
7.6202811223
 30
0.0
 10
9.5955023375
 20
7.6251924837
 30
0.0
 10
9.5967296013
 20
7.629121573
 30
0.0
 10
9.5976500507
 20
7.6320683895
 30
0.0
 10
9.5985704939
 20
7.6350152081
 30
0.0
 10
9.5993375493
 20
7.6374708833
 30
0.0
 10
9.5999511503
 20
7.6394354392
 30
0.0
 10
9.6003347495
 20
7.6406632507
 30
0.0
 10
9.600641403
 20
7.6416455823
 30
0.0
 10
9.6008720118
 20
7.6423821054
 30
0.0
 10
9.6010622174
 20
7.6429965922
 30
0.0
 10
9.6011992244
 20
7.6434253248
 30
0.0
 10
9.6012714822
 20
7.6436725137
 30
0.0
 10
9.6013426676
 20
7.6438517113
 30
0.0
 10
9.6013489005
 20
7.6440545855
 30
0.0
 10
9.6013798671
 20
7.6443168258
 30
0.0
 10
9.6014235029
 20
7.6447795942
 30
0.0
 10
9.6014913584
 20
7.6454386802
 30
0.0
 10
9.6015704228
 20
7.6462304445
 30
0.0
 10
9.601676667
 20
7.6472858294
 30
0.0
 10
9.6018091899
 20
7.6486051636
 30
0.0
 10
9.6020213843
 20
7.6507160407
 30
0.0
 10
9.6022865731
 20
7.6533546568
 30
0.0
 10
9.602604823
 20
7.6565209877
 30
0.0
 10
9.6029230666
 20
7.6596873208
 30
0.0
 10
9.6033473936
 20
7.6639090975
 30
0.0
 10
9.6038778015
 20
7.6691863187
 30
0.0
 10
9.60440821
 20
7.6744635398
 30
0.0
 10
9.6048325361
 20
7.6786853167
 30
0.0
 10
9.6051507824
 20
7.6818516494
 30
0.0
 10
9.6054690223
 20
7.6850179819
 30
0.0
 10
9.6057342422
 20
7.6876565928
 30
0.0
 10
9.6059463732
 20
7.6897674806
 30
0.0
 10
9.6060790575
 20
7.6910867875
 30
0.0
 10
9.6061849703
 20
7.6921422285
 30
0.0
 10
9.6062650475
 20
7.6929338214
 30
0.0
 10
9.606329734
 20
7.6935934435
 30
0.0
 10
9.6063790269
 20
7.6940552549
 30
0.0
 10
9.6064009294
 20
7.6943190285
 30
0.0
 10
9.6064350045
 20
7.6945171929
 30
0.0
 10
9.606401619
 20
7.6947140801
 30
0.0
 10
9.6063806359
 20
7.6949770419
 30
0.0
 10
9.6063329521
 20
7.6954370174
 30
0.0
 10
9.6062705642
 20
7.6960942338
 30
0.0
 10
9.6061932452
 20
7.6968828471
 30
0.0
 10
9.6060910102
 20
7.6979343476
 30
0.0
 10
9.6059629231
 20
7.6992487178
 30
0.0
 10
9.6057581476
 20
7.7013517132
 30
0.0
 10
9.6055021221
 20
7.7039804563
 30
0.0
 10
9.6051949155
 20
7.7071349485
 30
0.0
 10
9.6048877025
 20
7.7102894406
 30
0.0
 10
9.6044780874
 20
7.7144954301
 30
0.0
 10
9.6039660677
 20
7.719752917
 30
0.0
 10
9.6034540485
 20
7.7250104039
 30
0.0
 10
9.6030444325
 20
7.7292163933
 30
0.0
 10
9.6027372222
 20
7.7323708856
 30
0.0
 10
9.6024300056
 20
7.7355253771
 30
0.0
 10
9.6021740111
 20
7.7381541225
 30
0.0
 10
9.6019691722
 20
7.7402571132
 30
0.0
 10
9.6018412466
 20
7.7415714951
 30
0.0
 10
9.60173868
 20
7.7426229716
 30
0.0
 10
9.6016623743
 20
7.7434116586
 30
0.0
 10
9.6015968161
 20
7.7440686443
 30
0.0
 10
9.6015547918
 20
7.7445290317
 30
0.0
 10
9.6015247407
 20
7.7447913335
 30
0.0
 10
9.6015192092
 20
7.7449902479
 30
0.0
 10
9.6014486692
 20
7.7451807986
 30
0.0
 10
9.6013772915
 20
7.7454377835
 30
0.0
 10
9.6012418155
 20
7.7458861479
 30
0.0
 10
9.6010538018
 20
7.7465273791
 30
0.0
 10
9.6008258212
 20
7.7472965523
 30
0.0
 10
9.6005226728
 20
7.7483222229
 30
0.0
 10
9.6001434546
 20
7.7496042747
 30
0.0
 10
9.5995368635
 20
7.751655578
 30
0.0
 10
9.5987785704
 20
7.7542197001
 30
0.0
 10
9.5978686419
 20
7.7572966496
 30
0.0
 10
9.5969587072
 20
7.7603735984
 30
0.0
 10
9.5957454631
 20
7.764476197
 30
0.0
 10
9.5942289074
 20
7.7696044451
 30
0.0
 10
9.5927123513
 20
7.7747326931
 30
0.0
 10
9.5914991079
 20
7.778835292
 30
0.0
 10
9.590589171
 20
7.7819122397
 30
0.0
 10
9.5896792507
 20
7.7849891931
 30
0.0
 10
9.5889209322
 20
7.7875533033
 30
0.0
 10
9.5883143928
 20
7.7896046309
 30
0.0
 10
9.587935043
 20
7.7908866207
 30
0.0
 10
9.5876321647
 20
7.7919124187
 30
0.0
 10
9.587403359
 20
7.7926812026
 30
0.0
 10
9.5872179271
 20
7.793323652
 30
0.0
 10
9.5870578301
 20
7.793833583
 30
0.0
 10
9.586969868
 20
7.7942270394
 30
0.0
 10
9.5867593389
 20
7.7945784773
 30
0.0
 10
9.5865214476
 20
7.7950617388
 30
0.0
 10
9.5862093942
 20
7.7956607799
 30
0.0
 10
9.5858412177
 20
7.7963817846
 30
0.0
 10
9.5853481195
 20
7.7973423714
 30
0.0
 10
9.5847324986
 20
7.7985433628
 30
0.0
 10
9.5837470851
 20
7.8004648048
 30
0.0
 10
9.5825154624
 20
7.8028666567
 30
0.0
 10
9.5810374533
 20
7.8057488579
 30
0.0
 10
9.5795594607
 20
7.8086310648
 30
0.0
 10
9.5775887982
 20
7.8124740052
 30
0.0
 10
9.5751254719
 20
7.8172776815
 30
0.0
 10
9.5726621452
 20
7.8220813576
 30
0.0
 10
9.5706914835
 20
7.8259242983
 30
0.0
 10
9.5692134886
 20
7.8288065045
 30
0.0
 10
9.5677354881
 20
7.831688708
 30
0.0
 10
9.5665038387
 20
7.8340905527
 30
0.0
 10
9.5655184795
 20
7.8360120096
 30
0.0
 10
9.5649027204
 20
7.8372129631
 30
0.0
 10
9.5644099061
 20
7.8381736275
 30
0.0
 10
9.5640408621
 20
7.838894395
 30
0.0
 10
9.5637315226
 20
7.8394941785
 30
0.0
 10
9.5635185229
 20
7.839915707
 30
0.0
 10
9.5633912846
 20
7.8401539572
 30
0.0
 10
9.5633114177
 20
7.8403400344
 30
0.0
 10
9.5631720656
 20
7.8404978651
 30
0.0
 10
9.5630070119
 20
7.8407181588
 30
0.0
 10
9.5627085005
 20
7.8410990823
 30
0.0
 10
9.5622871099
 20
7.8416456586
 30
0.0
 10
9.5617792779
 20
7.8423005228
 30
0.0
 10
9.561102924
 20
7.843174034
 30
0.0
 10
9.560257223
 20
7.8442658002
 30
0.0
 10
9.558904246
 20
7.8460126947
 30
0.0
 10
9.5572129752
 20
7.8481962892
 30
0.0
 10
9.5551834714
 20
7.8508166128
 30
0.0
 10
9.553153962
 20
7.8534369336
 30
0.0
 10
9.5504479514
 20
7.8569306957
 30
0.0
 10
9.5470654374
 20
7.861297898
 30
0.0
 10
9.5436829238
 20
7.8656651005
 30
0.0
 10
9.5409769125
 20
7.8691588621
 30
0.0
 10
9.5389474052
 20
7.8717791845
 30
0.0
 10
9.5369178936
 20
7.8743995022
 30
0.0
 10
9.535226647
 20
7.8765831149
 30
0.0
 10
9.5338736206
 20
7.8783299724
 30
0.0
 10
9.5330280452
 20
7.8794218327
 30
0.0
 10
9.5323514336
 20
7.8802951507
 30
0.0
 10
9.5318443892
 20
7.8809506051
 30
0.0
 10
9.5314205341
 20
7.8814953352
 30
0.0
 10
9.5311264223
 20
7.8818795544
 30
0.0
 10
9.5309543195
 20
7.8820945674
 30
0.0
 10
9.5308366199
 20
7.8822686189
 30
0.0
 10
9.5306754296
 20
7.8823937735
 30
0.0
 10
9.5304756793
 20
7.8825777021
 30
0.0
 10
9.5301190482
 20
7.8828916304
 30
0.0
 10
9.5296132705
 20
7.8833442541
 30
0.0
 10
9.5290047555
 20
7.8838856242
 30
0.0
 10
9.5281939547
 20
7.8846080722
 30
0.0
 10
9.5271802645
 20
7.8855109195
 30
0.0
 10
9.5255584659
 20
7.886955594
 30
0.0
 10
9.5235311814
 20
7.8887613963
 30
0.0
 10
9.5210984555
 20
7.8909283766
 30
0.0
 10
9.5186657254
 20
7.8930953523
 30
0.0
 10
9.5154220868
 20
7.8959846547
 30
0.0
 10
9.5113675382
 20
7.8995962824
 30
0.0
 10
9.5073129893
 20
7.9032079096
 30
0.0
 10
9.5040693511
 20
7.9060972127
 30
0.0
 10
9.5016366198
 20
7.9082641863
 30
0.0
 10
9.4992038985
 20
7.9104311741
 30
0.0
 10
9.4971765997
 20
7.9122369532
 30
0.0
 10
9.4955548301
 20
7.9136816752
 30
0.0
 10
9.4945410661
 20
7.9145844014
 30
0.0
 10
9.4937304168
 20
7.915307098
 30
0.0
 10
9.4931214388
 20
7.9158477087
 30
0.0
 10
9.4926171098
 20
7.9163027083
 30
0.0
 10
9.4922065758
 20
7.9166566362
 30
0.0
 10
9.4919179961
 20
7.9169496033
 30
0.0
 10
9.4915556684
 20
7.9171375213
 30
0.0
 10
9.4910983258
 20
7.9174247736
 30
0.0
 10
9.4905178092
 20
7.9177712492
 30
0.0
 10
9.4898249723
 20
7.9181924087
 30
0.0
 10
9.4888998685
 20
7.9187520725
 30
0.0
 10
9.4877439411
 20
7.9194522967
 30
0.0
 10
9.4858942045
 20
7.9205722952
 30
0.0
 10
9.4835821205
 20
7.921972417
 30
0.0
 10
9.4808075824
 20
7.9236525101
 30
0.0
 10
9.4780330544
 20
7.9253326175
 30
0.0
 10
9.4743336801
 20
7.9275727556
 30
0.0
 10
9.4697094636
 20
7.9303729302
 30
0.0
 10
9.4650852463
 20
7.9331731034
 30
0.0
 10
9.4613858732
 20
7.9354132436
 30
0.0
 10
9.4586113416
 20
7.9370933446
 30
0.0
 10
9.4558368169
 20
7.9387734616
 30
0.0
 10
9.4535246915
 20
7.9401735092
 30
0.0
 10
9.4516750392
 20
7.9412936591
 30
0.0
 10
9.4505188973
 20
7.9419934981
 30
0.0
 10
9.4495942338
 20
7.9425539526
 30
0.0
 10
9.4489000516
 20
7.9429726963
 30
0.0
 10
9.4483237443
 20
7.9433267303
 30
0.0
 10
9.4478578138
 20
7.9435985618
 30
0.0
 10
9.4475217131
 20
7.9438335741
 30
0.0
 10
9.4471346663
 20
7.9439497295
 30
0.0
 10
9.4466364
 20
7.9441461217
 30
0.0
 10
9.4460074614
 20
7.9443773672
 30
0.0
 10
9.4452553485
 20
7.9446609589
 30
0.0
 10
9.4442516186
 20
7.9450369516
 30
0.0
 10
9.4429972686
 20
7.9455076717
 30
0.0
 10
9.4409901341
 20
7.9462604163
 30
0.0
 10
9.4384812758
 20
7.9472014869
 30
0.0
 10
9.4354706202
 20
7.9483307117
 30
0.0
 10
9.4324599715
 20
7.9494599525
 30
0.0
 10
9.4284457708
 20
7.9509656013
 30
0.0
 10
9.4234280207
 20
7.9528476642
 30
0.0
 10
9.4184102704
 20
7.9547297266
 30
0.0
 10
9.41439607
 20
7.9562353761
 30
0.0
 10
9.4113854202
 20
7.9573646148
 30
0.0
 10
9.4083747686
 20
7.9584938475
 30
0.0
 10
9.4058658979
 20
7.9594348936
 30
0.0
 10
9.4038587886
 20
7.9601876881
 30
0.0
 10
9.4026043744
 20
7.9606582813
 30
0.0
 10
9.4016007764
 20
7.9610345344
 30
0.0
 10
9.4008482605
 20
7.9613173305
 30
0.0
 10
9.4002205829
 20
7.9615510656
 30
0.0
 10
9.3997823488
 20
7.9617184643
 30
0.0
 10
9.3995301489
 20
7.9618082121
 30
0.0
 10
9.3993460146
 20
7.9618921674
 30
0.0
 10
9.399142708
 20
7.9619124996
 30
0.0
 10
9.39887832
 20
7.9619618016
 30
0.0
 10
9.3984125253
 20
7.9620377403
 30
0.0
 10
9.3977487332
 20
7.9621516299
 30
0.0
 10
9.3969514854
 20
7.9622859837
 30
0.0
 10
9.3958887319
 20
7.9624659301
 30
0.0
 10
9.3945602067
 20
7.9626905865
 30
0.0
 10
9.3924346129
 20
7.9630501913
 30
0.0
 10
9.3897776047
 20
7.9634996443
 30
0.0
 10
9.3865892017
 20
7.9640390107
 30
0.0
 10
9.3834007969
 20
7.9645783709
 30
0.0
 10
9.3791495911
 20
7.96529752
 30
0.0
 10
9.3738355837
 20
7.9661964557
 30
0.0
 10
9.3674587748
 20
7.9672751788
 30
0.0
 10
9.358956363
 20
7.9687134762
 30
0.0
 10
9.3525795541
 20
7.9697921993
 30
0.0
 10
9.3483283482
 20
7.970511348
 30
0.0
  0
SPLINE
  5
410
100
AcDbEntity
  8
0
100
AcDbSpline
 62
4
  6
CONTINUOUS
 70
0
 71
3
 72
397
 73
393
 74
0
 42
0.0000001
 43
0.0000001
 44
0.0000000001
 40
0.0
 40
0.0
 40
0.0
 40
0.0
 40
0.015625
 40
0.0234375
 40
0.03125
 40
0.0390625
 40
0.04296875
 40
0.046875
 40
0.05078125
 40
0.0546875
 40
0.056640625
 40
0.05859375
 40
0.0595703125
 40
0.060546875
 40
0.0615234375
 40
0.0620117188
 40
0.0622558594
 40
0.0625
 40
0.0627441406
 40
0.0629882812
 40
0.0634765625
 40
0.064453125
 40
0.0654296875
 40
0.06640625
 40
0.068359375
 40
0.0703125
 40
0.07421875
 40
0.078125
 40
0.08203125
 40
0.0859375
 40
0.09375
 40
0.1015625
 40
0.10546875
 40
0.109375
 40
0.11328125
 40
0.1171875
 40
0.119140625
 40
0.12109375
 40
0.1220703125
 40
0.123046875
 40
0.1240234375
 40
0.1245117188
 40
0.1247558594
 40
0.125
 40
0.1252441406
 40
0.1254882812
 40
0.1259765625
 40
0.126953125
 40
0.1279296875
 40
0.12890625
 40
0.130859375
 40
0.1328125
 40
0.13671875
 40
0.140625
 40
0.14453125
 40
0.1484375
 40
0.15625
 40
0.1640625
 40
0.16796875
 40
0.171875
 40
0.17578125
 40
0.1796875
 40
0.181640625
 40
0.18359375
 40
0.1845703125
 40
0.185546875
 40
0.1865234375
 40
0.1870117188
 40
0.1872558594
 40
0.1875
 40
0.1877441406
 40
0.1879882812
 40
0.1884765625
 40
0.189453125
 40
0.1904296875
 40
0.19140625
 40
0.193359375
 40
0.1953125
 40
0.19921875
 40
0.203125
 40
0.20703125
 40
0.2109375
 40
0.21875
 40
0.2265625
 40
0.23046875
 40
0.234375
 40
0.23828125
 40
0.2421875
 40
0.244140625
 40
0.24609375
 40
0.2470703125
 40
0.248046875
 40
0.2490234375
 40
0.2495117188
 40
0.2497558594
 40
0.25
 40
0.2502441406
 40
0.2504882812
 40
0.2509765625
 40
0.251953125
 40
0.2529296875
 40
0.25390625
 40
0.255859375
 40
0.2578125
 40
0.26171875
 40
0.265625
 40
0.26953125
 40
0.2734375
 40
0.28125
 40
0.2890625
 40
0.29296875
 40
0.296875
 40
0.30078125
 40
0.3046875
 40
0.306640625
 40
0.30859375
 40
0.3095703125
 40
0.310546875
 40
0.3115234375
 40
0.3120117188
 40
0.3122558594
 40
0.3125
 40
0.3127441406
 40
0.3129882812
 40
0.3134765625
 40
0.314453125
 40
0.3154296875
 40
0.31640625
 40
0.318359375
 40
0.3203125
 40
0.32421875
 40
0.328125
 40
0.33203125
 40
0.3359375
 40
0.34375
 40
0.3515625
 40
0.35546875
 40
0.359375
 40
0.36328125
 40
0.3671875
 40
0.369140625
 40
0.37109375
 40
0.3720703125
 40
0.373046875
 40
0.3740234375
 40
0.3745117188
 40
0.3747558594
 40
0.375
 40
0.3752441406
 40
0.3754882812
 40
0.3759765625
 40
0.376953125
 40
0.3779296875
 40
0.37890625
 40
0.380859375
 40
0.3828125
 40
0.38671875
 40
0.390625
 40
0.39453125
 40
0.3984375
 40
0.40625
 40
0.4140625
 40
0.41796875
 40
0.421875
 40
0.42578125
 40
0.4296875
 40
0.431640625
 40
0.43359375
 40
0.4345703125
 40
0.435546875
 40
0.4365234375
 40
0.4370117188
 40
0.4372558594
 40
0.4375
 40
0.4377441406
 40
0.4379882812
 40
0.4384765625
 40
0.439453125
 40
0.4404296875
 40
0.44140625
 40
0.443359375
 40
0.4453125
 40
0.44921875
 40
0.453125
 40
0.45703125
 40
0.4609375
 40
0.46875
 40
0.4765625
 40
0.48046875
 40
0.484375
 40
0.48828125
 40
0.4921875
 40
0.494140625
 40
0.49609375
 40
0.4970703125
 40
0.498046875
 40
0.4990234375
 40
0.4995117188
 40
0.4997558594
 40
0.5
 40
0.5002441406
 40
0.5004882812
 40
0.5009765625
 40
0.501953125
 40
0.5029296875
 40
0.50390625
 40
0.505859375
 40
0.5078125
 40
0.51171875
 40
0.515625
 40
0.51953125
 40
0.5234375
 40
0.53125
 40
0.5390625
 40
0.54296875
 40
0.546875
 40
0.55078125
 40
0.5546875
 40
0.556640625
 40
0.55859375
 40
0.5595703125
 40
0.560546875
 40
0.5615234375
 40
0.5620117188
 40
0.5622558594
 40
0.5625
 40
0.5627441406
 40
0.5629882812
 40
0.5634765625
 40
0.564453125
 40
0.5654296875
 40
0.56640625
 40
0.568359375
 40
0.5703125
 40
0.57421875
 40
0.578125
 40
0.58203125
 40
0.5859375
 40
0.59375
 40
0.6015625
 40
0.60546875
 40
0.609375
 40
0.61328125
 40
0.6171875
 40
0.619140625
 40
0.62109375
 40
0.6220703125
 40
0.623046875
 40
0.6240234375
 40
0.6245117188
 40
0.625
 40
0.6254882812
 40
0.6259765625
 40
0.626953125
 40
0.6279296875
 40
0.62890625
 40
0.630859375
 40
0.6328125
 40
0.63671875
 40
0.640625
 40
0.64453125
 40
0.6484375
 40
0.65625
 40
0.6640625
 40
0.66796875
 40
0.671875
 40
0.67578125
 40
0.6796875
 40
0.681640625
 40
0.68359375
 40
0.6845703125
 40
0.685546875
 40
0.6865234375
 40
0.6870117188
 40
0.6872558594
 40
0.6875
 40
0.6877441406
 40
0.6879882812
 40
0.6884765625
 40
0.689453125
 40
0.6904296875
 40
0.69140625
 40
0.693359375
 40
0.6953125
 40
0.69921875
 40
0.703125
 40
0.70703125
 40
0.7109375
 40
0.71875
 40
0.7265625
 40
0.73046875
 40
0.734375
 40
0.73828125
 40
0.7421875
 40
0.744140625
 40
0.74609375
 40
0.7470703125
 40
0.748046875
 40
0.7490234375
 40
0.7495117188
 40
0.7497558594
 40
0.75
 40
0.7502441406
 40
0.7504882812
 40
0.7509765625
 40
0.751953125
 40
0.7529296875
 40
0.75390625
 40
0.755859375
 40
0.7578125
 40
0.76171875
 40
0.765625
 40
0.76953125
 40
0.7734375
 40
0.78125
 40
0.7890625
 40
0.79296875
 40
0.796875
 40
0.80078125
 40
0.8046875
 40
0.806640625
 40
0.80859375
 40
0.8095703125
 40
0.810546875
 40
0.8115234375
 40
0.8120117188
 40
0.8125
 40
0.8129882812
 40
0.8134765625
 40
0.814453125
 40
0.8154296875
 40
0.81640625
 40
0.818359375
 40
0.8203125
 40
0.82421875
 40
0.828125
 40
0.83203125
 40
0.8359375
 40
0.84375
 40
0.8515625
 40
0.85546875
 40
0.859375
 40
0.86328125
 40
0.8671875
 40
0.869140625
 40
0.87109375
 40
0.8720703125
 40
0.873046875
 40
0.8740234375
 40
0.8745117188
 40
0.875
 40
0.8754882812
 40
0.8759765625
 40
0.876953125
 40
0.8779296875
 40
0.87890625
 40
0.880859375
 40
0.8828125
 40
0.88671875
 40
0.890625
 40
0.89453125
 40
0.8984375
 40
0.90625
 40
0.9140625
 40
0.91796875
 40
0.921875
 40
0.92578125
 40
0.9296875
 40
0.931640625
 40
0.93359375
 40
0.9345703125
 40
0.935546875
 40
0.9365234375
 40
0.9370117188
 40
0.9372558594
 40
0.9375
 40
0.9377441406
 40
0.9379882812
 40
0.9384765625
 40
0.939453125
 40
0.9404296875
 40
0.94140625
 40
0.943359375
 40
0.9453125
 40
0.94921875
 40
0.953125
 40
0.95703125
 40
0.9609375
 40
0.96875
 40
0.9765625
 40
0.984375
 40
1.0
 40
1.0
 40
1.0
 40
1.0
 10
9.3483283708
 20
7.9705113464
 30
0.0
 10
9.3441507882
 20
7.9703914472
 30
0.0
 10
9.3378844144
 20
7.9702115984
 30
0.0
 10
9.3295292493
 20
7.9699718
 30
0.0
 10
9.3232628754
 20
7.9697919511
 30
0.0
 10
9.3180408972
 20
7.9696420773
 30
0.0
 10
9.3138633147
 20
7.9695221776
 30
0.0
 10
9.3107301276
 20
7.9694322545
 30
0.0
 10
9.3075969416
 20
7.9693423251
 30
0.0
 10
9.3049859495
 20
7.9692674036
 30
0.0
 10
9.3028971644
 20
7.9692074224
 30
0.0
 10
9.3015916541
 20
7.9691700343
 30
0.0
 10
9.3005472907
 20
7.9691398945
 30
0.0
 10
9.2997638955
 20
7.9691179175
 30
0.0
 10
9.2991114563
 20
7.9690976061
 30
0.0
 10
9.2986539833
 20
7.9690873076
 30
0.0
 10
9.2983937655
 20
7.9690753027
 30
0.0
 10
9.2981952347
 20
7.9690835394
 30
0.0
 10
9.298009576
 20
7.9690258748
 30
0.0
 10
9.2977575412
 20
7.9689719758
 30
0.0
 10
9.2973185721
 20
7.9688669424
 30
0.0
 10
9.2966903797
 20
7.968722494
 30
0.0
 10
9.2959370169
 20
7.9685467593
 30
0.0
 10
9.2949323698
 20
7.9683132834
 30
0.0
 10
9.2936766168
 20
7.968021152
 30
0.0
 10
9.2916673808
 20
7.9675539019
 30
0.0
 10
9.2891558464
 20
7.9669697843
 30
0.0
 10
9.2861420007
 20
7.9662688667
 30
0.0
 10
9.2831281561
 20
7.9655679428
 30
0.0
 10
9.2791096963
 20
7.9646333799
 30
0.0
 10
9.2740866217
 20
7.9634651754
 30
0.0
 10
9.2690635469
 20
7.9622969714
 30
0.0
 10
9.2650450874
 20
7.9613624076
 30
0.0
 10
9.2620312421
 20
7.9606614863
 30
0.0
 10
9.2590173992
 20
7.959960559
 30
0.0
 10
9.2565058559
 20
7.9593764717
 30
0.0
 10
9.2544966381
 20
7.9589091598
 30
0.0
 10
9.2532408387
 20
7.9586171856
 30
0.0
 10
9.252236287
 20
7.9583833869
 30
0.0
 10
9.2514826326
 20
7.9582086384
 30
0.0
 10
9.2508553526
 20
7.9580611046
 30
0.0
 10
9.2504147547
 20
7.9579615792
 30
0.0
 10
9.2501653297
 20
7.9578988549
 30
0.0
 10
9.2499716543
 20
7.9578682987
 30
0.0
 10
9.2498032327
 20
7.9577747208
 30
0.0
 10
9.2495698618
 20
7.957671933
 30
0.0
 10
9.2491655669
 20
7.9574818122
 30
0.0
 10
9.248585857
 20
7.9572155657
 30
0.0
 10
9.2478911237
 20
7.956893778
 30
0.0
 10
9.2469644917
 20
7.9564655282
 30
0.0
 10
9.2458063115
 20
7.9559299418
 30
0.0
 10
9.2439531619
 20
7.9550731568
 30
0.0
 10
9.2416367459
 20
7.9540021231
 30
0.0
 10
9.2388570378
 20
7.9527169051
 30
0.0
 10
9.236077332
 20
7.951431681
 30
0.0
 10
9.2323710568
 20
7.9497180511
 30
0.0
 10
9.2277382131
 20
7.9475760129
 30
0.0
 10
9.2231053692
 20
7.9454339753
 30
0.0
 10
9.2193990944
 20
7.9437203445
 30
0.0
 10
9.2166193875
 20
7.942435123
 30
0.0
 10
9.2138396836
 20
7.9411498956
 30
0.0
 10
9.2115232541
 20
7.9400788911
 30
0.0
 10
9.2096701321
 20
7.9392220463
 30
0.0
 10
9.2085118817
 20
7.9386866122
 30
0.0
 10
9.207585394
 20
7.93825805
 30
0.0
 10
9.2068902198
 20
7.9379372165
 30
0.0
 10
9.2063118891
 20
7.9376679844
 30
0.0
 10
9.2059051322
 20
7.9374831934
 30
0.0
 10
9.205675706
 20
7.9373718659
 30
0.0
 10
9.2054951676
 20
7.9373045193
 30
0.0
 10
9.2053470009
 20
7.9371754426
 30
0.0
 10
9.2051381537
 20
7.9370248725
 30
0.0
 10
9.2047779322
 20
7.9367513426
 30
0.0
 10
9.2042605794
 20
7.9363658305
 30
0.0
 10
9.2036409334
 20
7.9359009711
 30
0.0
 10
9.2028143275
 20
7.9352819426
 30
0.0
 10
9.2017812109
 20
7.9345078884
 30
0.0
 10
9.2001281457
 20
7.9332695519
 30
0.0
 10
9.1980618412
 20
7.9317215798
 30
0.0
 10
9.1955822642
 20
7.9298640353
 30
0.0
 10
9.1931026903
 20
7.9280064848
 30
0.0
 10
9.1897965907
 20
7.925529753
 30
0.0
 10
9.1856639666
 20
7.9224338375
 30
0.0
 10
9.1815313421
 20
7.9193379224
 30
0.0
 10
9.1782252431
 20
7.9168611899
 30
0.0
 10
9.1757456675
 20
7.9150036416
 30
0.0
 10
9.1732660968
 20
7.9131460889
 30
0.0
 10
9.1711997725
 20
7.9115981423
 30
0.0
 10
9.1695467477
 20
7.9103597536
 30
0.0
 10
9.1685135283
 20
7.9095858323
 30
0.0
 10
9.1676871334
 20
7.9089665313
 30
0.0
 10
9.1670668427
 20
7.9085025042
 30
0.0
 10
9.1665515071
 20
7.9081143878
 30
0.0
 10
9.1661876846
 20
7.9078455071
 30
0.0
 10
9.165984607
 20
7.9076874878
 30
0.0
 10
9.1658187179
 20
7.9075812927
 30
0.0
 10
9.1657047419
 20
7.9074280067
 30
0.0
 10
9.1655346661
 20
7.9072400511
 30
0.0
 10
9.1652454702
 20
7.9069034759
 30
0.0
 10
9.1648279223
 20
7.9064266552
 30
0.0
 10
9.1643287528
 20
7.9058527577
 30
0.0
 10
9.1636625341
 20
7.9050881593
 30
0.0
 10
9.1628299865
 20
7.9041322065
 30
0.0
 10
9.1614977841
 20
7.9026027964
 30
0.0
 10
9.1598325744
 20
7.9006909946
 30
0.0
 10
9.1578343042
 20
7.8983968492
 30
0.0
 10
9.155836039
 20
7.8961026993
 30
0.0
 10
9.1531716836
 20
7.8930438344
 30
0.0
 10
9.1498412401
 20
7.8892202527
 30
0.0
 10
9.1465107961
 20
7.8853966713
 30
0.0
 10
9.1438464414
 20
7.8823378058
 30
0.0
 10
9.141848174
 20
7.8800436577
 30
0.0
 10
9.1398499119
 20
7.8777495057
 30
0.0
 10
9.1381846771
 20
7.8758377245
 30
0.0
 10
9.136852526
 20
7.8743082723
 30
0.0
 10
9.1360198479
 20
7.8733524266
 30
0.0
 10
9.135353897
 20
7.8725876084
 30
0.0
 10
9.1348539092
 20
7.8720143824
 30
0.0
 10
9.1344389217
 20
7.871535461
 30
0.0
 10
9.1341451551
 20
7.8712026358
 30
0.0
 10
9.1339824026
 20
7.8710086717
 30
0.0
 10
9.1338459315
 20
7.8708738422
 30
0.0
 10
9.1337645303
 20
7.8706983275
 30
0.0
 10
9.1336367864
 20
7.8704784993
 30
0.0
 10
9.1334221844
 20
7.870087188
 30
0.0
 10
9.133110931
 20
7.8695316286
 30
0.0
 10
9.1327394298
 20
7.8688634778
 30
0.0
 10
9.1322433952
 20
7.8679731268
 30
0.0
 10
9.1316235915
 20
7.8668600112
 30
0.0
 10
9.1306317718
 20
7.865079125
 30
0.0
 10
9.129392043
 20
7.8628529833
 30
0.0
 10
9.1279043489
 20
7.8601816279
 30
0.0
 10
9.1264166599
 20
7.8575102685
 30
0.0
 10
9.1244330729
 20
7.8539484575
 30
0.0
 10
9.1219535897
 20
7.8494961931
 30
0.0
 10
9.1194741061
 20
7.8450439291
 30
0.0
 10
9.1174905198
 20
7.8414821175
 30
0.0
 10
9.1160028286
 20
7.8388107596
 30
0.0
 10
9.1145151432
 20
7.8361393988
 30
0.0
 10
9.1132753871
 20
7.8339132737
 30
0.0
 10
9.1122836231
 20
7.8321323538
 30
0.0
 10
9.1116636776
 20
7.831019324
 30
0.0
 10
9.1111679341
 20
7.8301287968
 30
0.0
 10
9.1107955436
 20
7.8294611844
 30
0.0
 10
9.1104870724
 20
7.8289039403
 30
0.0
 10
9.1102675037
 20
7.8285156365
 30
0.0
 10
9.1101477177
 20
7.8282909895
 30
0.0
 10
9.1100418725
 20
7.8281302768
 30
0.0
 10
9.1099972091
 20
7.8279398536
 30
0.0
 10
9.1099163169
 20
7.8276963193
 30
0.0
 10
9.1097846988
 20
7.8272653058
 30
0.0
 10
9.1095914745
 20
7.8266520967
 30
0.0
 10
9.1093618305
 20
7.8259151652
 30
0.0
 10
9.1090548613
 20
7.8249329673
 30
0.0
 10
9.1086714158
 20
7.8237050907
 30
0.0
 10
9.1080577544
 20
7.8217405603
 30
0.0
 10
9.1072907287
 20
7.8192848726
 30
0.0
 10
9.106370276
 20
7.816338058
 30
0.0
 10
9.1054498291
 20
7.8133912405
 30
0.0
 10
9.1042225645
 20
7.8094621515
 30
0.0
 10
9.1026884845
 20
7.8045507899
 30
0.0
 10
9.101154404
 20
7.7996394285
 30
0.0
 10
9.0999271403
 20
7.7957103392
 30
0.0
 10
9.0990066908
 20
7.7927635228
 30
0.0
 10
9.0980862476
 20
7.7898167041
 30
0.0
 10
9.0973191922
 20
7.7873610289
 30
0.0
 10
9.0967055913
 20
7.785396473
 30
0.0
 10
9.096321992
 20
7.7841686615
 30
0.0
 10
9.0960153386
 20
7.7831863299
 30
0.0
 10
9.0957847297
 20
7.7824498068
 30
0.0
 10
9.0955945242
 20
7.78183532
 30
0.0
 10
9.0954575171
 20
7.7814065874
 30
0.0
 10
9.0953852594
 20
7.7811593986
 30
0.0
 10
9.0953140739
 20
7.780980201
 30
0.0
 10
9.0953078411
 20
7.7807773268
 30
0.0
 10
9.0952768744
 20
7.7805150864
 30
0.0
 10
9.0952332387
 20
7.7800523181
 30
0.0
 10
9.0951653832
 20
7.7793932321
 30
0.0
 10
9.0950863188
 20
7.7786014678
 30
0.0
 10
9.0949800745
 20
7.7775460828
 30
0.0
 10
9.0948475517
 20
7.7762267487
 30
0.0
 10
9.0946353573
 20
7.7741158716
 30
0.0
 10
9.0943701684
 20
7.7714772555
 30
0.0
 10
9.0940519186
 20
7.7683109246
 30
0.0
 10
9.093733675
 20
7.7651445915
 30
0.0
 10
9.093309348
 20
7.7609228147
 30
0.0
 10
9.09277894
 20
7.7556455935
 30
0.0
 10
9.0922485315
 20
7.7503683724
 30
0.0
 10
9.0918242054
 20
7.7461465956
 30
0.0
 10
9.0915059591
 20
7.7429802629
 30
0.0
 10
9.0911877193
 20
7.7398139303
 30
0.0
 10
9.0909224993
 20
7.7371753195
 30
0.0
 10
9.0907103684
 20
7.7350644316
 30
0.0
 10
9.090577684
 20
7.7337451248
 30
0.0
 10
9.0904717713
 20
7.7326896838
 30
0.0
 10
9.090391694
 20
7.7318980908
 30
0.0
 10
9.0903270075
 20
7.7312384688
 30
0.0
 10
9.0902777146
 20
7.7307766573
 30
0.0
 10
9.0902558122
 20
7.7305128837
 30
0.0
 10
9.090221737
 20
7.7303147194
 30
0.0
 10
9.0902551226
 20
7.7301178322
 30
0.0
 10
9.0902761056
 20
7.7298548704
 30
0.0
 10
9.0903237895
 20
7.7293948949
 30
0.0
 10
9.0903861774
 20
7.7287376784
 30
0.0
 10
9.0904634963
 20
7.7279490652
 30
0.0
 10
9.0905657313
 20
7.7268975646
 30
0.0
 10
9.0906938185
 20
7.7255831944
 30
0.0
 10
9.0908985939
 20
7.7234801991
 30
0.0
 10
9.0911546195
 20
7.720851456
 30
0.0
 10
9.091461826
 20
7.7176969637
 30
0.0
 10
9.0917690391
 20
7.7145424716
 30
0.0
 10
9.0921786542
 20
7.7103364821
 30
0.0
 10
9.0926906739
 20
7.7050789953
 30
0.0
 10
9.093202693
 20
7.6998215084
 30
0.0
 10
9.093612309
 20
7.695615519
 30
0.0
 10
9.0939195194
 20
7.6924610267
 30
0.0
 10
9.094226736
 20
7.6893065352
 30
0.0
 10
9.0944827304
 20
7.6866777898
 30
0.0
 10
9.0946875693
 20
7.684574799
 30
0.0
 10
9.0948154949
 20
7.6832604171
 30
0.0
 10
9.0949180616
 20
7.6822089407
 30
0.0
 10
9.0949943672
 20
7.6814202537
 30
0.0
 10
9.0950599255
 20
7.680763268
 30
0.0
 10
9.0951019498
 20
7.6803028806
 30
0.0
 10
9.0951320008
 20
7.6800405788
 30
0.0
 10
9.0951375323
 20
7.6798416644
 30
0.0
 10
9.0952080724
 20
7.6796511137
 30
0.0
 10
9.0952794501
 20
7.6793941288
 30
0.0
 10
9.0954149261
 20
7.6789457644
 30
0.0
 10
9.0956029397
 20
7.6783045332
 30
0.0
 10
9.0958309203
 20
7.6775353599
 30
0.0
 10
9.0961340687
 20
7.6765096894
 30
0.0
 10
9.0965132869
 20
7.6752276375
 30
0.0
 10
9.097119878
 20
7.6731763343
 30
0.0
 10
9.0978781711
 20
7.6706122121
 30
0.0
 10
9.0987880996
 20
7.6675352626
 30
0.0
 10
9.0996980343
 20
7.6644583139
 30
0.0
 10
9.1009112784
 20
7.6603557153
 30
0.0
 10
9.1024278341
 20
7.6552274671
 30
0.0
 10
9.1039443903
 20
7.6500992191
 30
0.0
 10
9.1051576337
 20
7.6459966202
 30
0.0
 10
9.1060675706
 20
7.6429196725
 30
0.0
 10
9.1069774909
 20
7.6398427191
 30
0.0
 10
9.1077358094
 20
7.637278609
 30
0.0
 10
9.1083423487
 20
7.6352272813
 30
0.0
 10
9.1087216985
 20
7.6339452916
 30
0.0
 10
9.1090245768
 20
7.6329194935
 30
0.0
 10
9.1092533826
 20
7.6321507097
 30
0.0
 10
9.1094388145
 20
7.6315082602
 30
0.0
 10
9.1095989115
 20
7.6309983293
 30
0.0
 10
9.1096868735
 20
7.6306048729
 30
0.0
 10
9.1098974027
 20
7.630253435
 30
0.0
 10
9.1101352939
 20
7.6297701735
 30
0.0
 10
9.1104473473
 20
7.6291711324
 30
0.0
 10
9.1108155239
 20
7.6284501276
 30
0.0
 10
9.1113086221
 20
7.6274895408
 30
0.0
 10
9.1119242429
 20
7.6262885495
 30
0.0
 10
9.1129096565
 20
7.6243671075
 30
0.0
 10
9.1141412792
 20
7.6219652555
 30
0.0
 10
9.1156192883
 20
7.6190830543
 30
0.0
 10
9.1170972809
 20
7.6162008475
 30
0.0
 10
9.1190679434
 20
7.612357907
 30
0.0
 10
9.1215312696
 20
7.6075542308
 30
0.0
 10
9.1239945963
 20
7.6027505547
 30
0.0
 10
9.1259652581
 20
7.598907614
 30
0.0
 10
9.1274432529
 20
7.5960254078
 30
0.0
 10
9.1289212535
 20
7.5931432042
 30
0.0
 10
9.1301529029
 20
7.5907413596
 30
0.0
 10
9.1311382621
 20
7.5888199027
 30
0.0
 10
9.1317540212
 20
7.5876189492
 30
0.0
 10
9.1322468355
 20
7.5866582847
 30
0.0
 10
9.1326158795
 20
7.5859375172
 30
0.0
 10
9.1329252189
 20
7.5853377337
 30
0.0
 10
9.1331382186
 20
7.5849162053
 30
0.0
 10
9.1332654569
 20
7.5846779551
 30
0.0
 10
9.1333453239
 20
7.5844918779
 30
0.0
 10
9.133484676
 20
7.5843340471
 30
0.0
 10
9.1336497297
 20
7.5841137534
 30
0.0
 10
9.133948241
 20
7.58373283
 30
0.0
 10
9.1343696316
 20
7.5831862537
 30
0.0
 10
9.1348774637
 20
7.5825313894
 30
0.0
 10
9.1355538175
 20
7.5816578782
 30
0.0
 10
9.1363995185
 20
7.5805661121
 30
0.0
 10
9.1377524955
 20
7.5788192176
 30
0.0
 10
9.1394437664
 20
7.576635623
 30
0.0
 10
9.1414732701
 20
7.5740152995
 30
0.0
 10
9.1435027796
 20
7.5713949786
 30
0.0
 10
9.1462087902
 20
7.5679012165
 30
0.0
 10
9.1495913042
 20
7.5635340143
 30
0.0
 10
9.1529738177
 20
7.5591668117
 30
0.0
 10
9.155679829
 20
7.5556730502
 30
0.0
 10
9.1577093364
 20
7.5530527277
 30
0.0
 10
9.1597388479
 20
7.55043241
 30
0.0
 10
9.1614300946
 20
7.5482487973
 30
0.0
 10
9.1627831209
 20
7.5465019398
 30
0.0
 10
9.1636286963
 20
7.5454100796
 30
0.0
 10
9.164305308
 20
7.5445367615
 30
0.0
 10
9.1648123524
 20
7.5438813072
 30
0.0
 10
9.1652362074
 20
7.5433365771
 30
0.0
 10
9.1655303193
 20
7.5429523578
 30
0.0
 10
9.1657024221
 20
7.5427373449
 30
0.0
 10
9.1658201216
 20
7.5425632933
 30
0.0
 10
9.1659813119
 20
7.5424381388
 30
0.0
 10
9.1661810623
 20
7.5422542102
 30
0.0
 10
9.1665376933
 20
7.5419402818
 30
0.0
 10
9.1670434711
 20
7.5414876581
 30
0.0
 10
9.167651986
 20
7.540946288
 30
0.0
 10
9.1684627869
 20
7.5402238401
 30
0.0
 10
9.1694764771
 20
7.5393209928
 30
0.0
 10
9.1710982757
 20
7.5378763183
 30
0.0
 10
9.1731255602
 20
7.5360705159
 30
0.0
 10
9.1755582861
 20
7.5339035356
 30
0.0
 10
9.1779910161
 20
7.53173656
 30
0.0
 10
9.1812346547
 20
7.5288472576
 30
0.0
 10
9.1852892034
 20
7.5252356299
 30
0.0
 10
9.1893437523
 20
7.5216240027
 30
0.0
 10
9.1925873905
 20
7.5187346995
 30
0.0
 10
9.1950201218
 20
7.5165677259
 30
0.0
 10
9.1974528431
 20
7.5144007381
 30
0.0
 10
9.1994801418
 20
7.5125949591
 30
0.0
 10
9.2011019114
 20
7.511150237
 30
0.0
 10
9.2021156754
 20
7.5102475108
 30
0.0
 10
9.2029263247
 20
7.5095248143
 30
0.0
 10
9.2035353027
 20
7.5089842036
 30
0.0
 10
9.2040396317
 20
7.5085292039
 30
0.0
 10
9.2044501658
 20
7.5081752761
 30
0.0
 10
9.2047387454
 20
7.5078823089
 30
0.0
 10
9.2051010732
 20
7.507694391
 30
0.0
 10
9.2055584157
 20
7.5074071386
 30
0.0
 10
9.2061389324
 20
7.5070606631
 30
0.0
 10
9.2068317692
 20
7.5066395036
 30
0.0
 10
9.2077568731
 20
7.5060798398
 30
0.0
 10
9.2089128004
 20
7.5053796156
 30
0.0
 10
9.210762537
 20
7.504259617
 30
0.0
 10
9.2130746211
 20
7.5028594953
 30
0.0
 10
9.2158491591
 20
7.5011794021
 30
0.0
 10
9.2186236872
 20
7.4994992948
 30
0.0
 10
9.2223230614
 20
7.4972591566
 30
0.0
 10
9.226947278
 20
7.4944589821
 30
0.0
 10
9.2315714953
 20
7.4916588089
 30
0.0
 10
9.2352708683
 20
7.4894186686
 30
0.0
 10
9.2380453999
 20
7.4877385677
 30
0.0
 10
9.2408199247
 20
7.4860584506
 30
0.0
 10
9.2431320501
 20
7.4846584031
 30
0.0
 10
9.2449817024
 20
7.4835382532
 30
0.0
 10
9.2461378443
 20
7.4828384142
 30
0.0
 10
9.2470625077
 20
7.4822779597
 30
0.0
 10
9.24775669
 20
7.481859216
 30
0.0
 10
9.2483329973
 20
7.4815051819
 30
0.0
 10
9.2487989277
 20
7.4812333504
 30
0.0
 10
9.2491350285
 20
7.4809983381
 30
0.0
 10
9.2495220753
 20
7.4808821827
 30
0.0
 10
9.2500203415
 20
7.4806857906
 30
0.0
 10
9.2506492801
 20
7.4804545451
 30
0.0
 10
9.251401393
 20
7.4801709533
 30
0.0
 10
9.252405123
 20
7.4797949606
 30
0.0
 10
9.2536594729
 20
7.4793242405
 30
0.0
 10
9.2556666075
 20
7.4785714959
 30
0.0
 10
9.2581754657
 20
7.4776304253
 30
0.0
 10
9.2611861213
 20
7.4765012006
 30
0.0
 10
9.2641967701
 20
7.4753719598
 30
0.0
 10
9.2682109708
 20
7.4738663109
 30
0.0
 10
9.2732287209
 20
7.4719842481
 30
0.0
 10
9.2782464712
 20
7.4701021856
 30
0.0
 10
9.2822606715
 20
7.4685965361
 30
0.0
 10
9.2852713213
 20
7.4674672974
 30
0.0
 10
9.288281973
 20
7.4663380648
 30
0.0
 10
9.2907908436
 20
7.4653970187
 30
0.0
 10
9.2927979529
 20
7.4646442242
 30
0.0
 10
9.2940523671
 20
7.464173631
 30
0.0
 10
9.2950559652
 20
7.4637973778
 30
0.0
 10
9.2958084811
 20
7.4635145818
 30
0.0
 10
9.2964361587
 20
7.4632808466
 30
0.0
 10
9.2968743927
 20
7.463113448
 30
0.0
 10
9.2971265927
 20
7.4630237001
 30
0.0
 10
9.297310727
 20
7.4629397449
 30
0.0
 10
9.2975140336
 20
7.4629194127
 30
0.0
 10
9.2977784215
 20
7.4628701106
 30
0.0
 10
9.2982442163
 20
7.462794172
 30
0.0
 10
9.2989080084
 20
7.4626802823
 30
0.0
 10
9.2997052561
 20
7.4625459286
 30
0.0
 10
9.3007680096
 20
7.4623659821
 30
0.0
 10
9.3020965348
 20
7.4621413258
 30
0.0
 10
9.3042221286
 20
7.4617817209
 30
0.0
 10
9.3068791368
 20
7.4613322679
 30
0.0
 10
9.3100675398
 20
7.4607929016
 30
0.0
 10
9.3132559446
 20
7.4602535413
 30
0.0
 10
9.3175071504
 20
7.4595343922
 30
0.0
 10
9.3228211579
 20
7.4586354565
 30
0.0
 10
9.3291979667
 20
7.4575567334
 30
0.0
 10
9.3377003786
 20
7.456118436
 30
0.0
 10
9.3440771874
 20
7.455039713
 30
0.0
 10
9.3483283933
 20
7.4543205643
 30
0.0
  0
ENDSEC
  0
SECTION
  2
OBJECTS
  0
DICTIONARY
  5
C
100
AcDbDictionary
280
0
281
1
  3
ACAD_GROUP
350
D
  3
ACAD_MLINESTYLE
350
17
  3
ACAD_LAYOUT
350
1A
  3
ACAD_PLOTSETTINGS
350
19
  3
ACAD_PLOTSTYLENAME
350
E
  3
ACAD_IMAGE_DICT
350
       412
  3
ACAD_IMAGE_VARS
350
       413
  3
ACAD_TABLESTYLE
350
       414
  0
IMAGEDEF_REACTOR
  5
411
100
AcDbRasterImageDefReactor
 90
2
330
294
  0
DICTIONARY
  5
D
102
{ACAD_REACTORS
330
C
102
}
100
AcDbDictionary
280
0
281
1
  0
ACDBDICTIONARYWDFLT
  5
E
102
{ACAD_REACTORS
330
C
102
}
100
AcDbDictionary
281
1
  3
Normal
350
F
100
AcDbDictionaryWithDefault
340
F
  0
DICTIONARY
  5
412
330
C
100
AcDbDictionary
281
1
  3
Y6D_assy_2_img_1
350
       417
  0
RASTERVARIABLES
  5
413
330
C
100
AcDbRasterVariables
 90
0
 70
0
 71
1
 72
5
  0
DICTIONARY
  5
17
102
{ACAD_REACTORS
330
C
102
}
100
AcDbDictionary
280
0
281
1
  3
Standard
350
18
  0
DICTIONARY
  5
414
330
C
100
AcDbDictionary
281
1
  3
Standard
350
       418
  3
Standard1
350
       419
  0
DICTIONARY
  5
19
102
{ACAD_REACTORS
330
C
102
}
100
AcDbDictionary
281
1
  0
DICTIONARY
  5
1A
102
{ACAD_REACTORS
330
C
102
}
100
AcDbDictionary
281
1
  3
Model
350
415
  3
Layout1
350
416
  0
ACDBPLACEHOLDER
  5
F
102
{ACAD_REACTORS
330
E
102
}
  0
MLINESTYLE
  5
18
102
{ACAD_REACTORS
330
17
102
}
100
AcDbMlineStyle
  2
STANDARD
 70
0
  3

 62
256
 51
90.0
 52
90.0
 71
2
 49
0.5
 62
256
  6
BYLAYER
 49
-0.5
 62
256
  6
BYLAYER
  0
LAYOUT
  5
415
102
{ACAD_REACTORS
330
1A
102
}
100
AcDbPlotSettings
  1

  2
none_device
  4
ANSI_C_(22.00_x_17.00_Inches)
  6

 40
0.0
 41
0.0
 42
0.0
 43
0.0
 44
558.8
 45
431.8
 46
0.0
 47
0.0
 48
0.0
 49
0.0
140
0.0
141
0.0
142
1.0
143
1.0
 70
1024
 72
0
 73
0
 74
0
  7

 75
0
147
1.0
148
0.0
149
0.0
100
AcDbLayout
  1
Model
 70
0
 71
0
 10
0.0
 20
0.0
 11
22.0
 21
17.0
 12
0.0
 22
0.0
 32
0.0
 14
0.0
 24
0.0
 34
0.0
 15
0.0
 25
0.0
 35
0.0
146
0.0
 13
0.0
 23
0.0
 33
0.0
 16
1.0
 26
0.0
 36
0.0
 17
0.0
 27
1.0
 37
0.0
 76
0
330
20C
345
0
346
0
  0
LAYOUT
  5
416
102
{ACAD_REACTORS
330
1A
102
}
100
AcDbPlotSettings
  1

  2
none_device
  4
ANSI_C_(22.00_x_17.00_Inches)
  6

 40
0.0
 41
0.0
 42
0.0
 43
0.0
 44
558.8
 45
431.8
 46
0.0
 47
0.0
 48
0.0
 49
0.0
140
0.0
141
0.0
142
1.0
143
1.0
 70
0
 72
0
 73
0
 74
0
  7

 75
0
147
1.0
148
0.0
149
0.0
100
AcDbLayout
  1
Layout1
 70
0
 71
1
 10
0.0
 20
0.0
 11
22.0
 21
17.0
 12
0.0
 22
0.0
 32
0.0
 14
0.0
 24
0.0
 34
0.0
 15
0.0
 25
0.0
 35
0.0
146
0.0
 13
0.0
 23
0.0
 33
0.0
 16
1.0
 26
0.0
 36
0.0
 17
0.0
 27
1.0
 37
0.0
 76
0
330
20D
345
0
346
0
  0
IMAGEDEF
  5
417
102
{ACAD_REACTORS
330
412
330
411
102
}
100
AcDbRasterImageDef
 90
0
  1
Y6D_assy_2_img_1.png
 10
369.0
 20
92.0
 11
0.0066666667
 21
0.0066666667
280
1
281
0
  0
TABLESTYLE
  5
418
102
{ACAD_REACTORS
330
414
330
297
330
298
102
}
330
414
100
AcDbTableStyle
  3
Standard
 70
0
 71
0
 40
0.06
 41
0.06
280
1
281
1
  7
Standard
140
0.18
170
1
 62
0
 63
7
283
0
  7
Standard
140
0.18
170
1
 62
0
 63
7
283
0
  7
Standard
140
0.18
170
1
 62
0
 63
7
283
0
  0
TABLESTYLE
  5
419
102
{ACAD_REACTORS
330
414
330
296
102
}
330
414
100
AcDbTableStyle
  3
Standard1
 70
1
 71
0
 40
0.06
 41
0.06
280
1
281
1
  7
Standard
140
0.18
170
1
 62
0
 63
7
283
0
  7
Standard
140
0.18
170
1
 62
0
 63
7
283
0
  7
Standard
140
0.18
170
1
 62
0
 63
7
283
0
  0
ENDSEC
  0
EOF
