999
DXF file: Y6B_assy_2.dxf
999
Pro/ENGINEER 2014200 by Parametric Technology Corporation
  0
SECTION
  2
HEADER
  9
$ACADVER
  1
AC1021
  9
$DWGCODEPAGE
  3
ANSI_1252
  9
$EXTMAX
 10
22.0
 20
17.0
 30
0.0
  9
$EXTMIN
 10
0.0
 20
0.0
 30
0.0
  9
$LIMMIN
 10
0.0
 20
0.0
  9
$LIMMAX
 10
22.0
 20
17.0
  9
$VIEWCTR
 10
11.0
 20
8.5
  9
$VIEWSIZE
 40
17.0
  9
$CLAYER
  8
0
  9
$LTSCALE
 40
1.21
  9
$CELTYPE
  6
BYLAYER
  9
$DIMSCALE
 40
1.0
  9
$DIMASZ
 40
0.1875
  9
$DIMEXO
 40
0.0625
  9
$DIMDLI
 40
0.836
  9
$DIMEXE
 40
0.125
  9
$DIMCEN
 40
0.198
  9
$DIMLFAC
 40
1.0
  9
$DIMBLK
  1
_FILLED
  9
$DIMTXT
 40
0.1
  9
$DIMTOL
 70
0
  9
$DIMLIM
 70
0
  9
$DIMTFAC
 40
1.0
  9
$DIMGAP
 40
0.09
  9
$DIMDSEP
 70
46
  9
$AUNITS
 70
0
  9
$PDMODE
 70
3
  9
$PDSIZE
 40
0.3125
  9
$HANDSEED
  5
40D
  9
$TILEMODE
 70
1
  9
$MEASUREMENT
 70
0
  9
$INSUNITS
 70
1
  0
ENDSEC
  0
SECTION
  2
CLASSES
  0
CLASS
  1
ACDBDICTIONARYWDFLT
  2
AcDbDictionaryWithDefault
  3
AutoCAD 2000
 90
0
 91
1
280
0
281
0
  0
CLASS
  1
ACDBPLACEHOLDER
  2
AcDbPlaceHolder
  3
AutoCAD 2000
 90
0
 91
1
280
0
281
0
  0
CLASS
  1
LAYOUT
  2
AcDbLayout
  3
AutoCAD 2000
 90
0
 91
0
280
0
281
0
  0
CLASS
  1
RASTERVARIABLES
  2
AcDbRasterVariables
  3
ISM
 90
0
 91
1
280
0
281
0
  0
CLASS
  1
IMAGEDEF
  2
AcDbRasterImageDef
  3
ISM
 90
0
 91
1
280
0
281
0
  0
CLASS
  1
IMAGEDEF_REACTOR
  2
AcDbRasterImageDefReactor
  3
ISM
 90
0
 91
1
280
0
281
0
  0
CLASS
  1
IMAGE
  2
AcDbRasterImage
  3
ISM
 90
127
 91
1
280
0
281
1
  0
CLASS
  1
TABLESTYLE
  2
AcDbTableStyle
  3
ObjectDBX Classes
 90
2047
 91
1
280
0
281
0
  0
CLASS
  1
ACAD_TABLE
  2
AcDbTable
  3
ObjectDBX Classes
 90
1025
 91
3
280
0
281
1
  0
ENDSEC
  0
SECTION
  2
TABLES
  0
TABLE
  2
VPORT
  5
8
100
AcDbSymbolTable
 70
2
  0
VPORT
  5
1F4
100
AcDbSymbolTableRecord
100
AcDbViewportTableRecord
  2
*ACTIVE
 70
0
 10
0.0
 20
0.0
 11
1.0
 21
1.0
 12
11.0
 22
8.5
 13
0.0
 23
0.0
 14
1.0
 24
1.0
 15
0.0
 25
0.0
 16
0.0
 26
0.0
 36
1.0
 17
0.0
 27
0.0
 37
0.0
 40
17.0
 41
1.2941176471
 42
50.0
 43
0.0
 44
0.0
 50
0.0
 51
0.0
 71
0
 72
100
 73
1
 74
1
 75
0
 76
0
 77
0
 78
0
  0
ENDTAB
  0
TABLE
  2
LTYPE
  5
5
100
AcDbSymbolTable
 70
6
  0
LTYPE
  5
14
100
AcDbSymbolTableRecord
100
AcDbLinetypeTableRecord
  2
BYBLOCK
 70
0
  3

 72
65
 73
0
 40
0.0
  0
LTYPE
  5
15
100
AcDbSymbolTableRecord
100
AcDbLinetypeTableRecord
  2
BYLAYER
 70
0
  3

 72
65
 73
0
 40
0.0
  0
LTYPE
  5
16
100
AcDbSymbolTableRecord
100
AcDbLinetypeTableRecord
  2
CONTINUOUS
 70
64
  3
Solid line
 72
65
 73
0
 40
0.0
  0
LTYPE
  5
1F5
100
AcDbSymbolTableRecord
100
AcDbLinetypeTableRecord
  2
CENTER
 70
64
  3
____ _ ____ _ ____ _ ____ _ ____ _ ____ _ ____
 72
65
 73
4
 40
0.6
 49
0.375
 74
0
 49
-0.075
 74
0
 49
0.075
 74
0
 49
-0.075
 74
0
  0
LTYPE
  5
1F6
100
AcDbSymbolTableRecord
100
AcDbLinetypeTableRecord
  2
HIDDEN
 70
64
  3
- - - - - - - - - - - - - - - - - - - -
 72
65
 73
2
 40
0.2
 49
0.1
 74
0
 49
-0.1
 74
0
  0
LTYPE
  5
1F7
100
AcDbSymbolTableRecord
100
AcDbLinetypeTableRecord
  2
PHANTOM
 70
64
  3
_____ _ _ _____ _ _ _____ _ _ _____
 72
65
 73
6
 40
0.8
 49
0.45
 74
0
 49
-0.05
 74
0
 49
0.1
 74
0
 49
-0.05
 74
0
 49
0.1
 74
0
 49
-0.05
 74
0
  0
LTYPE
  5
1F8
100
AcDbSymbolTableRecord
100
AcDbLinetypeTableRecord
  2
DOT
 70
64
  3
. . . . . . . . . . . . . . . . . . . .
 72
65
 73
2
 40
0.2
 49
0.1
 74
0
 49
-0.1
 74
0
  0
LTYPE
  5
1F9
100
AcDbSymbolTableRecord
100
AcDbLinetypeTableRecord
  2
DASHED
 70
64
  3
- - - - - - - - - - - - - - - - - - - -
 72
65
 73
2
 40
0.2
 49
0.1
 74
0
 49
-0.1
 74
0
  0
ENDTAB
  0
TABLE
  2
LAYER
  5
2
100
AcDbSymbolTable
 70
36
  0
LAYER
  5
10
100
AcDbSymbolTableRecord
100
AcDbLayerTableRecord
  2
0
 70
0
 62
7
  6
CONTINUOUS
370
-3
390
F
  0
LAYER
  5
1FA
100
AcDbSymbolTableRecord
100
AcDbLayerTableRecord
  2
DEFAULT_1
 70
0
 62
7
  6
CENTER
370
-3
390
F
  0
LAYER
  5
1FB
100
AcDbSymbolTableRecord
100
AcDbLayerTableRecord
  2
DEFAULT_2
 70
0
 62
8
  6
HIDDEN
370
-3
390
F
  0
LAYER
  5
1FC
100
AcDbSymbolTableRecord
100
AcDbLayerTableRecord
  2
DEFAULT_3
 70
0
 62
7
  6
PHANTOM
370
-3
390
F
  0
LAYER
  5
1FD
100
AcDbSymbolTableRecord
100
AcDbLayerTableRecord
  2
01___PRT_ALL_DTM_PLN
 70
0
 62
7
  6
CONTINUOUS
370
-3
390
F
  0
LAYER
  5
1FE
100
AcDbSymbolTableRecord
100
AcDbLayerTableRecord
  2
01___PRT_DEF_DTM_PLN
 70
0
 62
7
  6
CONTINUOUS
370
-3
390
F
  0
LAYER
  5
1FF
100
AcDbSymbolTableRecord
100
AcDbLayerTableRecord
  2
02___PRT_ALL_AXES
 70
0
 62
7
  6
CONTINUOUS
370
-3
390
F
  0
LAYER
  5
200
100
AcDbSymbolTableRecord
100
AcDbLayerTableRecord
  2
03___PRT_ALL_CURVES
 70
0
 62
7
  6
CONTINUOUS
370
-3
390
F
  0
LAYER
  5
201
100
AcDbSymbolTableRecord
100
AcDbLayerTableRecord
  2
04___PRT_ALL_DTM_PNT
 70
0
 62
7
  6
CONTINUOUS
370
-3
390
F
  0
LAYER
  5
202
100
AcDbSymbolTableRecord
100
AcDbLayerTableRecord
  2
05___PRT_ALL_DTM_CSYS
 70
0
 62
7
  6
CONTINUOUS
370
-3
390
F
  0
LAYER
  5
203
100
AcDbSymbolTableRecord
100
AcDbLayerTableRecord
  2
05___PRT_DEF_DTM_CSYS
 70
0
 62
7
  6
CONTINUOUS
370
-3
390
F
  0
LAYER
  5
204
100
AcDbSymbolTableRecord
100
AcDbLayerTableRecord
  2
06___PRT_ALL_SURFS
 70
0
 62
7
  6
CONTINUOUS
370
-3
390
F
  0
LAYER
  5
205
100
AcDbSymbolTableRecord
100
AcDbLayerTableRecord
  2
DATUM_PLANES
 70
0
 62
7
  6
CONTINUOUS
370
-3
390
F
  0
LAYER
  5
206
100
AcDbSymbolTableRecord
100
AcDbLayerTableRecord
  2
PORT_AREAS
 70
0
 62
7
  6
CONTINUOUS
370
-3
390
F
  0
LAYER
  5
207
100
AcDbSymbolTableRecord
100
AcDbLayerTableRecord
  2
SUNNBOMCOSMETIC
 70
0
 62
7
  6
CONTINUOUS
370
-3
390
F
  0
LAYER
  5
208
100
AcDbSymbolTableRecord
100
AcDbLayerTableRecord
  2
SUNNBOMSTAMPING
 70
0
 62
7
  6
CONTINUOUS
370
-3
390
F
  0
LAYER
  5
209
100
AcDbSymbolTableRecord
100
AcDbLayerTableRecord
  2
THREADS
 70
0
 62
7
  6
CONTINUOUS
370
-3
390
F
  0
ENDTAB
  0
TABLE
  2
STYLE
  5
3
100
AcDbSymbolTable
 70
1
  0
STYLE
  5
11
100
AcDbSymbolTableRecord
100
AcDbTextStyleTableRecord
  2
STANDARD
 70
0
 40
0.0
 41
0.8
 50
0.0
 71
0
 42
0.2
  3
txt
  4

  0
STYLE
  5
20A
100
AcDbSymbolTableRecord
100
AcDbTextStyleTableRecord
  2
TEXTSTYLE_1
 70
0
 40
0.0
 41
0.8
 50
0.0
 71
0
 42
0.2
  3
gdt
  4

  0
ENDTAB
  0
TABLE
  2
VIEW
  5
6
100
AcDbSymbolTable
 70
0
  0
ENDTAB
  0
TABLE
  2
UCS
  5
7
100
AcDbSymbolTable
 70
0
  0
ENDTAB
  0
TABLE
  2
APPID
  5
9
100
AcDbSymbolTable
 70
1
  0
APPID
  5
20B
100
AcDbSymbolTableRecord
100
AcDbRegAppTableRecord
  2
ACAD
 70
0
  0
ENDTAB
  0
TABLE
  2
BLOCK_RECORD
  5
1
100
AcDbSymbolTable
 70
0
  0
BLOCK_RECORD
  5
20C
100
AcDbSymbolTableRecord
100
AcDbBlockTableRecord
  2
*Model_Space
  0
BLOCK_RECORD
  5
20D
100
AcDbSymbolTableRecord
100
AcDbBlockTableRecord
  2
*Paper_Space
  0
BLOCK_RECORD
  5
20E
100
AcDbSymbolTableRecord
100
AcDbBlockTableRecord
  2
SUN_FIRST_THIRD_ANGLE_BL0
  0
BLOCK_RECORD
  5
20F
100
AcDbSymbolTableRecord
100
AcDbBlockTableRecord
  2
*T1
  0
BLOCK_RECORD
  5
210
100
AcDbSymbolTableRecord
100
AcDbBlockTableRecord
  2
*T2
  0
BLOCK_RECORD
  5
211
100
AcDbSymbolTableRecord
100
AcDbBlockTableRecord
  2
*T3
  0
ENDTAB
  0
TABLE
  2
DIMSTYLE
  5
A
100
AcDbSymbolTable
 70
1
100
AcDbDimStyleTable
 71
0
  0
DIMSTYLE
105
212
100
AcDbSymbolTableRecord
100
AcDbDimStyleTableRecord
  2
STANDARD
 70
0
  3

  4

 40
1.0
 41
0.1875
 42
0.0625
 43
0.38
 44
0.125
 45
0.0
 46
0.0
 47
0.001
 48
0.001
140
0.1
141
0.09
142
0.0
143
25.4
144
1.0
145
0.0
146
1.0
147
0.09
 71
0.0
 72
0.0
 73
1
 74
1
 75
0
 76
0
 77
0
 78
4
170
0
171
2
172
0
173
0
174
0
175
0
176
0
177
0
178
0
270
2
271
3
272
3
273
2
274
2
275
0
280
0
281
0
282
0
283
1
284
4
285
0
286
0
287
3
288
0
340
11
278
46
  0
ENDTAB
  0
ENDSEC
  0
SECTION
  2
BLOCKS
  0
BLOCK
  5
20
100
AcDbEntity
  8
0
100
AcDbBlockBegin
  2
*Model_Space
 70
0
 10
0.0
 20
0.0
 30
0.0
  3
*Model_Space
  1

  0
ENDBLK
  5
21
100
AcDbEntity
  8
0
100
AcDbBlockEnd
  0
BLOCK
  5
1C
100
AcDbEntity
  8
0
100
AcDbBlockBegin
  2
*Paper_Space
 70
0
 10
0.0
 20
0.0
 30
0.0
  3
*Paper_Space
  1

  0
ENDBLK
  5
1D
100
AcDbEntity
  8
0
100
AcDbBlockEnd
  0
BLOCK
  5
213
100
AcDbEntity
  8
0
100
AcDbBlockBegin
 62
2
  6
CONTINUOUS
  2
SUN_FIRST_THIRD_ANGLE_BL0
 70
64
 10
20.4816717061
 20
1.2289683772
  3
SUN_FIRST_THIRD_ANGLE_BL0
  1

  0
TEXT
  5
214
100
AcDbEntity
  8
0
100
AcDbText
 62
2
  6
CONTINUOUS
 10
19.4750896608
 20
1.4136269581
  7
STANDARD
 40
0.08
  1
FIRST ANGLE
 41
0.8
 72
0
100
AcDbText
  0
TEXT
  5
215
100
AcDbEntity
  8
0
100
AcDbText
 62
2
  6
CONTINUOUS
 10
20.7842537513
 20
1.4047600029
  7
STANDARD
 40
0.08
  1
THIRD ANGLE
 41
0.8
 72
0
100
AcDbText
  0
LINE
  5
216
100
AcDbEntity
  8
0
100
AcDbLine
 62
7
  6
CONTINUOUS
 10
19.4767170086
 20
1.1727031207
 11
19.6334271527
 21
1.1717972817
  0
LINE
  5
217
100
AcDbEntity
  8
0
100
AcDbLine
 62
7
  6
CONTINUOUS
 10
19.6596964832
 20
1.1717972817
 11
19.6950230232
 21
1.171593082
  0
LINE
  5
218
100
AcDbEntity
  8
0
100
AcDbLine
 62
7
  6
CONTINUOUS
 10
19.7194818561
 20
1.1708914427
 11
19.8852396156
 21
1.1699333054
  0
LINE
  5
219
100
AcDbEntity
  8
0
100
AcDbLine
 62
7
  6
CONTINUOUS
 10
19.4758111696
 20
1.2723454088
 11
19.88525039
 21
1.3511534004
  0
LINE
  5
21A
100
AcDbEntity
  8
0
100
AcDbLine
 62
7
  6
CONTINUOUS
 10
19.88525039
 20
1.3511534004
 11
19.8831348489
 21
0.9851647912
  0
LINE
  5
21B
100
AcDbEntity
  8
0
100
AcDbLine
 62
7
  6
CONTINUOUS
 10
19.8831348489
 20
0.9851647912
 11
19.4767170086
 21
1.0658141206
  0
LINE
  5
21C
100
AcDbEntity
  8
0
100
AcDbLine
 62
7
  6
CONTINUOUS
 10
19.4767170086
 20
1.0658141206
 11
19.4779056764
 21
1.2714536432
  0
CIRCLE
  5
21D
100
AcDbEntity
  8
0
100
AcDbCircle
 62
7
  6
CONTINUOUS
 10
20.2068232291
 20
1.1717972817
 40
0.175742101
  0
CIRCLE
  5
21E
100
AcDbEntity
  8
0
100
AcDbCircle
 62
7
  6
CONTINUOUS
 10
20.2068232291
 20
1.1717972817
 40
0.1005522074
  0
LINE
  5
21F
100
AcDbEntity
  8
0
100
AcDbLine
 62
7
  6
CONTINUOUS
 10
20.2077290681
 20
1.3756110529
 11
20.2071171714
 21
1.2379342989
  0
LINE
  5
220
100
AcDbEntity
  8
0
100
AcDbLine
 62
7
  6
CONTINUOUS
 10
20.2077290681
 20
1.2016899681
 11
20.2074674401
 21
1.1428236749
  0
LINE
  5
221
100
AcDbEntity
  8
0
100
AcDbLine
 62
7
  6
CONTINUOUS
 10
20.208634907
 20
1.101141841
 11
20.2080230104
 21
0.963465087
  0
LINE
  5
222
100
AcDbEntity
  8
0
100
AcDbLine
 62
7
  6
CONTINUOUS
 10
20.0066328138
 20
1.1745147986
 11
20.1443095678
 21
1.1739029019
  0
LINE
  5
223
100
AcDbEntity
  8
0
100
AcDbLine
 62
7
  6
CONTINUOUS
 10
20.1832714155
 20
1.1727031207
 11
20.238153505
 21
1.172335442
  0
LINE
  5
224
100
AcDbEntity
  8
0
100
AcDbLine
 62
7
  6
CONTINUOUS
 10
20.2756669918
 20
1.1717972817
 11
20.407916871
 21
1.1712095044
  0
CIRCLE
  5
225
100
AcDbEntity
  8
0
100
AcDbCircle
 62
7
  6
CONTINUOUS
 10
20.7509457401
 20
1.1693297793
 40
0.1722024983
  0
CIRCLE
  5
226
100
AcDbEntity
  8
0
100
AcDbCircle
 62
7
  6
CONTINUOUS
 10
20.7509457401
 20
1.1693297793
 40
0.0985164967
  0
LINE
  5
227
100
AcDbEntity
  8
0
100
AcDbLine
 62
7
  6
CONTINUOUS
 10
20.7169767782
 20
1.170462078
 11
20.7825395137
 21
1.1682766535
  0
LINE
  5
228
100
AcDbEntity
  8
0
100
AcDbLine
 62
7
  6
CONTINUOUS
 10
20.8177513651
 20
1.1693297793
 11
20.947965719
 21
1.1693297793
  0
LINE
  5
229
100
AcDbEntity
  8
0
100
AcDbLine
 62
7
  6
CONTINUOUS
 10
20.6875370113
 20
1.170462078
 11
20.5573226574
 21
1.170462078
  0
LINE
  5
22A
100
AcDbEntity
  8
0
100
AcDbLine
 62
7
  6
CONTINUOUS
 10
20.7486811426
 20
1.1987695462
 11
20.7486811426
 21
1.1432869085
  0
LINE
  5
22B
100
AcDbEntity
  8
0
100
AcDbLine
 62
7
  6
CONTINUOUS
 10
20.7498134414
 20
1.1059210505
 11
20.7498134414
 21
0.9757066966
  0
LINE
  5
22C
100
AcDbEntity
  8
0
100
AcDbLine
 62
7
  6
CONTINUOUS
 10
20.7486811426
 20
1.2338708068
 11
20.7486811426
 21
1.3640851607
  0
LINE
  5
22D
100
AcDbEntity
  8
0
100
AcDbLine
 62
7
  6
CONTINUOUS
 10
21.0702539817
 20
1.2701043662
 11
21.4790138229
 21
1.3448360823
  0
LINE
  5
22E
100
AcDbEntity
  8
0
100
AcDbLine
 62
7
  6
CONTINUOUS
 10
21.4790138229
 20
1.3448360823
 11
21.4790138229
 21
0.9779712941
  0
LINE
  5
22F
100
AcDbEntity
  8
0
100
AcDbLine
 62
7
  6
CONTINUOUS
 10
21.4790138229
 20
0.9779712941
 11
21.069121683
 21
1.0617614
  0
LINE
  5
230
100
AcDbEntity
  8
0
100
AcDbLine
 62
7
  6
CONTINUOUS
 10
21.0702539817
 20
1.2701043662
 11
21.069121683
 21
1.0617614
  0
LINE
  5
231
100
AcDbEntity
  8
0
100
AcDbLine
 62
7
  6
CONTINUOUS
 10
21.4790138229
 20
1.1693297793
 11
21.3159628059
 21
1.1693297793
  0
LINE
  5
232
100
AcDbEntity
  8
0
100
AcDbLine
 62
7
  6
CONTINUOUS
 10
21.2876553377
 20
1.1693297793
 11
21.2502894796
 21
1.1693297793
  0
LINE
  5
233
100
AcDbEntity
  8
0
100
AcDbLine
 62
7
  6
CONTINUOUS
 10
21.2208497126
 20
1.1659328831
 11
21.0713862804
 21
1.1659328831
  0
LINE
  5
234
100
AcDbEntity
  8
0
100
AcDbLine
 62
7
  6
CONTINUOUS
 10
20.4796138713
 20
1.5284908897
 11
20.4766766948
 21
0.9294458646
  0
ENDBLK
  5
235
100
AcDbEntity
  8
0
  6
BYBLOCK
 62
0
100
AcDbBlockEnd
  0
BLOCK
  5
236
100
AcDbEntity
  8
0
100
AcDbBlockBegin
  2
*T1
 70
1
 10
0.0
 20
0.0
  3
*T1
  1

  0
LINE
  5
237
100
AcDbEntity
  8
0
100
AcDbLine
 62
2
  6
CONTINUOUS
 10
9.275
 20
0.0
 11
-0.0
 21
0.0
  0
LINE
  5
238
100
AcDbEntity
  8
0
100
AcDbLine
 62
2
  6
CONTINUOUS
 10
9.275
 20
0.0
 11
9.275
 21
1.25
  0
LINE
  5
239
100
AcDbEntity
  8
0
100
AcDbLine
 62
2
  6
CONTINUOUS
 10
9.275
 20
0.625
 11
-0.0
 21
0.625
  0
LINE
  5
23A
100
AcDbEntity
  8
0
100
AcDbLine
 62
2
  6
CONTINUOUS
 10
9.275
 20
1.25
 11
-0.0
 21
1.25
  0
LINE
  5
23B
100
AcDbEntity
  8
0
100
AcDbLine
 62
2
  6
CONTINUOUS
 10
6.8
 20
0.0
 11
6.8
 21
1.25
  0
LINE
  5
23C
100
AcDbEntity
  8
0
100
AcDbLine
 62
2
  6
CONTINUOUS
 10
6.4
 20
0.0
 11
6.4
 21
0.625
  0
LINE
  5
23D
100
AcDbEntity
  8
0
100
AcDbLine
 62
2
  6
CONTINUOUS
 10
5.9
 20
0.0
 11
5.9
 21
0.625
  0
LINE
  5
23E
100
AcDbEntity
  8
0
100
AcDbLine
 62
2
  6
CONTINUOUS
 10
5.2
 20
0.0
 11
5.2
 21
0.625
  0
LINE
  5
23F
100
AcDbEntity
  8
0
100
AcDbLine
 62
2
  6
CONTINUOUS
 10
4.1
 20
0.0
 11
4.1
 21
1.25
  0
LINE
  5
240
100
AcDbEntity
  8
0
100
AcDbLine
 62
2
  6
CONTINUOUS
 10
-0.0
 20
0.0
 11
-0.0
 21
1.25
  0
MTEXT
  5
241
100
AcDbEntity
  8
0
100
AcDbMText
 62
2
  6
CONTINUOUS
  7
STANDARD
 71
2
 72
1
 10
6.6
 20
0.325
 30
0.0
 11
1.0
 21
0.0
 31
0.0
 44
0.9
  1
2
 40
0.125
 41
0.2
  0
MTEXT
  5
242
100
AcDbEntity
  8
0
100
AcDbMText
 62
2
  6
CONTINUOUS
  7
STANDARD
 71
2
 72
1
 10
6.15
 20
0.325
 30
0.0
 11
1.0
 21
0.0
 31
0.0
 44
0.9
  1
C
 40
0.125
 41
0.2
  0
MTEXT
  5
243
100
AcDbEntity
  8
0
100
AcDbMText
 62
2
  6
CONTINUOUS
  7
STANDARD
 71
2
 72
1
 10
5.55
 20
0.325
 30
0.0
 11
1.0
 21
0.0
 31
0.0
 44
0.9
  1
1.000
 40
0.125
 41
1.0
  0
MTEXT
  5
244
100
AcDbEntity
  8
0
100
AcDbMText
 62
2
  6
CONTINUOUS
  7
STANDARD
 71
2
 72
1
 10
4.65
 20
0.325
 30
0.0
 11
1.0
 21
0.0
 31
0.0
 44
0.9
  1
Nov-02-20
 40
0.125
 41
1.8
  0
MTEXT
  5
245
100
AcDbEntity
  8
0
100
AcDbMText
 62
2
  6
CONTINUOUS
  7
STANDARD
 71
2
 72
1
 10
2.05
 20
0.4625
 30
0.0
 11
1.0
 21
0.0
 31
0.0
 44
0.9
  1
Line mount\PCross pilot with shuttle
 40
0.125
 41
4.8
  0
MTEXT
  5
246
100
AcDbEntity
  8
0
100
AcDbMText
 62
2
  6
CONTINUOUS
  7
STANDARD
 71
1
 72
1
 10
6.45
 20
0.5625
 30
0.0
 11
1.0
 21
0.0
 31
0.0
 44
0.9
  1
SHEET
 40
0.06
 41
0.48
  0
MTEXT
  5
247
100
AcDbEntity
  8
0
100
AcDbMText
 62
2
  6
CONTINUOUS
  7
STANDARD
 71
1
 72
1
 10
5.95
 20
0.5625
 30
0.0
 11
1.0
 21
0.0
 31
0.0
 44
0.9
  1
DWG SIZE
 40
0.06
 41
0.768
  0
MTEXT
  5
248
100
AcDbEntity
  8
0
100
AcDbMText
 62
2
  6
CONTINUOUS
  7
STANDARD
 71
1
 72
1
 10
5.25
 20
0.5625
 30
0.0
 11
1.0
 21
0.0
 31
0.0
 44
0.9
  1
SCALE
 40
0.06
 41
0.48
  0
MTEXT
  5
249
100
AcDbEntity
  8
0
100
AcDbMText
 62
2
  6
CONTINUOUS
  7
STANDARD
 71
1
 72
1
 10
4.15
 20
0.5625
 30
0.0
 11
1.0
 21
0.0
 31
0.0
 44
0.9
  1
DATE
 40
0.06
 41
0.384
  0
MTEXT
  5
24A
100
AcDbEntity
  8
0
100
AcDbMText
 62
2
  6
CONTINUOUS
  7
STANDARD
 71
1
 72
1
 10
0.05
 20
0.5625
 30
0.0
 11
1.0
 21
0.0
 31
0.0
 44
0.9
  1
DESCRIPTION
 40
0.06
 41
1.056
  0
MTEXT
  5
24B
100
AcDbEntity
  8
0
100
AcDbMText
 62
2
  6
CONTINUOUS
  7
STANDARD
 71
2
 72
1
 10
5.45
 20
1.0375
 30
0.0
 11
1.0
 21
0.0
 31
0.0
 44
0.9
  1
ALL DIMENSIONS IN INCH\PVIEWS ARE THIRD ANGLE
 40
0.12
 41
4.224
  0
MTEXT
  5
24C
100
AcDbEntity
  8
0
100
AcDbMText
 62
2
  6
CONTINUOUS
  7
STANDARD
 71
2
 72
1
 10
2.05
 20
0.95
 30
0.0
 11
1.0
 21
0.0
 31
0.0
 44
0.9
  1
Y6B
 40
0.125
 41
0.6
  0
MTEXT
  5
24D
100
AcDbEntity
  8
0
100
AcDbMText
 62
2
  6
CONTINUOUS
  7
STANDARD
 71
1
 72
1
 10
0.05
 20
1.1875
 30
0.0
 11
1.0
 21
0.0
 31
0.0
 44
0.9
  1
MODEL
 40
0.06
 41
0.48
  0
ENDBLK
  5
24E
100
AcDbEntity
  8
0
  6
BYBLOCK
 62
0
100
AcDbBlockEnd
  0
BLOCK
  5
24F
100
AcDbEntity
  8
0
100
AcDbBlockBegin
  2
*T2
 70
1
 10
0.0
 20
0.0
  3
*T2
  1

  0
LINE
  5
250
100
AcDbEntity
  8
0
100
AcDbLine
 62
2
  6
CONTINUOUS
 10
0.0
 20
0.0
 11
9.055
 21
0.0
  0
LINE
  5
251
100
AcDbEntity
  8
0
100
AcDbLine
 62
2
  6
CONTINUOUS
 10
0.0
 20
0.0
 11
0.0
 21
-1.594
  0
LINE
  5
252
100
AcDbEntity
  8
0
100
AcDbLine
 62
2
  6
CONTINUOUS
 10
0.0
 20
-0.344
 11
9.055
 21
-0.344
  0
LINE
  5
253
100
AcDbEntity
  8
0
100
AcDbLine
 62
2
  6
CONTINUOUS
 10
0.0
 20
-0.594
 11
9.055
 21
-0.594
  0
LINE
  5
254
100
AcDbEntity
  8
0
100
AcDbLine
 62
2
  6
CONTINUOUS
 10
0.0
 20
-0.844
 11
9.055
 21
-0.844
  0
LINE
  5
255
100
AcDbEntity
  8
0
100
AcDbLine
 62
2
  6
CONTINUOUS
 10
0.0
 20
-1.094
 11
9.055
 21
-1.094
  0
LINE
  5
256
100
AcDbEntity
  8
0
100
AcDbLine
 62
2
  6
CONTINUOUS
 10
0.0
 20
-1.344
 11
9.055
 21
-1.344
  0
LINE
  5
257
100
AcDbEntity
  8
0
100
AcDbLine
 62
2
  6
CONTINUOUS
 10
0.0
 20
-1.594
 11
9.055
 21
-1.594
  0
LINE
  5
258
100
AcDbEntity
  8
0
100
AcDbLine
 62
2
  6
CONTINUOUS
 10
3.055
 20
0.0
 11
3.055
 21
-1.594
  0
LINE
  5
259
100
AcDbEntity
  8
0
100
AcDbLine
 62
2
  6
CONTINUOUS
 10
9.055
 20
0.0
 11
9.055
 21
-1.594
  0
MTEXT
  5
25A
100
AcDbEntity
  8
0
100
AcDbMText
 62
2
  6
CONTINUOUS
  7
STANDARD
 71
2
 72
1
 10
1.5275
 20
-0.0995
 30
0.0
 11
1.0
 21
0.0
 31
0.0
 44
0.9
  1
Technical Data
 40
0.145
 41
3.248
  0
MTEXT
  5
25B
100
AcDbEntity
  8
0
100
AcDbMText
 62
2
  6
CONTINUOUS
  7
STANDARD
 71
2
 72
1
 10
4.555
 20
-0.0995
 30
0.0
 11
1.0
 21
0.0
 31
0.0
 44
0.9
  1
U.S. Units
 40
0.145
 41
2.32
  0
MTEXT
  5
25C
100
AcDbEntity
  8
0
100
AcDbMText
 62
2
  6
CONTINUOUS
  7
STANDARD
 71
2
 72
1
 10
7.555
 20
-0.0995
 30
0.0
 11
1.0
 21
0.0
 31
0.0
 44
0.9
  1
Metric Units
 40
0.145
 41
2.784
  0
MTEXT
  5
25D
100
AcDbEntity
  8
0
100
AcDbMText
 62
2
  6
CONTINUOUS
  7
STANDARD
 71
2
 72
1
 10
1.5275
 20
-0.4065
 30
0.0
 11
1.0
 21
0.0
 31
0.0
 44
0.9
  1
Body Features
 40
0.125
 41
2.6
  0
MTEXT
  5
25E
100
AcDbEntity
  8
0
100
AcDbMText
 62
2
  6
CONTINUOUS
  7
STANDARD
 71
2
 72
1
 10
6.055
 20
-0.4065
 30
0.0
 11
1.0
 21
0.0
 31
0.0
 44
0.9
  1
Cross pilot with shuttle
 40
0.125
 41
4.8
  0
MTEXT
  5
25F
100
AcDbEntity
  8
0
100
AcDbMText
 62
2
  6
CONTINUOUS
  7
STANDARD
 71
2
 72
1
 10
1.5275
 20
-0.6565
 30
0.0
 11
1.0
 21
0.0
 31
0.0
 44
0.9
  1
Body Type
 40
0.125
 41
1.8
  0
MTEXT
  5
260
100
AcDbEntity
  8
0
100
AcDbMText
 62
2
  6
CONTINUOUS
  7
STANDARD
 71
2
 72
1
 10
6.055
 20
-0.6565
 30
0.0
 11
1.0
 21
0.0
 31
0.0
 44
0.9
  1
Line mount
 40
0.125
 41
2.0
  0
MTEXT
  5
261
100
AcDbEntity
  8
0
100
AcDbMText
 62
2
  6
CONTINUOUS
  7
STANDARD
 71
2
 72
1
 10
1.5275
 20
-0.9065
 30
0.0
 11
1.0
 21
0.0
 31
0.0
 44
0.9
  1
Weight
 40
0.125
 41
1.2
  0
MTEXT
  5
262
100
AcDbEntity
  8
0
100
AcDbMText
 62
2
  6
CONTINUOUS
  7
STANDARD
 71
2
 72
1
 10
4.555
 20
-0.9065
 30
0.0
 11
1.0
 21
0.0
 31
0.0
 44
0.9
  1
4.773 lb.
 40
0.125
 41
1.8
  0
MTEXT
  5
263
100
AcDbEntity
  8
0
100
AcDbMText
 62
2
  6
CONTINUOUS
  7
STANDARD
 71
2
 72
1
 10
7.555
 20
-0.9065
 30
0.0
 11
1.0
 21
0.0
 31
0.0
 44
0.9
  1
2,165 kg.
 40
0.125
 41
1.8
  0
MTEXT
  5
264
100
AcDbEntity
  8
0
100
AcDbMText
 62
2
  6
CONTINUOUS
  7
STANDARD
 71
2
 72
1
 10
1.5275
 20
-1.1565
 30
0.0
 11
1.0
 21
0.0
 31
0.0
 44
0.9
  1
Mounting Hole Diameter
 40
0.125
 41
4.4
  0
MTEXT
  5
265
100
AcDbEntity
  8
0
100
AcDbMText
 62
2
  6
CONTINUOUS
  7
STANDARD
 71
2
 72
1
 10
4.555
 20
-1.1565
 30
0.0
 11
1.0
 21
0.0
 31
0.0
 44
0.9
  1
.42 in.
 40
0.125
 41
1.4
  0
MTEXT
  5
266
100
AcDbEntity
  8
0
100
AcDbMText
 62
2
  6
CONTINUOUS
  7
STANDARD
 71
2
 72
1
 10
7.555
 20
-1.1565
 30
0.0
 11
1.0
 21
0.0
 31
0.0
 44
0.9
  1
10,7 mm
 40
0.125
 41
1.4
  0
MTEXT
  5
267
100
AcDbEntity
  8
0
100
AcDbMText
 62
2
  6
CONTINUOUS
  7
STANDARD
 71
2
 72
1
 10
1.5275
 20
-1.4065
 30
0.0
 11
1.0
 21
0.0
 31
0.0
 44
0.9
  1
Mounting Hole Quantity
 40
0.125
 41
4.4
  0
MTEXT
  5
268
100
AcDbEntity
  8
0
100
AcDbMText
 62
2
  6
CONTINUOUS
  7
STANDARD
 71
2
 72
1
 10
6.055
 20
-1.4065
 30
0.0
 11
1.0
 21
0.0
 31
0.0
 44
0.9
  1
2
 40
0.125
 41
0.2
  0
ENDBLK
  5
269
100
AcDbEntity
  8
0
  6
BYBLOCK
 62
0
100
AcDbBlockEnd
  0
BLOCK
  5
26A
100
AcDbEntity
  8
0
100
AcDbBlockBegin
  2
*T3
 70
1
 10
0.0
 20
0.0
  3
*T3
  1

  0
LINE
  5
26B
100
AcDbEntity
  8
0
100
AcDbLine
 62
2
  6
CONTINUOUS
 10
0.0
 20
0.0
 11
4.6
 21
0.0
  0
LINE
  5
26C
100
AcDbEntity
  8
0
100
AcDbLine
 62
2
  6
CONTINUOUS
 10
0.0
 20
0.0
 11
0.0
 21
-1.43775
  0
LINE
  5
26D
100
AcDbEntity
  8
0
100
AcDbLine
 62
2
  6
CONTINUOUS
 10
0.0
 20
-0.34375
 11
4.6
 21
-0.34375
  0
LINE
  5
26E
100
AcDbEntity
  8
0
100
AcDbLine
 62
2
  6
CONTINUOUS
 10
0.0
 20
-0.68775
 11
4.6
 21
-0.68775
  0
LINE
  5
26F
100
AcDbEntity
  8
0
100
AcDbLine
 62
2
  6
CONTINUOUS
 10
0.0
 20
-0.93775
 11
4.6
 21
-0.93775
  0
LINE
  5
270
100
AcDbEntity
  8
0
100
AcDbLine
 62
2
  6
CONTINUOUS
 10
0.0
 20
-1.18775
 11
4.6
 21
-1.18775
  0
LINE
  5
271
100
AcDbEntity
  8
0
100
AcDbLine
 62
2
  6
CONTINUOUS
 10
0.0
 20
-1.43775
 11
4.6
 21
-1.43775
  0
LINE
  5
272
100
AcDbEntity
  8
0
100
AcDbLine
 62
2
  6
CONTINUOUS
 10
1.3
 20
-0.34375
 11
1.3
 21
-1.43775
  0
LINE
  5
273
100
AcDbEntity
  8
0
100
AcDbLine
 62
2
  6
CONTINUOUS
 10
3.3
 20
-0.34375
 11
3.3
 21
-1.43775
  0
LINE
  5
274
100
AcDbEntity
  8
0
100
AcDbLine
 62
2
  6
CONTINUOUS
 10
4.6
 20
0.0
 11
4.6
 21
-1.43775
  0
MTEXT
  5
275
100
AcDbEntity
  8
0
100
AcDbMText
 62
2
  6
CONTINUOUS
  7
STANDARD
 71
2
 72
1
 10
2.3
 20
-0.099375
 30
0.0
 11
1.0
 21
0.0
 31
0.0
 44
0.9
  1
Port Headings
 40
0.145
 41
3.016
  0
MTEXT
  5
276
100
AcDbEntity
  8
0
100
AcDbMText
 62
2
  6
CONTINUOUS
  7
STANDARD
 71
2
 72
1
 10
0.65
 20
-0.44325
 30
0.0
 11
1.0
 21
0.0
 31
0.0
 44
0.9
  1
Product
 40
0.145
 41
1.624
  0
MTEXT
  5
277
100
AcDbEntity
  8
0
100
AcDbMText
 62
2
  6
CONTINUOUS
  7
STANDARD
 71
2
 72
1
 10
2.3
 20
-0.44325
 30
0.0
 11
1.0
 21
0.0
 31
0.0
 44
0.9
  1
Port
 40
0.145
 41
0.928
  0
MTEXT
  5
278
100
AcDbEntity
  8
0
100
AcDbMText
 62
2
  6
CONTINUOUS
  7
STANDARD
 71
2
 72
1
 10
3.95
 20
-0.44325
 30
0.0
 11
1.0
 21
0.0
 31
0.0
 44
0.9
  1
Size
 40
0.145
 41
0.928
  0
MTEXT
  5
279
100
AcDbEntity
  8
0
100
AcDbMText
 62
2
  6
CONTINUOUS
  7
STANDARD
 71
2
 72
1
 10
0.65
 20
-0.75025
 30
0.0
 11
1.0
 21
0.0
 31
0.0
 44
0.9
  1
Y6B
 40
0.125
 41
0.6
  0
MTEXT
  5
27A
100
AcDbEntity
  8
0
100
AcDbMText
 62
2
  6
CONTINUOUS
  7
STANDARD
 71
2
 72
1
 10
2.3
 20
-0.75025
 30
0.0
 11
1.0
 21
0.0
 31
0.0
 44
0.9
  1
Ports 1A, 1B, 2A, 2B
 40
0.125
 41
4.0
  0
MTEXT
  5
27B
100
AcDbEntity
  8
0
100
AcDbMText
 62
2
  6
CONTINUOUS
  7
STANDARD
 71
2
 72
1
 10
3.95
 20
-0.75025
 30
0.0
 11
1.0
 21
0.0
 31
0.0
 44
0.9
  1
3/8" NPTF
 40
0.125
 41
1.8
  0
MTEXT
  5
27C
100
AcDbEntity
  8
0
100
AcDbMText
 62
2
  6
CONTINUOUS
  7
STANDARD
 71
2
 72
1
 10
0.65
 20
-1.00025
 30
0.0
 11
1.0
 21
0.0
 31
0.0
 44
0.9
  1
Y6B
 40
0.125
 41
0.6
  0
MTEXT
  5
27D
100
AcDbEntity
  8
0
100
AcDbMText
 62
2
  6
CONTINUOUS
  7
STANDARD
 71
2
 72
1
 10
2.3
 20
-1.00025
 30
0.0
 11
1.0
 21
0.0
 31
0.0
 44
0.9
  1
Port 4
 40
0.125
 41
1.2
  0
MTEXT
  5
27E
100
AcDbEntity
  8
0
100
AcDbMText
 62
2
  6
CONTINUOUS
  7
STANDARD
 71
2
 72
1
 10
3.95
 20
-1.00025
 30
0.0
 11
1.0
 21
0.0
 31
0.0
 44
0.9
  1
1/4" NPTF
 40
0.125
 41
1.8
  0
MTEXT
  5
27F
100
AcDbEntity
  8
0
100
AcDbMText
 62
2
  6
CONTINUOUS
  7
STANDARD
 71
2
 72
1
 10
0.65
 20
-1.25025
 30
0.0
 11
1.0
 21
0.0
 31
0.0
 44
0.9
  1
Y6B
 40
0.125
 41
0.6
  0
MTEXT
  5
280
100
AcDbEntity
  8
0
100
AcDbMText
 62
2
  6
CONTINUOUS
  7
STANDARD
 71
2
 72
1
 10
2.3
 20
-1.25025
 30
0.0
 11
1.0
 21
0.0
 31
0.0
 44
0.9
  1
Port S
 40
0.125
 41
1.2
  0
MTEXT
  5
281
100
AcDbEntity
  8
0
100
AcDbMText
 62
2
  6
CONTINUOUS
  7
STANDARD
 71
2
 72
1
 10
3.95
 20
-1.25025
 30
0.0
 11
1.0
 21
0.0
 31
0.0
 44
0.9
  1
SAE 4
 40
0.125
 41
1.0
  0
ENDBLK
  5
282
100
AcDbEntity
  8
0
  6
BYBLOCK
 62
0
100
AcDbBlockEnd
  0
ENDSEC
  0
SECTION
  2
ENTITIES
  0
IMAGE
  5
283
100
AcDbEntity
  8
0
100
AcDbRasterImage
 62
7
  6
CONTINUOUS
 10
19.2297077316
 20
0.3094318264
 30
0.0
 11
0.0066666667
 21
0.0
 31
0.0
 12
0.0
 22
0.0066666667
 32
0.0
 13
369.0
 23
92.0
340
       40A
 70
9
280
0
281
50
282
50
283
0
360
       404
 71
1
 91
2
 14
-0.5
 24
-0.5
 14
368.5
 24
91.5
  0
INSERT
  5
284
100
AcDbEntity
  8
0
100
AcDbBlockReference
 62
2
  6
CONTINUOUS
  2
SUN_FIRST_THIRD_ANGLE_BL0
 10
20.4816717061
 20
1.2289683772
  0
ACAD_TABLE
  5
285
100
AcDbEntity
  8
0
 62
2
  6
CONTINUOUS
100
AcDbBlockReference
  2
*T1
 10
12.42375
 20
0.30125
 30
0.0
100
AcDbTable
342
       40C
343
20F
 11
1.0
 21
0.0
 31
0.0
 90
6
 91
4
 92
6
 93
20
 94
0
 95
0
 96
0
 70
1
 41
0.0
141
0.525
141
0.1
141
0.525
141
0.1
142
4.1
142
1.1
142
0.7
142
0.5
142
0.4
142
2.475
171
1
172
0
173
0
174
0
175
1
176
1
 91
33
178
0
145
0.0
301
CELL_VALUE
 90
4
  1
Line mount\PCross pilot with shuttle
304
ACVALUE_END
170
2
140
0.125
171
1
172
0
173
0
174
0
175
1
176
1
 91
33
178
0
145
0.0
301
CELL_VALUE
 90
4
  1
Nov-02-20
304
ACVALUE_END
170
5
140
0.125
171
1
172
0
173
0
174
0
175
1
176
1
 91
33
178
0
145
0.0
301
CELL_VALUE
 90
4
  1
1.000
304
ACVALUE_END
170
5
140
0.125
171
1
172
0
173
0
174
0
175
1
176
1
 91
33
178
0
145
0.0
301
CELL_VALUE
 90
4
  1
C
304
ACVALUE_END
170
5
140
0.125
171
1
172
0
173
0
174
0
175
1
176
1
 91
33
178
0
145
0.0
301
CELL_VALUE
 90
4
  1
2
304
ACVALUE_END
170
5
140
0.125
171
1
172
0
173
0
174
0
175
1
176
1
 91
33
178
0
145
0.0
301
CELL_VALUE
 90
4
  1
 
304
ACVALUE_END
170
1
140
0.125
171
1
172
0
173
0
174
0
175
1
176
1
 91
33
178
0
145
0.0
301
CELL_VALUE
 90
4
  1
DESCRIPTION
304
ACVALUE_END
170
1
140
0.06
171
1
172
0
173
0
174
0
175
1
176
1
 91
33
178
0
145
0.0
301
CELL_VALUE
 90
4
  1
DATE
304
ACVALUE_END
170
1
140
0.06
171
1
172
0
173
0
174
0
175
1
176
1
 91
33
178
0
145
0.0
301
CELL_VALUE
 90
4
  1
SCALE
304
ACVALUE_END
170
1
140
0.06
171
1
172
0
173
0
174
0
175
1
176
1
 91
33
178
0
145
0.0
301
CELL_VALUE
 90
4
  1
DWG SIZE
304
ACVALUE_END
170
1
140
0.06
171
1
172
0
173
0
174
0
175
1
176
1
 91
33
178
0
145
0.0
301
CELL_VALUE
 90
4
  1
SHEET
304
ACVALUE_END
170
1
140
0.06
171
1
172
0
173
0
174
0
175
1
176
1
 91
33
178
0
145
0.0
301
CELL_VALUE
 90
4
  1
 
304
ACVALUE_END
170
1
140
0.125
171
1
172
0
173
0
174
0
175
1
176
1
 91
33
178
0
145
0.0
301
CELL_VALUE
 90
4
  1
Y6B
304
ACVALUE_END
170
5
140
0.125
171
1
172
0
173
0
174
0
175
4
176
1
 91
33
178
0
145
0.0
301
CELL_VALUE
 90
4
  1
ALL DIMENSIONS IN INCH\PVIEWS ARE THIRD ANGLE
304
ACVALUE_END
170
5
140
0.12
171
1
172
0
173
1
174
0
175
1
176
1
 91
1
178
0
145
0.0
170
1
171
1
172
0
173
1
174
0
175
1
176
1
 91
1
178
0
145
0.0
170
1
171
1
172
0
173
1
174
0
175
1
176
1
 91
1
178
0
145
0.0
170
5
171
1
172
0
173
0
174
0
175
1
176
1
 91
33
178
0
145
0.0
301
CELL_VALUE
 90
4
  1
 
304
ACVALUE_END
170
1
140
0.125
171
1
172
0
173
0
174
0
175
1
176
1
 91
33
178
0
145
0.0
301
CELL_VALUE
 90
4
  1
MODEL
304
ACVALUE_END
170
1
140
0.06
171
1
172
0
173
0
174
0
175
1
176
1
 91
33
178
0
145
0.0
301
CELL_VALUE
 90
4
  1
 
304
ACVALUE_END
170
1
140
0.125
171
1
172
0
173
0
174
0
175
1
176
1
 91
33
178
0
145
0.0
301
CELL_VALUE
 90
4
  1
 
304
ACVALUE_END
170
1
140
0.125
171
1
172
0
173
0
174
0
175
1
176
1
 91
33
178
0
145
0.0
301
CELL_VALUE
 90
4
  1
 
304
ACVALUE_END
170
1
140
0.125
171
1
172
0
173
0
174
0
175
1
176
1
 91
33
178
0
145
0.0
301
CELL_VALUE
 90
4
  1
 
304
ACVALUE_END
170
1
140
0.125
171
1
172
0
173
0
174
0
175
1
176
1
 91
33
178
0
145
0.0
301
CELL_VALUE
 90
4
  1
 
304
ACVALUE_END
170
1
140
0.125
  0
ACAD_TABLE
  5
286
100
AcDbEntity
  8
0
 62
2
  6
CONTINUOUS
100
AcDbBlockReference
  2
*T2
 10
12.4237499994
 20
16.47875
 30
0.0
100
AcDbTable
342
       40B
343
210
 11
1.0
 21
0.0
 31
0.0
 90
22
 91
6
 92
3
 93
16
 94
0
 95
0
 96
0
 41
0.028
141
0.344
141
0.25
141
0.25
141
0.25
141
0.25
141
0.25
142
3.055
142
3.0
142
3.0
171
1
172
0
173
0
174
0
175
1
176
1
 91
33
178
0
145
0.0
301
CELL_VALUE
 90
4
  1
Technical Data
304
ACVALUE_END
170
5
140
0.145
171
1
172
0
173
0
174
0
175
1
176
1
 91
33
178
0
145
0.0
301
CELL_VALUE
 90
4
  1
U.S. Units
304
ACVALUE_END
170
5
140
0.145
171
1
172
0
173
0
174
0
175
1
176
1
 91
33
178
0
145
0.0
301
CELL_VALUE
 90
4
  1
Metric Units
304
ACVALUE_END
170
5
140
0.145
171
1
172
0
173
0
174
0
175
1
176
1
 91
33
178
0
145
0.0
301
CELL_VALUE
 90
4
  1
Body Features
304
ACVALUE_END
170
5
140
0.125
171
1
172
0
173
0
174
0
175
2
176
1
 91
33
178
0
145
0.0
301
CELL_VALUE
 90
4
  1
Cross pilot with shuttle
304
ACVALUE_END
170
5
140
0.125
171
1
172
0
173
1
174
0
175
1
176
1
 91
1
178
0
145
0.0
170
1
171
1
172
0
173
0
174
0
175
1
176
1
 91
33
178
0
145
0.0
301
CELL_VALUE
 90
4
  1
Body Type
304
ACVALUE_END
170
5
140
0.125
171
1
172
0
173
0
174
0
175
2
176
1
 91
33
178
0
145
0.0
301
CELL_VALUE
 90
4
  1
Line mount
304
ACVALUE_END
170
5
140
0.125
171
1
172
0
173
1
174
0
175
1
176
1
 91
1
178
0
145
0.0
170
1
171
1
172
0
173
0
174
0
175
1
176
1
 91
33
178
0
145
0.0
301
CELL_VALUE
 90
4
  1
Weight
304
ACVALUE_END
170
5
140
0.125
171
1
172
0
173
0
174
0
175
1
176
1
 91
33
178
0
145
0.0
301
CELL_VALUE
 90
4
  1
4.773 lb.
304
ACVALUE_END
170
5
140
0.125
171
1
172
0
173
0
174
0
175
1
176
1
 91
33
178
0
145
0.0
301
CELL_VALUE
 90
4
  1
2,165 kg.
304
ACVALUE_END
170
5
140
0.125
171
1
172
0
173
0
174
0
175
1
176
1
 91
33
178
0
145
0.0
301
CELL_VALUE
 90
4
  1
Mounting Hole Diameter
304
ACVALUE_END
170
5
140
0.125
171
1
172
0
173
0
174
0
175
1
176
1
 91
33
178
0
145
0.0
301
CELL_VALUE
 90
4
  1
.42 in.
304
ACVALUE_END
170
5
140
0.125
171
1
172
0
173
0
174
0
175
1
176
1
 91
33
178
0
145
0.0
301
CELL_VALUE
 90
4
  1
10,7 mm
304
ACVALUE_END
170
5
140
0.125
171
1
172
0
173
0
174
0
175
1
176
1
 91
33
178
0
145
0.0
301
CELL_VALUE
 90
4
  1
Mounting Hole Quantity
304
ACVALUE_END
170
5
140
0.125
171
1
172
0
173
0
174
0
175
2
176
1
 91
33
178
0
145
0.0
301
CELL_VALUE
 90
4
  1
2
304
ACVALUE_END
170
5
140
0.125
171
1
172
0
173
1
174
0
175
1
176
1
 91
1
178
0
145
0.0
170
1
  0
ACAD_TABLE
  5
287
100
AcDbEntity
  8
0
 62
2
  6
CONTINUOUS
100
AcDbBlockReference
  2
*T3
 10
0.52125
 20
1.959
 30
0.0
100
AcDbTable
342
       40B
343
211
 11
1.0
 21
0.0
 31
0.0
 90
22
 91
5
 92
3
 93
16
 94
0
 95
0
 96
0
 41
0.05
141
0.34375
141
0.344
141
0.25
141
0.25
141
0.25
142
1.3
142
2.0
142
1.3
171
1
172
0
173
0
174
0
175
3
176
1
 91
33
178
0
145
0.0
301
CELL_VALUE
 90
4
  1
Port Headings
304
ACVALUE_END
170
5
140
0.145
171
1
172
0
173
1
174
0
175
1
176
1
 91
1
178
0
145
0.0
170
1
171
1
172
0
173
1
174
0
175
1
176
1
 91
1
178
0
145
0.0
170
1
171
1
172
0
173
0
174
0
175
1
176
1
 91
33
178
0
145
0.0
301
CELL_VALUE
 90
4
  1
Product
304
ACVALUE_END
170
5
140
0.145
171
1
172
0
173
0
174
0
175
1
176
1
 91
33
178
0
145
0.0
301
CELL_VALUE
 90
4
  1
Port
304
ACVALUE_END
170
5
140
0.145
171
1
172
0
173
0
174
0
175
1
176
1
 91
33
178
0
145
0.0
301
CELL_VALUE
 90
4
  1
Size
304
ACVALUE_END
170
5
140
0.145
171
1
172
0
173
0
174
0
175
1
176
1
 91
33
178
0
145
0.0
301
CELL_VALUE
 90
4
  1
Y6B
304
ACVALUE_END
170
5
140
0.125
171
1
172
0
173
0
174
0
175
1
176
1
 91
33
178
0
145
0.0
301
CELL_VALUE
 90
4
  1
Ports 1A, 1B, 2A, 2B
304
ACVALUE_END
170
5
140
0.125
171
1
172
0
173
0
174
0
175
1
176
1
 91
33
178
0
145
0.0
301
CELL_VALUE
 90
4
  1
3/8" NPTF
304
ACVALUE_END
170
5
140
0.125
171
1
172
0
173
0
174
0
175
1
176
1
 91
33
178
0
145
0.0
301
CELL_VALUE
 90
4
  1
Y6B
304
ACVALUE_END
170
5
140
0.125
171
1
172
0
173
0
174
0
175
1
176
1
 91
33
178
0
145
0.0
301
CELL_VALUE
 90
4
  1
Port 4
304
ACVALUE_END
170
5
140
0.125
171
1
172
0
173
0
174
0
175
1
176
1
 91
33
178
0
145
0.0
301
CELL_VALUE
 90
4
  1
1/4" NPTF
304
ACVALUE_END
170
5
140
0.125
171
1
172
0
173
0
174
0
175
1
176
1
 91
33
178
0
145
0.0
301
CELL_VALUE
 90
4
  1
Y6B
304
ACVALUE_END
170
5
140
0.125
171
1
172
0
173
0
174
0
175
1
176
1
 91
33
178
0
145
0.0
301
CELL_VALUE
 90
4
  1
Port S
304
ACVALUE_END
170
5
140
0.125
171
1
172
0
173
0
174
0
175
1
176
1
 91
33
178
0
145
0.0
301
CELL_VALUE
 90
4
  1
SAE 4
304
ACVALUE_END
170
5
140
0.125
  0
MTEXT
  5
288
100
AcDbEntity
  8
0
100
AcDbMText
 62
2
  6
CONTINUOUS
  7
STANDARD
 71
1
 72
1
 10
0.52125
 20
5.75995
 30
0.0
 11
1.0
 21
0.0
 31
0.0
 44
0.6
  3
Notes\P \P1. Important: Carefully consider\P   the maximum system pressure. The\P   pressure rating of the manifold is\P   dependent on the manifold material,\P   with the port type/size a secondary\P   consideration. Manifolds\P   constructed of alu
  1
minum are not\P   rated for pressures higher than\P   3000 psi (210 bar), regardless of\P   the port type/size specified.
 40
0.1
 41
3.04
  0
LINE
  5
289
100
AcDbEntity
  8
0
100
AcDbLine
 62
7
  6
CONTINUOUS
 10
0.30125
 20
0.30125
 11
0.30125
 21
16.69875
  0
LINE
  5
28A
100
AcDbEntity
  8
0
100
AcDbLine
 62
7
  6
CONTINUOUS
 10
0.30125
 20
0.30125
 11
21.69875
 21
0.30125
  0
LINE
  5
28B
100
AcDbEntity
  8
0
100
AcDbLine
 62
7
  6
CONTINUOUS
 10
0.30125
 20
16.69875
 11
21.69875
 21
16.69875
  0
LINE
  5
28C
100
AcDbEntity
  8
0
100
AcDbLine
 62
7
  6
CONTINUOUS
 10
21.69875
 20
0.30125
 11
21.69875
 21
16.69875
  0
LINE
  5
28D
100
AcDbEntity
  8
0
100
AcDbLine
 62
7
  6
CONTINUOUS
 10
9.3916717723
 20
11.6027703154
 11
8.7446246936
 21
10.9777707942
  0
LINE
  5
28E
100
AcDbEntity
  8
0
100
AcDbLine
 62
4
  6
CONTINUOUS
 10
9.0730394974
 20
5.8307583366
 11
9.1889506009
 21
5.7551050639
  0
LINE
  5
28F
100
AcDbEntity
  8
0
100
AcDbLine
 62
7
  6
CONTINUOUS
 10
8.7446246936
 20
5.6651784348
 11
12.6083282277
 21
5.3972296846
  0
LINE
  5
290
100
AcDbEntity
  8
0
100
AcDbLine
 62
4
  6
CONTINUOUS
 10
9.2275876353
 20
5.8200403868
 11
9.0730394974
 21
5.8307583366
  0
LINE
  5
291
100
AcDbEntity
  8
0
100
AcDbLine
 62
4
  6
CONTINUOUS
 10
10.6384833643
 20
5.7318536943
 11
10.6642413812
 21
5.7300673697
  0
LINE
  5
292
100
AcDbEntity
  8
0
100
AcDbLine
 62
4
  6
CONTINUOUS
 10
10.7286364417
 20
5.6579867468
 11
10.7672734762
 21
5.6456480007
  0
LINE
  5
293
100
AcDbEntity
  8
0
100
AcDbLine
 62
4
  6
CONTINUOUS
 10
8.8315580265
 20
9.9043938237
 11
8.844437035
 21
9.9228191787
  0
LINE
  5
294
100
AcDbEntity
  8
0
100
AcDbLine
 62
4
  6
CONTINUOUS
 10
10.7672734762
 20
5.79053688
 11
10.6127253383
 21
5.8495511229
  0
LINE
  5
295
100
AcDbEntity
  8
0
100
AcDbLine
 62
4
  6
CONTINUOUS
 10
8.8315580265
 20
9.44074941
 11
8.844437035
 21
9.459174765
  0
LINE
  5
296
100
AcDbEntity
  8
0
100
AcDbLine
 62
4
  6
CONTINUOUS
 10
8.844437035
 20
9.9228191787
 11
8.8573160526
 21
9.9315852744
  0
LINE
  5
297
100
AcDbEntity
  8
0
100
AcDbLine
 62
4
  6
CONTINUOUS
 10
10.6127253383
 20
5.8495511229
 11
10.7672734762
 21
5.8871294662
  0
LINE
  5
298
100
AcDbEntity
  8
0
100
AcDbLine
 62
4
  6
CONTINUOUS
 10
10.6384833643
 20
5.6545796253
 11
10.6256043467
 21
5.6651320468
  0
LINE
  5
299
100
AcDbEntity
  8
0
100
AcDbLine
 62
4
  6
CONTINUOUS
 10
8.8573160526
 20
7.1835261513
 11
8.844437035
 21
7.1940785729
  0
LINE
  5
29A
100
AcDbEntity
  8
0
100
AcDbLine
 62
4
  6
CONTINUOUS
 10
10.7028784202
 20
5.6790915889
 11
10.7286364417
 21
5.6579867468
  0
LINE
  5
29B
100
AcDbEntity
  8
0
100
AcDbLine
 62
4
  6
CONTINUOUS
 10
10.6642413812
 20
5.7300673697
 11
10.6771203988
 21
5.7195149482
  0
LINE
  5
29C
100
AcDbEntity
  8
0
100
AcDbLine
 62
4
  6
CONTINUOUS
 10
8.9217111085
 20
7.2080381149
 11
8.94746913
 21
7.1869332728
  0
LINE
  5
29D
100
AcDbEntity
  8
0
100
AcDbLine
 62
4
  6
CONTINUOUS
 10
8.8830740694
 20
7.2590138957
 11
8.8959530871
 21
7.2484614742
  0
LINE
  5
29E
100
AcDbEntity
  8
0
100
AcDbLine
 62
4
  6
CONTINUOUS
 10
8.844437035
 20
7.1940785729
 11
8.8315580265
 21
7.2142902524
  0
LINE
  5
29F
100
AcDbEntity
  8
0
100
AcDbLine
 62
4
  6
CONTINUOUS
 10
8.8959530871
 20
7.2484614742
 11
8.9217111085
 21
7.2080381149
  0
LINE
  5
2A0
100
AcDbEntity
  8
0
100
AcDbLine
 62
4
  6
CONTINUOUS
 10
8.844437035
 20
7.3486267108
 11
8.8315580265
 21
7.3688383903
  0
LINE
  5
2A1
100
AcDbEntity
  8
0
100
AcDbLine
 62
4
  6
CONTINUOUS
 10
8.8959530871
 20
7.4030096121
 11
8.9217111085
 21
7.3625862528
  0
LINE
  5
2A2
100
AcDbEntity
  8
0
100
AcDbLine
 62
7
  6
CONTINUOUS
 10
8.7446246936
 20
5.6651784348
 11
8.7446246936
 21
10.9777707942
  0
LINE
  5
2A3
100
AcDbEntity
  8
0
100
AcDbLine
 62
4
  6
CONTINUOUS
 10
8.8315580265
 20
6.8665569421
 11
8.8315580265
 21
6.9631495283
  0
LINE
  5
2A4
100
AcDbEntity
  8
0
100
AcDbLine
 62
4
  6
CONTINUOUS
 10
8.8315580265
 20
7.2142902524
 11
8.8315580265
 21
7.2336087696
  0
LINE
  5
2A5
100
AcDbEntity
  8
0
100
AcDbLine
 62
4
  6
CONTINUOUS
 10
8.8315580265
 20
7.3688383903
 11
8.8315580265
 21
7.3881569075
  0
LINE
  5
2A6
100
AcDbEntity
  8
0
100
AcDbLine
 62
4
  6
CONTINUOUS
 10
8.8315580265
 20
8.9191494445
 11
8.8315580265
 21
9.0157420307
  0
LINE
  5
2A7
100
AcDbEntity
  8
0
100
AcDbLine
 62
4
  6
CONTINUOUS
 10
8.8315580265
 20
9.2668827548
 11
8.8315580265
 21
9.2862012721
  0
LINE
  5
2A8
100
AcDbEntity
  8
0
100
AcDbLine
 62
4
  6
CONTINUOUS
 10
8.8315580265
 20
9.4214308928
 11
8.8315580265
 21
9.44074941
  0
LINE
  5
2A9
100
AcDbEntity
  8
0
100
AcDbLine
 62
4
  6
CONTINUOUS
 10
8.8315580265
 20
9.8850753065
 11
8.8315580265
 21
9.9043938237
  0
LINE
  5
2AA
100
AcDbEntity
  8
0
100
AcDbLine
 62
4
  6
CONTINUOUS
 10
8.9088320955
 20
7.0350646223
 11
8.9088320955
 21
7.093020174
  0
LINE
  5
2AB
100
AcDbEntity
  8
0
100
AcDbLine
 62
4
  6
CONTINUOUS
 10
8.9088320955
 20
7.653257174
 11
8.9088320955
 21
7.7112127257
  0
LINE
  5
2AC
100
AcDbEntity
  8
0
100
AcDbLine
 62
4
  6
CONTINUOUS
 10
8.9088320955
 20
9.0876571248
 11
8.9088320955
 21
9.1456126765
  0
LINE
  5
2AD
100
AcDbEntity
  8
0
100
AcDbLine
 62
4
  6
CONTINUOUS
 10
8.9088320955
 20
9.7058496765
 11
8.9088320955
 21
9.7638052282
  0
LINE
  5
2AE
100
AcDbEntity
  8
0
100
AcDbLine
 62
4
  6
CONTINUOUS
 10
8.9345901169
 20
7.4969227112
 11
8.9345901169
 21
7.5548782629
  0
LINE
  5
2AF
100
AcDbEntity
  8
0
100
AcDbLine
 62
4
  6
CONTINUOUS
 10
8.9345901169
 20
9.5495152137
 11
8.9345901169
 21
9.6074707654
  0
LINE
  5
2B0
100
AcDbEntity
  8
0
100
AcDbLine
 62
4
  6
CONTINUOUS
 10
8.9861061645
 20
7.1745945267
 11
8.9861061645
 21
7.2518685957
  0
LINE
  5
2B1
100
AcDbEntity
  8
0
100
AcDbLine
 62
4
  6
CONTINUOUS
 10
8.9861061645
 20
7.3291426646
 11
8.9861061645
 21
7.4064167336
  0
LINE
  5
2B2
100
AcDbEntity
  8
0
100
AcDbLine
 62
4
  6
CONTINUOUS
 10
8.9861061645
 20
9.2271870292
 11
8.9861061645
 21
9.3044610982
  0
LINE
  5
2B3
100
AcDbEntity
  8
0
100
AcDbLine
 62
4
  6
CONTINUOUS
 10
8.9861061645
 20
9.3817351671
 11
8.9861061645
 21
9.4590092361
  0
LINE
  5
2B4
100
AcDbEntity
  8
0
100
AcDbLine
 62
4
  6
CONTINUOUS
 10
8.9861061645
 20
9.8453795809
 11
8.9861061645
 21
9.9226536498
  0
LINE
  5
2B5
100
AcDbEntity
  8
0
100
AcDbLine
 62
4
  6
CONTINUOUS
 10
8.8315580265
 20
9.2862012721
 11
8.844437035
 21
9.3046266271
  0
LINE
  5
2B6
100
AcDbEntity
  8
0
100
AcDbLine
 62
4
  6
CONTINUOUS
 10
10.6256043467
 20
10.7217539134
 11
10.6127253383
 21
10.712987817
  0
LINE
  5
2B7
100
AcDbEntity
  8
0
100
AcDbLine
 62
4
  6
CONTINUOUS
 10
8.8573160526
 20
7.3380742892
 11
8.844437035
 21
7.3486267108
  0
LINE
  5
2B8
100
AcDbEntity
  8
0
100
AcDbLine
 62
4
  6
CONTINUOUS
 10
8.9217111085
 20
7.3625862528
 11
8.94746913
 21
7.3414814107
  0
LINE
  5
2B9
100
AcDbEntity
  8
0
100
AcDbLine
 62
4
  6
CONTINUOUS
 10
8.8830740694
 20
7.4135620337
 11
8.8959530871
 21
7.4030096121
  0
LINE
  5
2BA
100
AcDbEntity
  8
0
100
AcDbLine
 62
4
  6
CONTINUOUS
 10
9.1889506009
 20
5.7551050639
 11
9.1889506009
 21
5.8420383915
  0
LINE
  5
2BB
100
AcDbEntity
  8
0
100
AcDbLine
 62
4
  6
CONTINUOUS
 10
10.7028784202
 20
10.7260541968
 11
10.6771203988
 21
10.7085220044
  0
LINE
  5
2BC
100
AcDbEntity
  8
0
100
AcDbLine
 62
4
  6
CONTINUOUS
 10
8.844437035
 20
9.459174765
 11
8.8573160526
 21
9.4679408607
  0
LINE
  5
2BD
100
AcDbEntity
  8
0
100
AcDbLine
 62
4
  6
CONTINUOUS
 10
10.6256043467
 20
10.5672057755
 11
10.6384833643
 21
10.5759718712
  0
LINE
  5
2BE
100
AcDbEntity
  8
0
100
AcDbLine
 62
4
  6
CONTINUOUS
 10
8.844437035
 20
9.3046266271
 11
8.8573160526
 21
9.3133927228
  0
LINE
  5
2BF
100
AcDbEntity
  8
0
100
AcDbLine
 62
4
  6
CONTINUOUS
 10
8.94746913
 20
7.1869332728
 11
8.9861061645
 21
7.1745945267
  0
LINE
  5
2C0
100
AcDbEntity
  8
0
100
AcDbLine
 62
4
  6
CONTINUOUS
 10
9.3269400948
 20
7.5580264173
 11
9.3048617907
 21
7.5816358593
  0
LINE
  5
2C1
100
AcDbEntity
  8
0
100
AcDbLine
 62
4
  6
CONTINUOUS
 10
10.6256043467
 20
5.6651320468
 11
10.6127253383
 21
5.6853437263
  0
LINE
  5
2C2
100
AcDbEntity
  8
0
100
AcDbLine
 62
4
  6
CONTINUOUS
 10
10.6771203988
 20
5.7195149482
 11
10.7028784202
 21
5.6790915889
  0
LINE
  5
2C3
100
AcDbEntity
  8
0
100
AcDbLine
 62
4
  6
CONTINUOUS
 10
9.3048617907
 20
7.5816358593
 11
9.3048617907
 21
7.6257924698
  0
LINE
  5
2C4
100
AcDbEntity
  8
0
100
AcDbLine
 62
4
  6
CONTINUOUS
 10
9.3048617907
 20
8.7812237683
 11
9.3048617907
 21
8.7849034719
  0
LINE
  5
2C5
100
AcDbEntity
  8
0
100
AcDbLine
 62
4
  6
CONTINUOUS
 10
9.3490183988
 20
8.5132218848
 11
9.3490183988
 21
8.4580261107
  0
LINE
  5
2C6
100
AcDbEntity
  8
0
100
AcDbLine
 62
4
  6
CONTINUOUS
 10
9.3490183988
 20
8.0422179903
 11
9.3490183988
 21
8.0974137644
  0
LINE
  5
2C7
100
AcDbEntity
  8
0
100
AcDbLine
 62
4
  6
CONTINUOUS
 10
9.3490183988
 20
8.2703604937
 11
9.3490183988
 21
8.3145170834
  0
LINE
  5
2C8
100
AcDbEntity
  8
0
100
AcDbLine
 62
4
  6
CONTINUOUS
 10
9.3490183988
 20
8.3586737469
 11
9.3490183988
 21
8.4028303367
  0
LINE
  5
2C9
100
AcDbEntity
  8
0
100
AcDbLine
 62
4
  6
CONTINUOUS
 10
9.3490183988
 20
8.8480760853
 11
9.3490183988
 21
8.8922328225
  0
LINE
  5
2CA
100
AcDbEntity
  8
0
100
AcDbLine
 62
4
  6
CONTINUOUS
 10
9.3490183988
 20
8.9474285229
 11
9.3490183988
 21
8.9915851127
  0
LINE
  5
2CB
100
AcDbEntity
  8
0
100
AcDbLine
 62
4
  6
CONTINUOUS
 10
9.4042141637
 20
8.4762765663
 11
9.4042141637
 21
8.5204331561
  0
LINE
  5
2CC
100
AcDbEntity
  8
0
100
AcDbLine
 62
4
  6
CONTINUOUS
 10
9.4594099286
 20
8.8845771439
 11
9.4594099286
 21
8.8404204068
  0
LINE
  5
2CD
100
AcDbEntity
  8
0
100
AcDbLine
 62
4
  6
CONTINUOUS
 10
9.4594099286
 20
8.7042709339
 11
9.4594099286
 21
8.682192639
  0
LINE
  5
2CE
100
AcDbEntity
  8
0
100
AcDbLine
 62
4
  6
CONTINUOUS
 10
9.4594099286
 20
8.5166053168
 11
9.4594099286
 21
8.472448727
  0
LINE
  5
2CF
100
AcDbEntity
  8
0
100
AcDbLine
 62
4
  6
CONTINUOUS
 10
9.4594099286
 20
8.3068614048
 11
9.4594099286
 21
8.2627048151
  0
LINE
  5
2D0
100
AcDbEntity
  8
0
100
AcDbLine
 62
4
  6
CONTINUOUS
 10
9.4594099286
 20
7.5598787563
 11
9.4594099286
 21
7.604035368
  0
LINE
  5
2D1
100
AcDbEntity
  8
0
100
AcDbLine
 62
4
  6
CONTINUOUS
 10
9.4594099286
 20
7.6923485844
 11
9.4594099286
 21
7.7254660543
  0
LINE
  5
2D2
100
AcDbEntity
  8
0
100
AcDbLine
 62
4
  6
CONTINUOUS
 10
9.4594099286
 20
8.5718010909
 11
9.4594099286
 21
8.6269968649
  0
LINE
  5
2D3
100
AcDbEntity
  8
0
100
AcDbLine
 62
4
  6
CONTINUOUS
 10
9.4594099286
 20
8.9397728443
 11
9.4594099286
 21
8.9839294341
  0
LINE
  5
2D4
100
AcDbEntity
  8
0
100
AcDbLine
 62
4
  6
CONTINUOUS
 10
9.4962071044
 20
8.1424019671
 11
9.4962071044
 21
8.1644802619
  0
LINE
  5
2D5
100
AcDbEntity
  8
0
100
AcDbLine
 62
4
  6
CONTINUOUS
 10
9.4078938811
 20
8.9875020841
 11
9.4005344464
 21
8.9438558729
  0
LINE
  5
2D6
100
AcDbEntity
  8
0
100
AcDbLine
 62
4
  6
CONTINUOUS
 10
9.4152533158
 20
8.9980308162
 11
9.4078938811
 21
8.9875020841
  0
LINE
  5
2D7
100
AcDbEntity
  8
0
100
AcDbLine
 62
4
  6
CONTINUOUS
 10
9.4005344464
 20
8.9438558729
 11
9.3931750117
 21
8.9333271408
  0
LINE
  5
2D8
100
AcDbEntity
  8
0
100
AcDbLine
 62
4
  6
CONTINUOUS
 10
12.3330393543
 20
7.2612394669
 11
12.4875874922
 21
7.2988178102
  0
LINE
  5
2D9
100
AcDbEntity
  8
0
100
AcDbLine
 62
4
  6
CONTINUOUS
 10
8.8315580265
 20
6.9148532352
 11
8.9861061645
 21
6.9041352854
  0
LINE
  5
2DA
100
AcDbEntity
  8
0
100
AcDbLine
 62
4
  6
CONTINUOUS
 10
8.94746913
 20
7.3414814107
 11
8.9861061645
 21
7.3291426646
  0
LINE
  5
2DB
100
AcDbEntity
  8
0
100
AcDbLine
 62
4
  6
CONTINUOUS
 10
8.9861061645
 20
7.4740315439
 11
8.8315580265
 21
7.5330457868
  0
LINE
  5
2DC
100
AcDbEntity
  8
0
100
AcDbLine
 62
4
  6
CONTINUOUS
 10
9.4594099286
 20
7.604035368
 11
9.4373316222
 21
7.6276448078
  0
LINE
  5
2DD
100
AcDbEntity
  8
0
100
AcDbLine
 62
4
  6
CONTINUOUS
 10
9.4594099286
 20
7.7254660543
 11
9.4373316222
 21
7.749075485
  0
LINE
  5
2DE
100
AcDbEntity
  8
0
100
AcDbLine
 62
4
  6
CONTINUOUS
 10
9.3600575555
 20
8.2475166306
 11
9.3490183988
 21
8.2703604937
  0
LINE
  5
2DF
100
AcDbEntity
  8
0
100
AcDbLine
 62
4
  6
CONTINUOUS
 10
9.7530513906
 20
8.3398532212
 11
9.7530513906
 21
8.3729706636
  0
LINE
  5
2E0
100
AcDbEntity
  8
0
100
AcDbLine
 62
4
  6
CONTINUOUS
 10
9.4594099286
 20
8.472448727
 11
9.4483707754
 21
8.451136
  0
LINE
  5
2E1
100
AcDbEntity
  8
0
100
AcDbLine
 62
4
  6
CONTINUOUS
 10
9.4594099286
 20
8.2627048151
 11
9.4483707754
 21
8.2413920881
  0
LINE
  5
2E2
100
AcDbEntity
  8
0
100
AcDbLine
 62
4
  6
CONTINUOUS
 10
10.6127253383
 20
10.5487804205
 11
10.6256043467
 21
10.5672057755
  0
LINE
  5
2E3
100
AcDbEntity
  8
0
100
AcDbLine
 62
4
  6
CONTINUOUS
 10
9.3490183988
 20
8.9915851127
 11
9.3600575555
 21
9.0018586551
  0
LINE
  5
2E4
100
AcDbEntity
  8
0
100
AcDbLine
 62
4
  6
CONTINUOUS
 10
9.4483707754
 20
8.9294993016
 11
9.4594099286
 21
8.9397728443
  0
LINE
  5
2E5
100
AcDbEntity
  8
0
100
AcDbLine
 62
4
  6
CONTINUOUS
 10
9.4594099286
 20
8.8404204068
 11
9.4483707754
 21
8.830146864
  0
LINE
  5
2E6
100
AcDbEntity
  8
0
100
AcDbLine
 62
4
  6
CONTINUOUS
 10
8.8573160526
 20
7.2608002203
 11
8.8830740694
 21
7.2590138957
  0
LINE
  5
2E7
100
AcDbEntity
  8
0
100
AcDbLine
 62
4
  6
CONTINUOUS
 10
12.3330393543
 20
7.106691329
 11
12.4875874922
 21
7.0959733792
  0
LINE
  5
2E8
100
AcDbEntity
  8
0
100
AcDbLine
 62
4
  6
CONTINUOUS
 10
8.844437035
 20
9.2466710753
 11
8.8315580265
 21
9.2668827548
  0
LINE
  5
2E9
100
AcDbEntity
  8
0
100
AcDbLine
 62
4
  6
CONTINUOUS
 10
8.8959530871
 20
9.3010539767
 11
8.9217111085
 21
9.2606306174
  0
LINE
  5
2EA
100
AcDbEntity
  8
0
100
AcDbLine
 62
4
  6
CONTINUOUS
 10
8.844437035
 20
9.4012192132
 11
8.8315580265
 21
9.4214308928
  0
LINE
  5
2EB
100
AcDbEntity
  8
0
100
AcDbLine
 62
4
  6
CONTINUOUS
 10
8.8959530871
 20
9.4556021146
 11
8.9217111085
 21
9.4151787553
  0
LINE
  5
2EC
100
AcDbEntity
  8
0
100
AcDbLine
 62
4
  6
CONTINUOUS
 10
9.4152533158
 20
8.4534327037
 11
9.4042141637
 21
8.4762765663
  0
LINE
  5
2ED
100
AcDbEntity
  8
0
100
AcDbLine
 62
4
  6
CONTINUOUS
 10
9.8192863029
 20
8.2690248929
 11
9.8192863029
 21
8.2211885628
  0
LINE
  5
2EE
100
AcDbEntity
  8
0
100
AcDbLine
 62
4
  6
CONTINUOUS
 10
9.8303254595
 20
8.3344942463
 11
9.8303254595
 21
8.389690002
  0
LINE
  5
2EF
100
AcDbEntity
  8
0
100
AcDbLine
 62
4
  6
CONTINUOUS
 10
9.9075995285
 20
8.3843310271
 11
9.9075995285
 21
8.3291352715
  0
LINE
  5
2F0
100
AcDbEntity
  8
0
100
AcDbLine
 62
4
  6
CONTINUOUS
 10
9.9075995285
 20
8.2297828892
 11
9.9075995285
 21
8.2629003499
  0
LINE
  5
2F1
100
AcDbEntity
  8
0
100
AcDbLine
 62
4
  6
CONTINUOUS
 10
9.7530513906
 20
8.3729706636
 11
9.7567311125
 21
8.3837546398
  0
LINE
  5
2F2
100
AcDbEntity
  8
0
100
AcDbLine
 62
4
  6
CONTINUOUS
 10
8.8315580265
 20
7.3881569075
 11
8.844437035
 21
7.4065822625
  0
LINE
  5
2F3
100
AcDbEntity
  8
0
100
AcDbLine
 62
4
  6
CONTINUOUS
 10
8.8315580265
 20
7.2336087696
 11
8.844437035
 21
7.2520341246
  0
LINE
  5
2F4
100
AcDbEntity
  8
0
100
AcDbLine
 62
4
  6
CONTINUOUS
 10
9.4594099286
 20
8.682192639
 11
9.4483707754
 21
8.6719190226
  0
LINE
  5
2F5
100
AcDbEntity
  8
0
100
AcDbLine
 62
4
  6
CONTINUOUS
 10
9.4483707754
 20
8.5615274745
 11
9.4594099286
 21
8.5718010909
  0
LINE
  5
2F6
100
AcDbEntity
  8
0
100
AcDbLine
 62
4
  6
CONTINUOUS
 10
8.8573160526
 20
7.4153483582
 11
8.8830740694
 21
7.4135620337
  0
LINE
  5
2F7
100
AcDbEntity
  8
0
100
AcDbLine
 62
4
  6
CONTINUOUS
 10
9.3490183988
 20
7.5564952817
 11
9.3269400948
 21
7.5580264173
  0
LINE
  5
2F8
100
AcDbEntity
  8
0
100
AcDbLine
 62
4
  6
CONTINUOUS
 10
9.8192863029
 20
8.1255159071
 11
9.7530513906
 21
8.1742659267
  0
LINE
  5
2F9
100
AcDbEntity
  8
0
100
AcDbLine
 62
4
  6
CONTINUOUS
 10
10.2255271255
 20
7.742250356
 11
10.2476054319
 21
7.7186409162
  0
LINE
  5
2FA
100
AcDbEntity
  8
0
100
AcDbLine
 62
4
  6
CONTINUOUS
 10
9.7530513906
 20
8.2736182997
 11
9.7861688513
 21
8.2382041353
  0
LINE
  5
2FB
100
AcDbEntity
  8
0
100
AcDbLine
 62
4
  6
CONTINUOUS
 10
8.844437035
 20
9.864863627
 11
8.8315580265
 21
9.8850753065
  0
LINE
  5
2FC
100
AcDbEntity
  8
0
100
AcDbLine
 62
4
  6
CONTINUOUS
 10
8.8959530871
 20
9.9192465283
 11
8.9217111085
 21
9.878823169
  0
LINE
  5
2FD
100
AcDbEntity
  8
0
100
AcDbLine
 62
4
  6
CONTINUOUS
 10
10.1519327716
 20
7.6406423387
 11
10.181370515
 21
7.579725342
  0
LINE
  5
2FE
100
AcDbEntity
  8
0
100
AcDbLine
 62
4
  6
CONTINUOUS
 10
10.093057294
 20
7.6741631103
 11
10.093057294
 21
7.729358866
  0
LINE
  5
2FF
100
AcDbEntity
  8
0
100
AcDbLine
 62
4
  6
CONTINUOUS
 10
10.093057294
 20
7.9464621942
 11
10.093057294
 21
8.0347754106
  0
LINE
  5
300
100
AcDbEntity
  8
0
100
AcDbLine
 62
4
  6
CONTINUOUS
 10
10.093057294
 20
8.0789320372
 11
10.093057294
 21
8.1451669587
  0
LINE
  5
301
100
AcDbEntity
  8
0
100
AcDbLine
 62
4
  6
CONTINUOUS
 10
10.093057294
 20
8.3328325758
 11
10.093057294
 21
8.3769891656
  0
LINE
  5
302
100
AcDbEntity
  8
0
100
AcDbLine
 62
4
  6
CONTINUOUS
 10
10.093057294
 20
8.4616226416
 11
10.093057294
 21
8.4947401208
  0
LINE
  5
303
100
AcDbEntity
  8
0
100
AcDbLine
 62
4
  6
CONTINUOUS
 10
10.093057294
 20
8.5609750055
 11
10.093057294
 21
8.6161707795
  0
LINE
  5
304
100
AcDbEntity
  8
0
100
AcDbLine
 62
4
  6
CONTINUOUS
 10
10.093057294
 20
8.7008043292
 11
10.093057294
 21
8.7670392139
  0
LINE
  5
305
100
AcDbEntity
  8
0
100
AcDbLine
 62
4
  6
CONTINUOUS
 10
10.1592922063
 20
8.7403675122
 11
10.1592922063
 21
8.6962109225
  0
LINE
  5
306
100
AcDbEntity
  8
0
100
AcDbLine
 62
4
  6
CONTINUOUS
 10
10.1592922063
 20
8.1184952571
 11
10.1592922063
 21
8.0743386305
  0
LINE
  5
307
100
AcDbEntity
  8
0
100
AcDbLine
 62
4
  6
CONTINUOUS
 10
10.2034488191
 20
7.8210555607
 11
10.2034488191
 21
7.8799310383
  0
LINE
  5
308
100
AcDbEntity
  8
0
100
AcDbLine
 62
4
  6
CONTINUOUS
 10
10.2476054319
 20
8.6054528298
 11
10.2476054319
 21
8.5502570557
  0
LINE
  5
309
100
AcDbEntity
  8
0
100
AcDbLine
 62
4
  6
CONTINUOUS
 10
10.2476054319
 20
8.484022171
 11
10.2476054319
 21
8.4509046919
  0
LINE
  5
30A
100
AcDbEntity
  8
0
100
AcDbLine
 62
4
  6
CONTINUOUS
 10
10.2476054319
 20
8.3662712158
 11
10.2476054319
 21
8.3221146261
  0
LINE
  5
30B
100
AcDbEntity
  8
0
100
AcDbLine
 62
4
  6
CONTINUOUS
 10
10.2476054319
 20
7.7186409162
 11
10.2476054319
 21
7.6634451605
  0
LINE
  5
30C
100
AcDbEntity
  8
0
100
AcDbLine
 62
4
  6
CONTINUOUS
 10
10.2476054319
 20
8.6900863795
 11
10.2476054319
 21
8.7563212641
  0
LINE
  5
30D
100
AcDbEntity
  8
0
100
AcDbLine
 62
4
  6
CONTINUOUS
 10
10.1519327716
 20
8.8071127754
 11
10.181370515
 21
8.8639467386
  0
LINE
  5
30E
100
AcDbEntity
  8
0
100
AcDbLine
 62
4
  6
CONTINUOUS
 10
9.7567311125
 20
8.3837546398
 11
9.7751296947
 21
8.4045569887
  0
LINE
  5
30F
100
AcDbEntity
  8
0
100
AcDbLine
 62
4
  6
CONTINUOUS
 10
9.3490183988
 20
8.0974137644
 11
9.3600575555
 21
8.1076873437
  0
LINE
  5
310
100
AcDbEntity
  8
0
100
AcDbLine
 62
4
  6
CONTINUOUS
 10
9.3490183988
 20
8.4028303367
 11
9.3600575555
 21
8.4094241756
  0
LINE
  5
311
100
AcDbEntity
  8
0
100
AcDbLine
 62
4
  6
CONTINUOUS
 10
9.4373316222
 20
7.6276448078
 11
9.4152533158
 21
7.6291759436
  0
LINE
  5
312
100
AcDbEntity
  8
0
100
AcDbLine
 62
4
  6
CONTINUOUS
 10
9.3048617907
 20
7.68098823
 11
9.4373316222
 21
7.671801416
  0
LINE
  5
313
100
AcDbEntity
  8
0
100
AcDbLine
 62
4
  6
CONTINUOUS
 10
10.2476054319
 20
7.6634451605
 11
10.093057294
 21
7.6741631103
  0
LINE
  5
314
100
AcDbEntity
  8
0
100
AcDbLine
 62
4
  6
CONTINUOUS
 10
9.4373316222
 20
7.749075485
 11
9.3048617907
 21
7.758262299
  0
LINE
  5
315
100
AcDbEntity
  8
0
100
AcDbLine
 62
4
  6
CONTINUOUS
 10
9.4594099286
 20
7.7917009574
 11
9.3048617907
 21
7.8024189072
  0
LINE
  5
316
100
AcDbEntity
  8
0
100
AcDbLine
 62
4
  6
CONTINUOUS
 10
10.1151355981
 20
7.7499060345
 11
10.2255271255
 21
7.742250356
  0
LINE
  5
317
100
AcDbEntity
  8
0
100
AcDbLine
 62
4
  6
CONTINUOUS
 10
8.8315580265
 20
7.8421420626
 11
8.9861061645
 21
7.8314241128
  0
LINE
  5
318
100
AcDbEntity
  8
0
100
AcDbLine
 62
4
  6
CONTINUOUS
 10
9.4594099286
 20
7.8689750264
 11
9.3048617907
 21
7.8796929761
  0
LINE
  5
319
100
AcDbEntity
  8
0
100
AcDbLine
 62
4
  6
CONTINUOUS
 10
10.2476054319
 20
7.8032744198
 11
10.093057294
 21
7.8581489778
  0
LINE
  5
31A
100
AcDbEntity
  8
0
100
AcDbLine
 62
4
  6
CONTINUOUS
 10
9.4962071044
 20
8.1644802619
 11
9.3490183988
 21
8.2188444231
  0
LINE
  5
31B
100
AcDbEntity
  8
0
100
AcDbLine
 62
4
  6
CONTINUOUS
 10
9.7861688513
 20
8.2382041353
 11
9.8303254595
 21
8.21306356
  0
LINE
  5
31C
100
AcDbEntity
  8
0
100
AcDbLine
 62
4
  6
CONTINUOUS
 10
8.8573160526
 20
9.2361186538
 11
8.844437035
 21
9.2466710753
  0
LINE
  5
31D
100
AcDbEntity
  8
0
100
AcDbLine
 62
4
  6
CONTINUOUS
 10
9.3600575555
 20
8.8362714066
 11
9.3490183988
 21
8.8480760853
  0
LINE
  5
31E
100
AcDbEntity
  8
0
100
AcDbLine
 62
4
  6
CONTINUOUS
 10
9.9075995285
 20
8.2629003499
 11
9.8855212221
 21
8.2865097806
  0
LINE
  5
31F
100
AcDbEntity
  8
0
100
AcDbLine
 62
4
  6
CONTINUOUS
 10
9.8082471554
 20
8.402260285
 11
9.8303254595
 21
8.3786508545
  0
LINE
  5
320
100
AcDbEntity
  8
0
100
AcDbLine
 62
4
  6
CONTINUOUS
 10
9.3600575555
 20
8.9356238442
 11
9.3490183988
 21
8.9474285229
  0
LINE
  5
321
100
AcDbEntity
  8
0
100
AcDbLine
 62
4
  6
CONTINUOUS
 10
9.8855212221
 20
8.4079404577
 11
9.9075995285
 21
8.3843310271
  0
LINE
  5
322
100
AcDbEntity
  8
0
100
AcDbLine
 62
4
  6
CONTINUOUS
 10
9.4594099286
 20
8.9839294341
 11
9.4483707754
 21
8.9957341125
  0
LINE
  5
323
100
AcDbEntity
  8
0
100
AcDbLine
 62
4
  6
CONTINUOUS
 10
10.1151355981
 20
8.3092231453
 11
10.093057294
 21
8.3328325758
  0
LINE
  5
324
100
AcDbEntity
  8
0
100
AcDbLine
 62
4
  6
CONTINUOUS
 10
9.4152533158
 20
7.6291759436
 11
9.3490183988
 21
7.5564952817
  0
LINE
  5
325
100
AcDbEntity
  8
0
100
AcDbLine
 62
4
  6
CONTINUOUS
 10
9.8303254595
 20
8.389690002
 11
9.8524037636
 21
8.4102371613
  0
LINE
  5
326
100
AcDbEntity
  8
0
100
AcDbLine
 62
4
  6
CONTINUOUS
 10
10.093057294
 20
8.6161707795
 11
10.1151355981
 21
8.6367179388
  0
LINE
  5
327
100
AcDbEntity
  8
0
100
AcDbLine
 62
4
  6
CONTINUOUS
 10
9.8413646116
 20
8.2895720519
 11
9.8192863029
 21
8.2690248929
  0
LINE
  5
328
100
AcDbEntity
  8
0
100
AcDbLine
 62
4
  6
CONTINUOUS
 10
10.093057294
 20
8.4947401208
 11
10.1151355981
 21
8.5152872801
  0
LINE
  5
329
100
AcDbEntity
  8
0
100
AcDbLine
 62
4
  6
CONTINUOUS
 10
9.8855212221
 20
8.2092357208
 11
9.9075995285
 21
8.2297828892
  0
LINE
  5
32A
100
AcDbEntity
  8
0
100
AcDbLine
 62
4
  6
CONTINUOUS
 10
9.3048617907
 20
7.6257924698
 11
9.3159009473
 21
7.6360660537
  0
LINE
  5
32B
100
AcDbEntity
  8
0
100
AcDbLine
 62
4
  6
CONTINUOUS
 10
9.3710967029
 20
8.5227298598
 11
9.3490183988
 21
8.5132218848
  0
LINE
  5
32C
100
AcDbEntity
  8
0
100
AcDbLine
 62
4
  6
CONTINUOUS
 10
11.3622838388
 20
7.9081171239
 11
11.3236468043
 21
7.9011373527
  0
LINE
  5
32D
100
AcDbEntity
  8
0
100
AcDbLine
 62
4
  6
CONTINUOUS
 10
9.4594099286
 20
8.0345623117
 11
9.3048617907
 21
8.0452802615
  0
LINE
  5
32E
100
AcDbEntity
  8
0
100
AcDbLine
 62
4
  6
CONTINUOUS
 10
10.2268529036
 20
7.9813400638
 11
10.093057294
 21
7.9906188208
  0
LINE
  5
32F
100
AcDbEntity
  8
0
100
AcDbLine
 62
4
  6
CONTINUOUS
 10
9.3600575555
 20
8.1076873437
 11
9.4594099286
 21
8.1007972332
  0
LINE
  5
330
100
AcDbEntity
  8
0
100
AcDbLine
 62
4
  6
CONTINUOUS
 10
10.2265294796
 20
8.0696757097
 11
10.093057294
 21
8.0789320372
  0
LINE
  5
331
100
AcDbEntity
  8
0
100
AcDbLine
 62
4
  6
CONTINUOUS
 10
12.4875874922
 20
7.202225224
 11
12.3330393543
 21
7.2612394669
  0
LINE
  5
332
100
AcDbEntity
  8
0
100
AcDbLine
 62
4
  6
CONTINUOUS
 10
8.9217111085
 20
9.2606306174
 11
8.94746913
 21
9.2395257753
  0
LINE
  5
333
100
AcDbEntity
  8
0
100
AcDbLine
 62
4
  6
CONTINUOUS
 10
8.8830740694
 20
9.3116063982
 11
8.8959530871
 21
9.3010539767
  0
LINE
  5
334
100
AcDbEntity
  8
0
100
AcDbLine
 62
4
  6
CONTINUOUS
 10
8.8573160526
 20
9.3906667917
 11
8.844437035
 21
9.4012192132
  0
LINE
  5
335
100
AcDbEntity
  8
0
100
AcDbLine
 62
4
  6
CONTINUOUS
 10
8.9217111085
 20
9.4151787553
 11
8.94746913
 21
9.3940739132
  0
LINE
  5
336
100
AcDbEntity
  8
0
100
AcDbLine
 62
4
  6
CONTINUOUS
 10
8.8830740694
 20
9.4661545361
 11
8.8959530871
 21
9.4556021146
  0
LINE
  5
337
100
AcDbEntity
  8
0
100
AcDbLine
 62
4
  6
CONTINUOUS
 10
10.1151355981
 20
8.4380132111
 11
10.093057294
 21
8.4616226416
  0
LINE
  5
338
100
AcDbEntity
  8
0
100
AcDbLine
 62
4
  6
CONTINUOUS
 10
10.2255271255
 20
8.5076316017
 11
10.2476054319
 21
8.484022171
  0
LINE
  5
339
100
AcDbEntity
  8
0
100
AcDbLine
 62
4
  6
CONTINUOUS
 10
10.2255271255
 20
8.6290622604
 11
10.2476054319
 21
8.6054528298
  0
LINE
  5
33A
100
AcDbEntity
  8
0
100
AcDbLine
 62
4
  6
CONTINUOUS
 10
10.181370515
 20
8.8639467386
 11
10.2108082561
 21
8.8030297467
  0
LINE
  5
33B
100
AcDbEntity
  8
0
100
AcDbLine
 62
4
  6
CONTINUOUS
 10
10.6127253383
 20
10.712987817
 11
10.6127253383
 21
10.6453730067
  0
LINE
  5
33C
100
AcDbEntity
  8
0
100
AcDbLine
 62
4
  6
CONTINUOUS
 10
10.6127253383
 20
5.6853437263
 11
10.6127253383
 21
5.7046622436
  0
LINE
  5
33D
100
AcDbEntity
  8
0
100
AcDbLine
 62
4
  6
CONTINUOUS
 10
10.6127253383
 20
10.5294619032
 11
10.6127253383
 21
10.5487804205
  0
LINE
  5
33E
100
AcDbEntity
  8
0
100
AcDbLine
 62
4
  6
CONTINUOUS
 10
10.6771203988
 20
10.6409071941
 11
10.6771203988
 21
10.7085220044
  0
LINE
  5
33F
100
AcDbEntity
  8
0
100
AcDbLine
 62
4
  6
CONTINUOUS
 10
10.6861356815
 20
8.8146821102
 11
10.6861356815
 21
8.795363593
  0
LINE
  5
340
100
AcDbEntity
  8
0
100
AcDbLine
 62
4
  6
CONTINUOUS
 10
10.7157574287
 20
5.8134280473
 11
10.7157574287
 21
5.871383599
  0
LINE
  5
341
100
AcDbEntity
  8
0
100
AcDbLine
 62
4
  6
CONTINUOUS
 10
10.7672734762
 20
5.6456480007
 11
10.7672734762
 21
5.7229220697
  0
LINE
  5
342
100
AcDbEntity
  8
0
100
AcDbLine
 62
4
  6
CONTINUOUS
 10
10.7672734762
 20
10.4897661776
 11
10.7672734762
 21
10.5670402466
  0
LINE
  5
343
100
AcDbEntity
  8
0
100
AcDbLine
 62
4
  6
CONTINUOUS
 10
10.7672734762
 20
10.6346550569
 11
10.7672734762
 21
10.7022698672
  0
LINE
  5
344
100
AcDbEntity
  8
0
100
AcDbLine
 62
4
  6
CONTINUOUS
 10
10.181370515
 20
7.579725342
 11
10.2108082561
 21
7.6365593099
  0
LINE
  5
345
100
AcDbEntity
  8
0
100
AcDbLine
 62
4
  6
CONTINUOUS
 10
10.6990146899
 20
8.8331074652
 11
10.6861356815
 21
8.8146821102
  0
LINE
  5
346
100
AcDbEntity
  8
0
100
AcDbLine
 62
4
  6
CONTINUOUS
 10
10.7376517244
 20
8.772472426
 11
10.7762887634
 21
8.82774849
  0
LINE
  5
347
100
AcDbEntity
  8
0
100
AcDbLine
 62
4
  6
CONTINUOUS
 10
10.8406838194
 20
8.7846456432
 11
10.8278048075
 21
8.7662202885
  0
LINE
  5
348
100
AcDbEntity
  8
0
100
AcDbLine
 62
7
  6
CONTINUOUS
 10
12.6083282277
 20
10.709822044
 11
13.2553753064
 21
11.3348215652
  0
LINE
  5
349
100
AcDbEntity
  8
0
100
AcDbLine
 62
7
  6
CONTINUOUS
 10
10.3734143284
 20
8.3777466974
 11
10.249115584
 21
8.2576833229
  0
LINE
  5
34A
100
AcDbEntity
  8
0
100
AcDbLine
 62
7
  6
CONTINUOUS
 10
10.7044856892
 20
8.5459309598
 11
10.5801869447
 21
8.4258675853
  0
LINE
  5
34B
100
AcDbEntity
  8
0
100
AcDbLine
 62
4
  6
CONTINUOUS
 10
10.2476054319
 20
8.4509046919
 11
10.2255271255
 21
8.4303575327
  0
LINE
  5
34C
100
AcDbEntity
  8
0
100
AcDbLine
 62
4
  6
CONTINUOUS
 10
9.4373316222
 20
7.671801416
 11
9.4594099286
 21
7.6923485844
  0
LINE
  5
34D
100
AcDbEntity
  8
0
100
AcDbLine
 62
4
  6
CONTINUOUS
 10
10.2476054319
 20
8.3221146261
 11
10.2255271255
 21
8.3015674669
  0
LINE
  5
34E
100
AcDbEntity
  8
0
100
AcDbLine
 62
4
  6
CONTINUOUS
 10
9.4483707754
 20
7.549605171
 11
9.4594099286
 21
7.5598787563
  0
LINE
  5
34F
100
AcDbEntity
  8
0
100
AcDbLine
 62
4
  6
CONTINUOUS
 10
10.7118937075
 20
8.8418735609
 11
10.6990146899
 21
8.8331074652
  0
LINE
  5
350
100
AcDbEntity
  8
0
100
AcDbLine
 62
4
  6
CONTINUOUS
 10
10.7762887634
 20
8.82774849
 11
10.7891677719
 21
8.8365145864
  0
LINE
  5
351
100
AcDbEntity
  8
0
100
AcDbLine
 62
4
  6
CONTINUOUS
 10
10.7247727159
 20
8.7637063297
 11
10.7376517244
 21
8.772472426
  0
LINE
  5
352
100
AcDbEntity
  8
0
100
AcDbLine
 62
4
  6
CONTINUOUS
 10
10.8278048075
 20
8.7662202885
 11
10.8020467849
 21
8.7486880962
  0
LINE
  5
353
100
AcDbEntity
  8
0
100
AcDbLine
 62
4
  6
CONTINUOUS
 10
8.844437035
 20
7.4065822625
 11
8.8573160526
 21
7.4153483582
  0
LINE
  5
354
100
AcDbEntity
  8
0
100
AcDbLine
 62
4
  6
CONTINUOUS
 10
9.7530513906
 20
8.085952701
 11
9.8192863029
 21
8.1255159071
  0
LINE
  5
355
100
AcDbEntity
  8
0
100
AcDbLine
 62
4
  6
CONTINUOUS
 10
8.8315580265
 20
7.5330457868
 11
8.9861061645
 21
7.5706241301
  0
LINE
  5
356
100
AcDbEntity
  8
0
100
AcDbLine
 62
4
  6
CONTINUOUS
 10
11.2463727354
 20
8.2735481551
 11
11.4009208733
 21
8.3111264985
  0
LINE
  5
357
100
AcDbEntity
  8
0
100
AcDbLine
 62
4
  6
CONTINUOUS
 10
10.093057294
 20
7.8581489778
 11
10.2308772986
 21
7.8879682863
  0
LINE
  5
358
100
AcDbEntity
  8
0
100
AcDbLine
 62
4
  6
CONTINUOUS
 10
9.8192863029
 20
8.1255159071
 11
9.9075995285
 21
8.1193913641
  0
LINE
  5
359
100
AcDbEntity
  8
0
100
AcDbLine
 62
4
  6
CONTINUOUS
 10
11.2721307614
 20
8.0785766576
 11
11.2850097698
 21
8.0776834953
  0
LINE
  5
35A
100
AcDbEntity
  8
0
100
AcDbLine
 62
4
  6
CONTINUOUS
 10
9.8303254595
 20
8.21306356
 11
9.8855212221
 21
8.2092357208
  0
LINE
  5
35B
100
AcDbEntity
  8
0
100
AcDbLine
 62
4
  6
CONTINUOUS
 10
9.4483707754
 20
8.2413920881
 11
9.3600575555
 21
8.2475166306
  0
LINE
  5
35C
100
AcDbEntity
  8
0
100
AcDbLine
 62
4
  6
CONTINUOUS
 10
11.3494048258
 20
8.150491752
 11
11.3751628495
 21
8.148705427
  0
LINE
  5
35D
100
AcDbEntity
  8
0
100
AcDbLine
 62
4
  6
CONTINUOUS
 10
9.3048617907
 20
8.3175793546
 11
9.4594099286
 21
8.3068614048
  0
LINE
  5
35E
100
AcDbEntity
  8
0
100
AcDbLine
 62
4
  6
CONTINUOUS
 10
9.8855212221
 20
8.2865097806
 11
9.8413646116
 21
8.2895720519
  0
LINE
  5
35F
100
AcDbEntity
  8
0
100
AcDbLine
 62
4
  6
CONTINUOUS
 10
9.4594099286
 20
8.3510180683
 11
9.3490183988
 21
8.3586737469
  0
LINE
  5
360
100
AcDbEntity
  8
0
100
AcDbLine
 62
4
  6
CONTINUOUS
 10
10.2255271255
 20
8.3015674669
 11
10.1151355981
 21
8.3092231453
  0
LINE
  5
361
100
AcDbEntity
  8
0
100
AcDbLine
 62
4
  6
CONTINUOUS
 10
9.9075995285
 20
8.3291352715
 11
9.7530513906
 21
8.3398532212
  0
LINE
  5
362
100
AcDbEntity
  8
0
100
AcDbLine
 62
4
  6
CONTINUOUS
 10
11.3236468043
 20
7.9011373527
 11
11.2850097698
 21
7.9134760988
  0
LINE
  5
363
100
AcDbEntity
  8
0
100
AcDbLine
 62
4
  6
CONTINUOUS
 10
9.3048617907
 20
8.7849034719
 11
9.3159009473
 21
8.7804582002
  0
LINE
  5
364
100
AcDbEntity
  8
0
100
AcDbLine
 62
4
  6
CONTINUOUS
 10
8.8573160526
 20
9.8543112054
 11
8.844437035
 21
9.864863627
  0
LINE
  5
365
100
AcDbEntity
  8
0
100
AcDbLine
 62
4
  6
CONTINUOUS
 10
11.2850097698
 20
7.9134760988
 11
11.2592517438
 21
7.9345809412
  0
LINE
  5
366
100
AcDbEntity
  8
0
100
AcDbLine
 62
4
  6
CONTINUOUS
 10
8.9217111085
 20
9.878823169
 11
8.94746913
 21
9.8577183269
  0
LINE
  5
367
100
AcDbEntity
  8
0
100
AcDbLine
 62
4
  6
CONTINUOUS
 10
8.8830740694
 20
9.9297989499
 11
8.8959530871
 21
9.9192465283
  0
LINE
  5
368
100
AcDbEntity
  8
0
100
AcDbLine
 62
4
  6
CONTINUOUS
 10
10.8406838194
 20
8.8039641605
 11
10.8406838194
 21
8.7846456432
  0
LINE
  5
369
100
AcDbEntity
  8
0
100
AcDbLine
 62
7
  6
CONTINUOUS
 10
10.7356259094
 20
8.5437713782
 11
10.6113271649
 21
8.4237080037
  0
LINE
  5
36A
100
AcDbEntity
  8
0
100
AcDbLine
 62
4
  6
CONTINUOUS
 10
10.093057294
 20
7.729358866
 11
10.1151355981
 21
7.7499060345
  0
LINE
  5
36B
100
AcDbEntity
  8
0
100
AcDbLine
 62
4
  6
CONTINUOUS
 10
8.844437035
 20
7.2520341246
 11
8.8573160526
 21
7.2608002203
  0
LINE
  5
36C
100
AcDbEntity
  8
0
100
AcDbLine
 62
4
  6
CONTINUOUS
 10
9.3048617907
 20
7.8024189072
 11
9.4594099286
 21
7.8689750264
  0
LINE
  5
36D
100
AcDbEntity
  8
0
100
AcDbLine
 62
4
  6
CONTINUOUS
 10
9.3490183988
 20
8.1526095385
 11
9.4594099286
 21
8.178071339
  0
LINE
  5
36E
100
AcDbEntity
  8
0
100
AcDbLine
 62
4
  6
CONTINUOUS
 10
11.2463727354
 20
8.3701407413
 11
11.4009208733
 21
8.3884005674
  0
LINE
  5
36F
100
AcDbEntity
  8
0
100
AcDbLine
 62
4
  6
CONTINUOUS
 10
11.2463727354
 20
8.4280962931
 11
11.4009208733
 21
8.4463561191
  0
LINE
  5
370
100
AcDbEntity
  8
0
100
AcDbLine
 62
4
  6
CONTINUOUS
 10
9.3600575555
 20
8.4094241756
 11
9.3821358596
 21
8.40789304
  0
LINE
  5
371
100
AcDbEntity
  8
0
100
AcDbLine
 62
4
  6
CONTINUOUS
 10
9.7751296947
 20
8.4045569887
 11
9.8082471554
 21
8.402260285
  0
LINE
  5
372
100
AcDbEntity
  8
0
100
AcDbLine
 62
4
  6
CONTINUOUS
 10
9.8524037636
 20
8.4102371613
 11
9.8855212221
 21
8.4079404577
  0
LINE
  5
373
100
AcDbEntity
  8
0
100
AcDbLine
 62
4
  6
CONTINUOUS
 10
9.4483707754
 20
8.451136
 11
9.4152533158
 21
8.4534327037
  0
LINE
  5
374
100
AcDbEntity
  8
0
100
AcDbLine
 62
4
  6
CONTINUOUS
 10
10.2255271255
 20
8.4303575327
 11
10.1151355981
 21
8.4380132111
  0
LINE
  5
375
100
AcDbEntity
  8
0
100
AcDbLine
 62
4
  6
CONTINUOUS
 10
9.4594099286
 20
8.5166053168
 11
9.3710967029
 21
8.5227298598
  0
LINE
  5
376
100
AcDbEntity
  8
0
100
AcDbLine
 62
4
  6
CONTINUOUS
 10
9.3490183988
 20
8.5684175852
 11
9.4483707754
 21
8.5615274745
  0
LINE
  5
377
100
AcDbEntity
  8
0
100
AcDbLine
 62
4
  6
CONTINUOUS
 10
10.1151355981
 20
8.5152872801
 11
10.2255271255
 21
8.5076316017
  0
LINE
  5
378
100
AcDbEntity
  8
0
100
AcDbLine
 62
4
  6
CONTINUOUS
 10
10.2476054319
 20
8.5502570557
 11
10.093057294
 21
8.5609750055
  0
LINE
  5
379
100
AcDbEntity
  8
0
100
AcDbLine
 62
4
  6
CONTINUOUS
 10
9.4594099286
 20
8.6269968649
 11
9.3490183988
 21
8.6346525435
  0
LINE
  5
37A
100
AcDbEntity
  8
0
100
AcDbLine
 62
4
  6
CONTINUOUS
 10
11.4009208733
 20
8.3884005674
 11
11.2463727354
 21
8.4280962931
  0
LINE
  5
37B
100
AcDbEntity
  8
0
100
AcDbLine
 62
4
  6
CONTINUOUS
 10
11.4009208733
 20
8.2145339123
 11
11.2463727354
 21
8.2735481551
  0
LINE
  5
37C
100
AcDbEntity
  8
0
100
AcDbLine
 62
4
  6
CONTINUOUS
 10
11.2592517438
 20
8.0891290791
 11
11.2721307614
 21
8.0785766576
  0
LINE
  5
37D
100
AcDbEntity
  8
0
100
AcDbLine
 62
4
  6
CONTINUOUS
 10
11.3751628495
 20
7.9941572891
 11
11.3880418614
 21
7.9836048679
  0
LINE
  5
37E
100
AcDbEntity
  8
0
100
AcDbLine
 62
4
  6
CONTINUOUS
 10
11.3751628495
 20
8.148705427
 11
11.3880418614
 21
8.1381530058
  0
LINE
  5
37F
100
AcDbEntity
  8
0
100
AcDbLine
 62
4
  6
CONTINUOUS
 10
10.6990146899
 20
8.7751519135
 11
10.7118937075
 21
8.764599492
  0
LINE
  5
380
100
AcDbEntity
  8
0
100
AcDbLine
 62
4
  6
CONTINUOUS
 10
10.6861356815
 20
8.795363593
 11
10.6990146899
 21
8.7751519135
  0
LINE
  5
381
100
AcDbEntity
  8
0
100
AcDbLine
 62
4
  6
CONTINUOUS
 10
11.2592517438
 20
7.9345809412
 11
11.2463727354
 21
7.9547926207
  0
LINE
  5
382
100
AcDbEntity
  8
0
100
AcDbLine
 62
4
  6
CONTINUOUS
 10
11.2463727354
 20
8.1093407586
 11
11.2592517438
 21
8.0891290791
  0
LINE
  5
383
100
AcDbEntity
  8
0
100
AcDbLine
 62
4
  6
CONTINUOUS
 10
10.8278048075
 20
8.8241758402
 11
10.8406838194
 21
8.8039641605
  0
LINE
  5
384
100
AcDbEntity
  8
0
100
AcDbLine
 62
4
  6
CONTINUOUS
 10
11.2463727354
 20
8.1286592759
 11
11.2463727354
 21
8.1093407586
  0
LINE
  5
385
100
AcDbEntity
  8
0
100
AcDbLine
 62
4
  6
CONTINUOUS
 10
11.2463727354
 20
7.9547926207
 11
11.2463727354
 21
7.9741111379
  0
LINE
  5
386
100
AcDbEntity
  8
0
100
AcDbLine
 62
7
  6
CONTINUOUS
 10
11.0666972702
 20
8.3296673621
 11
10.9423985257
 21
8.2096039875
  0
LINE
  5
387
100
AcDbEntity
  8
0
100
AcDbLine
 62
7
  6
CONTINUOUS
 10
11.0822673803
 20
8.3016193495
 11
10.9579686358
 21
8.181555975
  0
LINE
  5
388
100
AcDbEntity
  8
0
100
AcDbLine
 62
4
  6
CONTINUOUS
 10
12.3459183627
 20
9.2211758475
 11
12.3330393543
 21
9.2124097512
  0
LINE
  5
389
100
AcDbEntity
  8
0
100
AcDbLine
 62
4
  6
CONTINUOUS
 10
12.4231924363
 20
9.2254761309
 11
12.3974344148
 21
9.2079439386
  0
LINE
  5
38A
100
AcDbEntity
  8
0
100
AcDbLine
 62
4
  6
CONTINUOUS
 10
9.4483707754
 20
8.6719190226
 11
9.3048617907
 21
8.6818714045
  0
LINE
  5
38B
100
AcDbEntity
  8
0
100
AcDbLine
 62
4
  6
CONTINUOUS
 10
10.1151355981
 20
8.6367179388
 11
10.2255271255
 21
8.6290622604
  0
LINE
  5
38C
100
AcDbEntity
  8
0
100
AcDbLine
 62
4
  6
CONTINUOUS
 10
10.2476054319
 20
8.6900863795
 11
10.093057294
 21
8.7008043292
  0
LINE
  5
38D
100
AcDbEntity
  8
0
100
AcDbLine
 62
4
  6
CONTINUOUS
 10
9.4594099286
 20
8.7705058186
 11
9.3490183988
 21
8.7781614972
  0
LINE
  5
38E
100
AcDbEntity
  8
0
100
AcDbLine
 62
4
  6
CONTINUOUS
 10
9.3159009473
 20
8.7804582002
 11
9.3048617907
 21
8.7812237683
  0
LINE
  5
38F
100
AcDbEntity
  8
0
100
AcDbLine
 62
4
  6
CONTINUOUS
 10
9.4483707754
 20
8.830146864
 11
9.3600575555
 21
8.8362714066
  0
LINE
  5
390
100
AcDbEntity
  8
0
100
AcDbLine
 62
4
  6
CONTINUOUS
 10
10.7118937075
 20
8.764599492
 11
10.7247727159
 21
8.7637063297
  0
LINE
  5
391
100
AcDbEntity
  8
0
100
AcDbLine
 62
4
  6
CONTINUOUS
 10
11.4009208733
 20
8.4463561191
 11
11.2463727354
 21
8.4860518448
  0
LINE
  5
392
100
AcDbEntity
  8
0
100
AcDbLine
 62
4
  6
CONTINUOUS
 10
8.94746913
 20
9.2395257753
 11
8.9861061645
 21
9.2271870292
  0
LINE
  5
393
100
AcDbEntity
  8
0
100
AcDbLine
 62
4
  6
CONTINUOUS
 10
8.94746913
 20
9.3940739132
 11
8.9861061645
 21
9.3817351671
  0
LINE
  5
394
100
AcDbEntity
  8
0
100
AcDbLine
 62
4
  6
CONTINUOUS
 10
8.9861061645
 20
9.5266240464
 11
8.8315580265
 21
9.5856382893
  0
LINE
  5
395
100
AcDbEntity
  8
0
100
AcDbLine
 62
4
  6
CONTINUOUS
 10
10.8149257956
 20
8.8347282613
 11
10.8278048075
 21
8.8241758402
  0
LINE
  5
396
100
AcDbEntity
  8
0
100
AcDbLine
 62
4
  6
CONTINUOUS
 10
11.3880418614
 20
7.9836048679
 11
11.4009208733
 21
7.9633931882
  0
LINE
  5
397
100
AcDbEntity
  8
0
100
AcDbLine
 62
4
  6
CONTINUOUS
 10
11.3880418614
 20
8.1381530058
 11
11.4009208733
 21
8.1179413261
  0
LINE
  5
398
100
AcDbEntity
  8
0
100
AcDbLine
 62
4
  6
CONTINUOUS
 10
11.3494048258
 20
8.2374250796
 11
11.3494048258
 21
8.2953806313
  0
LINE
  5
399
100
AcDbEntity
  8
0
100
AcDbLine
 62
4
  6
CONTINUOUS
 10
11.4009208733
 20
8.1179413261
 11
11.4009208733
 21
8.0986228089
  0
LINE
  5
39A
100
AcDbEntity
  8
0
100
AcDbLine
 62
4
  6
CONTINUOUS
 10
11.4009208733
 20
7.9633931882
 11
11.4009208733
 21
7.9440746709
  0
LINE
  5
39B
100
AcDbEntity
  8
0
100
AcDbLine
 62
4
  6
CONTINUOUS
 10
11.2592517438
 20
8.1470846308
 11
11.2463727354
 21
8.1286592759
  0
LINE
  5
39C
100
AcDbEntity
  8
0
100
AcDbLine
 62
4
  6
CONTINUOUS
 10
11.2978887783
 20
8.0864495917
 11
11.3365258173
 21
8.1417256556
  0
LINE
  5
39D
100
AcDbEntity
  8
0
100
AcDbLine
 62
4
  6
CONTINUOUS
 10
11.2463727354
 20
7.9741111379
 11
11.2592517438
 21
7.9925364929
  0
LINE
  5
39E
100
AcDbEntity
  8
0
100
AcDbLine
 62
7
  6
CONTINUOUS
 10
11.0822673803
 20
7.919331071
 11
10.9579686358
 21
7.7992676964
  0
LINE
  5
39F
100
AcDbEntity
  8
0
100
AcDbLine
 62
7
  6
CONTINUOUS
 10
11.0666972702
 20
7.89344264
 11
10.9423985257
 21
7.7733792655
  0
LINE
  5
3A0
100
AcDbEntity
  8
0
100
AcDbLine
 62
4
  6
CONTINUOUS
 10
11.2721307614
 20
8.1558507265
 11
11.2592517438
 21
8.1470846308
  0
LINE
  5
3A1
100
AcDbEntity
  8
0
100
AcDbLine
 62
4
  6
CONTINUOUS
 10
11.3365258173
 20
8.1417256556
 11
11.3494048258
 21
8.150491752
  0
LINE
  5
3A2
100
AcDbEntity
  8
0
100
AcDbLine
 62
4
  6
CONTINUOUS
 10
11.2850097698
 20
8.0776834953
 11
11.2978887783
 21
8.0864495917
  0
LINE
  5
3A3
100
AcDbEntity
  8
0
100
AcDbLine
 62
4
  6
CONTINUOUS
 10
8.8315580265
 20
8.9674457376
 11
8.9861061645
 21
8.9567277879
  0
LINE
  5
3A4
100
AcDbEntity
  8
0
100
AcDbLine
 62
4
  6
CONTINUOUS
 10
10.7891677719
 20
8.8365145864
 11
10.8149257956
 21
8.8347282613
  0
LINE
  5
3A5
100
AcDbEntity
  8
0
100
AcDbLine
 62
4
  6
CONTINUOUS
 10
9.3931750117
 20
8.9333271408
 11
9.3600575555
 21
8.9356238442
  0
LINE
  5
3A6
100
AcDbEntity
  8
0
100
AcDbLine
 62
4
  6
CONTINUOUS
 10
9.4483707754
 20
8.9957341125
 11
9.4152533158
 21
8.9980308162
  0
LINE
  5
3A7
100
AcDbEntity
  8
0
100
AcDbLine
 62
4
  6
CONTINUOUS
 10
11.4009208733
 20
8.0986228089
 11
11.3880418614
 21
8.0801974541
  0
LINE
  5
3A8
100
AcDbEntity
  8
0
100
AcDbLine
 62
4
  6
CONTINUOUS
 10
11.4009208733
 20
7.9440746709
 11
11.3880418614
 21
7.9256493162
  0
LINE
  5
3A9
100
AcDbEntity
  8
0
100
AcDbLine
 62
4
  6
CONTINUOUS
 10
11.3880418614
 20
8.0801974541
 11
11.3622838388
 21
8.0626652618
  0
LINE
  5
3AA
100
AcDbEntity
  8
0
100
AcDbLine
 62
4
  6
CONTINUOUS
 10
11.2592517438
 20
7.9925364929
 11
11.2721307614
 21
8.0013025886
  0
LINE
  5
3AB
100
AcDbEntity
  8
0
100
AcDbLine
 62
4
  6
CONTINUOUS
 10
11.3880418614
 20
7.9256493162
 11
11.3622838388
 21
7.9081171239
  0
LINE
  5
3AC
100
AcDbEntity
  8
0
100
AcDbLine
 62
4
  6
CONTINUOUS
 10
12.3330393543
 20
9.038543096
 11
12.4875874922
 21
9.0278251463
  0
LINE
  5
3AD
100
AcDbEntity
  8
0
100
AcDbLine
 62
4
  6
CONTINUOUS
 10
8.8573160526
 20
9.3133927228
 11
8.8830740694
 21
9.3116063982
  0
LINE
  5
3AE
100
AcDbEntity
  8
0
100
AcDbLine
 62
4
  6
CONTINUOUS
 10
12.3330393543
 20
9.1447949408
 11
12.4875874922
 21
9.1340769911
  0
LINE
  5
3AF
100
AcDbEntity
  8
0
100
AcDbLine
 62
4
  6
CONTINUOUS
 10
8.94746913
 20
9.8577183269
 11
8.9861061645
 21
9.8453795809
  0
LINE
  5
3B0
100
AcDbEntity
  8
0
100
AcDbLine
 62
4
  6
CONTINUOUS
 10
10.6256043467
 20
10.5092502237
 11
10.6127253383
 21
10.5294619032
  0
LINE
  5
3B1
100
AcDbEntity
  8
0
100
AcDbLine
 62
4
  6
CONTINUOUS
 10
12.3845553972
 20
9.2184963601
 11
12.3459183627
 21
9.2211758475
  0
LINE
  5
3B2
100
AcDbEntity
  8
0
100
AcDbLine
 62
4
  6
CONTINUOUS
 10
8.8573160526
 20
9.4679408607
 11
8.8830740694
 21
9.4661545361
  0
LINE
  5
3B3
100
AcDbEntity
  8
0
100
AcDbLine
 62
4
  6
CONTINUOUS
 10
12.4618294685
 20
9.2227966437
 11
12.4231924363
 21
9.2254761309
  0
LINE
  5
3B4
100
AcDbEntity
  8
0
100
AcDbLine
 62
4
  6
CONTINUOUS
 10
10.6771203988
 20
10.5636331251
 11
10.7028784202
 21
10.5232097658
  0
LINE
  5
3B5
100
AcDbEntity
  8
0
100
AcDbLine
 62
4
  6
CONTINUOUS
 10
10.6127253383
 20
5.7046622436
 11
10.6256043467
 21
5.7230875986
  0
LINE
  5
3B6
100
AcDbEntity
  8
0
100
AcDbLine
 62
4
  6
CONTINUOUS
 10
8.8573160526
 20
9.9315852744
 11
8.8830740694
 21
9.9297989499
  0
LINE
  5
3B7
100
AcDbEntity
  8
0
100
AcDbLine
 62
4
  6
CONTINUOUS
 10
12.3330393543
 20
9.2124097512
 11
12.3330393543
 21
9.1447949408
  0
LINE
  5
3B8
100
AcDbEntity
  8
0
100
AcDbLine
 62
4
  6
CONTINUOUS
 10
12.3974344148
 20
9.1403291282
 11
12.3974344148
 21
9.2079439386
  0
LINE
  5
3B9
100
AcDbEntity
  8
0
100
AcDbLine
 62
4
  6
CONTINUOUS
 10
12.4360714447
 20
7.2251163913
 11
12.4360714447
 21
7.283071943
  0
LINE
  5
3BA
100
AcDbEntity
  8
0
100
AcDbLine
 62
4
  6
CONTINUOUS
 10
12.4875874922
 20
9.1340769911
 11
12.4875874922
 21
9.2016918014
  0
LINE
  5
3BB
100
AcDbEntity
  8
0
100
AcDbLine
 62
4
  6
CONTINUOUS
 10
8.8315580265
 20
9.5856382893
 11
8.9861061645
 21
9.6232166326
  0
LINE
  5
3BC
100
AcDbEntity
  8
0
100
AcDbLine
 62
4
  6
CONTINUOUS
 10
10.6384833643
 20
10.4986978022
 11
10.6256043467
 21
10.5092502237
  0
LINE
  5
3BD
100
AcDbEntity
  8
0
100
AcDbLine
 62
4
  6
CONTINUOUS
 10
10.7028784202
 20
10.5232097658
 11
10.7286364417
 21
10.5021049237
  0
LINE
  5
3BE
100
AcDbEntity
  8
0
100
AcDbLine
 62
4
  6
CONTINUOUS
 10
10.6642413812
 20
10.5741855466
 11
10.6771203988
 21
10.5636331251
  0
LINE
  5
3BF
100
AcDbEntity
  8
0
100
AcDbLine
 62
4
  6
CONTINUOUS
 10
12.3974344148
 20
9.2079439386
 11
12.3845553972
 21
9.2184963601
  0
LINE
  5
3C0
100
AcDbEntity
  8
0
100
AcDbLine
 62
4
  6
CONTINUOUS
 10
12.4875874922
 20
9.2016918014
 11
12.4618294685
 21
9.2227966437
  0
LINE
  5
3C1
100
AcDbEntity
  8
0
100
AcDbLine
 62
4
  6
CONTINUOUS
 10
10.6771203988
 20
10.7085220044
 11
10.6642413812
 21
10.7190744259
  0
LINE
  5
3C2
100
AcDbEntity
  8
0
100
AcDbLine
 62
4
  6
CONTINUOUS
 10
10.7672734762
 20
10.7022698672
 11
10.7415154524
 21
10.7233747095
  0
LINE
  5
3C3
100
AcDbEntity
  8
0
100
AcDbLine
 62
7
  6
CONTINUOUS
 10
12.6083282277
 20
5.3972296846
 11
12.6083282277
 21
10.709822044
  0
LINE
  5
3C4
100
AcDbEntity
  8
0
100
AcDbLine
 62
4
  6
CONTINUOUS
 10
10.6384833643
 20
10.5759718712
 11
10.6642413812
 21
10.5741855466
  0
LINE
  5
3C5
100
AcDbEntity
  8
0
100
AcDbLine
 62
4
  6
CONTINUOUS
 10
10.7286364417
 20
10.5021049237
 11
10.7672734762
 21
10.4897661776
  0
LINE
  5
3C6
100
AcDbEntity
  8
0
100
AcDbLine
 62
7
  6
CONTINUOUS
 10
13.2553753064
 20
6.0222292058
 11
13.2553753064
 21
11.3348215652
  0
LINE
  5
3C7
100
AcDbEntity
  8
0
100
AcDbLine
 62
4
  6
CONTINUOUS
 10
10.6256043467
 20
5.7230875986
 11
10.6384833643
 21
5.7318536943
  0
LINE
  5
3C8
100
AcDbEntity
  8
0
100
AcDbLine
 62
4
  6
CONTINUOUS
 10
10.6127253383
 20
10.6453730067
 11
10.7672734762
 21
10.6346550569
  0
LINE
  5
3C9
100
AcDbEntity
  8
0
100
AcDbLine
 62
4
  6
CONTINUOUS
 10
10.6642413812
 20
10.7190744259
 11
10.6256043467
 21
10.7217539134
  0
LINE
  5
3CA
100
AcDbEntity
  8
0
100
AcDbLine
 62
4
  6
CONTINUOUS
 10
10.7415154524
 20
10.7233747095
 11
10.7028784202
 21
10.7260541968
  0
LINE
  5
3CB
100
AcDbEntity
  8
0
100
AcDbLine
 62
7
  6
CONTINUOUS
 10
8.7446246936
 20
10.9777707942
 11
12.6083282277
 21
10.709822044
  0
LINE
  5
3CC
100
AcDbEntity
  8
0
100
AcDbLine
 62
7
  6
CONTINUOUS
 10
13.2553753064
 20
11.3348215652
 11
9.3916717723
 21
11.6027703154
  0
LINE
  5
3CD
100
AcDbEntity
  8
0
100
AcDbLine
 62
7
  6
CONTINUOUS
 10
12.6083282277
 20
5.3972296846
 11
13.2553753064
 21
6.0222292058
  0
ARC
  5
3CE
100
AcDbEntity
  8
0
100
AcDbCircle
 62
7
  6
CONTINUOUS
 10
10.68352728
 20
8.098615034
 40
0.4474420853
100
AcDbArc
 50
26.981298304
 51
31.0900673765
  0
ARC
  5
3CF
100
AcDbEntity
  8
0
100
AcDbCircle
 62
7
  6
CONTINUOUS
 10
10.6322855741
 20
8.0525109288
 40
0.4474420853
100
AcDbArc
 50
206.981298304
 51
211.0900673765
  0
ARC
  5
3D0
100
AcDbEntity
  8
0
100
AcDbCircle
 62
7
  6
CONTINUOUS
 10
10.5592285355
 20
7.9785516595
 40
0.4474420853
100
AcDbArc
 50
26.981298304
 51
31.0900673765
  0
ARC
  5
3D1
100
AcDbEntity
  8
0
100
AcDbCircle
 62
7
  6
CONTINUOUS
 10
10.6913703198
 20
8.1317369917
 40
0.4144042626
100
AcDbArc
 50
83.8695051667
 51
86.0307544453
  0
ARC
  5
3D2
100
AcDbEntity
  8
0
100
AcDbCircle
 62
7
  6
CONTINUOUS
 10
10.6244425343
 20
8.0193889711
 40
0.4144042626
100
AcDbArc
 50
263.8695051668
 51
266.0307544453
  0
ARC
  5
3D3
100
AcDbEntity
  8
0
100
AcDbCircle
 62
7
  6
CONTINUOUS
 10
10.5670715753
 20
8.0116736172
 40
0.4144042626
100
AcDbArc
 50
83.8695051667
 51
86.0307544453
  0
ARC
  5
3D4
100
AcDbEntity
  8
0
100
AcDbCircle
 62
7
  6
CONTINUOUS
 10
10.6242077139
 20
8.0161507963
 40
0.4111576007
100
AcDbArc
 50
266.0321629527
 51
268.2047714632
  0
ARC
  5
3D5
100
AcDbEntity
  8
0
100
AcDbCircle
 62
7
  6
CONTINUOUS
 10
10.5673063958
 20
8.014911792
 40
0.4111576007
100
AcDbArc
 50
86.0321629527
 51
88.2047714632
  0
ARC
  5
3D6
100
AcDbEntity
  8
0
100
AcDbCircle
 62
7
  6
CONTINUOUS
 10
10.6916323332
 20
8.1355154081
 40
0.4106167725
100
AcDbArc
 50
86.0307319968
 51
88.2062024191
  0
ARC
  5
3D7
100
AcDbEntity
  8
0
100
AcDbCircle
 62
7
  6
CONTINUOUS
 10
10.7544930309
 20
8.0988384007
 40
0.373709654
100
AcDbArc
 50
326.6595187369
 51
331.2924535874
  0
ARC
  5
3D8
100
AcDbEntity
  8
0
100
AcDbCircle
 62
7
  6
CONTINUOUS
 10
10.5613198232
 20
8.0522875622
 40
0.373709654
100
AcDbArc
 50
146.6595187369
 51
151.2924535874
  0
ARC
  5
3D9
100
AcDbEntity
  8
0
100
AcDbCircle
 62
7
  6
CONTINUOUS
 10
10.6301942865
 20
7.9787750261
 40
0.373709654
100
AcDbArc
 50
326.6595187369
 51
331.2924535874
  0
SPLINE
  5
3DA
100
AcDbEntity
  8
0
100
AcDbSpline
 62
7
  6
CONTINUOUS
 70
0
 71
3
 72
15
 73
11
 74
0
 42
0.0000001
 43
0.0000001
 44
0.0000000001
 40
0.0
 40
0.0
 40
0.0
 40
0.0
 40
0.1309044479
 40
0.2613640512
 40
0.3907957226
 40
0.5184622544
 40
0.6436178655
 40
0.7657027983
 40
0.884473687
 40
1.0
 40
1.0
 40
1.0
 40
1.0
 10
10.2335454739
 20
8.2317948919
 30
0.0
 10
10.2324210991
 20
8.2151359705
 30
0.0
 10
10.2303754058
 20
8.1818607734
 30
0.0
 10
10.2280385736
 20
8.1320676922
 30
0.0
 10
10.2265652476
 20
8.0826539965
 30
0.0
 10
10.2260546147
 20
8.033896992
 30
0.0
 10
10.2265457378
 20
7.9860766957
 30
0.0
 10
10.228004108
 20
7.9394114815
 30
0.0
 10
10.230332619
 20
7.8940120325
 30
0.0
 10
10.2324052373
 20
7.8641977768
 30
0.0
 10
10.2335454739
 20
7.8495066134
 30
0.0
  0
SPLINE
  5
3DB
100
AcDbEntity
  8
0
100
AcDbSpline
 62
7
  6
CONTINUOUS
 70
0
 71
3
 72
19
 73
15
 74
0
 42
0.0000001
 43
0.0000001
 44
0.0000000001
 40
0.0
 40
0.0
 40
0.0
 40
0.0
 40
0.1208891894
 40
0.2436787837
 40
0.3057539989
 40
0.3682338184
 40
0.4310620126
 40
0.4941687729
 40
0.5574749478
 40
0.6208974869
 40
0.6843552588
 40
0.7477743319
 40
0.8742562402
 40
1.0
 40
1.0
 40
1.0
 40
1.0
 10
10.249115584
 20
7.8214586008
 30
0.0
 10
10.261582206
 20
7.8115679053
 30
0.0
 10
10.2869010044
 20
7.7918683386
 30
0.0
 10
10.3192058383
 20
7.7678540797
 30
0.0
 10
10.3456930255
 20
7.7489166128
 30
0.0
 10
10.3659433035
 20
7.7348308041
 30
0.0
 10
10.3864923618
 20
7.720940582
 30
0.0
 10
10.4073189695
 20
7.7072707739
 30
0.0
 10
10.4283953608
 20
7.693843158
 30
0.0
 10
10.4496890358
 20
7.6806748514
 30
0.0
 10
10.4711650662
 20
7.6677772565
 30
0.0
 10
10.4999693434
 20
7.6509638004
 30
0.0
 10
10.5362223011
 20
7.6306537754
 30
0.0
 10
10.5655168147
 20
7.615021214
 30
0.0
 10
10.5801869447
 20
7.6073545847
 30
0.0
  0
SPLINE
  5
3DC
100
AcDbEntity
  8
0
100
AcDbSpline
 62
7
  6
CONTINUOUS
 70
0
 71
3
 72
15
 73
11
 74
0
 42
0.0000001
 43
0.0000001
 44
0.0000000001
 40
0.0
 40
0.0
 40
0.0
 40
0.0
 40
0.1121786521
 40
0.2284761286
 40
0.3490753419
 40
0.4737992527
 40
0.6020827469
 40
0.7331004723
 40
0.8659837967
 40
1.0
 40
1.0
 40
1.0
 40
1.0
 10
10.6113271649
 20
7.605195003
 30
0.0
 10
10.623913615
 20
7.6110646963
 30
0.0
 10
10.6495052424
 20
7.6231129783
 30
0.0
 10
10.6884557873
 20
7.6418349385
 30
0.0
 10
10.7286357938
 20
7.6615804597
 30
0.0
 10
10.7699630012
 20
7.6823518195
 30
0.0
 10
10.8122549864
 20
7.7040716684
 30
0.0
 10
10.8552668093
 20
7.7265973971
 30
0.0
 10
10.8987469409
 20
7.7497558144
 30
0.0
 10
10.9278194998
 20
7.7654593615
 30
0.0
 10
10.9423985257
 20
7.7733792655
 30
0.0
  0
SPLINE
  5
3DD
100
AcDbEntity
  8
0
100
AcDbSpline
 62
7
  6
CONTINUOUS
 70
0
 71
3
 72
15
 73
11
 74
0
 42
0.0000001
 43
0.0000001
 44
0.0000000001
 40
0.0
 40
0.0
 40
0.0
 40
0.0
 40
0.1309044479
 40
0.2613640512
 40
0.3907957226
 40
0.5184622544
 40
0.6436178655
 40
0.7657027983
 40
0.884473687
 40
1.0
 40
1.0
 40
1.0
 40
1.0
 10
11.0822673803
 20
7.919331071
 30
0.0
 10
11.0833917551
 20
7.9359899923
 30
0.0
 10
11.0854374483
 20
7.9692651895
 30
0.0
 10
11.0877742805
 20
8.0190582707
 30
0.0
 10
11.0892476065
 20
8.0684719663
 30
0.0
 10
11.0897582394
 20
8.1172289709
 30
0.0
 10
11.0892671163
 20
8.1650492672
 30
0.0
 10
11.0878087461
 20
8.2117144814
 30
0.0
 10
11.0854802351
 20
8.2571139304
 30
0.0
 10
11.0834076168
 20
8.2869281861
 30
0.0
 10
11.0822673803
 20
8.3016193495
 30
0.0
  0
SPLINE
  5
3DE
100
AcDbEntity
  8
0
100
AcDbSpline
 62
7
  6
CONTINUOUS
 70
0
 71
3
 72
19
 73
15
 74
0
 42
0.0000001
 43
0.0000001
 44
0.0000000001
 40
0.0
 40
0.0
 40
0.0
 40
0.0
 40
0.1208891894
 40
0.2436787837
 40
0.3057539989
 40
0.3682338184
 40
0.4310620126
 40
0.4941687729
 40
0.5574749478
 40
0.6208974869
 40
0.6843552588
 40
0.7477743319
 40
0.8742562402
 40
1.0
 40
1.0
 40
1.0
 40
1.0
 10
11.0666972702
 20
8.3296673621
 30
0.0
 10
11.0542306481
 20
8.3395580576
 30
0.0
 10
11.0289118497
 20
8.3592576243
 30
0.0
 10
10.9966070158
 20
8.3832718832
 30
0.0
 10
10.9701198286
 20
8.4022093501
 30
0.0
 10
10.9498695506
 20
8.4162951587
 30
0.0
 10
10.9293204923
 20
8.4301853809
 30
0.0
 10
10.9084938846
 20
8.443855189
 30
0.0
 10
10.8874174933
 20
8.4572828049
 30
0.0
 10
10.8661238183
 20
8.4704511115
 30
0.0
 10
10.844647788
 20
8.4833487064
 30
0.0
 10
10.8158435108
 20
8.5001621625
 30
0.0
 10
10.779590553
 20
8.5204721875
 30
0.0
 10
10.7502960394
 20
8.5361047488
 30
0.0
 10
10.7356259094
 20
8.5437713782
 30
0.0
  0
SPLINE
  5
3DF
100
AcDbEntity
  8
0
100
AcDbSpline
 62
7
  6
CONTINUOUS
 70
0
 71
3
 72
15
 73
11
 74
0
 42
0.0000001
 43
0.0000001
 44
0.0000000001
 40
0.0
 40
0.0
 40
0.0
 40
0.0
 40
0.1121786521
 40
0.2284761286
 40
0.3490753419
 40
0.4737992527
 40
0.6020827469
 40
0.7331004723
 40
0.8659837967
 40
1.0
 40
1.0
 40
1.0
 40
1.0
 10
10.7044856892
 20
8.5459309598
 30
0.0
 10
10.6918992392
 20
8.5400612665
 30
0.0
 10
10.6663076118
 20
8.5280129845
 30
0.0
 10
10.6273570668
 20
8.5092910243
 30
0.0
 10
10.5871770603
 20
8.4895455031
 30
0.0
 10
10.545849853
 20
8.4687741434
 30
0.0
 10
10.5035578677
 20
8.4470542945
 30
0.0
 10
10.4605460448
 20
8.4245285658
 30
0.0
 10
10.4170659133
 20
8.4013701485
 30
0.0
 10
10.3879933544
 20
8.3856666014
 30
0.0
 10
10.3734143284
 20
8.3777466974
 30
0.0
  0
SPLINE
  5
3E0
100
AcDbEntity
  8
0
100
AcDbSpline
 62
7
  6
CONTINUOUS
 70
0
 71
3
 72
52
 73
48
 74
0
 42
0.0000001
 43
0.0000001
 44
0.0000000001
 40
0.0
 40
0.0
 40
0.0
 40
0.0
 40
0.0311866655
 40
0.0621624582
 40
0.0775790412
 40
0.0929473314
 40
0.1082695123
 40
0.123548568
 40
0.1387878901
 40
0.1539911696
 40
0.1691625264
 40
0.1843064009
 40
0.1994275511
 40
0.2145309433
 40
0.2296217509
 40
0.2447052634
 40
0.259786869
 40
0.2748719753
 40
0.2899659335
 40
0.3050740164
 40
0.3202013322
 40
0.3353528119
 40
0.3505330985
 40
0.3657465608
 40
0.3809971866
 40
0.3962886124
 40
0.4116240385
 40
0.4270062211
 40
0.4424374298
 40
0.457919452
 40
0.4890310877
 40
0.5203549267
 40
0.5518869196
 40
0.5836151951
 40
0.6155205872
 40
0.6475775356
 40
0.6797550126
 40
0.7120177617
 40
0.7443275151
 40
0.7766443769
 40
0.8089282056
 40
0.8411399939
 40
0.8732432958
 40
0.9052053838
 40
0.9369988317
 40
0.9686016371
 40
1.0
 40
1.0
 40
1.0
 40
1.0
 10
10.5879120259
 20
7.649112112
 30
0.0
 10
10.5996105888
 20
7.6483008139
 30
0.0
 10
10.623023014
 20
7.6478188594
 30
0.0
 10
10.6521544715
 20
7.650110904
 30
0.0
 10
10.6751112227
 20
7.6536723725
 30
0.0
 10
10.692094811
 20
7.6571929712
 30
0.0
 10
10.7088272352
 20
7.6615589795
 30
0.0
 10
10.7252686323
 20
7.6667596426
 30
0.0
 10
10.7413792756
 20
7.6727825168
 30
0.0
 10
10.757120305
 20
7.6796132122
 30
0.0
 10
10.7724538251
 20
7.6872350826
 30
0.0
 10
10.7873426854
 20
7.6956300974
 30
0.0
 10
10.8017512225
 20
7.7047776014
 30
0.0
 10
10.8156443402
 20
7.714656073
 30
0.0
 10
10.8289889328
 20
7.7252411182
 30
0.0
 10
10.8417523224
 20
7.7365078203
 30
0.0
 10
10.8539042563
 20
7.7484284037
 30
0.0
 10
10.8654148602
 20
7.7609746932
 30
0.0
 10
10.8762569451
 20
7.7741158946
 30
0.0
 10
10.88640382
 20
7.7878207579
 30
0.0
 10
10.8958315215
 20
7.8020558478
 30
0.0
 10
10.9045169172
 20
7.8167871044
 30
0.0
 10
10.9124394012
 20
7.8319787984
 30
0.0
 10
10.919579698
 20
7.8475943911
 30
0.0
 10
10.9259206912
 20
7.8635961801
 30
0.0
 10
10.9314471995
 20
7.8799455453
 30
0.0
 10
10.9361457255
 20
7.8966031686
 30
0.0
 10
10.9400053372
 20
7.9135286521
 30
0.0
 10
10.9430163028
 20
7.9306818344
 30
0.0
 10
10.9458949189
 20
7.9538338739
 30
0.0
 10
10.9473305144
 20
7.9831491589
 30
0.0
 10
10.9455880339
 20
8.0184940147
 30
0.0
 10
10.9404026507
 20
8.0537349171
 30
0.0
 10
10.9318250854
 20
8.0885307941
 30
0.0
 10
10.919938885
 20
8.1225480963
 30
0.0
 10
10.90485906
 20
8.1554601261
 30
0.0
 10
10.8867310784
 20
8.1869511397
 30
0.0
 10
10.8657294471
 20
8.2167190091
 30
0.0
 10
10.8420560533
 20
8.2444781528
 30
0.0
 10
10.8159382442
 20
8.2699621782
 30
0.0
 10
10.7876266876
 20
8.2929264119
 30
0.0
 10
10.7573930294
 20
8.3131502139
 30
0.0
 10
10.7255272105
 20
8.330439002
 30
0.0
 10
10.6923352483
 20
8.3446262742
 30
0.0
 10
10.658134519
 20
8.3555748609
 30
0.0
 10
10.6232577802
 20
8.3631786131
 30
0.0
 10
10.5996899995
 20
8.3659782382
 30
0.0
 10
10.5879120259
 20
8.3667950434
 30
0.0
  0
SPLINE
  5
3E1
100
AcDbEntity
  8
0
100
AcDbSpline
 62
7
  6
CONTINUOUS
 70
0
 71
3
 72
52
 73
48
 74
0
 42
0.0000001
 43
0.0000001
 44
0.0000000001
 40
0.0
 40
0.0
 40
0.0
 40
0.0
 40
0.0311866655
 40
0.0621624582
 40
0.0775790412
 40
0.0929473314
 40
0.1082695123
 40
0.123548568
 40
0.1387878901
 40
0.1539911696
 40
0.1691625264
 40
0.1843064009
 40
0.1994275511
 40
0.2145309433
 40
0.2296217509
 40
0.2447052634
 40
0.259786869
 40
0.2748719753
 40
0.2899659335
 40
0.3050740164
 40
0.3202013322
 40
0.3353528119
 40
0.3505330985
 40
0.3657465608
 40
0.3809971866
 40
0.3962886124
 40
0.4116240385
 40
0.4270062211
 40
0.4424374298
 40
0.457919452
 40
0.4890310877
 40
0.5203549267
 40
0.5518869196
 40
0.5836151951
 40
0.6155205872
 40
0.6475775356
 40
0.6797550126
 40
0.7120177617
 40
0.7443275151
 40
0.7766443769
 40
0.8089282056
 40
0.8411399939
 40
0.8732432958
 40
0.9052053838
 40
0.9369988317
 40
0.9686016371
 40
1.0
 40
1.0
 40
1.0
 40
1.0
 10
10.5879120259
 20
8.3667950434
 30
0.0
 10
10.5762134631
 20
8.3676063415
 30
0.0
 10
10.5528010378
 20
8.368088296
 30
0.0
 10
10.5236695804
 20
8.3657962514
 30
0.0
 10
10.5007128292
 20
8.3622347829
 30
0.0
 10
10.4837292408
 20
8.3587141842
 30
0.0
 10
10.4669968167
 20
8.3543481759
 30
0.0
 10
10.4505554196
 20
8.3491475128
 30
0.0
 10
10.4344447762
 20
8.3431246386
 30
0.0
 10
10.4187037469
 20
8.3362939432
 30
0.0
 10
10.4033702268
 20
8.3286720728
 30
0.0
 10
10.3884813665
 20
8.320277058
 30
0.0
 10
10.3740728294
 20
8.311129554
 30
0.0
 10
10.3601797117
 20
8.3012510824
 30
0.0
 10
10.346835119
 20
8.2906660371
 30
0.0
 10
10.3340717294
 20
8.279399335
 30
0.0
 10
10.3219197956
 20
8.2674787516
 30
0.0
 10
10.3104091917
 20
8.2549324621
 30
0.0
 10
10.2995671068
 20
8.2417912607
 30
0.0
 10
10.2894202319
 20
8.2280863975
 30
0.0
 10
10.2799925303
 20
8.2138513076
 30
0.0
 10
10.2713071347
 20
8.1991200509
 30
0.0
 10
10.2633846506
 20
8.1839283569
 30
0.0
 10
10.2562443539
 20
8.1683127643
 30
0.0
 10
10.2499033607
 20
8.1523109753
 30
0.0
 10
10.2443768524
 20
8.1359616101
 30
0.0
 10
10.2396783264
 20
8.1193039868
 30
0.0
 10
10.2358187147
 20
8.1023785032
 30
0.0
 10
10.2328077491
 20
8.085225321
 30
0.0
 10
10.229929133
 20
8.0620732815
 30
0.0
 10
10.2284935374
 20
8.0327579965
 30
0.0
 10
10.230236018
 20
7.9974131407
 30
0.0
 10
10.2354214012
 20
7.9621722382
 30
0.0
 10
10.2439989665
 20
7.9273763613
 30
0.0
 10
10.2558851669
 20
7.8933590591
 30
0.0
 10
10.2709649919
 20
7.8604470293
 30
0.0
 10
10.2890929735
 20
7.8289560156
 30
0.0
 10
10.3100946048
 20
7.7991881463
 30
0.0
 10
10.3337679986
 20
7.7714290026
 30
0.0
 10
10.3598858077
 20
7.7459449772
 30
0.0
 10
10.3881973643
 20
7.7229807434
 30
0.0
 10
10.4184310225
 20
7.7027569415
 30
0.0
 10
10.4502968414
 20
7.6854681534
 30
0.0
 10
10.4834888036
 20
7.6712808812
 30
0.0
 10
10.5176895329
 20
7.6603322945
 30
0.0
 10
10.5525662717
 20
7.6527285422
 30
0.0
 10
10.5761340524
 20
7.6499289172
 30
0.0
 10
10.5879120259
 20
7.649112112
 30
0.0
  0
SPLINE
  5
3E2
100
AcDbEntity
  8
0
100
AcDbSpline
 62
7
  6
CONTINUOUS
 70
0
 71
3
 72
15
 73
11
 74
0
 42
0.0000001
 43
0.0000001
 44
0.0000000001
 40
0.0
 40
0.0
 40
0.0
 40
0.0
 40
0.115526313
 40
0.2342972017
 40
0.3563821345
 40
0.4815377457
 40
0.6092042774
 40
0.7386359488
 40
0.8690955521
 40
1.0
 40
1.0
 40
1.0
 40
1.0
 10
10.9579686358
 20
7.7992676964
 30
0.0
 10
10.9568283993
 20
7.8139588598
 30
0.0
 10
10.954755781
 20
7.8437731156
 30
0.0
 10
10.9524272699
 20
7.8891725646
 30
0.0
 10
10.9509688997
 20
7.9358377788
 30
0.0
 10
10.9504777766
 20
7.9836580751
 30
0.0
 10
10.9509884095
 20
8.0324150796
 30
0.0
 10
10.9524617356
 20
8.0818287753
 30
0.0
 10
10.9547985678
 20
8.1316218565
 30
0.0
 10
10.956844261
 20
8.1648970536
 30
0.0
 10
10.9579686358
 20
8.181555975
 30
0.0
  0
SPLINE
  5
3E3
100
AcDbEntity
  8
0
100
AcDbSpline
 62
7
  6
CONTINUOUS
 70
0
 71
3
 72
19
 73
15
 74
0
 42
0.0000001
 43
0.0000001
 44
0.0000000001
 40
0.0
 40
0.0
 40
0.0
 40
0.0
 40
0.1257437598
 40
0.2522256681
 40
0.3156447412
 40
0.3791025131
 40
0.4425250522
 40
0.5058312272
 40
0.5689379875
 40
0.6317661817
 40
0.6942460012
 40
0.7563212163
 40
0.8791108107
 40
1.0
 40
1.0
 40
1.0
 40
1.0
 10
10.9423985257
 20
8.2096039875
 30
0.0
 10
10.9277283957
 20
8.2172706169
 30
0.0
 10
10.8984338821
 20
8.2329031783
 30
0.0
 10
10.8621809243
 20
8.2532132033
 30
0.0
 10
10.8333766471
 20
8.2700266594
 30
0.0
 10
10.8119006168
 20
8.2829242543
 30
0.0
 10
10.7906069418
 20
8.2960925609
 30
0.0
 10
10.7695305505
 20
8.3095201768
 30
0.0
 10
10.7487039428
 20
8.3231899849
 30
0.0
 10
10.7281548845
 20
8.337080207
 30
0.0
 10
10.7079046064
 20
8.3511660157
 30
0.0
 10
10.6814174193
 20
8.3701034826
 30
0.0
 10
10.6491125854
 20
8.3941177415
 30
0.0
 10
10.623793787
 20
8.4138173081
 30
0.0
 10
10.6113271649
 20
8.4237080037
 30
0.0
  0
SPLINE
  5
3E4
100
AcDbEntity
  8
0
100
AcDbSpline
 62
7
  6
CONTINUOUS
 70
0
 71
3
 72
15
 73
11
 74
0
 42
0.0000001
 43
0.0000001
 44
0.0000000001
 40
0.0
 40
0.0
 40
0.0
 40
0.0
 40
0.1340162033
 40
0.2668995277
 40
0.3979172531
 40
0.5262007474
 40
0.6509246582
 40
0.7715238714
 40
0.8878213479
 40
1.0
 40
1.0
 40
1.0
 40
1.0
 10
10.5801869447
 20
8.4258675853
 30
0.0
 10
10.5656079188
 20
8.4179476813
 30
0.0
 10
10.5365353599
 20
8.4022441342
 30
0.0
 10
10.4930552283
 20
8.3790857169
 30
0.0
 10
10.4500434054
 20
8.3565599882
 30
0.0
 10
10.4077514202
 20
8.3348401393
 30
0.0
 10
10.3664242128
 20
8.3140687795
 30
0.0
 10
10.3262442063
 20
8.2943232583
 30
0.0
 10
10.2872936614
 20
8.2756012981
 30
0.0
 10
10.261702034
 20
8.2635530161
 30
0.0
 10
10.249115584
 20
8.2576833229
 30
0.0
  0
SPLINE
  5
3E5
100
AcDbEntity
  8
0
100
AcDbSpline
 62
7
  6
CONTINUOUS
 70
0
 71
3
 72
30
 73
26
 74
0
 42
0.0000001
 43
0.0000001
 44
0.0000000001
 40
0.0
 40
0.0
 40
0.0
 40
0.0
 40
0.0845020675
 40
0.1673018723
 40
0.2480808832
 40
0.326531679
 40
0.4023594032
 40
0.4752840877
 40
0.5450427919
 40
0.6113921491
 40
0.6741112657
 40
0.7040486419
 40
0.7330078368
 40
0.7609691485
 40
0.787915443
 40
0.8138317702
 40
0.8387062489
 40
0.862529788
 40
0.8852970823
 40
0.9070065056
 40
0.9276612784
 40
0.9472696343
 40
0.9658462565
 40
0.9834128553
 40
1.0
 40
1.0
 40
1.0
 40
1.0
 10
10.9031533627
 20
10.9687495241
 30
0.0
 10
10.8959081416
 20
10.9692519819
 30
0.0
 10
10.8815721002
 20
10.9703739413
 30
0.0
 10
10.8603487786
 20
10.9724312396
 30
0.0
 10
10.8396857311
 20
10.9748392516
 30
0.0
 10
10.8196697858
 20
10.9775877363
 30
0.0
 10
10.8003848753
 20
10.9806650107
 30
0.0
 10
10.7819118635
 20
10.9840579832
 30
0.0
 10
10.7643280354
 20
10.9877521968
 30
0.0
 10
10.7477070945
 20
10.9917319585
 30
0.0
 10
10.7345192748
 20
10.9953257112
 30
0.0
 10
10.7245109791
 20
10.998341868
 30
0.0
 10
10.7174045413
 20
11.0006295167
 30
0.0
 10
10.7105884164
 20
11.0029754638
 30
0.0
 10
10.7040697081
 20
11.0053772063
 30
0.0
 10
10.6978552313
 20
11.0078322802
 30
0.0
 10
10.6919514427
 20
11.0103380431
 30
0.0
 10
10.6863644912
 20
11.0128919449
 30
0.0
 10
10.6811001434
 20
11.0154912565
 30
0.0
 10
10.6761638539
 20
11.0181333594
 30
0.0
 10
10.6715606628
 20
11.0208154778
 30
0.0
 10
10.6672953187
 20
11.0235349541
 30
0.0
 10
10.6633720724
 20
11.0262890638
 30
0.0
 10
10.6597951175
 20
11.0290750301
 30
0.0
 10
10.6575815919
 20
11.031006039
 30
0.0
 10
10.6565379839
 20
11.0319772335
 30
0.0
  0
SPLINE
  5
3E6
100
AcDbEntity
  8
0
100
AcDbSpline
 62
7
  6
CONTINUOUS
 70
0
 71
3
 72
19
 73
15
 74
0
 42
0.0000001
 43
0.0000001
 44
0.0000000001
 40
0.0
 40
0.0
 40
0.0
 40
0.0
 40
0.12732766
 40
0.2538196711
 40
0.3795264658
 40
0.5045235362
 40
0.5668075958
 40
0.6289556124
 40
0.6909843715
 40
0.7529118454
 40
0.8147570127
 40
0.8765397119
 40
0.9382804145
 40
1.0
 40
1.0
 40
1.0
 40
1.0
 10
12.0876941764
 20
10.2629651963
 30
0.0
 10
12.0876941764
 20
10.2564668163
 30
0.0
 10
12.0870737242
 20
10.243503766
 30
0.0
 10
12.0842676527
 20
10.2243082573
 30
0.0
 10
12.0796152102
 20
10.2055959673
 30
0.0
 10
12.0742257343
 20
10.1905277159
 30
0.0
 10
12.0690425338
 20
10.1788957649
 30
0.0
 10
12.0647323425
 20
10.1704066958
 30
0.0
 10
12.0600054239
 20
10.1621636361
 30
0.0
 10
12.0548725365
 20
10.1541853255
 30
0.0
 10
12.0493455229
 20
10.1464902869
 30
0.0
 10
12.0434371202
 20
10.1390961431
 30
0.0
 10
12.0371611413
 20
10.1320202211
 30
0.0
 10
12.0327409056
 20
10.1275251568
 30
0.0
 10
12.0304752804
 20
10.1253367317
 30
0.0
  0
SPLINE
  5
3E7
100
AcDbEntity
  8
0
100
AcDbSpline
 62
7
  6
CONTINUOUS
 70
0
 71
3
 72
19
 73
15
 74
0
 42
0.0000001
 43
0.0000001
 44
0.0000000001
 40
0.0
 40
0.0
 40
0.0
 40
0.0
 40
0.12732766
 40
0.2538196711
 40
0.3795264658
 40
0.5045235362
 40
0.5668075958
 40
0.6289556124
 40
0.6909843715
 40
0.7529118454
 40
0.8147570127
 40
0.8765397119
 40
0.9382804145
 40
1.0
 40
1.0
 40
1.0
 40
1.0
 10
12.0876941764
 20
5.9162987205
 30
0.0
 10
12.0876941764
 20
5.9098003405
 30
0.0
 10
12.0870737242
 20
5.8968372902
 30
0.0
 10
12.0842676527
 20
5.8776417814
 30
0.0
 10
12.0796152102
 20
5.8589294915
 30
0.0
 10
12.0742257343
 20
5.8438612401
 30
0.0
 10
12.0690425338
 20
5.832229289
 30
0.0
 10
12.0647323425
 20
5.82374022
 30
0.0
 10
12.0600054239
 20
5.8154971602
 30
0.0
 10
12.0548725365
 20
5.8075188496
 30
0.0
 10
12.0493455229
 20
5.799823811
 30
0.0
 10
12.0434371202
 20
5.7924296672
 30
0.0
 10
12.0371611413
 20
5.7853537453
 30
0.0
 10
12.0327409056
 20
5.780858681
 30
0.0
 10
12.0304752804
 20
5.7786702559
 30
0.0
  0
SPLINE
  5
3E8
100
AcDbEntity
  8
0
100
AcDbSpline
 62
7
  6
CONTINUOUS
 70
0
 71
3
 72
11
 73
7
 74
0
 42
0.0000001
 43
0.0000001
 44
0.0000000001
 40
0.0
 40
0.0
 40
0.0
 40
0.0
 40
0.2521073359
 40
0.5027589691
 40
0.7520228765
 40
1.0
 40
1.0
 40
1.0
 40
1.0
 10
11.1077623501
 20
8.1575904614
 30
0.0
 10
11.1077623501
 20
8.1480725833
 30
0.0
 10
11.1069656077
 20
8.1290818309
 30
0.0
 10
11.10336333
 20
8.1008861334
 30
0.0
 10
11.0973834023
 20
8.0732564969
 30
0.0
 10
11.0918236886
 20
8.0552966006
 30
0.0
 10
11.0886641084
 20
8.0464839312
 30
0.0
  0
SPLINE
  5
3E9
100
AcDbEntity
  8
0
100
AcDbSpline
 62
7
  6
CONTINUOUS
 70
0
 71
3
 72
37
 73
33
 74
0
 42
0.0000001
 43
0.0000001
 44
0.0000000001
 40
0.0
 40
0.0
 40
0.0
 40
0.0
 40
0.0762764028
 40
0.1537861054
 40
0.2318234628
 40
0.3096752314
 40
0.3866306366
 40
0.4619894093
 40
0.4988569981
 40
0.5350718441
 40
0.5705531279
 40
0.6052222753
 40
0.639003239
 40
0.6718228581
 40
0.7036111671
 40
0.7343017006
 40
0.7638318689
 40
0.792143455
 40
0.8191831002
 40
0.8449028344
 40
0.8692607862
 40
0.892222153
 40
0.9137603504
 40
0.9338584626
 40
0.9433661069
 40
0.9525129911
 40
0.9613006997
 40
0.9697320833
 40
0.9778112753
 40
0.9855437841
 40
0.9929369685
 40
1.0
 40
1.0
 40
1.0
 40
1.0
 10
12.841265176
 20
9.2444515755
 30
0.0
 10
12.841265176
 20
9.2557065511
 30
0.0
 10
12.8415679667
 20
9.2783994619
 30
0.0
 10
12.8428889752
 20
9.3125840426
 30
0.0
 10
12.8450692619
 20
9.3469576877
 30
0.0
 10
12.8480876018
 20
9.3811857924
 30
0.0
 10
12.8519145885
 20
9.4149351852
 30
0.0
 10
12.8557737143
 20
9.4425855125
 30
0.0
 10
12.859245969
 20
9.4642124056
 30
0.0
 10
12.8620077607
 20
9.4799922471
 30
0.0
 10
12.864939231
 20
9.4954113774
 30
0.0
 10
12.8680332405
 20
9.5104322723
 30
0.0
 10
12.8712822165
 20
9.5250183496
 30
0.0
 10
12.8746782005
 20
9.539134113
 30
0.0
 10
12.8782128665
 20
9.5527452288
 30
0.0
 10
12.8818775531
 20
9.5658186046
 30
0.0
 10
12.8856632882
 20
9.5783224754
 30
0.0
 10
12.8895607892
 20
9.5902265027
 30
0.0
 10
12.893560496
 20
9.6015018539
 30
0.0
 10
12.8976526127
 20
9.6121212794
 30
0.0
 10
12.9018271404
 20
9.6220591601
 30
0.0
 10
12.9060739112
 20
9.6312917268
 30
0.0
 10
12.9103825919
 20
9.6397967502
 30
0.0
 10
12.9140815353
 20
9.6463781222
 30
0.0
 10
12.9170713487
 20
9.6512530492
 30
0.0
 10
12.9192810617
 20
9.6546468575
 30
0.0
 10
12.921498455
 20
9.6578442449
 30
0.0
 10
12.9237222235
 20
9.6608433129
 30
0.0
 10
12.9259510208
 20
9.6636422829
 30
0.0
 10
12.9281836318
 20
9.6662394682
 30
0.0
 10
12.9304186351
 20
9.6686332872
 30
0.0
 10
12.9319436215
 20
9.6701261103
 30
0.0
 10
12.9327065181
 20
9.6708361397
 30
0.0
  0
SPLINE
  5
3EA
100
AcDbEntity
  8
0
100
AcDbSpline
 62
7
  6
CONTINUOUS
 70
0
 71
3
 72
37
 73
33
 74
0
 42
0.0000001
 43
0.0000001
 44
0.0000000001
 40
0.0
 40
0.0
 40
0.0
 40
0.0
 40
0.0762764028
 40
0.1537861054
 40
0.2318234628
 40
0.3096752314
 40
0.3866306366
 40
0.4619894093
 40
0.4988569981
 40
0.5350718441
 40
0.5705531279
 40
0.6052222753
 40
0.639003239
 40
0.6718228581
 40
0.7036111671
 40
0.7343017006
 40
0.7638318689
 40
0.792143455
 40
0.8191831002
 40
0.8449028344
 40
0.8692607862
 40
0.892222153
 40
0.9137603504
 40
0.9338584626
 40
0.9433661069
 40
0.9525129911
 40
0.9613006997
 40
0.9697320833
 40
0.9778112753
 40
0.9855437841
 40
0.9929369685
 40
1.0
 40
1.0
 40
1.0
 40
1.0
 10
12.841265176
 20
7.3125998084
 30
0.0
 10
12.841265176
 20
7.323854784
 30
0.0
 10
12.8415679667
 20
7.3465476949
 30
0.0
 10
12.8428889752
 20
7.3807322756
 30
0.0
 10
12.8450692619
 20
7.4151059206
 30
0.0
 10
12.8480876018
 20
7.4493340254
 30
0.0
 10
12.8519145885
 20
7.4830834182
 30
0.0
 10
12.8557737143
 20
7.5107337455
 30
0.0
 10
12.859245969
 20
7.5323606385
 30
0.0
 10
12.8620077607
 20
7.54814048
 30
0.0
 10
12.864939231
 20
7.5635596104
 30
0.0
 10
12.8680332405
 20
7.5785805053
 30
0.0
 10
12.8712822165
 20
7.5931665826
 30
0.0
 10
12.8746782005
 20
7.607282346
 30
0.0
 10
12.8782128665
 20
7.6208934617
 30
0.0
 10
12.8818775531
 20
7.6339668376
 30
0.0
 10
12.8856632882
 20
7.6464707084
 30
0.0
 10
12.8895607892
 20
7.6583747357
 30
0.0
 10
12.893560496
 20
7.6696500869
 30
0.0
 10
12.8976526127
 20
7.6802695124
 30
0.0
 10
12.9018271404
 20
7.6902073931
 30
0.0
 10
12.9060739112
 20
7.6994399597
 30
0.0
 10
12.9103825919
 20
7.7079449831
 30
0.0
 10
12.9140815353
 20
7.7145263551
 30
0.0
 10
12.9170713487
 20
7.7194012822
 30
0.0
 10
12.9192810617
 20
7.7227950905
 30
0.0
 10
12.921498455
 20
7.7259924778
 30
0.0
 10
12.9237222235
 20
7.7289915458
 30
0.0
 10
12.9259510208
 20
7.7317905158
 30
0.0
 10
12.9281836318
 20
7.7343877011
 30
0.0
 10
12.9304186351
 20
7.7367815202
 30
0.0
 10
12.9319436215
 20
7.7382743433
 30
0.0
 10
12.9327065181
 20
7.7389843727
 30
0.0
  0
SPLINE
  5
3EB
100
AcDbEntity
  8
0
100
AcDbSpline
 62
7
  6
CONTINUOUS
 70
0
 71
3
 72
36
 73
32
 74
0
 42
0.0000001
 43
0.0000001
 44
0.0000000001
 40
0.0
 40
0.0
 40
0.0
 40
0.0
 40
0.0072740531
 40
0.0148705905
 40
0.0227981827
 40
0.0310635272
 40
0.0396717825
 40
0.0486268504
 40
0.0675849273
 40
0.0879485565
 40
0.1097126353
 40
0.1328608269
 40
0.1573675339
 40
0.183199311
 40
0.2103158709
 40
0.238670964
 40
0.2682131317
 40
0.2988862574
 40
0.330629971
 40
0.363380104
 40
0.3970691058
 40
0.431626361
 40
0.4669784428
 40
0.5030494485
 40
0.5397613064
 40
0.61478419
 40
0.6913904018
 40
0.7689029872
 40
0.8466344928
 40
0.9238946144
 40
1.0
 40
1.0
 40
1.0
 40
1.0
 10
11.3309419236
 20
11.0319772335
 30
0.0
 10
11.3301624429
 20
11.0312518392
 30
0.0
 10
11.3285330782
 20
11.0298070388
 30
0.0
 10
11.3259423301
 20
11.0277019968
 30
0.0
 10
11.3231542309
 20
11.0256141052
 30
0.0
 10
11.3201705056
 20
11.0235445877
 30
0.0
 10
11.3169928739
 20
11.021494553
 30
0.0
 10
11.3124124439
 20
11.0187362917
 30
0.0
 10
11.3062022323
 20
11.0153559518
 30
0.0
 10
11.2981456016
 20
11.0114699815
 30
0.0
 10
11.2893670994
 20
11.007689716
 30
0.0
 10
11.2798873035
 20
11.0040240664
 30
0.0
 10
11.2697282238
 20
11.0004817001
 30
0.0
 10
11.2589136918
 20
10.9970710775
 30
0.0
 10
11.2474691614
 20
10.9938003482
 30
0.0
 10
11.2354216624
 20
10.9906773368
 30
0.0
 10
11.2227996939
 20
10.9877095308
 30
0.0
 10
11.209633154
 20
10.9849040585
 30
0.0
 10
11.1959532737
 20
10.9822676416
 30
0.0
 10
11.1817925301
 20
10.979806592
 30
0.0
 10
11.1671845538
 20
10.9775268103
 30
0.0
 10
11.1521640477
 20
10.9754337683
 30
0.0
 10
11.1367667229
 20
10.9735324813
 30
0.0
 10
11.1210291596
 20
10.971827464
 30
0.0
 10
11.0994869203
 20
10.9698068476
 30
0.0
 10
11.0719858516
 20
10.9678089353
 30
0.0
 10
11.038475578
 20
10.9662616517
 30
0.0
 10
11.004540289
 20
10.9655629143
 30
0.0
 10
10.9705024486
 20
10.9657193919
 30
0.0
 10
10.9366855082
 20
10.9667296087
 30
0.0
 10
10.9142671687
 20
10.967978779
 30
0.0
 10
10.9031533627
 20
10.9687495241
 30
0.0
  0
SPLINE
  5
3EC
100
AcDbEntity
  8
0
100
AcDbSpline
 62
7
  6
CONTINUOUS
 70
0
 71
3
 72
42
 73
38
 74
0
 42
0.0000001
 43
0.0000001
 44
0.0000000001
 40
0.0
 40
0.0
 40
0.0
 40
0.0
 40
0.0299419644
 40
0.0449235317
 40
0.0599142035
 40
0.0899287023
 40
0.1200139727
 40
0.1350926544
 40
0.1501966973
 40
0.1804840373
 40
0.210897868
 40
0.2414513286
 40
0.2721543342
 40
0.3030133956
 40
0.3340315238
 40
0.3652082165
 40
0.3965395222
 40
0.4280181758
 40
0.459633799
 40
0.4913731572
 40
0.5232204671
 40
0.5551577446
 40
0.5871651885
 40
0.6192215901
 40
0.6513047644
 40
0.683391994
 40
0.715460481
 40
0.7474877999
 40
0.7794523452
 40
0.8113337678
 40
0.8431133918
 40
0.8747746145
 40
0.906303246
 40
0.9376878974
 40
0.9533257627
 40
0.9689252947
 40
1.0
 40
1.0
 40
1.0
 40
1.0
 10
11.7372923496
 20
10.428862254
 30
0.0
 10
11.7407927694
 20
10.4322433985
 30
0.0
 10
11.746249724
 20
10.4371102442
 30
0.0
 10
11.7538920379
 20
10.4431489902
 30
0.0
 10
11.7617777883
 20
10.4488871581
 30
0.0
 10
11.7720673394
 20
10.4554765194
 30
0.0
 10
11.7828572201
 20
10.4612402475
 30
0.0
 10
11.7917560356
 20
10.4653406632
 30
0.0
 10
11.8008387324
 20
10.4691024663
 30
0.0
 10
11.8124913774
 20
10.4731475738
 30
0.0
 10
11.8268515219
 20
10.4769174872
 30
0.0
 10
11.8415250071
 20
10.4795882079
 30
0.0
 10
11.8564305212
 20
10.4811449855
 30
0.0
 10
11.871486183
 20
10.4815795162
 30
0.0
 10
11.8866091522
 20
10.4808895871
 30
0.0
 10
11.901716309
 20
10.4790791839
 30
0.0
 10
11.9167246459
 20
10.4761584317
 30
0.0
 10
11.931551735
 20
10.4721435404
 30
0.0
 10
11.9461161698
 20
10.4670567081
 30
0.0
 10
11.9603380076
 20
10.4609259961
 30
0.0
 10
11.9741392011
 20
10.4537851728
 30
0.0
 10
11.9874440216
 20
10.4456735274
 30
0.0
 10
12.0001794681
 20
10.4366356545
 30
0.0
 10
12.0122756637
 20
10.4267212101
 30
0.0
 10
12.0236662336
 20
10.4159846417
 30
0.0
 10
12.0342886659
 20
10.4044848908
 30
0.0
 10
12.0440846507
 20
10.3922850738
 30
0.0
 10
12.0530003971
 20
10.3794521374
 30
0.0
 10
12.0609869257
 20
10.3660564995
 30
0.0
 10
12.0680003366
 20
10.3521716519
 30
0.0
 10
12.0740020445
 20
10.3378738194
 30
0.0
 10
12.0789590092
 20
10.3232413342
 30
0.0
 10
12.0828438389
 20
10.3083550002
 30
0.0
 10
12.0851728867
 20
10.2957893238
 30
0.0
 10
12.0864794091
 20
10.2856929453
 30
0.0
 10
12.0874118426
 20
10.2756062305
 30
0.0
 10
12.0876941764
 20
10.2680160423
 30
0.0
 10
12.0876941764
 20
10.2629651963
 30
0.0
  0
SPLINE
  5
3ED
100
AcDbEntity
  8
0
100
AcDbSpline
 62
7
  6
CONTINUOUS
 70
0
 71
3
 72
42
 73
38
 74
0
 42
0.0000001
 43
0.0000001
 44
0.0000000001
 40
0.0
 40
0.0
 40
0.0
 40
0.0
 40
0.0299419644
 40
0.0449235317
 40
0.0599142035
 40
0.0899287023
 40
0.1200139727
 40
0.1350926544
 40
0.1501966973
 40
0.1804840373
 40
0.210897868
 40
0.2414513286
 40
0.2721543342
 40
0.3030133956
 40
0.3340315238
 40
0.3652082165
 40
0.3965395222
 40
0.4280181758
 40
0.459633799
 40
0.4913731572
 40
0.5232204671
 40
0.5551577446
 40
0.5871651885
 40
0.6192215901
 40
0.6513047644
 40
0.683391994
 40
0.715460481
 40
0.7474877999
 40
0.7794523452
 40
0.8113337678
 40
0.8431133918
 40
0.8747746145
 40
0.906303246
 40
0.9376878974
 40
0.9533257627
 40
0.9689252947
 40
1.0
 40
1.0
 40
1.0
 40
1.0
 10
11.7372923496
 20
6.0821957782
 30
0.0
 10
11.7407927694
 20
6.0855769227
 30
0.0
 10
11.746249724
 20
6.0904437683
 30
0.0
 10
11.7538920379
 20
6.0964825143
 30
0.0
 10
11.7617777883
 20
6.1022206823
 30
0.0
 10
11.7720673394
 20
6.1088100435
 30
0.0
 10
11.7828572201
 20
6.1145737717
 30
0.0
 10
11.7917560356
 20
6.1186741873
 30
0.0
 10
11.8008387324
 20
6.1224359905
 30
0.0
 10
11.8124913774
 20
6.126481098
 30
0.0
 10
11.8268515219
 20
6.1302510114
 30
0.0
 10
11.8415250071
 20
6.1329217321
 30
0.0
 10
11.8564305212
 20
6.1344785097
 30
0.0
 10
11.871486183
 20
6.1349130403
 30
0.0
 10
11.8866091522
 20
6.1342231113
 30
0.0
 10
11.901716309
 20
6.132412708
 30
0.0
 10
11.9167246459
 20
6.1294919559
 30
0.0
 10
11.931551735
 20
6.1254770646
 30
0.0
 10
11.9461161698
 20
6.1203902322
 30
0.0
 10
11.9603380076
 20
6.1142595202
 30
0.0
 10
11.9741392011
 20
6.1071186969
 30
0.0
 10
11.9874440216
 20
6.0990070516
 30
0.0
 10
12.0001794681
 20
6.0899691786
 30
0.0
 10
12.0122756637
 20
6.0800547343
 30
0.0
 10
12.0236662336
 20
6.0693181658
 30
0.0
 10
12.0342886659
 20
6.057818415
 30
0.0
 10
12.0440846507
 20
6.045618598
 30
0.0
 10
12.0530003971
 20
6.0327856616
 30
0.0
 10
12.0609869257
 20
6.0193900237
 30
0.0
 10
12.0680003366
 20
6.0055051761
 30
0.0
 10
12.0740020445
 20
5.9912073436
 30
0.0
 10
12.0789590092
 20
5.9765748583
 30
0.0
 10
12.0828438389
 20
5.9616885243
 30
0.0
 10
12.0851728867
 20
5.9491228479
 30
0.0
 10
12.0864794091
 20
5.9390264694
 30
0.0
 10
12.0874118426
 20
5.9289397546
 30
0.0
 10
12.0876941764
 20
5.9213495664
 30
0.0
 10
12.0876941764
 20
5.9162987205
 30
0.0
  0
SPLINE
  5
3EE
100
AcDbEntity
  8
0
100
AcDbSpline
 62
7
  6
CONTINUOUS
 70
0
 71
3
 72
23
 73
19
 74
0
 42
0.0000001
 43
0.0000001
 44
0.0000000001
 40
0.0
 40
0.0
 40
0.0
 40
0.0
 40
0.0612826216
 40
0.1228198277
 40
0.1846013176
 40
0.2466131272
 40
0.3088378774
 40
0.3712550642
 40
0.4338413869
 40
0.496571107
 40
0.5594164343
 40
0.6223479341
 40
0.685334952
 40
0.7483460501
 40
0.8113494511
 40
0.8743134863
 40
0.9372070419
 40
1.0
 40
1.0
 40
1.0
 40
1.0
 10
10.7787403879
 20
8.5207039408
 30
0.0
 10
10.7858390339
 20
8.519972442
 30
0.0
 10
10.8000241697
 20
8.5180647813
 30
0.0
 10
10.8211255245
 20
8.5138962675
 30
0.0
 10
10.8420171662
 20
8.5084306644
 30
0.0
 10
10.8626166325
 20
8.5016894806
 30
0.0
 10
10.882843983
 20
8.4936990455
 30
0.0
 10
10.9026203678
 20
8.484490577
 30
0.0
 10
10.9218687998
 20
8.4741000131
 30
0.0
 10
10.9405143262
 20
8.4625678842
 30
0.0
 10
10.9584843508
 20
8.4499391523
 30
0.0
 10
10.9757089059
 20
8.4362630358
 30
0.0
 10
10.9921209213
 20
8.4215928254
 30
0.0
 10
11.0076564977
 20
8.4059856512
 30
0.0
 10
11.022255097
 20
8.389502362
 30
0.0
 10
11.0358599877
 20
8.3722069144
 30
0.0
 10
11.0484176772
 20
8.3541675263
 30
0.0
 10
11.0560672128
 20
8.3416780752
 30
0.0
 10
11.0597012651
 20
8.3353329477
 30
0.0
  0
SPLINE
  5
3EF
100
AcDbEntity
  8
0
100
AcDbSpline
 62
7
  6
CONTINUOUS
 70
0
 71
3
 72
11
 73
7
 74
0
 42
0.0000001
 43
0.0000001
 44
0.0000000001
 40
0.0
 40
0.0
 40
0.0
 40
0.0
 40
0.2521829303
 40
0.5029936262
 40
0.7522931759
 40
1.0
 40
1.0
 40
1.0
 40
1.0
 10
11.0834717558
 20
8.2855735571
 30
0.0
 10
11.0874600358
 20
8.2753119616
 30
0.0
 10
11.09449401
 20
8.2544724536
 30
0.0
 10
11.1021190501
 20
8.2224813598
 30
0.0
 10
11.1067272563
 20
8.1901153397
 30
0.0
 10
11.1077623501
 20
8.1684044431
 30
0.0
 10
11.1077623501
 20
8.1575904614
 30
0.0
  0
SPLINE
  5
3F0
100
AcDbEntity
  8
0
100
AcDbSpline
 62
7
  6
CONTINUOUS
 70
0
 71
3
 72
31
 73
27
 74
0
 42
0.0000001
 43
0.0000001
 44
0.0000000001
 40
0.0
 40
0.0
 40
0.0
 40
0.0
 40
0.0162143923
 40
0.0334274104
 40
0.051671826
 40
0.0709709107
 40
0.0913404915
 40
0.1127895765
 40
0.1353219427
 40
0.1589363013
 40
0.1836275706
 40
0.2093867448
 40
0.2362019676
 40
0.2640582192
 40
0.292938262
 40
0.3228222211
 40
0.3536884431
 40
0.3855130181
 40
0.4519320155
 40
0.5218578746
 40
0.5950442585
 40
0.6712248644
 40
0.7501159881
 40
0.8314186934
 40
0.9148211163
 40
1.0
 40
1.0
 40
1.0
 40
1.0
 10
12.8859204758
 20
8.9961922265
 30
0.0
 10
12.8850494552
 20
8.9972631835
 30
0.0
 10
12.8833270871
 20
8.9995313846
 30
0.0
 10
12.8808707592
 20
9.0031833227
 30
0.0
 10
12.8784684689
 20
9.0071806412
 30
0.0
 10
12.8761226048
 20
9.0115190729
 30
0.0
 10
12.873835517
 20
9.01619431
 30
0.0
 10
12.8716094489
 20
9.0212015377
 30
0.0
 10
12.8694467602
 20
9.0265356401
 30
0.0
 10
12.8673496164
 20
9.03219109
 30
0.0
 10
12.8653202854
 20
9.0381620373
 30
0.0
 10
12.863360823
 20
9.0444422566
 30
0.0
 10
12.861473368
 20
9.0510252034
 30
0.0
 10
12.8596598422
 20
9.0579039874
 30
0.0
 10
12.8579222335
 20
9.0650714087
 30
0.0
 10
12.8562623198
 20
9.072519945
 30
0.0
 10
12.8546819007
 20
9.0802417887
 30
0.0
 10
12.852653972
 20
9.0910455315
 30
0.0
 10
12.850341615
 20
9.1051772872
 30
0.0
 10
12.8479456772
 20
9.1228564694
 30
0.0
 10
12.8459010739
 20
9.1414159145
 30
0.0
 10
12.8442165834
 20
9.1607775476
 30
0.0
 10
12.8428995016
 20
9.1808600248
 30
0.0
 10
12.841955523
 20
9.2015788882
 30
0.0
 10
12.8413887517
 20
9.2228468548
 30
0.0
 10
12.841265176
 20
9.2371997043
 30
0.0
 10
12.841265176
 20
9.2444515755
 30
0.0
  0
SPLINE
  5
3F1
100
AcDbEntity
  8
0
100
AcDbSpline
 62
7
  6
CONTINUOUS
 70
0
 71
3
 72
31
 73
27
 74
0
 42
0.0000001
 43
0.0000001
 44
0.0000000001
 40
0.0
 40
0.0
 40
0.0
 40
0.0
 40
0.0162143923
 40
0.0334274104
 40
0.051671826
 40
0.0709709107
 40
0.0913404915
 40
0.1127895765
 40
0.1353219427
 40
0.1589363013
 40
0.1836275706
 40
0.2093867448
 40
0.2362019676
 40
0.2640582192
 40
0.292938262
 40
0.3228222211
 40
0.3536884431
 40
0.3855130181
 40
0.4519320155
 40
0.5218578746
 40
0.5950442585
 40
0.6712248644
 40
0.7501159881
 40
0.8314186934
 40
0.9148211163
 40
1.0
 40
1.0
 40
1.0
 40
1.0
 10
12.8859204758
 20
7.0643404595
 30
0.0
 10
12.8850494552
 20
7.0654114165
 30
0.0
 10
12.8833270871
 20
7.0676796176
 30
0.0
 10
12.8808707592
 20
7.0713315556
 30
0.0
 10
12.8784684689
 20
7.0753288742
 30
0.0
 10
12.8761226048
 20
7.0796673058
 30
0.0
 10
12.873835517
 20
7.0843425429
 30
0.0
 10
12.8716094489
 20
7.0893497706
 30
0.0
 10
12.8694467602
 20
7.094683873
 30
0.0
 10
12.8673496164
 20
7.100339323
 30
0.0
 10
12.8653202854
 20
7.1063102703
 30
0.0
 10
12.863360823
 20
7.1125904895
 30
0.0
 10
12.861473368
 20
7.1191734364
 30
0.0
 10
12.8596598422
 20
7.1260522203
 30
0.0
 10
12.8579222335
 20
7.1332196416
 30
0.0
 10
12.8562623198
 20
7.140668178
 30
0.0
 10
12.8546819007
 20
7.1483900217
 30
0.0
 10
12.852653972
 20
7.1591937645
 30
0.0
 10
12.850341615
 20
7.1733255202
 30
0.0
 10
12.8479456772
 20
7.1910047023
 30
0.0
 10
12.8459010739
 20
7.2095641474
 30
0.0
 10
12.8442165834
 20
7.2289257806
 30
0.0
 10
12.8428995016
 20
7.2490082578
 30
0.0
 10
12.841955523
 20
7.2697271212
 30
0.0
 10
12.8413887517
 20
7.2909950878
 30
0.0
 10
12.841265176
 20
7.3053479373
 30
0.0
 10
12.841265176
 20
7.3125998084
 30
0.0
  0
SPLINE
  5
3F2
100
AcDbEntity
  8
0
100
AcDbSpline
 62
7
  6
CONTINUOUS
 70
0
 71
3
 72
37
 73
33
 74
0
 42
0.0000001
 43
0.0000001
 44
0.0000000001
 40
0.0
 40
0.0
 40
0.0
 40
0.0
 40
0.0783782343
 40
0.1580470358
 40
0.2382113848
 40
0.3180680892
 40
0.3968182899
 40
0.4736773647
 40
0.5111599382
 40
0.5478872357
 40
0.5837698338
 40
0.6187211593
 40
0.6526579288
 40
0.6855005447
 40
0.7171734432
 40
0.7476055482
 40
0.7767309003
 40
0.8044892238
 40
0.8308265711
 40
0.8556962194
 40
0.8790599228
 40
0.9008892915
 40
0.9211676901
 40
0.9307248781
 40
0.9398950227
 40
0.9486807293
 40
0.9570860485
 40
0.9651168526
 40
0.972780746
 40
0.980087658
 40
0.9870500934
 40
1.0
 40
1.0
 40
1.0
 40
1.0
 10
12.9379309727
 20
9.4068235706
 30
0.0
 10
12.9379309727
 20
9.3973585864
 30
0.0
 10
12.9376642827
 20
9.3782718715
 30
0.0
 10
12.9365025296
 20
9.3495257675
 30
0.0
 10
12.9345865744
 20
9.3206409648
 30
0.0
 10
12.931936878
 20
9.2919255958
 30
0.0
 10
12.9285817623
 20
9.2636859885
 30
0.0
 10
12.9252006872
 20
9.2406111523
 30
0.0
 10
12.9221612553
 20
9.2226224107
 30
0.0
 10
12.9197489365
 20
9.2095477394
 30
0.0
 10
12.9171914447
 20
9.1968123061
 30
0.0
 10
12.9144955997
 20
9.1844500792
 30
0.0
 10
12.911668651
 20
9.1724940429
 30
0.0
 10
12.9087181993
 20
9.1609760689
 30
0.0
 10
12.9056521738
 20
9.1499268498
 30
0.0
 10
12.9024788028
 20
9.1393758088
 30
0.0
 10
12.8992066236
 20
9.1293509968
 30
0.0
 10
12.8958444393
 20
9.1198790149
 30
0.0
 10
12.8924012788
 20
9.1109849366
 30
0.0
 10
12.88888636
 20
9.1026922535
 30
0.0
 10
12.8853090709
 20
9.0950226461
 30
0.0
 10
12.8816789376
 20
9.0879963078
 30
0.0
 10
12.878558983
 20
9.0825899054
 30
0.0
 10
12.876036776
 20
9.0786110554
 30
0.0
 10
12.8741753749
 20
9.0758583019
 30
0.0
 10
12.8723079668
 20
9.0732794415
 30
0.0
 10
12.8704356992
 20
9.0708761883
 30
0.0
 10
12.8685598118
 20
9.0686500485
 30
0.0
 10
12.8666815019
 20
9.0666025759
 30
0.0
 10
12.8648016927
 20
9.0647348623
 30
0.0
 10
12.8623544935
 20
9.0625394752
 30
0.0
 10
12.8604326595
 20
9.0610808649
 30
0.0
 10
12.8591231846
 20
9.0602259633
 30
0.0
  0
SPLINE
  5
3F3
100
AcDbEntity
  8
0
100
AcDbSpline
 62
7
  6
CONTINUOUS
 70
0
 71
3
 72
31
 73
27
 74
0
 42
0.0000001
 43
0.0000001
 44
0.0000000001
 40
0.0
 40
0.0
 40
0.0
 40
0.0
 40
0.0882488283
 40
0.1744977984
 40
0.2583634614
 40
0.339477042
 40
0.4174869494
 40
0.4920617797
 40
0.5628934723
 40
0.6297009886
 40
0.661517576
 40
0.692237506
 40
0.7218351961
 40
0.7502882763
 40
0.7775769659
 40
0.8036853554
 40
0.8286008909
 40
0.8523158508
 40
0.8748270398
 40
0.8961375625
 40
0.9162568923
 40
0.9352031123
 40
0.9530036078
 40
0.9696980078
 40
0.9853397815
 40
1.0
 40
1.0
 40
1.0
 40
1.0
 10
12.9379309727
 20
9.4068235706
 30
0.0
 10
12.9379309727
 20
9.4130587545
 30
0.0
 10
12.9378173125
 20
9.4253881709
 30
0.0
 10
12.9372953314
 20
9.4436364155
 30
0.0
 10
12.936426203
 20
9.4613668653
 30
0.0
 10
12.9352142792
 20
9.4784937734
 30
0.0
 10
12.9336655981
 20
9.4949344555
 30
0.0
 10
12.9317878905
 20
9.51060966
 30
0.0
 10
12.9295904377
 20
9.5254437214
 30
0.0
 10
12.9274689567
 20
9.5372295873
 30
0.0
 10
12.9256091573
 20
9.5461775566
 30
0.0
 10
12.9241641301
 20
9.5525252872
 30
0.0
 10
12.9226479294
 20
9.5586117982
 30
0.0
 10
12.9210624499
 20
9.564429781
 30
0.0
 10
12.9194095411
 20
9.5699722395
 30
0.0
 10
12.9176912926
 20
9.5752325425
 30
0.0
 10
12.915909689
 20
9.5802043924
 30
0.0
 10
12.9140669656
 20
9.5848818892
 30
0.0
 10
12.9121652199
 20
9.5892594717
 30
0.0
 10
12.9102067931
 20
9.5933320163
 30
0.0
 10
12.9081938465
 20
9.5970947303
 30
0.0
 10
12.9061287501
 20
9.6005433044
 30
0.0
 10
12.9040136577
 20
9.6036736997
 30
0.0
 10
12.9018507679
 20
9.6064824594
 30
0.0
 10
12.8996423416
 20
9.6089659835
 30
0.0
 10
12.8980932964
 20
9.6104484962
 30
0.0
 10
12.8973119997
 20
9.6111285557
 30
0.0
  0
SPLINE
  5
3F4
100
AcDbEntity
  8
0
100
AcDbSpline
 62
7
  6
CONTINUOUS
 70
0
 71
3
 72
37
 73
33
 74
0
 42
0.0000001
 43
0.0000001
 44
0.0000000001
 40
0.0
 40
0.0
 40
0.0
 40
0.0
 40
0.0783782343
 40
0.1580470358
 40
0.2382113848
 40
0.3180680892
 40
0.3968182899
 40
0.4736773647
 40
0.5111599382
 40
0.5478872357
 40
0.5837698338
 40
0.6187211593
 40
0.6526579288
 40
0.6855005447
 40
0.7171734432
 40
0.7476055482
 40
0.7767309003
 40
0.8044892238
 40
0.8308265711
 40
0.8556962194
 40
0.8790599228
 40
0.9008892915
 40
0.9211676901
 40
0.9307248781
 40
0.9398950227
 40
0.9486807293
 40
0.9570860485
 40
0.9651168526
 40
0.972780746
 40
0.980087658
 40
0.9870500934
 40
1.0
 40
1.0
 40
1.0
 40
1.0
 10
12.9379309727
 20
7.4749718035
 30
0.0
 10
12.9379309727
 20
7.4655068194
 30
0.0
 10
12.9376642827
 20
7.4464201044
 30
0.0
 10
12.9365025296
 20
7.4176740005
 30
0.0
 10
12.9345865744
 20
7.3887891977
 30
0.0
 10
12.931936878
 20
7.3600738287
 30
0.0
 10
12.9285817623
 20
7.3318342215
 30
0.0
 10
12.9252006872
 20
7.3087593852
 30
0.0
 10
12.9221612553
 20
7.2907706437
 30
0.0
 10
12.9197489365
 20
7.2776959724
 30
0.0
 10
12.9171914447
 20
7.264960539
 30
0.0
 10
12.9144955997
 20
7.2525983121
 30
0.0
 10
12.911668651
 20
7.2406422759
 30
0.0
 10
12.9087181993
 20
7.2291243018
 30
0.0
 10
12.9056521738
 20
7.2180750827
 30
0.0
 10
12.9024788028
 20
7.2075240417
 30
0.0
 10
12.8992066236
 20
7.1974992297
 30
0.0
 10
12.8958444393
 20
7.1880272479
 30
0.0
 10
12.8924012788
 20
7.1791331696
 30
0.0
 10
12.88888636
 20
7.1708404865
 30
0.0
 10
12.8853090709
 20
7.163170879
 30
0.0
 10
12.8816789376
 20
7.1561445407
 30
0.0
 10
12.878558983
 20
7.1507381383
 30
0.0
 10
12.876036776
 20
7.1467592884
 30
0.0
 10
12.8741753749
 20
7.1440065349
 30
0.0
 10
12.8723079668
 20
7.1414276745
 30
0.0
 10
12.8704356992
 20
7.1390244213
 30
0.0
 10
12.8685598118
 20
7.1367982815
 30
0.0
 10
12.8666815019
 20
7.1347508089
 30
0.0
 10
12.8648016927
 20
7.1328830953
 30
0.0
 10
12.8623544935
 20
7.1306877082
 30
0.0
 10
12.8604326595
 20
7.1292290979
 30
0.0
 10
12.8591231846
 20
7.1283741962
 30
0.0
  0
SPLINE
  5
3F5
100
AcDbEntity
  8
0
100
AcDbSpline
 62
7
  6
CONTINUOUS
 70
0
 71
3
 72
31
 73
27
 74
0
 42
0.0000001
 43
0.0000001
 44
0.0000000001
 40
0.0
 40
0.0
 40
0.0
 40
0.0
 40
0.0882488283
 40
0.1744977984
 40
0.2583634614
 40
0.339477042
 40
0.4174869494
 40
0.4920617797
 40
0.5628934723
 40
0.6297009886
 40
0.661517576
 40
0.692237506
 40
0.7218351961
 40
0.7502882763
 40
0.7775769659
 40
0.8036853554
 40
0.8286008909
 40
0.8523158508
 40
0.8748270398
 40
0.8961375625
 40
0.9162568923
 40
0.9352031123
 40
0.9530036078
 40
0.9696980078
 40
0.9853397815
 40
1.0
 40
1.0
 40
1.0
 40
1.0
 10
12.9379309727
 20
7.4749718035
 30
0.0
 10
12.9379309727
 20
7.4812069875
 30
0.0
 10
12.9378173125
 20
7.4935364038
 30
0.0
 10
12.9372953314
 20
7.5117846485
 30
0.0
 10
12.936426203
 20
7.5295150983
 30
0.0
 10
12.9352142792
 20
7.5466420063
 30
0.0
 10
12.9336655981
 20
7.5630826885
 30
0.0
 10
12.9317878905
 20
7.578757893
 30
0.0
 10
12.9295904377
 20
7.5935919543
 30
0.0
 10
12.9274689567
 20
7.6053778202
 30
0.0
 10
12.9256091573
 20
7.6143257895
 30
0.0
 10
12.9241641301
 20
7.6206735201
 30
0.0
 10
12.9226479294
 20
7.6267600312
 30
0.0
 10
12.9210624499
 20
7.632578014
 30
0.0
 10
12.9194095411
 20
7.6381204724
 30
0.0
 10
12.9176912926
 20
7.6433807754
 30
0.0
 10
12.915909689
 20
7.6483526253
 30
0.0
 10
12.9140669656
 20
7.6530301221
 30
0.0
 10
12.9121652199
 20
7.6574077047
 30
0.0
 10
12.9102067931
 20
7.6614802492
 30
0.0
 10
12.9081938465
 20
7.6652429633
 30
0.0
 10
12.9061287501
 20
7.6686915373
 30
0.0
 10
12.9040136577
 20
7.6718219327
 30
0.0
 10
12.9018507679
 20
7.6746306923
 30
0.0
 10
12.8996423416
 20
7.6771142165
 30
0.0
 10
12.8980932964
 20
7.6785967291
 30
0.0
 10
12.8973119997
 20
7.6792767887
 30
0.0
  0
SPLINE
  5
3F6
100
AcDbEntity
  8
0
100
AcDbSpline
 62
7
  6
CONTINUOUS
 70
0
 71
3
 72
55
 73
51
 74
0
 42
0.0000001
 43
0.0000001
 44
0.0000000001
 40
0.0
 40
0.0
 40
0.0
 40
0.0
 40
0.0082490242
 40
0.0160248331
 40
0.0233637836
 40
0.0303112571
 40
0.0369224346
 40
0.0432629237
 40
0.0494081742
 40
0.0554418878
 40
0.0614528874
 40
0.067531096
 40
0.073763261
 40
0.080229269
 40
0.0869998413
 40
0.0941353601
 40
0.101686092
 40
0.1096927459
 40
0.1181877851
 40
0.1271963454
 40
0.136737596
 40
0.1468254228
 40
0.157469533
 40
0.1686758238
 40
0.1804472384
 40
0.1927838941
 40
0.2056837605
 40
0.2191426294
 40
0.2331546767
 40
0.2477123347
 40
0.2628067772
 40
0.2784277356
 40
0.2945639311
 40
0.3112028598
 40
0.3459335141
 40
0.3825030341
 40
0.4207809807
 40
0.4606259913
 40
0.5018871977
 40
0.5444054876
 40
0.5880146611
 40
0.6325425193
 40
0.6778119065
 40
0.7236417246
 40
0.7698479258
 40
0.8162444988
 40
0.8626444351
 40
0.9088607276
 40
0.9547072788
 40
1.0
 40
1.0
 40
1.0
 40
1.0
 10
10.6565379839
 20
11.0319772335
 30
0.0
 10
10.6555403857
 20
11.0329056107
 30
0.0
 10
10.6536570844
 20
11.0347694217
 30
0.0
 10
10.6511117009
 20
11.0376756006
 30
0.0
 10
10.6489351654
 20
11.0406045486
 30
0.0
 10
10.6471304681
 20
11.0435536563
 30
0.0
 10
10.6457006214
 20
11.0465204756
 30
0.0
 10
10.6446485176
 20
11.0495020007
 30
0.0
 10
10.6439770917
 20
11.0524946284
 30
0.0
 10
10.6436884425
 20
11.0554938154
 30
0.0
 10
10.6437837889
 20
11.0584943674
 30
0.0
 10
10.6442626283
 20
11.0614909186
 30
0.0
 10
10.6451233799
 20
11.0644785365
 30
0.0
 10
10.6463633293
 20
11.0674531791
 30
0.0
 10
10.6479796522
 20
11.0704115288
 30
0.0
 10
10.6499692569
 20
11.0733509436
 30
0.0
 10
10.6523293096
 20
11.0762689022
 30
0.0
 10
10.6550567742
 20
11.0791630802
 30
0.0
 10
10.6581486544
 20
11.0820309204
 30
0.0
 10
10.661601578
 20
11.0848699311
 30
0.0
 10
10.6654119943
 20
11.0876773493
 30
0.0
 10
10.6695758915
 20
11.0904505105
 30
0.0
 10
10.6740889761
 20
11.0931865307
 30
0.0
 10
10.6789464866
 20
11.095882673
 30
0.0
 10
10.6841433433
 20
11.0985360315
 30
0.0
 10
10.6896740227
 20
11.1011438779
 30
0.0
 10
10.695532674
 20
11.1037033515
 30
0.0
 10
10.7017130337
 20
11.1062117842
 30
0.0
 10
10.7082085132
 20
11.1086664008
 30
0.0
 10
10.7150121415
 20
11.1110646254
 30
0.0
 10
10.7221166308
 20
11.1134037957
 30
0.0
 10
10.7295143362
 20
11.1156814424
 30
0.0
 10
10.7371973184
 20
11.1178950603
 30
0.0
 10
10.7479649552
 20
11.1207995556
 30
0.0
 10
10.7620817523
 20
11.1242406602
 30
0.0
 10
10.7797870224
 20
11.1280221591
 30
0.0
 10
10.798415223
 20
11.131495983
 30
0.0
 10
10.8178860584
 20
11.1346469697
 30
0.0
 10
10.8381157305
 20
11.1374613266
 30
0.0
 10
10.8590170357
 20
11.1399267566
 30
0.0
 10
10.8804998417
 20
11.1420324906
 30
0.0
 10
10.9024714656
 20
11.1437693369
 30
0.0
 10
10.9248370905
 20
11.1451297174
 30
0.0
 10
10.9475001796
 20
11.1461076986
 30
0.0
 10
10.9703628993
 20
11.1466990164
 30
0.0
 10
10.9933265477
 20
11.1469010927
 30
0.0
 10
11.0162919765
 20
11.1467130474
 30
0.0
 10
11.0391600582
 20
11.146135698
 30
0.0
 10
11.0618319713
 20
11.1451715679
 30
0.0
 10
11.0768620567
 20
11.1442670541
 30
0.0
 10
11.0843265448
 20
11.1437493901
 30
0.0
  0
SPLINE
  5
3F7
100
AcDbEntity
  8
0
100
AcDbSpline
 62
7
  6
CONTINUOUS
 70
0
 71
3
 72
32
 73
28
 74
0
 42
0.0000001
 43
0.0000001
 44
0.0000000001
 40
0.0
 40
0.0
 40
0.0
 40
0.0
 40
0.0891095974
 40
0.1761835933
 40
0.2608110831
 40
0.3425962532
 40
0.4211632533
 40
0.4961587408
 40
0.5672559895
 40
0.6012502615
 40
0.6341618632
 40
0.6659595386
 40
0.6966146988
 40
0.726101749
 40
0.7543982552
 40
0.7814855405
 40
0.8073488258
 40
0.8319781707
 40
0.8553686841
 40
0.8775219201
 40
0.89844633
 40
0.9181592811
 40
0.9366880191
 40
0.9540725318
 40
0.9703673308
 40
0.9856452514
 40
1.0
 40
1.0
 40
1.0
 40
1.0
 10
11.0664680454
 20
11.0598505173
 30
0.0
 10
11.0729157417
 20
11.0594033681
 30
0.0
 10
11.0856555696
 20
11.0583940517
 30
0.0
 10
11.104479775
 20
11.0565109283
 30
0.0
 10
11.1227314903
 20
11.0542835787
 30
0.0
 10
11.140316374
 20
11.0517236719
 30
0.0
 10
11.1571437405
 20
11.0488446679
 30
0.0
 10
11.173126697
 20
11.045661644
 30
0.0
 10
11.1858572687
 20
11.0427276473
 30
0.0
 10
11.1955507965
 20
11.0402308775
 30
0.0
 10
11.2024508062
 20
11.0383209774
 30
0.0
 10
11.2090808437
 20
11.0363482474
 30
0.0
 10
11.2154323772
 20
11.0343152168
 30
0.0
 10
11.2214972332
 20
11.0322245425
 30
0.0
 10
11.2272676192
 20
11.0300789128
 30
0.0
 10
11.2327361436
 20
11.0278811315
 30
0.0
 10
11.2378958084
 20
11.0256339952
 30
0.0
 10
11.2427400538
 20
11.0233404342
 30
0.0
 10
11.247262721
 20
11.0210033149
 30
0.0
 10
11.2514581313
 20
11.0186256513
 30
0.0
 10
11.2553210005
 20
11.0162103186
 30
0.0
 10
11.2588465638
 20
11.013760338
 30
0.0
 10
11.2620304153
 20
11.0112784831
 30
0.0
 10
11.2648686564
 20
11.008767682
 30
0.0
 10
11.2673577013
 20
11.0062303547
 30
0.0
 10
11.2694940831
 20
11.0036695564
 30
0.0
 10
11.2707164169
 20
11.0018967294
 30
0.0
 10
11.271260997
 20
11.0010093474
 30
0.0
  0
SPLINE
  5
3F8
100
AcDbEntity
  8
0
100
AcDbSpline
 62
7
  6
CONTINUOUS
 70
0
 71
3
 72
19
 73
15
 74
0
 42
0.0000001
 43
0.0000001
 44
0.0000000001
 40
0.0
 40
0.0
 40
0.0
 40
0.0
 40
0.12732766
 40
0.2538196711
 40
0.3795264658
 40
0.5045235362
 40
0.5668075958
 40
0.6289556124
 40
0.6909843715
 40
0.7529118454
 40
0.8147570127
 40
0.8765397119
 40
0.9382804145
 40
1.0
 40
1.0
 40
1.0
 40
1.0
 10
11.6800734536
 20
5.9445673136
 30
0.0
 10
11.6800734536
 20
5.9510656936
 30
0.0
 10
11.6806939058
 20
5.9640287439
 30
0.0
 10
11.6834999774
 20
5.9832242526
 30
0.0
 10
11.6881524198
 20
6.0019365426
 30
0.0
 10
11.6935418957
 20
6.017004794
 30
0.0
 10
11.6987250962
 20
6.0286367451
 30
0.0
 10
11.7030352876
 20
6.0371258141
 30
0.0
 10
11.7077622062
 20
6.0453688738
 30
0.0
 10
11.7128950935
 20
6.0533471845
 30
0.0
 10
11.7184221071
 20
6.061042223
 30
0.0
 10
11.7243305098
 20
6.0684363668
 30
0.0
 10
11.7306064887
 20
6.0755122888
 30
0.0
 10
11.7350267244
 20
6.0800073531
 30
0.0
 10
11.7372923496
 20
6.0821957782
 30
0.0
  0
SPLINE
  5
3F9
100
AcDbEntity
  8
0
100
AcDbSpline
 62
7
  6
CONTINUOUS
 70
0
 71
3
 72
42
 73
38
 74
0
 42
0.0000001
 43
0.0000001
 44
0.0000000001
 40
0.0
 40
0.0
 40
0.0
 40
0.0
 40
0.0299419644
 40
0.0449235317
 40
0.0599142035
 40
0.0899287023
 40
0.1200139727
 40
0.1350926544
 40
0.1501966973
 40
0.1804840373
 40
0.210897868
 40
0.2414513286
 40
0.2721543342
 40
0.3030133956
 40
0.3340315238
 40
0.3652082165
 40
0.3965395222
 40
0.4280181758
 40
0.459633799
 40
0.4913731572
 40
0.5232204671
 40
0.5551577446
 40
0.5871651885
 40
0.6192215901
 40
0.6513047644
 40
0.683391994
 40
0.715460481
 40
0.7474877999
 40
0.7794523452
 40
0.8113337678
 40
0.8431133918
 40
0.8747746145
 40
0.906303246
 40
0.9376878974
 40
0.9533257627
 40
0.9689252947
 40
1.0
 40
1.0
 40
1.0
 40
1.0
 10
12.0304752804
 20
10.1253367317
 30
0.0
 10
12.0269748607
 20
10.1219555872
 30
0.0
 10
12.021517906
 20
10.1170887416
 30
0.0
 10
12.0138755922
 20
10.1110499956
 30
0.0
 10
12.0059898417
 20
10.1053118276
 30
0.0
 10
11.9957002906
 20
10.0987224664
 30
0.0
 10
11.98491041
 20
10.0929587382
 30
0.0
 10
11.9760115944
 20
10.0888583226
 30
0.0
 10
11.9669288976
 20
10.0850965194
 30
0.0
 10
11.9552762526
 20
10.081051412
 30
0.0
 10
11.9409161081
 20
10.0772814985
 30
0.0
 10
11.926242623
 20
10.0746107778
 30
0.0
 10
11.9113371089
 20
10.0730540002
 30
0.0
 10
11.896281447
 20
10.0726194696
 30
0.0
 10
11.8811584779
 20
10.0733093987
 30
0.0
 10
11.8660513211
 20
10.0751198019
 30
0.0
 10
11.8510429841
 20
10.078040554
 30
0.0
 10
11.836215895
 20
10.0820554453
 30
0.0
 10
11.8216514602
 20
10.0871422777
 30
0.0
 10
11.8074296225
 20
10.0932729897
 30
0.0
 10
11.7936284289
 20
10.100413813
 30
0.0
 10
11.7803236085
 20
10.1085254584
 30
0.0
 10
11.7675881619
 20
10.1175633313
 30
0.0
 10
11.7554919664
 20
10.1274777756
 30
0.0
 10
11.7441013964
 20
10.1382143441
 30
0.0
 10
11.7334789641
 20
10.1497140949
 30
0.0
 10
11.7236829793
 20
10.1619139119
 30
0.0
 10
11.7147672329
 20
10.1747468484
 30
0.0
 10
11.7067807043
 20
10.1881424863
 30
0.0
 10
11.6997672935
 20
10.2020273339
 30
0.0
 10
11.6937655856
 20
10.2163251663
 30
0.0
 10
11.6888086208
 20
10.2309576516
 30
0.0
 10
11.6849237912
 20
10.2458439856
 30
0.0
 10
11.6825947434
 20
10.258409662
 30
0.0
 10
11.681288221
 20
10.2685060405
 30
0.0
 10
11.6803557874
 20
10.2785927553
 30
0.0
 10
11.6800734536
 20
10.2861829435
 30
0.0
 10
11.6800734536
 20
10.2912337895
 30
0.0
  0
SPLINE
  5
3FA
100
AcDbEntity
  8
0
100
AcDbSpline
 62
7
  6
CONTINUOUS
 70
0
 71
3
 72
42
 73
38
 74
0
 42
0.0000001
 43
0.0000001
 44
0.0000000001
 40
0.0
 40
0.0
 40
0.0
 40
0.0
 40
0.0299419644
 40
0.0449235317
 40
0.0599142035
 40
0.0899287023
 40
0.1200139727
 40
0.1350926544
 40
0.1501966973
 40
0.1804840373
 40
0.210897868
 40
0.2414513286
 40
0.2721543342
 40
0.3030133956
 40
0.3340315238
 40
0.3652082165
 40
0.3965395222
 40
0.4280181758
 40
0.459633799
 40
0.4913731572
 40
0.5232204671
 40
0.5551577446
 40
0.5871651885
 40
0.6192215901
 40
0.6513047644
 40
0.683391994
 40
0.715460481
 40
0.7474877999
 40
0.7794523452
 40
0.8113337678
 40
0.8431133918
 40
0.8747746145
 40
0.906303246
 40
0.9376878974
 40
0.9533257627
 40
0.9689252947
 40
1.0
 40
1.0
 40
1.0
 40
1.0
 10
12.0304752804
 20
5.7786702559
 30
0.0
 10
12.0269748607
 20
5.7752891114
 30
0.0
 10
12.021517906
 20
5.7704222657
 30
0.0
 10
12.0138755922
 20
5.7643835197
 30
0.0
 10
12.0059898417
 20
5.7586453518
 30
0.0
 10
11.9957002906
 20
5.7520559905
 30
0.0
 10
11.98491041
 20
5.7462922624
 30
0.0
 10
11.9760115944
 20
5.7421918467
 30
0.0
 10
11.9669288976
 20
5.7384300436
 30
0.0
 10
11.9552762526
 20
5.7343849361
 30
0.0
 10
11.9409161081
 20
5.7306150227
 30
0.0
 10
11.926242623
 20
5.727944302
 30
0.0
 10
11.9113371089
 20
5.7263875244
 30
0.0
 10
11.896281447
 20
5.7259529937
 30
0.0
 10
11.8811584779
 20
5.7266429228
 30
0.0
 10
11.8660513211
 20
5.728453326
 30
0.0
 10
11.8510429841
 20
5.7313740782
 30
0.0
 10
11.836215895
 20
5.7353889695
 30
0.0
 10
11.8216514602
 20
5.7404758018
 30
0.0
 10
11.8074296225
 20
5.7466065139
 30
0.0
 10
11.7936284289
 20
5.7537473371
 30
0.0
 10
11.7803236085
 20
5.7618589825
 30
0.0
 10
11.7675881619
 20
5.7708968554
 30
0.0
 10
11.7554919664
 20
5.7808112998
 30
0.0
 10
11.7441013964
 20
5.7915478682
 30
0.0
 10
11.7334789641
 20
5.8030476191
 30
0.0
 10
11.7236829793
 20
5.8152474361
 30
0.0
 10
11.7147672329
 20
5.8280803725
 30
0.0
 10
11.7067807043
 20
5.8414760104
 30
0.0
 10
11.6997672935
 20
5.855360858
 30
0.0
 10
11.6937655856
 20
5.8696586905
 30
0.0
 10
11.6888086208
 20
5.8842911758
 30
0.0
 10
11.6849237912
 20
5.8991775098
 30
0.0
 10
11.6825947434
 20
5.9117431862
 30
0.0
 10
11.681288221
 20
5.9218395647
 30
0.0
 10
11.6803557874
 20
5.9319262795
 30
0.0
 10
11.6800734536
 20
5.9395164676
 30
0.0
 10
11.6800734536
 20
5.9445673136
 30
0.0
  0
SPLINE
  5
3FB
100
AcDbEntity
  8
0
100
AcDbSpline
 62
7
  6
CONTINUOUS
 70
0
 71
3
 72
55
 73
51
 74
0
 42
0.0000001
 43
0.0000001
 44
0.0000000001
 40
0.0
 40
0.0
 40
0.0
 40
0.0
 40
0.0452109687
 40
0.0910029622
 40
0.1371914766
 40
0.183589895
 40
0.230010561
 40
0.2762656883
 40
0.322168346
 40
0.3675334179
 40
0.4121785764
 40
0.4559252635
 40
0.4985996886
 40
0.5400338512
 40
0.5800666035
 40
0.6185447727
 40
0.6553243753
 40
0.6902719719
 40
0.707020832
 40
0.7232673264
 40
0.7389984202
 40
0.7542022618
 40
0.7688679477
 40
0.7829859613
 40
0.7965479615
 40
0.8095472735
 40
0.8219787272
 40
0.8338392214
 40
0.8451276512
 40
0.8558455854
 40
0.8659973431
 40
0.8755908472
 40
0.8846379397
 40
0.8931554961
 40
0.9011660797
 40
0.9086993705
 40
0.9157931534
 40
0.9224948583
 40
0.9288624001
 40
0.9349648604
 40
0.9408817448
 40
0.946701049
 40
0.9525156008
 40
0.9584184725
 40
0.9644983383
 40
0.9708356807
 40
0.9775006914
 40
0.9845524035
 40
0.9920392732
 40
1.0
 40
1.0
 40
1.0
 40
1.0
 10
13.0224383581
 20
9.4194514414
 30
0.0
 10
13.0224383581
 20
9.411989208
 30
0.0
 10
13.0223052715
 20
9.3969685388
 30
0.0
 10
13.0217184428
 20
9.3743311808
 30
0.0
 10
13.0207453563
 20
9.3515109158
 30
0.0
 10
13.0193901823
 20
9.3286062376
 30
0.0
 10
13.0176587552
 20
9.3057158951
 30
0.0
 10
13.0155585471
 20
9.2829386021
 30
0.0
 10
13.0130986368
 20
9.260372574
 30
0.0
 10
13.0102896701
 20
9.2381151086
 30
0.0
 10
13.0071438151
 20
9.2162621607
 30
0.0
 10
13.0036747107
 20
9.1949079226
 30
0.0
 10
12.9998974089
 20
9.1741444131
 30
0.0
 10
12.9958283128
 20
9.1540610659
 30
0.0
 10
12.9914851034
 20
9.1347443537
 30
0.0
 10
12.98688668
 20
9.1162773227
 30
0.0
 10
12.9820530269
 20
9.0987394802
 30
0.0
 10
12.9777883572
 20
9.0847703958
 30
0.0
 10
12.9742654549
 20
9.0741234567
 30
0.0
 10
12.9716151887
 20
9.0665297935
 30
0.0
 10
12.9689221828
 20
9.0592223497
 30
0.0
 10
12.9661893874
 20
9.0522089591
 30
0.0
 10
12.9634196935
 20
9.0454971642
 30
0.0
 10
12.9606161603
 20
9.0390941449
 30
0.0
 10
12.9577817381
 20
9.033006771
 30
0.0
 10
12.9549195515
 20
9.0272415241
 30
0.0
 10
12.9520325942
 20
9.0218045677
 30
0.0
 10
12.9491240292
 20
9.0167016468
 30
0.0
 10
12.9461968628
 20
9.0119381864
 30
0.0
 10
12.9432542566
 20
9.0075191609
 30
0.0
 10
12.9402991803
 20
9.0034492323
 30
0.0
 10
12.9373347302
 20
8.9997325845
 30
0.0
 10
12.9343637594
 20
8.9963731213
 30
0.0
 10
12.9313891985
 20
8.993374266
 30
0.0
 10
12.9284136756
 20
8.990739256
 30
0.0
 10
12.9254398487
 20
8.9884709208
 30
0.0
 10
12.9224700817
 20
8.986572121
 30
0.0
 10
12.9195068597
 20
8.9850454962
 30
0.0
 10
12.9165526903
 20
8.9838939958
 30
0.0
 10
12.9136106854
 20
8.9831203779
 30
0.0
 10
12.9106846833
 20
8.9827274497
 30
0.0
 10
12.9077795237
 20
8.9827169608
 30
0.0
 10
12.9049006503
 20
8.9830895779
 30
0.0
 10
12.9020534149
 20
8.9838440474
 30
0.0
 10
12.8992424677
 20
8.9849780663
 30
0.0
 10
12.8964713273
 20
8.9864883679
 30
0.0
 10
12.893742766
 20
8.9883717695
 30
0.0
 10
12.891058867
 20
8.9906250355
 30
0.0
 10
12.8884218539
 20
8.9932450384
 30
0.0
 10
12.8867495385
 20
8.9951728586
 30
0.0
 10
12.8859204758
 20
8.9961922265
 30
0.0
  0
SPLINE
  5
3FC
100
AcDbEntity
  8
0
100
AcDbSpline
 62
7
  6
CONTINUOUS
 70
0
 71
3
 72
19
 73
15
 74
0
 42
0.0000001
 43
0.0000001
 44
0.0000000001
 40
0.0
 40
0.0
 40
0.0
 40
0.0
 40
0.12732766
 40
0.2538196711
 40
0.3795264658
 40
0.5045235362
 40
0.5668075958
 40
0.6289556124
 40
0.6909843715
 40
0.7529118454
 40
0.8147570127
 40
0.8765397119
 40
0.9382804145
 40
1.0
 40
1.0
 40
1.0
 40
1.0
 10
11.6800734536
 20
10.2912337895
 30
0.0
 10
11.6800734536
 20
10.2977321694
 30
0.0
 10
11.6806939058
 20
10.3106952197
 30
0.0
 10
11.6834999774
 20
10.3298907285
 30
0.0
 10
11.6881524198
 20
10.3486030184
 30
0.0
 10
11.6935418957
 20
10.3636712698
 30
0.0
 10
11.6987250962
 20
10.3753032209
 30
0.0
 10
11.7030352876
 20
10.3837922899
 30
0.0
 10
11.7077622062
 20
10.3920353497
 30
0.0
 10
11.7128950935
 20
10.4000136603
 30
0.0
 10
11.7184221071
 20
10.4077086989
 30
0.0
 10
11.7243305098
 20
10.4151028427
 30
0.0
 10
11.7306064887
 20
10.4221787646
 30
0.0
 10
11.7350267244
 20
10.4266738289
 30
0.0
 10
11.7372923496
 20
10.428862254
 30
0.0
  0
SPLINE
  5
3FD
100
AcDbEntity
  8
0
100
AcDbSpline
 62
7
  6
CONTINUOUS
 70
0
 71
3
 72
51
 73
47
 74
0
 42
0.0000001
 43
0.0000001
 44
0.0000000001
 40
0.0
 40
0.0
 40
0.0
 40
0.0
 40
0.0095827463
 40
0.0187375453
 40
0.0274875597
 40
0.0358605042
 40
0.0515992022
 40
0.0590571657
 40
0.0663000511
 40
0.0733813575
 40
0.0803587357
 40
0.0872926334
 40
0.0942447635
 40
0.1012762959
 40
0.1084462244
 40
0.1158098391
 40
0.1234178081
 40
0.1313155773
 40
0.1395430347
 40
0.1481348761
 40
0.1571206855
 40
0.1665254173
 40
0.1763700628
 40
0.18667176
 40
0.1974445482
 40
0.208699712
 40
0.2204458877
 40
0.2326897716
 40
0.2454360642
 40
0.2724442737
 40
0.3014808857
 40
0.3325346082
 40
0.3655786899
 40
0.4005735813
 40
0.4374689503
 40
0.4762051313
 40
0.5167141583
 40
0.5589207926
 40
0.6027433451
 40
0.6480943
 40
0.6948808012
 40
0.7430051585
 40
0.7923655952
 40
0.8428564075
 40
0.8943674017
 40
1.0
 40
1.0
 40
1.0
 40
1.0
 10
12.9327065181
 20
9.6708361397
 30
0.0
 10
12.9334264858
 20
9.6715062151
 30
0.0
 10
12.9348657874
 20
9.6727832298
 30
0.0
 10
12.9370740198
 20
9.674541248
 30
0.0
 10
12.9392802716
 20
9.6760959401
 30
0.0
 10
12.9421569544
 20
9.6778594073
 30
0.0
 10
12.9450917329
 20
9.6792675437
 30
0.0
 10
12.9480577207
 20
9.6802594477
 30
0.0
 10
12.9502345738
 20
9.6807821446
 30
0.0
 10
12.9524014907
 20
9.6810958488
 30
0.0
 10
12.954556937
 20
9.6812002016
 30
0.0
 10
12.95669912
 20
9.6810948161
 30
0.0
 10
12.9588262225
 20
9.6807797979
 30
0.0
 10
12.9609364971
 20
9.6802555746
 30
0.0
 10
12.9630282828
 20
9.6795227015
 30
0.0
 10
12.9651001591
 20
9.6785821446
 30
0.0
 10
12.9671508423
 20
9.6774348468
 30
0.0
 10
12.9691791632
 20
9.6760818185
 30
0.0
 10
12.9711841344
 20
9.6745242184
 30
0.0
 10
12.9731647051
 20
9.6727630887
 30
0.0
 10
12.9751199116
 20
9.6707996134
 30
0.0
 10
12.9770488061
 20
9.668635032
 30
0.0
 10
12.9789503294
 20
9.6662705873
 30
0.0
 10
12.9808235375
 20
9.663707714
 30
0.0
 10
12.9826674005
 20
9.6609478868
 30
0.0
 10
12.9844808659
 20
9.6579926886
 30
0.0
 10
12.9862629685
 20
9.6548438675
 30
0.0
 10
12.9880126728
 20
9.6515032216
 30
0.0
 10
12.9903462039
 20
9.6467027264
 30
0.0
 10
12.9931635708
 20
9.6402248917
 30
0.0
 10
12.9963372341
 20
9.6318647624
 30
0.0
 10
12.9993585493
 20
9.6227932309
 30
0.0
 10
13.002220363
 20
9.6130315704
 30
0.0
 10
13.0049158581
 20
9.6026024902
 30
0.0
 10
13.0074385592
 20
9.591530488
 30
0.0
 10
13.0097823796
 20
9.5798416397
 30
0.0
 10
13.0119416783
 20
9.5675635695
 30
0.0
 10
13.0139112519
 20
9.5547253488
 30
0.0
 10
13.0156863449
 20
9.5413574071
 30
0.0
 10
13.017262662
 20
9.5274914576
 30
0.0
 10
13.0186364063
 20
9.5131604335
 30
0.0
 10
13.0198042732
 20
9.4983983754
 30
0.0
 10
13.0207634286
 20
9.4832403697
 30
0.0
 10
13.0215115643
 20
9.4677224696
 30
0.0
 10
13.0222312303
 20
9.446423194
 30
0.0
 10
13.0224383581
 20
9.4302932268
 30
0.0
 10
13.0224383581
 20
9.4194514414
 30
0.0
  0
SPLINE
  5
3FE
100
AcDbEntity
  8
0
100
AcDbSpline
 62
7
  6
CONTINUOUS
 70
0
 71
3
 72
51
 73
47
 74
0
 42
0.0000001
 43
0.0000001
 44
0.0000000001
 40
0.0
 40
0.0
 40
0.0
 40
0.0
 40
0.0095827463
 40
0.0187375453
 40
0.0274875597
 40
0.0358605042
 40
0.0515992022
 40
0.0590571657
 40
0.0663000511
 40
0.0733813575
 40
0.0803587357
 40
0.0872926334
 40
0.0942447635
 40
0.1012762959
 40
0.1084462244
 40
0.1158098391
 40
0.1234178081
 40
0.1313155773
 40
0.1395430347
 40
0.1481348761
 40
0.1571206855
 40
0.1665254173
 40
0.1763700628
 40
0.18667176
 40
0.1974445482
 40
0.208699712
 40
0.2204458877
 40
0.2326897716
 40
0.2454360642
 40
0.2724442737
 40
0.3014808857
 40
0.3325346082
 40
0.3655786899
 40
0.4005735813
 40
0.4374689503
 40
0.4762051313
 40
0.5167141583
 40
0.5589207926
 40
0.6027433451
 40
0.6480943
 40
0.6948808012
 40
0.7430051585
 40
0.7923655952
 40
0.8428564075
 40
0.8943674017
 40
1.0
 40
1.0
 40
1.0
 40
1.0
 10
12.9327065181
 20
7.7389843727
 30
0.0
 10
12.9334264858
 20
7.739654448
 30
0.0
 10
12.9348657874
 20
7.7409314628
 30
0.0
 10
12.9370740198
 20
7.7426894809
 30
0.0
 10
12.9392802716
 20
7.744244173
 30
0.0
 10
12.9421569544
 20
7.7460076403
 30
0.0
 10
12.9450917329
 20
7.7474157766
 30
0.0
 10
12.9480577207
 20
7.7484076806
 30
0.0
 10
12.9502345738
 20
7.7489303775
 30
0.0
 10
12.9524014907
 20
7.7492440817
 30
0.0
 10
12.954556937
 20
7.7493484346
 30
0.0
 10
12.95669912
 20
7.7492430491
 30
0.0
 10
12.9588262225
 20
7.7489280308
 30
0.0
 10
12.9609364971
 20
7.7484038076
 30
0.0
 10
12.9630282828
 20
7.7476709345
 30
0.0
 10
12.9651001591
 20
7.7467303776
 30
0.0
 10
12.9671508423
 20
7.7455830797
 30
0.0
 10
12.9691791632
 20
7.7442300515
 30
0.0
 10
12.9711841344
 20
7.7426724514
 30
0.0
 10
12.9731647051
 20
7.7409113217
 30
0.0
 10
12.9751199116
 20
7.7389478464
 30
0.0
 10
12.9770488061
 20
7.7367832649
 30
0.0
 10
12.9789503294
 20
7.7344188203
 30
0.0
 10
12.9808235375
 20
7.7318559469
 30
0.0
 10
12.9826674005
 20
7.7290961198
 30
0.0
 10
12.9844808659
 20
7.7261409216
 30
0.0
 10
12.9862629685
 20
7.7229921004
 30
0.0
 10
12.9880126728
 20
7.7196514545
 30
0.0
 10
12.9903462039
 20
7.7148509594
 30
0.0
 10
12.9931635708
 20
7.7083731247
 30
0.0
 10
12.9963372341
 20
7.7000129954
 30
0.0
 10
12.9993585493
 20
7.6909414638
 30
0.0
 10
13.002220363
 20
7.6811798034
 30
0.0
 10
13.0049158581
 20
7.6707507232
 30
0.0
 10
13.0074385592
 20
7.659678721
 30
0.0
 10
13.0097823796
 20
7.6479898726
 30
0.0
 10
13.0119416783
 20
7.6357118025
 30
0.0
 10
13.0139112519
 20
7.6228735818
 30
0.0
 10
13.0156863449
 20
7.60950564
 30
0.0
 10
13.017262662
 20
7.5956396905
 30
0.0
 10
13.0186364063
 20
7.5813086664
 30
0.0
 10
13.0198042732
 20
7.5665466083
 30
0.0
 10
13.0207634286
 20
7.5513886027
 30
0.0
 10
13.0215115643
 20
7.5358707026
 30
0.0
 10
13.0222312303
 20
7.514571427
 30
0.0
 10
13.0224383581
 20
7.4984414597
 30
0.0
 10
13.0224383581
 20
7.4875996744
 30
0.0
  0
SPLINE
  5
3FF
100
AcDbEntity
  8
0
100
AcDbSpline
 62
7
  6
CONTINUOUS
 70
0
 71
3
 72
50
 73
46
 74
0
 42
0.0000001
 43
0.0000001
 44
0.0000000001
 40
0.0
 40
0.0
 40
0.0
 40
0.0
 40
0.1050239331
 40
0.1562602796
 40
0.20649413
 40
0.2556138178
 40
0.3035123016
 40
0.3500865095
 40
0.3952376202
 40
0.4388717708
 40
0.4809005998
 40
0.5212418196
 40
0.559819858
 40
0.5965666787
 40
0.6314228916
 40
0.6643389314
 40
0.6952765637
 40
0.7242109474
 40
0.7511335003
 40
0.7638444382
 40
0.776058582
 40
0.7877814173
 40
0.7990202882
 40
0.8097847444
 40
0.8200870783
 40
0.8299422978
 40
0.8393688447
 40
0.8483889254
 40
0.8570287898
 40
0.8732860256
 40
0.8809912482
 40
0.8884706412
 40
0.895775332
 40
0.9029606832
 40
0.9100851195
 40
0.9172087069
 40
0.9243915357
 40
0.931692096
 40
0.9391658558
 40
0.9468640706
 40
0.9631037052
 40
0.9717333027
 40
0.980742311
 40
0.990157106
 40
1.0
 40
1.0
 40
1.0
 40
1.0
 10
11.0843265448
 20
11.1437493901
 30
0.0
 10
11.0953029969
 20
11.1429881705
 30
0.0
 10
11.1116205668
 20
11.1416367133
 30
0.0
 10
11.133136587
 20
11.1393815001
 30
0.0
 10
11.1488013986
 20
11.137501829
 30
0.0
 10
11.1640884078
 20
11.1354246845
 30
0.0
 10
11.1789603785
 20
11.133155154
 30
0.0
 10
11.193381112
 20
11.1306988226
 30
0.0
 10
11.2073155275
 20
11.1280617136
 30
0.0
 10
11.2207297308
 20
11.1252502951
 30
0.0
 10
11.2335911332
 20
11.1222714806
 30
0.0
 10
11.2458685226
 20
11.1191325935
 30
0.0
 10
11.2575321405
 20
11.1158413429
 30
0.0
 10
11.2685537651
 20
11.1124057935
 30
0.0
 10
11.2789068246
 20
11.1088343692
 30
0.0
 10
11.2885664358
 20
11.1051358049
 30
0.0
 10
11.2975096162
 20
11.1013190643
 30
0.0
 10
11.3057148924
 20
11.0973933657
 30
0.0
 10
11.312037967
 20
11.0939763092
 30
0.0
 10
11.3166997507
 20
11.0911869968
 30
0.0
 10
11.3199321502
 20
11.0891138527
 30
0.0
 10
11.3229660688
 20
11.0870206455
 30
0.0
 10
11.3257996995
 20
11.0849085561
 30
0.0
 10
11.3284313218
 20
11.0827787681
 30
0.0
 10
11.3308594045
 20
11.0806325614
 30
0.0
 10
11.3330824651
 20
11.0784710515
 30
0.0
 10
11.3350990914
 20
11.0762955316
 30
0.0
 10
11.3369082641
 20
11.0741068559
 30
0.0
 10
11.3389991133
 20
11.0712321078
 30
0.0
 10
11.3407322954
 20
11.0682719431
 30
0.0
 10
11.3420449198
 20
11.0652473164
 30
0.0
 10
11.3427991353
 20
11.0630120141
 30
0.0
 10
11.3433393774
 20
11.060771461
 30
0.0
 10
11.3436650456
 20
11.0585271998
 30
0.0
 10
11.3437757119
 20
11.0562810458
 30
0.0
 10
11.343671098
 20
11.054034865
 30
0.0
 10
11.3433514705
 20
11.0517905258
 30
0.0
 10
11.3428172567
 20
11.0495498453
 30
0.0
 10
11.3420690433
 20
11.0473143719
 30
0.0
 10
11.3407646143
 20
11.0442896434
 30
0.0
 10
11.3390393475
 20
11.04132903
 30
0.0
 10
11.3369561269
 20
11.0384537825
 30
0.0
 10
11.335152802
 20
11.0362647492
 30
0.0
 10
11.3331420375
 20
11.0340888911
 30
0.0
 10
11.3316968037
 20
11.0326797343
 30
0.0
 10
11.3309419236
 20
11.0319772335
 30
0.0
  0
SPLINE
  5
400
100
AcDbEntity
  8
0
100
AcDbSpline
 62
7
  6
CONTINUOUS
 70
0
 71
3
 72
55
 73
51
 74
0
 42
0.0000001
 43
0.0000001
 44
0.0000000001
 40
0.0
 40
0.0
 40
0.0
 40
0.0
 40
0.0452109687
 40
0.0910029622
 40
0.1371914766
 40
0.183589895
 40
0.230010561
 40
0.2762656883
 40
0.322168346
 40
0.3675334179
 40
0.4121785764
 40
0.4559252635
 40
0.4985996886
 40
0.5400338512
 40
0.5800666035
 40
0.6185447727
 40
0.6553243753
 40
0.6902719719
 40
0.707020832
 40
0.7232673264
 40
0.7389984202
 40
0.7542022618
 40
0.7688679477
 40
0.7829859613
 40
0.7965479615
 40
0.8095472735
 40
0.8219787272
 40
0.8338392214
 40
0.8451276512
 40
0.8558455854
 40
0.8659973431
 40
0.8755908472
 40
0.8846379397
 40
0.8931554961
 40
0.9011660797
 40
0.9086993705
 40
0.9157931534
 40
0.9224948583
 40
0.9288624001
 40
0.9349648604
 40
0.9408817448
 40
0.946701049
 40
0.9525156008
 40
0.9584184725
 40
0.9644983383
 40
0.9708356807
 40
0.9775006914
 40
0.9845524035
 40
0.9920392732
 40
1.0
 40
1.0
 40
1.0
 40
1.0
 10
13.0224383581
 20
7.4875996744
 30
0.0
 10
13.0224383581
 20
7.4801374409
 30
0.0
 10
13.0223052715
 20
7.4651167717
 30
0.0
 10
13.0217184428
 20
7.4424794138
 30
0.0
 10
13.0207453563
 20
7.4196591487
 30
0.0
 10
13.0193901823
 20
7.3967544706
 30
0.0
 10
13.0176587552
 20
7.3738641281
 30
0.0
 10
13.0155585471
 20
7.3510868351
 30
0.0
 10
13.0130986368
 20
7.3285208069
 30
0.0
 10
13.0102896701
 20
7.3062633416
 30
0.0
 10
13.0071438151
 20
7.2844103937
 30
0.0
 10
13.0036747107
 20
7.2630561556
 30
0.0
 10
12.9998974089
 20
7.2422926461
 30
0.0
 10
12.9958283128
 20
7.2222092988
 30
0.0
 10
12.9914851034
 20
7.2028925867
 30
0.0
 10
12.98688668
 20
7.1844255557
 30
0.0
 10
12.9820530269
 20
7.1668877132
 30
0.0
 10
12.9777883572
 20
7.1529186288
 30
0.0
 10
12.9742654549
 20
7.1422716896
 30
0.0
 10
12.9716151887
 20
7.1346780265
 30
0.0
 10
12.9689221828
 20
7.1273705827
 30
0.0
 10
12.9661893874
 20
7.120357192
 30
0.0
 10
12.9634196935
 20
7.1136453971
 30
0.0
 10
12.9606161603
 20
7.1072423778
 30
0.0
 10
12.9577817381
 20
7.101155004
 30
0.0
 10
12.9549195515
 20
7.095389757
 30
0.0
 10
12.9520325942
 20
7.0899528006
 30
0.0
 10
12.9491240292
 20
7.0848498798
 30
0.0
 10
12.9461968628
 20
7.0800864194
 30
0.0
 10
12.9432542566
 20
7.0756673939
 30
0.0
 10
12.9402991803
 20
7.0715974652
 30
0.0
 10
12.9373347302
 20
7.0678808174
 30
0.0
 10
12.9343637594
 20
7.0645213542
 30
0.0
 10
12.9313891985
 20
7.0615224989
 30
0.0
 10
12.9284136756
 20
7.0588874889
 30
0.0
 10
12.9254398487
 20
7.0566191537
 30
0.0
 10
12.9224700817
 20
7.054720354
 30
0.0
 10
12.9195068597
 20
7.0531937292
 30
0.0
 10
12.9165526903
 20
7.0520422288
 30
0.0
 10
12.9136106854
 20
7.0512686108
 30
0.0
 10
12.9106846833
 20
7.0508756827
 30
0.0
 10
12.9077795237
 20
7.0508651938
 30
0.0
 10
12.9049006503
 20
7.0512378108
 30
0.0
 10
12.9020534149
 20
7.0519922803
 30
0.0
 10
12.8992424677
 20
7.0531262992
 30
0.0
 10
12.8964713273
 20
7.0546366008
 30
0.0
 10
12.893742766
 20
7.0565200025
 30
0.0
 10
12.891058867
 20
7.0587732684
 30
0.0
 10
12.8884218539
 20
7.0613932714
 30
0.0
 10
12.8867495385
 20
7.0633210916
 30
0.0
 10
12.8859204758
 20
7.0643404595
 30
0.0
  0
SPLINE
  5
401
100
AcDbEntity
  8
0
100
AcDbSpline
 62
7
  6
CONTINUOUS
 70
0
 71
3
 72
38
 73
34
 74
0
 42
0.0000001
 43
0.0000001
 44
0.0000000001
 40
0.0
 40
0.0
 40
0.0
 40
0.0
 40
0.0793064821
 40
0.1598474479
 40
0.2408032634
 40
0.3213470407
 40
0.4006577068
 40
0.4395992875
 40
0.4779327909
 40
0.5155620033
 40
0.5523931821
 40
0.5883353883
 40
0.6233008387
 40
0.6572053209
 40
0.6899687095
 40
0.7215153726
 40
0.7517746598
 40
0.7806815247
 40
0.8081773309
 40
0.8342106198
 40
0.8587381389
 40
0.8817262454
 40
0.9031528256
 40
0.9230096378
 40
0.9323525466
 40
0.9413081645
 40
0.9498810056
 40
0.9580775553
 40
0.9659061899
 40
0.9733775982
 40
0.9805052681
 40
0.987305557
 40
1.0
 40
1.0
 40
1.0
 40
1.0
 10
11.0664680454
 20
11.0598505173
 30
0.0
 10
11.0568919728
 20
11.0605146202
 30
0.0
 10
11.0375702748
 20
11.0615720923
 30
0.0
 10
11.0084312965
 20
11.0623613674
 30
0.0
 10
10.9791316265
 20
11.0623624876
 30
0.0
 10
10.9499916572
 20
11.0615754101
 30
0.0
 10
10.9259621872
 20
11.0602622999
 30
0.0
 10
10.90706401
 20
11.0588172037
 30
0.0
 10
10.8932134748
 20
11.0575509374
 30
0.0
 10
10.8796380093
 20
11.0560992373
 30
0.0
 10
10.8663747079
 20
11.054466086
 30
0.0
 10
10.8534598398
 20
11.052655997
 30
0.0
 10
10.8409287077
 20
11.050673957
 30
0.0
 10
10.8288155543
 20
11.0485254234
 30
0.0
 10
10.8171534531
 20
11.0462163367
 30
0.0
 10
10.8059742209
 20
11.0437530751
 30
0.0
 10
10.7953083341
 20
11.041142437
 30
0.0
 10
10.7851848275
 20
11.0383916169
 30
0.0
 10
10.7756311922
 20
11.0355082177
 30
0.0
 10
10.7666732827
 20
11.0325001859
 30
0.0
 10
10.7583352785
 20
11.0293757835
 30
0.0
 10
10.750639435
 20
11.0261435107
 30
0.0
 10
10.7436064529
 20
11.0228121497
 30
0.0
 10
10.738208386
 20
11.0199045638
 30
0.0
 10
10.7342479382
 20
11.017527706
 30
0.0
 10
10.7315155657
 20
11.0157622475
 30
0.0
 10
10.728962342
 20
11.0139787898
 30
0.0
 10
10.7265899442
 20
11.0121785244
 30
0.0
 10
10.7243999429
 20
11.0103625698
 30
0.0
 10
10.7223939124
 20
11.0085321207
 30
0.0
 10
10.7205728963
 20
11.0066880536
 30
0.0
 10
10.7184429521
 20
11.0042689899
 30
0.0
 10
10.7170470765
 20
11.0023544704
 30
0.0
 10
10.7162414782
 20
11.001046089
 30
0.0
  0
SPLINE
  5
402
100
AcDbEntity
  8
0
100
AcDbSpline
 62
4
  6
CONTINUOUS
 70
0
 71
3
 72
397
 73
393
 74
0
 42
0.0000001
 43
0.0000001
 44
0.0000000001
 40
0.0
 40
0.0
 40
0.0
 40
0.0
 40
0.015625
 40
0.0234375
 40
0.03125
 40
0.0390625
 40
0.04296875
 40
0.046875
 40
0.05078125
 40
0.0546875
 40
0.056640625
 40
0.05859375
 40
0.0595703125
 40
0.060546875
 40
0.0615234375
 40
0.0620117188
 40
0.0622558594
 40
0.0625
 40
0.0627441406
 40
0.0629882812
 40
0.0634765625
 40
0.064453125
 40
0.0654296875
 40
0.06640625
 40
0.068359375
 40
0.0703125
 40
0.07421875
 40
0.078125
 40
0.08203125
 40
0.0859375
 40
0.09375
 40
0.1015625
 40
0.10546875
 40
0.109375
 40
0.11328125
 40
0.1171875
 40
0.119140625
 40
0.12109375
 40
0.1220703125
 40
0.123046875
 40
0.1240234375
 40
0.1245117188
 40
0.1247558594
 40
0.125
 40
0.1252441406
 40
0.1254882812
 40
0.1259765625
 40
0.126953125
 40
0.1279296875
 40
0.12890625
 40
0.130859375
 40
0.1328125
 40
0.13671875
 40
0.140625
 40
0.14453125
 40
0.1484375
 40
0.15625
 40
0.1640625
 40
0.16796875
 40
0.171875
 40
0.17578125
 40
0.1796875
 40
0.181640625
 40
0.18359375
 40
0.1845703125
 40
0.185546875
 40
0.1865234375
 40
0.1870117188
 40
0.1872558594
 40
0.1875
 40
0.1877441406
 40
0.1879882812
 40
0.1884765625
 40
0.189453125
 40
0.1904296875
 40
0.19140625
 40
0.193359375
 40
0.1953125
 40
0.19921875
 40
0.203125
 40
0.20703125
 40
0.2109375
 40
0.21875
 40
0.2265625
 40
0.23046875
 40
0.234375
 40
0.23828125
 40
0.2421875
 40
0.244140625
 40
0.24609375
 40
0.2470703125
 40
0.248046875
 40
0.2490234375
 40
0.2495117188
 40
0.2497558594
 40
0.25
 40
0.2502441406
 40
0.2504882812
 40
0.2509765625
 40
0.251953125
 40
0.2529296875
 40
0.25390625
 40
0.255859375
 40
0.2578125
 40
0.26171875
 40
0.265625
 40
0.26953125
 40
0.2734375
 40
0.28125
 40
0.2890625
 40
0.29296875
 40
0.296875
 40
0.30078125
 40
0.3046875
 40
0.306640625
 40
0.30859375
 40
0.3095703125
 40
0.310546875
 40
0.3115234375
 40
0.3120117188
 40
0.3122558594
 40
0.3125
 40
0.3127441406
 40
0.3129882812
 40
0.3134765625
 40
0.314453125
 40
0.3154296875
 40
0.31640625
 40
0.318359375
 40
0.3203125
 40
0.32421875
 40
0.328125
 40
0.33203125
 40
0.3359375
 40
0.34375
 40
0.3515625
 40
0.35546875
 40
0.359375
 40
0.36328125
 40
0.3671875
 40
0.369140625
 40
0.37109375
 40
0.3720703125
 40
0.373046875
 40
0.3740234375
 40
0.3745117188
 40
0.3747558594
 40
0.375
 40
0.3752441406
 40
0.3754882812
 40
0.3759765625
 40
0.376953125
 40
0.3779296875
 40
0.37890625
 40
0.380859375
 40
0.3828125
 40
0.38671875
 40
0.390625
 40
0.39453125
 40
0.3984375
 40
0.40625
 40
0.4140625
 40
0.41796875
 40
0.421875
 40
0.42578125
 40
0.4296875
 40
0.431640625
 40
0.43359375
 40
0.4345703125
 40
0.435546875
 40
0.4365234375
 40
0.4370117188
 40
0.4372558594
 40
0.4375
 40
0.4377441406
 40
0.4379882812
 40
0.4384765625
 40
0.439453125
 40
0.4404296875
 40
0.44140625
 40
0.443359375
 40
0.4453125
 40
0.44921875
 40
0.453125
 40
0.45703125
 40
0.4609375
 40
0.46875
 40
0.4765625
 40
0.48046875
 40
0.484375
 40
0.48828125
 40
0.4921875
 40
0.494140625
 40
0.49609375
 40
0.4970703125
 40
0.498046875
 40
0.4990234375
 40
0.4995117188
 40
0.4997558594
 40
0.5
 40
0.5002441406
 40
0.5004882812
 40
0.5009765625
 40
0.501953125
 40
0.5029296875
 40
0.50390625
 40
0.505859375
 40
0.5078125
 40
0.51171875
 40
0.515625
 40
0.51953125
 40
0.5234375
 40
0.53125
 40
0.5390625
 40
0.54296875
 40
0.546875
 40
0.55078125
 40
0.5546875
 40
0.556640625
 40
0.55859375
 40
0.5595703125
 40
0.560546875
 40
0.5615234375
 40
0.5620117188
 40
0.5622558594
 40
0.5625
 40
0.5627441406
 40
0.5629882812
 40
0.5634765625
 40
0.564453125
 40
0.5654296875
 40
0.56640625
 40
0.568359375
 40
0.5703125
 40
0.57421875
 40
0.578125
 40
0.58203125
 40
0.5859375
 40
0.59375
 40
0.6015625
 40
0.60546875
 40
0.609375
 40
0.61328125
 40
0.6171875
 40
0.619140625
 40
0.62109375
 40
0.6220703125
 40
0.623046875
 40
0.6240234375
 40
0.6245117188
 40
0.625
 40
0.6254882812
 40
0.6259765625
 40
0.626953125
 40
0.6279296875
 40
0.62890625
 40
0.630859375
 40
0.6328125
 40
0.63671875
 40
0.640625
 40
0.64453125
 40
0.6484375
 40
0.65625
 40
0.6640625
 40
0.66796875
 40
0.671875
 40
0.67578125
 40
0.6796875
 40
0.681640625
 40
0.68359375
 40
0.6845703125
 40
0.685546875
 40
0.6865234375
 40
0.6870117188
 40
0.6872558594
 40
0.6875
 40
0.6877441406
 40
0.6879882812
 40
0.6884765625
 40
0.689453125
 40
0.6904296875
 40
0.69140625
 40
0.693359375
 40
0.6953125
 40
0.69921875
 40
0.703125
 40
0.70703125
 40
0.7109375
 40
0.71875
 40
0.7265625
 40
0.73046875
 40
0.734375
 40
0.73828125
 40
0.7421875
 40
0.744140625
 40
0.74609375
 40
0.7470703125
 40
0.748046875
 40
0.7490234375
 40
0.7495117188
 40
0.7497558594
 40
0.75
 40
0.7502441406
 40
0.7504882812
 40
0.7509765625
 40
0.751953125
 40
0.7529296875
 40
0.75390625
 40
0.755859375
 40
0.7578125
 40
0.76171875
 40
0.765625
 40
0.76953125
 40
0.7734375
 40
0.78125
 40
0.7890625
 40
0.79296875
 40
0.796875
 40
0.80078125
 40
0.8046875
 40
0.806640625
 40
0.80859375
 40
0.8095703125
 40
0.810546875
 40
0.8115234375
 40
0.8120117188
 40
0.8125
 40
0.8129882812
 40
0.8134765625
 40
0.814453125
 40
0.8154296875
 40
0.81640625
 40
0.818359375
 40
0.8203125
 40
0.82421875
 40
0.828125
 40
0.83203125
 40
0.8359375
 40
0.84375
 40
0.8515625
 40
0.85546875
 40
0.859375
 40
0.86328125
 40
0.8671875
 40
0.869140625
 40
0.87109375
 40
0.8720703125
 40
0.873046875
 40
0.8740234375
 40
0.8745117188
 40
0.875
 40
0.8754882812
 40
0.8759765625
 40
0.876953125
 40
0.8779296875
 40
0.87890625
 40
0.880859375
 40
0.8828125
 40
0.88671875
 40
0.890625
 40
0.89453125
 40
0.8984375
 40
0.90625
 40
0.9140625
 40
0.91796875
 40
0.921875
 40
0.92578125
 40
0.9296875
 40
0.931640625
 40
0.93359375
 40
0.9345703125
 40
0.935546875
 40
0.9365234375
 40
0.9370117188
 40
0.9372558594
 40
0.9375
 40
0.9377441406
 40
0.9379882812
 40
0.9384765625
 40
0.939453125
 40
0.9404296875
 40
0.94140625
 40
0.943359375
 40
0.9453125
 40
0.94921875
 40
0.953125
 40
0.95703125
 40
0.9609375
 40
0.96875
 40
0.9765625
 40
0.984375
 40
1.0
 40
1.0
 40
1.0
 40
1.0
 10
9.3821358596
 20
7.4519760085
 30
0.0
 10
9.3863134422
 20
7.4520959077
 30
0.0
 10
9.392579816
 20
7.4522757566
 30
0.0
 10
9.4009349811
 20
7.452515555
 30
0.0
 10
9.4072013549
 20
7.4526954039
 30
0.0
 10
9.4124233332
 20
7.4528452777
 30
0.0
 10
9.4166009157
 20
7.4529651773
 30
0.0
 10
9.4197341028
 20
7.4530551004
 30
0.0
 10
9.4228672888
 20
7.4531450298
 30
0.0
 10
9.4254782809
 20
7.4532199513
 30
0.0
 10
9.427567066
 20
7.4532799325
 30
0.0
 10
9.4288725763
 20
7.4533173206
 30
0.0
 10
9.4299169397
 20
7.4533474604
 30
0.0
 10
9.4307003349
 20
7.4533694374
 30
0.0
 10
9.4313527741
 20
7.4533897489
 30
0.0
 10
9.4318102471
 20
7.4534000473
 30
0.0
 10
9.4320704649
 20
7.4534120522
 30
0.0
 10
9.4322689956
 20
7.4534038156
 30
0.0
 10
9.4324546544
 20
7.4534614802
 30
0.0
 10
9.4327066892
 20
7.4535153792
 30
0.0
 10
9.4331456583
 20
7.4536204126
 30
0.0
 10
9.4337738507
 20
7.4537648609
 30
0.0
 10
9.4345272135
 20
7.4539405957
 30
0.0
 10
9.4355318606
 20
7.4541740715
 30
0.0
 10
9.4367876136
 20
7.4544662029
 30
0.0
 10
9.4387968496
 20
7.4549334531
 30
0.0
 10
9.4413083839
 20
7.4555175707
 30
0.0
 10
9.4443222297
 20
7.4562184882
 30
0.0
 10
9.4473360742
 20
7.4569194121
 30
0.0
 10
9.4513545341
 20
7.4578539751
 30
0.0
 10
9.4563776087
 20
7.4590221796
 30
0.0
 10
9.4614006834
 20
7.4601903836
 30
0.0
 10
9.465419143
 20
7.4611249474
 30
0.0
 10
9.4684329883
 20
7.4618258687
 30
0.0
 10
9.4714468312
 20
7.462526796
 30
0.0
 10
9.4739583745
 20
7.4631108833
 30
0.0
 10
9.4759675922
 20
7.4635781952
 30
0.0
 10
9.4772233917
 20
7.4638701694
 30
0.0
 10
9.4782279434
 20
7.464103968
 30
0.0
 10
9.4789815978
 20
7.4642787166
 30
0.0
 10
9.4796088777
 20
7.4644262504
 30
0.0
 10
9.4800494757
 20
7.4645257757
 30
0.0
 10
9.4802989007
 20
7.4645885
 30
0.0
 10
9.4804925761
 20
7.4646190562
 30
0.0
 10
9.4806609977
 20
7.4647126341
 30
0.0
 10
9.4808943686
 20
7.4648154219
 30
0.0
 10
9.4812986635
 20
7.4650055428
 30
0.0
 10
9.4818783733
 20
7.4652717892
 30
0.0
 10
9.4825731067
 20
7.465593577
 30
0.0
 10
9.4834997387
 20
7.4660218268
 30
0.0
 10
9.4846579189
 20
7.4665574131
 30
0.0
 10
9.4865110685
 20
7.4674141981
 30
0.0
 10
9.4888274844
 20
7.4684852319
 30
0.0
 10
9.4916071926
 20
7.4697704499
 30
0.0
 10
9.4943868984
 20
7.4710556739
 30
0.0
 10
9.4980931736
 20
7.4727693038
 30
0.0
 10
9.5027260173
 20
7.474911342
 30
0.0
 10
9.5073588612
 20
7.4770533797
 30
0.0
 10
9.511065136
 20
7.4787670104
 30
0.0
 10
9.5138448429
 20
7.480052232
 30
0.0
 10
9.5166245468
 20
7.4813374594
 30
0.0
 10
9.5189409763
 20
7.4824084638
 30
0.0
 10
9.5207940983
 20
7.4832653086
 30
0.0
 10
9.5219523487
 20
7.4838007428
 30
0.0
 10
9.5228788364
 20
7.4842293049
 30
0.0
 10
9.5235740106
 20
7.4845501384
 30
0.0
 10
9.5241523413
 20
7.4848193705
 30
0.0
 10
9.5245590982
 20
7.4850041615
 30
0.0
 10
9.5247885244
 20
7.4851154891
 30
0.0
 10
9.5249690628
 20
7.4851828356
 30
0.0
 10
9.5251172295
 20
7.4853119123
 30
0.0
 10
9.5253260766
 20
7.4854624824
 30
0.0
 10
9.5256862982
 20
7.4857360123
 30
0.0
 10
9.526203651
 20
7.4861215244
 30
0.0
 10
9.526823297
 20
7.4865863839
 30
0.0
 10
9.5276499029
 20
7.4872054124
 30
0.0
 10
9.5286830195
 20
7.4879794665
 30
0.0
 10
9.5303360847
 20
7.489217803
 30
0.0
 10
9.5324023892
 20
7.4907657752
 30
0.0
 10
9.5348819662
 20
7.4926233197
 30
0.0
 10
9.5373615401
 20
7.4944808701
 30
0.0
 10
9.5406676397
 20
7.4969576019
 30
0.0
 10
9.5448002638
 20
7.5000535175
 30
0.0
 10
9.5489328883
 20
7.5031494325
 30
0.0
 10
9.5522389873
 20
7.5056261651
 30
0.0
 10
9.5547185629
 20
7.5074837133
 30
0.0
 10
9.5571981335
 20
7.509341266
 30
0.0
 10
9.5592644579
 20
7.5108892126
 30
0.0
 10
9.5609174827
 20
7.5121276013
 30
0.0
 10
9.5619507021
 20
7.5129015227
 30
0.0
 10
9.5627770969
 20
7.5135208236
 30
0.0
 10
9.5633973877
 20
7.5139848507
 30
0.0
 10
9.5639127233
 20
7.5143729671
 30
0.0
 10
9.5642765458
 20
7.5146418478
 30
0.0
 10
9.5644796234
 20
7.5147998672
 30
0.0
 10
9.5646455125
 20
7.5149060623
 30
0.0
 10
9.5647594884
 20
7.5150593483
 30
0.0
 10
9.5649295643
 20
7.5152473038
 30
0.0
 10
9.5652187602
 20
7.5155838791
 30
0.0
 10
9.5656363081
 20
7.5160606998
 30
0.0
 10
9.5661354776
 20
7.5166345972
 30
0.0
 10
9.5668016963
 20
7.5173991956
 30
0.0
 10
9.5676342439
 20
7.5183551485
 30
0.0
 10
9.5689664463
 20
7.5198845585
 30
0.0
 10
9.570631656
 20
7.5217963603
 30
0.0
 10
9.5726299262
 20
7.5240905057
 30
0.0
 10
9.5746281914
 20
7.5263846556
 30
0.0
 10
9.5772925468
 20
7.5294435205
 30
0.0
 10
9.5806229903
 20
7.5332671023
 30
0.0
 10
9.5839534343
 20
7.5370906836
 30
0.0
 10
9.586617789
 20
7.5401495492
 30
0.0
 10
9.5886160564
 20
7.5424436973
 30
0.0
 10
9.5906143185
 20
7.5447378493
 30
0.0
 10
9.5922795533
 20
7.5466496305
 30
0.0
 10
9.5936117044
 20
7.5481790826
 30
0.0
 10
9.5944443825
 20
7.5491349284
 30
0.0
 10
9.5951103334
 20
7.5498997465
 30
0.0
 10
9.5956103212
 20
7.5504729726
 30
0.0
 10
9.5960253087
 20
7.550951894
 30
0.0
 10
9.5963190753
 20
7.5512847191
 30
0.0
 10
9.5964818278
 20
7.5514786833
 30
0.0
 10
9.5966182989
 20
7.5516135128
 30
0.0
 10
9.5966997
 20
7.5517890275
 30
0.0
 10
9.596827444
 20
7.5520088556
 30
0.0
 10
9.597042046
 20
7.552400167
 30
0.0
 10
9.5973532994
 20
7.5529557263
 30
0.0
 10
9.5977248006
 20
7.5536238771
 30
0.0
 10
9.5982208352
 20
7.5545142281
 30
0.0
 10
9.5988406388
 20
7.5556273438
 30
0.0
 10
9.5998324586
 20
7.55740823
 30
0.0
 10
9.6010721873
 20
7.5596343716
 30
0.0
 10
9.6025598815
 20
7.5623057271
 30
0.0
 10
9.6040475704
 20
7.5649770864
 30
0.0
 10
9.6060311575
 20
7.5685388975
 30
0.0
 10
9.6085106406
 20
7.5729911618
 30
0.0
 10
9.6109901243
 20
7.5774434259
 30
0.0
 10
9.6129737106
 20
7.5810052374
 30
0.0
 10
9.6144614018
 20
7.5836765954
 30
0.0
 10
9.6159490872
 20
7.5863479561
 30
0.0
 10
9.6171888433
 20
7.5885740812
 30
0.0
 10
9.6181806073
 20
7.5903550011
 30
0.0
 10
9.6188005528
 20
7.591468031
 30
0.0
 10
9.6192962963
 20
7.5923585582
 30
0.0
 10
9.6196686868
 20
7.5930261706
 30
0.0
 10
9.619977158
 20
7.5935834146
 30
0.0
 10
9.6201967266
 20
7.5939717184
 30
0.0
 10
9.6203165127
 20
7.5941963654
 30
0.0
 10
9.6204223579
 20
7.5943570781
 30
0.0
 10
9.6204670213
 20
7.5945475014
 30
0.0
 10
9.6205479135
 20
7.5947910356
 30
0.0
 10
9.6206795316
 20
7.5952220491
 30
0.0
 10
9.6208727558
 20
7.5958352583
 30
0.0
 10
9.6211023999
 20
7.5965721897
 30
0.0
 10
9.6214093691
 20
7.5975543876
 30
0.0
 10
9.6217928145
 20
7.5987822643
 30
0.0
 10
9.6224064759
 20
7.6007467946
 30
0.0
 10
9.6231735017
 20
7.6032024823
 30
0.0
 10
9.6240939544
 20
7.606149297
 30
0.0
 10
9.6250144013
 20
7.6090961144
 30
0.0
 10
9.6262416659
 20
7.6130252034
 30
0.0
 10
9.6277757459
 20
7.617936565
 30
0.0
 10
9.6293098264
 20
7.6228479264
 30
0.0
 10
9.6305370901
 20
7.6267770157
 30
0.0
 10
9.6314575395
 20
7.6297238321
 30
0.0
 10
9.6323779828
 20
7.6326706508
 30
0.0
 10
9.6331450381
 20
7.635126326
 30
0.0
 10
9.6337586391
 20
7.6370908819
 30
0.0
 10
9.6341422384
 20
7.6383186934
 30
0.0
 10
9.6344488918
 20
7.639301025
 30
0.0
 10
9.6346795007
 20
7.6400375481
 30
0.0
 10
9.6348697062
 20
7.6406520349
 30
0.0
 10
9.6350067132
 20
7.6410807675
 30
0.0
 10
9.635078971
 20
7.6413279563
 30
0.0
 10
9.6351501565
 20
7.641507154
 30
0.0
 10
9.6351563893
 20
7.6417100282
 30
0.0
 10
9.635187356
 20
7.6419722685
 30
0.0
 10
9.6352309917
 20
7.6424350369
 30
0.0
 10
9.6352988472
 20
7.6430941229
 30
0.0
 10
9.6353779116
 20
7.6438858872
 30
0.0
 10
9.6354841559
 20
7.6449412721
 30
0.0
 10
9.6356166787
 20
7.6462606063
 30
0.0
 10
9.6358288731
 20
7.6483714834
 30
0.0
 10
9.6360940619
 20
7.6510100995
 30
0.0
 10
9.6364123118
 20
7.6541764303
 30
0.0
 10
9.6367305554
 20
7.6573427635
 30
0.0
 10
9.6371548824
 20
7.6615645402
 30
0.0
 10
9.6376852904
 20
7.6668417614
 30
0.0
 10
9.6382156989
 20
7.6721189825
 30
0.0
 10
9.638640025
 20
7.6763407594
 30
0.0
 10
9.6389582713
 20
7.6795070921
 30
0.0
 10
9.6392765111
 20
7.6826734246
 30
0.0
 10
9.6395417311
 20
7.6853120355
 30
0.0
 10
9.639753862
 20
7.6874229233
 30
0.0
 10
9.6398865464
 20
7.6887422302
 30
0.0
 10
9.6399924591
 20
7.6897976712
 30
0.0
 10
9.6400725364
 20
7.6905892641
 30
0.0
 10
9.6401372229
 20
7.6912488862
 30
0.0
 10
9.6401865158
 20
7.6917106976
 30
0.0
 10
9.6402084182
 20
7.6919744712
 30
0.0
 10
9.6402424934
 20
7.6921726356
 30
0.0
 10
9.6402091078
 20
7.6923695228
 30
0.0
 10
9.6401881248
 20
7.6926324845
 30
0.0
 10
9.6401404409
 20
7.6930924601
 30
0.0
 10
9.640078053
 20
7.6937496765
 30
0.0
 10
9.640000734
 20
7.6945382898
 30
0.0
 10
9.6398984991
 20
7.6955897903
 30
0.0
 10
9.6397704119
 20
7.6969041605
 30
0.0
 10
9.6395656365
 20
7.6990071559
 30
0.0
 10
9.6393096109
 20
7.701635899
 30
0.0
 10
9.6390024043
 20
7.7047903912
 30
0.0
 10
9.6386951913
 20
7.7079448833
 30
0.0
 10
9.6382855762
 20
7.7121508728
 30
0.0
 10
9.6377735565
 20
7.7174083596
 30
0.0
 10
9.6372615373
 20
7.7226658465
 30
0.0
 10
9.6368519213
 20
7.726871836
 30
0.0
 10
9.636544711
 20
7.7300263283
 30
0.0
 10
9.6362374944
 20
7.7331808198
 30
0.0
 10
9.6359815
 20
7.7358095652
 30
0.0
 10
9.635776661
 20
7.7379125559
 30
0.0
 10
9.6356487355
 20
7.7392269378
 30
0.0
 10
9.6355461688
 20
7.7402784142
 30
0.0
 10
9.6354698632
 20
7.7410671012
 30
0.0
 10
9.6354043049
 20
7.7417240869
 30
0.0
 10
9.6353622806
 20
7.7421844744
 30
0.0
 10
9.6353322296
 20
7.7424467762
 30
0.0
 10
9.6353266981
 20
7.7426456906
 30
0.0
 10
9.635256158
 20
7.7428362412
 30
0.0
 10
9.6351847803
 20
7.7430932262
 30
0.0
 10
9.6350493043
 20
7.7435415906
 30
0.0
 10
9.6348612906
 20
7.7441828218
 30
0.0
 10
9.63463331
 20
7.744951995
 30
0.0
 10
9.6343301617
 20
7.7459776656
 30
0.0
 10
9.6339509435
 20
7.7472597174
 30
0.0
 10
9.6333443524
 20
7.7493110207
 30
0.0
 10
9.6325860592
 20
7.7518751428
 30
0.0
 10
9.6316761308
 20
7.7549520923
 30
0.0
 10
9.6307661961
 20
7.7580290411
 30
0.0
 10
9.6295529519
 20
7.7621316396
 30
0.0
 10
9.6280363962
 20
7.7672598878
 30
0.0
 10
9.6265198401
 20
7.7723881358
 30
0.0
 10
9.6253065967
 20
7.7764907347
 30
0.0
 10
9.6243966598
 20
7.7795676824
 30
0.0
 10
9.6234867395
 20
7.7826446358
 30
0.0
 10
9.622728421
 20
7.785208746
 30
0.0
 10
9.6221218816
 20
7.7872600736
 30
0.0
 10
9.6217425318
 20
7.7885420634
 30
0.0
 10
9.6214396536
 20
7.7895678614
 30
0.0
 10
9.6212108478
 20
7.7903366453
 30
0.0
 10
9.6210254159
 20
7.7909790947
 30
0.0
 10
9.6208653189
 20
7.7914890257
 30
0.0
 10
9.6207773569
 20
7.791882482
 30
0.0
 10
9.6205668277
 20
7.79223392
 30
0.0
 10
9.6203289365
 20
7.7927171815
 30
0.0
 10
9.6200168831
 20
7.7933162225
 30
0.0
 10
9.6196487065
 20
7.7940372273
 30
0.0
 10
9.6191556083
 20
7.7949978141
 30
0.0
 10
9.6185399875
 20
7.7961988054
 30
0.0
 10
9.6175545739
 20
7.7981202475
 30
0.0
 10
9.6163229512
 20
7.8005220994
 30
0.0
 10
9.6148449421
 20
7.8034043006
 30
0.0
 10
9.6133669495
 20
7.8062865074
 30
0.0
 10
9.611396287
 20
7.8101294479
 30
0.0
 10
9.6089329608
 20
7.8149331242
 30
0.0
 10
9.6064696341
 20
7.8197368003
 30
0.0
 10
9.6044989723
 20
7.823579741
 30
0.0
 10
9.6030209774
 20
7.8264619472
 30
0.0
 10
9.6015429769
 20
7.8293441507
 30
0.0
 10
9.6003113275
 20
7.8317459954
 30
0.0
 10
9.5993259683
 20
7.8336674523
 30
0.0
 10
9.5987102092
 20
7.8348684057
 30
0.0
 10
9.5982173949
 20
7.8358290702
 30
0.0
 10
9.5978483509
 20
7.8365498377
 30
0.0
 10
9.5975390114
 20
7.8371496212
 30
0.0
 10
9.5973260118
 20
7.8375711497
 30
0.0
 10
9.5971987734
 20
7.8378093999
 30
0.0
 10
9.5971189065
 20
7.8379954771
 30
0.0
 10
9.5969795544
 20
7.8381533078
 30
0.0
 10
9.5968145007
 20
7.8383736015
 30
0.0
 10
9.5965159893
 20
7.8387545249
 30
0.0
 10
9.5960945988
 20
7.8393011012
 30
0.0
 10
9.5955867667
 20
7.8399559655
 30
0.0
 10
9.5949104129
 20
7.8408294767
 30
0.0
 10
9.5940647119
 20
7.8419212429
 30
0.0
 10
9.5927117349
 20
7.8436681374
 30
0.0
 10
9.591020464
 20
7.8458517319
 30
0.0
 10
9.5889909603
 20
7.8484720555
 30
0.0
 10
9.5869614508
 20
7.8510923763
 30
0.0
 10
9.5842554402
 20
7.8545861384
 30
0.0
 10
9.5808729262
 20
7.8589533406
 30
0.0
 10
9.5774904127
 20
7.8633205432
 30
0.0
 10
9.5747844014
 20
7.8668143048
 30
0.0
 10
9.572754894
 20
7.8694346272
 30
0.0
 10
9.5707253824
 20
7.8720549449
 30
0.0
 10
9.5690341358
 20
7.8742385576
 30
0.0
 10
9.5676811094
 20
7.8759854151
 30
0.0
 10
9.5668355341
 20
7.8770772753
 30
0.0
 10
9.5661589224
 20
7.8779505934
 30
0.0
 10
9.565651878
 20
7.8786060478
 30
0.0
 10
9.565228023
 20
7.8791507778
 30
0.0
 10
9.5649339111
 20
7.8795349971
 30
0.0
 10
9.5647618083
 20
7.87975001
 30
0.0
 10
9.5646441087
 20
7.8799240616
 30
0.0
 10
9.5644829185
 20
7.8800492162
 30
0.0
 10
9.5642831681
 20
7.8802331447
 30
0.0
 10
9.5639265371
 20
7.8805470731
 30
0.0
 10
9.5634207593
 20
7.8809996968
 30
0.0
 10
9.5628122444
 20
7.8815410669
 30
0.0
 10
9.5620014435
 20
7.8822635149
 30
0.0
 10
9.5609877533
 20
7.8831663622
 30
0.0
 10
9.5593659547
 20
7.8846110367
 30
0.0
 10
9.5573386702
 20
7.886416839
 30
0.0
 10
9.5549059443
 20
7.8885838193
 30
0.0
 10
9.5524732143
 20
7.8907507949
 30
0.0
 10
9.5492295757
 20
7.8936400974
 30
0.0
 10
9.545175027
 20
7.897251725
 30
0.0
 10
9.5411204781
 20
7.9008633523
 30
0.0
 10
9.5378768399
 20
7.9037526554
 30
0.0
 10
9.5354441086
 20
7.905919629
 30
0.0
 10
9.5330113873
 20
7.9080866168
 30
0.0
 10
9.5309840886
 20
7.9098923958
 30
0.0
 10
9.529362319
 20
7.9113371179
 30
0.0
 10
9.5283485549
 20
7.9122398441
 30
0.0
 10
9.5275379057
 20
7.9129625406
 30
0.0
 10
9.5269289277
 20
7.9135031514
 30
0.0
 10
9.5264245987
 20
7.913958151
 30
0.0
 10
9.5260140646
 20
7.9143120789
 30
0.0
 10
9.525725485
 20
7.914605046
 30
0.0
 10
9.5253631572
 20
7.914792964
 30
0.0
 10
9.5249058147
 20
7.9150802163
 30
0.0
 10
9.524325298
 20
7.9154266918
 30
0.0
 10
9.5236324612
 20
7.9158478514
 30
0.0
 10
9.5227073573
 20
7.9164075151
 30
0.0
 10
9.52155143
 20
7.9171077394
 30
0.0
 10
9.5197016933
 20
7.9182277379
 30
0.0
 10
9.5173896093
 20
7.9196278597
 30
0.0
 10
9.5146150713
 20
7.9213079528
 30
0.0
 10
9.5118405432
 20
7.9229880602
 30
0.0
 10
9.5081411689
 20
7.9252281983
 30
0.0
 10
9.5035169524
 20
7.9280283728
 30
0.0
 10
9.4988927351
 20
7.9308285461
 30
0.0
 10
9.4951933621
 20
7.9330686863
 30
0.0
 10
9.4924188304
 20
7.9347487873
 30
0.0
 10
9.4896443057
 20
7.9364289043
 30
0.0
 10
9.4873321803
 20
7.9378289518
 30
0.0
 10
9.485482528
 20
7.9389491018
 30
0.0
 10
9.4843263861
 20
7.9396489407
 30
0.0
 10
9.4834017226
 20
7.9402093953
 30
0.0
 10
9.4827075404
 20
7.940628139
 30
0.0
 10
9.4821312331
 20
7.940982173
 30
0.0
 10
9.4816653027
 20
7.9412540045
 30
0.0
 10
9.4813292019
 20
7.9414890168
 30
0.0
 10
9.4809421551
 20
7.9416051722
 30
0.0
 10
9.4804438888
 20
7.9418015644
 30
0.0
 10
9.4798149502
 20
7.9420328099
 30
0.0
 10
9.4790628374
 20
7.9423164016
 30
0.0
 10
9.4780591074
 20
7.9426923943
 30
0.0
 10
9.4768047575
 20
7.9431631144
 30
0.0
 10
9.4747976229
 20
7.943915859
 30
0.0
 10
9.4722887646
 20
7.9448569296
 30
0.0
 10
9.469278109
 20
7.9459861544
 30
0.0
 10
9.4662674603
 20
7.9471153952
 30
0.0
 10
9.4622532596
 20
7.948621044
 30
0.0
 10
9.4572355095
 20
7.9505031069
 30
0.0
 10
9.4522177592
 20
7.9523851693
 30
0.0
 10
9.4482035588
 20
7.9538908188
 30
0.0
 10
9.445192909
 20
7.9550200575
 30
0.0
 10
9.4421822574
 20
7.9561492901
 30
0.0
 10
9.4396733868
 20
7.9570903363
 30
0.0
 10
9.4376662775
 20
7.9578431307
 30
0.0
 10
9.4364118633
 20
7.9583137239
 30
0.0
 10
9.4354082652
 20
7.9586899771
 30
0.0
 10
9.4346557493
 20
7.9589727731
 30
0.0
 10
9.4340280717
 20
7.9592065083
 30
0.0
 10
9.4335898376
 20
7.9593739069
 30
0.0
 10
9.4333376377
 20
7.9594636548
 30
0.0
 10
9.4331535034
 20
7.9595476101
 30
0.0
 10
9.4329501968
 20
7.9595679423
 30
0.0
 10
9.4326858088
 20
7.9596172443
 30
0.0
 10
9.4322200141
 20
7.959693183
 30
0.0
 10
9.431556222
 20
7.9598070726
 30
0.0
 10
9.4307589742
 20
7.9599414263
 30
0.0
 10
9.4296962208
 20
7.9601213728
 30
0.0
 10
9.4283676955
 20
7.9603460292
 30
0.0
 10
9.4262421018
 20
7.960705634
 30
0.0
 10
9.4235850936
 20
7.961155087
 30
0.0
 10
9.4203966906
 20
7.9616944534
 30
0.0
 10
9.4172082858
 20
7.9622338136
 30
0.0
 10
9.41295708
 20
7.9629529627
 30
0.0
 10
9.4076430725
 20
7.9638518984
 30
0.0
 10
9.4012662637
 20
7.9649306215
 30
0.0
 10
9.3927638518
 20
7.9663689189
 30
0.0
 10
9.386387043
 20
7.967447642
 30
0.0
 10
9.382135837
 20
7.9681667907
 30
0.0
  0
SPLINE
  5
403
100
AcDbEntity
  8
0
100
AcDbSpline
 62
4
  6
CONTINUOUS
 70
0
 71
3
 72
397
 73
393
 74
0
 42
0.0000001
 43
0.0000001
 44
0.0000000001
 40
0.0
 40
0.0
 40
0.0
 40
0.0
 40
0.015625
 40
0.0234375
 40
0.03125
 40
0.0390625
 40
0.04296875
 40
0.046875
 40
0.05078125
 40
0.0546875
 40
0.056640625
 40
0.05859375
 40
0.0595703125
 40
0.060546875
 40
0.0615234375
 40
0.0620117188
 40
0.0622558594
 40
0.0625
 40
0.0627441406
 40
0.0629882812
 40
0.0634765625
 40
0.064453125
 40
0.0654296875
 40
0.06640625
 40
0.068359375
 40
0.0703125
 40
0.07421875
 40
0.078125
 40
0.08203125
 40
0.0859375
 40
0.09375
 40
0.1015625
 40
0.10546875
 40
0.109375
 40
0.11328125
 40
0.1171875
 40
0.119140625
 40
0.12109375
 40
0.1220703125
 40
0.123046875
 40
0.1240234375
 40
0.1245117188
 40
0.1247558594
 40
0.125
 40
0.1252441406
 40
0.1254882812
 40
0.1259765625
 40
0.126953125
 40
0.1279296875
 40
0.12890625
 40
0.130859375
 40
0.1328125
 40
0.13671875
 40
0.140625
 40
0.14453125
 40
0.1484375
 40
0.15625
 40
0.1640625
 40
0.16796875
 40
0.171875
 40
0.17578125
 40
0.1796875
 40
0.181640625
 40
0.18359375
 40
0.1845703125
 40
0.185546875
 40
0.1865234375
 40
0.1870117188
 40
0.1872558594
 40
0.1875
 40
0.1877441406
 40
0.1879882812
 40
0.1884765625
 40
0.189453125
 40
0.1904296875
 40
0.19140625
 40
0.193359375
 40
0.1953125
 40
0.19921875
 40
0.203125
 40
0.20703125
 40
0.2109375
 40
0.21875
 40
0.2265625
 40
0.23046875
 40
0.234375
 40
0.23828125
 40
0.2421875
 40
0.244140625
 40
0.24609375
 40
0.2470703125
 40
0.248046875
 40
0.2490234375
 40
0.2495117188
 40
0.2497558594
 40
0.25
 40
0.2502441406
 40
0.2504882812
 40
0.2509765625
 40
0.251953125
 40
0.2529296875
 40
0.25390625
 40
0.255859375
 40
0.2578125
 40
0.26171875
 40
0.265625
 40
0.26953125
 40
0.2734375
 40
0.28125
 40
0.2890625
 40
0.29296875
 40
0.296875
 40
0.30078125
 40
0.3046875
 40
0.306640625
 40
0.30859375
 40
0.3095703125
 40
0.310546875
 40
0.3115234375
 40
0.3120117188
 40
0.3122558594
 40
0.3125
 40
0.3127441406
 40
0.3129882812
 40
0.3134765625
 40
0.314453125
 40
0.3154296875
 40
0.31640625
 40
0.318359375
 40
0.3203125
 40
0.32421875
 40
0.328125
 40
0.33203125
 40
0.3359375
 40
0.34375
 40
0.3515625
 40
0.35546875
 40
0.359375
 40
0.36328125
 40
0.3671875
 40
0.369140625
 40
0.37109375
 40
0.3720703125
 40
0.373046875
 40
0.3740234375
 40
0.3745117188
 40
0.3747558594
 40
0.375
 40
0.3752441406
 40
0.3754882812
 40
0.3759765625
 40
0.376953125
 40
0.3779296875
 40
0.37890625
 40
0.380859375
 40
0.3828125
 40
0.38671875
 40
0.390625
 40
0.39453125
 40
0.3984375
 40
0.40625
 40
0.4140625
 40
0.41796875
 40
0.421875
 40
0.42578125
 40
0.4296875
 40
0.431640625
 40
0.43359375
 40
0.4345703125
 40
0.435546875
 40
0.4365234375
 40
0.4370117188
 40
0.4372558594
 40
0.4375
 40
0.4377441406
 40
0.4379882812
 40
0.4384765625
 40
0.439453125
 40
0.4404296875
 40
0.44140625
 40
0.443359375
 40
0.4453125
 40
0.44921875
 40
0.453125
 40
0.45703125
 40
0.4609375
 40
0.46875
 40
0.4765625
 40
0.48046875
 40
0.484375
 40
0.48828125
 40
0.4921875
 40
0.494140625
 40
0.49609375
 40
0.4970703125
 40
0.498046875
 40
0.4990234375
 40
0.4995117188
 40
0.4997558594
 40
0.5
 40
0.5002441406
 40
0.5004882812
 40
0.5009765625
 40
0.501953125
 40
0.5029296875
 40
0.50390625
 40
0.505859375
 40
0.5078125
 40
0.51171875
 40
0.515625
 40
0.51953125
 40
0.5234375
 40
0.53125
 40
0.5390625
 40
0.54296875
 40
0.546875
 40
0.55078125
 40
0.5546875
 40
0.556640625
 40
0.55859375
 40
0.5595703125
 40
0.560546875
 40
0.5615234375
 40
0.5620117188
 40
0.5622558594
 40
0.5625
 40
0.5627441406
 40
0.5629882812
 40
0.5634765625
 40
0.564453125
 40
0.5654296875
 40
0.56640625
 40
0.568359375
 40
0.5703125
 40
0.57421875
 40
0.578125
 40
0.58203125
 40
0.5859375
 40
0.59375
 40
0.6015625
 40
0.60546875
 40
0.609375
 40
0.61328125
 40
0.6171875
 40
0.619140625
 40
0.62109375
 40
0.6220703125
 40
0.623046875
 40
0.6240234375
 40
0.6245117188
 40
0.625
 40
0.6254882812
 40
0.6259765625
 40
0.626953125
 40
0.6279296875
 40
0.62890625
 40
0.630859375
 40
0.6328125
 40
0.63671875
 40
0.640625
 40
0.64453125
 40
0.6484375
 40
0.65625
 40
0.6640625
 40
0.66796875
 40
0.671875
 40
0.67578125
 40
0.6796875
 40
0.681640625
 40
0.68359375
 40
0.6845703125
 40
0.685546875
 40
0.6865234375
 40
0.6870117188
 40
0.6872558594
 40
0.6875
 40
0.6877441406
 40
0.6879882812
 40
0.6884765625
 40
0.689453125
 40
0.6904296875
 40
0.69140625
 40
0.693359375
 40
0.6953125
 40
0.69921875
 40
0.703125
 40
0.70703125
 40
0.7109375
 40
0.71875
 40
0.7265625
 40
0.73046875
 40
0.734375
 40
0.73828125
 40
0.7421875
 40
0.744140625
 40
0.74609375
 40
0.7470703125
 40
0.748046875
 40
0.7490234375
 40
0.7495117188
 40
0.7497558594
 40
0.75
 40
0.7502441406
 40
0.7504882812
 40
0.7509765625
 40
0.751953125
 40
0.7529296875
 40
0.75390625
 40
0.755859375
 40
0.7578125
 40
0.76171875
 40
0.765625
 40
0.76953125
 40
0.7734375
 40
0.78125
 40
0.7890625
 40
0.79296875
 40
0.796875
 40
0.80078125
 40
0.8046875
 40
0.806640625
 40
0.80859375
 40
0.8095703125
 40
0.810546875
 40
0.8115234375
 40
0.8120117188
 40
0.8125
 40
0.8129882812
 40
0.8134765625
 40
0.814453125
 40
0.8154296875
 40
0.81640625
 40
0.818359375
 40
0.8203125
 40
0.82421875
 40
0.828125
 40
0.83203125
 40
0.8359375
 40
0.84375
 40
0.8515625
 40
0.85546875
 40
0.859375
 40
0.86328125
 40
0.8671875
 40
0.869140625
 40
0.87109375
 40
0.8720703125
 40
0.873046875
 40
0.8740234375
 40
0.8745117188
 40
0.875
 40
0.8754882812
 40
0.8759765625
 40
0.876953125
 40
0.8779296875
 40
0.87890625
 40
0.880859375
 40
0.8828125
 40
0.88671875
 40
0.890625
 40
0.89453125
 40
0.8984375
 40
0.90625
 40
0.9140625
 40
0.91796875
 40
0.921875
 40
0.92578125
 40
0.9296875
 40
0.931640625
 40
0.93359375
 40
0.9345703125
 40
0.935546875
 40
0.9365234375
 40
0.9370117188
 40
0.9372558594
 40
0.9375
 40
0.9377441406
 40
0.9379882812
 40
0.9384765625
 40
0.939453125
 40
0.9404296875
 40
0.94140625
 40
0.943359375
 40
0.9453125
 40
0.94921875
 40
0.953125
 40
0.95703125
 40
0.9609375
 40
0.96875
 40
0.9765625
 40
0.984375
 40
1.0
 40
1.0
 40
1.0
 40
1.0
 10
9.3821358596
 20
7.9681667891
 30
0.0
 10
9.377958277
 20
7.9680468899
 30
0.0
 10
9.3716919032
 20
7.9678670411
 30
0.0
 10
9.3633367381
 20
7.9676272427
 30
0.0
 10
9.3570703643
 20
7.9674473938
 30
0.0
 10
9.351848386
 20
7.96729752
 30
0.0
 10
9.3476708036
 20
7.9671776203
 30
0.0
 10
9.3445376164
 20
7.9670876972
 30
0.0
 10
9.3414044304
 20
7.9669977678
 30
0.0
 10
9.3387934383
 20
7.9669228463
 30
0.0
 10
9.3367046532
 20
7.9668628651
 30
0.0
 10
9.335399143
 20
7.966825477
 30
0.0
 10
9.3343547795
 20
7.9667953372
 30
0.0
 10
9.3335713844
 20
7.9667733602
 30
0.0
 10
9.3329189451
 20
7.9667530487
 30
0.0
 10
9.3324614721
 20
7.9667427503
 30
0.0
 10
9.3322012543
 20
7.9667307454
 30
0.0
 10
9.3320027236
 20
7.9667389821
 30
0.0
 10
9.3318170649
 20
7.9666813175
 30
0.0
 10
9.33156503
 20
7.9666274185
 30
0.0
 10
9.3311260609
 20
7.966522385
 30
0.0
 10
9.3304978685
 20
7.9663779367
 30
0.0
 10
9.3297445058
 20
7.966202202
 30
0.0
 10
9.3287398586
 20
7.9659687261
 30
0.0
 10
9.3274841056
 20
7.9656765947
 30
0.0
 10
9.3254748696
 20
7.9652093446
 30
0.0
 10
9.3229633353
 20
7.964625227
 30
0.0
 10
9.3199494895
 20
7.9639243094
 30
0.0
 10
9.316935645
 20
7.9632233855
 30
0.0
 10
9.3129171851
 20
7.9622888226
 30
0.0
 10
9.3078941105
 20
7.961120618
 30
0.0
 10
9.3028710358
 20
7.9599524141
 30
0.0
 10
9.2988525762
 20
7.9590178502
 30
0.0
 10
9.2958387309
 20
7.958316929
 30
0.0
 10
9.292824888
 20
7.9576160017
 30
0.0
 10
9.2903133447
 20
7.9570319144
 30
0.0
 10
9.288304127
 20
7.9565646024
 30
0.0
 10
9.2870483275
 20
7.9562726283
 30
0.0
 10
9.2860437758
 20
7.9560388296
 30
0.0
 10
9.2852901214
 20
7.955864081
 30
0.0
 10
9.2846628415
 20
7.9557165473
 30
0.0
 10
9.2842222435
 20
7.9556170219
 30
0.0
 10
9.2839728185
 20
7.9555542976
 30
0.0
 10
9.2837791431
 20
7.9555237414
 30
0.0
 10
9.2836107215
 20
7.9554301635
 30
0.0
 10
9.2833773506
 20
7.9553273757
 30
0.0
 10
9.2829730557
 20
7.9551372549
 30
0.0
 10
9.2823933459
 20
7.9548710084
 30
0.0
 10
9.2816986125
 20
7.9545492206
 30
0.0
 10
9.2807719805
 20
7.9541209708
 30
0.0
 10
9.2796138003
 20
7.9535853845
 30
0.0
 10
9.2777606507
 20
7.9527285995
 30
0.0
 10
9.2754442348
 20
7.9516575657
 30
0.0
 10
9.2726645266
 20
7.9503723478
 30
0.0
 10
9.2698848208
 20
7.9490871237
 30
0.0
 10
9.2661785456
 20
7.9473734938
 30
0.0
 10
9.2615457019
 20
7.9452314556
 30
0.0
 10
9.256912858
 20
7.9430894179
 30
0.0
 10
9.2532065832
 20
7.9413757872
 30
0.0
 10
9.2504268763
 20
7.9400905657
 30
0.0
 10
9.2476471725
 20
7.9388053382
 30
0.0
 10
9.245330743
 20
7.9377343338
 30
0.0
 10
9.243477621
 20
7.936877489
 30
0.0
 10
9.2423193705
 20
7.9363420548
 30
0.0
 10
9.2413928828
 20
7.9359134927
 30
0.0
 10
9.2406977086
 20
7.9355926592
 30
0.0
 10
9.2401193779
 20
7.9353234271
 30
0.0
 10
9.239712621
 20
7.9351386361
 30
0.0
 10
9.2394831948
 20
7.9350273086
 30
0.0
 10
9.2393026564
 20
7.934959962
 30
0.0
 10
9.2391544898
 20
7.9348308853
 30
0.0
 10
9.2389456426
 20
7.9346803152
 30
0.0
 10
9.238585421
 20
7.9344067853
 30
0.0
 10
9.2380680682
 20
7.9340212732
 30
0.0
 10
9.2374484222
 20
7.9335564138
 30
0.0
 10
9.2366218163
 20
7.9329373852
 30
0.0
 10
9.2355886997
 20
7.9321633311
 30
0.0
 10
9.2339356345
 20
7.9309249946
 30
0.0
 10
9.23186933
 20
7.9293770225
 30
0.0
 10
9.229389753
 20
7.9275194779
 30
0.0
 10
9.2269101791
 20
7.9256619275
 30
0.0
 10
9.2236040795
 20
7.9231851957
 30
0.0
 10
9.2194714554
 20
7.9200892802
 30
0.0
 10
9.2153388309
 20
7.9169933651
 30
0.0
 10
9.2120327319
 20
7.9145166325
 30
0.0
 10
9.2095531563
 20
7.9126590843
 30
0.0
 10
9.2070735857
 20
7.9108015316
 30
0.0
 10
9.2050072613
 20
7.909253585
 30
0.0
 10
9.2033542365
 20
7.9080151963
 30
0.0
 10
9.2023210171
 20
7.9072412749
 30
0.0
 10
9.2014946223
 20
7.906621974
 30
0.0
 10
9.2008743315
 20
7.9061579469
 30
0.0
 10
9.2003589959
 20
7.9057698305
 30
0.0
 10
9.1999951734
 20
7.9055009498
 30
0.0
 10
9.1997920958
 20
7.9053429305
 30
0.0
 10
9.1996262067
 20
7.9052367354
 30
0.0
 10
9.1995122308
 20
7.9050834493
 30
0.0
 10
9.1993421549
 20
7.9048954938
 30
0.0
 10
9.199052959
 20
7.9045589185
 30
0.0
 10
9.1986354111
 20
7.9040820978
 30
0.0
 10
9.1981362417
 20
7.9035082004
 30
0.0
 10
9.1974700229
 20
7.902743602
 30
0.0
 10
9.1966374753
 20
7.9017876492
 30
0.0
 10
9.1953052729
 20
7.9002582391
 30
0.0
 10
9.1936400632
 20
7.8983464373
 30
0.0
 10
9.191641793
 20
7.8960522919
 30
0.0
 10
9.1896435278
 20
7.893758142
 30
0.0
 10
9.1869791724
 20
7.8906992771
 30
0.0
 10
9.1836487289
 20
7.8868756954
 30
0.0
 10
9.1803182849
 20
7.883052114
 30
0.0
 10
9.1776539302
 20
7.8799932485
 30
0.0
 10
9.1756556629
 20
7.8776991004
 30
0.0
 10
9.1736574007
 20
7.8754049484
 30
0.0
 10
9.1719921659
 20
7.8734931671
 30
0.0
 10
9.1706600148
 20
7.871963715
 30
0.0
 10
9.1698273367
 20
7.8710078693
 30
0.0
 10
9.1691613858
 20
7.8702430511
 30
0.0
 10
9.168661398
 20
7.8696698251
 30
0.0
 10
9.1682464105
 20
7.8691909037
 30
0.0
 10
9.1679526439
 20
7.8688580785
 30
0.0
 10
9.1677898914
 20
7.8686641144
 30
0.0
 10
9.1676534204
 20
7.8685292849
 30
0.0
 10
9.1675720192
 20
7.8683537701
 30
0.0
 10
9.1674442753
 20
7.868133942
 30
0.0
 10
9.1672296732
 20
7.8677426307
 30
0.0
 10
9.1669184199
 20
7.8671870713
 30
0.0
 10
9.1665469186
 20
7.8665189205
 30
0.0
 10
9.166050884
 20
7.8656285695
 30
0.0
 10
9.1654310804
 20
7.8645154538
 30
0.0
 10
9.1644392606
 20
7.8627345677
 30
0.0
 10
9.1631995319
 20
7.860508426
 30
0.0
 10
9.1617118377
 20
7.8578370706
 30
0.0
 10
9.1602241488
 20
7.8551657112
 30
0.0
 10
9.1582405617
 20
7.8516039002
 30
0.0
 10
9.1557610786
 20
7.8471516358
 30
0.0
 10
9.1532815949
 20
7.8426993717
 30
0.0
 10
9.1512980087
 20
7.8391375602
 30
0.0
 10
9.1498103174
 20
7.8364662023
 30
0.0
 10
9.148322632
 20
7.8337948415
 30
0.0
 10
9.1470828759
 20
7.8315687164
 30
0.0
 10
9.1460911119
 20
7.8297877965
 30
0.0
 10
9.1454711664
 20
7.8286747667
 30
0.0
 10
9.1449754229
 20
7.8277842394
 30
0.0
 10
9.1446030324
 20
7.8271166271
 30
0.0
 10
9.1442945613
 20
7.826559383
 30
0.0
 10
9.1440749926
 20
7.8261710792
 30
0.0
 10
9.1439552065
 20
7.8259464322
 30
0.0
 10
9.1438493613
 20
7.8257857195
 30
0.0
 10
9.1438046979
 20
7.8255952963
 30
0.0
 10
9.1437238058
 20
7.825351762
 30
0.0
 10
9.1435921876
 20
7.8249207485
 30
0.0
 10
9.1433989634
 20
7.8243075394
 30
0.0
 10
9.1431693193
 20
7.8235706079
 30
0.0
 10
9.1428623501
 20
7.82258841
 30
0.0
 10
9.1424789047
 20
7.8213605334
 30
0.0
 10
9.1418652433
 20
7.819396003
 30
0.0
 10
9.1410982175
 20
7.8169403153
 30
0.0
 10
9.1401777648
 20
7.8139935007
 30
0.0
 10
9.1392573179
 20
7.8110466832
 30
0.0
 10
9.1380300533
 20
7.8071175942
 30
0.0
 10
9.1364959733
 20
7.8022062326
 30
0.0
 10
9.1349618929
 20
7.7972948712
 30
0.0
 10
9.1337346291
 20
7.7933657819
 30
0.0
 10
9.1328141797
 20
7.7904189655
 30
0.0
 10
9.1318937364
 20
7.7874721468
 30
0.0
 10
9.1311266811
 20
7.7850164716
 30
0.0
 10
9.1305130801
 20
7.7830519157
 30
0.0
 10
9.1301294808
 20
7.7818241042
 30
0.0
 10
9.1298228274
 20
7.7808417726
 30
0.0
 10
9.1295922185
 20
7.7801052495
 30
0.0
 10
9.129402013
 20
7.7794907627
 30
0.0
 10
9.129265006
 20
7.7790620301
 30
0.0
 10
9.1291927482
 20
7.7788148413
 30
0.0
 10
9.1291215627
 20
7.7786356437
 30
0.0
 10
9.1291153299
 20
7.7784327694
 30
0.0
 10
9.1290843632
 20
7.7781705291
 30
0.0
 10
9.1290407275
 20
7.7777077607
 30
0.0
 10
9.128972872
 20
7.7770486747
 30
0.0
 10
9.1288938076
 20
7.7762569105
 30
0.0
 10
9.1287875634
 20
7.7752015255
 30
0.0
 10
9.1286550405
 20
7.7738821914
 30
0.0
 10
9.1284428461
 20
7.7717713143
 30
0.0
 10
9.1281776573
 20
7.7691326982
 30
0.0
 10
9.1278594074
 20
7.7659663673
 30
0.0
 10
9.1275411638
 20
7.7628000341
 30
0.0
 10
9.1271168368
 20
7.7585782574
 30
0.0
 10
9.1265864289
 20
7.7533010362
 30
0.0
 10
9.1260560204
 20
7.7480238151
 30
0.0
 10
9.1256316942
 20
7.7438020383
 30
0.0
 10
9.1253134479
 20
7.7406357056
 30
0.0
 10
9.1249952081
 20
7.737469373
 30
0.0
 10
9.1247299881
 20
7.7348307621
 30
0.0
 10
9.1245178572
 20
7.7327198743
 30
0.0
 10
9.1243851729
 20
7.7314005675
 30
0.0
 10
9.1242792601
 20
7.7303451265
 30
0.0
 10
9.1241991829
 20
7.7295535335
 30
0.0
 10
9.1241344963
 20
7.7288939114
 30
0.0
 10
9.1240852035
 20
7.7284321
 30
0.0
 10
9.124063301
 20
7.7281683264
 30
0.0
 10
9.1240292258
 20
7.7279701621
 30
0.0
 10
9.1240626114
 20
7.7277732748
 30
0.0
 10
9.1240835944
 20
7.7275103131
 30
0.0
 10
9.1241312783
 20
7.7270503375
 30
0.0
 10
9.1241936662
 20
7.7263931211
 30
0.0
 10
9.1242709852
 20
7.7256045079
 30
0.0
 10
9.1243732201
 20
7.7245530073
 30
0.0
 10
9.1245013073
 20
7.7232386371
 30
0.0
 10
9.1247060827
 20
7.7211356418
 30
0.0
 10
9.1249621083
 20
7.7185068986
 30
0.0
 10
9.1252693149
 20
7.7153524064
 30
0.0
 10
9.1255765279
 20
7.7121979143
 30
0.0
 10
9.125986143
 20
7.7079919248
 30
0.0
 10
9.1264981627
 20
7.702734438
 30
0.0
 10
9.1270101819
 20
7.6974769511
 30
0.0
 10
9.1274197979
 20
7.6932709616
 30
0.0
 10
9.1277270082
 20
7.6901164694
 30
0.0
 10
9.1280342248
 20
7.6869619779
 30
0.0
 10
9.1282902192
 20
7.6843332325
 30
0.0
 10
9.1284950582
 20
7.6822302417
 30
0.0
 10
9.1286229837
 20
7.6809158598
 30
0.0
 10
9.1287255504
 20
7.6798643834
 30
0.0
 10
9.128801856
 20
7.6790756964
 30
0.0
 10
9.1288674143
 20
7.6784187107
 30
0.0
 10
9.1289094386
 20
7.6779583233
 30
0.0
 10
9.1289394896
 20
7.6776960214
 30
0.0
 10
9.1289450212
 20
7.6774971071
 30
0.0
 10
9.1290155612
 20
7.6773065564
 30
0.0
 10
9.1290869389
 20
7.6770495714
 30
0.0
 10
9.1292224149
 20
7.6766012071
 30
0.0
 10
9.1294104286
 20
7.6759599759
 30
0.0
 10
9.1296384092
 20
7.6751908026
 30
0.0
 10
9.1299415575
 20
7.674165132
 30
0.0
 10
9.1303207758
 20
7.6728830802
 30
0.0
 10
9.1309273669
 20
7.6708317769
 30
0.0
 10
9.13168566
 20
7.6682676548
 30
0.0
 10
9.1325955884
 20
7.6651907053
 30
0.0
 10
9.1335055231
 20
7.6621137566
 30
0.0
 10
9.1347187673
 20
7.658011158
 30
0.0
 10
9.136235323
 20
7.6528829098
 30
0.0
 10
9.1377518791
 20
7.6477546618
 30
0.0
 10
9.1389651225
 20
7.6436520629
 30
0.0
 10
9.1398750594
 20
7.6405751152
 30
0.0
 10
9.1407849797
 20
7.6374981618
 30
0.0
 10
9.1415432982
 20
7.6349340517
 30
0.0
 10
9.1421498376
 20
7.632882724
 30
0.0
 10
9.1425291874
 20
7.6316007343
 30
0.0
 10
9.1428320656
 20
7.6305749362
 30
0.0
 10
9.1430608714
 20
7.6298061524
 30
0.0
 10
9.1432463033
 20
7.6291637029
 30
0.0
 10
9.1434064003
 20
7.628653772
 30
0.0
 10
9.1434943624
 20
7.6282603156
 30
0.0
 10
9.1437048915
 20
7.6279088777
 30
0.0
 10
9.1439427827
 20
7.6274256162
 30
0.0
 10
9.1442548361
 20
7.6268265751
 30
0.0
 10
9.1446230127
 20
7.6261055703
 30
0.0
 10
9.1451161109
 20
7.6251449835
 30
0.0
 10
9.1457317317
 20
7.6239439922
 30
0.0
 10
9.1467171453
 20
7.6220225502
 30
0.0
 10
9.147948768
 20
7.6196206982
 30
0.0
 10
9.1494267771
 20
7.616738497
 30
0.0
 10
9.1509047697
 20
7.6138562902
 30
0.0
 10
9.1528754322
 20
7.6100133497
 30
0.0
 10
9.1553387584
 20
7.6052096735
 30
0.0
 10
9.1578020852
 20
7.6004059973
 30
0.0
 10
9.1597727469
 20
7.5965630567
 30
0.0
 10
9.1612507418
 20
7.5936808504
 30
0.0
 10
9.1627287423
 20
7.5907986469
 30
0.0
 10
9.1639603917
 20
7.5883968023
 30
0.0
 10
9.1649457509
 20
7.5864753454
 30
0.0
 10
9.16556151
 20
7.5852743919
 30
0.0
 10
9.1660543243
 20
7.5843137274
 30
0.0
 10
9.1664233683
 20
7.5835929599
 30
0.0
 10
9.1667327078
 20
7.5829931764
 30
0.0
 10
9.1669457075
 20
7.582571648
 30
0.0
 10
9.1670729458
 20
7.5823333977
 30
0.0
 10
9.1671528127
 20
7.5821473206
 30
0.0
 10
9.1672921648
 20
7.5819894898
 30
0.0
 10
9.1674572185
 20
7.5817691961
 30
0.0
 10
9.1677557299
 20
7.5813882727
 30
0.0
 10
9.1681771205
 20
7.5808416964
 30
0.0
 10
9.1686849525
 20
7.5801868321
 30
0.0
 10
9.1693613063
 20
7.5793133209
 30
0.0
 10
9.1702070073
 20
7.5782215548
 30
0.0
 10
9.1715599843
 20
7.5764746603
 30
0.0
 10
9.1732512552
 20
7.5742910657
 30
0.0
 10
9.1752807589
 20
7.5716707422
 30
0.0
 10
9.1773102684
 20
7.5690504213
 30
0.0
 10
9.180016279
 20
7.5655566592
 30
0.0
 10
9.183398793
 20
7.561189457
 30
0.0
 10
9.1867813065
 20
7.5568222544
 30
0.0
 10
9.1894873178
 20
7.5533284928
 30
0.0
 10
9.1915168252
 20
7.5507081704
 30
0.0
 10
9.1935463368
 20
7.5480878527
 30
0.0
 10
9.1952375834
 20
7.54590424
 30
0.0
 10
9.1965906098
 20
7.5441573825
 30
0.0
 10
9.1974361852
 20
7.5430655223
 30
0.0
 10
9.1981127968
 20
7.5421922042
 30
0.0
 10
9.1986198412
 20
7.5415367498
 30
0.0
 10
9.1990436962
 20
7.5409920198
 30
0.0
 10
9.1993378081
 20
7.5406078005
 30
0.0
 10
9.1995099109
 20
7.5403927876
 30
0.0
 10
9.1996276105
 20
7.540218736
 30
0.0
 10
9.1997888008
 20
7.5400935815
 30
0.0
 10
9.1999885511
 20
7.5399096529
 30
0.0
 10
9.2003451822
 20
7.5395957245
 30
0.0
 10
9.2008509599
 20
7.5391431008
 30
0.0
 10
9.2014594749
 20
7.5386017307
 30
0.0
 10
9.2022702757
 20
7.5378792827
 30
0.0
 10
9.2032839659
 20
7.5369764355
 30
0.0
 10
9.2049057645
 20
7.535531761
 30
0.0
 10
9.206933049
 20
7.5337259586
 30
0.0
 10
9.2093657749
 20
7.5315589783
 30
0.0
 10
9.2117985049
 20
7.5293920027
 30
0.0
 10
9.2150421436
 20
7.5265027002
 30
0.0
 10
9.2190966922
 20
7.5228910726
 30
0.0
 10
9.2231512411
 20
7.5192794453
 30
0.0
 10
9.2263948793
 20
7.5163901422
 30
0.0
 10
9.2288276106
 20
7.5142231686
 30
0.0
 10
9.2312603319
 20
7.5120561808
 30
0.0
 10
9.2332876307
 20
7.5102504018
 30
0.0
 10
9.2349094002
 20
7.5088056797
 30
0.0
 10
9.2359231643
 20
7.5079029535
 30
0.0
 10
9.2367338135
 20
7.507180257
 30
0.0
 10
9.2373427915
 20
7.5066396463
 30
0.0
 10
9.2378471206
 20
7.5061846466
 30
0.0
 10
9.2382576546
 20
7.5058307188
 30
0.0
 10
9.2385462342
 20
7.5055377516
 30
0.0
 10
9.238908562
 20
7.5053498336
 30
0.0
 10
9.2393659045
 20
7.5050625813
 30
0.0
 10
9.2399464212
 20
7.5047161058
 30
0.0
 10
9.240639258
 20
7.5042949463
 30
0.0
 10
9.2415643619
 20
7.5037352825
 30
0.0
 10
9.2427202892
 20
7.5030350583
 30
0.0
 10
9.2445700259
 20
7.5019150597
 30
0.0
 10
9.2468821099
 20
7.5005149379
 30
0.0
 10
9.2496566479
 20
7.4988348448
 30
0.0
 10
9.252431176
 20
7.4971547375
 30
0.0
 10
9.2561305503
 20
7.4949145993
 30
0.0
 10
9.2607547668
 20
7.4921144248
 30
0.0
 10
9.2653789841
 20
7.4893142516
 30
0.0
 10
9.2690783572
 20
7.4870741113
 30
0.0
 10
9.2718528888
 20
7.4853940103
 30
0.0
 10
9.2746274135
 20
7.4837138933
 30
0.0
 10
9.2769395389
 20
7.4823138458
 30
0.0
 10
9.2787891912
 20
7.4811936959
 30
0.0
 10
9.2799453331
 20
7.4804938569
 30
0.0
 10
9.2808699966
 20
7.4799334023
 30
0.0
 10
9.2815641788
 20
7.4795146587
 30
0.0
 10
9.2821404861
 20
7.4791606246
 30
0.0
 10
9.2826064166
 20
7.4788887931
 30
0.0
 10
9.2829425173
 20
7.4786537808
 30
0.0
 10
9.2833295641
 20
7.4785376254
 30
0.0
 10
9.2838278304
 20
7.4783412332
 30
0.0
 10
9.284456769
 20
7.4781099878
 30
0.0
 10
9.2852088818
 20
7.477826396
 30
0.0
 10
9.2862126118
 20
7.4774504033
 30
0.0
 10
9.2874669617
 20
7.4769796832
 30
0.0
 10
9.2894740963
 20
7.4762269386
 30
0.0
 10
9.2919829546
 20
7.475285868
 30
0.0
 10
9.2949936102
 20
7.4741566432
 30
0.0
 10
9.2980042589
 20
7.4730274024
 30
0.0
 10
9.3020184596
 20
7.4715217536
 30
0.0
 10
9.3070362097
 20
7.4696396908
 30
0.0
 10
9.31205396
 20
7.4677576283
 30
0.0
 10
9.3160681604
 20
7.4662519788
 30
0.0
 10
9.3190788102
 20
7.4651227401
 30
0.0
 10
9.3220894618
 20
7.4639935075
 30
0.0
 10
9.3245983324
 20
7.4630524613
 30
0.0
 10
9.3266054417
 20
7.4622996669
 30
0.0
 10
9.3278598559
 20
7.4618290737
 30
0.0
 10
9.328863454
 20
7.4614528205
 30
0.0
 10
9.3296159699
 20
7.4611700245
 30
0.0
 10
9.3302436475
 20
7.4609362893
 30
0.0
 10
9.3306818816
 20
7.4607688907
 30
0.0
 10
9.3309340815
 20
7.4606791428
 30
0.0
 10
9.3311182158
 20
7.4605951876
 30
0.0
 10
9.3313215224
 20
7.4605748554
 30
0.0
 10
9.3315859104
 20
7.4605255533
 30
0.0
 10
9.3320517051
 20
7.4604496146
 30
0.0
 10
9.3327154972
 20
7.460335725
 30
0.0
 10
9.333512745
 20
7.4602013713
 30
0.0
 10
9.3345754984
 20
7.4600214248
 30
0.0
 10
9.3359040237
 20
7.4597967684
 30
0.0
 10
9.3380296174
 20
7.4594371636
 30
0.0
 10
9.3406866256
 20
7.4589877106
 30
0.0
 10
9.3438750286
 20
7.4584483443
 30
0.0
 10
9.3470634335
 20
7.457908984
 30
0.0
 10
9.3513146392
 20
7.4571898349
 30
0.0
 10
9.3566286467
 20
7.4562908992
 30
0.0
 10
9.3630054555
 20
7.4552121761
 30
0.0
 10
9.3715078674
 20
7.4537738787
 30
0.0
 10
9.3778846763
 20
7.4526951556
 30
0.0
 10
9.3821358822
 20
7.4519760069
 30
0.0
  0
ENDSEC
  0
SECTION
  2
OBJECTS
  0
DICTIONARY
  5
C
100
AcDbDictionary
280
0
281
1
  3
ACAD_GROUP
350
D
  3
ACAD_MLINESTYLE
350
17
  3
ACAD_LAYOUT
350
1A
  3
ACAD_PLOTSETTINGS
350
19
  3
ACAD_PLOTSTYLENAME
350
E
  3
ACAD_IMAGE_DICT
350
       405
  3
ACAD_IMAGE_VARS
350
       406
  3
ACAD_TABLESTYLE
350
       407
  0
IMAGEDEF_REACTOR
  5
404
100
AcDbRasterImageDefReactor
 90
2
330
283
  0
DICTIONARY
  5
D
102
{ACAD_REACTORS
330
C
102
}
100
AcDbDictionary
280
0
281
1
  0
ACDBDICTIONARYWDFLT
  5
E
102
{ACAD_REACTORS
330
C
102
}
100
AcDbDictionary
281
1
  3
Normal
350
F
100
AcDbDictionaryWithDefault
340
F
  0
DICTIONARY
  5
405
330
C
100
AcDbDictionary
281
1
  3
Y6B_assy_2_img_1
350
       40A
  0
RASTERVARIABLES
  5
406
330
C
100
AcDbRasterVariables
 90
0
 70
0
 71
1
 72
5
  0
DICTIONARY
  5
17
102
{ACAD_REACTORS
330
C
102
}
100
AcDbDictionary
280
0
281
1
  3
Standard
350
18
  0
DICTIONARY
  5
407
330
C
100
AcDbDictionary
281
1
  3
Standard
350
       40B
  3
Standard1
350
       40C
  0
DICTIONARY
  5
19
102
{ACAD_REACTORS
330
C
102
}
100
AcDbDictionary
281
1
  0
DICTIONARY
  5
1A
102
{ACAD_REACTORS
330
C
102
}
100
AcDbDictionary
281
1
  3
Model
350
408
  3
Layout1
350
409
  0
ACDBPLACEHOLDER
  5
F
102
{ACAD_REACTORS
330
E
102
}
  0
MLINESTYLE
  5
18
102
{ACAD_REACTORS
330
17
102
}
100
AcDbMlineStyle
  2
STANDARD
 70
0
  3

 62
256
 51
90.0
 52
90.0
 71
2
 49
0.5
 62
256
  6
BYLAYER
 49
-0.5
 62
256
  6
BYLAYER
  0
LAYOUT
  5
408
102
{ACAD_REACTORS
330
1A
102
}
100
AcDbPlotSettings
  1

  2
none_device
  4
ANSI_C_(22.00_x_17.00_Inches)
  6

 40
0.0
 41
0.0
 42
0.0
 43
0.0
 44
558.8
 45
431.8
 46
0.0
 47
0.0
 48
0.0
 49
0.0
140
0.0
141
0.0
142
1.0
143
1.0
 70
1024
 72
0
 73
0
 74
0
  7

 75
0
147
1.0
148
0.0
149
0.0
100
AcDbLayout
  1
Model
 70
0
 71
0
 10
0.0
 20
0.0
 11
22.0
 21
17.0
 12
0.0
 22
0.0
 32
0.0
 14
0.0
 24
0.0
 34
0.0
 15
0.0
 25
0.0
 35
0.0
146
0.0
 13
0.0
 23
0.0
 33
0.0
 16
1.0
 26
0.0
 36
0.0
 17
0.0
 27
1.0
 37
0.0
 76
0
330
20C
345
0
346
0
  0
LAYOUT
  5
409
102
{ACAD_REACTORS
330
1A
102
}
100
AcDbPlotSettings
  1

  2
none_device
  4
ANSI_C_(22.00_x_17.00_Inches)
  6

 40
0.0
 41
0.0
 42
0.0
 43
0.0
 44
558.8
 45
431.8
 46
0.0
 47
0.0
 48
0.0
 49
0.0
140
0.0
141
0.0
142
1.0
143
1.0
 70
0
 72
0
 73
0
 74
0
  7

 75
0
147
1.0
148
0.0
149
0.0
100
AcDbLayout
  1
Layout1
 70
0
 71
1
 10
0.0
 20
0.0
 11
22.0
 21
17.0
 12
0.0
 22
0.0
 32
0.0
 14
0.0
 24
0.0
 34
0.0
 15
0.0
 25
0.0
 35
0.0
146
0.0
 13
0.0
 23
0.0
 33
0.0
 16
1.0
 26
0.0
 36
0.0
 17
0.0
 27
1.0
 37
0.0
 76
0
330
20D
345
0
346
0
  0
IMAGEDEF
  5
40A
102
{ACAD_REACTORS
330
405
330
404
102
}
100
AcDbRasterImageDef
 90
0
  1
Y6B_assy_2_img_1.png
 10
369.0
 20
92.0
 11
0.0066666667
 21
0.0066666667
280
1
281
0
  0
TABLESTYLE
  5
40B
102
{ACAD_REACTORS
330
407
330
286
330
287
102
}
330
407
100
AcDbTableStyle
  3
Standard
 70
0
 71
0
 40
0.06
 41
0.06
280
1
281
1
  7
Standard
140
0.18
170
1
 62
0
 63
7
283
0
  7
Standard
140
0.18
170
1
 62
0
 63
7
283
0
  7
Standard
140
0.18
170
1
 62
0
 63
7
283
0
  0
TABLESTYLE
  5
40C
102
{ACAD_REACTORS
330
407
330
285
102
}
330
407
100
AcDbTableStyle
  3
Standard1
 70
1
 71
0
 40
0.06
 41
0.06
280
1
281
1
  7
Standard
140
0.18
170
1
 62
0
 63
7
283
0
  7
Standard
140
0.18
170
1
 62
0
 63
7
283
0
  7
Standard
140
0.18
170
1
 62
0
 63
7
283
0
  0
ENDSEC
  0
EOF
