999
DXF file: XYS_assy_2.dxf
999
Pro/ENGINEER 2014200 by Parametric Technology Corporation
  0
SECTION
  2
HEADER
  9
$ACADVER
  1
AC1021
  9
$DWGCODEPAGE
  3
ANSI_1252
  9
$EXTMAX
 10
22.0
 20
17.0
 30
0.0
  9
$EXTMIN
 10
0.0
 20
0.0
 30
0.0
  9
$LIMMIN
 10
0.0
 20
0.0
  9
$LIMMAX
 10
22.0
 20
17.0
  9
$VIEWCTR
 10
11.0
 20
8.5
  9
$VIEWSIZE
 40
17.0
  9
$CLAYER
  8
0
  9
$LTSCALE
 40
1.21
  9
$CELTYPE
  6
BYLAYER
  9
$DIMSCALE
 40
1.0
  9
$DIMASZ
 40
0.1875
  9
$DIMEXO
 40
0.0625
  9
$DIMDLI
 40
0.836
  9
$DIMEXE
 40
0.125
  9
$DIMCEN
 40
0.198
  9
$DIMLFAC
 40
1.0
  9
$DIMBLK
  1
_FILLED
  9
$DIMTXT
 40
0.1
  9
$DIMTOL
 70
0
  9
$DIMLIM
 70
0
  9
$DIMTFAC
 40
1.0
  9
$DIMGAP
 40
0.09
  9
$DIMDSEP
 70
46
  9
$AUNITS
 70
0
  9
$PDMODE
 70
3
  9
$PDSIZE
 40
0.3125
  9
$HANDSEED
  5
345
  9
$TILEMODE
 70
1
  9
$MEASUREMENT
 70
0
  9
$INSUNITS
 70
1
  0
ENDSEC
  0
SECTION
  2
CLASSES
  0
CLASS
  1
ACDBDICTIONARYWDFLT
  2
AcDbDictionaryWithDefault
  3
AutoCAD 2000
 90
0
 91
1
280
0
281
0
  0
CLASS
  1
ACDBPLACEHOLDER
  2
AcDbPlaceHolder
  3
AutoCAD 2000
 90
0
 91
1
280
0
281
0
  0
CLASS
  1
LAYOUT
  2
AcDbLayout
  3
AutoCAD 2000
 90
0
 91
0
280
0
281
0
  0
CLASS
  1
RASTERVARIABLES
  2
AcDbRasterVariables
  3
ISM
 90
0
 91
1
280
0
281
0
  0
CLASS
  1
IMAGEDEF
  2
AcDbRasterImageDef
  3
ISM
 90
0
 91
1
280
0
281
0
  0
CLASS
  1
IMAGEDEF_REACTOR
  2
AcDbRasterImageDefReactor
  3
ISM
 90
0
 91
1
280
0
281
0
  0
CLASS
  1
IMAGE
  2
AcDbRasterImage
  3
ISM
 90
127
 91
1
280
0
281
1
  0
CLASS
  1
TABLESTYLE
  2
AcDbTableStyle
  3
ObjectDBX Classes
 90
2047
 91
1
280
0
281
0
  0
CLASS
  1
ACAD_TABLE
  2
AcDbTable
  3
ObjectDBX Classes
 90
1025
 91
3
280
0
281
1
  0
ENDSEC
  0
SECTION
  2
TABLES
  0
TABLE
  2
VPORT
  5
8
100
AcDbSymbolTable
 70
2
  0
VPORT
  5
1F4
100
AcDbSymbolTableRecord
100
AcDbViewportTableRecord
  2
*ACTIVE
 70
0
 10
0.0
 20
0.0
 11
1.0
 21
1.0
 12
11.0
 22
8.5
 13
0.0
 23
0.0
 14
1.0
 24
1.0
 15
0.0
 25
0.0
 16
0.0
 26
0.0
 36
1.0
 17
0.0
 27
0.0
 37
0.0
 40
17.0
 41
1.2941176471
 42
50.0
 43
0.0
 44
0.0
 50
0.0
 51
0.0
 71
0
 72
100
 73
1
 74
1
 75
0
 76
0
 77
0
 78
0
  0
ENDTAB
  0
TABLE
  2
LTYPE
  5
5
100
AcDbSymbolTable
 70
6
  0
LTYPE
  5
14
100
AcDbSymbolTableRecord
100
AcDbLinetypeTableRecord
  2
BYBLOCK
 70
0
  3

 72
65
 73
0
 40
0.0
  0
LTYPE
  5
15
100
AcDbSymbolTableRecord
100
AcDbLinetypeTableRecord
  2
BYLAYER
 70
0
  3

 72
65
 73
0
 40
0.0
  0
LTYPE
  5
16
100
AcDbSymbolTableRecord
100
AcDbLinetypeTableRecord
  2
CONTINUOUS
 70
64
  3
Solid line
 72
65
 73
0
 40
0.0
  0
LTYPE
  5
1F5
100
AcDbSymbolTableRecord
100
AcDbLinetypeTableRecord
  2
CENTER
 70
64
  3
____ _ ____ _ ____ _ ____ _ ____ _ ____ _ ____
 72
65
 73
4
 40
0.6
 49
0.375
 74
0
 49
-0.075
 74
0
 49
0.075
 74
0
 49
-0.075
 74
0
  0
LTYPE
  5
1F6
100
AcDbSymbolTableRecord
100
AcDbLinetypeTableRecord
  2
HIDDEN
 70
64
  3
- - - - - - - - - - - - - - - - - - - -
 72
65
 73
2
 40
0.2
 49
0.1
 74
0
 49
-0.1
 74
0
  0
LTYPE
  5
1F7
100
AcDbSymbolTableRecord
100
AcDbLinetypeTableRecord
  2
PHANTOM
 70
64
  3
_____ _ _ _____ _ _ _____ _ _ _____
 72
65
 73
6
 40
0.8
 49
0.45
 74
0
 49
-0.05
 74
0
 49
0.1
 74
0
 49
-0.05
 74
0
 49
0.1
 74
0
 49
-0.05
 74
0
  0
LTYPE
  5
1F8
100
AcDbSymbolTableRecord
100
AcDbLinetypeTableRecord
  2
DOT
 70
64
  3
. . . . . . . . . . . . . . . . . . . .
 72
65
 73
2
 40
0.2
 49
0.1
 74
0
 49
-0.1
 74
0
  0
LTYPE
  5
1F9
100
AcDbSymbolTableRecord
100
AcDbLinetypeTableRecord
  2
DASHED
 70
64
  3
- - - - - - - - - - - - - - - - - - - -
 72
65
 73
2
 40
0.2
 49
0.1
 74
0
 49
-0.1
 74
0
  0
ENDTAB
  0
TABLE
  2
LAYER
  5
2
100
AcDbSymbolTable
 70
36
  0
LAYER
  5
10
100
AcDbSymbolTableRecord
100
AcDbLayerTableRecord
  2
0
 70
0
 62
7
  6
CONTINUOUS
370
-3
390
F
  0
LAYER
  5
1FA
100
AcDbSymbolTableRecord
100
AcDbLayerTableRecord
  2
DEFAULT_1
 70
0
 62
7
  6
CENTER
370
-3
390
F
  0
LAYER
  5
1FB
100
AcDbSymbolTableRecord
100
AcDbLayerTableRecord
  2
DEFAULT_2
 70
0
 62
8
  6
HIDDEN
370
-3
390
F
  0
LAYER
  5
1FC
100
AcDbSymbolTableRecord
100
AcDbLayerTableRecord
  2
DEFAULT_3
 70
0
 62
7
  6
PHANTOM
370
-3
390
F
  0
LAYER
  5
1FD
100
AcDbSymbolTableRecord
100
AcDbLayerTableRecord
  2
01___PRT_ALL_DTM_PLN
 70
0
 62
7
  6
CONTINUOUS
370
-3
390
F
  0
LAYER
  5
1FE
100
AcDbSymbolTableRecord
100
AcDbLayerTableRecord
  2
01___PRT_DEF_DTM_PLN
 70
0
 62
7
  6
CONTINUOUS
370
-3
390
F
  0
LAYER
  5
1FF
100
AcDbSymbolTableRecord
100
AcDbLayerTableRecord
  2
02___PRT_ALL_AXES
 70
0
 62
7
  6
CONTINUOUS
370
-3
390
F
  0
LAYER
  5
200
100
AcDbSymbolTableRecord
100
AcDbLayerTableRecord
  2
03___PRT_ALL_CURVES
 70
0
 62
7
  6
CONTINUOUS
370
-3
390
F
  0
LAYER
  5
201
100
AcDbSymbolTableRecord
100
AcDbLayerTableRecord
  2
04___PRT_ALL_DTM_PNT
 70
0
 62
7
  6
CONTINUOUS
370
-3
390
F
  0
LAYER
  5
202
100
AcDbSymbolTableRecord
100
AcDbLayerTableRecord
  2
05___PRT_ALL_DTM_CSYS
 70
0
 62
7
  6
CONTINUOUS
370
-3
390
F
  0
LAYER
  5
203
100
AcDbSymbolTableRecord
100
AcDbLayerTableRecord
  2
05___PRT_DEF_DTM_CSYS
 70
0
 62
7
  6
CONTINUOUS
370
-3
390
F
  0
LAYER
  5
204
100
AcDbSymbolTableRecord
100
AcDbLayerTableRecord
  2
06___PRT_ALL_SURFS
 70
0
 62
7
  6
CONTINUOUS
370
-3
390
F
  0
LAYER
  5
205
100
AcDbSymbolTableRecord
100
AcDbLayerTableRecord
  2
DATUM_PLANES
 70
0
 62
7
  6
CONTINUOUS
370
-3
390
F
  0
LAYER
  5
206
100
AcDbSymbolTableRecord
100
AcDbLayerTableRecord
  2
DIMENSIONS
 70
0
 62
7
  6
CONTINUOUS
370
-3
390
F
  0
LAYER
  5
207
100
AcDbSymbolTableRecord
100
AcDbLayerTableRecord
  2
DTM_500001
 70
0
 62
7
  6
CONTINUOUS
370
-3
390
F
  0
LAYER
  5
208
100
AcDbSymbolTableRecord
100
AcDbLayerTableRecord
  2
PARAMETERDIMENSIONS
 70
0
 62
7
  6
CONTINUOUS
370
-3
390
F
  0
LAYER
  5
209
100
AcDbSymbolTableRecord
100
AcDbLayerTableRecord
  2
PORT_AREAS
 70
0
 62
7
  6
CONTINUOUS
370
-3
390
F
  0
LAYER
  5
20A
100
AcDbSymbolTableRecord
100
AcDbLayerTableRecord
  2
SUNNBOMCOSMETIC
 70
0
 62
7
  6
CONTINUOUS
370
-3
390
F
  0
LAYER
  5
20B
100
AcDbSymbolTableRecord
100
AcDbLayerTableRecord
  2
SUNNBOMSTAMPING
 70
0
 62
7
  6
CONTINUOUS
370
-3
390
F
  0
LAYER
  5
20C
100
AcDbSymbolTableRecord
100
AcDbLayerTableRecord
  2
THREADS
 70
0
 62
7
  6
CONTINUOUS
370
-3
390
F
  0
ENDTAB
  0
TABLE
  2
STYLE
  5
3
100
AcDbSymbolTable
 70
1
  0
STYLE
  5
11
100
AcDbSymbolTableRecord
100
AcDbTextStyleTableRecord
  2
STANDARD
 70
0
 40
0.0
 41
0.8
 50
0.0
 71
0
 42
0.2
  3
txt
  4

  0
STYLE
  5
20D
100
AcDbSymbolTableRecord
100
AcDbTextStyleTableRecord
  2
TEXTSTYLE_1
 70
0
 40
0.0
 41
0.8
 50
0.0
 71
0
 42
0.2
  3
gdt
  4

  0
ENDTAB
  0
TABLE
  2
VIEW
  5
6
100
AcDbSymbolTable
 70
0
  0
ENDTAB
  0
TABLE
  2
UCS
  5
7
100
AcDbSymbolTable
 70
0
  0
ENDTAB
  0
TABLE
  2
APPID
  5
9
100
AcDbSymbolTable
 70
1
  0
APPID
  5
20E
100
AcDbSymbolTableRecord
100
AcDbRegAppTableRecord
  2
ACAD
 70
0
  0
ENDTAB
  0
TABLE
  2
BLOCK_RECORD
  5
1
100
AcDbSymbolTable
 70
0
  0
BLOCK_RECORD
  5
20F
100
AcDbSymbolTableRecord
100
AcDbBlockTableRecord
  2
*Model_Space
  0
BLOCK_RECORD
  5
210
100
AcDbSymbolTableRecord
100
AcDbBlockTableRecord
  2
*Paper_Space
  0
BLOCK_RECORD
  5
211
100
AcDbSymbolTableRecord
100
AcDbBlockTableRecord
  2
SUN_FIRST_THIRD_ANGLE_BL0
  0
BLOCK_RECORD
  5
212
100
AcDbSymbolTableRecord
100
AcDbBlockTableRecord
  2
*T1
  0
BLOCK_RECORD
  5
213
100
AcDbSymbolTableRecord
100
AcDbBlockTableRecord
  2
*T2
  0
BLOCK_RECORD
  5
214
100
AcDbSymbolTableRecord
100
AcDbBlockTableRecord
  2
*T3
  0
ENDTAB
  0
TABLE
  2
DIMSTYLE
  5
A
100
AcDbSymbolTable
 70
1
100
AcDbDimStyleTable
 71
0
  0
DIMSTYLE
105
215
100
AcDbSymbolTableRecord
100
AcDbDimStyleTableRecord
  2
STANDARD
 70
0
  3

  4

 40
1.0
 41
0.1875
 42
0.0625
 43
0.38
 44
0.125
 45
0.0
 46
0.0
 47
0.001
 48
0.001
140
0.1
141
0.09
142
0.0
143
25.4
144
1.0
145
0.0
146
1.0
147
0.09
 71
0.0
 72
0.0
 73
1
 74
1
 75
0
 76
0
 77
0
 78
4
170
0
171
2
172
0
173
0
174
0
175
0
176
0
177
0
178
0
270
2
271
3
272
3
273
2
274
2
275
0
280
0
281
0
282
0
283
1
284
4
285
0
286
0
287
3
288
0
340
11
278
46
  0
ENDTAB
  0
ENDSEC
  0
SECTION
  2
BLOCKS
  0
BLOCK
  5
20
100
AcDbEntity
  8
0
100
AcDbBlockBegin
  2
*Model_Space
 70
0
 10
0.0
 20
0.0
 30
0.0
  3
*Model_Space
  1

  0
ENDBLK
  5
21
100
AcDbEntity
  8
0
100
AcDbBlockEnd
  0
BLOCK
  5
1C
100
AcDbEntity
  8
0
100
AcDbBlockBegin
  2
*Paper_Space
 70
0
 10
0.0
 20
0.0
 30
0.0
  3
*Paper_Space
  1

  0
ENDBLK
  5
1D
100
AcDbEntity
  8
0
100
AcDbBlockEnd
  0
BLOCK
  5
216
100
AcDbEntity
  8
0
100
AcDbBlockBegin
 62
2
  6
CONTINUOUS
  2
SUN_FIRST_THIRD_ANGLE_BL0
 70
64
 10
20.4816717061
 20
1.2289683772
  3
SUN_FIRST_THIRD_ANGLE_BL0
  1

  0
TEXT
  5
217
100
AcDbEntity
  8
0
100
AcDbText
 62
2
  6
CONTINUOUS
 10
19.4750896608
 20
1.4136269581
  7
STANDARD
 40
0.08
  1
FIRST ANGLE
 41
0.8
 72
0
100
AcDbText
  0
TEXT
  5
218
100
AcDbEntity
  8
0
100
AcDbText
 62
2
  6
CONTINUOUS
 10
20.7842537513
 20
1.4047600029
  7
STANDARD
 40
0.08
  1
THIRD ANGLE
 41
0.8
 72
0
100
AcDbText
  0
LINE
  5
219
100
AcDbEntity
  8
0
100
AcDbLine
 62
7
  6
CONTINUOUS
 10
19.4767170086
 20
1.1727031207
 11
19.6334271527
 21
1.1717972817
  0
LINE
  5
21A
100
AcDbEntity
  8
0
100
AcDbLine
 62
7
  6
CONTINUOUS
 10
19.6596964832
 20
1.1717972817
 11
19.6950230232
 21
1.171593082
  0
LINE
  5
21B
100
AcDbEntity
  8
0
100
AcDbLine
 62
7
  6
CONTINUOUS
 10
19.7194818561
 20
1.1708914427
 11
19.8852396156
 21
1.1699333054
  0
LINE
  5
21C
100
AcDbEntity
  8
0
100
AcDbLine
 62
7
  6
CONTINUOUS
 10
19.4758111696
 20
1.2723454088
 11
19.88525039
 21
1.3511534004
  0
LINE
  5
21D
100
AcDbEntity
  8
0
100
AcDbLine
 62
7
  6
CONTINUOUS
 10
19.88525039
 20
1.3511534004
 11
19.8831348489
 21
0.9851647912
  0
LINE
  5
21E
100
AcDbEntity
  8
0
100
AcDbLine
 62
7
  6
CONTINUOUS
 10
19.8831348489
 20
0.9851647912
 11
19.4767170086
 21
1.0658141206
  0
LINE
  5
21F
100
AcDbEntity
  8
0
100
AcDbLine
 62
7
  6
CONTINUOUS
 10
19.4767170086
 20
1.0658141206
 11
19.4779056764
 21
1.2714536432
  0
CIRCLE
  5
220
100
AcDbEntity
  8
0
100
AcDbCircle
 62
7
  6
CONTINUOUS
 10
20.2068232291
 20
1.1717972817
 40
0.175742101
  0
CIRCLE
  5
221
100
AcDbEntity
  8
0
100
AcDbCircle
 62
7
  6
CONTINUOUS
 10
20.2068232291
 20
1.1717972817
 40
0.1005522074
  0
LINE
  5
222
100
AcDbEntity
  8
0
100
AcDbLine
 62
7
  6
CONTINUOUS
 10
20.2077290681
 20
1.3756110529
 11
20.2071171714
 21
1.2379342989
  0
LINE
  5
223
100
AcDbEntity
  8
0
100
AcDbLine
 62
7
  6
CONTINUOUS
 10
20.2077290681
 20
1.2016899681
 11
20.2074674401
 21
1.1428236749
  0
LINE
  5
224
100
AcDbEntity
  8
0
100
AcDbLine
 62
7
  6
CONTINUOUS
 10
20.208634907
 20
1.101141841
 11
20.2080230104
 21
0.963465087
  0
LINE
  5
225
100
AcDbEntity
  8
0
100
AcDbLine
 62
7
  6
CONTINUOUS
 10
20.0066328138
 20
1.1745147986
 11
20.1443095678
 21
1.1739029019
  0
LINE
  5
226
100
AcDbEntity
  8
0
100
AcDbLine
 62
7
  6
CONTINUOUS
 10
20.1832714155
 20
1.1727031207
 11
20.238153505
 21
1.172335442
  0
LINE
  5
227
100
AcDbEntity
  8
0
100
AcDbLine
 62
7
  6
CONTINUOUS
 10
20.2756669918
 20
1.1717972817
 11
20.407916871
 21
1.1712095044
  0
CIRCLE
  5
228
100
AcDbEntity
  8
0
100
AcDbCircle
 62
7
  6
CONTINUOUS
 10
20.7509457401
 20
1.1693297793
 40
0.1722024983
  0
CIRCLE
  5
229
100
AcDbEntity
  8
0
100
AcDbCircle
 62
7
  6
CONTINUOUS
 10
20.7509457401
 20
1.1693297793
 40
0.0985164967
  0
LINE
  5
22A
100
AcDbEntity
  8
0
100
AcDbLine
 62
7
  6
CONTINUOUS
 10
20.7169767782
 20
1.170462078
 11
20.7825395137
 21
1.1682766535
  0
LINE
  5
22B
100
AcDbEntity
  8
0
100
AcDbLine
 62
7
  6
CONTINUOUS
 10
20.8177513651
 20
1.1693297793
 11
20.947965719
 21
1.1693297793
  0
LINE
  5
22C
100
AcDbEntity
  8
0
100
AcDbLine
 62
7
  6
CONTINUOUS
 10
20.6875370113
 20
1.170462078
 11
20.5573226574
 21
1.170462078
  0
LINE
  5
22D
100
AcDbEntity
  8
0
100
AcDbLine
 62
7
  6
CONTINUOUS
 10
20.7486811426
 20
1.1987695462
 11
20.7486811426
 21
1.1432869085
  0
LINE
  5
22E
100
AcDbEntity
  8
0
100
AcDbLine
 62
7
  6
CONTINUOUS
 10
20.7498134414
 20
1.1059210505
 11
20.7498134414
 21
0.9757066966
  0
LINE
  5
22F
100
AcDbEntity
  8
0
100
AcDbLine
 62
7
  6
CONTINUOUS
 10
20.7486811426
 20
1.2338708068
 11
20.7486811426
 21
1.3640851607
  0
LINE
  5
230
100
AcDbEntity
  8
0
100
AcDbLine
 62
7
  6
CONTINUOUS
 10
21.0702539817
 20
1.2701043662
 11
21.4790138229
 21
1.3448360823
  0
LINE
  5
231
100
AcDbEntity
  8
0
100
AcDbLine
 62
7
  6
CONTINUOUS
 10
21.4790138229
 20
1.3448360823
 11
21.4790138229
 21
0.9779712941
  0
LINE
  5
232
100
AcDbEntity
  8
0
100
AcDbLine
 62
7
  6
CONTINUOUS
 10
21.4790138229
 20
0.9779712941
 11
21.069121683
 21
1.0617614
  0
LINE
  5
233
100
AcDbEntity
  8
0
100
AcDbLine
 62
7
  6
CONTINUOUS
 10
21.0702539817
 20
1.2701043662
 11
21.069121683
 21
1.0617614
  0
LINE
  5
234
100
AcDbEntity
  8
0
100
AcDbLine
 62
7
  6
CONTINUOUS
 10
21.4790138229
 20
1.1693297793
 11
21.3159628059
 21
1.1693297793
  0
LINE
  5
235
100
AcDbEntity
  8
0
100
AcDbLine
 62
7
  6
CONTINUOUS
 10
21.2876553377
 20
1.1693297793
 11
21.2502894796
 21
1.1693297793
  0
LINE
  5
236
100
AcDbEntity
  8
0
100
AcDbLine
 62
7
  6
CONTINUOUS
 10
21.2208497126
 20
1.1659328831
 11
21.0713862804
 21
1.1659328831
  0
LINE
  5
237
100
AcDbEntity
  8
0
100
AcDbLine
 62
7
  6
CONTINUOUS
 10
20.4796138713
 20
1.5284908897
 11
20.4766766948
 21
0.9294458646
  0
ENDBLK
  5
238
100
AcDbEntity
  8
0
  6
BYBLOCK
 62
0
100
AcDbBlockEnd
  0
BLOCK
  5
239
100
AcDbEntity
  8
0
100
AcDbBlockBegin
  2
*T1
 70
1
 10
0.0
 20
0.0
  3
*T1
  1

  0
LINE
  5
23A
100
AcDbEntity
  8
0
100
AcDbLine
 62
2
  6
CONTINUOUS
 10
9.275
 20
0.0
 11
-0.0
 21
0.0
  0
LINE
  5
23B
100
AcDbEntity
  8
0
100
AcDbLine
 62
2
  6
CONTINUOUS
 10
9.275
 20
0.0
 11
9.275
 21
1.25
  0
LINE
  5
23C
100
AcDbEntity
  8
0
100
AcDbLine
 62
2
  6
CONTINUOUS
 10
9.275
 20
0.625
 11
-0.0
 21
0.625
  0
LINE
  5
23D
100
AcDbEntity
  8
0
100
AcDbLine
 62
2
  6
CONTINUOUS
 10
9.275
 20
1.25
 11
-0.0
 21
1.25
  0
LINE
  5
23E
100
AcDbEntity
  8
0
100
AcDbLine
 62
2
  6
CONTINUOUS
 10
6.8
 20
0.0
 11
6.8
 21
1.25
  0
LINE
  5
23F
100
AcDbEntity
  8
0
100
AcDbLine
 62
2
  6
CONTINUOUS
 10
6.4
 20
0.0
 11
6.4
 21
0.625
  0
LINE
  5
240
100
AcDbEntity
  8
0
100
AcDbLine
 62
2
  6
CONTINUOUS
 10
5.9
 20
0.0
 11
5.9
 21
0.625
  0
LINE
  5
241
100
AcDbEntity
  8
0
100
AcDbLine
 62
2
  6
CONTINUOUS
 10
5.2
 20
0.0
 11
5.2
 21
0.625
  0
LINE
  5
242
100
AcDbEntity
  8
0
100
AcDbLine
 62
2
  6
CONTINUOUS
 10
4.1
 20
0.0
 11
4.1
 21
1.25
  0
LINE
  5
243
100
AcDbEntity
  8
0
100
AcDbLine
 62
2
  6
CONTINUOUS
 10
-0.0
 20
0.0
 11
-0.0
 21
1.25
  0
MTEXT
  5
244
100
AcDbEntity
  8
0
100
AcDbMText
 62
2
  6
CONTINUOUS
  7
STANDARD
 71
2
 72
1
 10
6.6
 20
0.325
 30
0.0
 11
1.0
 21
0.0
 31
0.0
 44
0.9
  1
2
 40
0.125
 41
0.2
  0
MTEXT
  5
245
100
AcDbEntity
  8
0
100
AcDbMText
 62
2
  6
CONTINUOUS
  7
STANDARD
 71
2
 72
1
 10
6.15
 20
0.325
 30
0.0
 11
1.0
 21
0.0
 31
0.0
 44
0.9
  1
C
 40
0.125
 41
0.2
  0
MTEXT
  5
246
100
AcDbEntity
  8
0
100
AcDbMText
 62
2
  6
CONTINUOUS
  7
STANDARD
 71
2
 72
1
 10
5.55
 20
0.325
 30
0.0
 11
1.0
 21
0.0
 31
0.0
 44
0.9
  1
1.000
 40
0.125
 41
1.0
  0
MTEXT
  5
247
100
AcDbEntity
  8
0
100
AcDbMText
 62
2
  6
CONTINUOUS
  7
STANDARD
 71
2
 72
1
 10
4.65
 20
0.325
 30
0.0
 11
1.0
 21
0.0
 31
0.0
 44
0.9
  1
Nov-27-19
 40
0.125
 41
1.8
  0
MTEXT
  5
248
100
AcDbEntity
  8
0
100
AcDbMText
 62
2
  6
CONTINUOUS
  7
STANDARD
 71
2
 72
1
 10
2.05
 20
0.4625
 30
0.0
 11
1.0
 21
0.0
 31
0.0
 44
0.9
  1
T-2A Motor mount Eaton/Char-Lynn 2000\PCross pilot with shuttle
 40
0.125
 41
7.4
  0
MTEXT
  5
249
100
AcDbEntity
  8
0
100
AcDbMText
 62
2
  6
CONTINUOUS
  7
STANDARD
 71
1
 72
1
 10
6.45
 20
0.5625
 30
0.0
 11
1.0
 21
0.0
 31
0.0
 44
0.9
  1
SHEET
 40
0.06
 41
0.48
  0
MTEXT
  5
24A
100
AcDbEntity
  8
0
100
AcDbMText
 62
2
  6
CONTINUOUS
  7
STANDARD
 71
1
 72
1
 10
5.95
 20
0.5625
 30
0.0
 11
1.0
 21
0.0
 31
0.0
 44
0.9
  1
DWG SIZE
 40
0.06
 41
0.768
  0
MTEXT
  5
24B
100
AcDbEntity
  8
0
100
AcDbMText
 62
2
  6
CONTINUOUS
  7
STANDARD
 71
1
 72
1
 10
5.25
 20
0.5625
 30
0.0
 11
1.0
 21
0.0
 31
0.0
 44
0.9
  1
SCALE
 40
0.06
 41
0.48
  0
MTEXT
  5
24C
100
AcDbEntity
  8
0
100
AcDbMText
 62
2
  6
CONTINUOUS
  7
STANDARD
 71
1
 72
1
 10
4.15
 20
0.5625
 30
0.0
 11
1.0
 21
0.0
 31
0.0
 44
0.9
  1
DATE
 40
0.06
 41
0.384
  0
MTEXT
  5
24D
100
AcDbEntity
  8
0
100
AcDbMText
 62
2
  6
CONTINUOUS
  7
STANDARD
 71
1
 72
1
 10
0.05
 20
0.5625
 30
0.0
 11
1.0
 21
0.0
 31
0.0
 44
0.9
  1
DESCRIPTION
 40
0.06
 41
1.056
  0
MTEXT
  5
24E
100
AcDbEntity
  8
0
100
AcDbMText
 62
2
  6
CONTINUOUS
  7
STANDARD
 71
2
 72
1
 10
5.45
 20
1.0375
 30
0.0
 11
1.0
 21
0.0
 31
0.0
 44
0.9
  1
ALL DIMENSIONS IN INCH\PVIEWS ARE THIRD ANGLE
 40
0.12
 41
4.224
  0
MTEXT
  5
24F
100
AcDbEntity
  8
0
100
AcDbMText
 62
2
  6
CONTINUOUS
  7
STANDARD
 71
2
 72
1
 10
2.05
 20
0.95
 30
0.0
 11
1.0
 21
0.0
 31
0.0
 44
0.9
  1
XYS
 40
0.125
 41
0.6
  0
MTEXT
  5
250
100
AcDbEntity
  8
0
100
AcDbMText
 62
2
  6
CONTINUOUS
  7
STANDARD
 71
1
 72
1
 10
0.05
 20
1.1875
 30
0.0
 11
1.0
 21
0.0
 31
0.0
 44
0.9
  1
MODEL
 40
0.06
 41
0.48
  0
ENDBLK
  5
251
100
AcDbEntity
  8
0
  6
BYBLOCK
 62
0
100
AcDbBlockEnd
  0
BLOCK
  5
252
100
AcDbEntity
  8
0
100
AcDbBlockBegin
  2
*T2
 70
1
 10
0.0
 20
0.0
  3
*T2
  1

  0
LINE
  5
253
100
AcDbEntity
  8
0
100
AcDbLine
 62
2
  6
CONTINUOUS
 10
0.0
 20
0.0
 11
9.055
 21
0.0
  0
LINE
  5
254
100
AcDbEntity
  8
0
100
AcDbLine
 62
2
  6
CONTINUOUS
 10
0.0
 20
0.0
 11
0.0
 21
-3.094
  0
LINE
  5
255
100
AcDbEntity
  8
0
100
AcDbLine
 62
2
  6
CONTINUOUS
 10
0.0
 20
-0.344
 11
9.055
 21
-0.344
  0
LINE
  5
256
100
AcDbEntity
  8
0
100
AcDbLine
 62
2
  6
CONTINUOUS
 10
0.0
 20
-0.594
 11
9.055
 21
-0.594
  0
LINE
  5
257
100
AcDbEntity
  8
0
100
AcDbLine
 62
2
  6
CONTINUOUS
 10
0.0
 20
-0.844
 11
9.055
 21
-0.844
  0
LINE
  5
258
100
AcDbEntity
  8
0
100
AcDbLine
 62
2
  6
CONTINUOUS
 10
0.0
 20
-1.094
 11
9.055
 21
-1.094
  0
LINE
  5
259
100
AcDbEntity
  8
0
100
AcDbLine
 62
2
  6
CONTINUOUS
 10
0.0
 20
-1.344
 11
9.055
 21
-1.344
  0
LINE
  5
25A
100
AcDbEntity
  8
0
100
AcDbLine
 62
2
  6
CONTINUOUS
 10
0.0
 20
-1.594
 11
9.055
 21
-1.594
  0
LINE
  5
25B
100
AcDbEntity
  8
0
100
AcDbLine
 62
2
  6
CONTINUOUS
 10
0.0
 20
-1.844
 11
9.055
 21
-1.844
  0
LINE
  5
25C
100
AcDbEntity
  8
0
100
AcDbLine
 62
2
  6
CONTINUOUS
 10
0.0
 20
-2.094
 11
9.055
 21
-2.094
  0
LINE
  5
25D
100
AcDbEntity
  8
0
100
AcDbLine
 62
2
  6
CONTINUOUS
 10
0.0
 20
-2.344
 11
9.055
 21
-2.344
  0
LINE
  5
25E
100
AcDbEntity
  8
0
100
AcDbLine
 62
2
  6
CONTINUOUS
 10
0.0
 20
-2.594
 11
9.055
 21
-2.594
  0
LINE
  5
25F
100
AcDbEntity
  8
0
100
AcDbLine
 62
2
  6
CONTINUOUS
 10
0.0
 20
-2.844
 11
9.055
 21
-2.844
  0
LINE
  5
260
100
AcDbEntity
  8
0
100
AcDbLine
 62
2
  6
CONTINUOUS
 10
0.0
 20
-3.094
 11
9.055
 21
-3.094
  0
LINE
  5
261
100
AcDbEntity
  8
0
100
AcDbLine
 62
2
  6
CONTINUOUS
 10
3.055
 20
0.0
 11
3.055
 21
-3.094
  0
LINE
  5
262
100
AcDbEntity
  8
0
100
AcDbLine
 62
2
  6
CONTINUOUS
 10
9.055
 20
0.0
 11
9.055
 21
-3.094
  0
MTEXT
  5
263
100
AcDbEntity
  8
0
100
AcDbMText
 62
2
  6
CONTINUOUS
  7
STANDARD
 71
2
 72
1
 10
1.5275
 20
-0.0995
 30
0.0
 11
1.0
 21
0.0
 31
0.0
 44
0.9
  1
Technical Data
 40
0.145
 41
3.248
  0
MTEXT
  5
264
100
AcDbEntity
  8
0
100
AcDbMText
 62
2
  6
CONTINUOUS
  7
STANDARD
 71
2
 72
1
 10
4.555
 20
-0.0995
 30
0.0
 11
1.0
 21
0.0
 31
0.0
 44
0.9
  1
U.S. Units
 40
0.145
 41
2.32
  0
MTEXT
  5
265
100
AcDbEntity
  8
0
100
AcDbMText
 62
2
  6
CONTINUOUS
  7
STANDARD
 71
2
 72
1
 10
7.555
 20
-0.0995
 30
0.0
 11
1.0
 21
0.0
 31
0.0
 44
0.9
  1
Metric Units
 40
0.145
 41
2.784
  0
MTEXT
  5
266
100
AcDbEntity
  8
0
100
AcDbMText
 62
2
  6
CONTINUOUS
  7
STANDARD
 71
2
 72
1
 10
1.5275
 20
-0.4065
 30
0.0
 11
1.0
 21
0.0
 31
0.0
 44
0.9
  1
Cavity
 40
0.125
 41
1.2
  0
MTEXT
  5
267
100
AcDbEntity
  8
0
100
AcDbMText
 62
2
  6
CONTINUOUS
  7
STANDARD
 71
2
 72
1
 10
6.055
 20
-0.4065
 30
0.0
 11
1.0
 21
0.0
 31
0.0
 44
0.9
  1
T-2A
 40
0.125
 41
0.8
  0
MTEXT
  5
268
100
AcDbEntity
  8
0
100
AcDbMText
 62
2
  6
CONTINUOUS
  7
STANDARD
 71
2
 72
1
 10
1.5275
 20
-0.6565
 30
0.0
 11
1.0
 21
0.0
 31
0.0
 44
0.9
  1
Body Features
 40
0.125
 41
2.6
  0
MTEXT
  5
269
100
AcDbEntity
  8
0
100
AcDbMText
 62
2
  6
CONTINUOUS
  7
STANDARD
 71
2
 72
1
 10
6.055
 20
-0.6565
 30
0.0
 11
1.0
 21
0.0
 31
0.0
 44
0.9
  1
Cross pilot with shuttle
 40
0.125
 41
4.8
  0
MTEXT
  5
26A
100
AcDbEntity
  8
0
100
AcDbMText
 62
2
  6
CONTINUOUS
  7
STANDARD
 71
2
 72
1
 10
1.5275
 20
-0.9065
 30
0.0
 11
1.0
 21
0.0
 31
0.0
 44
0.9
  1
Body Type
 40
0.125
 41
1.8
  0
MTEXT
  5
26B
100
AcDbEntity
  8
0
100
AcDbMText
 62
2
  6
CONTINUOUS
  7
STANDARD
 71
2
 72
1
 10
6.055
 20
-0.9065
 30
0.0
 11
1.0
 21
0.0
 31
0.0
 44
0.9
  1
Motor mount
 40
0.125
 41
2.2
  0
MTEXT
  5
26C
100
AcDbEntity
  8
0
100
AcDbMText
 62
2
  6
CONTINUOUS
  7
STANDARD
 71
2
 72
1
 10
1.5275
 20
-1.1565
 30
0.0
 11
1.0
 21
0.0
 31
0.0
 44
0.9
  1
Interface
 40
0.125
 41
1.8
  0
MTEXT
  5
26D
100
AcDbEntity
  8
0
100
AcDbMText
 62
2
  6
CONTINUOUS
  7
STANDARD
 71
2
 72
1
 10
6.055
 20
-1.1565
 30
0.0
 11
1.0
 21
0.0
 31
0.0
 44
0.9
  1
Eaton/Char-Lynn 2000
 40
0.125
 41
4.0
  0
MTEXT
  5
26E
100
AcDbEntity
  8
0
100
AcDbMText
 62
2
  6
CONTINUOUS
  7
STANDARD
 71
2
 72
1
 10
1.5275
 20
-1.4065
 30
0.0
 11
1.0
 21
0.0
 31
0.0
 44
0.9
  1
Open Cavity Quantity
 40
0.125
 41
4.0
  0
MTEXT
  5
26F
100
AcDbEntity
  8
0
100
AcDbMText
 62
2
  6
CONTINUOUS
  7
STANDARD
 71
2
 72
1
 10
6.055
 20
-1.4065
 30
0.0
 11
1.0
 21
0.0
 31
0.0
 44
0.9
  1
2
 40
0.125
 41
0.2
  0
MTEXT
  5
270
100
AcDbEntity
  8
0
100
AcDbMText
 62
2
  6
CONTINUOUS
  7
STANDARD
 71
2
 72
1
 10
1.5275
 20
-1.6565
 30
0.0
 11
1.0
 21
0.0
 31
0.0
 44
0.9
  1
Weight
 40
0.125
 41
1.2
  0
MTEXT
  5
271
100
AcDbEntity
  8
0
100
AcDbMText
 62
2
  6
CONTINUOUS
  7
STANDARD
 71
2
 72
1
 10
4.555
 20
-1.6565
 30
0.0
 11
1.0
 21
0.0
 31
0.0
 44
0.9
  1
2.862 lb.
 40
0.125
 41
1.8
  0
MTEXT
  5
272
100
AcDbEntity
  8
0
100
AcDbMText
 62
2
  6
CONTINUOUS
  7
STANDARD
 71
2
 72
1
 10
7.555
 20
-1.6565
 30
0.0
 11
1.0
 21
0.0
 31
0.0
 44
0.9
  1
1,298 kg.
 40
0.125
 41
1.8
  0
MTEXT
  5
273
100
AcDbEntity
  8
0
100
AcDbMText
 62
2
  6
CONTINUOUS
  7
STANDARD
 71
2
 72
1
 10
1.5275
 20
-1.9065
 30
0.0
 11
1.0
 21
0.0
 31
0.0
 44
0.9
  1
Mounting Hole Diameter
 40
0.125
 41
4.4
  0
MTEXT
  5
274
100
AcDbEntity
  8
0
100
AcDbMText
 62
2
  6
CONTINUOUS
  7
STANDARD
 71
2
 72
1
 10
4.555
 20
-1.9065
 30
0.0
 11
1.0
 21
0.0
 31
0.0
 44
0.9
  1
.41 in.
 40
0.125
 41
1.4
  0
MTEXT
  5
275
100
AcDbEntity
  8
0
100
AcDbMText
 62
2
  6
CONTINUOUS
  7
STANDARD
 71
2
 72
1
 10
7.555
 20
-1.9065
 30
0.0
 11
1.0
 21
0.0
 31
0.0
 44
0.9
  1
10,4 mm
 40
0.125
 41
1.4
  0
MTEXT
  5
276
100
AcDbEntity
  8
0
100
AcDbMText
 62
2
  6
CONTINUOUS
  7
STANDARD
 71
2
 72
1
 10
1.5275
 20
-2.1565
 30
0.0
 11
1.0
 21
0.0
 31
0.0
 44
0.9
  1
Mounting Hole Depth
 40
0.125
 41
3.8
  0
MTEXT
  5
277
100
AcDbEntity
  8
0
100
AcDbMText
 62
2
  6
CONTINUOUS
  7
STANDARD
 71
2
 72
1
 10
6.055
 20
-2.1565
 30
0.0
 11
1.0
 21
0.0
 31
0.0
 44
0.9
  1
Through
 40
0.125
 41
1.4
  0
MTEXT
  5
278
100
AcDbEntity
  8
0
100
AcDbMText
 62
2
  6
CONTINUOUS
  7
STANDARD
 71
2
 72
1
 10
1.5275
 20
-2.4065
 30
0.0
 11
1.0
 21
0.0
 31
0.0
 44
0.9
  1
Mounting Hole Quantity
 40
0.125
 41
4.4
  0
MTEXT
  5
279
100
AcDbEntity
  8
0
100
AcDbMText
 62
2
  6
CONTINUOUS
  7
STANDARD
 71
2
 72
1
 10
6.055
 20
-2.4065
 30
0.0
 11
1.0
 21
0.0
 31
0.0
 44
0.9
  1
3
 40
0.125
 41
0.2
  0
MTEXT
  5
27A
100
AcDbEntity
  8
0
100
AcDbMText
 62
2
  6
CONTINUOUS
  7
STANDARD
 71
2
 72
1
 10
1.5275
 20
-2.6565
 30
0.0
 11
1.0
 21
0.0
 31
0.0
 44
0.9
  1
Mounting Hole C'bore Diameter
 40
0.125
 41
5.8
  0
MTEXT
  5
27B
100
AcDbEntity
  8
0
100
AcDbMText
 62
2
  6
CONTINUOUS
  7
STANDARD
 71
2
 72
1
 10
4.555
 20
-2.6565
 30
0.0
 11
1.0
 21
0.0
 31
0.0
 44
0.9
  1
.59 in.
 40
0.125
 41
1.4
  0
MTEXT
  5
27C
100
AcDbEntity
  8
0
100
AcDbMText
 62
2
  6
CONTINUOUS
  7
STANDARD
 71
2
 72
1
 10
7.555
 20
-2.6565
 30
0.0
 11
1.0
 21
0.0
 31
0.0
 44
0.9
  1
15,0 mm
 40
0.125
 41
1.4
  0
MTEXT
  5
27D
100
AcDbEntity
  8
0
100
AcDbMText
 62
2
  6
CONTINUOUS
  7
STANDARD
 71
2
 72
1
 10
1.5275
 20
-2.9065
 30
0.0
 11
1.0
 21
0.0
 31
0.0
 44
0.9
  1
Mounting Hole C'bore Depth
 40
0.125
 41
5.2
  0
MTEXT
  5
27E
100
AcDbEntity
  8
0
100
AcDbMText
 62
2
  6
CONTINUOUS
  7
STANDARD
 71
2
 72
1
 10
4.555
 20
-2.9065
 30
0.0
 11
1.0
 21
0.0
 31
0.0
 44
0.9
  1
.38 in.
 40
0.125
 41
1.4
  0
MTEXT
  5
27F
100
AcDbEntity
  8
0
100
AcDbMText
 62
2
  6
CONTINUOUS
  7
STANDARD
 71
2
 72
1
 10
7.555
 20
-2.9065
 30
0.0
 11
1.0
 21
0.0
 31
0.0
 44
0.9
  1
9,7 mm
 40
0.125
 41
1.2
  0
ENDBLK
  5
280
100
AcDbEntity
  8
0
  6
BYBLOCK
 62
0
100
AcDbBlockEnd
  0
BLOCK
  5
281
100
AcDbEntity
  8
0
100
AcDbBlockBegin
  2
*T3
 70
1
 10
0.0
 20
0.0
  3
*T3
  1

  0
LINE
  5
282
100
AcDbEntity
  8
0
100
AcDbLine
 62
2
  6
CONTINUOUS
 10
0.0
 20
0.0
 11
4.6
 21
0.0
  0
LINE
  5
283
100
AcDbEntity
  8
0
100
AcDbLine
 62
2
  6
CONTINUOUS
 10
0.0
 20
0.0
 11
0.0
 21
-1.18775
  0
LINE
  5
284
100
AcDbEntity
  8
0
100
AcDbLine
 62
2
  6
CONTINUOUS
 10
0.0
 20
-0.34375
 11
4.6
 21
-0.34375
  0
LINE
  5
285
100
AcDbEntity
  8
0
100
AcDbLine
 62
2
  6
CONTINUOUS
 10
0.0
 20
-0.68775
 11
4.6
 21
-0.68775
  0
LINE
  5
286
100
AcDbEntity
  8
0
100
AcDbLine
 62
2
  6
CONTINUOUS
 10
0.0
 20
-0.93775
 11
4.6
 21
-0.93775
  0
LINE
  5
287
100
AcDbEntity
  8
0
100
AcDbLine
 62
2
  6
CONTINUOUS
 10
0.0
 20
-1.18775
 11
4.6
 21
-1.18775
  0
LINE
  5
288
100
AcDbEntity
  8
0
100
AcDbLine
 62
2
  6
CONTINUOUS
 10
1.3
 20
-0.34375
 11
1.3
 21
-1.18775
  0
LINE
  5
289
100
AcDbEntity
  8
0
100
AcDbLine
 62
2
  6
CONTINUOUS
 10
3.3
 20
-0.34375
 11
3.3
 21
-1.18775
  0
LINE
  5
28A
100
AcDbEntity
  8
0
100
AcDbLine
 62
2
  6
CONTINUOUS
 10
4.6
 20
0.0
 11
4.6
 21
-1.18775
  0
MTEXT
  5
28B
100
AcDbEntity
  8
0
100
AcDbMText
 62
2
  6
CONTINUOUS
  7
STANDARD
 71
2
 72
1
 10
2.3
 20
-0.099375
 30
0.0
 11
1.0
 21
0.0
 31
0.0
 44
0.9
  1
Port Headings
 40
0.145
 41
3.016
  0
MTEXT
  5
28C
100
AcDbEntity
  8
0
100
AcDbMText
 62
2
  6
CONTINUOUS
  7
STANDARD
 71
2
 72
1
 10
0.65
 20
-0.44325
 30
0.0
 11
1.0
 21
0.0
 31
0.0
 44
0.9
  1
Product
 40
0.145
 41
1.624
  0
MTEXT
  5
28D
100
AcDbEntity
  8
0
100
AcDbMText
 62
2
  6
CONTINUOUS
  7
STANDARD
 71
2
 72
1
 10
2.3
 20
-0.44325
 30
0.0
 11
1.0
 21
0.0
 31
0.0
 44
0.9
  1
Port
 40
0.145
 41
0.928
  0
MTEXT
  5
28E
100
AcDbEntity
  8
0
100
AcDbMText
 62
2
  6
CONTINUOUS
  7
STANDARD
 71
2
 72
1
 10
3.95
 20
-0.44325
 30
0.0
 11
1.0
 21
0.0
 31
0.0
 44
0.9
  1
Size
 40
0.145
 41
0.928
  0
MTEXT
  5
28F
100
AcDbEntity
  8
0
100
AcDbMText
 62
2
  6
CONTINUOUS
  7
STANDARD
 71
2
 72
1
 10
0.65
 20
-0.75025
 30
0.0
 11
1.0
 21
0.0
 31
0.0
 44
0.9
  1
XYS
 40
0.125
 41
0.6
  0
MTEXT
  5
290
100
AcDbEntity
  8
0
100
AcDbMText
 62
2
  6
CONTINUOUS
  7
STANDARD
 71
2
 72
1
 10
2.3
 20
-0.75025
 30
0.0
 11
1.0
 21
0.0
 31
0.0
 44
0.9
  1
Ports VA & VB
 40
0.125
 41
2.6
  0
MTEXT
  5
291
100
AcDbEntity
  8
0
100
AcDbMText
 62
2
  6
CONTINUOUS
  7
STANDARD
 71
2
 72
1
 10
3.95
 20
-0.75025
 30
0.0
 11
1.0
 21
0.0
 31
0.0
 44
0.9
  1
SAE 12
 40
0.125
 41
1.2
  0
MTEXT
  5
292
100
AcDbEntity
  8
0
100
AcDbMText
 62
2
  6
CONTINUOUS
  7
STANDARD
 71
2
 72
1
 10
0.65
 20
-1.00025
 30
0.0
 11
1.0
 21
0.0
 31
0.0
 44
0.9
  1
XYS
 40
0.125
 41
0.6
  0
MTEXT
  5
293
100
AcDbEntity
  8
0
100
AcDbMText
 62
2
  6
CONTINUOUS
  7
STANDARD
 71
2
 72
1
 10
2.3
 20
-1.00025
 30
0.0
 11
1.0
 21
0.0
 31
0.0
 44
0.9
  1
Port S
 40
0.125
 41
1.2
  0
MTEXT
  5
294
100
AcDbEntity
  8
0
100
AcDbMText
 62
2
  6
CONTINUOUS
  7
STANDARD
 71
2
 72
1
 10
3.95
 20
-1.00025
 30
0.0
 11
1.0
 21
0.0
 31
0.0
 44
0.9
  1
SAE 4
 40
0.125
 41
1.0
  0
ENDBLK
  5
295
100
AcDbEntity
  8
0
  6
BYBLOCK
 62
0
100
AcDbBlockEnd
  0
ENDSEC
  0
SECTION
  2
ENTITIES
  0
IMAGE
  5
296
100
AcDbEntity
  8
0
100
AcDbRasterImage
 62
7
  6
CONTINUOUS
 10
19.2297077316
 20
0.3094318264
 30
0.0
 11
0.0066666667
 21
0.0
 31
0.0
 12
0.0
 22
0.0066666667
 32
0.0
 13
369.0
 23
92.0
340
       342
 70
9
280
0
281
50
282
50
283
0
360
       33C
 71
1
 91
2
 14
-0.5
 24
-0.5
 14
368.5
 24
91.5
  0
INSERT
  5
297
100
AcDbEntity
  8
0
100
AcDbBlockReference
 62
2
  6
CONTINUOUS
  2
SUN_FIRST_THIRD_ANGLE_BL0
 10
20.4816717061
 20
1.2289683772
  0
ACAD_TABLE
  5
298
100
AcDbEntity
  8
0
 62
2
  6
CONTINUOUS
100
AcDbBlockReference
  2
*T1
 10
12.42375
 20
0.30125
 30
0.0
100
AcDbTable
342
       344
343
212
 11
1.0
 21
0.0
 31
0.0
 90
6
 91
4
 92
6
 93
20
 94
0
 95
0
 96
0
 70
1
 41
0.0
141
0.525
141
0.1
141
0.525
141
0.1
142
4.1
142
1.1
142
0.7
142
0.5
142
0.4
142
2.475
171
1
172
0
173
0
174
0
175
1
176
1
 91
33
178
0
145
0.0
301
CELL_VALUE
 90
4
  1
T-2A Motor mount Eaton/Char-Lynn 2000\PCross pilot with shuttle
304
ACVALUE_END
170
2
140
0.125
171
1
172
0
173
0
174
0
175
1
176
1
 91
33
178
0
145
0.0
301
CELL_VALUE
 90
4
  1
Nov-27-19
304
ACVALUE_END
170
5
140
0.125
171
1
172
0
173
0
174
0
175
1
176
1
 91
33
178
0
145
0.0
301
CELL_VALUE
 90
4
  1
1.000
304
ACVALUE_END
170
5
140
0.125
171
1
172
0
173
0
174
0
175
1
176
1
 91
33
178
0
145
0.0
301
CELL_VALUE
 90
4
  1
C
304
ACVALUE_END
170
5
140
0.125
171
1
172
0
173
0
174
0
175
1
176
1
 91
33
178
0
145
0.0
301
CELL_VALUE
 90
4
  1
2
304
ACVALUE_END
170
5
140
0.125
171
1
172
0
173
0
174
0
175
1
176
1
 91
33
178
0
145
0.0
301
CELL_VALUE
 90
4
  1
 
304
ACVALUE_END
170
1
140
0.125
171
1
172
0
173
0
174
0
175
1
176
1
 91
33
178
0
145
0.0
301
CELL_VALUE
 90
4
  1
DESCRIPTION
304
ACVALUE_END
170
1
140
0.06
171
1
172
0
173
0
174
0
175
1
176
1
 91
33
178
0
145
0.0
301
CELL_VALUE
 90
4
  1
DATE
304
ACVALUE_END
170
1
140
0.06
171
1
172
0
173
0
174
0
175
1
176
1
 91
33
178
0
145
0.0
301
CELL_VALUE
 90
4
  1
SCALE
304
ACVALUE_END
170
1
140
0.06
171
1
172
0
173
0
174
0
175
1
176
1
 91
33
178
0
145
0.0
301
CELL_VALUE
 90
4
  1
DWG SIZE
304
ACVALUE_END
170
1
140
0.06
171
1
172
0
173
0
174
0
175
1
176
1
 91
33
178
0
145
0.0
301
CELL_VALUE
 90
4
  1
SHEET
304
ACVALUE_END
170
1
140
0.06
171
1
172
0
173
0
174
0
175
1
176
1
 91
33
178
0
145
0.0
301
CELL_VALUE
 90
4
  1
 
304
ACVALUE_END
170
1
140
0.125
171
1
172
0
173
0
174
0
175
1
176
1
 91
33
178
0
145
0.0
301
CELL_VALUE
 90
4
  1
XYS
304
ACVALUE_END
170
5
140
0.125
171
1
172
0
173
0
174
0
175
4
176
1
 91
33
178
0
145
0.0
301
CELL_VALUE
 90
4
  1
ALL DIMENSIONS IN INCH\PVIEWS ARE THIRD ANGLE
304
ACVALUE_END
170
5
140
0.12
171
1
172
0
173
1
174
0
175
1
176
1
 91
1
178
0
145
0.0
170
1
171
1
172
0
173
1
174
0
175
1
176
1
 91
1
178
0
145
0.0
170
1
171
1
172
0
173
1
174
0
175
1
176
1
 91
1
178
0
145
0.0
170
5
171
1
172
0
173
0
174
0
175
1
176
1
 91
33
178
0
145
0.0
301
CELL_VALUE
 90
4
  1
 
304
ACVALUE_END
170
1
140
0.125
171
1
172
0
173
0
174
0
175
1
176
1
 91
33
178
0
145
0.0
301
CELL_VALUE
 90
4
  1
MODEL
304
ACVALUE_END
170
1
140
0.06
171
1
172
0
173
0
174
0
175
1
176
1
 91
33
178
0
145
0.0
301
CELL_VALUE
 90
4
  1
 
304
ACVALUE_END
170
1
140
0.125
171
1
172
0
173
0
174
0
175
1
176
1
 91
33
178
0
145
0.0
301
CELL_VALUE
 90
4
  1
 
304
ACVALUE_END
170
1
140
0.125
171
1
172
0
173
0
174
0
175
1
176
1
 91
33
178
0
145
0.0
301
CELL_VALUE
 90
4
  1
 
304
ACVALUE_END
170
1
140
0.125
171
1
172
0
173
0
174
0
175
1
176
1
 91
33
178
0
145
0.0
301
CELL_VALUE
 90
4
  1
 
304
ACVALUE_END
170
1
140
0.125
171
1
172
0
173
0
174
0
175
1
176
1
 91
33
178
0
145
0.0
301
CELL_VALUE
 90
4
  1
 
304
ACVALUE_END
170
1
140
0.125
  0
ACAD_TABLE
  5
299
100
AcDbEntity
  8
0
 62
2
  6
CONTINUOUS
100
AcDbBlockReference
  2
*T2
 10
12.4237499994
 20
16.47875
 30
0.0
100
AcDbTable
342
       343
343
213
 11
1.0
 21
0.0
 31
0.0
 90
22
 91
12
 92
3
 93
16
 94
0
 95
0
 96
0
 41
0.028
141
0.344
141
0.25
141
0.25
141
0.25
141
0.25
141
0.25
141
0.25
141
0.25
141
0.25
141
0.25
141
0.25
141
0.25
142
3.055
142
3.0
142
3.0
171
1
172
0
173
0
174
0
175
1
176
1
 91
33
178
0
145
0.0
301
CELL_VALUE
 90
4
  1
Technical Data
304
ACVALUE_END
170
5
140
0.145
171
1
172
0
173
0
174
0
175
1
176
1
 91
33
178
0
145
0.0
301
CELL_VALUE
 90
4
  1
U.S. Units
304
ACVALUE_END
170
5
140
0.145
171
1
172
0
173
0
174
0
175
1
176
1
 91
33
178
0
145
0.0
301
CELL_VALUE
 90
4
  1
Metric Units
304
ACVALUE_END
170
5
140
0.145
171
1
172
0
173
0
174
0
175
1
176
1
 91
33
178
0
145
0.0
301
CELL_VALUE
 90
4
  1
Cavity
304
ACVALUE_END
170
5
140
0.125
171
1
172
0
173
0
174
0
175
2
176
1
 91
33
178
0
145
0.0
301
CELL_VALUE
 90
4
  1
T-2A
304
ACVALUE_END
170
5
140
0.125
171
1
172
0
173
1
174
0
175
1
176
1
 91
1
178
0
145
0.0
170
1
171
1
172
0
173
0
174
0
175
1
176
1
 91
33
178
0
145
0.0
301
CELL_VALUE
 90
4
  1
Body Features
304
ACVALUE_END
170
5
140
0.125
171
1
172
0
173
0
174
0
175
2
176
1
 91
33
178
0
145
0.0
301
CELL_VALUE
 90
4
  1
Cross pilot with shuttle
304
ACVALUE_END
170
5
140
0.125
171
1
172
0
173
1
174
0
175
1
176
1
 91
1
178
0
145
0.0
170
1
171
1
172
0
173
0
174
0
175
1
176
1
 91
33
178
0
145
0.0
301
CELL_VALUE
 90
4
  1
Body Type
304
ACVALUE_END
170
5
140
0.125
171
1
172
0
173
0
174
0
175
2
176
1
 91
33
178
0
145
0.0
301
CELL_VALUE
 90
4
  1
Motor mount
304
ACVALUE_END
170
5
140
0.125
171
1
172
0
173
1
174
0
175
1
176
1
 91
1
178
0
145
0.0
170
1
171
1
172
0
173
0
174
0
175
1
176
1
 91
33
178
0
145
0.0
301
CELL_VALUE
 90
4
  1
Interface
304
ACVALUE_END
170
5
140
0.125
171
1
172
0
173
0
174
0
175
2
176
1
 91
33
178
0
145
0.0
301
CELL_VALUE
 90
4
  1
Eaton/Char-Lynn 2000
304
ACVALUE_END
170
5
140
0.125
171
1
172
0
173
1
174
0
175
1
176
1
 91
1
178
0
145
0.0
170
1
171
1
172
0
173
0
174
0
175
1
176
1
 91
33
178
0
145
0.0
301
CELL_VALUE
 90
4
  1
Open Cavity Quantity
304
ACVALUE_END
170
5
140
0.125
171
1
172
0
173
0
174
0
175
2
176
1
 91
33
178
0
145
0.0
301
CELL_VALUE
 90
4
  1
2
304
ACVALUE_END
170
5
140
0.125
171
1
172
0
173
1
174
0
175
1
176
1
 91
1
178
0
145
0.0
170
1
171
1
172
0
173
0
174
0
175
1
176
1
 91
33
178
0
145
0.0
301
CELL_VALUE
 90
4
  1
Weight
304
ACVALUE_END
170
5
140
0.125
171
1
172
0
173
0
174
0
175
1
176
1
 91
33
178
0
145
0.0
301
CELL_VALUE
 90
4
  1
2.862 lb.
304
ACVALUE_END
170
5
140
0.125
171
1
172
0
173
0
174
0
175
1
176
1
 91
33
178
0
145
0.0
301
CELL_VALUE
 90
4
  1
1,298 kg.
304
ACVALUE_END
170
5
140
0.125
171
1
172
0
173
0
174
0
175
1
176
1
 91
33
178
0
145
0.0
301
CELL_VALUE
 90
4
  1
Mounting Hole Diameter
304
ACVALUE_END
170
5
140
0.125
171
1
172
0
173
0
174
0
175
1
176
1
 91
33
178
0
145
0.0
301
CELL_VALUE
 90
4
  1
.41 in.
304
ACVALUE_END
170
5
140
0.125
171
1
172
0
173
0
174
0
175
1
176
1
 91
33
178
0
145
0.0
301
CELL_VALUE
 90
4
  1
10,4 mm
304
ACVALUE_END
170
5
140
0.125
171
1
172
0
173
0
174
0
175
1
176
1
 91
33
178
0
145
0.0
301
CELL_VALUE
 90
4
  1
Mounting Hole Depth
304
ACVALUE_END
170
5
140
0.125
171
1
172
0
173
0
174
0
175
2
176
1
 91
33
178
0
145
0.0
301
CELL_VALUE
 90
4
  1
Through
304
ACVALUE_END
170
5
140
0.125
171
1
172
0
173
1
174
0
175
1
176
1
 91
1
178
0
145
0.0
170
1
171
1
172
0
173
0
174
0
175
1
176
1
 91
33
178
0
145
0.0
301
CELL_VALUE
 90
4
  1
Mounting Hole Quantity
304
ACVALUE_END
170
5
140
0.125
171
1
172
0
173
0
174
0
175
2
176
1
 91
33
178
0
145
0.0
301
CELL_VALUE
 90
4
  1
3
304
ACVALUE_END
170
5
140
0.125
171
1
172
0
173
1
174
0
175
1
176
1
 91
1
178
0
145
0.0
170
1
171
1
172
0
173
0
174
0
175
1
176
1
 91
33
178
0
145
0.0
301
CELL_VALUE
 90
4
  1
Mounting Hole C'bore Diameter
304
ACVALUE_END
170
5
140
0.125
171
1
172
0
173
0
174
0
175
1
176
1
 91
33
178
0
145
0.0
301
CELL_VALUE
 90
4
  1
.59 in.
304
ACVALUE_END
170
5
140
0.125
171
1
172
0
173
0
174
0
175
1
176
1
 91
33
178
0
145
0.0
301
CELL_VALUE
 90
4
  1
15,0 mm
304
ACVALUE_END
170
5
140
0.125
171
1
172
0
173
0
174
0
175
1
176
1
 91
33
178
0
145
0.0
301
CELL_VALUE
 90
4
  1
Mounting Hole C'bore Depth
304
ACVALUE_END
170
5
140
0.125
171
1
172
0
173
0
174
0
175
1
176
1
 91
33
178
0
145
0.0
301
CELL_VALUE
 90
4
  1
.38 in.
304
ACVALUE_END
170
5
140
0.125
171
1
172
0
173
0
174
0
175
1
176
1
 91
33
178
0
145
0.0
301
CELL_VALUE
 90
4
  1
9,7 mm
304
ACVALUE_END
170
5
140
0.125
  0
ACAD_TABLE
  5
29A
100
AcDbEntity
  8
0
 62
2
  6
CONTINUOUS
100
AcDbBlockReference
  2
*T3
 10
0.52125
 20
1.709
 30
0.0
100
AcDbTable
342
       343
343
214
 11
1.0
 21
0.0
 31
0.0
 90
22
 91
4
 92
3
 93
16
 94
0
 95
0
 96
0
 41
0.05
141
0.34375
141
0.344
141
0.25
141
0.25
142
1.3
142
2.0
142
1.3
171
1
172
0
173
0
174
0
175
3
176
1
 91
33
178
0
145
0.0
301
CELL_VALUE
 90
4
  1
Port Headings
304
ACVALUE_END
170
5
140
0.145
171
1
172
0
173
1
174
0
175
1
176
1
 91
1
178
0
145
0.0
170
1
171
1
172
0
173
1
174
0
175
1
176
1
 91
1
178
0
145
0.0
170
1
171
1
172
0
173
0
174
0
175
1
176
1
 91
33
178
0
145
0.0
301
CELL_VALUE
 90
4
  1
Product
304
ACVALUE_END
170
5
140
0.145
171
1
172
0
173
0
174
0
175
1
176
1
 91
33
178
0
145
0.0
301
CELL_VALUE
 90
4
  1
Port
304
ACVALUE_END
170
5
140
0.145
171
1
172
0
173
0
174
0
175
1
176
1
 91
33
178
0
145
0.0
301
CELL_VALUE
 90
4
  1
Size
304
ACVALUE_END
170
5
140
0.145
171
1
172
0
173
0
174
0
175
1
176
1
 91
33
178
0
145
0.0
301
CELL_VALUE
 90
4
  1
XYS
304
ACVALUE_END
170
5
140
0.125
171
1
172
0
173
0
174
0
175
1
176
1
 91
33
178
0
145
0.0
301
CELL_VALUE
 90
4
  1
Ports VA & VB
304
ACVALUE_END
170
5
140
0.125
171
1
172
0
173
0
174
0
175
1
176
1
 91
33
178
0
145
0.0
301
CELL_VALUE
 90
4
  1
SAE 12
304
ACVALUE_END
170
5
140
0.125
171
1
172
0
173
0
174
0
175
1
176
1
 91
33
178
0
145
0.0
301
CELL_VALUE
 90
4
  1
XYS
304
ACVALUE_END
170
5
140
0.125
171
1
172
0
173
0
174
0
175
1
176
1
 91
33
178
0
145
0.0
301
CELL_VALUE
 90
4
  1
Port S
304
ACVALUE_END
170
5
140
0.125
171
1
172
0
173
0
174
0
175
1
176
1
 91
33
178
0
145
0.0
301
CELL_VALUE
 90
4
  1
SAE 4
304
ACVALUE_END
170
5
140
0.125
  0
MTEXT
  5
29B
100
AcDbEntity
  8
0
100
AcDbMText
 62
2
  6
CONTINUOUS
  7
STANDARD
 71
1
 72
1
 10
0.52125
 20
5.75995
 30
0.0
 11
1.0
 21
0.0
 31
0.0
 44
0.6
  3
Notes\P \P1. Important: Carefully consider\P   the maximum system pressure. The\P   pressure rating of the manifold is\P   dependent on the manifold material,\P   with the port type/size a secondary\P   consideration. Manifolds\P   constructed of alu
  1
minum are not\P   rated for pressures higher than\P   3000 psi (210 bar), regardless of\P   the port type/size specified.
 40
0.1
 41
3.04
  0
LINE
  5
29C
100
AcDbEntity
  8
0
100
AcDbLine
 62
7
  6
CONTINUOUS
 10
0.30125
 20
0.30125
 11
0.30125
 21
16.69875
  0
LINE
  5
29D
100
AcDbEntity
  8
0
100
AcDbLine
 62
7
  6
CONTINUOUS
 10
0.30125
 20
0.30125
 11
21.69875
 21
0.30125
  0
LINE
  5
29E
100
AcDbEntity
  8
0
100
AcDbLine
 62
7
  6
CONTINUOUS
 10
0.30125
 20
16.69875
 11
21.69875
 21
16.69875
  0
LINE
  5
29F
100
AcDbEntity
  8
0
100
AcDbLine
 62
7
  6
CONTINUOUS
 10
21.69875
 20
0.30125
 11
21.69875
 21
16.69875
  0
LINE
  5
2A0
100
AcDbEntity
  8
0
100
AcDbLine
 62
7
  6
CONTINUOUS
 10
9.3096559537
 20
6.4036435656
 11
9.3260080973
 21
6.3955659197
  0
LINE
  5
2A1
100
AcDbEntity
  8
0
100
AcDbLine
 62
7
  6
CONTINUOUS
 10
8.9375776335
 20
9.9482231497
 11
9.6816817741
 21
10.6669725991
  0
LINE
  5
2A2
100
AcDbEntity
  8
0
100
AcDbLine
 62
7
  6
CONTINUOUS
 10
8.9375776335
 20
9.9482231497
 11
8.9375776335
 21
6.5674825573
  0
LINE
  5
2A3
100
AcDbEntity
  8
0
100
AcDbLine
 62
7
  6
CONTINUOUS
 10
12.3183182259
 20
6.3330274009
 11
8.9375776335
 21
6.5674825573
  0
LINE
  5
2A4
100
AcDbEntity
  8
0
100
AcDbLine
 62
7
  6
CONTINUOUS
 10
9.2277590175
 20
6.54735841
 11
9.2277590175
 21
6.5054128638
  0
LINE
  5
2A5
100
AcDbEntity
  8
0
100
AcDbLine
 62
7
  6
CONTINUOUS
 10
9.3408138294
 20
6.5395180322
 11
9.3408138294
 21
6.3962104879
  0
LINE
  5
2A6
100
AcDbEntity
  8
0
100
AcDbLine
 62
7
  6
CONTINUOUS
 10
9.3826940569
 20
6.5366136285
 11
9.3826940569
 21
6.3853711011
  0
LINE
  5
2A7
100
AcDbEntity
  8
0
100
AcDbLine
 62
7
  6
CONTINUOUS
 10
9.4263944351
 20
8.4538767986
 11
9.4263944351
 21
8.2583277479
  0
LINE
  5
2A8
100
AcDbEntity
  8
0
100
AcDbLine
 62
7
  6
CONTINUOUS
 10
9.8046200359
 20
6.5073529625
 11
9.8046200359
 21
6.3561104351
  0
LINE
  5
2A9
100
AcDbEntity
  8
0
100
AcDbLine
 62
7
  6
CONTINUOUS
 10
9.8618294745
 20
6.5033854745
 11
9.8618294745
 21
6.3600779302
  0
LINE
  5
2AA
100
AcDbEntity
  8
0
100
AcDbLine
 62
7
  6
CONTINUOUS
 10
10.1707006415
 20
6.4819651863
 11
10.1707006415
 21
6.4400196401
  0
LINE
  5
2AB
100
AcDbEntity
  8
0
100
AcDbLine
 62
7
  6
CONTINUOUS
 10
10.1860298527
 20
6.4809021019
 11
10.1860298527
 21
6.4548265219
  0
LINE
  5
2AC
100
AcDbEntity
  8
0
100
AcDbLine
 62
7
  6
CONTINUOUS
 10
9.3852411159
 20
8.2806344813
 11
9.3860718526
 21
8.2814219697
  0
LINE
  5
2AD
100
AcDbEntity
  8
0
100
AcDbLine
 62
7
  6
CONTINUOUS
 10
9.3860712095
 20
8.2814213763
 11
9.3829888301
 21
8.2785528987
  0
LINE
  5
2AE
100
AcDbEntity
  8
0
100
AcDbLine
 62
7
  6
CONTINUOUS
 10
13.0624223665
 20
10.4325174427
 11
12.3183182259
 21
9.7137679933
  0
LINE
  5
2AF
100
AcDbEntity
  8
0
100
AcDbLine
 62
7
  6
CONTINUOUS
 10
12.3183182259
 20
9.7137679933
 11
12.3183182259
 21
6.3330274009
  0
LINE
  5
2B0
100
AcDbEntity
  8
0
100
AcDbLine
 62
7
  6
CONTINUOUS
 10
12.3183182259
 20
9.7137679933
 11
8.9375776335
 21
9.9482231497
  0
LINE
  5
2B1
100
AcDbEntity
  8
0
100
AcDbLine
 62
7
  6
CONTINUOUS
 10
10.1130394585
 20
6.4080432268
 11
10.0877807728
 21
6.3955659197
  0
LINE
  5
2B2
100
AcDbEntity
  8
0
100
AcDbLine
 62
7
  6
CONTINUOUS
 10
13.0624223665
 20
10.4325174427
 11
13.0624223665
 21
7.0517768503
  0
LINE
  5
2B3
100
AcDbEntity
  8
0
100
AcDbLine
 62
7
  6
CONTINUOUS
 10
9.6816817741
 20
10.6669725991
 11
13.0624223665
 21
10.4325174427
  0
LINE
  5
2B4
100
AcDbEntity
  8
0
100
AcDbLine
 62
7
  6
CONTINUOUS
 10
13.0624223665
 20
7.0517768503
 11
12.3183182259
 21
6.3330274009
  0
ARC
  5
2B5
100
AcDbEntity
  8
0
100
AcDbCircle
 62
7
  6
CONTINUOUS
 10
9.7146966918
 20
8.0672138824
 40
1.7134646816
100
AcDbArc
 50
273.0082884861
 51
274.9259735841
  0
ARC
  5
2B6
100
AcDbEntity
  8
0
100
AcDbCircle
 62
7
  6
CONTINUOUS
 10
10.5364476797
 20
8.4337842248
 40
1.1403295089
100
AcDbArc
 50
190.3586154728
 51
190.8696880844
  0
ARC
  5
2B7
100
AcDbEntity
  8
0
100
AcDbCircle
 62
7
  6
CONTINUOUS
 10
9.8505384074
 20
6.9387693701
 40
0.592095416
100
AcDbArc
 50
293.5909366593
 51
296.3077578095
  0
ARC
  5
2B8
100
AcDbEntity
  8
0
100
AcDbCircle
 62
7
  6
CONTINUOUS
 10
11.0791497735
 20
9.0057973534
 40
0.4466640854
100
AcDbArc
 50
172.7529411018
 51
180.0157774541
  0
ARC
  5
2B9
100
AcDbEntity
  8
0
100
AcDbCircle
 62
7
  6
CONTINUOUS
 10
11.9851882172
 20
7.9770373752
 40
0.4466640854
100
AcDbArc
 50
172.7529411018
 51
180.0157774541
  0
ARC
  5
2BA
100
AcDbEntity
  8
0
100
AcDbCircle
 62
7
  6
CONTINUOUS
 10
11.0878928419
 20
9.0112558512
 40
0.4186648053
100
AcDbArc
 50
173.5522078047
 51
180.0124696123
  0
ARC
  5
2BB
100
AcDbEntity
  8
0
100
AcDbCircle
 62
7
  6
CONTINUOUS
 10
11.9939312856
 20
7.9824958731
 40
0.4186648053
100
AcDbArc
 50
173.5522078047
 51
180.0124696123
  0
ARC
  5
2BC
100
AcDbEntity
  8
0
100
AcDbCircle
 62
7
  6
CONTINUOUS
 10
9.3318003215
 20
8.2749603961
 40
0.3600467106
100
AcDbArc
 50
134.8320443737
 51
135.8393257379
  0
ARC
  5
2BD
100
AcDbEntity
  8
0
100
AcDbCircle
 62
7
  6
CONTINUOUS
 10
9.4060878063
 20
8.1980518718
 40
0.3600255271
100
AcDbArc
 50
312.1752390262
 51
313.3149651756
  0
ARC
  5
2BE
100
AcDbEntity
  8
0
100
AcDbCircle
 62
7
  6
CONTINUOUS
 10
9.3734112239
 20
8.2199632648
 40
0.2321760253
100
AcDbArc
 50
349.3351410777
 51
0.0338909318
  0
ARC
  5
2BF
100
AcDbEntity
  8
0
100
AcDbCircle
 62
7
  6
CONTINUOUS
 10
11.5179516595
 20
7.986906304
 40
0.0971367245
100
AcDbArc
 50
154.3794897531
 51
156.5375122068
  0
ARC
  5
2C0
100
AcDbEntity
  8
0
100
AcDbCircle
 62
7
  6
CONTINUOUS
 10
9.4233270263
 20
8.24111817
 40
0.0548823782
100
AcDbArc
 50
133.9440166816
 51
137.3610490288
  0
SPLINE
  5
2C1
100
AcDbEntity
  8
0
100
AcDbSpline
 62
7
  6
CONTINUOUS
 70
0
 71
3
 72
9
 73
5
 74
0
 42
0.0000001
 43
0.0000001
 44
0.0000000001
 40
0.0
 40
0.0
 40
0.0
 40
0.0
 40
0.4864210225
 40
1.0
 40
1.0
 40
1.0
 40
1.0
 10
10.1860298527
 20
6.4548265219
 30
0.0
 10
10.1850161457
 20
6.4535401718
 30
0.0
 10
10.1828296555
 20
6.450975387
 30
0.0
 10
10.1804759364
 20
6.4485643229
 30
0.0
 10
10.1792321921
 20
6.4473629581
 30
0.0
  0
SPLINE
  5
2C2
100
AcDbEntity
  8
0
100
AcDbSpline
 62
7
  6
CONTINUOUS
 70
0
 71
3
 72
9
 73
5
 74
0
 42
0.0000001
 43
0.0000001
 44
0.0000000001
 40
0.0
 40
0.0
 40
0.0
 40
0.0
 40
0.4865082157
 40
1.0
 40
1.0
 40
1.0
 40
1.0
 10
10.1792321921
 20
6.4473629581
 30
0.0
 10
10.1779187221
 20
6.4460942434
 30
0.0
 10
10.1751375808
 20
6.4435698385
 30
0.0
 10
10.1722242748
 20
6.4412001341
 30
0.0
 10
10.1707006415
 20
6.4400196401
 30
0.0
  0
SPLINE
  5
2C3
100
AcDbEntity
  8
0
100
AcDbSpline
 62
7
  6
CONTINUOUS
 70
0
 71
3
 72
10
 73
6
 74
0
 42
0.0000001
 43
0.0000001
 44
0.0000000001
 40
0.0
 40
0.0
 40
0.0
 40
0.0
 40
0.2529461406
 40
0.5040048642
 40
1.0
 40
1.0
 40
1.0
 40
1.0
 10
10.1707006415
 20
6.4400196401
 30
0.0
 10
10.1659485092
 20
6.4371157562
 30
0.0
 10
10.1564244797
 20
6.4314190806
 30
0.0
 10
10.1372995498
 20
6.4205092887
 30
0.0
 10
10.122741262
 20
6.4128366746
 30
0.0
 10
10.1129506967
 20
6.4079993897
 30
0.0
  0
SPLINE
  5
2C4
100
AcDbEntity
  8
0
100
AcDbSpline
 62
7
  6
CONTINUOUS
 70
0
 71
3
 72
15
 73
11
 74
0
 42
0.0000001
 43
0.0000001
 44
0.0000000001
 40
0.0
 40
0.0
 40
0.0
 40
0.0
 40
0.100242627
 40
0.207275098
 40
0.3213134536
 40
0.4425137969
 40
0.5709656918
 40
0.7067069025
 40
0.8497317727
 40
1.0
 40
1.0
 40
1.0
 40
1.0
 10
9.3860718552
 20
8.2814219695
 30
0.0
 10
9.387214101
 20
8.2824849022
 30
0.0
 10
9.3896576869
 20
8.2845959792
 30
0.0
 10
9.3936414635
 20
8.2876240541
 30
0.0
 10
9.3980556887
 20
8.2906112319
 30
0.0
 10
9.4028942228
 20
8.2935535056
 30
0.0
 10
9.4081507696
 20
8.2964472388
 30
0.0
 10
9.4138183449
 20
8.2992884722
 30
0.0
 10
9.4198892275
 20
8.3020734404
 30
0.0
 10
9.4240968627
 20
8.3038465676
 30
0.0
 10
9.4262646542
 20
8.3047248894
 30
0.0
  0
SPLINE
  5
2C5
100
AcDbEntity
  8
0
100
AcDbSpline
 62
7
  6
CONTINUOUS
 70
0
 71
3
 72
23
 73
19
 74
0
 42
0.0000001
 43
0.0000001
 44
0.0000000001
 40
0.0
 40
0.0
 40
0.0
 40
0.0
 40
0.0439926011
 40
0.0899258399
 40
0.1380355908
 40
0.1885254573
 40
0.2415601557
 40
0.2972614548
 40
0.3557066505
 40
0.4169297304
 40
0.4809246146
 40
0.5476498156
 40
0.6170340162
 40
0.6889820703
 40
0.7633810372
 40
0.8401056377
 40
0.9190240351
 40
1.0
 40
1.0
 40
1.0
 40
1.0
 10
9.309711905
 20
6.4036159279
 30
0.0
 10
9.3079679263
 20
6.404477233
 30
0.0
 10
9.3044674746
 20
6.4063711496
 30
0.0
 10
9.2993108895
 20
6.4096438041
 30
0.0
 10
9.2941469289
 20
6.4134153628
 30
0.0
 10
9.2889791773
 20
6.4176922994
 30
0.0
 10
9.2838107315
 20
6.4224771217
 30
0.0
 10
9.2786448253
 20
6.4277678962
 30
0.0
 10
9.2734845643
 20
6.4335583421
 30
0.0
 10
9.268332927
 20
6.4398380374
 30
0.0
 10
9.263192687
 20
6.4465928306
 30
0.0
 10
9.258066348
 20
6.4538053632
 30
0.0
 10
9.2529560897
 20
6.461455687
 30
0.0
 10
9.2478637312
 20
6.4695219243
 30
0.0
 10
9.2427907131
 20
6.477980915
 30
0.0
 10
9.2377380953
 20
6.4868088771
 30
0.0
 10
9.2327066274
 20
6.4959818559
 30
0.0
 10
9.2294072538
 20
6.5022345863
 30
0.0
 10
9.2277590175
 20
6.5054128638
 30
0.0
  0
SPLINE
  5
2C6
100
AcDbEntity
  8
0
100
AcDbSpline
 62
7
  6
CONTINUOUS
 70
0
 71
3
 72
54
 73
50
 74
0
 42
0.0000001
 43
0.0000001
 44
0.0000000001
 40
0.0
 40
0.0
 40
0.0
 40
0.0
 40
0.0099875063
 40
0.0204478303
 40
0.0313773779
 40
0.0427710071
 40
0.0546221557
 40
0.0669229659
 40
0.0796644927
 40
0.09283668
 40
0.106428624
 40
0.1204284442
 40
0.1348235526
 40
0.1496005408
 40
0.1647453694
 40
0.1802433337
 40
0.2122363137
 40
0.2454513144
 40
0.2797518232
 40
0.31499471
 40
0.3510313047
 40
0.3877083141
 40
0.4248688169
 40
0.4623531561
 40
0.4999998562
 40
0.5376465625
 40
0.5751308898
 40
0.6122913875
 40
0.6489683879
 40
0.6850049708
 40
0.7202478509
 40
0.7545483381
 40
0.7877633237
 40
0.8039210785
 40
0.819756865
 40
0.8352548139
 40
0.8503996303
 40
0.8651766168
 40
0.8795716908
 40
0.8935715162
 40
0.9071634202
 40
0.9203356224
 40
0.9330771092
 40
0.9453779179
 40
0.9572290392
 40
0.9686226566
 40
0.9795521948
 40
0.9900124843
 40
1.0
 40
1.0
 40
1.0
 40
1.0
 10
10.0877806663
 20
6.3955658743
 30
0.0
 10
10.0854636688
 20
6.3944213214
 30
0.0
 10
10.0806804132
 20
6.3921574866
 30
0.0
 10
10.0732407637
 20
6.3889040157
 30
0.0
 10
10.065378142
 20
6.3857176398
 30
0.0
 10
10.0571016413
 20
6.3826020975
 30
0.0
 10
10.0484207106
 20
6.3795609773
 30
0.0
 10
10.0393453268
 20
6.3765977739
 30
0.0
 10
10.0298859136
 20
6.3737159653
 30
0.0
 10
10.0200533632
 20
6.370918834
 30
0.0
 10
10.0098589934
 20
6.3682096886
 30
0.0
 10
9.9993145597
 20
6.365591609
 30
0.0
 10
9.9884322198
 20
6.3630676877
 30
0.0
 10
9.977224536
 20
6.3606408171
 30
0.0
 10
9.9657044285
 20
6.3583138168
 30
0.0
 10
9.9497765929
 20
6.3553162195
 30
0.0
 10
9.9291814076
 20
6.3518488612
 30
0.0
 10
9.9036957448
 20
6.348168691
 30
0.0
 10
9.8773012118
 20
6.3449436883
 30
0.0
 10
9.8501197182
 20
6.3421889064
 30
0.0
 10
9.8222766907
 20
6.3399172338
 30
0.0
 10
9.7939006966
 20
6.3381392817
 30
0.0
 10
9.7651227844
 20
6.3368633558
 30
0.0
 10
9.7360758821
 20
6.3360954131
 30
0.0
 10
9.7068941703
 20
6.3358390376
 30
0.0
 10
9.6777124616
 20
6.336095425
 30
0.0
 10
9.6486655623
 20
6.3368633787
 30
0.0
 10
9.6198876578
 20
6.3381393137
 30
0.0
 10
9.5915116688
 20
6.3399172722
 30
0.0
 10
9.5636686565
 20
6.3421889532
 30
0.0
 10
9.5364871468
 20
6.3449437346
 30
0.0
 10
9.5100927233
 20
6.3481687679
 30
0.0
 10
9.4886624263
 20
6.3512632344
 30
0.0
 10
9.4720078829
 20
6.3539702403
 30
0.0
 10
9.459903211
 20
6.3560894977
 30
0.0
 10
9.4480840125
 20
6.3583139102
 30
0.0
 10
9.4365639228
 20
6.3606409049
 30
0.0
 10
9.4253562475
 20
6.3630677699
 30
0.0
 10
9.4144739222
 20
6.3655917148
 30
0.0
 10
9.4039295004
 20
6.3682097693
 30
0.0
 10
9.3937351456
 20
6.3709189508
 30
0.0
 10
9.3839026043
 20
6.3737160522
 30
0.0
 10
9.3744432082
 20
6.3765978939
 30
0.0
 10
9.3653678364
 20
6.3795610761
 30
0.0
 10
9.3566869226
 20
6.3826022136
 30
0.0
 10
9.3484104356
 20
6.3857177558
 30
0.0
 10
9.3405478266
 20
6.3889041254
 30
0.0
 10
9.3331081958
 20
6.3921576166
 30
0.0
 10
9.3283249441
 20
6.3944214439
 30
0.0
 10
9.3260079437
 20
6.3955659965
 30
0.0
  0
SPLINE
  5
2C7
100
AcDbEntity
  8
0
100
AcDbSpline
 62
7
  6
CONTINUOUS
 70
0
 71
3
 72
39
 73
35
 74
0
 42
0.0000001
 43
0.0000001
 44
0.0000000001
 40
0.0
 40
0.0
 40
0.0
 40
0.0
 40
0.0977592286
 40
0.1919164599
 40
0.2820839977
 40
0.3255587835
 40
0.3679033051
 40
0.4090771523
 40
0.4490425145
 40
0.487763638
 40
0.5252077628
 40
0.5613446167
 40
0.5961474376
 40
0.6295925398
 40
0.6616604522
 40
0.6923356213
 40
0.7216077222
 40
0.7494715972
 40
0.7759288384
 40
0.800988117
 40
0.8246671991
 40
0.8469938929
 40
0.86800872
 40
0.8877667368
 40
0.9063410096
 40
0.9238252964
 40
0.9321971067
 40
0.9403429551
 40
0.9560286673
 40
0.9710608427
 40
0.9783969968
 40
0.9856466571
 40
0.9928380096
 40
1.0
 40
1.0
 40
1.0
 40
1.0
 10
9.5795502369
 20
8.1936418303
 30
0.0
 10
9.5739211016
 20
8.1943841718
 30
0.0
 10
9.5628854915
 20
8.1959609056
 30
0.0
 10
9.5467242444
 20
8.1986593892
 30
0.0
 10
9.53373229
 20
8.201170501
 30
0.0
 10
9.5237398597
 20
8.203323061
 30
0.0
 10
9.5165529047
 20
8.2049826259
 30
0.0
 10
9.5095905272
 20
8.2067050129
 30
0.0
 10
9.5028609126
 20
8.2084881459
 30
0.0
 10
9.4963719869
 20
8.2103299635
 30
0.0
 10
9.4901313748
 20
8.2122282285
 30
0.0
 10
9.484146415
 20
8.2141807515
 30
0.0
 10
9.4784241224
 20
8.2161851642
 30
0.0
 10
9.4729712115
 20
8.2182391587
 30
0.0
 10
9.4677940472
 20
8.2203402521
 30
0.0
 10
9.4628986825
 20
8.2224860366
 30
0.0
 10
9.4582907931
 20
8.2246739367
 30
0.0
 10
9.4539757347
 20
8.2269014714
 30
0.0
 10
9.4499584574
 20
8.2291660075
 30
0.0
 10
9.4462435899
 20
8.2314650351
 30
0.0
 10
9.4428353328
 20
8.2337959196
 30
0.0
 10
9.4397375798
 20
8.2361561999
 30
0.0
 10
9.4369538087
 20
8.2385433206
 30
0.0
 10
9.4344872185
 20
8.2409550225
 30
0.0
 10
9.4323408119
 20
8.243388778
 30
0.0
 10
9.4307994121
 20
8.2454630761
 30
0.0
 10
9.4297376962
 20
8.2471291115
 30
0.0
 10
9.428812134
 20
8.24875517
 30
0.0
 10
9.4278496465
 20
8.2508021423
 30
0.0
 10
9.4271453477
 20
8.252903285
 30
0.0
 10
9.4267546964
 20
8.2545795858
 30
0.0
 10
9.4265469122
 20
8.2558281602
 30
0.0
 10
9.4264221895
 20
8.2570775121
 30
0.0
 10
9.4263944439
 20
8.2579114213
 30
0.0
 10
9.42639444
 20
8.2583273909
 30
0.0
  0
SPLINE
  5
2C8
100
AcDbEntity
  8
0
100
AcDbSpline
 62
7
  6
CONTINUOUS
 70
0
 71
3
 72
22
 73
18
 74
0
 42
0.0000001
 43
0.0000001
 44
0.0000000001
 40
0.0
 40
0.0
 40
0.0
 40
0.0
 40
0.0663023645
 40
0.1319933441
 40
0.1970738889
 40
0.2615528771
 40
0.3254472794
 40
0.3887818574
 40
0.4515884314
 40
0.5139046732
 40
0.5757725856
 40
0.637236846
 40
0.6983431589
 40
0.7591367643
 40
0.8196612302
 40
0.8799572604
 40
1.0
 40
1.0
 40
1.0
 40
1.0
 10
10.0874974042
 20
6.3961577083
 30
0.0
 10
10.0828142328
 20
6.3941168614
 30
0.0
 10
10.0734338491
 20
6.3901836497
 30
0.0
 10
10.0592612203
 20
6.384727546
 30
0.0
 10
10.045058685
 20
6.3797594001
 30
0.0
 10
10.0308353362
 20
6.375293056
 30
0.0
 10
10.016600798
 20
6.3713382162
 30
0.0
 10
10.0023651568
 20
6.3679000899
 30
0.0
 10
9.9881385597
 20
6.3649791086
 30
0.0
 10
9.9739308624
 20
6.3625709834
 30
0.0
 10
9.9597512968
 20
6.3606669345
 30
0.0
 10
9.9456082032
 20
6.3592541188
 30
0.0
 10
9.9315087995
 20
6.358316206
 30
0.0
 10
9.9174591437
 20
6.3578340282
 30
0.0
 10
9.9034637627
 20
6.3577863313
 30
0.0
 10
9.8849098765
 20
6.3582708913
 30
0.0
 10
9.8710385507
 20
6.3592175099
 30
0.0
 10
9.8618294745
 20
6.3600779302
 30
0.0
  0
SPLINE
  5
2C9
100
AcDbEntity
  8
0
100
AcDbSpline
 62
7
  6
CONTINUOUS
 70
0
 71
3
 72
11
 73
7
 74
0
 42
0.0000001
 43
0.0000001
 44
0.0000000001
 40
0.0
 40
0.0
 40
0.0
 40
0.0
 40
0.2598442603
 40
0.5132468501
 40
0.7600230614
 40
1.0
 40
1.0
 40
1.0
 40
1.0
 10
9.3826940569
 20
6.3853711011
 30
0.0
 10
9.3790413016
 20
6.3862083471
 30
0.0
 10
9.3718370909
 20
6.3879094498
 30
0.0
 10
9.3612051845
 20
6.390576956
 30
0.0
 10
9.3508904315
 20
6.3933264882
 30
0.0
 10
9.3441358199
 20
6.3952396265
 30
0.0
 10
9.3408138294
 20
6.3962104879
 30
0.0
  0
SPLINE
  5
2CA
100
AcDbEntity
  8
0
100
AcDbSpline
 62
7
  6
CONTINUOUS
 70
0
 71
3
 72
23
 73
19
 74
0
 42
0.0000001
 43
0.0000001
 44
0.0000000001
 40
0.0
 40
0.0
 40
0.0
 40
0.0
 40
0.0614938797
 40
0.1230913378
 40
0.1848036602
 40
0.2466418646
 40
0.3086163455
 40
0.3707360622
 40
0.4330078488
 40
0.4954357823
 40
0.5580207554
 40
0.6207603725
 40
0.6836491827
 40
0.7466791736
 40
0.8098404496
 40
0.873122002
 40
0.9365122792
 40
1.0
 40
1.0
 40
1.0
 40
1.0
 10
9.8046200359
 20
6.3561104351
 30
0.0
 10
9.7960001042
 20
6.3544854477
 30
0.0
 10
9.7787050865
 20
6.3514433724
 30
0.0
 10
9.7526269383
 20
6.3475684651
 30
0.0
 10
9.7263985812
 20
6.3444398748
 30
0.0
 10
9.7000320451
 20
6.3421178543
 30
0.0
 10
9.6735450113
 20
6.3406580371
 30
0.0
 10
9.6469611819
 20
6.3401081316
 30
0.0
 10
9.6203096198
 20
6.3405045054
 30
0.0
 10
9.5936234769
 20
6.3418692585
 30
0.0
 10
9.5669380835
 20
6.3442082667
 30
0.0
 10
9.5402886886
 20
6.3475105688
 30
0.0
 10
9.5137082232
 20
6.3517493274
 30
0.0
 10
9.4872254393
 20
6.3568840706
 30
0.0
 10
9.4608636942
 20
6.3628637982
 30
0.0
 10
9.4346403563
 20
6.369630471
 30
0.0
 10
9.4085671664
 20
6.3771222579
 30
0.0
 10
9.3913011624
 20
6.3825547221
 30
0.0
 10
9.3826940569
 20
6.3853711011
 30
0.0
  0
SPLINE
  5
2CB
100
AcDbEntity
  8
0
100
AcDbSpline
 62
7
  6
CONTINUOUS
 70
0
 71
3
 72
15
 73
11
 74
0
 42
0.0000001
 43
0.0000001
 44
0.0000000001
 40
0.0
 40
0.0
 40
0.0
 40
0.0
 40
0.1192556909
 40
0.2392888012
 40
0.3604875806
 40
0.4832819608
 40
0.6081345433
 40
0.735534223
 40
0.8659858194
 40
1.0
 40
1.0
 40
1.0
 40
1.0
 10
9.3408138294
 20
6.3962104879
 30
0.0
 10
9.3395317425
 20
6.39621505
 30
0.0
 10
9.3369588966
 20
6.3962917065
 30
0.0
 10
9.3330952356
 20
6.3966182204
 30
0.0
 10
9.3292181574
 20
6.3971669802
 30
0.0
 10
9.3253282582
 20
6.3979484379
 30
0.0
 10
9.3214260974
 20
6.3989727493
 30
0.0
 10
9.317512433
 20
6.4002498278
 30
0.0
 10
9.3135883267
 20
6.4017888705
 30
0.0
 10
9.3110037106
 20
6.4029779392
 30
0.0
 10
9.309711905
 20
6.4036159279
 30
0.0
  0
SPLINE
  5
2CC
100
AcDbEntity
  8
0
100
AcDbSpline
 62
7
  6
CONTINUOUS
 70
0
 71
3
 72
22
 73
18
 74
0
 42
0.0000001
 43
0.0000001
 44
0.0000000001
 40
0.0
 40
0.0
 40
0.0
 40
0.0
 40
0.1490345575
 40
0.2215200659
 40
0.2925249758
 40
0.3619590142
 40
0.4297351224
 40
0.4957693618
 40
0.5599819116
 40
0.6222965709
 40
0.6826418139
 40
0.7409506916
 40
0.7971613242
 40
0.8512178528
 40
0.903070259
 40
0.9526760063
 40
1.0
 40
1.0
 40
1.0
 40
1.0
 10
9.5703938081
 20
8.1797147207
 30
0.0
 10
9.562813873
 20
8.1805963743
 30
0.0
 10
9.5515615932
 20
8.182035966
 30
0.0
 10
9.5367428009
 20
8.1842174052
 30
0.0
 10
9.5259778899
 20
8.1859455521
 30
0.0
 10
9.5154749996
 20
8.187778324
 30
0.0
 10
9.5052492967
 20
8.1897130501
 30
0.0
 10
9.4953155848
 20
8.191746951
 30
0.0
 10
9.4856882256
 20
8.1938770179
 30
0.0
 10
9.4763811367
 20
8.1961001963
 30
0.0
 10
9.4674077604
 20
8.1984132215
 30
0.0
 10
9.4587810526
 20
8.2008127313
 30
0.0
 10
9.4505134582
 20
8.2032952589
 30
0.0
 10
9.4426168895
 20
8.2058571448
 30
0.0
 10
9.4351026854
 20
8.208494741
 30
0.0
 10
9.4279817165
 20
8.2112041216
 30
0.0
 10
9.4233943315
 20
8.2131007348
 30
0.0
 10
9.4211702016
 20
8.2140624203
 30
0.0
  0
SPLINE
  5
2CD
100
AcDbEntity
  8
0
100
AcDbSpline
 62
7
  6
CONTINUOUS
 70
0
 71
3
 72
15
 73
11
 74
0
 42
0.0000001
 43
0.0000001
 44
0.0000000001
 40
0.0
 40
0.0
 40
0.0
 40
0.0
 40
0.1363358163
 40
0.2697509328
 40
0.4000777669
 40
0.5271552959
 40
0.6508292507
 40
0.7709524366
 40
0.8873862769
 40
1.0
 40
1.0
 40
1.0
 40
1.0
 10
9.5357161331
 20
8.1717391948
 30
0.0
 10
9.5319938745
 20
8.1722940183
 30
0.0
 10
9.5246359489
 20
8.1734384117
 30
0.0
 10
9.5137467573
 20
8.1752809498
 30
0.0
 10
9.5031356297
 20
8.1772289689
 30
0.0
 10
9.4928178514
 20
8.1792796286
 30
0.0
 10
9.4828082584
 20
8.1814299557
 30
0.0
 10
9.4731212265
 20
8.1836768731
 30
0.0
 10
9.4637707172
 20
8.1860170661
 30
0.0
 10
9.4576662751
 20
8.1876652627
 30
0.0
 10
9.4546734876
 20
8.1885057281
 30
0.0
  0
SPLINE
  5
2CE
100
AcDbEntity
  8
0
100
AcDbSpline
 62
7
  6
CONTINUOUS
 70
0
 71
3
 72
23
 73
19
 74
0
 42
0.0000001
 43
0.0000001
 44
0.0000000001
 40
0.0
 40
0.0
 40
0.0
 40
0.0
 40
0.0637767638
 40
0.1273450118
 40
0.1907019674
 40
0.2538561101
 40
0.3168132145
 40
0.3795820843
 40
0.4421733868
 40
0.5045993403
 40
0.5668738673
 40
0.6290123789
 40
0.6910316481
 40
0.752949645
 40
0.8147853545
 40
0.8765586015
 40
0.9382898522
 40
1.0
 40
1.0
 40
1.0
 40
1.0
 10
11.9106974054
 20
8.4438322232
 30
0.0
 10
11.9106974054
 20
8.4392499022
 30
0.0
 10
11.9104780637
 20
8.4300986896
 30
0.0
 10
11.9094881359
 20
8.4164275521
 30
0.0
 10
11.9078398655
 20
8.4028647664
 30
0.0
 10
11.9055372234
 20
8.3894422134
 30
0.0
 10
11.9025853375
 20
8.3761905556
 30
0.0
 10
11.8989910438
 20
8.363140427
 30
0.0
 10
11.8947626114
 20
8.3503218931
 30
0.0
 10
11.8899097395
 20
8.3377645162
 30
0.0
 10
11.8844435713
 20
8.3254972704
 30
0.0
 10
11.8783767139
 20
8.313548439
 30
0.0
 10
11.8717231455
 20
8.3019455816
 30
0.0
 10
11.8644981759
 20
8.2907154645
 30
0.0
 10
11.8567184557
 20
8.2798840366
 30
0.0
 10
11.8484018544
 20
8.2694761852
 30
0.0
 10
11.8395678866
 20
8.2595162357
 30
0.0
 10
11.8333460527
 20
8.2531890385
 30
0.0
 10
11.8301569946
 20
8.2501086475
 30
0.0
  0
SPLINE
  5
2CF
100
AcDbEntity
  8
0
100
AcDbSpline
 62
7
  6
CONTINUOUS
 70
0
 71
3
 72
23
 73
19
 74
0
 42
0.0000001
 43
0.0000001
 44
0.0000000001
 40
0.0
 40
0.0
 40
0.0
 40
0.0
 40
0.0637767638
 40
0.1273450118
 40
0.1907019674
 40
0.2538561101
 40
0.3168132145
 40
0.3795820843
 40
0.4421733868
 40
0.5045993403
 40
0.5668738673
 40
0.6290123789
 40
0.6910316481
 40
0.752949645
 40
0.8147853545
 40
0.8765586015
 40
0.9382898522
 40
1.0
 40
1.0
 40
1.0
 40
1.0
 10
10.4618086952
 20
9.3894981158
 30
0.0
 10
10.4618086952
 20
9.3849157949
 30
0.0
 10
10.4615893536
 20
9.3757645822
 30
0.0
 10
10.4605994257
 20
9.3620934447
 30
0.0
 10
10.4589511554
 20
9.348530659
 30
0.0
 10
10.4566485133
 20
9.335108106
 30
0.0
 10
10.4536966273
 20
9.3218564482
 30
0.0
 10
10.4501023336
 20
9.3088063196
 30
0.0
 10
10.4458739012
 20
9.2959877858
 30
0.0
 10
10.4410210294
 20
9.2834304088
 30
0.0
 10
10.4355548612
 20
9.271163163
 30
0.0
 10
10.4294880038
 20
9.2592143316
 30
0.0
 10
10.4228344354
 20
9.2476114743
 30
0.0
 10
10.4156094657
 20
9.2363813571
 30
0.0
 10
10.4078297456
 20
9.2255499292
 30
0.0
 10
10.3995131442
 20
9.2151420778
 30
0.0
 10
10.3906791764
 20
9.2051821283
 30
0.0
 10
10.3844573426
 20
9.1988549312
 30
0.0
 10
10.3812682844
 20
9.1957745401
 30
0.0
  0
SPLINE
  5
2D0
100
AcDbEntity
  8
0
100
AcDbSpline
 62
7
  6
CONTINUOUS
 70
0
 71
3
 72
23
 73
19
 74
0
 42
0.0000001
 43
0.0000001
 44
0.0000000001
 40
0.0
 40
0.0
 40
0.0
 40
0.0
 40
0.0637767638
 40
0.1273450118
 40
0.1907019674
 40
0.2538561101
 40
0.3168132145
 40
0.3795820843
 40
0.4421733868
 40
0.5045993403
 40
0.5668738673
 40
0.6290123789
 40
0.6910316481
 40
0.752949645
 40
0.8147853545
 40
0.8765586015
 40
0.9382898522
 40
1.0
 40
1.0
 40
1.0
 40
1.0
 10
10.4618086952
 20
6.9147961112
 30
0.0
 10
10.4618086952
 20
6.9102137902
 30
0.0
 10
10.4615893536
 20
6.9010625776
 30
0.0
 10
10.4605994257
 20
6.8873914401
 30
0.0
 10
10.4589511554
 20
6.8738286544
 30
0.0
 10
10.4566485133
 20
6.8604061013
 30
0.0
 10
10.4536966273
 20
6.8471544435
 30
0.0
 10
10.4501023336
 20
6.834104315
 30
0.0
 10
10.4458739012
 20
6.8212857811
 30
0.0
 10
10.4410210294
 20
6.8087284041
 30
0.0
 10
10.4355548612
 20
6.7964611583
 30
0.0
 10
10.4294880038
 20
6.7845123269
 30
0.0
 10
10.4228344354
 20
6.7729094696
 30
0.0
 10
10.4156094657
 20
6.7616793525
 30
0.0
 10
10.4078297456
 20
6.7508479245
 30
0.0
 10
10.3995131442
 20
6.7404400731
 30
0.0
 10
10.3906791764
 20
6.7304801236
 30
0.0
 10
10.3844573426
 20
6.7241529265
 30
0.0
 10
10.3812682844
 20
6.7210725355
 30
0.0
  0
SPLINE
  5
2D1
100
AcDbEntity
  8
0
100
AcDbSpline
 62
7
  6
CONTINUOUS
 70
0
 71
3
 72
23
 73
19
 74
0
 42
0.0000001
 43
0.0000001
 44
0.0000000001
 40
0.0
 40
0.0
 40
0.0
 40
0.0
 40
0.063777379
 40
0.1273447372
 40
0.1907019931
 40
0.2538561345
 40
0.3168131769
 40
0.3795820929
 40
0.4421733849
 40
0.5045993366
 40
0.5668738654
 40
0.6290123812
 40
0.6910316548
 40
0.7529496517
 40
0.8147853612
 40
0.8765586089
 40
0.9382898579
 40
1.0
 40
1.0
 40
1.0
 40
1.0
 10
9.7600635171
 20
8.2008132637
 30
0.0
 10
9.7600635171
 20
8.1944334715
 30
0.0
 10
9.7597581662
 20
8.1816927335
 30
0.0
 10
9.7583799088
 20
8.1626591089
 30
0.0
 10
9.7560851392
 20
8.1437763933
 30
0.0
 10
9.7528792852
 20
8.1250888369
 30
0.0
 10
9.7487695644
 20
8.1066392266
 30
0.0
 10
9.7437654594
 20
8.0884701909
 30
0.0
 10
9.7378784374
 20
8.0706235964
 30
0.0
 10
9.7311220478
 20
8.0531405998
 30
0.0
 10
9.7235118359
 20
8.0360615181
 30
0.0
 10
9.7150653151
 20
8.0194257436
 30
0.0
 10
9.7058019341
 20
8.0032716548
 30
0.0
 10
9.6957430128
 20
7.9876365162
 30
0.0
 10
9.6849117654
 20
7.9725564328
 30
0.0
 10
9.6733330447
 20
7.9580660683
 30
0.0
 10
9.6610340036
 20
7.9441993075
 30
0.0
 10
9.6523717125
 20
7.9353902272
 30
0.0
 10
9.6479317598
 20
7.9311015475
 30
0.0
  0
SPLINE
  5
2D2
100
AcDbEntity
  8
0
100
AcDbSpline
 62
7
  6
CONTINUOUS
 70
0
 71
3
 72
23
 73
19
 74
0
 42
0.0000001
 43
0.0000001
 44
0.0000000001
 40
0.0
 40
0.0
 40
0.0
 40
0.0
 40
0.0621012347
 40
0.1243576781
 40
0.1867504261
 40
0.2492590793
 40
0.3118619676
 40
0.3745363941
 40
0.4372588856
 40
0.5000054487
 40
0.5627518306
 40
0.6254737807
 40
0.6881473123
 40
0.750748963
 40
0.8132560505
 40
0.875646922
 40
0.9379011975
 40
1.0
 40
1.0
 40
1.0
 40
1.0
 10
11.9919129357
 20
7.7438729266
 30
0.0
 10
11.9861766108
 20
7.7462414575
 30
0.0
 10
11.9748114935
 20
7.7512858932
 30
0.0
 10
11.9581626141
 20
7.7597365732
 30
0.0
 10
11.9419371121
 20
7.7690570853
 30
0.0
 10
11.9261840764
 20
7.7792193
 30
0.0
 10
11.910950397
 20
7.7901929026
 30
0.0
 10
11.896281625
 20
7.8019450733
 30
0.0
 10
11.8822215666
 20
7.814440692
 30
0.0
 10
11.8688122268
 20
7.8276424165
 30
0.0
 10
11.8560936658
 20
7.8415108013
 30
0.0
 10
11.8441038845
 20
7.8560044136
 30
0.0
 10
11.8328787124
 20
7.8710799522
 30
0.0
 10
11.822451694
 20
7.886692395
 30
0.0
 10
11.8128540163
 20
7.9027950598
 30
0.0
 10
11.8041143158
 20
7.919340015
 30
0.0
 10
11.7962589642
 20
7.9362772077
 30
0.0
 10
11.791620504
 20
7.9478134764
 30
0.0
 10
11.7894567773
 20
7.953629887
 30
0.0
  0
SPLINE
  5
2D3
100
AcDbEntity
  8
0
100
AcDbSpline
 62
7
  6
CONTINUOUS
 70
0
 71
3
 72
23
 73
19
 74
0
 42
0.0000001
 43
0.0000001
 44
0.0000000001
 40
0.0
 40
0.0
 40
0.0
 40
0.0
 40
0.0621012347
 40
0.1243576781
 40
0.1867504261
 40
0.2492590793
 40
0.3118619676
 40
0.3745363941
 40
0.4372588856
 40
0.5000054487
 40
0.5627518306
 40
0.6254737807
 40
0.6881473123
 40
0.750748963
 40
0.8132560505
 40
0.875646922
 40
0.9379011975
 40
1.0
 40
1.0
 40
1.0
 40
1.0
 10
11.0858744919
 20
8.7726329048
 30
0.0
 10
11.0801381671
 20
8.7750014357
 30
0.0
 10
11.0687730498
 20
8.7800458714
 30
0.0
 10
11.0521241703
 20
8.7884965513
 30
0.0
 10
11.0358986684
 20
8.7978170635
 30
0.0
 10
11.0201456327
 20
8.8079792781
 30
0.0
 10
11.0049119532
 20
8.8189528808
 30
0.0
 10
10.9902431812
 20
8.8307050515
 30
0.0
 10
10.9761831228
 20
8.8432006702
 30
0.0
 10
10.9627737831
 20
8.8564023947
 30
0.0
 10
10.9500552221
 20
8.8702707795
 30
0.0
 10
10.9380654408
 20
8.8847643918
 30
0.0
 10
10.9268402686
 20
8.8998399304
 30
0.0
 10
10.9164132503
 20
8.9154523732
 30
0.0
 10
10.9068155725
 20
8.9315550379
 30
0.0
 10
10.8980758721
 20
8.9480999931
 30
0.0
 10
10.8902205205
 20
8.9650371858
 30
0.0
 10
10.8855820603
 20
8.9765734546
 30
0.0
 10
10.8834183336
 20
8.9823898651
 30
0.0
  0
SPLINE
  5
2D4
100
AcDbEntity
  8
0
100
AcDbSpline
 62
7
  6
CONTINUOUS
 70
0
 71
3
 72
9
 73
5
 74
0
 42
0.0000001
 43
0.0000001
 44
0.0000000001
 40
0.0
 40
0.0
 40
0.0
 40
0.0
 40
0.509431149
 40
1.0
 40
1.0
 40
1.0
 40
1.0
 10
10.47714896
 20
8.8556305735
 30
0.0
 10
10.4776769586
 20
8.8511102802
 30
0.0
 10
10.4789739378
 20
8.8422652326
 30
0.0
 10
10.4808131953
 20
8.8335162555
 30
0.0
 10
10.4818540958
 20
8.8292591446
 30
0.0
  0
SPLINE
  5
2D5
100
AcDbEntity
  8
0
100
AcDbSpline
 62
7
  6
CONTINUOUS
 70
0
 71
3
 72
22
 73
18
 74
0
 42
0.0000001
 43
0.0000001
 44
0.0000000001
 40
0.0
 40
0.0
 40
0.0
 40
0.0
 40
0.1587615457
 40
0.2349980643
 40
0.3090263121
 40
0.3807673727
 40
0.4501395256
 40
0.517062329
 40
0.5814577255
 40
0.643252129
 40
0.7023803288
 40
0.75879022
 40
0.8124481483
 40
0.8633471002
 40
0.9115145063
 40
0.9570224833
 40
1.0
 40
1.0
 40
1.0
 40
1.0
 10
10.4818540958
 20
8.8292591446
 30
0.0
 10
10.483012731
 20
8.8245205187
 30
0.0
 10
10.4849833236
 20
8.8175641515
 30
0.0
 10
10.4881106254
 20
8.8085966367
 30
0.0
 10
10.4906158549
 20
8.8022496163
 30
0.0
 10
10.4932982106
 20
8.79620555
 30
0.0
 10
10.496143125
 20
8.7904789207
 30
0.0
 10
10.4991349605
 20
8.7850842476
 30
0.0
 10
10.5022574481
 20
8.7800357804
 30
0.0
 10
10.5054936994
 20
8.7753475303
 30
0.0
 10
10.5088260981
 20
8.771032988
 30
0.0
 10
10.5122366186
 20
8.7671051195
 30
0.0
 10
10.5157069035
 20
8.7635761097
 30
0.0
 10
10.5192182836
 20
8.7604571241
 30
0.0
 10
10.5227524207
 20
8.7577581462
 30
0.0
 10
10.5262905434
 20
8.7554881586
 30
0.0
 10
10.5287068683
 20
8.7542309179
 30
0.0
 10
10.5299082789
 20
8.753682754
 30
0.0
  0
SPLINE
  5
2D6
100
AcDbEntity
  8
0
100
AcDbSpline
 62
7
  6
CONTINUOUS
 70
0
 71
3
 72
15
 73
11
 74
0
 42
0.0000001
 43
0.0000001
 44
0.0000000001
 40
0.0
 40
0.0
 40
0.0
 40
0.0
 40
0.1226586428
 40
0.2466348844
 40
0.3715782596
 40
0.4971556882
 40
0.6230580617
 40
0.7490008063
 40
0.8747244744
 40
1.0
 40
1.0
 40
1.0
 40
1.0
 10
11.3926504119
 20
7.8360111598
 30
0.0
 10
11.391912144
 20
7.8306481172
 30
0.0
 10
11.3906599957
 20
7.8198309045
 30
0.0
 10
11.3894967196
 20
7.8034670658
 30
0.0
 10
11.3890782701
 20
7.7869377103
 30
0.0
 10
11.3894381389
 20
7.7703216653
 30
0.0
 10
11.3906004115
 20
7.7536978903
 30
0.0
 10
11.3925796772
 20
7.7371446051
 30
0.0
 10
11.3953806136
 20
7.7207386946
 30
0.0
 10
11.3977986604
 20
7.7099219386
 30
0.0
 10
11.3991434861
 20
7.7045588638
 30
0.0
  0
SPLINE
  5
2D7
100
AcDbEntity
  8
0
100
AcDbSpline
 62
7
  6
CONTINUOUS
 70
0
 71
3
 72
29
 73
25
 74
0
 42
0.0000001
 43
0.0000001
 44
0.0000000001
 40
0.0
 40
0.0
 40
0.0
 40
0.0
 40
0.0719788037
 40
0.1433120271
 40
0.2138679856
 40
0.2835366547
 40
0.3522263429
 40
0.4198537813
 40
0.4863346341
 40
0.5515721661
 40
0.615444322
 40
0.6777882196
 40
0.7083247205
 40
0.738389651
 40
0.7679421271
 40
0.7969334593
 40
0.82530816
 40
0.8530005826
 40
0.8799361185
 40
0.9060302285
 40
0.9311878743
 40
0.9553064876
 40
0.9782790091
 40
1.0
 40
1.0
 40
1.0
 40
1.0
 10
11.3991434861
 20
7.7045588638
 30
0.0
 10
11.4008545604
 20
7.6977352134
 30
0.0
 10
11.4047081112
 20
7.6842564554
 30
0.0
 10
11.4117798416
 20
7.6645708219
 30
0.0
 10
11.4200573577
 20
7.6456062364
 30
0.0
 10
11.4294610197
 20
7.6274651703
 30
0.0
 10
11.439900234
 20
7.6102337085
 30
0.0
 10
11.4512760117
 20
7.5939850472
 30
0.0
 10
11.4634827179
 20
7.5787818929
 30
0.0
 10
11.4764088494
 20
7.5646798036
 30
0.0
 10
11.489935425
 20
7.5517317323
 30
0.0
 10
11.5016834135
 20
7.5418791127
 30
0.0
 10
11.5112693886
 20
7.534630457
 30
0.0
 10
11.5184750691
 20
7.5295561887
 30
0.0
 10
11.5257252102
 20
7.5248163988
 30
0.0
 10
11.5329972025
 20
7.5204214898
 30
0.0
 10
11.5402659681
 20
7.5163832662
 30
0.0
 10
11.547503785
 20
7.512714859
 30
0.0
 10
11.5546797044
 20
7.5094308915
 30
0.0
 10
11.561759209
 20
7.5065475124
 30
0.0
 10
11.5687037476
 20
7.5040822223
 30
0.0
 10
11.5754708158
 20
7.5020535521
 30
0.0
 10
11.5820133551
 20
7.5004806538
 30
0.0
 10
11.5863198632
 20
7.4997260875
 30
0.0
 10
11.5884230551
 20
7.4994373432
 30
0.0
  0
SPLINE
  5
2D8
100
AcDbEntity
  8
0
100
AcDbSpline
 62
7
  6
CONTINUOUS
 70
0
 71
3
 72
15
 73
11
 74
0
 42
0.0000001
 43
0.0000001
 44
0.0000000001
 40
0.0
 40
0.0
 40
0.0
 40
0.0
 40
0.1259868901
 40
0.2515943867
 40
0.376865877
 40
0.501849563
 40
0.6265978072
 40
0.7511663947
 40
0.8756137325
 40
1.0
 40
1.0
 40
1.0
 40
1.0
 10
11.6550447226
 20
8.7467450203
 30
0.0
 10
11.6515080865
 20
8.7457297894
 30
0.0
 10
11.6445042615
 20
8.7434905178
 30
0.0
 10
11.634235758
 20
8.739510551
 30
0.0
 10
11.6242535726
 20
8.7349275524
 30
0.0
 10
11.6145912979
 20
8.7297568126
 30
0.0
 10
11.6052808702
 20
8.7240154419
 30
0.0
 10
11.5963530996
 20
8.7177223625
 30
0.0
 10
11.5878379809
 20
8.7108987983
 30
0.0
 10
11.5824537557
 20
8.7060098333
 30
0.0
 10
11.5798409038
 20
8.7034860118
 30
0.0
  0
SPLINE
  5
2D9
100
AcDbEntity
  8
0
100
AcDbSpline
 62
7
  6
CONTINUOUS
 70
0
 71
3
 72
15
 73
11
 74
0
 42
0.0000001
 43
0.0000001
 44
0.0000000001
 40
0.0
 40
0.0
 40
0.0
 40
0.0
 40
0.1259868901
 40
0.2515943867
 40
0.376865877
 40
0.501849563
 40
0.6265978072
 40
0.7511663947
 40
0.8756137325
 40
1.0
 40
1.0
 40
1.0
 40
1.0
 10
10.2061560125
 20
9.6924109129
 30
0.0
 10
10.2026193764
 20
9.691395682
 30
0.0
 10
10.1956155513
 20
9.6891564104
 30
0.0
 10
10.1853470478
 20
9.6851764437
 30
0.0
 10
10.1753648625
 20
9.680593445
 30
0.0
 10
10.1657025877
 20
9.6754227052
 30
0.0
 10
10.1563921601
 20
9.6696813345
 30
0.0
 10
10.1474643894
 20
9.6633882551
 30
0.0
 10
10.1389492708
 20
9.6565646909
 30
0.0
 10
10.1335650456
 20
9.6516757259
 30
0.0
 10
10.1309521937
 20
9.6491519044
 30
0.0
  0
SPLINE
  5
2DA
100
AcDbEntity
  8
0
100
AcDbSpline
 62
7
  6
CONTINUOUS
 70
0
 71
3
 72
15
 73
11
 74
0
 42
0.0000001
 43
0.0000001
 44
0.0000000001
 40
0.0
 40
0.0
 40
0.0
 40
0.0
 40
0.1259868901
 40
0.2515943867
 40
0.376865877
 40
0.501849563
 40
0.6265978072
 40
0.7511663947
 40
0.8756137325
 40
1.0
 40
1.0
 40
1.0
 40
1.0
 10
10.2061560125
 20
7.2177089083
 30
0.0
 10
10.2026193764
 20
7.2166936773
 30
0.0
 10
10.1956155513
 20
7.2144544058
 30
0.0
 10
10.1853470478
 20
7.210474439
 30
0.0
 10
10.1753648625
 20
7.2058914404
 30
0.0
 10
10.1657025877
 20
7.2007207005
 30
0.0
 10
10.1563921601
 20
7.1949793299
 30
0.0
 10
10.1474643894
 20
7.1886862504
 30
0.0
 10
10.1389492708
 20
7.1818626862
 30
0.0
 10
10.1335650456
 20
7.1769737213
 30
0.0
 10
10.1309521937
 20
7.1744498997
 30
0.0
  0
SPLINE
  5
2DB
100
AcDbEntity
  8
0
100
AcDbSpline
 62
7
  6
CONTINUOUS
 70
0
 71
3
 72
22
 73
18
 74
0
 42
0.0000001
 43
0.0000001
 44
0.0000000001
 40
0.0
 40
0.0
 40
0.0
 40
0.0
 40
0.161046295
 40
0.2422935239
 40
0.323435592
 40
0.40381956
 40
0.4826033537
 40
0.5587688159
 40
0.6311926422
 40
0.6987737945
 40
0.7605927056
 40
0.8160452969
 40
0.864898502
 40
0.907262377
 40
0.9435124071
 40
0.9742028876
 40
1.0
 40
1.0
 40
1.0
 40
1.0
 10
10.9554545898
 20
8.1500143026
 30
0.0
 10
10.9531519512
 20
8.1489183803
 30
0.0
 10
10.9496647757
 20
8.1473166985
 30
0.0
 10
10.944960302
 20
8.1452918469
 30
0.0
 10
10.9414024738
 20
8.1438351218
 30
0.0
 10
10.9378529068
 20
8.1424630307
 30
0.0
 10
10.9343479871
 20
8.1411963319
 30
0.0
 10
10.9309322522
 20
8.1400567375
 30
0.0
 10
10.9276556302
 20
8.1390646387
 30
0.0
 10
10.9245683765
 20
8.1382362637
 30
0.0
 10
10.9217147579
 20
8.1375811481
 30
0.0
 10
10.9191275107
 20
8.1371008596
 30
0.0
 10
10.9168248862
 20
8.1367894486
 30
0.0
 10
10.9148110495
 20
8.1366352775
 30
0.0
 10
10.9130785117
 20
8.136623498
 30
0.0
 10
10.9116126111
 20
8.1367381605
 30
0.0
 10
10.9107306037
 20
8.1369017275
 30
0.0
 10
10.9103353683
 20
8.137004949
 30
0.0
  0
SPLINE
  5
2DC
100
AcDbEntity
  8
0
100
AcDbSpline
 62
7
  6
CONTINUOUS
 70
0
 71
3
 72
24
 73
20
 74
0
 42
0.0000001
 43
0.0000001
 44
0.0000000001
 40
0.0
 40
0.0
 40
0.0
 40
0.0
 40
0.1388974174
 40
0.2584323919
 40
0.3615949235
 40
0.4510028025
 40
0.528841443
 40
0.5969096652
 40
0.6566996952
 40
0.7094811788
 40
0.7563761358
 40
0.7779443326
 40
0.7984193352
 40
0.8365301941
 40
0.8716604387
 40
0.9047196522
 40
0.9365902969
 40
0.9681007169
 40
1.0
 40
1.0
 40
1.0
 40
1.0
 10
11.4288461077
 20
8.0255811523
 30
0.0
 10
11.4283374027
 20
8.0244063122
 30
0.0
 10
11.4274384235
 20
8.0221992287
 30
0.0
 10
11.4263389935
 20
8.0190513252
 30
0.0
 10
11.4255403666
 20
8.0162860252
 30
0.0
 10
11.4249927782
 20
8.0138528494
 30
0.0
 10
11.4246563604
 20
8.0117084082
 30
0.0
 10
11.42449968
 20
8.0098170809
 30
0.0
 10
11.4244981254
 20
8.0081499719
 30
0.0
 10
11.4246324511
 20
8.0066840472
 30
0.0
 10
11.4248501604
 20
8.0055852934
 30
0.0
 10
11.425082384
 20
8.0047985886
 30
0.0
 10
11.4253355105
 20
8.0041041082
 30
0.0
 10
11.42571027
 20
8.0033224993
 30
0.0
 10
11.4262609564
 20
8.0025075316
 30
0.0
 10
11.4268945747
 20
8.0018317526
 30
0.0
 10
11.4276044033
 20
8.001289876
 30
0.0
 10
11.4283837142
 20
8.0008769803
 30
0.0
 10
11.4289393968
 20
8.0006875018
 30
0.0
 10
11.4292237566
 20
8.0006127448
 30
0.0
  0
SPLINE
  5
2DD
100
AcDbEntity
  8
0
100
AcDbSpline
 62
7
  6
CONTINUOUS
 70
0
 71
3
 72
23
 73
19
 74
0
 42
0.0000001
 43
0.0000001
 44
0.0000000001
 40
0.0
 40
0.0
 40
0.0
 40
0.0
 40
0.0670876918
 40
0.1334229285
 40
0.1989779843
 40
0.263743981
 40
0.3277326538
 40
0.3909769624
 40
0.4535297669
 40
0.5154614893
 40
0.5768566493
 40
0.6378099501
 40
0.6984226115
 40
0.7587987739
 40
0.819043261
 40
0.8792581317
 40
0.9395460693
 40
1.0
 40
1.0
 40
1.0
 40
1.0
 10
9.5745220337
 20
8.1812545964
 30
0.0
 10
9.5709281458
 20
8.1798233095
 30
0.0
 10
9.5636687122
 20
8.177248566
 30
0.0
 10
9.552578142
 20
8.1742654079
 30
0.0
 10
9.5414170241
 20
8.17219367
 30
0.0
 10
9.5302605234
 20
8.1710363341
 30
0.0
 10
9.5191802059
 20
8.170785784
 30
0.0
 10
9.5082434762
 20
8.1714246954
 30
0.0
 10
9.4975115977
 20
8.1729268895
 30
0.0
 10
9.4870385774
 20
8.175258815
 30
0.0
 10
9.4768704263
 20
8.1783812805
 30
0.0
 10
9.4670449529
 20
8.1822512994
 30
0.0
 10
9.4575920122
 20
8.1868238697
 30
0.0
 10
9.4485340398
 20
8.1920535544
 30
0.0
 10
9.4398870033
 20
8.1978957915
 30
0.0
 10
9.4316609078
 20
8.2043080391
 30
0.0
 10
9.42386181
 20
8.2112500016
 30
0.0
 10
9.418956647
 20
8.2161979931
 30
0.0
 10
9.4165772617
 20
8.2187455403
 30
0.0
  0
SPLINE
  5
2DE
100
AcDbEntity
  8
0
100
AcDbSpline
 62
7
  6
CONTINUOUS
 70
0
 71
3
 72
15
 73
11
 74
0
 42
0.0000001
 43
0.0000001
 44
0.0000000001
 40
0.0
 40
0.0
 40
0.0
 40
0.0
 40
0.1243866291
 40
0.2488342905
 40
0.3734031271
 40
0.4981515105
 40
0.6231351958
 40
0.7484065166
 40
0.8740136459
 40
1.0
 40
1.0
 40
1.0
 40
1.0
 10
11.8619080557
 20
8.4114686804
 30
0.0
 10
11.8645200873
 20
8.4139917096
 30
0.0
 10
11.8695911554
 20
8.4192015904
 30
0.0
 10
11.876703706
 20
8.4274723196
 30
0.0
 10
11.8833007287
 20
8.4361735835
 30
0.0
 10
11.8893599927
 20
8.4452761691
 30
0.0
 10
11.8948615362
 20
8.4547499708
 30
0.0
 10
11.8997871664
 20
8.4645636952
 30
0.0
 10
11.9041204519
 20
8.4746843334
 30
0.0
 10
11.9066012729
 20
8.4816037798
 30
0.0
 10
11.9077386139
 20
8.4851018151
 30
0.0
  0
SPLINE
  5
2DF
100
AcDbEntity
  8
0
100
AcDbSpline
 62
7
  6
CONTINUOUS
 70
0
 71
3
 72
15
 73
11
 74
0
 42
0.0000001
 43
0.0000001
 44
0.0000000001
 40
0.0
 40
0.0
 40
0.0
 40
0.0
 40
0.1243866291
 40
0.2488342905
 40
0.3734031271
 40
0.4981515105
 40
0.6231351958
 40
0.7484065166
 40
0.8740136459
 40
1.0
 40
1.0
 40
1.0
 40
1.0
 10
10.4130193456
 20
9.357134573
 30
0.0
 10
10.4156313772
 20
9.3596576022
 30
0.0
 10
10.4207024452
 20
9.364867483
 30
0.0
 10
10.4278149958
 20
9.3731382122
 30
0.0
 10
10.4344120185
 20
9.3818394762
 30
0.0
 10
10.4404712825
 20
9.3909420617
 30
0.0
 10
10.4459728261
 20
9.4004158634
 30
0.0
 10
10.4508984563
 20
9.4102295879
 30
0.0
 10
10.4552317418
 20
9.4203502261
 30
0.0
 10
10.4577125627
 20
9.4272696724
 30
0.0
 10
10.4588499038
 20
9.4307677078
 30
0.0
  0
SPLINE
  5
2E0
100
AcDbEntity
  8
0
100
AcDbSpline
 62
7
  6
CONTINUOUS
 70
0
 71
3
 72
15
 73
11
 74
0
 42
0.0000001
 43
0.0000001
 44
0.0000000001
 40
0.0
 40
0.0
 40
0.0
 40
0.0
 40
0.1243866291
 40
0.2488342905
 40
0.3734031271
 40
0.4981515105
 40
0.6231351958
 40
0.7484065166
 40
0.8740136459
 40
1.0
 40
1.0
 40
1.0
 40
1.0
 10
10.4130193456
 20
6.8824325684
 30
0.0
 10
10.4156313772
 20
6.8849555976
 30
0.0
 10
10.4207024452
 20
6.8901654783
 30
0.0
 10
10.4278149958
 20
6.8984362075
 30
0.0
 10
10.4344120185
 20
6.9071374715
 30
0.0
 10
10.4404712825
 20
6.9162400571
 30
0.0
 10
10.4459728261
 20
6.9257138588
 30
0.0
 10
10.4508984563
 20
6.9355275832
 30
0.0
 10
10.4552317418
 20
6.9456482214
 30
0.0
 10
10.4577125627
 20
6.9525676678
 30
0.0
 10
10.4588499038
 20
6.9560657031
 30
0.0
  0
SPLINE
  5
2E1
100
AcDbEntity
  8
0
100
AcDbSpline
 62
7
  6
CONTINUOUS
 70
0
 71
3
 72
40
 73
36
 74
0
 42
0.0000001
 43
0.0000001
 44
0.0000000001
 40
0.0
 40
0.0
 40
0.0
 40
0.0
 40
0.0046293213
 40
0.0093735527
 40
0.0142835743
 40
0.019405365
 40
0.0247797838
 40
0.0304420577
 40
0.0364219894
 40
0.0427450241
 40
0.0494324946
 40
0.056501734
 40
0.0639673119
 40
0.0718413641
 40
0.0801332569
 40
0.0888506313
 40
0.1075833563
 40
0.1280722198
 40
0.1503295174
 40
0.174352048
 40
0.2001233741
 40
0.2276166636
 40
0.2567952151
 40
0.2876140965
 40
0.3200218893
 40
0.3539608918
 40
0.3893688484
 40
0.4261799568
 40
0.4643251917
 40
0.544328804
 40
0.6288053082
 40
0.7171732198
 40
0.8088609726
 40
0.9033132336
 40
1.0
 40
1.0
 40
1.0
 40
1.0
 10
11.4822544179
 20
8.0187602245
 30
0.0
 10
11.4819322459
 20
8.018804496
 30
0.0
 10
11.4812745387
 20
8.0188587075
 30
0.0
 10
11.4802697677
 20
8.0188367263
 30
0.0
 10
11.4792376798
 20
8.0187123704
 30
0.0
 10
11.4781780299
 20
8.0184857956
 30
0.0
 10
11.4770903198
 20
8.0181571712
 30
0.0
 10
11.4759741029
 20
8.0177266167
 30
0.0
 10
11.4748289704
 20
8.0171941744
 30
0.0
 10
11.4736545777
 20
8.0165598592
 30
0.0
 10
11.4724506622
 20
8.015823681
 30
0.0
 10
11.4712170921
 20
8.0149856088
 30
0.0
 10
11.4699538245
 20
8.0140456402
 30
0.0
 10
11.4686609066
 20
8.0130038189
 30
0.0
 10
11.4673385106
 20
8.0118601851
 30
0.0
 10
11.4654918529
 20
8.0101585128
 30
0.0
 10
11.4631162888
 20
8.0077691284
 30
0.0
 10
11.4602196546
 20
8.0045640794
 30
0.0
 10
11.4572183348
 20
8.0009582179
 30
0.0
 10
11.4541199235
 20
7.9969547983
 30
0.0
 10
11.4509336526
 20
7.9925578374
 30
0.0
 10
11.4476702734
 20
7.9877724852
 30
0.0
 10
11.4443420743
 20
7.9826048057
 30
0.0
 10
11.440962715
 20
7.9770618358
 30
0.0
 10
11.4375470322
 20
7.9711515785
 30
0.0
 10
11.4341110312
 20
7.9648828491
 30
0.0
 10
11.4306716292
 20
7.9582653231
 30
0.0
 10
11.4272464803
 20
7.9513094024
 30
0.0
 10
11.4226499154
 20
7.9414411122
 30
0.0
 10
11.4170663412
 20
7.9283426212
 30
0.0
 10
11.4108252486
 20
7.9117070113
 30
0.0
 10
11.4050953327
 20
7.8940225999
 30
0.0
 10
11.4000280963
 20
7.8754087017
 30
0.0
 10
11.3957679784
 20
7.8559945247
 30
0.0
 10
11.3935766571
 20
7.8427397374
 30
0.0
 10
11.3926504119
 20
7.8360111598
 30
0.0
  0
SPLINE
  5
2E2
100
AcDbEntity
  8
0
100
AcDbSpline
 62
7
  6
CONTINUOUS
 70
0
 71
3
 72
39
 73
35
 74
0
 42
0.0000001
 43
0.0000001
 44
0.0000000001
 40
0.0
 40
0.0
 40
0.0
 40
0.0
 40
0.029942471
 40
0.0599093185
 40
0.089924325
 40
0.1200101043
 40
0.1501875632
 40
0.1804754155
 40
0.2108897611
 40
0.2414437393
 40
0.2721472649
 40
0.3030068482
 40
0.3340255005
 40
0.3652027199
 40
0.3965345553
 40
0.4280137416
 40
0.4596298994
 40
0.4913697937
 40
0.523217641
 40
0.5551554573
 40
0.5871634413
 40
0.619220384
 40
0.6513040994
 40
0.6833918697
 40
0.715460897
 40
0.7474887556
 40
0.7794538398
 40
0.8113357995
 40
0.8431159588
 40
0.874777715
 40
0.9063068673
 40
0.9376920959
 40
0.968924654
 40
1.0
 40
1.0
 40
1.0
 40
1.0
 10
11.4174778414
 20
8.6773461884
 30
0.0
 10
11.422404973
 20
8.682105428
 30
0.0
 10
11.4326466762
 20
8.6912398069
 30
0.0
 10
11.4490554728
 20
8.7036837826
 30
0.0
 10
11.466426644
 20
8.7148078854
 30
0.0
 10
11.4846631249
 20
8.7245497162
 30
0.0
 10
11.5036646544
 20
8.7328560523
 30
0.0
 10
11.5233263671
 20
8.7396812312
 30
0.0
 10
11.5435399177
 20
8.7449879014
 30
0.0
 10
11.5641939425
 20
8.7487470903
 30
0.0
 10
11.5851747221
 20
8.7509383864
 30
0.0
 10
11.6063668033
 20
8.751550012
 30
0.0
 10
11.627653636
 20
8.7505788781
 30
0.0
 10
11.6489182086
 20
8.7480305858
 30
0.0
 10
11.6700436847
 20
8.743919383
 30
0.0
 10
11.6909140367
 20
8.73826808
 30
0.0
 10
11.71141468
 20
8.7311079312
 30
0.0
 10
11.7314330899
 20
8.7224784392
 30
0.0
 10
11.7508594099
 20
8.7124271373
 30
0.0
 10
11.7695870456
 20
8.7010093265
 30
0.0
 10
11.7875132408
 20
8.6882877739
 30
0.0
 10
11.8045396323
 20
8.6743323681
 30
0.0
 10
11.8205727941
 20
8.6592197523
 30
0.0
 10
11.8355247398
 20
8.6430328967
 30
0.0
 10
11.8493133958
 20
8.6258606437
 30
0.0
 10
11.8618630472
 20
8.6077972263
 30
0.0
 10
11.8731047502
 20
8.5889417585
 30
0.0
 10
11.8829767039
 20
8.569397694
 30
0.0
 10
11.8914246001
 20
8.5492722833
 30
0.0
 10
11.898401914
 20
8.5286759471
 30
0.0
 10
11.9038701901
 20
8.507721834
 30
0.0
 10
11.9077991372
 20
8.4865246158
 30
0.0
 10
11.9101670537
 20
8.4652021918
 30
0.0
 10
11.9106974054
 20
8.4509417333
 30
0.0
 10
11.9106974054
 20
8.4438322232
 30
0.0
  0
SPLINE
  5
2E3
100
AcDbEntity
  8
0
100
AcDbSpline
 62
7
  6
CONTINUOUS
 70
0
 71
3
 72
39
 73
35
 74
0
 42
0.0000001
 43
0.0000001
 44
0.0000000001
 40
0.0
 40
0.0
 40
0.0
 40
0.0
 40
0.029942471
 40
0.0599093185
 40
0.089924325
 40
0.1200101043
 40
0.1501875632
 40
0.1804754155
 40
0.2108897611
 40
0.2414437393
 40
0.2721472649
 40
0.3030068482
 40
0.3340255005
 40
0.3652027199
 40
0.3965345553
 40
0.4280137416
 40
0.4596298994
 40
0.4913697937
 40
0.523217641
 40
0.5551554573
 40
0.5871634413
 40
0.619220384
 40
0.6513040994
 40
0.6833918697
 40
0.715460897
 40
0.7474887556
 40
0.7794538398
 40
0.8113357995
 40
0.8431159588
 40
0.874777715
 40
0.9063068673
 40
0.9376920959
 40
0.968924654
 40
1.0
 40
1.0
 40
1.0
 40
1.0
 10
9.9685891312
 20
9.623012081
 30
0.0
 10
9.9735162628
 20
9.6277713206
 30
0.0
 10
9.9837579661
 20
9.6369056995
 30
0.0
 10
10.0001667626
 20
9.6493496753
 30
0.0
 10
10.0175379338
 20
9.660473778
 30
0.0
 10
10.0357744148
 20
9.6702156088
 30
0.0
 10
10.0547759443
 20
9.6785219449
 30
0.0
 10
10.074437657
 20
9.6853471238
 30
0.0
 10
10.0946512076
 20
9.6906537941
 30
0.0
 10
10.1153052324
 20
9.6944129829
 30
0.0
 10
10.1362860119
 20
9.696604279
 30
0.0
 10
10.1574780932
 20
9.6972159046
 30
0.0
 10
10.1787649259
 20
9.6962447707
 30
0.0
 10
10.2000294984
 20
9.6936964784
 30
0.0
 10
10.2211549745
 20
9.6895852756
 30
0.0
 10
10.2420253266
 20
9.6839339726
 30
0.0
 10
10.2625259699
 20
9.6767738238
 30
0.0
 10
10.2825443798
 20
9.6681443319
 30
0.0
 10
10.3019706998
 20
9.6580930299
 30
0.0
 10
10.3206983354
 20
9.6466752191
 30
0.0
 10
10.3386245307
 20
9.6339536665
 30
0.0
 10
10.3556509222
 20
9.6199982607
 30
0.0
 10
10.3716840839
 20
9.6048856449
 30
0.0
 10
10.3866360297
 20
9.5886987894
 30
0.0
 10
10.4004246856
 20
9.5715265364
 30
0.0
 10
10.4129743371
 20
9.5534631189
 30
0.0
 10
10.42421604
 20
9.5346076511
 30
0.0
 10
10.4340879937
 20
9.5150635866
 30
0.0
 10
10.44253589
 20
9.4949381759
 30
0.0
 10
10.4495132039
 20
9.4743418397
 30
0.0
 10
10.4549814799
 20
9.4533877266
 30
0.0
 10
10.4589104271
 20
9.4321905084
 30
0.0
 10
10.4612783435
 20
9.4108680845
 30
0.0
 10
10.4618086952
 20
9.3966076259
 30
0.0
 10
10.4618086952
 20
9.3894981158
 30
0.0
  0
SPLINE
  5
2E4
100
AcDbEntity
  8
0
100
AcDbSpline
 62
7
  6
CONTINUOUS
 70
0
 71
3
 72
39
 73
35
 74
0
 42
0.0000001
 43
0.0000001
 44
0.0000000001
 40
0.0
 40
0.0
 40
0.0
 40
0.0
 40
0.029942471
 40
0.0599093185
 40
0.089924325
 40
0.1200101043
 40
0.1501875632
 40
0.1804754155
 40
0.2108897611
 40
0.2414437393
 40
0.2721472649
 40
0.3030068482
 40
0.3340255005
 40
0.3652027199
 40
0.3965345553
 40
0.4280137416
 40
0.4596298994
 40
0.4913697937
 40
0.523217641
 40
0.5551554573
 40
0.5871634413
 40
0.619220384
 40
0.6513040994
 40
0.6833918697
 40
0.715460897
 40
0.7474887556
 40
0.7794538398
 40
0.8113357995
 40
0.8431159588
 40
0.874777715
 40
0.9063068673
 40
0.9376920959
 40
0.968924654
 40
1.0
 40
1.0
 40
1.0
 40
1.0
 10
9.9685891312
 20
7.1483100763
 30
0.0
 10
9.9735162628
 20
7.153069316
 30
0.0
 10
9.9837579661
 20
7.1622036948
 30
0.0
 10
10.0001667626
 20
7.1746476706
 30
0.0
 10
10.0175379338
 20
7.1857717734
 30
0.0
 10
10.0357744148
 20
7.1955136042
 30
0.0
 10
10.0547759443
 20
7.2038199402
 30
0.0
 10
10.074437657
 20
7.2106451192
 30
0.0
 10
10.0946512076
 20
7.2159517894
 30
0.0
 10
10.1153052324
 20
7.2197109783
 30
0.0
 10
10.1362860119
 20
7.2219022744
 30
0.0
 10
10.1574780932
 20
7.2225139
 30
0.0
 10
10.1787649259
 20
7.2215427661
 30
0.0
 10
10.2000294984
 20
7.2189944737
 30
0.0
 10
10.2211549745
 20
7.214883271
 30
0.0
 10
10.2420253266
 20
7.209231968
 30
0.0
 10
10.2625259699
 20
7.2020718192
 30
0.0
 10
10.2825443798
 20
7.1934423272
 30
0.0
 10
10.3019706998
 20
7.1833910253
 30
0.0
 10
10.3206983354
 20
7.1719732145
 30
0.0
 10
10.3386245307
 20
7.1592516619
 30
0.0
 10
10.3556509222
 20
7.1452962561
 30
0.0
 10
10.3716840839
 20
7.1301836403
 30
0.0
 10
10.3866360297
 20
7.1139967847
 30
0.0
 10
10.4004246856
 20
7.0968245317
 30
0.0
 10
10.4129743371
 20
7.0787611143
 30
0.0
 10
10.42421604
 20
7.0599056465
 30
0.0
 10
10.4340879937
 20
7.040361582
 30
0.0
 10
10.44253589
 20
7.0202361713
 30
0.0
 10
10.4495132039
 20
6.999639835
 30
0.0
 10
10.4549814799
 20
6.9786857219
 30
0.0
 10
10.4589104271
 20
6.9574885038
 30
0.0
 10
10.4612783435
 20
6.9361660798
 30
0.0
 10
10.4618086952
 20
6.9219056213
 30
0.0
 10
10.4618086952
 20
6.9147961112
 30
0.0
  0
SPLINE
  5
2E5
100
AcDbEntity
  8
0
100
AcDbSpline
 62
7
  6
CONTINUOUS
 70
0
 71
3
 72
46
 73
42
 74
0
 42
0.0000001
 43
0.0000001
 44
0.0000000001
 40
0.0
 40
0.0
 40
0.0
 40
0.0
 40
0.0149720531
 40
0.0299471658
 40
0.0449283783
 40
0.0599186928
 40
0.0749210582
 40
0.0899383489
 40
0.1049733477
 40
0.1200287328
 40
0.1351070585
 40
0.1502107401
 40
0.1653420445
 40
0.1805030737
 40
0.1956957522
 40
0.2109218227
 40
0.2414745583
 40
0.2721768354
 40
0.3030351636
 40
0.3340525555
 40
0.3652285084
 40
0.3965590696
 40
0.4280369758
 40
0.4596518486
 40
0.4913904527
 40
0.5232370061
 40
0.5551735254
 40
0.5871802089
 40
0.6192358489
 40
0.6513182611
 40
0.6834047284
 40
0.7154724533
 40
0.747499011
 40
0.7794627968
 40
0.8113434616
 40
0.8431223306
 40
0.8747827976
 40
0.9063106872
 40
0.9376945994
 40
0.9689259227
 40
1.0
 40
1.0
 40
1.0
 40
1.0
 10
10.2608081454
 20
8.9289386548
 30
0.0
 10
10.2652877766
 20
8.9332656577
 30
0.0
 10
10.27442106
 20
8.9417433787
 30
0.0
 10
10.2886169678
 20
8.9539069093
 30
0.0
 10
10.3032909023
 20
8.9655020038
 30
0.0
 10
10.3184223375
 20
8.9765124978
 30
0.0
 10
10.3339905258
 20
8.9869233172
 30
0.0
 10
10.3499740557
 20
8.996720064
 30
0.0
 10
10.3663508957
 20
9.0058893278
 30
0.0
 10
10.3830985099
 20
9.0144184951
 30
0.0
 10
10.4001938783
 20
9.0222957814
 30
0.0
 10
10.4176134356
 20
9.0295104229
 30
0.0
 10
10.4353332429
 20
9.0360524976
 30
0.0
 10
10.4533288405
 20
9.0419129491
 30
0.0
 10
10.4715757946
 20
9.0470838437
 30
0.0
 10
10.4962313299
 20
9.0530556225
 30
0.0
 10
10.5275653804
 20
9.0587589283
 30
0.0
 10
10.5657113567
 20
9.0627428839
 30
0.0
 10
10.6042426692
 20
9.0638550437
 30
0.0
 10
10.6429459496
 20
9.0620893305
 30
0.0
 10
10.6816088386
 20
9.057456072
 30
0.0
 10
10.7200188089
 20
9.0499811865
 30
0.0
 10
10.7579649235
 20
9.0397061088
 30
0.0
 10
10.7952388366
 20
9.0266876657
 30
0.0
 10
10.8316359735
 20
9.0109977114
 30
0.0
 10
10.8669565734
 20
8.9927226191
 30
0.0
 10
10.9010068249
 20
8.9719629441
 30
0.0
 10
10.9335999285
 20
8.9488328553
 30
0.0
 10
10.9645570284
 20
8.9234593971
 30
0.0
 10
10.9937082449
 20
8.8959819072
 30
0.0
 10
11.0208936331
 20
8.8665512712
 30
0.0
 10
11.0459639401
 20
8.8353289917
 30
0.0
 10
11.0687814795
 20
8.8024863904
 30
0.0
 10
11.0892209499
 20
8.7682037121
 30
0.0
 10
11.1071699793
 20
8.7326690438
 30
0.0
 10
11.1225297899
 20
8.6960773734
 30
0.0
 10
11.1352158474
 20
8.6586294788
 30
0.0
 10
11.1451581767
 20
8.62053109
 30
0.0
 10
11.152301717
 20
8.5819906741
 30
0.0
 10
11.1566069976
 20
8.5432226202
 30
0.0
 10
11.1575712859
 20
8.5172944937
 30
0.0
 10
11.1575712859
 20
8.5043681098
 30
0.0
  0
SPLINE
  5
2E6
100
AcDbEntity
  8
0
100
AcDbSpline
 62
7
  6
CONTINUOUS
 70
0
 71
3
 72
18
 73
14
 74
0
 42
0.0000001
 43
0.0000001
 44
0.0000000001
 40
0.0
 40
0.0
 40
0.0
 40
0.0
 40
0.1329624325
 40
0.1993716904
 40
0.2655460125
 40
0.3966607395
 40
0.5253705134
 40
0.5885624789
 40
0.6508348765
 40
0.7722127316
 40
0.8311686395
 40
0.8888449174
 40
1.0
 40
1.0
 40
1.0
 40
1.0
 10
10.5272586237
 20
9.0581144795
 30
0.0
 10
10.5225080074
 20
9.0499994787
 30
0.0
 10
10.515753427
 20
9.0376084793
 30
0.0
 10
10.5075968084
 20
9.020689402
 30
0.0
 10
10.5000820832
 20
9.0036177642
 30
0.0
 10
10.4919290609
 20
8.9820289059
 30
0.0
 10
10.4855087894
 20
8.96007881
 30
0.0
 10
10.481527593
 20
8.9425447822
 30
0.0
 10
10.4783752715
 20
8.9253708986
 30
0.0
 10
10.4763542756
 20
8.9083065836
 30
0.0
 10
10.4755147351
 20
8.8914899144
 30
0.0
 10
10.4754514905
 20
8.8753768612
 30
0.0
 10
10.4762369428
 20
8.8634385209
 30
0.0
 10
10.47714896
 20
8.8556305735
 30
0.0
  0
SPLINE
  5
2E7
100
AcDbEntity
  8
0
100
AcDbSpline
 62
7
  6
CONTINUOUS
 70
0
 71
3
 72
24
 73
20
 74
0
 42
0.0000001
 43
0.0000001
 44
0.0000000001
 40
0.0
 40
0.0
 40
0.0
 40
0.0
 40
0.0617098302
 40
0.0925738984
 40
0.1234458662
 40
0.1852188017
 40
0.2470541958
 40
0.3089718739
 40
0.370990827
 40
0.4331290231
 40
0.495403233
 40
0.5578288681
 40
0.6204198379
 40
0.6831884365
 40
0.7461451561
 40
0.8092989462
 40
0.8726559965
 40
0.9362227712
 40
1.0
 40
1.0
 40
1.0
 40
1.0
 10
11.0111344722
 20
8.1521437273
 30
0.0
 10
11.0169327435
 20
8.1577444421
 30
0.0
 10
11.0254169367
 20
8.1663723204
 30
0.0
 10
11.036272815
 20
8.1782993051
 30
0.0
 10
11.046824265
 20
8.1905077742
 30
0.0
 10
11.0594280611
 20
8.2062808861
 30
0.0
 10
11.0735728247
 20
8.2259742425
 30
0.0
 10
11.0867091532
 20
8.2463926563
 30
0.0
 10
11.0988065282
 20
8.2674887269
 30
0.0
 10
11.1098371506
 20
8.2892138647
 30
0.0
 10
11.1197756015
 20
8.3115179345
 30
0.0
 10
11.1285990078
 20
8.3343494978
 30
0.0
 10
11.1362870673
 20
8.3576559007
 30
0.0
 10
11.1428221029
 20
8.3813833888
 30
0.0
 10
11.1481891371
 20
8.4054772848
 30
0.0
 10
11.1523757892
 20
8.4298819381
 30
0.0
 10
11.155372596
 20
8.4545414269
 30
0.0
 10
11.1571725263
 20
8.4793980172
 30
0.0
 10
11.1575712859
 20
8.4960365227
 30
0.0
 10
11.1575712859
 20
8.5043681098
 30
0.0
  0
SPLINE
  5
2E8
100
AcDbEntity
  8
0
100
AcDbSpline
 62
7
  6
CONTINUOUS
 70
0
 71
3
 72
45
 73
41
 74
0
 42
0.0000001
 43
0.0000001
 44
0.0000000001
 40
0.0
 40
0.0
 40
0.0
 40
0.0
 40
0.001979984
 40
0.0037560812
 40
0.0053703933
 40
0.0068696789
 40
0.0083039859
 40
0.0097225799
 40
0.0111699458
 40
0.0126831956
 40
0.0142906054
 40
0.0160120271
 40
0.0198443704
 40
0.0242456336
 40
0.0292312747
 40
0.0347996329
 40
0.0409391877
 40
0.0476320749
 40
0.0548624923
 40
0.0626132694
 40
0.0708661108
 40
0.0888198052
 40
0.1086127604
 40
0.1301536529
 40
0.1533645828
 40
0.1781862899
 40
0.2045686369
 40
0.2324756847
 40
0.2618792721
 40
0.2927612706
 40
0.3589252941
 40
0.4309738055
 40
0.5090240296
 40
0.5933039735
 40
0.6841534507
 40
0.7820087544
 40
0.8337081754
 40
0.887306325
 40
0.9427819454
 40
1.0
 40
1.0
 40
1.0
 40
1.0
 10
11.059084078
 20
8.2271518663
 30
0.0
 10
11.0591685619
 20
8.2271298843
 30
0.0
 10
11.0593269627
 20
8.2270801417
 30
0.0
 10
11.0595428661
 20
8.22698122
 30
0.0
 10
11.0597242535
 20
8.2268630337
 30
0.0
 10
11.0598722308
 20
8.2267261792
 30
0.0
 10
11.0599877954
 20
8.2265716379
 30
0.0
 10
11.0600722086
 20
8.2264007297
 30
0.0
 10
11.0601267041
 20
8.2262145843
 30
0.0
 10
11.0601527615
 20
8.2260141721
 30
0.0
 10
11.0601519272
 20
8.2258001588
 30
0.0
 10
11.0601154778
 20
8.2254860061
 30
0.0
 10
11.0600028303
 20
8.2250596561
 30
0.0
 10
11.05978302
 20
8.2245188563
 30
0.0
 10
11.0594798008
 20
8.2239325383
 30
0.0
 10
11.059097625
 20
8.2233030392
 30
0.0
 10
11.0586406226
 20
8.2226323657
 30
0.0
 10
11.0581127272
 20
8.2219223437
 30
0.0
 10
11.0575170617
 20
8.2211749221
 30
0.0
 10
11.0568566337
 20
8.2203917155
 30
0.0
 10
11.0558651876
 20
8.2192697253
 30
0.0
 10
11.0544764694
 20
8.2177910371
 30
0.0
 10
11.0526314133
 20
8.2159390177
 30
0.0
 10
11.0505756528
 20
8.2139709094
 30
0.0
 10
11.0483190261
 20
8.2118929304
 30
0.0
 10
11.0458687392
 20
8.2097108537
 30
0.0
 10
11.0432304761
 20
8.2074291148
 30
0.0
 10
11.0404080385
 20
8.2050520153
 30
0.0
 10
11.0374040369
 20
8.2025829705
 30
0.0
 10
11.0330572266
 20
8.1990917997
 30
0.0
 10
11.0271680045
 20
8.1945192944
 30
0.0
 10
11.019517462
 20
8.1888274771
 30
0.0
 10
11.0110990193
 20
8.1828332399
 30
0.0
 10
11.0018641516
 20
8.1765608252
 30
0.0
 10
10.9917449701
 20
8.1700421399
 30
0.0
 10
10.9826768319
 20
8.1645509761
 30
0.0
 10
10.9749043344
 20
8.160098792
 30
0.0
 10
10.9686895545
 20
8.1566886605
 30
0.0
 10
10.9621901577
 20
8.1532945176
 30
0.0
 10
10.9577324769
 20
8.1510984447
 30
0.0
 10
10.9554545898
 20
8.1500143026
 30
0.0
  0
SPLINE
  5
2E9
100
AcDbEntity
  8
0
100
AcDbSpline
 62
7
  6
CONTINUOUS
 70
0
 71
3
 72
46
 73
42
 74
0
 42
0.0000001
 43
0.0000001
 44
0.0000000001
 40
0.0
 40
0.0
 40
0.0
 40
0.0
 40
0.0149720531
 40
0.0299471658
 40
0.0449283783
 40
0.0599186928
 40
0.0749210582
 40
0.0899383489
 40
0.1049733477
 40
0.1200287328
 40
0.1351070585
 40
0.1502107401
 40
0.1653420445
 40
0.1805030737
 40
0.1956957522
 40
0.2109218227
 40
0.2414745583
 40
0.2721768354
 40
0.3030351636
 40
0.3340525555
 40
0.3652285084
 40
0.3965590696
 40
0.4280369758
 40
0.4596518486
 40
0.4913904527
 40
0.5232370061
 40
0.5551735254
 40
0.5871802089
 40
0.6192358489
 40
0.6513182611
 40
0.6834047284
 40
0.7154724533
 40
0.747499011
 40
0.7794627968
 40
0.8113434616
 40
0.8431223306
 40
0.8747827976
 40
0.9063106872
 40
0.9376945994
 40
0.9689259227
 40
1.0
 40
1.0
 40
1.0
 40
1.0
 10
11.1668465892
 20
7.9001786767
 30
0.0
 10
11.1713262204
 20
7.9045056795
 30
0.0
 10
11.1804595038
 20
7.9129834005
 30
0.0
 10
11.1946554115
 20
7.9251469311
 30
0.0
 10
11.209329346
 20
7.9367420257
 30
0.0
 10
11.2244607812
 20
7.9477525197
 30
0.0
 10
11.2400289695
 20
7.9581633391
 30
0.0
 10
11.2560124994
 20
7.9679600859
 30
0.0
 10
11.2723893394
 20
7.9771293497
 30
0.0
 10
11.2891369536
 20
7.9856585169
 30
0.0
 10
11.3062323221
 20
7.9935358033
 30
0.0
 10
11.3236518794
 20
8.0007504448
 30
0.0
 10
11.3413716866
 20
8.0072925195
 30
0.0
 10
11.3593672842
 20
8.0131529709
 30
0.0
 10
11.3776142383
 20
8.0183238656
 30
0.0
 10
11.4022697737
 20
8.0242956444
 30
0.0
 10
11.4336038241
 20
8.0299989502
 30
0.0
 10
11.4717498005
 20
8.0339829057
 30
0.0
 10
11.5102811129
 20
8.0350950655
 30
0.0
 10
11.5489843933
 20
8.0333293524
 30
0.0
 10
11.5876472824
 20
8.0286960938
 30
0.0
 10
11.6260572527
 20
8.0212212084
 30
0.0
 10
11.6640033672
 20
8.0109461306
 30
0.0
 10
11.7012772803
 20
7.9979276875
 30
0.0
 10
11.7376744173
 20
7.9822377333
 30
0.0
 10
11.7729950171
 20
7.9639626409
 30
0.0
 10
11.8070452686
 20
7.943202966
 30
0.0
 10
11.8396383723
 20
7.9200728771
 30
0.0
 10
11.8705954721
 20
7.894699419
 30
0.0
 10
11.8997466886
 20
7.8672219291
 30
0.0
 10
11.9269320768
 20
7.837791293
 30
0.0
 10
11.9520023839
 20
7.8065690135
 30
0.0
 10
11.9748199232
 20
7.7737264122
 30
0.0
 10
11.9952593937
 20
7.7394437339
 30
0.0
 10
12.013208423
 20
7.7039090656
 30
0.0
 10
12.0285682336
 20
7.6673173953
 30
0.0
 10
12.0412542911
 20
7.6298695006
 30
0.0
 10
12.0511966205
 20
7.5917711118
 30
0.0
 10
12.0583401607
 20
7.5532306959
 30
0.0
 10
12.0626454414
 20
7.514462642
 30
0.0
 10
12.0636097296
 20
7.4885345155
 30
0.0
 10
12.0636097296
 20
7.4756081316
 30
0.0
  0
SPLINE
  5
2EA
100
AcDbEntity
  8
0
100
AcDbSpline
 62
7
  6
CONTINUOUS
 70
0
 71
3
 72
24
 73
20
 74
0
 42
0.0000001
 43
0.0000001
 44
0.0000000001
 40
0.0
 40
0.0
 40
0.0
 40
0.0
 40
0.0617098302
 40
0.0925738984
 40
0.1234458662
 40
0.1852188017
 40
0.2470541958
 40
0.3089718739
 40
0.370990827
 40
0.4331290231
 40
0.495403233
 40
0.5578288681
 40
0.6204198379
 40
0.6831884365
 40
0.7461451561
 40
0.8092989462
 40
0.8726559965
 40
0.9362227712
 40
1.0
 40
1.0
 40
1.0
 40
1.0
 10
11.9171729159
 20
7.1233837491
 30
0.0
 10
11.9229711873
 20
7.1289844639
 30
0.0
 10
11.9314553804
 20
7.1376123422
 30
0.0
 10
11.9423112587
 20
7.149539327
 30
0.0
 10
11.9528627087
 20
7.1617477961
 30
0.0
 10
11.9654665049
 20
7.177520908
 30
0.0
 10
11.9796112684
 20
7.1972142644
 30
0.0
 10
11.9927475969
 20
7.2176326781
 30
0.0
 10
12.0048449719
 20
7.2387287488
 30
0.0
 10
12.0158755944
 20
7.2604538865
 30
0.0
 10
12.0258140452
 20
7.2827579563
 30
0.0
 10
12.0346374515
 20
7.3055895196
 30
0.0
 10
12.0423255111
 20
7.3288959225
 30
0.0
 10
12.0488605467
 20
7.3526234106
 30
0.0
 10
12.0542275808
 20
7.3767173067
 30
0.0
 10
12.058414233
 20
7.4011219599
 30
0.0
 10
12.0614110397
 20
7.4257814488
 30
0.0
 10
12.06321097
 20
7.450638039
 30
0.0
 10
12.0636097296
 20
7.4672765446
 30
0.0
 10
12.0636097296
 20
7.4756081316
 30
0.0
  0
SPLINE
  5
2EB
100
AcDbEntity
  8
0
100
AcDbSpline
 62
7
  6
CONTINUOUS
 70
0
 71
3
 72
28
 73
24
 74
0
 42
0.0000001
 43
0.0000001
 44
0.0000000001
 40
0.0
 40
0.0
 40
0.0
 40
0.0
 40
0.0273856484
 40
0.0559472794
 40
0.0856947588
 40
0.1165906908
 40
0.1485430497
 40
0.1814053787
 40
0.2149869824
 40
0.2490721405
 40
0.2834434259
 40
0.3179026218
 40
0.3522845241
 40
0.386462382
 40
0.4538736541
 40
0.5197618537
 40
0.5840536829
 40
0.6468272288
 40
0.7683508543
 40
0.8274688798
 40
0.8856831614
 40
0.9431445218
 40
1.0
 40
1.0
 40
1.0
 40
1.0
 10
9.3593365107
 20
8.454969852
 30
0.0
 10
9.3589466998
 20
8.4528177005
 30
0.0
 10
9.3582290316
 20
8.4484064078
 30
0.0
 10
9.3573538973
 20
8.4416174186
 30
0.0
 10
9.3566635426
 20
8.4345254272
 30
0.0
 10
9.3561633943
 20
8.427146151
 30
0.0
 10
9.3558580771
 20
8.4195073426
 30
0.0
 10
9.3557507378
 20
8.4116487426
 30
0.0
 10
9.3558424911
 20
8.4036196499
 30
0.0
 10
9.3561322143
 20
8.3954747141
 30
0.0
 10
9.3566167502
 20
8.3872688578
 30
0.0
 10
9.3572914522
 20
8.3790526996
 30
0.0
 10
9.3581508747
 20
8.3708692984
 30
0.0
 10
9.3595294107
 20
8.3600970138
 30
0.0
 10
9.3616765951
 20
8.3468896088
 30
0.0
 10
9.3649307712
 20
8.3314423667
 30
0.0
 10
9.3688340436
 20
8.3165273025
 30
0.0
 10
9.3748282609
 20
8.2975942916
 30
0.0
 10
9.3821626956
 20
8.2795366482
 30
0.0
 10
9.3909155496
 20
8.2625755467
 30
0.0
 10
9.3980985437
 20
8.250593032
 30
0.0
 10
9.4059717488
 20
8.2392718871
 30
0.0
 10
9.4117162851
 20
8.2321627524
 30
0.0
 10
9.4147037144
 20
8.2287430945
 30
0.0
  0
SPLINE
  5
2EC
100
AcDbEntity
  8
0
100
AcDbSpline
 62
7
  6
CONTINUOUS
 70
0
 71
3
 72
21
 73
17
 74
0
 42
0.0000001
 43
0.0000001
 44
0.0000000001
 40
0.0
 40
0.0
 40
0.0
 40
0.0
 40
0.0617147761
 40
0.1234506677
 40
0.1852285528
 40
0.2470689013
 40
0.30899155
 40
0.3710154761
 40
0.4331586505
 40
0.4954378572
 40
0.5578685131
 40
0.6204644763
 40
0.6832380473
 40
0.746200107
 40
0.8726822618
 40
1.0
 40
1.0
 40
1.0
 40
1.0
 10
9.5379220535
 20
8.1293222378
 30
0.0
 10
9.540010507
 20
8.1313395299
 30
0.0
 10
9.5440850804
 20
8.135483084
 30
0.0
 10
9.5498702781
 20
8.1420056746
 30
0.0
 10
9.5553166435
 20
8.1488216009
 30
0.0
 10
9.5604114457
 20
8.1559148959
 30
0.0
 10
9.5651429379
 20
8.1632692958
 30
0.0
 10
9.5695002239
 20
8.1708677981
 30
0.0
 10
9.5734733113
 20
8.1786928594
 30
0.0
 10
9.57705298
 20
8.18672646
 30
0.0
 10
9.5802310279
 20
8.1949500644
 30
0.0
 10
9.5830001745
 20
8.2033446364
 30
0.0
 10
9.5853540046
 20
8.211891077
 30
0.0
 10
9.5879350899
 20
8.223477889
 30
0.0
 10
9.5900946353
 20
8.2382492078
 30
0.0
 10
9.5906664319
 20
8.2501980249
 30
0.0
 10
9.5906664319
 20
8.2561882345
 30
0.0
  0
SPLINE
  5
2ED
100
AcDbEntity
  8
0
100
AcDbSpline
 62
7
  6
CONTINUOUS
 70
0
 71
3
 72
30
 73
26
 74
0
 42
0.0000001
 43
0.0000001
 44
0.0000000001
 40
0.0
 40
0.0
 40
0.0
 40
0.0
 40
0.0301682768
 40
0.0603472597
 40
0.0905475312
 40
0.1207794553
 40
0.1510530673
 40
0.1813779515
 40
0.2117631595
 40
0.2422171245
 40
0.2727475547
 40
0.3033613746
 40
0.3340646721
 40
0.3648626169
 40
0.3957594309
 40
0.426758371
 40
0.4890517751
 40
0.5517677819
 40
0.6148960912
 40
0.6784110474
 40
0.7422728385
 40
0.8064291697
 40
0.8708173112
 40
0.9353664048
 40
1.0
 40
1.0
 40
1.0
 40
1.0
 10
9.2676656416
 20
8.4091122471
 30
0.0
 10
9.2697926729
 20
8.4111668027
 30
0.0
 10
9.2741560598
 20
8.4151659299
 30
0.0
 10
9.2810076066
 20
8.4208146713
 30
0.0
 10
9.2881504732
 20
8.426101123
 30
0.0
 10
9.2955672981
 20
8.4310124718
 30
0.0
 10
9.3032404241
 20
8.4355369925
 30
0.0
 10
9.3111514739
 20
8.4396638429
 30
0.0
 10
9.3192814921
 20
8.4433832254
 30
0.0
 10
9.3276110471
 20
8.4466862128
 30
0.0
 10
9.3361202138
 20
8.4495649066
 30
0.0
 10
9.3447886111
 20
8.4520125033
 30
0.0
 10
9.3535955409
 20
8.4540231241
 30
0.0
 10
9.3625198679
 20
8.4555919679
 30
0.0
 10
9.3715405206
 20
8.4567153548
 30
0.0
 10
9.3836849775
 20
8.4576171154
 30
0.0
 10
9.3990047807
 20
8.457614142
 30
0.0
 10
9.4173870373
 20
8.4558105598
 30
0.0
 10
9.4356286976
 20
8.4522253697
 30
0.0
 10
9.4535546326
 20
8.4468931666
 30
0.0
 10
9.4709944396
 20
8.4398653359
 30
0.0
 10
9.487781905
 20
8.4312093918
 30
0.0
 10
9.5037576242
 20
8.4210076539
 30
0.0
 10
9.5187681304
 20
8.4093590299
 30
0.0
 10
9.5280377618
 20
8.400701153
 30
0.0
 10
9.5324661586
 20
8.3961700119
 30
0.0
  0
SPLINE
  5
2EE
100
AcDbEntity
  8
0
100
AcDbSpline
 62
7
  6
CONTINUOUS
 70
0
 71
3
 72
19
 73
15
 74
0
 42
0.0000001
 43
0.0000001
 44
0.0000000001
 40
0.0
 40
0.0
 40
0.0
 40
0.0
 40
0.0632985423
 40
0.1265711924
 40
0.1897983889
 40
0.2529609748
 40
0.3789847914
 40
0.50453706
 40
0.6294954313
 40
0.753759027
 40
0.8156232323
 40
0.8772868871
 40
0.9387499666
 40
1.0
 40
1.0
 40
1.0
 40
1.0
 10
9.5353442195
 20
8.3931657622
 30
0.0
 10
9.5375284799
 20
8.3908396975
 30
0.0
 10
9.5417899863
 20
8.3860875195
 30
0.0
 10
9.5478456364
 20
8.3786760478
 30
0.0
 10
9.5535502665
 20
8.3709991315
 30
0.0
 10
9.5606630926
 20
8.3604443612
 30
0.0
 10
9.5686108286
 20
8.346684137
 30
0.0
 10
9.5765488429
 20
8.3294129184
 30
0.0
 10
9.5828065205
 20
8.3115580867
 30
0.0
 10
9.5865760781
 20
8.296309414
 30
0.0
 10
9.5886943026
 20
8.2839952215
 30
0.0
 10
9.5898306935
 20
8.2747355066
 30
0.0
 10
9.5905138248
 20
8.2654628178
 30
0.0
 10
9.5906664319
 20
8.2592758272
 30
0.0
 10
9.5906664319
 20
8.2561882345
 30
0.0
  0
SPLINE
  5
2EF
100
AcDbEntity
  8
0
100
AcDbSpline
 62
7
  6
CONTINUOUS
 70
0
 71
3
 72
37
 73
33
 74
0
 42
0.0000001
 43
0.0000001
 44
0.0000000001
 40
0.0
 40
0.0
 40
0.0
 40
0.0
 40
0.0303256621
 40
0.0607662236
 40
0.0913243664
 40
0.1220012807
 40
0.1527966659
 40
0.1837087495
 40
0.2147343287
 40
0.2458688272
 40
0.2771063628
 40
0.3084398291
 40
0.3398609884
 40
0.3713605787
 40
0.402928432
 40
0.4345535971
 40
0.4979072188
 40
0.5613449536
 40
0.593074263
 40
0.6247862622
 40
0.6564683571
 40
0.68810829
 40
0.7196942833
 40
0.7512151782
 40
0.782660561
 40
0.8140208961
 40
0.8452876278
 40
0.8764532754
 40
0.9075117414
 40
0.9384574956
 40
0.9692883457
 40
1.0
 40
1.0
 40
1.0
 40
1.0
 10
9.3175187446
 20
8.4710769642
 30
0.0
 10
9.3218328527
 20
8.4717380427
 30
0.0
 10
9.330517499
 20
8.4728144888
 30
0.0
 10
9.3436386171
 20
8.4736868261
 30
0.0
 10
9.3568389737
 20
8.4738174112
 30
0.0
 10
9.3700767208
 20
8.4732058129
 30
0.0
 10
9.3833106177
 20
8.4718540032
 30
0.0
 10
9.3964992498
 20
8.4697662581
 30
0.0
 10
9.409601407
 20
8.4669491652
 30
0.0
 10
9.4225761413
 20
8.4634115776
 30
0.0
 10
9.4353829139
 20
8.4591645896
 30
0.0
 10
9.4479817036
 20
8.4542215084
 30
0.0
 10
9.4603331705
 20
8.4485977844
 30
0.0
 10
9.4723986444
 20
8.4423111064
 30
0.0
 10
9.4841407792
 20
8.4353808663
 30
0.0
 10
9.4993226196
 20
8.4253078694
 30
0.0
 10
9.517305811
 20
8.4112210243
 30
0.0
 10
9.5337325554
 20
8.3953254815
 30
0.0
 10
9.5458271736
 20
8.3816354993
 30
0.0
 10
9.5543476297
 20
8.3709116908
 30
0.0
 10
9.5622882132
 20
8.3597678952
 30
0.0
 10
9.569624422
 20
8.3482386142
 30
0.0
 10
9.5763332433
 20
8.3363599496
 30
0.0
 10
9.582393726
 20
8.3241689866
 30
0.0
 10
9.5877869068
 20
8.3117038116
 30
0.0
 10
9.5924959044
 20
8.299003359
 30
0.0
 10
9.5965059544
 20
8.2861073083
 30
0.0
 10
9.5998045118
 20
8.2730559281
 30
0.0
 10
9.6023811728
 20
8.2598900934
 30
0.0
 10
9.6042279818
 20
8.2466506742
 30
0.0
 10
9.6053389126
 20
8.2333797516
 30
0.0
 10
9.6055872086
 20
8.2245206157
 30
0.0
 10
9.6055872086
 20
8.2201005989
 30
0.0
  0
SPLINE
  5
2F0
100
AcDbEntity
  8
0
100
AcDbSpline
 62
7
  6
CONTINUOUS
 70
0
 71
3
 72
41
 73
37
 74
0
 42
0.0000001
 43
0.0000001
 44
0.0000000001
 40
0.0
 40
0.0
 40
0.0
 40
0.0
 40
0.0149724862
 40
0.0299480307
 40
0.0449296746
 40
0.0599204222
 40
0.0899350731
 40
0.1200204959
 40
0.1501975964
 40
0.1804850878
 40
0.2108990702
 40
0.2414526838
 40
0.2721558423
 40
0.303015057
 40
0.3340333403
 40
0.3652101893
 40
0.3965416515
 40
0.4280204628
 40
0.4596362457
 40
0.4913757643
 40
0.5232232351
 40
0.5551606749
 40
0.587168282
 40
0.6192248472
 40
0.6513081855
 40
0.6833955794
 40
0.7154642309
 40
0.7474917144
 40
0.779456424
 40
0.8113380097
 40
0.8431177978
 40
0.8747791805
 40
0.9063079772
 40
0.937692809
 40
0.9689250164
 40
1.0
 40
1.0
 40
1.0
 40
1.0
 10
9.0733745688
 20
8.525923384
 30
0.0
 10
9.0768048083
 20
8.5292367524
 30
0.0
 10
9.0837985099
 20
8.5357285507
 30
0.0
 10
9.0946688673
 20
8.5450426481
 30
0.0
 10
9.1059054146
 20
8.5539216536
 30
0.0
 10
9.1213588081
 20
8.5651666182
 30
0.0
 10
9.1415241088
 20
8.5780803441
 30
0.0
 10
9.1669134469
 20
8.5916431803
 30
0.0
 10
9.1933685782
 20
8.6032079327
 30
0.0
 10
9.2207426841
 20
8.6127104129
 30
0.0
 10
9.2488851467
 20
8.6200987686
 30
0.0
 10
9.2776408588
 20
8.6253326132
 30
0.0
 10
9.3068515062
 20
8.6283835607
 30
0.0
 10
9.3363563478
 20
8.629235201
 30
0.0
 10
9.3659931147
 20
8.627883196
 30
0.0
 10
9.3955988931
 20
8.6243353722
 30
0.0
 10
9.4250110205
 20
8.618611591
 30
0.0
 10
9.454067958
 20
8.6107436003
 30
0.0
 10
9.4826101633
 20
8.6007748795
 30
0.0
 10
9.5104809806
 20
8.5887604557
 30
0.0
 10
9.5375274634
 20
8.5747665076
 30
0.0
 10
9.5636011895
 20
8.5588700029
 30
0.0
 10
9.5885590972
 20
8.5411583395
 30
0.0
 10
9.6122642631
 20
8.5217288522
 30
0.0
 10
9.6345866087
 20
8.500688235
 30
0.0
 10
9.6554036027
 20
8.4781519734
 30
0.0
 10
9.6746009933
 20
8.4542437787
 30
0.0
 10
9.6920733773
 20
8.4290948557
 30
0.0
 10
9.7077247522
 20
8.4028431867
 30
0.0
 10
9.7214690681
 20
8.3756328043
 30
0.0
 10
9.7332307453
 20
8.3476130462
 30
0.0
 10
9.7429450105
 20
8.3189376363
 30
0.0
 10
9.7505582638
 20
8.2897641043
 30
0.0
 10
9.7560283767
 20
8.2602521027
 30
0.0
 10
9.7593251235
 20
8.230565785
 30
0.0
 10
9.7600635171
 20
8.2107115385
 30
0.0
 10
9.7600635171
 20
8.2008132637
 30
0.0
  0
SPLINE
  5
2F1
100
AcDbEntity
  8
0
100
AcDbSpline
 62
7
  6
CONTINUOUS
 70
0
 71
3
 72
71
 73
67
 74
0
 42
0.0000001
 43
0.0000001
 44
0.0000000001
 40
0.0
 40
0.0
 40
0.0
 40
0.0
 40
0.0155843069
 40
0.0311159038
 40
0.0465952632
 40
0.0620238805
 40
0.077403449
 40
0.0927362827
 40
0.1080251225
 40
0.1232731731
 40
0.1384840552
 40
0.1536617763
 40
0.1688106901
 40
0.1839354535
 40
0.1990409788
 40
0.2141323827
 40
0.2292149324
 40
0.2442939898
 40
0.259374954
 40
0.2744632038
 40
0.2895640402
 40
0.3046826299
 40
0.3198239506
 40
0.3349927394
 40
0.3501934439
 40
0.3654301775
 40
0.3807066787
 40
0.3960262758
 40
0.4113918556
 40
0.4268058385
 40
0.4422701584
 40
0.4577862477
 40
0.4733550287
 40
0.4889769093
 40
0.5046517847
 40
0.520379043
 40
0.5361575765
 40
0.5519857969
 40
0.5678616545
 40
0.5837826615
 40
0.5997459177
 40
0.6157481411
 40
0.6317856992
 40
0.6478546443
 40
0.6639507502
 40
0.6800695513
 40
0.6962063822
 40
0.7123564202
 40
0.7285147273
 40
0.7446762933
 40
0.7608360801
 40
0.7769890646
 40
0.7931302832
 40
0.8092548748
 40
0.8253581236
 40
0.841435501
 40
0.8574827062
 40
0.8734957057
 40
0.889470771
 40
0.9054045125
 40
0.9212939181
 40
0.9371363645
 40
0.9529297054
 40
0.9686721205
 40
0.9843625712
 40
1.0
 40
1.0
 40
1.0
 40
1.0
 10
12.0855300354
 20
7.4657815405
 30
0.0
 10
12.0855300354
 20
7.4567732224
 30
0.0
 10
12.0850891988
 20
7.4387838597
 30
0.0
 10
12.0830991584
 20
7.411913114
 30
0.0
 10
12.0797860787
 20
7.3852631407
 30
0.0
 10
12.0751579891
 20
7.3588991016
 30
0.0
 10
12.0692258931
 20
7.332884235
 30
0.0
 10
12.06200407
 20
7.3072813445
 30
0.0
 10
12.0535098419
 20
7.2821521303
 30
0.0
 10
12.0437636352
 20
7.2575571945
 30
0.0
 10
12.0327888884
 20
7.2335558508
 30
0.0
 10
12.0206120142
 20
7.2102059909
 30
0.0
 10
12.0072623309
 20
7.1875639416
 30
0.0
 10
11.9927719954
 20
7.1656843262
 30
0.0
 10
11.9771759276
 20
7.1446199297
 30
0.0
 10
11.9605117226
 20
7.1244215714
 30
0.0
 10
11.9428195602
 20
7.1051379798
 30
0.0
 10
11.9241421073
 20
7.0868156738
 30
0.0
 10
11.9045244141
 20
7.0694988483
 30
0.0
 10
11.884013804
 20
7.0532292667
 30
0.0
 10
11.8626597574
 20
7.0380461588
 30
0.0
 10
11.8405137913
 20
7.0239861254
 30
0.0
 10
11.8176293326
 20
7.01108305
 30
0.0
 10
11.7940615875
 20
6.9993680169
 30
0.0
 10
11.7698674074
 20
6.9888692341
 30
0.0
 10
11.7451051496
 20
6.9796119669
 30
0.0
 10
11.7198345334
 20
6.9716184794
 30
0.0
 10
11.6941164953
 20
6.9649079828
 30
0.0
 10
11.6680130408
 20
6.9594965897
 30
0.0
 10
11.6415870945
 20
6.9553972775
 30
0.0
 10
11.6149023478
 20
6.9526198588
 30
0.0
 10
11.5880231053
 20
6.9511709592
 30
0.0
 10
11.5610141299
 20
6.9510540035
 30
0.0
 10
11.5339404874
 20
6.9522692084
 30
0.0
 10
11.50686739
 20
6.9548135838
 30
0.0
 10
11.4798600395
 20
6.9586809372
 30
0.0
 10
11.4529834711
 20
6.9638618937
 30
0.0
 10
11.4263023974
 20
6.9703439199
 30
0.0
 10
11.3998810537
 20
6.9781113544
 30
0.0
 10
11.3737830444
 20
6.9871454463
 30
0.0
 10
11.3480711911
 20
6.997424401
 30
0.0
 10
11.322807382
 20
7.0089234328
 30
0.0
 10
11.2980524245
 20
7.0216148245
 30
0.0
 10
11.2738658992
 20
7.0354679946
 30
0.0
 10
11.2503060181
 20
7.0504495706
 30
0.0
 10
11.227429484
 20
7.066523468
 30
0.0
 10
11.2052913537
 20
7.083650976
 30
0.0
 10
11.1839449082
 20
7.1017908528
 30
0.0
 10
11.1634415243
 20
7.1208994249
 30
0.0
 10
11.1438305524
 20
7.1409306911
 30
0.0
 10
11.1251591977
 20
7.1618364333
 30
0.0
 10
11.1074724075
 20
7.1835663316
 30
0.0
 10
11.0908127635
 20
7.206068085
 30
0.0
 10
11.0752203795
 20
7.2292875364
 30
0.0
 10
11.0607328056
 20
7.2531688024
 30
0.0
 10
11.0473849382
 20
7.2776544072
 30
0.0
 10
11.0352089332
 20
7.3026854186
 30
0.0
 10
11.0242341295
 20
7.3282015902
 30
0.0
 10
11.0144869819
 20
7.354141506
 30
0.0
 10
11.0059909908
 20
7.3804427301
 30
0.0
 10
10.9987666629
 20
7.4070419435
 30
0.0
 10
10.992831418
 20
7.4338751412
 30
0.0
 10
10.9881996454
 20
7.4608776257
 30
0.0
 10
10.9848824732
 20
7.4879846907
 30
0.0
 10
10.9828880601
 20
7.5151301053
 30
0.0
 10
10.9824427115
 20
7.5332418817
 30
0.0
 10
10.9824427115
 20
7.5422809062
 30
0.0
  0
SPLINE
  5
2F2
100
AcDbEntity
  8
0
100
AcDbSpline
 62
7
  6
CONTINUOUS
 70
0
 71
3
 72
23
 73
19
 74
0
 42
0.0000001
 43
0.0000001
 44
0.0000000001
 40
0.0
 40
0.0
 40
0.0
 40
0.0
 40
0.063777379
 40
0.1273447372
 40
0.1907019931
 40
0.2538561345
 40
0.3168131769
 40
0.3795820929
 40
0.4421733849
 40
0.5045993366
 40
0.5668738654
 40
0.6290123812
 40
0.6910316548
 40
0.7529496517
 40
0.8147853612
 40
0.8765586089
 40
0.9382898579
 40
1.0
 40
1.0
 40
1.0
 40
1.0
 10
8.9612428115
 20
8.2562116678
 30
0.0
 10
8.9612428115
 20
8.2625914601
 30
0.0
 10
8.9615481624
 20
8.2753321981
 30
0.0
 10
8.9629264198
 20
8.2943658226
 30
0.0
 10
8.9652211894
 20
8.3132485383
 30
0.0
 10
8.9684270434
 20
8.3319360946
 30
0.0
 10
8.9725367642
 20
8.3503857049
 30
0.0
 10
8.9775408693
 20
8.3685547407
 30
0.0
 10
8.9834278912
 20
8.3864013351
 30
0.0
 10
8.9901842808
 20
8.4038843317
 30
0.0
 10
8.9977944928
 20
8.4209634135
 30
0.0
 10
9.0062410135
 20
8.437599188
 30
0.0
 10
9.0155043945
 20
8.4537532767
 30
0.0
 10
9.0255633158
 20
8.4693884153
 30
0.0
 10
9.0363945632
 20
8.4844684988
 30
0.0
 10
9.0479732839
 20
8.4989588632
 30
0.0
 10
9.060272325
 20
8.512825624
 30
0.0
 10
9.0689346161
 20
8.5216347043
 30
0.0
 10
9.0733745688
 20
8.525923384
 30
0.0
  0
SPLINE
  5
2F3
100
AcDbEntity
  8
0
100
AcDbSpline
 62
7
  6
CONTINUOUS
 70
0
 71
3
 72
21
 73
17
 74
0
 42
0.0000001
 43
0.0000001
 44
0.0000000001
 40
0.0
 40
0.0
 40
0.0
 40
0.0
 40
0.0617147806
 40
0.1234506635
 40
0.1852285505
 40
0.2470689066
 40
0.3089915473
 40
0.3710154718
 40
0.4331586569
 40
0.4954378562
 40
0.5578685009
 40
0.620464496
 40
0.6832380525
 40
0.7462000245
 40
0.8726823634
 40
1.0
 40
1.0
 40
1.0
 40
1.0
 10
11.5798409038
 20
8.7034860118
 30
0.0
 10
11.5776611809
 20
8.7013805608
 30
0.0
 10
11.5734085632
 20
8.6970559054
 30
0.0
 10
11.5673705423
 20
8.6902482691
 30
0.0
 10
11.5616861325
 20
8.6831344977
 30
0.0
 10
11.55636871
 20
8.6757311907
 30
0.0
 10
11.551430444
 20
8.6680553925
 30
0.0
 10
11.546882709
 20
8.6601248384
 30
0.0
 10
11.5427360194
 20
8.6519577939
 30
0.0
 10
11.5389999137
 20
8.6435731128
 30
0.0
 10
11.5356829553
 20
8.6349901313
 30
0.0
 10
11.5327928165
 20
8.6262286938
 30
0.0
 10
11.5303361193
 20
8.617308764
 30
0.0
 10
11.5276422137
 20
8.6052155895
 30
0.0
 10
11.5253883188
 20
8.5897987351
 30
0.0
 10
11.5247915254
 20
8.577327732
 30
0.0
 10
11.5247915254
 20
8.5710757452
 30
0.0
  0
SPLINE
  5
2F4
100
AcDbEntity
  8
0
100
AcDbSpline
 62
7
  6
CONTINUOUS
 70
0
 71
3
 72
11
 73
7
 74
0
 42
0.0000001
 43
0.0000001
 44
0.0000000001
 40
0.0
 40
0.0
 40
0.0
 40
0.0
 40
0.2473110934
 40
0.498165909
 40
0.7500774472
 40
1.0
 40
1.0
 40
1.0
 40
1.0
 10
10.6034979448
 20
8.9776743282
 30
0.0
 10
10.6044382492
 20
8.9847356175
 30
0.0
 10
10.6064198157
 20
8.998947959
 30
0.0
 10
10.6097245884
 20
9.0203001419
 30
0.0
 10
10.6134204186
 20
9.0416647259
 30
0.0
 10
10.6161729057
 20
9.0558565874
 30
0.0
 10
10.6176243112
 20
9.0629075983
 30
0.0
  0
SPLINE
  5
2F5
100
AcDbEntity
  8
0
100
AcDbSpline
 62
7
  6
CONTINUOUS
 70
0
 71
3
 72
21
 73
17
 74
0
 42
0.0000001
 43
0.0000001
 44
0.0000000001
 40
0.0
 40
0.0
 40
0.0
 40
0.0
 40
0.0617147806
 40
0.1234506635
 40
0.1852285505
 40
0.2470689066
 40
0.3089915473
 40
0.3710154718
 40
0.4331586569
 40
0.4954378562
 40
0.5578685009
 40
0.620464496
 40
0.6832380525
 40
0.7462000245
 40
0.8726823634
 40
1.0
 40
1.0
 40
1.0
 40
1.0
 10
10.1309521937
 20
9.6491519044
 30
0.0
 10
10.1287724708
 20
9.6470464534
 30
0.0
 10
10.1245198531
 20
9.6427217981
 30
0.0
 10
10.1184818321
 20
9.6359141617
 30
0.0
 10
10.1127974223
 20
9.6288003903
 30
0.0
 10
10.1074799998
 20
9.6213970833
 30
0.0
 10
10.1025417338
 20
9.6137212851
 30
0.0
 10
10.0979939989
 20
9.6057907311
 30
0.0
 10
10.0938473092
 20
9.5976236865
 30
0.0
 10
10.0901112035
 20
9.5892390054
 30
0.0
 10
10.0867942452
 20
9.5806560239
 30
0.0
 10
10.0839041063
 20
9.5718945865
 30
0.0
 10
10.0814474092
 20
9.5629746566
 30
0.0
 10
10.0787535036
 20
9.5508814821
 30
0.0
 10
10.0764996087
 20
9.5354646277
 30
0.0
 10
10.0759028153
 20
9.5229936246
 30
0.0
 10
10.0759028153
 20
9.5167416378
 30
0.0
  0
SPLINE
  5
2F6
100
AcDbEntity
  8
0
100
AcDbSpline
 62
7
  6
CONTINUOUS
 70
0
 71
3
 72
21
 73
17
 74
0
 42
0.0000001
 43
0.0000001
 44
0.0000000001
 40
0.0
 40
0.0
 40
0.0
 40
0.0
 40
0.0617147806
 40
0.1234506635
 40
0.1852285505
 40
0.2470689066
 40
0.3089915473
 40
0.3710154718
 40
0.4331586569
 40
0.4954378562
 40
0.5578685009
 40
0.620464496
 40
0.6832380525
 40
0.7462000245
 40
0.8726823634
 40
1.0
 40
1.0
 40
1.0
 40
1.0
 10
10.1309521937
 20
7.1744498997
 30
0.0
 10
10.1287724708
 20
7.1723444488
 30
0.0
 10
10.1245198531
 20
7.1680197934
 30
0.0
 10
10.1184818321
 20
7.161212157
 30
0.0
 10
10.1127974223
 20
7.1540983856
 30
0.0
 10
10.1074799998
 20
7.1466950787
 30
0.0
 10
10.1025417338
 20
7.1390192805
 30
0.0
 10
10.0979939989
 20
7.1310887264
 30
0.0
 10
10.0938473092
 20
7.1229216819
 30
0.0
 10
10.0901112035
 20
7.1145370007
 30
0.0
 10
10.0867942452
 20
7.1059540193
 30
0.0
 10
10.0839041063
 20
7.0971925818
 30
0.0
 10
10.0814474092
 20
7.088272652
 30
0.0
 10
10.0787535036
 20
7.0761794774
 30
0.0
 10
10.0764996087
 20
7.060762623
 30
0.0
 10
10.0759028153
 20
7.0482916199
 30
0.0
 10
10.0759028153
 20
7.0420396331
 30
0.0
  0
SPLINE
  5
2F7
100
AcDbEntity
  8
0
100
AcDbSpline
 62
7
  6
CONTINUOUS
 70
0
 71
3
 72
31
 73
27
 74
0
 42
0.0000001
 43
0.0000001
 44
0.0000000001
 40
0.0
 40
0.0
 40
0.0
 40
0.0
 40
0.1075758248
 40
0.208939599
 40
0.3039671154
 40
0.3925944089
 40
0.4747904373
 40
0.550565014
 40
0.6199640863
 40
0.6522984784
 40
0.6830742022
 40
0.71230891
 40
0.74002409
 40
0.7662455777
 40
0.7910043877
 40
0.8143378484
 40
0.8362913519
 40
0.8569198237
 40
0.8762899284
 40
0.8944833698
 40
0.9115992255
 40
0.9430651165
 40
0.9577631851
 40
0.9720077992
 40
0.9860119648
 40
1.0
 40
1.0
 40
1.0
 40
1.0
 10
11.5076702032
 20
7.9471117534
 30
0.0
 10
11.5071506587
 20
7.9498822283
 30
0.0
 10
11.5061401874
 20
7.9552629372
 30
0.0
 10
11.5046488928
 20
7.9630868337
 30
0.0
 10
11.5032113913
 20
7.9704154743
 30
0.0
 10
11.5018123005
 20
7.9772396366
 30
0.0
 10
11.5004359204
 20
7.9835531002
 30
0.0
 10
11.4990664087
 20
7.9893516025
 30
0.0
 10
11.497891881
 20
7.9938527252
 30
0.0
 10
11.4969348394
 20
7.9971904717
 30
0.0
 10
11.4962258081
 20
7.9995040947
 30
0.0
 10
11.4955066006
 20
8.0016875242
 30
0.0
 10
11.4947753356
 20
8.0037407353
 30
0.0
 10
11.4940301327
 20
8.005663719
 30
0.0
 10
11.4932691302
 20
8.0074564765
 30
0.0
 10
11.4924905244
 20
8.009119044
 30
0.0
 10
11.4916924814
 20
8.0106514313
 30
0.0
 10
11.4908731609
 20
8.0120536754
 30
0.0
 10
11.4900308592
 20
8.0133257166
 30
0.0
 10
11.4891634168
 20
8.014467749
 30
0.0
 10
11.4880043078
 20
8.0157794773
 30
0.0
 10
11.4867523914
 20
8.0168851641
 30
0.0
 10
11.4854091767
 20
8.0177281233
 30
0.0
 10
11.484390964
 20
8.0182137027
 30
0.0
 10
11.4833388772
 20
8.0185657042
 30
0.0
 10
11.4826175288
 20
8.0187103272
 30
0.0
 10
11.4822544179
 20
8.0187602245
 30
0.0
  0
SPLINE
  5
2F8
100
AcDbEntity
  8
0
100
AcDbSpline
 62
7
  6
CONTINUOUS
 70
0
 71
3
 72
15
 73
11
 74
0
 42
0.0000001
 43
0.0000001
 44
0.0000000001
 40
0.0
 40
0.0
 40
0.0
 40
0.0
 40
0.1394148992
 40
0.2765203354
 40
0.4103593705
 40
0.5399807532
 40
0.6644903472
 40
0.7830900356
 40
0.8951044942
 40
1.0
 40
1.0
 40
1.0
 40
1.0
 10
11.531956901
 20
7.832846779
 30
0.0
 10
11.53063627
 20
7.8381133676
 30
0.0
 10
11.52807637
 20
7.8485743201
 30
0.0
 10
11.5244506775
 20
7.8641397551
 30
0.0
 10
11.521072731
 20
7.8793703462
 30
0.0
 10
11.5179454155
 20
7.8941532433
 30
0.0
 10
11.5150636873
 20
7.9083808311
 30
0.0
 10
11.5124144977
 20
7.9219554536
 30
0.0
 10
11.509977353
 20
7.9347929267
 30
0.0
 10
11.5084231812
 20
7.943096493
 30
0.0
 10
11.5076702032
 20
7.9471117534
 30
0.0
  0
SPLINE
  5
2F9
100
AcDbEntity
  8
0
100
AcDbSpline
 62
7
  6
CONTINUOUS
 70
0
 71
3
 72
42
 73
38
 74
0
 42
0.0000001
 43
0.0000001
 44
0.0000000001
 40
0.0
 40
0.0
 40
0.0
 40
0.0
 40
0.0309220002
 40
0.046438309
 40
0.0619890498
 40
0.0931891969
 40
0.1245204822
 40
0.155974645
 40
0.1875413218
 40
0.2192082963
 40
0.2509616994
 40
0.2827862551
 40
0.3146655361
 40
0.3465822351
 40
0.3785184454
 40
0.4104559484
 40
0.4423765051
 40
0.4742621472
 40
0.5060954651
 40
0.5378598904
 40
0.5695399682
 40
0.6011216161
 40
0.6325923672
 40
0.6639415925
 40
0.6951606985
 40
0.7262432971
 40
0.7571853436
 40
0.7879852376
 40
0.818643885
 40
0.8491647164
 40
0.8643774334
 40
0.879558122
 40
0.9098235268
 40
0.9399760404
 40
0.9550161796
 40
0.9700330487
 40
1.0
 40
1.0
 40
1.0
 40
1.0
 10
11.4339944924
 20
8.5773725408
 30
0.0
 10
11.4339944924
 20
8.5709996859
 30
0.0
 10
11.4343136981
 20
8.5614251239
 30
0.0
 10
11.435369114
 20
8.5486915699
 30
0.0
 10
11.4368480529
 20
8.5359420514
 30
0.0
 10
11.4394855503
 20
8.5200548811
 30
0.0
 10
11.4438904308
 20
8.5011790008
 30
0.0
 10
11.4495193267
 20
8.4825521228
 30
0.0
 10
11.4563472279
 20
8.4642569749
 30
0.0
 10
11.4643439046
 20
8.4463741773
 30
0.0
 10
11.4734739711
 20
8.4289826916
 30
0.0
 10
11.4836970584
 20
8.4121592597
 30
0.0
 10
11.494967989
 20
8.3959781273
 30
0.0
 10
11.5072369757
 20
8.3805107035
 30
0.0
 10
11.5204498401
 20
8.365825253
 30
0.0
 10
11.5345482502
 20
8.351986596
 30
0.0
 10
11.5494699758
 20
8.3390558251
 30
0.0
 10
11.5651491611
 20
8.3270900377
 30
0.0
 10
11.5815166125
 20
8.3161420855
 30
0.0
 10
11.5985001014
 20
8.3062603426
 30
0.0
 10
11.6160246794
 20
8.2974884933
 30
0.0
 10
11.6340130064
 20
8.2898653399
 30
0.0
 10
11.6523856873
 20
8.2834246308
 30
0.0
 10
11.67106162
 20
8.2781949119
 30
0.0
 10
11.6899583445
 20
8.2741993974
 30
0.0
 10
11.7089924204
 20
8.2714558696
 30
0.0
 10
11.7280797268
 20
8.2699765825
 30
0.0
 10
11.7471360695
 20
8.2697682555
 30
0.0
 10
11.7660766615
 20
8.2708318479
 30
0.0
 10
11.7817133706
 20
8.2727768547
 30
0.0
 10
11.7940778264
 20
8.2749628798
 30
0.0
 10
11.8063086545
 20
8.277560301
 30
0.0
 10
11.8213748782
 20
8.2815814746
 30
0.0
 10
11.8360987872
 20
8.2866282921
 30
0.0
 10
11.8476123723
 20
8.2912623928
 30
0.0
 10
11.8589211077
 20
8.2962812209
 30
0.0
 10
11.8671941856
 20
8.3004876039
 30
0.0
 10
11.8725970188
 20
8.3034797057
 30
0.0
  0
SPLINE
  5
2FA
100
AcDbEntity
  8
0
100
AcDbSpline
 62
7
  6
CONTINUOUS
 70
0
 71
3
 72
15
 73
11
 74
0
 42
0.0000001
 43
0.0000001
 44
0.0000000001
 40
0.0
 40
0.0
 40
0.0
 40
0.0
 40
0.1268078413
 40
0.2530464203
 40
0.378730321
 40
0.5038839946
 40
0.6285411476
 40
0.7527444151
 40
0.8765446294
 40
1.0
 40
1.0
 40
1.0
 40
1.0
 10
11.4339944924
 20
8.5773725408
 30
0.0
 10
11.4339944924
 20
8.5835917222
 30
0.0
 10
11.4343983357
 20
8.5960060822
 30
0.0
 10
11.4362227827
 20
8.6145037125
 30
0.0
 10
11.4392569375
 20
8.6327605485
 30
0.0
 10
11.4434880514
 20
8.6506979468
 30
0.0
 10
11.448898233
 20
8.6682398135
 30
0.0
 10
11.4554647603
 20
8.6853116947
 30
0.0
 10
11.4631592225
 20
8.7018399561
 30
0.0
 10
11.4690276963
 20
8.7124648676
 30
0.0
 10
11.4721370485
 20
8.7176602575
 30
0.0
  0
SPLINE
  5
2FB
100
AcDbEntity
  8
0
100
AcDbSpline
 62
7
  6
CONTINUOUS
 70
0
 71
3
 72
42
 73
38
 74
0
 42
0.0000001
 43
0.0000001
 44
0.0000000001
 40
0.0
 40
0.0
 40
0.0
 40
0.0
 40
0.0310747671
 40
0.0466741744
 40
0.0623120752
 40
0.0936967636
 40
0.1252253831
 40
0.1568866086
 40
0.188666231
 40
0.2205476529
 40
0.2525121971
 40
0.2845395151
 40
0.3166080013
 40
0.3486952303
 40
0.3807784043
 40
0.4128348061
 40
0.4448422504
 40
0.4767795287
 40
0.5086268395
 40
0.5403661985
 40
0.5719818222
 40
0.603460476
 40
0.6347917816
 40
0.665968474
 40
0.6969866017
 40
0.7278456627
 40
0.7585486678
 40
0.7891021282
 40
0.8195159588
 40
0.8498032991
 40
0.8649073391
 40
0.8799860234
 40
0.9100712949
 40
0.940085795
 40
0.9550764649
 40
0.9700580337
 40
1.0
 40
1.0
 40
1.0
 40
1.0
 10
11.5247915254
 20
8.5710757452
 30
0.0
 10
11.5247915254
 20
8.5662163898
 30
0.0
 10
11.5250631526
 20
8.5589139894
 30
0.0
 10
11.5259602349
 20
8.5492097116
 30
0.0
 10
11.5272172269
 20
8.5394961412
 30
0.0
 10
11.5294579657
 20
8.5274068756
 30
0.0
 10
11.5331955129
 20
8.5130849469
 30
0.0
 10
11.5379645367
 20
8.4990072467
 30
0.0
 10
11.5437386961
 20
8.4852515104
 30
0.0
 10
11.5504861984
 20
8.471893101
 30
0.0
 10
11.5581699231
 20
8.4590053531
 30
0.0
 10
11.5667476341
 20
8.4466589718
 30
0.0
 10
11.5761722093
 20
8.4349217052
 30
0.0
 10
11.5863918975
 20
8.4238579618
 30
0.0
 10
11.5973505997
 20
8.4135284649
 30
0.0
 10
11.6089881742
 20
8.4039899215
 30
0.0
 10
11.6212407631
 20
8.395294715
 30
0.0
 10
11.634041139
 20
8.3874906192
 30
0.0
 10
11.6473190687
 20
8.3806205383
 30
0.0
 10
11.6610016946
 20
8.3747222725
 30
0.0
 10
11.6750139283
 20
8.3698283095
 30
0.0
 10
11.6892788576
 20
8.3659656464
 30
0.0
 10
11.7037181623
 20
8.3631556392
 30
0.0
 10
11.7182525396
 20
8.3614138829
 30
0.0
 10
11.7328021292
 20
8.3607501184
 30
0.0
 10
11.747286963
 20
8.3611681799
 30
0.0
 10
11.7616273413
 20
8.3626659389
 30
0.0
 10
11.7757444882
 20
8.3652354044
 30
0.0
 10
11.7895601723
 20
8.368862392
 30
0.0
 10
11.8007710169
 20
8.3727541222
 30
0.0
 10
11.8095093361
 20
8.3763733263
 30
0.0
 10
11.8180707685
 20
8.3803182536
 30
0.0
 10
11.8284515443
 20
8.3858634761
 30
0.0
 10
11.838350991
 20
8.3922029791
 30
0.0
 10
11.8459377165
 20
8.397723643
 30
0.0
 10
11.8532903144
 20
8.4035333839
 30
0.0
 10
11.8585403533
 20
8.4082157291
 30
0.0
 10
11.8619080557
 20
8.4114686804
 30
0.0
  0
SPLINE
  5
2FC
100
AcDbEntity
  8
0
100
AcDbSpline
 62
7
  6
CONTINUOUS
 70
0
 71
3
 72
42
 73
38
 74
0
 42
0.0000001
 43
0.0000001
 44
0.0000000001
 40
0.0
 40
0.0
 40
0.0
 40
0.0
 40
0.0309220002
 40
0.046438309
 40
0.0619890498
 40
0.0931891969
 40
0.1245204822
 40
0.155974645
 40
0.1875413218
 40
0.2192082963
 40
0.2509616994
 40
0.2827862551
 40
0.3146655361
 40
0.3465822351
 40
0.3785184454
 40
0.4104559484
 40
0.4423765051
 40
0.4742621472
 40
0.5060954651
 40
0.5378598904
 40
0.5695399682
 40
0.6011216161
 40
0.6325923672
 40
0.6639415925
 40
0.6951606985
 40
0.7262432971
 40
0.7571853436
 40
0.7879852376
 40
0.818643885
 40
0.8491647164
 40
0.8643774334
 40
0.879558122
 40
0.9098235268
 40
0.9399760404
 40
0.9550161796
 40
0.9700330487
 40
1.0
 40
1.0
 40
1.0
 40
1.0
 10
9.9851057823
 20
9.5230384334
 30
0.0
 10
9.9851057823
 20
9.5166655785
 30
0.0
 10
9.9854249879
 20
9.5070910165
 30
0.0
 10
9.9864804039
 20
9.4943574626
 30
0.0
 10
9.9879593427
 20
9.4816079441
 30
0.0
 10
9.9905968402
 20
9.4657207737
 30
0.0
 10
9.9950017206
 20
9.4468448934
 30
0.0
 10
10.0006306166
 20
9.4282180154
 30
0.0
 10
10.0074585178
 20
9.4099228675
 30
0.0
 10
10.0154551945
 20
9.39204007
 30
0.0
 10
10.024585261
 20
9.3746485842
 30
0.0
 10
10.0348083483
 20
9.3578251523
 30
0.0
 10
10.0460792789
 20
9.3416440199
 30
0.0
 10
10.0583482655
 20
9.3261765961
 30
0.0
 10
10.0715611299
 20
9.3114911456
 30
0.0
 10
10.08565954
 20
9.2976524886
 30
0.0
 10
10.1005812657
 20
9.2847217178
 30
0.0
 10
10.116260451
 20
9.2727559304
 30
0.0
 10
10.1326279024
 20
9.2618079781
 30
0.0
 10
10.1496113912
 20
9.2519262352
 30
0.0
 10
10.1671359693
 20
9.243154386
 30
0.0
 10
10.1851242963
 20
9.2355312325
 30
0.0
 10
10.2034969772
 20
9.2290905235
 30
0.0
 10
10.2221729098
 20
9.2238608045
 30
0.0
 10
10.2410696343
 20
9.2198652901
 30
0.0
 10
10.2601037103
 20
9.2171217622
 30
0.0
 10
10.2791910166
 20
9.2156424751
 30
0.0
 10
10.2982473593
 20
9.2154341481
 30
0.0
 10
10.3171879514
 20
9.2164977406
 30
0.0
 10
10.3328246605
 20
9.2184427473
 30
0.0
 10
10.3451891163
 20
9.2206287724
 30
0.0
 10
10.3574199444
 20
9.2232261936
 30
0.0
 10
10.3724861681
 20
9.2272473673
 30
0.0
 10
10.387210077
 20
9.2322941847
 30
0.0
 10
10.3987236622
 20
9.2369282855
 30
0.0
 10
10.4100323976
 20
9.2419471135
 30
0.0
 10
10.4183054755
 20
9.2461534966
 30
0.0
 10
10.4237083086
 20
9.2491455983
 30
0.0
  0
SPLINE
  5
2FD
100
AcDbEntity
  8
0
100
AcDbSpline
 62
7
  6
CONTINUOUS
 70
0
 71
3
 72
15
 73
11
 74
0
 42
0.0000001
 43
0.0000001
 44
0.0000000001
 40
0.0
 40
0.0
 40
0.0
 40
0.0
 40
0.1268078413
 40
0.2530464203
 40
0.378730321
 40
0.5038839946
 40
0.6285411476
 40
0.7527444151
 40
0.8765446294
 40
1.0
 40
1.0
 40
1.0
 40
1.0
 10
9.9851057823
 20
9.5230384334
 30
0.0
 10
9.9851057823
 20
9.5292576148
 30
0.0
 10
9.9855096256
 20
9.5416719748
 30
0.0
 10
9.9873340725
 20
9.5601696051
 30
0.0
 10
9.9903682273
 20
9.5784264411
 30
0.0
 10
9.9945993413
 20
9.5963638394
 30
0.0
 10
10.0000095229
 20
9.6139057061
 30
0.0
 10
10.0065760502
 20
9.6309775873
 30
0.0
 10
10.0142705124
 20
9.6475058487
 30
0.0
 10
10.0201389862
 20
9.6581307602
 30
0.0
 10
10.0232483384
 20
9.6633261502
 30
0.0
  0
SPLINE
  5
2FE
100
AcDbEntity
  8
0
100
AcDbSpline
 62
7
  6
CONTINUOUS
 70
0
 71
3
 72
42
 73
38
 74
0
 42
0.0000001
 43
0.0000001
 44
0.0000000001
 40
0.0
 40
0.0
 40
0.0
 40
0.0
 40
0.0310747671
 40
0.0466741744
 40
0.0623120752
 40
0.0936967636
 40
0.1252253831
 40
0.1568866086
 40
0.188666231
 40
0.2205476529
 40
0.2525121971
 40
0.2845395151
 40
0.3166080013
 40
0.3486952303
 40
0.3807784043
 40
0.4128348061
 40
0.4448422504
 40
0.4767795287
 40
0.5086268395
 40
0.5403661985
 40
0.5719818222
 40
0.603460476
 40
0.6347917816
 40
0.665968474
 40
0.6969866017
 40
0.7278456627
 40
0.7585486678
 40
0.7891021282
 40
0.8195159588
 40
0.8498032991
 40
0.8649073391
 40
0.8799860234
 40
0.9100712949
 40
0.940085795
 40
0.9550764649
 40
0.9700580337
 40
1.0
 40
1.0
 40
1.0
 40
1.0
 10
10.0759028153
 20
9.5167416378
 30
0.0
 10
10.0759028153
 20
9.5118822824
 30
0.0
 10
10.0761744425
 20
9.5045798821
 30
0.0
 10
10.0770715248
 20
9.4948756043
 30
0.0
 10
10.0783285168
 20
9.4851620338
 30
0.0
 10
10.0805692556
 20
9.4730727682
 30
0.0
 10
10.0843068027
 20
9.4587508395
 30
0.0
 10
10.0890758266
 20
9.4446731393
 30
0.0
 10
10.094849986
 20
9.430917403
 30
0.0
 10
10.1015974883
 20
9.4175589936
 30
0.0
 10
10.109281213
 20
9.4046712457
 30
0.0
 10
10.117858924
 20
9.3923248644
 30
0.0
 10
10.1272834992
 20
9.3805875979
 30
0.0
 10
10.1375031873
 20
9.3695238545
 30
0.0
 10
10.1484618895
 20
9.3591943575
 30
0.0
 10
10.160099464
 20
9.3496558142
 30
0.0
 10
10.172352053
 20
9.3409606076
 30
0.0
 10
10.1851524288
 20
9.3331565118
 30
0.0
 10
10.1984303586
 20
9.3262864309
 30
0.0
 10
10.2121129845
 20
9.3203881651
 30
0.0
 10
10.2261252182
 20
9.3154942021
 30
0.0
 10
10.2403901474
 20
9.311631539
 30
0.0
 10
10.2548294521
 20
9.3088215318
 30
0.0
 10
10.2693638295
 20
9.3070797755
 30
0.0
 10
10.2839134191
 20
9.306416011
 30
0.0
 10
10.2983982529
 20
9.3068340725
 30
0.0
 10
10.3127386312
 20
9.3083318315
 30
0.0
 10
10.3268557781
 20
9.3109012971
 30
0.0
 10
10.3406714621
 20
9.3145282847
 30
0.0
 10
10.3518823068
 20
9.3184200148
 30
0.0
 10
10.360620626
 20
9.3220392189
 30
0.0
 10
10.3691820583
 20
9.3259841463
 30
0.0
 10
10.3795628342
 20
9.3315293688
 30
0.0
 10
10.3894622809
 20
9.3378688717
 30
0.0
 10
10.3970490063
 20
9.3433895356
 30
0.0
 10
10.4044016042
 20
9.3491992765
 30
0.0
 10
10.4096516432
 20
9.3538816218
 30
0.0
 10
10.4130193456
 20
9.357134573
 30
0.0
  0
SPLINE
  5
2FF
100
AcDbEntity
  8
0
100
AcDbSpline
 62
7
  6
CONTINUOUS
 70
0
 71
3
 72
42
 73
38
 74
0
 42
0.0000001
 43
0.0000001
 44
0.0000000001
 40
0.0
 40
0.0
 40
0.0
 40
0.0
 40
0.0309220002
 40
0.046438309
 40
0.0619890498
 40
0.0931891969
 40
0.1245204822
 40
0.155974645
 40
0.1875413218
 40
0.2192082963
 40
0.2509616994
 40
0.2827862551
 40
0.3146655361
 40
0.3465822351
 40
0.3785184454
 40
0.4104559484
 40
0.4423765051
 40
0.4742621472
 40
0.5060954651
 40
0.5378598904
 40
0.5695399682
 40
0.6011216161
 40
0.6325923672
 40
0.6639415925
 40
0.6951606985
 40
0.7262432971
 40
0.7571853436
 40
0.7879852376
 40
0.818643885
 40
0.8491647164
 40
0.8643774334
 40
0.879558122
 40
0.9098235268
 40
0.9399760404
 40
0.9550161796
 40
0.9700330487
 40
1.0
 40
1.0
 40
1.0
 40
1.0
 10
9.9851057823
 20
7.0483364288
 30
0.0
 10
9.9851057823
 20
7.0419635739
 30
0.0
 10
9.9854249879
 20
7.0323890119
 30
0.0
 10
9.9864804039
 20
7.0196554579
 30
0.0
 10
9.9879593427
 20
7.0069059394
 30
0.0
 10
9.9905968402
 20
6.991018769
 30
0.0
 10
9.9950017206
 20
6.9721428888
 30
0.0
 10
10.0006306166
 20
6.9535160107
 30
0.0
 10
10.0074585178
 20
6.9352208629
 30
0.0
 10
10.0154551945
 20
6.9173380653
 30
0.0
 10
10.024585261
 20
6.8999465796
 30
0.0
 10
10.0348083483
 20
6.8831231477
 30
0.0
 10
10.0460792789
 20
6.8669420153
 30
0.0
 10
10.0583482655
 20
6.8514745915
 30
0.0
 10
10.0715611299
 20
6.8367891409
 30
0.0
 10
10.08565954
 20
6.8229504839
 30
0.0
 10
10.1005812657
 20
6.8100197131
 30
0.0
 10
10.116260451
 20
6.7980539257
 30
0.0
 10
10.1326279024
 20
6.7871059734
 30
0.0
 10
10.1496113912
 20
6.7772242305
 30
0.0
 10
10.1671359693
 20
6.7684523813
 30
0.0
 10
10.1851242963
 20
6.7608292279
 30
0.0
 10
10.2034969772
 20
6.7543885188
 30
0.0
 10
10.2221729098
 20
6.7491587999
 30
0.0
 10
10.2410696343
 20
6.7451632854
 30
0.0
 10
10.2601037103
 20
6.7424197575
 30
0.0
 10
10.2791910166
 20
6.7409404705
 30
0.0
 10
10.2982473593
 20
6.7407321435
 30
0.0
 10
10.3171879514
 20
6.7417957359
 30
0.0
 10
10.3328246605
 20
6.7437407427
 30
0.0
 10
10.3451891163
 20
6.7459267677
 30
0.0
 10
10.3574199444
 20
6.748524189
 30
0.0
 10
10.3724861681
 20
6.7525453626
 30
0.0
 10
10.387210077
 20
6.75759218
 30
0.0
 10
10.3987236622
 20
6.7622262808
 30
0.0
 10
10.4100323976
 20
6.7672451089
 30
0.0
 10
10.4183054755
 20
6.7714514919
 30
0.0
 10
10.4237083086
 20
6.7744435937
 30
0.0
  0
SPLINE
  5
300
100
AcDbEntity
  8
0
100
AcDbSpline
 62
7
  6
CONTINUOUS
 70
0
 71
3
 72
15
 73
11
 74
0
 42
0.0000001
 43
0.0000001
 44
0.0000000001
 40
0.0
 40
0.0
 40
0.0
 40
0.0
 40
0.1268078413
 40
0.2530464203
 40
0.378730321
 40
0.5038839946
 40
0.6285411476
 40
0.7527444151
 40
0.8765446294
 40
1.0
 40
1.0
 40
1.0
 40
1.0
 10
9.9851057823
 20
7.0483364288
 30
0.0
 10
9.9851057823
 20
7.0545556102
 30
0.0
 10
9.9855096256
 20
7.0669699702
 30
0.0
 10
9.9873340725
 20
7.0854676004
 30
0.0
 10
9.9903682273
 20
7.1037244365
 30
0.0
 10
9.9945993413
 20
7.1216618347
 30
0.0
 10
10.0000095229
 20
7.1392037015
 30
0.0
 10
10.0065760502
 20
7.1562755826
 30
0.0
 10
10.0142705124
 20
7.1728038441
 30
0.0
 10
10.0201389862
 20
7.1834287556
 30
0.0
 10
10.0232483384
 20
7.1886241455
 30
0.0
  0
SPLINE
  5
301
100
AcDbEntity
  8
0
100
AcDbSpline
 62
7
  6
CONTINUOUS
 70
0
 71
3
 72
42
 73
38
 74
0
 42
0.0000001
 43
0.0000001
 44
0.0000000001
 40
0.0
 40
0.0
 40
0.0
 40
0.0
 40
0.0310747671
 40
0.0466741744
 40
0.0623120752
 40
0.0936967636
 40
0.1252253831
 40
0.1568866086
 40
0.188666231
 40
0.2205476529
 40
0.2525121971
 40
0.2845395151
 40
0.3166080013
 40
0.3486952303
 40
0.3807784043
 40
0.4128348061
 40
0.4448422504
 40
0.4767795287
 40
0.5086268395
 40
0.5403661985
 40
0.5719818222
 40
0.603460476
 40
0.6347917816
 40
0.665968474
 40
0.6969866017
 40
0.7278456627
 40
0.7585486678
 40
0.7891021282
 40
0.8195159588
 40
0.8498032991
 40
0.8649073391
 40
0.8799860234
 40
0.9100712949
 40
0.940085795
 40
0.9550764649
 40
0.9700580337
 40
1.0
 40
1.0
 40
1.0
 40
1.0
 10
10.0759028153
 20
7.0420396331
 30
0.0
 10
10.0759028153
 20
7.0371802778
 30
0.0
 10
10.0761744425
 20
7.0298778774
 30
0.0
 10
10.0770715248
 20
7.0201735996
 30
0.0
 10
10.0783285168
 20
7.0104600291
 30
0.0
 10
10.0805692556
 20
6.9983707635
 30
0.0
 10
10.0843068027
 20
6.9840488349
 30
0.0
 10
10.0890758266
 20
6.9699711347
 30
0.0
 10
10.094849986
 20
6.9562153984
 30
0.0
 10
10.1015974883
 20
6.942856989
 30
0.0
 10
10.109281213
 20
6.929969241
 30
0.0
 10
10.117858924
 20
6.9176228597
 30
0.0
 10
10.1272834992
 20
6.9058855932
 30
0.0
 10
10.1375031873
 20
6.8948218498
 30
0.0
 10
10.1484618895
 20
6.8844923528
 30
0.0
 10
10.160099464
 20
6.8749538095
 30
0.0
 10
10.172352053
 20
6.866258603
 30
0.0
 10
10.1851524288
 20
6.8584545072
 30
0.0
 10
10.1984303586
 20
6.8515844263
 30
0.0
 10
10.2121129845
 20
6.8456861604
 30
0.0
 10
10.2261252182
 20
6.8407921974
 30
0.0
 10
10.2403901474
 20
6.8369295343
 30
0.0
 10
10.2548294521
 20
6.8341195272
 30
0.0
 10
10.2693638295
 20
6.8323777709
 30
0.0
 10
10.2839134191
 20
6.8317140064
 30
0.0
 10
10.2983982529
 20
6.8321320679
 30
0.0
 10
10.3127386312
 20
6.8336298268
 30
0.0
 10
10.3268557781
 20
6.8361992924
 30
0.0
 10
10.3406714621
 20
6.83982628
 30
0.0
 10
10.3518823068
 20
6.8437180101
 30
0.0
 10
10.360620626
 20
6.8473372142
 30
0.0
 10
10.3691820583
 20
6.8512821416
 30
0.0
 10
10.3795628342
 20
6.8568273641
 30
0.0
 10
10.3894622809
 20
6.8631668671
 30
0.0
 10
10.3970490063
 20
6.868687531
 30
0.0
 10
10.4044016042
 20
6.8744972719
 30
0.0
 10
10.4096516432
 20
6.8791796171
 30
0.0
 10
10.4130193456
 20
6.8824325684
 30
0.0
  0
SPLINE
  5
302
100
AcDbEntity
  8
0
100
AcDbSpline
 62
7
  6
CONTINUOUS
 70
0
 71
3
 72
24
 73
20
 74
0
 42
0.0000001
 43
0.0000001
 44
0.0000000001
 40
0.0
 40
0.0
 40
0.0
 40
0.0
 40
0.0637772288
 40
0.1273440035
 40
0.1907010538
 40
0.2538548439
 40
0.3168115635
 40
0.3795801621
 40
0.4421711319
 40
0.504596767
 40
0.5668709769
 40
0.629009173
 40
0.6910281261
 40
0.7529458042
 40
0.8147811983
 40
0.8765541338
 40
0.9074261016
 40
0.9382901698
 40
1.0
 40
1.0
 40
1.0
 40
1.0
 10
10.1143713317
 20
8.5767142723
 30
0.0
 10
10.1143713317
 20
8.5850458594
 30
0.0
 10
10.1147700913
 20
8.6016843649
 30
0.0
 10
10.1165700216
 20
8.6265409551
 30
0.0
 10
10.1195668284
 20
8.651200444
 30
0.0
 10
10.1237534805
 20
8.6756050972
 30
0.0
 10
10.1291205147
 20
8.6996989933
 30
0.0
 10
10.1356555503
 20
8.7234264814
 30
0.0
 10
10.1433436098
 20
8.7467328843
 30
0.0
 10
10.1521670161
 20
8.7695644476
 30
0.0
 10
10.162105467
 20
8.7918685174
 30
0.0
 10
10.1731360894
 20
8.8135936552
 30
0.0
 10
10.1852334644
 20
8.8346897258
 30
0.0
 10
10.1983697929
 20
8.8551081396
 30
0.0
 10
10.2125145565
 20
8.8748014959
 30
0.0
 10
10.2251183526
 20
8.8905746078
 30
0.0
 10
10.2356698026
 20
8.902783077
 30
0.0
 10
10.2465256809
 20
8.9147100617
 30
0.0
 10
10.2550098741
 20
8.92333794
 30
0.0
 10
10.2608081454
 20
8.9289386548
 30
0.0
  0
SPLINE
  5
303
100
AcDbEntity
  8
0
100
AcDbSpline
 62
7
  6
CONTINUOUS
 70
0
 71
3
 72
43
 73
39
 74
0
 42
0.0000001
 43
0.0000001
 44
0.0000000001
 40
0.0
 40
0.0
 40
0.0
 40
0.0
 40
0.030919932
 40
0.0619803027
 40
0.0931779125
 40
0.124506452
 40
0.1559577404
 40
0.187521455
 40
0.2191854281
 40
0.2509358473
 40
0.2827574959
 40
0.3146340086
 40
0.3465481404
 40
0.3784820447
 40
0.4104175602
 40
0.4423365003
 40
0.4742209422
 40
0.5060535139
 40
0.5378176738
 40
0.5694979831
 40
0.6010803637
 40
0.6325523398
 40
0.6639032588
 40
0.6951244889
 40
0.7262095892
 40
0.7571544488
 40
0.7879573874
 40
0.818619218
 40
0.8339003456
 40
0.8491476555
 40
0.8643619485
 40
0.8795441826
 40
0.9098125265
 40
0.939967656
 40
0.9550089339
 40
0.9700268157
 40
0.9850231775
 40
1.0
 40
1.0
 40
1.0
 40
1.0
 10
10.2924386878
 20
8.7487141406
 30
0.0
 10
10.2924386878
 20
8.737144086
 30
0.0
 10
10.2932108957
 20
8.7139442651
 30
0.0
 10
10.2966621065
 20
8.6792250685
 30
0.0
 10
10.3023932485
 20
8.6446524158
 30
0.0
 10
10.3103789581
 20
8.6103804862
 30
0.0
 10
10.3205837883
 20
8.5765596883
 30
0.0
 10
10.3329626511
 20
8.543339026
 30
0.0
 10
10.3474608708
 20
8.5108646708
 30
0.0
 10
10.3640144739
 20
8.4792795348
 30
0.0
 10
10.3825504783
 20
8.4487225973
 30
0.0
 10
10.4029872111
 20
8.4193283154
 30
0.0
 10
10.4252346675
 20
8.391226036
 30
0.0
 10
10.4491948992
 20
8.3645394321
 30
0.0
 10
10.4747624244
 20
8.3393859438
 30
0.0
 10
10.5018247141
 20
8.3158762852
 30
0.0
 10
10.5302626796
 20
8.2941139612
 30
0.0
 10
10.5599511911
 20
8.2741948151
 30
0.0
 10
10.5907596244
 20
8.2562066152
 30
0.0
 10
10.622552415
 20
8.240228645
 30
0.0
 10
10.6551896578
 20
8.2263313645
 30
0.0
 10
10.6885277247
 20
8.2145761145
 30
0.0
 10
10.7224198772
 20
8.2050148411
 30
0.0
 10
10.7567169373
 20
8.1976898724
 30
0.0
 10
10.7912678109
 20
8.1926337042
 30
0.0
 10
10.8259205998
 20
8.1898688847
 30
0.0
 10
10.8605215857
 20
8.1894077349
 30
0.0
 10
10.8892218307
 20
8.190947265
 30
0.0
 10
10.9119980507
 20
8.1933312617
 30
0.0
 10
10.9289548957
 20
8.1956896672
 30
0.0
 10
10.9457851304
 20
8.1986179566
 30
0.0
 10
10.9680070624
 20
8.2032723554
 30
0.0
 10
10.9953853827
 20
8.2104952067
 30
0.0
 10
11.0221486121
 20
8.2195788818
 30
0.0
 10
11.0430804125
 20
8.2279284592
 30
0.0
 10
11.0585153285
 20
8.2347203098
 30
0.0
 10
11.0736804194
 20
8.2420387726
 30
0.0
 10
11.0836062045
 20
8.2472670091
 30
0.0
 10
11.0885177936
 20
8.249965856
 30
0.0
  0
SPLINE
  5
304
100
AcDbEntity
  8
0
100
AcDbSpline
 62
7
  6
CONTINUOUS
 70
0
 71
3
 72
15
 73
11
 74
0
 42
0.0000001
 43
0.0000001
 44
0.0000000001
 40
0.0
 40
0.0
 40
0.0
 40
0.0
 40
0.1268041663
 40
0.2530395661
 40
0.3787226876
 40
0.5038765902
 40
0.628535056
 40
0.7527402746
 40
0.8765426757
 40
1.0
 40
1.0
 40
1.0
 40
1.0
 10
10.2924386878
 20
8.7487141406
 30
0.0
 10
10.2924386878
 20
8.759989227
 30
0.0
 10
10.2931687145
 20
8.7824958862
 30
0.0
 10
10.296466844
 20
8.8160323264
 30
0.0
 10
10.3019517845
 20
8.8491342478
 30
0.0
 10
10.3096007418
 20
8.8816599752
 30
0.0
 10
10.3193814878
 20
8.9134722561
 30
0.0
 10
10.3312532116
 20
8.9444368698
 30
0.0
 10
10.345164861
 20
8.9744210126
 30
0.0
 10
10.3557757085
 20
8.9937001621
 30
0.0
 10
10.361398018
 20
9.0031285774
 30
0.0
  0
SPLINE
  5
305
100
AcDbEntity
  8
0
100
AcDbSpline
 62
7
  6
CONTINUOUS
 70
0
 71
3
 72
15
 73
11
 74
0
 42
0.0000001
 43
0.0000001
 44
0.0000000001
 40
0.0
 40
0.0
 40
0.0
 40
0.0
 40
0.1269231998
 40
0.2532291276
 40
0.3789385547
 40
0.5040813301
 40
0.6287003091
 40
0.7528491615
 40
0.8765915779
 40
1.0
 40
1.0
 40
1.0
 40
1.0
 10
10.3049957243
 20
8.7478433071
 30
0.0
 10
10.3049957243
 20
8.7597875512
 30
0.0
 10
10.3058351302
 20
8.7836267853
 30
0.0
 10
10.309628229
 20
8.8191141261
 30
0.0
 10
10.3159335644
 20
8.8540742497
 30
0.0
 10
10.3247202571
 20
8.8883307339
 30
0.0
 10
10.3359447388
 20
8.9217131345
 30
0.0
 10
10.3495517463
 20
8.954055354
 30
0.0
 10
10.3654722731
 20
8.9851938531
 30
0.0
 10
10.3775928453
 20
9.0050746795
 30
0.0
 10
10.3840070844
 20
9.014756131
 30
0.0
  0
SPLINE
  5
306
100
AcDbEntity
  8
0
100
AcDbSpline
 62
7
  6
CONTINUOUS
 70
0
 71
3
 72
19
 73
15
 74
0
 42
0.0000001
 43
0.0000001
 44
0.0000000001
 40
0.0
 40
0.0
 40
0.0
 40
0.0
 40
0.1269797689
 40
0.2533128408
 40
0.3790227421
 40
0.5041441326
 40
0.5665105834
 40
0.6287493889
 40
0.690868624
 40
0.7528770599
 40
0.8147841169
 40
0.8765998292
 40
0.9383347727
 40
1.0
 40
1.0
 40
1.0
 40
1.0
 10
10.3198449634
 20
8.7516865715
 30
0.0
 10
10.3198449634
 20
8.7639569273
 30
0.0
 10
10.3207487942
 20
8.7884450838
 30
0.0
 10
10.3248336673
 20
8.8248757394
 30
0.0
 10
10.3316216426
 20
8.8607194866
 30
0.0
 10
10.3395108829
 20
8.8899716159
 30
0.0
 10
10.347130843
 20
8.9128738516
 30
0.0
 10
10.3534858295
 20
8.9297663612
 30
0.0
 10
10.3604775572
 20
8.9463676352
 30
0.0
 10
10.3680965692
 20
8.9626552657
 30
0.0
 10
10.3763324443
 20
8.9786068193
 30
0.0
 10
10.3851739139
 20
8.9942005866
 30
0.0
 10
10.3946086993
 20
9.0094148906
 30
0.0
 10
10.4012894002
 20
9.0192965905
 30
0.0
 10
10.404723647
 20
9.0241662851
 30
0.0
  0
SPLINE
  5
307
100
AcDbEntity
  8
0
100
AcDbSpline
 62
7
  6
CONTINUOUS
 70
0
 71
3
 72
15
 73
11
 74
0
 42
0.0000001
 43
0.0000001
 44
0.0000000001
 40
0.0
 40
0.0
 40
0.0
 40
0.0
 40
0.1268155251
 40
0.2530577799
 40
0.3787436444
 40
0.5038967456
 40
0.6285516489
 40
0.7527515331
 40
0.8765479758
 40
1.0
 40
1.0
 40
1.0
 40
1.0
 10
10.3555136837
 20
8.7861399118
 30
0.0
 10
10.3555136837
 20
8.7970095631
 30
0.0
 10
10.3562230177
 20
8.8187066449
 30
0.0
 10
10.3594277288
 20
8.851033925
 30
0.0
 10
10.3647571018
 20
8.8829368447
 30
0.0
 10
10.3721886377
 20
8.9142766864
 30
0.0
 10
10.3816905296
 20
8.9449190942
 30
0.0
 10
10.3932225013
 20
8.9747327197
 30
0.0
 10
10.4067341691
 20
9.0035876592
 30
0.0
 10
10.4170382568
 20
9.0221292963
 30
0.0
 10
10.4224974166
 20
9.0311936611
 30
0.0
  0
SPLINE
  5
308
100
AcDbEntity
  8
0
100
AcDbSpline
 62
7
  6
CONTINUOUS
 70
0
 71
3
 72
21
 73
17
 74
0
 42
0.0000001
 43
0.0000001
 44
0.0000000001
 40
0.0
 40
0.0
 40
0.0
 40
0.0
 40
0.1270480478
 40
0.2534148713
 40
0.3163635868
 40
0.3791529777
 40
0.4417889708
 40
0.5042782328
 40
0.5666283703
 40
0.6288479196
 40
0.6909462587
 40
0.7529335649
 40
0.814820737
 40
0.8766193417
 40
0.9383415418
 40
1.0
 40
1.0
 40
1.0
 40
1.0
 10
10.4143014301
 20
8.7949245176
 30
0.0
 10
10.4143014301
 20
8.8066545335
 30
0.0
 10
10.4152118646
 20
8.8300615599
 30
0.0
 10
10.4186469207
 20
8.8591000781
 30
0.0
 10
10.4227593944
 20
8.8820154774
 30
0.0
 10
10.4265153815
 20
8.899002122
 30
0.0
 10
10.4309409838
 20
8.9157826717
 30
0.0
 10
10.4360294621
 20
8.9323319136
 30
0.0
 10
10.4417730793
 20
8.948624597
 30
0.0
 10
10.4481631759
 20
8.9646359305
 30
0.0
 10
10.4551899927
 20
8.9803415645
 30
0.0
 10
10.462842846
 20
8.995717617
 30
0.0
 10
10.471110148
 20
9.010740636
 30
0.0
 10
10.47997935
 20
9.0253878645
 30
0.0
 10
10.4894367072
 20
9.0396367204
 30
0.0
 10
10.4961277588
 20
9.0488607601
 30
0.0
 10
10.4995657084
 20
9.0533981689
 30
0.0
  0
SPLINE
  5
309
100
AcDbEntity
  8
0
100
AcDbSpline
 62
7
  6
CONTINUOUS
 70
0
 71
3
 72
46
 73
42
 74
0
 42
0.0000001
 43
0.0000001
 44
0.0000000001
 40
0.0
 40
0.0
 40
0.0
 40
0.0
 40
0.0310740773
 40
0.0623054006
 40
0.0936893128
 40
0.1252172024
 40
0.1568776694
 40
0.1886565384
 40
0.2205372032
 40
0.252500989
 40
0.2845275467
 40
0.3165952716
 40
0.3486817389
 40
0.3807641511
 40
0.4128197911
 40
0.4448264746
 40
0.4767629939
 40
0.5086095473
 40
0.5403481514
 40
0.5719630242
 40
0.6034409304
 40
0.6347714916
 40
0.6659474445
 40
0.6969648364
 40
0.7278231646
 40
0.7585254417
 40
0.7890781773
 40
0.8043042478
 40
0.8194969263
 40
0.8346579555
 40
0.8497892599
 40
0.8648929415
 40
0.8799712672
 40
0.8950266523
 40
0.9100616511
 40
0.9250789418
 40
0.9400813072
 40
0.9550716217
 40
0.9700528342
 40
0.9850279469
 40
1.0
 40
1.0
 40
1.0
 40
1.0
 10
10.1143713317
 20
8.5767142723
 30
0.0
 10
10.1143713317
 20
8.5637878884
 30
0.0
 10
10.11533562
 20
8.5378597619
 30
0.0
 10
10.1196409006
 20
8.499091708
 30
0.0
 10
10.1267844409
 20
8.4605512921
 30
0.0
 10
10.1367267702
 20
8.4224529033
 30
0.0
 10
10.1494128277
 20
8.3850050086
 30
0.0
 10
10.1647726383
 20
8.3484133383
 30
0.0
 10
10.1827216677
 20
8.31287867
 30
0.0
 10
10.2031611381
 20
8.2785959917
 30
0.0
 10
10.2259786775
 20
8.2457533904
 30
0.0
 10
10.2510489845
 20
8.2145311109
 30
0.0
 10
10.2782343727
 20
8.1851004749
 30
0.0
 10
10.3073855892
 20
8.157622985
 30
0.0
 10
10.3383426891
 20
8.1322495268
 30
0.0
 10
10.3709357927
 20
8.1091194379
 30
0.0
 10
10.4049860442
 20
8.088359763
 30
0.0
 10
10.4403066441
 20
8.0700846706
 30
0.0
 10
10.476703781
 20
8.0543947164
 30
0.0
 10
10.5139776941
 20
8.0413762733
 30
0.0
 10
10.5519238087
 20
8.0311011955
 30
0.0
 10
10.5903337789
 20
8.0236263101
 30
0.0
 10
10.628996668
 20
8.0189930515
 30
0.0
 10
10.6676999484
 20
8.0172273384
 30
0.0
 10
10.7062312609
 20
8.0183394982
 30
0.0
 10
10.7443772372
 20
8.0223234538
 30
0.0
 10
10.7757112877
 20
8.0280267596
 30
0.0
 10
10.800366823
 20
8.0339985383
 30
0.0
 10
10.8186137771
 20
8.039169433
 30
0.0
 10
10.8366093747
 20
8.0450298844
 30
0.0
 10
10.8543291819
 20
8.0515719592
 30
0.0
 10
10.8717487393
 20
8.0587866006
 30
0.0
 10
10.8888441077
 20
8.066663887
 30
0.0
 10
10.9055917219
 20
8.0751930542
 30
0.0
 10
10.9219685619
 20
8.0843623181
 30
0.0
 10
10.9379520918
 20
8.0941590649
 30
0.0
 10
10.9535202801
 20
8.1045698842
 30
0.0
 10
10.9686517153
 20
8.1155803782
 30
0.0
 10
10.9833256498
 20
8.1271754728
 30
0.0
 10
10.9975215576
 20
8.1393390034
 30
0.0
 10
11.006654841
 20
8.1478167244
 30
0.0
 10
11.0111344722
 20
8.1521437273
 30
0.0
  0
SPLINE
  5
30A
100
AcDbEntity
  8
0
100
AcDbSpline
 62
7
  6
CONTINUOUS
 70
0
 71
3
 72
26
 73
22
 74
0
 42
0.0000001
 43
0.0000001
 44
0.0000000001
 40
0.0
 40
0.0
 40
0.0
 40
0.0
 40
0.1911188657
 40
0.2872514951
 40
0.3821731148
 40
0.4741064004
 40
0.5609779716
 40
0.6408158175
 40
0.7121957002
 40
0.7744802319
 40
0.8277586142
 40
0.8726052482
 40
0.9098323392
 40
0.9258668102
 40
0.9403269616
 40
0.953321408
 40
0.9649573099
 40
0.9753364921
 40
0.9845647101
 40
0.9927497318
 40
1.0
 40
1.0
 40
1.0
 40
1.0
 10
11.0201592977
 20
8.2125142547
 30
0.0
 10
11.0225666004
 20
8.2136599911
 30
0.0
 10
11.0261937595
 20
8.2153633267
 30
0.0
 10
11.0310423546
 20
8.2175799063
 30
0.0
 10
11.0346459072
 20
8.2191918277
 30
0.0
 10
11.0381466692
 20
8.2207167549
 30
0.0
 10
11.0414714771
 20
8.2221181698
 30
0.0
 10
11.0445505619
 20
8.2233635737
 30
0.0
 10
11.0473312206
 20
8.2244309599
 30
0.0
 10
11.0497859678
 20
8.2253119313
 30
0.0
 10
11.051912175
 20
8.2260104831
 30
0.0
 10
11.0537253177
 20
8.2265387092
 30
0.0
 10
11.0550551082
 20
8.2268649701
 30
0.0
 10
11.0559817771
 20
8.2270493644
 30
0.0
 10
11.0565804567
 20
8.2271482121
 30
0.0
 10
11.0571216015
 20
8.2272166103
 30
0.0
 10
11.0576085377
 20
8.2272564049
 30
0.0
 10
11.0580444169
 20
8.2272691463
 30
0.0
 10
11.0584322075
 20
8.2272563711
 30
0.0
 10
11.0587746249
 20
8.2272195645
 30
0.0
 10
11.058986198
 20
8.2271773339
 30
0.0
 10
11.059084078
 20
8.2271518663
 30
0.0
  0
SPLINE
  5
30B
100
AcDbEntity
  8
0
100
AcDbSpline
 62
7
  6
CONTINUOUS
 70
0
 71
3
 72
43
 73
39
 74
0
 42
0.0000001
 43
0.0000001
 44
0.0000000001
 40
0.0
 40
0.0
 40
0.0
 40
0.0
 40
0.0309488528
 40
0.0620411716
 40
0.0932735322
 40
0.1246392385
 40
0.1561295785
 40
0.1877335909
 40
0.2194383657
 40
0.2512292732
 40
0.2830902268
 40
0.315003963
 40
0.3469523363
 40
0.3789166244
 40
0.4108778414
 40
0.4428170524
 40
0.4747156874
 40
0.5065558527
 40
0.5383206334
 40
0.5699943836
 40
0.6015630013
 40
0.6330141835
 40
0.6643376593
 40
0.6955253919
 40
0.7265717481
 40
0.7574736313
 40
0.7882305725
 40
0.818844778
 40
0.8341020755
 40
0.8493257379
 40
0.8645167838
 40
0.8796763879
 40
0.9099019906
 40
0.9400195579
 40
0.9550446811
 40
0.9700483815
 40
0.9850327572
 40
1.0
 40
1.0
 40
1.0
 40
1.0
 10
10.3049957243
 20
8.7478433071
 30
0.0
 10
10.3049957243
 20
8.7363129431
 30
0.0
 10
10.3057816217
 20
8.7131913294
 30
0.0
 10
10.309293385
 20
8.6785943373
 30
0.0
 10
10.3151242474
 20
8.64415306
 30
0.0
 10
10.3232472957
 20
8.6100276344
 30
0.0
 10
10.3336249491
 20
8.5763742033
 30
0.0
 10
10.3462093942
 20
8.5433473485
 30
0.0
 10
10.3609426651
 20
8.5110985661
 30
0.0
 10
10.3777569912
 20
8.4797758188
 30
0.0
 10
10.3965750906
 20
8.4495227995
 30
0.0
 10
10.417310532
 20
8.4204783039
 30
0.0
 10
10.4398681044
 20
8.3927755814
 30
0.0
 10
10.4641442475
 20
8.366541721
 30
0.0
 10
10.4900275531
 20
8.341897096
 30
0.0
 10
10.5173992631
 20
8.3189548132
 30
0.0
 10
10.5461338135
 20
8.2978202061
 30
0.0
 10
10.5760993809
 20
8.2785903246
 30
0.0
 10
10.6071584936
 20
8.2613534996
 30
0.0
 10
10.6391686683
 20
8.2461889611
 30
0.0
 10
10.6719830499
 20
8.2331664704
 30
0.0
 10
10.7054510799
 20
8.222346008
 30
0.0
 10
10.7394191558
 20
8.2137774498
 30
0.0
 10
10.7737313774
 20
8.2075003716
 30
0.0
 10
10.8082301256
 20
8.2035438508
 30
0.0
 10
10.8427572478
 20
8.2019264068
 30
0.0
 10
10.8771530244
 20
8.2026555976
 30
0.0
 10
10.9056113284
 20
8.2052197991
 30
0.0
 10
10.9281480825
 20
8.2084390186
 30
0.0
 10
10.9449023552
 20
8.2114303607
 30
0.0
 10
10.9615062971
 20
8.2149977188
 30
0.0
 10
10.9833950138
 20
8.2205105977
 30
0.0
 10
11.0102958022
 20
8.2288183223
 30
0.0
 10
11.0364926681
 20
8.2389968278
 30
0.0
 10
11.0569180078
 20
8.2482225817
 30
0.0
 10
11.0719476052
 20
8.2556709786
 30
0.0
 10
11.0866804409
 20
8.2636443297
 30
0.0
 10
11.0962989308
 20
8.2693072227
 30
0.0
 10
11.1010522996
 20
8.2722226588
 30
0.0
  0
SPLINE
  5
30C
100
AcDbEntity
  8
0
100
AcDbSpline
 62
7
  6
CONTINUOUS
 70
0
 71
3
 72
49
 73
45
 74
0
 42
0.0000001
 43
0.0000001
 44
0.0000000001
 40
0.0
 40
0.0
 40
0.0
 40
0.0
 40
0.018986943
 40
0.0280128341
 40
0.0367717251
 40
0.0453065197
 40
0.0536657785
 40
0.0619014527
 40
0.0700688333
 40
0.0782241241
 40
0.0864232439
 40
0.0947201624
 40
0.1031651343
 40
0.1118042894
 40
0.120678142
 40
0.1298220957
 40
0.1392658509
 40
0.149033932
 40
0.1591462419
 40
0.1696180281
 40
0.1804611665
 40
0.191684031
 40
0.2032921735
 40
0.2152891928
 40
0.2276763055
 40
0.2404534416
 40
0.2536194073
 40
0.2811052583
 40
0.3101088234
 40
0.3405954154
 40
0.3725268131
 40
0.4058644378
 40
0.4405697431
 40
0.4766058862
 40
0.5139379923
 40
0.5525324489
 40
0.5923572292
 40
0.633380591
 40
0.6755703368
 40
0.7188924831
 40
0.7633094241
 40
0.8087786059
 40
0.902661773
 40
1.0
 40
1.0
 40
1.0
 40
1.0
 10
10.5299082789
 20
8.753682754
 30
0.0
 10
10.5313955
 20
8.7530041842
 30
0.0
 10
10.5336594085
 20
8.7521414189
 30
0.0
 10
10.5367303969
 20
8.7513616815
 30
0.0
 10
10.5389669664
 20
8.7509811131
 30
0.0
 10
10.5411704832
 20
8.7507953334
 30
0.0
 10
10.543336937
 20
8.7508033254
 30
0.0
 10
10.5454623846
 20
8.7510041964
 30
0.0
 10
10.5475431944
 20
8.7513960449
 30
0.0
 10
10.5495760985
 20
8.7519766889
 30
0.0
 10
10.551558219
 20
8.752743407
 30
0.0
 10
10.553487265
 20
8.7536928204
 30
0.0
 10
10.5553612654
 20
8.7548216133
 30
0.0
 10
10.5571790146
 20
8.7561256867
 30
0.0
 10
10.5589394815
 20
8.7576012818
 30
0.0
 10
10.5606422873
 20
8.7592441438
 30
0.0
 10
10.5622873141
 20
8.7610501404
 30
0.0
 10
10.5638746914
 20
8.763015138
 30
0.0
 10
10.5654050417
 20
8.7651348183
 30
0.0
 10
10.566878954
 20
8.7674051182
 30
0.0
 10
10.5682974591
 20
8.7698218253
 30
0.0
 10
10.5696616936
 20
8.7723808649
 30
0.0
 10
10.5709728939
 20
8.7750782705
 30
0.0
 10
10.5722325927
 20
8.7779100812
 30
0.0
 10
10.5734423245
 20
8.7808725186
 30
0.0
 10
10.5746037938
 20
8.7839619067
 30
0.0
 10
10.5761120752
 20
8.788308101
 30
0.0
 10
10.5778775662
 20
8.7940415614
 30
0.0
 10
10.579804994
 20
8.8012790817
 30
0.0
 10
10.5815867089
 20
8.8089470232
 30
0.0
 10
10.5832392749
 20
8.8170247343
 30
0.0
 10
10.584779237
 20
8.8254938854
 30
0.0
 10
10.5862231796
 20
8.8343380385
 30
0.0
 10
10.5875875457
 20
8.8435425057
 30
0.0
 10
10.5888885514
 20
8.8530940958
 30
0.0
 10
10.5901423038
 20
8.8629808263
 30
0.0
 10
10.5913646462
 20
8.8731915888
 30
0.0
 10
10.5925712819
 20
8.8837158193
 30
0.0
 10
10.5937777642
 20
8.8945430769
 30
0.0
 10
10.5949994809
 20
8.9056625986
 30
0.0
 10
10.5962517336
 20
8.9170628143
 30
0.0
 10
10.5980008068
 20
8.9327877614
 30
0.0
 10
10.6003367314
 20
8.9530318642
 30
0.0
 10
10.6023917355
 20
8.9693671634
 30
0.0
 10
10.6034979448
 20
8.9776743282
 30
0.0
  0
SPLINE
  5
30D
100
AcDbEntity
  8
0
100
AcDbSpline
 62
7
  6
CONTINUOUS
 70
0
 71
3
 72
42
 73
38
 74
0
 42
0.0000001
 43
0.0000001
 44
0.0000000001
 40
0.0
 40
0.0
 40
0.0
 40
0.0
 40
0.0309662602
 40
0.0620778075
 40
0.0933310743
 40
0.1247191266
 40
0.1562329228
 40
0.1878611061
 40
0.2195903081
 40
0.2514053957
 40
0.2832897472
 40
0.3152255491
 40
0.3471941065
 40
0.3791761666
 40
0.411152247
 40
0.4431029667
 40
0.4750093766
 40
0.5068532851
 40
0.5386175736
 40
0.570286499
 40
0.6018459787
 40
0.6332838558
 40
0.6645901346
 40
0.6957571851
 40
0.7267799125
 40
0.7422385602
 40
0.7576604449
 40
0.7883899854
 40
0.8189761894
 40
0.8494249139
 40
0.8797447005
 40
0.8948620427
 40
0.9099515123
 40
0.9250148646
 40
0.9400539841
 40
0.9700627118
 40
1.0
 40
1.0
 40
1.0
 40
1.0
 10
10.3198449634
 20
8.7516865715
 30
0.0
 10
10.3198449634
 20
8.7402453399
 30
0.0
 10
10.3206345247
 20
8.7173016368
 30
0.0
 10
10.3241622764
 20
8.6829740006
 30
0.0
 10
10.3300191759
 20
8.6488067698
 30
0.0
 10
10.3381775089
 20
8.6149627712
 30
0.0
 10
10.3485986006
 20
8.5816007225
 30
0.0
 10
10.3612332226
 20
8.5488776847
 30
0.0
 10
10.3760217285
 20
8.516947501
 30
0.0
 10
10.3928944013
 20
8.4859603251
 30
0.0
 10
10.4117717659
 20
8.4560618581
 30
0.0
 10
10.4325649596
 20
8.4273926922
 30
0.0
 10
10.4551761077
 20
8.4000876198
 30
0.0
 10
10.4794988286
 20
8.3742750364
 30
0.0
 10
10.5054187236
 20
8.3500763424
 30
0.0
 10
10.5328139152
 20
8.3276053862
 30
0.0
 10
10.5615555841
 20
8.3069679001
 30
0.0
 10
10.5915085817
 20
8.288261011
 30
0.0
 10
10.6225320788
 20
8.271572813
 30
0.0
 10
10.654480205
 20
8.256981953
 30
0.0
 10
10.687202755
 20
8.2445572565
 30
0.0
 10
10.7205457506
 20
8.2343573611
 30
0.0
 10
10.7543526275
 20
8.2264304787
 30
0.0
 10
10.788463298
 20
8.2208142045
 30
0.0
 10
10.8170458828
 20
8.2180783809
 30
0.0
 10
10.839899229
 20
8.2170706004
 30
0.0
 10
10.8626653311
 20
8.2168493798
 30
0.0
 10
10.8910175029
 20
8.2180411175
 30
0.0
 10
10.9247378404
 20
8.221824317
 30
0.0
 10
10.9579602176
 20
8.2279410011
 30
0.0
 10
10.9851301442
 20
8.2349674079
 30
0.0
 10
11.006452799
 20
8.2417220982
 30
0.0
 10
11.0222098955
 20
8.2473437678
 30
0.0
 10
11.0377273225
 20
8.2535189071
 30
0.0
 10
11.0580563224
 20
8.2624731585
 30
0.0
 10
11.0827891029
 20
8.2750137703
 30
0.0
 10
11.1017799906
 20
8.286455483
 30
0.0
 10
11.1110388218
 20
8.2925070069
 30
0.0
  0
SPLINE
  5
30E
100
AcDbEntity
  8
0
100
AcDbSpline
 62
7
  6
CONTINUOUS
 70
0
 71
3
 72
43
 73
39
 74
0
 42
0.0000001
 43
0.0000001
 44
0.0000000001
 40
0.0
 40
0.0
 40
0.0
 40
0.0
 40
0.0309229791
 40
0.0619867147
 40
0.0931879845
 40
0.1245204389
 40
0.1559758424
 40
0.1875438064
 40
0.2192120864
 40
0.2509667853
 40
0.2827925962
 40
0.3146730607
 40
0.3465908397
 40
0.3785279954
 40
0.4104662799
 40
0.4423874276
 40
0.4742734471
 40
0.5061069099
 40
0.5378712333
 40
0.5695509542
 40
0.6011319889
 40
0.6326018758
 40
0.663949998
 40
0.695167781
 40
0.7262488639
 40
0.7571892369
 40
0.7879873413
 40
0.818644131
 40
0.8339227207
 40
0.8491675012
 40
0.8643792958
 40
0.8795590838
 40
0.9098227635
 40
0.9399737212
 40
0.9550131684
 40
0.9700294143
 40
0.9850243568
 40
1.0
 40
1.0
 40
1.0
 40
1.0
 10
10.3555136837
 20
8.7861399118
 30
0.0
 10
10.3555136837
 20
8.7750487751
 30
0.0
 10
10.3562555788
 20
8.7528091225
 30
0.0
 10
10.3595712508
 20
8.7195273606
 30
0.0
 10
10.3650772324
 20
8.6863870423
 30
0.0
 10
10.3727490479
 20
8.6535366141
 30
0.0
 10
10.3825524931
 20
8.6211208854
 30
0.0
 10
10.3944440617
 20
8.5892833032
 30
0.0
 10
10.4083709955
 20
8.558164573
 30
0.0
 10
10.4242715697
 20
8.5279022481
 30
0.0
 10
10.4420753714
 20
8.4986300774
 30
0.0
 10
10.461703607
 20
8.4704774357
 30
0.0
 10
10.483069451
 20
8.4435687567
 30
0.0
 10
10.5060784174
 20
8.4180229838
 30
0.0
 10
10.5306287634
 20
8.3939530345
 30
0.0
 10
10.5566119592
 20
8.3714653245
 30
0.0
 10
10.5839131589
 20
8.3506592998
 30
0.0
 10
10.6124117035
 20
8.3316270012
 30
0.0
 10
10.6419816484
 20
8.3144526629
 30
0.0
 10
10.6724922992
 20
8.2992123135
 30
0.0
 10
10.7038087991
 20
8.2859734628
 30
0.0
 10
10.7357927213
 20
8.2747948084
 30
0.0
 10
10.7683026627
 20
8.2657259724
 30
0.0
 10
10.8011948939
 20
8.2588072893
 30
0.0
 10
10.8343238635
 20
8.2540695852
 30
0.0
 10
10.8675432771
 20
8.2515340919
 30
0.0
 10
10.9007051184
 20
8.2512121657
 30
0.0
 10
10.9282045331
 20
8.2527921587
 30
0.0
 10
10.9500230659
 20
8.2551628931
 30
0.0
 10
10.9662644964
 20
8.2574886184
 30
0.0
 10
10.9823821459
 20
8.2603615104
 30
0.0
 10
11.0036597753
 20
8.2649119673
 30
0.0
 10
11.0298680071
 20
8.2719485278
 30
0.0
 10
11.0554775327
 20
8.2807707275
 30
0.0
 10
11.075500663
 20
8.288866861
 30
0.0
 10
11.0902623602
 20
8.2954468601
 30
0.0
 10
11.1047625864
 20
8.3025317884
 30
0.0
 10
11.1142507875
 20
8.3075898253
 30
0.0
 10
11.1189452238
 20
8.3102000435
 30
0.0
  0
SPLINE
  5
30F
100
AcDbEntity
  8
0
100
AcDbSpline
 62
7
  6
CONTINUOUS
 70
0
 71
3
 72
39
 73
35
 74
0
 42
0.0000001
 43
0.0000001
 44
0.0000000001
 40
0.0
 40
0.0
 40
0.0
 40
0.0
 40
0.0309876892
 40
0.0621228942
 40
0.0934018869
 40
0.1248174039
 40
0.1563600088
 40
0.1880178412
 40
0.2197769595
 40
0.2516215992
 40
0.2835344702
 40
0.3154970738
 40
0.3474900346
 40
0.379493444
 40
0.4114872103
 40
0.4434514115
 40
0.4753666439
 40
0.5072143665
 40
0.5389772342
 40
0.5706394159
 40
0.6021868914
 40
0.6336077234
 40
0.6648923007
 40
0.6960335472
 40
0.7270270876
 40
0.7578713686
 40
0.788567729
 40
0.819120415
 40
0.8495365394
 40
0.8798259768
 40
0.9100011965
 40
0.9400770359
 40
0.9700704153
 40
1.0
 40
1.0
 40
1.0
 40
1.0
 10
10.4143014301
 20
8.7949245176
 30
0.0
 10
10.4143014301
 20
8.7843901948
 30
0.0
 10
10.4150393988
 20
8.7632642325
 30
0.0
 10
10.4183362061
 20
8.7316598556
 30
0.0
 10
10.4238090871
 20
8.7002099462
 30
0.0
 10
10.4314313642
 20
8.6690689148
 30
0.0
 10
10.4411657888
 20
8.6383872152
 30
0.0
 10
10.4529650069
 20
8.6083136591
 30
0.0
 10
10.4667716331
 20
8.5789939095
 30
0.0
 10
10.4825186051
 20
8.5505700088
 30
0.0
 10
10.5001295007
 20
8.5231796407
 30
0.0
 10
10.5195189062
 20
8.4969554884
 30
0.0
 10
10.540592829
 20
8.4720245989
 30
0.0
 10
10.5632491191
 20
8.4485077483
 30
0.0
 10
10.5873779883
 20
8.4265188799
 30
0.0
 10
10.6128625405
 20
8.406164563
 30
0.0
 10
10.6395793287
 20
8.3875434801
 30
0.0
 10
10.6673989484
 20
8.3707459577
 30
0.0
 10
10.6961866368
 20
8.3558534969
 30
0.0
 10
10.7258029376
 20
8.3429384025
 30
0.0
 10
10.7561043705
 20
8.3320634423
 30
0.0
 10
10.7869441146
 20
8.3232815394
 30
0.0
 10
10.8181727102
 20
8.3166355201
 30
0.0
 10
10.8496387656
 20
8.3121578617
 30
0.0
 10
10.8811896923
 20
8.3098705518
 30
0.0
 10
10.9126724368
 20
8.3097849864
 30
0.0
 10
10.9439342121
 20
8.3119018976
 30
0.0
 10
10.9748232365
 20
8.3162113464
 30
0.0
 10
11.0051894572
 20
8.3226927062
 30
0.0
 10
11.0348853412
 20
8.3313148075
 30
0.0
 10
11.0637663784
 20
8.3420359413
 30
0.0
 10
11.0916925843
 20
8.3548045933
 30
0.0
 10
11.1185262454
 20
8.3695576329
 30
0.0
 10
11.1356188458
 20
8.3806807207
 30
0.0
 10
11.1439340909
 20
8.3865441288
 30
0.0
  0
SPLINE
  5
310
100
AcDbEntity
  8
0
100
AcDbSpline
 62
7
  6
CONTINUOUS
 70
0
 71
3
 72
39
 73
35
 74
0
 42
0.0000001
 43
0.0000001
 44
0.0000000001
 40
0.0
 40
0.0
 40
0.0
 40
0.0
 40
0.0306777964
 40
0.0614699694
 40
0.0923740514
 40
0.1233871138
 40
0.1545045029
 40
0.1857206058
 40
0.2170286382
 40
0.2484208305
 40
0.2798884876
 40
0.3114220999
 40
0.343011448
 40
0.3746457165
 40
0.4063136118
 40
0.4380034837
 40
0.4697034494
 40
0.5014015193
 40
0.5330857242
 40
0.5647442411
 40
0.5963655193
 40
0.6279384033
 40
0.6594522537
 40
0.690897063
 40
0.7222635679
 40
0.7535433543
 40
0.7847289563
 40
0.8158139461
 40
0.8467930152
 40
0.8776620451
 40
0.9084181666
 40
0.9390598057
 40
0.9695867168
 40
1.0
 40
1.0
 40
1.0
 40
1.0
 10
10.632485705
 20
9.0056743561
 30
0.0
 10
10.632485705
 20
8.9975016481
 30
0.0
 10
10.6329295397
 20
8.9811223894
 30
0.0
 10
10.6349160329
 20
8.956582636
 30
0.0
 10
10.6382187024
 20
8.9320943856
 30
0.0
 10
10.6428277265
 20
8.9077302282
 30
0.0
 10
10.6487296282
 20
8.8835610541
 30
0.0
 10
10.6559070537
 20
8.8596575784
 30
0.0
 10
10.6643389867
 20
8.836089614
 30
0.0
 10
10.6740007263
 20
8.8129260206
 30
0.0
 10
10.6848639977
 20
8.7902344637
 30
0.0
 10
10.6968970194
 20
8.7680812285
 30
0.0
 10
10.7100646017
 20
8.7465310259
 30
0.0
 10
10.7243282475
 20
8.7256468046
 30
0.0
 10
10.7396462648
 20
8.7054895688
 30
0.0
 10
10.7559738881
 20
8.6861182008
 30
0.0
 10
10.7732634085
 20
8.6675892904
 30
0.0
 10
10.7914643114
 20
8.6499569693
 30
0.0
 10
10.8105234241
 20
8.633272754
 30
0.0
 10
10.8303850708
 20
8.6175853972
 30
0.0
 10
10.8509912342
 20
8.6029407452
 30
0.0
 10
10.872281724
 20
8.589381605
 30
0.0
 10
10.8941943514
 20
8.5769476198
 30
0.0
 10
10.9166651097
 20
8.5656751531
 30
0.0
 10
10.9396283596
 20
8.5555971832
 30
0.0
 10
10.9630170203
 20
8.5467432064
 30
0.0
 10
10.9867627627
 20
8.5391391512
 30
0.0
 10
11.0107962103
 20
8.5328073017
 30
0.0
 10
11.0350471314
 20
8.5277662313
 30
0.0
 10
11.0594446742
 20
8.5240307508
 30
0.0
 10
11.083917458
 20
8.5216118519
 30
0.0
 10
11.1083942018
 20
8.5205167169
 30
0.0
 10
11.1328023708
 20
8.5207485306
 30
0.0
 10
11.1490133678
 20
8.5217894795
 30
0.0
 10
11.1570815791
 20
8.5225312801
 30
0.0
  0
SPLINE
  5
311
100
AcDbEntity
  8
0
100
AcDbSpline
 62
7
  6
CONTINUOUS
 70
0
 71
3
 72
39
 73
35
 74
0
 42
0.0000001
 43
0.0000001
 44
0.0000000001
 40
0.0
 40
0.0
 40
0.0
 40
0.0
 40
0.0306706408
 40
0.0614548867
 40
0.0923500874
 40
0.1233535503
 40
0.1544606527
 40
0.185665933
 40
0.2169627483
 40
0.2483434992
 40
0.2797996742
 40
0.3113219604
 40
0.3429003437
 40
0.3745242188
 40
0.4061825037
 40
0.437863757
 40
0.4695562982
 40
0.5012483296
 40
0.5329280585
 40
0.5645838206
 40
0.596204201
 40
0.6277781545
 40
0.6592951227
 40
0.6907451474
 40
0.7221189802
 40
0.7534081858
 40
0.7846052386
 40
0.8157036121
 40
0.8466978586
 40
0.8775836806
 40
0.9083579895
 40
0.9390189538
 40
0.9695660334
 40
1.0
 40
1.0
 40
1.0
 40
1.0
 10
10.6692280465
 20
9.0111647348
 30
0.0
 10
10.6692280465
 20
9.0035741811
 30
0.0
 10
10.6696370937
 20
8.9883618739
 30
0.0
 10
10.6714679461
 20
8.9655697417
 30
0.0
 10
10.6745119848
 20
8.9428240467
 30
0.0
 10
10.6787602547
 20
8.9201912133
 30
0.0
 10
10.6842005532
 20
8.897736063
 30
0.0
 10
10.6908171123
 20
8.8755233031
 30
0.0
 10
10.6985908616
 20
8.8536168142
 30
0.0
 10
10.7074993742
 20
8.8320796251
 30
0.0
 10
10.7175169795
 20
8.8109736899
 30
0.0
 10
10.7286148182
 20
8.790359721
 30
0.0
 10
10.7407609324
 20
8.7702970148
 30
0.0
 10
10.7539203532
 20
8.7508432805
 30
0.0
 10
10.7680552007
 20
8.7320544746
 30
0.0
 10
10.7831247961
 20
8.7139846425
 30
0.0
 10
10.7990857775
 20
8.6966857639
 30
0.0
 10
10.8158922238
 20
8.680207604
 30
0.0
 10
10.8334957864
 20
8.6645975715
 30
0.0
 10
10.8518458274
 20
8.6499005827
 30
0.0
 10
10.8708895641
 20
8.6361589332
 30
0.0
 10
10.8905722202
 20
8.6234121768
 30
0.0
 10
10.910837182
 20
8.6116970119
 30
0.0
 10
10.9316261602
 20
8.601047177
 30
0.0
 10
10.9528793549
 20
8.5914933491
 30
0.0
 10
10.9745356283
 20
8.5830630591
 30
0.0
 10
10.9965326791
 20
8.5757806125
 30
0.0
 10
11.0188072225
 20
8.5696670196
 30
0.0
 10
11.0412951628
 20
8.5647399342
 30
0.0
 10
11.0639318048
 20
8.5610136038
 30
0.0
 10
11.0866519344
 20
8.5584988195
 30
0.0
 10
11.1093903896
 20
8.5572029154
 30
0.0
 10
11.1320808209
 20
8.5571296276
 30
0.0
 10
11.147162018
 20
8.5578976301
 30
0.0
 10
11.1546709913
 20
8.5584858848
 30
0.0
  0
SPLINE
  5
312
100
AcDbEntity
  8
0
100
AcDbSpline
 62
7
  6
CONTINUOUS
 70
0
 71
3
 72
23
 73
19
 74
0
 42
0.0000001
 43
0.0000001
 44
0.0000000001
 40
0.0
 40
0.0
 40
0.0
 40
0.0
 40
0.0618771576
 40
0.1239915011
 40
0.1863175998
 40
0.2488262149
 40
0.3114848579
 40
0.3742583863
 40
0.437109639
 40
0.5000000946
 40
0.5628905475
 40
0.6257417918
 40
0.6885153054
 40
0.7511739265
 40
0.8136825133
 40
0.8760085769
 40
0.9381228816
 40
1.0
 40
1.0
 40
1.0
 40
1.0
 10
10.8509283074
 20
9.0006304464
 30
0.0
 10
10.8528115767
 20
8.9930202255
 30
0.0
 10
10.8571008395
 20
8.9778930378
 30
0.0
 10
10.865046252
 20
8.9556465301
 30
0.0
 10
10.8744790301
 20
8.9339005068
 30
0.0
 10
10.8853532221
 20
8.9127611671
 30
0.0
 10
10.8976163874
 20
8.8923300429
 30
0.0
 10
10.9112092975
 20
8.872705716
 30
0.0
 10
10.9260663682
 20
8.8539827553
 30
0.0
 10
10.9421159342
 20
8.8362514255
 30
0.0
 10
10.9592806015
 20
8.8195972138
 30
0.0
 10
10.9774776178
 20
8.8041004317
 30
0.0
 10
10.9966192568
 20
8.789835832
 30
0.0
 10
11.0166132762
 20
8.7768722348
 30
0.0
 10
11.0373632033
 20
8.7652722453
 30
0.0
 10
11.0587693834
 20
8.7550917908
 30
0.0
 10
11.080727269
 20
8.7463804587
 30
0.0
 10
11.0956967793
 20
8.7415697408
 30
0.0
 10
11.1032371806
 20
8.7394239461
 30
0.0
  0
SPLINE
  5
313
100
AcDbEntity
  8
0
100
AcDbSpline
 62
7
  6
CONTINUOUS
 70
0
 71
3
 72
31
 73
27
 74
0
 42
0.0000001
 43
0.0000001
 44
0.0000000001
 40
0.0
 40
0.0
 40
0.0
 40
0.0
 40
0.0307553132
 40
0.0615975211
 40
0.0925236736
 40
0.1235306114
 40
0.1546144604
 40
0.1857708207
 40
0.2169948032
 40
0.2482810388
 40
0.3110037123
 40
0.3739011851
 40
0.4369179301
 40
0.4999952118
 40
0.5630726656
 40
0.6260899231
 40
0.6889882342
 40
0.7517120496
 40
0.7829989597
 40
0.814223681
 40
0.8453808398
 40
0.876465535
 40
0.9074733694
 40
0.9384004816
 40
0.9692435864
 40
1.0
 40
1.0
 40
1.0
 40
1.0
 10
10.7522850186
 20
9.0409096221
 30
0.0
 10
10.7529711859
 20
9.0348070249
 30
0.0
 10
10.7546054514
 20
9.0226122433
 30
0.0
 10
10.7578305149
 20
9.0044160367
 30
0.0
 10
10.7618270002
 20
8.9863217898
 30
0.0
 10
10.7665874031
 20
8.9683635745
 30
0.0
 10
10.7721028934
 20
8.9505745712
 30
0.0
 10
10.7783631302
 20
8.9329879244
 30
0.0
 10
10.7853566843
 20
8.9156359272
 30
0.0
 10
10.7956487668
 20
8.8928400832
 30
0.0
 10
10.8102826861
 20
8.8650948344
 30
0.0
 10
10.8305175805
 20
8.8332782559
 30
0.0
 10
10.8532947764
 20
8.8031390846
 30
0.0
 10
10.8784448652
 20
8.7749021098
 30
0.0
 10
10.9057814584
 20
8.7487760284
 30
0.0
 10
10.9351025364
 20
8.7249544509
 30
0.0
 10
10.9661893781
 20
8.7036145512
 30
0.0
 10
10.9934040913
 20
8.6880150979
 30
0.0
 10
11.015824885
 20
8.676928576
 30
0.0
 10
11.0329209599
 20
8.6693297378
 30
0.0
 10
11.0502773245
 20
8.6624555049
 30
0.0
 10
11.0678621003
 20
8.6563184203
 30
0.0
 10
11.0856425267
 20
8.6509299693
 30
0.0
 10
11.1035857437
 20
8.6463001756
 30
0.0
 10
11.121657989
 20
8.6424377002
 30
0.0
 10
11.1337882145
 20
8.6403759138
 30
0.0
 10
11.1398631532
 20
8.6394757265
 30
0.0
  0
SPLINE
  5
314
100
AcDbEntity
  8
0
100
AcDbSpline
 62
7
  6
CONTINUOUS
 70
0
 71
3
 72
24
 73
20
 74
0
 42
0.0000001
 43
0.0000001
 44
0.0000000001
 40
0.0
 40
0.0
 40
0.0
 40
0.0
 40
0.0637772288
 40
0.1273440035
 40
0.1907010538
 40
0.2538548439
 40
0.3168115635
 40
0.3795801621
 40
0.4421711319
 40
0.504596767
 40
0.5668709769
 40
0.629009173
 40
0.6910281261
 40
0.7529458042
 40
0.8147811983
 40
0.8765541338
 40
0.9074261016
 40
0.9382901698
 40
1.0
 40
1.0
 40
1.0
 40
1.0
 10
11.0204097754
 20
7.5479542942
 30
0.0
 10
11.0204097754
 20
7.5562858812
 30
0.0
 10
11.020808535
 20
7.5729243867
 30
0.0
 10
11.0226084654
 20
7.597780977
 30
0.0
 10
11.0256052721
 20
7.6224404659
 30
0.0
 10
11.0297919243
 20
7.6468451191
 30
0.0
 10
11.0351589584
 20
7.6709390152
 30
0.0
 10
11.041693994
 20
7.6946665033
 30
0.0
 10
11.0493820536
 20
7.7179729061
 30
0.0
 10
11.0582054598
 20
7.7408044694
 30
0.0
 10
11.0681439107
 20
7.7631085392
 30
0.0
 10
11.0791745331
 20
7.784833677
 30
0.0
 10
11.0912719082
 20
7.8059297476
 30
0.0
 10
11.1044082367
 20
7.8263481614
 30
0.0
 10
11.1185530002
 20
7.8460415178
 30
0.0
 10
11.1311567964
 20
7.8618146297
 30
0.0
 10
11.1417082463
 20
7.8740230988
 30
0.0
 10
11.1525641247
 20
7.8859500835
 30
0.0
 10
11.1610483178
 20
7.8945779618
 30
0.0
 10
11.1668465892
 20
7.9001786767
 30
0.0
  0
SPLINE
  5
315
100
AcDbEntity
  8
0
100
AcDbSpline
 62
7
  6
CONTINUOUS
 70
0
 71
3
 72
71
 73
67
 74
0
 42
0.0000001
 43
0.0000001
 44
0.0000000001
 40
0.0
 40
0.0
 40
0.0
 40
0.0
 40
0.0155843069
 40
0.0311159038
 40
0.0465952632
 40
0.0620238805
 40
0.077403449
 40
0.0927362827
 40
0.1080251225
 40
0.1232731731
 40
0.1384840552
 40
0.1536617763
 40
0.1688106901
 40
0.1839354535
 40
0.1990409788
 40
0.2141323827
 40
0.2292149324
 40
0.2442939898
 40
0.259374954
 40
0.2744632038
 40
0.2895640402
 40
0.3046826299
 40
0.3198239506
 40
0.3349927394
 40
0.3501934439
 40
0.3654301775
 40
0.3807066787
 40
0.3960262758
 40
0.4113918556
 40
0.4268058385
 40
0.4422701584
 40
0.4577862477
 40
0.4733550287
 40
0.4889769093
 40
0.5046517847
 40
0.520379043
 40
0.5361575765
 40
0.5519857969
 40
0.5678616545
 40
0.5837826615
 40
0.5997459177
 40
0.6157481411
 40
0.6317856992
 40
0.6478546443
 40
0.6639507502
 40
0.6800695513
 40
0.6962063822
 40
0.7123564202
 40
0.7285147273
 40
0.7446762933
 40
0.7608360801
 40
0.7769890646
 40
0.7931302832
 40
0.8092548748
 40
0.8253581236
 40
0.841435501
 40
0.8574827062
 40
0.8734957057
 40
0.889470771
 40
0.9054045125
 40
0.9212939181
 40
0.9371363645
 40
0.9529297054
 40
0.9686721205
 40
0.9843625712
 40
1.0
 40
1.0
 40
1.0
 40
1.0
 10
10.0764042677
 20
8.5710408844
 30
0.0
 10
10.0764042677
 20
8.5800492024
 30
0.0
 10
10.0768451044
 20
8.5980385651
 30
0.0
 10
10.0788351447
 20
8.6249093108
 30
0.0
 10
10.0821482245
 20
8.6515592841
 30
0.0
 10
10.0867763141
 20
8.6779233233
 30
0.0
 10
10.09270841
 20
8.7039381899
 30
0.0
 10
10.0999302332
 20
8.7295410804
 30
0.0
 10
10.1084244613
 20
8.7546702946
 30
0.0
 10
10.1181706679
 20
8.7792652303
 30
0.0
 10
10.1291454148
 20
8.8032665741
 30
0.0
 10
10.1413222889
 20
8.8266164339
 30
0.0
 10
10.1546719723
 20
8.8492584833
 30
0.0
 10
10.1691623078
 20
8.8711380987
 30
0.0
 10
10.1847583755
 20
8.8922024951
 30
0.0
 10
10.2014225806
 20
8.9124008534
 30
0.0
 10
10.219114743
 20
8.931684445
 30
0.0
 10
10.2377921959
 20
8.950006751
 30
0.0
 10
10.257409889
 20
8.9673235765
 30
0.0
 10
10.2779204992
 20
8.9835931581
 30
0.0
 10
10.2992745458
 20
8.9987762661
 30
0.0
 10
10.3214205119
 20
9.0128362994
 30
0.0
 10
10.3443049705
 20
9.0257393749
 30
0.0
 10
10.3678727157
 20
9.0374544079
 30
0.0
 10
10.3920668957
 20
9.0479531907
 30
0.0
 10
10.4168291535
 20
9.057210458
 30
0.0
 10
10.4420997697
 20
9.0652039454
 30
0.0
 10
10.4678178079
 20
9.0719144421
 30
0.0
 10
10.4939212624
 20
9.0773258352
 30
0.0
 10
10.5203472087
 20
9.0814251474
 30
0.0
 10
10.5470319554
 20
9.0842025661
 30
0.0
 10
10.5739111979
 20
9.0856514656
 30
0.0
 10
10.6009201732
 20
9.0857684213
 30
0.0
 10
10.6279938157
 20
9.0845532164
 30
0.0
 10
10.6550669132
 20
9.0820088411
 30
0.0
 10
10.6820742636
 20
9.0781414877
 30
0.0
 10
10.708950832
 20
9.0729605311
 30
0.0
 10
10.7356319058
 20
9.0664785049
 30
0.0
 10
10.7620532495
 20
9.0587110705
 30
0.0
 10
10.7881512588
 20
9.0496769785
 30
0.0
 10
10.8138631121
 20
9.0393980238
 30
0.0
 10
10.8391269211
 20
9.0278989921
 30
0.0
 10
10.8638818786
 20
9.0152076003
 30
0.0
 10
10.8880684039
 20
9.0013544303
 30
0.0
 10
10.9116282851
 20
8.9863728543
 30
0.0
 10
10.9345048192
 20
8.9702989568
 30
0.0
 10
10.9566429495
 20
8.9531714489
 30
0.0
 10
10.977989395
 20
8.9350315721
 30
0.0
 10
10.9984927788
 20
8.915923
 30
0.0
 10
11.0181037507
 20
8.8958917337
 30
0.0
 10
11.0367751054
 20
8.8749859915
 30
0.0
 10
11.0544618956
 20
8.8532560932
 30
0.0
 10
11.0711215397
 20
8.8307543398
 30
0.0
 10
11.0867139236
 20
8.8075348884
 30
0.0
 10
11.1012014975
 20
8.7836536224
 30
0.0
 10
11.114549365
 20
8.7591680176
 30
0.0
 10
11.1267253699
 20
8.7341370063
 30
0.0
 10
11.1377001736
 20
8.7086208347
 30
0.0
 10
11.1474473213
 20
8.6826809188
 30
0.0
 10
11.1559433124
 20
8.6563796948
 30
0.0
 10
11.1631676403
 20
8.6297804814
 30
0.0
 10
11.1691028852
 20
8.6029472836
 30
0.0
 10
11.1737346578
 20
8.5759447992
 30
0.0
 10
11.1770518299
 20
8.5488377342
 30
0.0
 10
11.1790462431
 20
8.5216923196
 30
0.0
 10
11.1794915917
 20
8.5035805431
 30
0.0
 10
11.1794915917
 20
8.4945415186
 30
0.0
  0
SPLINE
  5
316
100
AcDbEntity
  8
0
100
AcDbSpline
 62
7
  6
CONTINUOUS
 70
0
 71
3
 72
43
 73
39
 74
0
 42
0.0000001
 43
0.0000001
 44
0.0000000001
 40
0.0
 40
0.0
 40
0.0
 40
0.0
 40
0.030919932
 40
0.0619803027
 40
0.0931779125
 40
0.124506452
 40
0.1559577404
 40
0.187521455
 40
0.2191854281
 40
0.2509358473
 40
0.2827574959
 40
0.3146340086
 40
0.3465481404
 40
0.3784820447
 40
0.4104175602
 40
0.4423365003
 40
0.4742209422
 40
0.5060535139
 40
0.5378176738
 40
0.5694979831
 40
0.6010803637
 40
0.6325523398
 40
0.6639032588
 40
0.6951244889
 40
0.7262095892
 40
0.7571544488
 40
0.7879573874
 40
0.818619218
 40
0.8339003456
 40
0.8491476555
 40
0.8643619485
 40
0.8795441826
 40
0.9098125265
 40
0.939967656
 40
0.9550089339
 40
0.9700268157
 40
0.9850231775
 40
1.0
 40
1.0
 40
1.0
 40
1.0
 10
11.1984771315
 20
7.7199541624
 30
0.0
 10
11.1984771315
 20
7.7083841079
 30
0.0
 10
11.1992493394
 20
7.685184287
 30
0.0
 10
11.2027005503
 20
7.6504650903
 30
0.0
 10
11.2084316922
 20
7.6158924377
 30
0.0
 10
11.2164174019
 20
7.581620508
 30
0.0
 10
11.226622232
 20
7.5477997101
 30
0.0
 10
11.2390010948
 20
7.5145790479
 30
0.0
 10
11.2534993145
 20
7.4821046926
 30
0.0
 10
11.2700529176
 20
7.4505195567
 30
0.0
 10
11.288588922
 20
7.4199626192
 30
0.0
 10
11.3090256549
 20
7.3905683372
 30
0.0
 10
11.3312731112
 20
7.3624660578
 30
0.0
 10
11.3552333429
 20
7.3357794539
 30
0.0
 10
11.3808008681
 20
7.3106259656
 30
0.0
 10
11.4078631578
 20
7.287116307
 30
0.0
 10
11.4363011233
 20
7.265353983
 30
0.0
 10
11.4659896349
 20
7.245434837
 30
0.0
 10
11.4967980682
 20
7.2274466371
 30
0.0
 10
11.5285908587
 20
7.2114686668
 30
0.0
 10
11.5612281015
 20
7.1975713864
 30
0.0
 10
11.5945661684
 20
7.1858161364
 30
0.0
 10
11.6284583209
 20
7.176254863
 30
0.0
 10
11.662755381
 20
7.1689298943
 30
0.0
 10
11.6973062547
 20
7.163873726
 30
0.0
 10
11.7319590435
 20
7.1611089066
 30
0.0
 10
11.7665600294
 20
7.1606477567
 30
0.0
 10
11.7952602744
 20
7.1621872868
 30
0.0
 10
11.8180364944
 20
7.1645712835
 30
0.0
 10
11.8349933394
 20
7.166929689
 30
0.0
 10
11.8518235741
 20
7.1698579785
 30
0.0
 10
11.8740455061
 20
7.1745123772
 30
0.0
 10
11.9014238265
 20
7.1817352285
 30
0.0
 10
11.9281870558
 20
7.1908189036
 30
0.0
 10
11.9491188562
 20
7.1991684811
 30
0.0
 10
11.9645537722
 20
7.2059603317
 30
0.0
 10
11.9797188632
 20
7.2132787945
 30
0.0
 10
11.9896446483
 20
7.218507031
 30
0.0
 10
11.9945562374
 20
7.2212058778
 30
0.0
  0
SPLINE
  5
317
100
AcDbEntity
  8
0
100
AcDbSpline
 62
7
  6
CONTINUOUS
 70
0
 71
3
 72
15
 73
11
 74
0
 42
0.0000001
 43
0.0000001
 44
0.0000000001
 40
0.0
 40
0.0
 40
0.0
 40
0.0
 40
0.1268041663
 40
0.2530395661
 40
0.3787226876
 40
0.5038765902
 40
0.628535056
 40
0.7527402746
 40
0.8765426757
 40
1.0
 40
1.0
 40
1.0
 40
1.0
 10
11.1984771315
 20
7.7199541624
 30
0.0
 10
11.1984771315
 20
7.7312292488
 30
0.0
 10
11.1992071583
 20
7.753735908
 30
0.0
 10
11.2025052877
 20
7.7872723482
 30
0.0
 10
11.2079902282
 20
7.8203742696
 30
0.0
 10
11.2156391856
 20
7.8528999971
 30
0.0
 10
11.2254199316
 20
7.884712278
 30
0.0
 10
11.2372916554
 20
7.9156768916
 30
0.0
 10
11.2512033047
 20
7.9456610344
 30
0.0
 10
11.2618141522
 20
7.964940184
 30
0.0
 10
11.2674364617
 20
7.9743685993
 30
0.0
  0
SPLINE
  5
318
100
AcDbEntity
  8
0
100
AcDbSpline
 62
7
  6
CONTINUOUS
 70
0
 71
3
 72
15
 73
11
 74
0
 42
0.0000001
 43
0.0000001
 44
0.0000000001
 40
0.0
 40
0.0
 40
0.0
 40
0.0
 40
0.1269231998
 40
0.2532291276
 40
0.3789385547
 40
0.5040813301
 40
0.6287003091
 40
0.7528491615
 40
0.8765915779
 40
1.0
 40
1.0
 40
1.0
 40
1.0
 10
11.211034168
 20
7.719083329
 30
0.0
 10
11.211034168
 20
7.731027573
 30
0.0
 10
11.2118735739
 20
7.7548668071
 30
0.0
 10
11.2156666727
 20
7.790354148
 30
0.0
 10
11.2219720081
 20
7.8253142715
 30
0.0
 10
11.2307587009
 20
7.8595707557
 30
0.0
 10
11.2419831825
 20
7.8929531563
 30
0.0
 10
11.25559019
 20
7.9252953758
 30
0.0
 10
11.2715107169
 20
7.9564338749
 30
0.0
 10
11.283631289
 20
7.9763147013
 30
0.0
 10
11.2900455281
 20
7.9859961529
 30
0.0
  0
SPLINE
  5
319
100
AcDbEntity
  8
0
100
AcDbSpline
 62
7
  6
CONTINUOUS
 70
0
 71
3
 72
19
 73
15
 74
0
 42
0.0000001
 43
0.0000001
 44
0.0000000001
 40
0.0
 40
0.0
 40
0.0
 40
0.0
 40
0.1269797689
 40
0.2533128408
 40
0.3790227421
 40
0.5041441326
 40
0.5665105834
 40
0.6287493889
 40
0.690868624
 40
0.7528770599
 40
0.8147841169
 40
0.8765998292
 40
0.9383347727
 40
1.0
 40
1.0
 40
1.0
 40
1.0
 10
11.2258834071
 20
7.7229265934
 30
0.0
 10
11.2258834071
 20
7.7351969492
 30
0.0
 10
11.2267872379
 20
7.7596851056
 30
0.0
 10
11.230872111
 20
7.7961157613
 30
0.0
 10
11.2376600863
 20
7.8319595084
 30
0.0
 10
11.2455493266
 20
7.8612116377
 30
0.0
 10
11.2531692868
 20
7.8841138734
 30
0.0
 10
11.2595242732
 20
7.901006383
 30
0.0
 10
11.2665160009
 20
7.917607657
 30
0.0
 10
11.2741350129
 20
7.9338952876
 30
0.0
 10
11.282370888
 20
7.9498468412
 30
0.0
 10
11.2912123577
 20
7.9654406084
 30
0.0
 10
11.3006471431
 20
7.9806549124
 30
0.0
 10
11.3073278439
 20
7.9905366124
 30
0.0
 10
11.3107620908
 20
7.9954063069
 30
0.0
  0
SPLINE
  5
31A
100
AcDbEntity
  8
0
100
AcDbSpline
 62
7
  6
CONTINUOUS
 70
0
 71
3
 72
15
 73
11
 74
0
 42
0.0000001
 43
0.0000001
 44
0.0000000001
 40
0.0
 40
0.0
 40
0.0
 40
0.0
 40
0.1268155251
 40
0.2530577799
 40
0.3787436444
 40
0.5038967456
 40
0.6285516489
 40
0.7527515331
 40
0.8765479758
 40
1.0
 40
1.0
 40
1.0
 40
1.0
 10
11.2615521275
 20
7.7573799336
 30
0.0
 10
11.2615521275
 20
7.768249585
 30
0.0
 10
11.2622614615
 20
7.7899466668
 30
0.0
 10
11.2654661725
 20
7.8222739468
 30
0.0
 10
11.2707955455
 20
7.8541768666
 30
0.0
 10
11.2782270814
 20
7.8855167082
 30
0.0
 10
11.2877289733
 20
7.916159116
 30
0.0
 10
11.299260945
 20
7.9459727415
 30
0.0
 10
11.3127726128
 20
7.9748276811
 30
0.0
 10
11.3230767006
 20
7.9933693182
 30
0.0
 10
11.3285358604
 20
8.002433683
 30
0.0
  0
SPLINE
  5
31B
100
AcDbEntity
  8
0
100
AcDbSpline
 62
7
  6
CONTINUOUS
 70
0
 71
3
 72
21
 73
17
 74
0
 42
0.0000001
 43
0.0000001
 44
0.0000000001
 40
0.0
 40
0.0
 40
0.0
 40
0.0
 40
0.1270480478
 40
0.2534148713
 40
0.3163635868
 40
0.3791529777
 40
0.4417889708
 40
0.5042782328
 40
0.5666283703
 40
0.6288479196
 40
0.6909462587
 40
0.7529335649
 40
0.814820737
 40
0.8766193417
 40
0.9383415418
 40
1.0
 40
1.0
 40
1.0
 40
1.0
 10
11.3203398738
 20
7.7661645394
 30
0.0
 10
11.3203398738
 20
7.7778945554
 30
0.0
 10
11.3212503084
 20
7.8013015818
 30
0.0
 10
11.3246853645
 20
7.8303400999
 30
0.0
 10
11.3287978382
 20
7.8532554992
 30
0.0
 10
11.3325538253
 20
7.8702421439
 30
0.0
 10
11.3369794276
 20
7.8870226936
 30
0.0
 10
11.3420679058
 20
7.9035719355
 30
0.0
 10
11.347811523
 20
7.9198646188
 30
0.0
 10
11.3542016197
 20
7.9358759523
 30
0.0
 10
11.3612284365
 20
7.9515815863
 30
0.0
 10
11.3688812897
 20
7.9669576388
 30
0.0
 10
11.3771485917
 20
7.9819806579
 30
0.0
 10
11.3860177938
 20
7.9966278863
 30
0.0
 10
11.395475151
 20
8.0108767423
 30
0.0
 10
11.4021662026
 20
8.020100782
 30
0.0
 10
11.4056041521
 20
8.0246381907
 30
0.0
  0
SPLINE
  5
31C
100
AcDbEntity
  8
0
100
AcDbSpline
 62
7
  6
CONTINUOUS
 70
0
 71
3
 72
46
 73
42
 74
0
 42
0.0000001
 43
0.0000001
 44
0.0000000001
 40
0.0
 40
0.0
 40
0.0
 40
0.0
 40
0.0310740773
 40
0.0623054006
 40
0.0936893128
 40
0.1252172024
 40
0.1568776694
 40
0.1886565384
 40
0.2205372032
 40
0.252500989
 40
0.2845275467
 40
0.3165952716
 40
0.3486817389
 40
0.3807641511
 40
0.4128197911
 40
0.4448264746
 40
0.4767629939
 40
0.5086095473
 40
0.5403481514
 40
0.5719630242
 40
0.6034409304
 40
0.6347714916
 40
0.6659474445
 40
0.6969648364
 40
0.7278231646
 40
0.7585254417
 40
0.7890781773
 40
0.8043042478
 40
0.8194969263
 40
0.8346579555
 40
0.8497892599
 40
0.8648929415
 40
0.8799712672
 40
0.8950266523
 40
0.9100616511
 40
0.9250789418
 40
0.9400813072
 40
0.9550716217
 40
0.9700528342
 40
0.9850279469
 40
1.0
 40
1.0
 40
1.0
 40
1.0
 10
11.0204097754
 20
7.5479542942
 30
0.0
 10
11.0204097754
 20
7.5350279102
 30
0.0
 10
11.0213740637
 20
7.5090997837
 30
0.0
 10
11.0256793444
 20
7.4703317298
 30
0.0
 10
11.0328228846
 20
7.431791314
 30
0.0
 10
11.042765214
 20
7.3936929252
 30
0.0
 10
11.0554512714
 20
7.3562450305
 30
0.0
 10
11.0708110821
 20
7.3196533601
 30
0.0
 10
11.0887601114
 20
7.2841186918
 30
0.0
 10
11.1091995819
 20
7.2498360135
 30
0.0
 10
11.1320171212
 20
7.2169934123
 30
0.0
 10
11.1570874282
 20
7.1857711328
 30
0.0
 10
11.1842728164
 20
7.1563404967
 30
0.0
 10
11.213424033
 20
7.1288630068
 30
0.0
 10
11.2443811328
 20
7.1034895486
 30
0.0
 10
11.2769742364
 20
7.0803594598
 30
0.0
 10
11.311024488
 20
7.0595997848
 30
0.0
 10
11.3463450878
 20
7.0413246925
 30
0.0
 10
11.3827422247
 20
7.0256347383
 30
0.0
 10
11.4200161379
 20
7.0126162952
 30
0.0
 10
11.4579622524
 20
7.0023412174
 30
0.0
 10
11.4963722227
 20
6.994866332
 30
0.0
 10
11.5350351118
 20
6.9902330734
 30
0.0
 10
11.5737383922
 20
6.9884673602
 30
0.0
 10
11.6122697046
 20
6.98957952
 30
0.0
 10
11.650415681
 20
6.9935634756
 30
0.0
 10
11.6817497314
 20
6.9992667814
 30
0.0
 10
11.7064052668
 20
7.0052385602
 30
0.0
 10
11.7246522209
 20
7.0104094548
 30
0.0
 10
11.7426478184
 20
7.0162699063
 30
0.0
 10
11.7603676257
 20
7.022811981
 30
0.0
 10
11.777787183
 20
7.0300266225
 30
0.0
 10
11.7948825514
 20
7.0379039088
 30
0.0
 10
11.8116301657
 20
7.0464330761
 30
0.0
 10
11.8280070057
 20
7.0556023399
 30
0.0
 10
11.8439905355
 20
7.0653990867
 30
0.0
 10
11.8595587239
 20
7.0758099061
 30
0.0
 10
11.8746901591
 20
7.0868204001
 30
0.0
 10
11.8893640935
 20
7.0984154946
 30
0.0
 10
11.9035600013
 20
7.1105790253
 30
0.0
 10
11.9126932847
 20
7.1190567462
 30
0.0
 10
11.9171729159
 20
7.1233837491
 30
0.0
  0
SPLINE
  5
31D
100
AcDbEntity
  8
0
100
AcDbSpline
 62
7
  6
CONTINUOUS
 70
0
 71
3
 72
43
 73
39
 74
0
 42
0.0000001
 43
0.0000001
 44
0.0000000001
 40
0.0
 40
0.0
 40
0.0
 40
0.0
 40
0.0309488528
 40
0.0620411716
 40
0.0932735322
 40
0.1246392385
 40
0.1561295785
 40
0.1877335909
 40
0.2194383657
 40
0.2512292732
 40
0.2830902268
 40
0.315003963
 40
0.3469523363
 40
0.3789166244
 40
0.4108778414
 40
0.4428170524
 40
0.4747156874
 40
0.5065558527
 40
0.5383206334
 40
0.5699943836
 40
0.6015630013
 40
0.6330141835
 40
0.6643376593
 40
0.6955253919
 40
0.7265717481
 40
0.7574736313
 40
0.7882305725
 40
0.818844778
 40
0.8341020755
 40
0.8493257379
 40
0.8645167838
 40
0.8796763879
 40
0.9099019906
 40
0.9400195579
 40
0.9550446811
 40
0.9700483815
 40
0.9850327572
 40
1.0
 40
1.0
 40
1.0
 40
1.0
 10
11.211034168
 20
7.719083329
 30
0.0
 10
11.211034168
 20
7.707552965
 30
0.0
 10
11.2118200654
 20
7.6844313512
 30
0.0
 10
11.2153318287
 20
7.6498343592
 30
0.0
 10
11.2211626912
 20
7.6153930818
 30
0.0
 10
11.2292857394
 20
7.5812676562
 30
0.0
 10
11.2396633929
 20
7.5476142252
 30
0.0
 10
11.2522478379
 20
7.5145873703
 30
0.0
 10
11.2669811089
 20
7.482338588
 30
0.0
 10
11.2837954349
 20
7.4510158406
 30
0.0
 10
11.3026135344
 20
7.4207628213
 30
0.0
 10
11.3233489757
 20
7.3917183257
 30
0.0
 10
11.3459065481
 20
7.3640156033
 30
0.0
 10
11.3701826912
 20
7.3377817428
 30
0.0
 10
11.3960659969
 20
7.3131371179
 30
0.0
 10
11.4234377068
 20
7.290194835
 30
0.0
 10
11.4521722573
 20
7.269060228
 30
0.0
 10
11.4821378246
 20
7.2498303465
 30
0.0
 10
11.5131969374
 20
7.2325935215
 30
0.0
 10
11.5452071121
 20
7.2174289829
 30
0.0
 10
11.5780214936
 20
7.2044064922
 30
0.0
 10
11.6114895236
 20
7.1935860299
 30
0.0
 10
11.6454575996
 20
7.1850174716
 30
0.0
 10
11.6797698211
 20
7.1787403935
 30
0.0
 10
11.7142685693
 20
7.1747838727
 30
0.0
 10
11.7487956916
 20
7.1731664286
 30
0.0
 10
11.7831914682
 20
7.1738956195
 30
0.0
 10
11.8116497721
 20
7.1764598209
 30
0.0
 10
11.8341865262
 20
7.1796790404
 30
0.0
 10
11.850940799
 20
7.1826703825
 30
0.0
 10
11.8675447408
 20
7.1862377406
 30
0.0
 10
11.8894334575
 20
7.1917506195
 30
0.0
 10
11.9163342459
 20
7.2000583441
 30
0.0
 10
11.9425311118
 20
7.2102368496
 30
0.0
 10
11.9629564516
 20
7.2194626035
 30
0.0
 10
11.9779860489
 20
7.2269110005
 30
0.0
 10
11.9927188847
 20
7.2348843515
 30
0.0
 10
12.0023373746
 20
7.2405472445
 30
0.0
 10
12.0070907433
 20
7.2434626806
 30
0.0
  0
SPLINE
  5
31E
100
AcDbEntity
  8
0
100
AcDbSpline
 62
7
  6
CONTINUOUS
 70
0
 71
3
 72
55
 73
51
 74
0
 42
0.0000001
 43
0.0000001
 44
0.0000000001
 40
0.0
 40
0.0
 40
0.0
 40
0.0
 40
0.0124598591
 40
0.0242558525
 40
0.0353739024
 40
0.0458171588
 40
0.0556113505
 40
0.0648090532
 40
0.0734927799
 40
0.0776784439
 40
0.0817796203
 40
0.0858141301
 40
0.0898003427
 40
0.0937568838
 40
0.0977026245
 40
0.1016556313
 40
0.1056330047
 40
0.1137192657
 40
0.1220745251
 40
0.1307807284
 40
0.1398945057
 40
0.1494510493
 40
0.1594694776
 40
0.1699560885
 40
0.1809096685
 40
0.192322329
 40
0.2041838668
 40
0.2164809901
 40
0.2292003233
 40
0.2423279943
 40
0.2558499658
 40
0.2697538192
 40
0.2840265434
 40
0.2986569568
 40
0.313634525
 40
0.328948885
 40
0.3605538057
 40
0.3934077961
 40
0.4274572362
 40
0.4626559655
 40
0.4989628972
 40
0.5363396887
 40
0.574747775
 40
0.6141454305
 40
0.6544845939
 40
0.6957071616
 40
0.7377408244
 40
0.823852595
 40
0.91178425
 40
1.0
 40
1.0
 40
1.0
 40
1.0
 10
11.5884230551
 20
7.4994373432
 30
0.0
 10
11.5899763983
 20
7.4992240868
 30
0.0
 10
11.5930126675
 20
7.498891778
 30
0.0
 10
11.597462635
 20
7.4986885596
 30
0.0
 10
11.6016629274
 20
7.4987997214
 30
0.0
 10
11.6055902824
 20
7.4992291757
 30
0.0
 10
11.6092241666
 20
7.4999788254
 30
0.0
 10
11.6125463685
 20
7.5010479622
 30
0.0
 10
11.6150742291
 20
7.5022175611
 30
0.0
 10
11.6169124374
 20
7.5033073937
 30
0.0
 10
11.6181890078
 20
7.5041897113
 30
0.0
 10
11.6193797822
 20
7.5051451466
 30
0.0
 10
11.6204848186
 20
7.5061720575
 30
0.0
 10
11.6215042223
 20
7.5072688061
 30
0.0
 10
11.6224388047
 20
7.5084332587
 30
0.0
 10
11.6232894828
 20
7.5096635296
 30
0.0
 10
11.6243187391
 20
7.5113979824
 30
0.0
 10
11.6254043203
 20
7.5137353576
 30
0.0
 10
11.6263839175
 20
7.5167512574
 30
0.0
 10
11.6270673309
 20
7.5199788194
 30
0.0
 10
11.6274733103
 20
7.523403804
 30
0.0
 10
11.6276213206
 20
7.5270138896
 30
0.0
 10
11.6275297835
 20
7.5307978882
 30
0.0
 10
11.6272168741
 20
7.5347458412
 30
0.0
 10
11.6266992443
 20
7.5388486694
 30
0.0
 10
11.6259933561
 20
7.5430984959
 30
0.0
 10
11.625113763
 20
7.547488121
 30
0.0
 10
11.624074889
 20
7.5520114895
 30
0.0
 10
11.6228894274
 20
7.5566631416
 30
0.0
 10
11.6215694252
 20
7.5614384217
 30
0.0
 10
11.6201262152
 20
7.5663334489
 30
0.0
 10
11.6185695395
 20
7.5713446135
 30
0.0
 10
11.6169093105
 20
7.5764692096
 30
0.0
 10
11.6151539001
 20
7.5817046625
 30
0.0
 10
11.6133112649
 20
7.587048876
 30
0.0
 10
11.6107211141
 20
7.5943945732
 30
0.0
 10
11.6073014951
 20
7.6038327854
 30
0.0
 10
11.6029984481
 20
7.6154580115
 30
0.0
 10
11.598496006
 20
7.6274915386
 30
0.0
 10
11.5938319298
 20
7.6399284987
 30
0.0
 10
11.5890401721
 20
7.6527647554
 30
0.0
 10
11.5841518565
 20
7.6659959886
 30
0.0
 10
11.5791960478
 20
7.6796167577
 30
0.0
 10
11.5742005654
 20
7.6936195086
 30
0.0
 10
11.5691924825
 20
7.7079933891
 30
0.0
 10
11.5641986474
 20
7.7227229849
 30
0.0
 10
11.5575418075
 20
7.742969766
 30
0.0
 10
11.5494382042
 20
7.7689269684
 30
0.0
 10
11.5402995012
 20
7.8006411666
 30
0.0
 10
11.5346569112
 20
7.8220793186
 30
0.0
 10
11.531956901
 20
7.832846779
 30
0.0
  0
SPLINE
  5
31F
100
AcDbEntity
  8
0
100
AcDbSpline
 62
7
  6
CONTINUOUS
 70
0
 71
3
 72
42
 73
38
 74
0
 42
0.0000001
 43
0.0000001
 44
0.0000000001
 40
0.0
 40
0.0
 40
0.0
 40
0.0
 40
0.0309662602
 40
0.0620778075
 40
0.0933310743
 40
0.1247191266
 40
0.1562329228
 40
0.1878611061
 40
0.2195903081
 40
0.2514053957
 40
0.2832897472
 40
0.3152255491
 40
0.3471941065
 40
0.3791761666
 40
0.411152247
 40
0.4431029667
 40
0.4750093766
 40
0.5068532851
 40
0.5386175736
 40
0.570286499
 40
0.6018459787
 40
0.6332838558
 40
0.6645901346
 40
0.6957571851
 40
0.7267799125
 40
0.7422385602
 40
0.7576604449
 40
0.7883899854
 40
0.8189761894
 40
0.8494249139
 40
0.8797447005
 40
0.8948620427
 40
0.9099515123
 40
0.9250148646
 40
0.9400539841
 40
0.9700627118
 40
1.0
 40
1.0
 40
1.0
 40
1.0
 10
11.2258834071
 20
7.7229265934
 30
0.0
 10
11.2258834071
 20
7.7114853617
 30
0.0
 10
11.2266729685
 20
7.6885416586
 30
0.0
 10
11.2302007201
 20
7.6542140225
 30
0.0
 10
11.2360576196
 20
7.6200467917
 30
0.0
 10
11.2442159526
 20
7.5862027931
 30
0.0
 10
11.2546370443
 20
7.5528407443
 30
0.0
 10
11.2672716663
 20
7.5201177066
 30
0.0
 10
11.2820601723
 20
7.4881875229
 30
0.0
 10
11.2989328451
 20
7.4572003469
 30
0.0
 10
11.3178102096
 20
7.4273018799
 30
0.0
 10
11.3386034034
 20
7.3986327141
 30
0.0
 10
11.3612145515
 20
7.3713276416
 30
0.0
 10
11.3855372723
 20
7.3455150583
 30
0.0
 10
11.4114571673
 20
7.3213163642
 30
0.0
 10
11.4388523589
 20
7.2988454081
 30
0.0
 10
11.4675940278
 20
7.2782079219
 30
0.0
 10
11.4975470255
 20
7.2595010328
 30
0.0
 10
11.5285705225
 20
7.2428128349
 30
0.0
 10
11.5605186488
 20
7.2282219749
 30
0.0
 10
11.5932411987
 20
7.2157972783
 30
0.0
 10
11.6265841943
 20
7.2055973829
 30
0.0
 10
11.6603910713
 20
7.1976705005
 30
0.0
 10
11.6945017418
 20
7.1920542264
 30
0.0
 10
11.7230843265
 20
7.1893184027
 30
0.0
 10
11.7459376727
 20
7.1883106223
 30
0.0
 10
11.7687037749
 20
7.1880894016
 30
0.0
 10
11.7970559466
 20
7.1892811394
 30
0.0
 10
11.8307762842
 20
7.1930643388
 30
0.0
 10
11.8639986613
 20
7.199181023
 30
0.0
 10
11.8911685879
 20
7.2062074297
 30
0.0
 10
11.9124912427
 20
7.2129621201
 30
0.0
 10
11.9282483392
 20
7.2185837896
 30
0.0
 10
11.9437657663
 20
7.224758929
 30
0.0
 10
11.9640947662
 20
7.2337131803
 30
0.0
 10
11.9888275467
 20
7.2462537922
 30
0.0
 10
12.0078184343
 20
7.2576955049
 30
0.0
 10
12.0170772655
 20
7.2637470287
 30
0.0
  0
SPLINE
  5
320
100
AcDbEntity
  8
0
100
AcDbSpline
 62
7
  6
CONTINUOUS
 70
0
 71
3
 72
39
 73
35
 74
0
 42
0.0000001
 43
0.0000001
 44
0.0000000001
 40
0.0
 40
0.0
 40
0.0
 40
0.0
 40
0.029942471
 40
0.0599093185
 40
0.089924325
 40
0.1200101043
 40
0.1501875632
 40
0.1804754155
 40
0.2108897611
 40
0.2414437393
 40
0.2721472649
 40
0.3030068482
 40
0.3340255005
 40
0.3652027199
 40
0.3965345553
 40
0.4280137416
 40
0.4596298994
 40
0.4913697937
 40
0.523217641
 40
0.5551554573
 40
0.5871634413
 40
0.619220384
 40
0.6513040994
 40
0.6833918697
 40
0.715460897
 40
0.7474887556
 40
0.7794538398
 40
0.8113357995
 40
0.8431159588
 40
0.874777715
 40
0.9063068673
 40
0.9376920959
 40
0.968924654
 40
1.0
 40
1.0
 40
1.0
 40
1.0
 10
11.8301569946
 20
8.2501086475
 30
0.0
 10
11.825229863
 20
8.2453494078
 30
0.0
 10
11.8149881598
 20
8.236215029
 30
0.0
 10
11.7985793632
 20
8.2237710532
 30
0.0
 10
11.781208192
 20
8.2126469504
 30
0.0
 10
11.7629717111
 20
8.2029051197
 30
0.0
 10
11.7439701815
 20
8.1945987836
 30
0.0
 10
11.7243084689
 20
8.1877736046
 30
0.0
 10
11.7040949182
 20
8.1824669344
 30
0.0
 10
11.6834408934
 20
8.1787077455
 30
0.0
 10
11.6624601139
 20
8.1765164495
 30
0.0
 10
11.6412680326
 20
8.1759048238
 30
0.0
 10
11.6199812
 20
8.1768759577
 30
0.0
 10
11.5987166274
 20
8.1794242501
 30
0.0
 10
11.5775911513
 20
8.1835354528
 30
0.0
 10
11.5567207992
 20
8.1891867558
 30
0.0
 10
11.5362201559
 20
8.1963469046
 30
0.0
 10
11.5162017461
 20
8.2049763966
 30
0.0
 10
11.496775426
 20
8.2150276985
 30
0.0
 10
11.4780477904
 20
8.2264455093
 30
0.0
 10
11.4601215951
 20
8.2391670619
 30
0.0
 10
11.4430952037
 20
8.2531224677
 30
0.0
 10
11.4270620419
 20
8.2682350836
 30
0.0
 10
11.4121100961
 20
8.2844219391
 30
0.0
 10
11.3983214402
 20
8.3015941921
 30
0.0
 10
11.3857717887
 20
8.3196576095
 30
0.0
 10
11.3745300858
 20
8.3385130773
 30
0.0
 10
11.3646581321
 20
8.3580571418
 30
0.0
 10
11.3562102358
 20
8.3781825525
 30
0.0
 10
11.3492329219
 20
8.3987788888
 30
0.0
 10
11.3437646459
 20
8.4197330019
 30
0.0
 10
11.3398356987
 20
8.44093022
 30
0.0
 10
11.3374677823
 20
8.462252644
 30
0.0
 10
11.3369374306
 20
8.4765131026
 30
0.0
 10
11.3369374306
 20
8.4836226126
 30
0.0
  0
SPLINE
  5
321
100
AcDbEntity
  8
0
100
AcDbSpline
 62
7
  6
CONTINUOUS
 70
0
 71
3
 72
43
 73
39
 74
0
 42
0.0000001
 43
0.0000001
 44
0.0000000001
 40
0.0
 40
0.0
 40
0.0
 40
0.0
 40
0.0309229791
 40
0.0619867147
 40
0.0931879845
 40
0.1245204389
 40
0.1559758424
 40
0.1875438064
 40
0.2192120864
 40
0.2509667853
 40
0.2827925962
 40
0.3146730607
 40
0.3465908397
 40
0.3785279954
 40
0.4104662799
 40
0.4423874276
 40
0.4742734471
 40
0.5061069099
 40
0.5378712333
 40
0.5695509542
 40
0.6011319889
 40
0.6326018758
 40
0.663949998
 40
0.695167781
 40
0.7262488639
 40
0.7571892369
 40
0.7879873413
 40
0.818644131
 40
0.8339227207
 40
0.8491675012
 40
0.8643792958
 40
0.8795590838
 40
0.9098227635
 40
0.9399737212
 40
0.9550131684
 40
0.9700294143
 40
0.9850243568
 40
1.0
 40
1.0
 40
1.0
 40
1.0
 10
11.2615521275
 20
7.7573799336
 30
0.0
 10
11.2615521275
 20
7.7462887969
 30
0.0
 10
11.2622940225
 20
7.7240491443
 30
0.0
 10
11.2656096945
 20
7.6907673825
 30
0.0
 10
11.2711156762
 20
7.6576270641
 30
0.0
 10
11.2787874917
 20
7.624776636
 30
0.0
 10
11.2885909369
 20
7.5923609073
 30
0.0
 10
11.3004825055
 20
7.560523325
 30
0.0
 10
11.3144094392
 20
7.5294045948
 30
0.0
 10
11.3303100135
 20
7.49914227
 30
0.0
 10
11.3481138152
 20
7.4698700993
 30
0.0
 10
11.3677420508
 20
7.4417174575
 30
0.0
 10
11.3891078947
 20
7.4148087786
 30
0.0
 10
11.4121168612
 20
7.3892630057
 30
0.0
 10
11.4366672072
 20
7.3651930563
 30
0.0
 10
11.4626504029
 20
7.3427053463
 30
0.0
 10
11.4899516027
 20
7.3218993217
 30
0.0
 10
11.5184501473
 20
7.3028670231
 30
0.0
 10
11.5480200922
 20
7.2856926847
 30
0.0
 10
11.5785307429
 20
7.2704523353
 30
0.0
 10
11.6098472429
 20
7.2572134847
 30
0.0
 10
11.641831165
 20
7.2460348303
 30
0.0
 10
11.6743411064
 20
7.2369659943
 30
0.0
 10
11.7072333376
 20
7.2300473111
 30
0.0
 10
11.7403623072
 20
7.2253096071
 30
0.0
 10
11.7735817208
 20
7.2227741137
 30
0.0
 10
11.8067435621
 20
7.2224521876
 30
0.0
 10
11.8342429768
 20
7.2240321805
 30
0.0
 10
11.8560615096
 20
7.2264029149
 30
0.0
 10
11.8723029401
 20
7.2287286402
 30
0.0
 10
11.8884205897
 20
7.2316015322
 30
0.0
 10
11.9096982191
 20
7.2361519892
 30
0.0
 10
11.9359064508
 20
7.2431885496
 30
0.0
 10
11.9615159764
 20
7.2520107493
 30
0.0
 10
11.9815391067
 20
7.2601068829
 30
0.0
 10
11.9963008039
 20
7.2666868819
 30
0.0
 10
12.0108010301
 20
7.2737718102
 30
0.0
 10
12.0202892313
 20
7.2788298472
 30
0.0
 10
12.0249836675
 20
7.2814400654
 30
0.0
  0
SPLINE
  5
322
100
AcDbEntity
  8
0
100
AcDbSpline
 62
7
  6
CONTINUOUS
 70
0
 71
3
 72
39
 73
35
 74
0
 42
0.0000001
 43
0.0000001
 44
0.0000000001
 40
0.0
 40
0.0
 40
0.0
 40
0.0
 40
0.0309876892
 40
0.0621228942
 40
0.0934018869
 40
0.1248174039
 40
0.1563600088
 40
0.1880178412
 40
0.2197769595
 40
0.2516215992
 40
0.2835344702
 40
0.3154970738
 40
0.3474900346
 40
0.379493444
 40
0.4114872103
 40
0.4434514115
 40
0.4753666439
 40
0.5072143665
 40
0.5389772342
 40
0.5706394159
 40
0.6021868914
 40
0.6336077234
 40
0.6648923007
 40
0.6960335472
 40
0.7270270876
 40
0.7578713686
 40
0.788567729
 40
0.819120415
 40
0.8495365394
 40
0.8798259768
 40
0.9100011965
 40
0.9400770359
 40
0.9700704153
 40
1.0
 40
1.0
 40
1.0
 40
1.0
 10
11.3203398738
 20
7.7661645394
 30
0.0
 10
11.3203398738
 20
7.7556302166
 30
0.0
 10
11.3210778426
 20
7.7345042543
 30
0.0
 10
11.3243746499
 20
7.7028998775
 30
0.0
 10
11.3298475309
 20
7.6714499681
 30
0.0
 10
11.3374698079
 20
7.6403089367
 30
0.0
 10
11.3472042326
 20
7.6096272371
 30
0.0
 10
11.3590034507
 20
7.5795536809
 30
0.0
 10
11.3728100768
 20
7.5502339313
 30
0.0
 10
11.3885570488
 20
7.5218100307
 30
0.0
 10
11.4061679444
 20
7.4944196625
 30
0.0
 10
11.4255573499
 20
7.4681955102
 30
0.0
 10
11.4466312727
 20
7.4432646207
 30
0.0
 10
11.4692875628
 20
7.4197477701
 30
0.0
 10
11.4934164321
 20
7.3977589017
 30
0.0
 10
11.5189009842
 20
7.3774045849
 30
0.0
 10
11.5456177724
 20
7.3587835019
 30
0.0
 10
11.5734373921
 20
7.3419859796
 30
0.0
 10
11.6022250805
 20
7.3270935188
 30
0.0
 10
11.6318413813
 20
7.3141784243
 30
0.0
 10
11.6621428142
 20
7.3033034641
 30
0.0
 10
11.6929825584
 20
7.2945215613
 30
0.0
 10
11.724211154
 20
7.287875542
 30
0.0
 10
11.7556772094
 20
7.2833978835
 30
0.0
 10
11.7872281361
 20
7.2811105736
 30
0.0
 10
11.8187108805
 20
7.2810250083
 30
0.0
 10
11.8499726558
 20
7.2831419194
 30
0.0
 10
11.8808616802
 20
7.2874513683
 30
0.0
 10
11.9112279009
 20
7.293932728
 30
0.0
 10
11.940923785
 20
7.3025548294
 30
0.0
 10
11.9698048222
 20
7.3132759631
 30
0.0
 10
11.997731028
 20
7.3260446152
 30
0.0
 10
12.0245646892
 20
7.3407976548
 30
0.0
 10
12.0416572896
 20
7.3519207425
 30
0.0
 10
12.0499725347
 20
7.3577841506
 30
0.0
  0
SPLINE
  5
323
100
AcDbEntity
  8
0
100
AcDbSpline
 62
7
  6
CONTINUOUS
 70
0
 71
3
 72
39
 73
35
 74
0
 42
0.0000001
 43
0.0000001
 44
0.0000000001
 40
0.0
 40
0.0
 40
0.0
 40
0.0
 40
0.029942471
 40
0.0599093185
 40
0.089924325
 40
0.1200101043
 40
0.1501875632
 40
0.1804754155
 40
0.2108897611
 40
0.2414437393
 40
0.2721472649
 40
0.3030068482
 40
0.3340255005
 40
0.3652027199
 40
0.3965345553
 40
0.4280137416
 40
0.4596298994
 40
0.4913697937
 40
0.523217641
 40
0.5551554573
 40
0.5871634413
 40
0.619220384
 40
0.6513040994
 40
0.6833918697
 40
0.715460897
 40
0.7474887556
 40
0.7794538398
 40
0.8113357995
 40
0.8431159588
 40
0.874777715
 40
0.9063068673
 40
0.9376920959
 40
0.968924654
 40
1.0
 40
1.0
 40
1.0
 40
1.0
 10
10.3812682844
 20
9.1957745401
 30
0.0
 10
10.3763411529
 20
9.1910153005
 30
0.0
 10
10.3660994496
 20
9.1818809216
 30
0.0
 10
10.3496906531
 20
9.1694369458
 30
0.0
 10
10.3323194819
 20
9.158312843
 30
0.0
 10
10.3140830009
 20
9.1485710123
 30
0.0
 10
10.2950814714
 20
9.1402646762
 30
0.0
 10
10.2754197587
 20
9.1334394972
 30
0.0
 10
10.2552062081
 20
9.128132827
 30
0.0
 10
10.2345521833
 20
9.1243736382
 30
0.0
 10
10.2135714037
 20
9.1221823421
 30
0.0
 10
10.1923793225
 20
9.1215707165
 30
0.0
 10
10.1710924898
 20
9.1225418503
 30
0.0
 10
10.1498279173
 20
9.1250901427
 30
0.0
 10
10.1287024411
 20
9.1292013455
 30
0.0
 10
10.1078320891
 20
9.1348526484
 30
0.0
 10
10.0873314458
 20
9.1420127973
 30
0.0
 10
10.0673130359
 20
9.1506422892
 30
0.0
 10
10.0478867159
 20
9.1606935912
 30
0.0
 10
10.0291590803
 20
9.172111402
 30
0.0
 10
10.011232885
 20
9.1848329545
 30
0.0
 10
9.9942064935
 20
9.1987883603
 30
0.0
 10
9.9781733317
 20
9.2139009762
 30
0.0
 10
9.963221386
 20
9.2300878317
 30
0.0
 10
9.94943273
 20
9.2472600847
 30
0.0
 10
9.9368830786
 20
9.2653235022
 30
0.0
 10
9.9256413756
 20
9.2841789699
 30
0.0
 10
9.915769422
 20
9.3037230345
 30
0.0
 10
9.9073215257
 20
9.3238484451
 30
0.0
 10
9.9003442118
 20
9.3444447814
 30
0.0
 10
9.8948759357
 20
9.3653988945
 30
0.0
 10
9.8909469886
 20
9.3865961127
 30
0.0
 10
9.8885790722
 20
9.4079185366
 30
0.0
 10
9.8880487204
 20
9.4221789952
 30
0.0
 10
9.8880487204
 20
9.4292885052
 30
0.0
  0
SPLINE
  5
324
100
AcDbEntity
  8
0
100
AcDbSpline
 62
7
  6
CONTINUOUS
 70
0
 71
3
 72
39
 73
35
 74
0
 42
0.0000001
 43
0.0000001
 44
0.0000000001
 40
0.0
 40
0.0
 40
0.0
 40
0.0
 40
0.0306777964
 40
0.0614699694
 40
0.0923740514
 40
0.1233871138
 40
0.1545045029
 40
0.1857206058
 40
0.2170286382
 40
0.2484208305
 40
0.2798884876
 40
0.3114220999
 40
0.343011448
 40
0.3746457165
 40
0.4063136118
 40
0.4380034837
 40
0.4697034494
 40
0.5014015193
 40
0.5330857242
 40
0.5647442411
 40
0.5963655193
 40
0.6279384033
 40
0.6594522537
 40
0.690897063
 40
0.7222635679
 40
0.7535433543
 40
0.7847289563
 40
0.8158139461
 40
0.8467930152
 40
0.8776620451
 40
0.9084181666
 40
0.9390598057
 40
0.9695867168
 40
1.0
 40
1.0
 40
1.0
 40
1.0
 10
11.5385241488
 20
7.976914378
 30
0.0
 10
11.5385241488
 20
7.9687416699
 30
0.0
 10
11.5389679835
 20
7.9523624113
 30
0.0
 10
11.5409544767
 20
7.9278226578
 30
0.0
 10
11.5442571462
 20
7.9033344075
 30
0.0
 10
11.5488661703
 20
7.87897025
 30
0.0
 10
11.5547680719
 20
7.8548010759
 30
0.0
 10
11.5619454974
 20
7.8308976003
 30
0.0
 10
11.5703774304
 20
7.8073296358
 30
0.0
 10
11.58003917
 20
7.7841660425
 30
0.0
 10
11.5909024415
 20
7.7614744855
 30
0.0
 10
11.6029354632
 20
7.7393212504
 30
0.0
 10
11.6161030455
 20
7.7177710478
 30
0.0
 10
11.6303666912
 20
7.6968868265
 30
0.0
 10
11.6456847086
 20
7.6767295906
 30
0.0
 10
11.6620123319
 20
7.6573582226
 30
0.0
 10
11.6793018523
 20
7.6388293122
 30
0.0
 10
11.6975027551
 20
7.6211969911
 30
0.0
 10
11.7165618678
 20
7.6045127759
 30
0.0
 10
11.7364235145
 20
7.5888254191
 30
0.0
 10
11.757029678
 20
7.5741807671
 30
0.0
 10
11.7783201678
 20
7.5606216269
 30
0.0
 10
11.8002327952
 20
7.5481876416
 30
0.0
 10
11.8227035534
 20
7.5369151749
 30
0.0
 10
11.8456668033
 20
7.526837205
 30
0.0
 10
11.869055464
 20
7.5179832283
 30
0.0
 10
11.8928012065
 20
7.5103791731
 30
0.0
 10
11.916834654
 20
7.5040473235
 30
0.0
 10
11.9410855752
 20
7.4990062531
 30
0.0
 10
11.9654831179
 20
7.4952707726
 30
0.0
 10
11.9899559018
 20
7.4928518737
 30
0.0
 10
12.0144326455
 20
7.4917567388
 30
0.0
 10
12.0388408146
 20
7.4919885524
 30
0.0
 10
12.0550518116
 20
7.4930295014
 30
0.0
 10
12.0631200229
 20
7.4937713019
 30
0.0
  0
SPLINE
  5
325
100
AcDbEntity
  8
0
100
AcDbSpline
 62
7
  6
CONTINUOUS
 70
0
 71
3
 72
39
 73
35
 74
0
 42
0.0000001
 43
0.0000001
 44
0.0000000001
 40
0.0
 40
0.0
 40
0.0
 40
0.0
 40
0.029942471
 40
0.0599093185
 40
0.089924325
 40
0.1200101043
 40
0.1501875632
 40
0.1804754155
 40
0.2108897611
 40
0.2414437393
 40
0.2721472649
 40
0.3030068482
 40
0.3340255005
 40
0.3652027199
 40
0.3965345553
 40
0.4280137416
 40
0.4596298994
 40
0.4913697937
 40
0.523217641
 40
0.5551554573
 40
0.5871634413
 40
0.619220384
 40
0.6513040994
 40
0.6833918697
 40
0.715460897
 40
0.7474887556
 40
0.7794538398
 40
0.8113357995
 40
0.8431159588
 40
0.874777715
 40
0.9063068673
 40
0.9376920959
 40
0.968924654
 40
1.0
 40
1.0
 40
1.0
 40
1.0
 10
10.3812682844
 20
6.7210725355
 30
0.0
 10
10.3763411529
 20
6.7163132958
 30
0.0
 10
10.3660994496
 20
6.7071789169
 30
0.0
 10
10.3496906531
 20
6.6947349412
 30
0.0
 10
10.3323194819
 20
6.6836108384
 30
0.0
 10
10.3140830009
 20
6.6738690076
 30
0.0
 10
10.2950814714
 20
6.6655626715
 30
0.0
 10
10.2754197587
 20
6.6587374926
 30
0.0
 10
10.2552062081
 20
6.6534308224
 30
0.0
 10
10.2345521833
 20
6.6496716335
 30
0.0
 10
10.2135714037
 20
6.6474803374
 30
0.0
 10
10.1923793225
 20
6.6468687118
 30
0.0
 10
10.1710924898
 20
6.6478398457
 30
0.0
 10
10.1498279173
 20
6.6503881381
 30
0.0
 10
10.1287024411
 20
6.6544993408
 30
0.0
 10
10.1078320891
 20
6.6601506438
 30
0.0
 10
10.0873314458
 20
6.6673107926
 30
0.0
 10
10.0673130359
 20
6.6759402846
 30
0.0
 10
10.0478867159
 20
6.6859915865
 30
0.0
 10
10.0291590803
 20
6.6974093973
 30
0.0
 10
10.011232885
 20
6.7101309499
 30
0.0
 10
9.9942064935
 20
6.7240863557
 30
0.0
 10
9.9781733317
 20
6.7391989715
 30
0.0
 10
9.963221386
 20
6.7553858271
 30
0.0
 10
9.94943273
 20
6.7725580801
 30
0.0
 10
9.9368830786
 20
6.7906214975
 30
0.0
 10
9.9256413756
 20
6.8094769653
 30
0.0
 10
9.915769422
 20
6.8290210298
 30
0.0
 10
9.9073215257
 20
6.8491464405
 30
0.0
 10
9.9003442118
 20
6.8697427767
 30
0.0
 10
9.8948759357
 20
6.8906968898
 30
0.0
 10
9.8909469886
 20
6.911894108
 30
0.0
 10
9.8885790722
 20
6.933216532
 30
0.0
 10
9.8880487204
 20
6.9474769905
 30
0.0
 10
9.8880487204
 20
6.9545865006
 30
0.0
  0
SPLINE
  5
326
100
AcDbEntity
  8
0
100
AcDbSpline
 62
7
  6
CONTINUOUS
 70
0
 71
3
 72
39
 73
35
 74
0
 42
0.0000001
 43
0.0000001
 44
0.0000000001
 40
0.0
 40
0.0
 40
0.0
 40
0.0
 40
0.0306706408
 40
0.0614548867
 40
0.0923500874
 40
0.1233535503
 40
0.1544606527
 40
0.185665933
 40
0.2169627483
 40
0.2483434992
 40
0.2797996742
 40
0.3113219604
 40
0.3429003437
 40
0.3745242188
 40
0.4061825037
 40
0.437863757
 40
0.4695562982
 40
0.5012483296
 40
0.5329280585
 40
0.5645838206
 40
0.596204201
 40
0.6277781545
 40
0.6592951227
 40
0.6907451474
 40
0.7221189802
 40
0.7534081858
 40
0.7846052386
 40
0.8157036121
 40
0.8466978586
 40
0.8775836806
 40
0.9083579895
 40
0.9390189538
 40
0.9695660334
 40
1.0
 40
1.0
 40
1.0
 40
1.0
 10
11.5752664902
 20
7.9824047566
 30
0.0
 10
11.5752664902
 20
7.974814203
 30
0.0
 10
11.5756755374
 20
7.9596018957
 30
0.0
 10
11.5775063899
 20
7.9368097635
 30
0.0
 10
11.5805504285
 20
7.9140640686
 30
0.0
 10
11.5847986985
 20
7.8914312352
 30
0.0
 10
11.5902389969
 20
7.8689760849
 30
0.0
 10
11.5968555561
 20
7.8467633249
 30
0.0
 10
11.6046293054
 20
7.824856836
 30
0.0
 10
11.613537818
 20
7.803319647
 30
0.0
 10
11.6235554233
 20
7.7822137117
 30
0.0
 10
11.6346532619
 20
7.7615997428
 30
0.0
 10
11.6467993762
 20
7.7415370366
 30
0.0
 10
11.6599587969
 20
7.7220833023
 30
0.0
 10
11.6740936444
 20
7.7032944964
 30
0.0
 10
11.6891632399
 20
7.6852246644
 30
0.0
 10
11.7051242212
 20
7.6679257858
 30
0.0
 10
11.7219306675
 20
7.6514476259
 30
0.0
 10
11.7395342301
 20
7.6358375933
 30
0.0
 10
11.7578842711
 20
7.6211406045
 30
0.0
 10
11.7769280078
 20
7.607398955
 30
0.0
 10
11.796610664
 20
7.5946521986
 30
0.0
 10
11.8168756257
 20
7.5829370338
 30
0.0
 10
11.8376646039
 20
7.5722871988
 30
0.0
 10
11.8589177986
 20
7.562733371
 30
0.0
 10
11.880574072
 20
7.5543030809
 30
0.0
 10
11.9025711229
 20
7.5470206343
 30
0.0
 10
11.9248456662
 20
7.5409070415
 30
0.0
 10
11.9473336066
 20
7.535979956
 30
0.0
 10
11.9699702485
 20
7.5322536256
 30
0.0
 10
11.9926903781
 20
7.5297388413
 30
0.0
 10
12.0154288334
 20
7.5284429372
 30
0.0
 10
12.0381192646
 20
7.5283696495
 30
0.0
 10
12.0532004617
 20
7.529137652
 30
0.0
 10
12.060709435
 20
7.5297259067
 30
0.0
  0
SPLINE
  5
327
100
AcDbEntity
  8
0
100
AcDbSpline
 62
7
  6
CONTINUOUS
 70
0
 71
3
 72
23
 73
19
 74
0
 42
0.0000001
 43
0.0000001
 44
0.0000000001
 40
0.0
 40
0.0
 40
0.0
 40
0.0
 40
0.0618771576
 40
0.1239915011
 40
0.1863175998
 40
0.2488262149
 40
0.3114848579
 40
0.3742583863
 40
0.437109639
 40
0.5000000946
 40
0.5628905475
 40
0.6257417918
 40
0.6885153054
 40
0.7511739265
 40
0.8136825133
 40
0.8760085769
 40
0.9381228816
 40
1.0
 40
1.0
 40
1.0
 40
1.0
 10
11.7569667511
 20
7.9718704682
 30
0.0
 10
11.7588500205
 20
7.9642602473
 30
0.0
 10
11.7631392832
 20
7.9491330597
 30
0.0
 10
11.7710846958
 20
7.926886552
 30
0.0
 10
11.7805174738
 20
7.9051405287
 30
0.0
 10
11.7913916658
 20
7.8840011889
 30
0.0
 10
11.8036548311
 20
7.8635700648
 30
0.0
 10
11.8172477412
 20
7.8439457378
 30
0.0
 10
11.832104812
 20
7.8252227771
 30
0.0
 10
11.8481543779
 20
7.8074914474
 30
0.0
 10
11.8653190453
 20
7.7908372357
 30
0.0
 10
11.8835160615
 20
7.7753404535
 30
0.0
 10
11.9026577005
 20
7.7610758538
 30
0.0
 10
11.92265172
 20
7.7481122566
 30
0.0
 10
11.9434016471
 20
7.7365122671
 30
0.0
 10
11.9648078272
 20
7.7263318127
 30
0.0
 10
11.9867657127
 20
7.7176204805
 30
0.0
 10
12.001735223
 20
7.7128097626
 30
0.0
 10
12.0092756244
 20
7.710663968
 30
0.0
  0
SPLINE
  5
328
100
AcDbEntity
  8
0
100
AcDbSpline
 62
7
  6
CONTINUOUS
 70
0
 71
3
 72
31
 73
27
 74
0
 42
0.0000001
 43
0.0000001
 44
0.0000000001
 40
0.0
 40
0.0
 40
0.0
 40
0.0
 40
0.0307553132
 40
0.0615975211
 40
0.0925236736
 40
0.1235306114
 40
0.1546144604
 40
0.1857708207
 40
0.2169948032
 40
0.2482810388
 40
0.3110037123
 40
0.3739011851
 40
0.4369179301
 40
0.4999952118
 40
0.5630726656
 40
0.6260899231
 40
0.6889882342
 40
0.7517120496
 40
0.7829989597
 40
0.814223681
 40
0.8453808398
 40
0.876465535
 40
0.9074733694
 40
0.9384004816
 40
0.9692435864
 40
1.0
 40
1.0
 40
1.0
 40
1.0
 10
11.6583234623
 20
8.0121496439
 30
0.0
 10
11.6590096296
 20
8.0060470467
 30
0.0
 10
11.6606438951
 20
7.9938522652
 30
0.0
 10
11.6638689586
 20
7.9756560586
 30
0.0
 10
11.6678654439
 20
7.9575618116
 30
0.0
 10
11.6726258468
 20
7.9396035963
 30
0.0
 10
11.6781413371
 20
7.9218145931
 30
0.0
 10
11.684401574
 20
7.9042279463
 30
0.0
 10
11.6913951281
 20
7.8868759491
 30
0.0
 10
11.7016872106
 20
7.864080105
 30
0.0
 10
11.7163211298
 20
7.8363348562
 30
0.0
 10
11.7365560243
 20
7.8045182778
 30
0.0
 10
11.7593332202
 20
7.7743791065
 30
0.0
 10
11.7844833089
 20
7.7461421316
 30
0.0
 10
11.8118199021
 20
7.7200160502
 30
0.0
 10
11.8411409802
 20
7.6961944727
 30
0.0
 10
11.8722278218
 20
7.674854573
 30
0.0
 10
11.899442535
 20
7.6592551197
 30
0.0
 10
11.9218633287
 20
7.6481685978
 30
0.0
 10
11.9389594036
 20
7.6405697596
 30
0.0
 10
11.9563157683
 20
7.6336955268
 30
0.0
 10
11.973900544
 20
7.6275584421
 30
0.0
 10
11.9916809705
 20
7.6221699911
 30
0.0
 10
12.0096241875
 20
7.6175401975
 30
0.0
 10
12.0276964327
 20
7.613677722
 30
0.0
 10
12.0398266583
 20
7.6116159356
 30
0.0
 10
12.0459015969
 20
7.6107157483
 30
0.0
  0
SPLINE
  5
329
100
AcDbEntity
  8
0
100
AcDbSpline
 62
7
  6
CONTINUOUS
 70
0
 71
3
 72
23
 73
19
 74
0
 42
0.0000001
 43
0.0000001
 44
0.0000000001
 40
0.0
 40
0.0
 40
0.0
 40
0.0
 40
0.0611042108
 40
0.1224815817
 40
0.1841240732
 40
0.2460212918
 40
0.3081574947
 40
0.370513611
 40
0.4330668861
 40
0.4957915236
 40
0.5586590341
 40
0.621638714
 40
0.6846981501
 40
0.7478036414
 40
0.8109209762
 40
0.8740152318
 40
0.9370530854
 40
1.0
 40
1.0
 40
1.0
 40
1.0
 10
9.3236719589
 20
8.3872913623
 30
0.0
 10
9.3236719589
 20
8.3832090186
 30
0.0
 10
9.3239388604
 20
8.3750236562
 30
0.0
 10
9.3251318361
 20
8.3627723344
 30
0.0
 10
9.3271132639
 20
8.350569478
 30
0.0
 10
9.3298746233
 20
8.3384673872
 30
0.0
 10
9.333404221
 20
8.3265169835
 30
0.0
 10
9.337687049
 20
8.3147688166
 30
0.0
 10
9.3427049686
 20
8.3032724951
 30
0.0
 10
9.3484367256
 20
8.2920765797
 30
0.0
 10
9.3548580691
 20
8.2812283546
 30
0.0
 10
9.3619418407
 20
8.2707736321
 30
0.0
 10
9.3696580945
 20
8.2607565728
 30
0.0
 10
9.3779742271
 20
8.2512194636
 30
0.0
 10
9.3868550691
 20
8.2422026435
 30
0.0
 10
9.3962632465
 20
8.2337440539
 30
0.0
 10
9.4061585046
 20
8.225879852
 30
0.0
 10
9.4130596014
 20
8.2210502981
 30
0.0
 10
9.4165772617
 20
8.2187455403
 30
0.0
  0
SPLINE
  5
32A
100
AcDbEntity
  8
0
100
AcDbSpline
 62
7
  6
CONTINUOUS
 70
0
 71
3
 72
11
 73
7
 74
0
 42
0.0000001
 43
0.0000001
 44
0.0000000001
 40
0.0
 40
0.0
 40
0.0
 40
0.0
 40
0.2521145926
 40
0.5027677269
 40
0.7520291539
 40
1.0
 40
1.0
 40
1.0
 40
1.0
 10
9.3236719589
 20
8.3872913623
 30
0.0
 10
9.3236719589
 20
8.3925625324
 30
0.0
 10
9.3241148373
 20
8.4030798717
 30
0.0
 10
9.3261172646
 20
8.4186940176
 30
0.0
 10
9.3294412342
 20
8.4339926924
 30
0.0
 10
9.332531524
 20
8.4439353406
 30
0.0
 10
9.3342876161
 20
8.4488134064
 30
0.0
  0
SPLINE
  5
32B
100
AcDbEntity
  8
0
100
AcDbSpline
 62
7
  6
CONTINUOUS
 70
0
 71
3
 72
40
 73
36
 74
0
 42
0.0000001
 43
0.0000001
 44
0.0000000001
 40
0.0
 40
0.0
 40
0.0
 40
0.0
 40
0.031057594
 40
0.0622703886
 40
0.0936340005
 40
0.1251400496
 40
0.1567775907
 40
0.1885329434
 40
0.220390075
 40
0.2523309372
 40
0.2843358356
 40
0.3163838252
 40
0.3484531233
 40
0.3805215352
 40
0.4125668827
 40
0.4445674348
 40
0.4765023312
 40
0.5083519944
 40
0.5400985226
 40
0.5717260592
 40
0.6032211335
 40
0.6345729605
 40
0.6657736956
 40
0.6968186393
 40
0.7277063851
 40
0.758438898
 40
0.7890215216
 40
0.8194629108
 40
0.8497748879
 40
0.8799722162
 40
0.9100722953
 40
0.940094785
 40
0.9700611655
 40
0.9850332818
 40
1.0
 40
1.0
 40
1.0
 40
1.0
 10
8.9695250143
 20
8.2642116619
 30
0.0
 10
8.9695250143
 20
8.2544380568
 30
0.0
 10
8.970244885
 20
8.2348346702
 30
0.0
 10
8.9734593417
 20
8.2055201438
 30
0.0
 10
8.9787934627
 20
8.1763715668
 30
0.0
 10
8.9862185078
 20
8.1475470206
 30
0.0
 10
8.99569442
 20
8.1192003243
 30
0.0
 10
9.0071702407
 20
8.0914833267
 30
0.0
 10
9.020584327
 20
8.0645442997
 30
0.0
 10
9.0358647254
 20
8.0385273914
 30
0.0
 10
9.0529295527
 20
8.0135718081
 30
0.0
 10
9.0716873933
 20
7.9898110734
 30
0.0
 10
9.0920377917
 20
7.9673723116
 30
0.0
 10
9.113871819
 20
7.9463756034
 30
0.0
 10
9.1370726432
 20
7.9269333503
 30
0.0
 10
9.1615161323
 20
7.9091496668
 30
0.0
 10
9.1870714935
 20
7.8931197948
 30
0.0
 10
9.2136020032
 20
7.8789296455
 30
0.0
 10
9.2409657195
 20
7.8666553383
 30
0.0
 10
9.2690162291
 20
7.8563627962
 30
0.0
 10
9.2976033994
 20
7.8481073326
 30
0.0
 10
9.3265741985
 20
7.8419334108
 30
0.0
 10
9.3557734963
 20
7.837874398
 30
0.0
 10
9.3850448814
 20
7.8359523896
 30
0.0
 10
9.4142314832
 20
7.8361780129
 30
0.0
 10
9.4431768144
 20
7.8385503977
 30
0.0
 10
9.471725603
 20
7.8430571824
 30
0.0
 10
9.499724608
 20
7.84967456
 30
0.0
 10
9.5270234824
 20
7.8583673616
 30
0.0
 10
9.5534754902
 20
7.8690891391
 30
0.0
 10
9.5789386869
 20
7.8817827833
 30
0.0
 10
9.603275232
 20
7.8963795285
 30
0.0
 10
9.6225172216
 20
7.910071392
 30
0.0
 10
9.6372112859
 20
7.9218872056
 30
0.0
 10
9.6443185858
 20
7.9280765756
 30
0.0
 10
9.647809082
 20
7.9312388193
 30
0.0
  0
SPLINE
  5
32C
100
AcDbEntity
  8
0
100
AcDbSpline
 62
7
  6
CONTINUOUS
 70
0
 71
3
 72
23
 73
19
 74
0
 42
0.0000001
 43
0.0000001
 44
0.0000000001
 40
0.0
 40
0.0
 40
0.0
 40
0.0
 40
0.0637485458
 40
0.127295972
 40
0.1906406851
 40
0.2537897915
 40
0.316748416
 40
0.3795244941
 40
0.4421274428
 40
0.5045681769
 40
0.5668591308
 40
0.6290140832
 40
0.6910480727
 40
0.7529772608
 40
0.8148187841
 40
0.8765905963
 40
0.9383113044
 40
1.0
 40
1.0
 40
1.0
 40
1.0
 10
8.9695250143
 20
8.2642116619
 30
0.0
 10
8.9695250143
 20
8.2703440444
 30
0.0
 10
8.969807164
 20
8.2825913807
 30
0.0
 10
8.9710805145
 20
8.3008924052
 30
0.0
 10
8.9732008574
 20
8.3190571431
 30
0.0
 10
8.9761634993
 20
8.3370462005
 30
0.0
 10
8.9799623229
 20
8.3548215811
 30
0.0
 10
8.9845892233
 20
8.3723453272
 30
0.0
 10
8.99003437
 20
8.3895801471
 30
0.0
 10
8.9962862023
 20
8.4064893275
 30
0.0
 10
9.0033314389
 20
8.4230368432
 30
0.0
 10
9.0111551234
 20
8.4391874288
 30
0.0
 10
9.0197405931
 20
8.4549066759
 30
0.0
 10
9.0290695797
 20
8.4701611008
 30
0.0
 10
9.0391222001
 20
8.4849181656
 30
0.0
 10
9.0498771739
 20
8.4991465193
 30
0.0
 10
9.061311201
 20
8.5128154231
 30
0.0
 10
9.0693725712
 20
8.5215380221
 30
0.0
 10
9.0735067907
 20
8.525795174
 30
0.0
  0
SPLINE
  5
32D
100
AcDbEntity
  8
0
100
AcDbSpline
 62
7
  6
CONTINUOUS
 70
0
 71
3
 72
23
 73
19
 74
0
 42
0.0000001
 43
0.0000001
 44
0.0000000001
 40
0.0
 40
0.0
 40
0.0
 40
0.0
 40
0.0638356385
 40
0.127301062
 40
0.1904139195
 40
0.253199901
 40
0.3156954582
 40
0.3779456908
 40
0.4400032747
 40
0.5019268854
 40
0.5637794029
 40
0.6256259525
 40
0.6875318469
 40
0.7495605252
 40
0.8117715688
 40
0.8742188705
 40
0.9369490238
 40
1.0
 40
1.0
 40
1.0
 40
1.0
 10
9.1322835257
 20
8.2529243208
 30
0.0
 10
9.1322835257
 20
8.2595675069
 30
0.0
 10
9.1328419939
 20
8.2728224322
 30
0.0
 10
9.1353668027
 20
8.2925002148
 30
0.0
 10
9.1395585304
 20
8.3117815617
 30
0.0
 10
9.1453877873
 20
8.3305269227
 30
0.0
 10
9.1528132766
 20
8.3486026581
 30
0.0
 10
9.1617822503
 20
8.3658792838
 30
0.0
 10
9.1722308086
 20
8.3822331198
 30
0.0
 10
9.1840843833
 20
8.3975470028
 30
0.0
 10
9.1972582626
 20
8.4117112048
 30
0.0
 10
9.211658167
 20
8.4246242788
 30
0.0
 10
9.2271809477
 20
8.4361938186
 30
0.0
 10
9.2437154418
 20
8.4463371177
 30
0.0
 10
9.2611430813
 20
8.4549817363
 30
0.0
 10
9.2793395701
 20
8.4620661634
 30
0.0
 10
9.2981727628
 20
8.4675398222
 30
0.0
 10
9.3110329222
 20
8.4700830999
 30
0.0
 10
9.3175187446
 20
8.4710769642
 30
0.0
  0
SPLINE
  5
32E
100
AcDbEntity
  8
0
100
AcDbSpline
 62
7
  6
CONTINUOUS
 70
0
 71
3
 72
23
 73
19
 74
0
 42
0.0000001
 43
0.0000001
 44
0.0000000001
 40
0.0
 40
0.0
 40
0.0
 40
0.0
 40
0.0638777674
 40
0.1274040049
 40
0.1905938574
 40
0.2534690956
 40
0.3160610349
 40
0.378408388
 40
0.4405566892
 40
0.5025570124
 40
0.5644645969
 40
0.6263373068
 40
0.6882339958
 40
0.7502128372
 40
0.8123296771
 40
0.8746364747
 40
0.9371798803
 40
1.0
 40
1.0
 40
1.0
 40
1.0
 10
9.1796250627
 20
8.2769719675
 30
0.0
 10
9.1796250627
 20
8.2827116
 30
0.0
 10
9.1800824299
 20
8.2941647634
 30
0.0
 10
9.1821498915
 20
8.311183178
 30
0.0
 10
9.1855837929
 20
8.3278887891
 30
0.0
 10
9.1903625114
 20
8.3441730305
 30
0.0
 10
9.1964555978
 20
8.3599316763
 30
0.0
 10
9.2038242141
 20
8.375063383
 30
0.0
 10
9.2124212382
 20
8.3894708954
 30
0.0
 10
9.2221916009
 20
8.403061546
 30
0.0
 10
9.2330726084
 20
8.415747924
 30
0.0
 10
9.2449943717
 20
8.4274484413
 30
0.0
 10
9.2578802498
 20
8.4380878796
 30
0.0
 10
9.2716474053
 20
8.4475978997
 30
0.0
 10
9.2862071888
 20
8.4559174527
 30
0.0
 10
9.3014663625
 20
8.4629933223
 30
0.0
 10
9.3173253585
 20
8.4687799113
 30
0.0
 10
9.3282077464
 20
8.4717473259
 30
0.0
 10
9.3337102128
 20
8.4730060412
 30
0.0
  0
SPLINE
  5
32F
100
AcDbEntity
  8
0
100
AcDbSpline
 62
7
  6
CONTINUOUS
 70
0
 71
3
 72
21
 73
17
 74
0
 42
0.0000001
 43
0.0000001
 44
0.0000000001
 40
0.0
 40
0.0
 40
0.0
 40
0.0
 40
0.1273177382
 40
0.253799893
 40
0.3167619527
 40
0.3795355237
 40
0.4421314869
 40
0.5045621428
 40
0.5668413495
 40
0.6289845239
 40
0.69100845
 40
0.7529310987
 40
0.8147714472
 40
0.8765493323
 40
0.9382852239
 40
1.0
 40
1.0
 40
1.0
 40
1.0
 10
9.2149212632
 20
8.2822462504
 30
0.0
 10
9.2149212632
 20
8.28823646
 30
0.0
 10
9.2154930598
 20
8.3001852771
 30
0.0
 10
9.2176526052
 20
8.3149565959
 30
0.0
 10
9.2202336905
 20
8.3265434079
 30
0.0
 10
9.2225875206
 20
8.3350898485
 30
0.0
 10
9.2253566672
 20
8.3434844205
 30
0.0
 10
9.2285347151
 20
8.3517080249
 30
0.0
 10
9.2321143838
 20
8.3597416256
 30
0.0
 10
9.2360874712
 20
8.3675666868
 30
0.0
 10
9.2404447572
 20
8.3751651891
 30
0.0
 10
9.2451762494
 20
8.382519589
 30
0.0
 10
9.2502710516
 20
8.3896128841
 30
0.0
 10
9.255717417
 20
8.3964288103
 30
0.0
 10
9.2615026147
 20
8.402951401
 30
0.0
 10
9.2655771881
 20
8.407094955
 30
0.0
 10
9.2676656416
 20
8.4091122471
 30
0.0
  0
SPLINE
  5
330
100
AcDbEntity
  8
0
100
AcDbSpline
 62
7
  6
CONTINUOUS
 70
0
 71
3
 72
39
 73
35
 74
0
 42
0.0000001
 43
0.0000001
 44
0.0000000001
 40
0.0
 40
0.0
 40
0.0
 40
0.0
 40
0.0313078652
 40
0.0628116411
 40
0.0945020877
 40
0.1263628544
 40
0.1583723977
 40
0.1905044201
 40
0.2227287676
 40
0.2550124083
 40
0.2873204774
 40
0.3196173581
 40
0.3518677773
 40
0.3840378954
 40
0.4160963699
 40
0.4480153549
 40
0.4797714208
 40
0.5113463775
 40
0.5427279424
 40
0.5739102522
 40
0.6048941912
 40
0.6356874766
 40
0.6663045227
 40
0.6967660506
 40
0.7270984291
 40
0.7573327908
 40
0.787503924
 40
0.8176489912
 40
0.8478061424
 40
0.8780130679
 40
0.9083055853
 40
0.9387163083
 40
0.9692734754
 40
1.0
 40
1.0
 40
1.0
 40
1.0
 10
9.1322835257
 20
8.2529243208
 30
0.0
 10
9.1322835257
 20
8.2456136103
 30
0.0
 10
9.1329640815
 20
8.2309377804
 30
0.0
 10
9.1359948543
 20
8.2090506827
 30
0.0
 10
9.1410122242
 20
8.187397947
 30
0.0
 10
9.1479731009
 20
8.1661663482
 30
0.0
 10
9.1568176594
 20
8.145535925
 30
0.0
 10
9.1674703078
 20
8.125682365
 30
0.0
 10
9.1798401449
 20
8.1067745
 30
0.0
 10
9.1938216715
 20
8.0889731157
 30
0.0
 10
9.209295873
 20
8.0724296662
 30
0.0
 10
9.2261310522
 20
8.057284924
 30
0.0
 10
9.2441839576
 20
8.043667774
 30
0.0
 10
9.2633010946
 20
8.03169429
 30
0.0
 10
9.2833198578
 20
8.0214665723
 30
0.0
 10
9.3040699643
 20
8.0130719515
 30
0.0
 10
9.3253749033
 20
8.0065823731
 30
0.0
 10
9.3470533128
 20
8.0020535388
 30
0.0
 10
9.3689205678
 20
7.9995245819
 30
0.0
 10
9.390790292
 20
7.9990177589
 30
0.0
 10
9.412475908
 20
8.0005379808
 30
0.0
 10
9.4337922321
 20
8.0040729654
 30
0.0
 10
9.4545570135
 20
8.0095932328
 30
0.0
 10
9.4745925611
 20
8.0170521202
 30
0.0
 10
9.49372723
 20
8.0263863823
 30
0.0
 10
9.5117969562
 20
8.0375165432
 30
0.0
 10
9.5286468013
 20
8.050347478
 30
0.0
 10
9.5441322107
 20
8.0647694384
 30
0.0
 10
9.5581204273
 20
8.0806588117
 30
0.0
 10
9.5704917234
 20
8.0978793364
 30
0.0
 10
9.5811402358
 20
8.1162831679
 30
0.0
 10
9.589975296
 20
8.1357131094
 30
0.0
 10
9.5969213291
 20
8.1560001786
 30
0.0
 10
9.600244823
 20
8.1699456095
 30
0.0
 10
9.6015767534
 20
8.1769958602
 30
0.0
  0
SPLINE
  5
331
100
AcDbEntity
  8
0
100
AcDbSpline
 62
7
  6
CONTINUOUS
 70
0
 71
3
 72
39
 73
35
 74
0
 42
0.0000001
 43
0.0000001
 44
0.0000000001
 40
0.0
 40
0.0
 40
0.0
 40
0.0
 40
0.0312928808
 40
0.0627769541
 40
0.0944437654
 40
0.1262780035
 40
0.1582596199
 40
0.1903640343
 40
0.2225629861
 40
0.25482541
 40
0.2871183671
 40
0.3194080233
 40
0.3516606404
 40
0.3838435695
 40
0.4159262188
 40
0.447880977
 40
0.4796840761
 40
0.5113163667
 40
0.5427639724
 40
0.5740188129
 40
0.6050789737
 40
0.6359488761
 40
0.666639246
 40
0.6971668729
 40
0.7275541347
 40
0.7578282977
 40
0.7880206199
 40
0.8181652782
 40
0.8482981577
 40
0.8784555675
 40
0.9086729357
 40
0.938983542
 40
0.9694173535
 40
1.0
 40
1.0
 40
1.0
 40
1.0
 10
9.1796250627
 20
8.2769719675
 30
0.0
 10
9.1796250627
 20
8.2704706499
 30
0.0
 10
9.1802154324
 20
8.2574209526
 30
0.0
 10
9.1828454689
 20
8.2379520965
 30
0.0
 10
9.1872007285
 20
8.2186786934
 30
0.0
 10
9.1932456307
 20
8.1997590177
 30
0.0
 10
9.2009307503
 20
8.1813458592
 30
0.0
 10
9.210193491
 20
8.1635884933
 30
0.0
 10
9.2209585907
 20
8.146630691
 30
0.0
 10
9.2331387021
 20
8.13060981
 30
0.0
 10
9.2466350196
 20
8.1156555719
 30
0.0
 10
9.2613381733
 20
8.1018891145
 30
0.0
 10
9.2771290932
 20
8.0894220402
 30
0.0
 10
9.2938798837
 20
8.0783554391
 30
0.0
 10
9.3114548906
 20
8.0687791152
 30
0.0
 10
9.3297118054
 20
8.0607709245
 30
0.0
 10
9.3485027569
 20
8.054396098
 30
0.0
 10
9.3676754731
 20
8.0497066447
 30
0.0
 10
9.3870745318
 20
8.0467410301
 30
0.0
 10
9.4065425719
 20
8.0455238485
 30
0.0
 10
9.4259215366
 20
8.0460654713
 30
0.0
 10
9.4450539604
 20
8.0483620224
 30
0.0
 10
9.463784219
 20
8.0523954121
 30
0.0
 10
9.4819598004
 20
8.0581333537
 30
0.0
 10
9.4994325865
 20
8.0655295575
 30
0.0
 10
9.5160600573
 20
8.0745241706
 30
0.0
 10
9.531706482
 20
8.0850442056
 30
0.0
 10
9.5462441527
 20
8.0970040217
 30
0.0
 10
9.5595544204
 20
8.1103061222
 30
0.0
 10
9.5715286959
 20
8.1248420427
 30
0.0
 10
9.5820693838
 20
8.1404929622
 30
0.0
 10
9.5910909401
 20
8.1571316424
 30
0.0
 10
9.5985195779
 20
8.1746202285
 30
0.0
 10
9.6023611687
 20
8.1867237857
 30
0.0
 10
9.6039995738
 20
8.192862671
 30
0.0
  0
SPLINE
  5
332
100
AcDbEntity
  8
0
100
AcDbSpline
 62
7
  6
CONTINUOUS
 70
0
 71
3
 72
46
 73
42
 74
0
 42
0.0000001
 43
0.0000001
 44
0.0000000001
 40
0.0
 40
0.0
 40
0.0
 40
0.0
 40
0.0040106275
 40
0.0076717741
 40
0.0110241351
 40
0.0141105357
 40
0.016975822
 40
0.0196659
 40
0.022227411
 40
0.0247062715
 40
0.027145626
 40
0.029584768
 40
0.034584832
 40
0.0399163957
 40
0.0457000821
 40
0.0519950152
 40
0.0588276173
 40
0.0661999355
 40
0.0741042368
 40
0.0825272561
 40
0.0914496349
 40
0.1008547198
 40
0.1107246627
 40
0.1317831915
 40
0.1545012197
 40
0.1787640532
 40
0.2044819368
 40
0.2315755082
 40
0.2599866423
 40
0.289664755
 40
0.3205775579
 40
0.3860155756
 40
0.4562401062
 40
0.5313613245
 40
0.6116807812
 40
0.6977365054
 40
0.7903727529
 40
0.8395193834
 40
0.8907755639
 40
0.9442766254
 40
1.0
 40
1.0
 40
1.0
 40
1.0
 10
10.9103353683
 20
8.137004949
 30
0.0
 10
10.9101536014
 20
8.13705242
 30
0.0
 10
10.909808782
 20
8.1371549779
 30
0.0
 10
10.9093264994
 20
8.1373411634
 30
0.0
 10
10.9089015042
 20
8.1375506225
 30
0.0
 10
10.9085311765
 20
8.1377819107
 30
0.0
 10
10.9082128763
 20
8.1380334453
 30
0.0
 10
10.9079443111
 20
8.1383039572
 30
0.0
 10
10.9077234554
 20
8.1385922061
 30
0.0
 10
10.9075481735
 20
8.13889673
 30
0.0
 10
10.9074162774
 20
8.1392161741
 30
0.0
 10
10.9072948048
 20
8.1396637914
 30
0.0
 10
10.9072439197
 20
8.1402651357
 30
0.0
 10
10.9073285978
 20
8.1410188389
 30
0.0
 10
10.9075433311
 20
8.1418081702
 30
0.0
 10
10.9078762768
 20
8.1426307742
 30
0.0
 10
10.9083189606
 20
8.1434841388
 30
0.0
 10
10.9088633346
 20
8.1443660455
 30
0.0
 10
10.9095028815
 20
8.1452741168
 30
0.0
 10
10.9102317324
 20
8.1462061013
 30
0.0
 10
10.9110443463
 20
8.1471603089
 30
0.0
 10
10.9119361696
 20
8.1481348986
 30
0.0
 10
10.9132540059
 20
8.1494890014
 30
0.0
 10
10.9150787597
 20
8.1512182002
 30
0.0
 10
10.9174808201
 20
8.1533138193
 30
0.0
 10
10.9201199131
 20
8.1554667064
 30
0.0
 10
10.9229792407
 20
8.1576714676
 30
0.0
 10
10.9260450164
 20
8.1599249209
 30
0.0
 10
10.9293063275
 20
8.1622241392
 30
0.0
 10
10.9327543518
 20
8.1645678666
 30
0.0
 10
10.9376862959
 20
8.1678125441
 30
0.0
 10
10.9442909604
 20
8.1719685698
 30
0.0
 10
10.952758372
 20
8.1770477951
 30
0.0
 10
10.9619188909
 20
8.1823232315
 30
0.0
 10
10.9718070037
 20
8.1878183267
 30
0.0
 10
10.9824911265
 20
8.1935676147
 30
0.0
 10
10.9919524127
 20
8.1985060606
 30
0.0
 10
11.0000071172
 20
8.2026151368
 30
0.0
 10
11.0064506571
 20
8.2058481701
 30
0.0
 10
11.0131939802
 20
8.209170223
 30
0.0
 10
11.0178024573
 20
8.2113925355
 30
0.0
 10
11.0201592977
 20
8.2125142547
 30
0.0
  0
SPLINE
  5
333
100
AcDbEntity
  8
0
100
AcDbSpline
 62
7
  6
CONTINUOUS
 70
0
 71
3
 72
26
 73
22
 74
0
 42
0.0000001
 43
0.0000001
 44
0.0000000001
 40
0.0
 40
0.0
 40
0.0
 40
0.0
 40
0.0134861422
 40
0.0274175984
 40
0.0419046026
 40
0.0570390083
 40
0.0895411573
 40
0.1070620019
 40
0.125495702
 40
0.1652960529
 40
0.2093389201
 40
0.257999426
 40
0.3116758148
 40
0.3708246547
 40
0.4359681691
 40
0.5077444793
 40
0.58692053
 40
0.6744376708
 40
0.7714584823
 40
0.879409499
 40
1.0
 40
1.0
 40
1.0
 40
1.0
 10
11.4292237566
 20
8.0006127448
 30
0.0
 10
11.4294422228
 20
8.0005553111
 30
0.0
 10
11.4298930882
 20
8.0004628814
 30
0.0
 10
11.4305924182
 20
8.0003919393
 30
0.0
 10
11.4313228831
 20
8.0003858463
 30
0.0
 10
11.4323614228
 20
8.0004648605
 30
0.0
 10
11.4334367122
 20
8.0006750565
 30
0.0
 10
11.4345373527
 20
8.000997794
 30
0.0
 10
11.4357331366
 20
8.0014242693
 30
0.0
 10
11.4372979028
 20
8.0021287795
 30
0.0
 10
11.4392359174
 20
8.0032150789
 30
0.0
 10
11.4412799826
 20
8.0045727467
 30
0.0
 10
11.4434315529
 20
8.0062147225
 30
0.0
 10
11.4456934203
 20
8.008158638
 30
0.0
 10
11.4480707712
 20
8.0104262859
 30
0.0
 10
11.4505703959
 20
8.0130457948
 30
0.0
 10
11.4532021328
 20
8.016052024
 30
0.0
 10
11.4559788262
 20
8.0194886635
 30
0.0
 10
11.4589170396
 20
8.0234101759
 30
0.0
 10
11.4620372967
 20
8.0278834733
 30
0.0
 10
11.4641274284
 20
8.0310913345
 30
0.0
 10
11.4652065882
 20
8.0327987469
 30
0.0
  0
SPLINE
  5
334
100
AcDbEntity
  8
0
100
AcDbSpline
 62
7
  6
CONTINUOUS
 70
0
 71
3
 72
43
 73
39
 74
0
 42
0.0000001
 43
0.0000001
 44
0.0000000001
 40
0.0
 40
0.0
 40
0.0
 40
0.0
 40
0.0310745218
 40
0.0466739617
 40
0.0623117346
 40
0.0936962008
 40
0.1252246462
 40
0.156885682
 40
0.1886651184
 40
0.2205463529
 40
0.2525107094
 40
0.2845378393
 40
0.316606137
 40
0.3486931771
 40
0.3807761618
 40
0.4128323741
 40
0.4448396288
 40
0.4767767175
 40
0.508623839
 40
0.5403630095
 40
0.5719784455
 40
0.6034569128
 40
0.6347880329
 40
0.6659645409
 40
0.6969824853
 40
0.7278413639
 40
0.7585441875
 40
0.7890974671
 40
0.8195111175
 40
0.8497982781
 40
0.8649022316
 40
0.8799808239
 40
0.9100659163
 40
0.9400802375
 40
0.9550708207
 40
0.9700522994
 40
0.9850276796
 40
1.0
 40
1.0
 40
1.0
 40
1.0
 10
9.2149212632
 20
8.2822462504
 30
0.0
 10
9.2149212632
 20
8.277590375
 30
0.0
 10
9.2151815189
 20
8.2705937311
 30
0.0
 10
9.2160410373
 20
8.2612957862
 30
0.0
 10
9.2172453913
 20
8.2519889334
 30
0.0
 10
9.2193923105
 20
8.240405879
 30
0.0
 10
9.2229733515
 20
8.2266836399
 30
0.0
 10
9.2275426878
 20
8.2131953989
 30
0.0
 10
9.2330750697
 20
8.2000156414
 30
0.0
 10
9.2395400406
 20
8.187216574
 30
0.0
 10
9.2469020328
 20
8.1748684607
 30
0.0
 10
9.2551205789
 20
8.1630390465
 30
0.0
 10
9.2641505299
 20
8.1517932427
 30
0.0
 10
9.2739423011
 20
8.1411927609
 30
0.0
 10
9.2844421425
 20
8.1312957816
 30
0.0
 10
9.2955924303
 20
8.1221566375
 30
0.0
 10
9.3073319804
 20
8.1138255182
 30
0.0
 10
9.3195963799
 20
8.1063481967
 30
0.0
 10
9.3323183366
 20
8.0997657804
 30
0.0
 10
9.3454280434
 20
8.094114486
 30
0.0
 10
9.3588535564
 20
8.0894254413
 30
0.0
 10
9.3725211843
 20
8.0857245132
 30
0.0
 10
9.3863558863
 20
8.0830321641
 30
0.0
 10
9.4002816804
 20
8.0813633361
 30
0.0
 10
9.4142220501
 20
8.0807273626
 30
0.0
 10
9.4281003755
 20
8.0811279176
 30
0.0
 10
9.4418402942
 20
8.0825629611
 30
0.0
 10
9.4553663281
 20
8.0850248388
 30
0.0
 10
9.4686035236
 20
8.0884999536
 30
0.0
 10
9.4793449435
 20
8.0922287423
 30
0.0
 10
9.4877173814
 20
8.095696379
 30
0.0
 10
9.4959203206
 20
8.0994761525
 30
0.0
 10
9.5058664217
 20
8.1047891465
 30
0.0
 10
9.5153514096
 20
8.1108633025
 30
0.0
 10
9.5226203576
 20
8.1161526101
 30
0.0
 10
9.5279057299
 20
8.1203290667
 30
0.0
 10
9.5330189009
 20
8.1247101397
 30
0.0
 10
9.5363085551
 20
8.1277637172
 30
0.0
 10
9.5379220535
 20
8.1293222378
 30
0.0
  0
SPLINE
  5
335
100
AcDbEntity
  8
0
100
AcDbSpline
 62
7
  6
CONTINUOUS
 70
0
 71
3
 72
23
 73
19
 74
0
 42
0.0000001
 43
0.0000001
 44
0.0000000001
 40
0.0
 40
0.0
 40
0.0
 40
0.0
 40
0.0637767638
 40
0.1273450118
 40
0.1907019674
 40
0.2538561101
 40
0.3168132145
 40
0.3795820843
 40
0.4421733868
 40
0.5045993403
 40
0.5668738673
 40
0.6290123789
 40
0.6910316481
 40
0.752949645
 40
0.8147853545
 40
0.8765586015
 40
0.9382898522
 40
1.0
 40
1.0
 40
1.0
 40
1.0
 10
11.3369374306
 20
8.4836226126
 30
0.0
 10
11.3369374306
 20
8.4882049336
 30
0.0
 10
11.3371567722
 20
8.4973561462
 30
0.0
 10
11.3381467001
 20
8.5110272837
 30
0.0
 10
11.3397949704
 20
8.5245900694
 30
0.0
 10
11.3420976125
 20
8.5380126225
 30
0.0
 10
11.3450494985
 20
8.5512642803
 30
0.0
 10
11.3486437922
 20
8.5643144089
 30
0.0
 10
11.3528722246
 20
8.5771329427
 30
0.0
 10
11.3577250964
 20
8.5896903197
 30
0.0
 10
11.3631912646
 20
8.6019575655
 30
0.0
 10
11.3692581221
 20
8.6139063969
 30
0.0
 10
11.3759116905
 20
8.6255092542
 30
0.0
 10
11.3831366601
 20
8.6367393713
 30
0.0
 10
11.3909163803
 20
8.6475707993
 30
0.0
 10
11.3992329816
 20
8.6579786507
 30
0.0
 10
11.4080669494
 20
8.6679386002
 30
0.0
 10
11.4142887832
 20
8.6742657973
 30
0.0
 10
11.4174778414
 20
8.6773461884
 30
0.0
  0
SPLINE
  5
336
100
AcDbEntity
  8
0
100
AcDbSpline
 62
7
  6
CONTINUOUS
 70
0
 71
3
 72
71
 73
67
 74
0
 42
0.0000001
 43
0.0000001
 44
0.0000000001
 40
0.0
 40
0.0
 40
0.0
 40
0.0
 40
0.0155843069
 40
0.0311159038
 40
0.0465952632
 40
0.0620238805
 40
0.077403449
 40
0.0927362827
 40
0.1080251225
 40
0.1232731731
 40
0.1384840552
 40
0.1536617763
 40
0.1688106901
 40
0.1839354535
 40
0.1990409788
 40
0.2141323827
 40
0.2292149324
 40
0.2442939898
 40
0.259374954
 40
0.2744632038
 40
0.2895640402
 40
0.3046826299
 40
0.3198239506
 40
0.3349927394
 40
0.3501934439
 40
0.3654301775
 40
0.3807066787
 40
0.3960262758
 40
0.4113918556
 40
0.4268058385
 40
0.4422701584
 40
0.4577862477
 40
0.4733550287
 40
0.4889769093
 40
0.5046517847
 40
0.520379043
 40
0.5361575765
 40
0.5519857969
 40
0.5678616545
 40
0.5837826615
 40
0.5997459177
 40
0.6157481411
 40
0.6317856992
 40
0.6478546443
 40
0.6639507502
 40
0.6800695513
 40
0.6962063822
 40
0.7123564202
 40
0.7285147273
 40
0.7446762933
 40
0.7608360801
 40
0.7769890646
 40
0.7931302832
 40
0.8092548748
 40
0.8253581236
 40
0.841435501
 40
0.8574827062
 40
0.8734957057
 40
0.889470771
 40
0.9054045125
 40
0.9212939181
 40
0.9371363645
 40
0.9529297054
 40
0.9686721205
 40
0.9843625712
 40
1.0
 40
1.0
 40
1.0
 40
1.0
 10
11.1794915917
 20
8.4945415186
 30
0.0
 10
11.1794915917
 20
8.4855332006
 30
0.0
 10
11.1790507551
 20
8.4675438379
 30
0.0
 10
11.1770607147
 20
8.4406730922
 30
0.0
 10
11.173747635
 20
8.4140231189
 30
0.0
 10
11.1691195454
 20
8.3876590798
 30
0.0
 10
11.1631874494
 20
8.3616442131
 30
0.0
 10
11.1559656262
 20
8.3360413226
 30
0.0
 10
11.1474713981
 20
8.3109121085
 30
0.0
 10
11.1377251915
 20
8.2863171727
 30
0.0
 10
11.1267504447
 20
8.2623158289
 30
0.0
 10
11.1145735705
 20
8.2389659691
 30
0.0
 10
11.1012238871
 20
8.2163239197
 30
0.0
 10
11.0867335517
 20
8.1944443043
 30
0.0
 10
11.0711374839
 20
8.1733799079
 30
0.0
 10
11.0544732789
 20
8.1531815496
 30
0.0
 10
11.0367811164
 20
8.133897958
 30
0.0
 10
11.0181036636
 20
8.115575652
 30
0.0
 10
10.9984859704
 20
8.0982588265
 30
0.0
 10
10.9779753602
 20
8.0819892449
 30
0.0
 10
10.9566213136
 20
8.0668061369
 30
0.0
 10
10.9344753476
 20
8.0527461036
 30
0.0
 10
10.9115908889
 20
8.0398430281
 30
0.0
 10
10.8880231437
 20
8.0281279951
 30
0.0
 10
10.8638289637
 20
8.0176292123
 30
0.0
 10
10.8390667059
 20
8.008371945
 30
0.0
 10
10.8137960897
 20
8.0003784576
 30
0.0
 10
10.7880780515
 20
7.9936679609
 30
0.0
 10
10.761974597
 20
7.9882565678
 30
0.0
 10
10.7355486507
 20
7.9841572556
 30
0.0
 10
10.7088639041
 20
7.9813798369
 30
0.0
 10
10.6819846616
 20
7.9799309374
 30
0.0
 10
10.6549756862
 20
7.9798139817
 30
0.0
 10
10.6279020437
 20
7.9810291866
 30
0.0
 10
10.6008289463
 20
7.983573562
 30
0.0
 10
10.5738215958
 20
7.9874409153
 30
0.0
 10
10.5469450274
 20
7.9926218719
 30
0.0
 10
10.5202639536
 20
7.9991038981
 30
0.0
 10
10.4938426099
 20
8.0068713325
 30
0.0
 10
10.4677446007
 20
8.0159054245
 30
0.0
 10
10.4420327474
 20
8.0261843792
 30
0.0
 10
10.4167689383
 20
8.0376834109
 30
0.0
 10
10.3920139808
 20
8.0503748027
 30
0.0
 10
10.3678274555
 20
8.0642279728
 30
0.0
 10
10.3442675743
 20
8.0792095488
 30
0.0
 10
10.3213910402
 20
8.0952834462
 30
0.0
 10
10.29925291
 20
8.1124109541
 30
0.0
 10
10.2779064644
 20
8.130550831
 30
0.0
 10
10.2574030806
 20
8.149659403
 30
0.0
 10
10.2377921087
 20
8.1696906693
 30
0.0
 10
10.219120754
 20
8.1905964115
 30
0.0
 10
10.2014339638
 20
8.2123263098
 30
0.0
 10
10.1847743197
 20
8.2348280632
 30
0.0
 10
10.1691819358
 20
8.2580475146
 30
0.0
 10
10.1546943619
 20
8.2819287806
 30
0.0
 10
10.1413464945
 20
8.3064143854
 30
0.0
 10
10.1291704895
 20
8.3314453967
 30
0.0
 10
10.1181956858
 20
8.3569615683
 30
0.0
 10
10.1084485381
 20
8.3829014842
 30
0.0
 10
10.099952547
 20
8.4092027082
 30
0.0
 10
10.0927282191
 20
8.4358019216
 30
0.0
 10
10.0867929742
 20
8.4626351194
 30
0.0
 10
10.0821612017
 20
8.4896376038
 30
0.0
 10
10.0788440295
 20
8.5167446689
 30
0.0
 10
10.0768496163
 20
8.5438900834
 30
0.0
 10
10.0764042677
 20
8.5620018599
 30
0.0
 10
10.0764042677
 20
8.5710408844
 30
0.0
  0
SPLINE
  5
337
100
AcDbEntity
  8
0
100
AcDbSpline
 62
7
  6
CONTINUOUS
 70
0
 71
3
 72
27
 73
23
 74
0
 42
0.0000001
 43
0.0000001
 44
0.0000000001
 40
0.0
 40
0.0
 40
0.0
 40
0.0
 40
0.0636452235
 40
0.1273701209
 40
0.1911164907
 40
0.2548230049
 40
0.318430532
 40
0.3818822915
 40
0.4451257126
 40
0.5081138361
 40
0.5708066543
 40
0.6331723026
 40
0.6642318382
 40
0.6952018916
 40
0.7260811822
 40
0.7568690869
 40
0.8181573025
 40
0.8790890754
 40
0.9094342454
 40
0.939698366
 40
0.9698854169
 40
1.0
 40
1.0
 40
1.0
 40
1.0
 10
9.4147037144
 20
8.2287430945
 30
0.0
 10
9.4103394385
 20
8.2318267253
 30
0.0
 10
9.4018496654
 20
8.2383520439
 30
0.0
 10
9.389937666
 20
8.2491276916
 30
0.0
 10
9.3789193483
 20
8.2608241
 30
0.0
 10
9.3688764398
 20
8.2733550513
 30
0.0
 10
9.3598821632
 20
8.2866290386
 30
0.0
 10
9.3520024931
 20
8.3005489889
 30
0.0
 10
9.3452951767
 20
8.3150130644
 30
0.0
 10
9.3398094354
 20
8.3299156832
 30
0.0
 10
9.3355857077
 20
8.3451470972
 30
0.0
 10
9.3331398449
 20
8.3580417553
 30
0.0
 10
9.3318436466
 20
8.3684080049
 30
0.0
 10
9.3312030558
 20
8.3761848494
 30
0.0
 10
9.3308942093
 20
8.3839591187
 30
0.0
 10
9.3309252542
 20
8.3942852208
 30
0.0
 10
9.3317911671
 20
8.407119814
 30
0.0
 10
9.3337635316
 20
8.4197943689
 30
0.0
 10
9.3359955871
 20
8.4297548896
 30
0.0
 10
9.3379904631
 20
8.4371153887
 30
0.0
 10
9.3403046222
 20
8.4443612209
 30
0.0
 10
9.3420595416
 20
8.4491125129
 30
0.0
 10
9.3429886899
 20
8.4514640718
 30
0.0
  0
SPLINE
  5
338
100
AcDbEntity
  8
0
100
AcDbSpline
 62
7
  6
CONTINUOUS
 70
0
 71
3
 72
23
 73
19
 74
0
 42
0.0000001
 43
0.0000001
 44
0.0000000001
 40
0.0
 40
0.0
 40
0.0
 40
0.0
 40
0.0637767638
 40
0.1273450118
 40
0.1907019674
 40
0.2538561101
 40
0.3168132145
 40
0.3795820843
 40
0.4421733868
 40
0.5045993403
 40
0.5668738673
 40
0.6290123789
 40
0.6910316481
 40
0.752949645
 40
0.8147853545
 40
0.8765586015
 40
0.9382898522
 40
1.0
 40
1.0
 40
1.0
 40
1.0
 10
9.8880487204
 20
9.4292885052
 30
0.0
 10
9.8880487204
 20
9.4338708262
 30
0.0
 10
9.8882680621
 20
9.4430220388
 30
0.0
 10
9.88925799
 20
9.4566931764
 30
0.0
 10
9.8909062603
 20
9.4702559621
 30
0.0
 10
9.8932089024
 20
9.4836785151
 30
0.0
 10
9.8961607883
 20
9.4969301729
 30
0.0
 10
9.8997550821
 20
9.5099803015
 30
0.0
 10
9.9039835145
 20
9.5227988353
 30
0.0
 10
9.9088363863
 20
9.5353562123
 30
0.0
 10
9.9143025545
 20
9.5476234581
 30
0.0
 10
9.9203694119
 20
9.5595722895
 30
0.0
 10
9.9270229803
 20
9.5711751468
 30
0.0
 10
9.93424795
 20
9.5824052639
 30
0.0
 10
9.9420276701
 20
9.5932366919
 30
0.0
 10
9.9503442714
 20
9.6036445433
 30
0.0
 10
9.9591782392
 20
9.6136044928
 30
0.0
 10
9.9654000731
 20
9.6199316899
 30
0.0
 10
9.9685891312
 20
9.623012081
 30
0.0
  0
SPLINE
  5
339
100
AcDbEntity
  8
0
100
AcDbSpline
 62
7
  6
CONTINUOUS
 70
0
 71
3
 72
71
 73
67
 74
0
 42
0.0000001
 43
0.0000001
 44
0.0000000001
 40
0.0
 40
0.0
 40
0.0
 40
0.0
 40
0.0155843069
 40
0.0311159038
 40
0.0465952632
 40
0.0620238805
 40
0.077403449
 40
0.0927362827
 40
0.1080251225
 40
0.1232731731
 40
0.1384840552
 40
0.1536617763
 40
0.1688106901
 40
0.1839354535
 40
0.1990409788
 40
0.2141323827
 40
0.2292149324
 40
0.2442939898
 40
0.259374954
 40
0.2744632038
 40
0.2895640402
 40
0.3046826299
 40
0.3198239506
 40
0.3349927394
 40
0.3501934439
 40
0.3654301775
 40
0.3807066787
 40
0.3960262758
 40
0.4113918556
 40
0.4268058385
 40
0.4422701584
 40
0.4577862477
 40
0.4733550287
 40
0.4889769093
 40
0.5046517847
 40
0.520379043
 40
0.5361575765
 40
0.5519857969
 40
0.5678616545
 40
0.5837826615
 40
0.5997459177
 40
0.6157481411
 40
0.6317856992
 40
0.6478546443
 40
0.6639507502
 40
0.6800695513
 40
0.6962063822
 40
0.7123564202
 40
0.7285147273
 40
0.7446762933
 40
0.7608360801
 40
0.7769890646
 40
0.7931302832
 40
0.8092548748
 40
0.8253581236
 40
0.841435501
 40
0.8574827062
 40
0.8734957057
 40
0.889470771
 40
0.9054045125
 40
0.9212939181
 40
0.9371363645
 40
0.9529297054
 40
0.9686721205
 40
0.9843625712
 40
1.0
 40
1.0
 40
1.0
 40
1.0
 10
10.9824427115
 20
7.5422809062
 30
0.0
 10
10.9824427115
 20
7.5512892243
 30
0.0
 10
10.9828835481
 20
7.569278587
 30
0.0
 10
10.9848735885
 20
7.5961493327
 30
0.0
 10
10.9881866682
 20
7.622799306
 30
0.0
 10
10.9928147578
 20
7.6491633451
 30
0.0
 10
10.9987468538
 20
7.6751782117
 30
0.0
 10
11.0059686769
 20
7.7007811022
 30
0.0
 10
11.014462905
 20
7.7259103164
 30
0.0
 10
11.0242091117
 20
7.7505052522
 30
0.0
 10
11.0351838585
 20
7.7745065959
 30
0.0
 10
11.0473607327
 20
7.7978564558
 30
0.0
 10
11.0607104161
 20
7.8204985051
 30
0.0
 10
11.0752007515
 20
7.8423781205
 30
0.0
 10
11.0907968193
 20
7.863442517
 30
0.0
 10
11.1074610243
 20
7.8836408753
 30
0.0
 10
11.1251531867
 20
7.9029244669
 30
0.0
 10
11.1438306396
 20
7.9212467729
 30
0.0
 10
11.1634483328
 20
7.9385635984
 30
0.0
 10
11.1839589429
 20
7.95483318
 30
0.0
 10
11.2053129895
 20
7.9700162879
 30
0.0
 10
11.2274589556
 20
7.9840763213
 30
0.0
 10
11.2503434143
 20
7.9969793967
 30
0.0
 10
11.2739111594
 20
8.0086944298
 30
0.0
 10
11.2981053395
 20
8.0191932125
 30
0.0
 10
11.3228675973
 20
8.0284504798
 30
0.0
 10
11.3481382135
 20
8.0364439673
 30
0.0
 10
11.3738562516
 20
8.0431544639
 30
0.0
 10
11.3999597061
 20
8.048565857
 30
0.0
 10
11.4263856524
 20
8.0526651692
 30
0.0
 10
11.4530703991
 20
8.0554425879
 30
0.0
 10
11.4799496416
 20
8.0568914875
 30
0.0
 10
11.506958617
 20
8.0570084432
 30
0.0
 10
11.5340322595
 20
8.0557932383
 30
0.0
 10
11.5611053569
 20
8.0532488629
 30
0.0
 10
11.5881127074
 20
8.0493815095
 30
0.0
 10
11.6149892758
 20
8.044200553
 30
0.0
 10
11.6416703495
 20
8.0377185268
 30
0.0
 10
11.6680916932
 20
8.0299510923
 30
0.0
 10
11.6941897025
 20
8.0209170004
 30
0.0
 10
11.7199015558
 20
8.0106380457
 30
0.0
 10
11.7451653649
 20
7.9991390139
 30
0.0
 10
11.7699203224
 20
7.9864476222
 30
0.0
 10
11.7941068477
 20
7.9725944521
 30
0.0
 10
11.8176667288
 20
7.9576128761
 30
0.0
 10
11.8405432629
 20
7.9415389786
 30
0.0
 10
11.8626813932
 20
7.9244114707
 30
0.0
 10
11.8840278387
 20
7.9062715939
 30
0.0
 10
11.9045312226
 20
7.8871630218
 30
0.0
 10
11.9241421945
 20
7.8671317556
 30
0.0
 10
11.9428135492
 20
7.8462260134
 30
0.0
 10
11.9605003394
 20
7.824496115
 30
0.0
 10
11.9771599834
 20
7.8019943617
 30
0.0
 10
11.9927523674
 20
7.7787749103
 30
0.0
 10
12.0072399413
 20
7.7548936443
 30
0.0
 10
12.0205878087
 20
7.7304080395
 30
0.0
 10
12.0327638137
 20
7.7053770281
 30
0.0
 10
12.0437386174
 20
7.6798608565
 30
0.0
 10
12.053485765
 20
7.6539209406
 30
0.0
 10
12.0619817561
 20
7.6276197166
 30
0.0
 10
12.069206084
 20
7.6010205032
 30
0.0
 10
12.0751413289
 20
7.5741873055
 30
0.0
 10
12.0797731015
 20
7.547184821
 30
0.0
 10
12.0830902737
 20
7.520077756
 30
0.0
 10
12.0850846868
 20
7.4929323414
 30
0.0
 10
12.0855300354
 20
7.474820565
 30
0.0
 10
12.0855300354
 20
7.4657815405
 30
0.0
  0
SPLINE
  5
33A
100
AcDbEntity
  8
0
100
AcDbSpline
 62
7
  6
CONTINUOUS
 70
0
 71
3
 72
23
 73
19
 74
0
 42
0.0000001
 43
0.0000001
 44
0.0000000001
 40
0.0
 40
0.0
 40
0.0
 40
0.0
 40
0.0637767638
 40
0.1273450118
 40
0.1907019674
 40
0.2538561101
 40
0.3168132145
 40
0.3795820843
 40
0.4421733868
 40
0.5045993403
 40
0.5668738673
 40
0.6290123789
 40
0.6910316481
 40
0.752949645
 40
0.8147853545
 40
0.8765586015
 40
0.9382898522
 40
1.0
 40
1.0
 40
1.0
 40
1.0
 10
9.8880487204
 20
6.9545865006
 30
0.0
 10
9.8880487204
 20
6.9591688216
 30
0.0
 10
9.8882680621
 20
6.9683200342
 30
0.0
 10
9.88925799
 20
6.9819911717
 30
0.0
 10
9.8909062603
 20
6.9955539574
 30
0.0
 10
9.8932089024
 20
7.0089765104
 30
0.0
 10
9.8961607883
 20
7.0222281682
 30
0.0
 10
9.8997550821
 20
7.0352782968
 30
0.0
 10
9.9039835145
 20
7.0480968307
 30
0.0
 10
9.9088363863
 20
7.0606542076
 30
0.0
 10
9.9143025545
 20
7.0729214534
 30
0.0
 10
9.9203694119
 20
7.0848702848
 30
0.0
 10
9.9270229803
 20
7.0964731422
 30
0.0
 10
9.93424795
 20
7.1077032593
 30
0.0
 10
9.9420276701
 20
7.1185346872
 30
0.0
 10
9.9503442714
 20
7.1289425386
 30
0.0
 10
9.9591782392
 20
7.1389024881
 30
0.0
 10
9.9654000731
 20
7.1452296853
 30
0.0
 10
9.9685891312
 20
7.1483100763
 30
0.0
  0
SPLINE
  5
33B
100
AcDbEntity
  8
0
100
AcDbSpline
 62
7
  6
CONTINUOUS
 70
0
 71
3
 72
41
 73
37
 74
0
 42
0.0000001
 43
0.0000001
 44
0.0000000001
 40
0.0
 40
0.0
 40
0.0
 40
0.0
 40
0.0149724862
 40
0.0299480307
 40
0.0449296746
 40
0.0599204222
 40
0.0899350731
 40
0.1200204959
 40
0.1501975964
 40
0.1804850878
 40
0.2108990702
 40
0.2414526838
 40
0.2721558423
 40
0.303015057
 40
0.3340333403
 40
0.3652101893
 40
0.3965416515
 40
0.4280204628
 40
0.4596362457
 40
0.4913757643
 40
0.5232232351
 40
0.5551606749
 40
0.587168282
 40
0.6192248472
 40
0.6513081855
 40
0.6833955794
 40
0.7154642309
 40
0.7474917144
 40
0.779456424
 40
0.8113380097
 40
0.8431177978
 40
0.8747791805
 40
0.9063079772
 40
0.937692809
 40
0.9689250164
 40
1.0
 40
1.0
 40
1.0
 40
1.0
 10
9.6479317598
 20
7.9311015475
 30
0.0
 10
9.6445015203
 20
7.9277881792
 30
0.0
 10
9.6375078188
 20
7.9212963809
 30
0.0
 10
9.6266374614
 20
7.9119822835
 30
0.0
 10
9.615400914
 20
7.903103278
 30
0.0
 10
9.5999475206
 20
7.8918583133
 30
0.0
 10
9.5797822198
 20
7.8789445875
 30
0.0
 10
9.5543928818
 20
7.8653817512
 30
0.0
 10
9.5279377504
 20
7.8538169988
 30
0.0
 10
9.5005636445
 20
7.8443145187
 30
0.0
 10
9.4724211819
 20
7.8369261629
 30
0.0
 10
9.4436654698
 20
7.8316923183
 30
0.0
 10
9.4144548224
 20
7.8286413709
 30
0.0
 10
9.3849499808
 20
7.8277897306
 30
0.0
 10
9.3553132139
 20
7.8291417355
 30
0.0
 10
9.3257074356
 20
7.8326895594
 30
0.0
 10
9.2962953082
 20
7.8384133405
 30
0.0
 10
9.2672383706
 20
7.8462813313
 30
0.0
 10
9.2386961653
 20
7.856250052
 30
0.0
 10
9.210825348
 20
7.8682644758
 30
0.0
 10
9.1837788653
 20
7.882258424
 30
0.0
 10
9.1577051391
 20
7.8981549286
 30
0.0
 10
9.1327472314
 20
7.915866592
 30
0.0
 10
9.1090420655
 20
7.9352960793
 30
0.0
 10
9.0867197199
 20
7.9563366966
 30
0.0
 10
9.065902726
 20
7.9788729582
 30
0.0
 10
9.0467053353
 20
8.0027811529
 30
0.0
 10
9.0292329514
 20
8.0279300759
 30
0.0
 10
9.0135815764
 20
8.0541817448
 30
0.0
 10
8.9998372605
 20
8.0813921272
 30
0.0
 10
8.9880755833
 20
8.1094118853
 30
0.0
 10
8.9783613181
 20
8.1380872953
 30
0.0
 10
8.9707480648
 20
8.1672608272
 30
0.0
 10
8.9652779519
 20
8.1967728288
 30
0.0
 10
8.9619812051
 20
8.2264591465
 30
0.0
 10
8.9612428115
 20
8.2463133931
 30
0.0
 10
8.9612428115
 20
8.2562116678
 30
0.0
  0
ENDSEC
  0
SECTION
  2
OBJECTS
  0
DICTIONARY
  5
C
100
AcDbDictionary
280
0
281
1
  3
ACAD_GROUP
350
D
  3
ACAD_MLINESTYLE
350
17
  3
ACAD_LAYOUT
350
1A
  3
ACAD_PLOTSETTINGS
350
19
  3
ACAD_PLOTSTYLENAME
350
E
  3
ACAD_IMAGE_DICT
350
       33D
  3
ACAD_IMAGE_VARS
350
       33E
  3
ACAD_TABLESTYLE
350
       33F
  0
IMAGEDEF_REACTOR
  5
33C
100
AcDbRasterImageDefReactor
 90
2
330
296
  0
DICTIONARY
  5
D
102
{ACAD_REACTORS
330
C
102
}
100
AcDbDictionary
280
0
281
1
  0
ACDBDICTIONARYWDFLT
  5
E
102
{ACAD_REACTORS
330
C
102
}
100
AcDbDictionary
281
1
  3
Normal
350
F
100
AcDbDictionaryWithDefault
340
F
  0
DICTIONARY
  5
33D
330
C
100
AcDbDictionary
281
1
  3
XYS_assy_2_img_1
350
       342
  0
RASTERVARIABLES
  5
33E
330
C
100
AcDbRasterVariables
 90
0
 70
0
 71
1
 72
5
  0
DICTIONARY
  5
17
102
{ACAD_REACTORS
330
C
102
}
100
AcDbDictionary
280
0
281
1
  3
Standard
350
18
  0
DICTIONARY
  5
33F
330
C
100
AcDbDictionary
281
1
  3
Standard
350
       343
  3
Standard1
350
       344
  0
DICTIONARY
  5
19
102
{ACAD_REACTORS
330
C
102
}
100
AcDbDictionary
281
1
  0
DICTIONARY
  5
1A
102
{ACAD_REACTORS
330
C
102
}
100
AcDbDictionary
281
1
  3
Model
350
340
  3
Layout1
350
341
  0
ACDBPLACEHOLDER
  5
F
102
{ACAD_REACTORS
330
E
102
}
  0
MLINESTYLE
  5
18
102
{ACAD_REACTORS
330
17
102
}
100
AcDbMlineStyle
  2
STANDARD
 70
0
  3

 62
256
 51
90.0
 52
90.0
 71
2
 49
0.5
 62
256
  6
BYLAYER
 49
-0.5
 62
256
  6
BYLAYER
  0
LAYOUT
  5
340
102
{ACAD_REACTORS
330
1A
102
}
100
AcDbPlotSettings
  1

  2
none_device
  4
ANSI_C_(22.00_x_17.00_Inches)
  6

 40
0.0
 41
0.0
 42
0.0
 43
0.0
 44
558.8
 45
431.8
 46
0.0
 47
0.0
 48
0.0
 49
0.0
140
0.0
141
0.0
142
1.0
143
1.0
 70
1024
 72
0
 73
0
 74
0
  7

 75
0
147
1.0
148
0.0
149
0.0
100
AcDbLayout
  1
Model
 70
0
 71
0
 10
0.0
 20
0.0
 11
22.0
 21
17.0
 12
0.0
 22
0.0
 32
0.0
 14
0.0
 24
0.0
 34
0.0
 15
0.0
 25
0.0
 35
0.0
146
0.0
 13
0.0
 23
0.0
 33
0.0
 16
1.0
 26
0.0
 36
0.0
 17
0.0
 27
1.0
 37
0.0
 76
0
330
20F
345
0
346
0
  0
LAYOUT
  5
341
102
{ACAD_REACTORS
330
1A
102
}
100
AcDbPlotSettings
  1

  2
none_device
  4
ANSI_C_(22.00_x_17.00_Inches)
  6

 40
0.0
 41
0.0
 42
0.0
 43
0.0
 44
558.8
 45
431.8
 46
0.0
 47
0.0
 48
0.0
 49
0.0
140
0.0
141
0.0
142
1.0
143
1.0
 70
0
 72
0
 73
0
 74
0
  7

 75
0
147
1.0
148
0.0
149
0.0
100
AcDbLayout
  1
Layout1
 70
0
 71
1
 10
0.0
 20
0.0
 11
22.0
 21
17.0
 12
0.0
 22
0.0
 32
0.0
 14
0.0
 24
0.0
 34
0.0
 15
0.0
 25
0.0
 35
0.0
146
0.0
 13
0.0
 23
0.0
 33
0.0
 16
1.0
 26
0.0
 36
0.0
 17
0.0
 27
1.0
 37
0.0
 76
0
330
210
345
0
346
0
  0
IMAGEDEF
  5
342
102
{ACAD_REACTORS
330
33D
330
33C
102
}
100
AcDbRasterImageDef
 90
0
  1
XYS_assy_2_img_1.png
 10
369.0
 20
92.0
 11
0.0066666667
 21
0.0066666667
280
1
281
0
  0
TABLESTYLE
  5
343
102
{ACAD_REACTORS
330
33F
330
299
330
29A
102
}
330
33F
100
AcDbTableStyle
  3
Standard
 70
0
 71
0
 40
0.06
 41
0.06
280
1
281
1
  7
Standard
140
0.18
170
1
 62
0
 63
7
283
0
  7
Standard
140
0.18
170
1
 62
0
 63
7
283
0
  7
Standard
140
0.18
170
1
 62
0
 63
7
283
0
  0
TABLESTYLE
  5
344
102
{ACAD_REACTORS
330
33F
330
298
102
}
330
33F
100
AcDbTableStyle
  3
Standard1
 70
1
 71
0
 40
0.06
 41
0.06
280
1
281
1
  7
Standard
140
0.18
170
1
 62
0
 63
7
283
0
  7
Standard
140
0.18
170
1
 62
0
 63
7
283
0
  7
Standard
140
0.18
170
1
 62
0
 63
7
283
0
  0
ENDSEC
  0
EOF
