999
DXF file: XYM_assy_2.dxf
999
Pro/ENGINEER 2014200 by Parametric Technology Corporation
  0
SECTION
  2
HEADER
  9
$ACADVER
  1
AC1021
  9
$DWGCODEPAGE
  3
ANSI_1252
  9
$EXTMAX
 10
22.0
 20
17.0
 30
0.0
  9
$EXTMIN
 10
0.0
 20
0.0
 30
0.0
  9
$LIMMIN
 10
0.0
 20
0.0
  9
$LIMMAX
 10
22.0
 20
17.0
  9
$VIEWCTR
 10
11.0
 20
8.5
  9
$VIEWSIZE
 40
17.0
  9
$CLAYER
  8
0
  9
$LTSCALE
 40
1.21
  9
$CELTYPE
  6
BYLAYER
  9
$DIMSCALE
 40
1.0
  9
$DIMASZ
 40
0.1875
  9
$DIMEXO
 40
0.0625
  9
$DIMDLI
 40
0.836
  9
$DIMEXE
 40
0.125
  9
$DIMCEN
 40
0.198
  9
$DIMLFAC
 40
1.0
  9
$DIMBLK
  1
_FILLED
  9
$DIMTXT
 40
0.1
  9
$DIMTOL
 70
0
  9
$DIMLIM
 70
0
  9
$DIMTFAC
 40
1.0
  9
$DIMGAP
 40
0.09
  9
$DIMDSEP
 70
46
  9
$AUNITS
 70
0
  9
$PDMODE
 70
3
  9
$PDSIZE
 40
0.3125
  9
$HANDSEED
  5
3A4
  9
$TILEMODE
 70
1
  9
$MEASUREMENT
 70
0
  9
$INSUNITS
 70
1
  0
ENDSEC
  0
SECTION
  2
CLASSES
  0
CLASS
  1
ACDBDICTIONARYWDFLT
  2
AcDbDictionaryWithDefault
  3
AutoCAD 2000
 90
0
 91
1
280
0
281
0
  0
CLASS
  1
ACDBPLACEHOLDER
  2
AcDbPlaceHolder
  3
AutoCAD 2000
 90
0
 91
1
280
0
281
0
  0
CLASS
  1
LAYOUT
  2
AcDbLayout
  3
AutoCAD 2000
 90
0
 91
0
280
0
281
0
  0
CLASS
  1
RASTERVARIABLES
  2
AcDbRasterVariables
  3
ISM
 90
0
 91
1
280
0
281
0
  0
CLASS
  1
IMAGEDEF
  2
AcDbRasterImageDef
  3
ISM
 90
0
 91
1
280
0
281
0
  0
CLASS
  1
IMAGEDEF_REACTOR
  2
AcDbRasterImageDefReactor
  3
ISM
 90
0
 91
1
280
0
281
0
  0
CLASS
  1
IMAGE
  2
AcDbRasterImage
  3
ISM
 90
127
 91
1
280
0
281
1
  0
CLASS
  1
TABLESTYLE
  2
AcDbTableStyle
  3
ObjectDBX Classes
 90
2047
 91
1
280
0
281
0
  0
CLASS
  1
ACAD_TABLE
  2
AcDbTable
  3
ObjectDBX Classes
 90
1025
 91
3
280
0
281
1
  0
ENDSEC
  0
SECTION
  2
TABLES
  0
TABLE
  2
VPORT
  5
8
100
AcDbSymbolTable
 70
2
  0
VPORT
  5
1F4
100
AcDbSymbolTableRecord
100
AcDbViewportTableRecord
  2
*ACTIVE
 70
0
 10
0.0
 20
0.0
 11
1.0
 21
1.0
 12
11.0
 22
8.5
 13
0.0
 23
0.0
 14
1.0
 24
1.0
 15
0.0
 25
0.0
 16
0.0
 26
0.0
 36
1.0
 17
0.0
 27
0.0
 37
0.0
 40
17.0
 41
1.2941176471
 42
50.0
 43
0.0
 44
0.0
 50
0.0
 51
0.0
 71
0
 72
100
 73
1
 74
1
 75
0
 76
0
 77
0
 78
0
  0
ENDTAB
  0
TABLE
  2
LTYPE
  5
5
100
AcDbSymbolTable
 70
6
  0
LTYPE
  5
14
100
AcDbSymbolTableRecord
100
AcDbLinetypeTableRecord
  2
BYBLOCK
 70
0
  3

 72
65
 73
0
 40
0.0
  0
LTYPE
  5
15
100
AcDbSymbolTableRecord
100
AcDbLinetypeTableRecord
  2
BYLAYER
 70
0
  3

 72
65
 73
0
 40
0.0
  0
LTYPE
  5
16
100
AcDbSymbolTableRecord
100
AcDbLinetypeTableRecord
  2
CONTINUOUS
 70
64
  3
Solid line
 72
65
 73
0
 40
0.0
  0
LTYPE
  5
1F5
100
AcDbSymbolTableRecord
100
AcDbLinetypeTableRecord
  2
CENTER
 70
64
  3
____ _ ____ _ ____ _ ____ _ ____ _ ____ _ ____
 72
65
 73
4
 40
0.6
 49
0.375
 74
0
 49
-0.075
 74
0
 49
0.075
 74
0
 49
-0.075
 74
0
  0
LTYPE
  5
1F6
100
AcDbSymbolTableRecord
100
AcDbLinetypeTableRecord
  2
HIDDEN
 70
64
  3
- - - - - - - - - - - - - - - - - - - -
 72
65
 73
2
 40
0.2
 49
0.1
 74
0
 49
-0.1
 74
0
  0
LTYPE
  5
1F7
100
AcDbSymbolTableRecord
100
AcDbLinetypeTableRecord
  2
PHANTOM
 70
64
  3
_____ _ _ _____ _ _ _____ _ _ _____
 72
65
 73
6
 40
0.8
 49
0.45
 74
0
 49
-0.05
 74
0
 49
0.1
 74
0
 49
-0.05
 74
0
 49
0.1
 74
0
 49
-0.05
 74
0
  0
LTYPE
  5
1F8
100
AcDbSymbolTableRecord
100
AcDbLinetypeTableRecord
  2
DOT
 70
64
  3
. . . . . . . . . . . . . . . . . . . .
 72
65
 73
2
 40
0.2
 49
0.1
 74
0
 49
-0.1
 74
0
  0
LTYPE
  5
1F9
100
AcDbSymbolTableRecord
100
AcDbLinetypeTableRecord
  2
DASHED
 70
64
  3
- - - - - - - - - - - - - - - - - - - -
 72
65
 73
2
 40
0.2
 49
0.1
 74
0
 49
-0.1
 74
0
  0
ENDTAB
  0
TABLE
  2
LAYER
  5
2
100
AcDbSymbolTable
 70
36
  0
LAYER
  5
10
100
AcDbSymbolTableRecord
100
AcDbLayerTableRecord
  2
0
 70
0
 62
7
  6
CONTINUOUS
370
-3
390
F
  0
LAYER
  5
1FA
100
AcDbSymbolTableRecord
100
AcDbLayerTableRecord
  2
DEFAULT_1
 70
0
 62
7
  6
CENTER
370
-3
390
F
  0
LAYER
  5
1FB
100
AcDbSymbolTableRecord
100
AcDbLayerTableRecord
  2
DEFAULT_2
 70
0
 62
8
  6
HIDDEN
370
-3
390
F
  0
LAYER
  5
1FC
100
AcDbSymbolTableRecord
100
AcDbLayerTableRecord
  2
DEFAULT_3
 70
0
 62
7
  6
PHANTOM
370
-3
390
F
  0
LAYER
  5
1FD
100
AcDbSymbolTableRecord
100
AcDbLayerTableRecord
  2
DATUM_PLANES
 70
0
 62
7
  6
CONTINUOUS
370
-3
390
F
  0
LAYER
  5
1FE
100
AcDbSymbolTableRecord
100
AcDbLayerTableRecord
  2
PORT_AREAS
 70
0
 62
7
  6
CONTINUOUS
370
-3
390
F
  0
LAYER
  5
1FF
100
AcDbSymbolTableRecord
100
AcDbLayerTableRecord
  2
SUNNBOMCOSMETIC
 70
0
 62
7
  6
CONTINUOUS
370
-3
390
F
  0
LAYER
  5
200
100
AcDbSymbolTableRecord
100
AcDbLayerTableRecord
  2
SUNNBOMSTAMPING
 70
0
 62
7
  6
CONTINUOUS
370
-3
390
F
  0
LAYER
  5
201
100
AcDbSymbolTableRecord
100
AcDbLayerTableRecord
  2
THREADS
 70
0
 62
7
  6
CONTINUOUS
370
-3
390
F
  0
ENDTAB
  0
TABLE
  2
STYLE
  5
3
100
AcDbSymbolTable
 70
1
  0
STYLE
  5
11
100
AcDbSymbolTableRecord
100
AcDbTextStyleTableRecord
  2
STANDARD
 70
0
 40
0.0
 41
0.8
 50
0.0
 71
0
 42
0.2
  3
txt
  4

  0
STYLE
  5
202
100
AcDbSymbolTableRecord
100
AcDbTextStyleTableRecord
  2
TEXTSTYLE_1
 70
0
 40
0.0
 41
0.8
 50
0.0
 71
0
 42
0.2
  3
gdt
  4

  0
ENDTAB
  0
TABLE
  2
VIEW
  5
6
100
AcDbSymbolTable
 70
0
  0
ENDTAB
  0
TABLE
  2
UCS
  5
7
100
AcDbSymbolTable
 70
0
  0
ENDTAB
  0
TABLE
  2
APPID
  5
9
100
AcDbSymbolTable
 70
1
  0
APPID
  5
203
100
AcDbSymbolTableRecord
100
AcDbRegAppTableRecord
  2
ACAD
 70
0
  0
ENDTAB
  0
TABLE
  2
BLOCK_RECORD
  5
1
100
AcDbSymbolTable
 70
0
  0
BLOCK_RECORD
  5
204
100
AcDbSymbolTableRecord
100
AcDbBlockTableRecord
  2
*Model_Space
  0
BLOCK_RECORD
  5
205
100
AcDbSymbolTableRecord
100
AcDbBlockTableRecord
  2
*Paper_Space
  0
BLOCK_RECORD
  5
206
100
AcDbSymbolTableRecord
100
AcDbBlockTableRecord
  2
SUN_FIRST_THIRD_ANGLE_BL0
  0
BLOCK_RECORD
  5
207
100
AcDbSymbolTableRecord
100
AcDbBlockTableRecord
  2
*T1
  0
BLOCK_RECORD
  5
208
100
AcDbSymbolTableRecord
100
AcDbBlockTableRecord
  2
*T2
  0
BLOCK_RECORD
  5
209
100
AcDbSymbolTableRecord
100
AcDbBlockTableRecord
  2
*T3
  0
ENDTAB
  0
TABLE
  2
DIMSTYLE
  5
A
100
AcDbSymbolTable
 70
1
100
AcDbDimStyleTable
 71
0
  0
DIMSTYLE
105
20A
100
AcDbSymbolTableRecord
100
AcDbDimStyleTableRecord
  2
STANDARD
 70
0
  3

  4

 40
1.0
 41
0.1875
 42
0.0625
 43
0.38
 44
0.125
 45
0.0
 46
0.0
 47
0.001
 48
0.001
140
0.1
141
0.09
142
0.0
143
25.4
144
1.0
145
0.0
146
1.0
147
0.09
 71
0.0
 72
0.0
 73
1
 74
1
 75
0
 76
0
 77
0
 78
4
170
0
171
2
172
0
173
0
174
0
175
0
176
0
177
0
178
0
270
2
271
3
272
3
273
2
274
2
275
0
280
0
281
0
282
0
283
1
284
4
285
0
286
0
287
3
288
0
340
11
278
46
  0
ENDTAB
  0
ENDSEC
  0
SECTION
  2
BLOCKS
  0
BLOCK
  5
20
100
AcDbEntity
  8
0
100
AcDbBlockBegin
  2
*Model_Space
 70
0
 10
0.0
 20
0.0
 30
0.0
  3
*Model_Space
  1

  0
ENDBLK
  5
21
100
AcDbEntity
  8
0
100
AcDbBlockEnd
  0
BLOCK
  5
1C
100
AcDbEntity
  8
0
100
AcDbBlockBegin
  2
*Paper_Space
 70
0
 10
0.0
 20
0.0
 30
0.0
  3
*Paper_Space
  1

  0
ENDBLK
  5
1D
100
AcDbEntity
  8
0
100
AcDbBlockEnd
  0
BLOCK
  5
20B
100
AcDbEntity
  8
0
100
AcDbBlockBegin
 62
2
  6
CONTINUOUS
  2
SUN_FIRST_THIRD_ANGLE_BL0
 70
64
 10
20.4816717061
 20
1.2289683772
  3
SUN_FIRST_THIRD_ANGLE_BL0
  1

  0
TEXT
  5
20C
100
AcDbEntity
  8
0
100
AcDbText
 62
2
  6
CONTINUOUS
 10
19.4750896608
 20
1.4136269581
  7
STANDARD
 40
0.08
  1
FIRST ANGLE
 41
0.8
 72
0
100
AcDbText
  0
TEXT
  5
20D
100
AcDbEntity
  8
0
100
AcDbText
 62
2
  6
CONTINUOUS
 10
20.7842537513
 20
1.4047600029
  7
STANDARD
 40
0.08
  1
THIRD ANGLE
 41
0.8
 72
0
100
AcDbText
  0
LINE
  5
20E
100
AcDbEntity
  8
0
100
AcDbLine
 62
7
  6
CONTINUOUS
 10
19.4767170086
 20
1.1727031207
 11
19.6334271527
 21
1.1717972817
  0
LINE
  5
20F
100
AcDbEntity
  8
0
100
AcDbLine
 62
7
  6
CONTINUOUS
 10
19.6596964832
 20
1.1717972817
 11
19.6950230232
 21
1.171593082
  0
LINE
  5
210
100
AcDbEntity
  8
0
100
AcDbLine
 62
7
  6
CONTINUOUS
 10
19.7194818561
 20
1.1708914427
 11
19.8852396156
 21
1.1699333054
  0
LINE
  5
211
100
AcDbEntity
  8
0
100
AcDbLine
 62
7
  6
CONTINUOUS
 10
19.4758111696
 20
1.2723454088
 11
19.88525039
 21
1.3511534004
  0
LINE
  5
212
100
AcDbEntity
  8
0
100
AcDbLine
 62
7
  6
CONTINUOUS
 10
19.88525039
 20
1.3511534004
 11
19.8831348489
 21
0.9851647912
  0
LINE
  5
213
100
AcDbEntity
  8
0
100
AcDbLine
 62
7
  6
CONTINUOUS
 10
19.8831348489
 20
0.9851647912
 11
19.4767170086
 21
1.0658141206
  0
LINE
  5
214
100
AcDbEntity
  8
0
100
AcDbLine
 62
7
  6
CONTINUOUS
 10
19.4767170086
 20
1.0658141206
 11
19.4779056764
 21
1.2714536432
  0
CIRCLE
  5
215
100
AcDbEntity
  8
0
100
AcDbCircle
 62
7
  6
CONTINUOUS
 10
20.2068232291
 20
1.1717972817
 40
0.175742101
  0
CIRCLE
  5
216
100
AcDbEntity
  8
0
100
AcDbCircle
 62
7
  6
CONTINUOUS
 10
20.2068232291
 20
1.1717972817
 40
0.1005522074
  0
LINE
  5
217
100
AcDbEntity
  8
0
100
AcDbLine
 62
7
  6
CONTINUOUS
 10
20.2077290681
 20
1.3756110529
 11
20.2071171714
 21
1.2379342989
  0
LINE
  5
218
100
AcDbEntity
  8
0
100
AcDbLine
 62
7
  6
CONTINUOUS
 10
20.2077290681
 20
1.2016899681
 11
20.2074674401
 21
1.1428236749
  0
LINE
  5
219
100
AcDbEntity
  8
0
100
AcDbLine
 62
7
  6
CONTINUOUS
 10
20.208634907
 20
1.101141841
 11
20.2080230104
 21
0.963465087
  0
LINE
  5
21A
100
AcDbEntity
  8
0
100
AcDbLine
 62
7
  6
CONTINUOUS
 10
20.0066328138
 20
1.1745147986
 11
20.1443095678
 21
1.1739029019
  0
LINE
  5
21B
100
AcDbEntity
  8
0
100
AcDbLine
 62
7
  6
CONTINUOUS
 10
20.1832714155
 20
1.1727031207
 11
20.238153505
 21
1.172335442
  0
LINE
  5
21C
100
AcDbEntity
  8
0
100
AcDbLine
 62
7
  6
CONTINUOUS
 10
20.2756669918
 20
1.1717972817
 11
20.407916871
 21
1.1712095044
  0
CIRCLE
  5
21D
100
AcDbEntity
  8
0
100
AcDbCircle
 62
7
  6
CONTINUOUS
 10
20.7509457401
 20
1.1693297793
 40
0.1722024983
  0
CIRCLE
  5
21E
100
AcDbEntity
  8
0
100
AcDbCircle
 62
7
  6
CONTINUOUS
 10
20.7509457401
 20
1.1693297793
 40
0.0985164967
  0
LINE
  5
21F
100
AcDbEntity
  8
0
100
AcDbLine
 62
7
  6
CONTINUOUS
 10
20.7169767782
 20
1.170462078
 11
20.7825395137
 21
1.1682766535
  0
LINE
  5
220
100
AcDbEntity
  8
0
100
AcDbLine
 62
7
  6
CONTINUOUS
 10
20.8177513651
 20
1.1693297793
 11
20.947965719
 21
1.1693297793
  0
LINE
  5
221
100
AcDbEntity
  8
0
100
AcDbLine
 62
7
  6
CONTINUOUS
 10
20.6875370113
 20
1.170462078
 11
20.5573226574
 21
1.170462078
  0
LINE
  5
222
100
AcDbEntity
  8
0
100
AcDbLine
 62
7
  6
CONTINUOUS
 10
20.7486811426
 20
1.1987695462
 11
20.7486811426
 21
1.1432869085
  0
LINE
  5
223
100
AcDbEntity
  8
0
100
AcDbLine
 62
7
  6
CONTINUOUS
 10
20.7498134414
 20
1.1059210505
 11
20.7498134414
 21
0.9757066966
  0
LINE
  5
224
100
AcDbEntity
  8
0
100
AcDbLine
 62
7
  6
CONTINUOUS
 10
20.7486811426
 20
1.2338708068
 11
20.7486811426
 21
1.3640851607
  0
LINE
  5
225
100
AcDbEntity
  8
0
100
AcDbLine
 62
7
  6
CONTINUOUS
 10
21.0702539817
 20
1.2701043662
 11
21.4790138229
 21
1.3448360823
  0
LINE
  5
226
100
AcDbEntity
  8
0
100
AcDbLine
 62
7
  6
CONTINUOUS
 10
21.4790138229
 20
1.3448360823
 11
21.4790138229
 21
0.9779712941
  0
LINE
  5
227
100
AcDbEntity
  8
0
100
AcDbLine
 62
7
  6
CONTINUOUS
 10
21.4790138229
 20
0.9779712941
 11
21.069121683
 21
1.0617614
  0
LINE
  5
228
100
AcDbEntity
  8
0
100
AcDbLine
 62
7
  6
CONTINUOUS
 10
21.0702539817
 20
1.2701043662
 11
21.069121683
 21
1.0617614
  0
LINE
  5
229
100
AcDbEntity
  8
0
100
AcDbLine
 62
7
  6
CONTINUOUS
 10
21.4790138229
 20
1.1693297793
 11
21.3159628059
 21
1.1693297793
  0
LINE
  5
22A
100
AcDbEntity
  8
0
100
AcDbLine
 62
7
  6
CONTINUOUS
 10
21.2876553377
 20
1.1693297793
 11
21.2502894796
 21
1.1693297793
  0
LINE
  5
22B
100
AcDbEntity
  8
0
100
AcDbLine
 62
7
  6
CONTINUOUS
 10
21.2208497126
 20
1.1659328831
 11
21.0713862804
 21
1.1659328831
  0
LINE
  5
22C
100
AcDbEntity
  8
0
100
AcDbLine
 62
7
  6
CONTINUOUS
 10
20.4796138713
 20
1.5284908897
 11
20.4766766948
 21
0.9294458646
  0
ENDBLK
  5
22D
100
AcDbEntity
  8
0
  6
BYBLOCK
 62
0
100
AcDbBlockEnd
  0
BLOCK
  5
22E
100
AcDbEntity
  8
0
100
AcDbBlockBegin
  2
*T1
 70
1
 10
0.0
 20
0.0
  3
*T1
  1

  0
LINE
  5
22F
100
AcDbEntity
  8
0
100
AcDbLine
 62
2
  6
CONTINUOUS
 10
9.275
 20
0.0
 11
-0.0
 21
0.0
  0
LINE
  5
230
100
AcDbEntity
  8
0
100
AcDbLine
 62
2
  6
CONTINUOUS
 10
9.275
 20
0.0
 11
9.275
 21
1.25
  0
LINE
  5
231
100
AcDbEntity
  8
0
100
AcDbLine
 62
2
  6
CONTINUOUS
 10
9.275
 20
0.625
 11
-0.0
 21
0.625
  0
LINE
  5
232
100
AcDbEntity
  8
0
100
AcDbLine
 62
2
  6
CONTINUOUS
 10
9.275
 20
1.25
 11
-0.0
 21
1.25
  0
LINE
  5
233
100
AcDbEntity
  8
0
100
AcDbLine
 62
2
  6
CONTINUOUS
 10
6.8
 20
0.0
 11
6.8
 21
1.25
  0
LINE
  5
234
100
AcDbEntity
  8
0
100
AcDbLine
 62
2
  6
CONTINUOUS
 10
6.4
 20
0.0
 11
6.4
 21
0.625
  0
LINE
  5
235
100
AcDbEntity
  8
0
100
AcDbLine
 62
2
  6
CONTINUOUS
 10
5.9
 20
0.0
 11
5.9
 21
0.625
  0
LINE
  5
236
100
AcDbEntity
  8
0
100
AcDbLine
 62
2
  6
CONTINUOUS
 10
5.2
 20
0.0
 11
5.2
 21
0.625
  0
LINE
  5
237
100
AcDbEntity
  8
0
100
AcDbLine
 62
2
  6
CONTINUOUS
 10
4.1
 20
0.0
 11
4.1
 21
1.25
  0
LINE
  5
238
100
AcDbEntity
  8
0
100
AcDbLine
 62
2
  6
CONTINUOUS
 10
-0.0
 20
0.0
 11
-0.0
 21
1.25
  0
MTEXT
  5
239
100
AcDbEntity
  8
0
100
AcDbMText
 62
2
  6
CONTINUOUS
  7
STANDARD
 71
2
 72
1
 10
6.6
 20
0.325
 30
0.0
 11
1.0
 21
0.0
 31
0.0
 44
0.9
  1
2
 40
0.125
 41
0.2
  0
MTEXT
  5
23A
100
AcDbEntity
  8
0
100
AcDbMText
 62
2
  6
CONTINUOUS
  7
STANDARD
 71
2
 72
1
 10
6.15
 20
0.325
 30
0.0
 11
1.0
 21
0.0
 31
0.0
 44
0.9
  1
C
 40
0.125
 41
0.2
  0
MTEXT
  5
23B
100
AcDbEntity
  8
0
100
AcDbMText
 62
2
  6
CONTINUOUS
  7
STANDARD
 71
2
 72
1
 10
5.55
 20
0.325
 30
0.0
 11
1.0
 21
0.0
 31
0.0
 44
0.9
  1
1.000
 40
0.125
 41
1.0
  0
MTEXT
  5
23C
100
AcDbEntity
  8
0
100
AcDbMText
 62
2
  6
CONTINUOUS
  7
STANDARD
 71
2
 72
1
 10
4.65
 20
0.325
 30
0.0
 11
1.0
 21
0.0
 31
0.0
 44
0.9
  1
Jul-14-20
 40
0.125
 41
1.8
  0
MTEXT
  5
23D
100
AcDbEntity
  8
0
100
AcDbMText
 62
2
  6
CONTINUOUS
  7
STANDARD
 71
2
 72
1
 10
2.05
 20
0.4625
 30
0.0
 11
1.0
 21
0.0
 31
0.0
 44
0.9
  1
T-17A Motor mount Staffa 4", 5 piston\PCross pilot
 40
0.125
 41
7.4
  0
MTEXT
  5
23E
100
AcDbEntity
  8
0
100
AcDbMText
 62
2
  6
CONTINUOUS
  7
STANDARD
 71
1
 72
1
 10
6.45
 20
0.5625
 30
0.0
 11
1.0
 21
0.0
 31
0.0
 44
0.9
  1
SHEET
 40
0.06
 41
0.48
  0
MTEXT
  5
23F
100
AcDbEntity
  8
0
100
AcDbMText
 62
2
  6
CONTINUOUS
  7
STANDARD
 71
1
 72
1
 10
5.95
 20
0.5625
 30
0.0
 11
1.0
 21
0.0
 31
0.0
 44
0.9
  1
DWG SIZE
 40
0.06
 41
0.768
  0
MTEXT
  5
240
100
AcDbEntity
  8
0
100
AcDbMText
 62
2
  6
CONTINUOUS
  7
STANDARD
 71
1
 72
1
 10
5.25
 20
0.5625
 30
0.0
 11
1.0
 21
0.0
 31
0.0
 44
0.9
  1
SCALE
 40
0.06
 41
0.48
  0
MTEXT
  5
241
100
AcDbEntity
  8
0
100
AcDbMText
 62
2
  6
CONTINUOUS
  7
STANDARD
 71
1
 72
1
 10
4.15
 20
0.5625
 30
0.0
 11
1.0
 21
0.0
 31
0.0
 44
0.9
  1
DATE
 40
0.06
 41
0.384
  0
MTEXT
  5
242
100
AcDbEntity
  8
0
100
AcDbMText
 62
2
  6
CONTINUOUS
  7
STANDARD
 71
1
 72
1
 10
0.05
 20
0.5625
 30
0.0
 11
1.0
 21
0.0
 31
0.0
 44
0.9
  1
DESCRIPTION
 40
0.06
 41
1.056
  0
MTEXT
  5
243
100
AcDbEntity
  8
0
100
AcDbMText
 62
2
  6
CONTINUOUS
  7
STANDARD
 71
2
 72
1
 10
5.45
 20
1.0375
 30
0.0
 11
1.0
 21
0.0
 31
0.0
 44
0.9
  1
ALL DIMENSIONS IN INCH\PVIEWS ARE THIRD ANGLE
 40
0.12
 41
4.224
  0
MTEXT
  5
244
100
AcDbEntity
  8
0
100
AcDbMText
 62
2
  6
CONTINUOUS
  7
STANDARD
 71
2
 72
1
 10
2.05
 20
0.95
 30
0.0
 11
1.0
 21
0.0
 31
0.0
 44
0.9
  1
XYM
 40
0.125
 41
0.6
  0
MTEXT
  5
245
100
AcDbEntity
  8
0
100
AcDbMText
 62
2
  6
CONTINUOUS
  7
STANDARD
 71
1
 72
1
 10
0.05
 20
1.1875
 30
0.0
 11
1.0
 21
0.0
 31
0.0
 44
0.9
  1
MODEL
 40
0.06
 41
0.48
  0
ENDBLK
  5
246
100
AcDbEntity
  8
0
  6
BYBLOCK
 62
0
100
AcDbBlockEnd
  0
BLOCK
  5
247
100
AcDbEntity
  8
0
100
AcDbBlockBegin
  2
*T2
 70
1
 10
0.0
 20
0.0
  3
*T2
  1

  0
LINE
  5
248
100
AcDbEntity
  8
0
100
AcDbLine
 62
2
  6
CONTINUOUS
 10
0.0
 20
0.0
 11
9.055
 21
0.0
  0
LINE
  5
249
100
AcDbEntity
  8
0
100
AcDbLine
 62
2
  6
CONTINUOUS
 10
0.0
 20
0.0
 11
0.0
 21
-1.844
  0
LINE
  5
24A
100
AcDbEntity
  8
0
100
AcDbLine
 62
2
  6
CONTINUOUS
 10
0.0
 20
-0.344
 11
9.055
 21
-0.344
  0
LINE
  5
24B
100
AcDbEntity
  8
0
100
AcDbLine
 62
2
  6
CONTINUOUS
 10
0.0
 20
-0.594
 11
9.055
 21
-0.594
  0
LINE
  5
24C
100
AcDbEntity
  8
0
100
AcDbLine
 62
2
  6
CONTINUOUS
 10
0.0
 20
-0.844
 11
9.055
 21
-0.844
  0
LINE
  5
24D
100
AcDbEntity
  8
0
100
AcDbLine
 62
2
  6
CONTINUOUS
 10
0.0
 20
-1.094
 11
9.055
 21
-1.094
  0
LINE
  5
24E
100
AcDbEntity
  8
0
100
AcDbLine
 62
2
  6
CONTINUOUS
 10
0.0
 20
-1.344
 11
9.055
 21
-1.344
  0
LINE
  5
24F
100
AcDbEntity
  8
0
100
AcDbLine
 62
2
  6
CONTINUOUS
 10
0.0
 20
-1.594
 11
9.055
 21
-1.594
  0
LINE
  5
250
100
AcDbEntity
  8
0
100
AcDbLine
 62
2
  6
CONTINUOUS
 10
0.0
 20
-1.844
 11
9.055
 21
-1.844
  0
LINE
  5
251
100
AcDbEntity
  8
0
100
AcDbLine
 62
2
  6
CONTINUOUS
 10
3.055
 20
0.0
 11
3.055
 21
-1.844
  0
LINE
  5
252
100
AcDbEntity
  8
0
100
AcDbLine
 62
2
  6
CONTINUOUS
 10
9.055
 20
0.0
 11
9.055
 21
-1.844
  0
MTEXT
  5
253
100
AcDbEntity
  8
0
100
AcDbMText
 62
2
  6
CONTINUOUS
  7
STANDARD
 71
2
 72
1
 10
1.5275
 20
-0.0995
 30
0.0
 11
1.0
 21
0.0
 31
0.0
 44
0.9
  1
Technical Data
 40
0.145
 41
3.248
  0
MTEXT
  5
254
100
AcDbEntity
  8
0
100
AcDbMText
 62
2
  6
CONTINUOUS
  7
STANDARD
 71
2
 72
1
 10
4.555
 20
-0.0995
 30
0.0
 11
1.0
 21
0.0
 31
0.0
 44
0.9
  1
U.S. Units
 40
0.145
 41
2.32
  0
MTEXT
  5
255
100
AcDbEntity
  8
0
100
AcDbMText
 62
2
  6
CONTINUOUS
  7
STANDARD
 71
2
 72
1
 10
7.555
 20
-0.0995
 30
0.0
 11
1.0
 21
0.0
 31
0.0
 44
0.9
  1
Metric Units
 40
0.145
 41
2.784
  0
MTEXT
  5
256
100
AcDbEntity
  8
0
100
AcDbMText
 62
2
  6
CONTINUOUS
  7
STANDARD
 71
2
 72
1
 10
1.5275
 20
-0.4065
 30
0.0
 11
1.0
 21
0.0
 31
0.0
 44
0.9
  1
Cavity
 40
0.125
 41
1.2
  0
MTEXT
  5
257
100
AcDbEntity
  8
0
100
AcDbMText
 62
2
  6
CONTINUOUS
  7
STANDARD
 71
2
 72
1
 10
6.055
 20
-0.4065
 30
0.0
 11
1.0
 21
0.0
 31
0.0
 44
0.9
  1
T-17A
 40
0.125
 41
1.0
  0
MTEXT
  5
258
100
AcDbEntity
  8
0
100
AcDbMText
 62
2
  6
CONTINUOUS
  7
STANDARD
 71
2
 72
1
 10
1.5275
 20
-0.6565
 30
0.0
 11
1.0
 21
0.0
 31
0.0
 44
0.9
  1
Body Features
 40
0.125
 41
2.6
  0
MTEXT
  5
259
100
AcDbEntity
  8
0
100
AcDbMText
 62
2
  6
CONTINUOUS
  7
STANDARD
 71
2
 72
1
 10
6.055
 20
-0.6565
 30
0.0
 11
1.0
 21
0.0
 31
0.0
 44
0.9
  1
Cross pilot
 40
0.125
 41
2.2
  0
MTEXT
  5
25A
100
AcDbEntity
  8
0
100
AcDbMText
 62
2
  6
CONTINUOUS
  7
STANDARD
 71
2
 72
1
 10
1.5275
 20
-0.9065
 30
0.0
 11
1.0
 21
0.0
 31
0.0
 44
0.9
  1
Body Type
 40
0.125
 41
1.8
  0
MTEXT
  5
25B
100
AcDbEntity
  8
0
100
AcDbMText
 62
2
  6
CONTINUOUS
  7
STANDARD
 71
2
 72
1
 10
6.055
 20
-0.9065
 30
0.0
 11
1.0
 21
0.0
 31
0.0
 44
0.9
  1
Motor mount
 40
0.125
 41
2.2
  0
MTEXT
  5
25C
100
AcDbEntity
  8
0
100
AcDbMText
 62
2
  6
CONTINUOUS
  7
STANDARD
 71
2
 72
1
 10
1.5275
 20
-1.1565
 30
0.0
 11
1.0
 21
0.0
 31
0.0
 44
0.9
  1
Interface
 40
0.125
 41
1.8
  0
MTEXT
  5
25D
100
AcDbEntity
  8
0
100
AcDbMText
 62
2
  6
CONTINUOUS
  7
STANDARD
 71
2
 72
1
 10
6.055
 20
-1.1565
 30
0.0
 11
1.0
 21
0.0
 31
0.0
 44
0.9
  1
Staffa 4", 5 piston
 40
0.125
 41
3.8
  0
MTEXT
  5
25E
100
AcDbEntity
  8
0
100
AcDbMText
 62
2
  6
CONTINUOUS
  7
STANDARD
 71
2
 72
1
 10
1.5275
 20
-1.4065
 30
0.0
 11
1.0
 21
0.0
 31
0.0
 44
0.9
  1
Open Cavity Quantity
 40
0.125
 41
4.0
  0
MTEXT
  5
25F
100
AcDbEntity
  8
0
100
AcDbMText
 62
2
  6
CONTINUOUS
  7
STANDARD
 71
2
 72
1
 10
6.055
 20
-1.4065
 30
0.0
 11
1.0
 21
0.0
 31
0.0
 44
0.9
  1
2
 40
0.125
 41
0.2
  0
MTEXT
  5
260
100
AcDbEntity
  8
0
100
AcDbMText
 62
2
  6
CONTINUOUS
  7
STANDARD
 71
2
 72
1
 10
1.5275
 20
-1.6565
 30
0.0
 11
1.0
 21
0.0
 31
0.0
 44
0.9
  1
Weight
 40
0.125
 41
1.2
  0
MTEXT
  5
261
100
AcDbEntity
  8
0
100
AcDbMText
 62
2
  6
CONTINUOUS
  7
STANDARD
 71
2
 72
1
 10
4.555
 20
-1.6565
 30
0.0
 11
1.0
 21
0.0
 31
0.0
 44
0.9
  1
3.686 lb.
 40
0.125
 41
1.8
  0
MTEXT
  5
262
100
AcDbEntity
  8
0
100
AcDbMText
 62
2
  6
CONTINUOUS
  7
STANDARD
 71
2
 72
1
 10
7.555
 20
-1.6565
 30
0.0
 11
1.0
 21
0.0
 31
0.0
 44
0.9
  1
1,672 kg.
 40
0.125
 41
1.8
  0
ENDBLK
  5
263
100
AcDbEntity
  8
0
  6
BYBLOCK
 62
0
100
AcDbBlockEnd
  0
BLOCK
  5
264
100
AcDbEntity
  8
0
100
AcDbBlockBegin
  2
*T3
 70
1
 10
0.0
 20
0.0
  3
*T3
  1

  0
LINE
  5
265
100
AcDbEntity
  8
0
100
AcDbLine
 62
2
  6
CONTINUOUS
 10
0.0
 20
0.0
 11
4.6
 21
0.0
  0
LINE
  5
266
100
AcDbEntity
  8
0
100
AcDbLine
 62
2
  6
CONTINUOUS
 10
0.0
 20
0.0
 11
0.0
 21
-0.93775
  0
LINE
  5
267
100
AcDbEntity
  8
0
100
AcDbLine
 62
2
  6
CONTINUOUS
 10
0.0
 20
-0.34375
 11
4.6
 21
-0.34375
  0
LINE
  5
268
100
AcDbEntity
  8
0
100
AcDbLine
 62
2
  6
CONTINUOUS
 10
0.0
 20
-0.68775
 11
4.6
 21
-0.68775
  0
LINE
  5
269
100
AcDbEntity
  8
0
100
AcDbLine
 62
2
  6
CONTINUOUS
 10
0.0
 20
-0.93775
 11
4.6
 21
-0.93775
  0
LINE
  5
26A
100
AcDbEntity
  8
0
100
AcDbLine
 62
2
  6
CONTINUOUS
 10
1.3
 20
-0.34375
 11
1.3
 21
-0.93775
  0
LINE
  5
26B
100
AcDbEntity
  8
0
100
AcDbLine
 62
2
  6
CONTINUOUS
 10
3.3
 20
-0.34375
 11
3.3
 21
-0.93775
  0
LINE
  5
26C
100
AcDbEntity
  8
0
100
AcDbLine
 62
2
  6
CONTINUOUS
 10
4.6
 20
0.0
 11
4.6
 21
-0.93775
  0
MTEXT
  5
26D
100
AcDbEntity
  8
0
100
AcDbMText
 62
2
  6
CONTINUOUS
  7
STANDARD
 71
2
 72
1
 10
2.3
 20
-0.099375
 30
0.0
 11
1.0
 21
0.0
 31
0.0
 44
0.9
  1
Port Headings
 40
0.145
 41
3.016
  0
MTEXT
  5
26E
100
AcDbEntity
  8
0
100
AcDbMText
 62
2
  6
CONTINUOUS
  7
STANDARD
 71
2
 72
1
 10
0.65
 20
-0.44325
 30
0.0
 11
1.0
 21
0.0
 31
0.0
 44
0.9
  1
Product
 40
0.145
 41
1.624
  0
MTEXT
  5
26F
100
AcDbEntity
  8
0
100
AcDbMText
 62
2
  6
CONTINUOUS
  7
STANDARD
 71
2
 72
1
 10
2.3
 20
-0.44325
 30
0.0
 11
1.0
 21
0.0
 31
0.0
 44
0.9
  1
Port
 40
0.145
 41
0.928
  0
MTEXT
  5
270
100
AcDbEntity
  8
0
100
AcDbMText
 62
2
  6
CONTINUOUS
  7
STANDARD
 71
2
 72
1
 10
3.95
 20
-0.44325
 30
0.0
 11
1.0
 21
0.0
 31
0.0
 44
0.9
  1
Size
 40
0.145
 41
0.928
  0
MTEXT
  5
271
100
AcDbEntity
  8
0
100
AcDbMText
 62
2
  6
CONTINUOUS
  7
STANDARD
 71
2
 72
1
 10
0.65
 20
-0.75025
 30
0.0
 11
1.0
 21
0.0
 31
0.0
 44
0.9
  1
XYM
 40
0.125
 41
0.6
  0
MTEXT
  5
272
100
AcDbEntity
  8
0
100
AcDbMText
 62
2
  6
CONTINUOUS
  7
STANDARD
 71
2
 72
1
 10
2.3
 20
-0.75025
 30
0.0
 11
1.0
 21
0.0
 31
0.0
 44
0.9
  1
Ports V1 & V2
 40
0.125
 41
2.6
  0
MTEXT
  5
273
100
AcDbEntity
  8
0
100
AcDbMText
 62
2
  6
CONTINUOUS
  7
STANDARD
 71
2
 72
1
 10
3.95
 20
-0.75025
 30
0.0
 11
1.0
 21
0.0
 31
0.0
 44
0.9
  1
1"  NPTF
 40
0.125
 41
1.6
  0
ENDBLK
  5
274
100
AcDbEntity
  8
0
  6
BYBLOCK
 62
0
100
AcDbBlockEnd
  0
ENDSEC
  0
SECTION
  2
ENTITIES
  0
IMAGE
  5
275
100
AcDbEntity
  8
0
100
AcDbRasterImage
 62
7
  6
CONTINUOUS
 10
19.2297077316
 20
0.3094318264
 30
0.0
 11
0.0066666667
 21
0.0
 31
0.0
 12
0.0
 22
0.0066666667
 32
0.0
 13
369.0
 23
92.0
340
       3A1
 70
9
280
0
281
50
282
50
283
0
360
       39B
 71
1
 91
2
 14
-0.5
 24
-0.5
 14
368.5
 24
91.5
  0
INSERT
  5
276
100
AcDbEntity
  8
0
100
AcDbBlockReference
 62
2
  6
CONTINUOUS
  2
SUN_FIRST_THIRD_ANGLE_BL0
 10
20.4816717061
 20
1.2289683772
  0
ACAD_TABLE
  5
277
100
AcDbEntity
  8
0
 62
2
  6
CONTINUOUS
100
AcDbBlockReference
  2
*T1
 10
12.42375
 20
0.30125
 30
0.0
100
AcDbTable
342
       3A3
343
207
 11
1.0
 21
0.0
 31
0.0
 90
6
 91
4
 92
6
 93
20
 94
0
 95
0
 96
0
 70
1
 41
0.0
141
0.525
141
0.1
141
0.525
141
0.1
142
4.1
142
1.1
142
0.7
142
0.5
142
0.4
142
2.475
171
1
172
0
173
0
174
0
175
1
176
1
 91
33
178
0
145
0.0
301
CELL_VALUE
 90
4
  1
T-17A Motor mount Staffa 4", 5 piston\PCross pilot
304
ACVALUE_END
170
2
140
0.125
171
1
172
0
173
0
174
0
175
1
176
1
 91
33
178
0
145
0.0
301
CELL_VALUE
 90
4
  1
Jul-14-20
304
ACVALUE_END
170
5
140
0.125
171
1
172
0
173
0
174
0
175
1
176
1
 91
33
178
0
145
0.0
301
CELL_VALUE
 90
4
  1
1.000
304
ACVALUE_END
170
5
140
0.125
171
1
172
0
173
0
174
0
175
1
176
1
 91
33
178
0
145
0.0
301
CELL_VALUE
 90
4
  1
C
304
ACVALUE_END
170
5
140
0.125
171
1
172
0
173
0
174
0
175
1
176
1
 91
33
178
0
145
0.0
301
CELL_VALUE
 90
4
  1
2
304
ACVALUE_END
170
5
140
0.125
171
1
172
0
173
0
174
0
175
1
176
1
 91
33
178
0
145
0.0
301
CELL_VALUE
 90
4
  1
 
304
ACVALUE_END
170
1
140
0.125
171
1
172
0
173
0
174
0
175
1
176
1
 91
33
178
0
145
0.0
301
CELL_VALUE
 90
4
  1
DESCRIPTION
304
ACVALUE_END
170
1
140
0.06
171
1
172
0
173
0
174
0
175
1
176
1
 91
33
178
0
145
0.0
301
CELL_VALUE
 90
4
  1
DATE
304
ACVALUE_END
170
1
140
0.06
171
1
172
0
173
0
174
0
175
1
176
1
 91
33
178
0
145
0.0
301
CELL_VALUE
 90
4
  1
SCALE
304
ACVALUE_END
170
1
140
0.06
171
1
172
0
173
0
174
0
175
1
176
1
 91
33
178
0
145
0.0
301
CELL_VALUE
 90
4
  1
DWG SIZE
304
ACVALUE_END
170
1
140
0.06
171
1
172
0
173
0
174
0
175
1
176
1
 91
33
178
0
145
0.0
301
CELL_VALUE
 90
4
  1
SHEET
304
ACVALUE_END
170
1
140
0.06
171
1
172
0
173
0
174
0
175
1
176
1
 91
33
178
0
145
0.0
301
CELL_VALUE
 90
4
  1
 
304
ACVALUE_END
170
1
140
0.125
171
1
172
0
173
0
174
0
175
1
176
1
 91
33
178
0
145
0.0
301
CELL_VALUE
 90
4
  1
XYM
304
ACVALUE_END
170
5
140
0.125
171
1
172
0
173
0
174
0
175
4
176
1
 91
33
178
0
145
0.0
301
CELL_VALUE
 90
4
  1
ALL DIMENSIONS IN INCH\PVIEWS ARE THIRD ANGLE
304
ACVALUE_END
170
5
140
0.12
171
1
172
0
173
1
174
0
175
1
176
1
 91
1
178
0
145
0.0
170
1
171
1
172
0
173
1
174
0
175
1
176
1
 91
1
178
0
145
0.0
170
1
171
1
172
0
173
1
174
0
175
1
176
1
 91
1
178
0
145
0.0
170
5
171
1
172
0
173
0
174
0
175
1
176
1
 91
33
178
0
145
0.0
301
CELL_VALUE
 90
4
  1
 
304
ACVALUE_END
170
1
140
0.125
171
1
172
0
173
0
174
0
175
1
176
1
 91
33
178
0
145
0.0
301
CELL_VALUE
 90
4
  1
MODEL
304
ACVALUE_END
170
1
140
0.06
171
1
172
0
173
0
174
0
175
1
176
1
 91
33
178
0
145
0.0
301
CELL_VALUE
 90
4
  1
 
304
ACVALUE_END
170
1
140
0.125
171
1
172
0
173
0
174
0
175
1
176
1
 91
33
178
0
145
0.0
301
CELL_VALUE
 90
4
  1
 
304
ACVALUE_END
170
1
140
0.125
171
1
172
0
173
0
174
0
175
1
176
1
 91
33
178
0
145
0.0
301
CELL_VALUE
 90
4
  1
 
304
ACVALUE_END
170
1
140
0.125
171
1
172
0
173
0
174
0
175
1
176
1
 91
33
178
0
145
0.0
301
CELL_VALUE
 90
4
  1
 
304
ACVALUE_END
170
1
140
0.125
171
1
172
0
173
0
174
0
175
1
176
1
 91
33
178
0
145
0.0
301
CELL_VALUE
 90
4
  1
 
304
ACVALUE_END
170
1
140
0.125
  0
ACAD_TABLE
  5
278
100
AcDbEntity
  8
0
 62
2
  6
CONTINUOUS
100
AcDbBlockReference
  2
*T2
 10
12.4237499994
 20
16.47875
 30
0.0
100
AcDbTable
342
       3A2
343
208
 11
1.0
 21
0.0
 31
0.0
 90
22
 91
7
 92
3
 93
16
 94
0
 95
0
 96
0
 41
0.028
141
0.344
141
0.25
141
0.25
141
0.25
141
0.25
141
0.25
141
0.25
142
3.055
142
3.0
142
3.0
171
1
172
0
173
0
174
0
175
1
176
1
 91
33
178
0
145
0.0
301
CELL_VALUE
 90
4
  1
Technical Data
304
ACVALUE_END
170
5
140
0.145
171
1
172
0
173
0
174
0
175
1
176
1
 91
33
178
0
145
0.0
301
CELL_VALUE
 90
4
  1
U.S. Units
304
ACVALUE_END
170
5
140
0.145
171
1
172
0
173
0
174
0
175
1
176
1
 91
33
178
0
145
0.0
301
CELL_VALUE
 90
4
  1
Metric Units
304
ACVALUE_END
170
5
140
0.145
171
1
172
0
173
0
174
0
175
1
176
1
 91
33
178
0
145
0.0
301
CELL_VALUE
 90
4
  1
Cavity
304
ACVALUE_END
170
5
140
0.125
171
1
172
0
173
0
174
0
175
2
176
1
 91
33
178
0
145
0.0
301
CELL_VALUE
 90
4
  1
T-17A
304
ACVALUE_END
170
5
140
0.125
171
1
172
0
173
1
174
0
175
1
176
1
 91
1
178
0
145
0.0
170
1
171
1
172
0
173
0
174
0
175
1
176
1
 91
33
178
0
145
0.0
301
CELL_VALUE
 90
4
  1
Body Features
304
ACVALUE_END
170
5
140
0.125
171
1
172
0
173
0
174
0
175
2
176
1
 91
33
178
0
145
0.0
301
CELL_VALUE
 90
4
  1
Cross pilot
304
ACVALUE_END
170
5
140
0.125
171
1
172
0
173
1
174
0
175
1
176
1
 91
1
178
0
145
0.0
170
1
171
1
172
0
173
0
174
0
175
1
176
1
 91
33
178
0
145
0.0
301
CELL_VALUE
 90
4
  1
Body Type
304
ACVALUE_END
170
5
140
0.125
171
1
172
0
173
0
174
0
175
2
176
1
 91
33
178
0
145
0.0
301
CELL_VALUE
 90
4
  1
Motor mount
304
ACVALUE_END
170
5
140
0.125
171
1
172
0
173
1
174
0
175
1
176
1
 91
1
178
0
145
0.0
170
1
171
1
172
0
173
0
174
0
175
1
176
1
 91
33
178
0
145
0.0
301
CELL_VALUE
 90
4
  1
Interface
304
ACVALUE_END
170
5
140
0.125
171
1
172
0
173
0
174
0
175
2
176
1
 91
33
178
0
145
0.0
301
CELL_VALUE
 90
4
  1
Staffa 4", 5 piston
304
ACVALUE_END
170
5
140
0.125
171
1
172
0
173
1
174
0
175
1
176
1
 91
1
178
0
145
0.0
170
1
171
1
172
0
173
0
174
0
175
1
176
1
 91
33
178
0
145
0.0
301
CELL_VALUE
 90
4
  1
Open Cavity Quantity
304
ACVALUE_END
170
5
140
0.125
171
1
172
0
173
0
174
0
175
2
176
1
 91
33
178
0
145
0.0
301
CELL_VALUE
 90
4
  1
2
304
ACVALUE_END
170
5
140
0.125
171
1
172
0
173
1
174
0
175
1
176
1
 91
1
178
0
145
0.0
170
1
171
1
172
0
173
0
174
0
175
1
176
1
 91
33
178
0
145
0.0
301
CELL_VALUE
 90
4
  1
Weight
304
ACVALUE_END
170
5
140
0.125
171
1
172
0
173
0
174
0
175
1
176
1
 91
33
178
0
145
0.0
301
CELL_VALUE
 90
4
  1
3.686 lb.
304
ACVALUE_END
170
5
140
0.125
171
1
172
0
173
0
174
0
175
1
176
1
 91
33
178
0
145
0.0
301
CELL_VALUE
 90
4
  1
1,672 kg.
304
ACVALUE_END
170
5
140
0.125
  0
ACAD_TABLE
  5
279
100
AcDbEntity
  8
0
 62
2
  6
CONTINUOUS
100
AcDbBlockReference
  2
*T3
 10
0.52125
 20
1.459
 30
0.0
100
AcDbTable
342
       3A2
343
209
 11
1.0
 21
0.0
 31
0.0
 90
22
 91
3
 92
3
 93
16
 94
0
 95
0
 96
0
 41
0.05
141
0.34375
141
0.344
141
0.25
142
1.3
142
2.0
142
1.3
171
1
172
0
173
0
174
0
175
3
176
1
 91
33
178
0
145
0.0
301
CELL_VALUE
 90
4
  1
Port Headings
304
ACVALUE_END
170
5
140
0.145
171
1
172
0
173
1
174
0
175
1
176
1
 91
1
178
0
145
0.0
170
1
171
1
172
0
173
1
174
0
175
1
176
1
 91
1
178
0
145
0.0
170
1
171
1
172
0
173
0
174
0
175
1
176
1
 91
33
178
0
145
0.0
301
CELL_VALUE
 90
4
  1
Product
304
ACVALUE_END
170
5
140
0.145
171
1
172
0
173
0
174
0
175
1
176
1
 91
33
178
0
145
0.0
301
CELL_VALUE
 90
4
  1
Port
304
ACVALUE_END
170
5
140
0.145
171
1
172
0
173
0
174
0
175
1
176
1
 91
33
178
0
145
0.0
301
CELL_VALUE
 90
4
  1
Size
304
ACVALUE_END
170
5
140
0.145
171
1
172
0
173
0
174
0
175
1
176
1
 91
33
178
0
145
0.0
301
CELL_VALUE
 90
4
  1
XYM
304
ACVALUE_END
170
5
140
0.125
171
1
172
0
173
0
174
0
175
1
176
1
 91
33
178
0
145
0.0
301
CELL_VALUE
 90
4
  1
Ports V1 & V2
304
ACVALUE_END
170
5
140
0.125
171
1
172
0
173
0
174
0
175
1
176
1
 91
33
178
0
145
0.0
301
CELL_VALUE
 90
4
  1
1"  NPTF
304
ACVALUE_END
170
5
140
0.125
  0
MTEXT
  5
27A
100
AcDbEntity
  8
0
100
AcDbMText
 62
2
  6
CONTINUOUS
  7
STANDARD
 71
1
 72
1
 10
0.52125
 20
5.75995
 30
0.0
 11
1.0
 21
0.0
 31
0.0
 44
0.6
  3
Notes\P \P1. Important: Carefully consider\P   the maximum system pressure. The\P   pressure rating of the manifold is\P   dependent on the manifold material,\P   with the port type/size a secondary\P   consideration. Manifolds\P   constructed of alu
  1
minum are not\P   rated for pressures higher than\P   3000 psi (210 bar), regardless of\P   the port type/size specified.
 40
0.1
 41
3.04
  0
LINE
  5
27B
100
AcDbEntity
  8
0
100
AcDbLine
 62
7
  6
CONTINUOUS
 10
0.30125
 20
0.30125
 11
0.30125
 21
16.69875
  0
LINE
  5
27C
100
AcDbEntity
  8
0
100
AcDbLine
 62
7
  6
CONTINUOUS
 10
0.30125
 20
0.30125
 11
21.69875
 21
0.30125
  0
LINE
  5
27D
100
AcDbEntity
  8
0
100
AcDbLine
 62
7
  6
CONTINUOUS
 10
0.30125
 20
16.69875
 11
21.69875
 21
16.69875
  0
LINE
  5
27E
100
AcDbEntity
  8
0
100
AcDbLine
 62
7
  6
CONTINUOUS
 10
21.69875
 20
0.30125
 11
21.69875
 21
16.69875
  0
LINE
  5
27F
100
AcDbEntity
  8
0
100
AcDbLine
 62
7
  6
CONTINUOUS
 10
9.1790591044
 20
5.8006109365
 11
12.076836755
 21
5.5996493739
  0
LINE
  5
280
100
AcDbEntity
  8
0
100
AcDbLine
 62
7
  6
CONTINUOUS
 10
9.923163245
 20
11.1374521677
 11
9.1790591044
 21
10.4187027183
  0
LINE
  5
281
100
AcDbEntity
  8
0
100
AcDbLine
 62
7
  6
CONTINUOUS
 10
10.1774954163
 20
11.1198141717
 11
10.3712652732
 21
11.306981492
  0
LINE
  5
282
100
AcDbEntity
  8
0
100
AcDbLine
 62
7
  6
CONTINUOUS
 10
10.6317952527
 20
11.3994832323
 11
10.3312234
 21
11.1091530999
  0
LINE
  5
283
100
AcDbEntity
  8
0
100
AcDbLine
 62
7
  6
CONTINUOUS
 10
9.1790591044
 20
5.8006109365
 11
9.1790591044
 21
10.4187027183
  0
LINE
  5
284
100
AcDbEntity
  8
0
100
AcDbLine
 62
7
  6
CONTINUOUS
 10
12.3202336971
 20
11.2823896284
 11
12.0196618444
 21
10.992059496
  0
LINE
  5
285
100
AcDbEntity
  8
0
100
AcDbLine
 62
7
  6
CONTINUOUS
 10
10.6619694957
 20
9.6702873489
 11
10.6673752409
 21
9.6755088981
  0
LINE
  5
286
100
AcDbEntity
  8
0
100
AcDbLine
 62
4
  6
CONTINUOUS
 10
12.3687844024
 20
7.1634327706
 11
12.3377261433
 21
7.1696550141
  0
LINE
  5
287
100
AcDbEntity
  8
0
100
AcDbLine
 62
7
  6
CONTINUOUS
 10
12.076836755
 20
10.2177411557
 11
12.8209408956
 21
10.9364906051
  0
LINE
  5
288
100
AcDbEntity
  8
0
100
AcDbLine
 62
4
  6
CONTINUOUS
 10
12.3219382092
 20
7.8344860232
 11
12.2908799501
 21
7.837603503
  0
LINE
  5
289
100
AcDbEntity
  8
0
100
AcDbLine
 62
4
  6
CONTINUOUS
 10
12.1709359115
 20
7.9204511963
 11
12.1413566166
 21
7.924997232
  0
LINE
  5
28A
100
AcDbEntity
  8
0
100
AcDbLine
 62
4
  6
CONTINUOUS
 10
12.1324828288
 20
8.3386733939
 11
12.1347012767
 21
8.3380564725
  0
LINE
  5
28B
100
AcDbEntity
  8
0
100
AcDbLine
 62
4
  6
CONTINUOUS
 10
12.3429025204
 20
9.2151734372
 11
12.3480788957
 21
9.2201734321
  0
LINE
  5
28C
100
AcDbEntity
  8
0
100
AcDbLine
 62
4
  6
CONTINUOUS
 10
12.3610198376
 20
9.1819623151
 11
12.3687844024
 21
9.1822178652
  0
LINE
  5
28D
100
AcDbEntity
  8
0
100
AcDbLine
 62
4
  6
CONTINUOUS
 10
12.2402993566
 20
8.165457428
 11
12.2225517801
 21
8.1814320545
  0
LINE
  5
28E
100
AcDbEntity
  8
0
100
AcDbLine
 62
4
  6
CONTINUOUS
 10
12.2536100392
 20
7.946492354
 11
12.2225517801
 21
7.9827272969
  0
LINE
  5
28F
100
AcDbEntity
  8
0
100
AcDbLine
 62
4
  6
CONTINUOUS
 10
12.1369197227
 20
7.4239496653
 11
12.1324828288
 21
7.4362226845
  0
LINE
  5
290
100
AcDbEntity
  8
0
100
AcDbLine
 62
4
  6
CONTINUOUS
 10
12.1613226407
 20
8.5321177816
 11
12.1546672992
 21
8.525689215
  0
LINE
  5
291
100
AcDbEntity
  8
0
100
AcDbLine
 62
4
  6
CONTINUOUS
 10
12.1502304053
 20
8.4717273961
 11
12.1435750645
 21
8.4652988301
  0
LINE
  5
292
100
AcDbEntity
  8
0
100
AcDbLine
 62
4
  6
CONTINUOUS
 10
12.1613226407
 20
8.4079273452
 11
12.1435750645
 21
8.390784502
  0
LINE
  5
293
100
AcDbEntity
  8
0
100
AcDbLine
 62
4
  6
CONTINUOUS
 10
12.1635410879
 20
8.3659135926
 11
12.1413566166
 21
8.3444850375
  0
LINE
  5
294
100
AcDbEntity
  8
0
100
AcDbLine
 62
4
  6
CONTINUOUS
 10
12.1347012767
 20
8.3380564725
 11
12.1324828288
 21
8.3359136162
  0
LINE
  5
295
100
AcDbEntity
  8
0
100
AcDbLine
 62
4
  6
CONTINUOUS
 10
12.3219382092
 20
8.4995949929
 11
12.2908799501
 21
8.4695950166
  0
LINE
  5
296
100
AcDbEntity
  8
0
100
AcDbLine
 62
4
  6
CONTINUOUS
 10
12.3687844024
 20
9.0952845376
 11
12.3377261433
 21
9.1015067811
  0
LINE
  5
297
100
AcDbEntity
  8
0
100
AcDbLine
 62
4
  6
CONTINUOUS
 10
12.2358624618
 20
8.061819348
 11
12.2225517801
 21
8.0820796722
  0
LINE
  5
298
100
AcDbEntity
  8
0
100
AcDbLine
 62
4
  6
CONTINUOUS
 10
12.1635410879
 20
7.4910607546
 11
12.1591041935
 21
7.5033337716
  0
LINE
  5
299
100
AcDbEntity
  8
0
100
AcDbLine
 62
4
  6
CONTINUOUS
 10
12.1635410879
 20
7.5821337694
 11
12.1591041935
 21
7.5944067795
  0
LINE
  5
29A
100
AcDbEntity
  8
0
100
AcDbLine
 62
7
  6
CONTINUOUS
 10
12.076836755
 20
5.5996493739
 11
12.076836755
 21
10.2177411557
  0
LINE
  5
29B
100
AcDbEntity
  8
0
100
AcDbLine
 62
4
  6
CONTINUOUS
 10
12.1324828288
 20
7.4362226845
 11
12.1324828288
 21
7.4693401423
  0
LINE
  5
29C
100
AcDbEntity
  8
0
100
AcDbLine
 62
4
  6
CONTINUOUS
 10
12.1324828288
 20
8.3359136162
 11
12.1324828288
 21
8.3386733939
  0
LINE
  5
29D
100
AcDbEntity
  8
0
100
AcDbLine
 62
4
  6
CONTINUOUS
 10
12.1413566166
 20
8.1457803283
 11
12.1413566166
 21
8.1043834977
  0
LINE
  5
29E
100
AcDbEntity
  8
0
100
AcDbLine
 62
4
  6
CONTINUOUS
 10
12.1413566166
 20
7.7925274074
 11
12.1413566166
 21
7.833924238
  0
LINE
  5
29F
100
AcDbEntity
  8
0
100
AcDbLine
 62
4
  6
CONTINUOUS
 10
12.1413566166
 20
7.9636342849
 11
12.1413566166
 21
7.9967517272
  0
LINE
  5
2A0
100
AcDbEntity
  8
0
100
AcDbLine
 62
4
  6
CONTINUOUS
 10
12.1413566166
 20
8.0298692248
 11
12.1413566166
 21
8.0629866672
  0
LINE
  5
2A1
100
AcDbEntity
  8
0
100
AcDbLine
 62
4
  6
CONTINUOUS
 10
12.1413566166
 20
8.3969209787
 11
12.1413566166
 21
8.4300385316
  0
LINE
  5
2A2
100
AcDbEntity
  8
0
100
AcDbLine
 62
4
  6
CONTINUOUS
 10
12.1413566166
 20
8.4714353068
 11
12.1413566166
 21
8.5045527492
  0
LINE
  5
2A3
100
AcDbEntity
  8
0
100
AcDbLine
 62
4
  6
CONTINUOUS
 10
12.1524488522
 20
8.1316564964
 11
12.1524488522
 21
8.1647739388
  0
LINE
  5
2A4
100
AcDbEntity
  8
0
100
AcDbLine
 62
4
  6
CONTINUOUS
 10
12.1635410879
 20
8.4514670866
 11
12.1635410879
 21
8.4183495337
  0
LINE
  5
2A5
100
AcDbEntity
  8
0
100
AcDbLine
 62
4
  6
CONTINUOUS
 10
12.1635410879
 20
8.3162374291
 11
12.1635410879
 21
8.2996787079
  0
LINE
  5
2A6
100
AcDbEntity
  8
0
100
AcDbLine
 62
4
  6
CONTINUOUS
 10
12.1635410879
 20
8.1754882163
 11
12.1635410879
 21
8.1423707739
  0
LINE
  5
2A7
100
AcDbEntity
  8
0
100
AcDbLine
 62
4
  6
CONTINUOUS
 10
12.1635410879
 20
8.0181802823
 11
12.1635410879
 21
7.98506284
  0
LINE
  5
2A8
100
AcDbEntity
  8
0
100
AcDbLine
 62
4
  6
CONTINUOUS
 10
12.1635410879
 20
7.4579432959
 11
12.1635410879
 21
7.4910607546
  0
LINE
  5
2A9
100
AcDbEntity
  8
0
100
AcDbLine
 62
4
  6
CONTINUOUS
 10
12.1635410879
 20
7.5572956669
 11
12.1635410879
 21
7.5821337694
  0
LINE
  5
2AA
100
AcDbEntity
  8
0
100
AcDbLine
 62
4
  6
CONTINUOUS
 10
12.1635410879
 20
8.2168850468
 11
12.1635410879
 21
8.2582818774
  0
LINE
  5
2AB
100
AcDbEntity
  8
0
100
AcDbLine
 62
4
  6
CONTINUOUS
 10
12.1635410879
 20
8.4928638619
 11
12.1635410879
 21
8.5259813042
  0
LINE
  5
2AC
100
AcDbEntity
  8
0
100
AcDbLine
 62
4
  6
CONTINUOUS
 10
12.1709359115
 20
7.9038924751
 11
12.1709359115
 21
7.9204511963
  0
LINE
  5
2AD
100
AcDbEntity
  8
0
100
AcDbLine
 62
4
  6
CONTINUOUS
 10
12.1531883345
 20
8.5159813118
 11
12.1517093699
 21
8.4814352993
  0
LINE
  5
2AE
100
AcDbEntity
  8
0
100
AcDbLine
 62
4
  6
CONTINUOUS
 10
12.1546672992
 20
8.525689215
 11
12.1531883345
 21
8.5159813118
  0
LINE
  5
2AF
100
AcDbEntity
  8
0
100
AcDbLine
 62
4
  6
CONTINUOUS
 10
12.1517093699
 20
8.4814352993
 11
12.1502304053
 21
8.4717273961
  0
LINE
  5
2B0
100
AcDbEntity
  8
0
100
AcDbLine
 62
4
  6
CONTINUOUS
 10
12.1413566166
 20
8.5045527492
 11
12.1435750645
 21
8.5149749383
  0
LINE
  5
2B1
100
AcDbEntity
  8
0
100
AcDbLine
 62
4
  6
CONTINUOUS
 10
12.1613226407
 20
8.4824416734
 11
12.1635410879
 21
8.4928638619
  0
LINE
  5
2B2
100
AcDbEntity
  8
0
100
AcDbLine
 62
4
  6
CONTINUOUS
 10
12.1635410879
 20
8.4183495337
 11
12.1613226407
 21
8.4079273452
  0
LINE
  5
2B3
100
AcDbEntity
  8
0
100
AcDbLine
 62
4
  6
CONTINUOUS
 10
12.3403143309
 20
9.205428994
 11
12.3429025204
 21
9.2151734372
  0
LINE
  5
2B4
100
AcDbEntity
  8
0
100
AcDbLine
 62
4
  6
CONTINUOUS
 10
12.3377261433
 20
9.0290623415
 11
12.3687844024
 21
9.0952845376
  0
LINE
  5
2B5
100
AcDbEntity
  8
0
100
AcDbLine
 62
4
  6
CONTINUOUS
 10
12.295316844
 20
8.4269642861
 11
12.3175013149
 21
8.4483928407
  0
LINE
  5
2B6
100
AcDbEntity
  8
0
100
AcDbLine
 62
4
  6
CONTINUOUS
 10
12.1613226407
 20
8.2892564642
 11
12.1324828288
 21
8.2613993434
  0
LINE
  5
2B7
100
AcDbEntity
  8
0
100
AcDbLine
 62
4
  6
CONTINUOUS
 10
12.1635410879
 20
8.2582818774
 11
12.1413566166
 21
8.2368533223
  0
LINE
  5
2B8
100
AcDbEntity
  8
0
100
AcDbLine
 62
4
  6
CONTINUOUS
 10
12.3219382092
 20
8.3947230001
 11
12.2908799501
 21
8.3647230237
  0
LINE
  5
2B9
100
AcDbEntity
  8
0
100
AcDbLine
 62
4
  6
CONTINUOUS
 10
12.1413566166
 20
8.1871771036
 11
12.1613226407
 21
8.2064628031
  0
LINE
  5
2BA
100
AcDbEntity
  8
0
100
AcDbLine
 62
4
  6
CONTINUOUS
 10
12.295316844
 20
8.3358912921
 11
12.3175013149
 21
8.3573198467
  0
LINE
  5
2BB
100
AcDbEntity
  8
0
100
AcDbLine
 62
4
  6
CONTINUOUS
 10
12.1635410879
 20
8.1754882163
 11
12.1457935105
 21
8.1583453719
  0
LINE
  5
2BC
100
AcDbEntity
  8
0
100
AcDbLine
 62
4
  6
CONTINUOUS
 10
12.3175013149
 20
8.2993642949
 11
12.295316844
 21
8.2779357404
  0
LINE
  5
2BD
100
AcDbEntity
  8
0
100
AcDbLine
 62
4
  6
CONTINUOUS
 10
12.1613226407
 20
8.1236691972
 11
12.1546672992
 21
8.1172406306
  0
LINE
  5
2BE
100
AcDbEntity
  8
0
100
AcDbLine
 62
4
  6
CONTINUOUS
 10
12.2225517801
 20
8.1814320545
 11
12.2536100392
 21
8.2114320308
  0
LINE
  5
2BF
100
AcDbEntity
  8
0
100
AcDbLine
 62
4
  6
CONTINUOUS
 10
12.1435750645
 20
8.0706490787
 11
12.1480119583
 21
8.0749347894
  0
LINE
  5
2C0
100
AcDbEntity
  8
0
100
AcDbLine
 62
4
  6
CONTINUOUS
 10
12.2536100392
 20
8.1451971047
 11
12.2225517801
 21
8.1151971284
  0
LINE
  5
2C1
100
AcDbEntity
  8
0
100
AcDbLine
 62
4
  6
CONTINUOUS
 10
12.3175013149
 20
8.2027717456
 11
12.295316844
 21
8.181343191
  0
LINE
  5
2C2
100
AcDbEntity
  8
0
100
AcDbLine
 62
4
  6
CONTINUOUS
 10
12.1635410879
 20
8.0512977799
 11
12.1413566166
 21
8.0298692248
  0
LINE
  5
2C3
100
AcDbEntity
  8
0
100
AcDbLine
 62
4
  6
CONTINUOUS
 10
12.1324828288
 20
7.9881803059
 11
12.1635410879
 21
8.0181802823
  0
LINE
  5
2C4
100
AcDbEntity
  8
0
100
AcDbLine
 62
4
  6
CONTINUOUS
 10
12.3175013149
 20
7.7832839124
 11
12.3219382092
 21
7.7710108955
  0
LINE
  5
2C5
100
AcDbEntity
  8
0
100
AcDbLine
 62
4
  6
CONTINUOUS
 10
12.1435750645
 20
8.390784502
 11
12.1413566166
 21
8.3969209787
  0
LINE
  5
2C6
100
AcDbEntity
  8
0
100
AcDbLine
 62
4
  6
CONTINUOUS
 10
12.1435750645
 20
8.4652988301
 11
12.1413566166
 21
8.4714353068
  0
LINE
  5
2C7
100
AcDbEntity
  8
0
100
AcDbLine
 62
4
  6
CONTINUOUS
 10
12.1635410879
 20
8.5259813042
 11
12.1613226407
 21
8.5321177816
  0
LINE
  5
2C8
100
AcDbEntity
  8
0
100
AcDbLine
 62
4
  6
CONTINUOUS
 10
12.295316844
 20
8.181343191
 11
12.2908799501
 21
8.1936162015
  0
LINE
  5
2C9
100
AcDbEntity
  8
0
100
AcDbLine
 62
4
  6
CONTINUOUS
 10
12.295316844
 20
8.2779357404
 11
12.2908799501
 21
8.2902087509
  0
LINE
  5
2CA
100
AcDbEntity
  8
0
100
AcDbLine
 62
4
  6
CONTINUOUS
 10
12.1435750645
 20
7.94921842
 11
12.1413566166
 21
7.9636342849
  0
LINE
  5
2CB
100
AcDbEntity
  8
0
100
AcDbLine
 62
4
  6
CONTINUOUS
 10
12.1546672992
 20
8.1172406306
 11
12.1524488522
 21
8.1316564964
  0
LINE
  5
2CC
100
AcDbEntity
  8
0
100
AcDbLine
 62
4
  6
CONTINUOUS
 10
12.3027116672
 20
7.6889643566
 11
12.3086275266
 21
7.6505220267
  0
LINE
  5
2CD
100
AcDbEntity
  8
0
100
AcDbLine
 62
4
  6
CONTINUOUS
 10
12.2908799501
 20
7.6996141024
 11
12.2908799501
 21
7.7410109191
  0
LINE
  5
2CE
100
AcDbEntity
  8
0
100
AcDbLine
 62
4
  6
CONTINUOUS
 10
12.2908799501
 20
7.9038384153
 11
12.2908799501
 21
7.9700733276
  0
LINE
  5
2CF
100
AcDbEntity
  8
0
100
AcDbLine
 62
4
  6
CONTINUOUS
 10
12.2908799501
 20
8.0031907976
 11
12.2908799501
 21
8.0528669887
  0
LINE
  5
2D0
100
AcDbEntity
  8
0
100
AcDbLine
 62
4
  6
CONTINUOUS
 10
12.2908799501
 20
8.1936162015
 11
12.2908799501
 21
8.2267336439
  0
LINE
  5
2D1
100
AcDbEntity
  8
0
100
AcDbLine
 62
4
  6
CONTINUOUS
 10
12.2908799501
 20
8.2902087509
 11
12.2908799501
 21
8.3150468602
  0
LINE
  5
2D2
100
AcDbEntity
  8
0
100
AcDbLine
 62
4
  6
CONTINUOUS
 10
12.2908799501
 20
8.3647230237
 11
12.2908799501
 21
8.4061198543
  0
LINE
  5
2D3
100
AcDbEntity
  8
0
100
AcDbLine
 62
4
  6
CONTINUOUS
 10
12.2908799501
 20
8.4695950166
 11
12.2908799501
 21
8.5192711801
  0
LINE
  5
2D4
100
AcDbEntity
  8
0
100
AcDbLine
 62
4
  6
CONTINUOUS
 10
12.3041906318
 20
8.5155695909
 11
12.3041906318
 21
8.4824521485
  0
LINE
  5
2D5
100
AcDbEntity
  8
0
100
AcDbLine
 62
4
  6
CONTINUOUS
 10
12.3041906318
 20
8.0491653995
 11
12.3041906318
 21
8.0160479295
  0
LINE
  5
2D6
100
AcDbEntity
  8
0
100
AcDbLine
 62
4
  6
CONTINUOUS
 10
12.3130644205
 20
7.8369537531
 11
12.3130644205
 21
7.8811103613
  0
LINE
  5
2D7
100
AcDbEntity
  8
0
100
AcDbLine
 62
4
  6
CONTINUOUS
 10
12.3219382092
 20
8.4361198306
 11
12.3219382092
 21
8.3947230001
  0
LINE
  5
2D8
100
AcDbEntity
  8
0
100
AcDbLine
 62
4
  6
CONTINUOUS
 10
12.3219382092
 20
8.3450468366
 11
12.3219382092
 21
8.3202087272
  0
LINE
  5
2D9
100
AcDbEntity
  8
0
100
AcDbLine
 62
4
  6
CONTINUOUS
 10
12.3219382092
 20
8.2567336202
 11
12.3219382092
 21
8.2236161779
  0
LINE
  5
2DA
100
AcDbEntity
  8
0
100
AcDbLine
 62
4
  6
CONTINUOUS
 10
12.3219382092
 20
7.7710108955
 11
12.3219382092
 21
7.7296140787
  0
LINE
  5
2DB
100
AcDbEntity
  8
0
100
AcDbLine
 62
4
  6
CONTINUOUS
 10
12.3219382092
 20
8.0331907739
 11
12.3219382092
 21
8.0828669651
  0
LINE
  5
2DC
100
AcDbEntity
  8
0
100
AcDbLine
 62
4
  6
CONTINUOUS
 10
12.3219382092
 20
8.4995949929
 11
12.3219382092
 21
8.5492711564
  0
LINE
  5
2DD
100
AcDbEntity
  8
0
100
AcDbLine
 62
4
  6
CONTINUOUS
 10
12.3377261433
 20
9.1739512207
 11
12.3377261433
 21
9.1884401087
  0
LINE
  5
2DE
100
AcDbEntity
  8
0
100
AcDbLine
 62
4
  6
CONTINUOUS
 10
12.3687844024
 20
9.1822178652
 11
12.3687844024
 21
9.2401734169
  0
LINE
  5
2DF
100
AcDbEntity
  8
0
100
AcDbLine
 62
4
  6
CONTINUOUS
 10
12.1635410879
 20
8.1423707739
 11
12.1613226407
 21
8.1236691972
  0
LINE
  5
2E0
100
AcDbEntity
  8
0
100
AcDbLine
 62
4
  6
CONTINUOUS
 10
12.1635410879
 20
7.98506284
 11
12.1613226407
 21
7.9663612632
  0
LINE
  5
2E1
100
AcDbEntity
  8
0
100
AcDbLine
 62
4
  6
CONTINUOUS
 10
12.3027116672
 20
8.5638171841
 11
12.3086275266
 21
8.6136880741
  0
LINE
  5
2E2
100
AcDbEntity
  8
0
100
AcDbLine
 62
4
  6
CONTINUOUS
 10
12.3086275266
 20
7.6505220267
 11
12.3145433856
 21
7.7003929196
  0
LINE
  5
2E3
100
AcDbEntity
  8
0
100
AcDbLine
 62
4
  6
CONTINUOUS
 10
12.3377261433
 20
9.1884401087
 11
12.3403143309
 21
9.205428994
  0
LINE
  5
2E4
100
AcDbEntity
  8
0
100
AcDbLine
 62
4
  6
CONTINUOUS
 10
12.1546672992
 20
7.4990480605
 11
12.1413566166
 21
7.428235376
  0
LINE
  5
2E5
100
AcDbEntity
  8
0
100
AcDbLine
 62
4
  6
CONTINUOUS
 10
12.1635410879
 20
8.2996787079
 11
12.1613226407
 21
8.2892564642
  0
LINE
  5
2E6
100
AcDbEntity
  8
0
100
AcDbLine
 62
4
  6
CONTINUOUS
 10
12.1613226407
 20
8.2064628031
 11
12.1635410879
 21
8.2168850468
  0
LINE
  5
2E7
100
AcDbEntity
  8
0
100
AcDbLine
 62
4
  6
CONTINUOUS
 10
12.1413566166
 20
7.833924238
 11
12.1435750645
 21
7.8443464548
  0
LINE
  5
2E8
100
AcDbEntity
  8
0
100
AcDbLine
 62
4
  6
CONTINUOUS
 10
12.2908799501
 20
8.4061198543
 11
12.295316844
 21
8.4269642861
  0
LINE
  5
2E9
100
AcDbEntity
  8
0
100
AcDbLine
 62
4
  6
CONTINUOUS
 10
12.2908799501
 20
8.3150468602
 11
12.295316844
 21
8.3358912921
  0
LINE
  5
2EA
100
AcDbEntity
  8
0
100
AcDbLine
 62
4
  6
CONTINUOUS
 10
12.1324828288
 20
7.4693401423
 11
12.1347012767
 21
7.4797623626
  0
LINE
  5
2EB
100
AcDbEntity
  8
0
100
AcDbLine
 62
4
  6
CONTINUOUS
 10
12.3219382092
 20
8.3202087272
 11
12.3175013149
 21
8.2993642949
  0
LINE
  5
2EC
100
AcDbEntity
  8
0
100
AcDbLine
 62
4
  6
CONTINUOUS
 10
12.1591041935
 20
7.5364512278
 11
12.1635410879
 21
7.5572956669
  0
LINE
  5
2ED
100
AcDbEntity
  8
0
100
AcDbLine
 62
4
  6
CONTINUOUS
 10
12.3219382092
 20
8.2236161779
 11
12.3175013149
 21
8.2027717456
  0
LINE
  5
2EE
100
AcDbEntity
  8
0
100
AcDbLine
 62
4
  6
CONTINUOUS
 10
12.1613226407
 20
7.4475210755
 11
12.1635410879
 21
7.4579432959
  0
LINE
  5
2EF
100
AcDbEntity
  8
0
100
AcDbLine
 62
4
  6
CONTINUOUS
 10
12.1413566166
 20
8.0629866672
 11
12.1435750645
 21
8.0706490787
  0
LINE
  5
2F0
100
AcDbEntity
  8
0
100
AcDbLine
 62
4
  6
CONTINUOUS
 10
12.2225517801
 20
8.015844753
 11
12.2358624618
 21
8.061819348
  0
LINE
  5
2F1
100
AcDbEntity
  8
0
100
AcDbLine
 62
4
  6
CONTINUOUS
 10
12.2225517801
 20
7.9164923776
 11
12.2536100392
 21
8.0127272732
  0
LINE
  5
2F2
100
AcDbEntity
  8
0
100
AcDbLine
 62
4
  6
CONTINUOUS
 10
12.1457935105
 20
8.1583453719
 11
12.1413566166
 21
8.1457803283
  0
LINE
  5
2F3
100
AcDbEntity
  8
0
100
AcDbLine
 62
4
  6
CONTINUOUS
 10
12.2225517801
 20
8.1151971284
 11
12.2402993566
 21
8.165457428
  0
LINE
  5
2F4
100
AcDbEntity
  8
0
100
AcDbLine
 62
4
  6
CONTINUOUS
 10
12.1324828288
 20
7.6018099704
 11
12.1635410879
 21
7.6897654984
  0
LINE
  5
2F5
100
AcDbEntity
  8
0
100
AcDbLine
 62
4
  6
CONTINUOUS
 10
12.1413566166
 20
7.8753210685
 11
12.1635410879
 21
7.9215877329
  0
LINE
  5
2F6
100
AcDbEntity
  8
0
100
AcDbLine
 62
4
  6
CONTINUOUS
 10
12.2358624618
 20
8.061819348
 11
12.2536100392
 21
8.0789621924
  0
LINE
  5
2F7
100
AcDbEntity
  8
0
100
AcDbLine
 62
4
  6
CONTINUOUS
 10
12.1613226407
 20
7.9663612632
 11
12.1435750645
 21
7.94921842
  0
LINE
  5
2F8
100
AcDbEntity
  8
0
100
AcDbLine
 62
4
  6
CONTINUOUS
 10
12.3219382092
 20
8.0331907739
 11
12.2908799501
 21
8.0031907976
  0
LINE
  5
2F9
100
AcDbEntity
  8
0
100
AcDbLine
 62
4
  6
CONTINUOUS
 10
12.1435750645
 20
7.8443464548
 11
12.1635410879
 21
7.8636321536
  0
LINE
  5
2FA
100
AcDbEntity
  8
0
100
AcDbLine
 62
4
  6
CONTINUOUS
 10
12.3219382092
 20
7.9669558616
 11
12.2908799501
 21
7.9369558853
  0
LINE
  5
2FB
100
AcDbEntity
  8
0
100
AcDbLine
 62
4
  6
CONTINUOUS
 10
12.1635410879
 20
7.8139559625
 11
12.1324828288
 21
7.7839559861
  0
LINE
  5
2FC
100
AcDbEntity
  8
0
100
AcDbLine
 62
4
  6
CONTINUOUS
 10
12.1635410879
 20
7.6897654984
 11
12.1324828288
 21
7.6597655221
  0
LINE
  5
2FD
100
AcDbEntity
  8
0
100
AcDbLine
 62
4
  6
CONTINUOUS
 10
12.3175013149
 20
8.3573198467
 11
12.3219382092
 21
8.3450468366
  0
LINE
  5
2FE
100
AcDbEntity
  8
0
100
AcDbLine
 62
4
  6
CONTINUOUS
 10
12.3175013149
 20
8.4483928407
 11
12.3219382092
 21
8.4361198306
  0
LINE
  5
2FF
100
AcDbEntity
  8
0
100
AcDbLine
 62
4
  6
CONTINUOUS
 10
12.3086275266
 20
8.6136880741
 11
12.3145433856
 21
8.5752457472
  0
LINE
  5
300
100
AcDbEntity
  8
0
100
AcDbLine
 62
4
  6
CONTINUOUS
 10
12.2908799501
 20
7.7410109191
 11
12.295316844
 21
7.7618553578
  0
LINE
  5
301
100
AcDbEntity
  8
0
100
AcDbLine
 62
4
  6
CONTINUOUS
 10
12.2908799501
 20
7.837603503
 11
12.3219382092
 21
7.9007209493
  0
LINE
  5
302
100
AcDbEntity
  8
0
100
AcDbLine
 62
4
  6
CONTINUOUS
 10
12.295316844
 20
7.7618553578
 11
12.3175013149
 21
7.7832839124
  0
LINE
  5
303
100
AcDbEntity
  8
0
100
AcDbLine
 62
4
  6
CONTINUOUS
 10
12.1635410879
 20
7.6318099467
 11
12.1324828288
 21
7.6018099704
  0
LINE
  5
304
100
AcDbEntity
  8
0
100
AcDbLine
 62
4
  6
CONTINUOUS
 10
12.1591041935
 20
7.5944067795
 11
12.1324828288
 21
7.5686925142
  0
LINE
  5
305
100
AcDbEntity
  8
0
100
AcDbLine
 62
4
  6
CONTINUOUS
 10
12.3219382092
 20
7.7296140787
 11
12.2908799501
 21
7.6996141024
  0
LINE
  5
306
100
AcDbEntity
  8
0
100
AcDbLine
 62
4
  6
CONTINUOUS
 10
12.1324828288
 20
7.5107369625
 11
12.1591041935
 21
7.5364512278
  0
LINE
  5
307
100
AcDbEntity
  8
0
100
AcDbLine
 62
4
  6
CONTINUOUS
 10
12.1591041935
 20
7.5033337716
 11
12.1546672992
 21
7.4990480605
  0
LINE
  5
308
100
AcDbEntity
  8
0
100
AcDbLine
 62
4
  6
CONTINUOUS
 10
12.1413566166
 20
7.428235376
 11
12.1369197227
 21
7.4239496653
  0
LINE
  5
309
100
AcDbEntity
  8
0
100
AcDbLine
 62
4
  6
CONTINUOUS
 10
12.3429025204
 20
9.1572178855
 11
12.3403143309
 21
9.1619623302
  0
LINE
  5
30A
100
AcDbEntity
  8
0
100
AcDbLine
 62
4
  6
CONTINUOUS
 10
12.3558434614
 20
9.1914512072
 11
12.3610198376
 21
9.1819623151
  0
LINE
  5
30B
100
AcDbEntity
  8
0
100
AcDbLine
 62
4
  6
CONTINUOUS
 10
12.3480788957
 20
9.2201734321
 11
12.3506670852
 21
9.2154289873
  0
LINE
  5
30C
100
AcDbEntity
  8
0
100
AcDbLine
 62
4
  6
CONTINUOUS
 10
12.3403143309
 20
9.1619623302
 11
12.3377261433
 21
9.1739512207
  0
LINE
  5
30D
100
AcDbEntity
  8
0
100
AcDbLine
 62
4
  6
CONTINUOUS
 10
12.3506670852
 20
9.2154289873
 11
12.3558434614
 21
9.1914512072
  0
LINE
  5
30E
100
AcDbEntity
  8
0
100
AcDbLine
 62
7
  6
CONTINUOUS
 10
12.8209408956
 20
6.3183988233
 11
12.8209408956
 21
10.9364906051
  0
LINE
  5
30F
100
AcDbEntity
  8
0
100
AcDbLine
 62
4
  6
CONTINUOUS
 10
12.3377261433
 20
7.0972105744
 11
12.3687844024
 21
7.1634327706
  0
LINE
  5
310
100
AcDbEntity
  8
0
100
AcDbLine
 62
4
  6
CONTINUOUS
 10
12.3377261433
 20
7.2493438977
 11
12.3687844024
 21
7.279343874
  0
LINE
  5
311
100
AcDbEntity
  8
0
100
AcDbLine
 62
7
  6
CONTINUOUS
 10
9.1790591044
 20
10.4187027183
 11
12.076836755
 21
10.2177411557
  0
LINE
  5
312
100
AcDbEntity
  8
0
100
AcDbLine
 62
7
  6
CONTINUOUS
 10
9.923163245
 20
11.1374521677
 11
12.8209408956
 21
10.9364906051
  0
LINE
  5
313
100
AcDbEntity
  8
0
100
AcDbLine
 62
7
  6
CONTINUOUS
 10
12.076836755
 20
5.5996493739
 11
12.8209408956
 21
6.3183988233
  0
LINE
  5
314
100
AcDbEntity
  8
0
100
AcDbLine
 62
7
  6
CONTINUOUS
 10
12.3202336971
 20
11.2823896284
 11
10.6317952527
 21
11.3994832323
  0
ARC
  5
315
100
AcDbEntity
  8
0
100
AcDbCircle
 62
7
  6
CONTINUOUS
 10
11.1000077442
 20
9.669391813
 40
0.6033552362
100
AcDbArc
 50
266.0248247759
 51
271.2212937902
  0
ARC
  5
316
100
AcDbEntity
  8
0
100
AcDbCircle
 62
7
  6
CONTINUOUS
 10
11.1000077442
 20
7.737540046
 40
0.6033552362
100
AcDbArc
 50
266.0248247759
 51
271.2212937902
  0
ARC
  5
317
100
AcDbEntity
  8
0
100
AcDbCircle
 62
7
  6
CONTINUOUS
 10
11.1039051849
 20
9.6760801772
 40
0.5856788427
100
AcDbArc
 50
266.0300744363
 51
270.4777249033
  0
ARC
  5
318
100
AcDbEntity
  8
0
100
AcDbCircle
 62
7
  6
CONTINUOUS
 10
11.1039051849
 20
7.7442284102
 40
0.5856788427
100
AcDbArc
 50
266.0300744363
 51
270.4777249033
  0
ARC
  5
319
100
AcDbEntity
  8
0
100
AcDbCircle
 62
7
  6
CONTINUOUS
 10
11.1422357315
 20
9.8031366244
 40
0.498301703
100
AcDbArc
 50
194.409049104
 51
195.4622903081
  0
ARC
  5
31A
100
AcDbEntity
  8
0
100
AcDbCircle
 62
7
  6
CONTINUOUS
 10
11.0969019338
 20
9.6778178652
 40
0.4847850403
100
AcDbArc
 50
266.0322171455
 51
268.3189254131
  0
ARC
  5
31B
100
AcDbEntity
  8
0
100
AcDbCircle
 62
7
  6
CONTINUOUS
 10
11.0969019338
 20
7.7459660981
 40
0.4847850403
100
AcDbArc
 50
266.0322171455
 51
268.3189254131
  0
SPLINE
  5
31C
100
AcDbEntity
  8
0
100
AcDbSpline
 62
7
  6
CONTINUOUS
 70
0
 71
3
 72
41
 73
37
 74
0
 42
0.0000001
 43
0.0000001
 44
0.0000000001
 40
0.0
 40
0.0
 40
0.0
 40
0.0
 40
0.0311447108
 40
0.0467774295
 40
0.0624475249
 40
0.0938924651
 40
0.1254747955
 40
0.1571823865
 40
0.1890004527
 40
0.2209120576
 40
0.2528984154
 40
0.2689156901
 40
0.2849439669
 40
0.3170180467
 40
0.3491033961
 40
0.3811778561
 40
0.4132194776
 40
0.4452069463
 40
0.4771199982
 40
0.5089398211
 40
0.5406494354
 40
0.5722340478
 40
0.6036813723
 40
0.6349819093
 40
0.666129179
 40
0.6971198991
 40
0.7279541027
 40
0.7586351871
 40
0.7891698911
 40
0.819568195
 40
0.8498431417
 40
0.8800105805
 40
0.9100888347
 40
0.9400983003
 40
0.9700609852
 40
1.0
 40
1.0
 40
1.0
 40
1.0
 10
9.5712250019
 20
10.3016744821
 30
0.0
 10
9.578230342
 20
10.3011886602
 30
0.0
 10
9.5887303917
 20
10.3000746703
 30
0.0
 10
9.6026334105
 20
10.2978360004
 30
0.0
 10
9.6165143472
 20
10.2950875897
 30
0.0
 10
9.6337265097
 20
10.2907105186
 30
0.0
 10
9.6540203131
 20
10.2839920356
 30
0.0
 10
9.6738719411
 20
10.2758369815
 30
0.0
 10
9.693175091
 20
10.2662889746
 30
0.0
 10
9.7118265799
 20
10.255399398
 30
0.0
 10
9.726738832
 20
10.2452583289
 30
0.0
 10
9.7382466926
 20
10.2365363978
 30
0.0
 10
9.7494651266
 20
10.2274138121
 30
0.0
 10
9.7629013187
 20
10.2152935288
 30
0.0
 10
9.7779962772
 20
10.1996843074
 30
0.0
 10
9.7919883298
 20
10.1830881471
 30
0.0
 10
9.8048023844
 20
10.1655938907
 30
0.0
 10
9.8163702292
 20
10.1472946512
 30
0.0
 10
9.8266301
 20
10.1282879613
 30
0.0
 10
9.8355272194
 20
10.1086750887
 30
0.0
 10
9.8430140314
 20
10.0885605488
 30
0.0
 10
9.8490504699
 20
10.0680515431
 30
0.0
 10
9.8536041701
 20
10.047257399
 30
0.0
 10
9.8566506454
 20
10.0262889937
 30
0.0
 10
9.8581734232
 20
10.0052581716
 30
0.0
 10
9.8581641392
 20
9.9842771551
 30
0.0
 10
9.8566225958
 20
9.9634579519
 30
0.0
 10
9.853556773
 20
9.9429117608
 30
0.0
 10
9.8489827966
 20
9.9227483812
 30
0.0
 10
9.8429248645
 20
9.9030756227
 30
0.0
 10
9.835415141
 20
9.8839987353
 30
0.0
 10
9.8264935617
 20
9.8656198024
 30
0.0
 10
9.8162077677
 20
9.8480373162
 30
0.0
 10
9.8046123509
 20
9.831345146
 30
0.0
 10
9.7917704565
 20
9.815633843
 30
0.0
 10
9.782419855
 20
9.8058655592
 30
0.0
 10
9.7775646561
 20
9.8011757992
 30
0.0
  0
SPLINE
  5
31D
100
AcDbEntity
  8
0
100
AcDbSpline
 62
7
  6
CONTINUOUS
 70
0
 71
3
 72
41
 73
37
 74
0
 42
0.0000001
 43
0.0000001
 44
0.0000000001
 40
0.0
 40
0.0
 40
0.0
 40
0.0
 40
0.0311447108
 40
0.0467774295
 40
0.0624475249
 40
0.0938924651
 40
0.1254747955
 40
0.1571823865
 40
0.1890004527
 40
0.2209120576
 40
0.2528984154
 40
0.2689156901
 40
0.2849439669
 40
0.3170180467
 40
0.3491033961
 40
0.3811778561
 40
0.4132194776
 40
0.4452069463
 40
0.4771199982
 40
0.5089398211
 40
0.5406494354
 40
0.5722340478
 40
0.6036813723
 40
0.6349819093
 40
0.666129179
 40
0.6971198991
 40
0.7279541027
 40
0.7586351871
 40
0.7891698911
 40
0.819568195
 40
0.8498431417
 40
0.8800105805
 40
0.9100888347
 40
0.9400983003
 40
0.9700609852
 40
1.0
 40
1.0
 40
1.0
 40
1.0
 10
11.2615952117
 20
10.1844469099
 30
0.0
 10
11.2686005519
 20
10.1839610879
 30
0.0
 10
11.2791006015
 20
10.1828470981
 30
0.0
 10
11.2930036203
 20
10.1806084282
 30
0.0
 10
11.306884557
 20
10.1778600175
 30
0.0
 10
11.3240967195
 20
10.1734829464
 30
0.0
 10
11.3443905229
 20
10.1667644634
 30
0.0
 10
11.3642421509
 20
10.1586094093
 30
0.0
 10
11.3835453008
 20
10.1490614024
 30
0.0
 10
11.4021967897
 20
10.1381718258
 30
0.0
 10
11.4171090418
 20
10.1280307567
 30
0.0
 10
11.4286169024
 20
10.1193088256
 30
0.0
 10
11.4398353364
 20
10.1101862399
 30
0.0
 10
11.4532715286
 20
10.0980659566
 30
0.0
 10
11.468366487
 20
10.0824567351
 30
0.0
 10
11.4823585396
 20
10.0658605749
 30
0.0
 10
11.4951725942
 20
10.0483663185
 30
0.0
 10
11.506740439
 20
10.030067079
 30
0.0
 10
11.5170003098
 20
10.0110603891
 30
0.0
 10
11.5258974292
 20
9.9914475164
 30
0.0
 10
11.5333842412
 20
9.9713329766
 30
0.0
 10
11.5394206797
 20
9.9508239709
 30
0.0
 10
11.5439743799
 20
9.9300298268
 30
0.0
 10
11.5470208552
 20
9.9090614215
 30
0.0
 10
11.548543633
 20
9.8880305994
 30
0.0
 10
11.548534349
 20
9.8670495829
 30
0.0
 10
11.5469928056
 20
9.8462303797
 30
0.0
 10
11.5439269828
 20
9.8256841886
 30
0.0
 10
11.5393530064
 20
9.805520809
 30
0.0
 10
11.5332950743
 20
9.7858480505
 30
0.0
 10
11.5257853508
 20
9.766771163
 30
0.0
 10
11.5168637715
 20
9.7483922302
 30
0.0
 10
11.5065779775
 20
9.730809744
 30
0.0
 10
11.4949825607
 20
9.7141175738
 30
0.0
 10
11.4821406663
 20
9.6984062707
 30
0.0
 10
11.4727900648
 20
9.688637987
 30
0.0
 10
11.4679348659
 20
9.683948227
 30
0.0
  0
SPLINE
  5
31E
100
AcDbEntity
  8
0
100
AcDbSpline
 62
7
  6
CONTINUOUS
 70
0
 71
3
 72
41
 73
37
 74
0
 42
0.0000001
 43
0.0000001
 44
0.0000000001
 40
0.0
 40
0.0
 40
0.0
 40
0.0
 40
0.0311447108
 40
0.0467774295
 40
0.0624475249
 40
0.0938924651
 40
0.1254747955
 40
0.1571823865
 40
0.1890004527
 40
0.2209120576
 40
0.2528984154
 40
0.2689156901
 40
0.2849439669
 40
0.3170180467
 40
0.3491033961
 40
0.3811778561
 40
0.4132194776
 40
0.4452069463
 40
0.4771199982
 40
0.5089398211
 40
0.5406494354
 40
0.5722340478
 40
0.6036813723
 40
0.6349819093
 40
0.666129179
 40
0.6971198991
 40
0.7279541027
 40
0.7586351871
 40
0.7891698911
 40
0.819568195
 40
0.8498431417
 40
0.8800105805
 40
0.9100888347
 40
0.9400983003
 40
0.9700609852
 40
1.0
 40
1.0
 40
1.0
 40
1.0
 10
11.2615952117
 20
8.2525953732
 30
0.0
 10
11.2686005519
 20
8.2521095512
 30
0.0
 10
11.2791006015
 20
8.2509955614
 30
0.0
 10
11.2930036203
 20
8.2487568915
 30
0.0
 10
11.306884557
 20
8.2460084808
 30
0.0
 10
11.3240967195
 20
8.2416314097
 30
0.0
 10
11.3443905229
 20
8.2349129266
 30
0.0
 10
11.3642421509
 20
8.2267578726
 30
0.0
 10
11.3835453008
 20
8.2172098656
 30
0.0
 10
11.4021967897
 20
8.206320289
 30
0.0
 10
11.4171090418
 20
8.19617922
 30
0.0
 10
11.4286169024
 20
8.1874572889
 30
0.0
 10
11.4398353364
 20
8.1783347032
 30
0.0
 10
11.4532715286
 20
8.1662144198
 30
0.0
 10
11.468366487
 20
8.1506051984
 30
0.0
 10
11.4823585396
 20
8.1340090382
 30
0.0
 10
11.4951725942
 20
8.1165147818
 30
0.0
 10
11.506740439
 20
8.0982155422
 30
0.0
 10
11.5170003098
 20
8.0792088523
 30
0.0
 10
11.5258974292
 20
8.0595959797
 30
0.0
 10
11.5333842412
 20
8.0394814398
 30
0.0
 10
11.5394206797
 20
8.0189724342
 30
0.0
 10
11.5439743799
 20
7.99817829
 30
0.0
 10
11.5470208552
 20
7.9772098847
 30
0.0
 10
11.548543633
 20
7.9561790626
 30
0.0
 10
11.548534349
 20
7.9351980461
 30
0.0
 10
11.5469928056
 20
7.9143788429
 30
0.0
 10
11.5439269828
 20
7.8938326519
 30
0.0
 10
11.5393530064
 20
7.8736692722
 30
0.0
 10
11.5332950743
 20
7.8539965138
 30
0.0
 10
11.5257853508
 20
7.8349196263
 30
0.0
 10
11.5168637715
 20
7.8165406934
 30
0.0
 10
11.5065779775
 20
7.7989582072
 30
0.0
 10
11.4949825607
 20
7.7822660371
 30
0.0
 10
11.4821406663
 20
7.766554734
 30
0.0
 10
11.4727900648
 20
7.7567864503
 30
0.0
 10
11.4679348659
 20
7.7520966903
 30
0.0
  0
SPLINE
  5
31F
100
AcDbEntity
  8
0
100
AcDbSpline
 62
7
  6
CONTINUOUS
 70
0
 71
3
 72
41
 73
37
 74
0
 42
0.0000001
 43
0.0000001
 44
0.0000000001
 40
0.0
 40
0.0
 40
0.0
 40
0.0
 40
0.0311447108
 40
0.0467774295
 40
0.0624475249
 40
0.0938924651
 40
0.1254747955
 40
0.1571823865
 40
0.1890004527
 40
0.2209120576
 40
0.2528984154
 40
0.2689156901
 40
0.2849439669
 40
0.3170180467
 40
0.3491033961
 40
0.3811778561
 40
0.4132194776
 40
0.4452069463
 40
0.4771199982
 40
0.5089398211
 40
0.5406494354
 40
0.5722340478
 40
0.6036813723
 40
0.6349819093
 40
0.666129179
 40
0.6971198991
 40
0.7279541027
 40
0.7586351871
 40
0.7891698911
 40
0.819568195
 40
0.8498431417
 40
0.8800105805
 40
0.9100888347
 40
0.9400983003
 40
0.9700609852
 40
1.0
 40
1.0
 40
1.0
 40
1.0
 10
11.2615952117
 20
6.3207435774
 30
0.0
 10
11.2686005519
 20
6.3202577554
 30
0.0
 10
11.2791006015
 20
6.3191437655
 30
0.0
 10
11.2930036203
 20
6.3169050956
 30
0.0
 10
11.306884557
 20
6.3141566849
 30
0.0
 10
11.3240967195
 20
6.3097796139
 30
0.0
 10
11.3443905229
 20
6.3030611308
 30
0.0
 10
11.3642421509
 20
6.2949060767
 30
0.0
 10
11.3835453008
 20
6.2853580698
 30
0.0
 10
11.4021967897
 20
6.2744684932
 30
0.0
 10
11.4171090418
 20
6.2643274241
 30
0.0
 10
11.4286169024
 20
6.255605493
 30
0.0
 10
11.4398353364
 20
6.2464829073
 30
0.0
 10
11.4532715286
 20
6.234362624
 30
0.0
 10
11.468366487
 20
6.2187534026
 30
0.0
 10
11.4823585396
 20
6.2021572423
 30
0.0
 10
11.4951725942
 20
6.1846629859
 30
0.0
 10
11.506740439
 20
6.1663637464
 30
0.0
 10
11.5170003098
 20
6.1473570565
 30
0.0
 10
11.5258974292
 20
6.1277441839
 30
0.0
 10
11.5333842412
 20
6.107629644
 30
0.0
 10
11.5394206797
 20
6.0871206383
 30
0.0
 10
11.5439743799
 20
6.0663264942
 30
0.0
 10
11.5470208552
 20
6.0453580889
 30
0.0
 10
11.548543633
 20
6.0243272668
 30
0.0
 10
11.548534349
 20
6.0033462503
 30
0.0
 10
11.5469928056
 20
5.9825270471
 30
0.0
 10
11.5439269828
 20
5.961980856
 30
0.0
 10
11.5393530064
 20
5.9418174764
 30
0.0
 10
11.5332950743
 20
5.922144718
 30
0.0
 10
11.5257853508
 20
5.9030678305
 30
0.0
 10
11.5168637715
 20
5.8846888976
 30
0.0
 10
11.5065779775
 20
5.8671064114
 30
0.0
 10
11.4949825607
 20
5.8504142412
 30
0.0
 10
11.4821406663
 20
5.8347029382
 30
0.0
 10
11.4727900648
 20
5.8249346545
 30
0.0
 10
11.4679348659
 20
5.8202448945
 30
0.0
  0
SPLINE
  5
320
100
AcDbEntity
  8
0
100
AcDbSpline
 62
7
  6
CONTINUOUS
 70
0
 71
3
 72
41
 73
37
 74
0
 42
0.0000001
 43
0.0000001
 44
0.0000000001
 40
0.0
 40
0.0
 40
0.0
 40
0.0
 40
0.0311447108
 40
0.0467774295
 40
0.0624475249
 40
0.0938924651
 40
0.1254747955
 40
0.1571823865
 40
0.1890004527
 40
0.2209120576
 40
0.2528984154
 40
0.2689156901
 40
0.2849439669
 40
0.3170180467
 40
0.3491033961
 40
0.3811778561
 40
0.4132194776
 40
0.4452069463
 40
0.4771199982
 40
0.5089398211
 40
0.5406494354
 40
0.5722340478
 40
0.6036813723
 40
0.6349819093
 40
0.666129179
 40
0.6971198991
 40
0.7279541027
 40
0.7586351871
 40
0.7891698911
 40
0.819568195
 40
0.8498431417
 40
0.8800105805
 40
0.9100888347
 40
0.9400983003
 40
0.9700609852
 40
1.0
 40
1.0
 40
1.0
 40
1.0
 10
9.5712250019
 20
6.4379711496
 30
0.0
 10
9.578230342
 20
6.4374853276
 30
0.0
 10
9.5887303917
 20
6.4363713377
 30
0.0
 10
9.6026334105
 20
6.4341326679
 30
0.0
 10
9.6165143472
 20
6.4313842571
 30
0.0
 10
9.6337265097
 20
6.4270071861
 30
0.0
 10
9.6540203131
 20
6.420288703
 30
0.0
 10
9.6738719411
 20
6.412133649
 30
0.0
 10
9.693175091
 20
6.402585642
 30
0.0
 10
9.7118265799
 20
6.3916960654
 30
0.0
 10
9.726738832
 20
6.3815549963
 30
0.0
 10
9.7382466926
 20
6.3728330652
 30
0.0
 10
9.7494651266
 20
6.3637104795
 30
0.0
 10
9.7629013187
 20
6.3515901962
 30
0.0
 10
9.7779962772
 20
6.3359809748
 30
0.0
 10
9.7919883298
 20
6.3193848145
 30
0.0
 10
9.8048023844
 20
6.3018905581
 30
0.0
 10
9.8163702292
 20
6.2835913186
 30
0.0
 10
9.8266301
 20
6.2645846287
 30
0.0
 10
9.8355272194
 20
6.2449717561
 30
0.0
 10
9.8430140314
 20
6.2248572162
 30
0.0
 10
9.8490504699
 20
6.2043482106
 30
0.0
 10
9.8536041701
 20
6.1835540664
 30
0.0
 10
9.8566506454
 20
6.1625856611
 30
0.0
 10
9.8581734232
 20
6.141554839
 30
0.0
 10
9.8581641392
 20
6.1205738225
 30
0.0
 10
9.8566225958
 20
6.0997546193
 30
0.0
 10
9.853556773
 20
6.0792084283
 30
0.0
 10
9.8489827966
 20
6.0590450486
 30
0.0
 10
9.8429248645
 20
6.0393722902
 30
0.0
 10
9.835415141
 20
6.0202954027
 30
0.0
 10
9.8264935617
 20
6.0019164698
 30
0.0
 10
9.8162077677
 20
5.9843339836
 30
0.0
 10
9.8046123509
 20
5.9676418134
 30
0.0
 10
9.7917704565
 20
5.9519305104
 30
0.0
 10
9.782419855
 20
5.9421622267
 30
0.0
 10
9.7775646561
 20
5.9374724667
 30
0.0
  0
SPLINE
  5
321
100
AcDbEntity
  8
0
100
AcDbSpline
 62
7
  6
CONTINUOUS
 70
0
 71
3
 72
41
 73
37
 74
0
 42
0.0000001
 43
0.0000001
 44
0.0000000001
 40
0.0
 40
0.0
 40
0.0
 40
0.0
 40
0.0311447108
 40
0.0467774295
 40
0.0624475249
 40
0.0938924651
 40
0.1254747955
 40
0.1571823865
 40
0.1890004527
 40
0.2209120576
 40
0.2528984154
 40
0.2689156901
 40
0.2849439669
 40
0.3170180467
 40
0.3491033961
 40
0.3811778561
 40
0.4132194776
 40
0.4452069463
 40
0.4771199982
 40
0.5089398211
 40
0.5406494354
 40
0.5722340478
 40
0.6036813723
 40
0.6349819093
 40
0.666129179
 40
0.6971198991
 40
0.7279541027
 40
0.7586351871
 40
0.7891698911
 40
0.819568195
 40
0.8498431417
 40
0.8800105805
 40
0.9100888347
 40
0.9400983003
 40
0.9700609852
 40
1.0
 40
1.0
 40
1.0
 40
1.0
 10
9.5712250019
 20
8.3698229454
 30
0.0
 10
9.578230342
 20
8.3693371234
 30
0.0
 10
9.5887303917
 20
8.3682231336
 30
0.0
 10
9.6026334105
 20
8.3659844637
 30
0.0
 10
9.6165143472
 20
8.363236053
 30
0.0
 10
9.6337265097
 20
8.3588589819
 30
0.0
 10
9.6540203131
 20
8.3521404988
 30
0.0
 10
9.6738719411
 20
8.3439854448
 30
0.0
 10
9.693175091
 20
8.3344374378
 30
0.0
 10
9.7118265799
 20
8.3235478612
 30
0.0
 10
9.726738832
 20
8.3134067922
 30
0.0
 10
9.7382466926
 20
8.3046848611
 30
0.0
 10
9.7494651266
 20
8.2955622754
 30
0.0
 10
9.7629013187
 20
8.2834419921
 30
0.0
 10
9.7779962772
 20
8.2678327706
 30
0.0
 10
9.7919883298
 20
8.2512366104
 30
0.0
 10
9.8048023844
 20
8.233742354
 30
0.0
 10
9.8163702292
 20
8.2154431145
 30
0.0
 10
9.8266301
 20
8.1964364246
 30
0.0
 10
9.8355272194
 20
8.1768235519
 30
0.0
 10
9.8430140314
 20
8.156709012
 30
0.0
 10
9.8490504699
 20
8.1362000064
 30
0.0
 10
9.8536041701
 20
8.1154058622
 30
0.0
 10
9.8566506454
 20
8.0944374569
 30
0.0
 10
9.8581734232
 20
8.0734066348
 30
0.0
 10
9.8581641392
 20
8.0524256183
 30
0.0
 10
9.8566225958
 20
8.0316064151
 30
0.0
 10
9.853556773
 20
8.0110602241
 30
0.0
 10
9.8489827966
 20
7.9908968444
 30
0.0
 10
9.8429248645
 20
7.971224086
 30
0.0
 10
9.835415141
 20
7.9521471985
 30
0.0
 10
9.8264935617
 20
7.9337682656
 30
0.0
 10
9.8162077677
 20
7.9161857795
 30
0.0
 10
9.8046123509
 20
7.8994936093
 30
0.0
 10
9.7917704565
 20
7.8837823062
 30
0.0
 10
9.782419855
 20
7.8740140225
 30
0.0
 10
9.7775646561
 20
7.8693242625
 30
0.0
  0
SPLINE
  5
322
100
AcDbEntity
  8
0
100
AcDbSpline
 62
7
  6
CONTINUOUS
 70
0
 71
3
 72
47
 73
43
 74
0
 42
0.0000001
 43
0.0000001
 44
0.0000000001
 40
0.0
 40
0.0
 40
0.0
 40
0.0
 40
0.0379402328
 40
0.0762767134
 40
0.1149215868
 40
0.1537872485
 40
0.192784758
 40
0.2318250875
 40
0.270818978
 40
0.3096773402
 40
0.3483114673
 40
0.3866333078
 40
0.424555722
 40
0.4619927454
 40
0.4988598535
 40
0.5350742304
 40
0.570555042
 40
0.6052237158
 40
0.639004231
 40
0.6718234223
 40
0.7036113011
 40
0.7343014037
 40
0.7638311722
 40
0.792142385
 40
0.8191816517
 40
0.8449010025
 40
0.8572527338
 40
0.8692593695
 40
0.8809167703
 40
0.8922213332
 40
0.9031700073
 40
0.9137603197
 40
0.92399051
 40
0.9338594751
 40
0.9433670118
 40
0.9525137206
 40
0.9613013176
 40
0.9697325689
 40
0.9778116178
 40
0.9855440268
 40
0.9929370833
 40
1.0
 40
1.0
 40
1.0
 40
1.0
 10
12.3947956633
 20
9.1822288157
 30
0.0
 10
12.3947956633
 20
9.1930656304
 30
0.0
 10
12.3949405693
 20
9.2148526933
 30
0.0
 10
12.3955827851
 20
9.2476721473
 30
0.0
 10
12.3966496423
 20
9.2807450493
 30
0.0
 10
12.3981385242
 20
9.3139906092
 30
0.0
 10
12.4000458378
 20
9.3473279244
 30
0.0
 10
12.4023669265
 20
9.3806756989
 30
0.0
 10
12.4050961401
 20
9.4139526807
 30
0.0
 10
12.408226819
 20
9.4470777664
 30
0.0
 10
12.4117513234
 20
9.4799702326
 30
0.0
 10
12.4156610468
 20
9.5125499227
 30
0.0
 10
12.4199464387
 20
9.544737447
 30
0.0
 10
12.4245970267
 20
9.5764543762
 30
0.0
 10
12.4296014416
 20
9.607623435
 30
0.0
 10
12.4349474446
 20
9.6381686924
 30
0.0
 10
12.4406219574
 20
9.6680157483
 30
0.0
 10
12.4466110936
 20
9.6970919181
 30
0.0
 10
12.4529001917
 20
9.7253264123
 30
0.0
 10
12.4594738505
 20
9.7526505147
 30
0.0
 10
12.4663159666
 20
9.7789977531
 30
0.0
 10
12.4734097737
 20
9.8043040761
 30
0.0
 10
12.4807378851
 20
9.8285079936
 30
0.0
 10
12.4882823356
 20
9.8515508297
 30
0.0
 10
12.4960246417
 20
9.8733765686
 30
0.0
 10
12.5027126076
 20
9.8907327594
 30
0.0
 10
12.508157998
 20
9.9039598437
 30
0.0
 10
12.51222459
 20
9.9134095817
 30
0.0
 10
12.5163263566
 20
9.9225170592
 30
0.0
 10
12.5204608239
 20
9.9312767618
 30
0.0
 10
12.5246254563
 20
9.9396833844
 30
0.0
 10
12.5288177566
 20
9.9477318297
 30
0.0
 10
12.5330351315
 20
9.9554172504
 30
0.0
 10
12.5372750935
 20
9.9627349855
 30
0.0
 10
12.5415350081
 20
9.969680658
 30
0.0
 10
12.5458123966
 20
9.9762500595
 30
0.0
 10
12.5501046202
 20
9.9824392877
 30
0.0
 10
12.5544092059
 20
9.9882446092
 30
0.0
 10
12.5587235487
 20
9.9936625792
 30
0.0
 10
12.5630452211
 20
9.9986899909
 30
0.0
 10
12.5673715705
 20
10.003323708
 30
0.0
 10
12.5703235111
 20
10.0062133668
 30
0.0
 10
12.5718002598
 20
10.0075877752
 30
0.0
  0
SPLINE
  5
323
100
AcDbEntity
  8
0
100
AcDbSpline
 62
7
  6
CONTINUOUS
 70
0
 71
3
 72
47
 73
43
 74
0
 42
0.0000001
 43
0.0000001
 44
0.0000000001
 40
0.0
 40
0.0
 40
0.0
 40
0.0
 40
0.0379402328
 40
0.0762767134
 40
0.1149215868
 40
0.1537872485
 40
0.192784758
 40
0.2318250875
 40
0.270818978
 40
0.3096773402
 40
0.3483114673
 40
0.3866333078
 40
0.424555722
 40
0.4619927454
 40
0.4988598535
 40
0.5350742304
 40
0.570555042
 40
0.6052237158
 40
0.639004231
 40
0.6718234223
 40
0.7036113011
 40
0.7343014037
 40
0.7638311722
 40
0.792142385
 40
0.8191816517
 40
0.8449010025
 40
0.8572527338
 40
0.8692593695
 40
0.8809167703
 40
0.8922213332
 40
0.9031700073
 40
0.9137603197
 40
0.92399051
 40
0.9338594751
 40
0.9433670118
 40
0.9525137206
 40
0.9613013176
 40
0.9697325689
 40
0.9778116178
 40
0.9855440268
 40
0.9929370833
 40
1.0
 40
1.0
 40
1.0
 40
1.0
 10
12.3947956633
 20
7.2503770487
 30
0.0
 10
12.3947956633
 20
7.2612138633
 30
0.0
 10
12.3949405693
 20
7.2830009263
 30
0.0
 10
12.3955827851
 20
7.3158203802
 30
0.0
 10
12.3966496423
 20
7.3488932823
 30
0.0
 10
12.3981385242
 20
7.3821388421
 30
0.0
 10
12.4000458378
 20
7.4154761574
 30
0.0
 10
12.4023669265
 20
7.4488239318
 30
0.0
 10
12.4050961401
 20
7.4821009136
 30
0.0
 10
12.408226819
 20
7.5152259994
 30
0.0
 10
12.4117513234
 20
7.5481184655
 30
0.0
 10
12.4156610468
 20
7.5806981556
 30
0.0
 10
12.4199464387
 20
7.6128856799
 30
0.0
 10
12.4245970267
 20
7.6446026091
 30
0.0
 10
12.4296014416
 20
7.675771668
 30
0.0
 10
12.4349474446
 20
7.7063169253
 30
0.0
 10
12.4406219574
 20
7.7361639813
 30
0.0
 10
12.4466110936
 20
7.765240151
 30
0.0
 10
12.4529001917
 20
7.7934746452
 30
0.0
 10
12.4594738505
 20
7.8207987477
 30
0.0
 10
12.4663159666
 20
7.8471459861
 30
0.0
 10
12.4734097737
 20
7.8724523091
 30
0.0
 10
12.4807378851
 20
7.8966562265
 30
0.0
 10
12.4882823356
 20
7.9196990627
 30
0.0
 10
12.4960246417
 20
7.9415248015
 30
0.0
 10
12.5027126076
 20
7.9588809923
 30
0.0
 10
12.508157998
 20
7.9721080767
 30
0.0
 10
12.51222459
 20
7.9815578147
 30
0.0
 10
12.5163263566
 20
7.9906652921
 30
0.0
 10
12.5204608239
 20
7.9994249947
 30
0.0
 10
12.5246254563
 20
8.0078316174
 30
0.0
 10
12.5288177566
 20
8.0158800627
 30
0.0
 10
12.5330351315
 20
8.0235654834
 30
0.0
 10
12.5372750935
 20
8.0308832185
 30
0.0
 10
12.5415350081
 20
8.037828891
 30
0.0
 10
12.5458123966
 20
8.0443982925
 30
0.0
 10
12.5501046202
 20
8.0505875206
 30
0.0
 10
12.5544092059
 20
8.0563928422
 30
0.0
 10
12.5587235487
 20
8.0618108121
 30
0.0
 10
12.5630452211
 20
8.0668382238
 30
0.0
 10
12.5673715705
 20
8.071471941
 30
0.0
 10
12.5703235111
 20
8.0743615997
 30
0.0
 10
12.5718002598
 20
8.0757360082
 30
0.0
  0
SPLINE
  5
324
100
AcDbEntity
  8
0
100
AcDbSpline
 62
7
  6
CONTINUOUS
 70
0
 71
3
 72
19
 73
15
 74
0
 42
0.0000001
 43
0.0000001
 44
0.0000000001
 40
0.0
 40
0.0
 40
0.0
 40
0.0
 40
0.1373581901
 40
0.2777537764
 40
0.4187773017
 40
0.4884005833
 40
0.5566692236
 40
0.6229821339
 40
0.6867741196
 40
0.7475729803
 40
0.8050427849
 40
0.8590017718
 40
0.9094149452
 40
1.0
 40
1.0
 40
1.0
 40
1.0
 10
10.2463908342
 20
8.4223150733
 30
0.0
 10
10.2431099561
 20
8.4230803479
 30
0.0
 10
10.236514927
 20
8.4248035858
 30
0.0
 10
10.2267393198
 20
8.4279751448
 30
0.0
 10
10.2187341793
 20
8.431166838
 30
0.0
 10
10.212531756
 20
8.434056195
 30
0.0
 10
10.2080792622
 20
8.436352947
 30
0.0
 10
10.2038537033
 20
8.4387680679
 30
0.0
 10
10.1998978996
 20
8.4412763298
 30
0.0
 10
10.1962462948
 20
8.4438496992
 30
0.0
 10
10.192922471
 20
8.4464596819
 30
0.0
 10
10.1899377136
 20
8.4490801976
 30
0.0
 10
10.1865320693
 20
8.4524386462
 30
0.0
 10
10.1842850711
 20
8.4550836372
 30
0.0
 10
10.1829719489
 20
8.4568758164
 30
0.0
  0
SPLINE
  5
325
100
AcDbEntity
  8
0
100
AcDbSpline
 62
7
  6
CONTINUOUS
 70
0
 71
3
 72
36
 73
32
 74
0
 42
0.0000001
 43
0.0000001
 44
0.0000000001
 40
0.0
 40
0.0
 40
0.0
 40
0.0
 40
0.1156805494
 40
0.2324294447
 40
0.2904632863
 40
0.3476762999
 40
0.4035109786
 40
0.457357425
 40
0.5086156631
 40
0.5567679427
 40
0.6014388817
 40
0.6424243435
 40
0.6796867125
 40
0.7133254818
 40
0.7435369981
 40
0.7705754029
 40
0.7947248898
 40
0.8162825535
 40
0.8355449016
 40
0.8528069047
 40
0.8683564347
 40
0.8824801777
 40
0.8954584429
 40
0.9075681422
 40
0.919075296
 40
0.9302292713
 40
0.9412537454
 40
0.9523420169
 40
0.9636530304
 40
0.9753097936
 40
1.0
 40
1.0
 40
1.0
 40
1.0
 10
10.9922265469
 20
8.7543786658
 30
0.0
 10
10.989516077
 20
8.7532310421
 30
0.0
 10
10.9840386628
 20
8.7509985353
 30
0.0
 10
10.9771085244
 20
8.748425803
 30
0.0
 10
10.9715177709
 20
8.7465303197
 30
0.0
 10
10.9673663631
 20
8.745219577
 30
0.0
 10
10.9632879389
 20
8.7440351553
 30
0.0
 10
10.9593270025
 20
8.7429939977
 30
0.0
 10
10.9555285637
 20
8.742109362
 30
0.0
 10
10.9519332919
 20
8.7413891097
 30
0.0
 10
10.9485732922
 20
8.7408348703
 30
0.0
 10
10.9454696103
 20
8.740442378
 30
0.0
 10
10.9426319319
 20
8.7402027082
 30
0.0
 10
10.9400600879
 20
8.7401039301
 30
0.0
 10
10.9377465604
 20
8.7401327392
 30
0.0
 10
10.9356791179
 20
8.7402758048
 30
0.0
 10
10.9338429945
 20
8.7405203989
 30
0.0
 10
10.9322224934
 20
8.7408549571
 30
0.0
 10
10.9308021104
 20
8.7412694872
 30
0.0
 10
10.9295670138
 20
8.741754803
 30
0.0
 10
10.92850385
 20
8.7423038116
 30
0.0
 10
10.9276002263
 20
8.7429094942
 30
0.0
 10
10.926845683
 20
8.743566623
 30
0.0
 10
10.9262307249
 20
8.7442697949
 30
0.0
 10
10.9257468248
 20
8.7450141068
 30
0.0
 10
10.9253868649
 20
8.7457951806
 30
0.0
 10
10.9251427317
 20
8.7466084231
 30
0.0
 10
10.9250081136
 20
8.747450485
 30
0.0
 10
10.9249766002
 20
8.7483184367
 30
0.0
 10
10.9250651821
 20
8.7495296486
 30
0.0
 10
10.9252700919
 20
8.7504379036
 30
0.0
 10
10.9254519305
 20
8.7510392374
 30
0.0
  0
SPLINE
  5
326
100
AcDbEntity
  8
0
100
AcDbSpline
 62
7
  6
CONTINUOUS
 70
0
 71
3
 72
31
 73
27
 74
0
 42
0.0000001
 43
0.0000001
 44
0.0000000001
 40
0.0
 40
0.0
 40
0.0
 40
0.0
 40
0.0301069053
 40
0.0602284099
 40
0.0903799722
 40
0.120574561
 40
0.1508243157
 40
0.1811404307
 40
0.2115327326
 40
0.2420097531
 40
0.2725786321
 40
0.3032450998
 40
0.3340135027
 40
0.3648868375
 40
0.4269406712
 40
0.4894194229
 40
0.5208193409
 40
0.5523174238
 40
0.5839091626
 40
0.6155893015
 40
0.6791785406
 40
0.7430435592
 40
0.8071238616
 40
0.8713546301
 40
0.9356689682
 40
1.0
 40
1.0
 40
1.0
 40
1.0
 10
11.0736184704
 20
7.2868854174
 30
0.0
 10
11.066874162
 20
7.287788887
 30
0.0
 10
11.0534233785
 20
7.2899197441
 30
0.0
 10
11.0334153402
 20
7.2940716213
 30
0.0
 10
11.0136049951
 20
7.2991641412
 30
0.0
 10
10.994025359
 20
7.3051804799
 30
0.0
 10
10.9747079235
 20
7.3121025429
 30
0.0
 10
10.9556833692
 20
7.3199110987
 30
0.0
 10
10.93698145
 20
7.3285860252
 30
0.0
 10
10.9186311609
 20
7.3381062747
 30
0.0
 10
10.9006607581
 20
7.3484500432
 30
0.0
 10
10.883097971
 20
7.3595947052
 30
0.0
 10
10.865969563
 20
7.3715172767
 30
0.0
 10
10.8437116924
 20
7.3884452856
 30
0.0
 10
10.8171069564
 20
7.4114423805
 30
0.0
 10
10.7923836963
 20
7.4366154133
 30
0.0
 10
10.7737721223
 20
7.4579914718
 30
0.0
 10
10.7603965743
 20
7.4746473184
 30
0.0
 10
10.747651733
 20
7.4918693526
 30
0.0
 10
10.7315101478
 20
7.5155736968
 30
0.0
 10
10.713023585
 20
7.5464716878
 30
0.0
 10
10.6937214877
 20
7.5852664891
 30
0.0
 10
10.6774110889
 20
7.6255685856
 30
0.0
 10
10.6642197923
 20
7.6671036317
 30
0.0
 10
10.6542566402
 20
7.7095847662
 30
0.0
 10
10.6498245332
 20
7.7383556467
 30
0.0
 10
10.6481733743
 20
7.7528012412
 30
0.0
  0
SPLINE
  5
327
100
AcDbEntity
  8
0
100
AcDbSpline
 62
7
  6
CONTINUOUS
 70
0
 71
3
 72
24
 73
20
 74
0
 42
0.0000001
 43
0.0000001
 44
0.0000000001
 40
0.0
 40
0.0
 40
0.0
 40
0.0
 40
0.0308418669
 40
0.0617718123
 40
0.1238673299
 40
0.1862670212
 40
0.2489274133
 40
0.3117973415
 40
0.3748195152
 40
0.4379322186
 40
0.5010711226
 40
0.5641711461
 40
0.6271683275
 40
0.690001673
 40
0.7526149542
 40
0.8149584074
 40
0.8769902932
 40
0.9386777107
 40
1.0
 40
1.0
 40
1.0
 40
1.0
 10
12.6788387431
 20
10.9463602001
 30
0.0
 10
12.6780774056
 20
10.9517596888
 30
0.0
 10
12.6763150377
 20
10.9625422938
 30
0.0
 10
12.671843616
 20
10.9839863997
 30
0.0
 10
12.6644876603
 20
11.0105017862
 30
0.0
 10
12.6529305135
 20
11.0415490598
 30
0.0
 10
12.638722533
 20
11.0716286405
 30
0.0
 10
12.6219775047
 20
11.100499663
 30
0.0
 10
12.6028287463
 20
11.1279330106
 30
0.0
 10
12.5814288596
 20
11.1537105102
 30
0.0
 10
12.5579481087
 20
11.1776272152
 30
0.0
 10
12.5325732094
 20
11.1994928233
 30
0.0
 10
12.505505985
 20
11.2191334063
 30
0.0
 10
12.476961581
 20
11.2363924789
 30
0.0
 10
12.4471668515
 20
11.2511324339
 30
0.0
 10
12.4163589576
 20
11.2632356488
 30
0.0
 10
12.3847820171
 20
11.2726051835
 30
0.0
 10
12.3526905771
 20
11.2791657861
 30
0.0
 10
12.3310496139
 20
11.2816395421
 30
0.0
 10
12.3202336971
 20
11.2823896284
 30
0.0
  0
SPLINE
  5
328
100
AcDbEntity
  8
0
100
AcDbSpline
 62
7
  6
CONTINUOUS
 70
0
 71
3
 72
23
 73
19
 74
0
 42
0.0000001
 43
0.0000001
 44
0.0000000001
 40
0.0
 40
0.0
 40
0.0
 40
0.0
 40
0.0638611429
 40
0.1275033697
 40
0.1909230193
 40
0.2541276602
 40
0.3171224166
 40
0.3799159195
 40
0.4425188183
 40
0.5049436681
 40
0.5672049987
 40
0.6293190785
 40
0.6913037901
 40
0.7531784362
 40
0.8149635271
 40
0.8766805602
 40
0.9383517934
 40
1.0
 40
1.0
 40
1.0
 40
1.0
 10
10.6317952527
 20
11.3994832323
 30
0.0
 10
10.6257488704
 20
11.3999025503
 30
0.0
 10
10.6136537412
 20
11.4004389114
 30
0.0
 10
10.5955267045
 20
11.4003309205
 30
0.0
 10
10.5774900292
 20
11.399309089
 30
0.0
 10
10.5595899862
 20
11.3973761683
 30
0.0
 10
10.5418712549
 20
11.3945367897
 30
0.0
 10
10.5243785745
 20
11.3907981221
 30
0.0
 10
10.5071559604
 20
11.3861695516
 30
0.0
 10
10.4902467915
 20
11.3806626771
 30
0.0
 10
10.473693674
 20
11.3742913042
 30
0.0
 10
10.4575383165
 20
11.3670714341
 30
0.0
 10
10.4418214162
 20
11.3590212527
 30
0.0
 10
10.4265825671
 20
11.3501610028
 30
0.0
 10
10.4118602179
 20
11.3405129983
 30
0.0
 10
10.3976913589
 20
11.3301013876
 30
0.0
 10
10.3841121707
 20
11.3189528732
 30
0.0
 10
10.3754735439
 20
11.3110463731
 30
0.0
 10
10.3712652808
 20
11.3069814842
 30
0.0
  0
SPLINE
  5
329
100
AcDbEntity
  8
0
100
AcDbSpline
 62
7
  6
CONTINUOUS
 70
0
 71
3
 72
23
 73
19
 74
0
 42
0.0000001
 43
0.0000001
 44
0.0000000001
 40
0.0
 40
0.0
 40
0.0
 40
0.0
 40
0.0616482102
 40
0.1233194434
 40
0.1850364728
 40
0.2468215621
 40
0.3086962116
 40
0.370680925
 40
0.4327950032
 40
0.4950563306
 40
0.5574811832
 40
0.6200840863
 40
0.6828775763
 40
0.7458723561
 40
0.8090769818
 40
0.8724965655
 40
0.9361390263
 40
1.0
 40
1.0
 40
1.0
 40
1.0
 10
9.3648853476
 20
10.2284131902
 30
0.0
 10
9.3682182985
 20
10.2316325723
 30
0.0
 10
9.3750600814
 20
10.2378945232
 30
0.0
 10
9.3858148107
 20
10.2467241204
 30
0.0
 10
9.3970365445
 20
10.2549701046
 30
0.0
 10
9.4086966292
 20
10.2626113342
 30
0.0
 10
9.4207657963
 20
10.2696286406
 30
0.0
 10
9.4332135816
 20
10.2760043672
 30
0.0
 10
9.4460086207
 20
10.2817224929
 30
0.0
 10
9.4591186779
 20
10.2867686289
 30
0.0
 10
9.4725107343
 20
10.2911300669
 30
0.0
 10
9.4861510395
 20
10.2947958822
 30
0.0
 10
9.5000052362
 20
10.2977569024
 30
0.0
 10
9.5140384627
 20
10.3000056927
 30
0.0
 10
9.5282152848
 20
10.3015365632
 30
0.0
 10
9.5425003353
 20
10.3023458536
 30
0.0
 10
9.5568569404
 20
10.3024313738
 30
0.0
 10
9.5664362824
 20
10.302006581
 30
0.0
 10
9.5712250019
 20
10.3016744821
 30
0.0
  0
SPLINE
  5
32A
100
AcDbEntity
  8
0
100
AcDbSpline
 62
7
  6
CONTINUOUS
 70
0
 71
3
 72
23
 73
19
 74
0
 42
0.0000001
 43
0.0000001
 44
0.0000000001
 40
0.0
 40
0.0
 40
0.0
 40
0.0
 40
0.0616482102
 40
0.1233194434
 40
0.1850364728
 40
0.2468215621
 40
0.3086962116
 40
0.370680925
 40
0.4327950032
 40
0.4950563306
 40
0.5574811832
 40
0.6200840863
 40
0.6828775763
 40
0.7458723561
 40
0.8090769818
 40
0.8724965655
 40
0.9361390263
 40
1.0
 40
1.0
 40
1.0
 40
1.0
 10
11.0552555574
 20
10.111185618
 30
0.0
 10
11.0585885083
 20
10.1144050001
 30
0.0
 10
11.0654302912
 20
10.120666951
 30
0.0
 10
11.0761850205
 20
10.1294965482
 30
0.0
 10
11.0874067543
 20
10.1377425324
 30
0.0
 10
11.099066839
 20
10.145383762
 30
0.0
 10
11.1111360061
 20
10.1524010684
 30
0.0
 10
11.1235837914
 20
10.158776795
 30
0.0
 10
11.1363788305
 20
10.1644949207
 30
0.0
 10
11.1494888877
 20
10.1695410567
 30
0.0
 10
11.1628809441
 20
10.1739024947
 30
0.0
 10
11.1765212493
 20
10.17756831
 30
0.0
 10
11.1903754461
 20
10.1805293302
 30
0.0
 10
11.2044086725
 20
10.1827781205
 30
0.0
 10
11.2185854946
 20
10.184308991
 30
0.0
 10
11.2328705452
 20
10.1851182814
 30
0.0
 10
11.2472271502
 20
10.1852038015
 30
0.0
 10
11.2568064922
 20
10.1847790088
 30
0.0
 10
11.2615952117
 20
10.1844469099
 30
0.0
  0
SPLINE
  5
32B
100
AcDbEntity
  8
0
100
AcDbSpline
 62
7
  6
CONTINUOUS
 70
0
 71
3
 72
23
 73
19
 74
0
 42
0.0000001
 43
0.0000001
 44
0.0000000001
 40
0.0
 40
0.0
 40
0.0
 40
0.0
 40
0.0616482102
 40
0.1233194434
 40
0.1850364728
 40
0.2468215621
 40
0.3086962116
 40
0.370680925
 40
0.4327950032
 40
0.4950563306
 40
0.5574811832
 40
0.6200840863
 40
0.6828775763
 40
0.7458723561
 40
0.8090769818
 40
0.8724965655
 40
0.9361390263
 40
1.0
 40
1.0
 40
1.0
 40
1.0
 10
11.0552555574
 20
8.1793340813
 30
0.0
 10
11.0585885083
 20
8.1825534633
 30
0.0
 10
11.0654302912
 20
8.1888154143
 30
0.0
 10
11.0761850205
 20
8.1976450114
 30
0.0
 10
11.0874067543
 20
8.2058909956
 30
0.0
 10
11.099066839
 20
8.2135322252
 30
0.0
 10
11.1111360061
 20
8.2205495317
 30
0.0
 10
11.1235837914
 20
8.2269252582
 30
0.0
 10
11.1363788305
 20
8.2326433839
 30
0.0
 10
11.1494888877
 20
8.23768952
 30
0.0
 10
11.1628809441
 20
8.2420509579
 30
0.0
 10
11.1765212493
 20
8.2457167733
 30
0.0
 10
11.1903754461
 20
8.2486777935
 30
0.0
 10
11.2044086725
 20
8.2509265837
 30
0.0
 10
11.2185854946
 20
8.2524574543
 30
0.0
 10
11.2328705452
 20
8.2532667446
 30
0.0
 10
11.2472271502
 20
8.2533522648
 30
0.0
 10
11.2568064922
 20
8.252927472
 30
0.0
 10
11.2615952117
 20
8.2525953732
 30
0.0
  0
SPLINE
  5
32C
100
AcDbEntity
  8
0
100
AcDbSpline
 62
7
  6
CONTINUOUS
 70
0
 71
3
 72
23
 73
19
 74
0
 42
0.0000001
 43
0.0000001
 44
0.0000000001
 40
0.0
 40
0.0
 40
0.0
 40
0.0
 40
0.0616482102
 40
0.1233194434
 40
0.1850364728
 40
0.2468215621
 40
0.3086962116
 40
0.370680925
 40
0.4327950032
 40
0.4950563306
 40
0.5574811832
 40
0.6200840863
 40
0.6828775763
 40
0.7458723561
 40
0.8090769818
 40
0.8724965655
 40
0.9361390263
 40
1.0
 40
1.0
 40
1.0
 40
1.0
 10
11.0552555574
 20
6.2474822854
 30
0.0
 10
11.0585885083
 20
6.2507016675
 30
0.0
 10
11.0654302912
 20
6.2569636184
 30
0.0
 10
11.0761850205
 20
6.2657932156
 30
0.0
 10
11.0874067543
 20
6.2740391998
 30
0.0
 10
11.099066839
 20
6.2816804294
 30
0.0
 10
11.1111360061
 20
6.2886977358
 30
0.0
 10
11.1235837914
 20
6.2950734624
 30
0.0
 10
11.1363788305
 20
6.3007915881
 30
0.0
 10
11.1494888877
 20
6.3058377241
 30
0.0
 10
11.1628809441
 20
6.3101991621
 30
0.0
 10
11.1765212493
 20
6.3138649775
 30
0.0
 10
11.1903754461
 20
6.3168259976
 30
0.0
 10
11.2044086725
 20
6.3190747879
 30
0.0
 10
11.2185854946
 20
6.3206056584
 30
0.0
 10
11.2328705452
 20
6.3214149488
 30
0.0
 10
11.2472271502
 20
6.321500469
 30
0.0
 10
11.2568064922
 20
6.3210756762
 30
0.0
 10
11.2615952117
 20
6.3207435774
 30
0.0
  0
SPLINE
  5
32D
100
AcDbEntity
  8
0
100
AcDbSpline
 62
7
  6
CONTINUOUS
 70
0
 71
3
 72
23
 73
19
 74
0
 42
0.0000001
 43
0.0000001
 44
0.0000000001
 40
0.0
 40
0.0
 40
0.0
 40
0.0
 40
0.0616482102
 40
0.1233194434
 40
0.1850364728
 40
0.2468215621
 40
0.3086962116
 40
0.370680925
 40
0.4327950032
 40
0.4950563306
 40
0.5574811832
 40
0.6200840863
 40
0.6828775763
 40
0.7458723561
 40
0.8090769818
 40
0.8724965655
 40
0.9361390263
 40
1.0
 40
1.0
 40
1.0
 40
1.0
 10
9.3648853476
 20
6.3647098577
 30
0.0
 10
9.3682182985
 20
6.3679292397
 30
0.0
 10
9.3750600814
 20
6.3741911906
 30
0.0
 10
9.3858148107
 20
6.3830207878
 30
0.0
 10
9.3970365445
 20
6.391266772
 30
0.0
 10
9.4086966292
 20
6.3989080016
 30
0.0
 10
9.4207657963
 20
6.405925308
 30
0.0
 10
9.4332135816
 20
6.4123010346
 30
0.0
 10
9.4460086207
 20
6.4180191603
 30
0.0
 10
9.4591186779
 20
6.4230652964
 30
0.0
 10
9.4725107343
 20
6.4274267343
 30
0.0
 10
9.4861510395
 20
6.4310925497
 30
0.0
 10
9.5000052362
 20
6.4340535699
 30
0.0
 10
9.5140384627
 20
6.4363023601
 30
0.0
 10
9.5282152848
 20
6.4378332306
 30
0.0
 10
9.5425003353
 20
6.438642521
 30
0.0
 10
9.5568569404
 20
6.4387280412
 30
0.0
 10
9.5664362824
 20
6.4383032484
 30
0.0
 10
9.5712250019
 20
6.4379711496
 30
0.0
  0
SPLINE
  5
32E
100
AcDbEntity
  8
0
100
AcDbSpline
 62
7
  6
CONTINUOUS
 70
0
 71
3
 72
23
 73
19
 74
0
 42
0.0000001
 43
0.0000001
 44
0.0000000001
 40
0.0
 40
0.0
 40
0.0
 40
0.0
 40
0.0616482102
 40
0.1233194434
 40
0.1850364728
 40
0.2468215621
 40
0.3086962116
 40
0.370680925
 40
0.4327950032
 40
0.4950563306
 40
0.5574811832
 40
0.6200840863
 40
0.6828775763
 40
0.7458723561
 40
0.8090769818
 40
0.8724965655
 40
0.9361390263
 40
1.0
 40
1.0
 40
1.0
 40
1.0
 10
9.3648853476
 20
8.2965616535
 30
0.0
 10
9.3682182985
 20
8.2997810355
 30
0.0
 10
9.3750600814
 20
8.3060429865
 30
0.0
 10
9.3858148107
 20
8.3148725836
 30
0.0
 10
9.3970365445
 20
8.3231185678
 30
0.0
 10
9.4086966292
 20
8.3307597974
 30
0.0
 10
9.4207657963
 20
8.3377771039
 30
0.0
 10
9.4332135816
 20
8.3441528305
 30
0.0
 10
9.4460086207
 20
8.3498709561
 30
0.0
 10
9.4591186779
 20
8.3549170922
 30
0.0
 10
9.4725107343
 20
8.3592785301
 30
0.0
 10
9.4861510395
 20
8.3629443455
 30
0.0
 10
9.5000052362
 20
8.3659053657
 30
0.0
 10
9.5140384627
 20
8.3681541559
 30
0.0
 10
9.5282152848
 20
8.3696850265
 30
0.0
 10
9.5425003353
 20
8.3704943168
 30
0.0
 10
9.5568569404
 20
8.370579837
 30
0.0
 10
9.5664362824
 20
8.3701550442
 30
0.0
 10
9.5712250019
 20
8.3698229454
 30
0.0
  0
SPLINE
  5
32F
100
AcDbEntity
  8
0
100
AcDbSpline
 62
7
  6
CONTINUOUS
 70
0
 71
3
 72
27
 73
23
 74
0
 42
0.0000001
 43
0.0000001
 44
0.0000000001
 40
0.0
 40
0.0
 40
0.0
 40
0.0
 40
0.0615656319
 40
0.0923594438
 40
0.1231621481
 40
0.1848034321
 40
0.2465195006
 40
0.2774157407
 40
0.3083394416
 40
0.37027471
 40
0.4323519074
 40
0.4945905393
 40
0.5570083093
 40
0.6196209525
 40
0.6824420752
 40
0.7139370837
 40
0.7454882659
 40
0.8087581068
 40
0.8722634524
 40
0.9041080927
 40
0.936013539
 40
1.0
 40
1.0
 40
1.0
 40
1.0
 10
9.8243188524
 20
9.5675754884
 30
0.0
 10
9.8330472671
 20
9.5760064901
 30
0.0
 10
9.8464855003
 20
9.5883054714
 30
0.0
 10
9.8650421202
 20
9.6039616533
 30
0.0
 10
9.8840248342
 20
9.61912327
 30
0.0
 10
9.9085252118
 20
9.6371242269
 30
0.0
 10
9.9339707429
 20
9.6537960154
 30
0.0
 10
9.9548595411
 20
9.6663151497
 30
0.0
 10
9.9761126087
 20
9.6782935479
 30
0.0
 10
10.0033101472
 20
9.6922196259
 30
0.0
 10
10.0368452899
 20
9.7072006012
 30
0.0
 10
10.0712141623
 20
9.720423238
 30
0.0
 10
10.1063307913
 20
9.7318536158
 30
0.0
 10
10.1421071934
 20
9.7414624804
 30
0.0
 10
10.1723723527
 20
9.7479261101
 30
0.0
 10
10.1968198799
 20
9.752165514
 30
0.0
 10
10.2214559756
 20
9.7557873634
 30
0.0
 10
10.2524985143
 20
9.7591358797
 30
0.0
 10
10.2837287753
 20
9.7609020526
 30
0.0
 10
10.3088105176
 20
9.7613681536
 30
0.0
 10
10.3339903565
 20
9.7612013518
 30
0.0
 10
10.3528836797
 20
9.7603630186
 30
0.0
 10
10.3654659969
 20
9.7594904319
 30
0.0
  0
SPLINE
  5
330
100
AcDbEntity
  8
0
100
AcDbSpline
 62
7
  6
CONTINUOUS
 70
0
 71
3
 72
49
 73
45
 74
0
 42
0.0000001
 43
0.0000001
 44
0.0000000001
 40
0.0
 40
0.0
 40
0.0
 40
0.0
 40
0.0311359467
 40
0.0624378918
 40
0.0938990367
 40
0.1255088375
 40
0.157253918
 40
0.1891182445
 40
0.2210834601
 40
0.253129278
 40
0.2852338787
 40
0.3173743354
 40
0.3495270492
 40
0.3816681915
 40
0.4137741502
 40
0.4458219731
 40
0.4777898037
 40
0.5096573026
 40
0.541406057
 40
0.5730199523
 40
0.6044855329
 40
0.6357923005
 40
0.6669329896
 40
0.6979037708
 40
0.7133278435
 40
0.7287096536
 40
0.744049744
 40
0.7593488855
 40
0.7746080778
 40
0.7898285455
 40
0.8050117297
 40
0.8201592851
 40
0.8352730743
 40
0.8503551546
 40
0.8654077668
 40
0.8804333283
 40
0.8954344201
 40
0.9104137641
 40
0.9253742041
 40
0.9403187502
 40
0.9552504234
 40
0.9701722501
 40
0.9850880753
 40
1.0
 40
1.0
 40
1.0
 40
1.0
 10
10.3654659969
 20
9.7594904319
 30
0.0
 10
10.3838982277
 20
9.7582121524
 30
0.0
 10
10.4207810411
 20
9.7542987687
 30
0.0
 10
10.4756688761
 20
9.7444395244
 30
0.0
 10
10.5299897184
 20
9.7306253154
 30
0.0
 10
10.583448135
 20
9.7129286901
 30
0.0
 10
10.635757865
 20
9.6914431161
 30
0.0
 10
10.6866373416
 20
9.6662825479
 30
0.0
 10
10.7358130552
 20
9.6375811246
 30
0.0
 10
10.7830204196
 20
9.6054920586
 30
0.0
 10
10.8280055486
 20
9.5701871318
 30
0.0
 10
10.8705265615
 20
9.5318555998
 30
0.0
 10
10.9103548511
 20
9.4907031037
 30
0.0
 10
10.947276579
 20
9.446950763
 30
0.0
 10
10.9810935241
 20
9.4008336481
 30
0.0
 10
11.0116245008
 20
9.3525997719
 30
0.0
 10
11.0387061368
 20
9.3025085278
 30
0.0
 10
11.0621937818
 20
9.2508292935
 30
0.0
 10
11.0819624971
 20
9.1978400257
 30
0.0
 10
11.0979073448
 20
9.1438254871
 30
0.0
 10
11.1099443901
 20
9.0890760556
 30
0.0
 10
11.1180107066
 20
9.0338850898
 30
0.0
 10
11.122065064
 20
8.9785505894
 30
0.0
 10
11.1220836028
 20
8.9324950827
 30
0.0
 10
11.1200758009
 20
8.8958841278
 30
0.0
 10
11.1175672607
 20
8.8686090358
 30
0.0
 10
11.1140576954
 20
8.8415196786
 30
0.0
 10
11.1095520911
 20
8.8146517084
 30
0.0
 10
11.1040568071
 20
8.7880410247
 30
0.0
 10
11.0975795234
 20
8.7617229798
 30
0.0
 10
11.0901291414
 20
8.7357325559
 30
0.0
 10
11.0817158609
 20
8.7101042483
 30
0.0
 10
11.0723512041
 20
8.6848720135
 30
0.0
 10
11.0620478686
 20
8.6600692658
 30
0.0
 10
11.0508197371
 20
8.6357288384
 30
0.0
 10
11.0386819812
 20
8.6118828801
 30
0.0
 10
11.0256509028
 20
8.5885628755
 30
0.0
 10
11.0117439
 20
8.5657996338
 30
0.0
 10
10.9969795645
 20
8.5436231523
 30
0.0
 10
10.9813775643
 20
8.5220626673
 30
0.0
 10
10.9649586914
 20
8.5011467012
 30
0.0
 10
10.9477444825
 20
8.4809024761
 30
0.0
 10
10.9297582475
 20
8.4613574452
 30
0.0
 10
10.917267196
 20
8.4488091044
 30
0.0
 10
10.9109025535
 20
8.4426613314
 30
0.0
  0
SPLINE
  5
331
100
AcDbEntity
  8
0
100
AcDbSpline
 62
7
  6
CONTINUOUS
 70
0
 71
3
 72
33
 73
29
 74
0
 42
0.0000001
 43
0.0000001
 44
0.0000000001
 40
0.0
 40
0.0
 40
0.0
 40
0.0
 40
0.0162144586
 40
0.033427571
 40
0.0516720444
 40
0.0709712191
 40
0.0913408126
 40
0.1127899895
 40
0.1353223211
 40
0.1589367539
 40
0.1836279698
 40
0.2093871679
 40
0.2362023304
 40
0.2640585567
 40
0.2929385171
 40
0.3228224305
 40
0.3536885211
 40
0.3855130414
 40
0.4182704221
 40
0.4519335474
 40
0.4864736416
 40
0.5218606007
 40
0.5950466203
 40
0.6712268368
 40
0.7501174882
 40
0.8314198686
 40
0.9148213005
 40
1.0
 40
1.0
 40
1.0
 40
1.0
 10
12.4812346072
 20
6.7698190573
 30
0.0
 10
12.4795485661
 20
6.7718921436
 30
0.0
 10
12.4762145942
 20
6.7762827996
 30
0.0
 10
12.4714599036
 20
6.7833519917
 30
0.0
 10
12.4668097851
 20
6.7910897249
 30
0.0
 10
12.4622689379
 20
6.7994877616
 30
0.0
 10
12.4578417958
 20
6.8085377262
 30
0.0
 10
12.4535328591
 20
6.8182303455
 30
0.0
 10
12.4493465016
 20
6.8285556653
 30
0.0
 10
12.4452871276
 20
6.8395030371
 30
0.0
 10
12.44135892
 20
6.8510610942
 30
0.0
 10
12.4375660379
 20
6.863217816
 30
0.0
 10
12.4339124789
 20
6.8759605163
 30
0.0
 10
12.4304020703
 20
6.8892758671
 30
0.0
 10
12.4270385765
 20
6.9031499274
 30
0.0
 10
12.4238255111
 20
6.9175681421
 30
0.0
 10
12.4207663076
 20
6.932515377
 30
0.0
 10
12.4178642102
 20
6.9479759274
 30
0.0
 10
12.4151222673
 20
6.963933541
 30
0.0
 10
12.4125434385
 20
6.9803714289
 30
0.0
 10
12.4101303842
 20
6.9972723154
 30
0.0
 10
12.4071036359
 20
7.02066302
 30
0.0
 10
12.4037693531
 20
7.0509306473
 30
0.0
 10
12.4005086718
 20
7.0884089395
 30
0.0
 10
12.3979592145
 20
7.1272827215
 30
0.0
 10
12.396131973
 20
7.1673882278
 30
0.0
 10
12.3950348631
 20
7.208556698
 30
0.0
 10
12.3947956633
 20
7.2363395255
 30
0.0
 10
12.3947956633
 20
7.2503770487
 30
0.0
  0
SPLINE
  5
332
100
AcDbEntity
  8
0
100
AcDbSpline
 62
7
  6
CONTINUOUS
 70
0
 71
3
 72
47
 73
43
 74
0
 42
0.0000001
 43
0.0000001
 44
0.0000000001
 40
0.0
 40
0.0
 40
0.0
 40
0.0
 40
0.0127999782
 40
0.0247277445
 40
0.035922359
 40
0.046509846
 40
0.0566061984
 40
0.0663154037
 40
0.0757319767
 40
0.0849401376
 40
0.0940145852
 40
0.1030211487
 40
0.1120170604
 40
0.1210518983
 40
0.1301677581
 40
0.1394010348
 40
0.1487824342
 40
0.1583373413
 40
0.1780465164
 40
0.1986727948
 40
0.2203151995
 40
0.2430453061
 40
0.2669198208
 40
0.2919827802
 40
0.3182740614
 40
0.3458288357
 40
0.3746831577
 40
0.4048730328
 40
0.4364379693
 40
0.4694206588
 40
0.5038689558
 40
0.5398366599
 40
0.5773842334
 40
0.6165803004
 40
0.6575019993
 40
0.7002362377
 40
0.7448790806
 40
0.7915339649
 40
0.8403059321
 40
0.8912889503
 40
0.9445348376
 40
1.0
 40
1.0
 40
1.0
 40
1.0
 10
10.3986069059
 20
8.4805785288
 30
0.0
 10
10.3990928549
 20
8.4799156391
 30
0.0
 10
10.3999857023
 20
8.478600331
 30
0.0
 10
10.4011269118
 20
8.4765929388
 30
0.0
 10
10.4020391684
 20
8.4746270938
 30
0.0
 10
10.4027399192
 20
8.4727010478
 30
0.0
 10
10.4032458662
 20
8.4708135336
 30
0.0
 10
10.4035702547
 20
8.4689628495
 30
0.0
 10
10.4037256397
 20
8.4671477482
 30
0.0
 10
10.4037229428
 20
8.4653668859
 30
0.0
 10
10.4035708918
 20
8.4636191156
 30
0.0
 10
10.4032788463
 20
8.4619032269
 30
0.0
 10
10.4028534347
 20
8.4602182307
 30
0.0
 10
10.4023011823
 20
8.4585632411
 30
0.0
 10
10.4016284176
 20
8.4569371358
 30
0.0
 10
10.4008396079
 20
8.4553393528
 30
0.0
 10
10.3999392547
 20
8.4537692112
 30
0.0
 10
10.3985821126
 20
8.451690263
 30
0.0
 10
10.3966135245
 20
8.4491551314
 30
0.0
 10
10.3938856665
 20
8.4462506183
 30
0.0
 10
10.390785121
 20
8.4434502622
 30
0.0
 10
10.3873268136
 20
8.4407530957
 30
0.0
 10
10.3835208891
 20
8.4381608559
 30
0.0
 10
10.3793759568
 20
8.435675174
 30
0.0
 10
10.3748974427
 20
8.4333004709
 30
0.0
 10
10.3700895048
 20
8.4310410237
 30
0.0
 10
10.3649539803
 20
8.4289036256
 30
0.0
 10
10.359491491
 20
8.4268954023
 30
0.0
 10
10.3537008915
 20
8.4250257071
 30
0.0
 10
10.3475797486
 20
8.4233051335
 30
0.0
 10
10.3411242633
 20
8.4217461448
 30
0.0
 10
10.3343292401
 20
8.4203638309
 30
0.0
 10
10.327188411
 20
8.4191750239
 30
0.0
 10
10.3196942064
 20
8.4182005304
 30
0.0
 10
10.311838182
 20
8.417464218
 30
0.0
 10
10.3036112134
 20
8.4169945334
 30
0.0
 10
10.2950041466
 20
8.4168257017
 30
0.0
 10
10.2860090909
 20
8.4169985898
 30
0.0
 10
10.2766217934
 20
8.4175623924
 30
0.0
 10
10.2668461576
 20
8.418576265
 30
0.0
 10
10.2567031767
 20
8.4201099933
 30
0.0
 10
10.249859335
 20
8.4215060351
 30
0.0
 10
10.2463908342
 20
8.4223150733
 30
0.0
  0
SPLINE
  5
333
100
AcDbEntity
  8
0
100
AcDbSpline
 62
7
  6
CONTINUOUS
 70
0
 71
3
 72
33
 73
29
 74
0
 42
0.0000001
 43
0.0000001
 44
0.0000000001
 40
0.0
 40
0.0
 40
0.0
 40
0.0
 40
0.0162144586
 40
0.033427571
 40
0.0516720444
 40
0.0709712191
 40
0.0913408126
 40
0.1127899895
 40
0.1353223211
 40
0.1589367539
 40
0.1836279698
 40
0.2093871679
 40
0.2362023304
 40
0.2640585567
 40
0.2929385171
 40
0.3228224305
 40
0.3536885211
 40
0.3855130414
 40
0.4182704221
 40
0.4519335474
 40
0.4864736416
 40
0.5218606007
 40
0.5950466203
 40
0.6712268368
 40
0.7501174882
 40
0.8314198686
 40
0.9148213005
 40
1.0
 40
1.0
 40
1.0
 40
1.0
 10
12.4812346072
 20
8.7016708243
 30
0.0
 10
12.4795485661
 20
8.7037439107
 30
0.0
 10
12.4762145942
 20
8.7081345667
 30
0.0
 10
12.4714599036
 20
8.7152037588
 30
0.0
 10
12.4668097851
 20
8.722941492
 30
0.0
 10
12.4622689379
 20
8.7313395286
 30
0.0
 10
12.4578417958
 20
8.7403894932
 30
0.0
 10
12.4535328591
 20
8.7500821126
 30
0.0
 10
12.4493465016
 20
8.7604074324
 30
0.0
 10
12.4452871276
 20
8.7713548041
 30
0.0
 10
12.44135892
 20
8.7829128612
 30
0.0
 10
12.4375660379
 20
8.7950695831
 30
0.0
 10
12.4339124789
 20
8.8078122834
 30
0.0
 10
12.4304020703
 20
8.8211276341
 30
0.0
 10
12.4270385765
 20
8.8350016945
 30
0.0
 10
12.4238255111
 20
8.8494199092
 30
0.0
 10
12.4207663076
 20
8.8643671441
 30
0.0
 10
12.4178642102
 20
8.8798276945
 30
0.0
 10
12.4151222673
 20
8.895785308
 30
0.0
 10
12.4125434385
 20
8.9122231959
 30
0.0
 10
12.4101303842
 20
8.9291240824
 30
0.0
 10
12.4071036359
 20
8.9525147871
 30
0.0
 10
12.4037693531
 20
8.9827824144
 30
0.0
 10
12.4005086718
 20
9.0202607065
 30
0.0
 10
12.3979592145
 20
9.0591344886
 30
0.0
 10
12.396131973
 20
9.0992399949
 30
0.0
 10
12.3950348631
 20
9.1404084651
 30
0.0
 10
12.3947956633
 20
9.1681912925
 30
0.0
 10
12.3947956633
 20
9.1822288157
 30
0.0
  0
SPLINE
  5
334
100
AcDbEntity
  8
0
100
AcDbSpline
 62
7
  6
CONTINUOUS
 70
0
 71
3
 72
18
 73
14
 74
0
 42
0.0000001
 43
0.0000001
 44
0.0000000001
 40
0.0
 40
0.0
 40
0.0
 40
0.0
 40
0.0992760736
 40
0.2051038
 40
0.3175355097
 40
0.4368772198
 40
0.5637304923
 40
0.6302590737
 40
0.6990540532
 40
0.7702898289
 40
0.844142189
 40
0.9207328216
 40
1.0
 40
1.0
 40
1.0
 40
1.0
 10
11.1111270176
 20
8.825301435
 30
0.0
 10
11.1074488816
 20
8.8225531506
 30
0.0
 10
11.0997934034
 20
8.8169504309
 30
0.0
 10
11.0877780737
 20
8.8085045074
 30
0.0
 10
11.0748256221
 20
8.7997829518
 30
0.0
 10
11.0608664294
 20
8.790822179
 30
0.0
 10
11.0485027461
 20
8.7833132058
 30
0.0
 10
11.038004651
 20
8.7772444212
 30
0.0
 10
11.0296569764
 20
8.7725977986
 30
0.0
 10
11.0209274236
 20
8.7679438823
 30
0.0
 10
11.0117820839
 20
8.7633075538
 30
0.0
 10
11.0021935917
 20
8.7587300826
 30
0.0
 10
10.9956024919
 20
8.7558080541
 30
0.0
 10
10.9922265469
 20
8.7543786658
 30
0.0
  0
SPLINE
  5
335
100
AcDbEntity
  8
0
100
AcDbSpline
 62
7
  6
CONTINUOUS
 70
0
 71
3
 72
49
 73
45
 74
0
 42
0.0000001
 43
0.0000001
 44
0.0000000001
 40
0.0
 40
0.0
 40
0.0
 40
0.0
 40
0.0311359467
 40
0.0624378918
 40
0.0938990367
 40
0.1255088375
 40
0.157253918
 40
0.1891182445
 40
0.2210834601
 40
0.253129278
 40
0.2852338787
 40
0.3173743354
 40
0.3495270492
 40
0.3816681915
 40
0.4137741502
 40
0.4458219731
 40
0.4777898037
 40
0.5096573026
 40
0.541406057
 40
0.5730199523
 40
0.6044855329
 40
0.6357923005
 40
0.6669329896
 40
0.6979037708
 40
0.7133278435
 40
0.7287096536
 40
0.744049744
 40
0.7593488855
 40
0.7746080778
 40
0.7898285455
 40
0.8050117297
 40
0.8201592851
 40
0.8352730743
 40
0.8503551546
 40
0.8654077668
 40
0.8804333283
 40
0.8954344201
 40
0.9104137641
 40
0.9253742041
 40
0.9403187502
 40
0.9552504234
 40
0.9701722501
 40
0.9850880753
 40
1.0
 40
1.0
 40
1.0
 40
1.0
 10
10.3654659969
 20
7.8276386649
 30
0.0
 10
10.3838982277
 20
7.8263603853
 30
0.0
 10
10.4207810411
 20
7.8224470017
 30
0.0
 10
10.4756688761
 20
7.8125877574
 30
0.0
 10
10.5299897184
 20
7.7987735484
 30
0.0
 10
10.583448135
 20
7.7810769231
 30
0.0
 10
10.635757865
 20
7.7595913491
 30
0.0
 10
10.6866373416
 20
7.7344307808
 30
0.0
 10
10.7358130552
 20
7.7057293575
 30
0.0
 10
10.7830204196
 20
7.6736402916
 30
0.0
 10
10.8280055486
 20
7.6383353647
 30
0.0
 10
10.8705265615
 20
7.6000038327
 30
0.0
 10
10.9103548511
 20
7.5588513367
 30
0.0
 10
10.947276579
 20
7.515098996
 30
0.0
 10
10.9810935241
 20
7.4689818811
 30
0.0
 10
11.0116245008
 20
7.4207480048
 30
0.0
 10
11.0387061368
 20
7.3706567608
 30
0.0
 10
11.0621937818
 20
7.3189775264
 30
0.0
 10
11.0819624971
 20
7.2659882586
 30
0.0
 10
11.0979073448
 20
7.2119737201
 30
0.0
 10
11.1099443901
 20
7.1572242885
 30
0.0
 10
11.1180107066
 20
7.1020333227
 30
0.0
 10
11.122065064
 20
7.0466988223
 30
0.0
 10
11.1220836028
 20
7.0006433157
 30
0.0
 10
11.1200758009
 20
6.9640323607
 30
0.0
 10
11.1175672607
 20
6.9367572688
 30
0.0
 10
11.1140576954
 20
6.9096679115
 30
0.0
 10
11.1095520911
 20
6.8827999413
 30
0.0
 10
11.1040568071
 20
6.8561892577
 30
0.0
 10
11.0975795234
 20
6.8298712128
 30
0.0
 10
11.0901291414
 20
6.8038807889
 30
0.0
 10
11.0817158609
 20
6.7782524813
 30
0.0
 10
11.0723512041
 20
6.7530202465
 30
0.0
 10
11.0620478686
 20
6.7282174988
 30
0.0
 10
11.0508197371
 20
6.7038770714
 30
0.0
 10
11.0386819812
 20
6.6800311131
 30
0.0
 10
11.0256509028
 20
6.6567111085
 30
0.0
 10
11.0117439
 20
6.6339478667
 30
0.0
 10
10.9969795645
 20
6.6117713852
 30
0.0
 10
10.9813775643
 20
6.5902109003
 30
0.0
 10
10.9649586914
 20
6.5692949342
 30
0.0
 10
10.9477444825
 20
6.549050709
 30
0.0
 10
10.9297582475
 20
6.5295056782
 30
0.0
 10
10.917267196
 20
6.5169573373
 30
0.0
 10
10.9109025535
 20
6.5108095643
 30
0.0
  0
SPLINE
  5
336
100
AcDbEntity
  8
0
100
AcDbSpline
 62
7
  6
CONTINUOUS
 70
0
 71
3
 72
27
 73
23
 74
0
 42
0.0000001
 43
0.0000001
 44
0.0000000001
 40
0.0
 40
0.0
 40
0.0
 40
0.0
 40
0.0615656319
 40
0.0923594438
 40
0.1231621481
 40
0.1848034321
 40
0.2465195006
 40
0.2774157407
 40
0.3083394416
 40
0.37027471
 40
0.4323519074
 40
0.4945905393
 40
0.5570083093
 40
0.6196209525
 40
0.6824420752
 40
0.7139370837
 40
0.7454882659
 40
0.8087581068
 40
0.8722634524
 40
0.9041080927
 40
0.936013539
 40
1.0
 40
1.0
 40
1.0
 40
1.0
 10
9.8243188524
 20
7.6357237214
 30
0.0
 10
9.8330472671
 20
7.644154723
 30
0.0
 10
9.8464855003
 20
7.6564537044
 30
0.0
 10
9.8650421202
 20
7.6721098862
 30
0.0
 10
9.8840248342
 20
7.687271503
 30
0.0
 10
9.9085252118
 20
7.7052724599
 30
0.0
 10
9.9339707429
 20
7.7219442484
 30
0.0
 10
9.9548595411
 20
7.7344633826
 30
0.0
 10
9.9761126087
 20
7.7464417809
 30
0.0
 10
10.0033101472
 20
7.7603678588
 30
0.0
 10
10.0368452899
 20
7.7753488342
 30
0.0
 10
10.0712141623
 20
7.7885714709
 30
0.0
 10
10.1063307913
 20
7.8000018488
 30
0.0
 10
10.1421071934
 20
7.8096107133
 30
0.0
 10
10.1723723527
 20
7.8160743431
 30
0.0
 10
10.1968198799
 20
7.820313747
 30
0.0
 10
10.2214559756
 20
7.8239355964
 30
0.0
 10
10.2524985143
 20
7.8272841127
 30
0.0
 10
10.2837287753
 20
7.8290502856
 30
0.0
 10
10.3088105176
 20
7.8295163866
 30
0.0
 10
10.3339903565
 20
7.8293495848
 30
0.0
 10
10.3528836797
 20
7.8285112516
 30
0.0
 10
10.3654659969
 20
7.8276386649
 30
0.0
  0
SPLINE
  5
337
100
AcDbEntity
  8
0
100
AcDbSpline
 62
7
  6
CONTINUOUS
 70
0
 71
3
 72
50
 73
46
 74
0
 42
0.0000001
 43
0.0000001
 44
0.0000000001
 40
0.0
 40
0.0
 40
0.0
 40
0.0
 40
0.0405454413
 40
0.0815503353
 40
0.1228984601
 40
0.1644731554
 40
0.2061564588
 40
0.2478302252
 40
0.2893762667
 40
0.3306768813
 40
0.3716152443
 40
0.4120758473
 40
0.4519449256
 40
0.491110895
 40
0.5294647939
 40
0.5669007362
 40
0.6033163787
 40
0.6386134091
 40
0.6726980648
 40
0.7054816928
 40
0.7368813715
 40
0.7668206179
 40
0.7952302184
 40
0.8088424377
 40
0.8220501638
 40
0.8348472609
 40
0.8472283327
 40
0.8591887201
 40
0.8707245988
 40
0.8818330856
 40
0.8925122777
 40
0.9027614796
 40
0.9125812046
 40
0.9219735285
 40
0.93094209
 40
0.9394925752
 40
0.9476327717
 40
0.955373181
 40
0.9627271911
 40
0.9697117989
 40
0.9763479392
 40
0.9826612439
 40
0.9886824478
 40
0.9944479575
 40
1.0
 40
1.0
 40
1.0
 40
1.0
 10
12.6144474955
 20
9.5013962058
 30
0.0
 10
12.6144474955
 20
9.4912248887
 30
0.0
 10
12.6142958588
 20
9.4707667019
 30
0.0
 10
12.6136249897
 20
9.4399424469
 30
0.0
 10
12.6125111836
 20
9.4088726043
 30
0.0
 10
12.6109578096
 20
9.3776512713
 30
0.0
 10
12.6089695342
 20
9.346372761
 30
0.0
 10
12.6065523752
 20
9.3151316788
 30
0.0
 10
12.6037136413
 20
9.2840224692
 30
0.0
 10
12.6004619317
 20
9.2531391921
 30
0.0
 10
12.5968071004
 20
9.2225752148
 30
0.0
 10
12.5927602307
 20
9.1924229344
 30
0.0
 10
12.5883336006
 20
9.1627734947
 30
0.0
 10
12.5835406467
 20
9.1337165078
 30
0.0
 10
12.5783959247
 20
9.1053397802
 30
0.0
 10
12.5729150654
 20
9.0777290429
 30
0.0
 10
12.5671147291
 20
9.0509676864
 30
0.0
 10
12.5610125554
 20
9.0251365035
 30
0.0
 10
12.5546271112
 20
9.0003134277
 30
0.0
 10
12.5479778323
 20
8.9765733129
 30
0.0
 10
12.5410849704
 20
8.953987591
 30
0.0
 10
12.5339694992
 20
8.9326243763
 30
0.0
 10
12.5277876723
 20
8.9156603837
 30
0.0
 10
12.522735891
 20
8.9027586266
 30
0.0
 10
12.5189589695
 20
8.89356532
 30
0.0
 10
12.5151427575
 20
8.8847236398
 30
0.0
 10
12.511290123
 20
8.8762402263
 30
0.0
 10
12.5074039809
 20
8.8681214561
 30
0.0
 10
12.5034872504
 20
8.8603734245
 30
0.0
 10
12.4995429049
 20
8.8530019269
 30
0.0
 10
12.4955738664
 20
8.8460124882
 30
0.0
 10
12.4915831573
 20
8.8394102994
 30
0.0
 10
12.4875736801
 20
8.8332002984
 30
0.0
 10
12.4835484781
 20
8.8273870502
 30
0.0
 10
12.4795104082
 20
8.8219748952
 30
0.0
 10
12.4754624899
 20
8.8169677618
 30
0.0
 10
12.4714075
 20
8.8123693952
 30
0.0
 10
12.4673483699
 20
8.8081831058
 30
0.0
 10
12.4632877536
 20
8.8044120801
 30
0.0
 10
12.459228428
 20
8.801059092
 30
0.0
 10
12.4551728925
 20
8.7981268752
 30
0.0
 10
12.4511238039
 20
8.7956178599
 30
0.0
 10
12.447083476
 20
8.7935344924
 30
0.0
 10
12.4430551573
 20
8.7918792134
 30
0.0
 10
12.4403345417
 20
8.7910490196
 30
0.0
 10
12.4389834123
 20
8.7907108863
 30
0.0
  0
SPLINE
  5
338
100
AcDbEntity
  8
0
100
AcDbSpline
 62
7
  6
CONTINUOUS
 70
0
 71
3
 72
37
 73
33
 74
0
 42
0.0000001
 43
0.0000001
 44
0.0000000001
 40
0.0
 40
0.0
 40
0.0
 40
0.0
 40
0.0928314956
 40
0.1833149793
 40
0.2709709742
 40
0.3135943739
 40
0.3553400559
 40
0.3961543634
 40
0.4359855121
 40
0.4747837811
 40
0.5125015095
 40
0.5490933912
 40
0.5845167247
 40
0.6187314496
 40
0.6517005587
 40
0.683390395
 40
0.7137708171
 40
0.7428158136
 40
0.7705039474
 40
0.7968188186
 40
0.821750068
 40
0.8452942344
 40
0.8674558863
 40
0.8882494653
 40
0.9077011769
 40
0.9258515776
 40
0.9427591405
 40
0.958504149
 40
0.9731934113
 40
0.9869652209
 40
0.9935632429
 40
1.0
 40
1.0
 40
1.0
 40
1.0
 10
12.6144474955
 20
9.5013962058
 30
0.0
 10
12.6144474955
 20
9.515237415
 30
0.0
 10
12.6141720906
 20
9.5425707051
 30
0.0
 10
12.612904842
 20
9.5829556604
 30
0.0
 10
12.6111313986
 20
9.6158270279
 30
0.0
 10
12.6092808601
 20
9.6414097452
 30
0.0
 10
12.6076995666
 20
9.6600080645
 30
0.0
 10
12.605914346
 20
9.6781696443
 30
0.0
 10
12.6039277681
 20
9.695868198
 30
0.0
 10
12.6017427745
 20
9.7130780898
 30
0.0
 10
12.5993625399
 20
9.7297744031
 30
0.0
 10
12.5967905387
 20
9.7459329728
 30
0.0
 10
12.5940305611
 20
9.7615304293
 30
0.0
 10
12.591086618
 20
9.7765442231
 30
0.0
 10
12.5879630125
 20
9.7909526703
 30
0.0
 10
12.5846643369
 20
9.8047349907
 30
0.0
 10
12.5811953742
 20
9.8178713268
 30
0.0
 10
12.5775611878
 20
9.8303427975
 30
0.0
 10
12.5737670864
 20
9.8421315325
 30
0.0
 10
12.5698185214
 20
9.8532206838
 30
0.0
 10
12.5657211874
 20
9.863594496
 30
0.0
 10
12.5614809355
 20
9.8732383313
 30
0.0
 10
12.5571036528
 20
9.8821386672
 30
0.0
 10
12.5525953401
 20
9.8902831806
 30
0.0
 10
12.5479619388
 20
9.8976607173
 30
0.0
 10
12.5432091138
 20
9.9042612199
 30
0.0
 10
12.5383423954
 20
9.9100756518
 30
0.0
 10
12.5333664898
 20
9.9150958521
 30
0.0
 10
12.5282866777
 20
9.9193133747
 30
0.0
 10
12.5239076138
 20
9.9221930707
 30
0.0
 10
12.5203717186
 20
9.9240615144
 30
0.0
 10
12.5185954026
 20
9.9248545612
 30
0.0
 10
12.5177058764
 20
9.9252148541
 30
0.0
  0
SPLINE
  5
339
100
AcDbEntity
  8
0
100
AcDbSpline
 62
7
  6
CONTINUOUS
 70
0
 71
3
 72
50
 73
46
 74
0
 42
0.0000001
 43
0.0000001
 44
0.0000000001
 40
0.0
 40
0.0
 40
0.0
 40
0.0
 40
0.0405454413
 40
0.0815503353
 40
0.1228984601
 40
0.1644731554
 40
0.2061564588
 40
0.2478302252
 40
0.2893762667
 40
0.3306768813
 40
0.3716152443
 40
0.4120758473
 40
0.4519449256
 40
0.491110895
 40
0.5294647939
 40
0.5669007362
 40
0.6033163787
 40
0.6386134091
 40
0.6726980648
 40
0.7054816928
 40
0.7368813715
 40
0.7668206179
 40
0.7952302184
 40
0.8088424377
 40
0.8220501638
 40
0.8348472609
 40
0.8472283327
 40
0.8591887201
 40
0.8707245988
 40
0.8818330856
 40
0.8925122777
 40
0.9027614796
 40
0.9125812046
 40
0.9219735285
 40
0.93094209
 40
0.9394925752
 40
0.9476327717
 40
0.955373181
 40
0.9627271911
 40
0.9697117989
 40
0.9763479392
 40
0.9826612439
 40
0.9886824478
 40
0.9944479575
 40
1.0
 40
1.0
 40
1.0
 40
1.0
 10
12.6144474955
 20
7.5695444387
 30
0.0
 10
12.6144474955
 20
7.5593731216
 30
0.0
 10
12.6142958588
 20
7.5389149348
 30
0.0
 10
12.6136249897
 20
7.5080906799
 30
0.0
 10
12.6125111836
 20
7.4770208373
 30
0.0
 10
12.6109578096
 20
7.4457995043
 30
0.0
 10
12.6089695342
 20
7.4145209939
 30
0.0
 10
12.6065523752
 20
7.3832799117
 30
0.0
 10
12.6037136413
 20
7.3521707021
 30
0.0
 10
12.6004619317
 20
7.3212874251
 30
0.0
 10
12.5968071004
 20
7.2907234477
 30
0.0
 10
12.5927602307
 20
7.2605711674
 30
0.0
 10
12.5883336006
 20
7.2309217276
 30
0.0
 10
12.5835406467
 20
7.2018647407
 30
0.0
 10
12.5783959247
 20
7.1734880131
 30
0.0
 10
12.5729150654
 20
7.1458772758
 30
0.0
 10
12.5671147291
 20
7.1191159193
 30
0.0
 10
12.5610125554
 20
7.0932847364
 30
0.0
 10
12.5546271112
 20
7.0684616606
 30
0.0
 10
12.5479778323
 20
7.0447215458
 30
0.0
 10
12.5410849704
 20
7.022135824
 30
0.0
 10
12.5339694992
 20
7.0007726093
 30
0.0
 10
12.5277876723
 20
6.9838086167
 30
0.0
 10
12.522735891
 20
6.9709068596
 30
0.0
 10
12.5189589695
 20
6.9617135529
 30
0.0
 10
12.5151427575
 20
6.9528718727
 30
0.0
 10
12.511290123
 20
6.9443884593
 30
0.0
 10
12.5074039809
 20
6.9362696891
 30
0.0
 10
12.5034872504
 20
6.9285216574
 30
0.0
 10
12.4995429049
 20
6.9211501598
 30
0.0
 10
12.4955738664
 20
6.9141607211
 30
0.0
 10
12.4915831573
 20
6.9075585323
 30
0.0
 10
12.4875736801
 20
6.9013485314
 30
0.0
 10
12.4835484781
 20
6.8955352832
 30
0.0
 10
12.4795104082
 20
6.8901231282
 30
0.0
 10
12.4754624899
 20
6.8851159947
 30
0.0
 10
12.4714075
 20
6.8805176282
 30
0.0
 10
12.4673483699
 20
6.8763313388
 30
0.0
 10
12.4632877536
 20
6.8725603131
 30
0.0
 10
12.459228428
 20
6.8692073249
 30
0.0
 10
12.4551728925
 20
6.8662751081
 30
0.0
 10
12.4511238039
 20
6.8637660929
 30
0.0
 10
12.447083476
 20
6.8616827253
 30
0.0
 10
12.4430551573
 20
6.8600274464
 30
0.0
 10
12.4403345417
 20
6.8591972525
 30
0.0
 10
12.4389834123
 20
6.8588591192
 30
0.0
  0
SPLINE
  5
33A
100
AcDbEntity
  8
0
100
AcDbSpline
 62
7
  6
CONTINUOUS
 70
0
 71
3
 72
37
 73
33
 74
0
 42
0.0000001
 43
0.0000001
 44
0.0000000001
 40
0.0
 40
0.0
 40
0.0
 40
0.0
 40
0.0928314956
 40
0.1833149793
 40
0.2709709742
 40
0.3135943739
 40
0.3553400559
 40
0.3961543634
 40
0.4359855121
 40
0.4747837811
 40
0.5125015095
 40
0.5490933912
 40
0.5845167247
 40
0.6187314496
 40
0.6517005587
 40
0.683390395
 40
0.7137708171
 40
0.7428158136
 40
0.7705039474
 40
0.7968188186
 40
0.821750068
 40
0.8452942344
 40
0.8674558863
 40
0.8882494653
 40
0.9077011769
 40
0.9258515776
 40
0.9427591405
 40
0.958504149
 40
0.9731934113
 40
0.9869652209
 40
0.9935632429
 40
1.0
 40
1.0
 40
1.0
 40
1.0
 10
12.6144474955
 20
7.5695444387
 30
0.0
 10
12.6144474955
 20
7.583385648
 30
0.0
 10
12.6141720906
 20
7.610718938
 30
0.0
 10
12.612904842
 20
7.6511038933
 30
0.0
 10
12.6111313986
 20
7.6839752608
 30
0.0
 10
12.6092808601
 20
7.7095579782
 30
0.0
 10
12.6076995666
 20
7.7281562975
 30
0.0
 10
12.605914346
 20
7.7463178772
 30
0.0
 10
12.6039277681
 20
7.7640164309
 30
0.0
 10
12.6017427745
 20
7.7812263228
 30
0.0
 10
12.5993625399
 20
7.797922636
 30
0.0
 10
12.5967905387
 20
7.8140812058
 30
0.0
 10
12.5940305611
 20
7.8296786623
 30
0.0
 10
12.591086618
 20
7.8446924561
 30
0.0
 10
12.5879630125
 20
7.8591009033
 30
0.0
 10
12.5846643369
 20
7.8728832237
 30
0.0
 10
12.5811953742
 20
7.8860195598
 30
0.0
 10
12.5775611878
 20
7.8984910305
 30
0.0
 10
12.5737670864
 20
7.9102797654
 30
0.0
 10
12.5698185214
 20
7.9213689167
 30
0.0
 10
12.5657211874
 20
7.9317427289
 30
0.0
 10
12.5614809355
 20
7.9413865643
 30
0.0
 10
12.5571036528
 20
7.9502869001
 30
0.0
 10
12.5525953401
 20
7.9584314136
 30
0.0
 10
12.5479619388
 20
7.9658089502
 30
0.0
 10
12.5432091138
 20
7.9724094529
 30
0.0
 10
12.5383423954
 20
7.9782238848
 30
0.0
 10
12.5333664898
 20
7.983244085
 30
0.0
 10
12.5282866777
 20
7.9874616077
 30
0.0
 10
12.5239076138
 20
7.9903413036
 30
0.0
 10
12.5203717186
 20
7.9922097474
 30
0.0
 10
12.5185954026
 20
7.9930027941
 30
0.0
 10
12.5177058764
 20
7.993363087
 30
0.0
  0
SPLINE
  5
33B
100
AcDbEntity
  8
0
100
AcDbSpline
 62
7
  6
CONTINUOUS
 70
0
 71
3
 72
11
 73
7
 74
0
 42
0.0000001
 43
0.0000001
 44
0.0000000001
 40
0.0
 40
0.0
 40
0.0
 40
0.0
 40
0.2521579221
 40
0.5028363759
 40
0.7520884207
 40
1.0
 40
1.0
 40
1.0
 40
1.0
 10
9.749292364
 20
7.9680628447
 30
0.0
 10
9.7573830943
 20
7.9675017506
 30
0.0
 10
9.7735727755
 20
7.967062255
 30
0.0
 10
9.7977498213
 20
7.9684748276
 30
0.0
 10
9.8215798091
 20
7.9719500572
 30
0.0
 10
9.8371642766
 20
7.9756368377
 30
0.0
 10
9.8448348339
 20
7.9778141417
 30
0.0
  0
SPLINE
  5
33C
100
AcDbEntity
  8
0
100
AcDbSpline
 62
7
  6
CONTINUOUS
 70
0
 71
3
 72
39
 73
35
 74
0
 42
0.0000001
 43
0.0000001
 44
0.0000000001
 40
0.0
 40
0.0
 40
0.0
 40
0.0
 40
0.0308461574
 40
0.06181576
 40
0.0929037543
 40
0.1241061302
 40
0.1554158372
 40
0.186825035
 40
0.2183244047
 40
0.2499035225
 40
0.2815509419
 40
0.3132543565
 40
0.3450007596
 40
0.3767766077
 40
0.4085679912
 40
0.4403608068
 40
0.4721409322
 40
0.5038944026
 40
0.5356075857
 40
0.5672673525
 40
0.5988612434
 40
0.6303776281
 40
0.6618058578
 40
0.6931364089
 40
0.7243610169
 40
0.7554727969
 40
0.7864663472
 40
0.8173378376
 40
0.8480850777
 40
0.8787075665
 40
0.9092065192
 40
0.9395848735
 40
0.9698472688
 40
1.0
 40
1.0
 40
1.0
 40
1.0
 10
9.749292364
 20
7.9680628447
 30
0.0
 10
9.7436757203
 20
7.9684523602
 30
0.0
 10
9.7324400928
 20
7.9695623123
 30
0.0
 10
9.7156810288
 20
7.9722040723
 30
0.0
 10
9.6990371987
 20
7.9758172537
 30
0.0
 10
9.6825666275
 20
7.9803891078
 30
0.0
 10
9.6663255383
 20
7.9859040461
 30
0.0
 10
9.65036977
 20
7.9923429956
 30
0.0
 10
9.6347540533
 20
7.9996838432
 30
0.0
 10
9.6195319839
 20
8.007901343
 30
0.0
 10
9.6047557897
 20
8.0169672507
 30
0.0
 10
9.5904761688
 20
8.0268504162
 30
0.0
 10
9.5767421153
 20
8.0375168958
 30
0.0
 10
9.563600754
 20
8.0489300669
 30
0.0
 10
9.5510971803
 20
8.0610507527
 30
0.0
 10
9.5392743068
 20
8.0738373548
 30
0.0
 10
9.5281727186
 20
8.0872459962
 30
0.0
 10
9.5178305206
 20
8.101230659
 30
0.0
 10
9.5082832173
 20
8.115743353
 30
0.0
 10
9.4995635942
 20
8.1307342801
 30
0.0
 10
9.4917016055
 20
8.1461520027
 30
0.0
 10
9.4847242723
 20
8.1619436187
 30
0.0
 10
9.4786555899
 20
8.1780549402
 30
0.0
 10
9.4735164476
 20
8.1944306783
 30
0.0
 10
9.4693245392
 20
8.2110146261
 30
0.0
 10
9.4660943128
 20
8.2277498565
 30
0.0
 10
9.4638369251
 20
8.2445789151
 30
0.0
 10
9.4625602015
 20
8.2614440174
 30
0.0
 10
9.4622686057
 20
8.2782872377
 30
0.0
 10
9.4629632299
 20
8.2950507306
 30
0.0
 10
9.4646417621
 20
8.311676837
 30
0.0
 10
9.4672985808
 20
8.3281086203
 30
0.0
 10
9.4709243843
 20
8.344288815
 30
0.0
 10
9.4739852211
 20
8.3548910303
 30
0.0
 10
9.4756726232
 20
8.360129535
 30
0.0
  0
SPLINE
  5
33D
100
AcDbEntity
  8
0
100
AcDbSpline
 62
7
  6
CONTINUOUS
 70
0
 71
3
 72
39
 73
35
 74
0
 42
0.0000001
 43
0.0000001
 44
0.0000000001
 40
0.0
 40
0.0
 40
0.0
 40
0.0
 40
0.0310056836
 40
0.0621506876
 40
0.0934290457
 40
0.1248343575
 40
0.1563570069
 40
0.1879858949
 40
0.2197080213
 40
0.2515089249
 40
0.2833728618
 40
0.3152830837
 40
0.3472221046
 40
0.3791719817
 40
0.4111146005
 40
0.4430319616
 40
0.4749064666
 40
0.5067211985
 40
0.5384601949
 40
0.5701087107
 40
0.6016534658
 40
0.633082875
 40
0.6643872566
 40
0.6955590151
 40
0.7265927961
 40
0.7574856065
 40
0.7882368983
 40
0.8188486116
 40
0.8493251741
 40
0.8796734546
 40
0.9099026698
 40
0.9400242422
 40
0.9700516113
 40
1.0
 40
1.0
 40
1.0
 40
1.0
 10
9.749292364
 20
8.0588598777
 30
0.0
 10
9.7449553991
 20
8.0591606473
 30
0.0
 10
9.7362792603
 20
8.0600509729
 30
0.0
 10
9.7233541815
 20
8.0622372517
 30
0.0
 10
9.7105426
 20
8.0652679859
 30
0.0
 10
9.6979014145
 20
8.0691296343
 30
0.0
 10
9.6854856999
 20
8.0738053248
 30
0.0
 10
9.673349864
 20
8.0792744636
 30
0.0
 10
9.6615469892
 20
8.0855130805
 30
0.0
 10
9.650128721
 20
8.0924938127
 30
0.0
 10
9.6391450152
 20
8.100186076
 30
0.0
 10
9.6286439278
 20
8.1085561777
 30
0.0
 10
9.6186714064
 20
8.1175674709
 30
0.0
 10
9.609271089
 20
8.1271805096
 30
0.0
 10
9.6004841136
 20
8.1373532204
 30
0.0
 10
9.592348942
 20
8.1480410876
 30
0.0
 10
9.5849011923
 20
8.1591973459
 30
0.0
 10
9.5781734843
 20
8.1707731838
 30
0.0
 10
9.5721952977
 20
8.1827179544
 30
0.0
 10
9.5669928438
 20
8.1949793947
 30
0.0
 10
9.5625889506
 20
8.2075038521
 30
0.0
 10
9.559002963
 20
8.2202365166
 30
0.0
 10
9.5562506571
 20
8.2331216572
 30
0.0
 10
9.5543441708
 20
8.2461028637
 30
0.0
 10
9.5532919442
 20
8.2591232902
 30
0.0
 10
9.5530986822
 20
8.272125903
 30
0.0
 10
9.5537653326
 20
8.2850537275
 30
0.0
 10
9.5552890788
 20
8.2978500978
 30
0.0
 10
9.5576633442
 20
8.310458898
 30
0.0
 10
9.5608778303
 20
8.3228248294
 30
0.0
 10
9.5649185052
 20
8.3348935729
 30
0.0
 10
9.5697678524
 20
8.3466123304
 30
0.0
 10
9.575404229
 20
8.3579289395
 30
0.0
 10
9.5796759817
 20
8.3651820282
 30
0.0
 10
9.5819332483
 20
8.3687228597
 30
0.0
  0
SPLINE
  5
33E
100
AcDbEntity
  8
0
100
AcDbSpline
 62
7
  6
CONTINUOUS
 70
0
 71
3
 72
41
 73
37
 74
0
 42
0.0000001
 43
0.0000001
 44
0.0000000001
 40
0.0
 40
0.0
 40
0.0
 40
0.0
 40
0.0311447108
 40
0.0467774295
 40
0.0624475249
 40
0.0938924651
 40
0.1254747955
 40
0.1571823865
 40
0.1890004527
 40
0.2209120576
 40
0.2528984154
 40
0.2689156901
 40
0.2849439669
 40
0.3170180467
 40
0.3491033961
 40
0.3811778561
 40
0.4132194776
 40
0.4452069463
 40
0.4771199982
 40
0.5089398211
 40
0.5406494354
 40
0.5722340478
 40
0.6036813723
 40
0.6349819093
 40
0.666129179
 40
0.6971198991
 40
0.7279541027
 40
0.7586351871
 40
0.7891698911
 40
0.819568195
 40
0.8498431417
 40
0.8800105805
 40
0.9100888347
 40
0.9400983003
 40
0.9700609852
 40
1.0
 40
1.0
 40
1.0
 40
1.0
 10
11.2615952117
 20
5.7469836025
 30
0.0
 10
11.2545898715
 20
5.7474694245
 30
0.0
 10
11.2440898218
 20
5.7485834144
 30
0.0
 10
11.230186803
 20
5.7508220843
 30
0.0
 10
11.2163058663
 20
5.753570495
 30
0.0
 10
11.1990937039
 20
5.757947566
 30
0.0
 10
11.1787999004
 20
5.7646660491
 30
0.0
 10
11.1589482724
 20
5.7728211032
 30
0.0
 10
11.1396451226
 20
5.7823691101
 30
0.0
 10
11.1209936336
 20
5.7932586867
 30
0.0
 10
11.1060813815
 20
5.8033997558
 30
0.0
 10
11.094573521
 20
5.8121216869
 30
0.0
 10
11.0833550869
 20
5.8212442726
 30
0.0
 10
11.0699188948
 20
5.8333645559
 30
0.0
 10
11.0548239363
 20
5.8489737773
 30
0.0
 10
11.0408318837
 20
5.8655699376
 30
0.0
 10
11.0280178291
 20
5.883064194
 30
0.0
 10
11.0164499843
 20
5.9013634335
 30
0.0
 10
11.0061901135
 20
5.9203701234
 30
0.0
 10
10.9972929941
 20
5.939982996
 30
0.0
 10
10.9898061821
 20
5.9600975359
 30
0.0
 10
10.9837697436
 20
5.9806065416
 30
0.0
 10
10.9792160434
 20
6.0014006857
 30
0.0
 10
10.9761695681
 20
6.022369091
 30
0.0
 10
10.9746467903
 20
6.0433999131
 30
0.0
 10
10.9746560743
 20
6.0643809296
 30
0.0
 10
10.9761976177
 20
6.0852001328
 30
0.0
 10
10.9792634406
 20
6.1057463239
 30
0.0
 10
10.9838374169
 20
6.1259097035
 30
0.0
 10
10.989895349
 20
6.1455824619
 30
0.0
 10
10.9974050725
 20
6.1646593494
 30
0.0
 10
11.0063266518
 20
6.1830382823
 30
0.0
 10
11.0166124458
 20
6.2006207685
 30
0.0
 10
11.0282078626
 20
6.2173129387
 30
0.0
 10
11.041049757
 20
6.2330242417
 30
0.0
 10
11.0504003585
 20
6.2427925254
 30
0.0
 10
11.0552555574
 20
6.2474822854
 30
0.0
  0
SPLINE
  5
33F
100
AcDbEntity
  8
0
100
AcDbSpline
 62
7
  6
CONTINUOUS
 70
0
 71
3
 72
49
 73
45
 74
0
 42
0.0000001
 43
0.0000001
 44
0.0000000001
 40
0.0
 40
0.0
 40
0.0
 40
0.0
 40
0.0311432951
 40
0.0624396747
 40
0.0938831248
 40
0.1254640322
 40
0.1571701658
 40
0.1889867774
 40
0.2208969221
 40
0.252881816
 40
0.2849212183
 40
0.3169938299
 40
0.3490777101
 40
0.3811507017
 40
0.4131908569
 40
0.4451768617
 40
0.4770884537
 40
0.5089068214
 40
0.5406149847
 40
0.5721981523
 40
0.6036440379
 40
0.6349431418
 40
0.6660889863
 40
0.697078288
 40
0.7125167323
 40
0.727916335
 40
0.7432776276
 40
0.7586013498
 40
0.7738884462
 40
0.7891400671
 40
0.8043575607
 40
0.8195424647
 40
0.8346965035
 40
0.8498215777
 40
0.8649197518
 40
0.8799932465
 40
0.8950444266
 40
0.9100757853
 40
0.9250899314
 40
0.9400895765
 40
0.9550775167
 40
0.9700566162
 40
0.9850297929
 40
1.0
 40
1.0
 40
1.0
 40
1.0
 10
10.367610703
 20
8.249764369
 30
0.0
 10
10.3491656633
 20
8.2510435368
 30
0.0
 10
10.3122648241
 20
8.2549582769
 30
0.0
 10
10.2573609568
 20
8.2648195574
 30
0.0
 10
10.2030451563
 20
8.2786322873
 30
0.0
 10
10.149610793
 20
8.2963221856
 30
0.0
 10
10.0973416955
 20
8.3177943893
 30
0.0
 10
10.0465167317
 20
8.3429341024
 30
0.0
 10
9.9974066402
 20
8.3716069537
 30
0.0
 10
9.9502730786
 20
8.4036598086
 30
0.0
 10
9.9053672357
 20
8.4389217203
 30
0.0
 10
9.8629283318
 20
8.4772045446
 30
0.0
 10
9.8231825371
 20
8.5183042012
 30
0.0
 10
9.7863417449
 20
8.5620016615
 30
0.0
 10
9.7526022936
 20
8.6080639906
 30
0.0
 10
9.7221442047
 20
8.6562457995
 30
0.0
 10
9.6951299989
 20
8.7062903438
 30
0.0
 10
9.6717038753
 20
8.7579309454
 30
0.0
 10
9.6519911422
 20
8.8108924535
 30
0.0
 10
9.6360972156
 20
8.8648926081
 30
0.0
 10
9.6241073086
 20
8.9196434156
 30
0.0
 10
9.6160860071
 20
8.9748534863
 30
0.0
 10
9.6120764039
 20
9.0302263138
 30
0.0
 10
9.6120971088
 20
9.0763255419
 30
0.0
 10
9.6141378726
 20
9.1129816589
 30
0.0
 10
9.6166728069
 20
9.1402987537
 30
0.0
 10
9.620210559
 20
9.1674351485
 30
0.0
 10
9.6247464341
 20
9.1943550682
 30
0.0
 10
9.6302744462
 20
9.2210224207
 30
0.0
 10
9.6367871629
 20
9.247401631
 30
0.0
 10
9.644275915
 20
9.2734574523
 30
0.0
 10
9.6527307803
 20
9.2991550578
 30
0.0
 10
9.6621404222
 20
9.3244601318
 30
0.0
 10
9.672492279
 20
9.349338871
 30
0.0
 10
9.6837726022
 20
9.3737580044
 30
0.0
 10
9.6959662942
 20
9.397684918
 30
0.0
 10
9.7090570508
 20
9.4210876544
 30
0.0
 10
9.7230274518
 20
9.4439349074
 30
0.0
 10
9.7378588216
 20
9.4661961486
 30
0.0
 10
9.7535313193
 20
9.4878416636
 30
0.0
 10
9.7700240261
 20
9.5088424678
 30
0.0
 10
9.7873150219
 20
9.5291705836
 30
0.0
 10
9.8053807646
 20
9.5487985185
 30
0.0
 10
9.8179264084
 20
9.5614008496
 30
0.0
 10
9.8243188533
 20
9.5675754875
 30
0.0
  0
SPLINE
  5
340
100
AcDbEntity
  8
0
100
AcDbSpline
 62
7
  6
CONTINUOUS
 70
0
 71
3
 72
21
 73
17
 74
0
 42
0.0000001
 43
0.0000001
 44
0.0000000001
 40
0.0
 40
0.0
 40
0.0
 40
0.0
 40
0.1526998779
 40
0.2306311263
 40
0.3087746622
 40
0.3862207704
 40
0.4619039087
 40
0.5347427499
 40
0.6038146206
 40
0.6684882201
 40
0.7284649815
 40
0.7837400924
 40
0.8345205965
 40
0.8811402624
 40
0.923994304
 40
1.0
 40
1.0
 40
1.0
 40
1.0
 10
10.338212256
 20
8.5110077614
 30
0.0
 10
10.341624067
 20
8.5102119463
 30
0.0
 10
10.3467521541
 20
8.5088972094
 30
0.0
 10
10.3535436143
 20
8.5068794384
 30
0.0
 10
10.3586355784
 20
8.5052105579
 30
0.0
 10
10.3636256192
 20
8.5034039855
 30
0.0
 10
10.368439288
 20
8.5014758733
 30
0.0
 10
10.3730033368
 20
8.499449948
 30
0.0
 10
10.3772561887
 20
8.4973545442
 30
0.0
 10
10.381155567
 20
8.4952185581
 30
0.0
 10
10.384680907
 20
8.4930677804
 30
0.0
 10
10.3878308816
 20
8.4909226795
 30
0.0
 10
10.3906179465
 20
8.4887980828
 30
0.0
 10
10.3930633638
 20
8.4867032329
 30
0.0
 10
10.3957926834
 20
8.484062433
 30
0.0
 10
10.3975759209
 20
8.4819849094
 30
0.0
 10
10.3986069059
 20
8.4805785288
 30
0.0
  0
SPLINE
  5
341
100
AcDbEntity
  8
0
100
AcDbSpline
 62
7
  6
CONTINUOUS
 70
0
 71
3
 72
63
 73
59
 74
0
 42
0.0000001
 43
0.0000001
 44
0.0000000001
 40
0.0
 40
0.0
 40
0.0
 40
0.0
 40
0.0452104164
 40
0.091001473
 40
0.1371893149
 40
0.1835869879
 40
0.2300069161
 40
0.2762613042
 40
0.3221632232
 40
0.3675275614
 40
0.4121719928
 40
0.4559179565
 40
0.4985916636
 40
0.5400251213
 40
0.5800571859
 40
0.599499812
 40
0.6185353704
 40
0.6371461356
 40
0.6553150964
 40
0.6730258996
 40
0.6902629631
 40
0.7070115384
 40
0.7232576947
 40
0.7389885091
 40
0.7541920343
 40
0.7688574413
 40
0.7829751581
 40
0.7965368909
 40
0.8095359103
 40
0.8219671237
 40
0.8338273274
 40
0.8451155371
 40
0.8558331982
 40
0.8659847405
 40
0.8755780031
 40
0.8846248863
 40
0.8931422238
 40
0.9011526208
 40
0.9086857061
 40
0.9157793339
 40
0.9224808562
 40
0.9288482642
 40
0.9349505823
 40
0.9379282795
 40
0.9408703116
 40
0.9437879136
 40
0.9466926229
 40
0.9495961458
 40
0.9525102055
 40
0.9554463841
 40
0.9584159889
 40
0.9614299111
 40
0.964498516
 40
0.9708358231
 40
0.9775007751
 40
0.9845524732
 40
0.9920392909
 40
1.0
 40
1.0
 40
1.0
 40
1.0
 10
12.74549518
 20
7.5891267892
 30
0.0
 10
12.74549518
 20
7.574681941
 30
0.0
 10
12.7452375641
 20
7.5456061438
 30
0.0
 10
12.744101611
 20
7.5017865501
 30
0.0
 10
12.7422179916
 20
7.4576129546
 30
0.0
 10
12.7395947459
 20
7.4132758927
 30
0.0
 10
12.7362431801
 20
7.3689666017
 30
0.0
 10
12.7321777501
 20
7.3248761441
 30
0.0
 10
12.7274160374
 20
7.2811946403
 30
0.0
 10
12.7219786502
 20
7.238110433
 30
0.0
 10
12.7158891429
 20
7.1958092614
 30
0.0
 10
12.7091739084
 20
7.1544734733
 30
0.0
 10
12.7018620938
 20
7.1142811407
 30
0.0
 10
12.6939854225
 20
7.0754055632
 30
0.0
 10
12.6869124538
 20
7.0439475725
 30
0.0
 10
12.6809860922
 20
7.0195729572
 30
0.0
 10
12.6764651609
 20
7.0019015554
 30
0.0
 10
12.6718297728
 20
6.9846809019
 30
0.0
 10
12.6670849512
 20
6.9679295328
 30
0.0
 10
12.6622358128
 20
6.951665503
 30
0.0
 10
12.6572875999
 20
6.9359063284
 30
0.0
 10
12.652245693
 20
6.9206689711
 30
0.0
 10
12.647115503
 20
6.9059698351
 30
0.0
 10
12.6419026177
 20
6.891824719
 30
0.0
 10
12.6366126547
 20
6.878248825
 30
0.0
 10
12.6312513182
 20
6.8652567286
 30
0.0
 10
12.6258244345
 20
6.8528623476
 30
0.0
 10
12.6203378046
 20
6.8410789612
 30
0.0
 10
12.6147973721
 20
6.8299191419
 30
0.0
 10
12.6092090704
 20
6.8193947782
 30
0.0
 10
12.6035788444
 20
6.8095170538
 30
0.0
 10
12.5979127212
 20
6.8002963878
 30
0.0
 10
12.5922166039
 20
6.7917425042
 30
0.0
 10
12.5864964423
 20
6.7838643304
 30
0.0
 10
12.580758063
 20
6.7766700527
 30
0.0
 10
12.5750071194
 20
6.7701671521
 30
0.0
 10
12.5692491742
 20
6.7643623294
 30
0.0
 10
12.5634894309
 20
6.7592617578
 30
0.0
 10
12.5577328818
 20
6.7548710528
 30
0.0
 10
12.5519843302
 20
6.7511955463
 30
0.0
 10
12.5462481941
 20
6.7482406217
 30
0.0
 10
12.5405302142
 20
6.7460116774
 30
0.0
 10
12.5357443744
 20
6.744753683
 30
0.0
 10
12.5319525517
 20
6.7441271083
 30
0.0
 10
12.5291412511
 20
6.7438437414
 30
0.0
 10
12.5263408531
 20
6.7437434413
 30
0.0
 10
12.5235521432
 20
6.7438262335
 30
0.0
 10
12.5207760484
 20
6.7440921819
 30
0.0
 10
12.5180134552
 20
6.7445411376
 30
0.0
 10
12.5152652275
 20
6.7451729045
 30
0.0
 10
12.5125322437
 20
6.7459872633
 30
0.0
 10
12.5098152506
 20
6.7469839274
 30
0.0
 10
12.5061765103
 20
6.748571971
 30
0.0
 10
12.5016577624
 20
6.7510347059
 30
0.0
 10
12.4963763754
 20
6.7546803716
 30
0.0
 10
12.4911810624
 20
6.7590423
 30
0.0
 10
12.4860765342
 20
6.7641139602
 30
0.0
 10
12.4828394499
 20
6.7678458092
 30
0.0
 10
12.4812346072
 20
6.7698190573
 30
0.0
  0
SPLINE
  5
342
100
AcDbEntity
  8
0
100
AcDbSpline
 62
7
  6
CONTINUOUS
 70
0
 71
3
 72
21
 73
17
 74
0
 42
0.0000001
 43
0.0000001
 44
0.0000000001
 40
0.0
 40
0.0
 40
0.0
 40
0.0
 40
0.1270213422
 40
0.2533969723
 40
0.316358376
 40
0.3791650597
 40
0.4418211706
 40
0.5043314806
 40
0.5667016228
 40
0.6289380423
 40
0.6910479304
 40
0.7530392197
 40
0.8149205281
 40
0.8767011061
 40
0.938390802
 40
1.0
 40
1.0
 40
1.0
 40
1.0
 10
10.591012605
 20
8.4655540486
 30
0.0
 10
10.6094577681
 20
8.4642748722
 30
0.0
 10
10.6463610552
 20
8.4630643786
 30
0.0
 10
10.6924160489
 20
8.4649578301
 30
0.0
 10
10.7289529408
 20
8.4685170269
 30
0.0
 10
10.7561389115
 20
8.472198317
 30
0.0
 10
10.7831019809
 20
8.476889688
 30
0.0
 10
10.8098061783
 20
8.4825848407
 30
0.0
 10
10.8362153683
 20
8.4892760584
 30
0.0
 10
10.8622939316
 20
8.4969543718
 30
0.0
 10
10.8880066524
 20
8.5056094635
 30
0.0
 10
10.9133188578
 20
8.5152296147
 30
0.0
 10
10.9381963429
 20
8.5258018605
 30
0.0
 10
10.962605629
 20
8.5373120711
 30
0.0
 10
10.9865133255
 20
8.5497443904
 30
0.0
 10
11.0021063085
 20
8.5586421313
 30
0.0
 10
11.0098069239
 20
8.5632382889
 30
0.0
  0
SPLINE
  5
343
100
AcDbEntity
  8
0
100
AcDbSpline
 62
7
  6
CONTINUOUS
 70
0
 71
3
 72
43
 73
39
 74
0
 42
0.0000001
 43
0.0000001
 44
0.0000000001
 40
0.0
 40
0.0
 40
0.0
 40
0.0
 40
0.031008647
 40
0.0621561051
 40
0.0934379129
 40
0.1248466311
 40
0.1563729688
 40
0.1880056271
 40
0.2197315635
 40
0.2515362167
 40
0.2834037532
 40
0.3153173285
 40
0.3472593626
 40
0.3792118225
 40
0.4111565093
 40
0.4430753475
 40
0.4749506736
 40
0.5067655188
 40
0.5385038845
 40
0.5701510077
 40
0.6016936105
 40
0.6331201307
 40
0.6644209308
 40
0.6955884838
 40
0.7266175256
 40
0.7575051741
 40
0.7882510114
 40
0.818857127
 40
0.834111329
 40
0.8493325299
 40
0.8645216876
 40
0.8796799072
 40
0.9099041344
 40
0.940021297
 40
0.9550462197
 40
0.9700496424
 40
0.9850335446
 40
1.0
 40
1.0
 40
1.0
 40
1.0
 10
10.591012605
 20
8.4655540486
 30
0.0
 10
10.5742671785
 20
8.4667153479
 30
0.0
 10
10.5407681974
 20
8.470155431
 30
0.0
 10
10.4908650658
 20
8.4786082223
 30
0.0
 10
10.4414023049
 20
8.4903283575
 30
0.0
 10
10.3926002272
 20
8.5052639143
 30
0.0
 10
10.3446727321
 20
8.5233489156
 30
0.0
 10
10.2978307037
 20
8.5445035467
 30
0.0
 10
10.2522799822
 20
8.5686345517
 30
0.0
 10
10.2082207944
 20
8.5956356538
 30
0.0
 10
10.165846802
 20
8.6253880244
 30
0.0
 10
10.125344232
 20
8.6577607272
 30
0.0
 10
10.0868910966
 20
8.6926113582
 30
0.0
 10
10.0506564293
 20
8.729786672
 30
0.0
 10
10.0167995594
 20
8.769123251
 30
0.0
 10
9.9854693485
 20
8.8104481579
 30
0.0
 10
9.9568035872
 20
8.8535797402
 30
0.0
 10
9.9309284087
 20
8.8983284274
 30
0.0
 10
9.9079577491
 20
8.9444975539
 30
0.0
 10
9.8879927693
 20
8.991884175
 30
0.0
 10
9.8711214581
 20
9.0402799817
 30
0.0
 10
9.8574182692
 20
9.0894722154
 30
0.0
 10
9.8469437985
 20
9.1392445745
 30
0.0
 10
9.8397444391
 20
9.1893781832
 30
0.0
 10
9.8358521769
 20
9.2396523863
 30
0.0
 10
9.8352846079
 20
9.2898463632
 30
0.0
 10
9.8380443562
 20
9.3397376637
 30
0.0
 10
9.8431138362
 20
9.3809298681
 30
0.0
 10
9.8488178979
 20
9.4135042187
 30
0.0
 10
9.8539088634
 20
9.4376985683
 30
0.0
 10
9.8598115421
 20
9.4616543139
 30
0.0
 10
9.8687455779
 20
9.4932080086
 30
0.0
 10
9.8819062477
 20
9.5319372407
 30
0.0
 10
9.8976965747
 20
9.5695932615
 30
0.0
 10
9.9118471896
 20
9.5989215542
 30
0.0
 10
9.9232008944
 20
9.6204867542
 30
0.0
 10
9.9352897263
 20
9.641611509
 30
0.0
 10
9.943835389
 20
9.6553939317
 30
0.0
 10
9.9482256837
 20
9.6622029159
 30
0.0
  0
SPLINE
  5
344
100
AcDbEntity
  8
0
100
AcDbSpline
 62
7
  6
CONTINUOUS
 70
0
 71
3
 72
44
 73
40
 74
0
 42
0.0000001
 43
0.0000001
 44
0.0000000001
 40
0.0
 40
0.0
 40
0.0
 40
0.0
 40
0.0310944943
 40
0.0623366596
 40
0.0937211364
 40
0.1252391586
 40
0.1568796725
 40
0.1886293013
 40
0.2204726477
 40
0.2523925954
 40
0.2843706323
 40
0.3163871961
 40
0.3484220301
 40
0.3804545494
 40
0.4124642104
 40
0.4444308802
 40
0.476335202
 40
0.5081589483
 40
0.5398853601
 40
0.5714994686
 40
0.6029883904
 40
0.6343415898
 40
0.6655511091
 40
0.6966117581
 40
0.7275212504
 40
0.7582802906
 40
0.788892608
 40
0.8193649214
 40
0.8497068419
 40
0.8648352375
 40
0.8799358792
 40
0.8950106999
 40
0.9100617692
 40
0.9250912848
 40
0.9401015635
 40
0.9550950244
 40
0.9700741793
 40
0.9850416198
 40
1.0
 40
1.0
 40
1.0
 40
1.0
 10
10.591012605
 20
8.5109525651
 30
0.0
 10
10.5742811283
 20
8.512112897
 30
0.0
 10
10.5408090594
 20
8.5156208248
 30
0.0
 10
10.4909832088
 20
8.5243769719
 30
0.0
 10
10.4416543628
 20
8.5365966835
 30
0.0
 10
10.3930707376
 20
8.5522188061
 30
0.0
 10
10.3454728214
 20
8.5711653265
 30
0.0
 10
10.2990971707
 20
8.5933417755
 30
0.0
 10
10.254173986
 20
8.6186377829
 30
0.0
 10
10.2109263153
 20
8.6469275145
 30
0.0
 10
10.1695688186
 20
8.6780702714
 30
0.0
 10
10.1303068231
 20
8.7119113067
 30
0.0
 10
10.0933352959
 20
8.7482825414
 30
0.0
 10
10.0588377856
 20
8.7870032964
 30
0.0
 10
10.0269856253
 20
8.8278813033
 30
0.0
 10
9.997937113
 20
8.8707136437
 30
0.0
 10
9.971836601
 20
8.915287651
 30
0.0
 10
9.9488138563
 20
8.9613820248
 30
0.0
 10
9.9289834926
 20
9.0087679422
 30
0.0
 10
9.9124442942
 20
9.05721012
 30
0.0
 10
9.8992787031
 20
9.10646798
 30
0.0
 10
9.8895525347
 20
9.1562968681
 30
0.0
 10
9.883314593
 20
9.2064492257
 30
0.0
 10
9.8805962838
 20
9.2566757821
 30
0.0
 10
9.8814116308
 20
9.3067268618
 30
0.0
 10
9.8857571094
 20
9.3563533953
 30
0.0
 10
9.8936117674
 20
9.4053088813
 30
0.0
 10
9.9049363311
 20
9.4533479516
 30
0.0
 10
9.9172332049
 20
9.4924624639
 30
0.0
 10
9.9287415552
 20
9.5230455448
 30
0.0
 10
9.9381893146
 20
9.5455874517
 30
0.0
 10
9.9484492004
 20
9.5677252166
 30
0.0
 10
9.9595086449
 20
9.5894316572
 30
0.0
 10
9.9713538314
 20
9.6106796544
 30
0.0
 10
9.9839699978
 20
9.6314428207
 30
0.0
 10
9.9973415078
 20
9.6516952261
 30
0.0
 10
10.0114517552
 20
9.6714117812
 30
0.0
 10
10.0262828555
 20
9.6905676244
 30
0.0
 10
10.0366418454
 20
9.7029522757
 30
0.0
 10
10.0419342603
 20
9.7090421327
 30
0.0
  0
SPLINE
  5
345
100
AcDbEntity
  8
0
100
AcDbSpline
 62
7
  6
CONTINUOUS
 70
0
 71
3
 72
44
 73
40
 74
0
 42
0.0000001
 43
0.0000001
 44
0.0000000001
 40
0.0
 40
0.0
 40
0.0
 40
0.0
 40
0.0311139015
 40
0.0623775392
 40
0.093785346
 40
0.1253282079
 40
0.1569946375
 40
0.1887707383
 40
0.2206405275
 40
0.2525862578
 40
0.2845887601
 40
0.3166278108
 40
0.3486825097
 40
0.3807316676
 40
0.4127541972
 40
0.4447295036
 40
0.4766378681
 40
0.5084608204
 40
0.5401814929
 40
0.5717849547
 40
0.6032585182
 40
0.6345920081
 40
0.6657779917
 40
0.6968119682
 40
0.7276924982
 40
0.7584212765
 40
0.7890031475
 40
0.8194460485
 40
0.8497608817
 40
0.8648771044
 40
0.8799666542
 40
0.8950316299
 40
0.9100742633
 40
0.9250969132
 40
0.9401020504
 40
0.9550922415
 40
0.9700701397
 40
0.9850384676
 40
1.0
 40
1.0
 40
1.0
 40
1.0
 10
10.5977369155
 20
8.5319366389
 30
0.0
 10
10.5811190207
 20
8.5330890938
 30
0.0
 10
10.5478739433
 20
8.5365896728
 30
0.0
 10
10.4983949062
 20
8.5453585882
 30
0.0
 10
10.4494232633
 20
8.5576137112
 30
0.0
 10
10.4012123053
 20
8.5732919967
 30
0.0
 10
10.3540073295
 20
8.592312968
 30
0.0
 10
10.3080494768
 20
8.6145791361
 30
0.0
 10
10.2635732273
 20
8.6399765865
 30
0.0
 10
10.2208055705
 20
8.6683754711
 30
0.0
 10
10.1799647
 20
8.6996306115
 30
0.0
 10
10.1412590241
 20
8.7335823673
 30
0.0
 10
10.1048861139
 20
8.7700574192
 30
0.0
 10
10.0710315924
 20
8.8088695325
 30
0.0
 10
10.0398682857
 20
8.8498206078
 30
0.0
 10
10.0115553934
 20
8.8927016967
 30
0.0
 10
9.9862375741
 20
8.9372939726
 30
0.0
 10
9.9640442218
 20
8.9833698635
 30
0.0
 10
9.9450889125
 20
9.030694251
 30
0.0
 10
9.9294687701
 20
9.079025612
 30
0.0
 10
9.9172638597
 20
9.1281172109
 30
0.0
 10
9.9085369267
 20
9.1777183982
 30
0.0
 10
9.903333072
 20
9.2275758548
 30
0.0
 10
9.9016793357
 20
9.2774348357
 30
0.0
 10
9.9035846855
 20
9.3270405397
 30
0.0
 10
9.9090399255
 20
9.3761391866
 30
0.0
 10
9.9180179108
 20
9.4244800363
 30
0.0
 10
9.9304724584
 20
9.4718139895
 30
0.0
 10
9.9437111737
 20
9.5102612903
 30
0.0
 10
9.9559680227
 20
9.5402619564
 30
0.0
 10
9.9659737384
 20
9.562343951
 30
0.0
 10
9.9767873588
 20
9.5839973732
 30
0.0
 10
9.9883952621
 20
9.6051948914
 30
0.0
 10
10.0007824858
 20
9.6259093125
 30
0.0
 10
10.0139332291
 20
9.6461141556
 30
0.0
 10
10.0278307033
 20
9.6657834921
 30
0.0
 10
10.0424571339
 20
9.6848923029
 30
0.0
 10
10.0577935394
 20
9.7034157645
 30
0.0
 10
10.0684806085
 20
9.7153614895
 30
0.0
 10
10.0739347716
 20
9.7212278562
 30
0.0
  0
SPLINE
  5
346
100
AcDbEntity
  8
0
100
AcDbSpline
 62
7
  6
CONTINUOUS
 70
0
 71
3
 72
39
 73
35
 74
0
 42
0.0000001
 43
0.0000001
 44
0.0000000001
 40
0.0
 40
0.0
 40
0.0
 40
0.0
 40
0.0310686827
 40
0.062282238
 40
0.0936356301
 40
0.1251205003
 40
0.1567263829
 40
0.1884405759
 40
0.2202484473
 40
0.25213371
 40
0.2840787178
 40
0.3160647819
 40
0.3480725011
 40
0.3800820993
 40
0.4120737679
 40
0.4440280086
 40
0.4759259728
 40
0.5077497915
 40
0.5394828961
 40
0.5711103204
 40
0.6026189812
 40
0.6339979323
 40
0.6652385911
 40
0.6963349264
 40
0.7272836041
 40
0.7580840873
 40
0.7887386896
 40
0.8192525706
 40
0.8496336716
 40
0.8798925952
 40
0.9100424261
 40
0.9400984899
 40
0.9700780572
 40
1.0
 40
1.0
 40
1.0
 40
1.0
 10
10.6396705453
 20
8.5724414174
 30
0.0
 10
10.6235867482
 20
8.5735568325
 30
0.0
 10
10.5914107041
 20
8.5769075508
 30
0.0
 10
10.5435026365
 20
8.5852308075
 30
0.0
 10
10.4960547231
 20
8.5968234214
 30
0.0
 10
10.4492968901
 20
8.6116295114
 30
0.0
 10
10.4034520832
 20
8.6295779089
 30
0.0
 10
10.3587397456
 20
8.6505824235
 30
0.0
 10
10.3153736219
 20
8.6745423261
 30
0.0
 10
10.2735610918
 20
8.701342831
 30
0.0
 10
10.2335020881
 20
8.7308556214
 30
0.0
 10
10.1953881284
 20
8.7629394002
 30
0.0
 10
10.1594014592
 20
8.7974406502
 30
0.0
 10
10.1257142006
 20
8.834194353
 30
0.0
 10
10.0944875075
 20
8.8730247418
 30
0.0
 10
10.0658707569
 20
8.9137461042
 30
0.0
 10
10.040000913
 20
8.9561637269
 30
0.0
 10
10.0170018814
 20
9.0000748064
 30
0.0
 10
9.9969838747
 20
9.0452693786
 30
0.0
 10
9.9800428523
 20
9.0915313068
 30
0.0
 10
9.9662601413
 20
9.138639341
 30
0.0
 10
9.9557020481
 20
9.1863681508
 30
0.0
 10
9.9484194694
 20
9.2344893715
 30
0.0
 10
9.9444476295
 20
9.2827726935
 30
0.0
 10
9.9438059764
 20
9.3309869631
 30
0.0
 10
9.9464980767
 20
9.3789012664
 30
0.0
 10
9.9525114944
 20
9.4262860257
 30
0.0
 10
9.9618178527
 20
9.4729141127
 30
0.0
 10
9.9743729927
 20
9.5185619033
 30
0.0
 10
9.9901172279
 20
9.5630104238
 30
0.0
 10
10.0089752707
 20
9.6060461339
 30
0.0
 10
10.0308575187
 20
9.6474631097
 30
0.0
 10
10.0556571695
 20
9.6870597731
 30
0.0
 10
10.0740747578
 20
9.7121422472
 30
0.0
 10
10.0837220198
 20
9.7243089636
 30
0.0
  0
SPLINE
  5
347
100
AcDbEntity
  8
0
100
AcDbSpline
 62
7
  6
CONTINUOUS
 70
0
 71
3
 72
44
 73
40
 74
0
 42
0.0000001
 43
0.0000001
 44
0.0000000001
 40
0.0
 40
0.0
 40
0.0
 40
0.0
 40
0.0311206411
 40
0.0623917487
 40
0.0938076727
 40
0.1253591816
 40
0.1570346301
 40
0.1888199361
 40
0.2206989083
 40
0.2526535742
 40
0.2846645309
 40
0.3167113202
 40
0.3487728142
 40
0.3808276107
 40
0.4128544322
 40
0.444832523
 40
0.4767420415
 40
0.5085644369
 40
0.5402828097
 40
0.571882252
 40
0.6033501549
 40
0.6346764801
 40
0.6658539934
 40
0.6968784501
 40
0.7277487211
 40
0.7584668631
 40
0.789038127
 40
0.8194708887
 40
0.8497765127
 40
0.8648886589
 40
0.879974542
 40
0.8950363195
 40
0.9100762823
 40
0.925096843
 40
0.9401005268
 40
0.9550899525
 40
0.97006782
 40
0.985036897
 40
1.0
 40
1.0
 40
1.0
 40
1.0
 10
10.651705621
 20
8.628981962
 30
0.0
 10
10.6360859556
 20
8.6300651895
 30
0.0
 10
10.6048378149
 20
8.6333609376
 30
0.0
 10
10.5583338149
 20
8.6416269859
 30
0.0
 10
10.5123113238
 20
8.6531850827
 30
0.0
 10
10.4670106753
 20
8.6679751949
 30
0.0
 10
10.4226645741
 20
8.685920665
 30
0.0
 10
10.3795017396
 20
8.7069286327
 30
0.0
 10
10.3377445173
 20
8.7308905948
 30
0.0
 10
10.2976080639
 20
8.7576828479
 30
0.0
 10
10.259299121
 20
8.7871671116
 30
0.0
 10
10.2230150697
 20
8.8191913528
 30
0.0
 10
10.188942899
 20
8.8535905103
 30
0.0
 10
10.1572581581
 20
8.890187251
 30
0.0
 10
10.12812417
 20
8.9287929977
 30
0.0
 10
10.1016912142
 20
8.9692088756
 30
0.0
 10
10.0780956219
 20
9.0112266342
 30
0.0
 10
10.05745917
 20
9.0546297867
 30
0.0
 10
10.0398885178
 20
9.0991947267
 30
0.0
 10
10.0254745341
 20
9.1446918039
 30
0.0
 10
10.0142918362
 20
9.190886517
 30
0.0
 10
10.0063985185
 20
9.2375407346
 30
0.0
 10
10.0018357698
 20
9.2844138773
 30
0.0
 10
10.0006275452
 20
9.3312641312
 30
0.0
 10
10.0027806114
 20
9.3778497527
 30
0.0
 10
10.0082843858
 20
9.4239300951
 30
0.0
 10
10.0171111186
 20
9.4692675528
 30
0.0
 10
10.029214988
 20
9.5136262359
 30
0.0
 10
10.041995664
 20
9.5496253268
 30
0.0
 10
10.0537876585
 20
9.5776951177
 30
0.0
 10
10.0633964876
 20
9.5983454932
 30
0.0
 10
10.0737648954
 20
9.6185840017
 30
0.0
 10
10.0848796863
 20
9.6383848599
 30
0.0
 10
10.0967264711
 20
9.657722377
 30
0.0
 10
10.1092899114
 20
9.6765716399
 30
0.0
 10
10.1225538336
 20
9.6949082157
 30
0.0
 10
10.1365011629
 20
9.712708514
 30
0.0
 10
10.1511135338
 20
9.729949259
 30
0.0
 10
10.1612881045
 20
9.7410574424
 30
0.0
 10
10.1664788116
 20
9.7465098912
 30
0.0
  0
SPLINE
  5
348
100
AcDbEntity
  8
0
100
AcDbSpline
 62
7
  6
CONTINUOUS
 70
0
 71
3
 72
42
 73
38
 74
0
 42
0.0000001
 43
0.0000001
 44
0.0000000001
 40
0.0
 40
0.0
 40
0.0
 40
0.0
 40
0.0307881094
 40
0.0462275892
 40
0.0616955412
 40
0.0927134947
 40
0.1238404222
 40
0.1550706261
 40
0.1863971709
 40
0.2178120026
 40
0.2493060421
 40
0.280869301
 40
0.3124910004
 40
0.3441596983
 40
0.375863422
 40
0.4075898047
 40
0.4393262254
 40
0.4710599504
 40
0.5027782764
 40
0.5344686728
 40
0.5661189225
 40
0.5977172609
 40
0.6292525106
 40
0.660714212
 40
0.6920927471
 40
0.723379457
 40
0.75456675
 40
0.7856482005
 40
0.8166186363
 40
0.8474742132
 40
0.8628595778
 40
0.8782154254
 40
0.9088353549
 40
0.9393373943
 40
0.9545462702
 40
0.9697265155
 40
1.0
 40
1.0
 40
1.0
 40
1.0
 10
10.9631940847
 20
8.9298567316
 30
0.0
 10
10.9510931499
 20
8.9306959342
 30
0.0
 10
10.9329537579
 20
8.932461181
 30
0.0
 10
10.9088764915
 20
8.935810866
 30
0.0
 10
10.8848101067
 20
8.9398339223
 30
0.0
 10
10.8548663598
 20
8.9461106178
 30
0.0
 10
10.8193056541
 20
8.9556025252
 30
0.0
 10
10.7841913443
 20
8.9670320997
 30
0.0
 10
10.7496329036
 20
8.9803637119
 30
0.0
 10
10.7157372413
 20
8.9955559754
 30
0.0
 10
10.6826094288
 20
9.0125617191
 30
0.0
 10
10.6503520929
 20
9.031328174
 30
0.0
 10
10.6190651765
 20
9.0517971262
 30
0.0
 10
10.5888456106
 20
9.0739050999
 30
0.0
 10
10.5597870219
 20
9.0975835524
 30
0.0
 10
10.5319794425
 20
9.1227590859
 30
0.0
 10
10.505509034
 20
9.1493536741
 30
0.0
 10
10.4804578212
 20
9.1772849023
 30
0.0
 10
10.4569034401
 20
9.2064662219
 30
0.0
 10
10.4349188979
 20
9.2368072166
 30
0.0
 10
10.4145723487
 20
9.2682138807
 30
0.0
 10
10.3959268825
 20
9.3005889093
 30
0.0
 10
10.379040331
 20
9.3338319964
 30
0.0
 10
10.3639650881
 20
9.3678401458
 30
0.0
 10
10.3507479488
 20
9.4025079818
 30
0.0
 10
10.3394299624
 20
9.4377280951
 30
0.0
 10
10.3300463083
 20
9.4733912908
 30
0.0
 10
10.3226261747
 20
9.5093872315
 30
0.0
 10
10.3171927079
 20
9.5456036333
 30
0.0
 10
10.31433168
 20
9.5759055497
 30
0.0
 10
10.3130530402
 20
9.6001426262
 30
0.0
 10
10.3124484566
 20
9.6243130338
 30
0.0
 10
10.3129507464
 20
9.6544564375
 30
0.0
 10
10.3151369351
 20
9.6844668279
 30
0.0
 10
10.3178928934
 20
9.7083010722
 30
0.0
 10
10.3213102203
 20
9.7319578214
 30
0.0
 10
10.3246261888
 20
9.749569197
 30
0.0
 10
10.327168791
 20
9.761222281
 30
0.0
  0
SPLINE
  5
349
100
AcDbEntity
  8
0
100
AcDbSpline
 62
7
  6
CONTINUOUS
 70
0
 71
3
 72
42
 73
38
 74
0
 42
0.0000001
 43
0.0000001
 44
0.0000000001
 40
0.0
 40
0.0
 40
0.0
 40
0.0
 40
0.0307863511
 40
0.0462249199
 40
0.0616918755
 40
0.0927077073
 40
0.1238323764
 40
0.1550601824
 40
0.1863842315
 40
0.2177965022
 40
0.2492879567
 40
0.2808486493
 40
0.3124678468
 40
0.3441341539
 40
0.3758356452
 40
0.4075600007
 40
0.4392946444
 40
0.4710268857
 40
0.5027440608
 40
0.5344336739
 40
0.5660835383
 40
0.5976819131
 40
0.6292176385
 40
0.6606802645
 40
0.6920601751
 40
0.7233487047
 40
0.754538246
 40
0.7856223485
 40
0.8165958058
 40
0.8474547306
 40
0.8628418684
 40
0.878199553
 40
0.9088233167
 40
0.9393293337
 40
0.9545402214
 40
0.9697224874
 40
1.0
 40
1.0
 40
1.0
 40
1.0
 10
10.9731379845
 20
8.9765729738
 30
0.0
 10
10.9617458908
 20
8.9773630182
 30
0.0
 10
10.9446690299
 20
8.9790240887
 30
0.0
 10
10.9220018539
 20
8.9821750228
 30
0.0
 10
10.8993448153
 20
8.9859588684
 30
0.0
 10
10.8711541827
 20
8.9918615904
 30
0.0
 10
10.8376743577
 20
9.0007870599
 30
0.0
 10
10.8046134264
 20
9.0115339478
 30
0.0
 10
10.7720741322
 20
9.0240688509
 30
0.0
 10
10.7401568108
 20
9.0383529868
 30
0.0
 10
10.7089600816
 20
9.0543421458
 30
0.0
 10
10.6785802765
 20
9.0719868743
 30
0.0
 10
10.6491112168
 20
9.0912326151
 30
0.0
 10
10.6206439062
 20
9.1120198785
 30
0.0
 10
10.5932662571
 20
9.1342844249
 30
0.0
 10
10.5670628194
 20
9.1579574625
 30
0.0
 10
10.5421145214
 20
9.1829658587
 30
0.0
 10
10.518498421
 20
9.209232365
 30
0.0
 10
10.4962874696
 20
9.2366758542
 30
0.0
 10
10.4755502875
 20
9.2652115694
 30
0.0
 10
10.4563509534
 20
9.2947513843
 30
0.0
 10
10.438748807
 20
9.3252040738
 30
0.0
 10
10.4227982666
 20
9.356475593
 30
0.0
 10
10.4085486612
 20
9.3884693677
 30
0.0
 10
10.3960440787
 20
9.4210865846
 30
0.0
 10
10.3853232286
 20
9.4542265149
 30
0.0
 10
10.3764193254
 20
9.4877867458
 30
0.0
 10
10.3693599726
 20
9.5216637825
 30
0.0
 10
10.3641671224
 20
9.5557522936
 30
0.0
 10
10.3614058921
 20
9.5842773399
 30
0.0
 10
10.3601462327
 20
9.6070955353
 30
0.0
 10
10.3595201364
 20
9.6298526616
 30
0.0
 10
10.3599199113
 20
9.6582366082
 30
0.0
 10
10.3619023943
 20
9.6864996909
 30
0.0
 10
10.3644351493
 20
9.7089491208
 30
0.0
 10
10.3675898205
 20
9.7312333651
 30
0.0
 10
10.3706638051
 20
9.7478252446
 30
0.0
 10
10.373025266
 20
9.7588048824
 30
0.0
  0
SPLINE
  5
34A
100
AcDbEntity
  8
0
100
AcDbSpline
 62
7
  6
CONTINUOUS
 70
0
 71
3
 72
41
 73
37
 74
0
 42
0.0000001
 43
0.0000001
 44
0.0000000001
 40
0.0
 40
0.0
 40
0.0
 40
0.0
 40
0.0307819261
 40
0.0616797089
 40
0.0926901669
 40
0.1238090838
 40
0.1550307838
 40
0.1863484699
 40
0.2177542079
 40
0.2492390652
 40
0.2807932067
 40
0.3124060168
 40
0.344066221
 40
0.3757620161
 40
0.4074812026
 40
0.439211322
 40
0.4709397943
 40
0.502654058
 40
0.5343417089
 40
0.5659906383
 40
0.5975891684
 40
0.6291261848
 40
0.6605912644
 40
0.691974797
 40
0.7232681011
 40
0.7544635305
 40
0.7855545723
 40
0.8165359338
 40
0.847403617
 40
0.8627953996
 40
0.8781578895
 40
0.9087916967
 40
0.9393081444
 40
0.9545243162
 40
0.9697118886
 40
1.0
 40
1.0
 40
1.0
 40
1.0
 10
10.9788113735
 20
8.9908233546
 30
0.0
 10
10.9676294883
 20
8.991598821
 30
0.0
 10
10.9452617582
 20
8.9937718413
 30
0.0
 10
10.9118812651
 20
8.9988695733
 30
0.0
 10
10.8787055817
 20
9.0057963295
 30
0.0
 10
10.8458377313
 20
9.0145306317
 30
0.0
 10
10.8133780125
 20
9.0250456773
 30
0.0
 10
10.7814259593
 20
9.0373091306
 30
0.0
 10
10.7500794037
 20
9.0512833514
 30
0.0
 10
10.7194343533
 20
9.0669254548
 30
0.0
 10
10.689584653
 20
9.0841874663
 30
0.0
 10
10.6606217112
 20
9.103016459
 30
0.0
 10
10.6326342197
 20
9.1233547196
 30
0.0
 10
10.6057078838
 20
9.1451399227
 30
0.0
 10
10.5799251622
 20
9.1683053218
 30
0.0
 10
10.5553650157
 20
9.1927799522
 30
0.0
 10
10.5321026668
 20
9.2184888479
 30
0.0
 10
10.5102093707
 20
9.2453532695
 30
0.0
 10
10.4897521985
 20
9.2732909439
 30
0.0
 10
10.4707938321
 20
9.3022163151
 30
0.0
 10
10.4533923737
 20
9.3320408045
 30
0.0
 10
10.4376011684
 20
9.3626730798
 30
0.0
 10
10.4234686409
 20
9.3940193344
 30
0.0
 10
10.4110381477
 20
9.4259835671
 30
0.0
 10
10.4003478433
 20
9.4584678943
 30
0.0
 10
10.3914305671
 20
9.4913727719
 30
0.0
 10
10.3843137258
 20
9.5245975786
 30
0.0
 10
10.3790192685
 20
9.5580398795
 30
0.0
 10
10.3761366187
 20
9.5860330706
 30
0.0
 10
10.3747579808
 20
9.6084317663
 30
0.0
 10
10.373998656
 20
9.6307748143
 30
0.0
 10
10.3742051061
 20
9.6586500743
 30
0.0
 10
10.3759585216
 20
9.6864177235
 30
0.0
 10
10.3782873367
 20
9.7084809573
 30
0.0
 10
10.3812247694
 20
9.7303869011
 30
0.0
 10
10.384120368
 20
9.7467028786
 30
0.0
 10
10.3863563318
 20
9.7575027728
 30
0.0
  0
SPLINE
  5
34B
100
AcDbEntity
  8
0
100
AcDbSpline
 62
7
  6
CONTINUOUS
 70
0
 71
3
 72
39
 73
35
 74
0
 42
0.0000001
 43
0.0000001
 44
0.0000000001
 40
0.0
 40
0.0
 40
0.0
 40
0.0
 40
0.0307008797
 40
0.0615083495
 40
0.0924192365
 40
0.1234306767
 40
0.1545380014
 40
0.1857359311
 40
0.2170181849
 40
0.2483777003
 40
0.2798066619
 40
0.3112965929
 40
0.3428384369
 40
0.3744226476
 40
0.4060392805
 40
0.4376780872
 40
0.4693286122
 40
0.5009802906
 40
0.5326225466
 40
0.5642448921
 40
0.5958370248
 40
0.6273889254
 40
0.6588909529
 40
0.6903339372
 40
0.7217092682
 40
0.7530089812
 40
0.7842258374
 40
0.8153533996
 40
0.8463861011
 40
0.877319308
 40
0.9081493746
 40
0.9388736894
 40
0.9694907121
 40
1.0
 40
1.0
 40
1.0
 40
1.0
 10
11.0581805958
 20
9.0674881407
 30
0.0
 10
11.0479176106
 20
9.0681998812
 30
0.0
 10
11.0273884436
 20
9.0701473004
 30
0.0
 10
10.9967314611
 20
9.0746182893
 30
0.0
 10
10.9662328538
 20
9.0806330354
 30
0.0
 10
10.9359725433
 20
9.0881756755
 30
0.0
 10
10.9060282683
 20
9.0972268181
 30
0.0
 10
10.8764774539
 20
9.1077629502
 30
0.0
 10
10.8473963482
 20
9.1197568476
 30
0.0
 10
10.8188600261
 20
9.1331774818
 30
0.0
 10
10.7909421424
 20
9.1479901674
 30
0.0
 10
10.7637147568
 20
9.1641566277
 30
0.0
 10
10.7372481415
 20
9.1816350937
 30
0.0
 10
10.7116106046
 20
9.2003804167
 30
0.0
 10
10.6868683149
 20
9.2203441855
 30
0.0
 10
10.6630851326
 20
9.241474851
 30
0.0
 10
10.6403224455
 20
9.2637178583
 30
0.0
 10
10.6186390114
 20
9.2870157867
 30
0.0
 10
10.5980908073
 20
9.3113084974
 30
0.0
 10
10.578730886
 20
9.3365332875
 30
0.0
 10
10.5606092399
 20
9.3626250513
 30
0.0
 10
10.5437726661
 20
9.3895164427
 30
0.0
 10
10.5282646496
 20
9.417138053
 30
0.0
 10
10.514125254
 20
9.4454185893
 30
0.0
 10
10.5013910172
 20
9.4742850576
 30
0.0
 10
10.4900948582
 20
9.5036629495
 30
0.0
 10
10.4802659915
 20
9.5334764327
 30
0.0
 10
10.4719298521
 20
9.5636485474
 30
0.0
 10
10.4651080282
 20
9.5941013948
 30
0.0
 10
10.4598182085
 20
9.6247563701
 30
0.0
 10
10.4560741201
 20
9.6555342387
 30
0.0
 10
10.4538855221
 20
9.6863558028
 30
0.0
 10
10.4532580876
 20
9.7171403926
 30
0.0
 10
10.4538829515
 20
9.7376243706
 30
0.0
 10
10.4544567408
 20
9.7478316902
 30
0.0
  0
SPLINE
  5
34C
100
AcDbEntity
  8
0
100
AcDbSpline
 62
7
  6
CONTINUOUS
 70
0
 71
3
 72
39
 73
35
 74
0
 42
0.0000001
 43
0.0000001
 44
0.0000000001
 40
0.0
 40
0.0
 40
0.0
 40
0.0
 40
0.0306944176
 40
0.0614946227
 40
0.0923974308
 40
0.1234000935
 40
0.1544980211
 40
0.185686055
 40
0.2169580481
 40
0.2483070881
 40
0.2797255232
 40
0.3112050506
 40
0.3427367957
 40
0.3743113988
 40
0.4059191033
 40
0.4375498473
 40
0.4691933569
 40
0.5008392405
 40
0.5324770847
 40
0.5640965494
 40
0.5956874638
 40
0.6272399205
 40
0.6587443678
 40
0.6901916999
 40
0.7215733438
 40
0.7528813425
 40
0.784108434
 40
0.8152481255
 40
0.8462947618
 40
0.8772435877
 40
0.9080908025
 40
0.938833606
 40
0.9694702368
 40
1.0
 40
1.0
 40
1.0
 40
1.0
 10
11.0633569725
 20
9.0918066546
 30
0.0
 10
11.0534995603
 20
9.0924902684
 30
0.0
 10
11.0337816992
 20
9.0943567865
 30
0.0
 10
11.0043346314
 20
9.0986336483
 30
0.0
 10
10.9750373109
 20
9.1043819114
 30
0.0
 10
10.9459653298
 20
9.111586636
 30
0.0
 10
10.917192204
 20
9.1202295983
 30
0.0
 10
10.8887911785
 20
9.13028869
 30
0.0
 10
10.8608343957
 20
9.1417383263
 30
0.0
 10
10.8333929074
 20
9.1545493469
 30
0.0
 10
10.8065364435
 20
9.1686891583
 30
0.0
 10
10.7803332462
 20
9.184121787
 30
0.0
 10
10.7548498929
 20
9.2008079779
 30
0.0
 10
10.7301511324
 20
9.2187052987
 30
0.0
 10
10.7062997202
 20
9.2377682463
 30
0.0
 10
10.683356261
 20
9.2579483625
 30
0.0
 10
10.6613790554
 20
9.2791943561
 30
0.0
 10
10.6404239528
 20
9.3014522328
 30
0.0
 10
10.6205442103
 20
9.3246654311
 30
0.0
 10
10.6017903585
 20
9.3487749658
 30
0.0
 10
10.5842100657
 20
9.3737195713
 30
0.0
 10
10.5678480229
 20
9.3994358625
 30
0.0
 10
10.5527458324
 20
9.4258584954
 30
0.0
 10
10.5389419015
 20
9.4529203323
 30
0.0
 10
10.5264713461
 20
9.4805526103
 30
0.0
 10
10.5153659013
 20
9.5086851157
 30
0.0
 10
10.5056538406
 20
9.53724636
 30
0.0
 10
10.4973599051
 20
9.5661637625
 30
0.0
 10
10.4905052354
 20
9.595363824
 30
0.0
 10
10.4851073142
 20
9.6247723443
 30
0.0
 10
10.4811799262
 20
9.6543144944
 30
0.0
 10
10.4787331336
 20
9.6839154406
 30
0.0
 10
10.4777732033
 20
9.7134989163
 30
0.0
 10
10.4781268584
 20
9.7331962475
 30
0.0
 10
10.478552955
 20
9.7430150893
 30
0.0
  0
SPLINE
  5
34D
100
AcDbEntity
  8
0
100
AcDbSpline
 62
7
  6
CONTINUOUS
 70
0
 71
3
 72
37
 73
33
 74
0
 42
0.0000001
 43
0.0000001
 44
0.0000000001
 40
0.0
 40
0.0
 40
0.0
 40
0.0
 40
0.0306765619
 40
0.0614568459
 40
0.0923369839
 40
0.1233149803
 40
0.1543863442
 40
0.1855462858
 40
0.2167890597
 40
0.2481081816
 40
0.2794964863
 40
0.3109461821
 40
0.3424489312
 40
0.3739959228
 40
0.4055779547
 40
0.437185518
 40
0.5004214752
 40
0.5636414651
 40
0.5952292152
 40
0.6267837522
 40
0.6582958095
 40
0.6897564941
 40
0.721157368
 40
0.7524905279
 40
0.7837486785
 40
0.8149252017
 40
0.8460142204
 40
0.877010658
 40
0.9079102953
 40
0.9387098172
 40
0.9694068517
 40
1.0
 40
1.0
 40
1.0
 40
1.0
 10
11.0633569725
 20
9.1941947982
 30
0.0
 10
11.0554167791
 20
9.1947454525
 30
0.0
 10
11.0395339383
 20
9.1962394038
 30
0.0
 10
11.0158102693
 20
9.1996421242
 30
0.0
 10
10.9922015342
 20
9.2042025746
 30
0.0
 10
10.9687659049
 20
9.2099093252
 30
0.0
 10
10.9455597827
 20
9.2167487071
 30
0.0
 10
10.922639519
 20
9.2247040299
 30
0.0
 10
10.9000606042
 20
9.2337560048
 30
0.0
 10
10.8778777355
 20
9.2438826445
 30
0.0
 10
10.8561446387
 20
9.2550593819
 30
0.0
 10
10.8349139626
 20
9.2672591084
 30
0.0
 10
10.8142371045
 20
9.2804522873
 30
0.0
 10
10.7941642681
 20
9.29460683
 30
0.0
 10
10.7747436305
 20
9.3096888575
 30
0.0
 10
10.749782275
 20
9.3309853358
 30
0.0
 10
10.7204475845
 20
9.3597326519
 30
0.0
 10
10.6938776244
 20
9.3910464428
 30
0.0
 10
10.6744347767
 20
9.4174568496
 30
0.0
 10
10.6607967862
 20
9.4378917726
 30
0.0
 10
10.64813475
 20
9.4589063637
 30
0.0
 10
10.636478965
 20
9.4804501912
 30
0.0
 10
10.6258578055
 20
9.5024709507
 30
0.0
 10
10.6162969843
 20
9.5249153288
 30
0.0
 10
10.6078196982
 20
9.5477289495
 30
0.0
 10
10.6004465192
 20
9.5708565544
 30
0.0
 10
10.5941953595
 20
9.5942421148
 30
0.0
 10
10.5890814256
 20
9.617828992
 30
0.0
 10
10.5851171416
 20
9.6415599771
 30
0.0
 10
10.5823121529
 20
9.6653777712
 30
0.0
 10
10.580673315
 20
9.6892238906
 30
0.0
 10
10.580360331
 20
9.7051305803
 30
0.0
 10
10.5804000812
 20
9.713068103
 30
0.0
  0
SPLINE
  5
34E
100
AcDbEntity
  8
0
100
AcDbSpline
 62
7
  6
CONTINUOUS
 70
0
 71
3
 72
71
 73
67
 74
0
 42
0.0000001
 43
0.0000001
 44
0.0000000001
 40
0.0
 40
0.0
 40
0.0
 40
0.0
 40
0.0156748284
 40
0.0314021605
 40
0.0471806558
 40
0.0630088915
 40
0.0788847439
 40
0.0948057527
 40
0.1107690085
 40
0.1267712319
 40
0.1428087898
 40
0.1588777347
 40
0.1749738405
 40
0.1910926414
 40
0.2072294724
 40
0.2233795107
 40
0.239537818
 40
0.2556993843
 40
0.2718591712
 40
0.2880121557
 40
0.3041533741
 40
0.3202779654
 40
0.3363812138
 40
0.3524585909
 40
0.368505796
 40
0.3845187958
 40
0.4004938614
 40
0.4164276039
 40
0.4323170078
 40
0.448159461
 40
0.4639527825
 40
0.4796952463
 40
0.4953856017
 40
0.5110230901
 40
0.5266074569
 40
0.5421389589
 40
0.5576183674
 40
0.5730469657
 40
0.5884265413
 40
0.6037593734
 40
0.619048214
 40
0.6342962646
 40
0.6495071467
 40
0.6646848675
 40
0.6798337809
 40
0.6949585439
 40
0.710064069
 40
0.7251554728
 40
0.7402380225
 40
0.75531708
 40
0.7703980444
 40
0.7854862945
 40
0.8005871312
 40
0.815705721
 40
0.8308470418
 40
0.8460158305
 40
0.8612165348
 40
0.8764532681
 40
0.8917297694
 40
0.9070493658
 40
0.9224149473
 40
0.937828925
 40
0.9532932602
 40
0.9688093114
 40
0.9843781663
 40
1.0
 40
1.0
 40
1.0
 40
1.0
 10
10.3619373139
 20
8.2355139883
 30
0.0
 10
10.3494145181
 20
8.2363824471
 30
0.0
 10
10.3243653371
 20
8.2387365769
 30
0.0
 10
10.2869493221
 20
8.244094435
 30
0.0
 10
10.249713523
 20
8.2512723282
 30
0.0
 10
10.2127488721
 20
8.2602526853
 30
0.0
 10
10.1761439668
 20
8.2710139248
 30
0.0
 10
10.1399870452
 20
8.2835300099
 30
0.0
 10
10.1043651084
 20
8.2977707722
 30
0.0
 10
10.069363907
 20
8.3137018609
 30
0.0
 10
10.0350676827
 20
8.3312848797
 30
0.0
 10
10.0015589801
 20
8.3504774574
 30
0.0
 10
9.9689184464
 20
8.3712333581
 30
0.0
 10
9.9372246389
 20
8.3935025895
 30
0.0
 10
9.906553837
 20
8.4172315239
 30
0.0
 10
9.8769798592
 20
8.4423630259
 30
0.0
 10
9.848573885
 20
8.4688365882
 30
0.0
 10
9.8214042856
 20
8.4965884791
 30
0.0
 10
9.7955364605
 20
8.525551895
 30
0.0
 10
9.7710326805
 20
8.5556571207
 30
0.0
 10
9.7479519385
 20
8.5868316958
 30
0.0
 10
9.7263498083
 20
8.619000589
 30
0.0
 10
9.7062783112
 20
8.6520863773
 30
0.0
 10
9.6877857912
 20
8.6860094313
 30
0.0
 10
9.6709167988
 20
8.7206881061
 30
0.0
 10
9.6557119843
 20
8.7560389362
 30
0.0
 10
9.6422079995
 20
8.7919768356
 30
0.0
 10
9.63043741
 20
8.8284153013
 30
0.0
 10
9.6204286149
 20
8.8652666196
 30
0.0
 10
9.612205777
 20
8.9024420764
 30
0.0
 10
9.6057887667
 20
8.93985217
 30
0.0
 10
9.6011931123
 20
8.9774068252
 30
0.0
 10
9.5984299623
 20
9.0150156087
 30
0.0
 10
9.5975060569
 20
9.0525879462
 30
0.0
 10
9.5984237104
 20
9.0900333387
 30
0.0
 10
9.6011808036
 20
9.1272615798
 30
0.0
 10
9.6057707874
 20
9.1641829725
 30
0.0
 10
9.6121826958
 20
9.2007085448
 30
0.0
 10
9.6204011706
 20
9.2367502637
 30
0.0
 10
9.6304064957
 20
9.2722212478
 30
0.0
 10
9.6421746426
 20
9.3070359772
 30
0.0
 10
9.6556773238
 20
9.3411105019
 30
0.0
 10
9.6708820596
 20
9.3743626452
 30
0.0
 10
9.6877522562
 20
9.4067122038
 30
0.0
 10
9.7062472922
 20
9.4380811429
 30
0.0
 10
9.7263226151
 20
9.4683937874
 30
0.0
 10
9.7479298489
 20
9.4975770065
 30
0.0
 10
9.7710169098
 20
9.5255603929
 30
0.0
 10
9.7955281326
 20
9.5522764359
 30
0.0
 10
9.8214044063
 20
9.577660686
 30
0.0
 10
9.8485833175
 20
9.6016519134
 30
0.0
 10
9.8769993034
 20
9.6241922571
 30
0.0
 10
9.9065838119
 20
9.6452273666
 30
0.0
 10
9.9372654698
 20
9.6647065336
 30
0.0
 10
9.9689702561
 20
9.6825828171
 30
0.0
 10
10.0016216848
 20
9.6988131558
 30
0.0
 10
10.0351409925
 20
9.7133584695
 30
0.0
 10
10.0694473309
 20
9.7261837543
 30
0.0
 10
10.1044579631
 20
9.737258162
 30
0.0
 10
10.1400884688
 20
9.7465550804
 30
0.0
 10
10.1762529339
 20
9.7540521759
 30
0.0
 10
10.2128642167
 20
9.7597314913
 30
0.0
 10
10.249833955
 20
9.7635793888
 30
0.0
 10
10.2870734589
 20
9.7655867519
 30
0.0
 10
10.3244917297
 20
9.765748803
 30
0.0
 10
10.3494568561
 20
9.7646282075
 30
0.0
 10
10.3619373139
 20
9.7637626848
 30
0.0
  0
SPLINE
  5
34F
100
AcDbEntity
  8
0
100
AcDbSpline
 62
7
  6
CONTINUOUS
 70
0
 71
3
 72
26
 73
22
 74
0
 42
0.0000001
 43
0.0000001
 44
0.0000000001
 40
0.0
 40
0.0
 40
0.0
 40
0.0
 40
0.0638611465
 40
0.0957115542
 40
0.1275058562
 40
0.1909251488
 40
0.2541286208
 40
0.3171223441
 40
0.379914866
 40
0.4425167416
 40
0.5049405854
 40
0.5672009069
 40
0.6293139847
 40
0.6912976986
 40
0.7222497769
 40
0.7531768549
 40
0.8149609457
 40
0.876676982
 40
0.9075191937
 40
0.9383527857
 40
1.0
 40
1.0
 40
1.0
 40
1.0
 10
10.367610703
 20
8.249764369
 30
0.0
 10
10.3802196298
 20
8.2488899369
 30
0.0
 10
10.3991544161
 20
8.2480502507
 30
0.0
 10
10.4243913825
 20
8.2478843311
 30
0.0
 10
10.4495375339
 20
8.2483533222
 30
0.0
 10
10.4808553623
 20
8.2501274469
 30
0.0
 10
10.5181827096
 20
8.2541583267
 30
0.0
 10
10.5551322264
 20
8.2600793556
 30
0.0
 10
10.5916102821
 20
8.2678756874
 30
0.0
 10
10.6275251882
 20
8.2775278166
 30
0.0
 10
10.6627864023
 20
8.2890114994
 30
0.0
 10
10.6973052625
 20
8.3022979983
 30
0.0
 10
10.7309942295
 20
8.3173535877
 30
0.0
 10
10.7583207651
 20
8.3313503019
 30
0.0
 10
10.7796777565
 20
8.3433904959
 30
0.0
 10
10.8006720342
 20
8.3559759649
 30
0.0
 10
10.8262486248
 20
8.3727369711
 30
0.0
 10
10.8508768451
 20
8.3908344294
 30
0.0
 10
10.8699601139
 20
8.4060778793
 30
0.0
 10
10.8886162782
 20
8.4218191131
 30
0.0
 10
10.902126908
 20
8.4341846965
 30
0.0
 10
10.9109025526
 20
8.4426613323
 30
0.0
  0
SPLINE
  5
350
100
AcDbEntity
  8
0
100
AcDbSpline
 62
7
  6
CONTINUOUS
 70
0
 71
3
 72
23
 73
19
 74
0
 42
0.0000001
 43
0.0000001
 44
0.0000000001
 40
0.0
 40
0.0
 40
0.0
 40
0.0
 40
0.0637755068
 40
0.1273532219
 40
0.1907318349
 40
0.2539158788
 40
0.3169090871
 40
0.3797176987
 40
0.4423492535
 40
0.5048128508
 40
0.567119034
 40
0.6292797047
 40
0.6913080365
 40
0.7532183636
 40
0.8150260626
 40
0.8767474235
 40
0.9383995082
 40
1.0
 40
1.0
 40
1.0
 40
1.0
 10
10.591012605
 20
8.5109525651
 30
0.0
 10
10.6016629535
 20
8.5102139609
 30
0.0
 10
10.6229668121
 20
8.5092152891
 30
0.0
 10
10.6549053952
 20
8.509160979
 30
0.0
 10
10.6867153418
 20
8.5105528687
 30
0.0
 10
10.7183309386
 20
8.5133880217
 30
0.0
 10
10.7496883588
 20
8.5176608716
 30
0.0
 10
10.7807237271
 20
8.5233627265
 30
0.0
 10
10.8113739959
 20
8.5304820926
 30
0.0
 10
10.8415768468
 20
8.5390045324
 30
0.0
 10
10.8712708758
 20
8.5489127666
 30
0.0
 10
10.9003957048
 20
8.5601866997
 30
0.0
 10
10.9288921001
 20
8.5728034537
 30
0.0
 10
10.9567021159
 20
8.5867374341
 30
0.0
 10
10.9837691268
 20
8.6019603088
 30
0.0
 10
11.0100382812
 20
8.6184412962
 30
0.0
 10
11.0354554021
 20
8.6361463118
 30
0.0
 10
11.0518047488
 20
8.6487471753
 30
0.0
 10
11.0598179023
 20
8.6552374221
 30
0.0
  0
SPLINE
  5
351
100
AcDbEntity
  8
0
100
AcDbSpline
 62
7
  6
CONTINUOUS
 70
0
 71
3
 72
23
 73
19
 74
0
 42
0.0000001
 43
0.0000001
 44
0.0000000001
 40
0.0
 40
0.0
 40
0.0
 40
0.0
 40
0.0638102813
 40
0.1274139875
 40
0.1908103261
 40
0.2540040807
 40
0.31699969
 40
0.3798042552
 40
0.4424263664
 40
0.5048763741
 40
0.5671662311
 40
0.6293094021
 40
0.691320749
 40
0.7532163955
 40
0.81501358
 40
0.876730494
 40
0.93838611
 40
1.0
 40
1.0
 40
1.0
 40
1.0
 10
10.5977369155
 20
8.5319366389
 30
0.0
 10
10.6086155135
 20
8.5311822056
 30
0.0
 10
10.6303761835
 20
8.5301829752
 30
0.0
 10
10.6629958487
 20
8.53022214
 30
0.0
 10
10.695472642
 20
8.5318016995
 30
0.0
 10
10.7277336581
 20
8.5349180818
 30
0.0
 10
10.7597080322
 20
8.5395646017
 30
0.0
 10
10.7913249532
 20
8.5457309866
 30
0.0
 10
10.8225145726
 20
8.5534037141
 30
0.0
 10
10.8532079228
 20
8.5625658828
 30
0.0
 10
10.883337142
 20
8.5731972921
 30
0.0
 10
10.9128356056
 20
8.5852744906
 30
0.0
 10
10.9416380712
 20
8.598770821
 30
0.0
 10
10.9696808477
 20
8.6136565008
 30
0.0
 10
10.9969018453
 20
8.6298986041
 30
0.0
 10
11.023241054
 20
8.6474614387
 30
0.0
 10
11.0486394153
 20
8.6663054895
 30
0.0
 10
11.0649126801
 20
8.6796993774
 30
0.0
 10
11.0728714101
 20
8.6865933195
 30
0.0
  0
SPLINE
  5
352
100
AcDbEntity
  8
0
100
AcDbSpline
 62
7
  6
CONTINUOUS
 70
0
 71
3
 72
23
 73
19
 74
0
 42
0.0000001
 43
0.0000001
 44
0.0000000001
 40
0.0
 40
0.0
 40
0.0
 40
0.0
 40
0.0637248852
 40
0.1272642738
 40
0.1906153037
 40
0.2537827118
 40
0.3167693191
 40
0.3795802431
 40
0.4422218246
 40
0.5047016102
 40
0.5670284252
 40
0.6292122478
 40
0.6912641686
 40
0.7531963056
 40
0.8150217111
 40
0.8767542744
 40
0.938408621
 40
1.0
 40
1.0
 40
1.0
 40
1.0
 10
10.6396705453
 20
8.5724414174
 30
0.0
 10
10.649505257
 20
8.5717593778
 30
0.0
 10
10.6691773984
 20
8.5708118926
 30
0.0
 10
10.6986739204
 20
8.5706468934
 30
0.0
 10
10.7280649403
 20
8.5717406446
 30
0.0
 10
10.7572963842
 20
8.5740910027
 30
0.0
 10
10.786315923
 20
8.5776939391
 30
0.0
 10
10.8150710105
 20
8.5825429277
 30
0.0
 10
10.8435097609
 20
8.5886292342
 30
0.0
 10
10.8715808134
 20
8.595941916
 30
0.0
 10
10.8992334606
 20
8.6044678196
 30
0.0
 10
10.9264177469
 20
8.6141916023
 30
0.0
 10
10.9530845706
 20
8.6250957005
 30
0.0
 10
10.9791857703
 20
8.6371604544
 30
0.0
 10
11.0046741385
 20
8.6503640751
 30
0.0
 10
11.029503773
 20
8.6646828849
 30
0.0
 10
11.0536291869
 20
8.6800905612
 30
0.0
 10
11.0692224669
 20
8.6910754994
 30
0.0
 10
11.0768852182
 20
8.6967385636
 30
0.0
  0
SPLINE
  5
353
100
AcDbEntity
  8
0
100
AcDbSpline
 62
7
  6
CONTINUOUS
 70
0
 71
3
 72
24
 73
20
 74
0
 42
0.0000001
 43
0.0000001
 44
0.0000000001
 40
0.0
 40
0.0
 40
0.0
 40
0.0
 40
0.063822185
 40
0.1274344949
 40
0.1908364594
 40
0.2540328776
 40
0.3170284989
 40
0.3798307501
 40
0.4424486339
 40
0.504892988
 40
0.5671763115
 40
0.6293126742
 40
0.6913175888
 40
0.7532078662
 40
0.8150014572
 40
0.876717278
 40
0.9075546635
 40
0.9383800462
 40
1.0
 40
1.0
 40
1.0
 40
1.0
 10
10.651705621
 20
8.628981962
 30
0.0
 10
10.6620352217
 20
8.6282656018
 30
0.0
 10
10.6826977998
 20
8.627324089
 30
0.0
 10
10.7136700315
 20
8.627394395
 30
0.0
 10
10.7445024664
 20
8.6289494597
 30
0.0
 10
10.775123809
 20
8.6319856876
 30
0.0
 10
10.8054647236
 20
8.6364963486
 30
0.0
 10
10.8354559776
 20
8.6424711732
 30
0.0
 10
10.8650292924
 20
8.6498966542
 30
0.0
 10
10.8941172813
 20
8.6587559377
 30
0.0
 10
10.9226536654
 20
8.669028904
 30
0.0
 10
10.9505734237
 20
8.6806922032
 30
0.0
 10
10.9778128978
 20
8.6937192893
 30
0.0
 10
11.0043101029
 20
8.7080805966
 30
0.0
 10
11.0300042584
 20
8.7237431601
 30
0.0
 10
11.0507046906
 20
8.7378545524
 30
0.0
 10
11.0668020804
 20
8.7497550826
 30
0.0
 10
11.0825780078
 20
8.7620526346
 30
0.0
 10
11.0940515343
 20
8.7717253723
 30
0.0
 10
11.1015276463
 20
8.778362408
 30
0.0
  0
SPLINE
  5
354
100
AcDbEntity
  8
0
100
AcDbSpline
 62
7
  6
CONTINUOUS
 70
0
 71
3
 72
41
 73
37
 74
0
 42
0.0000001
 43
0.0000001
 44
0.0000000001
 40
0.0
 40
0.0
 40
0.0
 40
0.0
 40
0.0311447108
 40
0.0467774295
 40
0.0624475249
 40
0.0938924651
 40
0.1254747955
 40
0.1571823865
 40
0.1890004527
 40
0.2209120576
 40
0.2528984154
 40
0.2689156901
 40
0.2849439669
 40
0.3170180467
 40
0.3491033961
 40
0.3811778561
 40
0.4132194776
 40
0.4452069463
 40
0.4771199982
 40
0.5089398211
 40
0.5406494354
 40
0.5722340478
 40
0.6036813723
 40
0.6349819093
 40
0.666129179
 40
0.6971198991
 40
0.7279541027
 40
0.7586351871
 40
0.7891698911
 40
0.819568195
 40
0.8498431417
 40
0.8800105805
 40
0.9100888347
 40
0.9400983003
 40
0.9700609852
 40
1.0
 40
1.0
 40
1.0
 40
1.0
 10
11.2615952117
 20
9.6106869351
 30
0.0
 10
11.2545898715
 20
9.6111727571
 30
0.0
 10
11.2440898218
 20
9.612286747
 30
0.0
 10
11.230186803
 20
9.6145254168
 30
0.0
 10
11.2163058663
 20
9.6172738276
 30
0.0
 10
11.1990937039
 20
9.6216508986
 30
0.0
 10
11.1787999004
 20
9.6283693817
 30
0.0
 10
11.1589482724
 20
9.6365244357
 30
0.0
 10
11.1396451226
 20
9.6460724427
 30
0.0
 10
11.1209936336
 20
9.6569620193
 30
0.0
 10
11.1060813815
 20
9.6671030884
 30
0.0
 10
11.094573521
 20
9.6758250195
 30
0.0
 10
11.0833550869
 20
9.6849476051
 30
0.0
 10
11.0699188948
 20
9.6970678885
 30
0.0
 10
11.0548239363
 20
9.7126771099
 30
0.0
 10
11.0408318837
 20
9.7292732702
 30
0.0
 10
11.0280178291
 20
9.7467675266
 30
0.0
 10
11.0164499843
 20
9.7650667661
 30
0.0
 10
11.0061901135
 20
9.784073456
 30
0.0
 10
10.9972929941
 20
9.8036863286
 30
0.0
 10
10.9898061821
 20
9.8238008685
 30
0.0
 10
10.9837697436
 20
9.8443098741
 30
0.0
 10
10.9792160434
 20
9.8651040183
 30
0.0
 10
10.9761695681
 20
9.8860724236
 30
0.0
 10
10.9746467903
 20
9.9071032457
 30
0.0
 10
10.9746560743
 20
9.9280842622
 30
0.0
 10
10.9761976177
 20
9.9489034654
 30
0.0
 10
10.9792634406
 20
9.9694496564
 30
0.0
 10
10.9838374169
 20
9.9896130361
 30
0.0
 10
10.989895349
 20
10.0092857945
 30
0.0
 10
10.9974050725
 20
10.028362682
 30
0.0
 10
11.0063266518
 20
10.0467416149
 30
0.0
 10
11.0166124458
 20
10.0643241011
 30
0.0
 10
11.0282078626
 20
10.0810162713
 30
0.0
 10
11.041049757
 20
10.0967275743
 30
0.0
 10
11.0504003585
 20
10.106495858
 30
0.0
 10
11.0552555574
 20
10.111185618
 30
0.0
  0
LINE
  5
355
100
AcDbEntity
  8
0
100
AcDbLine
 62
7
  6
CONTINUOUS
 10
11.0840479688
 20
8.8430713538
 11
11.1157092379
 21
8.8561930342
  0
SPLINE
  5
356
100
AcDbEntity
  8
0
100
AcDbSpline
 62
7
  6
CONTINUOUS
 70
0
 71
3
 72
41
 73
37
 74
0
 42
0.0000001
 43
0.0000001
 44
0.0000000001
 40
0.0
 40
0.0
 40
0.0
 40
0.0
 40
0.0311447108
 40
0.0467774295
 40
0.0624475249
 40
0.0938924651
 40
0.1254747955
 40
0.1571823865
 40
0.1890004527
 40
0.2209120576
 40
0.2528984154
 40
0.2689156901
 40
0.2849439669
 40
0.3170180467
 40
0.3491033961
 40
0.3811778561
 40
0.4132194776
 40
0.4452069463
 40
0.4771199982
 40
0.5089398211
 40
0.5406494354
 40
0.5722340478
 40
0.6036813723
 40
0.6349819093
 40
0.666129179
 40
0.6971198991
 40
0.7279541027
 40
0.7586351871
 40
0.7891698911
 40
0.819568195
 40
0.8498431417
 40
0.8800105805
 40
0.9100888347
 40
0.9400983003
 40
0.9700609852
 40
1.0
 40
1.0
 40
1.0
 40
1.0
 10
9.5712250019
 20
5.8642111748
 30
0.0
 10
9.5642196617
 20
5.8646969967
 30
0.0
 10
9.553719612
 20
5.8658109866
 30
0.0
 10
9.5398165932
 20
5.8680496565
 30
0.0
 10
9.5259356565
 20
5.8707980672
 30
0.0
 10
9.5087234941
 20
5.8751751383
 30
0.0
 10
9.4884296906
 20
5.8818936213
 30
0.0
 10
9.4685780626
 20
5.8900486754
 30
0.0
 10
9.4492749128
 20
5.8995966823
 30
0.0
 10
9.4306234238
 20
5.9104862589
 30
0.0
 10
9.4157111717
 20
5.920627328
 30
0.0
 10
9.4042033111
 20
5.9293492591
 30
0.0
 10
9.3929848771
 20
5.9384718448
 30
0.0
 10
9.379548685
 20
5.9505921281
 30
0.0
 10
9.3644537265
 20
5.9662013495
 30
0.0
 10
9.3504616739
 20
5.9827975098
 30
0.0
 10
9.3376476193
 20
6.0002917662
 30
0.0
 10
9.3260797745
 20
6.0185910057
 30
0.0
 10
9.3158199037
 20
6.0375976956
 30
0.0
 10
9.3069227843
 20
6.0572105682
 30
0.0
 10
9.2994359723
 20
6.0773251081
 30
0.0
 10
9.2933995338
 20
6.0978341138
 30
0.0
 10
9.2888458336
 20
6.1186282579
 30
0.0
 10
9.2857993583
 20
6.1395966632
 30
0.0
 10
9.2842765805
 20
6.1606274853
 30
0.0
 10
9.2842858645
 20
6.1816085018
 30
0.0
 10
9.2858274079
 20
6.202427705
 30
0.0
 10
9.2888932307
 20
6.2229738961
 30
0.0
 10
9.2934672071
 20
6.2431372757
 30
0.0
 10
9.2995251392
 20
6.2628100342
 30
0.0
 10
9.3070348627
 20
6.2818869216
 30
0.0
 10
9.315956442
 20
6.3002658545
 30
0.0
 10
9.326242236
 20
6.3178483407
 30
0.0
 10
9.3378376528
 20
6.3345405109
 30
0.0
 10
9.3506795472
 20
6.350251814
 30
0.0
 10
9.3600301487
 20
6.3600200977
 30
0.0
 10
9.3648853476
 20
6.3647098577
 30
0.0
  0
SPLINE
  5
357
100
AcDbEntity
  8
0
100
AcDbSpline
 62
7
  6
CONTINUOUS
 70
0
 71
3
 72
11
 73
7
 74
0
 42
0.0000001
 43
0.0000001
 44
0.0000000001
 40
0.0
 40
0.0
 40
0.0
 40
0.0
 40
0.2521579221
 40
0.5028363759
 40
0.7520884207
 40
1.0
 40
1.0
 40
1.0
 40
1.0
 10
9.749292364
 20
6.0362110488
 30
0.0
 10
9.7573830943
 20
6.0356499548
 30
0.0
 10
9.7735727755
 20
6.0352104592
 30
0.0
 10
9.7977498213
 20
6.0366230318
 30
0.0
 10
9.8215798091
 20
6.0400982614
 30
0.0
 10
9.8371642766
 20
6.0437850419
 30
0.0
 10
9.8448348339
 20
6.0459623459
 30
0.0
  0
SPLINE
  5
358
100
AcDbEntity
  8
0
100
AcDbSpline
 62
7
  6
CONTINUOUS
 70
0
 71
3
 72
11
 73
7
 74
0
 42
0.0000001
 43
0.0000001
 44
0.0000000001
 40
0.0
 40
0.0
 40
0.0
 40
0.0
 40
0.2515872234
 40
0.5021021677
 40
0.7515632329
 40
1.0
 40
1.0
 40
1.0
 40
1.0
 10
10.9631940847
 20
8.9298567316
 30
0.0
 10
10.9765003908
 20
8.9289339361
 30
0.0
 10
11.0031198543
 20
8.9279030834
 30
0.0
 10
11.0429791744
 20
8.9288213736
 30
0.0
 10
11.0825379661
 20
8.932203296
 30
0.0
 10
11.1086662928
 20
8.9361008238
 30
0.0
 10
11.1216252493
 20
8.9384560316
 30
0.0
  0
SPLINE
  5
359
100
AcDbEntity
  8
0
100
AcDbSpline
 62
7
  6
CONTINUOUS
 70
0
 71
3
 72
11
 73
7
 74
0
 42
0.0000001
 43
0.0000001
 44
0.0000000001
 40
0.0
 40
0.0
 40
0.0
 40
0.0
 40
0.2515704794
 40
0.502080522
 40
0.7515474594
 40
1.0
 40
1.0
 40
1.0
 40
1.0
 10
10.9731379845
 20
8.9765729738
 30
0.0
 10
10.9855501514
 20
8.9757121872
 30
0.0
 10
11.0103807443
 20
8.9747424376
 30
0.0
 10
11.047563684
 20
8.9755618334
 30
0.0
 10
11.0844722902
 20
8.9786546155
 30
0.0
 10
11.1088557219
 20
8.9822325934
 30
0.0
 10
11.1209514061
 20
8.9843968071
 30
0.0
  0
SPLINE
  5
35A
100
AcDbEntity
  8
0
100
AcDbSpline
 62
7
  6
CONTINUOUS
 70
0
 71
3
 72
15
 73
11
 74
0
 42
0.0000001
 43
0.0000001
 44
0.0000000001
 40
0.0
 40
0.0
 40
0.0
 40
0.0
 40
0.1232972121
 40
0.2469592636
 40
0.3710607395
 40
0.495666173
 40
0.6208287228
 40
0.7465890756
 40
0.8729748683
 40
1.0
 40
1.0
 40
1.0
 40
1.0
 10
9.8572109132
 20
10.0155966871
 30
0.0
 10
9.8532313175
 20
10.0132493613
 30
0.0
 10
9.8450742946
 20
10.0088554259
 30
0.0
 10
9.8323488798
 20
10.0032192068
 30
0.0
 10
9.8191824359
 20
9.9985571631
 30
0.0
 10
9.8056458951
 20
9.9948944886
 30
0.0
 10
9.7918110116
 20
9.9922503268
 30
0.0
 10
9.7777510796
 20
9.9906386062
 30
0.0
 10
9.7635416974
 20
9.9900676356
 30
0.0
 10
9.7540409487
 20
9.990382099
 30
0.0
 10
9.749292364
 20
9.9907114145
 30
0.0
  0
SPLINE
  5
35B
100
AcDbEntity
  8
0
100
AcDbSpline
 62
7
  6
CONTINUOUS
 70
0
 71
3
 72
11
 73
7
 74
0
 42
0.0000001
 43
0.0000001
 44
0.0000000001
 40
0.0
 40
0.0
 40
0.0
 40
0.0
 40
0.2515261278
 40
0.5020231219
 40
0.751505513
 40
1.0
 40
1.0
 40
1.0
 40
1.0
 10
10.9788113735
 20
8.9908233546
 30
0.0
 10
10.9906939932
 20
8.9899992921
 30
0.0
 10
11.014464899
 20
8.9890502392
 30
0.0
 10
11.0500664817
 20
8.9897405453
 30
0.0
 10
11.0854203313
 20
8.9925446859
 30
0.0
 10
11.1087903165
 20
8.9958240461
 30
0.0
 10
11.1203886098
 20
8.9978129863
 30
0.0
  0
SPLINE
  5
35C
100
AcDbEntity
  8
0
100
AcDbSpline
 62
7
  6
CONTINUOUS
 70
0
 71
3
 72
23
 73
19
 74
0
 42
0.0000001
 43
0.0000001
 44
0.0000000001
 40
0.0
 40
0.0
 40
0.0
 40
0.0
 40
0.0616482102
 40
0.1233194434
 40
0.1850364728
 40
0.2468215621
 40
0.3086962116
 40
0.370680925
 40
0.4327950032
 40
0.4950563306
 40
0.5574811832
 40
0.6200840863
 40
0.6828775763
 40
0.7458723561
 40
0.8090769818
 40
0.8724965655
 40
0.9361390263
 40
1.0
 40
1.0
 40
1.0
 40
1.0
 10
9.7775646561
 20
9.8011757992
 30
0.0
 10
9.7742317052
 20
9.7979564172
 30
0.0
 10
9.7673899223
 20
9.7916944663
 30
0.0
 10
9.756635193
 20
9.7828648691
 30
0.0
 10
9.7454134592
 20
9.7746188849
 30
0.0
 10
9.7337533745
 20
9.7669776553
 30
0.0
 10
9.7216842074
 20
9.7599603489
 30
0.0
 10
9.7092364221
 20
9.7535846223
 30
0.0
 10
9.696441383
 20
9.7478664966
 30
0.0
 10
9.6833313258
 20
9.7428203605
 30
0.0
 10
9.6699392694
 20
9.7384589226
 30
0.0
 10
9.6562989642
 20
9.7347931072
 30
0.0
 10
9.6424447675
 20
9.731832087
 30
0.0
 10
9.628411541
 20
9.7295832968
 30
0.0
 10
9.6142347189
 20
9.7280524263
 30
0.0
 10
9.5999496684
 20
9.7272431359
 30
0.0
 10
9.5855930633
 20
9.7271576157
 30
0.0
 10
9.5760137213
 20
9.7275824085
 30
0.0
 10
9.5712250019
 20
9.7279145073
 30
0.0
  0
SPLINE
  5
35D
100
AcDbEntity
  8
0
100
AcDbSpline
 62
7
  6
CONTINUOUS
 70
0
 71
3
 72
41
 73
37
 74
0
 42
0.0000001
 43
0.0000001
 44
0.0000000001
 40
0.0
 40
0.0
 40
0.0
 40
0.0
 40
0.0311447108
 40
0.0467774295
 40
0.0624475249
 40
0.0938924651
 40
0.1254747955
 40
0.1571823865
 40
0.1890004527
 40
0.2209120576
 40
0.2528984154
 40
0.2689156901
 40
0.2849439669
 40
0.3170180467
 40
0.3491033961
 40
0.3811778561
 40
0.4132194776
 40
0.4452069463
 40
0.4771199982
 40
0.5089398211
 40
0.5406494354
 40
0.5722340478
 40
0.6036813723
 40
0.6349819093
 40
0.666129179
 40
0.6971198991
 40
0.7279541027
 40
0.7586351871
 40
0.7891698911
 40
0.819568195
 40
0.8498431417
 40
0.8800105805
 40
0.9100888347
 40
0.9400983003
 40
0.9700609852
 40
1.0
 40
1.0
 40
1.0
 40
1.0
 10
9.5712250019
 20
7.7960629706
 30
0.0
 10
9.5642196617
 20
7.7965487926
 30
0.0
 10
9.553719612
 20
7.7976627824
 30
0.0
 10
9.5398165932
 20
7.7999014523
 30
0.0
 10
9.5259356565
 20
7.802649863
 30
0.0
 10
9.5087234941
 20
7.8070269341
 30
0.0
 10
9.4884296906
 20
7.8137454172
 30
0.0
 10
9.4685780626
 20
7.8219004712
 30
0.0
 10
9.4492749128
 20
7.8314484782
 30
0.0
 10
9.4306234238
 20
7.8423380547
 30
0.0
 10
9.4157111717
 20
7.8524791238
 30
0.0
 10
9.4042033111
 20
7.8612010549
 30
0.0
 10
9.3929848771
 20
7.8703236406
 30
0.0
 10
9.379548685
 20
7.8824439239
 30
0.0
 10
9.3644537265
 20
7.8980531454
 30
0.0
 10
9.3504616739
 20
7.9146493056
 30
0.0
 10
9.3376476193
 20
7.932143562
 30
0.0
 10
9.3260797745
 20
7.9504428015
 30
0.0
 10
9.3158199037
 20
7.9694494914
 30
0.0
 10
9.3069227843
 20
7.9890623641
 30
0.0
 10
9.2994359723
 20
8.009176904
 30
0.0
 10
9.2933995338
 20
8.0296859096
 30
0.0
 10
9.2888458336
 20
8.0504800537
 30
0.0
 10
9.2857993583
 20
8.0714484591
 30
0.0
 10
9.2842765805
 20
8.0924792811
 30
0.0
 10
9.2842858645
 20
8.1134602977
 30
0.0
 10
9.2858274079
 20
8.1342795009
 30
0.0
 10
9.2888932307
 20
8.1548256919
 30
0.0
 10
9.2934672071
 20
8.1749890715
 30
0.0
 10
9.2995251392
 20
8.19466183
 30
0.0
 10
9.3070348627
 20
8.2137387175
 30
0.0
 10
9.315956442
 20
8.2321176504
 30
0.0
 10
9.326242236
 20
8.2497001365
 30
0.0
 10
9.3378376528
 20
8.2663923067
 30
0.0
 10
9.3506795472
 20
8.2821036098
 30
0.0
 10
9.3600301487
 20
8.2918718935
 30
0.0
 10
9.3648853476
 20
8.2965616535
 30
0.0
  0
SPLINE
  5
35E
100
AcDbEntity
  8
0
100
AcDbSpline
 62
7
  6
CONTINUOUS
 70
0
 71
3
 72
15
 73
11
 74
0
 42
0.0000001
 43
0.0000001
 44
0.0000000001
 40
0.0
 40
0.0
 40
0.0
 40
0.0
 40
0.1232972121
 40
0.2469592636
 40
0.3710607395
 40
0.495666173
 40
0.6208287228
 40
0.7465890756
 40
0.8729748683
 40
1.0
 40
1.0
 40
1.0
 40
1.0
 10
11.547581123
 20
9.8983691149
 30
0.0
 10
11.5436015273
 20
9.8960217891
 30
0.0
 10
11.5354445044
 20
9.8916278537
 30
0.0
 10
11.5227190896
 20
9.8859916346
 30
0.0
 10
11.5095526457
 20
9.8813295909
 30
0.0
 10
11.4960161049
 20
9.8776669164
 30
0.0
 10
11.4821812214
 20
9.8750227546
 30
0.0
 10
11.4681212894
 20
9.873411034
 30
0.0
 10
11.4539119072
 20
9.8728400634
 30
0.0
 10
11.4444111585
 20
9.8731545268
 30
0.0
 10
11.4396625738
 20
9.8734838423
 30
0.0
  0
SPLINE
  5
35F
100
AcDbEntity
  8
0
100
AcDbSpline
 62
7
  6
CONTINUOUS
 70
0
 71
3
 72
71
 73
67
 74
0
 42
0.0000001
 43
0.0000001
 44
0.0000000001
 40
0.0
 40
0.0
 40
0.0
 40
0.0
 40
0.0156218337
 40
0.0311906886
 40
0.0467067398
 40
0.062171075
 40
0.0775850527
 40
0.0929506342
 40
0.1082702306
 40
0.1235467319
 40
0.1387834652
 40
0.1539841695
 40
0.1691529582
 40
0.184294279
 40
0.1994128688
 40
0.2145137055
 40
0.2296019556
 40
0.24468292
 40
0.2597619775
 40
0.2748445272
 40
0.289935931
 40
0.3050414561
 40
0.3201662191
 40
0.3353151325
 40
0.3504928533
 40
0.3657037354
 40
0.380951786
 40
0.3962406266
 40
0.4115734587
 40
0.4269530343
 40
0.4423816326
 40
0.4578610411
 40
0.4733925431
 40
0.4889769099
 40
0.5046143983
 40
0.5203047537
 40
0.5360472175
 40
0.551840539
 40
0.5676829922
 40
0.5835723961
 40
0.5995061386
 40
0.6154812042
 40
0.631494204
 40
0.6475414091
 40
0.6636187862
 40
0.6797220346
 40
0.6958466259
 40
0.7119878443
 40
0.7281408288
 40
0.7443006157
 40
0.760462182
 40
0.7766204893
 40
0.7927705276
 40
0.8089073586
 40
0.8250261595
 40
0.8411222653
 40
0.8571912102
 40
0.8732287681
 40
0.8892309915
 40
0.9051942473
 40
0.9211152561
 40
0.9369911085
 40
0.9528193442
 40
0.9685978395
 40
0.9843251716
 40
1.0
 40
1.0
 40
1.0
 40
1.0
 10
10.3619373139
 20
8.2355139883
 30
0.0
 10
10.3744177716
 20
8.2346484656
 30
0.0
 10
10.3993828981
 20
8.2335278701
 30
0.0
 10
10.4368011689
 20
8.2336899212
 30
0.0
 10
10.4740406728
 20
8.2356972843
 30
0.0
 10
10.511010411
 20
8.2395451818
 30
0.0
 10
10.5476216938
 20
8.2452244972
 30
0.0
 10
10.583786159
 20
8.2527215927
 30
0.0
 10
10.6194166647
 20
8.2620185111
 30
0.0
 10
10.6544272969
 20
8.2730929188
 30
0.0
 10
10.6887336353
 20
8.2859182036
 30
0.0
 10
10.722252943
 20
8.3004635174
 30
0.0
 10
10.7549043717
 20
8.316693856
 30
0.0
 10
10.786609158
 20
8.3345701395
 30
0.0
 10
10.8172908158
 20
8.3540493065
 30
0.0
 10
10.8468753243
 20
8.375084416
 30
0.0
 10
10.8752913102
 20
8.3976247597
 30
0.0
 10
10.9024702214
 20
8.4216159871
 30
0.0
 10
10.9283464951
 20
8.4470002372
 30
0.0
 10
10.952857718
 20
8.4737162802
 30
0.0
 10
10.9759447788
 20
8.5016996666
 30
0.0
 10
10.9975520126
 20
8.5308828857
 30
0.0
 10
11.0176273356
 20
8.5611955302
 30
0.0
 10
11.0361223715
 20
8.5925644693
 30
0.0
 10
11.0529925681
 20
8.6249140279
 30
0.0
 10
11.0681973039
 20
8.6581661712
 30
0.0
 10
11.0816999851
 20
8.6922406959
 30
0.0
 10
11.093468132
 20
8.7270554253
 30
0.0
 10
11.1034734571
 20
8.7625264094
 30
0.0
 10
11.111691932
 20
8.7985681283
 30
0.0
 10
11.1181038404
 20
8.8350937006
 30
0.0
 10
11.1226938241
 20
8.8720150933
 30
0.0
 10
11.1254509174
 20
8.9092433345
 30
0.0
 10
11.1263685709
 20
8.9466887269
 30
0.0
 10
11.1254446655
 20
8.9842610644
 30
0.0
 10
11.1226815155
 20
9.0218698479
 30
0.0
 10
11.1180858611
 20
9.0594245031
 30
0.0
 10
11.1116688507
 20
9.0968345967
 30
0.0
 10
11.1034460128
 20
9.1340100535
 30
0.0
 10
11.0934372177
 20
9.1708613718
 30
0.0
 10
11.0816666282
 20
9.2072998375
 30
0.0
 10
11.0681626434
 20
9.2432377369
 30
0.0
 10
11.0529578289
 20
9.278588567
 30
0.0
 10
11.0360888365
 20
9.3132672418
 30
0.0
 10
11.0175963165
 20
9.3471902958
 30
0.0
 10
10.9975248194
 20
9.3802760841
 30
0.0
 10
10.9759226893
 20
9.4124449773
 30
0.0
 10
10.9528419473
 20
9.4436195524
 30
0.0
 10
10.9283381673
 20
9.4737247781
 30
0.0
 10
10.9024703422
 20
9.502688194
 30
0.0
 10
10.8753007428
 20
9.5304400849
 30
0.0
 10
10.8468947685
 20
9.5569136472
 30
0.0
 10
10.8173207908
 20
9.5820451492
 30
0.0
 10
10.7866499889
 20
9.6057740836
 30
0.0
 10
10.7549561813
 20
9.628043315
 30
0.0
 10
10.7223156476
 20
9.6487992157
 30
0.0
 10
10.688806945
 20
9.6679917934
 30
0.0
 10
10.6545107207
 20
9.6855748122
 30
0.0
 10
10.6195095194
 20
9.7015059009
 30
0.0
 10
10.5838875826
 20
9.7157466632
 30
0.0
 10
10.5477306609
 20
9.7282627483
 30
0.0
 10
10.5111257556
 20
9.7390239878
 30
0.0
 10
10.4741611047
 20
9.7480043449
 30
0.0
 10
10.4369253056
 20
9.7551822381
 30
0.0
 10
10.3995092906
 20
9.7605400962
 30
0.0
 10
10.3744601097
 20
9.762894226
 30
0.0
 10
10.3619373139
 20
9.7637626848
 30
0.0
  0
SPLINE
  5
360
100
AcDbEntity
  8
0
100
AcDbSpline
 62
7
  6
CONTINUOUS
 70
0
 71
3
 72
41
 73
37
 74
0
 42
0.0000001
 43
0.0000001
 44
0.0000000001
 40
0.0
 40
0.0
 40
0.0
 40
0.0
 40
0.0311447108
 40
0.0467774295
 40
0.0624475249
 40
0.0938924651
 40
0.1254747955
 40
0.1571823865
 40
0.1890004527
 40
0.2209120576
 40
0.2528984154
 40
0.2689156901
 40
0.2849439669
 40
0.3170180467
 40
0.3491033961
 40
0.3811778561
 40
0.4132194776
 40
0.4452069463
 40
0.4771199982
 40
0.5089398211
 40
0.5406494354
 40
0.5722340478
 40
0.6036813723
 40
0.6349819093
 40
0.666129179
 40
0.6971198991
 40
0.7279541027
 40
0.7586351871
 40
0.7891698911
 40
0.819568195
 40
0.8498431417
 40
0.8800105805
 40
0.9100888347
 40
0.9400983003
 40
0.9700609852
 40
1.0
 40
1.0
 40
1.0
 40
1.0
 10
9.5712250019
 20
9.7279145073
 30
0.0
 10
9.5642196617
 20
9.7284003293
 30
0.0
 10
9.553719612
 20
9.7295143192
 30
0.0
 10
9.5398165932
 20
9.7317529891
 30
0.0
 10
9.5259356565
 20
9.7345013998
 30
0.0
 10
9.5087234941
 20
9.7388784708
 30
0.0
 10
9.4884296906
 20
9.7455969539
 30
0.0
 10
9.4685780626
 20
9.753752008
 30
0.0
 10
9.4492749128
 20
9.7633000149
 30
0.0
 10
9.4306234238
 20
9.7741895915
 30
0.0
 10
9.4157111717
 20
9.7843306606
 30
0.0
 10
9.4042033111
 20
9.7930525917
 30
0.0
 10
9.3929848771
 20
9.8021751774
 30
0.0
 10
9.379548685
 20
9.8142954607
 30
0.0
 10
9.3644537265
 20
9.8299046821
 30
0.0
 10
9.3504616739
 20
9.8465008424
 30
0.0
 10
9.3376476193
 20
9.8639950988
 30
0.0
 10
9.3260797745
 20
9.8822943383
 30
0.0
 10
9.3158199037
 20
9.9013010282
 30
0.0
 10
9.3069227843
 20
9.9209139008
 30
0.0
 10
9.2994359723
 20
9.9410284407
 30
0.0
 10
9.2933995338
 20
9.9615374463
 30
0.0
 10
9.2888458336
 20
9.9823315905
 30
0.0
 10
9.2857993583
 20
10.0032999958
 30
0.0
 10
9.2842765805
 20
10.0243308179
 30
0.0
 10
9.2842858645
 20
10.0453118344
 30
0.0
 10
9.2858274079
 20
10.0661310376
 30
0.0
 10
9.2888932307
 20
10.0866772286
 30
0.0
 10
9.2934672071
 20
10.1068406083
 30
0.0
 10
9.2995251392
 20
10.1265133667
 30
0.0
 10
9.3070348627
 20
10.1455902542
 30
0.0
 10
9.315956442
 20
10.1639691871
 30
0.0
 10
9.326242236
 20
10.1815516733
 30
0.0
 10
9.3378376528
 20
10.1982438435
 30
0.0
 10
9.3506795472
 20
10.2139551465
 30
0.0
 10
9.3600301487
 20
10.2237234302
 30
0.0
 10
9.3648853476
 20
10.2284131902
 30
0.0
  0
SPLINE
  5
361
100
AcDbEntity
  8
0
100
AcDbSpline
 62
7
  6
CONTINUOUS
 70
0
 71
3
 72
39
 73
35
 74
0
 42
0.0000001
 43
0.0000001
 44
0.0000000001
 40
0.0
 40
0.0
 40
0.0
 40
0.0
 40
0.0308461574
 40
0.06181576
 40
0.0929037543
 40
0.1241061302
 40
0.1554158372
 40
0.186825035
 40
0.2183244047
 40
0.2499035225
 40
0.2815509419
 40
0.3132543565
 40
0.3450007596
 40
0.3767766077
 40
0.4085679912
 40
0.4403608068
 40
0.4721409322
 40
0.5038944026
 40
0.5356075857
 40
0.5672673525
 40
0.5988612434
 40
0.6303776281
 40
0.6618058578
 40
0.6931364089
 40
0.7243610169
 40
0.7554727969
 40
0.7864663472
 40
0.8173378376
 40
0.8480850777
 40
0.8787075665
 40
0.9092065192
 40
0.9395848735
 40
0.9698472688
 40
1.0
 40
1.0
 40
1.0
 40
1.0
 10
9.749292364
 20
6.0362110488
 30
0.0
 10
9.7436757203
 20
6.0366005644
 30
0.0
 10
9.7324400928
 20
6.0377105165
 30
0.0
 10
9.7156810288
 20
6.0403522765
 30
0.0
 10
9.6990371987
 20
6.0439654578
 30
0.0
 10
9.6825666275
 20
6.048537312
 30
0.0
 10
9.6663255383
 20
6.0540522502
 30
0.0
 10
9.65036977
 20
6.0604911997
 30
0.0
 10
9.6347540533
 20
6.0678320474
 30
0.0
 10
9.6195319839
 20
6.0760495472
 30
0.0
 10
9.6047557897
 20
6.0851154548
 30
0.0
 10
9.5904761688
 20
6.0949986204
 30
0.0
 10
9.5767421153
 20
6.1056650999
 30
0.0
 10
9.563600754
 20
6.1170782711
 30
0.0
 10
9.5510971803
 20
6.1291989568
 30
0.0
 10
9.5392743068
 20
6.141985559
 30
0.0
 10
9.5281727186
 20
6.1553942003
 30
0.0
 10
9.5178305206
 20
6.1693788632
 30
0.0
 10
9.5082832173
 20
6.1838915572
 30
0.0
 10
9.4995635942
 20
6.1988824842
 30
0.0
 10
9.4917016055
 20
6.2143002069
 30
0.0
 10
9.4847242723
 20
6.2300918229
 30
0.0
 10
9.4786555899
 20
6.2462031443
 30
0.0
 10
9.4735164476
 20
6.2625788824
 30
0.0
 10
9.4693245392
 20
6.2791628303
 30
0.0
 10
9.4660943128
 20
6.2958980606
 30
0.0
 10
9.4638369251
 20
6.3127271193
 30
0.0
 10
9.4625602015
 20
6.3295922216
 30
0.0
 10
9.4622686057
 20
6.3464354419
 30
0.0
 10
9.4629632299
 20
6.3631989348
 30
0.0
 10
9.4646417621
 20
6.3798250412
 30
0.0
 10
9.4672985808
 20
6.3962568245
 30
0.0
 10
9.4709243843
 20
6.4124370191
 30
0.0
 10
9.4739852211
 20
6.4230392344
 30
0.0
 10
9.4756726232
 20
6.4282777391
 30
0.0
  0
SPLINE
  5
362
100
AcDbEntity
  8
0
100
AcDbSpline
 62
7
  6
CONTINUOUS
 70
0
 71
3
 72
23
 73
19
 74
0
 42
0.0000001
 43
0.0000001
 44
0.0000000001
 40
0.0
 40
0.0
 40
0.0
 40
0.0
 40
0.0616482102
 40
0.1233194434
 40
0.1850364728
 40
0.2468215621
 40
0.3086962116
 40
0.370680925
 40
0.4327950032
 40
0.4950563306
 40
0.5574811832
 40
0.6200840863
 40
0.6828775763
 40
0.7458723561
 40
0.8090769818
 40
0.8724965655
 40
0.9361390263
 40
1.0
 40
1.0
 40
1.0
 40
1.0
 10
11.4679348659
 20
9.683948227
 30
0.0
 10
11.464601915
 20
9.680728845
 30
0.0
 10
11.4577601321
 20
9.6744668941
 30
0.0
 10
11.4470054028
 20
9.6656372969
 30
0.0
 10
11.435783669
 20
9.6573913127
 30
0.0
 10
11.4241235843
 20
9.6497500831
 30
0.0
 10
11.4120544172
 20
9.6427327767
 30
0.0
 10
11.3996066319
 20
9.6363570501
 30
0.0
 10
11.3868115928
 20
9.6306389244
 30
0.0
 10
11.3737015356
 20
9.6255927883
 30
0.0
 10
11.3603094792
 20
9.6212313504
 30
0.0
 10
11.3466691741
 20
9.617565535
 30
0.0
 10
11.3328149773
 20
9.6146045148
 30
0.0
 10
11.3187817508
 20
9.6123557246
 30
0.0
 10
11.3046049287
 20
9.610824854
 30
0.0
 10
11.2903198782
 20
9.6100155637
 30
0.0
 10
11.2759632731
 20
9.6099300435
 30
0.0
 10
11.2663839311
 20
9.6103548363
 30
0.0
 10
11.2615952117
 20
9.6106869351
 30
0.0
  0
SPLINE
  5
363
100
AcDbEntity
  8
0
100
AcDbSpline
 62
7
  6
CONTINUOUS
 70
0
 71
3
 72
49
 73
45
 74
0
 42
0.0000001
 43
0.0000001
 44
0.0000000001
 40
0.0
 40
0.0
 40
0.0
 40
0.0
 40
0.0311432951
 40
0.0624396747
 40
0.0938831248
 40
0.1254640322
 40
0.1571701658
 40
0.1889867774
 40
0.2208969221
 40
0.252881816
 40
0.2849212183
 40
0.3169938299
 40
0.3490777101
 40
0.3811507017
 40
0.4131908569
 40
0.4451768617
 40
0.4770884537
 40
0.5089068214
 40
0.5406149847
 40
0.5721981523
 40
0.6036440379
 40
0.6349431418
 40
0.6660889863
 40
0.697078288
 40
0.7125167323
 40
0.727916335
 40
0.7432776276
 40
0.7586013498
 40
0.7738884462
 40
0.7891400671
 40
0.8043575607
 40
0.8195424647
 40
0.8346965035
 40
0.8498215777
 40
0.8649197518
 40
0.8799932465
 40
0.8950444266
 40
0.9100757853
 40
0.9250899314
 40
0.9400895765
 40
0.9550775167
 40
0.9700566162
 40
0.9850297929
 40
1.0
 40
1.0
 40
1.0
 40
1.0
 10
10.367610703
 20
6.3179126019
 30
0.0
 10
10.3491656633
 20
6.3191917698
 30
0.0
 10
10.3122648241
 20
6.3231065099
 30
0.0
 10
10.2573609568
 20
6.3329677904
 30
0.0
 10
10.2030451563
 20
6.3467805203
 30
0.0
 10
10.149610793
 20
6.3644704185
 30
0.0
 10
10.0973416955
 20
6.3859426223
 30
0.0
 10
10.0465167317
 20
6.4110823353
 30
0.0
 10
9.9974066402
 20
6.4397551867
 30
0.0
 10
9.9502730786
 20
6.4718080415
 30
0.0
 10
9.9053672357
 20
6.5070699533
 30
0.0
 10
9.8629283318
 20
6.5453527775
 30
0.0
 10
9.8231825371
 20
6.5864524342
 30
0.0
 10
9.7863417449
 20
6.6301498945
 30
0.0
 10
9.7526022936
 20
6.6762122236
 30
0.0
 10
9.7221442047
 20
6.7243940325
 30
0.0
 10
9.6951299989
 20
6.7744385768
 30
0.0
 10
9.6717038753
 20
6.8260791784
 30
0.0
 10
9.6519911422
 20
6.8790406865
 30
0.0
 10
9.6360972156
 20
6.9330408411
 30
0.0
 10
9.6241073086
 20
6.9877916486
 30
0.0
 10
9.6160860071
 20
7.0430017192
 30
0.0
 10
9.6120764039
 20
7.0983745467
 30
0.0
 10
9.6120971088
 20
7.1444737748
 30
0.0
 10
9.6141378726
 20
7.1811298919
 30
0.0
 10
9.6166728069
 20
7.2084469866
 30
0.0
 10
9.620210559
 20
7.2355833815
 30
0.0
 10
9.6247464341
 20
7.2625033012
 30
0.0
 10
9.6302744462
 20
7.2891706537
 30
0.0
 10
9.6367871629
 20
7.3155498639
 30
0.0
 10
9.644275915
 20
7.3416056853
 30
0.0
 10
9.6527307803
 20
7.3673032908
 30
0.0
 10
9.6621404222
 20
7.3926083648
 30
0.0
 10
9.672492279
 20
7.417487104
 30
0.0
 10
9.6837726022
 20
7.4419062373
 30
0.0
 10
9.6959662942
 20
7.4658331509
 30
0.0
 10
9.7090570508
 20
7.4892358873
 30
0.0
 10
9.7230274518
 20
7.5120831403
 30
0.0
 10
9.7378588216
 20
7.5343443816
 30
0.0
 10
9.7535313193
 20
7.5559898966
 30
0.0
 10
9.7700240261
 20
7.5769907008
 30
0.0
 10
9.7873150219
 20
7.5973188165
 30
0.0
 10
9.8053807646
 20
7.6169467515
 30
0.0
 10
9.8179264084
 20
7.6295490826
 30
0.0
 10
9.8243188533
 20
7.6357237205
 30
0.0
  0
SPLINE
  5
364
100
AcDbEntity
  8
0
100
AcDbSpline
 62
7
  6
CONTINUOUS
 70
0
 71
3
 72
21
 73
17
 74
0
 42
0.0000001
 43
0.0000001
 44
0.0000000001
 40
0.0
 40
0.0
 40
0.0
 40
0.0
 40
0.1270213422
 40
0.2533969723
 40
0.316358376
 40
0.3791650597
 40
0.4418211706
 40
0.5043314806
 40
0.5667016228
 40
0.6289380423
 40
0.6910479304
 40
0.7530392197
 40
0.8149205281
 40
0.8767011061
 40
0.938390802
 40
1.0
 40
1.0
 40
1.0
 40
1.0
 10
10.591012605
 20
6.5337022815
 30
0.0
 10
10.6094577681
 20
6.5324231051
 30
0.0
 10
10.6463610552
 20
6.5312126115
 30
0.0
 10
10.6924160489
 20
6.533106063
 30
0.0
 10
10.7289529408
 20
6.5366652599
 30
0.0
 10
10.7561389115
 20
6.5403465499
 30
0.0
 10
10.7831019809
 20
6.5450379209
 30
0.0
 10
10.8098061783
 20
6.5507330737
 30
0.0
 10
10.8362153683
 20
6.5574242913
 30
0.0
 10
10.8622939316
 20
6.5651026048
 30
0.0
 10
10.8880066524
 20
6.5737576965
 30
0.0
 10
10.9133188578
 20
6.5833778476
 30
0.0
 10
10.9381963429
 20
6.5939500935
 30
0.0
 10
10.962605629
 20
6.605460304
 30
0.0
 10
10.9865133255
 20
6.6178926234
 30
0.0
 10
11.0021063085
 20
6.6267903643
 30
0.0
 10
11.0098069239
 20
6.6313865218
 30
0.0
  0
SPLINE
  5
365
100
AcDbEntity
  8
0
100
AcDbSpline
 62
7
  6
CONTINUOUS
 70
0
 71
3
 72
43
 73
39
 74
0
 42
0.0000001
 43
0.0000001
 44
0.0000000001
 40
0.0
 40
0.0
 40
0.0
 40
0.0
 40
0.031008647
 40
0.0621561051
 40
0.0934379129
 40
0.1248466311
 40
0.1563729688
 40
0.1880056271
 40
0.2197315635
 40
0.2515362167
 40
0.2834037532
 40
0.3153173285
 40
0.3472593626
 40
0.3792118225
 40
0.4111565093
 40
0.4430753475
 40
0.4749506736
 40
0.5067655188
 40
0.5385038845
 40
0.5701510077
 40
0.6016936105
 40
0.6331201307
 40
0.6644209308
 40
0.6955884838
 40
0.7266175256
 40
0.7575051741
 40
0.7882510114
 40
0.818857127
 40
0.834111329
 40
0.8493325299
 40
0.8645216876
 40
0.8796799072
 40
0.9099041344
 40
0.940021297
 40
0.9550462197
 40
0.9700496424
 40
0.9850335446
 40
1.0
 40
1.0
 40
1.0
 40
1.0
 10
10.591012605
 20
6.5337022815
 30
0.0
 10
10.5742671785
 20
6.5348635808
 30
0.0
 10
10.5407681974
 20
6.538303664
 30
0.0
 10
10.4908650658
 20
6.5467564552
 30
0.0
 10
10.4414023049
 20
6.5584765904
 30
0.0
 10
10.3926002272
 20
6.5734121472
 30
0.0
 10
10.3446727321
 20
6.5914971485
 30
0.0
 10
10.2978307037
 20
6.6126517797
 30
0.0
 10
10.2522799822
 20
6.6367827847
 30
0.0
 10
10.2082207944
 20
6.6637838867
 30
0.0
 10
10.165846802
 20
6.6935362574
 30
0.0
 10
10.125344232
 20
6.7259089601
 30
0.0
 10
10.0868910966
 20
6.7607595911
 30
0.0
 10
10.0506564293
 20
6.7979349049
 30
0.0
 10
10.0167995594
 20
6.8372714839
 30
0.0
 10
9.9854693485
 20
6.8785963909
 30
0.0
 10
9.9568035872
 20
6.9217279732
 30
0.0
 10
9.9309284087
 20
6.9664766603
 30
0.0
 10
9.9079577491
 20
7.0126457869
 30
0.0
 10
9.8879927693
 20
7.060032408
 30
0.0
 10
9.8711214581
 20
7.1084282147
 30
0.0
 10
9.8574182692
 20
7.1576204484
 30
0.0
 10
9.8469437985
 20
7.2073928075
 30
0.0
 10
9.8397444391
 20
7.2575264162
 30
0.0
 10
9.8358521769
 20
7.3078006193
 30
0.0
 10
9.8352846079
 20
7.3579945961
 30
0.0
 10
9.8380443562
 20
7.4078858967
 30
0.0
 10
9.8431138362
 20
7.4490781011
 30
0.0
 10
9.8488178979
 20
7.4816524517
 30
0.0
 10
9.8539088634
 20
7.5058468013
 30
0.0
 10
9.8598115421
 20
7.5298025469
 30
0.0
 10
9.8687455779
 20
7.5613562416
 30
0.0
 10
9.8819062477
 20
7.6000854736
 30
0.0
 10
9.8976965747
 20
7.6377414944
 30
0.0
 10
9.9118471896
 20
7.6670697871
 30
0.0
 10
9.9232008944
 20
7.6886349872
 30
0.0
 10
9.9352897263
 20
7.7097597419
 30
0.0
 10
9.943835389
 20
7.7235421646
 30
0.0
 10
9.9482256837
 20
7.7303511488
 30
0.0
  0
SPLINE
  5
366
100
AcDbEntity
  8
0
100
AcDbSpline
 62
7
  6
CONTINUOUS
 70
0
 71
3
 72
44
 73
40
 74
0
 42
0.0000001
 43
0.0000001
 44
0.0000000001
 40
0.0
 40
0.0
 40
0.0
 40
0.0
 40
0.0310944943
 40
0.0623366596
 40
0.0937211364
 40
0.1252391586
 40
0.1568796725
 40
0.1886293013
 40
0.2204726477
 40
0.2523925954
 40
0.2843706323
 40
0.3163871961
 40
0.3484220301
 40
0.3804545494
 40
0.4124642104
 40
0.4444308802
 40
0.476335202
 40
0.5081589483
 40
0.5398853601
 40
0.5714994686
 40
0.6029883904
 40
0.6343415898
 40
0.6655511091
 40
0.6966117581
 40
0.7275212504
 40
0.7582802906
 40
0.788892608
 40
0.8193649214
 40
0.8497068419
 40
0.8648352375
 40
0.8799358792
 40
0.8950106999
 40
0.9100617692
 40
0.9250912848
 40
0.9401015635
 40
0.9550950244
 40
0.9700741793
 40
0.9850416198
 40
1.0
 40
1.0
 40
1.0
 40
1.0
 10
10.591012605
 20
6.5791007981
 30
0.0
 10
10.5742811283
 20
6.5802611299
 30
0.0
 10
10.5408090594
 20
6.5837690578
 30
0.0
 10
10.4909832088
 20
6.5925252048
 30
0.0
 10
10.4416543628
 20
6.6047449164
 30
0.0
 10
10.3930707376
 20
6.6203670391
 30
0.0
 10
10.3454728214
 20
6.6393135594
 30
0.0
 10
10.2990971707
 20
6.6614900084
 30
0.0
 10
10.254173986
 20
6.6867860158
 30
0.0
 10
10.2109263153
 20
6.7150757474
 30
0.0
 10
10.1695688186
 20
6.7462185044
 30
0.0
 10
10.1303068231
 20
6.7800595396
 30
0.0
 10
10.0933352959
 20
6.8164307744
 30
0.0
 10
10.0588377856
 20
6.8551515294
 30
0.0
 10
10.0269856253
 20
6.8960295363
 30
0.0
 10
9.997937113
 20
6.9388618767
 30
0.0
 10
9.971836601
 20
6.983435884
 30
0.0
 10
9.9488138563
 20
7.0295302578
 30
0.0
 10
9.9289834926
 20
7.0769161751
 30
0.0
 10
9.9124442942
 20
7.125358353
 30
0.0
 10
9.8992787031
 20
7.1746162129
 30
0.0
 10
9.8895525347
 20
7.2244451011
 30
0.0
 10
9.883314593
 20
7.2745974586
 30
0.0
 10
9.8805962838
 20
7.3248240151
 30
0.0
 10
9.8814116308
 20
7.3748750948
 30
0.0
 10
9.8857571094
 20
7.4245016283
 30
0.0
 10
9.8936117674
 20
7.4734571143
 30
0.0
 10
9.9049363311
 20
7.5214961845
 30
0.0
 10
9.9172332049
 20
7.5606106969
 30
0.0
 10
9.9287415552
 20
7.5911937778
 30
0.0
 10
9.9381893146
 20
7.6137356847
 30
0.0
 10
9.9484492004
 20
7.6358734495
 30
0.0
 10
9.9595086449
 20
7.6575798902
 30
0.0
 10
9.9713538314
 20
7.6788278873
 30
0.0
 10
9.9839699978
 20
7.6995910536
 30
0.0
 10
9.9973415078
 20
7.719843459
 30
0.0
 10
10.0114517552
 20
7.7395600141
 30
0.0
 10
10.0262828555
 20
7.7587158574
 30
0.0
 10
10.0366418454
 20
7.7711005087
 30
0.0
 10
10.0419342603
 20
7.7771903657
 30
0.0
  0
SPLINE
  5
367
100
AcDbEntity
  8
0
100
AcDbSpline
 62
7
  6
CONTINUOUS
 70
0
 71
3
 72
15
 73
11
 74
0
 42
0.0000001
 43
0.0000001
 44
0.0000000001
 40
0.0
 40
0.0
 40
0.0
 40
0.0
 40
0.1232972121
 40
0.2469592636
 40
0.3710607395
 40
0.495666173
 40
0.6208287228
 40
0.7465890756
 40
0.8729748683
 40
1.0
 40
1.0
 40
1.0
 40
1.0
 10
11.547581123
 20
7.9665175782
 30
0.0
 10
11.5436015273
 20
7.9641702524
 30
0.0
 10
11.5354445044
 20
7.959776317
 30
0.0
 10
11.5227190896
 20
7.9541400978
 30
0.0
 10
11.5095526457
 20
7.9494780542
 30
0.0
 10
11.4960161049
 20
7.9458153796
 30
0.0
 10
11.4821812214
 20
7.9431712178
 30
0.0
 10
11.4681212894
 20
7.9415594972
 30
0.0
 10
11.4539119072
 20
7.9409885266
 30
0.0
 10
11.4444111585
 20
7.94130299
 30
0.0
 10
11.4396625738
 20
7.9416323055
 30
0.0
  0
SPLINE
  5
368
100
AcDbEntity
  8
0
100
AcDbSpline
 62
7
  6
CONTINUOUS
 70
0
 71
3
 72
44
 73
40
 74
0
 42
0.0000001
 43
0.0000001
 44
0.0000000001
 40
0.0
 40
0.0
 40
0.0
 40
0.0
 40
0.0311139015
 40
0.0623775392
 40
0.093785346
 40
0.1253282079
 40
0.1569946375
 40
0.1887707383
 40
0.2206405275
 40
0.2525862578
 40
0.2845887601
 40
0.3166278108
 40
0.3486825097
 40
0.3807316676
 40
0.4127541972
 40
0.4447295036
 40
0.4766378681
 40
0.5084608204
 40
0.5401814929
 40
0.5717849547
 40
0.6032585182
 40
0.6345920081
 40
0.6657779917
 40
0.6968119682
 40
0.7276924982
 40
0.7584212765
 40
0.7890031475
 40
0.8194460485
 40
0.8497608817
 40
0.8648771044
 40
0.8799666542
 40
0.8950316299
 40
0.9100742633
 40
0.9250969132
 40
0.9401020504
 40
0.9550922415
 40
0.9700701397
 40
0.9850384676
 40
1.0
 40
1.0
 40
1.0
 40
1.0
 10
10.5977369155
 20
6.6000848719
 30
0.0
 10
10.5811190207
 20
6.6012373268
 30
0.0
 10
10.5478739433
 20
6.6047379057
 30
0.0
 10
10.4983949062
 20
6.6135068212
 30
0.0
 10
10.4494232633
 20
6.6257619441
 30
0.0
 10
10.4012123053
 20
6.6414402297
 30
0.0
 10
10.3540073295
 20
6.660461201
 30
0.0
 10
10.3080494768
 20
6.6827273691
 30
0.0
 10
10.2635732273
 20
6.7081248194
 30
0.0
 10
10.2208055705
 20
6.7365237041
 30
0.0
 10
10.1799647
 20
6.7677788445
 30
0.0
 10
10.1412590241
 20
6.8017306002
 30
0.0
 10
10.1048861139
 20
6.8382056521
 30
0.0
 10
10.0710315924
 20
6.8770177654
 30
0.0
 10
10.0398682857
 20
6.9179688408
 30
0.0
 10
10.0115553934
 20
6.9608499297
 30
0.0
 10
9.9862375741
 20
7.0054422056
 30
0.0
 10
9.9640442218
 20
7.0515180964
 30
0.0
 10
9.9450889125
 20
7.0988424839
 30
0.0
 10
9.9294687701
 20
7.147173845
 30
0.0
 10
9.9172638597
 20
7.1962654438
 30
0.0
 10
9.9085369267
 20
7.2458666312
 30
0.0
 10
9.903333072
 20
7.2957240878
 30
0.0
 10
9.9016793357
 20
7.3455830687
 30
0.0
 10
9.9035846855
 20
7.3951887727
 30
0.0
 10
9.9090399255
 20
7.4442874196
 30
0.0
 10
9.9180179108
 20
7.4926282692
 30
0.0
 10
9.9304724584
 20
7.5399622224
 30
0.0
 10
9.9437111737
 20
7.5784095232
 30
0.0
 10
9.9559680227
 20
7.6084101894
 30
0.0
 10
9.9659737384
 20
7.6304921839
 30
0.0
 10
9.9767873588
 20
7.6521456061
 30
0.0
 10
9.9883952621
 20
7.6733431243
 30
0.0
 10
10.0007824858
 20
7.6940575455
 30
0.0
 10
10.0139332291
 20
7.7142623885
 30
0.0
 10
10.0278307033
 20
7.7339317251
 30
0.0
 10
10.0424571339
 20
7.7530405359
 30
0.0
 10
10.0577935394
 20
7.7715639975
 30
0.0
 10
10.0684806085
 20
7.7835097225
 30
0.0
 10
10.0739347716
 20
7.7893760892
 30
0.0
  0
SPLINE
  5
369
100
AcDbEntity
  8
0
100
AcDbSpline
 62
7
  6
CONTINUOUS
 70
0
 71
3
 72
39
 73
35
 74
0
 42
0.0000001
 43
0.0000001
 44
0.0000000001
 40
0.0
 40
0.0
 40
0.0
 40
0.0
 40
0.0310686827
 40
0.062282238
 40
0.0936356301
 40
0.1251205003
 40
0.1567263829
 40
0.1884405759
 40
0.2202484473
 40
0.25213371
 40
0.2840787178
 40
0.3160647819
 40
0.3480725011
 40
0.3800820993
 40
0.4120737679
 40
0.4440280086
 40
0.4759259728
 40
0.5077497915
 40
0.5394828961
 40
0.5711103204
 40
0.6026189812
 40
0.6339979323
 40
0.6652385911
 40
0.6963349264
 40
0.7272836041
 40
0.7580840873
 40
0.7887386896
 40
0.8192525706
 40
0.8496336716
 40
0.8798925952
 40
0.9100424261
 40
0.9400984899
 40
0.9700780572
 40
1.0
 40
1.0
 40
1.0
 40
1.0
 10
10.6396705453
 20
6.6405896503
 30
0.0
 10
10.6235867482
 20
6.6417050654
 30
0.0
 10
10.5914107041
 20
6.6450557838
 30
0.0
 10
10.5435026365
 20
6.6533790405
 30
0.0
 10
10.4960547231
 20
6.6649716543
 30
0.0
 10
10.4492968901
 20
6.6797777443
 30
0.0
 10
10.4034520832
 20
6.6977261418
 30
0.0
 10
10.3587397456
 20
6.7187306565
 30
0.0
 10
10.3153736219
 20
6.742690559
 30
0.0
 10
10.2735610918
 20
6.7694910639
 30
0.0
 10
10.2335020881
 20
6.7990038544
 30
0.0
 10
10.1953881284
 20
6.8310876332
 30
0.0
 10
10.1594014592
 20
6.8655888832
 30
0.0
 10
10.1257142006
 20
6.902342586
 30
0.0
 10
10.0944875075
 20
6.9411729747
 30
0.0
 10
10.0658707569
 20
6.9818943371
 30
0.0
 10
10.040000913
 20
7.0243119599
 30
0.0
 10
10.0170018814
 20
7.0682230394
 30
0.0
 10
9.9969838747
 20
7.1134176115
 30
0.0
 10
9.9800428523
 20
7.1596795398
 30
0.0
 10
9.9662601413
 20
7.2067875739
 30
0.0
 10
9.9557020481
 20
7.2545163838
 30
0.0
 10
9.9484194694
 20
7.3026376045
 30
0.0
 10
9.9444476295
 20
7.3509209264
 30
0.0
 10
9.9438059764
 20
7.399135196
 30
0.0
 10
9.9464980767
 20
7.4470494993
 30
0.0
 10
9.9525114944
 20
7.4944342587
 30
0.0
 10
9.9618178527
 20
7.5410623457
 30
0.0
 10
9.9743729927
 20
7.5867101362
 30
0.0
 10
9.9901172279
 20
7.6311586568
 30
0.0
 10
10.0089752707
 20
7.6741943668
 30
0.0
 10
10.0308575187
 20
7.7156113427
 30
0.0
 10
10.0556571695
 20
7.7552080061
 30
0.0
 10
10.0740747578
 20
7.7802904802
 30
0.0
 10
10.0837220198
 20
7.7924571965
 30
0.0
  0
SPLINE
  5
36A
100
AcDbEntity
  8
0
100
AcDbSpline
 62
7
  6
CONTINUOUS
 70
0
 71
3
 72
44
 73
40
 74
0
 42
0.0000001
 43
0.0000001
 44
0.0000000001
 40
0.0
 40
0.0
 40
0.0
 40
0.0
 40
0.0311206411
 40
0.0623917487
 40
0.0938076727
 40
0.1253591816
 40
0.1570346301
 40
0.1888199361
 40
0.2206989083
 40
0.2526535742
 40
0.2846645309
 40
0.3167113202
 40
0.3487728142
 40
0.3808276107
 40
0.4128544322
 40
0.444832523
 40
0.4767420415
 40
0.5085644369
 40
0.5402828097
 40
0.571882252
 40
0.6033501549
 40
0.6346764801
 40
0.6658539934
 40
0.6968784501
 40
0.7277487211
 40
0.7584668631
 40
0.789038127
 40
0.8194708887
 40
0.8497765127
 40
0.8648886589
 40
0.879974542
 40
0.8950363195
 40
0.9100762823
 40
0.925096843
 40
0.9401005268
 40
0.9550899525
 40
0.97006782
 40
0.985036897
 40
1.0
 40
1.0
 40
1.0
 40
1.0
 10
10.651705621
 20
6.697130195
 30
0.0
 10
10.6360859556
 20
6.6982134225
 30
0.0
 10
10.6048378149
 20
6.7015091705
 30
0.0
 10
10.5583338149
 20
6.7097752189
 30
0.0
 10
10.5123113238
 20
6.7213333157
 30
0.0
 10
10.4670106753
 20
6.7361234279
 30
0.0
 10
10.4226645741
 20
6.7540688979
 30
0.0
 10
10.3795017396
 20
6.7750768656
 30
0.0
 10
10.3377445173
 20
6.7990388278
 30
0.0
 10
10.2976080639
 20
6.8258310809
 30
0.0
 10
10.259299121
 20
6.8553153445
 30
0.0
 10
10.2230150697
 20
6.8873395858
 30
0.0
 10
10.188942899
 20
6.9217387432
 30
0.0
 10
10.1572581581
 20
6.958335484
 30
0.0
 10
10.12812417
 20
6.9969412306
 30
0.0
 10
10.1016912142
 20
7.0373571085
 30
0.0
 10
10.0780956219
 20
7.0793748672
 30
0.0
 10
10.05745917
 20
7.1227780197
 30
0.0
 10
10.0398885178
 20
7.1673429596
 30
0.0
 10
10.0254745341
 20
7.2128400369
 30
0.0
 10
10.0142918362
 20
7.2590347499
 30
0.0
 10
10.0063985185
 20
7.3056889676
 30
0.0
 10
10.0018357698
 20
7.3525621103
 30
0.0
 10
10.0006275452
 20
7.3994123641
 30
0.0
 10
10.0027806114
 20
7.4459979856
 30
0.0
 10
10.0082843858
 20
7.492078328
 30
0.0
 10
10.0171111186
 20
7.5374157857
 30
0.0
 10
10.029214988
 20
7.5817744689
 30
0.0
 10
10.041995664
 20
7.6177735597
 30
0.0
 10
10.0537876585
 20
7.6458433507
 30
0.0
 10
10.0633964876
 20
7.6664937262
 30
0.0
 10
10.0737648954
 20
7.6867322347
 30
0.0
 10
10.0848796863
 20
7.7065330929
 30
0.0
 10
10.0967264711
 20
7.7258706099
 30
0.0
 10
10.1092899114
 20
7.7447198729
 30
0.0
 10
10.1225538336
 20
7.7630564487
 30
0.0
 10
10.1365011629
 20
7.7808567469
 30
0.0
 10
10.1511135338
 20
7.7980974919
 30
0.0
 10
10.1612881045
 20
7.8092056753
 30
0.0
 10
10.1664788116
 20
7.8146581241
 30
0.0
  0
SPLINE
  5
36B
100
AcDbEntity
  8
0
100
AcDbSpline
 62
7
  6
CONTINUOUS
 70
0
 71
3
 72
42
 73
38
 74
0
 42
0.0000001
 43
0.0000001
 44
0.0000000001
 40
0.0
 40
0.0
 40
0.0
 40
0.0
 40
0.0307881094
 40
0.0462275892
 40
0.0616955412
 40
0.0927134947
 40
0.1238404222
 40
0.1550706261
 40
0.1863971709
 40
0.2178120026
 40
0.2493060421
 40
0.280869301
 40
0.3124910004
 40
0.3441596983
 40
0.375863422
 40
0.4075898047
 40
0.4393262254
 40
0.4710599504
 40
0.5027782764
 40
0.5344686728
 40
0.5661189225
 40
0.5977172609
 40
0.6292525106
 40
0.660714212
 40
0.6920927471
 40
0.723379457
 40
0.75456675
 40
0.7856482005
 40
0.8166186363
 40
0.8474742132
 40
0.8628595778
 40
0.8782154254
 40
0.9088353549
 40
0.9393373943
 40
0.9545462702
 40
0.9697265155
 40
1.0
 40
1.0
 40
1.0
 40
1.0
 10
10.9631940847
 20
6.9980049645
 30
0.0
 10
10.9510931499
 20
6.9988441672
 30
0.0
 10
10.9329537579
 20
7.0006094139
 30
0.0
 10
10.9088764915
 20
7.003959099
 30
0.0
 10
10.8848101067
 20
7.0079821553
 30
0.0
 10
10.8548663598
 20
7.0142588508
 30
0.0
 10
10.8193056541
 20
7.0237507582
 30
0.0
 10
10.7841913443
 20
7.0351803327
 30
0.0
 10
10.7496329036
 20
7.0485119449
 30
0.0
 10
10.7157372413
 20
7.0637042084
 30
0.0
 10
10.6826094288
 20
7.0807099521
 30
0.0
 10
10.6503520929
 20
7.0994764069
 30
0.0
 10
10.6190651765
 20
7.1199453592
 30
0.0
 10
10.5888456106
 20
7.1420533329
 30
0.0
 10
10.5597870219
 20
7.1657317853
 30
0.0
 10
10.5319794425
 20
7.1909073188
 30
0.0
 10
10.505509034
 20
7.217501907
 30
0.0
 10
10.4804578212
 20
7.2454331353
 30
0.0
 10
10.4569034401
 20
7.2746144549
 30
0.0
 10
10.4349188979
 20
7.3049554495
 30
0.0
 10
10.4145723487
 20
7.3363621137
 30
0.0
 10
10.3959268825
 20
7.3687371422
 30
0.0
 10
10.379040331
 20
7.4019802293
 30
0.0
 10
10.3639650881
 20
7.4359883788
 30
0.0
 10
10.3507479488
 20
7.4706562147
 30
0.0
 10
10.3394299624
 20
7.5058763281
 30
0.0
 10
10.3300463083
 20
7.5415395237
 30
0.0
 10
10.3226261747
 20
7.5775354645
 30
0.0
 10
10.3171927079
 20
7.6137518663
 30
0.0
 10
10.31433168
 20
7.6440537826
 30
0.0
 10
10.3130530402
 20
7.6682908592
 30
0.0
 10
10.3124484566
 20
7.6924612667
 30
0.0
 10
10.3129507464
 20
7.7226046705
 30
0.0
 10
10.3151369351
 20
7.7526150608
 30
0.0
 10
10.3178928934
 20
7.7764493052
 30
0.0
 10
10.3213102203
 20
7.8001060543
 30
0.0
 10
10.3246261888
 20
7.81771743
 30
0.0
 10
10.327168791
 20
7.8293705139
 30
0.0
  0
SPLINE
  5
36C
100
AcDbEntity
  8
0
100
AcDbSpline
 62
7
  6
CONTINUOUS
 70
0
 71
3
 72
23
 73
19
 74
0
 42
0.0000001
 43
0.0000001
 44
0.0000000001
 40
0.0
 40
0.0
 40
0.0
 40
0.0
 40
0.0616482102
 40
0.1233194434
 40
0.1850364728
 40
0.2468215621
 40
0.3086962116
 40
0.370680925
 40
0.4327950032
 40
0.4950563306
 40
0.5574811832
 40
0.6200840863
 40
0.6828775763
 40
0.7458723561
 40
0.8090769818
 40
0.8724965655
 40
0.9361390263
 40
1.0
 40
1.0
 40
1.0
 40
1.0
 10
11.4679348659
 20
7.7520966903
 30
0.0
 10
11.464601915
 20
7.7488773083
 30
0.0
 10
11.4577601321
 20
7.7426153573
 30
0.0
 10
11.4470054028
 20
7.7337857601
 30
0.0
 10
11.435783669
 20
7.725539776
 30
0.0
 10
11.4241235843
 20
7.7178985464
 30
0.0
 10
11.4120544172
 20
7.7108812399
 30
0.0
 10
11.3996066319
 20
7.7045055133
 30
0.0
 10
11.3868115928
 20
7.6987873877
 30
0.0
 10
11.3737015356
 20
7.6937412516
 30
0.0
 10
11.3603094792
 20
7.6893798136
 30
0.0
 10
11.3466691741
 20
7.6857139983
 30
0.0
 10
11.3328149773
 20
7.6827529781
 30
0.0
 10
11.3187817508
 20
7.6805041878
 30
0.0
 10
11.3046049287
 20
7.6789733173
 30
0.0
 10
11.2903198782
 20
7.6781640269
 30
0.0
 10
11.2759632731
 20
7.6780785068
 30
0.0
 10
11.2663839311
 20
7.6785032996
 30
0.0
 10
11.2615952117
 20
7.6788353984
 30
0.0
  0
SPLINE
  5
36D
100
AcDbEntity
  8
0
100
AcDbSpline
 62
7
  6
CONTINUOUS
 70
0
 71
3
 72
42
 73
38
 74
0
 42
0.0000001
 43
0.0000001
 44
0.0000000001
 40
0.0
 40
0.0
 40
0.0
 40
0.0
 40
0.0307863511
 40
0.0462249199
 40
0.0616918755
 40
0.0927077073
 40
0.1238323764
 40
0.1550601824
 40
0.1863842315
 40
0.2177965022
 40
0.2492879567
 40
0.2808486493
 40
0.3124678468
 40
0.3441341539
 40
0.3758356452
 40
0.4075600007
 40
0.4392946444
 40
0.4710268857
 40
0.5027440608
 40
0.5344336739
 40
0.5660835383
 40
0.5976819131
 40
0.6292176385
 40
0.6606802645
 40
0.6920601751
 40
0.7233487047
 40
0.754538246
 40
0.7856223485
 40
0.8165958058
 40
0.8474547306
 40
0.8628418684
 40
0.878199553
 40
0.9088233167
 40
0.9393293337
 40
0.9545402214
 40
0.9697224874
 40
1.0
 40
1.0
 40
1.0
 40
1.0
 10
10.9731379845
 20
7.0447212068
 30
0.0
 10
10.9617458908
 20
7.0455112512
 30
0.0
 10
10.9446690299
 20
7.0471723217
 30
0.0
 10
10.9220018539
 20
7.0503232557
 30
0.0
 10
10.8993448153
 20
7.0541071013
 30
0.0
 10
10.8711541827
 20
7.0600098233
 30
0.0
 10
10.8376743577
 20
7.0689352929
 30
0.0
 10
10.8046134264
 20
7.0796821808
 30
0.0
 10
10.7720741322
 20
7.0922170838
 30
0.0
 10
10.7401568108
 20
7.1065012198
 30
0.0
 10
10.7089600816
 20
7.1224903787
 30
0.0
 10
10.6785802765
 20
7.1401351073
 30
0.0
 10
10.6491112168
 20
7.1593808481
 30
0.0
 10
10.6206439062
 20
7.1801681115
 30
0.0
 10
10.5932662571
 20
7.2024326579
 30
0.0
 10
10.5670628194
 20
7.2261056954
 30
0.0
 10
10.5421145214
 20
7.2511140916
 30
0.0
 10
10.518498421
 20
7.277380598
 30
0.0
 10
10.4962874696
 20
7.3048240871
 30
0.0
 10
10.4755502875
 20
7.3333598023
 30
0.0
 10
10.4563509534
 20
7.3628996173
 30
0.0
 10
10.438748807
 20
7.3933523067
 30
0.0
 10
10.4227982666
 20
7.4246238259
 30
0.0
 10
10.4085486612
 20
7.4566176007
 30
0.0
 10
10.3960440787
 20
7.4892348175
 30
0.0
 10
10.3853232286
 20
7.5223747479
 30
0.0
 10
10.3764193254
 20
7.5559349787
 30
0.0
 10
10.3693599726
 20
7.5898120154
 30
0.0
 10
10.3641671224
 20
7.6239005266
 30
0.0
 10
10.3614058921
 20
7.6524255729
 30
0.0
 10
10.3601462327
 20
7.6752437683
 30
0.0
 10
10.3595201364
 20
7.6980008946
 30
0.0
 10
10.3599199113
 20
7.7263848412
 30
0.0
 10
10.3619023943
 20
7.7546479239
 30
0.0
 10
10.3644351493
 20
7.7770973538
 30
0.0
 10
10.3675898205
 20
7.7993815981
 30
0.0
 10
10.3706638051
 20
7.8159734775
 30
0.0
 10
10.373025266
 20
7.8269531154
 30
0.0
  0
SPLINE
  5
36E
100
AcDbEntity
  8
0
100
AcDbSpline
 62
7
  6
CONTINUOUS
 70
0
 71
3
 72
41
 73
37
 74
0
 42
0.0000001
 43
0.0000001
 44
0.0000000001
 40
0.0
 40
0.0
 40
0.0
 40
0.0
 40
0.0307819261
 40
0.0616797089
 40
0.0926901669
 40
0.1238090838
 40
0.1550307838
 40
0.1863484699
 40
0.2177542079
 40
0.2492390652
 40
0.2807932067
 40
0.3124060168
 40
0.344066221
 40
0.3757620161
 40
0.4074812026
 40
0.439211322
 40
0.4709397943
 40
0.502654058
 40
0.5343417089
 40
0.5659906383
 40
0.5975891684
 40
0.6291261848
 40
0.6605912644
 40
0.691974797
 40
0.7232681011
 40
0.7544635305
 40
0.7855545723
 40
0.8165359338
 40
0.847403617
 40
0.8627953996
 40
0.8781578895
 40
0.9087916967
 40
0.9393081444
 40
0.9545243162
 40
0.9697118886
 40
1.0
 40
1.0
 40
1.0
 40
1.0
 10
10.9788113735
 20
7.0589715875
 30
0.0
 10
10.9676294883
 20
7.0597470539
 30
0.0
 10
10.9452617582
 20
7.0619200743
 30
0.0
 10
10.9118812651
 20
7.0670178062
 30
0.0
 10
10.8787055817
 20
7.0739445624
 30
0.0
 10
10.8458377313
 20
7.0826788647
 30
0.0
 10
10.8133780125
 20
7.0931939102
 30
0.0
 10
10.7814259593
 20
7.1054573635
 30
0.0
 10
10.7500794037
 20
7.1194315844
 30
0.0
 10
10.7194343533
 20
7.1350736878
 30
0.0
 10
10.689584653
 20
7.1523356992
 30
0.0
 10
10.6606217112
 20
7.171164692
 30
0.0
 10
10.6326342197
 20
7.1915029526
 30
0.0
 10
10.6057078838
 20
7.2132881557
 30
0.0
 10
10.5799251622
 20
7.2364535547
 30
0.0
 10
10.5553650157
 20
7.2609281852
 30
0.0
 10
10.5321026668
 20
7.2866370809
 30
0.0
 10
10.5102093707
 20
7.3135015024
 30
0.0
 10
10.4897521985
 20
7.3414391768
 30
0.0
 10
10.4707938321
 20
7.3703645481
 30
0.0
 10
10.4533923737
 20
7.4001890375
 30
0.0
 10
10.4376011684
 20
7.4308213128
 30
0.0
 10
10.4234686409
 20
7.4621675673
 30
0.0
 10
10.4110381477
 20
7.4941318
 30
0.0
 10
10.4003478433
 20
7.5266161272
 30
0.0
 10
10.3914305671
 20
7.5595210049
 30
0.0
 10
10.3843137258
 20
7.5927458115
 30
0.0
 10
10.3790192685
 20
7.6261881125
 30
0.0
 10
10.3761366187
 20
7.6541813036
 30
0.0
 10
10.3747579808
 20
7.6765799993
 30
0.0
 10
10.373998656
 20
7.6989230472
 30
0.0
 10
10.3742051061
 20
7.7267983072
 30
0.0
 10
10.3759585216
 20
7.7545659565
 30
0.0
 10
10.3782873367
 20
7.7766291902
 30
0.0
 10
10.3812247694
 20
7.798535134
 30
0.0
 10
10.384120368
 20
7.8148511116
 30
0.0
 10
10.3863563318
 20
7.8256510057
 30
0.0
  0
SPLINE
  5
36F
100
AcDbEntity
  8
0
100
AcDbSpline
 62
7
  6
CONTINUOUS
 70
0
 71
3
 72
39
 73
35
 74
0
 42
0.0000001
 43
0.0000001
 44
0.0000000001
 40
0.0
 40
0.0
 40
0.0
 40
0.0
 40
0.0307008797
 40
0.0615083495
 40
0.0924192365
 40
0.1234306767
 40
0.1545380014
 40
0.1857359311
 40
0.2170181849
 40
0.2483777003
 40
0.2798066619
 40
0.3112965929
 40
0.3428384369
 40
0.3744226476
 40
0.4060392805
 40
0.4376780872
 40
0.4693286122
 40
0.5009802906
 40
0.5326225466
 40
0.5642448921
 40
0.5958370248
 40
0.6273889254
 40
0.6588909529
 40
0.6903339372
 40
0.7217092682
 40
0.7530089812
 40
0.7842258374
 40
0.8153533996
 40
0.8463861011
 40
0.877319308
 40
0.9081493746
 40
0.9388736894
 40
0.9694907121
 40
1.0
 40
1.0
 40
1.0
 40
1.0
 10
11.0581805958
 20
7.1356363737
 30
0.0
 10
11.0479176106
 20
7.1363481141
 30
0.0
 10
11.0273884436
 20
7.1382955334
 30
0.0
 10
10.9967314611
 20
7.1427665223
 30
0.0
 10
10.9662328538
 20
7.1487812683
 30
0.0
 10
10.9359725433
 20
7.1563239085
 30
0.0
 10
10.9060282683
 20
7.1653750511
 30
0.0
 10
10.8764774539
 20
7.1759111832
 30
0.0
 10
10.8473963482
 20
7.1879050806
 30
0.0
 10
10.8188600261
 20
7.2013257147
 30
0.0
 10
10.7909421424
 20
7.2161384004
 30
0.0
 10
10.7637147568
 20
7.2323048607
 30
0.0
 10
10.7372481415
 20
7.2497833267
 30
0.0
 10
10.7116106046
 20
7.2685286496
 30
0.0
 10
10.6868683149
 20
7.2884924185
 30
0.0
 10
10.6630851326
 20
7.309623084
 30
0.0
 10
10.6403224455
 20
7.3318660912
 30
0.0
 10
10.6186390114
 20
7.3551640196
 30
0.0
 10
10.5980908073
 20
7.3794567304
 30
0.0
 10
10.578730886
 20
7.4046815205
 30
0.0
 10
10.5606092399
 20
7.4307732842
 30
0.0
 10
10.5437726661
 20
7.4576646756
 30
0.0
 10
10.5282646496
 20
7.4852862859
 30
0.0
 10
10.514125254
 20
7.5135668223
 30
0.0
 10
10.5013910172
 20
7.5424332906
 30
0.0
 10
10.4900948582
 20
7.5718111825
 30
0.0
 10
10.4802659915
 20
7.6016246656
 30
0.0
 10
10.4719298521
 20
7.6317967804
 30
0.0
 10
10.4651080282
 20
7.6622496278
 30
0.0
 10
10.4598182085
 20
7.6929046031
 30
0.0
 10
10.4560741201
 20
7.7236824717
 30
0.0
 10
10.4538855221
 20
7.7545040358
 30
0.0
 10
10.4532580876
 20
7.7852886256
 30
0.0
 10
10.4538829515
 20
7.8057726035
 30
0.0
 10
10.4544567408
 20
7.8159799232
 30
0.0
  0
SPLINE
  5
370
100
AcDbEntity
  8
0
100
AcDbSpline
 62
7
  6
CONTINUOUS
 70
0
 71
3
 72
39
 73
35
 74
0
 42
0.0000001
 43
0.0000001
 44
0.0000000001
 40
0.0
 40
0.0
 40
0.0
 40
0.0
 40
0.0306944176
 40
0.0614946227
 40
0.0923974308
 40
0.1234000935
 40
0.1544980211
 40
0.185686055
 40
0.2169580481
 40
0.2483070881
 40
0.2797255232
 40
0.3112050506
 40
0.3427367957
 40
0.3743113988
 40
0.4059191033
 40
0.4375498473
 40
0.4691933569
 40
0.5008392405
 40
0.5324770847
 40
0.5640965494
 40
0.5956874638
 40
0.6272399205
 40
0.6587443678
 40
0.6901916999
 40
0.7215733438
 40
0.7528813425
 40
0.784108434
 40
0.8152481255
 40
0.8462947618
 40
0.8772435877
 40
0.9080908025
 40
0.938833606
 40
0.9694702368
 40
1.0
 40
1.0
 40
1.0
 40
1.0
 10
11.0633569725
 20
7.1599548875
 30
0.0
 10
11.0534995603
 20
7.1606385014
 30
0.0
 10
11.0337816992
 20
7.1625050194
 30
0.0
 10
11.0043346314
 20
7.1667818813
 30
0.0
 10
10.9750373109
 20
7.1725301444
 30
0.0
 10
10.9459653298
 20
7.1797348689
 30
0.0
 10
10.917192204
 20
7.1883778312
 30
0.0
 10
10.8887911785
 20
7.198436923
 30
0.0
 10
10.8608343957
 20
7.2098865592
 30
0.0
 10
10.8333929074
 20
7.2226975798
 30
0.0
 10
10.8065364435
 20
7.2368373913
 30
0.0
 10
10.7803332462
 20
7.25227002
 30
0.0
 10
10.7548498929
 20
7.2689562109
 30
0.0
 10
10.7301511324
 20
7.2868535316
 30
0.0
 10
10.7062997202
 20
7.3059164792
 30
0.0
 10
10.683356261
 20
7.3260965954
 30
0.0
 10
10.6613790554
 20
7.3473425891
 30
0.0
 10
10.6404239528
 20
7.3696004658
 30
0.0
 10
10.6205442103
 20
7.3928136641
 30
0.0
 10
10.6017903585
 20
7.4169231988
 30
0.0
 10
10.5842100657
 20
7.4418678043
 30
0.0
 10
10.5678480229
 20
7.4675840955
 30
0.0
 10
10.5527458324
 20
7.4940067284
 30
0.0
 10
10.5389419015
 20
7.5210685652
 30
0.0
 10
10.5264713461
 20
7.5487008432
 30
0.0
 10
10.5153659013
 20
7.5768333487
 30
0.0
 10
10.5056538406
 20
7.6053945929
 30
0.0
 10
10.4973599051
 20
7.6343119954
 30
0.0
 10
10.4905052354
 20
7.663512057
 30
0.0
 10
10.4851073142
 20
7.6929205773
 30
0.0
 10
10.4811799262
 20
7.7224627274
 30
0.0
 10
10.4787331336
 20
7.7520636735
 30
0.0
 10
10.4777732033
 20
7.7816471492
 30
0.0
 10
10.4781268584
 20
7.8013444804
 30
0.0
 10
10.478552955
 20
7.8111633222
 30
0.0
  0
SPLINE
  5
371
100
AcDbEntity
  8
0
100
AcDbSpline
 62
7
  6
CONTINUOUS
 70
0
 71
3
 72
37
 73
33
 74
0
 42
0.0000001
 43
0.0000001
 44
0.0000000001
 40
0.0
 40
0.0
 40
0.0
 40
0.0
 40
0.0306765619
 40
0.0614568459
 40
0.0923369839
 40
0.1233149803
 40
0.1543863442
 40
0.1855462858
 40
0.2167890597
 40
0.2481081816
 40
0.2794964863
 40
0.3109461821
 40
0.3424489312
 40
0.3739959228
 40
0.4055779547
 40
0.437185518
 40
0.5004214752
 40
0.5636414651
 40
0.5952292152
 40
0.6267837522
 40
0.6582958095
 40
0.6897564941
 40
0.721157368
 40
0.7524905279
 40
0.7837486785
 40
0.8149252017
 40
0.8460142204
 40
0.877010658
 40
0.9079102953
 40
0.9387098172
 40
0.9694068517
 40
1.0
 40
1.0
 40
1.0
 40
1.0
 10
11.0633569725
 20
7.2623430312
 30
0.0
 10
11.0554167791
 20
7.2628936855
 30
0.0
 10
11.0395339383
 20
7.2643876368
 30
0.0
 10
11.0158102693
 20
7.2677903572
 30
0.0
 10
10.9922015342
 20
7.2723508076
 30
0.0
 10
10.9687659049
 20
7.2780575582
 30
0.0
 10
10.9455597827
 20
7.28489694
 30
0.0
 10
10.922639519
 20
7.2928522629
 30
0.0
 10
10.9000606042
 20
7.3019042378
 30
0.0
 10
10.8778777355
 20
7.3120308775
 30
0.0
 10
10.8561446387
 20
7.3232076149
 30
0.0
 10
10.8349139626
 20
7.3354073414
 30
0.0
 10
10.8142371045
 20
7.3486005203
 30
0.0
 10
10.7941642681
 20
7.3627550629
 30
0.0
 10
10.7747436305
 20
7.3778370904
 30
0.0
 10
10.749782275
 20
7.3991335688
 30
0.0
 10
10.7204475845
 20
7.4278808849
 30
0.0
 10
10.6938776244
 20
7.4591946758
 30
0.0
 10
10.6744347767
 20
7.4856050825
 30
0.0
 10
10.6607967862
 20
7.5060400056
 30
0.0
 10
10.64813475
 20
7.5270545967
 30
0.0
 10
10.636478965
 20
7.5485984242
 30
0.0
 10
10.6258578055
 20
7.5706191837
 30
0.0
 10
10.6162969843
 20
7.5930635618
 30
0.0
 10
10.6078196982
 20
7.6158771824
 30
0.0
 10
10.6004465192
 20
7.6390047874
 30
0.0
 10
10.5941953595
 20
7.6623903477
 30
0.0
 10
10.5890814256
 20
7.685977225
 30
0.0
 10
10.5851171416
 20
7.70970821
 30
0.0
 10
10.5823121529
 20
7.7335260042
 30
0.0
 10
10.580673315
 20
7.7573721235
 30
0.0
 10
10.580360331
 20
7.7732788133
 30
0.0
 10
10.5804000812
 20
7.781216336
 30
0.0
  0
SPLINE
  5
372
100
AcDbEntity
  8
0
100
AcDbSpline
 62
7
  6
CONTINUOUS
 70
0
 71
3
 72
15
 73
11
 74
0
 42
0.0000001
 43
0.0000001
 44
0.0000000001
 40
0.0
 40
0.0
 40
0.0
 40
0.0
 40
0.1232972121
 40
0.2469592636
 40
0.3710607395
 40
0.495666173
 40
0.6208287228
 40
0.7465890756
 40
0.8729748683
 40
1.0
 40
1.0
 40
1.0
 40
1.0
 10
11.547581123
 20
6.0346657823
 30
0.0
 10
11.5436015273
 20
6.0323184566
 30
0.0
 10
11.5354445044
 20
6.0279245211
 30
0.0
 10
11.5227190896
 20
6.022288302
 30
0.0
 10
11.5095526457
 20
6.0176262583
 30
0.0
 10
11.4960161049
 20
6.0139635838
 30
0.0
 10
11.4821812214
 20
6.011319422
 30
0.0
 10
11.4681212894
 20
6.0097077014
 30
0.0
 10
11.4539119072
 20
6.0091367308
 30
0.0
 10
11.4444111585
 20
6.0094511942
 30
0.0
 10
11.4396625738
 20
6.0097805097
 30
0.0
  0
SPLINE
  5
373
100
AcDbEntity
  8
0
100
AcDbSpline
 62
7
  6
CONTINUOUS
 70
0
 71
3
 72
71
 73
67
 74
0
 42
0.0000001
 43
0.0000001
 44
0.0000000001
 40
0.0
 40
0.0
 40
0.0
 40
0.0
 40
0.0156748284
 40
0.0314021605
 40
0.0471806558
 40
0.0630088915
 40
0.0788847439
 40
0.0948057527
 40
0.1107690085
 40
0.1267712319
 40
0.1428087898
 40
0.1588777347
 40
0.1749738405
 40
0.1910926414
 40
0.2072294724
 40
0.2233795107
 40
0.239537818
 40
0.2556993843
 40
0.2718591712
 40
0.2880121557
 40
0.3041533741
 40
0.3202779654
 40
0.3363812138
 40
0.3524585909
 40
0.368505796
 40
0.3845187958
 40
0.4004938614
 40
0.4164276039
 40
0.4323170078
 40
0.448159461
 40
0.4639527825
 40
0.4796952463
 40
0.4953856017
 40
0.5110230901
 40
0.5266074569
 40
0.5421389589
 40
0.5576183674
 40
0.5730469657
 40
0.5884265413
 40
0.6037593734
 40
0.619048214
 40
0.6342962646
 40
0.6495071467
 40
0.6646848675
 40
0.6798337809
 40
0.6949585439
 40
0.710064069
 40
0.7251554728
 40
0.7402380225
 40
0.75531708
 40
0.7703980444
 40
0.7854862945
 40
0.8005871312
 40
0.815705721
 40
0.8308470418
 40
0.8460158305
 40
0.8612165348
 40
0.8764532681
 40
0.8917297694
 40
0.9070493658
 40
0.9224149473
 40
0.937828925
 40
0.9532932602
 40
0.9688093114
 40
0.9843781663
 40
1.0
 40
1.0
 40
1.0
 40
1.0
 10
10.3619373139
 20
6.3036622212
 30
0.0
 10
10.3494145181
 20
6.3045306801
 30
0.0
 10
10.3243653371
 20
6.3068848098
 30
0.0
 10
10.2869493221
 20
6.312242668
 30
0.0
 10
10.249713523
 20
6.3194205612
 30
0.0
 10
10.2127488721
 20
6.3284009182
 30
0.0
 10
10.1761439668
 20
6.3391621577
 30
0.0
 10
10.1399870452
 20
6.3516782429
 30
0.0
 10
10.1043651084
 20
6.3659190051
 30
0.0
 10
10.069363907
 20
6.3818500939
 30
0.0
 10
10.0350676827
 20
6.3994331126
 30
0.0
 10
10.0015589801
 20
6.4186256903
 30
0.0
 10
9.9689184464
 20
6.4393815911
 30
0.0
 10
9.9372246389
 20
6.4616508225
 30
0.0
 10
9.906553837
 20
6.4853797569
 30
0.0
 10
9.8769798592
 20
6.5105112589
 30
0.0
 10
9.848573885
 20
6.5369848211
 30
0.0
 10
9.8214042856
 20
6.564736712
 30
0.0
 10
9.7955364605
 20
6.593700128
 30
0.0
 10
9.7710326805
 20
6.6238053536
 30
0.0
 10
9.7479519385
 20
6.6549799288
 30
0.0
 10
9.7263498083
 20
6.687148822
 30
0.0
 10
9.7062783112
 20
6.7202346103
 30
0.0
 10
9.6877857912
 20
6.7541576643
 30
0.0
 10
9.6709167988
 20
6.788836339
 30
0.0
 10
9.6557119843
 20
6.8241871692
 30
0.0
 10
9.6422079995
 20
6.8601250686
 30
0.0
 10
9.63043741
 20
6.8965635343
 30
0.0
 10
9.6204286149
 20
6.9334148526
 30
0.0
 10
9.612205777
 20
6.9705903094
 30
0.0
 10
9.6057887667
 20
7.008000403
 30
0.0
 10
9.6011931123
 20
7.0455550581
 30
0.0
 10
9.5984299623
 20
7.0831638417
 30
0.0
 10
9.5975060569
 20
7.1207361792
 30
0.0
 10
9.5984237104
 20
7.1581815716
 30
0.0
 10
9.6011808036
 20
7.1954098127
 30
0.0
 10
9.6057707874
 20
7.2323312055
 30
0.0
 10
9.6121826958
 20
7.2688567778
 30
0.0
 10
9.6204011706
 20
7.3048984966
 30
0.0
 10
9.6304064957
 20
7.3403694807
 30
0.0
 10
9.6421746426
 20
7.3751842102
 30
0.0
 10
9.6556773238
 20
7.4092587348
 30
0.0
 10
9.6708820596
 20
7.4425108782
 30
0.0
 10
9.6877522562
 20
7.4748604367
 30
0.0
 10
9.7062472922
 20
7.5062293759
 30
0.0
 10
9.7263226151
 20
7.5365420204
 30
0.0
 10
9.7479298489
 20
7.5657252394
 30
0.0
 10
9.7710169098
 20
7.5937086259
 30
0.0
 10
9.7955281326
 20
7.6204246689
 30
0.0
 10
9.8214044063
 20
7.645808919
 30
0.0
 10
9.8485833175
 20
7.6698001463
 30
0.0
 10
9.8769993034
 20
7.69234049
 30
0.0
 10
9.9065838119
 20
7.7133755996
 30
0.0
 10
9.9372654698
 20
7.7328547665
 30
0.0
 10
9.9689702561
 20
7.7507310501
 30
0.0
 10
10.0016216848
 20
7.7669613887
 30
0.0
 10
10.0351409925
 20
7.7815067025
 30
0.0
 10
10.0694473309
 20
7.7943319873
 30
0.0
 10
10.1044579631
 20
7.805406395
 30
0.0
 10
10.1400884688
 20
7.8147033134
 30
0.0
 10
10.1762529339
 20
7.8222004089
 30
0.0
 10
10.2128642167
 20
7.8278797243
 30
0.0
 10
10.249833955
 20
7.8317276218
 30
0.0
 10
10.2870734589
 20
7.8337349849
 30
0.0
 10
10.3244917297
 20
7.8338970359
 30
0.0
 10
10.3494568561
 20
7.8327764405
 30
0.0
 10
10.3619373139
 20
7.8319109178
 30
0.0
  0
SPLINE
  5
374
100
AcDbEntity
  8
0
100
AcDbSpline
 62
7
  6
CONTINUOUS
 70
0
 71
3
 72
26
 73
22
 74
0
 42
0.0000001
 43
0.0000001
 44
0.0000000001
 40
0.0
 40
0.0
 40
0.0
 40
0.0
 40
0.0638611465
 40
0.0957115542
 40
0.1275058562
 40
0.1909251488
 40
0.2541286208
 40
0.3171223441
 40
0.379914866
 40
0.4425167416
 40
0.5049405854
 40
0.5672009069
 40
0.6293139847
 40
0.6912976986
 40
0.7222497769
 40
0.7531768549
 40
0.8149609457
 40
0.876676982
 40
0.9075191937
 40
0.9383527857
 40
1.0
 40
1.0
 40
1.0
 40
1.0
 10
10.367610703
 20
6.3179126019
 30
0.0
 10
10.3802196298
 20
6.3170381699
 30
0.0
 10
10.3991544161
 20
6.3161984836
 30
0.0
 10
10.4243913825
 20
6.3160325641
 30
0.0
 10
10.4495375339
 20
6.3165015551
 30
0.0
 10
10.4808553623
 20
6.3182756799
 30
0.0
 10
10.5181827096
 20
6.3223065597
 30
0.0
 10
10.5551322264
 20
6.3282275886
 30
0.0
 10
10.5916102821
 20
6.3360239204
 30
0.0
 10
10.6275251882
 20
6.3456760495
 30
0.0
 10
10.6627864023
 20
6.3571597323
 30
0.0
 10
10.6973052625
 20
6.3704462312
 30
0.0
 10
10.7309942295
 20
6.3855018206
 30
0.0
 10
10.7583207651
 20
6.3994985349
 30
0.0
 10
10.7796777565
 20
6.4115387288
 30
0.0
 10
10.8006720342
 20
6.4241241979
 30
0.0
 10
10.8262486248
 20
6.440885204
 30
0.0
 10
10.8508768451
 20
6.4589826623
 30
0.0
 10
10.8699601139
 20
6.4742261123
 30
0.0
 10
10.8886162782
 20
6.4899673461
 30
0.0
 10
10.902126908
 20
6.5023329295
 30
0.0
 10
10.9109025526
 20
6.5108095653
 30
0.0
  0
SPLINE
  5
375
100
AcDbEntity
  8
0
100
AcDbSpline
 62
7
  6
CONTINUOUS
 70
0
 71
3
 72
23
 73
19
 74
0
 42
0.0000001
 43
0.0000001
 44
0.0000000001
 40
0.0
 40
0.0
 40
0.0
 40
0.0
 40
0.0616482102
 40
0.1233194434
 40
0.1850364728
 40
0.2468215621
 40
0.3086962116
 40
0.370680925
 40
0.4327950032
 40
0.4950563306
 40
0.5574811832
 40
0.6200840863
 40
0.6828775763
 40
0.7458723561
 40
0.8090769818
 40
0.8724965655
 40
0.9361390263
 40
1.0
 40
1.0
 40
1.0
 40
1.0
 10
11.4679348659
 20
5.8202448945
 30
0.0
 10
11.464601915
 20
5.8170255124
 30
0.0
 10
11.4577601321
 20
5.8107635615
 30
0.0
 10
11.4470054028
 20
5.8019339643
 30
0.0
 10
11.435783669
 20
5.7936879801
 30
0.0
 10
11.4241235843
 20
5.7860467505
 30
0.0
 10
11.4120544172
 20
5.7790294441
 30
0.0
 10
11.3996066319
 20
5.7726537175
 30
0.0
 10
11.3868115928
 20
5.7669355918
 30
0.0
 10
11.3737015356
 20
5.7618894558
 30
0.0
 10
11.3603094792
 20
5.7575280178
 30
0.0
 10
11.3466691741
 20
5.7538622024
 30
0.0
 10
11.3328149773
 20
5.7509011823
 30
0.0
 10
11.3187817508
 20
5.748652392
 30
0.0
 10
11.3046049287
 20
5.7471215215
 30
0.0
 10
11.2903198782
 20
5.7463122311
 30
0.0
 10
11.2759632731
 20
5.7462267109
 30
0.0
 10
11.2663839311
 20
5.7466515037
 30
0.0
 10
11.2615952117
 20
5.7469836025
 30
0.0
  0
SPLINE
  5
376
100
AcDbEntity
  8
0
100
AcDbSpline
 62
7
  6
CONTINUOUS
 70
0
 71
3
 72
41
 73
37
 74
0
 42
0.0000001
 43
0.0000001
 44
0.0000000001
 40
0.0
 40
0.0
 40
0.0
 40
0.0
 40
0.0311447108
 40
0.0467774295
 40
0.0624475249
 40
0.0938924651
 40
0.1254747955
 40
0.1571823865
 40
0.1890004527
 40
0.2209120576
 40
0.2528984154
 40
0.2689156901
 40
0.2849439669
 40
0.3170180467
 40
0.3491033961
 40
0.3811778561
 40
0.4132194776
 40
0.4452069463
 40
0.4771199982
 40
0.5089398211
 40
0.5406494354
 40
0.5722340478
 40
0.6036813723
 40
0.6349819093
 40
0.666129179
 40
0.6971198991
 40
0.7279541027
 40
0.7586351871
 40
0.7891698911
 40
0.819568195
 40
0.8498431417
 40
0.8800105805
 40
0.9100888347
 40
0.9400983003
 40
0.9700609852
 40
1.0
 40
1.0
 40
1.0
 40
1.0
 10
11.2615952117
 20
7.6788353984
 30
0.0
 10
11.2545898715
 20
7.6793212204
 30
0.0
 10
11.2440898218
 20
7.6804352102
 30
0.0
 10
11.230186803
 20
7.6826738801
 30
0.0
 10
11.2163058663
 20
7.6854222908
 30
0.0
 10
11.1990937039
 20
7.6897993619
 30
0.0
 10
11.1787999004
 20
7.6965178449
 30
0.0
 10
11.1589482724
 20
7.704672899
 30
0.0
 10
11.1396451226
 20
7.7142209059
 30
0.0
 10
11.1209936336
 20
7.7251104825
 30
0.0
 10
11.1060813815
 20
7.7352515516
 30
0.0
 10
11.094573521
 20
7.7439734827
 30
0.0
 10
11.0833550869
 20
7.7530960684
 30
0.0
 10
11.0699188948
 20
7.7652163517
 30
0.0
 10
11.0548239363
 20
7.7808255732
 30
0.0
 10
11.0408318837
 20
7.7974217334
 30
0.0
 10
11.0280178291
 20
7.8149159898
 30
0.0
 10
11.0164499843
 20
7.8332152293
 30
0.0
 10
11.0061901135
 20
7.8522219192
 30
0.0
 10
10.9972929941
 20
7.8718347919
 30
0.0
 10
10.9898061821
 20
7.8919493318
 30
0.0
 10
10.9837697436
 20
7.9124583374
 30
0.0
 10
10.9792160434
 20
7.9332524815
 30
0.0
 10
10.9761695681
 20
7.9542208869
 30
0.0
 10
10.9746467903
 20
7.9752517089
 30
0.0
 10
10.9746560743
 20
7.9962327255
 30
0.0
 10
10.9761976177
 20
8.0170519287
 30
0.0
 10
10.9792634406
 20
8.0375981197
 30
0.0
 10
10.9838374169
 20
8.0577614993
 30
0.0
 10
10.989895349
 20
8.0774342578
 30
0.0
 10
10.9974050725
 20
8.0965111453
 30
0.0
 10
11.0063266518
 20
8.1148900782
 30
0.0
 10
11.0166124458
 20
8.1324725643
 30
0.0
 10
11.0282078626
 20
8.1491647345
 30
0.0
 10
11.041049757
 20
8.1648760376
 30
0.0
 10
11.0504003585
 20
8.1746443213
 30
0.0
 10
11.0552555574
 20
8.1793340813
 30
0.0
  0
SPLINE
  5
377
100
AcDbEntity
  8
0
100
AcDbSpline
 62
7
  6
CONTINUOUS
 70
0
 71
3
 72
39
 73
35
 74
0
 42
0.0000001
 43
0.0000001
 44
0.0000000001
 40
0.0
 40
0.0
 40
0.0
 40
0.0
 40
0.0310056836
 40
0.0621506876
 40
0.0934290457
 40
0.1248343575
 40
0.1563570069
 40
0.1879858949
 40
0.2197080213
 40
0.2515089249
 40
0.2833728618
 40
0.3152830837
 40
0.3472221046
 40
0.3791719817
 40
0.4111146005
 40
0.4430319616
 40
0.4749064666
 40
0.5067211985
 40
0.5384601949
 40
0.5701087107
 40
0.6016534658
 40
0.633082875
 40
0.6643872566
 40
0.6955590151
 40
0.7265927961
 40
0.7574856065
 40
0.7882368983
 40
0.8188486116
 40
0.8493251741
 40
0.8796734546
 40
0.9099026698
 40
0.9400242422
 40
0.9700516113
 40
1.0
 40
1.0
 40
1.0
 40
1.0
 10
9.749292364
 20
6.1270080819
 30
0.0
 10
9.7449553991
 20
6.1273088514
 30
0.0
 10
9.7362792603
 20
6.1281991771
 30
0.0
 10
9.7233541815
 20
6.1303854558
 30
0.0
 10
9.7105426
 20
6.1334161901
 30
0.0
 10
9.6979014145
 20
6.1372778385
 30
0.0
 10
9.6854856999
 20
6.141953529
 30
0.0
 10
9.673349864
 20
6.1474226678
 30
0.0
 10
9.6615469892
 20
6.1536612847
 30
0.0
 10
9.650128721
 20
6.1606420169
 30
0.0
 10
9.6391450152
 20
6.1683342802
 30
0.0
 10
9.6286439278
 20
6.1767043819
 30
0.0
 10
9.6186714064
 20
6.185715675
 30
0.0
 10
9.609271089
 20
6.1953287138
 30
0.0
 10
9.6004841136
 20
6.2055014246
 30
0.0
 10
9.592348942
 20
6.2161892917
 30
0.0
 10
9.5849011923
 20
6.2273455501
 30
0.0
 10
9.5781734843
 20
6.238921388
 30
0.0
 10
9.5721952977
 20
6.2508661585
 30
0.0
 10
9.5669928438
 20
6.2631275988
 30
0.0
 10
9.5625889506
 20
6.2756520563
 30
0.0
 10
9.559002963
 20
6.2883847208
 30
0.0
 10
9.5562506571
 20
6.3012698613
 30
0.0
 10
9.5543441708
 20
6.3142510678
 30
0.0
 10
9.5532919442
 20
6.3272714944
 30
0.0
 10
9.5530986822
 20
6.3402741072
 30
0.0
 10
9.5537653326
 20
6.3532019317
 30
0.0
 10
9.5552890788
 20
6.365998302
 30
0.0
 10
9.5576633442
 20
6.3786071022
 30
0.0
 10
9.5608778303
 20
6.3909730336
 30
0.0
 10
9.5649185052
 20
6.403041777
 30
0.0
 10
9.5697678524
 20
6.4147605346
 30
0.0
 10
9.575404229
 20
6.4260771436
 30
0.0
 10
9.5796759817
 20
6.4333302324
 30
0.0
 10
9.5819332483
 20
6.4368710639
 30
0.0
  0
SPLINE
  5
378
100
AcDbEntity
  8
0
100
AcDbSpline
 62
7
  6
CONTINUOUS
 70
0
 71
3
 72
23
 73
19
 74
0
 42
0.0000001
 43
0.0000001
 44
0.0000000001
 40
0.0
 40
0.0
 40
0.0
 40
0.0
 40
0.0637755068
 40
0.1273532219
 40
0.1907318349
 40
0.2539158788
 40
0.3169090871
 40
0.3797176987
 40
0.4423492535
 40
0.5048128508
 40
0.567119034
 40
0.6292797047
 40
0.6913080365
 40
0.7532183636
 40
0.8150260626
 40
0.8767474235
 40
0.9383995082
 40
1.0
 40
1.0
 40
1.0
 40
1.0
 10
10.591012605
 20
6.5791007981
 30
0.0
 10
10.6016629535
 20
6.5783621939
 30
0.0
 10
10.6229668121
 20
6.5773635221
 30
0.0
 10
10.6549053952
 20
6.577309212
 30
0.0
 10
10.6867153418
 20
6.5787011016
 30
0.0
 10
10.7183309386
 20
6.5815362547
 30
0.0
 10
10.7496883588
 20
6.5858091046
 30
0.0
 10
10.7807237271
 20
6.5915109595
 30
0.0
 10
10.8113739959
 20
6.5986303256
 30
0.0
 10
10.8415768468
 20
6.6071527654
 30
0.0
 10
10.8712708758
 20
6.6170609995
 30
0.0
 10
10.9003957048
 20
6.6283349327
 30
0.0
 10
10.9288921001
 20
6.6409516867
 30
0.0
 10
10.9567021159
 20
6.654885667
 30
0.0
 10
10.9837691268
 20
6.6701085417
 30
0.0
 10
11.0100382812
 20
6.6865895292
 30
0.0
 10
11.0354554021
 20
6.7042945448
 30
0.0
 10
11.0518047488
 20
6.7168954083
 30
0.0
 10
11.0598179023
 20
6.7233856551
 30
0.0
  0
SPLINE
  5
379
100
AcDbEntity
  8
0
100
AcDbSpline
 62
7
  6
CONTINUOUS
 70
0
 71
3
 72
11
 73
7
 74
0
 42
0.0000001
 43
0.0000001
 44
0.0000000001
 40
0.0
 40
0.0
 40
0.0
 40
0.0
 40
0.2521579221
 40
0.5028363759
 40
0.7520884207
 40
1.0
 40
1.0
 40
1.0
 40
1.0
 10
9.749292364
 20
9.8999143814
 30
0.0
 10
9.7573830943
 20
9.8993532874
 30
0.0
 10
9.7735727755
 20
9.8989137918
 30
0.0
 10
9.7977498213
 20
9.9003263644
 30
0.0
 10
9.8215798091
 20
9.903801594
 30
0.0
 10
9.8371642766
 20
9.9074883745
 30
0.0
 10
9.8448348339
 20
9.9096656785
 30
0.0
  0
SPLINE
  5
37A
100
AcDbEntity
  8
0
100
AcDbSpline
 62
7
  6
CONTINUOUS
 70
0
 71
3
 72
15
 73
11
 74
0
 42
0.0000001
 43
0.0000001
 44
0.0000000001
 40
0.0
 40
0.0
 40
0.0
 40
0.0
 40
0.1232972121
 40
0.2469592636
 40
0.3710607395
 40
0.495666173
 40
0.6208287228
 40
0.7465890756
 40
0.8729748683
 40
1.0
 40
1.0
 40
1.0
 40
1.0
 10
9.8572109132
 20
6.1518933545
 30
0.0
 10
9.8532313175
 20
6.1495460288
 30
0.0
 10
9.8450742946
 20
6.1451520934
 30
0.0
 10
9.8323488798
 20
6.1395158742
 30
0.0
 10
9.8191824359
 20
6.1348538306
 30
0.0
 10
9.8056458951
 20
6.131191156
 30
0.0
 10
9.7918110116
 20
6.1285469942
 30
0.0
 10
9.7777510796
 20
6.1269352736
 30
0.0
 10
9.7635416974
 20
6.126364303
 30
0.0
 10
9.7540409487
 20
6.1266787664
 30
0.0
 10
9.749292364
 20
6.1270080819
 30
0.0
  0
SPLINE
  5
37B
100
AcDbEntity
  8
0
100
AcDbSpline
 62
7
  6
CONTINUOUS
 70
0
 71
3
 72
23
 73
19
 74
0
 42
0.0000001
 43
0.0000001
 44
0.0000000001
 40
0.0
 40
0.0
 40
0.0
 40
0.0
 40
0.0638102813
 40
0.1274139875
 40
0.1908103261
 40
0.2540040807
 40
0.31699969
 40
0.3798042552
 40
0.4424263664
 40
0.5048763741
 40
0.5671662311
 40
0.6293094021
 40
0.691320749
 40
0.7532163955
 40
0.81501358
 40
0.876730494
 40
0.93838611
 40
1.0
 40
1.0
 40
1.0
 40
1.0
 10
10.5977369155
 20
6.6000848719
 30
0.0
 10
10.6086155135
 20
6.5993304385
 30
0.0
 10
10.6303761835
 20
6.5983312082
 30
0.0
 10
10.6629958487
 20
6.5983703729
 30
0.0
 10
10.695472642
 20
6.5999499324
 30
0.0
 10
10.7277336581
 20
6.6030663148
 30
0.0
 10
10.7597080322
 20
6.6077128346
 30
0.0
 10
10.7913249532
 20
6.6138792196
 30
0.0
 10
10.8225145726
 20
6.621551947
 30
0.0
 10
10.8532079228
 20
6.6307141157
 30
0.0
 10
10.883337142
 20
6.641345525
 30
0.0
 10
10.9128356056
 20
6.6534227235
 30
0.0
 10
10.9416380712
 20
6.666919054
 30
0.0
 10
10.9696808477
 20
6.6818047337
 30
0.0
 10
10.9969018453
 20
6.6980468371
 30
0.0
 10
11.023241054
 20
6.7156096716
 30
0.0
 10
11.0486394153
 20
6.7344537224
 30
0.0
 10
11.0649126801
 20
6.7478476104
 30
0.0
 10
11.0728714101
 20
6.7547415525
 30
0.0
  0
SPLINE
  5
37C
100
AcDbEntity
  8
0
100
AcDbSpline
 62
7
  6
CONTINUOUS
 70
0
 71
3
 72
39
 73
35
 74
0
 42
0.0000001
 43
0.0000001
 44
0.0000000001
 40
0.0
 40
0.0
 40
0.0
 40
0.0
 40
0.0308461574
 40
0.06181576
 40
0.0929037543
 40
0.1241061302
 40
0.1554158372
 40
0.186825035
 40
0.2183244047
 40
0.2499035225
 40
0.2815509419
 40
0.3132543565
 40
0.3450007596
 40
0.3767766077
 40
0.4085679912
 40
0.4403608068
 40
0.4721409322
 40
0.5038944026
 40
0.5356075857
 40
0.5672673525
 40
0.5988612434
 40
0.6303776281
 40
0.6618058578
 40
0.6931364089
 40
0.7243610169
 40
0.7554727969
 40
0.7864663472
 40
0.8173378376
 40
0.8480850777
 40
0.8787075665
 40
0.9092065192
 40
0.9395848735
 40
0.9698472688
 40
1.0
 40
1.0
 40
1.0
 40
1.0
 10
9.749292364
 20
9.8999143814
 30
0.0
 10
9.7436757203
 20
9.900303897
 30
0.0
 10
9.7324400928
 20
9.9014138491
 30
0.0
 10
9.7156810288
 20
9.9040556091
 30
0.0
 10
9.6990371987
 20
9.9076687904
 30
0.0
 10
9.6825666275
 20
9.9122406446
 30
0.0
 10
9.6663255383
 20
9.9177555828
 30
0.0
 10
9.65036977
 20
9.9241945323
 30
0.0
 10
9.6347540533
 20
9.93153538
 30
0.0
 10
9.6195319839
 20
9.9397528798
 30
0.0
 10
9.6047557897
 20
9.9488187874
 30
0.0
 10
9.5904761688
 20
9.9587019529
 30
0.0
 10
9.5767421153
 20
9.9693684325
 30
0.0
 10
9.563600754
 20
9.9807816036
 30
0.0
 10
9.5510971803
 20
9.9929022894
 30
0.0
 10
9.5392743068
 20
10.0056888916
 30
0.0
 10
9.5281727186
 20
10.0190975329
 30
0.0
 10
9.5178305206
 20
10.0330821957
 30
0.0
 10
9.5082832173
 20
10.0475948898
 30
0.0
 10
9.4995635942
 20
10.0625858168
 30
0.0
 10
9.4917016055
 20
10.0780035395
 30
0.0
 10
9.4847242723
 20
10.0937951554
 30
0.0
 10
9.4786555899
 20
10.1099064769
 30
0.0
 10
9.4735164476
 20
10.126282215
 30
0.0
 10
9.4693245392
 20
10.1428661629
 30
0.0
 10
9.4660943128
 20
10.1596013932
 30
0.0
 10
9.4638369251
 20
10.1764304518
 30
0.0
 10
9.4625602015
 20
10.1932955542
 30
0.0
 10
9.4622686057
 20
10.2101387745
 30
0.0
 10
9.4629632299
 20
10.2269022674
 30
0.0
 10
9.4646417621
 20
10.2435283738
 30
0.0
 10
9.4672985808
 20
10.259960157
 30
0.0
 10
9.4709243843
 20
10.2761403517
 30
0.0
 10
9.4739852211
 20
10.286742567
 30
0.0
 10
9.4756726232
 20
10.2919810717
 30
0.0
  0
SPLINE
  5
37D
100
AcDbEntity
  8
0
100
AcDbSpline
 62
7
  6
CONTINUOUS
 70
0
 71
3
 72
23
 73
19
 74
0
 42
0.0000001
 43
0.0000001
 44
0.0000000001
 40
0.0
 40
0.0
 40
0.0
 40
0.0
 40
0.0637248852
 40
0.1272642738
 40
0.1906153037
 40
0.2537827118
 40
0.3167693191
 40
0.3795802431
 40
0.4422218246
 40
0.5047016102
 40
0.5670284252
 40
0.6292122478
 40
0.6912641686
 40
0.7531963056
 40
0.8150217111
 40
0.8767542744
 40
0.938408621
 40
1.0
 40
1.0
 40
1.0
 40
1.0
 10
10.6396705453
 20
6.6405896503
 30
0.0
 10
10.649505257
 20
6.6399076107
 30
0.0
 10
10.6691773984
 20
6.6389601255
 30
0.0
 10
10.6986739204
 20
6.6387951264
 30
0.0
 10
10.7280649403
 20
6.6398888776
 30
0.0
 10
10.7572963842
 20
6.6422392357
 30
0.0
 10
10.786315923
 20
6.6458421721
 30
0.0
 10
10.8150710105
 20
6.6506911607
 30
0.0
 10
10.8435097609
 20
6.6567774672
 30
0.0
 10
10.8715808134
 20
6.664090149
 30
0.0
 10
10.8992334606
 20
6.6726160526
 30
0.0
 10
10.9264177469
 20
6.6823398352
 30
0.0
 10
10.9530845706
 20
6.6932439334
 30
0.0
 10
10.9791857703
 20
6.7053086874
 30
0.0
 10
11.0046741385
 20
6.7185123081
 30
0.0
 10
11.029503773
 20
6.7328311178
 30
0.0
 10
11.0536291869
 20
6.7482387942
 30
0.0
 10
11.0692224669
 20
6.7592237323
 30
0.0
 10
11.0768852182
 20
6.7648867966
 30
0.0
  0
SPLINE
  5
37E
100
AcDbEntity
  8
0
100
AcDbSpline
 62
7
  6
CONTINUOUS
 70
0
 71
3
 72
23
 73
19
 74
0
 42
0.0000001
 43
0.0000001
 44
0.0000000001
 40
0.0
 40
0.0
 40
0.0
 40
0.0
 40
0.0616482102
 40
0.1233194434
 40
0.1850364728
 40
0.2468215621
 40
0.3086962116
 40
0.370680925
 40
0.4327950032
 40
0.4950563306
 40
0.5574811832
 40
0.6200840863
 40
0.6828775763
 40
0.7458723561
 40
0.8090769818
 40
0.8724965655
 40
0.9361390263
 40
1.0
 40
1.0
 40
1.0
 40
1.0
 10
9.7775646561
 20
5.9374724667
 30
0.0
 10
9.7742317052
 20
5.9342530846
 30
0.0
 10
9.7673899223
 20
5.9279911337
 30
0.0
 10
9.756635193
 20
5.9191615365
 30
0.0
 10
9.7454134592
 20
5.9109155523
 30
0.0
 10
9.7337533745
 20
5.9032743227
 30
0.0
 10
9.7216842074
 20
5.8962570163
 30
0.0
 10
9.7092364221
 20
5.8898812897
 30
0.0
 10
9.696441383
 20
5.884163164
 30
0.0
 10
9.6833313258
 20
5.879117028
 30
0.0
 10
9.6699392694
 20
5.87475559
 30
0.0
 10
9.6562989642
 20
5.8710897747
 30
0.0
 10
9.6424447675
 20
5.8681287545
 30
0.0
 10
9.628411541
 20
5.8658799642
 30
0.0
 10
9.6142347189
 20
5.8643490937
 30
0.0
 10
9.5999496684
 20
5.8635398033
 30
0.0
 10
9.5855930633
 20
5.8634542831
 30
0.0
 10
9.5760137213
 20
5.8638790759
 30
0.0
 10
9.5712250019
 20
5.8642111748
 30
0.0
  0
SPLINE
  5
37F
100
AcDbEntity
  8
0
100
AcDbSpline
 62
7
  6
CONTINUOUS
 70
0
 71
3
 72
39
 73
35
 74
0
 42
0.0000001
 43
0.0000001
 44
0.0000000001
 40
0.0
 40
0.0
 40
0.0
 40
0.0
 40
0.0310056836
 40
0.0621506876
 40
0.0934290457
 40
0.1248343575
 40
0.1563570069
 40
0.1879858949
 40
0.2197080213
 40
0.2515089249
 40
0.2833728618
 40
0.3152830837
 40
0.3472221046
 40
0.3791719817
 40
0.4111146005
 40
0.4430319616
 40
0.4749064666
 40
0.5067211985
 40
0.5384601949
 40
0.5701087107
 40
0.6016534658
 40
0.633082875
 40
0.6643872566
 40
0.6955590151
 40
0.7265927961
 40
0.7574856065
 40
0.7882368983
 40
0.8188486116
 40
0.8493251741
 40
0.8796734546
 40
0.9099026698
 40
0.9400242422
 40
0.9700516113
 40
1.0
 40
1.0
 40
1.0
 40
1.0
 10
9.749292364
 20
9.9907114145
 30
0.0
 10
9.7449553991
 20
9.991012184
 30
0.0
 10
9.7362792603
 20
9.9919025096
 30
0.0
 10
9.7233541815
 20
9.9940887884
 30
0.0
 10
9.7105426
 20
9.9971195227
 30
0.0
 10
9.6979014145
 20
10.0009811711
 30
0.0
 10
9.6854856999
 20
10.0056568616
 30
0.0
 10
9.673349864
 20
10.0111260003
 30
0.0
 10
9.6615469892
 20
10.0173646172
 30
0.0
 10
9.650128721
 20
10.0243453495
 30
0.0
 10
9.6391450152
 20
10.0320376128
 30
0.0
 10
9.6286439278
 20
10.0404077145
 30
0.0
 10
9.6186714064
 20
10.0494190076
 30
0.0
 10
9.609271089
 20
10.0590320464
 30
0.0
 10
9.6004841136
 20
10.0692047572
 30
0.0
 10
9.592348942
 20
10.0798926243
 30
0.0
 10
9.5849011923
 20
10.0910488827
 30
0.0
 10
9.5781734843
 20
10.1026247206
 30
0.0
 10
9.5721952977
 20
10.1145694911
 30
0.0
 10
9.5669928438
 20
10.1268309314
 30
0.0
 10
9.5625889506
 20
10.1393553889
 30
0.0
 10
9.559002963
 20
10.1520880534
 30
0.0
 10
9.5562506571
 20
10.1649731939
 30
0.0
 10
9.5543441708
 20
10.1779544004
 30
0.0
 10
9.5532919442
 20
10.190974827
 30
0.0
 10
9.5530986822
 20
10.2039774397
 30
0.0
 10
9.5537653326
 20
10.2169052642
 30
0.0
 10
9.5552890788
 20
10.2297016346
 30
0.0
 10
9.5576633442
 20
10.2423104347
 30
0.0
 10
9.5608778303
 20
10.2546763661
 30
0.0
 10
9.5649185052
 20
10.2667451096
 30
0.0
 10
9.5697678524
 20
10.2784638671
 30
0.0
 10
9.575404229
 20
10.2897804762
 30
0.0
 10
9.5796759817
 20
10.297033565
 30
0.0
 10
9.5819332483
 20
10.3005743965
 30
0.0
  0
SPLINE
  5
380
100
AcDbEntity
  8
0
100
AcDbSpline
 62
7
  6
CONTINUOUS
 70
0
 71
3
 72
24
 73
20
 74
0
 42
0.0000001
 43
0.0000001
 44
0.0000000001
 40
0.0
 40
0.0
 40
0.0
 40
0.0
 40
0.063822185
 40
0.1274344949
 40
0.1908364594
 40
0.2540328776
 40
0.3170284989
 40
0.3798307501
 40
0.4424486339
 40
0.504892988
 40
0.5671763115
 40
0.6293126742
 40
0.6913175888
 40
0.7532078662
 40
0.8150014572
 40
0.876717278
 40
0.9075546635
 40
0.9383800462
 40
1.0
 40
1.0
 40
1.0
 40
1.0
 10
10.651705621
 20
6.697130195
 30
0.0
 10
10.6620352217
 20
6.6964138348
 30
0.0
 10
10.6826977998
 20
6.695472322
 30
0.0
 10
10.7136700315
 20
6.695542628
 30
0.0
 10
10.7445024664
 20
6.6970976927
 30
0.0
 10
10.775123809
 20
6.7001339206
 30
0.0
 10
10.8054647236
 20
6.7046445816
 30
0.0
 10
10.8354559776
 20
6.7106194062
 30
0.0
 10
10.8650292924
 20
6.7180448871
 30
0.0
 10
10.8941172813
 20
6.7269041707
 30
0.0
 10
10.9226536654
 20
6.737177137
 30
0.0
 10
10.9505734237
 20
6.7488404362
 30
0.0
 10
10.9778128978
 20
6.7618675223
 30
0.0
 10
11.0043101029
 20
6.7762288296
 30
0.0
 10
11.0300042584
 20
6.791891393
 30
0.0
 10
11.0507046906
 20
6.8060027853
 30
0.0
 10
11.0668020804
 20
6.8179033156
 30
0.0
 10
11.0825780078
 20
6.8302008676
 30
0.0
 10
11.0940515343
 20
6.8398736053
 30
0.0
 10
11.1015276463
 20
6.846510641
 30
0.0
  0
SPLINE
  5
381
100
AcDbEntity
  8
0
100
AcDbSpline
 62
7
  6
CONTINUOUS
 70
0
 71
3
 72
63
 73
59
 74
0
 42
0.0000001
 43
0.0000001
 44
0.0000000001
 40
0.0
 40
0.0
 40
0.0
 40
0.0
 40
0.0452104164
 40
0.091001473
 40
0.1371893149
 40
0.1835869879
 40
0.2300069161
 40
0.2762613042
 40
0.3221632232
 40
0.3675275614
 40
0.4121719928
 40
0.4559179565
 40
0.4985916636
 40
0.5400251213
 40
0.5800571859
 40
0.599499812
 40
0.6185353704
 40
0.6371461356
 40
0.6553150964
 40
0.6730258996
 40
0.6902629631
 40
0.7070115384
 40
0.7232576947
 40
0.7389885091
 40
0.7541920343
 40
0.7688574413
 40
0.7829751581
 40
0.7965368909
 40
0.8095359103
 40
0.8219671237
 40
0.8338273274
 40
0.8451155371
 40
0.8558331982
 40
0.8659847405
 40
0.8755780031
 40
0.8846248863
 40
0.8931422238
 40
0.9011526208
 40
0.9086857061
 40
0.9157793339
 40
0.9224808562
 40
0.9288482642
 40
0.9349505823
 40
0.9379282795
 40
0.9408703116
 40
0.9437879136
 40
0.9466926229
 40
0.9495961458
 40
0.9525102055
 40
0.9554463841
 40
0.9584159889
 40
0.9614299111
 40
0.964498516
 40
0.9708358231
 40
0.9775007751
 40
0.9845524732
 40
0.9920392909
 40
1.0
 40
1.0
 40
1.0
 40
1.0
 10
12.74549518
 20
9.5209785562
 30
0.0
 10
12.74549518
 20
9.5065337081
 30
0.0
 10
12.7452375641
 20
9.4774579109
 30
0.0
 10
12.744101611
 20
9.4336383171
 30
0.0
 10
12.7422179916
 20
9.3894647216
 30
0.0
 10
12.7395947459
 20
9.3451276597
 30
0.0
 10
12.7362431801
 20
9.3008183687
 30
0.0
 10
12.7321777501
 20
9.2567279112
 30
0.0
 10
12.7274160374
 20
9.2130464073
 30
0.0
 10
12.7219786502
 20
9.1699622
 30
0.0
 10
12.7158891429
 20
9.1276610284
 30
0.0
 10
12.7091739084
 20
9.0863252403
 30
0.0
 10
12.7018620938
 20
9.0461329078
 30
0.0
 10
12.6939854225
 20
9.0072573302
 30
0.0
 10
12.6869124538
 20
8.9757993396
 30
0.0
 10
12.6809860922
 20
8.9514247243
 30
0.0
 10
12.6764651609
 20
8.9337533224
 30
0.0
 10
12.6718297728
 20
8.9165326689
 30
0.0
 10
12.6670849512
 20
8.8997812998
 30
0.0
 10
12.6622358128
 20
8.8835172701
 30
0.0
 10
12.6572875999
 20
8.8677580954
 30
0.0
 10
12.652245693
 20
8.8525207382
 30
0.0
 10
12.647115503
 20
8.8378216021
 30
0.0
 10
12.6419026177
 20
8.8236764861
 30
0.0
 10
12.6366126547
 20
8.810100592
 30
0.0
 10
12.6312513182
 20
8.7971084957
 30
0.0
 10
12.6258244345
 20
8.7847141147
 30
0.0
 10
12.6203378046
 20
8.7729307283
 30
0.0
 10
12.6147973721
 20
8.7617709089
 30
0.0
 10
12.6092090704
 20
8.7512465453
 30
0.0
 10
12.6035788444
 20
8.7413688208
 30
0.0
 10
12.5979127212
 20
8.7321481548
 30
0.0
 10
12.5922166039
 20
8.7235942713
 30
0.0
 10
12.5864964423
 20
8.7157160974
 30
0.0
 10
12.580758063
 20
8.7085218198
 30
0.0
 10
12.5750071194
 20
8.7020189191
 30
0.0
 10
12.5692491742
 20
8.6962140964
 30
0.0
 10
12.5634894309
 20
8.6911135248
 30
0.0
 10
12.5577328818
 20
8.6867228198
 30
0.0
 10
12.5519843302
 20
8.6830473134
 30
0.0
 10
12.5462481941
 20
8.6800923888
 30
0.0
 10
12.5405302142
 20
8.6778634445
 30
0.0
 10
12.5357443744
 20
8.67660545
 30
0.0
 10
12.5319525517
 20
8.6759788754
 30
0.0
 10
12.5291412511
 20
8.6756955084
 30
0.0
 10
12.5263408531
 20
8.6755952083
 30
0.0
 10
12.5235521432
 20
8.6756780005
 30
0.0
 10
12.5207760484
 20
8.6759439489
 30
0.0
 10
12.5180134552
 20
8.6763929046
 30
0.0
 10
12.5152652275
 20
8.6770246716
 30
0.0
 10
12.5125322437
 20
8.6778390304
 30
0.0
 10
12.5098152506
 20
8.6788356945
 30
0.0
 10
12.5061765103
 20
8.680423738
 30
0.0
 10
12.5016577624
 20
8.6828864729
 30
0.0
 10
12.4963763754
 20
8.6865321387
 30
0.0
 10
12.4911810624
 20
8.6908940671
 30
0.0
 10
12.4860765342
 20
8.6959657273
 30
0.0
 10
12.4828394499
 20
8.6996975763
 30
0.0
 10
12.4812346072
 20
8.7016708243
 30
0.0
  0
SPLINE
  5
382
100
AcDbEntity
  8
0
100
AcDbSpline
 62
7
  6
CONTINUOUS
 70
0
 71
3
 72
71
 73
67
 74
0
 42
0.0000001
 43
0.0000001
 44
0.0000000001
 40
0.0
 40
0.0
 40
0.0
 40
0.0
 40
0.0156748403
 40
0.0314021535
 40
0.0471806586
 40
0.0630088905
 40
0.0788847443
 40
0.0948057528
 40
0.1107690088
 40
0.1267712322
 40
0.1428087901
 40
0.1588777349
 40
0.1749738405
 40
0.1910926412
 40
0.207229472
 40
0.2233795101
 40
0.2395378174
 40
0.2556993839
 40
0.2718591711
 40
0.2880121559
 40
0.3041533746
 40
0.320277966
 40
0.3363812145
 40
0.3524585915
 40
0.3685057964
 40
0.3845187958
 40
0.400493861
 40
0.4164276032
 40
0.4323170069
 40
0.4481594601
 40
0.4639527818
 40
0.4796952459
 40
0.4953856017
 40
0.5110230906
 40
0.5266074577
 40
0.5421389599
 40
0.5576183684
 40
0.5730469665
 40
0.5884265418
 40
0.6037593735
 40
0.6190482137
 40
0.634296264
 40
0.6495071459
 40
0.6646848666
 40
0.6798337801
 40
0.6949585433
 40
0.7100640686
 40
0.7251554727
 40
0.7402380227
 40
0.7553170804
 40
0.770398045
 40
0.7854862952
 40
0.8005871318
 40
0.8157057214
 40
0.830847042
 40
0.8460158304
 40
0.8612165346
 40
0.8764532678
 40
0.891729769
 40
0.9070493656
 40
0.9224149468
 40
0.9378289258
 40
0.9532932572
 40
0.9688093183
 40
0.9843781544
 40
1.0
 40
1.0
 40
1.0
 40
1.0
 10
10.3565227389
 20
8.2100764236
 30
0.0
 10
10.3436687645
 20
8.2109678497
 30
0.0
 10
10.3179571561
 20
8.213384231
 30
0.0
 10
10.2795516626
 20
8.2188837864
 30
0.0
 10
10.2413311609
 20
8.2262514906
 30
0.0
 10
10.2033889642
 20
8.2354693411
 30
0.0
 10
10.1658160332
 20
8.2465151616
 30
0.0
 10
10.1287029309
 20
8.2593622403
 30
0.0
 10
10.0921389623
 20
8.2739796046
 30
0.0
 10
10.056212145
 20
8.2903319977
 30
0.0
 10
10.0210089484
 20
8.3083800066
 30
0.0
 10
9.9866141
 20
8.3280801395
 30
0.0
 10
9.9531103793
 20
8.3493849372
 30
0.0
 10
9.9205784206
 20
8.3722430849
 30
0.0
 10
9.8890965198
 20
8.3965995359
 30
0.0
 10
9.8587404468
 20
8.4223956437
 30
0.0
 10
9.8295832646
 20
8.4495693028
 30
0.0
 10
9.8016951537
 20
8.4780550973
 30
0.0
 10
9.7751432442
 20
8.5077844579
 30
0.0
 10
9.7499914539
 20
8.5386858252
 30
0.0
 10
9.726300336
 20
8.5706848224
 30
0.0
 10
9.7041269339
 20
8.6037044335
 30
0.0
 10
9.6835246442
 20
8.6376651875
 30
0.0
 10
9.664543089
 20
8.6724853487
 30
0.0
 10
9.6472279963
 20
8.7080811128
 30
0.0
 10
9.6316210903
 20
8.7443668066
 30
0.0
 10
9.6177599913
 20
8.781255094
 30
0.0
 10
9.6056781245
 20
8.8186571842
 30
0.0
 10
9.5954046396
 20
8.8564830445
 30
0.0
 10
9.5869643402
 20
8.8946416154
 30
0.0
 10
9.5803776231
 20
8.9330410289
 30
0.0
 10
9.575660429
 20
8.9715888277
 30
0.0
 10
9.5728242021
 20
9.010192187
 30
0.0
 10
9.571875862
 20
9.0487581368
 30
0.0
 10
9.5728177849
 20
9.0871937841
 30
0.0
 10
9.5756477948
 20
9.1254065369
 30
0.0
 10
9.5803591683
 20
9.1633043257
 30
0.0
 10
9.5869406485
 20
9.2007958256
 30
0.0
 10
9.5953764696
 20
9.2377906758
 30
0.0
 10
9.6056463927
 20
9.274199698
 30
0.0
 10
9.6177257524
 20
9.3099351116
 30
0.0
 10
9.6315855133
 20
9.344910747
 30
0.0
 10
9.6471923384
 20
9.3790422542
 30
0.0
 10
9.6645086672
 20
9.4122473086
 30
0.0
 10
9.6834928048
 20
9.4444458113
 30
0.0
 10
9.7040990215
 20
9.4755600855
 30
0.0
 10
9.7262776623
 20
9.5055150657
 30
0.0
 10
9.7499752661
 20
9.5342384826
 30
0.0
 10
9.7751346961
 20
9.5616610392
 30
0.0
 10
9.8016952776
 20
9.5877165815
 30
0.0
 10
9.8295929467
 20
9.6123422601
 30
0.0
 10
9.8587604053
 20
9.635478685
 30
0.0
 10
9.8891272874
 20
9.6570700698
 30
0.0
 10
9.9206203313
 20
9.6770643669
 30
0.0
 10
9.953163559
 20
9.695413394
 30
0.0
 10
9.9866784628
 20
9.71207295
 30
0.0
 10
10.0210841969
 20
9.727002921
 30
0.0
 10
10.056297775
 20
9.7401673764
 30
0.0
 10
10.0922342726
 20
9.7515346523
 30
0.0
 10
10.1288070367
 20
9.7610774315
 30
0.0
 10
10.1659278821
 20
9.7687727918
 30
0.0
 10
10.2035073589
 20
9.7746022954
 30
0.0
 10
10.2414547782
 20
9.7785519564
 30
0.0
 10
10.2796790815
 20
9.7806123955
 30
0.0
 10
10.3180868915
 20
9.780778739
 30
0.0
 10
10.3437122222
 20
9.7796285058
 30
0.0
 10
10.3565227389
 20
9.7787400934
 30
0.0
  0
SPLINE
  5
383
100
AcDbEntity
  8
0
100
AcDbSpline
 62
7
  6
CONTINUOUS
 70
0
 71
3
 72
15
 73
11
 74
0
 42
0.0000001
 43
0.0000001
 44
0.0000000001
 40
0.0
 40
0.0
 40
0.0
 40
0.0
 40
0.1232972121
 40
0.2469592636
 40
0.3710607395
 40
0.495666173
 40
0.6208287228
 40
0.7465890756
 40
0.8729748683
 40
1.0
 40
1.0
 40
1.0
 40
1.0
 10
9.8572109132
 20
8.0837451504
 30
0.0
 10
9.8532313175
 20
8.0813978246
 30
0.0
 10
9.8450742946
 20
8.0770038892
 30
0.0
 10
9.8323488798
 20
8.0713676701
 30
0.0
 10
9.8191824359
 20
8.0667056264
 30
0.0
 10
9.8056458951
 20
8.0630429518
 30
0.0
 10
9.7918110116
 20
8.0603987901
 30
0.0
 10
9.7777510796
 20
8.0587870694
 30
0.0
 10
9.7635416974
 20
8.0582160988
 30
0.0
 10
9.7540409487
 20
8.0585305623
 30
0.0
 10
9.749292364
 20
8.0588598777
 30
0.0
  0
SPLINE
  5
384
100
AcDbEntity
  8
0
100
AcDbSpline
 62
7
  6
CONTINUOUS
 70
0
 71
3
 72
11
 73
7
 74
0
 42
0.0000001
 43
0.0000001
 44
0.0000000001
 40
0.0
 40
0.0
 40
0.0
 40
0.0
 40
0.2515872234
 40
0.5021021677
 40
0.7515632329
 40
1.0
 40
1.0
 40
1.0
 40
1.0
 10
10.9631940847
 20
6.9980049645
 30
0.0
 10
10.9765003908
 20
6.997082169
 30
0.0
 10
11.0031198543
 20
6.9960513164
 30
0.0
 10
11.0429791744
 20
6.9969696066
 30
0.0
 10
11.0825379661
 20
7.0003515289
 30
0.0
 10
11.1086662928
 20
7.0042490568
 30
0.0
 10
11.1216252493
 20
7.0066042645
 30
0.0
  0
SPLINE
  5
385
100
AcDbEntity
  8
0
100
AcDbSpline
 62
7
  6
CONTINUOUS
 70
0
 71
3
 72
11
 73
7
 74
0
 42
0.0000001
 43
0.0000001
 44
0.0000000001
 40
0.0
 40
0.0
 40
0.0
 40
0.0
 40
0.2515704794
 40
0.502080522
 40
0.7515474594
 40
1.0
 40
1.0
 40
1.0
 40
1.0
 10
10.9731379845
 20
7.0447212068
 30
0.0
 10
10.9855501514
 20
7.0438604201
 30
0.0
 10
11.0103807443
 20
7.0428906706
 30
0.0
 10
11.047563684
 20
7.0437100663
 30
0.0
 10
11.0844722902
 20
7.0468028485
 30
0.0
 10
11.1088557219
 20
7.0503808263
 30
0.0
 10
11.1209514061
 20
7.0525450401
 30
0.0
  0
SPLINE
  5
386
100
AcDbEntity
  8
0
100
AcDbSpline
 62
7
  6
CONTINUOUS
 70
0
 71
3
 72
23
 73
19
 74
0
 42
0.0000001
 43
0.0000001
 44
0.0000000001
 40
0.0
 40
0.0
 40
0.0
 40
0.0
 40
0.0616482102
 40
0.1233194434
 40
0.1850364728
 40
0.2468215621
 40
0.3086962116
 40
0.370680925
 40
0.4327950032
 40
0.4950563306
 40
0.5574811832
 40
0.6200840863
 40
0.6828775763
 40
0.7458723561
 40
0.8090769818
 40
0.8724965655
 40
0.9361390263
 40
1.0
 40
1.0
 40
1.0
 40
1.0
 10
9.7775646561
 20
7.8693242625
 30
0.0
 10
9.7742317052
 20
7.8661048805
 30
0.0
 10
9.7673899223
 20
7.8598429295
 30
0.0
 10
9.756635193
 20
7.8510133323
 30
0.0
 10
9.7454134592
 20
7.8427673482
 30
0.0
 10
9.7337533745
 20
7.8351261186
 30
0.0
 10
9.7216842074
 20
7.8281088121
 30
0.0
 10
9.7092364221
 20
7.8217330855
 30
0.0
 10
9.696441383
 20
7.8160149599
 30
0.0
 10
9.6833313258
 20
7.8109688238
 30
0.0
 10
9.6699392694
 20
7.8066073858
 30
0.0
 10
9.6562989642
 20
7.8029415705
 30
0.0
 10
9.6424447675
 20
7.7999805503
 30
0.0
 10
9.628411541
 20
7.7977317601
 30
0.0
 10
9.6142347189
 20
7.7962008895
 30
0.0
 10
9.5999496684
 20
7.7953915991
 30
0.0
 10
9.5855930633
 20
7.795306079
 30
0.0
 10
9.5760137213
 20
7.7957308718
 30
0.0
 10
9.5712250019
 20
7.7960629706
 30
0.0
  0
SPLINE
  5
387
100
AcDbEntity
  8
0
100
AcDbSpline
 62
7
  6
CONTINUOUS
 70
0
 71
3
 72
11
 73
7
 74
0
 42
0.0000001
 43
0.0000001
 44
0.0000000001
 40
0.0
 40
0.0
 40
0.0
 40
0.0
 40
0.2515261278
 40
0.5020231219
 40
0.751505513
 40
1.0
 40
1.0
 40
1.0
 40
1.0
 10
10.9788113735
 20
7.0589715875
 30
0.0
 10
10.9906939932
 20
7.0581475251
 30
0.0
 10
11.014464899
 20
7.0571984722
 30
0.0
 10
11.0500664817
 20
7.0578887783
 30
0.0
 10
11.0854203313
 20
7.0606929188
 30
0.0
 10
11.1087903165
 20
7.0639722791
 30
0.0
 10
11.1203886098
 20
7.0659612193
 30
0.0
  0
SPLINE
  5
388
100
AcDbEntity
  8
0
100
AcDbSpline
 62
7
  6
CONTINUOUS
 70
0
 71
3
 72
71
 73
67
 74
0
 42
0.0000001
 43
0.0000001
 44
0.0000000001
 40
0.0
 40
0.0
 40
0.0
 40
0.0
 40
0.0156218337
 40
0.0311906886
 40
0.0467067398
 40
0.062171075
 40
0.0775850527
 40
0.0929506342
 40
0.1082702306
 40
0.1235467319
 40
0.1387834652
 40
0.1539841695
 40
0.1691529582
 40
0.184294279
 40
0.1994128688
 40
0.2145137055
 40
0.2296019556
 40
0.24468292
 40
0.2597619775
 40
0.2748445272
 40
0.289935931
 40
0.3050414561
 40
0.3201662191
 40
0.3353151325
 40
0.3504928533
 40
0.3657037354
 40
0.380951786
 40
0.3962406266
 40
0.4115734587
 40
0.4269530343
 40
0.4423816326
 40
0.4578610411
 40
0.4733925431
 40
0.4889769099
 40
0.5046143983
 40
0.5203047537
 40
0.5360472175
 40
0.551840539
 40
0.5676829922
 40
0.5835723961
 40
0.5995061386
 40
0.6154812042
 40
0.631494204
 40
0.6475414091
 40
0.6636187862
 40
0.6797220346
 40
0.6958466259
 40
0.7119878443
 40
0.7281408288
 40
0.7443006157
 40
0.760462182
 40
0.7766204893
 40
0.7927705276
 40
0.8089073586
 40
0.8250261595
 40
0.8411222653
 40
0.8571912102
 40
0.8732287681
 40
0.8892309915
 40
0.9051942473
 40
0.9211152561
 40
0.9369911085
 40
0.9528193442
 40
0.9685978395
 40
0.9843251716
 40
1.0
 40
1.0
 40
1.0
 40
1.0
 10
10.3619373139
 20
6.3036622212
 30
0.0
 10
10.3744177716
 20
6.3027966985
 30
0.0
 10
10.3993828981
 20
6.3016761031
 30
0.0
 10
10.4368011689
 20
6.3018381541
 30
0.0
 10
10.4740406728
 20
6.3038455173
 30
0.0
 10
10.511010411
 20
6.3076934148
 30
0.0
 10
10.5476216938
 20
6.3133727302
 30
0.0
 10
10.583786159
 20
6.3208698256
 30
0.0
 10
10.6194166647
 20
6.330166744
 30
0.0
 10
10.6544272969
 20
6.3412411517
 30
0.0
 10
10.6887336353
 20
6.3540664365
 30
0.0
 10
10.722252943
 20
6.3686117503
 30
0.0
 10
10.7549043717
 20
6.3848420889
 30
0.0
 10
10.786609158
 20
6.4027183725
 30
0.0
 10
10.8172908158
 20
6.4221975394
 30
0.0
 10
10.8468753243
 20
6.443232649
 30
0.0
 10
10.8752913102
 20
6.4657729927
 30
0.0
 10
10.9024702214
 20
6.48976422
 30
0.0
 10
10.9283464951
 20
6.5151484701
 30
0.0
 10
10.952857718
 20
6.5418645131
 30
0.0
 10
10.9759447788
 20
6.5698478996
 30
0.0
 10
10.9975520126
 20
6.5990311186
 30
0.0
 10
11.0176273356
 20
6.6293437631
 30
0.0
 10
11.0361223715
 20
6.6607127023
 30
0.0
 10
11.0529925681
 20
6.6930622608
 30
0.0
 10
11.0681973039
 20
6.7263144042
 30
0.0
 10
11.0816999851
 20
6.7603889288
 30
0.0
 10
11.093468132
 20
6.7952036583
 30
0.0
 10
11.1034734571
 20
6.8306746424
 30
0.0
 10
11.111691932
 20
6.8667163612
 30
0.0
 10
11.1181038404
 20
6.9032419335
 30
0.0
 10
11.1226938241
 20
6.9401633263
 30
0.0
 10
11.1254509174
 20
6.9773915674
 30
0.0
 10
11.1263685709
 20
7.0148369598
 30
0.0
 10
11.1254446655
 20
7.0524092973
 30
0.0
 10
11.1226815155
 20
7.0900180809
 30
0.0
 10
11.1180858611
 20
7.1275727361
 30
0.0
 10
11.1116688507
 20
7.1649828296
 30
0.0
 10
11.1034460128
 20
7.2021582864
 30
0.0
 10
11.0934372177
 20
7.2390096047
 30
0.0
 10
11.0816666282
 20
7.2754480704
 30
0.0
 10
11.0681626434
 20
7.3113859699
 30
0.0
 10
11.0529578289
 20
7.3467368
 30
0.0
 10
11.0360888365
 20
7.3814154747
 30
0.0
 10
11.0175963165
 20
7.4153385287
 30
0.0
 10
10.9975248194
 20
7.448424317
 30
0.0
 10
10.9759226893
 20
7.4805932103
 30
0.0
 10
10.9528419473
 20
7.5117677854
 30
0.0
 10
10.9283381673
 20
7.541873011
 30
0.0
 10
10.9024703422
 20
7.570836427
 30
0.0
 10
10.8753007428
 20
7.5985883179
 30
0.0
 10
10.8468947685
 20
7.6250618802
 30
0.0
 10
10.8173207908
 20
7.6501933821
 30
0.0
 10
10.7866499889
 20
7.6739223165
 30
0.0
 10
10.7549561813
 20
7.696191548
 30
0.0
 10
10.7223156476
 20
7.7169474487
 30
0.0
 10
10.688806945
 20
7.7361400264
 30
0.0
 10
10.6545107207
 20
7.7537230451
 30
0.0
 10
10.6195095194
 20
7.7696541339
 30
0.0
 10
10.5838875826
 20
7.7838948961
 30
0.0
 10
10.5477306609
 20
7.7964109813
 30
0.0
 10
10.5111257556
 20
7.8071722208
 30
0.0
 10
10.4741611047
 20
7.8161525778
 30
0.0
 10
10.4369253056
 20
7.8233304711
 30
0.0
 10
10.3995092906
 20
7.8286883292
 30
0.0
 10
10.3744601097
 20
7.831042459
 30
0.0
 10
10.3619373139
 20
7.8319109178
 30
0.0
  0
SPLINE
  5
389
100
AcDbEntity
  8
0
100
AcDbSpline
 62
7
  6
CONTINUOUS
 70
0
 71
3
 72
11
 73
7
 74
0
 42
0.0000001
 43
0.0000001
 44
0.0000000001
 40
0.0
 40
0.0
 40
0.0
 40
0.0
 40
0.2521579221
 40
0.5028363759
 40
0.7520884207
 40
1.0
 40
1.0
 40
1.0
 40
1.0
 10
11.4396625738
 20
9.7826868092
 30
0.0
 10
11.4477533041
 20
9.7821257152
 30
0.0
 10
11.4639429853
 20
9.7816862196
 30
0.0
 10
11.4881200311
 20
9.7830987922
 30
0.0
 10
11.5119500189
 20
9.7865740218
 30
0.0
 10
11.5275344864
 20
9.7902608023
 30
0.0
 10
11.5352050437
 20
9.7924381063
 30
0.0
  0
SPLINE
  5
38A
100
AcDbEntity
  8
0
100
AcDbSpline
 62
7
  6
CONTINUOUS
 70
0
 71
3
 72
39
 73
35
 74
0
 42
0.0000001
 43
0.0000001
 44
0.0000000001
 40
0.0
 40
0.0
 40
0.0
 40
0.0
 40
0.0308461574
 40
0.06181576
 40
0.0929037543
 40
0.1241061302
 40
0.1554158372
 40
0.186825035
 40
0.2183244047
 40
0.2499035225
 40
0.2815509419
 40
0.3132543565
 40
0.3450007596
 40
0.3767766077
 40
0.4085679912
 40
0.4403608068
 40
0.4721409322
 40
0.5038944026
 40
0.5356075857
 40
0.5672673525
 40
0.5988612434
 40
0.6303776281
 40
0.6618058578
 40
0.6931364089
 40
0.7243610169
 40
0.7554727969
 40
0.7864663472
 40
0.8173378376
 40
0.8480850777
 40
0.8787075665
 40
0.9092065192
 40
0.9395848735
 40
0.9698472688
 40
1.0
 40
1.0
 40
1.0
 40
1.0
 10
11.4396625738
 20
9.7826868092
 30
0.0
 10
11.4340459301
 20
9.7830763248
 30
0.0
 10
11.4228103026
 20
9.7841862769
 30
0.0
 10
11.4060512386
 20
9.7868280369
 30
0.0
 10
11.3894074085
 20
9.7904412182
 30
0.0
 10
11.3729368373
 20
9.7950130724
 30
0.0
 10
11.3566957481
 20
9.8005280106
 30
0.0
 10
11.3407399798
 20
9.8069669601
 30
0.0
 10
11.3251242631
 20
9.8143078078
 30
0.0
 10
11.3099021937
 20
9.8225253076
 30
0.0
 10
11.2951259995
 20
9.8315912152
 30
0.0
 10
11.2808463786
 20
9.8414743807
 30
0.0
 10
11.2671123251
 20
9.8521408603
 30
0.0
 10
11.2539709638
 20
9.8635540314
 30
0.0
 10
11.2414673901
 20
9.8756747172
 30
0.0
 10
11.2296445166
 20
9.8884613194
 30
0.0
 10
11.2185429284
 20
9.9018699607
 30
0.0
 10
11.2082007304
 20
9.9158546235
 30
0.0
 10
11.1986534271
 20
9.9303673176
 30
0.0
 10
11.189933804
 20
9.9453582446
 30
0.0
 10
11.1820718153
 20
9.9607759672
 30
0.0
 10
11.1750944821
 20
9.9765675832
 30
0.0
 10
11.1690257997
 20
9.9926789047
 30
0.0
 10
11.1638866574
 20
10.0090546428
 30
0.0
 10
11.159694749
 20
10.0256385907
 30
0.0
 10
11.1564645226
 20
10.042373821
 30
0.0
 10
11.1542071349
 20
10.0592028796
 30
0.0
 10
11.1529304113
 20
10.076067982
 30
0.0
 10
11.1526388155
 20
10.0929112023
 30
0.0
 10
11.1533334397
 20
10.1096746951
 30
0.0
 10
11.1550119719
 20
10.1263008016
 30
0.0
 10
11.1576687906
 20
10.1427325848
 30
0.0
 10
11.1612945941
 20
10.1589127795
 30
0.0
 10
11.1643554309
 20
10.1695149948
 30
0.0
 10
11.166042833
 20
10.1747534995
 30
0.0
  0
SPLINE
  5
38B
100
AcDbEntity
  8
0
100
AcDbSpline
 62
7
  6
CONTINUOUS
 70
0
 71
3
 72
39
 73
35
 74
0
 42
0.0000001
 43
0.0000001
 44
0.0000000001
 40
0.0
 40
0.0
 40
0.0
 40
0.0
 40
0.0310056836
 40
0.0621506876
 40
0.0934290457
 40
0.1248343575
 40
0.1563570069
 40
0.1879858949
 40
0.2197080213
 40
0.2515089249
 40
0.2833728618
 40
0.3152830837
 40
0.3472221046
 40
0.3791719817
 40
0.4111146005
 40
0.4430319616
 40
0.4749064666
 40
0.5067211985
 40
0.5384601949
 40
0.5701087107
 40
0.6016534658
 40
0.633082875
 40
0.6643872566
 40
0.6955590151
 40
0.7265927961
 40
0.7574856065
 40
0.7882368983
 40
0.8188486116
 40
0.8493251741
 40
0.8796734546
 40
0.9099026698
 40
0.9400242422
 40
0.9700516113
 40
1.0
 40
1.0
 40
1.0
 40
1.0
 10
11.4396625738
 20
9.8734838423
 30
0.0
 10
11.4353256089
 20
9.8737846118
 30
0.0
 10
11.4266494701
 20
9.8746749374
 30
0.0
 10
11.4137243913
 20
9.8768612162
 30
0.0
 10
11.4009128098
 20
9.8798919505
 30
0.0
 10
11.3882716243
 20
9.8837535989
 30
0.0
 10
11.3758559097
 20
9.8884292894
 30
0.0
 10
11.3637200738
 20
9.8938984281
 30
0.0
 10
11.351917199
 20
9.900137045
 30
0.0
 10
11.3404989308
 20
9.9071177773
 30
0.0
 10
11.329515225
 20
9.9148100406
 30
0.0
 10
11.3190141376
 20
9.9231801423
 30
0.0
 10
11.3090416162
 20
9.9321914354
 30
0.0
 10
11.2996412988
 20
9.9418044742
 30
0.0
 10
11.2908543234
 20
9.951977185
 30
0.0
 10
11.2827191518
 20
9.9626650521
 30
0.0
 10
11.2752714021
 20
9.9738213105
 30
0.0
 10
11.2685436941
 20
9.9853971484
 30
0.0
 10
11.2625655075
 20
9.9973419189
 30
0.0
 10
11.2573630536
 20
10.0096033592
 30
0.0
 10
11.2529591604
 20
10.0221278167
 30
0.0
 10
11.2493731728
 20
10.0348604811
 30
0.0
 10
11.2466208669
 20
10.0477456217
 30
0.0
 10
11.2447143806
 20
10.0607268282
 30
0.0
 10
11.243662154
 20
10.0737472548
 30
0.0
 10
11.243468892
 20
10.0867498675
 30
0.0
 10
11.2441355424
 20
10.099677692
 30
0.0
 10
11.2456592886
 20
10.1124740624
 30
0.0
 10
11.248033554
 20
10.1250828625
 30
0.0
 10
11.2512480401
 20
10.1374487939
 30
0.0
 10
11.255288715
 20
10.1495175374
 30
0.0
 10
11.2601380622
 20
10.1612362949
 30
0.0
 10
11.2657744388
 20
10.172552904
 30
0.0
 10
11.2700461915
 20
10.1798059928
 30
0.0
 10
11.2723034581
 20
10.1833468243
 30
0.0
  0
SPLINE
  5
38C
100
AcDbEntity
  8
0
100
AcDbSpline
 62
7
  6
CONTINUOUS
 70
0
 71
3
 72
71
 73
67
 74
0
 42
0.0000001
 43
0.0000001
 44
0.0000000001
 40
0.0
 40
0.0
 40
0.0
 40
0.0
 40
0.0156748403
 40
0.0314021535
 40
0.0471806586
 40
0.0630088905
 40
0.0788847443
 40
0.0948057528
 40
0.1107690088
 40
0.1267712322
 40
0.1428087901
 40
0.1588777349
 40
0.1749738405
 40
0.1910926412
 40
0.207229472
 40
0.2233795101
 40
0.2395378174
 40
0.2556993839
 40
0.2718591711
 40
0.2880121559
 40
0.3041533746
 40
0.320277966
 40
0.3363812145
 40
0.3524585915
 40
0.3685057964
 40
0.3845187958
 40
0.400493861
 40
0.4164276032
 40
0.4323170069
 40
0.4481594601
 40
0.4639527818
 40
0.4796952459
 40
0.4953856017
 40
0.5110230906
 40
0.5266074577
 40
0.5421389599
 40
0.5576183684
 40
0.5730469665
 40
0.5884265418
 40
0.6037593735
 40
0.6190482137
 40
0.634296264
 40
0.6495071459
 40
0.6646848666
 40
0.6798337801
 40
0.6949585433
 40
0.7100640686
 40
0.7251554727
 40
0.7402380227
 40
0.7553170804
 40
0.770398045
 40
0.7854862952
 40
0.8005871318
 40
0.8157057214
 40
0.830847042
 40
0.8460158304
 40
0.8612165346
 40
0.8764532678
 40
0.891729769
 40
0.9070493656
 40
0.9224149468
 40
0.9378289258
 40
0.9532932572
 40
0.9688093183
 40
0.9843781544
 40
1.0
 40
1.0
 40
1.0
 40
1.0
 10
10.3565227389
 20
9.7787400934
 30
0.0
 10
10.3693767134
 20
9.7778486672
 30
0.0
 10
10.3950883218
 20
9.7754322859
 30
0.0
 10
10.4334938153
 20
9.7699327306
 30
0.0
 10
10.471714317
 20
9.7625650264
 30
0.0
 10
10.5096565137
 20
9.7533471758
 30
0.0
 10
10.5472294447
 20
9.7423013554
 30
0.0
 10
10.5843425469
 20
9.7294542767
 30
0.0
 10
10.6209065156
 20
9.7148369124
 30
0.0
 10
10.6568333329
 20
9.6984845192
 30
0.0
 10
10.6920365295
 20
9.6804365103
 30
0.0
 10
10.7264313779
 20
9.6607363774
 30
0.0
 10
10.7599350986
 20
9.6394315797
 30
0.0
 10
10.7924670573
 20
9.6165734321
 30
0.0
 10
10.8239489581
 20
9.5922169811
 30
0.0
 10
10.854305031
 20
9.5664208732
 30
0.0
 10
10.8834622133
 20
9.5392472141
 30
0.0
 10
10.9113503242
 20
9.5107614196
 30
0.0
 10
10.9379022337
 20
9.4810320591
 30
0.0
 10
10.963054024
 20
9.4501306918
 30
0.0
 10
10.9867451419
 20
9.4181316945
 30
0.0
 10
11.008918544
 20
9.3851120834
 30
0.0
 10
11.0295208337
 20
9.3511513295
 30
0.0
 10
11.0485023889
 20
9.3163311682
 30
0.0
 10
11.0658174816
 20
9.2807354042
 30
0.0
 10
11.0814243875
 20
9.2444497103
 30
0.0
 10
11.0952854865
 20
9.207561423
 30
0.0
 10
11.1073673534
 20
9.1701593328
 30
0.0
 10
11.1176408383
 20
9.1323334725
 30
0.0
 10
11.1260811377
 20
9.0941749015
 30
0.0
 10
11.1326678547
 20
9.0557754881
 30
0.0
 10
11.1373850489
 20
9.0172276892
 30
0.0
 10
11.1402212757
 20
8.9786243299
 30
0.0
 10
11.1411696159
 20
8.9400583802
 30
0.0
 10
11.140227693
 20
8.9016227328
 30
0.0
 10
11.1373976831
 20
8.8634099801
 30
0.0
 10
11.1326863095
 20
8.8255121913
 30
0.0
 10
11.1261048294
 20
8.7880206914
 30
0.0
 10
11.1176690083
 20
8.7510258412
 30
0.0
 10
11.1073990851
 20
8.714616819
 30
0.0
 10
11.0953197255
 20
8.6788814053
 30
0.0
 10
11.0814599646
 20
8.6439057699
 30
0.0
 10
11.0658531395
 20
8.6097742627
 30
0.0
 10
11.0485368107
 20
8.5765692084
 30
0.0
 10
11.0295526731
 20
8.5443707056
 30
0.0
 10
11.0089464563
 20
8.5132564315
 30
0.0
 10
10.9867678156
 20
8.4833014512
 30
0.0
 10
10.9630702118
 20
8.4545780344
 30
0.0
 10
10.9379107818
 20
8.4271554777
 30
0.0
 10
10.9113502003
 20
8.4010999354
 30
0.0
 10
10.8834525312
 20
8.3764742568
 30
0.0
 10
10.8542850726
 20
8.3533378319
 30
0.0
 10
10.8239181905
 20
8.3317464472
 30
0.0
 10
10.7924251466
 20
8.3117521501
 30
0.0
 10
10.7598819188
 20
8.293403123
 30
0.0
 10
10.726367015
 20
8.276743567
 30
0.0
 10
10.691961281
 20
8.261813596
 30
0.0
 10
10.6567477029
 20
8.2486491405
 30
0.0
 10
10.6208112053
 20
8.2372818646
 30
0.0
 10
10.5842384412
 20
8.2277390855
 30
0.0
 10
10.5471175958
 20
8.2200437251
 30
0.0
 10
10.509538119
 20
8.2142142215
 30
0.0
 10
10.4715906996
 20
8.2102645606
 30
0.0
 10
10.4333663964
 20
8.2082041215
 30
0.0
 10
10.3949585864
 20
8.2080377779
 30
0.0
 10
10.3693332557
 20
8.2091880112
 30
0.0
 10
10.3565227389
 20
8.2100764236
 30
0.0
  0
SPLINE
  5
38D
100
AcDbEntity
  8
0
100
AcDbSpline
 62
7
  6
CONTINUOUS
 70
0
 71
3
 72
56
 73
52
 74
0
 42
0.0000001
 43
0.0000001
 44
0.0000000001
 40
0.0
 40
0.0
 40
0.0
 40
0.0
 40
0.0095826437
 40
0.0187373127
 40
0.0274872199
 40
0.0358600826
 40
0.0515985929
 40
0.0590564588
 40
0.0662992615
 40
0.0733805011
 40
0.0803578033
 40
0.0872916352
 40
0.0942437017
 40
0.101275177
 40
0.1084450411
 40
0.1158085934
 40
0.1234165221
 40
0.1313142036
 40
0.1395416244
 40
0.1481333949
 40
0.1571191188
 40
0.1665238207
 40
0.1763683505
 40
0.1866699909
 40
0.1974427007
 40
0.2086977604
 40
0.2204438563
 40
0.2326876503
 40
0.2454338133
 40
0.2586854214
 40
0.2724440498
 40
0.2867099478
 40
0.3014822493
 40
0.3167589382
 40
0.3325371661
 40
0.3488130761
 40
0.3655821568
 40
0.4005767488
 40
0.4374718113
 40
0.4762076262
 40
0.516716267
 40
0.5589225304
 40
0.6027447052
 40
0.6480952323
 40
0.6948812714
 40
0.7430052311
 40
0.7923651639
 40
0.8428554234
 40
0.8943664259
 40
0.9467866497
 40
1.0
 40
1.0
 40
1.0
 40
1.0
 10
12.5718002598
 20
8.0757360082
 30
0.0
 10
12.5731939106
 20
8.0770330775
 30
0.0
 10
12.5759799736
 20
8.0795050068
 30
0.0
 10
12.5802544909
 20
8.0829079815
 30
0.0
 10
12.5845251605
 20
8.0859173916
 30
0.0
 10
12.5900935753
 20
8.0893309578
 30
0.0
 10
12.5957744667
 20
8.0920566704
 30
0.0
 10
12.6015157702
 20
8.0939766517
 30
0.0
 10
12.6057295318
 20
8.0949883971
 30
0.0
 10
12.6099240511
 20
8.095595676
 30
0.0
 10
12.6140963781
 20
8.0957975783
 30
0.0
 10
12.6182430258
 20
8.0955936087
 30
0.0
 10
12.6223604851
 20
8.0949837952
 30
0.0
 10
12.6264453606
 20
8.093969004
 30
0.0
 10
12.6304944586
 20
8.092550372
 30
0.0
 10
12.6345050241
 20
8.0907297177
 30
0.0
 10
12.6384745215
 20
8.0885088085
 30
0.0
 10
12.6424008109
 20
8.0858897792
 30
0.0
 10
12.6462818175
 20
8.082874645
 30
0.0
 10
12.6501156414
 20
8.0794656028
 30
0.0
 10
12.6539003814
 20
8.0756648795
 30
0.0
 10
12.6576341123
 20
8.0714748156
 30
0.0
 10
12.6613149655
 20
8.066897953
 30
0.0
 10
12.6649409232
 20
8.0619369306
 30
0.0
 10
12.6685101134
 20
8.0565946849
 30
0.0
 10
12.672020468
 20
8.0508742638
 30
0.0
 10
12.6754701046
 20
8.0447790293
 30
0.0
 10
12.6788569775
 20
8.038312491
 30
0.0
 10
12.6821791921
 20
8.0314784418
 30
0.0
 10
12.6854347824
 20
8.0242808637
 30
0.0
 10
12.6886218504
 20
8.0167239798
 30
0.0
 10
12.6917385383
 20
8.0088122327
 30
0.0
 10
12.6947829652
 20
8.0005502732
 30
0.0
 10
12.6977533871
 20
7.9919429832
 30
0.0
 10
12.7006479637
 20
7.9829954389
 30
0.0
 10
12.7034650779
 20
7.9737129289
 30
0.0
 10
12.7071682749
 20
7.9607115791
 30
0.0
 10
12.7115766878
 20
7.943654522
 30
0.0
 10
12.7164599106
 20
7.9222224156
 30
0.0
 10
12.7209968729
 20
7.8995961241
 30
0.0
 10
12.7251766592
 20
7.8758293172
 30
0.0
 10
12.7289891783
 20
7.8509781974
 30
0.0
 10
12.7324252333
 20
7.8251016924
 30
0.0
 10
12.7354765319
 20
7.7982611989
 30
0.0
 10
12.738135712
 20
7.7705204493
 30
0.0
 10
12.7403963522
 20
7.7419453542
 30
0.0
 10
12.742253002
 20
7.7126038058
 30
0.0
 10
12.7437011578
 20
7.6825656137
 30
0.0
 10
12.7447373434
 20
7.6519020748
 30
0.0
 10
12.745359004
 20
7.6206863141
 30
0.0
 10
12.74549518
 20
7.5996990625
 30
0.0
 10
12.74549518
 20
7.5891267892
 30
0.0
  0
SPLINE
  5
38E
100
AcDbEntity
  8
0
100
AcDbSpline
 62
7
  6
CONTINUOUS
 70
0
 71
3
 72
11
 73
7
 74
0
 42
0.0000001
 43
0.0000001
 44
0.0000000001
 40
0.0
 40
0.0
 40
0.0
 40
0.0
 40
0.2521579221
 40
0.5028363759
 40
0.7520884207
 40
1.0
 40
1.0
 40
1.0
 40
1.0
 10
11.4396625738
 20
7.8508352725
 30
0.0
 10
11.4477533041
 20
7.8502741784
 30
0.0
 10
11.4639429853
 20
7.8498346828
 30
0.0
 10
11.4881200311
 20
7.8512472554
 30
0.0
 10
11.5119500189
 20
7.854722485
 30
0.0
 10
11.5275344864
 20
7.8584092655
 30
0.0
 10
11.5352050437
 20
7.8605865695
 30
0.0
  0
SPLINE
  5
38F
100
AcDbEntity
  8
0
100
AcDbSpline
 62
7
  6
CONTINUOUS
 70
0
 71
3
 72
39
 73
35
 74
0
 42
0.0000001
 43
0.0000001
 44
0.0000000001
 40
0.0
 40
0.0
 40
0.0
 40
0.0
 40
0.0308461574
 40
0.06181576
 40
0.0929037543
 40
0.1241061302
 40
0.1554158372
 40
0.186825035
 40
0.2183244047
 40
0.2499035225
 40
0.2815509419
 40
0.3132543565
 40
0.3450007596
 40
0.3767766077
 40
0.4085679912
 40
0.4403608068
 40
0.4721409322
 40
0.5038944026
 40
0.5356075857
 40
0.5672673525
 40
0.5988612434
 40
0.6303776281
 40
0.6618058578
 40
0.6931364089
 40
0.7243610169
 40
0.7554727969
 40
0.7864663472
 40
0.8173378376
 40
0.8480850777
 40
0.8787075665
 40
0.9092065192
 40
0.9395848735
 40
0.9698472688
 40
1.0
 40
1.0
 40
1.0
 40
1.0
 10
11.4396625738
 20
7.8508352725
 30
0.0
 10
11.4340459301
 20
7.851224788
 30
0.0
 10
11.4228103026
 20
7.8523347401
 30
0.0
 10
11.4060512386
 20
7.8549765001
 30
0.0
 10
11.3894074085
 20
7.8585896814
 30
0.0
 10
11.3729368373
 20
7.8631615356
 30
0.0
 10
11.3566957481
 20
7.8686764739
 30
0.0
 10
11.3407399798
 20
7.8751154234
 30
0.0
 10
11.3251242631
 20
7.882456271
 30
0.0
 10
11.3099021937
 20
7.8906737708
 30
0.0
 10
11.2951259995
 20
7.8997396785
 30
0.0
 10
11.2808463786
 20
7.909622844
 30
0.0
 10
11.2671123251
 20
7.9202893236
 30
0.0
 10
11.2539709638
 20
7.9317024947
 30
0.0
 10
11.2414673901
 20
7.9438231805
 30
0.0
 10
11.2296445166
 20
7.9566097826
 30
0.0
 10
11.2185429284
 20
7.970018424
 30
0.0
 10
11.2082007304
 20
7.9840030868
 30
0.0
 10
11.1986534271
 20
7.9985157808
 30
0.0
 10
11.189933804
 20
8.0135067079
 30
0.0
 10
11.1820718153
 20
8.0289244305
 30
0.0
 10
11.1750944821
 20
8.0447160465
 30
0.0
 10
11.1690257997
 20
8.060827368
 30
0.0
 10
11.1638866574
 20
8.0772031061
 30
0.0
 10
11.159694749
 20
8.0937870539
 30
0.0
 10
11.1564645226
 20
8.1105222842
 30
0.0
 10
11.1542071349
 20
8.1273513429
 30
0.0
 10
11.1529304113
 20
8.1442164452
 30
0.0
 10
11.1526388155
 20
8.1610596655
 30
0.0
 10
11.1533334397
 20
8.1778231584
 30
0.0
 10
11.1550119719
 20
8.1944492648
 30
0.0
 10
11.1576687906
 20
8.2108810481
 30
0.0
 10
11.1612945941
 20
8.2270612428
 30
0.0
 10
11.1643554309
 20
8.237663458
 30
0.0
 10
11.166042833
 20
8.2429019628
 30
0.0
  0
SPLINE
  5
390
100
AcDbEntity
  8
0
100
AcDbSpline
 62
7
  6
CONTINUOUS
 70
0
 71
3
 72
39
 73
35
 74
0
 42
0.0000001
 43
0.0000001
 44
0.0000000001
 40
0.0
 40
0.0
 40
0.0
 40
0.0
 40
0.0310056836
 40
0.0621506876
 40
0.0934290457
 40
0.1248343575
 40
0.1563570069
 40
0.1879858949
 40
0.2197080213
 40
0.2515089249
 40
0.2833728618
 40
0.3152830837
 40
0.3472221046
 40
0.3791719817
 40
0.4111146005
 40
0.4430319616
 40
0.4749064666
 40
0.5067211985
 40
0.5384601949
 40
0.5701087107
 40
0.6016534658
 40
0.633082875
 40
0.6643872566
 40
0.6955590151
 40
0.7265927961
 40
0.7574856065
 40
0.7882368983
 40
0.8188486116
 40
0.8493251741
 40
0.8796734546
 40
0.9099026698
 40
0.9400242422
 40
0.9700516113
 40
1.0
 40
1.0
 40
1.0
 40
1.0
 10
11.4396625738
 20
7.9416323055
 30
0.0
 10
11.4353256089
 20
7.941933075
 30
0.0
 10
11.4266494701
 20
7.9428234007
 30
0.0
 10
11.4137243913
 20
7.9450096794
 30
0.0
 10
11.4009128098
 20
7.9480404137
 30
0.0
 10
11.3882716243
 20
7.9519020621
 30
0.0
 10
11.3758559097
 20
7.9565777526
 30
0.0
 10
11.3637200738
 20
7.9620468914
 30
0.0
 10
11.351917199
 20
7.9682855083
 30
0.0
 10
11.3404989308
 20
7.9752662405
 30
0.0
 10
11.329515225
 20
7.9829585038
 30
0.0
 10
11.3190141376
 20
7.9913286055
 30
0.0
 10
11.3090416162
 20
8.0003398987
 30
0.0
 10
11.2996412988
 20
8.0099529374
 30
0.0
 10
11.2908543234
 20
8.0201256482
 30
0.0
 10
11.2827191518
 20
8.0308135153
 30
0.0
 10
11.2752714021
 20
8.0419697737
 30
0.0
 10
11.2685436941
 20
8.0535456116
 30
0.0
 10
11.2625655075
 20
8.0654903822
 30
0.0
 10
11.2573630536
 20
8.0777518224
 30
0.0
 10
11.2529591604
 20
8.0902762799
 30
0.0
 10
11.2493731728
 20
8.1030089444
 30
0.0
 10
11.2466208669
 20
8.115894085
 30
0.0
 10
11.2447143806
 20
8.1288752914
 30
0.0
 10
11.243662154
 20
8.141895718
 30
0.0
 10
11.243468892
 20
8.1548983308
 30
0.0
 10
11.2441355424
 20
8.1678261553
 30
0.0
 10
11.2456592886
 20
8.1806225256
 30
0.0
 10
11.248033554
 20
8.1932313258
 30
0.0
 10
11.2512480401
 20
8.2055972572
 30
0.0
 10
11.255288715
 20
8.2176660006
 30
0.0
 10
11.2601380622
 20
8.2293847582
 30
0.0
 10
11.2657744388
 20
8.2407013673
 30
0.0
 10
11.2700461915
 20
8.247954456
 30
0.0
 10
11.2723034581
 20
8.2514952875
 30
0.0
  0
SPLINE
  5
391
100
AcDbEntity
  8
0
100
AcDbSpline
 62
7
  6
CONTINUOUS
 70
0
 71
3
 72
71
 73
67
 74
0
 42
0.0000001
 43
0.0000001
 44
0.0000000001
 40
0.0
 40
0.0
 40
0.0
 40
0.0
 40
0.0156748403
 40
0.0314021535
 40
0.0471806586
 40
0.0630088905
 40
0.0788847443
 40
0.0948057528
 40
0.1107690088
 40
0.1267712322
 40
0.1428087901
 40
0.1588777349
 40
0.1749738405
 40
0.1910926412
 40
0.207229472
 40
0.2233795101
 40
0.2395378174
 40
0.2556993839
 40
0.2718591711
 40
0.2880121559
 40
0.3041533746
 40
0.320277966
 40
0.3363812145
 40
0.3524585915
 40
0.3685057964
 40
0.3845187958
 40
0.400493861
 40
0.4164276032
 40
0.4323170069
 40
0.4481594601
 40
0.4639527818
 40
0.4796952459
 40
0.4953856017
 40
0.5110230906
 40
0.5266074577
 40
0.5421389599
 40
0.5576183684
 40
0.5730469665
 40
0.5884265418
 40
0.6037593735
 40
0.6190482137
 40
0.634296264
 40
0.6495071459
 40
0.6646848666
 40
0.6798337801
 40
0.6949585433
 40
0.7100640686
 40
0.7251554727
 40
0.7402380227
 40
0.7553170804
 40
0.770398045
 40
0.7854862952
 40
0.8005871318
 40
0.8157057214
 40
0.830847042
 40
0.8460158304
 40
0.8612165346
 40
0.8764532678
 40
0.891729769
 40
0.9070493656
 40
0.9224149468
 40
0.9378289258
 40
0.9532932572
 40
0.9688093183
 40
0.9843781544
 40
1.0
 40
1.0
 40
1.0
 40
1.0
 10
10.3565227389
 20
6.2782246565
 30
0.0
 10
10.3436687645
 20
6.2791160827
 30
0.0
 10
10.3179571561
 20
6.281532464
 30
0.0
 10
10.2795516626
 20
6.2870320193
 30
0.0
 10
10.2413311609
 20
6.2943997235
 30
0.0
 10
10.2033889642
 20
6.3036175741
 30
0.0
 10
10.1658160332
 20
6.3146633945
 30
0.0
 10
10.1287029309
 20
6.3275104732
 30
0.0
 10
10.0921389623
 20
6.3421278375
 30
0.0
 10
10.056212145
 20
6.3584802307
 30
0.0
 10
10.0210089484
 20
6.3765282396
 30
0.0
 10
9.9866141
 20
6.3962283725
 30
0.0
 10
9.9531103793
 20
6.4175331702
 30
0.0
 10
9.9205784206
 20
6.4403913178
 30
0.0
 10
9.8890965198
 20
6.4647477688
 30
0.0
 10
9.8587404468
 20
6.4905438767
 30
0.0
 10
9.8295832646
 20
6.5177175358
 30
0.0
 10
9.8016951537
 20
6.5462033303
 30
0.0
 10
9.7751432442
 20
6.5759326908
 30
0.0
 10
9.7499914539
 20
6.6068340581
 30
0.0
 10
9.726300336
 20
6.6388330554
 30
0.0
 10
9.7041269339
 20
6.6718526665
 30
0.0
 10
9.6835246442
 20
6.7058134204
 30
0.0
 10
9.664543089
 20
6.7406335817
 30
0.0
 10
9.6472279963
 20
6.7762293457
 30
0.0
 10
9.6316210903
 20
6.8125150396
 30
0.0
 10
9.6177599913
 20
6.8494033269
 30
0.0
 10
9.6056781245
 20
6.8868054171
 30
0.0
 10
9.5954046396
 20
6.9246312774
 30
0.0
 10
9.5869643402
 20
6.9627898484
 30
0.0
 10
9.5803776231
 20
7.0011892618
 30
0.0
 10
9.575660429
 20
7.0397370607
 30
0.0
 10
9.5728242021
 20
7.07834042
 30
0.0
 10
9.571875862
 20
7.1169063697
 30
0.0
 10
9.5728177849
 20
7.1553420171
 30
0.0
 10
9.5756477948
 20
7.1935547698
 30
0.0
 10
9.5803591683
 20
7.2314525586
 30
0.0
 10
9.5869406485
 20
7.2689440585
 30
0.0
 10
9.5953764696
 20
7.3059389088
 30
0.0
 10
9.6056463927
 20
7.3423479309
 30
0.0
 10
9.6177257524
 20
7.3780833446
 30
0.0
 10
9.6315855133
 20
7.41305898
 30
0.0
 10
9.6471923384
 20
7.4471904872
 30
0.0
 10
9.6645086672
 20
7.4803955415
 30
0.0
 10
9.6834928048
 20
7.5125940443
 30
0.0
 10
9.7040990215
 20
7.5437083184
 30
0.0
 10
9.7262776623
 20
7.5736632987
 30
0.0
 10
9.7499752661
 20
7.6023867155
 30
0.0
 10
9.7751346961
 20
7.6298092722
 30
0.0
 10
9.8016952776
 20
7.6558648145
 30
0.0
 10
9.8295929467
 20
7.6804904931
 30
0.0
 10
9.8587604053
 20
7.703626918
 30
0.0
 10
9.8891272874
 20
7.7252183027
 30
0.0
 10
9.9206203313
 20
7.7452125998
 30
0.0
 10
9.953163559
 20
7.7635616269
 30
0.0
 10
9.9866784628
 20
7.7802211829
 30
0.0
 10
10.0210841969
 20
7.7951511539
 30
0.0
 10
10.056297775
 20
7.8083156094
 30
0.0
 10
10.0922342726
 20
7.8196828853
 30
0.0
 10
10.1288070367
 20
7.8292256644
 30
0.0
 10
10.1659278821
 20
7.8369210248
 30
0.0
 10
10.2035073589
 20
7.8427505284
 30
0.0
 10
10.2414547782
 20
7.8467001893
 30
0.0
 10
10.2796790815
 20
7.8487606285
 30
0.0
 10
10.3180868915
 20
7.848926972
 30
0.0
 10
10.3437122222
 20
7.8477767387
 30
0.0
 10
10.3565227389
 20
7.8468883264
 30
0.0
  0
SPLINE
  5
392
100
AcDbEntity
  8
0
100
AcDbSpline
 62
7
  6
CONTINUOUS
 70
0
 71
3
 72
47
 73
43
 74
0
 42
0.0000001
 43
0.0000001
 44
0.0000000001
 40
0.0
 40
0.0
 40
0.0
 40
0.0
 40
0.0167947017
 40
0.0323109378
 40
0.0467028365
 40
0.0601241764
 40
0.0727227603
 40
0.0846369218
 40
0.0959945331
 40
0.1069113141
 40
0.1174913039
 40
0.1278260755
 40
0.1379961143
 40
0.1480701306
 40
0.1581076836
 40
0.1681583736
 40
0.1782639171
 40
0.1884598392
 40
0.2092230494
 40
0.2306346933
 40
0.2528122682
 40
0.2758387938
 40
0.2997711941
 40
0.3246535968
 40
0.3505211472
 40
0.3774064153
 40
0.4053414251
 40
0.4343613109
 40
0.4645055465
 40
0.4958207097
 40
0.5283620637
 40
0.5621954566
 40
0.5974012957
 40
0.6340748958
 40
0.672333664
 40
0.7123185512
 40
0.7542000278
 40
0.7981831586
 40
0.8445086867
 40
0.8934432777
 40
0.9452378398
 40
1.0
 40
1.0
 40
1.0
 40
1.0
 10
10.1829719489
 20
8.4568758164
 30
0.0
 10
10.1823090939
 20
8.4577804959
 30
0.0
 10
10.1810966738
 20
8.4595684366
 30
0.0
 10
10.1795563936
 20
8.4622841222
 30
0.0
 10
10.1783426007
 20
8.4649145985
 30
0.0
 10
10.17742741
 20
8.4674570385
 30
0.0
 10
10.1767853748
 20
8.4699110919
 30
0.0
 10
10.1763924842
 20
8.4722774509
 30
0.0
 10
10.1762279735
 20
8.4745578423
 30
0.0
 10
10.1762724341
 20
8.4767544516
 30
0.0
 10
10.1765094185
 20
8.4788697639
 30
0.0
 10
10.1769232958
 20
8.4809065999
 30
0.0
 10
10.1775015394
 20
8.4828675457
 30
0.0
 10
10.1782313728
 20
8.4847557341
 30
0.0
 10
10.179103301
 20
8.4865735793
 30
0.0
 10
10.1801074969
 20
8.488323973
 30
0.0
 10
10.181235883
 20
8.4900095759
 30
0.0
 10
10.1829066668
 20
8.4921860536
 30
0.0
 10
10.1852840796
 20
8.4947620957
 30
0.0
 10
10.1885164193
 20
8.4976036046
 30
0.0
 10
10.1921118699
 20
8.5002320575
 30
0.0
 10
10.1960442586
 20
8.5026588244
 30
0.0
 10
10.2002924918
 20
8.50489483
 30
0.0
 10
10.2048404326
 20
8.5069478825
 30
0.0
 10
10.2096755607
 20
8.5088246862
 30
0.0
 10
10.2147887852
 20
8.5105300433
 30
0.0
 10
10.2201739666
 20
8.5120675226
 30
0.0
 10
10.2258277541
 20
8.5134391524
 30
0.0
 10
10.2317494631
 20
8.5146456151
 30
0.0
 10
10.2379410535
 20
8.5156860857
 30
0.0
 10
10.2444072175
 20
8.5165579405
 30
0.0
 10
10.2511555378
 20
8.5172570371
 30
0.0
 10
10.2581967603
 20
8.5177763621
 30
0.0
 10
10.2655451795
 20
8.5181070904
 30
0.0
 10
10.2732191107
 20
8.5182361315
 30
0.0
 10
10.2812414468
 20
8.5181465587
 30
0.0
 10
10.2896401184
 20
8.5178156799
 30
0.0
 10
10.2984482792
 20
8.5172130659
 30
0.0
 10
10.3077031102
 20
8.5162980275
 30
0.0
 10
10.3174411206
 20
8.515016272
 30
0.0
 10
10.3276835436
 20
8.5132969716
 30
0.0
 10
10.3346509139
 20
8.5118384551
 30
0.0
 10
10.338212256
 20
8.5110077614
 30
0.0
  0
SPLINE
  5
393
100
AcDbEntity
  8
0
100
AcDbSpline
 62
7
  6
CONTINUOUS
 70
0
 71
3
 72
56
 73
52
 74
0
 42
0.0000001
 43
0.0000001
 44
0.0000000001
 40
0.0
 40
0.0
 40
0.0
 40
0.0
 40
0.0095826437
 40
0.0187373127
 40
0.0274872199
 40
0.0358600826
 40
0.0515985929
 40
0.0590564588
 40
0.0662992615
 40
0.0733805011
 40
0.0803578033
 40
0.0872916352
 40
0.0942437017
 40
0.101275177
 40
0.1084450411
 40
0.1158085934
 40
0.1234165221
 40
0.1313142036
 40
0.1395416244
 40
0.1481333949
 40
0.1571191188
 40
0.1665238207
 40
0.1763683505
 40
0.1866699909
 40
0.1974427007
 40
0.2086977604
 40
0.2204438563
 40
0.2326876503
 40
0.2454338133
 40
0.2586854214
 40
0.2724440498
 40
0.2867099478
 40
0.3014822493
 40
0.3167589382
 40
0.3325371661
 40
0.3488130761
 40
0.3655821568
 40
0.4005767488
 40
0.4374718113
 40
0.4762076262
 40
0.516716267
 40
0.5589225304
 40
0.6027447052
 40
0.6480952323
 40
0.6948812714
 40
0.7430052311
 40
0.7923651639
 40
0.8428554234
 40
0.8943664259
 40
0.9467866497
 40
1.0
 40
1.0
 40
1.0
 40
1.0
 10
12.5718002598
 20
10.0075877752
 30
0.0
 10
12.5731939106
 20
10.0088848445
 30
0.0
 10
12.5759799736
 20
10.0113567739
 30
0.0
 10
12.5802544909
 20
10.0147597485
 30
0.0
 10
12.5845251605
 20
10.0177691587
 30
0.0
 10
12.5900935753
 20
10.0211827249
 30
0.0
 10
12.5957744667
 20
10.0239084374
 30
0.0
 10
12.6015157702
 20
10.0258284187
 30
0.0
 10
12.6057295318
 20
10.0268401641
 30
0.0
 10
12.6099240511
 20
10.027447443
 30
0.0
 10
12.6140963781
 20
10.0276493453
 30
0.0
 10
12.6182430258
 20
10.0274453757
 30
0.0
 10
12.6223604851
 20
10.0268355623
 30
0.0
 10
12.6264453606
 20
10.025820771
 30
0.0
 10
12.6304944586
 20
10.024402139
 30
0.0
 10
12.6345050241
 20
10.0225814848
 30
0.0
 10
12.6384745215
 20
10.0203605755
 30
0.0
 10
12.6424008109
 20
10.0177415462
 30
0.0
 10
12.6462818175
 20
10.0147264121
 30
0.0
 10
12.6501156414
 20
10.0113173698
 30
0.0
 10
12.6539003814
 20
10.0075166466
 30
0.0
 10
12.6576341123
 20
10.0033265827
 30
0.0
 10
12.6613149655
 20
9.9987497201
 30
0.0
 10
12.6649409232
 20
9.9937886976
 30
0.0
 10
12.6685101134
 20
9.988446452
 30
0.0
 10
12.672020468
 20
9.9827260308
 30
0.0
 10
12.6754701046
 20
9.9766307963
 30
0.0
 10
12.6788569775
 20
9.970164258
 30
0.0
 10
12.6821791921
 20
9.9633302088
 30
0.0
 10
12.6854347824
 20
9.9561326307
 30
0.0
 10
12.6886218504
 20
9.9485757468
 30
0.0
 10
12.6917385383
 20
9.9406639997
 30
0.0
 10
12.6947829652
 20
9.9324020402
 30
0.0
 10
12.6977533871
 20
9.9237947502
 30
0.0
 10
12.7006479637
 20
9.9148472059
 30
0.0
 10
12.7034650779
 20
9.905564696
 30
0.0
 10
12.7071682749
 20
9.8925633462
 30
0.0
 10
12.7115766878
 20
9.8755062891
 30
0.0
 10
12.7164599106
 20
9.8540741826
 30
0.0
 10
12.7209968729
 20
9.8314478911
 30
0.0
 10
12.7251766592
 20
9.8076810842
 30
0.0
 10
12.7289891783
 20
9.7828299645
 30
0.0
 10
12.7324252333
 20
9.7569534595
 30
0.0
 10
12.7354765319
 20
9.7301129659
 30
0.0
 10
12.738135712
 20
9.7023722163
 30
0.0
 10
12.7403963522
 20
9.6737971213
 30
0.0
 10
12.742253002
 20
9.6444555728
 30
0.0
 10
12.7437011578
 20
9.6144173807
 30
0.0
 10
12.7447373434
 20
9.5837538419
 30
0.0
 10
12.745359004
 20
9.5525380811
 30
0.0
 10
12.74549518
 20
9.5315508296
 30
0.0
 10
12.74549518
 20
9.5209785562
 30
0.0
  0
SPLINE
  5
394
100
AcDbEntity
  8
0
100
AcDbSpline
 62
7
  6
CONTINUOUS
 70
0
 71
3
 72
11
 73
7
 74
0
 42
0.0000001
 43
0.0000001
 44
0.0000000001
 40
0.0
 40
0.0
 40
0.0
 40
0.0
 40
0.2521579221
 40
0.5028363759
 40
0.7520884207
 40
1.0
 40
1.0
 40
1.0
 40
1.0
 10
11.4396625738
 20
5.9189834766
 30
0.0
 10
11.4477533041
 20
5.9184223826
 30
0.0
 10
11.4639429853
 20
5.917982887
 30
0.0
 10
11.4881200311
 20
5.9193954596
 30
0.0
 10
11.5119500189
 20
5.9228706892
 30
0.0
 10
11.5275344864
 20
5.9265574697
 30
0.0
 10
11.5352050437
 20
5.9287347737
 30
0.0
  0
SPLINE
  5
395
100
AcDbEntity
  8
0
100
AcDbSpline
 62
7
  6
CONTINUOUS
 70
0
 71
3
 72
39
 73
35
 74
0
 42
0.0000001
 43
0.0000001
 44
0.0000000001
 40
0.0
 40
0.0
 40
0.0
 40
0.0
 40
0.0308461574
 40
0.06181576
 40
0.0929037543
 40
0.1241061302
 40
0.1554158372
 40
0.186825035
 40
0.2183244047
 40
0.2499035225
 40
0.2815509419
 40
0.3132543565
 40
0.3450007596
 40
0.3767766077
 40
0.4085679912
 40
0.4403608068
 40
0.4721409322
 40
0.5038944026
 40
0.5356075857
 40
0.5672673525
 40
0.5988612434
 40
0.6303776281
 40
0.6618058578
 40
0.6931364089
 40
0.7243610169
 40
0.7554727969
 40
0.7864663472
 40
0.8173378376
 40
0.8480850777
 40
0.8787075665
 40
0.9092065192
 40
0.9395848735
 40
0.9698472688
 40
1.0
 40
1.0
 40
1.0
 40
1.0
 10
11.4396625738
 20
5.9189834766
 30
0.0
 10
11.4340459301
 20
5.9193729922
 30
0.0
 10
11.4228103026
 20
5.9204829443
 30
0.0
 10
11.4060512386
 20
5.9231247043
 30
0.0
 10
11.3894074085
 20
5.9267378856
 30
0.0
 10
11.3729368373
 20
5.9313097398
 30
0.0
 10
11.3566957481
 20
5.936824678
 30
0.0
 10
11.3407399798
 20
5.9432636275
 30
0.0
 10
11.3251242631
 20
5.9506044752
 30
0.0
 10
11.3099021937
 20
5.958821975
 30
0.0
 10
11.2951259995
 20
5.9678878826
 30
0.0
 10
11.2808463786
 20
5.9777710482
 30
0.0
 10
11.2671123251
 20
5.9884375277
 30
0.0
 10
11.2539709638
 20
5.9998506989
 30
0.0
 10
11.2414673901
 20
6.0119713846
 30
0.0
 10
11.2296445166
 20
6.0247579868
 30
0.0
 10
11.2185429284
 20
6.0381666281
 30
0.0
 10
11.2082007304
 20
6.0521512909
 30
0.0
 10
11.1986534271
 20
6.066663985
 30
0.0
 10
11.189933804
 20
6.081654912
 30
0.0
 10
11.1820718153
 20
6.0970726347
 30
0.0
 10
11.1750944821
 20
6.1128642506
 30
0.0
 10
11.1690257997
 20
6.1289755721
 30
0.0
 10
11.1638866574
 20
6.1453513102
 30
0.0
 10
11.159694749
 20
6.1619352581
 30
0.0
 10
11.1564645226
 20
6.1786704884
 30
0.0
 10
11.1542071349
 20
6.1954995471
 30
0.0
 10
11.1529304113
 20
6.2123646494
 30
0.0
 10
11.1526388155
 20
6.2292078697
 30
0.0
 10
11.1533334397
 20
6.2459713626
 30
0.0
 10
11.1550119719
 20
6.262597469
 30
0.0
 10
11.1576687906
 20
6.2790292523
 30
0.0
 10
11.1612945941
 20
6.2952094469
 30
0.0
 10
11.1643554309
 20
6.3058116622
 30
0.0
 10
11.166042833
 20
6.3110501669
 30
0.0
  0
SPLINE
  5
396
100
AcDbEntity
  8
0
100
AcDbSpline
 62
7
  6
CONTINUOUS
 70
0
 71
3
 72
39
 73
35
 74
0
 42
0.0000001
 43
0.0000001
 44
0.0000000001
 40
0.0
 40
0.0
 40
0.0
 40
0.0
 40
0.0310056836
 40
0.0621506876
 40
0.0934290457
 40
0.1248343575
 40
0.1563570069
 40
0.1879858949
 40
0.2197080213
 40
0.2515089249
 40
0.2833728618
 40
0.3152830837
 40
0.3472221046
 40
0.3791719817
 40
0.4111146005
 40
0.4430319616
 40
0.4749064666
 40
0.5067211985
 40
0.5384601949
 40
0.5701087107
 40
0.6016534658
 40
0.633082875
 40
0.6643872566
 40
0.6955590151
 40
0.7265927961
 40
0.7574856065
 40
0.7882368983
 40
0.8188486116
 40
0.8493251741
 40
0.8796734546
 40
0.9099026698
 40
0.9400242422
 40
0.9700516113
 40
1.0
 40
1.0
 40
1.0
 40
1.0
 10
11.4396625738
 20
6.0097805097
 30
0.0
 10
11.4353256089
 20
6.0100812792
 30
0.0
 10
11.4266494701
 20
6.0109716048
 30
0.0
 10
11.4137243913
 20
6.0131578836
 30
0.0
 10
11.4009128098
 20
6.0161886179
 30
0.0
 10
11.3882716243
 20
6.0200502663
 30
0.0
 10
11.3758559097
 20
6.0247259568
 30
0.0
 10
11.3637200738
 20
6.0301950956
 30
0.0
 10
11.351917199
 20
6.0364337124
 30
0.0
 10
11.3404989308
 20
6.0434144447
 30
0.0
 10
11.329515225
 20
6.051106708
 30
0.0
 10
11.3190141376
 20
6.0594768097
 30
0.0
 10
11.3090416162
 20
6.0684881028
 30
0.0
 10
11.2996412988
 20
6.0781011416
 30
0.0
 10
11.2908543234
 20
6.0882738524
 30
0.0
 10
11.2827191518
 20
6.0989617195
 30
0.0
 10
11.2752714021
 20
6.1101179779
 30
0.0
 10
11.2685436941
 20
6.1216938158
 30
0.0
 10
11.2625655075
 20
6.1336385863
 30
0.0
 10
11.2573630536
 20
6.1459000266
 30
0.0
 10
11.2529591604
 20
6.1584244841
 30
0.0
 10
11.2493731728
 20
6.1711571486
 30
0.0
 10
11.2466208669
 20
6.1840422891
 30
0.0
 10
11.2447143806
 20
6.1970234956
 30
0.0
 10
11.243662154
 20
6.2100439222
 30
0.0
 10
11.243468892
 20
6.223046535
 30
0.0
 10
11.2441355424
 20
6.2359743595
 30
0.0
 10
11.2456592886
 20
6.2487707298
 30
0.0
 10
11.248033554
 20
6.2613795299
 30
0.0
 10
11.2512480401
 20
6.2737454614
 30
0.0
 10
11.255288715
 20
6.2858142048
 30
0.0
 10
11.2601380622
 20
6.2975329623
 30
0.0
 10
11.2657744388
 20
6.3088495714
 30
0.0
 10
11.2700461915
 20
6.3161026602
 30
0.0
 10
11.2723034581
 20
6.3196434917
 30
0.0
  0
SPLINE
  5
397
100
AcDbEntity
  8
0
100
AcDbSpline
 62
7
  6
CONTINUOUS
 70
0
 71
3
 72
33
 73
29
 74
0
 42
0.0000001
 43
0.0000001
 44
0.0000000001
 40
0.0
 40
0.0
 40
0.0
 40
0.0
 40
0.0059364842
 40
0.0121684398
 40
0.0187090361
 40
0.0255649536
 40
0.0402315571
 40
0.0561833414
 40
0.073407005
 40
0.0918864332
 40
0.1115992569
 40
0.1325286018
 40
0.1546556989
 40
0.1779690117
 40
0.2024569827
 40
0.2281138599
 40
0.2549360257
 40
0.2829231466
 40
0.3120788656
 40
0.3424083917
 40
0.4066275629
 40
0.4756852564
 40
0.5497239743
 40
0.6289191766
 40
0.7134640104
 40
0.8035308923
 40
0.8991661655
 40
1.0
 40
1.0
 40
1.0
 40
1.0
 10
10.9254519305
 20
8.7510392374
 30
0.0
 10
10.9255583136
 20
8.7513910424
 30
0.0
 10
10.925806856
 20
8.7521031845
 30
0.0
 10
10.9262664056
 20
8.7531673012
 30
0.0
 10
10.9268176555
 20
8.7542511269
 30
0.0
 10
10.927689691
 20
8.7557546899
 30
0.0
 10
10.9290004023
 20
8.7576730517
 30
0.0
 10
10.930854094
 20
8.7599859861
 30
0.0
 10
10.9330055588
 20
8.7623544661
 30
0.0
 10
10.9354408288
 20
8.7647729459
 30
0.0
 10
10.9381479884
 20
8.7672379807
 30
0.0
 10
10.9411175327
 20
8.7697459703
 30
0.0
 10
10.9443413115
 20
8.7722948547
 30
0.0
 10
10.9478129091
 20
8.7748825298
 30
0.0
 10
10.9515270074
 20
8.777507974
 30
0.0
 10
10.9554794859
 20
8.7801703255
 30
0.0
 10
10.9596671669
 20
8.7828693457
 30
0.0
 10
10.9640877479
 20
8.7856051707
 30
0.0
 10
10.9687396943
 20
8.7883782984
 30
0.0
 10
10.9753770919
 20
8.7921999724
 30
0.0
 10
10.9842605656
 20
8.7970690846
 30
0.0
 10
10.9956552268
 20
8.802979095
 30
0.0
 10
11.0079920421
 20
8.809080557
 30
0.0
 10
11.0212903661
 20
8.8153960817
 30
0.0
 10
11.0355719899
 20
8.8219508202
 30
0.0
 10
11.0508519091
 20
8.8287680179
 30
0.0
 10
11.067114215
 20
8.8358566507
 30
0.0
 10
11.0782992326
 20
8.8406373163
 30
0.0
 10
11.0840479688
 20
8.8430713538
 30
0.0
  0
SPLINE
  5
398
100
AcDbEntity
  8
0
100
AcDbSpline
 62
7
  6
CONTINUOUS
 70
0
 71
3
 72
71
 73
67
 74
0
 42
0.0000001
 43
0.0000001
 44
0.0000000001
 40
0.0
 40
0.0
 40
0.0
 40
0.0
 40
0.0156748403
 40
0.0314021535
 40
0.0471806586
 40
0.0630088905
 40
0.0788847443
 40
0.0948057528
 40
0.1107690088
 40
0.1267712322
 40
0.1428087901
 40
0.1588777349
 40
0.1749738405
 40
0.1910926412
 40
0.207229472
 40
0.2233795101
 40
0.2395378174
 40
0.2556993839
 40
0.2718591711
 40
0.2880121559
 40
0.3041533746
 40
0.320277966
 40
0.3363812145
 40
0.3524585915
 40
0.3685057964
 40
0.3845187958
 40
0.400493861
 40
0.4164276032
 40
0.4323170069
 40
0.4481594601
 40
0.4639527818
 40
0.4796952459
 40
0.4953856017
 40
0.5110230906
 40
0.5266074577
 40
0.5421389599
 40
0.5576183684
 40
0.5730469665
 40
0.5884265418
 40
0.6037593735
 40
0.6190482137
 40
0.634296264
 40
0.6495071459
 40
0.6646848666
 40
0.6798337801
 40
0.6949585433
 40
0.7100640686
 40
0.7251554727
 40
0.7402380227
 40
0.7553170804
 40
0.770398045
 40
0.7854862952
 40
0.8005871318
 40
0.8157057214
 40
0.830847042
 40
0.8460158304
 40
0.8612165346
 40
0.8764532678
 40
0.891729769
 40
0.9070493656
 40
0.9224149468
 40
0.9378289258
 40
0.9532932572
 40
0.9688093183
 40
0.9843781544
 40
1.0
 40
1.0
 40
1.0
 40
1.0
 10
10.3565227389
 20
7.8468883264
 30
0.0
 10
10.3693767134
 20
7.8459969002
 30
0.0
 10
10.3950883218
 20
7.8435805189
 30
0.0
 10
10.4334938153
 20
7.8380809635
 30
0.0
 10
10.471714317
 20
7.8307132593
 30
0.0
 10
10.5096565137
 20
7.8214954088
 30
0.0
 10
10.5472294447
 20
7.8104495883
 30
0.0
 10
10.5843425469
 20
7.7976025096
 30
0.0
 10
10.6209065156
 20
7.7829851453
 30
0.0
 10
10.6568333329
 20
7.7666327522
 30
0.0
 10
10.6920365295
 20
7.7485847433
 30
0.0
 10
10.7264313779
 20
7.7288846104
 30
0.0
 10
10.7599350986
 20
7.7075798127
 30
0.0
 10
10.7924670573
 20
7.684721665
 30
0.0
 10
10.8239489581
 20
7.660365214
 30
0.0
 10
10.854305031
 20
7.6345691062
 30
0.0
 10
10.8834622133
 20
7.6073954471
 30
0.0
 10
10.9113503242
 20
7.5789096526
 30
0.0
 10
10.9379022337
 20
7.549180292
 30
0.0
 10
10.963054024
 20
7.5182789247
 30
0.0
 10
10.9867451419
 20
7.4862799275
 30
0.0
 10
11.008918544
 20
7.4532603164
 30
0.0
 10
11.0295208337
 20
7.4192995624
 30
0.0
 10
11.0485023889
 20
7.3844794012
 30
0.0
 10
11.0658174816
 20
7.3488836371
 30
0.0
 10
11.0814243875
 20
7.3125979433
 30
0.0
 10
11.0952854865
 20
7.2757096559
 30
0.0
 10
11.1073673534
 20
7.2383075657
 30
0.0
 10
11.1176408383
 20
7.2004817054
 30
0.0
 10
11.1260811377
 20
7.1623231345
 30
0.0
 10
11.1326678547
 20
7.123923721
 30
0.0
 10
11.1373850489
 20
7.0853759222
 30
0.0
 10
11.1402212757
 20
7.0467725629
 30
0.0
 10
11.1411696159
 20
7.0082066131
 30
0.0
 10
11.140227693
 20
6.9697709658
 30
0.0
 10
11.1373976831
 20
6.931558213
 30
0.0
 10
11.1326863095
 20
6.8936604242
 30
0.0
 10
11.1261048294
 20
6.8561689243
 30
0.0
 10
11.1176690083
 20
6.8191740741
 30
0.0
 10
11.1073990851
 20
6.7827650519
 30
0.0
 10
11.0953197255
 20
6.7470296383
 30
0.0
 10
11.0814599646
 20
6.7120540029
 30
0.0
 10
11.0658531395
 20
6.6779224957
 30
0.0
 10
11.0485368107
 20
6.6447174413
 30
0.0
 10
11.0295526731
 20
6.6125189386
 30
0.0
 10
11.0089464563
 20
6.5814046644
 30
0.0
 10
10.9867678156
 20
6.5514496842
 30
0.0
 10
10.9630702118
 20
6.5227262673
 30
0.0
 10
10.9379107818
 20
6.4953037107
 30
0.0
 10
10.9113502003
 20
6.4692481684
 30
0.0
 10
10.8834525312
 20
6.4446224898
 30
0.0
 10
10.8542850726
 20
6.4214860649
 30
0.0
 10
10.8239181905
 20
6.3998946801
 30
0.0
 10
10.7924251466
 20
6.379900383
 30
0.0
 10
10.7598819188
 20
6.3615513559
 30
0.0
 10
10.726367015
 20
6.3448917999
 30
0.0
 10
10.691961281
 20
6.329961829
 30
0.0
 10
10.6567477029
 20
6.3167973735
 30
0.0
 10
10.6208112053
 20
6.3054300976
 30
0.0
 10
10.5842384412
 20
6.2958873184
 30
0.0
 10
10.5471175958
 20
6.2881919581
 30
0.0
 10
10.509538119
 20
6.2823624545
 30
0.0
 10
10.4715906996
 20
6.2784127935
 30
0.0
 10
10.4333663964
 20
6.2763523544
 30
0.0
 10
10.3949585864
 20
6.2761860109
 30
0.0
 10
10.3693332557
 20
6.2773362442
 30
0.0
 10
10.3565227389
 20
6.2782246565
 30
0.0
  0
SPLINE
  5
399
100
AcDbEntity
  8
0
100
AcDbSpline
 62
4
  6
CONTINUOUS
 70
0
 71
3
 72
281
 73
277
 74
0
 42
0.0000001
 43
0.0000001
 44
0.0000000001
 40
0.0
 40
0.0
 40
0.0
 40
0.0
 40
0.015625
 40
0.0234375
 40
0.03125
 40
0.0390625
 40
0.046875
 40
0.05078125
 40
0.0546875
 40
0.056640625
 40
0.05859375
 40
0.060546875
 40
0.0615234375
 40
0.0620117188
 40
0.0625
 40
0.0629882812
 40
0.0634765625
 40
0.064453125
 40
0.06640625
 40
0.068359375
 40
0.0703125
 40
0.07421875
 40
0.078125
 40
0.0859375
 40
0.09375
 40
0.1015625
 40
0.109375
 40
0.11328125
 40
0.1171875
 40
0.119140625
 40
0.12109375
 40
0.123046875
 40
0.1240234375
 40
0.1245117188
 40
0.125
 40
0.1254882812
 40
0.1259765625
 40
0.126953125
 40
0.12890625
 40
0.130859375
 40
0.1328125
 40
0.13671875
 40
0.140625
 40
0.1484375
 40
0.15625
 40
0.1640625
 40
0.171875
 40
0.17578125
 40
0.1796875
 40
0.181640625
 40
0.18359375
 40
0.185546875
 40
0.1865234375
 40
0.1870117188
 40
0.1875
 40
0.1879882812
 40
0.1884765625
 40
0.189453125
 40
0.19140625
 40
0.193359375
 40
0.1953125
 40
0.19921875
 40
0.203125
 40
0.2109375
 40
0.21875
 40
0.2265625
 40
0.234375
 40
0.23828125
 40
0.2421875
 40
0.24609375
 40
0.248046875
 40
0.2490234375
 40
0.25
 40
0.2509765625
 40
0.251953125
 40
0.25390625
 40
0.2578125
 40
0.26171875
 40
0.265625
 40
0.2734375
 40
0.28125
 40
0.2890625
 40
0.296875
 40
0.30078125
 40
0.3046875
 40
0.30859375
 40
0.310546875
 40
0.3115234375
 40
0.3125
 40
0.3134765625
 40
0.314453125
 40
0.31640625
 40
0.3203125
 40
0.32421875
 40
0.328125
 40
0.3359375
 40
0.34375
 40
0.3515625
 40
0.359375
 40
0.3671875
 40
0.37109375
 40
0.373046875
 40
0.375
 40
0.376953125
 40
0.37890625
 40
0.3828125
 40
0.390625
 40
0.3984375
 40
0.40625
 40
0.4140625
 40
0.421875
 40
0.4296875
 40
0.43359375
 40
0.435546875
 40
0.4375
 40
0.439453125
 40
0.44140625
 40
0.4453125
 40
0.453125
 40
0.4609375
 40
0.46875
 40
0.4765625
 40
0.484375
 40
0.48828125
 40
0.4921875
 40
0.49609375
 40
0.498046875
 40
0.4990234375
 40
0.5
 40
0.5009765625
 40
0.501953125
 40
0.50390625
 40
0.5078125
 40
0.51171875
 40
0.515625
 40
0.5234375
 40
0.53125
 40
0.5390625
 40
0.546875
 40
0.55078125
 40
0.5546875
 40
0.55859375
 40
0.560546875
 40
0.5615234375
 40
0.5625
 40
0.5634765625
 40
0.564453125
 40
0.56640625
 40
0.5703125
 40
0.57421875
 40
0.578125
 40
0.5859375
 40
0.59375
 40
0.6015625
 40
0.609375
 40
0.61328125
 40
0.6171875
 40
0.619140625
 40
0.62109375
 40
0.623046875
 40
0.6240234375
 40
0.6245117188
 40
0.625
 40
0.6254882812
 40
0.6259765625
 40
0.626953125
 40
0.62890625
 40
0.630859375
 40
0.6328125
 40
0.63671875
 40
0.640625
 40
0.6484375
 40
0.65625
 40
0.6640625
 40
0.671875
 40
0.67578125
 40
0.6796875
 40
0.681640625
 40
0.68359375
 40
0.685546875
 40
0.6865234375
 40
0.6870117188
 40
0.6875
 40
0.6879882812
 40
0.6884765625
 40
0.689453125
 40
0.69140625
 40
0.693359375
 40
0.6953125
 40
0.69921875
 40
0.703125
 40
0.7109375
 40
0.71875
 40
0.7265625
 40
0.734375
 40
0.73828125
 40
0.7421875
 40
0.744140625
 40
0.74609375
 40
0.748046875
 40
0.7490234375
 40
0.7495117188
 40
0.75
 40
0.7504882812
 40
0.7509765625
 40
0.751953125
 40
0.75390625
 40
0.755859375
 40
0.7578125
 40
0.76171875
 40
0.765625
 40
0.7734375
 40
0.78125
 40
0.7890625
 40
0.796875
 40
0.80078125
 40
0.8046875
 40
0.806640625
 40
0.80859375
 40
0.810546875
 40
0.8115234375
 40
0.8120117188
 40
0.8125
 40
0.8129882812
 40
0.8134765625
 40
0.814453125
 40
0.81640625
 40
0.818359375
 40
0.8203125
 40
0.82421875
 40
0.828125
 40
0.8359375
 40
0.84375
 40
0.8515625
 40
0.859375
 40
0.86328125
 40
0.8671875
 40
0.869140625
 40
0.87109375
 40
0.873046875
 40
0.8740234375
 40
0.8745117188
 40
0.875
 40
0.8754882812
 40
0.8759765625
 40
0.876953125
 40
0.87890625
 40
0.880859375
 40
0.8828125
 40
0.88671875
 40
0.890625
 40
0.8984375
 40
0.90625
 40
0.9140625
 40
0.921875
 40
0.92578125
 40
0.9296875
 40
0.931640625
 40
0.93359375
 40
0.935546875
 40
0.9365234375
 40
0.9370117188
 40
0.9375
 40
0.9379882812
 40
0.9384765625
 40
0.939453125
 40
0.94140625
 40
0.943359375
 40
0.9453125
 40
0.94921875
 40
0.953125
 40
0.9609375
 40
0.96875
 40
0.9765625
 40
0.984375
 40
1.0
 40
1.0
 40
1.0
 40
1.0
 10
12.1480119583
 20
7.3579970157
 30
0.0
 10
12.1488514925
 20
7.3591151551
 30
0.0
 10
12.1501107938
 20
7.3607923641
 30
0.0
 10
12.151789862
 20
7.3630286436
 30
0.0
 10
12.1530491634
 20
7.3647058509
 30
0.0
 10
12.1543084642
 20
7.366383067
 30
0.0
 10
12.1553578832
 20
7.3677807196
 30
0.0
 10
12.1561974148
 20
7.3688989034
 30
0.0
 10
12.15672213
 20
7.3695976277
 30
0.0
 10
12.1571418841
 20
7.370156929
 30
0.0
 10
12.157456749
 20
7.3705755236
 30
0.0
 10
12.1577189796
 20
7.3709271563
 30
0.0
 10
12.1579028488
 20
7.3711677968
 30
0.0
 10
12.1580074364
 20
7.3713138972
 30
0.0
 10
12.1580872305
 20
7.3713992697
 30
0.0
 10
12.1581618511
 20
7.3715771578
 30
0.0
 10
12.1582631499
 20
7.3717820714
 30
0.0
 10
12.1584395818
 20
7.3721557056
 30
0.0
 10
12.1586920671
 20
7.3726816081
 30
0.0
 10
12.1589948612
 20
7.3733160557
 30
0.0
 10
12.1593986524
 20
7.3741608107
 30
0.0
 10
12.159903369
 20
7.3752171568
 30
0.0
 10
12.160710928
 20
7.3769070856
 30
0.0
 10
12.1617203725
 20
7.3790195742
 30
0.0
 10
12.1629317079
 20
7.3815545253
 30
0.0
 10
12.1641430419
 20
7.3840894932
 30
0.0
 10
12.16515249
 20
7.3862019399
 30
0.0
 10
12.1659600417
 20
7.3878919525
 30
0.0
 10
12.166464777
 20
7.3889480856
 30
0.0
 10
12.1668685298
 20
7.3897932777
 30
0.0
 10
12.1671714412
 20
7.3904263897
 30
0.0
 10
12.1674235597
 20
7.3909564712
 30
0.0
 10
12.1676006463
 20
7.3913226451
 30
0.0
 10
12.1677008961
 20
7.3915395119
 30
0.0
 10
12.1677787388
 20
7.3916806837
 30
0.0
 10
12.1678464313
 20
7.3919039566
 30
0.0
 10
12.1679402286
 20
7.392173016
 30
0.0
 10
12.1681027242
 20
7.3926572128
 30
0.0
 10
12.1683357231
 20
7.3933419468
 30
0.0
 10
12.1686149528
 20
7.3941666135
 30
0.0
 10
12.1689873879
 20
7.3952651261
 30
0.0
 10
12.1694528876
 20
7.396638624
 30
0.0
 10
12.1701977119
 20
7.398836021
 30
0.0
 10
12.1711287337
 20
7.4015828361
 30
0.0
 10
12.1722459638
 20
7.4048789829
 30
0.0
 10
12.1733631917
 20
7.4081751449
 30
0.0
 10
12.1742942191
 20
7.410921922
 30
0.0
 10
12.1750390322
 20
7.4131193951
 30
0.0
 10
12.1755045602
 20
7.4144926993
 30
0.0
 10
12.1758769373
 20
7.4155916095
 30
0.0
 10
12.1761563441
 20
7.4164150617
 30
0.0
 10
12.1763887888
 20
7.4171035952
 30
0.0
 10
12.1765522739
 20
7.4175810093
 30
0.0
 10
12.1766444857
 20
7.4178609365
 30
0.0
 10
12.1767170483
 20
7.418050827
 30
0.0
 10
12.1767765999
 20
7.4183173776
 30
0.0
 10
12.1768605405
 20
7.4186460385
 30
0.0
 10
12.177005322
 20
7.4192336538
 30
0.0
 10
12.1772132582
 20
7.4200665906
 30
0.0
 10
12.1774623085
 20
7.4210689028
 30
0.0
 10
12.1777945408
 20
7.4224043453
 30
0.0
 10
12.1782097745
 20
7.4240739819
 30
0.0
 10
12.1788741803
 20
7.4267452137
 30
0.0
 10
12.1797046754
 20
7.4300843201
 30
0.0
 10
12.1807012799
 20
7.4340912079
 30
0.0
 10
12.1816978623
 20
7.4380981484
 30
0.0
 10
12.1825284129
 20
7.4414371233
 30
0.0
 10
12.1831927078
 20
7.444108618
 30
0.0
 10
12.1836913265
 20
7.44611138
 30
0.0
 10
12.1841055775
 20
7.4477830808
 30
0.0
 10
12.1843980351
 20
7.4489479088
 30
0.0
 10
12.1845612783
 20
7.4496218981
 30
0.0
 10
12.1846946277
 20
7.4501038024
 30
0.0
 10
12.184786247
 20
7.4506758707
 30
0.0
 10
12.1849229619
 20
7.4514071781
 30
0.0
 10
12.1851554311
 20
7.4527016194
 30
0.0
 10
12.1854910757
 20
7.4545431604
 30
0.0
 10
12.1858923315
 20
7.4567562887
 30
0.0
 10
12.1864278695
 20
7.4597059807
 30
0.0
 10
12.1870971088
 20
7.4633934909
 30
0.0
 10
12.1879002801
 20
7.4678183252
 30
0.0
 10
12.1887034082
 20
7.4722432387
 30
0.0
 10
12.1893727553
 20
7.4759305507
 30
0.0
 10
12.1899080776
 20
7.4788806391
 30
0.0
 10
12.1903099913
 20
7.4810925586
 30
0.0
 10
12.1906435777
 20
7.482937881
 30
0.0
 10
12.1908797211
 20
7.4842255719
 30
0.0
 10
12.1910105491
 20
7.4849676952
 30
0.0
 10
12.191120251
 20
7.4855065405
 30
0.0
 10
12.1911856851
 20
7.4861132247
 30
0.0
 10
12.1912883716
 20
7.486898474
 30
0.0
 10
12.1914608788
 20
7.4882836852
 30
0.0
 10
12.1917110789
 20
7.4902567943
 30
0.0
 10
12.1920097087
 20
7.4926269927
 30
0.0
 10
12.1924084463
 20
7.4957863941
 30
0.0
 10
12.1929066599
 20
7.4997359507
 30
0.0
 10
12.1935046696
 20
7.5044752503
 30
0.0
 10
12.1941023994
 20
7.5092147353
 30
0.0
 10
12.1947010954
 20
7.5139536469
 30
0.0
 10
12.1951970211
 20
7.5179044967
 30
0.0
 10
12.1955500205
 20
7.5206666532
 30
0.0
 10
12.1957425998
 20
7.5222503957
 30
0.0
 10
12.1959127665
 20
7.5234230829
 30
0.0
 10
12.1959845716
 20
7.5246535651
 30
0.0
 10
12.1961146214
 20
7.5262740486
 30
0.0
 10
12.1963262224
 20
7.5291192875
 30
0.0
 10
12.1966368728
 20
7.5331790025
 30
0.0
 10
12.1970060496
 20
7.5380527688
 30
0.0
 10
12.19737626
 20
7.5429259609
 30
0.0
 10
12.1977459398
 20
7.5477993414
 30
0.0
 10
12.1981167081
 20
7.5526725429
 30
0.0
 10
12.1984224956
 20
7.5567339836
 30
0.0
 10
12.1986427615
 20
7.5595761476
 30
0.0
 10
12.1987589298
 20
7.5612015572
 30
0.0
 10
12.1988733742
 20
7.5624169081
 30
0.0
 10
12.1988833947
 20
7.563646426
 30
0.0
 10
12.1989331797
 20
7.5652808416
 30
0.0
 10
12.1990033323
 20
7.5681433713
 30
0.0
 10
12.1991124249
 20
7.5722314961
 30
0.0
 10
12.1992395294
 20
7.5771377594
 30
0.0
 10
12.1993676608
 20
7.5820438938
 30
0.0
 10
12.1994954913
 20
7.5869500301
 30
0.0
 10
12.1996021637
 20
7.591038578
 30
0.0
 10
12.1996872995
 20
7.5943091731
 30
0.0
 10
12.1997516697
 20
7.5967627885
 30
0.0
 10
12.1998036677
 20
7.5988053391
 30
0.0
 10
12.1998432916
 20
7.6002393025
 30
0.0
 10
12.1998608978
 20
7.6010521866
 30
0.0
 10
12.199888289
 20
7.6016802267
 30
0.0
 10
12.1998614522
 20
7.6022380201
 30
0.0
 10
12.199844585
 20
7.6030062474
 30
0.0
 10
12.1998062545
 20
7.604339229
 30
0.0
 10
12.1997561042
 20
7.6062494569
 30
0.0
 10
12.1996939515
 20
7.6085391755
 30
0.0
 10
12.1996117705
 20
7.6115930265
 30
0.0
 10
12.1995088062
 20
7.6154100314
 30
0.0
 10
12.1993853577
 20
7.6199905808
 30
0.0
 10
12.1992618557
 20
7.6245710502
 30
0.0
 10
12.1991590249
 20
7.6283882549
 30
0.0
 10
12.1990765768
 20
7.6314417063
 30
0.0
 10
12.1990152388
 20
7.6337326439
 30
0.0
 10
12.19896254
 20
7.6356390584
 30
0.0
 10
12.1989287589
 20
7.6369788474
 30
0.0
 10
12.1989046025
 20
7.6377361674
 30
0.0
 10
12.198900156
 20
7.6383274647
 30
0.0
 10
12.1988434526
 20
7.6388296696
 30
0.0
 10
12.1987860758
 20
7.6395303525
 30
0.0
 10
12.1986771739
 20
7.6407420686
 30
0.0
 10
12.1985260397
 20
7.6424806614
 30
0.0
 10
12.1983427782
 20
7.6445637325
 30
0.0
 10
12.1980990934
 20
7.6473422926
 30
0.0
 10
12.1977942594
 20
7.650815104
 30
0.0
 10
12.197428557
 20
7.6549826459
 30
0.0
 10
12.1970628261
 20
7.6591501371
 30
0.0
 10
12.1967580636
 20
7.662623075
 30
0.0
 10
12.1965142359
 20
7.665401382
 30
0.0
 10
12.1963618811
 20
7.6671379179
 30
0.0
 10
12.1962399116
 20
7.6685269319
 30
0.0
 10
12.1961486691
 20
7.66956928
 30
0.0
 10
12.1960718873
 20
7.6704360344
 30
0.0
 10
12.1960196048
 20
7.6710464302
 30
0.0
 10
12.1959874421
 20
7.671389501
 30
0.0
 10
12.1959697624
 20
7.6716629368
 30
0.0
 10
12.1959274568
 20
7.671874705
 30
0.0
 10
12.1958796391
 20
7.672178573
 30
0.0
 10
12.1957919559
 20
7.67270032
 30
0.0
 10
12.1956687867
 20
7.6734509124
 30
0.0
 10
12.195520088
 20
7.6743493806
 30
0.0
 10
12.1953221359
 20
7.6755481216
 30
0.0
 10
12.1950745887
 20
7.6770462795
 30
0.0
 10
12.194678573
 20
7.6794434822
 30
0.0
 10
12.1941835328
 20
7.6824399336
 30
0.0
 10
12.1935894939
 20
7.6860356994
 30
0.0
 10
12.1929954503
 20
7.6896314523
 30
0.0
 10
12.1925004217
 20
7.6926279358
 30
0.0
 10
12.1921043827
 20
7.6950250744
 30
0.0
 10
12.1918568947
 20
7.696523395
 30
0.0
 10
12.1916588211
 20
7.6977218021
 30
0.0
 10
12.1915104936
 20
7.6986212901
 30
0.0
 10
12.1913861629
 20
7.6993686919
 30
0.0
 10
12.1913005533
 20
7.6998961347
 30
0.0
 10
12.1912494132
 20
7.7001908765
 30
0.0
 10
12.1912173129
 20
7.7004306775
 30
0.0
 10
12.191161304
 20
7.7005988271
 30
0.0
 10
12.191094965
 20
7.7008480194
 30
0.0
 10
12.1909749863
 20
7.7012724612
 30
0.0
 10
12.1908056196
 20
7.7018848946
 30
0.0
 10
12.19060151
 20
7.7026172089
 30
0.0
 10
12.1903296675
 20
7.7035945381
 30
0.0
 10
12.1899897605
 20
7.7048158879
 30
0.0
 10
12.1894459673
 20
7.7067702219
 30
0.0
 10
12.1887662058
 20
7.7092130791
 30
0.0
 10
12.1879505011
 20
7.7121445358
 30
0.0
 10
12.1871347923
 20
7.7150759766
 30
0.0
 10
12.1864550408
 20
7.7175188737
 30
0.0
 10
12.1859112278
 20
7.7194731279
 30
0.0
 10
12.1855713712
 20
7.7206946807
 30
0.0
 10
12.1852994252
 20
7.7216715933
 30
0.0
 10
12.1850956321
 20
7.7224051804
 30
0.0
 10
12.1849252748
 20
7.7230136313
 30
0.0
 10
12.1848070644
 20
7.7234451826
 30
0.0
 10
12.1847378922
 20
7.7236829838
 30
0.0
 10
12.184690586
 20
7.7238861231
 30
0.0
 10
12.1846257999
 20
7.7239945084
 30
0.0
 10
12.1845455155
 20
7.7241720735
 30
0.0
 10
12.1844021772
 20
7.7244674131
 30
0.0
 10
12.1841988932
 20
7.7248973777
 30
0.0
 10
12.1839543168
 20
7.7254098892
 30
0.0
 10
12.183628437
 20
7.7260944415
 30
0.0
 10
12.1832210111
 20
7.7269497198
 30
0.0
 10
12.1825691723
 20
7.7283183954
 30
0.0
 10
12.181754359
 20
7.7300291603
 30
0.0
 10
12.1807765898
 20
7.7320821147
 30
0.0
 10
12.1797988175
 20
7.7341350507
 30
0.0
 10
12.178984012
 20
7.7358458616
 30
0.0
 10
12.1783321576
 20
7.7372144452
 30
0.0
 10
12.1779247712
 20
7.7380699573
 30
0.0
 10
12.1775988105
 20
7.7387540297
 30
0.0
 10
12.1773544811
 20
7.7392680073
 30
0.0
 10
12.1771504242
 20
7.7396933848
 30
0.0
 10
12.1770084657
 20
7.7399969133
 30
0.0
 10
12.1769259705
 20
7.7401613577
 30
0.0
 10
12.1768679754
 20
7.7403100454
 30
0.0
 10
12.176795163
 20
7.7403618158
 30
0.0
 10
12.1767032482
 20
7.7404646488
 30
0.0
 10
12.1765399893
 20
7.7406288558
 30
0.0
 10
12.1763080213
 20
7.740871672
 30
0.0
 10
12.1760291208
 20
7.7411595267
 30
0.0
 10
12.1756574417
 20
7.741544564
 30
0.0
 10
12.1751927783
 20
7.7420254391
 30
0.0
 10
12.174449353
 20
7.742795075
 30
0.0
 10
12.1735200588
 20
7.7437570384
 30
0.0
 10
12.1724049115
 20
7.7449114319
 30
0.0
 10
12.1712897617
 20
7.7460658063
 30
0.0
 10
12.1703604736
 20
7.7470278174
 30
0.0
 10
12.1696170362
 20
7.7477973579
 30
0.0
 10
12.1691524034
 20
7.7482784753
 30
0.0
 10
12.1687806616
 20
7.7486630155
 30
0.0
 10
12.1685019527
 20
7.7489523891
 30
0.0
 10
12.1682693851
 20
7.7491904528
 30
0.0
 10
12.1681071966
 20
7.7493631437
 30
0.0
 10
12.1680135668
 20
7.7494523834
 30
0.0
 10
12.1679460223
 20
7.7495459082
 30
0.0
 10
12.1678682418
 20
7.7495377732
 30
0.0
 10
12.167768105
 20
7.7495623866
 30
0.0
 10
12.1675912019
 20
7.7495889385
 30
0.0
 10
12.1673393529
 20
7.7496355075
 30
0.0
 10
12.1670367619
 20
7.7496876931
 30
0.0
 10
12.1666334373
 20
7.7497585652
 30
0.0
 10
12.1661292369
 20
7.7498467131
 30
0.0
 10
12.1653225413
 20
7.7499879971
 30
0.0
 10
12.1643141631
 20
7.7501645167
 30
0.0
 10
12.1631041132
 20
7.7503763792
 30
0.0
 10
12.1618940615
 20
7.750588222
 30
0.0
 10
12.1608856877
 20
7.7507647911
 30
0.0
 10
12.1600789834
 20
7.7509059759
 30
0.0
 10
12.159574805
 20
7.7509943758
 30
0.0
 10
12.1591714354
 20
7.7510647309
 30
0.0
 10
12.1588689816
 20
7.7511184962
 30
0.0
 10
12.1586167033
 20
7.7511601224
 30
0.0
 10
12.1584405667
 20
7.7511954981
 30
0.0
 10
12.1583392017
 20
7.7512059736
 30
0.0
 10
12.1582651938
 20
7.7512412656
 30
0.0
 10
12.1581834801
 20
7.7511716855
 30
0.0
 10
12.1580772164
 20
7.7511154927
 30
0.0
 10
12.1578900025
 20
7.7510001116
 30
0.0
 10
12.1576232089
 20
7.750844192
 30
0.0
 10
12.1573027764
 20
7.7506532745
 30
0.0
 10
12.1568756309
 20
7.75040005
 30
0.0
 10
12.1563416654
 20
7.7500830632
 30
0.0
 10
12.1554873395
 20
7.7495761393
 30
0.0
 10
12.1544194256
 20
7.7489423969
 30
0.0
 10
12.1531379318
 20
7.7481819435
 30
0.0
 10
12.1518564371
 20
7.7474214802
 30
0.0
 10
12.1501477779
 20
7.7464075325
 30
0.0
 10
12.1488662834
 20
7.745647071
 30
0.0
 10
12.1480119538
 20
7.7451400968
 30
0.0
  0
SPLINE
  5
39A
100
AcDbEntity
  8
0
100
AcDbSpline
 62
4
  6
CONTINUOUS
 70
0
 71
3
 72
281
 73
277
 74
0
 42
0.0000001
 43
0.0000001
 44
0.0000000001
 40
0.0
 40
0.0
 40
0.0
 40
0.0
 40
0.015625
 40
0.0234375
 40
0.03125
 40
0.0390625
 40
0.046875
 40
0.05078125
 40
0.0546875
 40
0.056640625
 40
0.05859375
 40
0.060546875
 40
0.0615234375
 40
0.0620117188
 40
0.0625
 40
0.0629882812
 40
0.0634765625
 40
0.064453125
 40
0.06640625
 40
0.068359375
 40
0.0703125
 40
0.07421875
 40
0.078125
 40
0.0859375
 40
0.09375
 40
0.1015625
 40
0.109375
 40
0.11328125
 40
0.1171875
 40
0.119140625
 40
0.12109375
 40
0.123046875
 40
0.1240234375
 40
0.1245117188
 40
0.125
 40
0.1254882812
 40
0.1259765625
 40
0.126953125
 40
0.12890625
 40
0.130859375
 40
0.1328125
 40
0.13671875
 40
0.140625
 40
0.1484375
 40
0.15625
 40
0.1640625
 40
0.171875
 40
0.17578125
 40
0.1796875
 40
0.181640625
 40
0.18359375
 40
0.185546875
 40
0.1865234375
 40
0.1870117188
 40
0.1875
 40
0.1879882812
 40
0.1884765625
 40
0.189453125
 40
0.19140625
 40
0.193359375
 40
0.1953125
 40
0.19921875
 40
0.203125
 40
0.2109375
 40
0.21875
 40
0.2265625
 40
0.234375
 40
0.23828125
 40
0.2421875
 40
0.24609375
 40
0.248046875
 40
0.2490234375
 40
0.25
 40
0.2509765625
 40
0.251953125
 40
0.25390625
 40
0.2578125
 40
0.26171875
 40
0.265625
 40
0.2734375
 40
0.28125
 40
0.2890625
 40
0.296875
 40
0.30078125
 40
0.3046875
 40
0.30859375
 40
0.310546875
 40
0.3115234375
 40
0.3125
 40
0.3134765625
 40
0.314453125
 40
0.31640625
 40
0.3203125
 40
0.32421875
 40
0.328125
 40
0.3359375
 40
0.34375
 40
0.3515625
 40
0.359375
 40
0.3671875
 40
0.37109375
 40
0.373046875
 40
0.375
 40
0.376953125
 40
0.37890625
 40
0.3828125
 40
0.390625
 40
0.3984375
 40
0.40625
 40
0.4140625
 40
0.421875
 40
0.4296875
 40
0.43359375
 40
0.435546875
 40
0.4375
 40
0.439453125
 40
0.44140625
 40
0.4453125
 40
0.453125
 40
0.4609375
 40
0.46875
 40
0.4765625
 40
0.484375
 40
0.48828125
 40
0.4921875
 40
0.49609375
 40
0.498046875
 40
0.4990234375
 40
0.5
 40
0.5009765625
 40
0.501953125
 40
0.50390625
 40
0.5078125
 40
0.51171875
 40
0.515625
 40
0.5234375
 40
0.53125
 40
0.5390625
 40
0.546875
 40
0.55078125
 40
0.5546875
 40
0.55859375
 40
0.560546875
 40
0.5615234375
 40
0.5625
 40
0.5634765625
 40
0.564453125
 40
0.56640625
 40
0.5703125
 40
0.57421875
 40
0.578125
 40
0.5859375
 40
0.59375
 40
0.6015625
 40
0.609375
 40
0.61328125
 40
0.6171875
 40
0.619140625
 40
0.62109375
 40
0.623046875
 40
0.6240234375
 40
0.6245117188
 40
0.625
 40
0.6254882812
 40
0.6259765625
 40
0.626953125
 40
0.62890625
 40
0.630859375
 40
0.6328125
 40
0.63671875
 40
0.640625
 40
0.6484375
 40
0.65625
 40
0.6640625
 40
0.671875
 40
0.67578125
 40
0.6796875
 40
0.681640625
 40
0.68359375
 40
0.685546875
 40
0.6865234375
 40
0.6870117188
 40
0.6875
 40
0.6879882812
 40
0.6884765625
 40
0.689453125
 40
0.69140625
 40
0.693359375
 40
0.6953125
 40
0.69921875
 40
0.703125
 40
0.7109375
 40
0.71875
 40
0.7265625
 40
0.734375
 40
0.73828125
 40
0.7421875
 40
0.744140625
 40
0.74609375
 40
0.748046875
 40
0.7490234375
 40
0.7495117188
 40
0.75
 40
0.7504882812
 40
0.7509765625
 40
0.751953125
 40
0.75390625
 40
0.755859375
 40
0.7578125
 40
0.76171875
 40
0.765625
 40
0.7734375
 40
0.78125
 40
0.7890625
 40
0.796875
 40
0.80078125
 40
0.8046875
 40
0.806640625
 40
0.80859375
 40
0.810546875
 40
0.8115234375
 40
0.8120117188
 40
0.8125
 40
0.8129882812
 40
0.8134765625
 40
0.814453125
 40
0.81640625
 40
0.818359375
 40
0.8203125
 40
0.82421875
 40
0.828125
 40
0.8359375
 40
0.84375
 40
0.8515625
 40
0.859375
 40
0.86328125
 40
0.8671875
 40
0.869140625
 40
0.87109375
 40
0.873046875
 40
0.8740234375
 40
0.8745117188
 40
0.875
 40
0.8754882812
 40
0.8759765625
 40
0.876953125
 40
0.87890625
 40
0.880859375
 40
0.8828125
 40
0.88671875
 40
0.890625
 40
0.8984375
 40
0.90625
 40
0.9140625
 40
0.921875
 40
0.92578125
 40
0.9296875
 40
0.931640625
 40
0.93359375
 40
0.935546875
 40
0.9365234375
 40
0.9370117188
 40
0.9375
 40
0.9379882812
 40
0.9384765625
 40
0.939453125
 40
0.94140625
 40
0.943359375
 40
0.9453125
 40
0.94921875
 40
0.953125
 40
0.9609375
 40
0.96875
 40
0.9765625
 40
0.984375
 40
1.0
 40
1.0
 40
1.0
 40
1.0
 10
12.1480119583
 20
7.7451401012
 30
0.0
 10
12.1471724242
 20
7.7440219617
 30
0.0
 10
12.1459131229
 20
7.7423447528
 30
0.0
 10
12.1442340546
 20
7.7401084733
 30
0.0
 10
12.1429747533
 20
7.738431266
 30
0.0
 10
12.1417154524
 20
7.7367540498
 30
0.0
 10
12.1406660335
 20
7.7353563973
 30
0.0
 10
12.1398265018
 20
7.7342382135
 30
0.0
 10
12.1393017867
 20
7.7335394892
 30
0.0
 10
12.1388820325
 20
7.7329801879
 30
0.0
 10
12.1385671677
 20
7.7325615932
 30
0.0
 10
12.1383049371
 20
7.7322099605
 30
0.0
 10
12.1381210679
 20
7.7319693201
 30
0.0
 10
12.1380164803
 20
7.7318232196
 30
0.0
 10
12.1379366861
 20
7.7317378471
 30
0.0
 10
12.1378620655
 20
7.7315599591
 30
0.0
 10
12.1377607668
 20
7.7313550455
 30
0.0
 10
12.1375843349
 20
7.7309814113
 30
0.0
 10
12.1373318496
 20
7.7304555088
 30
0.0
 10
12.1370290555
 20
7.7298210612
 30
0.0
 10
12.1366252642
 20
7.7289763062
 30
0.0
 10
12.1361205477
 20
7.7279199601
 30
0.0
 10
12.1353129886
 20
7.7262300313
 30
0.0
 10
12.1343035442
 20
7.7241175427
 30
0.0
 10
12.1330922088
 20
7.7215825916
 30
0.0
 10
12.1318808748
 20
7.7190476237
 30
0.0
 10
12.1308714267
 20
7.716935177
 30
0.0
 10
12.130063875
 20
7.7152451644
 30
0.0
 10
12.1295591397
 20
7.7141890313
 30
0.0
 10
12.1291553869
 20
7.7133438392
 30
0.0
 10
12.1288524755
 20
7.7127107272
 30
0.0
 10
12.128600357
 20
7.7121806457
 30
0.0
 10
12.1284232703
 20
7.7118144717
 30
0.0
 10
12.1283230206
 20
7.7115976049
 30
0.0
 10
12.1282451779
 20
7.7114564332
 30
0.0
 10
12.1281774853
 20
7.7112331603
 30
0.0
 10
12.1280836881
 20
7.7109641009
 30
0.0
 10
12.1279211925
 20
7.710479904
 30
0.0
 10
12.1276881935
 20
7.70979517
 30
0.0
 10
12.1274089639
 20
7.7089705034
 30
0.0
 10
12.1270365288
 20
7.7078719908
 30
0.0
 10
12.1265710291
 20
7.7064984929
 30
0.0
 10
12.1258262048
 20
7.7043010959
 30
0.0
 10
12.124895183
 20
7.7015542808
 30
0.0
 10
12.1237779529
 20
7.698258134
 30
0.0
 10
12.122660725
 20
7.694961972
 30
0.0
 10
12.1217296976
 20
7.6922151949
 30
0.0
 10
12.1209848845
 20
7.6900177217
 30
0.0
 10
12.1205193565
 20
7.6886444175
 30
0.0
 10
12.1201469794
 20
7.6875455074
 30
0.0
 10
12.1198675726
 20
7.6867220552
 30
0.0
 10
12.1196351279
 20
7.6860335216
 30
0.0
 10
12.1194716428
 20
7.6855561076
 30
0.0
 10
12.119379431
 20
7.6852761804
 30
0.0
 10
12.1193068684
 20
7.6850862899
 30
0.0
 10
12.1192473167
 20
7.6848197393
 30
0.0
 10
12.1191633762
 20
7.6844910783
 30
0.0
 10
12.1190185947
 20
7.6839034631
 30
0.0
 10
12.1188106585
 20
7.6830705262
 30
0.0
 10
12.1185616082
 20
7.682068214
 30
0.0
 10
12.1182293759
 20
7.6807327716
 30
0.0
 10
12.1178141422
 20
7.679063135
 30
0.0
 10
12.1171497364
 20
7.6763919032
 30
0.0
 10
12.1163192413
 20
7.6730527968
 30
0.0
 10
12.1153226367
 20
7.6690459089
 30
0.0
 10
12.1143260544
 20
7.6650389685
 30
0.0
 10
12.1134955038
 20
7.6616999936
 30
0.0
 10
12.1128312089
 20
7.6590284988
 30
0.0
 10
12.1123325901
 20
7.6570257369
 30
0.0
 10
12.1119183392
 20
7.655354036
 30
0.0
 10
12.1116258816
 20
7.654189208
 30
0.0
 10
12.1114626384
 20
7.6535152188
 30
0.0
 10
12.1113292889
 20
7.6530333145
 30
0.0
 10
12.1112376697
 20
7.6524612462
 30
0.0
 10
12.1111009548
 20
7.6517299388
 30
0.0
 10
12.1108684855
 20
7.6504354975
 30
0.0
 10
12.110532841
 20
7.6485939565
 30
0.0
 10
12.1101315852
 20
7.6463808282
 30
0.0
 10
12.1095960472
 20
7.6434311361
 30
0.0
 10
12.1089268079
 20
7.639743626
 30
0.0
 10
12.1081236366
 20
7.6353187917
 30
0.0
 10
12.1073205085
 20
7.6308938781
 30
0.0
 10
12.1066511614
 20
7.6272065662
 30
0.0
 10
12.106115839
 20
7.6242564778
 30
0.0
 10
12.1057139254
 20
7.6220445582
 30
0.0
 10
12.105380339
 20
7.6201992358
 30
0.0
 10
12.1051441956
 20
7.618911545
 30
0.0
 10
12.1050133676
 20
7.6181694216
 30
0.0
 10
12.1049036657
 20
7.6176305763
 30
0.0
 10
12.1048382316
 20
7.6170238922
 30
0.0
 10
12.1047355451
 20
7.6162386429
 30
0.0
 10
12.1045630379
 20
7.6148534317
 30
0.0
 10
12.1043128378
 20
7.6128803226
 30
0.0
 10
12.104014208
 20
7.6105101241
 30
0.0
 10
12.1036154704
 20
7.6073507227
 30
0.0
 10
12.1031172568
 20
7.6034011662
 30
0.0
 10
12.1025192471
 20
7.5986618666
 30
0.0
 10
12.1019215173
 20
7.5939223816
 30
0.0
 10
12.1013228212
 20
7.5891834699
 30
0.0
 10
12.1008268955
 20
7.5852326201
 30
0.0
 10
12.1004738961
 20
7.5824704637
 30
0.0
 10
12.1002813169
 20
7.5808867212
 30
0.0
 10
12.1001111502
 20
7.579714034
 30
0.0
 10
12.1000393451
 20
7.5784835517
 30
0.0
 10
12.0999092953
 20
7.5768630683
 30
0.0
 10
12.0996976943
 20
7.5740178294
 30
0.0
 10
12.0993870439
 20
7.5699581144
 30
0.0
 10
12.0990178671
 20
7.5650843481
 30
0.0
 10
12.0986476567
 20
7.5602111559
 30
0.0
 10
12.0982779769
 20
7.5553377755
 30
0.0
 10
12.0979072085
 20
7.550464574
 30
0.0
 10
12.0976014211
 20
7.5464031333
 30
0.0
 10
12.0973811552
 20
7.5435609693
 30
0.0
 10
12.0972649869
 20
7.5419355597
 30
0.0
 10
12.0971505424
 20
7.5407202088
 30
0.0
 10
12.0971405219
 20
7.5394906909
 30
0.0
 10
12.097090737
 20
7.5378562752
 30
0.0
 10
12.0970205843
 20
7.5349937456
 30
0.0
 10
12.0969114918
 20
7.5309056208
 30
0.0
 10
12.0967843873
 20
7.5259993575
 30
0.0
 10
12.0966562559
 20
7.5210932231
 30
0.0
 10
12.0965284253
 20
7.5161870868
 30
0.0
 10
12.0964217529
 20
7.5120985389
 30
0.0
 10
12.0963366172
 20
7.5088279438
 30
0.0
 10
12.096272247
 20
7.5063743284
 30
0.0
 10
12.096220249
 20
7.5043317778
 30
0.0
 10
12.0961806251
 20
7.5028978144
 30
0.0
 10
12.0961630188
 20
7.5020849303
 30
0.0
 10
12.0961356277
 20
7.5014568901
 30
0.0
 10
12.0961624645
 20
7.5008990968
 30
0.0
 10
12.0961793317
 20
7.5001308694
 30
0.0
 10
12.0962176622
 20
7.4987978879
 30
0.0
 10
12.0962678125
 20
7.49688766
 30
0.0
 10
12.0963299652
 20
7.4945979413
 30
0.0
 10
12.0964121462
 20
7.4915440903
 30
0.0
 10
12.0965151105
 20
7.4877270855
 30
0.0
 10
12.096638559
 20
7.4831465361
 30
0.0
 10
12.096762061
 20
7.4785660666
 30
0.0
 10
12.0968648917
 20
7.4747488619
 30
0.0
 10
12.0969473399
 20
7.4716954106
 30
0.0
 10
12.0970086779
 20
7.469404473
 30
0.0
 10
12.0970613767
 20
7.4674980585
 30
0.0
 10
12.0970951578
 20
7.4661582694
 30
0.0
 10
12.0971193142
 20
7.4654009495
 30
0.0
 10
12.0971237607
 20
7.4648096521
 30
0.0
 10
12.0971804641
 20
7.4643074473
 30
0.0
 10
12.0972378409
 20
7.4636067643
 30
0.0
 10
12.0973467428
 20
7.4623950483
 30
0.0
 10
12.097497877
 20
7.4606564555
 30
0.0
 10
12.0976811385
 20
7.4585733843
 30
0.0
 10
12.0979248233
 20
7.4557948242
 30
0.0
 10
12.0982296572
 20
7.4523220128
 30
0.0
 10
12.0985953596
 20
7.448154471
 30
0.0
 10
12.0989610906
 20
7.4439869798
 30
0.0
 10
12.0992658531
 20
7.4405140419
 30
0.0
 10
12.0995096808
 20
7.4377357349
 30
0.0
 10
12.0996620356
 20
7.435999199
 30
0.0
 10
12.0997840051
 20
7.434610185
 30
0.0
 10
12.0998752476
 20
7.4335678369
 30
0.0
 10
12.0999520293
 20
7.4327010825
 30
0.0
 10
12.1000043119
 20
7.4320906866
 30
0.0
 10
12.1000364746
 20
7.4317476159
 30
0.0
 10
12.1000541543
 20
7.4314741801
 30
0.0
 10
12.1000964599
 20
7.4312624118
 30
0.0
 10
12.1001442776
 20
7.4309585438
 30
0.0
 10
12.1002319607
 20
7.4304367969
 30
0.0
 10
12.10035513
 20
7.4296862044
 30
0.0
 10
12.1005038287
 20
7.4287877362
 30
0.0
 10
12.1007017808
 20
7.4275889953
 30
0.0
 10
12.100949328
 20
7.4260908374
 30
0.0
 10
12.1013453437
 20
7.4236936347
 30
0.0
 10
12.1018403839
 20
7.4206971832
 30
0.0
 10
12.1024344228
 20
7.4171014175
 30
0.0
 10
12.1030284664
 20
7.4135056646
 30
0.0
 10
12.103523495
 20
7.4105091811
 30
0.0
 10
12.103919534
 20
7.4081120424
 30
0.0
 10
12.104167022
 20
7.4066137219
 30
0.0
 10
12.1043650956
 20
7.4054153147
 30
0.0
 10
12.104513423
 20
7.4045158267
 30
0.0
 10
12.1046377538
 20
7.403768425
 30
0.0
 10
12.1047233634
 20
7.4032409822
 30
0.0
 10
12.1047745034
 20
7.4029462403
 30
0.0
 10
12.1048066038
 20
7.4027064394
 30
0.0
 10
12.1048626127
 20
7.4025382898
 30
0.0
 10
12.1049289517
 20
7.4022890975
 30
0.0
 10
12.1050489304
 20
7.4018646557
 30
0.0
 10
12.1052182971
 20
7.4012522223
 30
0.0
 10
12.1054224067
 20
7.400519908
 30
0.0
 10
12.1056942492
 20
7.3995425788
 30
0.0
 10
12.1060341562
 20
7.3983212289
 30
0.0
 10
12.1065779494
 20
7.3963668949
 30
0.0
 10
12.1072577109
 20
7.3939240378
 30
0.0
 10
12.1080734156
 20
7.390992581
 30
0.0
 10
12.1088891243
 20
7.3880611403
 30
0.0
 10
12.1095688759
 20
7.3856182431
 30
0.0
 10
12.1101126889
 20
7.383663989
 30
0.0
 10
12.1104525455
 20
7.3824424362
 30
0.0
 10
12.1107244915
 20
7.3814655236
 30
0.0
 10
12.1109282846
 20
7.3807319365
 30
0.0
 10
12.1110986418
 20
7.3801234855
 30
0.0
 10
12.1112168523
 20
7.3796919343
 30
0.0
 10
12.1112860244
 20
7.3794541331
 30
0.0
 10
12.1113333306
 20
7.3792509938
 30
0.0
 10
12.1113981168
 20
7.3791426084
 30
0.0
 10
12.1114784011
 20
7.3789650434
 30
0.0
 10
12.1116217395
 20
7.3786697038
 30
0.0
 10
12.1118250234
 20
7.3782397392
 30
0.0
 10
12.1120695999
 20
7.3777272277
 30
0.0
 10
12.1123954797
 20
7.3770426753
 30
0.0
 10
12.1128029056
 20
7.3761873971
 30
0.0
 10
12.1134547444
 20
7.3748187215
 30
0.0
 10
12.1142695577
 20
7.3731079565
 30
0.0
 10
12.1152473269
 20
7.3710550022
 30
0.0
 10
12.1162250992
 20
7.3690020662
 30
0.0
 10
12.1170399047
 20
7.3672912553
 30
0.0
 10
12.1176917591
 20
7.3659226717
 30
0.0
 10
12.1180991455
 20
7.3650671596
 30
0.0
 10
12.1184251062
 20
7.3643830872
 30
0.0
 10
12.1186694356
 20
7.3638691095
 30
0.0
 10
12.1188734925
 20
7.3634437321
 30
0.0
 10
12.119015451
 20
7.3631402036
 30
0.0
 10
12.1190979462
 20
7.3629757592
 30
0.0
 10
12.1191559413
 20
7.3628270715
 30
0.0
 10
12.1192287537
 20
7.3627753011
 30
0.0
 10
12.1193206684
 20
7.3626724681
 30
0.0
 10
12.1194839273
 20
7.362508261
 30
0.0
 10
12.1197158954
 20
7.3622654449
 30
0.0
 10
12.1199947959
 20
7.3619775902
 30
0.0
 10
12.120366475
 20
7.3615925529
 30
0.0
 10
12.1208311384
 20
7.3611116778
 30
0.0
 10
12.1215745637
 20
7.3603420419
 30
0.0
 10
12.1225038578
 20
7.3593800784
 30
0.0
 10
12.1236190052
 20
7.358225685
 30
0.0
 10
12.124734155
 20
7.3570713106
 30
0.0
 10
12.1256634431
 20
7.3561092995
 30
0.0
 10
12.1264068804
 20
7.3553397589
 30
0.0
 10
12.1268715132
 20
7.3548586416
 30
0.0
 10
12.1272432551
 20
7.3544741014
 30
0.0
 10
12.127521964
 20
7.3541847278
 30
0.0
 10
12.1277545316
 20
7.3539466641
 30
0.0
 10
12.1279167201
 20
7.3537739731
 30
0.0
 10
12.1280103499
 20
7.3536847335
 30
0.0
 10
12.1280778944
 20
7.3535912086
 30
0.0
 10
12.1281556749
 20
7.3535993437
 30
0.0
 10
12.1282558117
 20
7.3535747303
 30
0.0
 10
12.1284327148
 20
7.3535481783
 30
0.0
 10
12.1286845638
 20
7.3535016094
 30
0.0
 10
12.1289871548
 20
7.3534494238
 30
0.0
 10
12.1293904794
 20
7.3533785517
 30
0.0
 10
12.1298946798
 20
7.3532904037
 30
0.0
 10
12.1307013754
 20
7.3531491198
 30
0.0
 10
12.1317097536
 20
7.3529726002
 30
0.0
 10
12.1329198035
 20
7.3527607376
 30
0.0
 10
12.1341298552
 20
7.3525488949
 30
0.0
 10
12.135138229
 20
7.3523723258
 30
0.0
 10
12.1359449333
 20
7.3522311409
 30
0.0
 10
12.1364491117
 20
7.352142741
 30
0.0
 10
12.1368524813
 20
7.352072386
 30
0.0
 10
12.1371549351
 20
7.3520186206
 30
0.0
 10
12.1374072134
 20
7.3519769945
 30
0.0
 10
12.13758335
 20
7.3519416188
 30
0.0
 10
12.137684715
 20
7.3519311433
 30
0.0
 10
12.1377587229
 20
7.3518958512
 30
0.0
 10
12.1378404366
 20
7.3519654313
 30
0.0
 10
12.1379467003
 20
7.3520216242
 30
0.0
 10
12.1381339141
 20
7.3521370053
 30
0.0
 10
12.1384007077
 20
7.3522929249
 30
0.0
 10
12.1387211403
 20
7.3524838424
 30
0.0
 10
12.1391482858
 20
7.3527370669
 30
0.0
 10
12.1396822512
 20
7.3530540537
 30
0.0
 10
12.1405365772
 20
7.3535609776
 30
0.0
 10
12.141604491
 20
7.35419472
 30
0.0
 10
12.1428859849
 20
7.3549551733
 30
0.0
 10
12.1441674795
 20
7.3557156367
 30
0.0
 10
12.1458761388
 20
7.3567295844
 30
0.0
 10
12.1471576332
 20
7.3574900459
 30
0.0
 10
12.1480119629
 20
7.3579970201
 30
0.0
  0
ENDSEC
  0
SECTION
  2
OBJECTS
  0
DICTIONARY
  5
C
100
AcDbDictionary
280
0
281
1
  3
ACAD_GROUP
350
D
  3
ACAD_MLINESTYLE
350
17
  3
ACAD_LAYOUT
350
1A
  3
ACAD_PLOTSETTINGS
350
19
  3
ACAD_PLOTSTYLENAME
350
E
  3
ACAD_IMAGE_DICT
350
       39C
  3
ACAD_IMAGE_VARS
350
       39D
  3
ACAD_TABLESTYLE
350
       39E
  0
IMAGEDEF_REACTOR
  5
39B
100
AcDbRasterImageDefReactor
 90
2
330
275
  0
DICTIONARY
  5
D
102
{ACAD_REACTORS
330
C
102
}
100
AcDbDictionary
280
0
281
1
  0
ACDBDICTIONARYWDFLT
  5
E
102
{ACAD_REACTORS
330
C
102
}
100
AcDbDictionary
281
1
  3
Normal
350
F
100
AcDbDictionaryWithDefault
340
F
  0
DICTIONARY
  5
39C
330
C
100
AcDbDictionary
281
1
  3
XYM_assy_2_img_1
350
       3A1
  0
RASTERVARIABLES
  5
39D
330
C
100
AcDbRasterVariables
 90
0
 70
0
 71
1
 72
5
  0
DICTIONARY
  5
17
102
{ACAD_REACTORS
330
C
102
}
100
AcDbDictionary
280
0
281
1
  3
Standard
350
18
  0
DICTIONARY
  5
39E
330
C
100
AcDbDictionary
281
1
  3
Standard
350
       3A2
  3
Standard1
350
       3A3
  0
DICTIONARY
  5
19
102
{ACAD_REACTORS
330
C
102
}
100
AcDbDictionary
281
1
  0
DICTIONARY
  5
1A
102
{ACAD_REACTORS
330
C
102
}
100
AcDbDictionary
281
1
  3
Model
350
39F
  3
Layout1
350
3A0
  0
ACDBPLACEHOLDER
  5
F
102
{ACAD_REACTORS
330
E
102
}
  0
MLINESTYLE
  5
18
102
{ACAD_REACTORS
330
17
102
}
100
AcDbMlineStyle
  2
STANDARD
 70
0
  3

 62
256
 51
90.0
 52
90.0
 71
2
 49
0.5
 62
256
  6
BYLAYER
 49
-0.5
 62
256
  6
BYLAYER
  0
LAYOUT
  5
39F
102
{ACAD_REACTORS
330
1A
102
}
100
AcDbPlotSettings
  1

  2
none_device
  4
ANSI_C_(22.00_x_17.00_Inches)
  6

 40
0.0
 41
0.0
 42
0.0
 43
0.0
 44
558.8
 45
431.8
 46
0.0
 47
0.0
 48
0.0
 49
0.0
140
0.0
141
0.0
142
1.0
143
1.0
 70
1024
 72
0
 73
0
 74
0
  7

 75
0
147
1.0
148
0.0
149
0.0
100
AcDbLayout
  1
Model
 70
0
 71
0
 10
0.0
 20
0.0
 11
22.0
 21
17.0
 12
0.0
 22
0.0
 32
0.0
 14
0.0
 24
0.0
 34
0.0
 15
0.0
 25
0.0
 35
0.0
146
0.0
 13
0.0
 23
0.0
 33
0.0
 16
1.0
 26
0.0
 36
0.0
 17
0.0
 27
1.0
 37
0.0
 76
0
330
204
345
0
346
0
  0
LAYOUT
  5
3A0
102
{ACAD_REACTORS
330
1A
102
}
100
AcDbPlotSettings
  1

  2
none_device
  4
ANSI_C_(22.00_x_17.00_Inches)
  6

 40
0.0
 41
0.0
 42
0.0
 43
0.0
 44
558.8
 45
431.8
 46
0.0
 47
0.0
 48
0.0
 49
0.0
140
0.0
141
0.0
142
1.0
143
1.0
 70
0
 72
0
 73
0
 74
0
  7

 75
0
147
1.0
148
0.0
149
0.0
100
AcDbLayout
  1
Layout1
 70
0
 71
1
 10
0.0
 20
0.0
 11
22.0
 21
17.0
 12
0.0
 22
0.0
 32
0.0
 14
0.0
 24
0.0
 34
0.0
 15
0.0
 25
0.0
 35
0.0
146
0.0
 13
0.0
 23
0.0
 33
0.0
 16
1.0
 26
0.0
 36
0.0
 17
0.0
 27
1.0
 37
0.0
 76
0
330
205
345
0
346
0
  0
IMAGEDEF
  5
3A1
102
{ACAD_REACTORS
330
39C
330
39B
102
}
100
AcDbRasterImageDef
 90
0
  1
XYM_assy_2_img_1.png
 10
369.0
 20
92.0
 11
0.0066666667
 21
0.0066666667
280
1
281
0
  0
TABLESTYLE
  5
3A2
102
{ACAD_REACTORS
330
39E
330
278
330
279
102
}
330
39E
100
AcDbTableStyle
  3
Standard
 70
0
 71
0
 40
0.06
 41
0.06
280
1
281
1
  7
Standard
140
0.18
170
1
 62
0
 63
7
283
0
  7
Standard
140
0.18
170
1
 62
0
 63
7
283
0
  7
Standard
140
0.18
170
1
 62
0
 63
7
283
0
  0
TABLESTYLE
  5
3A3
102
{ACAD_REACTORS
330
39E
330
277
102
}
330
39E
100
AcDbTableStyle
  3
Standard1
 70
1
 71
0
 40
0.06
 41
0.06
280
1
281
1
  7
Standard
140
0.18
170
1
 62
0
 63
7
283
0
  7
Standard
140
0.18
170
1
 62
0
 63
7
283
0
  7
Standard
140
0.18
170
1
 62
0
 63
7
283
0
  0
ENDSEC
  0
EOF
