999
DXF file: XYD_assy_2.dxf
999
Pro/ENGINEER 2014200 by Parametric Technology Corporation
  0
SECTION
  2
HEADER
  9
$ACADVER
  1
AC1021
  9
$DWGCODEPAGE
  3
ANSI_1252
  9
$EXTMAX
 10
22.0
 20
17.0
 30
0.0
  9
$EXTMIN
 10
0.0
 20
0.0
 30
0.0
  9
$LIMMIN
 10
0.0
 20
0.0
  9
$LIMMAX
 10
22.0
 20
17.0
  9
$VIEWCTR
 10
11.0
 20
8.5
  9
$VIEWSIZE
 40
17.0
  9
$CLAYER
  8
0
  9
$LTSCALE
 40
1.21
  9
$CELTYPE
  6
BYLAYER
  9
$DIMSCALE
 40
1.0
  9
$DIMASZ
 40
0.1875
  9
$DIMEXO
 40
0.0625
  9
$DIMDLI
 40
0.836
  9
$DIMEXE
 40
0.125
  9
$DIMCEN
 40
0.198
  9
$DIMLFAC
 40
1.0
  9
$DIMBLK
  1
_FILLED
  9
$DIMTXT
 40
0.1
  9
$DIMTOL
 70
0
  9
$DIMLIM
 70
0
  9
$DIMTFAC
 40
1.0
  9
$DIMGAP
 40
0.09
  9
$DIMDSEP
 70
46
  9
$AUNITS
 70
0
  9
$PDMODE
 70
3
  9
$PDSIZE
 40
0.3125
  9
$HANDSEED
  5
395
  9
$TILEMODE
 70
1
  9
$MEASUREMENT
 70
0
  9
$INSUNITS
 70
1
  0
ENDSEC
  0
SECTION
  2
CLASSES
  0
CLASS
  1
ACDBDICTIONARYWDFLT
  2
AcDbDictionaryWithDefault
  3
AutoCAD 2000
 90
0
 91
1
280
0
281
0
  0
CLASS
  1
ACDBPLACEHOLDER
  2
AcDbPlaceHolder
  3
AutoCAD 2000
 90
0
 91
1
280
0
281
0
  0
CLASS
  1
LAYOUT
  2
AcDbLayout
  3
AutoCAD 2000
 90
0
 91
0
280
0
281
0
  0
CLASS
  1
RASTERVARIABLES
  2
AcDbRasterVariables
  3
ISM
 90
0
 91
1
280
0
281
0
  0
CLASS
  1
IMAGEDEF
  2
AcDbRasterImageDef
  3
ISM
 90
0
 91
1
280
0
281
0
  0
CLASS
  1
IMAGEDEF_REACTOR
  2
AcDbRasterImageDefReactor
  3
ISM
 90
0
 91
1
280
0
281
0
  0
CLASS
  1
IMAGE
  2
AcDbRasterImage
  3
ISM
 90
127
 91
1
280
0
281
1
  0
CLASS
  1
TABLESTYLE
  2
AcDbTableStyle
  3
ObjectDBX Classes
 90
2047
 91
1
280
0
281
0
  0
CLASS
  1
ACAD_TABLE
  2
AcDbTable
  3
ObjectDBX Classes
 90
1025
 91
3
280
0
281
1
  0
ENDSEC
  0
SECTION
  2
TABLES
  0
TABLE
  2
VPORT
  5
8
100
AcDbSymbolTable
 70
2
  0
VPORT
  5
1F4
100
AcDbSymbolTableRecord
100
AcDbViewportTableRecord
  2
*ACTIVE
 70
0
 10
0.0
 20
0.0
 11
1.0
 21
1.0
 12
11.0
 22
8.5
 13
0.0
 23
0.0
 14
1.0
 24
1.0
 15
0.0
 25
0.0
 16
0.0
 26
0.0
 36
1.0
 17
0.0
 27
0.0
 37
0.0
 40
17.0
 41
1.2941176471
 42
50.0
 43
0.0
 44
0.0
 50
0.0
 51
0.0
 71
0
 72
100
 73
1
 74
1
 75
0
 76
0
 77
0
 78
0
  0
ENDTAB
  0
TABLE
  2
LTYPE
  5
5
100
AcDbSymbolTable
 70
6
  0
LTYPE
  5
14
100
AcDbSymbolTableRecord
100
AcDbLinetypeTableRecord
  2
BYBLOCK
 70
0
  3

 72
65
 73
0
 40
0.0
  0
LTYPE
  5
15
100
AcDbSymbolTableRecord
100
AcDbLinetypeTableRecord
  2
BYLAYER
 70
0
  3

 72
65
 73
0
 40
0.0
  0
LTYPE
  5
16
100
AcDbSymbolTableRecord
100
AcDbLinetypeTableRecord
  2
CONTINUOUS
 70
64
  3
Solid line
 72
65
 73
0
 40
0.0
  0
LTYPE
  5
1F5
100
AcDbSymbolTableRecord
100
AcDbLinetypeTableRecord
  2
CENTER
 70
64
  3
____ _ ____ _ ____ _ ____ _ ____ _ ____ _ ____
 72
65
 73
4
 40
0.6
 49
0.375
 74
0
 49
-0.075
 74
0
 49
0.075
 74
0
 49
-0.075
 74
0
  0
LTYPE
  5
1F6
100
AcDbSymbolTableRecord
100
AcDbLinetypeTableRecord
  2
HIDDEN
 70
64
  3
- - - - - - - - - - - - - - - - - - - -
 72
65
 73
2
 40
0.2
 49
0.1
 74
0
 49
-0.1
 74
0
  0
LTYPE
  5
1F7
100
AcDbSymbolTableRecord
100
AcDbLinetypeTableRecord
  2
PHANTOM
 70
64
  3
_____ _ _ _____ _ _ _____ _ _ _____
 72
65
 73
6
 40
0.8
 49
0.45
 74
0
 49
-0.05
 74
0
 49
0.1
 74
0
 49
-0.05
 74
0
 49
0.1
 74
0
 49
-0.05
 74
0
  0
LTYPE
  5
1F8
100
AcDbSymbolTableRecord
100
AcDbLinetypeTableRecord
  2
DOT
 70
64
  3
. . . . . . . . . . . . . . . . . . . .
 72
65
 73
2
 40
0.2
 49
0.1
 74
0
 49
-0.1
 74
0
  0
LTYPE
  5
1F9
100
AcDbSymbolTableRecord
100
AcDbLinetypeTableRecord
  2
DASHED
 70
64
  3
- - - - - - - - - - - - - - - - - - - -
 72
65
 73
2
 40
0.2
 49
0.1
 74
0
 49
-0.1
 74
0
  0
ENDTAB
  0
TABLE
  2
LAYER
  5
2
100
AcDbSymbolTable
 70
36
  0
LAYER
  5
10
100
AcDbSymbolTableRecord
100
AcDbLayerTableRecord
  2
0
 70
0
 62
7
  6
CONTINUOUS
370
-3
390
F
  0
LAYER
  5
1FA
100
AcDbSymbolTableRecord
100
AcDbLayerTableRecord
  2
DEFAULT_1
 70
0
 62
7
  6
CENTER
370
-3
390
F
  0
LAYER
  5
1FB
100
AcDbSymbolTableRecord
100
AcDbLayerTableRecord
  2
DEFAULT_2
 70
0
 62
8
  6
HIDDEN
370
-3
390
F
  0
LAYER
  5
1FC
100
AcDbSymbolTableRecord
100
AcDbLayerTableRecord
  2
DEFAULT_3
 70
0
 62
7
  6
PHANTOM
370
-3
390
F
  0
LAYER
  5
1FD
100
AcDbSymbolTableRecord
100
AcDbLayerTableRecord
  2
DATUM_PLANES
 70
0
 62
7
  6
CONTINUOUS
370
-3
390
F
  0
LAYER
  5
1FE
100
AcDbSymbolTableRecord
100
AcDbLayerTableRecord
  2
PORT_AREAS
 70
0
 62
7
  6
CONTINUOUS
370
-3
390
F
  0
LAYER
  5
1FF
100
AcDbSymbolTableRecord
100
AcDbLayerTableRecord
  2
SUNNBOMCOSMETIC
 70
0
 62
7
  6
CONTINUOUS
370
-3
390
F
  0
LAYER
  5
200
100
AcDbSymbolTableRecord
100
AcDbLayerTableRecord
  2
SUNNBOMSTAMPING
 70
0
 62
7
  6
CONTINUOUS
370
-3
390
F
  0
LAYER
  5
201
100
AcDbSymbolTableRecord
100
AcDbLayerTableRecord
  2
THREADS
 70
0
 62
7
  6
CONTINUOUS
370
-3
390
F
  0
ENDTAB
  0
TABLE
  2
STYLE
  5
3
100
AcDbSymbolTable
 70
1
  0
STYLE
  5
11
100
AcDbSymbolTableRecord
100
AcDbTextStyleTableRecord
  2
STANDARD
 70
0
 40
0.0
 41
0.8
 50
0.0
 71
0
 42
0.2
  3
txt
  4

  0
STYLE
  5
202
100
AcDbSymbolTableRecord
100
AcDbTextStyleTableRecord
  2
TEXTSTYLE_1
 70
0
 40
0.0
 41
0.8
 50
0.0
 71
0
 42
0.2
  3
gdt
  4

  0
ENDTAB
  0
TABLE
  2
VIEW
  5
6
100
AcDbSymbolTable
 70
0
  0
ENDTAB
  0
TABLE
  2
UCS
  5
7
100
AcDbSymbolTable
 70
0
  0
ENDTAB
  0
TABLE
  2
APPID
  5
9
100
AcDbSymbolTable
 70
1
  0
APPID
  5
203
100
AcDbSymbolTableRecord
100
AcDbRegAppTableRecord
  2
ACAD
 70
0
  0
ENDTAB
  0
TABLE
  2
BLOCK_RECORD
  5
1
100
AcDbSymbolTable
 70
0
  0
BLOCK_RECORD
  5
204
100
AcDbSymbolTableRecord
100
AcDbBlockTableRecord
  2
*Model_Space
  0
BLOCK_RECORD
  5
205
100
AcDbSymbolTableRecord
100
AcDbBlockTableRecord
  2
*Paper_Space
  0
BLOCK_RECORD
  5
206
100
AcDbSymbolTableRecord
100
AcDbBlockTableRecord
  2
SUN_FIRST_THIRD_ANGLE_BL0
  0
BLOCK_RECORD
  5
207
100
AcDbSymbolTableRecord
100
AcDbBlockTableRecord
  2
*T1
  0
BLOCK_RECORD
  5
208
100
AcDbSymbolTableRecord
100
AcDbBlockTableRecord
  2
*T2
  0
BLOCK_RECORD
  5
209
100
AcDbSymbolTableRecord
100
AcDbBlockTableRecord
  2
*T3
  0
ENDTAB
  0
TABLE
  2
DIMSTYLE
  5
A
100
AcDbSymbolTable
 70
1
100
AcDbDimStyleTable
 71
0
  0
DIMSTYLE
105
20A
100
AcDbSymbolTableRecord
100
AcDbDimStyleTableRecord
  2
STANDARD
 70
0
  3

  4

 40
1.0
 41
0.1875
 42
0.0625
 43
0.38
 44
0.125
 45
0.0
 46
0.0
 47
0.001
 48
0.001
140
0.1
141
0.09
142
0.0
143
25.4
144
1.0
145
0.0
146
1.0
147
0.09
 71
0.0
 72
0.0
 73
1
 74
1
 75
0
 76
0
 77
0
 78
4
170
0
171
2
172
0
173
0
174
0
175
0
176
0
177
0
178
0
270
2
271
3
272
3
273
2
274
2
275
0
280
0
281
0
282
0
283
1
284
4
285
0
286
0
287
3
288
0
340
11
278
46
  0
ENDTAB
  0
ENDSEC
  0
SECTION
  2
BLOCKS
  0
BLOCK
  5
20
100
AcDbEntity
  8
0
100
AcDbBlockBegin
  2
*Model_Space
 70
0
 10
0.0
 20
0.0
 30
0.0
  3
*Model_Space
  1

  0
ENDBLK
  5
21
100
AcDbEntity
  8
0
100
AcDbBlockEnd
  0
BLOCK
  5
1C
100
AcDbEntity
  8
0
100
AcDbBlockBegin
  2
*Paper_Space
 70
0
 10
0.0
 20
0.0
 30
0.0
  3
*Paper_Space
  1

  0
ENDBLK
  5
1D
100
AcDbEntity
  8
0
100
AcDbBlockEnd
  0
BLOCK
  5
20B
100
AcDbEntity
  8
0
100
AcDbBlockBegin
 62
2
  6
CONTINUOUS
  2
SUN_FIRST_THIRD_ANGLE_BL0
 70
64
 10
20.4816717061
 20
1.2289683772
  3
SUN_FIRST_THIRD_ANGLE_BL0
  1

  0
TEXT
  5
20C
100
AcDbEntity
  8
0
100
AcDbText
 62
2
  6
CONTINUOUS
 10
19.4750896608
 20
1.4136269581
  7
STANDARD
 40
0.08
  1
FIRST ANGLE
 41
0.8
 72
0
100
AcDbText
  0
TEXT
  5
20D
100
AcDbEntity
  8
0
100
AcDbText
 62
2
  6
CONTINUOUS
 10
20.7842537513
 20
1.4047600029
  7
STANDARD
 40
0.08
  1
THIRD ANGLE
 41
0.8
 72
0
100
AcDbText
  0
LINE
  5
20E
100
AcDbEntity
  8
0
100
AcDbLine
 62
7
  6
CONTINUOUS
 10
19.4767170086
 20
1.1727031207
 11
19.6334271527
 21
1.1717972817
  0
LINE
  5
20F
100
AcDbEntity
  8
0
100
AcDbLine
 62
7
  6
CONTINUOUS
 10
19.6596964832
 20
1.1717972817
 11
19.6950230232
 21
1.171593082
  0
LINE
  5
210
100
AcDbEntity
  8
0
100
AcDbLine
 62
7
  6
CONTINUOUS
 10
19.7194818561
 20
1.1708914427
 11
19.8852396156
 21
1.1699333054
  0
LINE
  5
211
100
AcDbEntity
  8
0
100
AcDbLine
 62
7
  6
CONTINUOUS
 10
19.4758111696
 20
1.2723454088
 11
19.88525039
 21
1.3511534004
  0
LINE
  5
212
100
AcDbEntity
  8
0
100
AcDbLine
 62
7
  6
CONTINUOUS
 10
19.88525039
 20
1.3511534004
 11
19.8831348489
 21
0.9851647912
  0
LINE
  5
213
100
AcDbEntity
  8
0
100
AcDbLine
 62
7
  6
CONTINUOUS
 10
19.8831348489
 20
0.9851647912
 11
19.4767170086
 21
1.0658141206
  0
LINE
  5
214
100
AcDbEntity
  8
0
100
AcDbLine
 62
7
  6
CONTINUOUS
 10
19.4767170086
 20
1.0658141206
 11
19.4779056764
 21
1.2714536432
  0
CIRCLE
  5
215
100
AcDbEntity
  8
0
100
AcDbCircle
 62
7
  6
CONTINUOUS
 10
20.2068232291
 20
1.1717972817
 40
0.175742101
  0
CIRCLE
  5
216
100
AcDbEntity
  8
0
100
AcDbCircle
 62
7
  6
CONTINUOUS
 10
20.2068232291
 20
1.1717972817
 40
0.1005522074
  0
LINE
  5
217
100
AcDbEntity
  8
0
100
AcDbLine
 62
7
  6
CONTINUOUS
 10
20.2077290681
 20
1.3756110529
 11
20.2071171714
 21
1.2379342989
  0
LINE
  5
218
100
AcDbEntity
  8
0
100
AcDbLine
 62
7
  6
CONTINUOUS
 10
20.2077290681
 20
1.2016899681
 11
20.2074674401
 21
1.1428236749
  0
LINE
  5
219
100
AcDbEntity
  8
0
100
AcDbLine
 62
7
  6
CONTINUOUS
 10
20.208634907
 20
1.101141841
 11
20.2080230104
 21
0.963465087
  0
LINE
  5
21A
100
AcDbEntity
  8
0
100
AcDbLine
 62
7
  6
CONTINUOUS
 10
20.0066328138
 20
1.1745147986
 11
20.1443095678
 21
1.1739029019
  0
LINE
  5
21B
100
AcDbEntity
  8
0
100
AcDbLine
 62
7
  6
CONTINUOUS
 10
20.1832714155
 20
1.1727031207
 11
20.238153505
 21
1.172335442
  0
LINE
  5
21C
100
AcDbEntity
  8
0
100
AcDbLine
 62
7
  6
CONTINUOUS
 10
20.2756669918
 20
1.1717972817
 11
20.407916871
 21
1.1712095044
  0
CIRCLE
  5
21D
100
AcDbEntity
  8
0
100
AcDbCircle
 62
7
  6
CONTINUOUS
 10
20.7509457401
 20
1.1693297793
 40
0.1722024983
  0
CIRCLE
  5
21E
100
AcDbEntity
  8
0
100
AcDbCircle
 62
7
  6
CONTINUOUS
 10
20.7509457401
 20
1.1693297793
 40
0.0985164967
  0
LINE
  5
21F
100
AcDbEntity
  8
0
100
AcDbLine
 62
7
  6
CONTINUOUS
 10
20.7169767782
 20
1.170462078
 11
20.7825395137
 21
1.1682766535
  0
LINE
  5
220
100
AcDbEntity
  8
0
100
AcDbLine
 62
7
  6
CONTINUOUS
 10
20.8177513651
 20
1.1693297793
 11
20.947965719
 21
1.1693297793
  0
LINE
  5
221
100
AcDbEntity
  8
0
100
AcDbLine
 62
7
  6
CONTINUOUS
 10
20.6875370113
 20
1.170462078
 11
20.5573226574
 21
1.170462078
  0
LINE
  5
222
100
AcDbEntity
  8
0
100
AcDbLine
 62
7
  6
CONTINUOUS
 10
20.7486811426
 20
1.1987695462
 11
20.7486811426
 21
1.1432869085
  0
LINE
  5
223
100
AcDbEntity
  8
0
100
AcDbLine
 62
7
  6
CONTINUOUS
 10
20.7498134414
 20
1.1059210505
 11
20.7498134414
 21
0.9757066966
  0
LINE
  5
224
100
AcDbEntity
  8
0
100
AcDbLine
 62
7
  6
CONTINUOUS
 10
20.7486811426
 20
1.2338708068
 11
20.7486811426
 21
1.3640851607
  0
LINE
  5
225
100
AcDbEntity
  8
0
100
AcDbLine
 62
7
  6
CONTINUOUS
 10
21.0702539817
 20
1.2701043662
 11
21.4790138229
 21
1.3448360823
  0
LINE
  5
226
100
AcDbEntity
  8
0
100
AcDbLine
 62
7
  6
CONTINUOUS
 10
21.4790138229
 20
1.3448360823
 11
21.4790138229
 21
0.9779712941
  0
LINE
  5
227
100
AcDbEntity
  8
0
100
AcDbLine
 62
7
  6
CONTINUOUS
 10
21.4790138229
 20
0.9779712941
 11
21.069121683
 21
1.0617614
  0
LINE
  5
228
100
AcDbEntity
  8
0
100
AcDbLine
 62
7
  6
CONTINUOUS
 10
21.0702539817
 20
1.2701043662
 11
21.069121683
 21
1.0617614
  0
LINE
  5
229
100
AcDbEntity
  8
0
100
AcDbLine
 62
7
  6
CONTINUOUS
 10
21.4790138229
 20
1.1693297793
 11
21.3159628059
 21
1.1693297793
  0
LINE
  5
22A
100
AcDbEntity
  8
0
100
AcDbLine
 62
7
  6
CONTINUOUS
 10
21.2876553377
 20
1.1693297793
 11
21.2502894796
 21
1.1693297793
  0
LINE
  5
22B
100
AcDbEntity
  8
0
100
AcDbLine
 62
7
  6
CONTINUOUS
 10
21.2208497126
 20
1.1659328831
 11
21.0713862804
 21
1.1659328831
  0
LINE
  5
22C
100
AcDbEntity
  8
0
100
AcDbLine
 62
7
  6
CONTINUOUS
 10
20.4796138713
 20
1.5284908897
 11
20.4766766948
 21
0.9294458646
  0
ENDBLK
  5
22D
100
AcDbEntity
  8
0
  6
BYBLOCK
 62
0
100
AcDbBlockEnd
  0
BLOCK
  5
22E
100
AcDbEntity
  8
0
100
AcDbBlockBegin
  2
*T1
 70
1
 10
0.0
 20
0.0
  3
*T1
  1

  0
LINE
  5
22F
100
AcDbEntity
  8
0
100
AcDbLine
 62
2
  6
CONTINUOUS
 10
9.275
 20
0.0
 11
-0.0
 21
0.0
  0
LINE
  5
230
100
AcDbEntity
  8
0
100
AcDbLine
 62
2
  6
CONTINUOUS
 10
9.275
 20
0.0
 11
9.275
 21
1.25
  0
LINE
  5
231
100
AcDbEntity
  8
0
100
AcDbLine
 62
2
  6
CONTINUOUS
 10
9.275
 20
0.625
 11
-0.0
 21
0.625
  0
LINE
  5
232
100
AcDbEntity
  8
0
100
AcDbLine
 62
2
  6
CONTINUOUS
 10
9.275
 20
1.25
 11
-0.0
 21
1.25
  0
LINE
  5
233
100
AcDbEntity
  8
0
100
AcDbLine
 62
2
  6
CONTINUOUS
 10
6.8
 20
0.0
 11
6.8
 21
1.25
  0
LINE
  5
234
100
AcDbEntity
  8
0
100
AcDbLine
 62
2
  6
CONTINUOUS
 10
6.4
 20
0.0
 11
6.4
 21
0.625
  0
LINE
  5
235
100
AcDbEntity
  8
0
100
AcDbLine
 62
2
  6
CONTINUOUS
 10
5.9
 20
0.0
 11
5.9
 21
0.625
  0
LINE
  5
236
100
AcDbEntity
  8
0
100
AcDbLine
 62
2
  6
CONTINUOUS
 10
5.2
 20
0.0
 11
5.2
 21
0.625
  0
LINE
  5
237
100
AcDbEntity
  8
0
100
AcDbLine
 62
2
  6
CONTINUOUS
 10
4.1
 20
0.0
 11
4.1
 21
1.25
  0
LINE
  5
238
100
AcDbEntity
  8
0
100
AcDbLine
 62
2
  6
CONTINUOUS
 10
-0.0
 20
0.0
 11
-0.0
 21
1.25
  0
MTEXT
  5
239
100
AcDbEntity
  8
0
100
AcDbMText
 62
2
  6
CONTINUOUS
  7
STANDARD
 71
2
 72
1
 10
6.6
 20
0.325
 30
0.0
 11
1.0
 21
0.0
 31
0.0
 44
0.9
  1
2
 40
0.125
 41
0.2
  0
MTEXT
  5
23A
100
AcDbEntity
  8
0
100
AcDbMText
 62
2
  6
CONTINUOUS
  7
STANDARD
 71
2
 72
1
 10
6.15
 20
0.325
 30
0.0
 11
1.0
 21
0.0
 31
0.0
 44
0.9
  1
C
 40
0.125
 41
0.2
  0
MTEXT
  5
23B
100
AcDbEntity
  8
0
100
AcDbMText
 62
2
  6
CONTINUOUS
  7
STANDARD
 71
2
 72
1
 10
5.55
 20
0.325
 30
0.0
 11
1.0
 21
0.0
 31
0.0
 44
0.9
  1
1.000
 40
0.125
 41
1.0
  0
MTEXT
  5
23C
100
AcDbEntity
  8
0
100
AcDbMText
 62
2
  6
CONTINUOUS
  7
STANDARD
 71
2
 72
1
 10
4.65
 20
0.325
 30
0.0
 11
1.0
 21
0.0
 31
0.0
 44
0.9
  1
Jan-29-20
 40
0.125
 41
1.8
  0
MTEXT
  5
23D
100
AcDbEntity
  8
0
100
AcDbMText
 62
2
  6
CONTINUOUS
  7
STANDARD
 71
2
 72
1
 10
2.05
 20
0.4625
 30
0.0
 11
1.0
 21
0.0
 31
0.0
 44
0.9
  1
T-17A Motor mount Staffa 4", 5 piston\PCross pilot
 40
0.125
 41
7.4
  0
MTEXT
  5
23E
100
AcDbEntity
  8
0
100
AcDbMText
 62
2
  6
CONTINUOUS
  7
STANDARD
 71
1
 72
1
 10
6.45
 20
0.5625
 30
0.0
 11
1.0
 21
0.0
 31
0.0
 44
0.9
  1
SHEET
 40
0.06
 41
0.48
  0
MTEXT
  5
23F
100
AcDbEntity
  8
0
100
AcDbMText
 62
2
  6
CONTINUOUS
  7
STANDARD
 71
1
 72
1
 10
5.95
 20
0.5625
 30
0.0
 11
1.0
 21
0.0
 31
0.0
 44
0.9
  1
DWG SIZE
 40
0.06
 41
0.768
  0
MTEXT
  5
240
100
AcDbEntity
  8
0
100
AcDbMText
 62
2
  6
CONTINUOUS
  7
STANDARD
 71
1
 72
1
 10
5.25
 20
0.5625
 30
0.0
 11
1.0
 21
0.0
 31
0.0
 44
0.9
  1
SCALE
 40
0.06
 41
0.48
  0
MTEXT
  5
241
100
AcDbEntity
  8
0
100
AcDbMText
 62
2
  6
CONTINUOUS
  7
STANDARD
 71
1
 72
1
 10
4.15
 20
0.5625
 30
0.0
 11
1.0
 21
0.0
 31
0.0
 44
0.9
  1
DATE
 40
0.06
 41
0.384
  0
MTEXT
  5
242
100
AcDbEntity
  8
0
100
AcDbMText
 62
2
  6
CONTINUOUS
  7
STANDARD
 71
1
 72
1
 10
0.05
 20
0.5625
 30
0.0
 11
1.0
 21
0.0
 31
0.0
 44
0.9
  1
DESCRIPTION
 40
0.06
 41
1.056
  0
MTEXT
  5
243
100
AcDbEntity
  8
0
100
AcDbMText
 62
2
  6
CONTINUOUS
  7
STANDARD
 71
2
 72
1
 10
5.45
 20
1.0375
 30
0.0
 11
1.0
 21
0.0
 31
0.0
 44
0.9
  1
ALL DIMENSIONS IN INCH\PVIEWS ARE THIRD ANGLE
 40
0.12
 41
4.224
  0
MTEXT
  5
244
100
AcDbEntity
  8
0
100
AcDbMText
 62
2
  6
CONTINUOUS
  7
STANDARD
 71
2
 72
1
 10
2.05
 20
0.95
 30
0.0
 11
1.0
 21
0.0
 31
0.0
 44
0.9
  1
XYD
 40
0.125
 41
0.6
  0
MTEXT
  5
245
100
AcDbEntity
  8
0
100
AcDbMText
 62
2
  6
CONTINUOUS
  7
STANDARD
 71
1
 72
1
 10
0.05
 20
1.1875
 30
0.0
 11
1.0
 21
0.0
 31
0.0
 44
0.9
  1
MODEL
 40
0.06
 41
0.48
  0
ENDBLK
  5
246
100
AcDbEntity
  8
0
  6
BYBLOCK
 62
0
100
AcDbBlockEnd
  0
BLOCK
  5
247
100
AcDbEntity
  8
0
100
AcDbBlockBegin
  2
*T2
 70
1
 10
0.0
 20
0.0
  3
*T2
  1

  0
LINE
  5
248
100
AcDbEntity
  8
0
100
AcDbLine
 62
2
  6
CONTINUOUS
 10
0.0
 20
0.0
 11
9.055
 21
0.0
  0
LINE
  5
249
100
AcDbEntity
  8
0
100
AcDbLine
 62
2
  6
CONTINUOUS
 10
0.0
 20
0.0
 11
0.0
 21
-3.094
  0
LINE
  5
24A
100
AcDbEntity
  8
0
100
AcDbLine
 62
2
  6
CONTINUOUS
 10
0.0
 20
-0.344
 11
9.055
 21
-0.344
  0
LINE
  5
24B
100
AcDbEntity
  8
0
100
AcDbLine
 62
2
  6
CONTINUOUS
 10
0.0
 20
-0.594
 11
9.055
 21
-0.594
  0
LINE
  5
24C
100
AcDbEntity
  8
0
100
AcDbLine
 62
2
  6
CONTINUOUS
 10
0.0
 20
-0.844
 11
9.055
 21
-0.844
  0
LINE
  5
24D
100
AcDbEntity
  8
0
100
AcDbLine
 62
2
  6
CONTINUOUS
 10
0.0
 20
-1.094
 11
9.055
 21
-1.094
  0
LINE
  5
24E
100
AcDbEntity
  8
0
100
AcDbLine
 62
2
  6
CONTINUOUS
 10
0.0
 20
-1.344
 11
9.055
 21
-1.344
  0
LINE
  5
24F
100
AcDbEntity
  8
0
100
AcDbLine
 62
2
  6
CONTINUOUS
 10
0.0
 20
-1.594
 11
9.055
 21
-1.594
  0
LINE
  5
250
100
AcDbEntity
  8
0
100
AcDbLine
 62
2
  6
CONTINUOUS
 10
0.0
 20
-1.844
 11
9.055
 21
-1.844
  0
LINE
  5
251
100
AcDbEntity
  8
0
100
AcDbLine
 62
2
  6
CONTINUOUS
 10
0.0
 20
-2.094
 11
9.055
 21
-2.094
  0
LINE
  5
252
100
AcDbEntity
  8
0
100
AcDbLine
 62
2
  6
CONTINUOUS
 10
0.0
 20
-2.344
 11
9.055
 21
-2.344
  0
LINE
  5
253
100
AcDbEntity
  8
0
100
AcDbLine
 62
2
  6
CONTINUOUS
 10
0.0
 20
-2.594
 11
9.055
 21
-2.594
  0
LINE
  5
254
100
AcDbEntity
  8
0
100
AcDbLine
 62
2
  6
CONTINUOUS
 10
0.0
 20
-2.844
 11
9.055
 21
-2.844
  0
LINE
  5
255
100
AcDbEntity
  8
0
100
AcDbLine
 62
2
  6
CONTINUOUS
 10
0.0
 20
-3.094
 11
9.055
 21
-3.094
  0
LINE
  5
256
100
AcDbEntity
  8
0
100
AcDbLine
 62
2
  6
CONTINUOUS
 10
3.055
 20
0.0
 11
3.055
 21
-3.094
  0
LINE
  5
257
100
AcDbEntity
  8
0
100
AcDbLine
 62
2
  6
CONTINUOUS
 10
9.055
 20
0.0
 11
9.055
 21
-3.094
  0
MTEXT
  5
258
100
AcDbEntity
  8
0
100
AcDbMText
 62
2
  6
CONTINUOUS
  7
STANDARD
 71
2
 72
1
 10
1.5275
 20
-0.0995
 30
0.0
 11
1.0
 21
0.0
 31
0.0
 44
0.9
  1
Technical Data
 40
0.145
 41
3.248
  0
MTEXT
  5
259
100
AcDbEntity
  8
0
100
AcDbMText
 62
2
  6
CONTINUOUS
  7
STANDARD
 71
2
 72
1
 10
4.555
 20
-0.0995
 30
0.0
 11
1.0
 21
0.0
 31
0.0
 44
0.9
  1
U.S. Units
 40
0.145
 41
2.32
  0
MTEXT
  5
25A
100
AcDbEntity
  8
0
100
AcDbMText
 62
2
  6
CONTINUOUS
  7
STANDARD
 71
2
 72
1
 10
7.555
 20
-0.0995
 30
0.0
 11
1.0
 21
0.0
 31
0.0
 44
0.9
  1
Metric Units
 40
0.145
 41
2.784
  0
MTEXT
  5
25B
100
AcDbEntity
  8
0
100
AcDbMText
 62
2
  6
CONTINUOUS
  7
STANDARD
 71
2
 72
1
 10
1.5275
 20
-0.4065
 30
0.0
 11
1.0
 21
0.0
 31
0.0
 44
0.9
  1
Cavity
 40
0.125
 41
1.2
  0
MTEXT
  5
25C
100
AcDbEntity
  8
0
100
AcDbMText
 62
2
  6
CONTINUOUS
  7
STANDARD
 71
2
 72
1
 10
6.055
 20
-0.4065
 30
0.0
 11
1.0
 21
0.0
 31
0.0
 44
0.9
  1
T-17A
 40
0.125
 41
1.0
  0
MTEXT
  5
25D
100
AcDbEntity
  8
0
100
AcDbMText
 62
2
  6
CONTINUOUS
  7
STANDARD
 71
2
 72
1
 10
1.5275
 20
-0.6565
 30
0.0
 11
1.0
 21
0.0
 31
0.0
 44
0.9
  1
Body Features
 40
0.125
 41
2.6
  0
MTEXT
  5
25E
100
AcDbEntity
  8
0
100
AcDbMText
 62
2
  6
CONTINUOUS
  7
STANDARD
 71
2
 72
1
 10
6.055
 20
-0.6565
 30
0.0
 11
1.0
 21
0.0
 31
0.0
 44
0.9
  1
Cross pilot
 40
0.125
 41
2.2
  0
MTEXT
  5
25F
100
AcDbEntity
  8
0
100
AcDbMText
 62
2
  6
CONTINUOUS
  7
STANDARD
 71
2
 72
1
 10
1.5275
 20
-0.9065
 30
0.0
 11
1.0
 21
0.0
 31
0.0
 44
0.9
  1
Body Type
 40
0.125
 41
1.8
  0
MTEXT
  5
260
100
AcDbEntity
  8
0
100
AcDbMText
 62
2
  6
CONTINUOUS
  7
STANDARD
 71
2
 72
1
 10
6.055
 20
-0.9065
 30
0.0
 11
1.0
 21
0.0
 31
0.0
 44
0.9
  1
Motor mount
 40
0.125
 41
2.2
  0
MTEXT
  5
261
100
AcDbEntity
  8
0
100
AcDbMText
 62
2
  6
CONTINUOUS
  7
STANDARD
 71
2
 72
1
 10
1.5275
 20
-1.1565
 30
0.0
 11
1.0
 21
0.0
 31
0.0
 44
0.9
  1
Interface
 40
0.125
 41
1.8
  0
MTEXT
  5
262
100
AcDbEntity
  8
0
100
AcDbMText
 62
2
  6
CONTINUOUS
  7
STANDARD
 71
2
 72
1
 10
6.055
 20
-1.1565
 30
0.0
 11
1.0
 21
0.0
 31
0.0
 44
0.9
  1
Staffa 4", 5 piston
 40
0.125
 41
3.8
  0
MTEXT
  5
263
100
AcDbEntity
  8
0
100
AcDbMText
 62
2
  6
CONTINUOUS
  7
STANDARD
 71
2
 72
1
 10
1.5275
 20
-1.4065
 30
0.0
 11
1.0
 21
0.0
 31
0.0
 44
0.9
  1
Open Cavity Quantity
 40
0.125
 41
4.0
  0
MTEXT
  5
264
100
AcDbEntity
  8
0
100
AcDbMText
 62
2
  6
CONTINUOUS
  7
STANDARD
 71
2
 72
1
 10
6.055
 20
-1.4065
 30
0.0
 11
1.0
 21
0.0
 31
0.0
 44
0.9
  1
1
 40
0.125
 41
0.2
  0
MTEXT
  5
265
100
AcDbEntity
  8
0
100
AcDbMText
 62
2
  6
CONTINUOUS
  7
STANDARD
 71
2
 72
1
 10
1.5275
 20
-1.6565
 30
0.0
 11
1.0
 21
0.0
 31
0.0
 44
0.9
  1
Weight
 40
0.125
 41
1.2
  0
MTEXT
  5
266
100
AcDbEntity
  8
0
100
AcDbMText
 62
2
  6
CONTINUOUS
  7
STANDARD
 71
2
 72
1
 10
4.555
 20
-1.6565
 30
0.0
 11
1.0
 21
0.0
 31
0.0
 44
0.9
  1
4.040 lb.
 40
0.125
 41
1.8
  0
MTEXT
  5
267
100
AcDbEntity
  8
0
100
AcDbMText
 62
2
  6
CONTINUOUS
  7
STANDARD
 71
2
 72
1
 10
7.555
 20
-1.6565
 30
0.0
 11
1.0
 21
0.0
 31
0.0
 44
0.9
  1
1,832 kg.
 40
0.125
 41
1.8
  0
MTEXT
  5
268
100
AcDbEntity
  8
0
100
AcDbMText
 62
2
  6
CONTINUOUS
  7
STANDARD
 71
2
 72
1
 10
1.5275
 20
-1.9065
 30
0.0
 11
1.0
 21
0.0
 31
0.0
 44
0.9
  1
Mounting Hole Diameter
 40
0.125
 41
4.4
  0
MTEXT
  5
269
100
AcDbEntity
  8
0
100
AcDbMText
 62
2
  6
CONTINUOUS
  7
STANDARD
 71
2
 72
1
 10
4.555
 20
-1.9065
 30
0.0
 11
1.0
 21
0.0
 31
0.0
 44
0.9
  1
.41 in.
 40
0.125
 41
1.4
  0
MTEXT
  5
26A
100
AcDbEntity
  8
0
100
AcDbMText
 62
2
  6
CONTINUOUS
  7
STANDARD
 71
2
 72
1
 10
7.555
 20
-1.9065
 30
0.0
 11
1.0
 21
0.0
 31
0.0
 44
0.9
  1
10,4 mm
 40
0.125
 41
1.4
  0
MTEXT
  5
26B
100
AcDbEntity
  8
0
100
AcDbMText
 62
2
  6
CONTINUOUS
  7
STANDARD
 71
2
 72
1
 10
1.5275
 20
-2.1565
 30
0.0
 11
1.0
 21
0.0
 31
0.0
 44
0.9
  1
Mounting Hole Depth
 40
0.125
 41
3.8
  0
MTEXT
  5
26C
100
AcDbEntity
  8
0
100
AcDbMText
 62
2
  6
CONTINUOUS
  7
STANDARD
 71
2
 72
1
 10
6.055
 20
-2.1565
 30
0.0
 11
1.0
 21
0.0
 31
0.0
 44
0.9
  1
Through
 40
0.125
 41
1.4
  0
MTEXT
  5
26D
100
AcDbEntity
  8
0
100
AcDbMText
 62
2
  6
CONTINUOUS
  7
STANDARD
 71
2
 72
1
 10
1.5275
 20
-2.4065
 30
0.0
 11
1.0
 21
0.0
 31
0.0
 44
0.9
  1
Mounting Hole Quantity
 40
0.125
 41
4.4
  0
MTEXT
  5
26E
100
AcDbEntity
  8
0
100
AcDbMText
 62
2
  6
CONTINUOUS
  7
STANDARD
 71
2
 72
1
 10
6.055
 20
-2.4065
 30
0.0
 11
1.0
 21
0.0
 31
0.0
 44
0.9
  1
6
 40
0.125
 41
0.2
  0
MTEXT
  5
26F
100
AcDbEntity
  8
0
100
AcDbMText
 62
2
  6
CONTINUOUS
  7
STANDARD
 71
2
 72
1
 10
1.5275
 20
-2.6565
 30
0.0
 11
1.0
 21
0.0
 31
0.0
 44
0.9
  1
Mounting Hole C'bore Diameter
 40
0.125
 41
5.8
  0
MTEXT
  5
270
100
AcDbEntity
  8
0
100
AcDbMText
 62
2
  6
CONTINUOUS
  7
STANDARD
 71
2
 72
1
 10
4.555
 20
-2.6565
 30
0.0
 11
1.0
 21
0.0
 31
0.0
 44
0.9
  1
.59 in.
 40
0.125
 41
1.4
  0
MTEXT
  5
271
100
AcDbEntity
  8
0
100
AcDbMText
 62
2
  6
CONTINUOUS
  7
STANDARD
 71
2
 72
1
 10
7.555
 20
-2.6565
 30
0.0
 11
1.0
 21
0.0
 31
0.0
 44
0.9
  1
15,0 mm
 40
0.125
 41
1.4
  0
MTEXT
  5
272
100
AcDbEntity
  8
0
100
AcDbMText
 62
2
  6
CONTINUOUS
  7
STANDARD
 71
2
 72
1
 10
1.5275
 20
-2.9065
 30
0.0
 11
1.0
 21
0.0
 31
0.0
 44
0.9
  1
Mounting Hole C'bore Depth
 40
0.125
 41
5.2
  0
MTEXT
  5
273
100
AcDbEntity
  8
0
100
AcDbMText
 62
2
  6
CONTINUOUS
  7
STANDARD
 71
2
 72
1
 10
4.555
 20
-2.9065
 30
0.0
 11
1.0
 21
0.0
 31
0.0
 44
0.9
  1
.69 in.
 40
0.125
 41
1.4
  0
MTEXT
  5
274
100
AcDbEntity
  8
0
100
AcDbMText
 62
2
  6
CONTINUOUS
  7
STANDARD
 71
2
 72
1
 10
7.555
 20
-2.9065
 30
0.0
 11
1.0
 21
0.0
 31
0.0
 44
0.9
  1
17,5 mm
 40
0.125
 41
1.4
  0
ENDBLK
  5
275
100
AcDbEntity
  8
0
  6
BYBLOCK
 62
0
100
AcDbBlockEnd
  0
BLOCK
  5
276
100
AcDbEntity
  8
0
100
AcDbBlockBegin
  2
*T3
 70
1
 10
0.0
 20
0.0
  3
*T3
  1

  0
LINE
  5
277
100
AcDbEntity
  8
0
100
AcDbLine
 62
2
  6
CONTINUOUS
 10
0.0
 20
0.0
 11
4.6
 21
0.0
  0
LINE
  5
278
100
AcDbEntity
  8
0
100
AcDbLine
 62
2
  6
CONTINUOUS
 10
0.0
 20
0.0
 11
0.0
 21
-0.93775
  0
LINE
  5
279
100
AcDbEntity
  8
0
100
AcDbLine
 62
2
  6
CONTINUOUS
 10
0.0
 20
-0.34375
 11
4.6
 21
-0.34375
  0
LINE
  5
27A
100
AcDbEntity
  8
0
100
AcDbLine
 62
2
  6
CONTINUOUS
 10
0.0
 20
-0.68775
 11
4.6
 21
-0.68775
  0
LINE
  5
27B
100
AcDbEntity
  8
0
100
AcDbLine
 62
2
  6
CONTINUOUS
 10
0.0
 20
-0.93775
 11
4.6
 21
-0.93775
  0
LINE
  5
27C
100
AcDbEntity
  8
0
100
AcDbLine
 62
2
  6
CONTINUOUS
 10
1.3
 20
-0.34375
 11
1.3
 21
-0.93775
  0
LINE
  5
27D
100
AcDbEntity
  8
0
100
AcDbLine
 62
2
  6
CONTINUOUS
 10
3.3
 20
-0.34375
 11
3.3
 21
-0.93775
  0
LINE
  5
27E
100
AcDbEntity
  8
0
100
AcDbLine
 62
2
  6
CONTINUOUS
 10
4.6
 20
0.0
 11
4.6
 21
-0.93775
  0
MTEXT
  5
27F
100
AcDbEntity
  8
0
100
AcDbMText
 62
2
  6
CONTINUOUS
  7
STANDARD
 71
2
 72
1
 10
2.3
 20
-0.099375
 30
0.0
 11
1.0
 21
0.0
 31
0.0
 44
0.9
  1
Port Headings
 40
0.145
 41
3.016
  0
MTEXT
  5
280
100
AcDbEntity
  8
0
100
AcDbMText
 62
2
  6
CONTINUOUS
  7
STANDARD
 71
2
 72
1
 10
0.65
 20
-0.44325
 30
0.0
 11
1.0
 21
0.0
 31
0.0
 44
0.9
  1
Product
 40
0.145
 41
1.624
  0
MTEXT
  5
281
100
AcDbEntity
  8
0
100
AcDbMText
 62
2
  6
CONTINUOUS
  7
STANDARD
 71
2
 72
1
 10
2.3
 20
-0.44325
 30
0.0
 11
1.0
 21
0.0
 31
0.0
 44
0.9
  1
Port
 40
0.145
 41
0.928
  0
MTEXT
  5
282
100
AcDbEntity
  8
0
100
AcDbMText
 62
2
  6
CONTINUOUS
  7
STANDARD
 71
2
 72
1
 10
3.95
 20
-0.44325
 30
0.0
 11
1.0
 21
0.0
 31
0.0
 44
0.9
  1
Size
 40
0.145
 41
0.928
  0
MTEXT
  5
283
100
AcDbEntity
  8
0
100
AcDbMText
 62
2
  6
CONTINUOUS
  7
STANDARD
 71
2
 72
1
 10
0.65
 20
-0.75025
 30
0.0
 11
1.0
 21
0.0
 31
0.0
 44
0.9
  1
XYD
 40
0.125
 41
0.6
  0
MTEXT
  5
284
100
AcDbEntity
  8
0
100
AcDbMText
 62
2
  6
CONTINUOUS
  7
STANDARD
 71
2
 72
1
 10
2.3
 20
-0.75025
 30
0.0
 11
1.0
 21
0.0
 31
0.0
 44
0.9
  1
Ports V1 & V2
 40
0.125
 41
2.6
  0
MTEXT
  5
285
100
AcDbEntity
  8
0
100
AcDbMText
 62
2
  6
CONTINUOUS
  7
STANDARD
 71
2
 72
1
 10
3.95
 20
-0.75025
 30
0.0
 11
1.0
 21
0.0
 31
0.0
 44
0.9
  1
3/4" NPTF
 40
0.125
 41
1.8
  0
ENDBLK
  5
286
100
AcDbEntity
  8
0
  6
BYBLOCK
 62
0
100
AcDbBlockEnd
  0
ENDSEC
  0
SECTION
  2
ENTITIES
  0
IMAGE
  5
287
100
AcDbEntity
  8
0
100
AcDbRasterImage
 62
7
  6
CONTINUOUS
 10
19.2297077316
 20
0.3094318264
 30
0.0
 11
0.0066666667
 21
0.0
 31
0.0
 12
0.0
 22
0.0066666667
 32
0.0
 13
369.0
 23
92.0
340
       392
 70
9
280
0
281
50
282
50
283
0
360
       38C
 71
1
 91
2
 14
-0.5
 24
-0.5
 14
368.5
 24
91.5
  0
INSERT
  5
288
100
AcDbEntity
  8
0
100
AcDbBlockReference
 62
2
  6
CONTINUOUS
  2
SUN_FIRST_THIRD_ANGLE_BL0
 10
20.4816717061
 20
1.2289683772
  0
ACAD_TABLE
  5
289
100
AcDbEntity
  8
0
 62
2
  6
CONTINUOUS
100
AcDbBlockReference
  2
*T1
 10
12.42375
 20
0.30125
 30
0.0
100
AcDbTable
342
       394
343
207
 11
1.0
 21
0.0
 31
0.0
 90
6
 91
4
 92
6
 93
20
 94
0
 95
0
 96
0
 70
1
 41
0.0
141
0.525
141
0.1
141
0.525
141
0.1
142
4.1
142
1.1
142
0.7
142
0.5
142
0.4
142
2.475
171
1
172
0
173
0
174
0
175
1
176
1
 91
33
178
0
145
0.0
301
CELL_VALUE
 90
4
  1
T-17A Motor mount Staffa 4", 5 piston\PCross pilot
304
ACVALUE_END
170
2
140
0.125
171
1
172
0
173
0
174
0
175
1
176
1
 91
33
178
0
145
0.0
301
CELL_VALUE
 90
4
  1
Jan-29-20
304
ACVALUE_END
170
5
140
0.125
171
1
172
0
173
0
174
0
175
1
176
1
 91
33
178
0
145
0.0
301
CELL_VALUE
 90
4
  1
1.000
304
ACVALUE_END
170
5
140
0.125
171
1
172
0
173
0
174
0
175
1
176
1
 91
33
178
0
145
0.0
301
CELL_VALUE
 90
4
  1
C
304
ACVALUE_END
170
5
140
0.125
171
1
172
0
173
0
174
0
175
1
176
1
 91
33
178
0
145
0.0
301
CELL_VALUE
 90
4
  1
2
304
ACVALUE_END
170
5
140
0.125
171
1
172
0
173
0
174
0
175
1
176
1
 91
33
178
0
145
0.0
301
CELL_VALUE
 90
4
  1
 
304
ACVALUE_END
170
1
140
0.125
171
1
172
0
173
0
174
0
175
1
176
1
 91
33
178
0
145
0.0
301
CELL_VALUE
 90
4
  1
DESCRIPTION
304
ACVALUE_END
170
1
140
0.06
171
1
172
0
173
0
174
0
175
1
176
1
 91
33
178
0
145
0.0
301
CELL_VALUE
 90
4
  1
DATE
304
ACVALUE_END
170
1
140
0.06
171
1
172
0
173
0
174
0
175
1
176
1
 91
33
178
0
145
0.0
301
CELL_VALUE
 90
4
  1
SCALE
304
ACVALUE_END
170
1
140
0.06
171
1
172
0
173
0
174
0
175
1
176
1
 91
33
178
0
145
0.0
301
CELL_VALUE
 90
4
  1
DWG SIZE
304
ACVALUE_END
170
1
140
0.06
171
1
172
0
173
0
174
0
175
1
176
1
 91
33
178
0
145
0.0
301
CELL_VALUE
 90
4
  1
SHEET
304
ACVALUE_END
170
1
140
0.06
171
1
172
0
173
0
174
0
175
1
176
1
 91
33
178
0
145
0.0
301
CELL_VALUE
 90
4
  1
 
304
ACVALUE_END
170
1
140
0.125
171
1
172
0
173
0
174
0
175
1
176
1
 91
33
178
0
145
0.0
301
CELL_VALUE
 90
4
  1
XYD
304
ACVALUE_END
170
5
140
0.125
171
1
172
0
173
0
174
0
175
4
176
1
 91
33
178
0
145
0.0
301
CELL_VALUE
 90
4
  1
ALL DIMENSIONS IN INCH\PVIEWS ARE THIRD ANGLE
304
ACVALUE_END
170
5
140
0.12
171
1
172
0
173
1
174
0
175
1
176
1
 91
1
178
0
145
0.0
170
1
171
1
172
0
173
1
174
0
175
1
176
1
 91
1
178
0
145
0.0
170
1
171
1
172
0
173
1
174
0
175
1
176
1
 91
1
178
0
145
0.0
170
5
171
1
172
0
173
0
174
0
175
1
176
1
 91
33
178
0
145
0.0
301
CELL_VALUE
 90
4
  1
 
304
ACVALUE_END
170
1
140
0.125
171
1
172
0
173
0
174
0
175
1
176
1
 91
33
178
0
145
0.0
301
CELL_VALUE
 90
4
  1
MODEL
304
ACVALUE_END
170
1
140
0.06
171
1
172
0
173
0
174
0
175
1
176
1
 91
33
178
0
145
0.0
301
CELL_VALUE
 90
4
  1
 
304
ACVALUE_END
170
1
140
0.125
171
1
172
0
173
0
174
0
175
1
176
1
 91
33
178
0
145
0.0
301
CELL_VALUE
 90
4
  1
 
304
ACVALUE_END
170
1
140
0.125
171
1
172
0
173
0
174
0
175
1
176
1
 91
33
178
0
145
0.0
301
CELL_VALUE
 90
4
  1
 
304
ACVALUE_END
170
1
140
0.125
171
1
172
0
173
0
174
0
175
1
176
1
 91
33
178
0
145
0.0
301
CELL_VALUE
 90
4
  1
 
304
ACVALUE_END
170
1
140
0.125
171
1
172
0
173
0
174
0
175
1
176
1
 91
33
178
0
145
0.0
301
CELL_VALUE
 90
4
  1
 
304
ACVALUE_END
170
1
140
0.125
  0
ACAD_TABLE
  5
28A
100
AcDbEntity
  8
0
 62
2
  6
CONTINUOUS
100
AcDbBlockReference
  2
*T2
 10
12.4237499994
 20
16.47875
 30
0.0
100
AcDbTable
342
       393
343
208
 11
1.0
 21
0.0
 31
0.0
 90
22
 91
12
 92
3
 93
16
 94
0
 95
0
 96
0
 41
0.028
141
0.344
141
0.25
141
0.25
141
0.25
141
0.25
141
0.25
141
0.25
141
0.25
141
0.25
141
0.25
141
0.25
141
0.25
142
3.055
142
3.0
142
3.0
171
1
172
0
173
0
174
0
175
1
176
1
 91
33
178
0
145
0.0
301
CELL_VALUE
 90
4
  1
Technical Data
304
ACVALUE_END
170
5
140
0.145
171
1
172
0
173
0
174
0
175
1
176
1
 91
33
178
0
145
0.0
301
CELL_VALUE
 90
4
  1
U.S. Units
304
ACVALUE_END
170
5
140
0.145
171
1
172
0
173
0
174
0
175
1
176
1
 91
33
178
0
145
0.0
301
CELL_VALUE
 90
4
  1
Metric Units
304
ACVALUE_END
170
5
140
0.145
171
1
172
0
173
0
174
0
175
1
176
1
 91
33
178
0
145
0.0
301
CELL_VALUE
 90
4
  1
Cavity
304
ACVALUE_END
170
5
140
0.125
171
1
172
0
173
0
174
0
175
2
176
1
 91
33
178
0
145
0.0
301
CELL_VALUE
 90
4
  1
T-17A
304
ACVALUE_END
170
5
140
0.125
171
1
172
0
173
1
174
0
175
1
176
1
 91
1
178
0
145
0.0
170
1
171
1
172
0
173
0
174
0
175
1
176
1
 91
33
178
0
145
0.0
301
CELL_VALUE
 90
4
  1
Body Features
304
ACVALUE_END
170
5
140
0.125
171
1
172
0
173
0
174
0
175
2
176
1
 91
33
178
0
145
0.0
301
CELL_VALUE
 90
4
  1
Cross pilot
304
ACVALUE_END
170
5
140
0.125
171
1
172
0
173
1
174
0
175
1
176
1
 91
1
178
0
145
0.0
170
1
171
1
172
0
173
0
174
0
175
1
176
1
 91
33
178
0
145
0.0
301
CELL_VALUE
 90
4
  1
Body Type
304
ACVALUE_END
170
5
140
0.125
171
1
172
0
173
0
174
0
175
2
176
1
 91
33
178
0
145
0.0
301
CELL_VALUE
 90
4
  1
Motor mount
304
ACVALUE_END
170
5
140
0.125
171
1
172
0
173
1
174
0
175
1
176
1
 91
1
178
0
145
0.0
170
1
171
1
172
0
173
0
174
0
175
1
176
1
 91
33
178
0
145
0.0
301
CELL_VALUE
 90
4
  1
Interface
304
ACVALUE_END
170
5
140
0.125
171
1
172
0
173
0
174
0
175
2
176
1
 91
33
178
0
145
0.0
301
CELL_VALUE
 90
4
  1
Staffa 4", 5 piston
304
ACVALUE_END
170
5
140
0.125
171
1
172
0
173
1
174
0
175
1
176
1
 91
1
178
0
145
0.0
170
1
171
1
172
0
173
0
174
0
175
1
176
1
 91
33
178
0
145
0.0
301
CELL_VALUE
 90
4
  1
Open Cavity Quantity
304
ACVALUE_END
170
5
140
0.125
171
1
172
0
173
0
174
0
175
2
176
1
 91
33
178
0
145
0.0
301
CELL_VALUE
 90
4
  1
1
304
ACVALUE_END
170
5
140
0.125
171
1
172
0
173
1
174
0
175
1
176
1
 91
1
178
0
145
0.0
170
1
171
1
172
0
173
0
174
0
175
1
176
1
 91
33
178
0
145
0.0
301
CELL_VALUE
 90
4
  1
Weight
304
ACVALUE_END
170
5
140
0.125
171
1
172
0
173
0
174
0
175
1
176
1
 91
33
178
0
145
0.0
301
CELL_VALUE
 90
4
  1
4.040 lb.
304
ACVALUE_END
170
5
140
0.125
171
1
172
0
173
0
174
0
175
1
176
1
 91
33
178
0
145
0.0
301
CELL_VALUE
 90
4
  1
1,832 kg.
304
ACVALUE_END
170
5
140
0.125
171
1
172
0
173
0
174
0
175
1
176
1
 91
33
178
0
145
0.0
301
CELL_VALUE
 90
4
  1
Mounting Hole Diameter
304
ACVALUE_END
170
5
140
0.125
171
1
172
0
173
0
174
0
175
1
176
1
 91
33
178
0
145
0.0
301
CELL_VALUE
 90
4
  1
.41 in.
304
ACVALUE_END
170
5
140
0.125
171
1
172
0
173
0
174
0
175
1
176
1
 91
33
178
0
145
0.0
301
CELL_VALUE
 90
4
  1
10,4 mm
304
ACVALUE_END
170
5
140
0.125
171
1
172
0
173
0
174
0
175
1
176
1
 91
33
178
0
145
0.0
301
CELL_VALUE
 90
4
  1
Mounting Hole Depth
304
ACVALUE_END
170
5
140
0.125
171
1
172
0
173
0
174
0
175
2
176
1
 91
33
178
0
145
0.0
301
CELL_VALUE
 90
4
  1
Through
304
ACVALUE_END
170
5
140
0.125
171
1
172
0
173
1
174
0
175
1
176
1
 91
1
178
0
145
0.0
170
1
171
1
172
0
173
0
174
0
175
1
176
1
 91
33
178
0
145
0.0
301
CELL_VALUE
 90
4
  1
Mounting Hole Quantity
304
ACVALUE_END
170
5
140
0.125
171
1
172
0
173
0
174
0
175
2
176
1
 91
33
178
0
145
0.0
301
CELL_VALUE
 90
4
  1
6
304
ACVALUE_END
170
5
140
0.125
171
1
172
0
173
1
174
0
175
1
176
1
 91
1
178
0
145
0.0
170
1
171
1
172
0
173
0
174
0
175
1
176
1
 91
33
178
0
145
0.0
301
CELL_VALUE
 90
4
  1
Mounting Hole C'bore Diameter
304
ACVALUE_END
170
5
140
0.125
171
1
172
0
173
0
174
0
175
1
176
1
 91
33
178
0
145
0.0
301
CELL_VALUE
 90
4
  1
.59 in.
304
ACVALUE_END
170
5
140
0.125
171
1
172
0
173
0
174
0
175
1
176
1
 91
33
178
0
145
0.0
301
CELL_VALUE
 90
4
  1
15,0 mm
304
ACVALUE_END
170
5
140
0.125
171
1
172
0
173
0
174
0
175
1
176
1
 91
33
178
0
145
0.0
301
CELL_VALUE
 90
4
  1
Mounting Hole C'bore Depth
304
ACVALUE_END
170
5
140
0.125
171
1
172
0
173
0
174
0
175
1
176
1
 91
33
178
0
145
0.0
301
CELL_VALUE
 90
4
  1
.69 in.
304
ACVALUE_END
170
5
140
0.125
171
1
172
0
173
0
174
0
175
1
176
1
 91
33
178
0
145
0.0
301
CELL_VALUE
 90
4
  1
17,5 mm
304
ACVALUE_END
170
5
140
0.125
  0
ACAD_TABLE
  5
28B
100
AcDbEntity
  8
0
 62
2
  6
CONTINUOUS
100
AcDbBlockReference
  2
*T3
 10
0.52125
 20
1.459
 30
0.0
100
AcDbTable
342
       393
343
209
 11
1.0
 21
0.0
 31
0.0
 90
22
 91
3
 92
3
 93
16
 94
0
 95
0
 96
0
 41
0.05
141
0.34375
141
0.344
141
0.25
142
1.3
142
2.0
142
1.3
171
1
172
0
173
0
174
0
175
3
176
1
 91
33
178
0
145
0.0
301
CELL_VALUE
 90
4
  1
Port Headings
304
ACVALUE_END
170
5
140
0.145
171
1
172
0
173
1
174
0
175
1
176
1
 91
1
178
0
145
0.0
170
1
171
1
172
0
173
1
174
0
175
1
176
1
 91
1
178
0
145
0.0
170
1
171
1
172
0
173
0
174
0
175
1
176
1
 91
33
178
0
145
0.0
301
CELL_VALUE
 90
4
  1
Product
304
ACVALUE_END
170
5
140
0.145
171
1
172
0
173
0
174
0
175
1
176
1
 91
33
178
0
145
0.0
301
CELL_VALUE
 90
4
  1
Port
304
ACVALUE_END
170
5
140
0.145
171
1
172
0
173
0
174
0
175
1
176
1
 91
33
178
0
145
0.0
301
CELL_VALUE
 90
4
  1
Size
304
ACVALUE_END
170
5
140
0.145
171
1
172
0
173
0
174
0
175
1
176
1
 91
33
178
0
145
0.0
301
CELL_VALUE
 90
4
  1
XYD
304
ACVALUE_END
170
5
140
0.125
171
1
172
0
173
0
174
0
175
1
176
1
 91
33
178
0
145
0.0
301
CELL_VALUE
 90
4
  1
Ports V1 & V2
304
ACVALUE_END
170
5
140
0.125
171
1
172
0
173
0
174
0
175
1
176
1
 91
33
178
0
145
0.0
301
CELL_VALUE
 90
4
  1
3/4" NPTF
304
ACVALUE_END
170
5
140
0.125
  0
MTEXT
  5
28C
100
AcDbEntity
  8
0
100
AcDbMText
 62
2
  6
CONTINUOUS
  7
STANDARD
 71
1
 72
1
 10
0.52125
 20
5.75995
 30
0.0
 11
1.0
 21
0.0
 31
0.0
 44
0.6
  3
Notes\P \P1. Important: Carefully consider\P   the maximum system pressure. The\P   pressure rating of the manifold is\P   dependent on the manifold material,\P   with the port type/size a secondary\P   consideration. Manifolds\P   constructed of alu
  1
minum are not\P   rated for pressures higher than\P   3000 psi (210 bar), regardless of\P   the port type/size specified.
 40
0.1
 41
3.04
  0
LINE
  5
28D
100
AcDbEntity
  8
0
100
AcDbLine
 62
7
  6
CONTINUOUS
 10
0.30125
 20
0.30125
 11
0.30125
 21
16.69875
  0
LINE
  5
28E
100
AcDbEntity
  8
0
100
AcDbLine
 62
7
  6
CONTINUOUS
 10
0.30125
 20
0.30125
 11
21.69875
 21
0.30125
  0
LINE
  5
28F
100
AcDbEntity
  8
0
100
AcDbLine
 62
7
  6
CONTINUOUS
 10
0.30125
 20
16.69875
 11
21.69875
 21
16.69875
  0
LINE
  5
290
100
AcDbEntity
  8
0
100
AcDbLine
 62
7
  6
CONTINUOUS
 10
21.69875
 20
0.30125
 11
21.69875
 21
16.69875
  0
LINE
  5
291
100
AcDbEntity
  8
0
100
AcDbLine
 62
7
  6
CONTINUOUS
 10
9.1790591044
 20
5.80009448
 11
12.076836755
 21
5.5991329174
  0
LINE
  5
292
100
AcDbEntity
  8
0
100
AcDbLine
 62
7
  6
CONTINUOUS
 10
9.923163245
 20
11.1369357112
 11
9.1790591044
 21
10.4181862618
  0
LINE
  5
293
100
AcDbEntity
  8
0
100
AcDbLine
 62
7
  6
CONTINUOUS
 10
10.1755964776
 20
11.119429407
 11
10.3702993474
 21
11.3074979485
  0
LINE
  5
294
100
AcDbEntity
  8
0
100
AcDbLine
 62
7
  6
CONTINUOUS
 10
10.6308293268
 20
11.3999996888
 11
10.3293244613
 21
11.1087683352
  0
LINE
  5
295
100
AcDbEntity
  8
0
100
AcDbLine
 62
7
  6
CONTINUOUS
 10
9.1790591044
 20
5.80009448
 11
9.1790591044
 21
10.4181862618
  0
LINE
  5
296
100
AcDbEntity
  8
0
100
AcDbLine
 62
7
  6
CONTINUOUS
 10
12.321199623
 20
11.2827721106
 11
12.0196947574
 21
10.991540757
  0
LINE
  5
297
100
AcDbEntity
  8
0
100
AcDbLine
 62
7
  6
CONTINUOUS
 10
10.6619694957
 20
9.6697708924
 11
10.6673752409
 21
9.6749924416
  0
LINE
  5
298
100
AcDbEntity
  8
0
100
AcDbLine
 62
4
  6
CONTINUOUS
 10
12.4055366661
 20
7.1984162768
 11
12.374478407
 21
7.2046385203
  0
LINE
  5
299
100
AcDbEntity
  8
0
100
AcDbLine
 62
7
  6
CONTINUOUS
 10
12.076836755
 20
10.2172246991
 11
12.8209408956
 21
10.9359741486
  0
LINE
  5
29A
100
AcDbEntity
  8
0
100
AcDbLine
 62
4
  6
CONTINUOUS
 10
12.3478200677
 20
7.8444805341
 11
12.3167618086
 21
7.8475980139
  0
LINE
  5
29B
100
AcDbEntity
  8
0
100
AcDbLine
 62
4
  6
CONTINUOUS
 10
12.19681777
 20
7.9304457071
 11
12.167238475
 21
7.9349917429
  0
LINE
  5
29C
100
AcDbEntity
  8
0
100
AcDbLine
 62
4
  6
CONTINUOUS
 10
12.1583646873
 20
8.3486679048
 11
12.1605831351
 21
8.3480509833
  0
LINE
  5
29D
100
AcDbEntity
  8
0
100
AcDbLine
 62
4
  6
CONTINUOUS
 10
12.3796547841
 20
9.2501569435
 11
12.3848311594
 21
9.2551569383
  0
LINE
  5
29E
100
AcDbEntity
  8
0
100
AcDbLine
 62
4
  6
CONTINUOUS
 10
12.3977721013
 20
9.2169458213
 11
12.4055366661
 21
9.2172013715
  0
LINE
  5
29F
100
AcDbEntity
  8
0
100
AcDbLine
 62
4
  6
CONTINUOUS
 10
12.2794918977
 20
7.960626642
 11
12.2484336386
 21
7.9968615849
  0
LINE
  5
2A0
100
AcDbEntity
  8
0
100
AcDbLine
 62
4
  6
CONTINUOUS
 10
12.1872044992
 20
8.5421122925
 11
12.1805491576
 21
8.5356837259
  0
LINE
  5
2A1
100
AcDbEntity
  8
0
100
AcDbLine
 62
4
  6
CONTINUOUS
 10
12.1761122638
 20
8.481721907
 11
12.1694569229
 21
8.475293341
  0
LINE
  5
2A2
100
AcDbEntity
  8
0
100
AcDbLine
 62
4
  6
CONTINUOUS
 10
12.1872044992
 20
8.4179218561
 11
12.1694569229
 21
8.4007790129
  0
LINE
  5
2A3
100
AcDbEntity
  8
0
100
AcDbLine
 62
4
  6
CONTINUOUS
 10
12.1894229464
 20
8.3759081035
 11
12.167238475
 21
8.3544795484
  0
LINE
  5
2A4
100
AcDbEntity
  8
0
100
AcDbLine
 62
4
  6
CONTINUOUS
 10
12.1605831351
 20
8.3480509833
 11
12.1583646873
 21
8.3459081271
  0
LINE
  5
2A5
100
AcDbEntity
  8
0
100
AcDbLine
 62
4
  6
CONTINUOUS
 10
12.3478200677
 20
8.5095895038
 11
12.3167618086
 21
8.4795895275
  0
LINE
  5
2A6
100
AcDbEntity
  8
0
100
AcDbLine
 62
4
  6
CONTINUOUS
 10
12.4055366661
 20
9.1302680439
 11
12.374478407
 21
9.1364902874
  0
LINE
  5
2A7
100
AcDbEntity
  8
0
100
AcDbLine
 62
4
  6
CONTINUOUS
 10
12.2617443203
 20
8.075953636
 11
12.2484336386
 21
8.0962139602
  0
LINE
  5
2A8
100
AcDbEntity
  8
0
100
AcDbLine
 62
4
  6
CONTINUOUS
 10
12.1628015812
 20
7.4339441762
 11
12.1583646873
 21
7.4462171953
  0
LINE
  5
2A9
100
AcDbEntity
  8
0
100
AcDbLine
 62
4
  6
CONTINUOUS
 10
12.1894229464
 20
7.5010552655
 11
12.184986052
 21
7.5133282825
  0
LINE
  5
2AA
100
AcDbEntity
  8
0
100
AcDbLine
 62
4
  6
CONTINUOUS
 10
12.1894229464
 20
7.5921282803
 11
12.184986052
 21
7.6044012904
  0
LINE
  5
2AB
100
AcDbEntity
  8
0
100
AcDbLine
 62
7
  6
CONTINUOUS
 10
12.076836755
 20
5.5991329174
 11
12.076836755
 21
10.2172246991
  0
LINE
  5
2AC
100
AcDbEntity
  8
0
100
AcDbLine
 62
4
  6
CONTINUOUS
 10
12.1583646873
 20
7.4462171953
 11
12.1583646873
 21
7.4793346532
  0
LINE
  5
2AD
100
AcDbEntity
  8
0
100
AcDbLine
 62
4
  6
CONTINUOUS
 10
12.1583646873
 20
8.3459081271
 11
12.1583646873
 21
8.3486679048
  0
LINE
  5
2AE
100
AcDbEntity
  8
0
100
AcDbLine
 62
4
  6
CONTINUOUS
 10
12.167238475
 20
8.1557748392
 11
12.167238475
 21
8.1143780086
  0
LINE
  5
2AF
100
AcDbEntity
  8
0
100
AcDbLine
 62
4
  6
CONTINUOUS
 10
12.167238475
 20
7.8025219183
 11
12.167238475
 21
7.8439187489
  0
LINE
  5
2B0
100
AcDbEntity
  8
0
100
AcDbLine
 62
4
  6
CONTINUOUS
 10
12.167238475
 20
7.9736287958
 11
12.167238475
 21
8.0067462381
  0
LINE
  5
2B1
100
AcDbEntity
  8
0
100
AcDbLine
 62
4
  6
CONTINUOUS
 10
12.167238475
 20
8.0398637357
 11
12.167238475
 21
8.0729811781
  0
LINE
  5
2B2
100
AcDbEntity
  8
0
100
AcDbLine
 62
4
  6
CONTINUOUS
 10
12.167238475
 20
8.4069154896
 11
12.167238475
 21
8.4400330425
  0
LINE
  5
2B3
100
AcDbEntity
  8
0
100
AcDbLine
 62
4
  6
CONTINUOUS
 10
12.167238475
 20
8.4814298177
 11
12.167238475
 21
8.5145472601
  0
LINE
  5
2B4
100
AcDbEntity
  8
0
100
AcDbLine
 62
4
  6
CONTINUOUS
 10
12.1805491576
 20
8.5356837259
 11
12.179070193
 21
8.5259758227
  0
LINE
  5
2B5
100
AcDbEntity
  8
0
100
AcDbLine
 62
4
  6
CONTINUOUS
 10
12.1775912284
 20
8.4914298101
 11
12.1761122638
 21
8.481721907
  0
LINE
  5
2B6
100
AcDbEntity
  8
0
100
AcDbLine
 62
4
  6
CONTINUOUS
 10
12.167238475
 20
8.5145472601
 11
12.1694569229
 21
8.5249694492
  0
LINE
  5
2B7
100
AcDbEntity
  8
0
100
AcDbLine
 62
4
  6
CONTINUOUS
 10
12.1872044992
 20
8.4924361843
 11
12.1894229464
 21
8.5028583728
  0
LINE
  5
2B8
100
AcDbEntity
  8
0
100
AcDbLine
 62
4
  6
CONTINUOUS
 10
12.3770665946
 20
9.2404125003
 11
12.3796547841
 21
9.2501569435
  0
LINE
  5
2B9
100
AcDbEntity
  8
0
100
AcDbLine
 62
4
  6
CONTINUOUS
 10
12.374478407
 20
9.0640458477
 11
12.4055366661
 21
9.1302680439
  0
LINE
  5
2BA
100
AcDbEntity
  8
0
100
AcDbLine
 62
4
  6
CONTINUOUS
 10
12.3211987025
 20
8.436958797
 11
12.3433831733
 21
8.4583873516
  0
LINE
  5
2BB
100
AcDbEntity
  8
0
100
AcDbLine
 62
4
  6
CONTINUOUS
 10
12.1872044992
 20
8.299250975
 11
12.1583646873
 21
8.2713938542
  0
LINE
  5
2BC
100
AcDbEntity
  8
0
100
AcDbLine
 62
4
  6
CONTINUOUS
 10
12.1894229464
 20
8.2682763883
 11
12.167238475
 21
8.2468478332
  0
LINE
  5
2BD
100
AcDbEntity
  8
0
100
AcDbLine
 62
4
  6
CONTINUOUS
 10
12.3478200677
 20
8.404717511
 11
12.3167618086
 21
8.3747175346
  0
LINE
  5
2BE
100
AcDbEntity
  8
0
100
AcDbLine
 62
4
  6
CONTINUOUS
 10
12.167238475
 20
8.1971716144
 11
12.1872044992
 21
8.2164573139
  0
LINE
  5
2BF
100
AcDbEntity
  8
0
100
AcDbLine
 62
4
  6
CONTINUOUS
 10
12.3211987025
 20
8.345885803
 11
12.3433831733
 21
8.3673143576
  0
LINE
  5
2C0
100
AcDbEntity
  8
0
100
AcDbLine
 62
4
  6
CONTINUOUS
 10
12.1894229464
 20
8.1854827272
 11
12.1716753689
 21
8.1683398828
  0
LINE
  5
2C1
100
AcDbEntity
  8
0
100
AcDbLine
 62
4
  6
CONTINUOUS
 10
12.3433831733
 20
8.3093588058
 11
12.3211987025
 21
8.2879302512
  0
LINE
  5
2C2
100
AcDbEntity
  8
0
100
AcDbLine
 62
4
  6
CONTINUOUS
 10
12.1872044992
 20
8.1336637081
 11
12.1805491576
 21
8.1272351415
  0
LINE
  5
2C3
100
AcDbEntity
  8
0
100
AcDbLine
 62
4
  6
CONTINUOUS
 10
12.2528705325
 20
8.1915726649
 11
12.2750550033
 21
8.2130012195
  0
LINE
  5
2C4
100
AcDbEntity
  8
0
100
AcDbLine
 62
4
  6
CONTINUOUS
 10
12.1694569229
 20
8.0806435896
 11
12.1738938168
 21
8.0849293002
  0
LINE
  5
2C5
100
AcDbEntity
  8
0
100
AcDbLine
 62
4
  6
CONTINUOUS
 10
12.2794918977
 20
8.1593313927
 11
12.2484336386
 21
8.1293314164
  0
LINE
  5
2C6
100
AcDbEntity
  8
0
100
AcDbLine
 62
4
  6
CONTINUOUS
 10
12.3433831733
 20
8.2127662565
 11
12.3211987025
 21
8.1913377019
  0
LINE
  5
2C7
100
AcDbEntity
  8
0
100
AcDbLine
 62
4
  6
CONTINUOUS
 10
12.1894229464
 20
8.0612922908
 11
12.167238475
 21
8.0398637357
  0
LINE
  5
2C8
100
AcDbEntity
  8
0
100
AcDbLine
 62
4
  6
CONTINUOUS
 10
12.1583646873
 20
7.9981748168
 11
12.1894229464
 21
8.0281747932
  0
LINE
  5
2C9
100
AcDbEntity
  8
0
100
AcDbLine
 62
4
  6
CONTINUOUS
 10
12.3433831733
 20
7.7932784233
 11
12.3478200677
 21
7.7810054064
  0
LINE
  5
2CA
100
AcDbEntity
  8
0
100
AcDbLine
 62
4
  6
CONTINUOUS
 10
12.1694569229
 20
8.4007790129
 11
12.167238475
 21
8.4069154896
  0
LINE
  5
2CB
100
AcDbEntity
  8
0
100
AcDbLine
 62
4
  6
CONTINUOUS
 10
12.1694569229
 20
8.475293341
 11
12.167238475
 21
8.4814298177
  0
LINE
  5
2CC
100
AcDbEntity
  8
0
100
AcDbLine
 62
4
  6
CONTINUOUS
 10
12.2750550033
 20
8.2130012195
 11
12.2794918977
 21
8.2007282094
  0
LINE
  5
2CD
100
AcDbEntity
  8
0
100
AcDbLine
 62
4
  6
CONTINUOUS
 10
12.1894229464
 20
8.5359758151
 11
12.1872044992
 21
8.5421122925
  0
LINE
  5
2CE
100
AcDbEntity
  8
0
100
AcDbLine
 62
4
  6
CONTINUOUS
 10
12.3211987025
 20
8.1913377019
 11
12.3167618086
 21
8.2036107124
  0
LINE
  5
2CF
100
AcDbEntity
  8
0
100
AcDbLine
 62
4
  6
CONTINUOUS
 10
12.3211987025
 20
8.2879302512
 11
12.3167618086
 21
8.3002032618
  0
LINE
  5
2D0
100
AcDbEntity
  8
0
100
AcDbLine
 62
4
  6
CONTINUOUS
 10
12.1694569229
 20
7.9592129309
 11
12.167238475
 21
7.9736287958
  0
LINE
  5
2D1
100
AcDbEntity
  8
0
100
AcDbLine
 62
4
  6
CONTINUOUS
 10
12.1805491576
 20
8.1272351415
 11
12.1783307107
 21
8.1416510073
  0
LINE
  5
2D2
100
AcDbEntity
  8
0
100
AcDbLine
 62
4
  6
CONTINUOUS
 10
12.1783307107
 20
8.1416510073
 11
12.1783307107
 21
8.1747684496
  0
LINE
  5
2D3
100
AcDbEntity
  8
0
100
AcDbLine
 62
4
  6
CONTINUOUS
 10
12.1894229464
 20
8.4614615975
 11
12.1894229464
 21
8.4283440446
  0
LINE
  5
2D4
100
AcDbEntity
  8
0
100
AcDbLine
 62
4
  6
CONTINUOUS
 10
12.1894229464
 20
8.32623194
 11
12.1894229464
 21
8.3096732188
  0
LINE
  5
2D5
100
AcDbEntity
  8
0
100
AcDbLine
 62
4
  6
CONTINUOUS
 10
12.1894229464
 20
8.1854827272
 11
12.1894229464
 21
8.1523652848
  0
LINE
  5
2D6
100
AcDbEntity
  8
0
100
AcDbLine
 62
4
  6
CONTINUOUS
 10
12.1894229464
 20
8.0281747932
 11
12.1894229464
 21
7.9950573508
  0
LINE
  5
2D7
100
AcDbEntity
  8
0
100
AcDbLine
 62
4
  6
CONTINUOUS
 10
12.1894229464
 20
7.4679378068
 11
12.1894229464
 21
7.5010552655
  0
LINE
  5
2D8
100
AcDbEntity
  8
0
100
AcDbLine
 62
4
  6
CONTINUOUS
 10
12.1894229464
 20
7.5672901778
 11
12.1894229464
 21
7.5921282803
  0
LINE
  5
2D9
100
AcDbEntity
  8
0
100
AcDbLine
 62
4
  6
CONTINUOUS
 10
12.1894229464
 20
8.2268795577
 11
12.1894229464
 21
8.2682763883
  0
LINE
  5
2DA
100
AcDbEntity
  8
0
100
AcDbLine
 62
4
  6
CONTINUOUS
 10
12.1894229464
 20
8.5028583728
 11
12.1894229464
 21
8.5359758151
  0
LINE
  5
2DB
100
AcDbEntity
  8
0
100
AcDbLine
 62
4
  6
CONTINUOUS
 10
12.19681777
 20
7.913886986
 11
12.19681777
 21
7.9304457071
  0
LINE
  5
2DC
100
AcDbEntity
  8
0
100
AcDbLine
 62
4
  6
CONTINUOUS
 10
12.2484336386
 20
8.1293314164
 11
12.2484336386
 21
8.1707282331
  0
LINE
  5
2DD
100
AcDbEntity
  8
0
100
AcDbLine
 62
4
  6
CONTINUOUS
 10
12.2794918977
 20
8.2007282094
 11
12.2794918977
 21
8.1593313927
  0
LINE
  5
2DE
100
AcDbEntity
  8
0
100
AcDbLine
 62
4
  6
CONTINUOUS
 10
12.3167618086
 20
7.7096086133
 11
12.3167618086
 21
7.75100543
  0
LINE
  5
2DF
100
AcDbEntity
  8
0
100
AcDbLine
 62
4
  6
CONTINUOUS
 10
12.3167618086
 20
7.9138329262
 11
12.3167618086
 21
7.9800678385
  0
LINE
  5
2E0
100
AcDbEntity
  8
0
100
AcDbLine
 62
4
  6
CONTINUOUS
 10
12.3167618086
 20
8.0131853085
 11
12.3167618086
 21
8.0628614996
  0
LINE
  5
2E1
100
AcDbEntity
  8
0
100
AcDbLine
 62
4
  6
CONTINUOUS
 10
12.3167618086
 20
8.2036107124
 11
12.3167618086
 21
8.2367281547
  0
LINE
  5
2E2
100
AcDbEntity
  8
0
100
AcDbLine
 62
4
  6
CONTINUOUS
 10
12.3167618086
 20
8.3002032618
 11
12.3167618086
 21
8.3250413711
  0
LINE
  5
2E3
100
AcDbEntity
  8
0
100
AcDbLine
 62
4
  6
CONTINUOUS
 10
12.3167618086
 20
8.3747175346
 11
12.3167618086
 21
8.4161143652
  0
LINE
  5
2E4
100
AcDbEntity
  8
0
100
AcDbLine
 62
4
  6
CONTINUOUS
 10
12.3167618086
 20
8.4795895275
 11
12.3167618086
 21
8.529265691
  0
LINE
  5
2E5
100
AcDbEntity
  8
0
100
AcDbLine
 62
4
  6
CONTINUOUS
 10
12.3300724903
 20
8.5255641018
 11
12.3300724903
 21
8.4924466594
  0
LINE
  5
2E6
100
AcDbEntity
  8
0
100
AcDbLine
 62
4
  6
CONTINUOUS
 10
12.3300724903
 20
8.0591599104
 11
12.3300724903
 21
8.0260424404
  0
LINE
  5
2E7
100
AcDbEntity
  8
0
100
AcDbLine
 62
4
  6
CONTINUOUS
 10
12.338946279
 20
7.8469482639
 11
12.338946279
 21
7.8911048721
  0
LINE
  5
2E8
100
AcDbEntity
  8
0
100
AcDbLine
 62
4
  6
CONTINUOUS
 10
12.3478200677
 20
8.4461143415
 11
12.3478200677
 21
8.404717511
  0
LINE
  5
2E9
100
AcDbEntity
  8
0
100
AcDbLine
 62
4
  6
CONTINUOUS
 10
12.3478200677
 20
8.3550413475
 11
12.3478200677
 21
8.3302032381
  0
LINE
  5
2EA
100
AcDbEntity
  8
0
100
AcDbLine
 62
4
  6
CONTINUOUS
 10
12.3478200677
 20
8.2667281311
 11
12.3478200677
 21
8.2336106888
  0
LINE
  5
2EB
100
AcDbEntity
  8
0
100
AcDbLine
 62
4
  6
CONTINUOUS
 10
12.3478200677
 20
7.7810054064
 11
12.3478200677
 21
7.7396085896
  0
LINE
  5
2EC
100
AcDbEntity
  8
0
100
AcDbLine
 62
4
  6
CONTINUOUS
 10
12.3478200677
 20
8.0431852848
 11
12.3478200677
 21
8.0928614759
  0
LINE
  5
2ED
100
AcDbEntity
  8
0
100
AcDbLine
 62
4
  6
CONTINUOUS
 10
12.3478200677
 20
8.5095895038
 11
12.3478200677
 21
8.5592656673
  0
LINE
  5
2EE
100
AcDbEntity
  8
0
100
AcDbLine
 62
4
  6
CONTINUOUS
 10
12.374478407
 20
9.208934727
 11
12.374478407
 21
9.2234236149
  0
LINE
  5
2EF
100
AcDbEntity
  8
0
100
AcDbLine
 62
4
  6
CONTINUOUS
 10
12.179070193
 20
8.5259758227
 11
12.1775912284
 21
8.4914298101
  0
LINE
  5
2F0
100
AcDbEntity
  8
0
100
AcDbLine
 62
4
  6
CONTINUOUS
 10
12.1894229464
 20
8.1523652848
 11
12.1872044992
 21
8.1336637081
  0
LINE
  5
2F1
100
AcDbEntity
  8
0
100
AcDbLine
 62
4
  6
CONTINUOUS
 10
12.1894229464
 20
7.9950573508
 11
12.1872044992
 21
7.9763557741
  0
LINE
  5
2F2
100
AcDbEntity
  8
0
100
AcDbLine
 62
4
  6
CONTINUOUS
 10
12.3285935256
 20
8.573811695
 11
12.3345093851
 21
8.623682585
  0
LINE
  5
2F3
100
AcDbEntity
  8
0
100
AcDbLine
 62
4
  6
CONTINUOUS
 10
12.374478407
 20
9.2234236149
 11
12.3770665946
 21
9.2404125003
  0
LINE
  5
2F4
100
AcDbEntity
  8
0
100
AcDbLine
 62
4
  6
CONTINUOUS
 10
12.1805491576
 20
7.5090425714
 11
12.167238475
 21
7.4382298868
  0
LINE
  5
2F5
100
AcDbEntity
  8
0
100
AcDbLine
 62
4
  6
CONTINUOUS
 10
12.1894229464
 20
8.4283440446
 11
12.1872044992
 21
8.4179218561
  0
LINE
  5
2F6
100
AcDbEntity
  8
0
100
AcDbLine
 62
4
  6
CONTINUOUS
 10
12.1894229464
 20
8.3096732188
 11
12.1872044992
 21
8.299250975
  0
LINE
  5
2F7
100
AcDbEntity
  8
0
100
AcDbLine
 62
4
  6
CONTINUOUS
 10
12.1872044992
 20
8.2164573139
 11
12.1894229464
 21
8.2268795577
  0
LINE
  5
2F8
100
AcDbEntity
  8
0
100
AcDbLine
 62
4
  6
CONTINUOUS
 10
12.167238475
 20
7.8439187489
 11
12.1694569229
 21
7.8543409657
  0
LINE
  5
2F9
100
AcDbEntity
  8
0
100
AcDbLine
 62
4
  6
CONTINUOUS
 10
12.2484336386
 20
8.1707282331
 11
12.2528705325
 21
8.1915726649
  0
LINE
  5
2FA
100
AcDbEntity
  8
0
100
AcDbLine
 62
4
  6
CONTINUOUS
 10
12.3167618086
 20
8.4161143652
 11
12.3211987025
 21
8.436958797
  0
LINE
  5
2FB
100
AcDbEntity
  8
0
100
AcDbLine
 62
4
  6
CONTINUOUS
 10
12.3167618086
 20
8.3250413711
 11
12.3211987025
 21
8.345885803
  0
LINE
  5
2FC
100
AcDbEntity
  8
0
100
AcDbLine
 62
4
  6
CONTINUOUS
 10
12.1583646873
 20
7.4793346532
 11
12.1605831351
 21
7.4897568735
  0
LINE
  5
2FD
100
AcDbEntity
  8
0
100
AcDbLine
 62
4
  6
CONTINUOUS
 10
12.3478200677
 20
8.3302032381
 11
12.3433831733
 21
8.3093588058
  0
LINE
  5
2FE
100
AcDbEntity
  8
0
100
AcDbLine
 62
4
  6
CONTINUOUS
 10
12.184986052
 20
7.5464457387
 11
12.1894229464
 21
7.5672901778
  0
LINE
  5
2FF
100
AcDbEntity
  8
0
100
AcDbLine
 62
4
  6
CONTINUOUS
 10
12.3478200677
 20
8.2336106888
 11
12.3433831733
 21
8.2127662565
  0
LINE
  5
300
100
AcDbEntity
  8
0
100
AcDbLine
 62
4
  6
CONTINUOUS
 10
12.1872044992
 20
7.4575155863
 11
12.1894229464
 21
7.4679378068
  0
LINE
  5
301
100
AcDbEntity
  8
0
100
AcDbLine
 62
4
  6
CONTINUOUS
 10
12.167238475
 20
8.0729811781
 11
12.1694569229
 21
8.0806435896
  0
LINE
  5
302
100
AcDbEntity
  8
0
100
AcDbLine
 62
4
  6
CONTINUOUS
 10
12.2484336386
 20
8.029979041
 11
12.2617443203
 21
8.075953636
  0
LINE
  5
303
100
AcDbEntity
  8
0
100
AcDbLine
 62
4
  6
CONTINUOUS
 10
12.2484336386
 20
7.9306266656
 11
12.2794918977
 21
8.0268615612
  0
LINE
  5
304
100
AcDbEntity
  8
0
100
AcDbLine
 62
4
  6
CONTINUOUS
 10
12.1716753689
 20
8.1683398828
 11
12.167238475
 21
8.1557748392
  0
LINE
  5
305
100
AcDbEntity
  8
0
100
AcDbLine
 62
4
  6
CONTINUOUS
 10
12.1583646873
 20
7.6118044813
 11
12.1894229464
 21
7.6997600093
  0
LINE
  5
306
100
AcDbEntity
  8
0
100
AcDbLine
 62
4
  6
CONTINUOUS
 10
12.167238475
 20
7.8853155794
 11
12.1894229464
 21
7.9315822438
  0
LINE
  5
307
100
AcDbEntity
  8
0
100
AcDbLine
 62
4
  6
CONTINUOUS
 10
12.2617443203
 20
8.075953636
 11
12.2794918977
 21
8.0930964804
  0
LINE
  5
308
100
AcDbEntity
  8
0
100
AcDbLine
 62
4
  6
CONTINUOUS
 10
12.1872044992
 20
7.9763557741
 11
12.1694569229
 21
7.9592129309
  0
LINE
  5
309
100
AcDbEntity
  8
0
100
AcDbLine
 62
4
  6
CONTINUOUS
 10
12.3478200677
 20
8.0431852848
 11
12.3167618086
 21
8.0131853085
  0
LINE
  5
30A
100
AcDbEntity
  8
0
100
AcDbLine
 62
4
  6
CONTINUOUS
 10
12.1694569229
 20
7.8543409657
 11
12.1894229464
 21
7.8736266645
  0
LINE
  5
30B
100
AcDbEntity
  8
0
100
AcDbLine
 62
4
  6
CONTINUOUS
 10
12.3478200677
 20
7.9769503725
 11
12.3167618086
 21
7.9469503962
  0
LINE
  5
30C
100
AcDbEntity
  8
0
100
AcDbLine
 62
4
  6
CONTINUOUS
 10
12.1894229464
 20
7.8239504734
 11
12.1583646873
 21
7.793950497
  0
LINE
  5
30D
100
AcDbEntity
  8
0
100
AcDbLine
 62
4
  6
CONTINUOUS
 10
12.3433831733
 20
8.3673143576
 11
12.3478200677
 21
8.3550413475
  0
LINE
  5
30E
100
AcDbEntity
  8
0
100
AcDbLine
 62
4
  6
CONTINUOUS
 10
12.3433831733
 20
8.4583873516
 11
12.3478200677
 21
8.4461143415
  0
LINE
  5
30F
100
AcDbEntity
  8
0
100
AcDbLine
 62
4
  6
CONTINUOUS
 10
12.3285935256
 20
7.6989588675
 11
12.3345093851
 21
7.6605165376
  0
LINE
  5
310
100
AcDbEntity
  8
0
100
AcDbLine
 62
4
  6
CONTINUOUS
 10
12.3345093851
 20
8.623682585
 11
12.3404252441
 21
8.5852402581
  0
LINE
  5
311
100
AcDbEntity
  8
0
100
AcDbLine
 62
4
  6
CONTINUOUS
 10
12.4055366661
 20
9.2172013715
 11
12.4055366661
 21
9.2751569232
  0
LINE
  5
312
100
AcDbEntity
  8
0
100
AcDbLine
 62
4
  6
CONTINUOUS
 10
12.3345093851
 20
7.6605165376
 11
12.3404252441
 21
7.7103874305
  0
LINE
  5
313
100
AcDbEntity
  8
0
100
AcDbLine
 62
4
  6
CONTINUOUS
 10
12.3167618086
 20
7.75100543
 11
12.3211987025
 21
7.7718498687
  0
LINE
  5
314
100
AcDbEntity
  8
0
100
AcDbLine
 62
4
  6
CONTINUOUS
 10
12.3167618086
 20
7.8475980139
 11
12.3478200677
 21
7.9107154602
  0
LINE
  5
315
100
AcDbEntity
  8
0
100
AcDbLine
 62
4
  6
CONTINUOUS
 10
12.1894229464
 20
7.6997600093
 11
12.1583646873
 21
7.669760033
  0
LINE
  5
316
100
AcDbEntity
  8
0
100
AcDbLine
 62
4
  6
CONTINUOUS
 10
12.3211987025
 20
7.7718498687
 11
12.3433831733
 21
7.7932784233
  0
LINE
  5
317
100
AcDbEntity
  8
0
100
AcDbLine
 62
4
  6
CONTINUOUS
 10
12.1894229464
 20
7.6418044576
 11
12.1583646873
 21
7.6118044813
  0
LINE
  5
318
100
AcDbEntity
  8
0
100
AcDbLine
 62
4
  6
CONTINUOUS
 10
12.184986052
 20
7.6044012904
 11
12.1583646873
 21
7.5786870251
  0
LINE
  5
319
100
AcDbEntity
  8
0
100
AcDbLine
 62
4
  6
CONTINUOUS
 10
12.3478200677
 20
7.7396085896
 11
12.3167618086
 21
7.7096086133
  0
LINE
  5
31A
100
AcDbEntity
  8
0
100
AcDbLine
 62
4
  6
CONTINUOUS
 10
12.1583646873
 20
7.5207314734
 11
12.184986052
 21
7.5464457387
  0
LINE
  5
31B
100
AcDbEntity
  8
0
100
AcDbLine
 62
4
  6
CONTINUOUS
 10
12.184986052
 20
7.5133282825
 11
12.1805491576
 21
7.5090425714
  0
LINE
  5
31C
100
AcDbEntity
  8
0
100
AcDbLine
 62
4
  6
CONTINUOUS
 10
12.167238475
 20
7.4382298868
 11
12.1628015812
 21
7.4339441762
  0
LINE
  5
31D
100
AcDbEntity
  8
0
100
AcDbLine
 62
4
  6
CONTINUOUS
 10
12.3796547841
 20
9.1922013918
 11
12.3770665946
 21
9.1969458365
  0
LINE
  5
31E
100
AcDbEntity
  8
0
100
AcDbLine
 62
4
  6
CONTINUOUS
 10
12.3925957251
 20
9.2264347135
 11
12.3977721013
 21
9.2169458213
  0
LINE
  5
31F
100
AcDbEntity
  8
0
100
AcDbLine
 62
4
  6
CONTINUOUS
 10
12.3848311594
 20
9.2551569383
 11
12.3874193489
 21
9.2504124936
  0
LINE
  5
320
100
AcDbEntity
  8
0
100
AcDbLine
 62
4
  6
CONTINUOUS
 10
12.3770665946
 20
9.1969458365
 11
12.374478407
 21
9.208934727
  0
LINE
  5
321
100
AcDbEntity
  8
0
100
AcDbLine
 62
4
  6
CONTINUOUS
 10
12.3874193489
 20
9.2504124936
 11
12.3925957251
 21
9.2264347135
  0
LINE
  5
322
100
AcDbEntity
  8
0
100
AcDbLine
 62
7
  6
CONTINUOUS
 10
12.8209408956
 20
6.3178823668
 11
12.8209408956
 21
10.9359741486
  0
LINE
  5
323
100
AcDbEntity
  8
0
100
AcDbLine
 62
4
  6
CONTINUOUS
 10
12.374478407
 20
7.1321940807
 11
12.4055366661
 21
7.1984162768
  0
LINE
  5
324
100
AcDbEntity
  8
0
100
AcDbLine
 62
4
  6
CONTINUOUS
 10
12.374478407
 20
7.2843274039
 11
12.4055366661
 21
7.3143273803
  0
LINE
  5
325
100
AcDbEntity
  8
0
100
AcDbLine
 62
7
  6
CONTINUOUS
 10
9.1790591044
 20
10.4181862618
 11
12.076836755
 21
10.2172246991
  0
LINE
  5
326
100
AcDbEntity
  8
0
100
AcDbLine
 62
7
  6
CONTINUOUS
 10
9.923163245
 20
11.1369357112
 11
12.8209408956
 21
10.9359741486
  0
LINE
  5
327
100
AcDbEntity
  8
0
100
AcDbLine
 62
7
  6
CONTINUOUS
 10
12.076836755
 20
5.5991329174
 11
12.8209408956
 21
6.3178823668
  0
LINE
  5
328
100
AcDbEntity
  8
0
100
AcDbLine
 62
7
  6
CONTINUOUS
 10
12.321199623
 20
11.2827721106
 11
10.6308293268
 21
11.3999996888
  0
ARC
  5
329
100
AcDbEntity
  8
0
100
AcDbCircle
 62
7
  6
CONTINUOUS
 10
11.1000077442
 20
9.6688753565
 40
0.6033552362
100
AcDbArc
 50
266.0248247759
 51
271.2212937902
  0
ARC
  5
32A
100
AcDbEntity
  8
0
100
AcDbCircle
 62
7
  6
CONTINUOUS
 10
11.1039051849
 20
9.6755637207
 40
0.5856788427
100
AcDbArc
 50
266.0300744363
 51
270.4777249033
  0
ARC
  5
32B
100
AcDbEntity
  8
0
100
AcDbCircle
 62
7
  6
CONTINUOUS
 10
11.1422357314
 20
9.8026201679
 40
0.4983017029
100
AcDbArc
 50
194.4090491039
 51
195.4622903081
  0
ARC
  5
32C
100
AcDbEntity
  8
0
100
AcDbCircle
 62
7
  6
CONTINUOUS
 10
11.0969019338
 20
9.6773014086
 40
0.4847850403
100
AcDbArc
 50
266.0322171455
 51
268.3189254131
  0
SPLINE
  5
32D
100
AcDbEntity
  8
0
100
AcDbSpline
 62
7
  6
CONTINUOUS
 70
0
 71
3
 72
41
 73
37
 74
0
 42
0.0000001
 43
0.0000001
 44
0.0000000001
 40
0.0
 40
0.0
 40
0.0
 40
0.0
 40
0.0311447108
 40
0.0467774295
 40
0.0624475249
 40
0.0938924651
 40
0.1254747955
 40
0.1571823865
 40
0.1890004527
 40
0.2209120576
 40
0.2528984154
 40
0.2689156901
 40
0.2849439669
 40
0.3170180467
 40
0.3491033961
 40
0.3811778561
 40
0.4132194776
 40
0.4452069463
 40
0.4771199982
 40
0.5089398211
 40
0.5406494354
 40
0.5722340478
 40
0.6036813723
 40
0.6349819093
 40
0.666129179
 40
0.6971198991
 40
0.7279541027
 40
0.7586351871
 40
0.7891698911
 40
0.819568195
 40
0.8498431417
 40
0.8800105805
 40
0.9100888347
 40
0.9400983003
 40
0.9700609852
 40
1.0
 40
1.0
 40
1.0
 40
1.0
 10
9.5712250019
 20
10.3011580256
 30
0.0
 10
9.578230342
 20
10.3006722036
 30
0.0
 10
9.5887303917
 20
10.2995582138
 30
0.0
 10
9.6026334105
 20
10.2973195439
 30
0.0
 10
9.6165143472
 20
10.2945711332
 30
0.0
 10
9.6337265097
 20
10.2901940621
 30
0.0
 10
9.6540203131
 20
10.283475579
 30
0.0
 10
9.6738719411
 20
10.275320525
 30
0.0
 10
9.693175091
 20
10.265772518
 30
0.0
 10
9.7118265799
 20
10.2548829415
 30
0.0
 10
9.726738832
 20
10.2447418724
 30
0.0
 10
9.7382466926
 20
10.2360199413
 30
0.0
 10
9.7494651266
 20
10.2268973556
 30
0.0
 10
9.7629013187
 20
10.2147770723
 30
0.0
 10
9.7779962772
 20
10.1991678508
 30
0.0
 10
9.7919883298
 20
10.1825716906
 30
0.0
 10
9.8048023844
 20
10.1650774342
 30
0.0
 10
9.8163702292
 20
10.1467781947
 30
0.0
 10
9.8266301
 20
10.1277715048
 30
0.0
 10
9.8355272194
 20
10.1081586321
 30
0.0
 10
9.8430140314
 20
10.0880440922
 30
0.0
 10
9.8490504699
 20
10.0675350866
 30
0.0
 10
9.8536041701
 20
10.0467409425
 30
0.0
 10
9.8566506454
 20
10.0257725371
 30
0.0
 10
9.8581734232
 20
10.004741715
 30
0.0
 10
9.8581641392
 20
9.9837606985
 30
0.0
 10
9.8566225958
 20
9.9629414953
 30
0.0
 10
9.853556773
 20
9.9423953043
 30
0.0
 10
9.8489827966
 20
9.9222319247
 30
0.0
 10
9.8429248645
 20
9.9025591662
 30
0.0
 10
9.835415141
 20
9.8834822787
 30
0.0
 10
9.8264935617
 20
9.8651033458
 30
0.0
 10
9.8162077677
 20
9.8475208597
 30
0.0
 10
9.8046123509
 20
9.8308286895
 30
0.0
 10
9.7917704565
 20
9.8151173864
 30
0.0
 10
9.782419855
 20
9.8053491027
 30
0.0
 10
9.7775646561
 20
9.8006593427
 30
0.0
  0
SPLINE
  5
32E
100
AcDbEntity
  8
0
100
AcDbSpline
 62
7
  6
CONTINUOUS
 70
0
 71
3
 72
41
 73
37
 74
0
 42
0.0000001
 43
0.0000001
 44
0.0000000001
 40
0.0
 40
0.0
 40
0.0
 40
0.0
 40
0.0311447108
 40
0.0467774295
 40
0.0624475249
 40
0.0938924651
 40
0.1254747955
 40
0.1571823865
 40
0.1890004527
 40
0.2209120576
 40
0.2528984154
 40
0.2689156901
 40
0.2849439669
 40
0.3170180467
 40
0.3491033961
 40
0.3811778561
 40
0.4132194776
 40
0.4452069463
 40
0.4771199982
 40
0.5089398211
 40
0.5406494354
 40
0.5722340478
 40
0.6036813723
 40
0.6349819093
 40
0.666129179
 40
0.6971198991
 40
0.7279541027
 40
0.7586351871
 40
0.7891698911
 40
0.819568195
 40
0.8498431417
 40
0.8800105805
 40
0.9100888347
 40
0.9400983003
 40
0.9700609852
 40
1.0
 40
1.0
 40
1.0
 40
1.0
 10
11.2615952117
 20
10.1839304534
 30
0.0
 10
11.2686005519
 20
10.1834446314
 30
0.0
 10
11.2791006015
 20
10.1823306416
 30
0.0
 10
11.2930036203
 20
10.1800919717
 30
0.0
 10
11.306884557
 20
10.177343561
 30
0.0
 10
11.3240967195
 20
10.1729664899
 30
0.0
 10
11.3443905229
 20
10.1662480068
 30
0.0
 10
11.3642421509
 20
10.1580929528
 30
0.0
 10
11.3835453008
 20
10.1485449458
 30
0.0
 10
11.4021967897
 20
10.1376553692
 30
0.0
 10
11.4171090418
 20
10.1275143002
 30
0.0
 10
11.4286169024
 20
10.1187923691
 30
0.0
 10
11.4398353364
 20
10.1096697834
 30
0.0
 10
11.4532715286
 20
10.0975495001
 30
0.0
 10
11.468366487
 20
10.0819402786
 30
0.0
 10
11.4823585396
 20
10.0653441184
 30
0.0
 10
11.4951725942
 20
10.047849862
 30
0.0
 10
11.506740439
 20
10.0295506225
 30
0.0
 10
11.5170003098
 20
10.0105439326
 30
0.0
 10
11.5258974292
 20
9.9909310599
 30
0.0
 10
11.5333842412
 20
9.97081652
 30
0.0
 10
11.5394206797
 20
9.9503075144
 30
0.0
 10
11.5439743799
 20
9.9295133703
 30
0.0
 10
11.5470208552
 20
9.9085449649
 30
0.0
 10
11.548543633
 20
9.8875141428
 30
0.0
 10
11.548534349
 20
9.8665331263
 30
0.0
 10
11.5469928056
 20
9.8457139231
 30
0.0
 10
11.5439269828
 20
9.8251677321
 30
0.0
 10
11.5393530064
 20
9.8050043524
 30
0.0
 10
11.5332950743
 20
9.785331594
 30
0.0
 10
11.5257853508
 20
9.7662547065
 30
0.0
 10
11.5168637715
 20
9.7478757736
 30
0.0
 10
11.5065779775
 20
9.7302932875
 30
0.0
 10
11.4949825607
 20
9.7136011173
 30
0.0
 10
11.4821406663
 20
9.6978898142
 30
0.0
 10
11.4727900648
 20
9.6881215305
 30
0.0
 10
11.4679348659
 20
9.6834317705
 30
0.0
  0
SPLINE
  5
32F
100
AcDbEntity
  8
0
100
AcDbSpline
 62
7
  6
CONTINUOUS
 70
0
 71
3
 72
41
 73
37
 74
0
 42
0.0000001
 43
0.0000001
 44
0.0000000001
 40
0.0
 40
0.0
 40
0.0
 40
0.0
 40
0.0311447108
 40
0.0467774295
 40
0.0624475249
 40
0.0938924651
 40
0.1254747955
 40
0.1571823865
 40
0.1890004527
 40
0.2209120576
 40
0.2528984154
 40
0.2689156901
 40
0.2849439669
 40
0.3170180467
 40
0.3491033961
 40
0.3811778561
 40
0.4132194776
 40
0.4452069463
 40
0.4771199982
 40
0.5089398211
 40
0.5406494354
 40
0.5722340478
 40
0.6036813723
 40
0.6349819093
 40
0.666129179
 40
0.6971198991
 40
0.7279541027
 40
0.7586351871
 40
0.7891698911
 40
0.819568195
 40
0.8498431417
 40
0.8800105805
 40
0.9100888347
 40
0.9400983003
 40
0.9700609852
 40
1.0
 40
1.0
 40
1.0
 40
1.0
 10
11.2615952117
 20
8.2520789167
 30
0.0
 10
11.2686005519
 20
8.2515930947
 30
0.0
 10
11.2791006015
 20
8.2504791048
 30
0.0
 10
11.2930036203
 20
8.2482404349
 30
0.0
 10
11.306884557
 20
8.2454920242
 30
0.0
 10
11.3240967195
 20
8.2411149532
 30
0.0
 10
11.3443905229
 20
8.2343964701
 30
0.0
 10
11.3642421509
 20
8.226241416
 30
0.0
 10
11.3835453008
 20
8.2166934091
 30
0.0
 10
11.4021967897
 20
8.2058038325
 30
0.0
 10
11.4171090418
 20
8.1956627634
 30
0.0
 10
11.4286169024
 20
8.1869408323
 30
0.0
 10
11.4398353364
 20
8.1778182466
 30
0.0
 10
11.4532715286
 20
8.1656979633
 30
0.0
 10
11.468366487
 20
8.1500887419
 30
0.0
 10
11.4823585396
 20
8.1334925816
 30
0.0
 10
11.4951725942
 20
8.1159983252
 30
0.0
 10
11.506740439
 20
8.0976990857
 30
0.0
 10
11.5170003098
 20
8.0786923958
 30
0.0
 10
11.5258974292
 20
8.0590795232
 30
0.0
 10
11.5333842412
 20
8.0389649833
 30
0.0
 10
11.5394206797
 20
8.0184559776
 30
0.0
 10
11.5439743799
 20
7.9976618335
 30
0.0
 10
11.5470208552
 20
7.9766934282
 30
0.0
 10
11.548543633
 20
7.9556626061
 30
0.0
 10
11.548534349
 20
7.9346815896
 30
0.0
 10
11.5469928056
 20
7.9138623864
 30
0.0
 10
11.5439269828
 20
7.8933161953
 30
0.0
 10
11.5393530064
 20
7.8731528157
 30
0.0
 10
11.5332950743
 20
7.8534800573
 30
0.0
 10
11.5257853508
 20
7.8344031698
 30
0.0
 10
11.5168637715
 20
7.8160242369
 30
0.0
 10
11.5065779775
 20
7.7984417507
 30
0.0
 10
11.4949825607
 20
7.7817495805
 30
0.0
 10
11.4821406663
 20
7.7660382775
 30
0.0
 10
11.4727900648
 20
7.7562699938
 30
0.0
 10
11.4679348659
 20
7.7515802337
 30
0.0
  0
SPLINE
  5
330
100
AcDbEntity
  8
0
100
AcDbSpline
 62
7
  6
CONTINUOUS
 70
0
 71
3
 72
41
 73
37
 74
0
 42
0.0000001
 43
0.0000001
 44
0.0000000001
 40
0.0
 40
0.0
 40
0.0
 40
0.0
 40
0.0311447108
 40
0.0467774295
 40
0.0624475249
 40
0.0938924651
 40
0.1254747955
 40
0.1571823865
 40
0.1890004527
 40
0.2209120576
 40
0.2528984154
 40
0.2689156901
 40
0.2849439669
 40
0.3170180467
 40
0.3491033961
 40
0.3811778561
 40
0.4132194776
 40
0.4452069463
 40
0.4771199982
 40
0.5089398211
 40
0.5406494354
 40
0.5722340478
 40
0.6036813723
 40
0.6349819093
 40
0.666129179
 40
0.6971198991
 40
0.7279541027
 40
0.7586351871
 40
0.7891698911
 40
0.819568195
 40
0.8498431417
 40
0.8800105805
 40
0.9100888347
 40
0.9400983003
 40
0.9700609852
 40
1.0
 40
1.0
 40
1.0
 40
1.0
 10
11.2615952117
 20
6.3202271208
 30
0.0
 10
11.2686005519
 20
6.3197412988
 30
0.0
 10
11.2791006015
 20
6.318627309
 30
0.0
 10
11.2930036203
 20
6.3163886391
 30
0.0
 10
11.306884557
 20
6.3136402284
 30
0.0
 10
11.3240967195
 20
6.3092631573
 30
0.0
 10
11.3443905229
 20
6.3025446743
 30
0.0
 10
11.3642421509
 20
6.2943896202
 30
0.0
 10
11.3835453008
 20
6.2848416133
 30
0.0
 10
11.4021967897
 20
6.2739520367
 30
0.0
 10
11.4171090418
 20
6.2638109676
 30
0.0
 10
11.4286169024
 20
6.2550890365
 30
0.0
 10
11.4398353364
 20
6.2459664508
 30
0.0
 10
11.4532715286
 20
6.2338461675
 30
0.0
 10
11.468366487
 20
6.218236946
 30
0.0
 10
11.4823585396
 20
6.2016407858
 30
0.0
 10
11.4951725942
 20
6.1841465294
 30
0.0
 10
11.506740439
 20
6.1658472899
 30
0.0
 10
11.5170003098
 20
6.1468406
 30
0.0
 10
11.5258974292
 20
6.1272277273
 30
0.0
 10
11.5333842412
 20
6.1071131874
 30
0.0
 10
11.5394206797
 20
6.0866041818
 30
0.0
 10
11.5439743799
 20
6.0658100377
 30
0.0
 10
11.5470208552
 20
6.0448416323
 30
0.0
 10
11.548543633
 20
6.0238108103
 30
0.0
 10
11.548534349
 20
6.0028297937
 30
0.0
 10
11.5469928056
 20
5.9820105905
 30
0.0
 10
11.5439269828
 20
5.9614643995
 30
0.0
 10
11.5393530064
 20
5.9413010199
 30
0.0
 10
11.5332950743
 20
5.9216282614
 30
0.0
 10
11.5257853508
 20
5.9025513739
 30
0.0
 10
11.5168637715
 20
5.884172441
 30
0.0
 10
11.5065779775
 20
5.8665899549
 30
0.0
 10
11.4949825607
 20
5.8498977847
 30
0.0
 10
11.4821406663
 20
5.8341864816
 30
0.0
 10
11.4727900648
 20
5.8244181979
 30
0.0
 10
11.4679348659
 20
5.8197284379
 30
0.0
  0
SPLINE
  5
331
100
AcDbEntity
  8
0
100
AcDbSpline
 62
7
  6
CONTINUOUS
 70
0
 71
3
 72
41
 73
37
 74
0
 42
0.0000001
 43
0.0000001
 44
0.0000000001
 40
0.0
 40
0.0
 40
0.0
 40
0.0
 40
0.0311447108
 40
0.0467774295
 40
0.0624475249
 40
0.0938924651
 40
0.1254747955
 40
0.1571823865
 40
0.1890004527
 40
0.2209120576
 40
0.2528984154
 40
0.2689156901
 40
0.2849439669
 40
0.3170180467
 40
0.3491033961
 40
0.3811778561
 40
0.4132194776
 40
0.4452069463
 40
0.4771199982
 40
0.5089398211
 40
0.5406494354
 40
0.5722340478
 40
0.6036813723
 40
0.6349819093
 40
0.666129179
 40
0.6971198991
 40
0.7279541027
 40
0.7586351871
 40
0.7891698911
 40
0.819568195
 40
0.8498431417
 40
0.8800105805
 40
0.9100888347
 40
0.9400983003
 40
0.9700609852
 40
1.0
 40
1.0
 40
1.0
 40
1.0
 10
9.5712250019
 20
6.437454693
 30
0.0
 10
9.578230342
 20
6.436968871
 30
0.0
 10
9.5887303917
 20
6.4358548812
 30
0.0
 10
9.6026334105
 20
6.4336162113
 30
0.0
 10
9.6165143472
 20
6.4308678006
 30
0.0
 10
9.6337265097
 20
6.4264907295
 30
0.0
 10
9.6540203131
 20
6.4197722465
 30
0.0
 10
9.6738719411
 20
6.4116171924
 30
0.0
 10
9.693175091
 20
6.4020691855
 30
0.0
 10
9.7118265799
 20
6.3911796089
 30
0.0
 10
9.726738832
 20
6.3810385398
 30
0.0
 10
9.7382466926
 20
6.3723166087
 30
0.0
 10
9.7494651266
 20
6.363194023
 30
0.0
 10
9.7629013187
 20
6.3510737397
 30
0.0
 10
9.7779962772
 20
6.3354645182
 30
0.0
 10
9.7919883298
 20
6.318868358
 30
0.0
 10
9.8048023844
 20
6.3013741016
 30
0.0
 10
9.8163702292
 20
6.2830748621
 30
0.0
 10
9.8266301
 20
6.2640681722
 30
0.0
 10
9.8355272194
 20
6.2444552995
 30
0.0
 10
9.8430140314
 20
6.2243407596
 30
0.0
 10
9.8490504699
 20
6.203831754
 30
0.0
 10
9.8536041701
 20
6.1830376099
 30
0.0
 10
9.8566506454
 20
6.1620692046
 30
0.0
 10
9.8581734232
 20
6.1410383825
 30
0.0
 10
9.8581641392
 20
6.1200573659
 30
0.0
 10
9.8566225958
 20
6.0992381627
 30
0.0
 10
9.853556773
 20
6.0786919717
 30
0.0
 10
9.8489827966
 20
6.0585285921
 30
0.0
 10
9.8429248645
 20
6.0388558336
 30
0.0
 10
9.835415141
 20
6.0197789461
 30
0.0
 10
9.8264935617
 20
6.0014000132
 30
0.0
 10
9.8162077677
 20
5.9838175271
 30
0.0
 10
9.8046123509
 20
5.9671253569
 30
0.0
 10
9.7917704565
 20
5.9514140538
 30
0.0
 10
9.782419855
 20
5.9416457701
 30
0.0
 10
9.7775646561
 20
5.9369560101
 30
0.0
  0
SPLINE
  5
332
100
AcDbEntity
  8
0
100
AcDbSpline
 62
7
  6
CONTINUOUS
 70
0
 71
3
 72
41
 73
37
 74
0
 42
0.0000001
 43
0.0000001
 44
0.0000000001
 40
0.0
 40
0.0
 40
0.0
 40
0.0
 40
0.0311447108
 40
0.0467774295
 40
0.0624475249
 40
0.0938924651
 40
0.1254747955
 40
0.1571823865
 40
0.1890004527
 40
0.2209120576
 40
0.2528984154
 40
0.2689156901
 40
0.2849439669
 40
0.3170180467
 40
0.3491033961
 40
0.3811778561
 40
0.4132194776
 40
0.4452069463
 40
0.4771199982
 40
0.5089398211
 40
0.5406494354
 40
0.5722340478
 40
0.6036813723
 40
0.6349819093
 40
0.666129179
 40
0.6971198991
 40
0.7279541027
 40
0.7586351871
 40
0.7891698911
 40
0.819568195
 40
0.8498431417
 40
0.8800105805
 40
0.9100888347
 40
0.9400983003
 40
0.9700609852
 40
1.0
 40
1.0
 40
1.0
 40
1.0
 10
9.5712250019
 20
8.3693064889
 30
0.0
 10
9.578230342
 20
8.3688206669
 30
0.0
 10
9.5887303917
 20
8.367706677
 30
0.0
 10
9.6026334105
 20
8.3654680071
 30
0.0
 10
9.6165143472
 20
8.3627195964
 30
0.0
 10
9.6337265097
 20
8.3583425254
 30
0.0
 10
9.6540203131
 20
8.3516240423
 30
0.0
 10
9.6738719411
 20
8.3434689882
 30
0.0
 10
9.693175091
 20
8.3339209813
 30
0.0
 10
9.7118265799
 20
8.3230314047
 30
0.0
 10
9.726738832
 20
8.3128903356
 30
0.0
 10
9.7382466926
 20
8.3041684045
 30
0.0
 10
9.7494651266
 20
8.2950458188
 30
0.0
 10
9.7629013187
 20
8.2829255355
 30
0.0
 10
9.7779962772
 20
8.2673163141
 30
0.0
 10
9.7919883298
 20
8.2507201538
 30
0.0
 10
9.8048023844
 20
8.2332258974
 30
0.0
 10
9.8163702292
 20
8.2149266579
 30
0.0
 10
9.8266301
 20
8.195919968
 30
0.0
 10
9.8355272194
 20
8.1763070954
 30
0.0
 10
9.8430140314
 20
8.1561925555
 30
0.0
 10
9.8490504699
 20
8.1356835499
 30
0.0
 10
9.8536041701
 20
8.1148894057
 30
0.0
 10
9.8566506454
 20
8.0939210004
 30
0.0
 10
9.8581734232
 20
8.0728901783
 30
0.0
 10
9.8581641392
 20
8.0519091618
 30
0.0
 10
9.8566225958
 20
8.0310899586
 30
0.0
 10
9.853556773
 20
8.0105437676
 30
0.0
 10
9.8489827966
 20
7.9903803879
 30
0.0
 10
9.8429248645
 20
7.9707076295
 30
0.0
 10
9.835415141
 20
7.951630742
 30
0.0
 10
9.8264935617
 20
7.9332518091
 30
0.0
 10
9.8162077677
 20
7.9156693229
 30
0.0
 10
9.8046123509
 20
7.8989771527
 30
0.0
 10
9.7917704565
 20
7.8832658497
 30
0.0
 10
9.782419855
 20
7.873497566
 30
0.0
 10
9.7775646561
 20
7.868807806
 30
0.0
  0
SPLINE
  5
333
100
AcDbEntity
  8
0
100
AcDbSpline
 62
7
  6
CONTINUOUS
 70
0
 71
3
 72
42
 73
38
 74
0
 42
0.0000001
 43
0.0000001
 44
0.0000000001
 40
0.0
 40
0.0
 40
0.0
 40
0.0
 40
0.0762757253
 40
0.1537851704
 40
0.2318220329
 40
0.309673308
 40
0.348307692
 40
0.3866297869
 40
0.4245524552
 40
0.461989733
 40
0.4988570938
 40
0.5350717169
 40
0.5705527672
 40
0.6052216747
 40
0.6390024207
 40
0.6718218403
 40
0.7036099427
 40
0.7343002585
 40
0.7638302252
 40
0.7921416266
 40
0.8191810789
 40
0.8449006151
 40
0.8692584001
 40
0.8809158807
 40
0.8922205399
 40
0.9031692722
 40
0.9137596856
 40
0.923989927
 40
0.9338589827
 40
0.9433665784
 40
0.9525133594
 40
0.9613010262
 40
0.9697323333
 40
0.9778114518
 40
0.9855439124
 40
0.9929370284
 40
1.0
 40
1.0
 40
1.0
 40
1.0
 10
12.4316773468
 20
9.2173373319
 30
0.0
 10
12.4316773468
 20
9.2345413319
 30
0.0
 10
12.4321401826
 20
9.2692290878
 30
0.0
 10
12.4341594431
 20
9.3214827347
 30
0.0
 10
12.4374921816
 20
9.3740252571
 30
0.0
 10
12.4413465474
 20
9.4177351262
 30
0.0
 10
12.445066662
 20
9.4524540684
 30
0.0
 10
12.448154068
 20
9.478181223
 30
0.0
 10
12.4515380956
 20
9.5035986624
 30
0.0
 10
12.455210513
 20
9.5286444998
 30
0.0
 10
12.4591623335
 20
9.5532577001
 30
0.0
 10
12.463383898
 20
9.5773783042
 30
0.0
 10
12.4678648771
 20
9.6009475599
 30
0.0
 10
12.4725943037
 20
9.6239080721
 30
0.0
 10
12.4775605995
 20
9.6462039423
 30
0.0
 10
12.4827516029
 20
9.6677809077
 30
0.0
 10
12.4881545979
 20
9.6885864771
 30
0.0
 10
12.493756346
 20
9.7085700637
 30
0.0
 10
12.4995431189
 20
9.7276831257
 30
0.0
 10
12.5055007291
 20
9.7458792731
 30
0.0
 10
12.5116145739
 20
9.7631144801
 30
0.0
 10
12.5178696812
 20
9.7793469023
 30
0.0
 10
12.523263188
 20
9.792187015
 30
0.0
 10
12.5276461705
 20
9.8019190649
 30
0.0
 10
12.5309110257
 20
9.8088363324
 30
0.0
 10
12.5341997202
 20
9.8154747665
 30
0.0
 10
12.5375102175
 20
9.8218303775
 30
0.0
 10
12.5408405677
 20
9.8278993008
 30
0.0
 10
12.5441887071
 20
9.8336778924
 30
0.0
 10
12.5475526367
 20
9.8391626656
 30
0.0
 10
12.5509303473
 20
9.8443503168
 30
0.0
 10
12.5543197732
 20
9.8492377591
 30
0.0
 10
12.5577189742
 20
9.853822034
 30
0.0
 10
12.5611258602
 20
9.8581004426
 30
0.0
 10
12.5645385537
 20
9.862070427
 30
0.0
 10
12.5679549275
 20
9.8657295327
 30
0.0
 10
12.5702859794
 20
9.8680114087
 30
0.0
 10
12.5714521208
 20
9.8690967364
 30
0.0
  0
SPLINE
  5
334
100
AcDbEntity
  8
0
100
AcDbSpline
 62
7
  6
CONTINUOUS
 70
0
 71
3
 72
42
 73
38
 74
0
 42
0.0000001
 43
0.0000001
 44
0.0000000001
 40
0.0
 40
0.0
 40
0.0
 40
0.0
 40
0.0762757253
 40
0.1537851704
 40
0.2318220329
 40
0.309673308
 40
0.348307692
 40
0.3866297869
 40
0.4245524552
 40
0.461989733
 40
0.4988570938
 40
0.5350717169
 40
0.5705527672
 40
0.6052216747
 40
0.6390024207
 40
0.6718218403
 40
0.7036099427
 40
0.7343002585
 40
0.7638302252
 40
0.7921416266
 40
0.8191810789
 40
0.8449006151
 40
0.8692584001
 40
0.8809158807
 40
0.8922205399
 40
0.9031692722
 40
0.9137596856
 40
0.923989927
 40
0.9338589827
 40
0.9433665784
 40
0.9525133594
 40
0.9613010262
 40
0.9697323333
 40
0.9778114518
 40
0.9855439124
 40
0.9929370284
 40
1.0
 40
1.0
 40
1.0
 40
1.0
 10
12.4316773468
 20
7.2854855648
 30
0.0
 10
12.4316773468
 20
7.3026895649
 30
0.0
 10
12.4321401826
 20
7.3373773208
 30
0.0
 10
12.4341594431
 20
7.3896309677
 30
0.0
 10
12.4374921816
 20
7.4421734901
 30
0.0
 10
12.4413465474
 20
7.4858833592
 30
0.0
 10
12.445066662
 20
7.5206023013
 30
0.0
 10
12.448154068
 20
7.5463294559
 30
0.0
 10
12.4515380956
 20
7.5717468954
 30
0.0
 10
12.455210513
 20
7.5967927327
 30
0.0
 10
12.4591623335
 20
7.621405933
 30
0.0
 10
12.463383898
 20
7.6455265372
 30
0.0
 10
12.4678648771
 20
7.6690957929
 30
0.0
 10
12.4725943037
 20
7.692056305
 30
0.0
 10
12.4775605995
 20
7.7143521753
 30
0.0
 10
12.4827516029
 20
7.7359291407
 30
0.0
 10
12.4881545979
 20
7.7567347101
 30
0.0
 10
12.493756346
 20
7.7767182966
 30
0.0
 10
12.4995431189
 20
7.7958313586
 30
0.0
 10
12.5055007291
 20
7.8140275061
 30
0.0
 10
12.5116145739
 20
7.8312627131
 30
0.0
 10
12.5178696812
 20
7.8474951352
 30
0.0
 10
12.523263188
 20
7.860335248
 30
0.0
 10
12.5276461705
 20
7.8700672978
 30
0.0
 10
12.5309110257
 20
7.8769845653
 30
0.0
 10
12.5341997202
 20
7.8836229995
 30
0.0
 10
12.5375102175
 20
7.8899786104
 30
0.0
 10
12.5408405677
 20
7.8960475338
 30
0.0
 10
12.5441887071
 20
7.9018261254
 30
0.0
 10
12.5475526367
 20
7.9073108986
 30
0.0
 10
12.5509303473
 20
7.9124985498
 30
0.0
 10
12.5543197732
 20
7.9173859921
 30
0.0
 10
12.5577189742
 20
7.921970267
 30
0.0
 10
12.5611258602
 20
7.9262486755
 30
0.0
 10
12.5645385537
 20
7.93021866
 30
0.0
 10
12.5679549275
 20
7.9338777657
 30
0.0
 10
12.5702859794
 20
7.9361596417
 30
0.0
 10
12.5714521208
 20
7.9372449693
 30
0.0
  0
SPLINE
  5
335
100
AcDbEntity
  8
0
100
AcDbSpline
 62
7
  6
CONTINUOUS
 70
0
 71
3
 72
23
 73
19
 74
0
 42
0.0000001
 43
0.0000001
 44
0.0000000001
 40
0.0
 40
0.0
 40
0.0
 40
0.0
 40
0.0914749136
 40
0.1803599897
 40
0.2661072617
 40
0.3482375863
 40
0.4263588517
 40
0.5001714412
 40
0.5694720821
 40
0.634152772
 40
0.6941971968
 40
0.7496749206
 40
0.8007354449
 40
0.8476025484
 40
0.8905697909
 40
0.9299978557
 40
0.9663122901
 40
1.0
 40
1.0
 40
1.0
 40
1.0
 10
10.4531612184
 20
8.3318833696
 30
0.0
 10
10.4494722494
 20
8.3321392005
 30
0.0
 10
10.4422076872
 20
8.3327861391
 30
0.0
 10
10.4315384052
 20
8.3341829802
 30
0.0
 10
10.4213113009
 20
8.3359751732
 30
0.0
 10
10.4116008107
 20
8.3381359219
 30
0.0
 10
10.4024701458
 20
8.3406322615
 30
0.0
 10
10.393970372
 20
8.3434268112
 30
0.0
 10
10.3861400126
 20
8.3464794425
 30
0.0
 10
10.3790053635
 20
8.3497489909
 30
0.0
 10
10.3725813665
 20
8.3531947319
 30
0.0
 10
10.3668728947
 20
8.356777643
 30
0.0
 10
10.3618763087
 20
8.3604613359
 30
0.0
 10
10.3575811157
 20
8.3642127675
 30
0.0
 10
10.3539717227
 20
8.3680024309
 30
0.0
 10
10.3510288957
 20
8.3718049993
 30
0.0
 10
10.3487318766
 20
8.375597169
 30
0.0
 10
10.3475784225
 20
8.3781919554
 30
0.0
 10
10.3471148898
 20
8.3794724484
 30
0.0
  0
SPLINE
  5
336
100
AcDbEntity
  8
0
100
AcDbSpline
 62
7
  6
CONTINUOUS
 70
0
 71
3
 72
24
 73
20
 74
0
 42
0.0000001
 43
0.0000001
 44
0.0000000001
 40
0.0
 40
0.0
 40
0.0
 40
0.0
 40
0.0308373956
 40
0.0617632436
 40
0.1238516181
 40
0.1862457836
 40
0.2489023178
 40
0.3117700267
 40
0.3747915175
 40
0.4379049107
 40
0.5010456631
 40
0.5641484432
 40
0.6271490173
 40
0.6899861118
 40
0.7526032256
 40
0.814950344
 40
0.8769855093
 40
0.9386756546
 40
1.0
 40
1.0
 40
1.0
 40
1.0
 10
12.6799413685
 20
10.9457638098
 30
0.0
 10
12.6791930693
 20
10.9511745702
 30
0.0
 10
12.6774557643
 20
10.9619803262
 30
0.0
 10
12.6730304219
 20
10.9834728107
 30
0.0
 10
12.665724261
 20
11.0100521807
 30
0.0
 10
12.6542143098
 20
11.0411798011
 30
0.0
 10
12.6400409455
 20
11.0713420632
 30
0.0
 10
12.6233181313
 20
11.1002965353
 30
0.0
 10
12.6041795095
 20
11.1278125708
 30
0.0
 10
12.5827781728
 20
11.1536705075
 30
0.0
 10
12.5592850539
 20
11.1776639956
 30
0.0
 10
12.5338876629
 20
11.1996013945
 30
0.0
 10
12.5067887676
 20
11.2193075487
 30
0.0
 10
12.4782045809
 20
11.2366248658
 30
0.0
 10
12.4483631243
 20
11.2514147448
 30
0.0
 10
12.4175028296
 20
11.2635587248
 30
0.0
 10
12.3858691504
 20
11.2729591728
 30
0.0
 10
12.3537180532
 20
11.279540298
 30
0.0
 10
12.33203604
 20
11.2820206025
 30
0.0
 10
12.321199623
 20
11.2827721106
 30
0.0
  0
SPLINE
  5
337
100
AcDbEntity
  8
0
100
AcDbSpline
 62
7
  6
CONTINUOUS
 70
0
 71
3
 72
23
 73
19
 74
0
 42
0.0000001
 43
0.0000001
 44
0.0000000001
 40
0.0
 40
0.0
 40
0.0
 40
0.0
 40
0.0638611429
 40
0.1275033697
 40
0.1909230193
 40
0.2541276602
 40
0.3171224166
 40
0.3799159195
 40
0.4425188183
 40
0.5049436681
 40
0.5672049987
 40
0.6293190785
 40
0.6913037901
 40
0.7531784362
 40
0.8149635271
 40
0.8766805602
 40
0.9383517934
 40
1.0
 40
1.0
 40
1.0
 40
1.0
 10
10.6308293268
 20
11.3999996888
 30
0.0
 10
10.6247829445
 20
11.4004190068
 30
0.0
 10
10.6126878153
 20
11.400955368
 30
0.0
 10
10.5945607786
 20
11.400847377
 30
0.0
 10
10.5765241033
 20
11.3998255455
 30
0.0
 10
10.5586240603
 20
11.3978926248
 30
0.0
 10
10.540905329
 20
11.3950532462
 30
0.0
 10
10.5234126486
 20
11.3913145787
 30
0.0
 10
10.5061900345
 20
11.3866860081
 30
0.0
 10
10.4892808656
 20
11.3811791336
 30
0.0
 10
10.4727277481
 20
11.3748077607
 30
0.0
 10
10.4565723906
 20
11.3675878907
 30
0.0
 10
10.4408554904
 20
11.3595377093
 30
0.0
 10
10.4256166412
 20
11.3506774593
 30
0.0
 10
10.410894292
 20
11.3410294549
 30
0.0
 10
10.396725433
 20
11.3306178441
 30
0.0
 10
10.3831462448
 20
11.3194693297
 30
0.0
 10
10.3745076181
 20
11.3115628297
 30
0.0
 10
10.3702993549
 20
11.3074979407
 30
0.0
  0
SPLINE
  5
338
100
AcDbEntity
  8
0
100
AcDbSpline
 62
7
  6
CONTINUOUS
 70
0
 71
3
 72
23
 73
19
 74
0
 42
0.0000001
 43
0.0000001
 44
0.0000000001
 40
0.0
 40
0.0
 40
0.0
 40
0.0
 40
0.0616482102
 40
0.1233194434
 40
0.1850364728
 40
0.2468215621
 40
0.3086962116
 40
0.370680925
 40
0.4327950032
 40
0.4950563306
 40
0.5574811832
 40
0.6200840863
 40
0.6828775763
 40
0.7458723561
 40
0.8090769818
 40
0.8724965655
 40
0.9361390263
 40
1.0
 40
1.0
 40
1.0
 40
1.0
 10
9.3648853476
 20
10.2278967337
 30
0.0
 10
9.3682182985
 20
10.2311161157
 30
0.0
 10
9.3750600814
 20
10.2373780667
 30
0.0
 10
9.3858148107
 20
10.2462076639
 30
0.0
 10
9.3970365445
 20
10.254453648
 30
0.0
 10
9.4086966292
 20
10.2620948776
 30
0.0
 10
9.4207657963
 20
10.2691121841
 30
0.0
 10
9.4332135816
 20
10.2754879107
 30
0.0
 10
9.4460086207
 20
10.2812060363
 30
0.0
 10
9.4591186779
 20
10.2862521724
 30
0.0
 10
9.4725107343
 20
10.2906136104
 30
0.0
 10
9.4861510395
 20
10.2942794257
 30
0.0
 10
9.5000052362
 20
10.2972404459
 30
0.0
 10
9.5140384627
 20
10.2994892361
 30
0.0
 10
9.5282152848
 20
10.3010201067
 30
0.0
 10
9.5425003353
 20
10.3018293971
 30
0.0
 10
9.5568569404
 20
10.3019149172
 30
0.0
 10
9.5664362824
 20
10.3014901244
 30
0.0
 10
9.5712250019
 20
10.3011580256
 30
0.0
  0
SPLINE
  5
339
100
AcDbEntity
  8
0
100
AcDbSpline
 62
7
  6
CONTINUOUS
 70
0
 71
3
 72
23
 73
19
 74
0
 42
0.0000001
 43
0.0000001
 44
0.0000000001
 40
0.0
 40
0.0
 40
0.0
 40
0.0
 40
0.0616482102
 40
0.1233194434
 40
0.1850364728
 40
0.2468215621
 40
0.3086962116
 40
0.370680925
 40
0.4327950032
 40
0.4950563306
 40
0.5574811832
 40
0.6200840863
 40
0.6828775763
 40
0.7458723561
 40
0.8090769818
 40
0.8724965655
 40
0.9361390263
 40
1.0
 40
1.0
 40
1.0
 40
1.0
 10
11.0552555574
 20
10.1106691615
 30
0.0
 10
11.0585885083
 20
10.1138885435
 30
0.0
 10
11.0654302912
 20
10.1201504945
 30
0.0
 10
11.0761850205
 20
10.1289800916
 30
0.0
 10
11.0874067543
 20
10.1372260758
 30
0.0
 10
11.099066839
 20
10.1448673054
 30
0.0
 10
11.1111360061
 20
10.1518846119
 30
0.0
 10
11.1235837914
 20
10.1582603385
 30
0.0
 10
11.1363788305
 20
10.1639784641
 30
0.0
 10
11.1494888877
 20
10.1690246002
 30
0.0
 10
11.1628809441
 20
10.1733860381
 30
0.0
 10
11.1765212493
 20
10.1770518535
 30
0.0
 10
11.1903754461
 20
10.1800128737
 30
0.0
 10
11.2044086725
 20
10.1822616639
 30
0.0
 10
11.2185854946
 20
10.1837925345
 30
0.0
 10
11.2328705452
 20
10.1846018248
 30
0.0
 10
11.2472271502
 20
10.184687345
 30
0.0
 10
11.2568064922
 20
10.1842625522
 30
0.0
 10
11.2615952117
 20
10.1839304534
 30
0.0
  0
SPLINE
  5
33A
100
AcDbEntity
  8
0
100
AcDbSpline
 62
7
  6
CONTINUOUS
 70
0
 71
3
 72
23
 73
19
 74
0
 42
0.0000001
 43
0.0000001
 44
0.0000000001
 40
0.0
 40
0.0
 40
0.0
 40
0.0
 40
0.0616482102
 40
0.1233194434
 40
0.1850364728
 40
0.2468215621
 40
0.3086962116
 40
0.370680925
 40
0.4327950032
 40
0.4950563306
 40
0.5574811832
 40
0.6200840863
 40
0.6828775763
 40
0.7458723561
 40
0.8090769818
 40
0.8724965655
 40
0.9361390263
 40
1.0
 40
1.0
 40
1.0
 40
1.0
 10
11.0552555574
 20
8.1788176247
 30
0.0
 10
11.0585885083
 20
8.1820370068
 30
0.0
 10
11.0654302912
 20
8.1882989577
 30
0.0
 10
11.0761850205
 20
8.1971285549
 30
0.0
 10
11.0874067543
 20
8.2053745391
 30
0.0
 10
11.099066839
 20
8.2130157687
 30
0.0
 10
11.1111360061
 20
8.2200330751
 30
0.0
 10
11.1235837914
 20
8.2264088017
 30
0.0
 10
11.1363788305
 20
8.2321269274
 30
0.0
 10
11.1494888877
 20
8.2371730634
 30
0.0
 10
11.1628809441
 20
8.2415345014
 30
0.0
 10
11.1765212493
 20
8.2452003168
 30
0.0
 10
11.1903754461
 20
8.2481613369
 30
0.0
 10
11.2044086725
 20
8.2504101272
 30
0.0
 10
11.2185854946
 20
8.2519409977
 30
0.0
 10
11.2328705452
 20
8.2527502881
 30
0.0
 10
11.2472271502
 20
8.2528358083
 30
0.0
 10
11.2568064922
 20
8.2524110155
 30
0.0
 10
11.2615952117
 20
8.2520789167
 30
0.0
  0
SPLINE
  5
33B
100
AcDbEntity
  8
0
100
AcDbSpline
 62
7
  6
CONTINUOUS
 70
0
 71
3
 72
23
 73
19
 74
0
 42
0.0000001
 43
0.0000001
 44
0.0000000001
 40
0.0
 40
0.0
 40
0.0
 40
0.0
 40
0.0616482102
 40
0.1233194434
 40
0.1850364728
 40
0.2468215621
 40
0.3086962116
 40
0.370680925
 40
0.4327950032
 40
0.4950563306
 40
0.5574811832
 40
0.6200840863
 40
0.6828775763
 40
0.7458723561
 40
0.8090769818
 40
0.8724965655
 40
0.9361390263
 40
1.0
 40
1.0
 40
1.0
 40
1.0
 10
11.0552555574
 20
6.2469658289
 30
0.0
 10
11.0585885083
 20
6.2501852109
 30
0.0
 10
11.0654302912
 20
6.2564471619
 30
0.0
 10
11.0761850205
 20
6.2652767591
 30
0.0
 10
11.0874067543
 20
6.2735227432
 30
0.0
 10
11.099066839
 20
6.2811639728
 30
0.0
 10
11.1111360061
 20
6.2881812793
 30
0.0
 10
11.1235837914
 20
6.2945570059
 30
0.0
 10
11.1363788305
 20
6.3002751315
 30
0.0
 10
11.1494888877
 20
6.3053212676
 30
0.0
 10
11.1628809441
 20
6.3096827056
 30
0.0
 10
11.1765212493
 20
6.3133485209
 30
0.0
 10
11.1903754461
 20
6.3163095411
 30
0.0
 10
11.2044086725
 20
6.3185583314
 30
0.0
 10
11.2185854946
 20
6.3200892019
 30
0.0
 10
11.2328705452
 20
6.3208984923
 30
0.0
 10
11.2472271502
 20
6.3209840124
 30
0.0
 10
11.2568064922
 20
6.3205592196
 30
0.0
 10
11.2615952117
 20
6.3202271208
 30
0.0
  0
SPLINE
  5
33C
100
AcDbEntity
  8
0
100
AcDbSpline
 62
7
  6
CONTINUOUS
 70
0
 71
3
 72
23
 73
19
 74
0
 42
0.0000001
 43
0.0000001
 44
0.0000000001
 40
0.0
 40
0.0
 40
0.0
 40
0.0
 40
0.0616482102
 40
0.1233194434
 40
0.1850364728
 40
0.2468215621
 40
0.3086962116
 40
0.370680925
 40
0.4327950032
 40
0.4950563306
 40
0.5574811832
 40
0.6200840863
 40
0.6828775763
 40
0.7458723561
 40
0.8090769818
 40
0.8724965655
 40
0.9361390263
 40
1.0
 40
1.0
 40
1.0
 40
1.0
 10
9.3648853476
 20
6.3641934011
 30
0.0
 10
9.3682182985
 20
6.3674127831
 30
0.0
 10
9.3750600814
 20
6.3736747341
 30
0.0
 10
9.3858148107
 20
6.3825043313
 30
0.0
 10
9.3970365445
 20
6.3907503154
 30
0.0
 10
9.4086966292
 20
6.398391545
 30
0.0
 10
9.4207657963
 20
6.4054088515
 30
0.0
 10
9.4332135816
 20
6.4117845781
 30
0.0
 10
9.4460086207
 20
6.4175027038
 30
0.0
 10
9.4591186779
 20
6.4225488398
 30
0.0
 10
9.4725107343
 20
6.4269102778
 30
0.0
 10
9.4861510395
 20
6.4305760931
 30
0.0
 10
9.5000052362
 20
6.4335371133
 30
0.0
 10
9.5140384627
 20
6.4357859036
 30
0.0
 10
9.5282152848
 20
6.4373167741
 30
0.0
 10
9.5425003353
 20
6.4381260645
 30
0.0
 10
9.5568569404
 20
6.4382115846
 30
0.0
 10
9.5664362824
 20
6.4377867919
 30
0.0
 10
9.5712250019
 20
6.437454693
 30
0.0
  0
SPLINE
  5
33D
100
AcDbEntity
  8
0
100
AcDbSpline
 62
7
  6
CONTINUOUS
 70
0
 71
3
 72
23
 73
19
 74
0
 42
0.0000001
 43
0.0000001
 44
0.0000000001
 40
0.0
 40
0.0
 40
0.0
 40
0.0
 40
0.0616482102
 40
0.1233194434
 40
0.1850364728
 40
0.2468215621
 40
0.3086962116
 40
0.370680925
 40
0.4327950032
 40
0.4950563306
 40
0.5574811832
 40
0.6200840863
 40
0.6828775763
 40
0.7458723561
 40
0.8090769818
 40
0.8724965655
 40
0.9361390263
 40
1.0
 40
1.0
 40
1.0
 40
1.0
 10
9.3648853476
 20
8.296045197
 30
0.0
 10
9.3682182985
 20
8.299264579
 30
0.0
 10
9.3750600814
 20
8.3055265299
 30
0.0
 10
9.3858148107
 20
8.3143561271
 30
0.0
 10
9.3970365445
 20
8.3226021113
 30
0.0
 10
9.4086966292
 20
8.3302433409
 30
0.0
 10
9.4207657963
 20
8.3372606473
 30
0.0
 10
9.4332135816
 20
8.3436363739
 30
0.0
 10
9.4460086207
 20
8.3493544996
 30
0.0
 10
9.4591186779
 20
8.3544006357
 30
0.0
 10
9.4725107343
 20
8.3587620736
 30
0.0
 10
9.4861510395
 20
8.362427889
 30
0.0
 10
9.5000052362
 20
8.3653889091
 30
0.0
 10
9.5140384627
 20
8.3676376994
 30
0.0
 10
9.5282152848
 20
8.3691685699
 30
0.0
 10
9.5425003353
 20
8.3699778603
 30
0.0
 10
9.5568569404
 20
8.3700633805
 30
0.0
 10
9.5664362824
 20
8.3696385877
 30
0.0
 10
9.5712250019
 20
8.3693064889
 30
0.0
  0
SPLINE
  5
33E
100
AcDbEntity
  8
0
100
AcDbSpline
 62
7
  6
CONTINUOUS
 70
0
 71
3
 72
27
 73
23
 74
0
 42
0.0000001
 43
0.0000001
 44
0.0000000001
 40
0.0
 40
0.0
 40
0.0
 40
0.0
 40
0.0615656319
 40
0.0923594438
 40
0.1231621481
 40
0.1848034321
 40
0.2465195006
 40
0.2774157407
 40
0.3083394416
 40
0.37027471
 40
0.4323519074
 40
0.4945905393
 40
0.5570083093
 40
0.6196209525
 40
0.6824420752
 40
0.7139370837
 40
0.7454882659
 40
0.8087581068
 40
0.8722634524
 40
0.9041080927
 40
0.936013539
 40
1.0
 40
1.0
 40
1.0
 40
1.0
 10
9.8243188524
 20
9.5670590319
 30
0.0
 10
9.8330472671
 20
9.5754900336
 30
0.0
 10
9.8464855003
 20
9.5877890149
 30
0.0
 10
9.8650421202
 20
9.6034451967
 30
0.0
 10
9.8840248342
 20
9.6186068135
 30
0.0
 10
9.9085252118
 20
9.6366077704
 30
0.0
 10
9.9339707429
 20
9.6532795589
 30
0.0
 10
9.9548595411
 20
9.6657986931
 30
0.0
 10
9.9761126087
 20
9.6777770914
 30
0.0
 10
10.0033101472
 20
9.6917031693
 30
0.0
 10
10.0368452899
 20
9.7066841447
 30
0.0
 10
10.0712141623
 20
9.7199067814
 30
0.0
 10
10.1063307913
 20
9.7313371593
 30
0.0
 10
10.1421071934
 20
9.7409460238
 30
0.0
 10
10.1723723527
 20
9.7474096536
 30
0.0
 10
10.1968198799
 20
9.7516490575
 30
0.0
 10
10.2214559756
 20
9.7552709069
 30
0.0
 10
10.2524985143
 20
9.7586194232
 30
0.0
 10
10.2837287753
 20
9.7603855961
 30
0.0
 10
10.3088105176
 20
9.7608516971
 30
0.0
 10
10.3339903565
 20
9.7606848953
 30
0.0
 10
10.3528836797
 20
9.7598465621
 30
0.0
 10
10.3654659969
 20
9.7589739754
 30
0.0
  0
SPLINE
  5
33F
100
AcDbEntity
  8
0
100
AcDbSpline
 62
7
  6
CONTINUOUS
 70
0
 71
3
 72
49
 73
45
 74
0
 42
0.0000001
 43
0.0000001
 44
0.0000000001
 40
0.0
 40
0.0
 40
0.0
 40
0.0
 40
0.0311359467
 40
0.0624378918
 40
0.0938990367
 40
0.1255088375
 40
0.157253918
 40
0.1891182445
 40
0.2210834601
 40
0.253129278
 40
0.2852338787
 40
0.3173743354
 40
0.3495270492
 40
0.3816681915
 40
0.4137741502
 40
0.4458219731
 40
0.4777898037
 40
0.5096573026
 40
0.541406057
 40
0.5730199523
 40
0.6044855329
 40
0.6357923005
 40
0.6669329896
 40
0.6979037708
 40
0.7133278435
 40
0.7287096536
 40
0.744049744
 40
0.7593488855
 40
0.7746080778
 40
0.7898285455
 40
0.8050117297
 40
0.8201592851
 40
0.8352730743
 40
0.8503551546
 40
0.8654077668
 40
0.8804333283
 40
0.8954344201
 40
0.9104137641
 40
0.9253742041
 40
0.9403187502
 40
0.9552504234
 40
0.9701722501
 40
0.9850880753
 40
1.0
 40
1.0
 40
1.0
 40
1.0
 10
10.3654659969
 20
9.7589739754
 30
0.0
 10
10.3838982277
 20
9.7576956959
 30
0.0
 10
10.4207810411
 20
9.7537823122
 30
0.0
 10
10.4756688761
 20
9.7439230679
 30
0.0
 10
10.5299897184
 20
9.7301088589
 30
0.0
 10
10.583448135
 20
9.7124122336
 30
0.0
 10
10.635757865
 20
9.6909266596
 30
0.0
 10
10.6866373416
 20
9.6657660913
 30
0.0
 10
10.7358130552
 20
9.637064668
 30
0.0
 10
10.7830204196
 20
9.6049756021
 30
0.0
 10
10.8280055486
 20
9.5696706752
 30
0.0
 10
10.8705265615
 20
9.5313391432
 30
0.0
 10
10.9103548511
 20
9.4901866472
 30
0.0
 10
10.947276579
 20
9.4464343065
 30
0.0
 10
10.9810935241
 20
9.4003171916
 30
0.0
 10
11.0116245008
 20
9.3520833153
 30
0.0
 10
11.0387061368
 20
9.3019920713
 30
0.0
 10
11.0621937818
 20
9.2503128369
 30
0.0
 10
11.0819624971
 20
9.1973235691
 30
0.0
 10
11.0979073448
 20
9.1433090306
 30
0.0
 10
11.1099443901
 20
9.0885595991
 30
0.0
 10
11.1180107066
 20
9.0333686332
 30
0.0
 10
11.122065064
 20
8.9780341328
 30
0.0
 10
11.1220836028
 20
8.9319786262
 30
0.0
 10
11.1200758009
 20
8.8953676712
 30
0.0
 10
11.1175672607
 20
8.8680925793
 30
0.0
 10
11.1140576954
 20
8.841003222
 30
0.0
 10
11.1095520911
 20
8.8141352519
 30
0.0
 10
11.1040568071
 20
8.7875245682
 30
0.0
 10
11.0975795234
 20
8.7612065233
 30
0.0
 10
11.0901291414
 20
8.7352160994
 30
0.0
 10
11.0817158609
 20
8.7095877918
 30
0.0
 10
11.0723512041
 20
8.684355557
 30
0.0
 10
11.0620478686
 20
8.6595528093
 30
0.0
 10
11.0508197371
 20
8.6352123819
 30
0.0
 10
11.0386819812
 20
8.6113664236
 30
0.0
 10
11.0256509028
 20
8.588046419
 30
0.0
 10
11.0117439
 20
8.5652831772
 30
0.0
 10
10.9969795645
 20
8.5431066957
 30
0.0
 10
10.9813775643
 20
8.5215462108
 30
0.0
 10
10.9649586914
 20
8.5006302447
 30
0.0
 10
10.9477444825
 20
8.4803860196
 30
0.0
 10
10.9297582475
 20
8.4608409887
 30
0.0
 10
10.917267196
 20
8.4482926478
 30
0.0
 10
10.9109025535
 20
8.4421448749
 30
0.0
  0
SPLINE
  5
340
100
AcDbEntity
  8
0
100
AcDbSpline
 62
7
  6
CONTINUOUS
 70
0
 71
3
 72
44
 73
40
 74
0
 42
0.0000001
 43
0.0000001
 44
0.0000000001
 40
0.0
 40
0.0
 40
0.0
 40
0.0
 40
0.0053596925
 40
0.0106636306
 40
0.0159600732
 40
0.0212960479
 40
0.0267161748
 40
0.0322619968
 40
0.0438709456
 40
0.0500071791
 40
0.0563992351
 40
0.0700385394
 40
0.0773306859
 40
0.0849589918
 40
0.1012787176
 40
0.1191038329
 40
0.1385196254
 40
0.1595999126
 40
0.1824100368
 40
0.2070088301
 40
0.2334495621
 40
0.2617794034
 40
0.2920389469
 40
0.3242606311
 40
0.358465947
 40
0.3946626974
 40
0.4328413342
 40
0.4729706278
 40
0.5149928633
 40
0.5588187489
 40
0.604322716
 40
0.6513385947
 40
0.6996566846
 40
0.749022746
 40
0.7991393488
 40
0.8496705839
 40
0.9002500441
 40
0.9504903396
 40
1.0
 40
1.0
 40
1.0
 40
1.0
 10
10.6670427289
 20
8.4122083353
 30
0.0
 10
10.6671908782
 20
8.4117988691
 30
0.0
 10
10.6674484804
 20
8.4109701418
 30
0.0
 10
10.6677155707
 20
8.4096994052
 30
0.0
 10
10.667861488
 20
8.408410981
 30
0.0
 10
10.6678875436
 20
8.407105271
 30
0.0
 10
10.6677950391
 20
8.4057823081
 30
0.0
 10
10.6675105948
 20
8.40396856
 30
0.0
 10
10.6669876222
 20
8.4021410669
 30
0.0
 10
10.6662569096
 20
8.400320339
 30
0.0
 10
10.6653391706
 20
8.3984011627
 30
0.0
 10
10.6642022236
 20
8.3964885213
 30
0.0
 10
10.6628746942
 20
8.3945849041
 30
0.0
 10
10.6613289171
 20
8.3925707732
 30
0.0
 10
10.6590924386
 20
8.3900131391
 30
0.0
 10
10.6560016628
 20
8.3869458839
 30
0.0
 10
10.652439905
 20
8.383817108
 30
0.0
 10
10.6483998415
 20
8.3806308077
 30
0.0
 10
10.6438726443
 20
8.3773925019
 30
0.0
 10
10.6388489612
 20
8.3741092223
 30
0.0
 10
10.6333188682
 20
8.3707900051
 30
0.0
 10
10.6272723696
 20
8.3674461206
 30
0.0
 10
10.6206999875
 20
8.3640911976
 30
0.0
 10
10.61359333
 20
8.360741673
 30
0.0
 10
10.6059458833
 20
8.3574171606
 30
0.0
 10
10.5977540381
 20
8.3541406521
 30
0.0
 10
10.5890181928
 20
8.3509387885
 30
0.0
 10
10.5797440742
 20
8.3478420144
 30
0.0
 10
10.5699442213
 20
8.3448845719
 30
0.0
 10
10.5596395508
 20
8.3421042663
 30
0.0
 10
10.5488609252
 20
8.3395419489
 30
0.0
 10
10.5376505723
 20
8.3372406556
 30
0.0
 10
10.5260632009
 20
8.3352443688
 30
0.0
 10
10.5141666136
 20
8.3335963922
 30
0.0
 10
10.5020415897
 20
8.3323374102
 30
0.0
 10
10.4897809275
 20
8.3315033079
 30
0.0
 10
10.4774874607
 20
8.3311230543
 30
0.0
 10
10.4652714604
 20
8.3312165877
 30
0.0
 10
10.4571739461
 20
8.331605086
 30
0.0
 10
10.4531612184
 20
8.3318833696
 30
0.0
  0
SPLINE
  5
341
100
AcDbEntity
  8
0
100
AcDbSpline
 62
7
  6
CONTINUOUS
 70
0
 71
3
 72
32
 73
28
 74
0
 42
0.0000001
 43
0.0000001
 44
0.0000000001
 40
0.0
 40
0.0
 40
0.0
 40
0.0
 40
0.0162143674
 40
0.0334274059
 40
0.0516717689
 40
0.0709708909
 40
0.0913403921
 40
0.112789524
 40
0.1353217965
 40
0.1589361955
 40
0.1836273734
 40
0.2093865654
 40
0.2362017076
 40
0.2640579491
 40
0.2929379222
 40
0.3228218486
 40
0.353688004
 40
0.3855125376
 40
0.4182700178
 40
0.4519331819
 40
0.521858914
 40
0.595045151
 40
0.6712256129
 40
0.75011651
 40
0.8314192079
 40
0.9148210025
 40
1.0
 40
1.0
 40
1.0
 40
1.0
 10
12.4999360451
 20
8.8378553269
 30
0.0
 10
12.4986046298
 20
8.8394923621
 30
0.0
 10
12.4959718599
 20
8.842959471
 30
0.0
 10
12.4922172201
 20
8.8485417423
 30
0.0
 10
12.4885451175
 20
8.8546519226
 30
0.0
 10
12.484959346
 20
8.861283549
 30
0.0
 10
12.4814633253
 20
8.8684299734
 30
0.0
 10
12.4780606786
 20
8.8760838982
 30
0.0
 10
12.4747548085
 20
8.8842374471
 30
0.0
 10
12.4715492279
 20
8.8928822191
 30
0.0
 10
12.4684472133
 20
8.9020092342
 30
0.0
 10
12.4654520757
 20
8.9116090035
 30
0.0
 10
12.4625669427
 20
8.9216715051
 30
0.0
 10
12.4597948648
 20
8.9321862179
 30
0.0
 10
12.4571387964
 20
8.9431421299
 30
0.0
 10
12.454601509
 20
8.9545277487
 30
0.0
 10
12.4521857456
 20
8.9663311248
 30
0.0
 10
12.449894014
 20
8.9785398517
 30
0.0
 10
12.4477287713
 20
8.9911411109
 30
0.0
 10
12.4449786627
 20
9.0086710817
 30
0.0
 10
12.4418889949
 20
9.031470811
 30
0.0
 10
12.4387636262
 20
9.059840074
 30
0.0
 10
12.4361887845
 20
9.0894357296
 30
0.0
 10
12.4341755242
 20
9.1201332082
 30
0.0
 10
12.432732598
 20
9.1518034036
 30
0.0
 10
12.4318662367
 20
9.1843129824
 30
0.0
 10
12.4316773468
 20
9.2062522997
 30
0.0
 10
12.4316773468
 20
9.2173373319
 30
0.0
  0
SPLINE
  5
342
100
AcDbEntity
  8
0
100
AcDbSpline
 62
7
  6
CONTINUOUS
 70
0
 71
3
 72
32
 73
28
 74
0
 42
0.0000001
 43
0.0000001
 44
0.0000000001
 40
0.0
 40
0.0
 40
0.0
 40
0.0
 40
0.0162143674
 40
0.0334274059
 40
0.0516717689
 40
0.0709708909
 40
0.0913403921
 40
0.112789524
 40
0.1353217965
 40
0.1589361955
 40
0.1836273734
 40
0.2093865654
 40
0.2362017076
 40
0.2640579491
 40
0.2929379222
 40
0.3228218486
 40
0.353688004
 40
0.3855125376
 40
0.4182700178
 40
0.4519331819
 40
0.521858914
 40
0.595045151
 40
0.6712256129
 40
0.75011651
 40
0.8314192079
 40
0.9148210025
 40
1.0
 40
1.0
 40
1.0
 40
1.0
 10
12.4999360451
 20
6.9060035599
 30
0.0
 10
12.4986046298
 20
6.9076405951
 30
0.0
 10
12.4959718599
 20
6.9111077039
 30
0.0
 10
12.4922172201
 20
6.9166899752
 30
0.0
 10
12.4885451175
 20
6.9228001556
 30
0.0
 10
12.484959346
 20
6.9294317819
 30
0.0
 10
12.4814633253
 20
6.9365782064
 30
0.0
 10
12.4780606786
 20
6.9442321312
 30
0.0
 10
12.4747548085
 20
6.9523856801
 30
0.0
 10
12.4715492279
 20
6.9610304521
 30
0.0
 10
12.4684472133
 20
6.9701574671
 30
0.0
 10
12.4654520757
 20
6.9797572364
 30
0.0
 10
12.4625669427
 20
6.9898197381
 30
0.0
 10
12.4597948648
 20
7.0003344509
 30
0.0
 10
12.4571387964
 20
7.0112903628
 30
0.0
 10
12.454601509
 20
7.0226759817
 30
0.0
 10
12.4521857456
 20
7.0344793577
 30
0.0
 10
12.449894014
 20
7.0466880846
 30
0.0
 10
12.4477287713
 20
7.0592893439
 30
0.0
 10
12.4449786627
 20
7.0768193147
 30
0.0
 10
12.4418889949
 20
7.0996190439
 30
0.0
 10
12.4387636262
 20
7.127988307
 30
0.0
 10
12.4361887845
 20
7.1575839626
 30
0.0
 10
12.4341755242
 20
7.1882814412
 30
0.0
 10
12.432732598
 20
7.2199516365
 30
0.0
 10
12.4318662367
 20
7.2524612153
 30
0.0
 10
12.4316773468
 20
7.2744005327
 30
0.0
 10
12.4316773468
 20
7.2854855648
 30
0.0
  0
SPLINE
  5
343
100
AcDbEntity
  8
0
100
AcDbSpline
 62
7
  6
CONTINUOUS
 70
0
 71
3
 72
11
 73
7
 74
0
 42
0.0000001
 43
0.0000001
 44
0.0000000001
 40
0.0
 40
0.0
 40
0.0
 40
0.0
 40
0.2521579221
 40
0.5028363759
 40
0.7520884207
 40
1.0
 40
1.0
 40
1.0
 40
1.0
 10
9.749292364
 20
7.9675463881
 30
0.0
 10
9.7573830943
 20
7.9669852941
 30
0.0
 10
9.7735727755
 20
7.9665457985
 30
0.0
 10
9.7977498213
 20
7.9679583711
 30
0.0
 10
9.8215798091
 20
7.9714336007
 30
0.0
 10
9.8371642766
 20
7.9751203812
 30
0.0
 10
9.8448348339
 20
7.9772976852
 30
0.0
  0
SPLINE
  5
344
100
AcDbEntity
  8
0
100
AcDbSpline
 62
7
  6
CONTINUOUS
 70
0
 71
3
 72
39
 73
35
 74
0
 42
0.0000001
 43
0.0000001
 44
0.0000000001
 40
0.0
 40
0.0
 40
0.0
 40
0.0
 40
0.0308461574
 40
0.06181576
 40
0.0929037543
 40
0.1241061302
 40
0.1554158372
 40
0.186825035
 40
0.2183244047
 40
0.2499035225
 40
0.2815509419
 40
0.3132543565
 40
0.3450007596
 40
0.3767766077
 40
0.4085679912
 40
0.4403608068
 40
0.4721409322
 40
0.5038944026
 40
0.5356075857
 40
0.5672673525
 40
0.5988612434
 40
0.6303776281
 40
0.6618058578
 40
0.6931364089
 40
0.7243610169
 40
0.7554727969
 40
0.7864663472
 40
0.8173378376
 40
0.8480850777
 40
0.8787075665
 40
0.9092065192
 40
0.9395848735
 40
0.9698472688
 40
1.0
 40
1.0
 40
1.0
 40
1.0
 10
9.749292364
 20
7.9675463881
 30
0.0
 10
9.7436757203
 20
7.9679359037
 30
0.0
 10
9.7324400928
 20
7.9690458558
 30
0.0
 10
9.7156810288
 20
7.9716876158
 30
0.0
 10
9.6990371987
 20
7.9753007971
 30
0.0
 10
9.6825666275
 20
7.9798726513
 30
0.0
 10
9.6663255383
 20
7.9853875895
 30
0.0
 10
9.65036977
 20
7.991826539
 30
0.0
 10
9.6347540533
 20
7.9991673867
 30
0.0
 10
9.6195319839
 20
8.0073848865
 30
0.0
 10
9.6047557897
 20
8.0164507941
 30
0.0
 10
9.5904761688
 20
8.0263339597
 30
0.0
 10
9.5767421153
 20
8.0370004392
 30
0.0
 10
9.563600754
 20
8.0484136104
 30
0.0
 10
9.5510971803
 20
8.0605342961
 30
0.0
 10
9.5392743068
 20
8.0733208983
 30
0.0
 10
9.5281727186
 20
8.0867295396
 30
0.0
 10
9.5178305206
 20
8.1007142025
 30
0.0
 10
9.5082832173
 20
8.1152268965
 30
0.0
 10
9.4995635942
 20
8.1302178235
 30
0.0
 10
9.4917016055
 20
8.1456355462
 30
0.0
 10
9.4847242723
 20
8.1614271622
 30
0.0
 10
9.4786555899
 20
8.1775384836
 30
0.0
 10
9.4735164476
 20
8.1939142217
 30
0.0
 10
9.4693245392
 20
8.2104981696
 30
0.0
 10
9.4660943128
 20
8.2272333999
 30
0.0
 10
9.4638369251
 20
8.2440624586
 30
0.0
 10
9.4625602015
 20
8.2609275609
 30
0.0
 10
9.4622686057
 20
8.2777707812
 30
0.0
 10
9.4629632299
 20
8.2945342741
 30
0.0
 10
9.4646417621
 20
8.3111603805
 30
0.0
 10
9.4672985808
 20
8.3275921638
 30
0.0
 10
9.4709243843
 20
8.3437723584
 30
0.0
 10
9.4739852211
 20
8.3543745737
 30
0.0
 10
9.4756726232
 20
8.3596130784
 30
0.0
  0
SPLINE
  5
345
100
AcDbEntity
  8
0
100
AcDbSpline
 62
7
  6
CONTINUOUS
 70
0
 71
3
 72
39
 73
35
 74
0
 42
0.0000001
 43
0.0000001
 44
0.0000000001
 40
0.0
 40
0.0
 40
0.0
 40
0.0
 40
0.0310056836
 40
0.0621506876
 40
0.0934290457
 40
0.1248343575
 40
0.1563570069
 40
0.1879858949
 40
0.2197080213
 40
0.2515089249
 40
0.2833728618
 40
0.3152830837
 40
0.3472221046
 40
0.3791719817
 40
0.4111146005
 40
0.4430319616
 40
0.4749064666
 40
0.5067211985
 40
0.5384601949
 40
0.5701087107
 40
0.6016534658
 40
0.633082875
 40
0.6643872566
 40
0.6955590151
 40
0.7265927961
 40
0.7574856065
 40
0.7882368983
 40
0.8188486116
 40
0.8493251741
 40
0.8796734546
 40
0.9099026698
 40
0.9400242422
 40
0.9700516113
 40
1.0
 40
1.0
 40
1.0
 40
1.0
 10
9.749292364
 20
8.0583434212
 30
0.0
 10
9.7449553991
 20
8.0586441907
 30
0.0
 10
9.7362792603
 20
8.0595345164
 30
0.0
 10
9.7233541815
 20
8.0617207951
 30
0.0
 10
9.7105426
 20
8.0647515294
 30
0.0
 10
9.6979014145
 20
8.0686131778
 30
0.0
 10
9.6854856999
 20
8.0732888683
 30
0.0
 10
9.673349864
 20
8.0787580071
 30
0.0
 10
9.6615469892
 20
8.084996624
 30
0.0
 10
9.650128721
 20
8.0919773562
 30
0.0
 10
9.6391450152
 20
8.0996696195
 30
0.0
 10
9.6286439278
 20
8.1080397212
 30
0.0
 10
9.6186714064
 20
8.1170510143
 30
0.0
 10
9.609271089
 20
8.1266640531
 30
0.0
 10
9.6004841136
 20
8.1368367639
 30
0.0
 10
9.592348942
 20
8.147524631
 30
0.0
 10
9.5849011923
 20
8.1586808894
 30
0.0
 10
9.5781734843
 20
8.1702567273
 30
0.0
 10
9.5721952977
 20
8.1822014978
 30
0.0
 10
9.5669928438
 20
8.1944629381
 30
0.0
 10
9.5625889506
 20
8.2069873956
 30
0.0
 10
9.559002963
 20
8.2197200601
 30
0.0
 10
9.5562506571
 20
8.2326052006
 30
0.0
 10
9.5543441708
 20
8.2455864071
 30
0.0
 10
9.5532919442
 20
8.2586068337
 30
0.0
 10
9.5530986822
 20
8.2716094465
 30
0.0
 10
9.5537653326
 20
8.284537271
 30
0.0
 10
9.5552890788
 20
8.2973336413
 30
0.0
 10
9.5576633442
 20
8.3099424415
 30
0.0
 10
9.5608778303
 20
8.3223083729
 30
0.0
 10
9.5649185052
 20
8.3343771163
 30
0.0
 10
9.5697678524
 20
8.3460958739
 30
0.0
 10
9.575404229
 20
8.3574124829
 30
0.0
 10
9.5796759817
 20
8.3646655717
 30
0.0
 10
9.5819332483
 20
8.3682064032
 30
0.0
  0
SPLINE
  5
346
100
AcDbEntity
  8
0
100
AcDbSpline
 62
7
  6
CONTINUOUS
 70
0
 71
3
 72
41
 73
37
 74
0
 42
0.0000001
 43
0.0000001
 44
0.0000000001
 40
0.0
 40
0.0
 40
0.0
 40
0.0
 40
0.0311447108
 40
0.0467774295
 40
0.0624475249
 40
0.0938924651
 40
0.1254747955
 40
0.1571823865
 40
0.1890004527
 40
0.2209120576
 40
0.2528984154
 40
0.2689156901
 40
0.2849439669
 40
0.3170180467
 40
0.3491033961
 40
0.3811778561
 40
0.4132194776
 40
0.4452069463
 40
0.4771199982
 40
0.5089398211
 40
0.5406494354
 40
0.5722340478
 40
0.6036813723
 40
0.6349819093
 40
0.666129179
 40
0.6971198991
 40
0.7279541027
 40
0.7586351871
 40
0.7891698911
 40
0.819568195
 40
0.8498431417
 40
0.8800105805
 40
0.9100888347
 40
0.9400983003
 40
0.9700609852
 40
1.0
 40
1.0
 40
1.0
 40
1.0
 10
11.2615952117
 20
9.6101704786
 30
0.0
 10
11.2545898715
 20
9.6106563006
 30
0.0
 10
11.2440898218
 20
9.6117702904
 30
0.0
 10
11.230186803
 20
9.6140089603
 30
0.0
 10
11.2163058663
 20
9.616757371
 30
0.0
 10
11.1990937039
 20
9.6211344421
 30
0.0
 10
11.1787999004
 20
9.6278529252
 30
0.0
 10
11.1589482724
 20
9.6360079792
 30
0.0
 10
11.1396451226
 20
9.6455559862
 30
0.0
 10
11.1209936336
 20
9.6564455628
 30
0.0
 10
11.1060813815
 20
9.6665866318
 30
0.0
 10
11.094573521
 20
9.6753085629
 30
0.0
 10
11.0833550869
 20
9.6844311486
 30
0.0
 10
11.0699188948
 20
9.6965514319
 30
0.0
 10
11.0548239363
 20
9.7121606534
 30
0.0
 10
11.0408318837
 20
9.7287568136
 30
0.0
 10
11.0280178291
 20
9.74625107
 30
0.0
 10
11.0164499843
 20
9.7645503095
 30
0.0
 10
11.0061901135
 20
9.7835569994
 30
0.0
 10
10.9972929941
 20
9.8031698721
 30
0.0
 10
10.9898061821
 20
9.823284412
 30
0.0
 10
10.9837697436
 20
9.8437934176
 30
0.0
 10
10.9792160434
 20
9.8645875617
 30
0.0
 10
10.9761695681
 20
9.8855559671
 30
0.0
 10
10.9746467903
 20
9.9065867892
 30
0.0
 10
10.9746560743
 20
9.9275678057
 30
0.0
 10
10.9761976177
 20
9.9483870089
 30
0.0
 10
10.9792634406
 20
9.9689331999
 30
0.0
 10
10.9838374169
 20
9.9890965796
 30
0.0
 10
10.989895349
 20
10.008769338
 30
0.0
 10
10.9974050725
 20
10.0278462255
 30
0.0
 10
11.0063266518
 20
10.0462251584
 30
0.0
 10
11.0166124458
 20
10.0638076445
 30
0.0
 10
11.0282078626
 20
10.0804998147
 30
0.0
 10
11.041049757
 20
10.0962111178
 30
0.0
 10
11.0504003585
 20
10.1059794015
 30
0.0
 10
11.0552555574
 20
10.1106691615
 30
0.0
  0
SPLINE
  5
347
100
AcDbEntity
  8
0
100
AcDbSpline
 62
7
  6
CONTINUOUS
 70
0
 71
3
 72
49
 73
45
 74
0
 42
0.0000001
 43
0.0000001
 44
0.0000000001
 40
0.0
 40
0.0
 40
0.0
 40
0.0
 40
0.0311432951
 40
0.0624396747
 40
0.0938831248
 40
0.1254640322
 40
0.1571701658
 40
0.1889867774
 40
0.2208969221
 40
0.252881816
 40
0.2849212183
 40
0.3169938299
 40
0.3490777101
 40
0.3811507017
 40
0.4131908569
 40
0.4451768617
 40
0.4770884537
 40
0.5089068214
 40
0.5406149847
 40
0.5721981523
 40
0.6036440379
 40
0.6349431418
 40
0.6660889863
 40
0.697078288
 40
0.7125167323
 40
0.727916335
 40
0.7432776276
 40
0.7586013498
 40
0.7738884462
 40
0.7891400671
 40
0.8043575607
 40
0.8195424647
 40
0.8346965035
 40
0.8498215777
 40
0.8649197518
 40
0.8799932465
 40
0.8950444266
 40
0.9100757853
 40
0.9250899314
 40
0.9400895765
 40
0.9550775167
 40
0.9700566162
 40
0.9850297929
 40
1.0
 40
1.0
 40
1.0
 40
1.0
 10
10.367610703
 20
8.2492479125
 30
0.0
 10
10.3491656633
 20
8.2505270803
 30
0.0
 10
10.3122648241
 20
8.2544418204
 30
0.0
 10
10.2573609568
 20
8.2643031009
 30
0.0
 10
10.2030451563
 20
8.2781158308
 30
0.0
 10
10.149610793
 20
8.295805729
 30
0.0
 10
10.0973416955
 20
8.3172779328
 30
0.0
 10
10.0465167317
 20
8.3424176458
 30
0.0
 10
9.9974066402
 20
8.3710904972
 30
0.0
 10
9.9502730786
 20
8.403143352
 30
0.0
 10
9.9053672357
 20
8.4384052638
 30
0.0
 10
9.8629283318
 20
8.476688088
 30
0.0
 10
9.8231825371
 20
8.5177877447
 30
0.0
 10
9.7863417449
 20
8.561485205
 30
0.0
 10
9.7526022936
 20
8.6075475341
 30
0.0
 10
9.7221442047
 20
8.655729343
 30
0.0
 10
9.6951299989
 20
8.7057738873
 30
0.0
 10
9.6717038753
 20
8.7574144889
 30
0.0
 10
9.6519911422
 20
8.810375997
 30
0.0
 10
9.6360972156
 20
8.8643761516
 30
0.0
 10
9.6241073086
 20
8.9191269591
 30
0.0
 10
9.6160860071
 20
8.9743370297
 30
0.0
 10
9.6120764039
 20
9.0297098572
 30
0.0
 10
9.6120971088
 20
9.0758090853
 30
0.0
 10
9.6141378726
 20
9.1124652024
 30
0.0
 10
9.6166728069
 20
9.1397822971
 30
0.0
 10
9.620210559
 20
9.166918692
 30
0.0
 10
9.6247464341
 20
9.1938386117
 30
0.0
 10
9.6302744462
 20
9.2205059642
 30
0.0
 10
9.6367871629
 20
9.2468851744
 30
0.0
 10
9.644275915
 20
9.2729409958
 30
0.0
 10
9.6527307803
 20
9.2986386013
 30
0.0
 10
9.6621404222
 20
9.3239436753
 30
0.0
 10
9.672492279
 20
9.3488224145
 30
0.0
 10
9.6837726022
 20
9.3732415478
 30
0.0
 10
9.6959662942
 20
9.3971684614
 30
0.0
 10
9.7090570508
 20
9.4205711978
 30
0.0
 10
9.7230274518
 20
9.4434184508
 30
0.0
 10
9.7378588216
 20
9.4656796921
 30
0.0
 10
9.7535313193
 20
9.4873252071
 30
0.0
 10
9.7700240261
 20
9.5083260113
 30
0.0
 10
9.7873150219
 20
9.5286541271
 30
0.0
 10
9.8053807646
 20
9.548282062
 30
0.0
 10
9.8179264084
 20
9.5608843931
 30
0.0
 10
9.8243188533
 20
9.567059031
 30
0.0
  0
SPLINE
  5
348
100
AcDbEntity
  8
0
100
AcDbSpline
 62
7
  6
CONTINUOUS
 70
0
 71
3
 72
21
 73
17
 74
0
 42
0.0000001
 43
0.0000001
 44
0.0000000001
 40
0.0
 40
0.0
 40
0.0
 40
0.0
 40
0.1270213422
 40
0.2533969723
 40
0.316358376
 40
0.3791650597
 40
0.4418211706
 40
0.5043314806
 40
0.5667016228
 40
0.6289380423
 40
0.6910479304
 40
0.7530392197
 40
0.8149205281
 40
0.8767011061
 40
0.938390802
 40
1.0
 40
1.0
 40
1.0
 40
1.0
 10
10.591012605
 20
8.465037592
 30
0.0
 10
10.6094577681
 20
8.4637584156
 30
0.0
 10
10.6463610552
 20
8.462547922
 30
0.0
 10
10.6924160489
 20
8.4644413735
 30
0.0
 10
10.7289529408
 20
8.4680005704
 30
0.0
 10
10.7561389115
 20
8.4716818604
 30
0.0
 10
10.7831019809
 20
8.4763732314
 30
0.0
 10
10.8098061783
 20
8.4820683842
 30
0.0
 10
10.8362153683
 20
8.4887596018
 30
0.0
 10
10.8622939316
 20
8.4964379153
 30
0.0
 10
10.8880066524
 20
8.505093007
 30
0.0
 10
10.9133188578
 20
8.5147131581
 30
0.0
 10
10.9381963429
 20
8.525285404
 30
0.0
 10
10.962605629
 20
8.5367956145
 30
0.0
 10
10.9865133255
 20
8.5492279339
 30
0.0
 10
11.0021063085
 20
8.5581256748
 30
0.0
 10
11.0098069239
 20
8.5627218324
 30
0.0
  0
SPLINE
  5
349
100
AcDbEntity
  8
0
100
AcDbSpline
 62
7
  6
CONTINUOUS
 70
0
 71
3
 72
43
 73
39
 74
0
 42
0.0000001
 43
0.0000001
 44
0.0000000001
 40
0.0
 40
0.0
 40
0.0
 40
0.0
 40
0.031008647
 40
0.0621561051
 40
0.0934379129
 40
0.1248466311
 40
0.1563729688
 40
0.1880056271
 40
0.2197315635
 40
0.2515362167
 40
0.2834037532
 40
0.3153173285
 40
0.3472593626
 40
0.3792118225
 40
0.4111565093
 40
0.4430753475
 40
0.4749506736
 40
0.5067655188
 40
0.5385038845
 40
0.5701510077
 40
0.6016936105
 40
0.6331201307
 40
0.6644209308
 40
0.6955884838
 40
0.7266175256
 40
0.7575051741
 40
0.7882510114
 40
0.818857127
 40
0.834111329
 40
0.8493325299
 40
0.8645216876
 40
0.8796799072
 40
0.9099041344
 40
0.940021297
 40
0.9550462197
 40
0.9700496424
 40
0.9850335446
 40
1.0
 40
1.0
 40
1.0
 40
1.0
 10
10.591012605
 20
8.465037592
 30
0.0
 10
10.5742671785
 20
8.4661988913
 30
0.0
 10
10.5407681974
 20
8.4696389745
 30
0.0
 10
10.4908650658
 20
8.4780917657
 30
0.0
 10
10.4414023049
 20
8.4898119009
 30
0.0
 10
10.3926002272
 20
8.5047474577
 30
0.0
 10
10.3446727321
 20
8.5228324591
 30
0.0
 10
10.2978307037
 20
8.5439870902
 30
0.0
 10
10.2522799822
 20
8.5681180952
 30
0.0
 10
10.2082207944
 20
8.5951191973
 30
0.0
 10
10.165846802
 20
8.6248715679
 30
0.0
 10
10.125344232
 20
8.6572442706
 30
0.0
 10
10.0868910966
 20
8.6920949016
 30
0.0
 10
10.0506564293
 20
8.7292702155
 30
0.0
 10
10.0167995594
 20
8.7686067944
 30
0.0
 10
9.9854693485
 20
8.8099317014
 30
0.0
 10
9.9568035872
 20
8.8530632837
 30
0.0
 10
9.9309284087
 20
8.8978119708
 30
0.0
 10
9.9079577491
 20
8.9439810974
 30
0.0
 10
9.8879927693
 20
8.9913677185
 30
0.0
 10
9.8711214581
 20
9.0397635252
 30
0.0
 10
9.8574182692
 20
9.0889557589
 30
0.0
 10
9.8469437985
 20
9.138728118
 30
0.0
 10
9.8397444391
 20
9.1888617267
 30
0.0
 10
9.8358521769
 20
9.2391359298
 30
0.0
 10
9.8352846079
 20
9.2893299066
 30
0.0
 10
9.8380443562
 20
9.3392212072
 30
0.0
 10
9.8431138362
 20
9.3804134116
 30
0.0
 10
9.8488178979
 20
9.4129877622
 30
0.0
 10
9.8539088634
 20
9.4371821118
 30
0.0
 10
9.8598115421
 20
9.4611378574
 30
0.0
 10
9.8687455779
 20
9.4926915521
 30
0.0
 10
9.8819062477
 20
9.5314207841
 30
0.0
 10
9.8976965747
 20
9.5690768049
 30
0.0
 10
9.9118471896
 20
9.5984050976
 30
0.0
 10
9.9232008944
 20
9.6199702977
 30
0.0
 10
9.9352897263
 20
9.6410950524
 30
0.0
 10
9.943835389
 20
9.6548774751
 30
0.0
 10
9.9482256837
 20
9.6616864593
 30
0.0
  0
SPLINE
  5
34A
100
AcDbEntity
  8
0
100
AcDbSpline
 62
7
  6
CONTINUOUS
 70
0
 71
3
 72
44
 73
40
 74
0
 42
0.0000001
 43
0.0000001
 44
0.0000000001
 40
0.0
 40
0.0
 40
0.0
 40
0.0
 40
0.0310944943
 40
0.0623366596
 40
0.0937211364
 40
0.1252391586
 40
0.1568796725
 40
0.1886293013
 40
0.2204726477
 40
0.2523925954
 40
0.2843706323
 40
0.3163871961
 40
0.3484220301
 40
0.3804545494
 40
0.4124642104
 40
0.4444308802
 40
0.476335202
 40
0.5081589483
 40
0.5398853601
 40
0.5714994686
 40
0.6029883904
 40
0.6343415898
 40
0.6655511091
 40
0.6966117581
 40
0.7275212504
 40
0.7582802906
 40
0.788892608
 40
0.8193649214
 40
0.8497068419
 40
0.8648352375
 40
0.8799358792
 40
0.8950106999
 40
0.9100617692
 40
0.9250912848
 40
0.9401015635
 40
0.9550950244
 40
0.9700741793
 40
0.9850416198
 40
1.0
 40
1.0
 40
1.0
 40
1.0
 10
10.591012605
 20
8.5104361086
 30
0.0
 10
10.5742811283
 20
8.5115964404
 30
0.0
 10
10.5408090594
 20
8.5151043683
 30
0.0
 10
10.4909832088
 20
8.5238605153
 30
0.0
 10
10.4416543628
 20
8.536080227
 30
0.0
 10
10.3930707376
 20
8.5517023496
 30
0.0
 10
10.3454728214
 20
8.57064887
 30
0.0
 10
10.2990971707
 20
8.592825319
 30
0.0
 10
10.254173986
 20
8.6181213263
 30
0.0
 10
10.2109263153
 20
8.6464110579
 30
0.0
 10
10.1695688186
 20
8.6775538149
 30
0.0
 10
10.1303068231
 20
8.7113948501
 30
0.0
 10
10.0933352959
 20
8.7477660849
 30
0.0
 10
10.0588377856
 20
8.7864868399
 30
0.0
 10
10.0269856253
 20
8.8273648468
 30
0.0
 10
9.997937113
 20
8.8701971872
 30
0.0
 10
9.971836601
 20
8.9147711945
 30
0.0
 10
9.9488138563
 20
8.9608655683
 30
0.0
 10
9.9289834926
 20
9.0082514857
 30
0.0
 10
9.9124442942
 20
9.0566936635
 30
0.0
 10
9.8992787031
 20
9.1059515234
 30
0.0
 10
9.8895525347
 20
9.1557804116
 30
0.0
 10
9.883314593
 20
9.2059327691
 30
0.0
 10
9.8805962838
 20
9.2561593256
 30
0.0
 10
9.8814116308
 20
9.3062104053
 30
0.0
 10
9.8857571094
 20
9.3558369388
 30
0.0
 10
9.8936117674
 20
9.4047924248
 30
0.0
 10
9.9049363311
 20
9.452831495
 30
0.0
 10
9.9172332049
 20
9.4919460074
 30
0.0
 10
9.9287415552
 20
9.5225290883
 30
0.0
 10
9.9381893146
 20
9.5450709952
 30
0.0
 10
9.9484492004
 20
9.5672087601
 30
0.0
 10
9.9595086449
 20
9.5889152007
 30
0.0
 10
9.9713538314
 20
9.6101631978
 30
0.0
 10
9.9839699978
 20
9.6309263641
 30
0.0
 10
9.9973415078
 20
9.6511787695
 30
0.0
 10
10.0114517552
 20
9.6708953246
 30
0.0
 10
10.0262828555
 20
9.6900511679
 30
0.0
 10
10.0366418454
 20
9.7024358192
 30
0.0
 10
10.0419342603
 20
9.7085256762
 30
0.0
  0
SPLINE
  5
34B
100
AcDbEntity
  8
0
100
AcDbSpline
 62
7
  6
CONTINUOUS
 70
0
 71
3
 72
44
 73
40
 74
0
 42
0.0000001
 43
0.0000001
 44
0.0000000001
 40
0.0
 40
0.0
 40
0.0
 40
0.0
 40
0.0311139015
 40
0.0623775392
 40
0.093785346
 40
0.1253282079
 40
0.1569946375
 40
0.1887707383
 40
0.2206405275
 40
0.2525862578
 40
0.2845887601
 40
0.3166278108
 40
0.3486825097
 40
0.3807316676
 40
0.4127541972
 40
0.4447295036
 40
0.4766378681
 40
0.5084608204
 40
0.5401814929
 40
0.5717849547
 40
0.6032585182
 40
0.6345920081
 40
0.6657779917
 40
0.6968119682
 40
0.7276924982
 40
0.7584212765
 40
0.7890031475
 40
0.8194460485
 40
0.8497608817
 40
0.8648771044
 40
0.8799666542
 40
0.8950316299
 40
0.9100742633
 40
0.9250969132
 40
0.9401020504
 40
0.9550922415
 40
0.9700701397
 40
0.9850384676
 40
1.0
 40
1.0
 40
1.0
 40
1.0
 10
10.5977369155
 20
8.5314201824
 30
0.0
 10
10.5811190207
 20
8.5325726373
 30
0.0
 10
10.5478739433
 20
8.5360732162
 30
0.0
 10
10.4983949062
 20
8.5448421317
 30
0.0
 10
10.4494232633
 20
8.5570972546
 30
0.0
 10
10.4012123053
 20
8.5727755402
 30
0.0
 10
10.3540073295
 20
8.5917965115
 30
0.0
 10
10.3080494768
 20
8.6140626796
 30
0.0
 10
10.2635732273
 20
8.63946013
 30
0.0
 10
10.2208055705
 20
8.6678590146
 30
0.0
 10
10.1799647
 20
8.699114155
 30
0.0
 10
10.1412590241
 20
8.7330659107
 30
0.0
 10
10.1048861139
 20
8.7695409627
 30
0.0
 10
10.0710315924
 20
8.8083530759
 30
0.0
 10
10.0398682857
 20
8.8493041513
 30
0.0
 10
10.0115553934
 20
8.8921852402
 30
0.0
 10
9.9862375741
 20
8.9367775161
 30
0.0
 10
9.9640442218
 20
8.9828534069
 30
0.0
 10
9.9450889125
 20
9.0301777944
 30
0.0
 10
9.9294687701
 20
9.0785091555
 30
0.0
 10
9.9172638597
 20
9.1276007544
 30
0.0
 10
9.9085369267
 20
9.1772019417
 30
0.0
 10
9.903333072
 20
9.2270593983
 30
0.0
 10
9.9016793357
 20
9.2769183792
 30
0.0
 10
9.9035846855
 20
9.3265240832
 30
0.0
 10
9.9090399255
 20
9.3756227301
 30
0.0
 10
9.9180179108
 20
9.4239635797
 30
0.0
 10
9.9304724584
 20
9.4712975329
 30
0.0
 10
9.9437111737
 20
9.5097448337
 30
0.0
 10
9.9559680227
 20
9.5397454999
 30
0.0
 10
9.9659737384
 20
9.5618274944
 30
0.0
 10
9.9767873588
 20
9.5834809166
 30
0.0
 10
9.9883952621
 20
9.6046784348
 30
0.0
 10
10.0007824858
 20
9.625392856
 30
0.0
 10
10.0139332291
 20
9.6455976991
 30
0.0
 10
10.0278307033
 20
9.6652670356
 30
0.0
 10
10.0424571339
 20
9.6843758464
 30
0.0
 10
10.0577935394
 20
9.702899308
 30
0.0
 10
10.0684806085
 20
9.714845033
 30
0.0
 10
10.0739347716
 20
9.7207113997
 30
0.0
  0
SPLINE
  5
34C
100
AcDbEntity
  8
0
100
AcDbSpline
 62
7
  6
CONTINUOUS
 70
0
 71
3
 72
39
 73
35
 74
0
 42
0.0000001
 43
0.0000001
 44
0.0000000001
 40
0.0
 40
0.0
 40
0.0
 40
0.0
 40
0.0310686827
 40
0.062282238
 40
0.0936356301
 40
0.1251205003
 40
0.1567263829
 40
0.1884405759
 40
0.2202484473
 40
0.25213371
 40
0.2840787178
 40
0.3160647819
 40
0.3480725011
 40
0.3800820993
 40
0.4120737679
 40
0.4440280086
 40
0.4759259728
 40
0.5077497915
 40
0.5394828961
 40
0.5711103204
 40
0.6026189812
 40
0.6339979323
 40
0.6652385911
 40
0.6963349264
 40
0.7272836041
 40
0.7580840873
 40
0.7887386896
 40
0.8192525706
 40
0.8496336716
 40
0.8798925952
 40
0.9100424261
 40
0.9400984899
 40
0.9700780572
 40
1.0
 40
1.0
 40
1.0
 40
1.0
 10
10.6396705453
 20
8.5719249608
 30
0.0
 10
10.6235867482
 20
8.5730403759
 30
0.0
 10
10.5914107041
 20
8.5763910943
 30
0.0
 10
10.5435026365
 20
8.584714351
 30
0.0
 10
10.4960547231
 20
8.5963069648
 30
0.0
 10
10.4492968901
 20
8.6111130548
 30
0.0
 10
10.4034520832
 20
8.6290614523
 30
0.0
 10
10.3587397456
 20
8.650065967
 30
0.0
 10
10.3153736219
 20
8.6740258695
 30
0.0
 10
10.2735610918
 20
8.7008263744
 30
0.0
 10
10.2335020881
 20
8.7303391649
 30
0.0
 10
10.1953881284
 20
8.7624229437
 30
0.0
 10
10.1594014592
 20
8.7969241937
 30
0.0
 10
10.1257142006
 20
8.8336778965
 30
0.0
 10
10.0944875075
 20
8.8725082853
 30
0.0
 10
10.0658707569
 20
8.9132296476
 30
0.0
 10
10.040000913
 20
8.9556472704
 30
0.0
 10
10.0170018814
 20
8.9995583499
 30
0.0
 10
9.9969838747
 20
9.0447529221
 30
0.0
 10
9.9800428523
 20
9.0910148503
 30
0.0
 10
9.9662601413
 20
9.1381228844
 30
0.0
 10
9.9557020481
 20
9.1858516943
 30
0.0
 10
9.9484194694
 20
9.233972915
 30
0.0
 10
9.9444476295
 20
9.282256237
 30
0.0
 10
9.9438059764
 20
9.3304705066
 30
0.0
 10
9.9464980767
 20
9.3783848098
 30
0.0
 10
9.9525114944
 20
9.4257695692
 30
0.0
 10
9.9618178527
 20
9.4723976562
 30
0.0
 10
9.9743729927
 20
9.5180454467
 30
0.0
 10
9.9901172279
 20
9.5624939673
 30
0.0
 10
10.0089752707
 20
9.6055296773
 30
0.0
 10
10.0308575187
 20
9.6469466532
 30
0.0
 10
10.0556571695
 20
9.6865433166
 30
0.0
 10
10.0740747578
 20
9.7116257907
 30
0.0
 10
10.0837220198
 20
9.723792507
 30
0.0
  0
SPLINE
  5
34D
100
AcDbEntity
  8
0
100
AcDbSpline
 62
7
  6
CONTINUOUS
 70
0
 71
3
 72
44
 73
40
 74
0
 42
0.0000001
 43
0.0000001
 44
0.0000000001
 40
0.0
 40
0.0
 40
0.0
 40
0.0
 40
0.0311206411
 40
0.0623917487
 40
0.0938076727
 40
0.1253591816
 40
0.1570346301
 40
0.1888199361
 40
0.2206989083
 40
0.2526535742
 40
0.2846645309
 40
0.3167113202
 40
0.3487728142
 40
0.3808276107
 40
0.4128544322
 40
0.444832523
 40
0.4767420415
 40
0.5085644369
 40
0.5402828097
 40
0.571882252
 40
0.6033501549
 40
0.6346764801
 40
0.6658539934
 40
0.6968784501
 40
0.7277487211
 40
0.7584668631
 40
0.789038127
 40
0.8194708887
 40
0.8497765127
 40
0.8648886589
 40
0.879974542
 40
0.8950363195
 40
0.9100762823
 40
0.925096843
 40
0.9401005268
 40
0.9550899525
 40
0.97006782
 40
0.985036897
 40
1.0
 40
1.0
 40
1.0
 40
1.0
 10
10.651705621
 20
8.6284655055
 30
0.0
 10
10.6360859556
 20
8.629548733
 30
0.0
 10
10.6048378149
 20
8.632844481
 30
0.0
 10
10.5583338149
 20
8.6411105294
 30
0.0
 10
10.5123113238
 20
8.6526686262
 30
0.0
 10
10.4670106753
 20
8.6674587384
 30
0.0
 10
10.4226645741
 20
8.6854042085
 30
0.0
 10
10.3795017396
 20
8.7064121762
 30
0.0
 10
10.3377445173
 20
8.7303741383
 30
0.0
 10
10.2976080639
 20
8.7571663914
 30
0.0
 10
10.259299121
 20
8.786650655
 30
0.0
 10
10.2230150697
 20
8.8186748963
 30
0.0
 10
10.188942899
 20
8.8530740538
 30
0.0
 10
10.1572581581
 20
8.8896707945
 30
0.0
 10
10.12812417
 20
8.9282765411
 30
0.0
 10
10.1016912142
 20
8.968692419
 30
0.0
 10
10.0780956219
 20
9.0107101777
 30
0.0
 10
10.05745917
 20
9.0541133302
 30
0.0
 10
10.0398885178
 20
9.0986782701
 30
0.0
 10
10.0254745341
 20
9.1441753474
 30
0.0
 10
10.0142918362
 20
9.1903700604
 30
0.0
 10
10.0063985185
 20
9.2370242781
 30
0.0
 10
10.0018357698
 20
9.2838974208
 30
0.0
 10
10.0006275452
 20
9.3307476747
 30
0.0
 10
10.0027806114
 20
9.3773332962
 30
0.0
 10
10.0082843858
 20
9.4234136385
 30
0.0
 10
10.0171111186
 20
9.4687510962
 30
0.0
 10
10.029214988
 20
9.5131097794
 30
0.0
 10
10.041995664
 20
9.5491088703
 30
0.0
 10
10.0537876585
 20
9.5771786612
 30
0.0
 10
10.0633964876
 20
9.5978290367
 30
0.0
 10
10.0737648954
 20
9.6180675452
 30
0.0
 10
10.0848796863
 20
9.6378684034
 30
0.0
 10
10.0967264711
 20
9.6572059204
 30
0.0
 10
10.1092899114
 20
9.6760551834
 30
0.0
 10
10.1225538336
 20
9.6943917592
 30
0.0
 10
10.1365011629
 20
9.7121920574
 30
0.0
 10
10.1511135338
 20
9.7294328024
 30
0.0
 10
10.1612881045
 20
9.7405409858
 30
0.0
 10
10.1664788116
 20
9.7459934346
 30
0.0
  0
SPLINE
  5
34E
100
AcDbEntity
  8
0
100
AcDbSpline
 62
7
  6
CONTINUOUS
 70
0
 71
3
 72
42
 73
38
 74
0
 42
0.0000001
 43
0.0000001
 44
0.0000000001
 40
0.0
 40
0.0
 40
0.0
 40
0.0
 40
0.0307881094
 40
0.0462275892
 40
0.0616955412
 40
0.0927134947
 40
0.1238404222
 40
0.1550706261
 40
0.1863971709
 40
0.2178120026
 40
0.2493060421
 40
0.280869301
 40
0.3124910004
 40
0.3441596983
 40
0.375863422
 40
0.4075898047
 40
0.4393262254
 40
0.4710599504
 40
0.5027782764
 40
0.5344686728
 40
0.5661189225
 40
0.5977172609
 40
0.6292525106
 40
0.660714212
 40
0.6920927471
 40
0.723379457
 40
0.75456675
 40
0.7856482005
 40
0.8166186363
 40
0.8474742132
 40
0.8628595778
 40
0.8782154254
 40
0.9088353549
 40
0.9393373943
 40
0.9545462702
 40
0.9697265155
 40
1.0
 40
1.0
 40
1.0
 40
1.0
 10
10.9631940847
 20
8.929340275
 30
0.0
 10
10.9510931499
 20
8.9301794777
 30
0.0
 10
10.9329537579
 20
8.9319447244
 30
0.0
 10
10.9088764915
 20
8.9352944095
 30
0.0
 10
10.8848101067
 20
8.9393174658
 30
0.0
 10
10.8548663598
 20
8.9455941613
 30
0.0
 10
10.8193056541
 20
8.9550860687
 30
0.0
 10
10.7841913443
 20
8.9665156432
 30
0.0
 10
10.7496329036
 20
8.9798472554
 30
0.0
 10
10.7157372413
 20
8.9950395189
 30
0.0
 10
10.6826094288
 20
9.0120452626
 30
0.0
 10
10.6503520929
 20
9.0308117174
 30
0.0
 10
10.6190651765
 20
9.0512806697
 30
0.0
 10
10.5888456106
 20
9.0733886434
 30
0.0
 10
10.5597870219
 20
9.0970670958
 30
0.0
 10
10.5319794425
 20
9.1222426293
 30
0.0
 10
10.505509034
 20
9.1488372175
 30
0.0
 10
10.4804578212
 20
9.1767684458
 30
0.0
 10
10.4569034401
 20
9.2059497654
 30
0.0
 10
10.4349188979
 20
9.23629076
 30
0.0
 10
10.4145723487
 20
9.2676974242
 30
0.0
 10
10.3959268825
 20
9.3000724527
 30
0.0
 10
10.379040331
 20
9.3333155398
 30
0.0
 10
10.3639650881
 20
9.3673236893
 30
0.0
 10
10.3507479488
 20
9.4019915252
 30
0.0
 10
10.3394299624
 20
9.4372116386
 30
0.0
 10
10.3300463083
 20
9.4728748342
 30
0.0
 10
10.3226261747
 20
9.508870775
 30
0.0
 10
10.3171927079
 20
9.5450871768
 30
0.0
 10
10.31433168
 20
9.5753890931
 30
0.0
 10
10.3130530402
 20
9.5996261697
 30
0.0
 10
10.3124484566
 20
9.6237965772
 30
0.0
 10
10.3129507464
 20
9.653939981
 30
0.0
 10
10.3151369351
 20
9.6839503713
 30
0.0
 10
10.3178928934
 20
9.7077846157
 30
0.0
 10
10.3213102203
 20
9.7314413649
 30
0.0
 10
10.3246261888
 20
9.7490527405
 30
0.0
 10
10.327168791
 20
9.7607058244
 30
0.0
  0
SPLINE
  5
34F
100
AcDbEntity
  8
0
100
AcDbSpline
 62
7
  6
CONTINUOUS
 70
0
 71
3
 72
42
 73
38
 74
0
 42
0.0000001
 43
0.0000001
 44
0.0000000001
 40
0.0
 40
0.0
 40
0.0
 40
0.0
 40
0.0307863511
 40
0.0462249199
 40
0.0616918755
 40
0.0927077073
 40
0.1238323764
 40
0.1550601824
 40
0.1863842315
 40
0.2177965022
 40
0.2492879567
 40
0.2808486493
 40
0.3124678468
 40
0.3441341539
 40
0.3758356452
 40
0.4075600007
 40
0.4392946444
 40
0.4710268857
 40
0.5027440608
 40
0.5344336739
 40
0.5660835383
 40
0.5976819131
 40
0.6292176385
 40
0.6606802645
 40
0.6920601751
 40
0.7233487047
 40
0.754538246
 40
0.7856223485
 40
0.8165958058
 40
0.8474547306
 40
0.8628418684
 40
0.878199553
 40
0.9088233167
 40
0.9393293337
 40
0.9545402214
 40
0.9697224874
 40
1.0
 40
1.0
 40
1.0
 40
1.0
 10
10.9731379845
 20
8.9760565173
 30
0.0
 10
10.9617458908
 20
8.9768465617
 30
0.0
 10
10.9446690299
 20
8.9785076322
 30
0.0
 10
10.9220018539
 20
8.9816585662
 30
0.0
 10
10.8993448153
 20
8.9854424118
 30
0.0
 10
10.8711541827
 20
8.9913451338
 30
0.0
 10
10.8376743577
 20
9.0002706034
 30
0.0
 10
10.8046134264
 20
9.0110174913
 30
0.0
 10
10.7720741322
 20
9.0235523944
 30
0.0
 10
10.7401568108
 20
9.0378365303
 30
0.0
 10
10.7089600816
 20
9.0538256892
 30
0.0
 10
10.6785802765
 20
9.0714704178
 30
0.0
 10
10.6491112168
 20
9.0907161586
 30
0.0
 10
10.6206439062
 20
9.111503422
 30
0.0
 10
10.5932662571
 20
9.1337679684
 30
0.0
 10
10.5670628194
 20
9.1574410059
 30
0.0
 10
10.5421145214
 20
9.1824494021
 30
0.0
 10
10.518498421
 20
9.2087159085
 30
0.0
 10
10.4962874696
 20
9.2361593976
 30
0.0
 10
10.4755502875
 20
9.2646951129
 30
0.0
 10
10.4563509534
 20
9.2942349278
 30
0.0
 10
10.438748807
 20
9.3246876172
 30
0.0
 10
10.4227982666
 20
9.3559591364
 30
0.0
 10
10.4085486612
 20
9.3879529112
 30
0.0
 10
10.3960440787
 20
9.420570128
 30
0.0
 10
10.3853232286
 20
9.4537100584
 30
0.0
 10
10.3764193254
 20
9.4872702892
 30
0.0
 10
10.3693599726
 20
9.5211473259
 30
0.0
 10
10.3641671224
 20
9.5552358371
 30
0.0
 10
10.3614058921
 20
9.5837608834
 30
0.0
 10
10.3601462327
 20
9.6065790788
 30
0.0
 10
10.3595201364
 20
9.6293362051
 30
0.0
 10
10.3599199113
 20
9.6577201517
 30
0.0
 10
10.3619023943
 20
9.6859832344
 30
0.0
 10
10.3644351493
 20
9.7084326643
 30
0.0
 10
10.3675898205
 20
9.7307169086
 30
0.0
 10
10.3706638051
 20
9.747308788
 30
0.0
 10
10.373025266
 20
9.7582884259
 30
0.0
  0
SPLINE
  5
350
100
AcDbEntity
  8
0
100
AcDbSpline
 62
7
  6
CONTINUOUS
 70
0
 71
3
 72
41
 73
37
 74
0
 42
0.0000001
 43
0.0000001
 44
0.0000000001
 40
0.0
 40
0.0
 40
0.0
 40
0.0
 40
0.0307819261
 40
0.0616797089
 40
0.0926901669
 40
0.1238090838
 40
0.1550307838
 40
0.1863484699
 40
0.2177542079
 40
0.2492390652
 40
0.2807932067
 40
0.3124060168
 40
0.344066221
 40
0.3757620161
 40
0.4074812026
 40
0.439211322
 40
0.4709397943
 40
0.502654058
 40
0.5343417089
 40
0.5659906383
 40
0.5975891684
 40
0.6291261848
 40
0.6605912644
 40
0.691974797
 40
0.7232681011
 40
0.7544635305
 40
0.7855545723
 40
0.8165359338
 40
0.847403617
 40
0.8627953996
 40
0.8781578895
 40
0.9087916967
 40
0.9393081444
 40
0.9545243162
 40
0.9697118886
 40
1.0
 40
1.0
 40
1.0
 40
1.0
 10
10.9788113735
 20
8.990306898
 30
0.0
 10
10.9676294883
 20
8.9910823644
 30
0.0
 10
10.9452617582
 20
8.9932553848
 30
0.0
 10
10.9118812651
 20
8.9983531167
 30
0.0
 10
10.8787055817
 20
9.0052798729
 30
0.0
 10
10.8458377313
 20
9.0140141752
 30
0.0
 10
10.8133780125
 20
9.0245292207
 30
0.0
 10
10.7814259593
 20
9.036792674
 30
0.0
 10
10.7500794037
 20
9.0507668949
 30
0.0
 10
10.7194343533
 20
9.0664089983
 30
0.0
 10
10.689584653
 20
9.0836710097
 30
0.0
 10
10.6606217112
 20
9.1025000025
 30
0.0
 10
10.6326342197
 20
9.1228382631
 30
0.0
 10
10.6057078838
 20
9.1446234662
 30
0.0
 10
10.5799251622
 20
9.1677888652
 30
0.0
 10
10.5553650157
 20
9.1922634957
 30
0.0
 10
10.5321026668
 20
9.2179723914
 30
0.0
 10
10.5102093707
 20
9.2448368129
 30
0.0
 10
10.4897521985
 20
9.2727744873
 30
0.0
 10
10.4707938321
 20
9.3016998586
 30
0.0
 10
10.4533923737
 20
9.331524348
 30
0.0
 10
10.4376011684
 20
9.3621566233
 30
0.0
 10
10.4234686409
 20
9.3935028778
 30
0.0
 10
10.4110381477
 20
9.4254671105
 30
0.0
 10
10.4003478433
 20
9.4579514377
 30
0.0
 10
10.3914305671
 20
9.4908563154
 30
0.0
 10
10.3843137258
 20
9.524081122
 30
0.0
 10
10.3790192685
 20
9.557523423
 30
0.0
 10
10.3761366187
 20
9.5855166141
 30
0.0
 10
10.3747579808
 20
9.6079153098
 30
0.0
 10
10.373998656
 20
9.6302583578
 30
0.0
 10
10.3742051061
 20
9.6581336177
 30
0.0
 10
10.3759585216
 20
9.685901267
 30
0.0
 10
10.3782873367
 20
9.7079645008
 30
0.0
 10
10.3812247694
 20
9.7298704445
 30
0.0
 10
10.384120368
 20
9.7461864221
 30
0.0
 10
10.3863563318
 20
9.7569863162
 30
0.0
  0
SPLINE
  5
351
100
AcDbEntity
  8
0
100
AcDbSpline
 62
7
  6
CONTINUOUS
 70
0
 71
3
 72
39
 73
35
 74
0
 42
0.0000001
 43
0.0000001
 44
0.0000000001
 40
0.0
 40
0.0
 40
0.0
 40
0.0
 40
0.0307008797
 40
0.0615083495
 40
0.0924192365
 40
0.1234306767
 40
0.1545380014
 40
0.1857359311
 40
0.2170181849
 40
0.2483777003
 40
0.2798066619
 40
0.3112965929
 40
0.3428384369
 40
0.3744226476
 40
0.4060392805
 40
0.4376780872
 40
0.4693286122
 40
0.5009802906
 40
0.5326225466
 40
0.5642448921
 40
0.5958370248
 40
0.6273889254
 40
0.6588909529
 40
0.6903339372
 40
0.7217092682
 40
0.7530089812
 40
0.7842258374
 40
0.8153533996
 40
0.8463861011
 40
0.877319308
 40
0.9081493746
 40
0.9388736894
 40
0.9694907121
 40
1.0
 40
1.0
 40
1.0
 40
1.0
 10
11.0581805958
 20
9.0669716842
 30
0.0
 10
11.0479176106
 20
9.0676834247
 30
0.0
 10
11.0273884436
 20
9.0696308439
 30
0.0
 10
10.9967314611
 20
9.0741018328
 30
0.0
 10
10.9662328538
 20
9.0801165788
 30
0.0
 10
10.9359725433
 20
9.087659219
 30
0.0
 10
10.9060282683
 20
9.0967103616
 30
0.0
 10
10.8764774539
 20
9.1072464937
 30
0.0
 10
10.8473963482
 20
9.1192403911
 30
0.0
 10
10.8188600261
 20
9.1326610252
 30
0.0
 10
10.7909421424
 20
9.1474737109
 30
0.0
 10
10.7637147568
 20
9.1636401712
 30
0.0
 10
10.7372481415
 20
9.1811186372
 30
0.0
 10
10.7116106046
 20
9.1998639601
 30
0.0
 10
10.6868683149
 20
9.219827729
 30
0.0
 10
10.6630851326
 20
9.2409583945
 30
0.0
 10
10.6403224455
 20
9.2632014017
 30
0.0
 10
10.6186390114
 20
9.2864993301
 30
0.0
 10
10.5980908073
 20
9.3107920409
 30
0.0
 10
10.578730886
 20
9.336016831
 30
0.0
 10
10.5606092399
 20
9.3621085947
 30
0.0
 10
10.5437726661
 20
9.3889999861
 30
0.0
 10
10.5282646496
 20
9.4166215964
 30
0.0
 10
10.514125254
 20
9.4449021328
 30
0.0
 10
10.5013910172
 20
9.4737686011
 30
0.0
 10
10.4900948582
 20
9.503146493
 30
0.0
 10
10.4802659915
 20
9.5329599761
 30
0.0
 10
10.4719298521
 20
9.5631320909
 30
0.0
 10
10.4651080282
 20
9.5935849383
 30
0.0
 10
10.4598182085
 20
9.6242399136
 30
0.0
 10
10.4560741201
 20
9.6550177822
 30
0.0
 10
10.4538855221
 20
9.6858393463
 30
0.0
 10
10.4532580876
 20
9.7166239361
 30
0.0
 10
10.4538829515
 20
9.737107914
 30
0.0
 10
10.4544567408
 20
9.7473152337
 30
0.0
  0
SPLINE
  5
352
100
AcDbEntity
  8
0
100
AcDbSpline
 62
7
  6
CONTINUOUS
 70
0
 71
3
 72
39
 73
35
 74
0
 42
0.0000001
 43
0.0000001
 44
0.0000000001
 40
0.0
 40
0.0
 40
0.0
 40
0.0
 40
0.0306944176
 40
0.0614946227
 40
0.0923974308
 40
0.1234000935
 40
0.1544980211
 40
0.185686055
 40
0.2169580481
 40
0.2483070881
 40
0.2797255232
 40
0.3112050506
 40
0.3427367957
 40
0.3743113988
 40
0.4059191033
 40
0.4375498473
 40
0.4691933569
 40
0.5008392405
 40
0.5324770847
 40
0.5640965494
 40
0.5956874638
 40
0.6272399205
 40
0.6587443678
 40
0.6901916999
 40
0.7215733438
 40
0.7528813425
 40
0.784108434
 40
0.8152481255
 40
0.8462947618
 40
0.8772435877
 40
0.9080908025
 40
0.938833606
 40
0.9694702368
 40
1.0
 40
1.0
 40
1.0
 40
1.0
 10
11.0633569725
 20
9.091290198
 30
0.0
 10
11.0534995603
 20
9.0919738119
 30
0.0
 10
11.0337816992
 20
9.0938403299
 30
0.0
 10
11.0043346314
 20
9.0981171918
 30
0.0
 10
10.9750373109
 20
9.1038654549
 30
0.0
 10
10.9459653298
 20
9.1110701794
 30
0.0
 10
10.917192204
 20
9.1197131417
 30
0.0
 10
10.8887911785
 20
9.1297722335
 30
0.0
 10
10.8608343957
 20
9.1412218698
 30
0.0
 10
10.8333929074
 20
9.1540328903
 30
0.0
 10
10.8065364435
 20
9.1681727018
 30
0.0
 10
10.7803332462
 20
9.1836053305
 30
0.0
 10
10.7548498929
 20
9.2002915214
 30
0.0
 10
10.7301511324
 20
9.2181888422
 30
0.0
 10
10.7062997202
 20
9.2372517897
 30
0.0
 10
10.683356261
 20
9.2574319059
 30
0.0
 10
10.6613790554
 20
9.2786778996
 30
0.0
 10
10.6404239528
 20
9.3009357763
 30
0.0
 10
10.6205442103
 20
9.3241489746
 30
0.0
 10
10.6017903585
 20
9.3482585093
 30
0.0
 10
10.5842100657
 20
9.3732031148
 30
0.0
 10
10.5678480229
 20
9.398919406
 30
0.0
 10
10.5527458324
 20
9.4253420389
 30
0.0
 10
10.5389419015
 20
9.4524038757
 30
0.0
 10
10.5264713461
 20
9.4800361537
 30
0.0
 10
10.5153659013
 20
9.5081686592
 30
0.0
 10
10.5056538406
 20
9.5367299034
 30
0.0
 10
10.4973599051
 20
9.5656473059
 30
0.0
 10
10.4905052354
 20
9.5948473675
 30
0.0
 10
10.4851073142
 20
9.6242558878
 30
0.0
 10
10.4811799262
 20
9.6537980379
 30
0.0
 10
10.4787331336
 20
9.683398984
 30
0.0
 10
10.4777732033
 20
9.7129824597
 30
0.0
 10
10.4781268584
 20
9.7326797909
 30
0.0
 10
10.478552955
 20
9.7424986327
 30
0.0
  0
SPLINE
  5
353
100
AcDbEntity
  8
0
100
AcDbSpline
 62
7
  6
CONTINUOUS
 70
0
 71
3
 72
41
 73
37
 74
0
 42
0.0000001
 43
0.0000001
 44
0.0000000001
 40
0.0
 40
0.0
 40
0.0
 40
0.0
 40
0.0311447108
 40
0.0467774295
 40
0.0624475249
 40
0.0938924651
 40
0.1254747955
 40
0.1571823865
 40
0.1890004527
 40
0.2209120576
 40
0.2528984154
 40
0.2689156901
 40
0.2849439669
 40
0.3170180467
 40
0.3491033961
 40
0.3811778561
 40
0.4132194776
 40
0.4452069463
 40
0.4771199982
 40
0.5089398211
 40
0.5406494354
 40
0.5722340478
 40
0.6036813723
 40
0.6349819093
 40
0.666129179
 40
0.6971198991
 40
0.7279541027
 40
0.7586351871
 40
0.7891698911
 40
0.819568195
 40
0.8498431417
 40
0.8800105805
 40
0.9100888347
 40
0.9400983003
 40
0.9700609852
 40
1.0
 40
1.0
 40
1.0
 40
1.0
 10
9.5712250019
 20
5.8636947182
 30
0.0
 10
9.5642196617
 20
5.8641805402
 30
0.0
 10
9.553719612
 20
5.8652945301
 30
0.0
 10
9.5398165932
 20
5.8675331999
 30
0.0
 10
9.5259356565
 20
5.8702816106
 30
0.0
 10
9.5087234941
 20
5.8746586817
 30
0.0
 10
9.4884296906
 20
5.8813771648
 30
0.0
 10
9.4685780626
 20
5.8895322188
 30
0.0
 10
9.4492749128
 20
5.8990802258
 30
0.0
 10
9.4306234238
 20
5.9099698024
 30
0.0
 10
9.4157111717
 20
5.9201108715
 30
0.0
 10
9.4042033111
 20
5.9288328026
 30
0.0
 10
9.3929848771
 20
5.9379553882
 30
0.0
 10
9.379548685
 20
5.9500756716
 30
0.0
 10
9.3644537265
 20
5.965684893
 30
0.0
 10
9.3504616739
 20
5.9822810533
 30
0.0
 10
9.3376476193
 20
5.9997753097
 30
0.0
 10
9.3260797745
 20
6.0180745492
 30
0.0
 10
9.3158199037
 20
6.0370812391
 30
0.0
 10
9.3069227843
 20
6.0566941117
 30
0.0
 10
9.2994359723
 20
6.0768086516
 30
0.0
 10
9.2933995338
 20
6.0973176572
 30
0.0
 10
9.2888458336
 20
6.1181118014
 30
0.0
 10
9.2857993583
 20
6.1390802067
 30
0.0
 10
9.2842765805
 20
6.1601110288
 30
0.0
 10
9.2842858645
 20
6.1810920453
 30
0.0
 10
9.2858274079
 20
6.2019112485
 30
0.0
 10
9.2888932307
 20
6.2224574395
 30
0.0
 10
9.2934672071
 20
6.2426208192
 30
0.0
 10
9.2995251392
 20
6.2622935776
 30
0.0
 10
9.3070348627
 20
6.2813704651
 30
0.0
 10
9.315956442
 20
6.299749398
 30
0.0
 10
9.326242236
 20
6.3173318842
 30
0.0
 10
9.3378376528
 20
6.3340240544
 30
0.0
 10
9.3506795472
 20
6.3497353574
 30
0.0
 10
9.3600301487
 20
6.3595036411
 30
0.0
 10
9.3648853476
 20
6.3641934011
 30
0.0
  0
SPLINE
  5
354
100
AcDbEntity
  8
0
100
AcDbSpline
 62
7
  6
CONTINUOUS
 70
0
 71
3
 72
37
 73
33
 74
0
 42
0.0000001
 43
0.0000001
 44
0.0000000001
 40
0.0
 40
0.0
 40
0.0
 40
0.0
 40
0.0306765619
 40
0.0614568459
 40
0.0923369839
 40
0.1233149803
 40
0.1543863442
 40
0.1855462858
 40
0.2167890597
 40
0.2481081816
 40
0.2794964863
 40
0.3109461821
 40
0.3424489312
 40
0.3739959228
 40
0.4055779547
 40
0.437185518
 40
0.5004214752
 40
0.5636414651
 40
0.5952292152
 40
0.6267837522
 40
0.6582958095
 40
0.6897564941
 40
0.721157368
 40
0.7524905279
 40
0.7837486785
 40
0.8149252017
 40
0.8460142204
 40
0.877010658
 40
0.9079102953
 40
0.9387098172
 40
0.9694068517
 40
1.0
 40
1.0
 40
1.0
 40
1.0
 10
11.0633569725
 20
9.1936783417
 30
0.0
 10
11.0554167791
 20
9.194228996
 30
0.0
 10
11.0395339383
 20
9.1957229473
 30
0.0
 10
11.0158102693
 20
9.1991256677
 30
0.0
 10
10.9922015342
 20
9.2036861181
 30
0.0
 10
10.9687659049
 20
9.2093928687
 30
0.0
 10
10.9455597827
 20
9.2162322505
 30
0.0
 10
10.922639519
 20
9.2241875734
 30
0.0
 10
10.9000606042
 20
9.2332395483
 30
0.0
 10
10.8778777355
 20
9.243366188
 30
0.0
 10
10.8561446387
 20
9.2545429254
 30
0.0
 10
10.8349139626
 20
9.2667426519
 30
0.0
 10
10.8142371045
 20
9.2799358308
 30
0.0
 10
10.7941642681
 20
9.2940903734
 30
0.0
 10
10.7747436305
 20
9.3091724009
 30
0.0
 10
10.749782275
 20
9.3304688793
 30
0.0
 10
10.7204475845
 20
9.3592161954
 30
0.0
 10
10.6938776244
 20
9.3905299863
 30
0.0
 10
10.6744347767
 20
9.416940393
 30
0.0
 10
10.6607967862
 20
9.4373753161
 30
0.0
 10
10.64813475
 20
9.4583899072
 30
0.0
 10
10.636478965
 20
9.4799337347
 30
0.0
 10
10.6258578055
 20
9.5019544942
 30
0.0
 10
10.6162969843
 20
9.5243988723
 30
0.0
 10
10.6078196982
 20
9.5472124929
 30
0.0
 10
10.6004465192
 20
9.5703400979
 30
0.0
 10
10.5941953595
 20
9.5937256582
 30
0.0
 10
10.5890814256
 20
9.6173125355
 30
0.0
 10
10.5851171416
 20
9.6410435205
 30
0.0
 10
10.5823121529
 20
9.6648613147
 30
0.0
 10
10.580673315
 20
9.6887074341
 30
0.0
 10
10.580360331
 20
9.7046141238
 30
0.0
 10
10.5804000812
 20
9.7125516465
 30
0.0
  0
SPLINE
  5
355
100
AcDbEntity
  8
0
100
AcDbSpline
 62
7
  6
CONTINUOUS
 70
0
 71
3
 72
71
 73
67
 74
0
 42
0.0000001
 43
0.0000001
 44
0.0000000001
 40
0.0
 40
0.0
 40
0.0
 40
0.0
 40
0.0156748284
 40
0.0314021605
 40
0.0471806558
 40
0.0630088915
 40
0.0788847439
 40
0.0948057527
 40
0.1107690085
 40
0.1267712319
 40
0.1428087898
 40
0.1588777347
 40
0.1749738405
 40
0.1910926414
 40
0.2072294724
 40
0.2233795107
 40
0.239537818
 40
0.2556993843
 40
0.2718591712
 40
0.2880121557
 40
0.3041533741
 40
0.3202779654
 40
0.3363812138
 40
0.3524585909
 40
0.368505796
 40
0.3845187958
 40
0.4004938614
 40
0.4164276039
 40
0.4323170078
 40
0.448159461
 40
0.4639527825
 40
0.4796952463
 40
0.4953856017
 40
0.5110230901
 40
0.5266074569
 40
0.5421389589
 40
0.5576183674
 40
0.5730469657
 40
0.5884265413
 40
0.6037593734
 40
0.619048214
 40
0.6342962646
 40
0.6495071467
 40
0.6646848675
 40
0.6798337809
 40
0.6949585439
 40
0.710064069
 40
0.7251554728
 40
0.7402380225
 40
0.75531708
 40
0.7703980444
 40
0.7854862945
 40
0.8005871312
 40
0.815705721
 40
0.8308470418
 40
0.8460158305
 40
0.8612165348
 40
0.8764532681
 40
0.8917297694
 40
0.9070493658
 40
0.9224149473
 40
0.937828925
 40
0.9532932602
 40
0.9688093114
 40
0.9843781663
 40
1.0
 40
1.0
 40
1.0
 40
1.0
 10
10.3619373139
 20
8.2349975317
 30
0.0
 10
10.3494145181
 20
8.2358659906
 30
0.0
 10
10.3243653371
 20
8.2382201203
 30
0.0
 10
10.2869493221
 20
8.2435779785
 30
0.0
 10
10.249713523
 20
8.2507558717
 30
0.0
 10
10.2127488721
 20
8.2597362287
 30
0.0
 10
10.1761439668
 20
8.2704974682
 30
0.0
 10
10.1399870452
 20
8.2830135534
 30
0.0
 10
10.1043651084
 20
8.2972543156
 30
0.0
 10
10.069363907
 20
8.3131854044
 30
0.0
 10
10.0350676827
 20
8.3307684231
 30
0.0
 10
10.0015589801
 20
8.3499610008
 30
0.0
 10
9.9689184464
 20
8.3707169016
 30
0.0
 10
9.9372246389
 20
8.392986133
 30
0.0
 10
9.906553837
 20
8.4167150674
 30
0.0
 10
9.8769798592
 20
8.4418465694
 30
0.0
 10
9.848573885
 20
8.4683201316
 30
0.0
 10
9.8214042856
 20
8.4960720225
 30
0.0
 10
9.7955364605
 20
8.5250354385
 30
0.0
 10
9.7710326805
 20
8.5551406641
 30
0.0
 10
9.7479519385
 20
8.5863152393
 30
0.0
 10
9.7263498083
 20
8.6184841325
 30
0.0
 10
9.7062783112
 20
8.6515699208
 30
0.0
 10
9.6877857912
 20
8.6854929748
 30
0.0
 10
9.6709167988
 20
8.7201716496
 30
0.0
 10
9.6557119843
 20
8.7555224797
 30
0.0
 10
9.6422079995
 20
8.7914603791
 30
0.0
 10
9.63043741
 20
8.8278988448
 30
0.0
 10
9.6204286149
 20
8.8647501631
 30
0.0
 10
9.612205777
 20
8.9019256199
 30
0.0
 10
9.6057887667
 20
8.9393357135
 30
0.0
 10
9.6011931123
 20
8.9768903686
 30
0.0
 10
9.5984299623
 20
9.0144991522
 30
0.0
 10
9.5975060569
 20
9.0520714897
 30
0.0
 10
9.5984237104
 20
9.0895168821
 30
0.0
 10
9.6011808036
 20
9.1267451232
 30
0.0
 10
9.6057707874
 20
9.163666516
 30
0.0
 10
9.6121826958
 20
9.2001920883
 30
0.0
 10
9.6204011706
 20
9.2362338071
 30
0.0
 10
9.6304064957
 20
9.2717047912
 30
0.0
 10
9.6421746426
 20
9.3065195207
 30
0.0
 10
9.6556773238
 20
9.3405940454
 30
0.0
 10
9.6708820596
 20
9.3738461887
 30
0.0
 10
9.6877522562
 20
9.4061957472
 30
0.0
 10
9.7062472922
 20
9.4375646864
 30
0.0
 10
9.7263226151
 20
9.4678773309
 30
0.0
 10
9.7479298489
 20
9.4970605499
 30
0.0
 10
9.7710169098
 20
9.5250439364
 30
0.0
 10
9.7955281326
 20
9.5517599794
 30
0.0
 10
9.8214044063
 20
9.5771442295
 30
0.0
 10
9.8485833175
 20
9.6011354568
 30
0.0
 10
9.8769993034
 20
9.6236758006
 30
0.0
 10
9.9065838119
 20
9.6447109101
 30
0.0
 10
9.9372654698
 20
9.6641900771
 30
0.0
 10
9.9689702561
 20
9.6820663606
 30
0.0
 10
10.0016216848
 20
9.6982966992
 30
0.0
 10
10.0351409925
 20
9.712842013
 30
0.0
 10
10.0694473309
 20
9.7256672978
 30
0.0
 10
10.1044579631
 20
9.7367417055
 30
0.0
 10
10.1400884688
 20
9.7460386239
 30
0.0
 10
10.1762529339
 20
9.7535357194
 30
0.0
 10
10.2128642167
 20
9.7592150348
 30
0.0
 10
10.249833955
 20
9.7630629323
 30
0.0
 10
10.2870734589
 20
9.7650702954
 30
0.0
 10
10.3244917297
 20
9.7652323464
 30
0.0
 10
10.3494568561
 20
9.764111751
 30
0.0
 10
10.3619373139
 20
9.7632462283
 30
0.0
  0
SPLINE
  5
356
100
AcDbEntity
  8
0
100
AcDbSpline
 62
7
  6
CONTINUOUS
 70
0
 71
3
 72
30
 73
26
 74
0
 42
0.0000001
 43
0.0000001
 44
0.0000000001
 40
0.0
 40
0.0
 40
0.0
 40
0.0
 40
0.1118636097
 40
0.2181282012
 40
0.317468428
 40
0.4090976369
 40
0.4927286835
 40
0.5684519569
 40
0.636602008
 40
0.6976503098
 40
0.7256805158
 40
0.7521395026
 40
0.7770987362
 40
0.8006298058
 40
0.8228049713
 40
0.8436981905
 40
0.8633831977
 40
0.8819370188
 40
0.8994388102
 40
0.9159702425
 40
0.9316188098
 40
0.9464759402
 40
0.9741872785
 40
0.9872775286
 40
1.0
 40
1.0
 40
1.0
 40
1.0
 10
10.5673610501
 20
8.442191943
 30
0.0
 10
10.5713577291
 20
8.4419147724
 30
0.0
 10
10.5791460342
 20
8.4412980147
 30
0.0
 10
10.5904594038
 20
8.4401574989
 30
0.0
 10
10.6010240001
 20
8.4388418035
 30
0.0
 10
10.6107495644
 20
8.4373736192
 30
0.0
 10
10.619596236
 20
8.4357740052
 30
0.0
 10
10.62756365
 20
8.4340607062
 30
0.0
 10
10.6346771492
 20
8.4322475596
 30
0.0
 10
10.6400699567
 20
8.4306188862
 30
0.0
 10
10.643981033
 20
8.429266437
 30
0.0
 10
10.6466433709
 20
8.4282612533
 30
0.0
 10
10.6491248733
 20
8.4272367201
 30
0.0
 10
10.6514310983
 20
8.4261932035
 30
0.0
 10
10.6535673209
 20
8.4251309192
 30
0.0
 10
10.65553863
 20
8.4240502178
 30
0.0
 10
10.6573496805
 20
8.4229510576
 30
0.0
 10
10.6590049167
 20
8.4218335791
 30
0.0
 10
10.6605084843
 20
8.4206977923
 30
0.0
 10
10.6618639913
 20
8.4195435496
 30
0.0
 10
10.6630751425
 20
8.4183706232
 30
0.0
 10
10.6644688495
 20
8.4168185096
 30
0.0
 10
10.6656334751
 20
8.4151875922
 30
0.0
 10
10.6665312345
 20
8.4134915425
 30
0.0
 10
10.6668877075
 20
8.4126367953
 30
0.0
 10
10.6670427289
 20
8.4122083353
 30
0.0
  0
SPLINE
  5
357
100
AcDbEntity
  8
0
100
AcDbSpline
 62
7
  6
CONTINUOUS
 70
0
 71
3
 72
26
 73
22
 74
0
 42
0.0000001
 43
0.0000001
 44
0.0000000001
 40
0.0
 40
0.0
 40
0.0
 40
0.0
 40
0.0638611465
 40
0.0957115542
 40
0.1275058562
 40
0.1909251488
 40
0.2541286208
 40
0.3171223441
 40
0.379914866
 40
0.4425167416
 40
0.5049405854
 40
0.5672009069
 40
0.6293139847
 40
0.6912976986
 40
0.7222497769
 40
0.7531768549
 40
0.8149609457
 40
0.876676982
 40
0.9075191937
 40
0.9383527857
 40
1.0
 40
1.0
 40
1.0
 40
1.0
 10
10.367610703
 20
8.2492479125
 30
0.0
 10
10.3802196298
 20
8.2483734804
 30
0.0
 10
10.3991544161
 20
8.2475337941
 30
0.0
 10
10.4243913825
 20
8.2473678746
 30
0.0
 10
10.4495375339
 20
8.2478368656
 30
0.0
 10
10.4808553623
 20
8.2496109904
 30
0.0
 10
10.5181827096
 20
8.2536418702
 30
0.0
 10
10.5551322264
 20
8.2595628991
 30
0.0
 10
10.5916102821
 20
8.2673592309
 30
0.0
 10
10.6275251882
 20
8.27701136
 30
0.0
 10
10.6627864023
 20
8.2884950428
 30
0.0
 10
10.6973052625
 20
8.3017815417
 30
0.0
 10
10.7309942295
 20
8.3168371311
 30
0.0
 10
10.7583207651
 20
8.3308338454
 30
0.0
 10
10.7796777565
 20
8.3428740393
 30
0.0
 10
10.8006720342
 20
8.3554595084
 30
0.0
 10
10.8262486248
 20
8.3722205146
 30
0.0
 10
10.8508768451
 20
8.3903179728
 30
0.0
 10
10.8699601139
 20
8.4055614228
 30
0.0
 10
10.8886162782
 20
8.4213026566
 30
0.0
 10
10.902126908
 20
8.43366824
 30
0.0
 10
10.9109025526
 20
8.4421448758
 30
0.0
  0
SPLINE
  5
358
100
AcDbEntity
  8
0
100
AcDbSpline
 62
7
  6
CONTINUOUS
 70
0
 71
3
 72
23
 73
19
 74
0
 42
0.0000001
 43
0.0000001
 44
0.0000000001
 40
0.0
 40
0.0
 40
0.0
 40
0.0
 40
0.0637755068
 40
0.1273532219
 40
0.1907318349
 40
0.2539158788
 40
0.3169090871
 40
0.3797176987
 40
0.4423492535
 40
0.5048128508
 40
0.567119034
 40
0.6292797047
 40
0.6913080365
 40
0.7532183636
 40
0.8150260626
 40
0.8767474235
 40
0.9383995082
 40
1.0
 40
1.0
 40
1.0
 40
1.0
 10
10.591012605
 20
8.5104361086
 30
0.0
 10
10.6016629535
 20
8.5096975044
 30
0.0
 10
10.6229668121
 20
8.5086988326
 30
0.0
 10
10.6549053952
 20
8.5086445225
 30
0.0
 10
10.6867153418
 20
8.5100364121
 30
0.0
 10
10.7183309386
 20
8.5128715652
 30
0.0
 10
10.7496883588
 20
8.5171444151
 30
0.0
 10
10.7807237271
 20
8.52284627
 30
0.0
 10
10.8113739959
 20
8.5299656361
 30
0.0
 10
10.8415768468
 20
8.5384880759
 30
0.0
 10
10.8712708758
 20
8.54839631
 30
0.0
 10
10.9003957048
 20
8.5596702432
 30
0.0
 10
10.9288921001
 20
8.5722869972
 30
0.0
 10
10.9567021159
 20
8.5862209775
 30
0.0
 10
10.9837691268
 20
8.6014438523
 30
0.0
 10
11.0100382812
 20
8.6179248397
 30
0.0
 10
11.0354554021
 20
8.6356298553
 30
0.0
 10
11.0518047488
 20
8.6482307188
 30
0.0
 10
11.0598179023
 20
8.6547209656
 30
0.0
  0
SPLINE
  5
359
100
AcDbEntity
  8
0
100
AcDbSpline
 62
7
  6
CONTINUOUS
 70
0
 71
3
 72
41
 73
37
 74
0
 42
0.0000001
 43
0.0000001
 44
0.0000000001
 40
0.0
 40
0.0
 40
0.0
 40
0.0
 40
0.0311447108
 40
0.0467774295
 40
0.0624475249
 40
0.0938924651
 40
0.1254747955
 40
0.1571823865
 40
0.1890004527
 40
0.2209120576
 40
0.2528984154
 40
0.2689156901
 40
0.2849439669
 40
0.3170180467
 40
0.3491033961
 40
0.3811778561
 40
0.4132194776
 40
0.4452069463
 40
0.4771199982
 40
0.5089398211
 40
0.5406494354
 40
0.5722340478
 40
0.6036813723
 40
0.6349819093
 40
0.666129179
 40
0.6971198991
 40
0.7279541027
 40
0.7586351871
 40
0.7891698911
 40
0.819568195
 40
0.8498431417
 40
0.8800105805
 40
0.9100888347
 40
0.9400983003
 40
0.9700609852
 40
1.0
 40
1.0
 40
1.0
 40
1.0
 10
9.5712250019
 20
7.7955465141
 30
0.0
 10
9.5642196617
 20
7.796032336
 30
0.0
 10
9.553719612
 20
7.7971463259
 30
0.0
 10
9.5398165932
 20
7.7993849958
 30
0.0
 10
9.5259356565
 20
7.8021334065
 30
0.0
 10
9.5087234941
 20
7.8065104775
 30
0.0
 10
9.4884296906
 20
7.8132289606
 30
0.0
 10
9.4685780626
 20
7.8213840147
 30
0.0
 10
9.4492749128
 20
7.8309320216
 30
0.0
 10
9.4306234238
 20
7.8418215982
 30
0.0
 10
9.4157111717
 20
7.8519626673
 30
0.0
 10
9.4042033111
 20
7.8606845984
 30
0.0
 10
9.3929848771
 20
7.8698071841
 30
0.0
 10
9.379548685
 20
7.8819274674
 30
0.0
 10
9.3644537265
 20
7.8975366888
 30
0.0
 10
9.3504616739
 20
7.9141328491
 30
0.0
 10
9.3376476193
 20
7.9316271055
 30
0.0
 10
9.3260797745
 20
7.949926345
 30
0.0
 10
9.3158199037
 20
7.9689330349
 30
0.0
 10
9.3069227843
 20
7.9885459075
 30
0.0
 10
9.2994359723
 20
8.0086604474
 30
0.0
 10
9.2933995338
 20
8.0291694531
 30
0.0
 10
9.2888458336
 20
8.0499635972
 30
0.0
 10
9.2857993583
 20
8.0709320025
 30
0.0
 10
9.2842765805
 20
8.0919628246
 30
0.0
 10
9.2842858645
 20
8.1129438411
 30
0.0
 10
9.2858274079
 20
8.1337630443
 30
0.0
 10
9.2888932307
 20
8.1543092354
 30
0.0
 10
9.2934672071
 20
8.174472615
 30
0.0
 10
9.2995251392
 20
8.1941453735
 30
0.0
 10
9.3070348627
 20
8.2132222609
 30
0.0
 10
9.315956442
 20
8.2316011938
 30
0.0
 10
9.326242236
 20
8.24918368
 30
0.0
 10
9.3378376528
 20
8.2658758502
 30
0.0
 10
9.3506795472
 20
8.2815871532
 30
0.0
 10
9.3600301487
 20
8.291355437
 30
0.0
 10
9.3648853476
 20
8.296045197
 30
0.0
  0
SPLINE
  5
35A
100
AcDbEntity
  8
0
100
AcDbSpline
 62
7
  6
CONTINUOUS
 70
0
 71
3
 72
23
 73
19
 74
0
 42
0.0000001
 43
0.0000001
 44
0.0000000001
 40
0.0
 40
0.0
 40
0.0
 40
0.0
 40
0.0638102813
 40
0.1274139875
 40
0.1908103261
 40
0.2540040807
 40
0.31699969
 40
0.3798042552
 40
0.4424263664
 40
0.5048763741
 40
0.5671662311
 40
0.6293094021
 40
0.691320749
 40
0.7532163955
 40
0.81501358
 40
0.876730494
 40
0.93838611
 40
1.0
 40
1.0
 40
1.0
 40
1.0
 10
10.5977369155
 20
8.5314201824
 30
0.0
 10
10.6086155135
 20
8.530665749
 30
0.0
 10
10.6303761835
 20
8.5296665187
 30
0.0
 10
10.6629958487
 20
8.5297056835
 30
0.0
 10
10.695472642
 20
8.5312852429
 30
0.0
 10
10.7277336581
 20
8.5344016253
 30
0.0
 10
10.7597080322
 20
8.5390481452
 30
0.0
 10
10.7913249532
 20
8.5452145301
 30
0.0
 10
10.8225145726
 20
8.5528872575
 30
0.0
 10
10.8532079228
 20
8.5620494262
 30
0.0
 10
10.883337142
 20
8.5726808355
 30
0.0
 10
10.9128356056
 20
8.584758034
 30
0.0
 10
10.9416380712
 20
8.5982543645
 30
0.0
 10
10.9696808477
 20
8.6131400442
 30
0.0
 10
10.9969018453
 20
8.6293821476
 30
0.0
 10
11.023241054
 20
8.6469449822
 30
0.0
 10
11.0486394153
 20
8.6657890329
 30
0.0
 10
11.0649126801
 20
8.6791829209
 30
0.0
 10
11.0728714101
 20
8.686076863
 30
0.0
  0
SPLINE
  5
35B
100
AcDbEntity
  8
0
100
AcDbSpline
 62
7
  6
CONTINUOUS
 70
0
 71
3
 72
23
 73
19
 74
0
 42
0.0000001
 43
0.0000001
 44
0.0000000001
 40
0.0
 40
0.0
 40
0.0
 40
0.0
 40
0.0637248852
 40
0.1272642738
 40
0.1906153037
 40
0.2537827118
 40
0.3167693191
 40
0.3795802431
 40
0.4422218246
 40
0.5047016102
 40
0.5670284252
 40
0.6292122478
 40
0.6912641686
 40
0.7531963056
 40
0.8150217111
 40
0.8767542744
 40
0.938408621
 40
1.0
 40
1.0
 40
1.0
 40
1.0
 10
10.6396705453
 20
8.5719249608
 30
0.0
 10
10.649505257
 20
8.5712429213
 30
0.0
 10
10.6691773984
 20
8.570295436
 30
0.0
 10
10.6986739204
 20
8.5701304369
 30
0.0
 10
10.7280649403
 20
8.5712241881
 30
0.0
 10
10.7572963842
 20
8.5735745462
 30
0.0
 10
10.786315923
 20
8.5771774826
 30
0.0
 10
10.8150710105
 20
8.5820264712
 30
0.0
 10
10.8435097609
 20
8.5881127777
 30
0.0
 10
10.8715808134
 20
8.5954254595
 30
0.0
 10
10.8992334606
 20
8.6039513631
 30
0.0
 10
10.9264177469
 20
8.6136751457
 30
0.0
 10
10.9530845706
 20
8.6245792439
 30
0.0
 10
10.9791857703
 20
8.6366439979
 30
0.0
 10
11.0046741385
 20
8.6498476186
 30
0.0
 10
11.029503773
 20
8.6641664283
 30
0.0
 10
11.0536291869
 20
8.6795741047
 30
0.0
 10
11.0692224669
 20
8.6905590428
 30
0.0
 10
11.0768852182
 20
8.6962221071
 30
0.0
  0
SPLINE
  5
35C
100
AcDbEntity
  8
0
100
AcDbSpline
 62
7
  6
CONTINUOUS
 70
0
 71
3
 72
15
 73
11
 74
0
 42
0.0000001
 43
0.0000001
 44
0.0000000001
 40
0.0
 40
0.0
 40
0.0
 40
0.0
 40
0.1232972121
 40
0.2469592636
 40
0.3710607395
 40
0.495666173
 40
0.6208287228
 40
0.7465890756
 40
0.8729748683
 40
1.0
 40
1.0
 40
1.0
 40
1.0
 10
9.8572109132
 20
10.0150802306
 30
0.0
 10
9.8532313175
 20
10.0127329048
 30
0.0
 10
9.8450742946
 20
10.0083389694
 30
0.0
 10
9.8323488798
 20
10.0027027503
 30
0.0
 10
9.8191824359
 20
9.9980407066
 30
0.0
 10
9.8056458951
 20
9.9943780321
 30
0.0
 10
9.7918110116
 20
9.9917338703
 30
0.0
 10
9.7777510796
 20
9.9901221497
 30
0.0
 10
9.7635416974
 20
9.989551179
 30
0.0
 10
9.7540409487
 20
9.9898656425
 30
0.0
 10
9.749292364
 20
9.9901949579
 30
0.0
  0
SPLINE
  5
35D
100
AcDbEntity
  8
0
100
AcDbSpline
 62
7
  6
CONTINUOUS
 70
0
 71
3
 72
24
 73
20
 74
0
 42
0.0000001
 43
0.0000001
 44
0.0000000001
 40
0.0
 40
0.0
 40
0.0
 40
0.0
 40
0.063822185
 40
0.1274344949
 40
0.1908364594
 40
0.2540328776
 40
0.3170284989
 40
0.3798307501
 40
0.4424486339
 40
0.504892988
 40
0.5671763115
 40
0.6293126742
 40
0.6913175888
 40
0.7532078662
 40
0.8150014572
 40
0.876717278
 40
0.9075546635
 40
0.9383800462
 40
1.0
 40
1.0
 40
1.0
 40
1.0
 10
10.651705621
 20
8.6284655055
 30
0.0
 10
10.6620352217
 20
8.6277491453
 30
0.0
 10
10.6826977998
 20
8.6268076325
 30
0.0
 10
10.7136700315
 20
8.6268779385
 30
0.0
 10
10.7445024664
 20
8.6284330032
 30
0.0
 10
10.775123809
 20
8.6314692311
 30
0.0
 10
10.8054647236
 20
8.6359798921
 30
0.0
 10
10.8354559776
 20
8.6419547167
 30
0.0
 10
10.8650292924
 20
8.6493801976
 30
0.0
 10
10.8941172813
 20
8.6582394812
 30
0.0
 10
10.9226536654
 20
8.6685124475
 30
0.0
 10
10.9505734237
 20
8.6801757467
 30
0.0
 10
10.9778128978
 20
8.6932028328
 30
0.0
 10
11.0043101029
 20
8.7075641401
 30
0.0
 10
11.0300042584
 20
8.7232267035
 30
0.0
 10
11.0507046906
 20
8.7373380958
 30
0.0
 10
11.0668020804
 20
8.7492386261
 30
0.0
 10
11.0825780078
 20
8.7615361781
 30
0.0
 10
11.0940515343
 20
8.7712089158
 30
0.0
 10
11.1015276463
 20
8.7778459515
 30
0.0
  0
SPLINE
  5
35E
100
AcDbEntity
  8
0
100
AcDbSpline
 62
7
  6
CONTINUOUS
 70
0
 71
3
 72
41
 73
37
 74
0
 42
0.0000001
 43
0.0000001
 44
0.0000000001
 40
0.0
 40
0.0
 40
0.0
 40
0.0
 40
0.0311447108
 40
0.0467774295
 40
0.0624475249
 40
0.0938924651
 40
0.1254747955
 40
0.1571823865
 40
0.1890004527
 40
0.2209120576
 40
0.2528984154
 40
0.2689156901
 40
0.2849439669
 40
0.3170180467
 40
0.3491033961
 40
0.3811778561
 40
0.4132194776
 40
0.4452069463
 40
0.4771199982
 40
0.5089398211
 40
0.5406494354
 40
0.5722340478
 40
0.6036813723
 40
0.6349819093
 40
0.666129179
 40
0.6971198991
 40
0.7279541027
 40
0.7586351871
 40
0.7891698911
 40
0.819568195
 40
0.8498431417
 40
0.8800105805
 40
0.9100888347
 40
0.9400983003
 40
0.9700609852
 40
1.0
 40
1.0
 40
1.0
 40
1.0
 10
9.5712250019
 20
9.7273980508
 30
0.0
 10
9.5642196617
 20
9.7278838728
 30
0.0
 10
9.553719612
 20
9.7289978626
 30
0.0
 10
9.5398165932
 20
9.7312365325
 30
0.0
 10
9.5259356565
 20
9.7339849432
 30
0.0
 10
9.5087234941
 20
9.7383620143
 30
0.0
 10
9.4884296906
 20
9.7450804974
 30
0.0
 10
9.4685780626
 20
9.7532355514
 30
0.0
 10
9.4492749128
 20
9.7627835584
 30
0.0
 10
9.4306234238
 20
9.773673135
 30
0.0
 10
9.4157111717
 20
9.783814204
 30
0.0
 10
9.4042033111
 20
9.7925361351
 30
0.0
 10
9.3929848771
 20
9.8016587208
 30
0.0
 10
9.379548685
 20
9.8137790041
 30
0.0
 10
9.3644537265
 20
9.8293882256
 30
0.0
 10
9.3504616739
 20
9.8459843858
 30
0.0
 10
9.3376476193
 20
9.8634786422
 30
0.0
 10
9.3260797745
 20
9.8817778817
 30
0.0
 10
9.3158199037
 20
9.9007845716
 30
0.0
 10
9.3069227843
 20
9.9203974443
 30
0.0
 10
9.2994359723
 20
9.9405119842
 30
0.0
 10
9.2933995338
 20
9.9610209898
 30
0.0
 10
9.2888458336
 20
9.9818151339
 30
0.0
 10
9.2857993583
 20
10.0027835393
 30
0.0
 10
9.2842765805
 20
10.0238143614
 30
0.0
 10
9.2842858645
 20
10.0447953779
 30
0.0
 10
9.2858274079
 20
10.0656145811
 30
0.0
 10
9.2888932307
 20
10.0861607721
 30
0.0
 10
9.2934672071
 20
10.1063241518
 30
0.0
 10
9.2995251392
 20
10.1259969102
 30
0.0
 10
9.3070348627
 20
10.1450737977
 30
0.0
 10
9.315956442
 20
10.1634527306
 30
0.0
 10
9.326242236
 20
10.1810352167
 30
0.0
 10
9.3378376528
 20
10.1977273869
 30
0.0
 10
9.3506795472
 20
10.21343869
 30
0.0
 10
9.3600301487
 20
10.2232069737
 30
0.0
 10
9.3648853476
 20
10.2278967337
 30
0.0
  0
SPLINE
  5
35F
100
AcDbEntity
  8
0
100
AcDbSpline
 62
7
  6
CONTINUOUS
 70
0
 71
3
 72
23
 73
19
 74
0
 42
0.0000001
 43
0.0000001
 44
0.0000000001
 40
0.0
 40
0.0
 40
0.0
 40
0.0
 40
0.0616482102
 40
0.1233194434
 40
0.1850364728
 40
0.2468215621
 40
0.3086962116
 40
0.370680925
 40
0.4327950032
 40
0.4950563306
 40
0.5574811832
 40
0.6200840863
 40
0.6828775763
 40
0.7458723561
 40
0.8090769818
 40
0.8724965655
 40
0.9361390263
 40
1.0
 40
1.0
 40
1.0
 40
1.0
 10
9.7775646561
 20
9.8006593427
 30
0.0
 10
9.7742317052
 20
9.7974399607
 30
0.0
 10
9.7673899223
 20
9.7911780097
 30
0.0
 10
9.756635193
 20
9.7823484126
 30
0.0
 10
9.7454134592
 20
9.7741024284
 30
0.0
 10
9.7337533745
 20
9.7664611988
 30
0.0
 10
9.7216842074
 20
9.7594438923
 30
0.0
 10
9.7092364221
 20
9.7530681657
 30
0.0
 10
9.696441383
 20
9.7473500401
 30
0.0
 10
9.6833313258
 20
9.742303904
 30
0.0
 10
9.6699392694
 20
9.7379424661
 30
0.0
 10
9.6562989642
 20
9.7342766507
 30
0.0
 10
9.6424447675
 20
9.7313156305
 30
0.0
 10
9.628411541
 20
9.7290668403
 30
0.0
 10
9.6142347189
 20
9.7275359697
 30
0.0
 10
9.5999496684
 20
9.7267266794
 30
0.0
 10
9.5855930633
 20
9.7266411592
 30
0.0
 10
9.5760137213
 20
9.727065952
 30
0.0
 10
9.5712250019
 20
9.7273980508
 30
0.0
  0
SPLINE
  5
360
100
AcDbEntity
  8
0
100
AcDbSpline
 62
7
  6
CONTINUOUS
 70
0
 71
3
 72
11
 73
7
 74
0
 42
0.0000001
 43
0.0000001
 44
0.0000000001
 40
0.0
 40
0.0
 40
0.0
 40
0.0
 40
0.2515872234
 40
0.5021021677
 40
0.7515632329
 40
1.0
 40
1.0
 40
1.0
 40
1.0
 10
10.9631940847
 20
8.929340275
 30
0.0
 10
10.9765003908
 20
8.9284174796
 30
0.0
 10
11.0031198543
 20
8.9273866269
 30
0.0
 10
11.0429791744
 20
8.9283049171
 30
0.0
 10
11.0825379661
 20
8.9316868394
 30
0.0
 10
11.1086662928
 20
8.9355843673
 30
0.0
 10
11.1216252493
 20
8.937939575
 30
0.0
  0
SPLINE
  5
361
100
AcDbEntity
  8
0
100
AcDbSpline
 62
7
  6
CONTINUOUS
 70
0
 71
3
 72
11
 73
7
 74
0
 42
0.0000001
 43
0.0000001
 44
0.0000000001
 40
0.0
 40
0.0
 40
0.0
 40
0.0
 40
0.2515704794
 40
0.502080522
 40
0.7515474594
 40
1.0
 40
1.0
 40
1.0
 40
1.0
 10
10.9731379845
 20
8.9760565173
 30
0.0
 10
10.9855501514
 20
8.9751957306
 30
0.0
 10
11.0103807443
 20
8.9742259811
 30
0.0
 10
11.047563684
 20
8.9750453768
 30
0.0
 10
11.0844722902
 20
8.978138159
 30
0.0
 10
11.1088557219
 20
8.9817161368
 30
0.0
 10
11.1209514061
 20
8.9838803506
 30
0.0
  0
SPLINE
  5
362
100
AcDbEntity
  8
0
100
AcDbSpline
 62
7
  6
CONTINUOUS
 70
0
 71
3
 72
15
 73
11
 74
0
 42
0.0000001
 43
0.0000001
 44
0.0000000001
 40
0.0
 40
0.0
 40
0.0
 40
0.0
 40
0.1232972121
 40
0.2469592636
 40
0.3710607395
 40
0.495666173
 40
0.6208287228
 40
0.7465890756
 40
0.8729748683
 40
1.0
 40
1.0
 40
1.0
 40
1.0
 10
11.547581123
 20
9.8978526584
 30
0.0
 10
11.5436015273
 20
9.8955053326
 30
0.0
 10
11.5354445044
 20
9.8911113972
 30
0.0
 10
11.5227190896
 20
9.8854751781
 30
0.0
 10
11.5095526457
 20
9.8808131344
 30
0.0
 10
11.4960161049
 20
9.8771504599
 30
0.0
 10
11.4821812214
 20
9.8745062981
 30
0.0
 10
11.4681212894
 20
9.8728945775
 30
0.0
 10
11.4539119072
 20
9.8723236068
 30
0.0
 10
11.4444111585
 20
9.8726380703
 30
0.0
 10
11.4396625738
 20
9.8729673857
 30
0.0
  0
SPLINE
  5
363
100
AcDbEntity
  8
0
100
AcDbSpline
 62
7
  6
CONTINUOUS
 70
0
 71
3
 72
11
 73
7
 74
0
 42
0.0000001
 43
0.0000001
 44
0.0000000001
 40
0.0
 40
0.0
 40
0.0
 40
0.0
 40
0.2515261278
 40
0.5020231219
 40
0.751505513
 40
1.0
 40
1.0
 40
1.0
 40
1.0
 10
10.9788113735
 20
8.990306898
 30
0.0
 10
10.9906939932
 20
8.9894828356
 30
0.0
 10
11.014464899
 20
8.9885337827
 30
0.0
 10
11.0500664817
 20
8.9892240888
 30
0.0
 10
11.0854203313
 20
8.9920282293
 30
0.0
 10
11.1087903165
 20
8.9953075896
 30
0.0
 10
11.1203886098
 20
8.9972965298
 30
0.0
  0
SPLINE
  5
364
100
AcDbEntity
  8
0
100
AcDbSpline
 62
7
  6
CONTINUOUS
 70
0
 71
3
 72
23
 73
19
 74
0
 42
0.0000001
 43
0.0000001
 44
0.0000000001
 40
0.0
 40
0.0
 40
0.0
 40
0.0
 40
0.0616482102
 40
0.1233194434
 40
0.1850364728
 40
0.2468215621
 40
0.3086962116
 40
0.370680925
 40
0.4327950032
 40
0.4950563306
 40
0.5574811832
 40
0.6200840863
 40
0.6828775763
 40
0.7458723561
 40
0.8090769818
 40
0.8724965655
 40
0.9361390263
 40
1.0
 40
1.0
 40
1.0
 40
1.0
 10
11.4679348659
 20
9.6834317705
 30
0.0
 10
11.464601915
 20
9.6802123885
 30
0.0
 10
11.4577601321
 20
9.6739504375
 30
0.0
 10
11.4470054028
 20
9.6651208403
 30
0.0
 10
11.435783669
 20
9.6568748562
 30
0.0
 10
11.4241235843
 20
9.6492336266
 30
0.0
 10
11.4120544172
 20
9.6422163201
 30
0.0
 10
11.3996066319
 20
9.6358405935
 30
0.0
 10
11.3868115928
 20
9.6301224679
 30
0.0
 10
11.3737015356
 20
9.6250763318
 30
0.0
 10
11.3603094792
 20
9.6207148938
 30
0.0
 10
11.3466691741
 20
9.6170490785
 30
0.0
 10
11.3328149773
 20
9.6140880583
 30
0.0
 10
11.3187817508
 20
9.6118392681
 30
0.0
 10
11.3046049287
 20
9.6103083975
 30
0.0
 10
11.2903198782
 20
9.6094991071
 30
0.0
 10
11.2759632731
 20
9.609413587
 30
0.0
 10
11.2663839311
 20
9.6098383798
 30
0.0
 10
11.2615952117
 20
9.6101704786
 30
0.0
  0
SPLINE
  5
365
100
AcDbEntity
  8
0
100
AcDbSpline
 62
7
  6
CONTINUOUS
 70
0
 71
3
 72
15
 73
11
 74
0
 42
0.0000001
 43
0.0000001
 44
0.0000000001
 40
0.0
 40
0.0
 40
0.0
 40
0.0
 40
0.1232972121
 40
0.2469592636
 40
0.3710607395
 40
0.495666173
 40
0.6208287228
 40
0.7465890756
 40
0.8729748683
 40
1.0
 40
1.0
 40
1.0
 40
1.0
 10
11.547581123
 20
7.9660011216
 30
0.0
 10
11.5436015273
 20
7.9636537959
 30
0.0
 10
11.5354445044
 20
7.9592598604
 30
0.0
 10
11.5227190896
 20
7.9536236413
 30
0.0
 10
11.5095526457
 20
7.9489615976
 30
0.0
 10
11.4960161049
 20
7.9452989231
 30
0.0
 10
11.4821812214
 20
7.9426547613
 30
0.0
 10
11.4681212894
 20
7.9410430407
 30
0.0
 10
11.4539119072
 20
7.9404720701
 30
0.0
 10
11.4444111585
 20
7.9407865335
 30
0.0
 10
11.4396625738
 20
7.941115849
 30
0.0
  0
SPLINE
  5
366
100
AcDbEntity
  8
0
100
AcDbSpline
 62
7
  6
CONTINUOUS
 70
0
 71
3
 72
71
 73
67
 74
0
 42
0.0000001
 43
0.0000001
 44
0.0000000001
 40
0.0
 40
0.0
 40
0.0
 40
0.0
 40
0.0156218337
 40
0.0311906886
 40
0.0467067398
 40
0.062171075
 40
0.0775850527
 40
0.0929506342
 40
0.1082702306
 40
0.1235467319
 40
0.1387834652
 40
0.1539841695
 40
0.1691529582
 40
0.184294279
 40
0.1994128688
 40
0.2145137055
 40
0.2296019556
 40
0.24468292
 40
0.2597619775
 40
0.2748445272
 40
0.289935931
 40
0.3050414561
 40
0.3201662191
 40
0.3353151325
 40
0.3504928533
 40
0.3657037354
 40
0.380951786
 40
0.3962406266
 40
0.4115734587
 40
0.4269530343
 40
0.4423816326
 40
0.4578610411
 40
0.4733925431
 40
0.4889769099
 40
0.5046143983
 40
0.5203047537
 40
0.5360472175
 40
0.551840539
 40
0.5676829922
 40
0.5835723961
 40
0.5995061386
 40
0.6154812042
 40
0.631494204
 40
0.6475414091
 40
0.6636187862
 40
0.6797220346
 40
0.6958466259
 40
0.7119878443
 40
0.7281408288
 40
0.7443006157
 40
0.760462182
 40
0.7766204893
 40
0.7927705276
 40
0.8089073586
 40
0.8250261595
 40
0.8411222653
 40
0.8571912102
 40
0.8732287681
 40
0.8892309915
 40
0.9051942473
 40
0.9211152561
 40
0.9369911085
 40
0.9528193442
 40
0.9685978395
 40
0.9843251716
 40
1.0
 40
1.0
 40
1.0
 40
1.0
 10
10.3619373139
 20
8.2349975317
 30
0.0
 10
10.3744177716
 20
8.234132009
 30
0.0
 10
10.3993828981
 20
8.2330114136
 30
0.0
 10
10.4368011689
 20
8.2331734646
 30
0.0
 10
10.4740406728
 20
8.2351808278
 30
0.0
 10
10.511010411
 20
8.2390287253
 30
0.0
 10
10.5476216938
 20
8.2447080407
 30
0.0
 10
10.583786159
 20
8.2522051361
 30
0.0
 10
10.6194166647
 20
8.2615020546
 30
0.0
 10
10.6544272969
 20
8.2725764622
 30
0.0
 10
10.6887336353
 20
8.285401747
 30
0.0
 10
10.722252943
 20
8.2999470608
 30
0.0
 10
10.7549043717
 20
8.3161773994
 30
0.0
 10
10.786609158
 20
8.334053683
 30
0.0
 10
10.8172908158
 20
8.3535328499
 30
0.0
 10
10.8468753243
 20
8.3745679595
 30
0.0
 10
10.8752913102
 20
8.3971083032
 30
0.0
 10
10.9024702214
 20
8.4210995305
 30
0.0
 10
10.9283464951
 20
8.4464837806
 30
0.0
 10
10.952857718
 20
8.4731998236
 30
0.0
 10
10.9759447788
 20
8.5011832101
 30
0.0
 10
10.9975520126
 20
8.5303664291
 30
0.0
 10
11.0176273356
 20
8.5606790736
 30
0.0
 10
11.0361223715
 20
8.5920480128
 30
0.0
 10
11.0529925681
 20
8.6243975714
 30
0.0
 10
11.0681973039
 20
8.6576497147
 30
0.0
 10
11.0816999851
 20
8.6917242393
 30
0.0
 10
11.093468132
 20
8.7265389688
 30
0.0
 10
11.1034734571
 20
8.7620099529
 30
0.0
 10
11.111691932
 20
8.7980516718
 30
0.0
 10
11.1181038404
 20
8.834577244
 30
0.0
 10
11.1226938241
 20
8.8714986368
 30
0.0
 10
11.1254509174
 20
8.9087268779
 30
0.0
 10
11.1263685709
 20
8.9461722703
 30
0.0
 10
11.1254446655
 20
8.9837446078
 30
0.0
 10
11.1226815155
 20
9.0213533914
 30
0.0
 10
11.1180858611
 20
9.0589080466
 30
0.0
 10
11.1116688507
 20
9.0963181401
 30
0.0
 10
11.1034460128
 20
9.1334935969
 30
0.0
 10
11.0934372177
 20
9.1703449152
 30
0.0
 10
11.0816666282
 20
9.2067833809
 30
0.0
 10
11.0681626434
 20
9.2427212804
 30
0.0
 10
11.0529578289
 20
9.2780721105
 30
0.0
 10
11.0360888365
 20
9.3127507852
 30
0.0
 10
11.0175963165
 20
9.3466738393
 30
0.0
 10
10.9975248194
 20
9.3797596275
 30
0.0
 10
10.9759226893
 20
9.4119285208
 30
0.0
 10
10.9528419473
 20
9.4431030959
 30
0.0
 10
10.9283381673
 20
9.4732083215
 30
0.0
 10
10.9024703422
 20
9.5021717375
 30
0.0
 10
10.8753007428
 20
9.5299236284
 30
0.0
 10
10.8468947685
 20
9.5563971907
 30
0.0
 10
10.8173207908
 20
9.5815286926
 30
0.0
 10
10.7866499889
 20
9.605257627
 30
0.0
 10
10.7549561813
 20
9.6275268585
 30
0.0
 10
10.7223156476
 20
9.6482827592
 30
0.0
 10
10.688806945
 20
9.6674753369
 30
0.0
 10
10.6545107207
 20
9.6850583556
 30
0.0
 10
10.6195095194
 20
9.7009894444
 30
0.0
 10
10.5838875826
 20
9.7152302066
 30
0.0
 10
10.5477306609
 20
9.7277462918
 30
0.0
 10
10.5111257556
 20
9.7385075313
 30
0.0
 10
10.4741611047
 20
9.7474878884
 30
0.0
 10
10.4369253056
 20
9.7546657816
 30
0.0
 10
10.3995092906
 20
9.7600236397
 30
0.0
 10
10.3744601097
 20
9.7623777695
 30
0.0
 10
10.3619373139
 20
9.7632462283
 30
0.0
  0
SPLINE
  5
367
100
AcDbEntity
  8
0
100
AcDbSpline
 62
7
  6
CONTINUOUS
 70
0
 71
3
 72
41
 73
37
 74
0
 42
0.0000001
 43
0.0000001
 44
0.0000000001
 40
0.0
 40
0.0
 40
0.0
 40
0.0
 40
0.0311447108
 40
0.0467774295
 40
0.0624475249
 40
0.0938924651
 40
0.1254747955
 40
0.1571823865
 40
0.1890004527
 40
0.2209120576
 40
0.2528984154
 40
0.2689156901
 40
0.2849439669
 40
0.3170180467
 40
0.3491033961
 40
0.3811778561
 40
0.4132194776
 40
0.4452069463
 40
0.4771199982
 40
0.5089398211
 40
0.5406494354
 40
0.5722340478
 40
0.6036813723
 40
0.6349819093
 40
0.666129179
 40
0.6971198991
 40
0.7279541027
 40
0.7586351871
 40
0.7891698911
 40
0.819568195
 40
0.8498431417
 40
0.8800105805
 40
0.9100888347
 40
0.9400983003
 40
0.9700609852
 40
1.0
 40
1.0
 40
1.0
 40
1.0
 10
11.2615952117
 20
7.6783189418
 30
0.0
 10
11.2545898715
 20
7.6788047638
 30
0.0
 10
11.2440898218
 20
7.6799187537
 30
0.0
 10
11.230186803
 20
7.6821574236
 30
0.0
 10
11.2163058663
 20
7.6849058343
 30
0.0
 10
11.1990937039
 20
7.6892829053
 30
0.0
 10
11.1787999004
 20
7.6960013884
 30
0.0
 10
11.1589482724
 20
7.7041564425
 30
0.0
 10
11.1396451226
 20
7.7137044494
 30
0.0
 10
11.1209936336
 20
7.724594026
 30
0.0
 10
11.1060813815
 20
7.7347350951
 30
0.0
 10
11.094573521
 20
7.7434570262
 30
0.0
 10
11.0833550869
 20
7.7525796119
 30
0.0
 10
11.0699188948
 20
7.7646998952
 30
0.0
 10
11.0548239363
 20
7.7803091166
 30
0.0
 10
11.0408318837
 20
7.7969052769
 30
0.0
 10
11.0280178291
 20
7.8143995333
 30
0.0
 10
11.0164499843
 20
7.8326987728
 30
0.0
 10
11.0061901135
 20
7.8517054627
 30
0.0
 10
10.9972929941
 20
7.8713183353
 30
0.0
 10
10.9898061821
 20
7.8914328752
 30
0.0
 10
10.9837697436
 20
7.9119418809
 30
0.0
 10
10.9792160434
 20
7.932736025
 30
0.0
 10
10.9761695681
 20
7.9537044303
 30
0.0
 10
10.9746467903
 20
7.9747352524
 30
0.0
 10
10.9746560743
 20
7.9957162689
 30
0.0
 10
10.9761976177
 20
8.0165354721
 30
0.0
 10
10.9792634406
 20
8.0370816632
 30
0.0
 10
10.9838374169
 20
8.0572450428
 30
0.0
 10
10.989895349
 20
8.0769178012
 30
0.0
 10
10.9974050725
 20
8.0959946887
 30
0.0
 10
11.0063266518
 20
8.1143736216
 30
0.0
 10
11.0166124458
 20
8.1319561078
 30
0.0
 10
11.0282078626
 20
8.148648278
 30
0.0
 10
11.041049757
 20
8.164359581
 30
0.0
 10
11.0504003585
 20
8.1741278647
 30
0.0
 10
11.0552555574
 20
8.1788176247
 30
0.0
  0
SPLINE
  5
368
100
AcDbEntity
  8
0
100
AcDbSpline
 62
7
  6
CONTINUOUS
 70
0
 71
3
 72
23
 73
19
 74
0
 42
0.0000001
 43
0.0000001
 44
0.0000000001
 40
0.0
 40
0.0
 40
0.0
 40
0.0
 40
0.0616482102
 40
0.1233194434
 40
0.1850364728
 40
0.2468215621
 40
0.3086962116
 40
0.370680925
 40
0.4327950032
 40
0.4950563306
 40
0.5574811832
 40
0.6200840863
 40
0.6828775763
 40
0.7458723561
 40
0.8090769818
 40
0.8724965655
 40
0.9361390263
 40
1.0
 40
1.0
 40
1.0
 40
1.0
 10
11.4679348659
 20
7.7515802337
 30
0.0
 10
11.464601915
 20
7.7483608517
 30
0.0
 10
11.4577601321
 20
7.7420989008
 30
0.0
 10
11.4470054028
 20
7.7332693036
 30
0.0
 10
11.435783669
 20
7.7250233194
 30
0.0
 10
11.4241235843
 20
7.7173820898
 30
0.0
 10
11.4120544172
 20
7.7103647834
 30
0.0
 10
11.3996066319
 20
7.7039890568
 30
0.0
 10
11.3868115928
 20
7.6982709311
 30
0.0
 10
11.3737015356
 20
7.6932247951
 30
0.0
 10
11.3603094792
 20
7.6888633571
 30
0.0
 10
11.3466691741
 20
7.6851975417
 30
0.0
 10
11.3328149773
 20
7.6822365216
 30
0.0
 10
11.3187817508
 20
7.6799877313
 30
0.0
 10
11.3046049287
 20
7.6784568608
 30
0.0
 10
11.2903198782
 20
7.6776475704
 30
0.0
 10
11.2759632731
 20
7.6775620502
 30
0.0
 10
11.2663839311
 20
7.677986843
 30
0.0
 10
11.2615952117
 20
7.6783189418
 30
0.0
  0
SPLINE
  5
369
100
AcDbEntity
  8
0
100
AcDbSpline
 62
7
  6
CONTINUOUS
 70
0
 71
3
 72
50
 73
46
 74
0
 42
0.0000001
 43
0.0000001
 44
0.0000000001
 40
0.0
 40
0.0
 40
0.0
 40
0.0
 40
0.0407239874
 40
0.0819120674
 40
0.1234453068
 40
0.165205383
 40
0.2070720179
 40
0.2489250196
 40
0.2906440774
 40
0.3321094218
 40
0.3732021958
 40
0.4138049149
 40
0.4538019075
 40
0.4930797684
 40
0.5315278147
 40
0.5690385531
 40
0.6055081634
 40
0.6408370043
 40
0.6749301513
 40
0.7076979803
 40
0.7390568164
 40
0.7689296763
 40
0.7972471464
 40
0.8108036995
 40
0.8239494248
 40
0.8366782776
 40
0.8489849753
 40
0.8608650529
 40
0.8723148608
 40
0.8833318304
 40
0.8939143396
 40
0.904062143
 40
0.9137762152
 40
0.9230592434
 40
0.931915603
 40
0.940351818
 40
0.9483767966
 40
0.9560022275
 40
0.9632431273
 40
0.9701182024
 40
0.9766506438
 40
0.9828684761
 40
0.9888053417
 40
0.9945006846
 40
1.0
 40
1.0
 40
1.0
 40
1.0
 10
12.6081844299
 20
9.4698300921
 30
0.0
 10
12.6081844299
 20
9.4616992085
 30
0.0
 10
12.6080623897
 20
9.445344544
 30
0.0
 10
12.6075225419
 20
9.4207027778
 30
0.0
 10
12.606626282
 20
9.3958643636
 30
0.0
 10
12.6053763812
 20
9.3709056112
 30
0.0
 10
12.603776628
 20
9.3459028666
 30
0.0
 10
12.601831939
 20
9.3209327983
 30
0.0
 10
12.5995482692
 20
9.2960718966
 30
0.0
 10
12.5969326311
 20
9.271396343
 30
0.0
 10
12.5939930572
 20
9.246981739
 30
0.0
 10
12.5907385819
 20
9.2229028846
 30
0.0
 10
12.5871792119
 20
9.1992335431
 30
0.0
 10
12.5833258985
 20
9.1760462129
 30
0.0
 10
12.5791905027
 20
9.1534119029
 30
0.0
 10
12.5747857593
 20
9.1313999113
 30
0.0
 10
12.5701252391
 20
9.1100776086
 30
0.0
 10
12.5652233079
 20
9.0895102272
 30
0.0
 10
12.5600950831
 20
9.0697606468
 30
0.0
 10
12.5547563852
 20
9.0508892146
 30
0.0
 10
12.549223695
 20
9.0329534628
 30
0.0
 10
12.5435140741
 20
9.0160082001
 30
0.0
 10
12.5385539352
 20
9.0025668979
 30
0.0
 10
12.5345012917
 20
8.9923561516
 30
0.0
 10
12.5314727918
 20
8.9850887612
 30
0.0
 10
12.528413363
 20
8.9781059283
 30
0.0
 10
12.5253253188
 20
8.9714129698
 30
0.0
 10
12.5222110543
 20
8.9650149737
 30
0.0
 10
12.5190728994
 20
8.9589168172
 30
0.0
 10
12.5159133136
 20
8.9531231038
 30
0.0
 10
12.5127346171
 20
8.9476382484
 30
0.0
 10
12.5095393023
 20
8.9424663573
 30
0.0
 10
12.5063296898
 20
8.9376113581
 30
0.0
 10
12.5031082473
 20
8.9330768593
 30
0.0
 10
12.4998773036
 20
8.9288662744
 30
0.0
 10
12.4966392381
 20
8.9249827298
 30
0.0
 10
12.4933963715
 20
8.9214291098
 30
0.0
 10
12.4901509374
 20
8.9182080988
 30
0.0
 10
12.4869052015
 20
8.9153220781
 30
0.0
 10
12.4836612256
 20
8.912773376
 30
0.0
 10
12.4804211663
 20
8.9105639835
 30
0.0
 10
12.4771870144
 20
8.9086960209
 30
0.0
 10
12.4739607788
 20
8.9071712872
 30
0.0
 10
12.4707450812
 20
8.9059918833
 30
0.0
 10
12.4685774686
 20
8.9054286683
 30
0.0
 10
12.4675017499
 20
8.905208672
 30
0.0
  0
SPLINE
  5
36A
100
AcDbEntity
  8
0
100
AcDbSpline
 62
7
  6
CONTINUOUS
 70
0
 71
3
 72
11
 73
7
 74
0
 42
0.0000001
 43
0.0000001
 44
0.0000000001
 40
0.0
 40
0.0
 40
0.0
 40
0.0
 40
0.2521579221
 40
0.5028363759
 40
0.7520884207
 40
1.0
 40
1.0
 40
1.0
 40
1.0
 10
9.749292364
 20
9.8993979249
 30
0.0
 10
9.7573830943
 20
9.8988368308
 30
0.0
 10
9.7735727755
 20
9.8983973352
 30
0.0
 10
9.7977498213
 20
9.8998099079
 30
0.0
 10
9.8215798091
 20
9.9032851374
 30
0.0
 10
9.8371642766
 20
9.9069719179
 30
0.0
 10
9.8448348339
 20
9.909149222
 30
0.0
  0
SPLINE
  5
36B
100
AcDbEntity
  8
0
100
AcDbSpline
 62
7
  6
CONTINUOUS
 70
0
 71
3
 72
15
 73
11
 74
0
 42
0.0000001
 43
0.0000001
 44
0.0000000001
 40
0.0
 40
0.0
 40
0.0
 40
0.0
 40
0.1232972121
 40
0.2469592636
 40
0.3710607395
 40
0.495666173
 40
0.6208287228
 40
0.7465890756
 40
0.8729748683
 40
1.0
 40
1.0
 40
1.0
 40
1.0
 10
11.547581123
 20
6.0341493258
 30
0.0
 10
11.5436015273
 20
6.031802
 30
0.0
 10
11.5354445044
 20
6.0274080646
 30
0.0
 10
11.5227190896
 20
6.0217718455
 30
0.0
 10
11.5095526457
 20
6.0171098018
 30
0.0
 10
11.4960161049
 20
6.0134471273
 30
0.0
 10
11.4821812214
 20
6.0108029655
 30
0.0
 10
11.4681212894
 20
6.0091912449
 30
0.0
 10
11.4539119072
 20
6.0086202742
 30
0.0
 10
11.4444111585
 20
6.0089347377
 30
0.0
 10
11.4396625738
 20
6.0092640531
 30
0.0
  0
SPLINE
  5
36C
100
AcDbEntity
  8
0
100
AcDbSpline
 62
7
  6
CONTINUOUS
 70
0
 71
3
 72
39
 73
35
 74
0
 42
0.0000001
 43
0.0000001
 44
0.0000000001
 40
0.0
 40
0.0
 40
0.0
 40
0.0
 40
0.0308461574
 40
0.06181576
 40
0.0929037543
 40
0.1241061302
 40
0.1554158372
 40
0.186825035
 40
0.2183244047
 40
0.2499035225
 40
0.2815509419
 40
0.3132543565
 40
0.3450007596
 40
0.3767766077
 40
0.4085679912
 40
0.4403608068
 40
0.4721409322
 40
0.5038944026
 40
0.5356075857
 40
0.5672673525
 40
0.5988612434
 40
0.6303776281
 40
0.6618058578
 40
0.6931364089
 40
0.7243610169
 40
0.7554727969
 40
0.7864663472
 40
0.8173378376
 40
0.8480850777
 40
0.8787075665
 40
0.9092065192
 40
0.9395848735
 40
0.9698472688
 40
1.0
 40
1.0
 40
1.0
 40
1.0
 10
9.749292364
 20
9.8993979249
 30
0.0
 10
9.7436757203
 20
9.8997874404
 30
0.0
 10
9.7324400928
 20
9.9008973925
 30
0.0
 10
9.7156810288
 20
9.9035391526
 30
0.0
 10
9.6990371987
 20
9.9071523339
 30
0.0
 10
9.6825666275
 20
9.9117241881
 30
0.0
 10
9.6663255383
 20
9.9172391263
 30
0.0
 10
9.65036977
 20
9.9236780758
 30
0.0
 10
9.6347540533
 20
9.9310189234
 30
0.0
 10
9.6195319839
 20
9.9392364232
 30
0.0
 10
9.6047557897
 20
9.9483023309
 30
0.0
 10
9.5904761688
 20
9.9581854964
 30
0.0
 10
9.5767421153
 20
9.968851976
 30
0.0
 10
9.563600754
 20
9.9802651471
 30
0.0
 10
9.5510971803
 20
9.9923858329
 30
0.0
 10
9.5392743068
 20
10.0051724351
 30
0.0
 10
9.5281727186
 20
10.0185810764
 30
0.0
 10
9.5178305206
 20
10.0325657392
 30
0.0
 10
9.5082832173
 20
10.0470784332
 30
0.0
 10
9.4995635942
 20
10.0620693603
 30
0.0
 10
9.4917016055
 20
10.0774870829
 30
0.0
 10
9.4847242723
 20
10.0932786989
 30
0.0
 10
9.4786555899
 20
10.1093900204
 30
0.0
 10
9.4735164476
 20
10.1257657585
 30
0.0
 10
9.4693245392
 20
10.1423497063
 30
0.0
 10
9.4660943128
 20
10.1590849367
 30
0.0
 10
9.4638369251
 20
10.1759139953
 30
0.0
 10
9.4625602015
 20
10.1927790976
 30
0.0
 10
9.4622686057
 20
10.2096223179
 30
0.0
 10
9.4629632299
 20
10.2263858108
 30
0.0
 10
9.4646417621
 20
10.2430119173
 30
0.0
 10
9.4672985808
 20
10.2594437005
 30
0.0
 10
9.4709243843
 20
10.2756238952
 30
0.0
 10
9.4739852211
 20
10.2862261105
 30
0.0
 10
9.4756726232
 20
10.2914646152
 30
0.0
  0
SPLINE
  5
36D
100
AcDbEntity
  8
0
100
AcDbSpline
 62
7
  6
CONTINUOUS
 70
0
 71
3
 72
23
 73
19
 74
0
 42
0.0000001
 43
0.0000001
 44
0.0000000001
 40
0.0
 40
0.0
 40
0.0
 40
0.0
 40
0.0616482102
 40
0.1233194434
 40
0.1850364728
 40
0.2468215621
 40
0.3086962116
 40
0.370680925
 40
0.4327950032
 40
0.4950563306
 40
0.5574811832
 40
0.6200840863
 40
0.6828775763
 40
0.7458723561
 40
0.8090769818
 40
0.8724965655
 40
0.9361390263
 40
1.0
 40
1.0
 40
1.0
 40
1.0
 10
11.4679348659
 20
5.8197284379
 30
0.0
 10
11.464601915
 20
5.8165090559
 30
0.0
 10
11.4577601321
 20
5.8102471049
 30
0.0
 10
11.4470054028
 20
5.8014175078
 30
0.0
 10
11.435783669
 20
5.7931715236
 30
0.0
 10
11.4241235843
 20
5.785530294
 30
0.0
 10
11.4120544172
 20
5.7785129875
 30
0.0
 10
11.3996066319
 20
5.772137261
 30
0.0
 10
11.3868115928
 20
5.7664191353
 30
0.0
 10
11.3737015356
 20
5.7613729992
 30
0.0
 10
11.3603094792
 20
5.7570115613
 30
0.0
 10
11.3466691741
 20
5.7533457459
 30
0.0
 10
11.3328149773
 20
5.7503847257
 30
0.0
 10
11.3187817508
 20
5.7481359355
 30
0.0
 10
11.3046049287
 20
5.7466050649
 30
0.0
 10
11.2903198782
 20
5.7457957746
 30
0.0
 10
11.2759632731
 20
5.7457102544
 30
0.0
 10
11.2663839311
 20
5.7461350472
 30
0.0
 10
11.2615952117
 20
5.746467146
 30
0.0
  0
SPLINE
  5
36E
100
AcDbEntity
  8
0
100
AcDbSpline
 62
7
  6
CONTINUOUS
 70
0
 71
3
 72
37
 73
33
 74
0
 42
0.0000001
 43
0.0000001
 44
0.0000000001
 40
0.0
 40
0.0
 40
0.0
 40
0.0
 40
0.0933756921
 40
0.1843603974
 40
0.2724625291
 40
0.3152846283
 40
0.3572109824
 40
0.3981865898
 40
0.4381585612
 40
0.4770759943
 40
0.5148902141
 40
0.5515551081
 40
0.5870270504
 40
0.6212654169
 40
0.6542327385
 40
0.6858948755
 40
0.7162217178
 40
0.7451872939
 40
0.772770448
 40
0.7989556522
 40
0.8237335106
 40
0.8471021776
 40
0.8690685721
 40
0.8896500208
 40
0.9088768951
 40
0.9267951916
 40
0.9434703934
 40
0.9589920526
 40
0.9734785473
 40
0.9870822142
 40
0.9936143774
 40
1.0
 40
1.0
 40
1.0
 40
1.0
 10
12.6081844299
 20
9.4698300921
 30
0.0
 10
12.6081844299
 20
9.4809300767
 30
0.0
 10
12.6079614134
 20
9.502846606
 30
0.0
 10
12.6069349918
 20
9.5352216017
 30
0.0
 10
12.6054984717
 20
9.5615645146
 30
0.0
 10
12.6039994411
 20
9.5820577416
 30
0.0
 10
12.6027187921
 20
9.5969485917
 30
0.0
 10
12.6012730817
 20
9.6114838942
 30
0.0
 10
12.5996644795
 20
9.625642184
 30
0.0
 10
12.5978953796
 20
9.6394025372
 30
0.0
 10
12.5959684046
 20
9.6527446305
 30
0.0
 10
12.5938864675
 20
9.6656487656
 30
0.0
 10
12.5916526384
 20
9.6780958996
 30
0.0
 10
12.5892702663
 20
9.6900676799
 30
0.0
 10
12.5867429227
 20
9.7015464716
 30
0.0
 10
12.5840743321
 20
9.7125153806
 30
0.0
 10
12.5812685127
 20
9.7229583004
 30
0.0
 10
12.5783296179
 20
9.7328599244
 30
0.0
 10
12.5752619824
 20
9.7422057781
 30
0.0
 10
12.5720701796
 20
9.7509822706
 30
0.0
 10
12.5687588314
 20
9.7591766847
 30
0.0
 10
12.5653327481
 20
9.7667772463
 30
0.0
 10
12.5617968189
 20
9.7737731412
 30
0.0
 10
12.5581558587
 20
9.7801544862
 30
0.0
 10
12.5544147404
 20
9.7859124154
 30
0.0
 10
12.5505780407
 20
9.7910389532
 30
0.0
 10
12.5466501079
 20
9.7955268576
 30
0.0
 10
12.5426346889
 20
9.7993695903
 30
0.0
 10
12.5385359998
 20
9.8025602141
 30
0.0
 10
12.5350055633
 20
9.8046986645
 30
0.0
 10
12.5321577728
 20
9.8060559987
 30
0.0
 10
12.5307279178
 20
9.8066202043
 30
0.0
 10
12.5300121672
 20
9.8068730181
 30
0.0
  0
SPLINE
  5
36F
100
AcDbEntity
  8
0
100
AcDbSpline
 62
7
  6
CONTINUOUS
 70
0
 71
3
 72
39
 73
35
 74
0
 42
0.0000001
 43
0.0000001
 44
0.0000000001
 40
0.0
 40
0.0
 40
0.0
 40
0.0
 40
0.0310056836
 40
0.0621506876
 40
0.0934290457
 40
0.1248343575
 40
0.1563570069
 40
0.1879858949
 40
0.2197080213
 40
0.2515089249
 40
0.2833728618
 40
0.3152830837
 40
0.3472221046
 40
0.3791719817
 40
0.4111146005
 40
0.4430319616
 40
0.4749064666
 40
0.5067211985
 40
0.5384601949
 40
0.5701087107
 40
0.6016534658
 40
0.633082875
 40
0.6643872566
 40
0.6955590151
 40
0.7265927961
 40
0.7574856065
 40
0.7882368983
 40
0.8188486116
 40
0.8493251741
 40
0.8796734546
 40
0.9099026698
 40
0.9400242422
 40
0.9700516113
 40
1.0
 40
1.0
 40
1.0
 40
1.0
 10
9.749292364
 20
9.9901949579
 30
0.0
 10
9.7449553991
 20
9.9904957275
 30
0.0
 10
9.7362792603
 20
9.9913860531
 30
0.0
 10
9.7233541815
 20
9.9935723319
 30
0.0
 10
9.7105426
 20
9.9966030661
 30
0.0
 10
9.6979014145
 20
10.0004647145
 30
0.0
 10
9.6854856999
 20
10.0051404051
 30
0.0
 10
9.673349864
 20
10.0106095438
 30
0.0
 10
9.6615469892
 20
10.0168481607
 30
0.0
 10
9.650128721
 20
10.023828893
 30
0.0
 10
9.6391450152
 20
10.0315211562
 30
0.0
 10
9.6286439278
 20
10.0398912579
 30
0.0
 10
9.6186714064
 20
10.0489025511
 30
0.0
 10
9.609271089
 20
10.0585155899
 30
0.0
 10
9.6004841136
 20
10.0686883006
 30
0.0
 10
9.592348942
 20
10.0793761678
 30
0.0
 10
9.5849011923
 20
10.0905324262
 30
0.0
 10
9.5781734843
 20
10.1021082641
 30
0.0
 10
9.5721952977
 20
10.1140530346
 30
0.0
 10
9.5669928438
 20
10.1263144749
 30
0.0
 10
9.5625889506
 20
10.1388389324
 30
0.0
 10
9.559002963
 20
10.1515715968
 30
0.0
 10
9.5562506571
 20
10.1644567374
 30
0.0
 10
9.5543441708
 20
10.1774379439
 30
0.0
 10
9.5532919442
 20
10.1904583704
 30
0.0
 10
9.5530986822
 20
10.2034609832
 30
0.0
 10
9.5537653326
 20
10.2163888077
 30
0.0
 10
9.5552890788
 20
10.2291851781
 30
0.0
 10
9.5576633442
 20
10.2417939782
 30
0.0
 10
9.5608778303
 20
10.2541599096
 30
0.0
 10
9.5649185052
 20
10.2662286531
 30
0.0
 10
9.5697678524
 20
10.2779474106
 30
0.0
 10
9.575404229
 20
10.2892640197
 30
0.0
 10
9.5796759817
 20
10.2965171084
 30
0.0
 10
9.5819332483
 20
10.30005794
 30
0.0
  0
SPLINE
  5
370
100
AcDbEntity
  8
0
100
AcDbSpline
 62
7
  6
CONTINUOUS
 70
0
 71
3
 72
71
 73
67
 74
0
 42
0.0000001
 43
0.0000001
 44
0.0000000001
 40
0.0
 40
0.0
 40
0.0
 40
0.0
 40
0.0156748403
 40
0.0314021535
 40
0.0471806586
 40
0.0630088905
 40
0.0788847443
 40
0.0948057528
 40
0.1107690088
 40
0.1267712322
 40
0.1428087901
 40
0.1588777349
 40
0.1749738405
 40
0.1910926412
 40
0.207229472
 40
0.2233795101
 40
0.2395378174
 40
0.2556993839
 40
0.2718591711
 40
0.2880121559
 40
0.3041533746
 40
0.320277966
 40
0.3363812145
 40
0.3524585915
 40
0.3685057964
 40
0.3845187958
 40
0.400493861
 40
0.4164276032
 40
0.4323170069
 40
0.4481594601
 40
0.4639527818
 40
0.4796952459
 40
0.4953856017
 40
0.5110230906
 40
0.5266074577
 40
0.5421389599
 40
0.5576183684
 40
0.5730469665
 40
0.5884265418
 40
0.6037593735
 40
0.6190482137
 40
0.634296264
 40
0.6495071459
 40
0.6646848666
 40
0.6798337801
 40
0.6949585433
 40
0.7100640686
 40
0.7251554727
 40
0.7402380227
 40
0.7553170804
 40
0.770398045
 40
0.7854862952
 40
0.8005871318
 40
0.8157057214
 40
0.830847042
 40
0.8460158304
 40
0.8612165346
 40
0.8764532678
 40
0.891729769
 40
0.9070493656
 40
0.9224149468
 40
0.9378289258
 40
0.9532932572
 40
0.9688093183
 40
0.9843781544
 40
1.0
 40
1.0
 40
1.0
 40
1.0
 10
10.3565227389
 20
8.209559967
 30
0.0
 10
10.3436687645
 20
8.2104513932
 30
0.0
 10
10.3179571561
 20
8.2128677745
 30
0.0
 10
10.2795516626
 20
8.2183673298
 30
0.0
 10
10.2413311609
 20
8.225735034
 30
0.0
 10
10.2033889642
 20
8.2349528846
 30
0.0
 10
10.1658160332
 20
8.245998705
 30
0.0
 10
10.1287029309
 20
8.2588457838
 30
0.0
 10
10.0921389623
 20
8.273463148
 30
0.0
 10
10.056212145
 20
8.2898155412
 30
0.0
 10
10.0210089484
 20
8.3078635501
 30
0.0
 10
9.9866141
 20
8.327563683
 30
0.0
 10
9.9531103793
 20
8.3488684807
 30
0.0
 10
9.9205784206
 20
8.3717266283
 30
0.0
 10
9.8890965198
 20
8.3960830794
 30
0.0
 10
9.8587404468
 20
8.4218791872
 30
0.0
 10
9.8295832646
 20
8.4490528463
 30
0.0
 10
9.8016951537
 20
8.4775386408
 30
0.0
 10
9.7751432442
 20
8.5072680013
 30
0.0
 10
9.7499914539
 20
8.5381693686
 30
0.0
 10
9.726300336
 20
8.5701683659
 30
0.0
 10
9.7041269339
 20
8.603187977
 30
0.0
 10
9.6835246442
 20
8.637148731
 30
0.0
 10
9.664543089
 20
8.6719688922
 30
0.0
 10
9.6472279963
 20
8.7075646562
 30
0.0
 10
9.6316210903
 20
8.7438503501
 30
0.0
 10
9.6177599913
 20
8.7807386375
 30
0.0
 10
9.6056781245
 20
8.8181407277
 30
0.0
 10
9.5954046396
 20
8.8559665879
 30
0.0
 10
9.5869643402
 20
8.8941251589
 30
0.0
 10
9.5803776231
 20
8.9325245723
 30
0.0
 10
9.575660429
 20
8.9710723712
 30
0.0
 10
9.5728242021
 20
9.0096757305
 30
0.0
 10
9.571875862
 20
9.0482416802
 30
0.0
 10
9.5728177849
 20
9.0866773276
 30
0.0
 10
9.5756477948
 20
9.1248900803
 30
0.0
 10
9.5803591683
 20
9.1627878692
 30
0.0
 10
9.5869406485
 20
9.200279369
 30
0.0
 10
9.5953764696
 20
9.2372742193
 30
0.0
 10
9.6056463927
 20
9.2736832414
 30
0.0
 10
9.6177257524
 20
9.3094186551
 30
0.0
 10
9.6315855133
 20
9.3443942905
 30
0.0
 10
9.6471923384
 20
9.3785257977
 30
0.0
 10
9.6645086672
 20
9.411730852
 30
0.0
 10
9.6834928048
 20
9.4439293548
 30
0.0
 10
9.7040990215
 20
9.4750436289
 30
0.0
 10
9.7262776623
 20
9.5049986092
 30
0.0
 10
9.7499752661
 20
9.533722026
 30
0.0
 10
9.7751346961
 20
9.5611445827
 30
0.0
 10
9.8016952776
 20
9.587200125
 30
0.0
 10
9.8295929467
 20
9.6118258036
 30
0.0
 10
9.8587604053
 20
9.6349622285
 30
0.0
 10
9.8891272874
 20
9.6565536132
 30
0.0
 10
9.9206203313
 20
9.6765479104
 30
0.0
 10
9.953163559
 20
9.6948969374
 30
0.0
 10
9.9866784628
 20
9.7115564934
 30
0.0
 10
10.0210841969
 20
9.7264864644
 30
0.0
 10
10.056297775
 20
9.7396509199
 30
0.0
 10
10.0922342726
 20
9.7510181958
 30
0.0
 10
10.1288070367
 20
9.7605609749
 30
0.0
 10
10.1659278821
 20
9.7682563353
 30
0.0
 10
10.2035073589
 20
9.7740858389
 30
0.0
 10
10.2414547782
 20
9.7780354998
 30
0.0
 10
10.2796790815
 20
9.780095939
 30
0.0
 10
10.3180868915
 20
9.7802622825
 30
0.0
 10
10.3437122222
 20
9.7791120492
 30
0.0
 10
10.3565227389
 20
9.7782236369
 30
0.0
  0
SPLINE
  5
371
100
AcDbEntity
  8
0
100
AcDbSpline
 62
7
  6
CONTINUOUS
 70
0
 71
3
 72
15
 73
11
 74
0
 42
0.0000001
 43
0.0000001
 44
0.0000000001
 40
0.0
 40
0.0
 40
0.0
 40
0.0
 40
0.1232972121
 40
0.2469592636
 40
0.3710607395
 40
0.495666173
 40
0.6208287228
 40
0.7465890756
 40
0.8729748683
 40
1.0
 40
1.0
 40
1.0
 40
1.0
 10
9.8572109132
 20
6.151376898
 30
0.0
 10
9.8532313175
 20
6.1490295722
 30
0.0
 10
9.8450742946
 20
6.1446356368
 30
0.0
 10
9.8323488798
 20
6.1389994177
 30
0.0
 10
9.8191824359
 20
6.134337374
 30
0.0
 10
9.8056458951
 20
6.1306746995
 30
0.0
 10
9.7918110116
 20
6.1280305377
 30
0.0
 10
9.7777510796
 20
6.1264188171
 30
0.0
 10
9.7635416974
 20
6.1258478465
 30
0.0
 10
9.7540409487
 20
6.1261623099
 30
0.0
 10
9.749292364
 20
6.1264916254
 30
0.0
  0
SPLINE
  5
372
100
AcDbEntity
  8
0
100
AcDbSpline
 62
7
  6
CONTINUOUS
 70
0
 71
3
 72
50
 73
46
 74
0
 42
0.0000001
 43
0.0000001
 44
0.0000000001
 40
0.0
 40
0.0
 40
0.0
 40
0.0
 40
0.0407239874
 40
0.0819120674
 40
0.1234453068
 40
0.165205383
 40
0.2070720179
 40
0.2489250196
 40
0.2906440774
 40
0.3321094218
 40
0.3732021958
 40
0.4138049149
 40
0.4538019075
 40
0.4930797684
 40
0.5315278147
 40
0.5690385531
 40
0.6055081634
 40
0.6408370043
 40
0.6749301513
 40
0.7076979803
 40
0.7390568164
 40
0.7689296763
 40
0.7972471464
 40
0.8108036995
 40
0.8239494248
 40
0.8366782776
 40
0.8489849753
 40
0.8608650529
 40
0.8723148608
 40
0.8833318304
 40
0.8939143396
 40
0.904062143
 40
0.9137762152
 40
0.9230592434
 40
0.931915603
 40
0.940351818
 40
0.9483767966
 40
0.9560022275
 40
0.9632431273
 40
0.9701182024
 40
0.9766506438
 40
0.9828684761
 40
0.9888053417
 40
0.9945006846
 40
1.0
 40
1.0
 40
1.0
 40
1.0
 10
12.6081844299
 20
7.537978325
 30
0.0
 10
12.6081844299
 20
7.5298474414
 30
0.0
 10
12.6080623897
 20
7.513492777
 30
0.0
 10
12.6075225419
 20
7.4888510107
 30
0.0
 10
12.606626282
 20
7.4640125966
 30
0.0
 10
12.6053763812
 20
7.4390538441
 30
0.0
 10
12.603776628
 20
7.4140510995
 30
0.0
 10
12.601831939
 20
7.3890810312
 30
0.0
 10
12.5995482692
 20
7.3642201296
 30
0.0
 10
12.5969326311
 20
7.3395445759
 30
0.0
 10
12.5939930572
 20
7.315129972
 30
0.0
 10
12.5907385819
 20
7.2910511176
 30
0.0
 10
12.5871792119
 20
7.267381776
 30
0.0
 10
12.5833258985
 20
7.2441944458
 30
0.0
 10
12.5791905027
 20
7.2215601358
 30
0.0
 10
12.5747857593
 20
7.1995481442
 30
0.0
 10
12.5701252391
 20
7.1782258416
 30
0.0
 10
12.5652233079
 20
7.1576584602
 30
0.0
 10
12.5600950831
 20
7.1379088798
 30
0.0
 10
12.5547563852
 20
7.1190374476
 30
0.0
 10
12.549223695
 20
7.1011016958
 30
0.0
 10
12.5435140741
 20
7.084156433
 30
0.0
 10
12.5385539352
 20
7.0707151309
 30
0.0
 10
12.5345012917
 20
7.0605043845
 30
0.0
 10
12.5314727918
 20
7.0532369941
 30
0.0
 10
12.528413363
 20
7.0462541612
 30
0.0
 10
12.5253253188
 20
7.0395612028
 30
0.0
 10
12.5222110543
 20
7.0331632067
 30
0.0
 10
12.5190728994
 20
7.0270650501
 30
0.0
 10
12.5159133136
 20
7.0212713368
 30
0.0
 10
12.5127346171
 20
7.0157864814
 30
0.0
 10
12.5095393023
 20
7.0106145903
 30
0.0
 10
12.5063296898
 20
7.0057595911
 30
0.0
 10
12.5031082473
 20
7.0012250923
 30
0.0
 10
12.4998773036
 20
6.9970145074
 30
0.0
 10
12.4966392381
 20
6.9931309628
 30
0.0
 10
12.4933963715
 20
6.9895773427
 30
0.0
 10
12.4901509374
 20
6.9863563318
 30
0.0
 10
12.4869052015
 20
6.9834703111
 30
0.0
 10
12.4836612256
 20
6.9809216089
 30
0.0
 10
12.4804211663
 20
6.9787122164
 30
0.0
 10
12.4771870144
 20
6.9768442538
 30
0.0
 10
12.4739607788
 20
6.9753195202
 30
0.0
 10
12.4707450812
 20
6.9741401162
 30
0.0
 10
12.4685774686
 20
6.9735769013
 30
0.0
 10
12.4675017499
 20
6.9733569049
 30
0.0
  0
SPLINE
  5
373
100
AcDbEntity
  8
0
100
AcDbSpline
 62
7
  6
CONTINUOUS
 70
0
 71
3
 72
23
 73
19
 74
0
 42
0.0000001
 43
0.0000001
 44
0.0000000001
 40
0.0
 40
0.0
 40
0.0
 40
0.0
 40
0.0616482102
 40
0.1233194434
 40
0.1850364728
 40
0.2468215621
 40
0.3086962116
 40
0.370680925
 40
0.4327950032
 40
0.4950563306
 40
0.5574811832
 40
0.6200840863
 40
0.6828775763
 40
0.7458723561
 40
0.8090769818
 40
0.8724965655
 40
0.9361390263
 40
1.0
 40
1.0
 40
1.0
 40
1.0
 10
9.7775646561
 20
5.9369560101
 30
0.0
 10
9.7742317052
 20
5.9337366281
 30
0.0
 10
9.7673899223
 20
5.9274746771
 30
0.0
 10
9.756635193
 20
5.91864508
 30
0.0
 10
9.7454134592
 20
5.9103990958
 30
0.0
 10
9.7337533745
 20
5.9027578662
 30
0.0
 10
9.7216842074
 20
5.8957405598
 30
0.0
 10
9.7092364221
 20
5.8893648332
 30
0.0
 10
9.696441383
 20
5.8836467075
 30
0.0
 10
9.6833313258
 20
5.8786005714
 30
0.0
 10
9.6699392694
 20
5.8742391335
 30
0.0
 10
9.6562989642
 20
5.8705733181
 30
0.0
 10
9.6424447675
 20
5.8676122979
 30
0.0
 10
9.628411541
 20
5.8653635077
 30
0.0
 10
9.6142347189
 20
5.8638326371
 30
0.0
 10
9.5999496684
 20
5.8630233468
 30
0.0
 10
9.5855930633
 20
5.8629378266
 30
0.0
 10
9.5760137213
 20
5.8633626194
 30
0.0
 10
9.5712250019
 20
5.8636947182
 30
0.0
  0
SPLINE
  5
374
100
AcDbEntity
  8
0
100
AcDbSpline
 62
7
  6
CONTINUOUS
 70
0
 71
3
 72
37
 73
33
 74
0
 42
0.0000001
 43
0.0000001
 44
0.0000000001
 40
0.0
 40
0.0
 40
0.0
 40
0.0
 40
0.0933756921
 40
0.1843603974
 40
0.2724625291
 40
0.3152846283
 40
0.3572109824
 40
0.3981865898
 40
0.4381585612
 40
0.4770759943
 40
0.5148902141
 40
0.5515551081
 40
0.5870270504
 40
0.6212654169
 40
0.6542327385
 40
0.6858948755
 40
0.7162217178
 40
0.7451872939
 40
0.772770448
 40
0.7989556522
 40
0.8237335106
 40
0.8471021776
 40
0.8690685721
 40
0.8896500208
 40
0.9088768951
 40
0.9267951916
 40
0.9434703934
 40
0.9589920526
 40
0.9734785473
 40
0.9870822142
 40
0.9936143774
 40
1.0
 40
1.0
 40
1.0
 40
1.0
 10
12.6081844299
 20
7.537978325
 30
0.0
 10
12.6081844299
 20
7.5490783096
 30
0.0
 10
12.6079614134
 20
7.570994839
 30
0.0
 10
12.6069349918
 20
7.6033698346
 30
0.0
 10
12.6054984717
 20
7.6297127476
 30
0.0
 10
12.6039994411
 20
7.6502059746
 30
0.0
 10
12.6027187921
 20
7.6650968247
 30
0.0
 10
12.6012730817
 20
7.6796321271
 30
0.0
 10
12.5996644795
 20
7.6937904169
 30
0.0
 10
12.5978953796
 20
7.7075507701
 30
0.0
 10
12.5959684046
 20
7.7208928634
 30
0.0
 10
12.5938864675
 20
7.7337969985
 30
0.0
 10
12.5916526384
 20
7.7462441326
 30
0.0
 10
12.5892702663
 20
7.7582159128
 30
0.0
 10
12.5867429227
 20
7.7696947045
 30
0.0
 10
12.5840743321
 20
7.7806636135
 30
0.0
 10
12.5812685127
 20
7.7911065334
 30
0.0
 10
12.5783296179
 20
7.8010081574
 30
0.0
 10
12.5752619824
 20
7.8103540111
 30
0.0
 10
12.5720701796
 20
7.8191305035
 30
0.0
 10
12.5687588314
 20
7.8273249177
 30
0.0
 10
12.5653327481
 20
7.8349254793
 30
0.0
 10
12.5617968189
 20
7.8419213741
 30
0.0
 10
12.5581558587
 20
7.8483027191
 30
0.0
 10
12.5544147404
 20
7.8540606483
 30
0.0
 10
12.5505780407
 20
7.8591871861
 30
0.0
 10
12.5466501079
 20
7.8636750905
 30
0.0
 10
12.5426346889
 20
7.8675178233
 30
0.0
 10
12.5385359998
 20
7.8707084471
 30
0.0
 10
12.5350055633
 20
7.8728468974
 30
0.0
 10
12.5321577728
 20
7.8742042317
 30
0.0
 10
12.5307279178
 20
7.8747684373
 30
0.0
 10
12.5300121672
 20
7.875021251
 30
0.0
  0
SPLINE
  5
375
100
AcDbEntity
  8
0
100
AcDbSpline
 62
7
  6
CONTINUOUS
 70
0
 71
3
 72
15
 73
11
 74
0
 42
0.0000001
 43
0.0000001
 44
0.0000000001
 40
0.0
 40
0.0
 40
0.0
 40
0.0
 40
0.1232972121
 40
0.2469592636
 40
0.3710607395
 40
0.495666173
 40
0.6208287228
 40
0.7465890756
 40
0.8729748683
 40
1.0
 40
1.0
 40
1.0
 40
1.0
 10
9.8572109132
 20
8.0832286938
 30
0.0
 10
9.8532313175
 20
8.0808813681
 30
0.0
 10
9.8450742946
 20
8.0764874327
 30
0.0
 10
9.8323488798
 20
8.0708512135
 30
0.0
 10
9.8191824359
 20
8.0661891698
 30
0.0
 10
9.8056458951
 20
8.0625264953
 30
0.0
 10
9.7918110116
 20
8.0598823335
 30
0.0
 10
9.7777510796
 20
8.0582706129
 30
0.0
 10
9.7635416974
 20
8.0576996423
 30
0.0
 10
9.7540409487
 20
8.0580141057
 30
0.0
 10
9.749292364
 20
8.0583434212
 30
0.0
  0
SPLINE
  5
376
100
AcDbEntity
  8
0
100
AcDbSpline
 62
7
  6
CONTINUOUS
 70
0
 71
3
 72
23
 73
19
 74
0
 42
0.0000001
 43
0.0000001
 44
0.0000000001
 40
0.0
 40
0.0
 40
0.0
 40
0.0
 40
0.0616482102
 40
0.1233194434
 40
0.1850364728
 40
0.2468215621
 40
0.3086962116
 40
0.370680925
 40
0.4327950032
 40
0.4950563306
 40
0.5574811832
 40
0.6200840863
 40
0.6828775763
 40
0.7458723561
 40
0.8090769818
 40
0.8724965655
 40
0.9361390263
 40
1.0
 40
1.0
 40
1.0
 40
1.0
 10
9.7775646561
 20
7.868807806
 30
0.0
 10
9.7742317052
 20
7.8655884239
 30
0.0
 10
9.7673899223
 20
7.859326473
 30
0.0
 10
9.756635193
 20
7.8504968758
 30
0.0
 10
9.7454134592
 20
7.8422508916
 30
0.0
 10
9.7337533745
 20
7.834609662
 30
0.0
 10
9.7216842074
 20
7.8275923556
 30
0.0
 10
9.7092364221
 20
7.821216629
 30
0.0
 10
9.696441383
 20
7.8154985033
 30
0.0
 10
9.6833313258
 20
7.8104523673
 30
0.0
 10
9.6699392694
 20
7.8060909293
 30
0.0
 10
9.6562989642
 20
7.802425114
 30
0.0
 10
9.6424447675
 20
7.7994640938
 30
0.0
 10
9.628411541
 20
7.7972153035
 30
0.0
 10
9.6142347189
 20
7.795684433
 30
0.0
 10
9.5999496684
 20
7.7948751426
 30
0.0
 10
9.5855930633
 20
7.7947896224
 30
0.0
 10
9.5760137213
 20
7.7952144152
 30
0.0
 10
9.5712250019
 20
7.7955465141
 30
0.0
  0
SPLINE
  5
377
100
AcDbEntity
  8
0
100
AcDbSpline
 62
7
  6
CONTINUOUS
 70
0
 71
3
 72
41
 73
37
 74
0
 42
0.0000001
 43
0.0000001
 44
0.0000000001
 40
0.0
 40
0.0
 40
0.0
 40
0.0
 40
0.0311447108
 40
0.0467774295
 40
0.0624475249
 40
0.0938924651
 40
0.1254747955
 40
0.1571823865
 40
0.1890004527
 40
0.2209120576
 40
0.2528984154
 40
0.2689156901
 40
0.2849439669
 40
0.3170180467
 40
0.3491033961
 40
0.3811778561
 40
0.4132194776
 40
0.4452069463
 40
0.4771199982
 40
0.5089398211
 40
0.5406494354
 40
0.5722340478
 40
0.6036813723
 40
0.6349819093
 40
0.666129179
 40
0.6971198991
 40
0.7279541027
 40
0.7586351871
 40
0.7891698911
 40
0.819568195
 40
0.8498431417
 40
0.8800105805
 40
0.9100888347
 40
0.9400983003
 40
0.9700609852
 40
1.0
 40
1.0
 40
1.0
 40
1.0
 10
11.2615952117
 20
5.746467146
 30
0.0
 10
11.2545898715
 20
5.746952968
 30
0.0
 10
11.2440898218
 20
5.7480669578
 30
0.0
 10
11.230186803
 20
5.7503056277
 30
0.0
 10
11.2163058663
 20
5.7530540384
 30
0.0
 10
11.1990937039
 20
5.7574311095
 30
0.0
 10
11.1787999004
 20
5.7641495926
 30
0.0
 10
11.1589482724
 20
5.7723046466
 30
0.0
 10
11.1396451226
 20
5.7818526536
 30
0.0
 10
11.1209936336
 20
5.7927422302
 30
0.0
 10
11.1060813815
 20
5.8028832992
 30
0.0
 10
11.094573521
 20
5.8116052303
 30
0.0
 10
11.0833550869
 20
5.820727816
 30
0.0
 10
11.0699188948
 20
5.8328480994
 30
0.0
 10
11.0548239363
 20
5.8484573208
 30
0.0
 10
11.0408318837
 20
5.865053481
 30
0.0
 10
11.0280178291
 20
5.8825477374
 30
0.0
 10
11.0164499843
 20
5.900846977
 30
0.0
 10
11.0061901135
 20
5.9198536669
 30
0.0
 10
10.9972929941
 20
5.9394665395
 30
0.0
 10
10.9898061821
 20
5.9595810794
 30
0.0
 10
10.9837697436
 20
5.980090085
 30
0.0
 10
10.9792160434
 20
6.0008842292
 30
0.0
 10
10.9761695681
 20
6.0218526345
 30
0.0
 10
10.9746467903
 20
6.0428834566
 30
0.0
 10
10.9746560743
 20
6.0638644731
 30
0.0
 10
10.9761976177
 20
6.0846836763
 30
0.0
 10
10.9792634406
 20
6.1052298673
 30
0.0
 10
10.9838374169
 20
6.125393247
 30
0.0
 10
10.989895349
 20
6.1450660054
 30
0.0
 10
10.9974050725
 20
6.1641428929
 30
0.0
 10
11.0063266518
 20
6.1825218258
 30
0.0
 10
11.0166124458
 20
6.200104312
 30
0.0
 10
11.0282078626
 20
6.2167964821
 30
0.0
 10
11.041049757
 20
6.2325077852
 30
0.0
 10
11.0504003585
 20
6.2422760689
 30
0.0
 10
11.0552555574
 20
6.2469658289
 30
0.0
  0
SPLINE
  5
378
100
AcDbEntity
  8
0
100
AcDbSpline
 62
7
  6
CONTINUOUS
 70
0
 71
3
 72
11
 73
7
 74
0
 42
0.0000001
 43
0.0000001
 44
0.0000000001
 40
0.0
 40
0.0
 40
0.0
 40
0.0
 40
0.2521579221
 40
0.5028363759
 40
0.7520884207
 40
1.0
 40
1.0
 40
1.0
 40
1.0
 10
9.749292364
 20
6.0356945923
 30
0.0
 10
9.7573830943
 20
6.0351334982
 30
0.0
 10
9.7735727755
 20
6.0346940026
 30
0.0
 10
9.7977498213
 20
6.0361065753
 30
0.0
 10
9.8215798091
 20
6.0395818049
 30
0.0
 10
9.8371642766
 20
6.0432685853
 30
0.0
 10
9.8448348339
 20
6.0454458894
 30
0.0
  0
SPLINE
  5
379
100
AcDbEntity
  8
0
100
AcDbSpline
 62
7
  6
CONTINUOUS
 70
0
 71
3
 72
39
 73
35
 74
0
 42
0.0000001
 43
0.0000001
 44
0.0000000001
 40
0.0
 40
0.0
 40
0.0
 40
0.0
 40
0.0308461574
 40
0.06181576
 40
0.0929037543
 40
0.1241061302
 40
0.1554158372
 40
0.186825035
 40
0.2183244047
 40
0.2499035225
 40
0.2815509419
 40
0.3132543565
 40
0.3450007596
 40
0.3767766077
 40
0.4085679912
 40
0.4403608068
 40
0.4721409322
 40
0.5038944026
 40
0.5356075857
 40
0.5672673525
 40
0.5988612434
 40
0.6303776281
 40
0.6618058578
 40
0.6931364089
 40
0.7243610169
 40
0.7554727969
 40
0.7864663472
 40
0.8173378376
 40
0.8480850777
 40
0.8787075665
 40
0.9092065192
 40
0.9395848735
 40
0.9698472688
 40
1.0
 40
1.0
 40
1.0
 40
1.0
 10
9.749292364
 20
6.0356945923
 30
0.0
 10
9.7436757203
 20
6.0360841079
 30
0.0
 10
9.7324400928
 20
6.03719406
 30
0.0
 10
9.7156810288
 20
6.03983582
 30
0.0
 10
9.6990371987
 20
6.0434490013
 30
0.0
 10
9.6825666275
 20
6.0480208555
 30
0.0
 10
9.6663255383
 20
6.0535357937
 30
0.0
 10
9.65036977
 20
6.0599747432
 30
0.0
 10
9.6347540533
 20
6.0673155908
 30
0.0
 10
9.6195319839
 20
6.0755330907
 30
0.0
 10
9.6047557897
 20
6.0845989983
 30
0.0
 10
9.5904761688
 20
6.0944821638
 30
0.0
 10
9.5767421153
 20
6.1051486434
 30
0.0
 10
9.563600754
 20
6.1165618145
 30
0.0
 10
9.5510971803
 20
6.1286825003
 30
0.0
 10
9.5392743068
 20
6.1414691025
 30
0.0
 10
9.5281727186
 20
6.1548777438
 30
0.0
 10
9.5178305206
 20
6.1688624066
 30
0.0
 10
9.5082832173
 20
6.1833751006
 30
0.0
 10
9.4995635942
 20
6.1983660277
 30
0.0
 10
9.4917016055
 20
6.2137837503
 30
0.0
 10
9.4847242723
 20
6.2295753663
 30
0.0
 10
9.4786555899
 20
6.2456866878
 30
0.0
 10
9.4735164476
 20
6.2620624259
 30
0.0
 10
9.4693245392
 20
6.2786463738
 30
0.0
 10
9.4660943128
 20
6.2953816041
 30
0.0
 10
9.4638369251
 20
6.3122106627
 30
0.0
 10
9.4625602015
 20
6.3290757651
 30
0.0
 10
9.4622686057
 20
6.3459189854
 30
0.0
 10
9.4629632299
 20
6.3626824782
 30
0.0
 10
9.4646417621
 20
6.3793085847
 30
0.0
 10
9.4672985808
 20
6.3957403679
 30
0.0
 10
9.4709243843
 20
6.4119205626
 30
0.0
 10
9.4739852211
 20
6.4225227779
 30
0.0
 10
9.4756726232
 20
6.4277612826
 30
0.0
  0
SPLINE
  5
37A
100
AcDbEntity
  8
0
100
AcDbSpline
 62
7
  6
CONTINUOUS
 70
0
 71
3
 72
39
 73
35
 74
0
 42
0.0000001
 43
0.0000001
 44
0.0000000001
 40
0.0
 40
0.0
 40
0.0
 40
0.0
 40
0.0310056836
 40
0.0621506876
 40
0.0934290457
 40
0.1248343575
 40
0.1563570069
 40
0.1879858949
 40
0.2197080213
 40
0.2515089249
 40
0.2833728618
 40
0.3152830837
 40
0.3472221046
 40
0.3791719817
 40
0.4111146005
 40
0.4430319616
 40
0.4749064666
 40
0.5067211985
 40
0.5384601949
 40
0.5701087107
 40
0.6016534658
 40
0.633082875
 40
0.6643872566
 40
0.6955590151
 40
0.7265927961
 40
0.7574856065
 40
0.7882368983
 40
0.8188486116
 40
0.8493251741
 40
0.8796734546
 40
0.9099026698
 40
0.9400242422
 40
0.9700516113
 40
1.0
 40
1.0
 40
1.0
 40
1.0
 10
9.749292364
 20
6.1264916254
 30
0.0
 10
9.7449553991
 20
6.1267923949
 30
0.0
 10
9.7362792603
 20
6.1276827205
 30
0.0
 10
9.7233541815
 20
6.1298689993
 30
0.0
 10
9.7105426
 20
6.1328997336
 30
0.0
 10
9.6979014145
 20
6.1367613819
 30
0.0
 10
9.6854856999
 20
6.1414370725
 30
0.0
 10
9.673349864
 20
6.1469062112
 30
0.0
 10
9.6615469892
 20
6.1531448281
 30
0.0
 10
9.650128721
 20
6.1601255604
 30
0.0
 10
9.6391450152
 20
6.1678178237
 30
0.0
 10
9.6286439278
 20
6.1761879254
 30
0.0
 10
9.6186714064
 20
6.1851992185
 30
0.0
 10
9.609271089
 20
6.1948122573
 30
0.0
 10
9.6004841136
 20
6.2049849681
 30
0.0
 10
9.592348942
 20
6.2156728352
 30
0.0
 10
9.5849011923
 20
6.2268290936
 30
0.0
 10
9.5781734843
 20
6.2384049315
 30
0.0
 10
9.5721952977
 20
6.250349702
 30
0.0
 10
9.5669928438
 20
6.2626111423
 30
0.0
 10
9.5625889506
 20
6.2751355998
 30
0.0
 10
9.559002963
 20
6.2878682642
 30
0.0
 10
9.5562506571
 20
6.3007534048
 30
0.0
 10
9.5543441708
 20
6.3137346113
 30
0.0
 10
9.5532919442
 20
6.3267550378
 30
0.0
 10
9.5530986822
 20
6.3397576506
 30
0.0
 10
9.5537653326
 20
6.3526854751
 30
0.0
 10
9.5552890788
 20
6.3654818455
 30
0.0
 10
9.5576633442
 20
6.3780906456
 30
0.0
 10
9.5608778303
 20
6.390456577
 30
0.0
 10
9.5649185052
 20
6.4025253205
 30
0.0
 10
9.5697678524
 20
6.414244078
 30
0.0
 10
9.575404229
 20
6.4255606871
 30
0.0
 10
9.5796759817
 20
6.4328137759
 30
0.0
 10
9.5819332483
 20
6.4363546074
 30
0.0
  0
SPLINE
  5
37B
100
AcDbEntity
  8
0
100
AcDbSpline
 62
7
  6
CONTINUOUS
 70
0
 71
3
 72
57
 73
53
 74
0
 42
0.0000001
 43
0.0000001
 44
0.0000000001
 40
0.0
 40
0.0
 40
0.0
 40
0.0
 40
0.0452110465
 40
0.0910027698
 40
0.1371912899
 40
0.1835896178
 40
0.2300102179
 40
0.2762652744
 40
0.3221678628
 40
0.3675328648
 40
0.4121779514
 40
0.4559245655
 40
0.4985989182
 40
0.5400330108
 40
0.5800656962
 40
0.6185438014
 40
0.6371548672
 40
0.6553241289
 40
0.6730352101
 40
0.6902725778
 40
0.7070214147
 40
0.7232678628
 40
0.7389989442
 40
0.7542027293
 40
0.7688684152
 40
0.7829863638
 40
0.7965483704
 40
0.8095476168
 40
0.8219790731
 40
0.8338395114
 40
0.845127934
 40
0.8558458262
 40
0.8659975671
 40
0.8755910394
 40
0.8846381117
 40
0.8931556374
 40
0.9011662069
 40
0.9086994629
 40
0.9157932415
 40
0.9224949103
 40
0.9288624523
 40
0.9349648844
 40
0.9408817647
 40
0.9467010563
 40
0.9525155983
 40
0.9584184703
 40
0.9644983266
 40
0.9708356729
 40
0.97750068
 40
0.9845523957
 40
0.9920392651
 40
1.0
 40
1.0
 40
1.0
 40
1.0
 10
12.7086134965
 20
7.5529853599
 30
0.0
 10
12.7086134965
 20
7.5415787611
 30
0.0
 10
12.7084100671
 20
7.5186185988
 30
0.0
 10
12.707513046
 20
7.4840157597
 30
0.0
 10
12.706025619
 20
7.4491333755
 30
0.0
 10
12.7039541325
 20
7.4141219084
 30
0.0
 10
12.7013075224
 20
7.3791323734
 30
0.0
 10
12.6980972024
 20
7.3443156376
 30
0.0
 10
12.6943370522
 20
7.3098218368
 30
0.0
 10
12.6900433428
 20
7.2757996973
 30
0.0
 10
12.6852346732
 20
7.2423958947
 30
0.0
 10
12.6799318937
 20
7.2097544053
 30
0.0
 10
12.674158011
 20
7.1780158969
 30
0.0
 10
12.6679381064
 20
7.1473170335
 30
0.0
 10
12.6612991791
 20
7.1177901397
 30
0.0
 10
12.655377902
 20
7.0940101425
 30
0.0
 10
12.6504425744
 20
7.0756748455
 30
0.0
 10
12.646695747
 20
7.062446824
 30
0.0
 10
12.6428665441
 20
7.0496036476
 30
0.0
 10
12.6389591341
 20
7.0371591296
 30
0.0
 10
12.6349776972
 20
7.0251266776
 30
0.0
 10
12.6309265828
 20
7.0135192317
 30
0.0
 10
12.6268101454
 20
7.0023492781
 30
0.0
 10
12.6226328397
 20
6.9916288182
 30
0.0
 10
12.6183991998
 20
6.9813693548
 30
0.0
 10
12.6141137527
 20
6.9715818963
 30
0.0
 10
12.6097811797
 20
6.9622769023
 30
0.0
 10
12.6054060734
 20
6.9534643297
 30
0.0
 10
12.6009931939
 20
6.9451535449
 30
0.0
 10
12.5965472037
 20
6.9373533864
 30
0.0
 10
12.592072849
 20
6.930072091
 30
0.0
 10
12.5875748393
 20
6.923317313
 30
0.0
 10
12.5830578085
 20
6.9170961356
 30
0.0
 10
12.5785264201
 20
6.9114149897
 30
0.0
 10
12.5739850879
 20
6.9062798119
 30
0.0
 10
12.5694382432
 20
6.9016958693
 30
0.0
 10
12.5648899606
 20
6.89766806
 30
0.0
 10
12.5603442262
 20
6.8942007901
 30
0.0
 10
12.5558047544
 20
6.8912983048
 30
0.0
 10
12.5512752221
 20
6.8889648253
 30
0.0
 10
12.5467595938
 20
6.8872046079
 30
0.0
 10
12.5422625021
 20
6.8860221829
 30
0.0
 10
12.5377899116
 20
6.8854214825
 30
0.0
 10
12.5333491646
 20
6.8854055568
 30
0.0
 10
12.5289485914
 20
6.8859750654
 30
0.0
 10
12.5245964028
 20
6.8871284038
 30
0.0
 10
12.5202996529
 20
6.8888618062
 30
0.0
 10
12.5160637799
 20
6.891170453
 30
0.0
 10
12.5118929693
 20
6.8940493697
 30
0.0
 10
12.5077904449
 20
6.897493673
 30
0.0
 10
12.5037595745
 20
6.9014985467
 30
0.0
 10
12.5012033289
 20
6.9044453773
 30
0.0
 10
12.4999360451
 20
6.9060035599
 30
0.0
  0
SPLINE
  5
37C
100
AcDbEntity
  8
0
100
AcDbSpline
 62
7
  6
CONTINUOUS
 70
0
 71
3
 72
11
 73
7
 74
0
 42
0.0000001
 43
0.0000001
 44
0.0000000001
 40
0.0
 40
0.0
 40
0.0
 40
0.0
 40
0.2521579221
 40
0.5028363759
 40
0.7520884207
 40
1.0
 40
1.0
 40
1.0
 40
1.0
 10
11.4396625738
 20
9.7821703527
 30
0.0
 10
11.4477533041
 20
9.7816092586
 30
0.0
 10
11.4639429853
 20
9.781169763
 30
0.0
 10
11.4881200311
 20
9.7825823356
 30
0.0
 10
11.5119500189
 20
9.7860575652
 30
0.0
 10
11.5275344864
 20
9.7897443457
 30
0.0
 10
11.5352050437
 20
9.7919216498
 30
0.0
  0
SPLINE
  5
37D
100
AcDbEntity
  8
0
100
AcDbSpline
 62
7
  6
CONTINUOUS
 70
0
 71
3
 72
39
 73
35
 74
0
 42
0.0000001
 43
0.0000001
 44
0.0000000001
 40
0.0
 40
0.0
 40
0.0
 40
0.0
 40
0.0308461574
 40
0.06181576
 40
0.0929037543
 40
0.1241061302
 40
0.1554158372
 40
0.186825035
 40
0.2183244047
 40
0.2499035225
 40
0.2815509419
 40
0.3132543565
 40
0.3450007596
 40
0.3767766077
 40
0.4085679912
 40
0.4403608068
 40
0.4721409322
 40
0.5038944026
 40
0.5356075857
 40
0.5672673525
 40
0.5988612434
 40
0.6303776281
 40
0.6618058578
 40
0.6931364089
 40
0.7243610169
 40
0.7554727969
 40
0.7864663472
 40
0.8173378376
 40
0.8480850777
 40
0.8787075665
 40
0.9092065192
 40
0.9395848735
 40
0.9698472688
 40
1.0
 40
1.0
 40
1.0
 40
1.0
 10
11.4396625738
 20
9.7821703527
 30
0.0
 10
11.4340459301
 20
9.7825598682
 30
0.0
 10
11.4228103026
 20
9.7836698203
 30
0.0
 10
11.4060512386
 20
9.7863115804
 30
0.0
 10
11.3894074085
 20
9.7899247617
 30
0.0
 10
11.3729368373
 20
9.7944966158
 30
0.0
 10
11.3566957481
 20
9.8000115541
 30
0.0
 10
11.3407399798
 20
9.8064505036
 30
0.0
 10
11.3251242631
 20
9.8137913512
 30
0.0
 10
11.3099021937
 20
9.822008851
 30
0.0
 10
11.2951259995
 20
9.8310747587
 30
0.0
 10
11.2808463786
 20
9.8409579242
 30
0.0
 10
11.2671123251
 20
9.8516244038
 30
0.0
 10
11.2539709638
 20
9.8630375749
 30
0.0
 10
11.2414673901
 20
9.8751582607
 30
0.0
 10
11.2296445166
 20
9.8879448628
 30
0.0
 10
11.2185429284
 20
9.9013535042
 30
0.0
 10
11.2082007304
 20
9.915338167
 30
0.0
 10
11.1986534271
 20
9.929850861
 30
0.0
 10
11.189933804
 20
9.9448417881
 30
0.0
 10
11.1820718153
 20
9.9602595107
 30
0.0
 10
11.1750944821
 20
9.9760511267
 30
0.0
 10
11.1690257997
 20
9.9921624482
 30
0.0
 10
11.1638866574
 20
10.0085381863
 30
0.0
 10
11.159694749
 20
10.0251221341
 30
0.0
 10
11.1564645226
 20
10.0418573645
 30
0.0
 10
11.1542071349
 20
10.0586864231
 30
0.0
 10
11.1529304113
 20
10.0755515254
 30
0.0
 10
11.1526388155
 20
10.0923947457
 30
0.0
 10
11.1533334397
 20
10.1091582386
 30
0.0
 10
11.1550119719
 20
10.1257843451
 30
0.0
 10
11.1576687906
 20
10.1422161283
 30
0.0
 10
11.1612945941
 20
10.158396323
 30
0.0
 10
11.1643554309
 20
10.1689985383
 30
0.0
 10
11.166042833
 20
10.174237043
 30
0.0
  0
SPLINE
  5
37E
100
AcDbEntity
  8
0
100
AcDbSpline
 62
7
  6
CONTINUOUS
 70
0
 71
3
 72
39
 73
35
 74
0
 42
0.0000001
 43
0.0000001
 44
0.0000000001
 40
0.0
 40
0.0
 40
0.0
 40
0.0
 40
0.0310056836
 40
0.0621506876
 40
0.0934290457
 40
0.1248343575
 40
0.1563570069
 40
0.1879858949
 40
0.2197080213
 40
0.2515089249
 40
0.2833728618
 40
0.3152830837
 40
0.3472221046
 40
0.3791719817
 40
0.4111146005
 40
0.4430319616
 40
0.4749064666
 40
0.5067211985
 40
0.5384601949
 40
0.5701087107
 40
0.6016534658
 40
0.633082875
 40
0.6643872566
 40
0.6955590151
 40
0.7265927961
 40
0.7574856065
 40
0.7882368983
 40
0.8188486116
 40
0.8493251741
 40
0.8796734546
 40
0.9099026698
 40
0.9400242422
 40
0.9700516113
 40
1.0
 40
1.0
 40
1.0
 40
1.0
 10
11.4396625738
 20
9.8729673857
 30
0.0
 10
11.4353256089
 20
9.8732681553
 30
0.0
 10
11.4266494701
 20
9.8741584809
 30
0.0
 10
11.4137243913
 20
9.8763447597
 30
0.0
 10
11.4009128098
 20
9.8793754939
 30
0.0
 10
11.3882716243
 20
9.8832371423
 30
0.0
 10
11.3758559097
 20
9.8879128329
 30
0.0
 10
11.3637200738
 20
9.8933819716
 30
0.0
 10
11.351917199
 20
9.8996205885
 30
0.0
 10
11.3404989308
 20
9.9066013207
 30
0.0
 10
11.329515225
 20
9.914293584
 30
0.0
 10
11.3190141376
 20
9.9226636857
 30
0.0
 10
11.3090416162
 20
9.9316749789
 30
0.0
 10
11.2996412988
 20
9.9412880176
 30
0.0
 10
11.2908543234
 20
9.9514607284
 30
0.0
 10
11.2827191518
 20
9.9621485956
 30
0.0
 10
11.2752714021
 20
9.9733048539
 30
0.0
 10
11.2685436941
 20
9.9848806919
 30
0.0
 10
11.2625655075
 20
9.9968254624
 30
0.0
 10
11.2573630536
 20
10.0090869027
 30
0.0
 10
11.2529591604
 20
10.0216113601
 30
0.0
 10
11.2493731728
 20
10.0343440246
 30
0.0
 10
11.2466208669
 20
10.0472291652
 30
0.0
 10
11.2447143806
 20
10.0602103717
 30
0.0
 10
11.243662154
 20
10.0732307982
 30
0.0
 10
11.243468892
 20
10.086233411
 30
0.0
 10
11.2441355424
 20
10.0991612355
 30
0.0
 10
11.2456592886
 20
10.1119576058
 30
0.0
 10
11.248033554
 20
10.124566406
 30
0.0
 10
11.2512480401
 20
10.1369323374
 30
0.0
 10
11.255288715
 20
10.1490010809
 30
0.0
 10
11.2601380622
 20
10.1607198384
 30
0.0
 10
11.2657744388
 20
10.1720364475
 30
0.0
 10
11.2700461915
 20
10.1792895362
 30
0.0
 10
11.2723034581
 20
10.1828303678
 30
0.0
  0
SPLINE
  5
37F
100
AcDbEntity
  8
0
100
AcDbSpline
 62
7
  6
CONTINUOUS
 70
0
 71
3
 72
71
 73
67
 74
0
 42
0.0000001
 43
0.0000001
 44
0.0000000001
 40
0.0
 40
0.0
 40
0.0
 40
0.0
 40
0.0156748403
 40
0.0314021535
 40
0.0471806586
 40
0.0630088905
 40
0.0788847443
 40
0.0948057528
 40
0.1107690088
 40
0.1267712322
 40
0.1428087901
 40
0.1588777349
 40
0.1749738405
 40
0.1910926412
 40
0.207229472
 40
0.2233795101
 40
0.2395378174
 40
0.2556993839
 40
0.2718591711
 40
0.2880121559
 40
0.3041533746
 40
0.320277966
 40
0.3363812145
 40
0.3524585915
 40
0.3685057964
 40
0.3845187958
 40
0.400493861
 40
0.4164276032
 40
0.4323170069
 40
0.4481594601
 40
0.4639527818
 40
0.4796952459
 40
0.4953856017
 40
0.5110230906
 40
0.5266074577
 40
0.5421389599
 40
0.5576183684
 40
0.5730469665
 40
0.5884265418
 40
0.6037593735
 40
0.6190482137
 40
0.634296264
 40
0.6495071459
 40
0.6646848666
 40
0.6798337801
 40
0.6949585433
 40
0.7100640686
 40
0.7251554727
 40
0.7402380227
 40
0.7553170804
 40
0.770398045
 40
0.7854862952
 40
0.8005871318
 40
0.8157057214
 40
0.830847042
 40
0.8460158304
 40
0.8612165346
 40
0.8764532678
 40
0.891729769
 40
0.9070493656
 40
0.9224149468
 40
0.9378289258
 40
0.9532932572
 40
0.9688093183
 40
0.9843781544
 40
1.0
 40
1.0
 40
1.0
 40
1.0
 10
10.3565227389
 20
9.7782236369
 30
0.0
 10
10.3693767134
 20
9.7773322107
 30
0.0
 10
10.3950883218
 20
9.7749158294
 30
0.0
 10
10.4334938153
 20
9.769416274
 30
0.0
 10
10.471714317
 20
9.7620485698
 30
0.0
 10
10.5096565137
 20
9.7528307193
 30
0.0
 10
10.5472294447
 20
9.7417848988
 30
0.0
 10
10.5843425469
 20
9.7289378201
 30
0.0
 10
10.6209065156
 20
9.7143204558
 30
0.0
 10
10.6568333329
 20
9.6979680627
 30
0.0
 10
10.6920365295
 20
9.6799200538
 30
0.0
 10
10.7264313779
 20
9.6602199209
 30
0.0
 10
10.7599350986
 20
9.6389151232
 30
0.0
 10
10.7924670573
 20
9.6160569755
 30
0.0
 10
10.8239489581
 20
9.5917005245
 30
0.0
 10
10.854305031
 20
9.5659044167
 30
0.0
 10
10.8834622133
 20
9.5387307576
 30
0.0
 10
10.9113503242
 20
9.5102449631
 30
0.0
 10
10.9379022337
 20
9.4805156025
 30
0.0
 10
10.963054024
 20
9.4496142353
 30
0.0
 10
10.9867451419
 20
9.417615238
 30
0.0
 10
11.008918544
 20
9.3845956269
 30
0.0
 10
11.0295208337
 20
9.3506348729
 30
0.0
 10
11.0485023889
 20
9.3158147117
 30
0.0
 10
11.0658174816
 20
9.2802189477
 30
0.0
 10
11.0814243875
 20
9.2439332538
 30
0.0
 10
11.0952854865
 20
9.2070449664
 30
0.0
 10
11.1073673534
 20
9.1696428762
 30
0.0
 10
11.1176408383
 20
9.131817016
 30
0.0
 10
11.1260811377
 20
9.093658445
 30
0.0
 10
11.1326678547
 20
9.0552590315
 30
0.0
 10
11.1373850489
 20
9.0167112327
 30
0.0
 10
11.1402212757
 20
8.9781078734
 30
0.0
 10
11.1411696159
 20
8.9395419237
 30
0.0
 10
11.140227693
 20
8.9011062763
 30
0.0
 10
11.1373976831
 20
8.8628935235
 30
0.0
 10
11.1326863095
 20
8.8249957347
 30
0.0
 10
11.1261048294
 20
8.7875042348
 30
0.0
 10
11.1176690083
 20
8.7505093846
 30
0.0
 10
11.1073990851
 20
8.7141003624
 30
0.0
 10
11.0953197255
 20
8.6783649488
 30
0.0
 10
11.0814599646
 20
8.6433893134
 30
0.0
 10
11.0658531395
 20
8.6092578062
 30
0.0
 10
11.0485368107
 20
8.5760527518
 30
0.0
 10
11.0295526731
 20
8.5438542491
 30
0.0
 10
11.0089464563
 20
8.5127399749
 30
0.0
 10
10.9867678156
 20
8.4827849947
 30
0.0
 10
10.9630702118
 20
8.4540615778
 30
0.0
 10
10.9379107818
 20
8.4266390212
 30
0.0
 10
10.9113502003
 20
8.4005834789
 30
0.0
 10
10.8834525312
 20
8.3759578003
 30
0.0
 10
10.8542850726
 20
8.3528213754
 30
0.0
 10
10.8239181905
 20
8.3312299906
 30
0.0
 10
10.7924251466
 20
8.3112356935
 30
0.0
 10
10.7598819188
 20
8.2928866664
 30
0.0
 10
10.726367015
 20
8.2762271104
 30
0.0
 10
10.691961281
 20
8.2612971395
 30
0.0
 10
10.6567477029
 20
8.248132684
 30
0.0
 10
10.6208112053
 20
8.2367654081
 30
0.0
 10
10.5842384412
 20
8.2272226289
 30
0.0
 10
10.5471175958
 20
8.2195272686
 30
0.0
 10
10.509538119
 20
8.213697765
 30
0.0
 10
10.4715906996
 20
8.209748104
 30
0.0
 10
10.4333663964
 20
8.2076876649
 30
0.0
 10
10.3949585864
 20
8.2075213214
 30
0.0
 10
10.3693332557
 20
8.2086715547
 30
0.0
 10
10.3565227389
 20
8.209559967
 30
0.0
  0
SPLINE
  5
380
100
AcDbEntity
  8
0
100
AcDbSpline
 62
7
  6
CONTINUOUS
 70
0
 71
3
 72
11
 73
7
 74
0
 42
0.0000001
 43
0.0000001
 44
0.0000000001
 40
0.0
 40
0.0
 40
0.0
 40
0.0
 40
0.2521579221
 40
0.5028363759
 40
0.7520884207
 40
1.0
 40
1.0
 40
1.0
 40
1.0
 10
11.4396625738
 20
7.8503188159
 30
0.0
 10
11.4477533041
 20
7.8497577219
 30
0.0
 10
11.4639429853
 20
7.8493182263
 30
0.0
 10
11.4881200311
 20
7.8507307989
 30
0.0
 10
11.5119500189
 20
7.8542060285
 30
0.0
 10
11.5275344864
 20
7.857892809
 30
0.0
 10
11.5352050437
 20
7.860070113
 30
0.0
  0
SPLINE
  5
381
100
AcDbEntity
  8
0
100
AcDbSpline
 62
7
  6
CONTINUOUS
 70
0
 71
3
 72
39
 73
35
 74
0
 42
0.0000001
 43
0.0000001
 44
0.0000000001
 40
0.0
 40
0.0
 40
0.0
 40
0.0
 40
0.0308461574
 40
0.06181576
 40
0.0929037543
 40
0.1241061302
 40
0.1554158372
 40
0.186825035
 40
0.2183244047
 40
0.2499035225
 40
0.2815509419
 40
0.3132543565
 40
0.3450007596
 40
0.3767766077
 40
0.4085679912
 40
0.4403608068
 40
0.4721409322
 40
0.5038944026
 40
0.5356075857
 40
0.5672673525
 40
0.5988612434
 40
0.6303776281
 40
0.6618058578
 40
0.6931364089
 40
0.7243610169
 40
0.7554727969
 40
0.7864663472
 40
0.8173378376
 40
0.8480850777
 40
0.8787075665
 40
0.9092065192
 40
0.9395848735
 40
0.9698472688
 40
1.0
 40
1.0
 40
1.0
 40
1.0
 10
11.4396625738
 20
7.8503188159
 30
0.0
 10
11.4340459301
 20
7.8507083315
 30
0.0
 10
11.4228103026
 20
7.8518182836
 30
0.0
 10
11.4060512386
 20
7.8544600436
 30
0.0
 10
11.3894074085
 20
7.8580732249
 30
0.0
 10
11.3729368373
 20
7.8626450791
 30
0.0
 10
11.3566957481
 20
7.8681600173
 30
0.0
 10
11.3407399798
 20
7.8745989668
 30
0.0
 10
11.3251242631
 20
7.8819398145
 30
0.0
 10
11.3099021937
 20
7.8901573143
 30
0.0
 10
11.2951259995
 20
7.8992232219
 30
0.0
 10
11.2808463786
 20
7.9091063874
 30
0.0
 10
11.2671123251
 20
7.919772867
 30
0.0
 10
11.2539709638
 20
7.9311860382
 30
0.0
 10
11.2414673901
 20
7.9433067239
 30
0.0
 10
11.2296445166
 20
7.9560933261
 30
0.0
 10
11.2185429284
 20
7.9695019674
 30
0.0
 10
11.2082007304
 20
7.9834866302
 30
0.0
 10
11.1986534271
 20
7.9979993243
 30
0.0
 10
11.189933804
 20
8.0129902513
 30
0.0
 10
11.1820718153
 20
8.028407974
 30
0.0
 10
11.1750944821
 20
8.0441995899
 30
0.0
 10
11.1690257997
 20
8.0603109114
 30
0.0
 10
11.1638866574
 20
8.0766866495
 30
0.0
 10
11.159694749
 20
8.0932705974
 30
0.0
 10
11.1564645226
 20
8.1100058277
 30
0.0
 10
11.1542071349
 20
8.1268348864
 30
0.0
 10
11.1529304113
 20
8.1436999887
 30
0.0
 10
11.1526388155
 20
8.160543209
 30
0.0
 10
11.1533334397
 20
8.1773067019
 30
0.0
 10
11.1550119719
 20
8.1939328083
 30
0.0
 10
11.1576687906
 20
8.2103645916
 30
0.0
 10
11.1612945941
 20
8.2265447862
 30
0.0
 10
11.1643554309
 20
8.2371470015
 30
0.0
 10
11.166042833
 20
8.2423855062
 30
0.0
  0
SPLINE
  5
382
100
AcDbEntity
  8
0
100
AcDbSpline
 62
7
  6
CONTINUOUS
 70
0
 71
3
 72
39
 73
35
 74
0
 42
0.0000001
 43
0.0000001
 44
0.0000000001
 40
0.0
 40
0.0
 40
0.0
 40
0.0
 40
0.0310056836
 40
0.0621506876
 40
0.0934290457
 40
0.1248343575
 40
0.1563570069
 40
0.1879858949
 40
0.2197080213
 40
0.2515089249
 40
0.2833728618
 40
0.3152830837
 40
0.3472221046
 40
0.3791719817
 40
0.4111146005
 40
0.4430319616
 40
0.4749064666
 40
0.5067211985
 40
0.5384601949
 40
0.5701087107
 40
0.6016534658
 40
0.633082875
 40
0.6643872566
 40
0.6955590151
 40
0.7265927961
 40
0.7574856065
 40
0.7882368983
 40
0.8188486116
 40
0.8493251741
 40
0.8796734546
 40
0.9099026698
 40
0.9400242422
 40
0.9700516113
 40
1.0
 40
1.0
 40
1.0
 40
1.0
 10
11.4396625738
 20
7.941115849
 30
0.0
 10
11.4353256089
 20
7.9414166185
 30
0.0
 10
11.4266494701
 20
7.9423069441
 30
0.0
 10
11.4137243913
 20
7.9444932229
 30
0.0
 10
11.4009128098
 20
7.9475239572
 30
0.0
 10
11.3882716243
 20
7.9513856056
 30
0.0
 10
11.3758559097
 20
7.9560612961
 30
0.0
 10
11.3637200738
 20
7.9615304349
 30
0.0
 10
11.351917199
 20
7.9677690517
 30
0.0
 10
11.3404989308
 20
7.974749784
 30
0.0
 10
11.329515225
 20
7.9824420473
 30
0.0
 10
11.3190141376
 20
7.990812149
 30
0.0
 10
11.3090416162
 20
7.9998234421
 30
0.0
 10
11.2996412988
 20
8.0094364809
 30
0.0
 10
11.2908543234
 20
8.0196091917
 30
0.0
 10
11.2827191518
 20
8.0302970588
 30
0.0
 10
11.2752714021
 20
8.0414533172
 30
0.0
 10
11.2685436941
 20
8.0530291551
 30
0.0
 10
11.2625655075
 20
8.0649739256
 30
0.0
 10
11.2573630536
 20
8.0772353659
 30
0.0
 10
11.2529591604
 20
8.0897598234
 30
0.0
 10
11.2493731728
 20
8.1024924879
 30
0.0
 10
11.2466208669
 20
8.1153776284
 30
0.0
 10
11.2447143806
 20
8.1283588349
 30
0.0
 10
11.243662154
 20
8.1413792615
 30
0.0
 10
11.243468892
 20
8.1543818742
 30
0.0
 10
11.2441355424
 20
8.1673096988
 30
0.0
 10
11.2456592886
 20
8.1801060691
 30
0.0
 10
11.248033554
 20
8.1927148692
 30
0.0
 10
11.2512480401
 20
8.2050808007
 30
0.0
 10
11.255288715
 20
8.2171495441
 30
0.0
 10
11.2601380622
 20
8.2288683016
 30
0.0
 10
11.2657744388
 20
8.2401849107
 30
0.0
 10
11.2700461915
 20
8.2474379995
 30
0.0
 10
11.2723034581
 20
8.250978831
 30
0.0
  0
SPLINE
  5
383
100
AcDbEntity
  8
0
100
AcDbSpline
 62
7
  6
CONTINUOUS
 70
0
 71
3
 72
57
 73
53
 74
0
 42
0.0000001
 43
0.0000001
 44
0.0000000001
 40
0.0
 40
0.0
 40
0.0
 40
0.0
 40
0.0452110465
 40
0.0910027698
 40
0.1371912899
 40
0.1835896178
 40
0.2300102179
 40
0.2762652744
 40
0.3221678628
 40
0.3675328648
 40
0.4121779514
 40
0.4559245655
 40
0.4985989182
 40
0.5400330108
 40
0.5800656962
 40
0.6185438014
 40
0.6371548672
 40
0.6553241289
 40
0.6730352101
 40
0.6902725778
 40
0.7070214147
 40
0.7232678628
 40
0.7389989442
 40
0.7542027293
 40
0.7688684152
 40
0.7829863638
 40
0.7965483704
 40
0.8095476168
 40
0.8219790731
 40
0.8338395114
 40
0.845127934
 40
0.8558458262
 40
0.8659975671
 40
0.8755910394
 40
0.8846381117
 40
0.8931556374
 40
0.9011662069
 40
0.9086994629
 40
0.9157932415
 40
0.9224949103
 40
0.9288624523
 40
0.9349648844
 40
0.9408817647
 40
0.9467010563
 40
0.9525155983
 40
0.9584184703
 40
0.9644983266
 40
0.9708356729
 40
0.97750068
 40
0.9845523957
 40
0.9920392651
 40
1.0
 40
1.0
 40
1.0
 40
1.0
 10
12.7086134965
 20
9.484837127
 30
0.0
 10
12.7086134965
 20
9.4734305282
 30
0.0
 10
12.7084100671
 20
9.4504703658
 30
0.0
 10
12.707513046
 20
9.4158675267
 30
0.0
 10
12.706025619
 20
9.3809851425
 30
0.0
 10
12.7039541325
 20
9.3459736755
 30
0.0
 10
12.7013075224
 20
9.3109841405
 30
0.0
 10
12.6980972024
 20
9.2761674046
 30
0.0
 10
12.6943370522
 20
9.2416736038
 30
0.0
 10
12.6900433428
 20
9.2076514644
 30
0.0
 10
12.6852346732
 20
9.1742476618
 30
0.0
 10
12.6799318937
 20
9.1416061724
 30
0.0
 10
12.674158011
 20
9.109867664
 30
0.0
 10
12.6679381064
 20
9.0791688005
 30
0.0
 10
12.6612991791
 20
9.0496419067
 30
0.0
 10
12.655377902
 20
9.0258619095
 30
0.0
 10
12.6504425744
 20
9.0075266125
 30
0.0
 10
12.646695747
 20
8.9942985911
 30
0.0
 10
12.6428665441
 20
8.9814554146
 30
0.0
 10
12.6389591341
 20
8.9690108967
 30
0.0
 10
12.6349776972
 20
8.9569784446
 30
0.0
 10
12.6309265828
 20
8.9453709987
 30
0.0
 10
12.6268101454
 20
8.9342010451
 30
0.0
 10
12.6226328397
 20
8.9234805852
 30
0.0
 10
12.6183991998
 20
8.9132211219
 30
0.0
 10
12.6141137527
 20
8.9034336634
 30
0.0
 10
12.6097811797
 20
8.8941286694
 30
0.0
 10
12.6054060734
 20
8.8853160968
 30
0.0
 10
12.6009931939
 20
8.8770053119
 30
0.0
 10
12.5965472037
 20
8.8692051534
 30
0.0
 10
12.592072849
 20
8.8619238581
 30
0.0
 10
12.5875748393
 20
8.85516908
 30
0.0
 10
12.5830578085
 20
8.8489479026
 30
0.0
 10
12.5785264201
 20
8.8432667567
 30
0.0
 10
12.5739850879
 20
8.8381315789
 30
0.0
 10
12.5694382432
 20
8.8335476363
 30
0.0
 10
12.5648899606
 20
8.8295198271
 30
0.0
 10
12.5603442262
 20
8.8260525572
 30
0.0
 10
12.5558047544
 20
8.8231500718
 30
0.0
 10
12.5512752221
 20
8.8208165923
 30
0.0
 10
12.5467595938
 20
8.8190563749
 30
0.0
 10
12.5422625021
 20
8.81787395
 30
0.0
 10
12.5377899116
 20
8.8172732495
 30
0.0
 10
12.5333491646
 20
8.8172573239
 30
0.0
 10
12.5289485914
 20
8.8178268324
 30
0.0
 10
12.5245964028
 20
8.8189801708
 30
0.0
 10
12.5202996529
 20
8.8207135733
 30
0.0
 10
12.5160637799
 20
8.8230222201
 30
0.0
 10
12.5118929693
 20
8.8259011368
 30
0.0
 10
12.5077904449
 20
8.8293454401
 30
0.0
 10
12.5037595745
 20
8.8333503138
 30
0.0
 10
12.5012033289
 20
8.8362971444
 30
0.0
 10
12.4999360451
 20
8.8378553269
 30
0.0
  0
SPLINE
  5
384
100
AcDbEntity
  8
0
100
AcDbSpline
 62
7
  6
CONTINUOUS
 70
0
 71
3
 72
44
 73
40
 74
0
 42
0.0000001
 43
0.0000001
 44
0.0000000001
 40
0.0
 40
0.0
 40
0.0
 40
0.0
 40
0.0085902829
 40
0.0169174906
 40
0.0250302134
 40
0.0329783115
 40
0.0408110303
 40
0.0485768788
 40
0.0563229168
 40
0.0640932168
 40
0.0719293627
 40
0.0798694802
 40
0.0961854201
 40
0.1132844247
 40
0.1313451279
 40
0.1505017129
 40
0.170855135
 40
0.1924808981
 40
0.2154375719
 40
0.2397730761
 40
0.2655278647
 40
0.2927399447
 40
0.3214464252
 40
0.3516851996
 40
0.3834972688
 40
0.4169262117
 40
0.4520187503
 40
0.4888242012
 40
0.5273919069
 40
0.5677676567
 40
0.6099869593
 40
0.6540637556
 40
0.6999732069
 40
0.747626338
 40
0.7968351666
 40
0.8472716245
 40
0.8984307305
 40
0.9496197357
 40
1.0
 40
1.0
 40
1.0
 40
1.0
 10
10.3471148898
 20
8.3794724484
 30
0.0
 10
10.3468703639
 20
8.3801479428
 30
0.0
 10
10.3464384373
 20
8.3814969417
 30
0.0
 10
10.3459594411
 20
8.3835368559
 30
0.0
 10
10.345656244
 20
8.3855560912
 30
0.0
 10
10.3455248816
 20
8.3875522847
 30
0.0
 10
10.3455611609
 20
8.3895234467
 30
0.0
 10
10.3457610473
 20
8.391467746
 30
0.0
 10
10.3461205822
 20
8.3933835475
 30
0.0
 10
10.3466357111
 20
8.3952694543
 30
0.0
 10
10.3473027428
 20
8.3971243217
 30
0.0
 10
10.3483992132
 20
8.3995762867
 30
0.0
 10
10.3501508062
 20
8.4025720658
 30
0.0
 10
10.3527851103
 20
8.405989116
 30
0.0
 10
10.3559468514
 20
8.4092619472
 30
0.0
 10
10.3596153016
 20
8.412389911
 30
0.0
 10
10.3637735659
 20
8.4153733864
 30
0.0
 10
10.3684074908
 20
8.4182127099
 30
0.0
 10
10.3735055609
 20
8.4209083164
 30
0.0
 10
10.3790587243
 20
8.4234604719
 30
0.0
 10
10.3850601918
 20
8.4258696153
 30
0.0
 10
10.3915054954
 20
8.4281359161
 30
0.0
 10
10.3983923891
 20
8.4302593891
 30
0.0
 10
10.405720783
 20
8.4322398883
 30
0.0
 10
10.4134927204
 20
8.4340766965
 30
0.0
 10
10.4217121842
 20
8.4357686887
 30
0.0
 10
10.4303848478
 20
8.4373140896
 30
0.0
 10
10.4395176824
 20
8.4387102006
 30
0.0
 10
10.4491182072
 20
8.4399533638
 30
0.0
 10
10.4591932884
 20
8.4410386893
 30
0.0
 10
10.4697472072
 20
8.4419598357
 30
0.0
 10
10.4807785932
 20
8.4427088281
 30
0.0
 10
10.4922757995
 20
8.443275979
 30
0.0
 10
10.504210302
 20
8.4436500182
 30
0.0
 10
10.5165281034
 20
8.4438186396
 30
0.0
 10
10.5291401784
 20
8.4437697006
 30
0.0
 10
10.541915005
 20
8.4434932075
 30
0.0
 10
10.5546779579
 20
8.442983856
 30
0.0
 10
10.5631579281
 20
8.4424834305
 30
0.0
 10
10.5673610501
 20
8.442191943
 30
0.0
  0
SPLINE
  5
385
100
AcDbEntity
  8
0
100
AcDbSpline
 62
7
  6
CONTINUOUS
 70
0
 71
3
 72
54
 73
50
 74
0
 42
0.0000001
 43
0.0000001
 44
0.0000000001
 40
0.0
 40
0.0
 40
0.0
 40
0.0
 40
0.0095826749
 40
0.0187373859
 40
0.0274873207
 40
0.0358602131
 40
0.0515987747
 40
0.0590566793
 40
0.0662994956
 40
0.0733807643
 40
0.080358085
 40
0.0872919371
 40
0.0942440202
 40
0.1012755204
 40
0.1084453882
 40
0.1158089758
 40
0.123416903
 40
0.1313146155
 40
0.1395420501
 40
0.1481338299
 40
0.1571195933
 40
0.166524286
 40
0.1763688701
 40
0.1866705055
 40
0.197443259
 40
0.2086983351
 40
0.2204444529
 40
0.2326882871
 40
0.2454344639
 40
0.2586861183
 40
0.2724447709
 40
0.2867107057
 40
0.3014830464
 40
0.3325365695
 40
0.365580417
 40
0.4005750924
 40
0.4374702556
 40
0.4762061872
 40
0.5167149459
 40
0.5589213206
 40
0.6027436037
 40
0.6480942408
 40
0.6948804066
 40
0.7430045053
 40
0.7923645726
 40
0.842855035
 40
0.8943659956
 40
0.9467867504
 40
1.0
 40
1.0
 40
1.0
 40
1.0
 10
12.5714521208
 20
7.9372449693
 30
0.0
 10
12.5725526424
 20
7.9382692247
 30
0.0
 10
12.5747527111
 20
7.9402212292
 30
0.0
 10
12.5781281547
 20
7.9429084644
 30
0.0
 10
12.5815005713
 20
7.9452848995
 30
0.0
 10
12.5858977678
 20
7.9479804961
 30
0.0
 10
12.590383797
 20
7.9501328868
 30
0.0
 10
12.5949175076
 20
7.9516490895
 30
0.0
 10
12.5982449926
 20
7.9524479967
 30
0.0
 10
12.601557264
 20
7.9529275895
 30
0.0
 10
12.6048520217
 20
7.9530870089
 30
0.0
 10
12.6081264948
 20
7.9529259432
 30
0.0
 10
12.6113779288
 20
7.9524444273
 30
0.0
 10
12.6146036101
 20
7.9516430344
 30
0.0
 10
12.6178010787
 20
7.9505228542
 30
0.0
 10
12.6209680654
 20
7.9490850849
 30
0.0
 10
12.6241026803
 20
7.9473313586
 30
0.0
 10
12.6272031263
 20
7.9452631683
 30
0.0
 10
12.6302678405
 20
7.9428822284
 30
0.0
 10
12.6332952999
 20
7.9401902289
 30
0.0
 10
12.6362839646
 20
7.9371889039
 30
0.0
 10
12.639232408
 20
7.9338801738
 30
0.0
 10
12.6421390241
 20
7.93026595
 30
0.0
 10
12.6450023602
 20
7.926348412
 30
0.0
 10
12.647820814
 20
7.9221298021
 30
0.0
 10
12.6505928405
 20
7.9176125776
 30
0.0
 10
12.6533169108
 20
7.9127993695
 30
0.0
 10
12.6559914076
 20
7.9076929505
 30
0.0
 10
12.6586148683
 20
7.9022963275
 30
0.0
 10
12.6611856938
 20
7.8966126282
 30
0.0
 10
12.6637024232
 20
7.8906452047
 30
0.0
 10
12.666163592
 20
7.8843975456
 30
0.0
 10
12.6694234519
 20
7.8755506635
 30
0.0
 10
12.6733343978
 20
7.863807555
 30
0.0
 10
12.6777088966
 20
7.848886302
 30
0.0
 10
12.6818291451
 20
7.832944672
 30
0.0
 10
12.6856852606
 20
7.816020335
 30
0.0
 10
12.689267956
 20
7.7981530962
 30
0.0
 10
12.6925685979
 20
7.7793851976
 30
0.0
 10
12.6955792244
 20
7.7597610649
 30
0.0
 10
12.6982925706
 20
7.739327219
 30
0.0
 10
12.7007020883
 20
7.7181321425
 30
0.0
 10
12.7028019605
 20
7.696226159
 30
0.0
 10
12.7045871144
 20
7.6736613172
 30
0.0
 10
12.7060532516
 20
7.6504912212
 30
0.0
 10
12.7071968081
 20
7.6267710377
 30
0.0
 10
12.7080150599
 20
7.6025569773
 30
0.0
 10
12.7085059583
 20
7.5779068933
 30
0.0
 10
12.7086134965
 20
7.5613339083
 30
0.0
 10
12.7086134965
 20
7.5529853599
 30
0.0
  0
SPLINE
  5
386
100
AcDbEntity
  8
0
100
AcDbSpline
 62
7
  6
CONTINUOUS
 70
0
 71
3
 72
11
 73
7
 74
0
 42
0.0000001
 43
0.0000001
 44
0.0000000001
 40
0.0
 40
0.0
 40
0.0
 40
0.0
 40
0.2521579221
 40
0.5028363759
 40
0.7520884207
 40
1.0
 40
1.0
 40
1.0
 40
1.0
 10
11.4396625738
 20
5.9184670201
 30
0.0
 10
11.4477533041
 20
5.917905926
 30
0.0
 10
11.4639429853
 20
5.9174664304
 30
0.0
 10
11.4881200311
 20
5.9188790031
 30
0.0
 10
11.5119500189
 20
5.9223542327
 30
0.0
 10
11.5275344864
 20
5.9260410131
 30
0.0
 10
11.5352050437
 20
5.9282183172
 30
0.0
  0
SPLINE
  5
387
100
AcDbEntity
  8
0
100
AcDbSpline
 62
7
  6
CONTINUOUS
 70
0
 71
3
 72
39
 73
35
 74
0
 42
0.0000001
 43
0.0000001
 44
0.0000000001
 40
0.0
 40
0.0
 40
0.0
 40
0.0
 40
0.0308461574
 40
0.06181576
 40
0.0929037543
 40
0.1241061302
 40
0.1554158372
 40
0.186825035
 40
0.2183244047
 40
0.2499035225
 40
0.2815509419
 40
0.3132543565
 40
0.3450007596
 40
0.3767766077
 40
0.4085679912
 40
0.4403608068
 40
0.4721409322
 40
0.5038944026
 40
0.5356075857
 40
0.5672673525
 40
0.5988612434
 40
0.6303776281
 40
0.6618058578
 40
0.6931364089
 40
0.7243610169
 40
0.7554727969
 40
0.7864663472
 40
0.8173378376
 40
0.8480850777
 40
0.8787075665
 40
0.9092065192
 40
0.9395848735
 40
0.9698472688
 40
1.0
 40
1.0
 40
1.0
 40
1.0
 10
11.4396625738
 20
5.9184670201
 30
0.0
 10
11.4340459301
 20
5.9188565357
 30
0.0
 10
11.4228103026
 20
5.9199664877
 30
0.0
 10
11.4060512386
 20
5.9226082478
 30
0.0
 10
11.3894074085
 20
5.9262214291
 30
0.0
 10
11.3729368373
 20
5.9307932833
 30
0.0
 10
11.3566957481
 20
5.9363082215
 30
0.0
 10
11.3407399798
 20
5.942747171
 30
0.0
 10
11.3251242631
 20
5.9500880186
 30
0.0
 10
11.3099021937
 20
5.9583055184
 30
0.0
 10
11.2951259995
 20
5.9673714261
 30
0.0
 10
11.2808463786
 20
5.9772545916
 30
0.0
 10
11.2671123251
 20
5.9879210712
 30
0.0
 10
11.2539709638
 20
5.9993342423
 30
0.0
 10
11.2414673901
 20
6.0114549281
 30
0.0
 10
11.2296445166
 20
6.0242415303
 30
0.0
 10
11.2185429284
 20
6.0376501716
 30
0.0
 10
11.2082007304
 20
6.0516348344
 30
0.0
 10
11.1986534271
 20
6.0661475284
 30
0.0
 10
11.189933804
 20
6.0811384555
 30
0.0
 10
11.1820718153
 20
6.0965561781
 30
0.0
 10
11.1750944821
 20
6.1123477941
 30
0.0
 10
11.1690257997
 20
6.1284591156
 30
0.0
 10
11.1638866574
 20
6.1448348537
 30
0.0
 10
11.159694749
 20
6.1614188016
 30
0.0
 10
11.1564645226
 20
6.1781540319
 30
0.0
 10
11.1542071349
 20
6.1949830905
 30
0.0
 10
11.1529304113
 20
6.2118481928
 30
0.0
 10
11.1526388155
 20
6.2286914131
 30
0.0
 10
11.1533334397
 20
6.245454906
 30
0.0
 10
11.1550119719
 20
6.2620810125
 30
0.0
 10
11.1576687906
 20
6.2785127957
 30
0.0
 10
11.1612945941
 20
6.2946929904
 30
0.0
 10
11.1643554309
 20
6.3052952057
 30
0.0
 10
11.166042833
 20
6.3105337104
 30
0.0
  0
SPLINE
  5
388
100
AcDbEntity
  8
0
100
AcDbSpline
 62
7
  6
CONTINUOUS
 70
0
 71
3
 72
39
 73
35
 74
0
 42
0.0000001
 43
0.0000001
 44
0.0000000001
 40
0.0
 40
0.0
 40
0.0
 40
0.0
 40
0.0310056836
 40
0.0621506876
 40
0.0934290457
 40
0.1248343575
 40
0.1563570069
 40
0.1879858949
 40
0.2197080213
 40
0.2515089249
 40
0.2833728618
 40
0.3152830837
 40
0.3472221046
 40
0.3791719817
 40
0.4111146005
 40
0.4430319616
 40
0.4749064666
 40
0.5067211985
 40
0.5384601949
 40
0.5701087107
 40
0.6016534658
 40
0.633082875
 40
0.6643872566
 40
0.6955590151
 40
0.7265927961
 40
0.7574856065
 40
0.7882368983
 40
0.8188486116
 40
0.8493251741
 40
0.8796734546
 40
0.9099026698
 40
0.9400242422
 40
0.9700516113
 40
1.0
 40
1.0
 40
1.0
 40
1.0
 10
11.4396625738
 20
6.0092640531
 30
0.0
 10
11.4353256089
 20
6.0095648227
 30
0.0
 10
11.4266494701
 20
6.0104551483
 30
0.0
 10
11.4137243913
 20
6.0126414271
 30
0.0
 10
11.4009128098
 20
6.0156721614
 30
0.0
 10
11.3882716243
 20
6.0195338097
 30
0.0
 10
11.3758559097
 20
6.0242095003
 30
0.0
 10
11.3637200738
 20
6.029678639
 30
0.0
 10
11.351917199
 20
6.0359172559
 30
0.0
 10
11.3404989308
 20
6.0428979882
 30
0.0
 10
11.329515225
 20
6.0505902514
 30
0.0
 10
11.3190141376
 20
6.0589603531
 30
0.0
 10
11.3090416162
 20
6.0679716463
 30
0.0
 10
11.2996412988
 20
6.0775846851
 30
0.0
 10
11.2908543234
 20
6.0877573958
 30
0.0
 10
11.2827191518
 20
6.098445263
 30
0.0
 10
11.2752714021
 20
6.1096015214
 30
0.0
 10
11.2685436941
 20
6.1211773593
 30
0.0
 10
11.2625655075
 20
6.1331221298
 30
0.0
 10
11.2573630536
 20
6.1453835701
 30
0.0
 10
11.2529591604
 20
6.1579080276
 30
0.0
 10
11.2493731728
 20
6.170640692
 30
0.0
 10
11.2466208669
 20
6.1835258326
 30
0.0
 10
11.2447143806
 20
6.1965070391
 30
0.0
 10
11.243662154
 20
6.2095274656
 30
0.0
 10
11.243468892
 20
6.2225300784
 30
0.0
 10
11.2441355424
 20
6.2354579029
 30
0.0
 10
11.2456592886
 20
6.2482542733
 30
0.0
 10
11.248033554
 20
6.2608630734
 30
0.0
 10
11.2512480401
 20
6.2732290048
 30
0.0
 10
11.255288715
 20
6.2852977483
 30
0.0
 10
11.2601380622
 20
6.2970165058
 30
0.0
 10
11.2657744388
 20
6.3083331149
 30
0.0
 10
11.2700461915
 20
6.3155862036
 30
0.0
 10
11.2723034581
 20
6.3191270352
 30
0.0
  0
SPLINE
  5
389
100
AcDbEntity
  8
0
100
AcDbSpline
 62
7
  6
CONTINUOUS
 70
0
 71
3
 72
54
 73
50
 74
0
 42
0.0000001
 43
0.0000001
 44
0.0000000001
 40
0.0
 40
0.0
 40
0.0
 40
0.0
 40
0.0095826749
 40
0.0187373859
 40
0.0274873207
 40
0.0358602131
 40
0.0515987747
 40
0.0590566793
 40
0.0662994956
 40
0.0733807643
 40
0.080358085
 40
0.0872919371
 40
0.0942440202
 40
0.1012755204
 40
0.1084453882
 40
0.1158089758
 40
0.123416903
 40
0.1313146155
 40
0.1395420501
 40
0.1481338299
 40
0.1571195933
 40
0.166524286
 40
0.1763688701
 40
0.1866705055
 40
0.197443259
 40
0.2086983351
 40
0.2204444529
 40
0.2326882871
 40
0.2454344639
 40
0.2586861183
 40
0.2724447709
 40
0.2867107057
 40
0.3014830464
 40
0.3325365695
 40
0.365580417
 40
0.4005750924
 40
0.4374702556
 40
0.4762061872
 40
0.5167149459
 40
0.5589213206
 40
0.6027436037
 40
0.6480942408
 40
0.6948804066
 40
0.7430045053
 40
0.7923645726
 40
0.842855035
 40
0.8943659956
 40
0.9467867504
 40
1.0
 40
1.0
 40
1.0
 40
1.0
 10
12.5714521208
 20
9.8690967364
 30
0.0
 10
12.5725526424
 20
9.8701209917
 30
0.0
 10
12.5747527111
 20
9.8720729963
 30
0.0
 10
12.5781281547
 20
9.8747602314
 30
0.0
 10
12.5815005713
 20
9.8771366665
 30
0.0
 10
12.5858977678
 20
9.8798322631
 30
0.0
 10
12.590383797
 20
9.8819846538
 30
0.0
 10
12.5949175076
 20
9.8835008566
 30
0.0
 10
12.5982449926
 20
9.8842997637
 30
0.0
 10
12.601557264
 20
9.8847793565
 30
0.0
 10
12.6048520217
 20
9.8849387759
 30
0.0
 10
12.6081264948
 20
9.8847777103
 30
0.0
 10
12.6113779288
 20
9.8842961943
 30
0.0
 10
12.6146036101
 20
9.8834948014
 30
0.0
 10
12.6178010787
 20
9.8823746213
 30
0.0
 10
12.6209680654
 20
9.880936852
 30
0.0
 10
12.6241026803
 20
9.8791831256
 30
0.0
 10
12.6272031263
 20
9.8771149354
 30
0.0
 10
12.6302678405
 20
9.8747339955
 30
0.0
 10
12.6332952999
 20
9.8720419959
 30
0.0
 10
12.6362839646
 20
9.8690406709
 30
0.0
 10
12.639232408
 20
9.8657319408
 30
0.0
 10
12.6421390241
 20
9.862117717
 30
0.0
 10
12.6450023602
 20
9.858200179
 30
0.0
 10
12.647820814
 20
9.8539815691
 30
0.0
 10
12.6505928405
 20
9.8494643447
 30
0.0
 10
12.6533169108
 20
9.8446511365
 30
0.0
 10
12.6559914076
 20
9.8395447176
 30
0.0
 10
12.6586148683
 20
9.8341480946
 30
0.0
 10
12.6611856938
 20
9.8284643952
 30
0.0
 10
12.6637024232
 20
9.8224969717
 30
0.0
 10
12.666163592
 20
9.8162493126
 30
0.0
 10
12.6694234519
 20
9.8074024305
 30
0.0
 10
12.6733343978
 20
9.795659322
 30
0.0
 10
12.6777088966
 20
9.780738069
 30
0.0
 10
12.6818291451
 20
9.764796439
 30
0.0
 10
12.6856852606
 20
9.747872102
 30
0.0
 10
12.689267956
 20
9.7300048633
 30
0.0
 10
12.6925685979
 20
9.7112369647
 30
0.0
 10
12.6955792244
 20
9.6916128319
 30
0.0
 10
12.6982925706
 20
9.6711789861
 30
0.0
 10
12.7007020883
 20
9.6499839096
 30
0.0
 10
12.7028019605
 20
9.6280779261
 30
0.0
 10
12.7045871144
 20
9.6055130842
 30
0.0
 10
12.7060532516
 20
9.5823429883
 30
0.0
 10
12.7071968081
 20
9.5586228047
 30
0.0
 10
12.7080150599
 20
9.5344087444
 30
0.0
 10
12.7085059583
 20
9.5097586604
 30
0.0
 10
12.7086134965
 20
9.4931856753
 30
0.0
 10
12.7086134965
 20
9.484837127
 30
0.0
  0
SPLINE
  5
38A
100
AcDbEntity
  8
0
100
AcDbSpline
 62
4
  6
CONTINUOUS
 70
0
 71
3
 72
281
 73
277
 74
0
 42
0.0000001
 43
0.0000001
 44
0.0000000001
 40
0.0
 40
0.0
 40
0.0
 40
0.0
 40
0.015625
 40
0.0234375
 40
0.03125
 40
0.0390625
 40
0.046875
 40
0.05078125
 40
0.0546875
 40
0.056640625
 40
0.05859375
 40
0.060546875
 40
0.0615234375
 40
0.0620117188
 40
0.0625
 40
0.0629882812
 40
0.0634765625
 40
0.064453125
 40
0.06640625
 40
0.068359375
 40
0.0703125
 40
0.07421875
 40
0.078125
 40
0.0859375
 40
0.09375
 40
0.1015625
 40
0.109375
 40
0.11328125
 40
0.1171875
 40
0.119140625
 40
0.12109375
 40
0.123046875
 40
0.1240234375
 40
0.1245117188
 40
0.125
 40
0.1254882812
 40
0.1259765625
 40
0.126953125
 40
0.12890625
 40
0.130859375
 40
0.1328125
 40
0.13671875
 40
0.140625
 40
0.1484375
 40
0.15625
 40
0.1640625
 40
0.171875
 40
0.17578125
 40
0.1796875
 40
0.181640625
 40
0.18359375
 40
0.185546875
 40
0.1865234375
 40
0.1870117188
 40
0.1875
 40
0.1879882812
 40
0.1884765625
 40
0.189453125
 40
0.19140625
 40
0.193359375
 40
0.1953125
 40
0.19921875
 40
0.203125
 40
0.2109375
 40
0.21875
 40
0.2265625
 40
0.234375
 40
0.23828125
 40
0.2421875
 40
0.24609375
 40
0.248046875
 40
0.2490234375
 40
0.25
 40
0.2509765625
 40
0.251953125
 40
0.25390625
 40
0.2578125
 40
0.26171875
 40
0.265625
 40
0.2734375
 40
0.28125
 40
0.2890625
 40
0.296875
 40
0.30078125
 40
0.3046875
 40
0.30859375
 40
0.310546875
 40
0.3115234375
 40
0.3125
 40
0.3134765625
 40
0.314453125
 40
0.31640625
 40
0.3203125
 40
0.32421875
 40
0.328125
 40
0.3359375
 40
0.34375
 40
0.3515625
 40
0.359375
 40
0.3671875
 40
0.37109375
 40
0.373046875
 40
0.375
 40
0.376953125
 40
0.37890625
 40
0.3828125
 40
0.390625
 40
0.3984375
 40
0.40625
 40
0.4140625
 40
0.421875
 40
0.4296875
 40
0.43359375
 40
0.435546875
 40
0.4375
 40
0.439453125
 40
0.44140625
 40
0.4453125
 40
0.453125
 40
0.4609375
 40
0.46875
 40
0.4765625
 40
0.484375
 40
0.48828125
 40
0.4921875
 40
0.49609375
 40
0.498046875
 40
0.4990234375
 40
0.5
 40
0.5009765625
 40
0.501953125
 40
0.50390625
 40
0.5078125
 40
0.51171875
 40
0.515625
 40
0.5234375
 40
0.53125
 40
0.5390625
 40
0.546875
 40
0.55078125
 40
0.5546875
 40
0.55859375
 40
0.560546875
 40
0.5615234375
 40
0.5625
 40
0.5634765625
 40
0.564453125
 40
0.56640625
 40
0.5703125
 40
0.57421875
 40
0.578125
 40
0.5859375
 40
0.59375
 40
0.6015625
 40
0.609375
 40
0.61328125
 40
0.6171875
 40
0.619140625
 40
0.62109375
 40
0.623046875
 40
0.6240234375
 40
0.6245117188
 40
0.625
 40
0.6254882812
 40
0.6259765625
 40
0.626953125
 40
0.62890625
 40
0.630859375
 40
0.6328125
 40
0.63671875
 40
0.640625
 40
0.6484375
 40
0.65625
 40
0.6640625
 40
0.671875
 40
0.67578125
 40
0.6796875
 40
0.681640625
 40
0.68359375
 40
0.685546875
 40
0.6865234375
 40
0.6870117188
 40
0.6875
 40
0.6879882812
 40
0.6884765625
 40
0.689453125
 40
0.69140625
 40
0.693359375
 40
0.6953125
 40
0.69921875
 40
0.703125
 40
0.7109375
 40
0.71875
 40
0.7265625
 40
0.734375
 40
0.73828125
 40
0.7421875
 40
0.744140625
 40
0.74609375
 40
0.748046875
 40
0.7490234375
 40
0.7495117188
 40
0.75
 40
0.7504882812
 40
0.7509765625
 40
0.751953125
 40
0.75390625
 40
0.755859375
 40
0.7578125
 40
0.76171875
 40
0.765625
 40
0.7734375
 40
0.78125
 40
0.7890625
 40
0.796875
 40
0.80078125
 40
0.8046875
 40
0.806640625
 40
0.80859375
 40
0.810546875
 40
0.8115234375
 40
0.8120117188
 40
0.8125
 40
0.8129882812
 40
0.8134765625
 40
0.814453125
 40
0.81640625
 40
0.818359375
 40
0.8203125
 40
0.82421875
 40
0.828125
 40
0.8359375
 40
0.84375
 40
0.8515625
 40
0.859375
 40
0.86328125
 40
0.8671875
 40
0.869140625
 40
0.87109375
 40
0.873046875
 40
0.8740234375
 40
0.8745117188
 40
0.875
 40
0.8754882812
 40
0.8759765625
 40
0.876953125
 40
0.87890625
 40
0.880859375
 40
0.8828125
 40
0.88671875
 40
0.890625
 40
0.8984375
 40
0.90625
 40
0.9140625
 40
0.921875
 40
0.92578125
 40
0.9296875
 40
0.931640625
 40
0.93359375
 40
0.935546875
 40
0.9365234375
 40
0.9370117188
 40
0.9375
 40
0.9379882812
 40
0.9384765625
 40
0.939453125
 40
0.94140625
 40
0.943359375
 40
0.9453125
 40
0.94921875
 40
0.953125
 40
0.9609375
 40
0.96875
 40
0.9765625
 40
0.984375
 40
1.0
 40
1.0
 40
1.0
 40
1.0
 10
12.1738938168
 20
7.3679915266
 30
0.0
 10
12.174733351
 20
7.369109666
 30
0.0
 10
12.1759926522
 20
7.370786875
 30
0.0
 10
12.1776717205
 20
7.3730231545
 30
0.0
 10
12.1789310219
 20
7.3747003618
 30
0.0
 10
12.1801903227
 20
7.3763775779
 30
0.0
 10
12.1812397416
 20
7.3777752305
 30
0.0
 10
12.1820792733
 20
7.3788934142
 30
0.0
 10
12.1826039885
 20
7.3795921386
 30
0.0
 10
12.1830237426
 20
7.3801514399
 30
0.0
 10
12.1833386075
 20
7.3805700345
 30
0.0
 10
12.1836008381
 20
7.3809216672
 30
0.0
 10
12.1837847072
 20
7.3811623076
 30
0.0
 10
12.1838892948
 20
7.3813084081
 30
0.0
 10
12.183969089
 20
7.3813937806
 30
0.0
 10
12.1840437096
 20
7.3815716687
 30
0.0
 10
12.1841450083
 20
7.3817765823
 30
0.0
 10
12.1843214403
 20
7.3821502165
 30
0.0
 10
12.1845739255
 20
7.382676119
 30
0.0
 10
12.1848767197
 20
7.3833105666
 30
0.0
 10
12.1852805109
 20
7.3841553216
 30
0.0
 10
12.1857852275
 20
7.3852116677
 30
0.0
 10
12.1865927865
 20
7.3869015964
 30
0.0
 10
12.1876022309
 20
7.3890140851
 30
0.0
 10
12.1888135664
 20
7.3915490362
 30
0.0
 10
12.1900249004
 20
7.3940840041
 30
0.0
 10
12.1910343485
 20
7.3961964508
 30
0.0
 10
12.1918419002
 20
7.3978864634
 30
0.0
 10
12.1923466354
 20
7.3989425965
 30
0.0
 10
12.1927503883
 20
7.3997877886
 30
0.0
 10
12.1930532996
 20
7.4004209005
 30
0.0
 10
12.1933054182
 20
7.400950982
 30
0.0
 10
12.1934825048
 20
7.401317156
 30
0.0
 10
12.1935827546
 20
7.4015340228
 30
0.0
 10
12.1936605972
 20
7.4016751945
 30
0.0
 10
12.1937282898
 20
7.4018984675
 30
0.0
 10
12.193822087
 20
7.4021675269
 30
0.0
 10
12.1939845826
 20
7.4026517237
 30
0.0
 10
12.1942175816
 20
7.4033364577
 30
0.0
 10
12.1944968112
 20
7.4041611244
 30
0.0
 10
12.1948692464
 20
7.405259637
 30
0.0
 10
12.1953347461
 20
7.4066331349
 30
0.0
 10
12.1960795704
 20
7.4088305318
 30
0.0
 10
12.1970105922
 20
7.411577347
 30
0.0
 10
12.1981278223
 20
7.4148734938
 30
0.0
 10
12.1992450502
 20
7.4181696558
 30
0.0
 10
12.2001760775
 20
7.4209164328
 30
0.0
 10
12.2009208907
 20
7.423113906
 30
0.0
 10
12.2013864187
 20
7.4244872102
 30
0.0
 10
12.2017587958
 20
7.4255861204
 30
0.0
 10
12.2020382026
 20
7.4264095726
 30
0.0
 10
12.2022706473
 20
7.4270981061
 30
0.0
 10
12.2024341324
 20
7.4275755202
 30
0.0
 10
12.2025263441
 20
7.4278554474
 30
0.0
 10
12.2025989067
 20
7.4280453379
 30
0.0
 10
12.2026584584
 20
7.4283118885
 30
0.0
 10
12.202742399
 20
7.4286405494
 30
0.0
 10
12.2028871805
 20
7.4292281647
 30
0.0
 10
12.2030951167
 20
7.4300611015
 30
0.0
 10
12.2033441669
 20
7.4310634137
 30
0.0
 10
12.2036763992
 20
7.4323988562
 30
0.0
 10
12.204091633
 20
7.4340684928
 30
0.0
 10
12.2047560387
 20
7.4367397246
 30
0.0
 10
12.2055865339
 20
7.440078831
 30
0.0
 10
12.2065831384
 20
7.4440857188
 30
0.0
 10
12.2075797208
 20
7.4480926593
 30
0.0
 10
12.2084102714
 20
7.4514316342
 30
0.0
 10
12.2090745662
 20
7.4541031289
 30
0.0
 10
12.209573185
 20
7.4561058908
 30
0.0
 10
12.2099874359
 20
7.4577775917
 30
0.0
 10
12.2102798935
 20
7.4589424197
 30
0.0
 10
12.2104431368
 20
7.459616409
 30
0.0
 10
12.2105764862
 20
7.4600983133
 30
0.0
 10
12.2106681054
 20
7.4606703815
 30
0.0
 10
12.2108048204
 20
7.461401689
 30
0.0
 10
12.2110372896
 20
7.4626961303
 30
0.0
 10
12.2113729342
 20
7.4645376713
 30
0.0
 10
12.2117741899
 20
7.4667507996
 30
0.0
 10
12.212309728
 20
7.4697004916
 30
0.0
 10
12.2129789673
 20
7.4733880017
 30
0.0
 10
12.2137821385
 20
7.4778128361
 30
0.0
 10
12.2145852666
 20
7.4822377496
 30
0.0
 10
12.2152546138
 20
7.4859250616
 30
0.0
 10
12.2157899361
 20
7.4888751499
 30
0.0
 10
12.2161918498
 20
7.4910870695
 30
0.0
 10
12.2165254362
 20
7.4929323919
 30
0.0
 10
12.2167615796
 20
7.4942200828
 30
0.0
 10
12.2168924076
 20
7.4949622061
 30
0.0
 10
12.2170021094
 20
7.4955010514
 30
0.0
 10
12.2170675435
 20
7.4961077356
 30
0.0
 10
12.2171702301
 20
7.4968929849
 30
0.0
 10
12.2173427372
 20
7.4982781961
 30
0.0
 10
12.2175929374
 20
7.5002513052
 30
0.0
 10
12.2178915671
 20
7.5026215036
 30
0.0
 10
12.2182903047
 20
7.505780905
 30
0.0
 10
12.2187885184
 20
7.5097304616
 30
0.0
 10
12.2193865281
 20
7.5144697612
 30
0.0
 10
12.2199842578
 20
7.5192092462
 30
0.0
 10
12.2205829539
 20
7.5239481578
 30
0.0
 10
12.2210788796
 20
7.5278990076
 30
0.0
 10
12.221431879
 20
7.5306611641
 30
0.0
 10
12.2216244583
 20
7.5322449066
 30
0.0
 10
12.2217946249
 20
7.5334175937
 30
0.0
 10
12.22186643
 20
7.534648076
 30
0.0
 10
12.2219964799
 20
7.5362685595
 30
0.0
 10
12.2222080809
 20
7.5391137984
 30
0.0
 10
12.2225187313
 20
7.5431735133
 30
0.0
 10
12.2228879081
 20
7.5480472797
 30
0.0
 10
12.2232581184
 20
7.5529204718
 30
0.0
 10
12.2236277983
 20
7.5577938523
 30
0.0
 10
12.2239985666
 20
7.5626670538
 30
0.0
 10
12.2243043541
 20
7.5667284945
 30
0.0
 10
12.22452462
 20
7.5695706585
 30
0.0
 10
12.2246407883
 20
7.571196068
 30
0.0
 10
12.2247552327
 20
7.572411419
 30
0.0
 10
12.2247652532
 20
7.5736409369
 30
0.0
 10
12.2248150381
 20
7.5752753525
 30
0.0
 10
12.2248851908
 20
7.5781378822
 30
0.0
 10
12.2249942833
 20
7.582226007
 30
0.0
 10
12.2251213879
 20
7.5871322703
 30
0.0
 10
12.2252495192
 20
7.5920384047
 30
0.0
 10
12.2253773498
 20
7.596944541
 30
0.0
 10
12.2254840222
 20
7.6010330889
 30
0.0
 10
12.2255691579
 20
7.604303684
 30
0.0
 10
12.2256335282
 20
7.6067572994
 30
0.0
 10
12.2256855261
 20
7.60879985
 30
0.0
 10
12.2257251501
 20
7.6102338134
 30
0.0
 10
12.2257427563
 20
7.6110466974
 30
0.0
 10
12.2257701475
 20
7.6116747376
 30
0.0
 10
12.2257433106
 20
7.612232531
 30
0.0
 10
12.2257264435
 20
7.6130007583
 30
0.0
 10
12.225688113
 20
7.6143337398
 30
0.0
 10
12.2256379626
 20
7.6162439678
 30
0.0
 10
12.22557581
 20
7.6185336864
 30
0.0
 10
12.225493629
 20
7.6215875374
 30
0.0
 10
12.2253906647
 20
7.6254045423
 30
0.0
 10
12.2252672161
 20
7.6299850917
 30
0.0
 10
12.2251437141
 20
7.6345655611
 30
0.0
 10
12.2250408834
 20
7.6383827658
 30
0.0
 10
12.2249584353
 20
7.6414362172
 30
0.0
 10
12.2248970973
 20
7.6437271548
 30
0.0
 10
12.2248443985
 20
7.6456335693
 30
0.0
 10
12.2248106174
 20
7.6469733583
 30
0.0
 10
12.2247864609
 20
7.6477306783
 30
0.0
 10
12.2247820144
 20
7.6483219756
 30
0.0
 10
12.224725311
 20
7.6488241805
 30
0.0
 10
12.2246679343
 20
7.6495248634
 30
0.0
 10
12.2245590323
 20
7.6507365795
 30
0.0
 10
12.2244078982
 20
7.6524751723
 30
0.0
 10
12.2242246366
 20
7.6545582434
 30
0.0
 10
12.2239809518
 20
7.6573368035
 30
0.0
 10
12.2236761179
 20
7.6608096149
 30
0.0
 10
12.2233104155
 20
7.6649771567
 30
0.0
 10
12.2229446845
 20
7.6691446479
 30
0.0
 10
12.222639922
 20
7.6726175859
 30
0.0
 10
12.2223960943
 20
7.6753958929
 30
0.0
 10
12.2222437396
 20
7.6771324287
 30
0.0
 10
12.2221217701
 20
7.6785214428
 30
0.0
 10
12.2220305276
 20
7.6795637908
 30
0.0
 10
12.2219537458
 20
7.6804305453
 30
0.0
 10
12.2219014632
 20
7.6810409411
 30
0.0
 10
12.2218693005
 20
7.6813840119
 30
0.0
 10
12.2218516209
 20
7.6816574477
 30
0.0
 10
12.2218093152
 20
7.6818692159
 30
0.0
 10
12.2217614975
 20
7.6821730839
 30
0.0
 10
12.2216738144
 20
7.6826948309
 30
0.0
 10
12.2215506452
 20
7.6834454233
 30
0.0
 10
12.2214019465
 20
7.6843438915
 30
0.0
 10
12.2212039944
 20
7.6855426324
 30
0.0
 10
12.2209564472
 20
7.6870407904
 30
0.0
 10
12.2205604315
 20
7.689437993
 30
0.0
 10
12.2200653912
 20
7.6924344445
 30
0.0
 10
12.2194713523
 20
7.6960302103
 30
0.0
 10
12.2188773088
 20
7.6996259632
 30
0.0
 10
12.2183822801
 20
7.7026224467
 30
0.0
 10
12.2179862412
 20
7.7050195853
 30
0.0
 10
12.2177387532
 20
7.7065179059
 30
0.0
 10
12.2175406795
 20
7.707716313
 30
0.0
 10
12.2173923521
 20
7.708615801
 30
0.0
 10
12.2172680213
 20
7.7093632028
 30
0.0
 10
12.2171824118
 20
7.7098906456
 30
0.0
 10
12.2171312717
 20
7.7101853874
 30
0.0
 10
12.2170991713
 20
7.7104251884
 30
0.0
 10
12.2170431624
 20
7.710593338
 30
0.0
 10
12.2169768235
 20
7.7108425303
 30
0.0
 10
12.2168568448
 20
7.7112669721
 30
0.0
 10
12.216687478
 20
7.7118794055
 30
0.0
 10
12.2164833684
 20
7.7126117198
 30
0.0
 10
12.216211526
 20
7.713589049
 30
0.0
 10
12.2158716189
 20
7.7148103988
 30
0.0
 10
12.2153278258
 20
7.7167647328
 30
0.0
 10
12.2146480643
 20
7.71920759
 30
0.0
 10
12.2138323595
 20
7.7221390467
 30
0.0
 10
12.2130166508
 20
7.7250704875
 30
0.0
 10
12.2123368993
 20
7.7275133846
 30
0.0
 10
12.2117930863
 20
7.7294676388
 30
0.0
 10
12.2114532297
 20
7.7306891916
 30
0.0
 10
12.2111812836
 20
7.7316661041
 30
0.0
 10
12.2109774906
 20
7.7323996913
 30
0.0
 10
12.2108071333
 20
7.7330081422
 30
0.0
 10
12.2106889229
 20
7.7334396935
 30
0.0
 10
12.2106197507
 20
7.7336774946
 30
0.0
 10
12.2105724445
 20
7.733880634
 30
0.0
 10
12.2105076584
 20
7.7339890193
 30
0.0
 10
12.210427374
 20
7.7341665843
 30
0.0
 10
12.2102840356
 20
7.734461924
 30
0.0
 10
12.2100807517
 20
7.7348918886
 30
0.0
 10
12.2098361753
 20
7.7354044001
 30
0.0
 10
12.2095102954
 20
7.7360889524
 30
0.0
 10
12.2091028696
 20
7.7369442307
 30
0.0
 10
12.2084510307
 20
7.7383129063
 30
0.0
 10
12.2076362175
 20
7.7400236712
 30
0.0
 10
12.2066584483
 20
7.7420766256
 30
0.0
 10
12.2056806759
 20
7.7441295615
 30
0.0
 10
12.2048658704
 20
7.7458403725
 30
0.0
 10
12.2042140161
 20
7.7472089561
 30
0.0
 10
12.2038066296
 20
7.7480644682
 30
0.0
 10
12.2034806689
 20
7.7487485406
 30
0.0
 10
12.2032363396
 20
7.7492625182
 30
0.0
 10
12.2030322827
 20
7.7496878957
 30
0.0
 10
12.2028903241
 20
7.7499914242
 30
0.0
 10
12.2028078289
 20
7.7501558686
 30
0.0
 10
12.2027498339
 20
7.7503045563
 30
0.0
 10
12.2026770215
 20
7.7503563267
 30
0.0
 10
12.2025851067
 20
7.7504591597
 30
0.0
 10
12.2024218478
 20
7.7506233667
 30
0.0
 10
12.2021898798
 20
7.7508661829
 30
0.0
 10
12.2019109793
 20
7.7511540375
 30
0.0
 10
12.2015393001
 20
7.7515390749
 30
0.0
 10
12.2010746368
 20
7.75201995
 30
0.0
 10
12.2003312114
 20
7.7527895859
 30
0.0
 10
12.1994019173
 20
7.7537515493
 30
0.0
 10
12.1982867699
 20
7.7549059428
 30
0.0
 10
12.1971716202
 20
7.7560603172
 30
0.0
 10
12.1962423321
 20
7.7570223282
 30
0.0
 10
12.1954988947
 20
7.7577918688
 30
0.0
 10
12.1950342619
 20
7.7582729862
 30
0.0
 10
12.19466252
 20
7.7586575263
 30
0.0
 10
12.1943838112
 20
7.7589469
 30
0.0
 10
12.1941512436
 20
7.7591849637
 30
0.0
 10
12.193989055
 20
7.7593576546
 30
0.0
 10
12.1938954253
 20
7.7594468943
 30
0.0
 10
12.1938278808
 20
7.7595404191
 30
0.0
 10
12.1937501003
 20
7.7595322841
 30
0.0
 10
12.1936499634
 20
7.7595568975
 30
0.0
 10
12.1934730604
 20
7.7595834494
 30
0.0
 10
12.1932212114
 20
7.7596300184
 30
0.0
 10
12.1929186204
 20
7.7596822039
 30
0.0
 10
12.1925152957
 20
7.7597530761
 30
0.0
 10
12.1920110954
 20
7.759841224
 30
0.0
 10
12.1912043997
 20
7.759982508
 30
0.0
 10
12.1901960216
 20
7.7601590275
 30
0.0
 10
12.1889859716
 20
7.7603708901
 30
0.0
 10
12.18777592
 20
7.7605827329
 30
0.0
 10
12.1867675461
 20
7.760759302
 30
0.0
 10
12.1859608419
 20
7.7609004868
 30
0.0
 10
12.1854566634
 20
7.7609888867
 30
0.0
 10
12.1850532938
 20
7.7610592418
 30
0.0
 10
12.1847508401
 20
7.7611130071
 30
0.0
 10
12.1844985617
 20
7.7611546333
 30
0.0
 10
12.1843224252
 20
7.761190009
 30
0.0
 10
12.1842210601
 20
7.7612004845
 30
0.0
 10
12.1841470522
 20
7.7612357765
 30
0.0
 10
12.1840653385
 20
7.7611661964
 30
0.0
 10
12.1839590748
 20
7.7611100036
 30
0.0
 10
12.183771861
 20
7.7609946225
 30
0.0
 10
12.1835050674
 20
7.7608387029
 30
0.0
 10
12.1831846349
 20
7.7606477854
 30
0.0
 10
12.1827574893
 20
7.7603945608
 30
0.0
 10
12.1822235239
 20
7.7600775741
 30
0.0
 10
12.181369198
 20
7.7595706501
 30
0.0
 10
12.1803012841
 20
7.7589369078
 30
0.0
 10
12.1790197902
 20
7.7581764544
 30
0.0
 10
12.1777382956
 20
7.757415991
 30
0.0
 10
12.1760296364
 20
7.7564020434
 30
0.0
 10
12.1747481419
 20
7.7556415819
 30
0.0
 10
12.1738938123
 20
7.7551346077
 30
0.0
  0
SPLINE
  5
38B
100
AcDbEntity
  8
0
100
AcDbSpline
 62
4
  6
CONTINUOUS
 70
0
 71
3
 72
281
 73
277
 74
0
 42
0.0000001
 43
0.0000001
 44
0.0000000001
 40
0.0
 40
0.0
 40
0.0
 40
0.0
 40
0.015625
 40
0.0234375
 40
0.03125
 40
0.0390625
 40
0.046875
 40
0.05078125
 40
0.0546875
 40
0.056640625
 40
0.05859375
 40
0.060546875
 40
0.0615234375
 40
0.0620117188
 40
0.0625
 40
0.0629882812
 40
0.0634765625
 40
0.064453125
 40
0.06640625
 40
0.068359375
 40
0.0703125
 40
0.07421875
 40
0.078125
 40
0.0859375
 40
0.09375
 40
0.1015625
 40
0.109375
 40
0.11328125
 40
0.1171875
 40
0.119140625
 40
0.12109375
 40
0.123046875
 40
0.1240234375
 40
0.1245117188
 40
0.125
 40
0.1254882812
 40
0.1259765625
 40
0.126953125
 40
0.12890625
 40
0.130859375
 40
0.1328125
 40
0.13671875
 40
0.140625
 40
0.1484375
 40
0.15625
 40
0.1640625
 40
0.171875
 40
0.17578125
 40
0.1796875
 40
0.181640625
 40
0.18359375
 40
0.185546875
 40
0.1865234375
 40
0.1870117188
 40
0.1875
 40
0.1879882812
 40
0.1884765625
 40
0.189453125
 40
0.19140625
 40
0.193359375
 40
0.1953125
 40
0.19921875
 40
0.203125
 40
0.2109375
 40
0.21875
 40
0.2265625
 40
0.234375
 40
0.23828125
 40
0.2421875
 40
0.24609375
 40
0.248046875
 40
0.2490234375
 40
0.25
 40
0.2509765625
 40
0.251953125
 40
0.25390625
 40
0.2578125
 40
0.26171875
 40
0.265625
 40
0.2734375
 40
0.28125
 40
0.2890625
 40
0.296875
 40
0.30078125
 40
0.3046875
 40
0.30859375
 40
0.310546875
 40
0.3115234375
 40
0.3125
 40
0.3134765625
 40
0.314453125
 40
0.31640625
 40
0.3203125
 40
0.32421875
 40
0.328125
 40
0.3359375
 40
0.34375
 40
0.3515625
 40
0.359375
 40
0.3671875
 40
0.37109375
 40
0.373046875
 40
0.375
 40
0.376953125
 40
0.37890625
 40
0.3828125
 40
0.390625
 40
0.3984375
 40
0.40625
 40
0.4140625
 40
0.421875
 40
0.4296875
 40
0.43359375
 40
0.435546875
 40
0.4375
 40
0.439453125
 40
0.44140625
 40
0.4453125
 40
0.453125
 40
0.4609375
 40
0.46875
 40
0.4765625
 40
0.484375
 40
0.48828125
 40
0.4921875
 40
0.49609375
 40
0.498046875
 40
0.4990234375
 40
0.5
 40
0.5009765625
 40
0.501953125
 40
0.50390625
 40
0.5078125
 40
0.51171875
 40
0.515625
 40
0.5234375
 40
0.53125
 40
0.5390625
 40
0.546875
 40
0.55078125
 40
0.5546875
 40
0.55859375
 40
0.560546875
 40
0.5615234375
 40
0.5625
 40
0.5634765625
 40
0.564453125
 40
0.56640625
 40
0.5703125
 40
0.57421875
 40
0.578125
 40
0.5859375
 40
0.59375
 40
0.6015625
 40
0.609375
 40
0.61328125
 40
0.6171875
 40
0.619140625
 40
0.62109375
 40
0.623046875
 40
0.6240234375
 40
0.6245117188
 40
0.625
 40
0.6254882812
 40
0.6259765625
 40
0.626953125
 40
0.62890625
 40
0.630859375
 40
0.6328125
 40
0.63671875
 40
0.640625
 40
0.6484375
 40
0.65625
 40
0.6640625
 40
0.671875
 40
0.67578125
 40
0.6796875
 40
0.681640625
 40
0.68359375
 40
0.685546875
 40
0.6865234375
 40
0.6870117188
 40
0.6875
 40
0.6879882812
 40
0.6884765625
 40
0.689453125
 40
0.69140625
 40
0.693359375
 40
0.6953125
 40
0.69921875
 40
0.703125
 40
0.7109375
 40
0.71875
 40
0.7265625
 40
0.734375
 40
0.73828125
 40
0.7421875
 40
0.744140625
 40
0.74609375
 40
0.748046875
 40
0.7490234375
 40
0.7495117188
 40
0.75
 40
0.7504882812
 40
0.7509765625
 40
0.751953125
 40
0.75390625
 40
0.755859375
 40
0.7578125
 40
0.76171875
 40
0.765625
 40
0.7734375
 40
0.78125
 40
0.7890625
 40
0.796875
 40
0.80078125
 40
0.8046875
 40
0.806640625
 40
0.80859375
 40
0.810546875
 40
0.8115234375
 40
0.8120117188
 40
0.8125
 40
0.8129882812
 40
0.8134765625
 40
0.814453125
 40
0.81640625
 40
0.818359375
 40
0.8203125
 40
0.82421875
 40
0.828125
 40
0.8359375
 40
0.84375
 40
0.8515625
 40
0.859375
 40
0.86328125
 40
0.8671875
 40
0.869140625
 40
0.87109375
 40
0.873046875
 40
0.8740234375
 40
0.8745117188
 40
0.875
 40
0.8754882812
 40
0.8759765625
 40
0.876953125
 40
0.87890625
 40
0.880859375
 40
0.8828125
 40
0.88671875
 40
0.890625
 40
0.8984375
 40
0.90625
 40
0.9140625
 40
0.921875
 40
0.92578125
 40
0.9296875
 40
0.931640625
 40
0.93359375
 40
0.935546875
 40
0.9365234375
 40
0.9370117188
 40
0.9375
 40
0.9379882812
 40
0.9384765625
 40
0.939453125
 40
0.94140625
 40
0.943359375
 40
0.9453125
 40
0.94921875
 40
0.953125
 40
0.9609375
 40
0.96875
 40
0.9765625
 40
0.984375
 40
1.0
 40
1.0
 40
1.0
 40
1.0
 10
12.1738938168
 20
7.7551346121
 30
0.0
 10
12.1730542826
 20
7.7540164726
 30
0.0
 10
12.1717949814
 20
7.7523392637
 30
0.0
 10
12.1701159131
 20
7.7501029842
 30
0.0
 10
12.1688566118
 20
7.7484257769
 30
0.0
 10
12.1675973109
 20
7.7467485607
 30
0.0
 10
12.166547892
 20
7.7453509082
 30
0.0
 10
12.1657083603
 20
7.7442327244
 30
0.0
 10
12.1651836451
 20
7.7435340001
 30
0.0
 10
12.164763891
 20
7.7429746987
 30
0.0
 10
12.1644490261
 20
7.7425561041
 30
0.0
 10
12.1641867955
 20
7.7422044714
 30
0.0
 10
12.1640029264
 20
7.741963831
 30
0.0
 10
12.1638983388
 20
7.7418177305
 30
0.0
 10
12.1638185446
 20
7.741732358
 30
0.0
 10
12.163743924
 20
7.74155447
 30
0.0
 10
12.1636426253
 20
7.7413495564
 30
0.0
 10
12.1634661933
 20
7.7409759221
 30
0.0
 10
12.1632137081
 20
7.7404500197
 30
0.0
 10
12.1629109139
 20
7.739815572
 30
0.0
 10
12.1625071227
 20
7.7389708171
 30
0.0
 10
12.1620024062
 20
7.737914471
 30
0.0
 10
12.1611948471
 20
7.7362245422
 30
0.0
 10
12.1601854027
 20
7.7341120536
 30
0.0
 10
12.1589740672
 20
7.7315771025
 30
0.0
 10
12.1577627332
 20
7.7290421346
 30
0.0
 10
12.1567532851
 20
7.7269296879
 30
0.0
 10
12.1559457334
 20
7.7252396753
 30
0.0
 10
12.1554409982
 20
7.7241835422
 30
0.0
 10
12.1550372453
 20
7.72333835
 30
0.0
 10
12.154734334
 20
7.7227052381
 30
0.0
 10
12.1544822155
 20
7.7221751566
 30
0.0
 10
12.1543051288
 20
7.7218089826
 30
0.0
 10
12.1542048791
 20
7.7215921158
 30
0.0
 10
12.1541270364
 20
7.7214509441
 30
0.0
 10
12.1540593438
 20
7.7212276712
 30
0.0
 10
12.1539655466
 20
7.7209586118
 30
0.0
 10
12.153803051
 20
7.7204744149
 30
0.0
 10
12.153570052
 20
7.7197896809
 30
0.0
 10
12.1532908224
 20
7.7189650143
 30
0.0
 10
12.1529183873
 20
7.7178665017
 30
0.0
 10
12.1524528875
 20
7.7164930038
 30
0.0
 10
12.1517080633
 20
7.7142956068
 30
0.0
 10
12.1507770415
 20
7.7115487917
 30
0.0
 10
12.1496598113
 20
7.7082526449
 30
0.0
 10
12.1485425834
 20
7.7049564828
 30
0.0
 10
12.1476115561
 20
7.7022097058
 30
0.0
 10
12.1468667429
 20
7.7000122326
 30
0.0
 10
12.146401215
 20
7.6986389284
 30
0.0
 10
12.1460288378
 20
7.6975400183
 30
0.0
 10
12.145749431
 20
7.696716566
 30
0.0
 10
12.1455169864
 20
7.6960280325
 30
0.0
 10
12.1453535013
 20
7.6955506185
 30
0.0
 10
12.1452612895
 20
7.6952706913
 30
0.0
 10
12.1451887269
 20
7.6950808008
 30
0.0
 10
12.1451291752
 20
7.6948142502
 30
0.0
 10
12.1450452346
 20
7.6944855892
 30
0.0
 10
12.1449004531
 20
7.693897974
 30
0.0
 10
12.1446925169
 20
7.6930650371
 30
0.0
 10
12.1444434667
 20
7.6920627249
 30
0.0
 10
12.1441112344
 20
7.6907272825
 30
0.0
 10
12.1436960007
 20
7.6890576459
 30
0.0
 10
12.1430315949
 20
7.6863864141
 30
0.0
 10
12.1422010997
 20
7.6830473077
 30
0.0
 10
12.1412044952
 20
7.6790404198
 30
0.0
 10
12.1402079128
 20
7.6750334794
 30
0.0
 10
12.1393773623
 20
7.6716945045
 30
0.0
 10
12.1387130674
 20
7.6690230097
 30
0.0
 10
12.1382144486
 20
7.6670202478
 30
0.0
 10
12.1378001977
 20
7.6653485469
 30
0.0
 10
12.1375077401
 20
7.6641837189
 30
0.0
 10
12.1373444968
 20
7.6635097297
 30
0.0
 10
12.1372111474
 20
7.6630278253
 30
0.0
 10
12.1371195282
 20
7.6624557571
 30
0.0
 10
12.1369828132
 20
7.6617244496
 30
0.0
 10
12.136750344
 20
7.6604300084
 30
0.0
 10
12.1364146994
 20
7.6585884674
 30
0.0
 10
12.1360134437
 20
7.6563753391
 30
0.0
 10
12.1354779056
 20
7.653425647
 30
0.0
 10
12.1348086663
 20
7.6497381369
 30
0.0
 10
12.1340054951
 20
7.6453133026
 30
0.0
 10
12.133202367
 20
7.640888389
 30
0.0
 10
12.1325330198
 20
7.637201077
 30
0.0
 10
12.1319976975
 20
7.6342509887
 30
0.0
 10
12.1315957838
 20
7.6320390691
 30
0.0
 10
12.1312621974
 20
7.6301937467
 30
0.0
 10
12.1310260541
 20
7.6289060559
 30
0.0
 10
12.130895226
 20
7.6281639325
 30
0.0
 10
12.1307855242
 20
7.6276250872
 30
0.0
 10
12.1307200901
 20
7.6270184031
 30
0.0
 10
12.1306174035
 20
7.6262331538
 30
0.0
 10
12.1304448964
 20
7.6248479426
 30
0.0
 10
12.1301946963
 20
7.6228748334
 30
0.0
 10
12.1298960665
 20
7.620504635
 30
0.0
 10
12.1294973289
 20
7.6173452336
 30
0.0
 10
12.1289991152
 20
7.6133956771
 30
0.0
 10
12.1284011056
 20
7.6086563775
 30
0.0
 10
12.1278033758
 20
7.6039168925
 30
0.0
 10
12.1272046797
 20
7.5991779808
 30
0.0
 10
12.126708754
 20
7.595227131
 30
0.0
 10
12.1263557546
 20
7.5924649746
 30
0.0
 10
12.1261631754
 20
7.5908812321
 30
0.0
 10
12.1259930087
 20
7.5897085449
 30
0.0
 10
12.1259212036
 20
7.5884780626
 30
0.0
 10
12.1257911537
 20
7.5868575792
 30
0.0
 10
12.1255795527
 20
7.5840123403
 30
0.0
 10
12.1252689023
 20
7.5799526253
 30
0.0
 10
12.1248997255
 20
7.575078859
 30
0.0
 10
12.1245295152
 20
7.5702056668
 30
0.0
 10
12.1241598353
 20
7.5653322864
 30
0.0
 10
12.123789067
 20
7.5604590849
 30
0.0
 10
12.1234832796
 20
7.5563976442
 30
0.0
 10
12.1232630136
 20
7.5535554802
 30
0.0
 10
12.1231468454
 20
7.5519300706
 30
0.0
 10
12.1230324009
 20
7.5507147197
 30
0.0
 10
12.1230223804
 20
7.5494852018
 30
0.0
 10
12.1229725955
 20
7.5478507861
 30
0.0
 10
12.1229024428
 20
7.5449882564
 30
0.0
 10
12.1227933503
 20
7.5409001317
 30
0.0
 10
12.1226662457
 20
7.5359938684
 30
0.0
 10
12.1225381144
 20
7.531087734
 30
0.0
 10
12.1224102838
 20
7.5261815976
 30
0.0
 10
12.1223036114
 20
7.5220930497
 30
0.0
 10
12.1222184757
 20
7.5188224547
 30
0.0
 10
12.1221541055
 20
7.5163688392
 30
0.0
 10
12.1221021075
 20
7.5143262887
 30
0.0
 10
12.1220624835
 20
7.5128923252
 30
0.0
 10
12.1220448773
 20
7.5120794412
 30
0.0
 10
12.1220174861
 20
7.511451401
 30
0.0
 10
12.122044323
 20
7.5108936077
 30
0.0
 10
12.1220611901
 20
7.5101253803
 30
0.0
 10
12.1220995207
 20
7.5087923988
 30
0.0
 10
12.122149671
 20
7.5068821709
 30
0.0
 10
12.1222118236
 20
7.5045924522
 30
0.0
 10
12.1222940047
 20
7.5015386012
 30
0.0
 10
12.1223969689
 20
7.4977215964
 30
0.0
 10
12.1225204175
 20
7.493141047
 30
0.0
 10
12.1226439195
 20
7.4885605775
 30
0.0
 10
12.1227467502
 20
7.4847433728
 30
0.0
 10
12.1228291983
 20
7.4816899215
 30
0.0
 10
12.1228905363
 20
7.4793989839
 30
0.0
 10
12.1229432351
 20
7.4774925694
 30
0.0
 10
12.1229770163
 20
7.4761527803
 30
0.0
 10
12.1230011727
 20
7.4753954603
 30
0.0
 10
12.1230056192
 20
7.474804163
 30
0.0
 10
12.1230623226
 20
7.4743019582
 30
0.0
 10
12.1231196993
 20
7.4736012752
 30
0.0
 10
12.1232286013
 20
7.4723895592
 30
0.0
 10
12.1233797355
 20
7.4706509664
 30
0.0
 10
12.123562997
 20
7.4685678952
 30
0.0
 10
12.1238066818
 20
7.4657893351
 30
0.0
 10
12.1241115157
 20
7.4623165237
 30
0.0
 10
12.1244772181
 20
7.4581489819
 30
0.0
 10
12.1248429491
 20
7.4539814907
 30
0.0
 10
12.1251477116
 20
7.4505085528
 30
0.0
 10
12.1253915393
 20
7.4477302457
 30
0.0
 10
12.125543894
 20
7.4459937099
 30
0.0
 10
12.1256658635
 20
7.4446046959
 30
0.0
 10
12.125757106
 20
7.4435623478
 30
0.0
 10
12.1258338878
 20
7.4426955934
 30
0.0
 10
12.1258861704
 20
7.4420851975
 30
0.0
 10
12.1259183331
 20
7.4417421268
 30
0.0
 10
12.1259360128
 20
7.441468691
 30
0.0
 10
12.1259783184
 20
7.4412569227
 30
0.0
 10
12.1260261361
 20
7.4409530547
 30
0.0
 10
12.1261138192
 20
7.4404313078
 30
0.0
 10
12.1262369884
 20
7.4396807153
 30
0.0
 10
12.1263856871
 20
7.4387822471
 30
0.0
 10
12.1265836392
 20
7.4375835062
 30
0.0
 10
12.1268311864
 20
7.4360853483
 30
0.0
 10
12.1272272021
 20
7.4336881456
 30
0.0
 10
12.1277222424
 20
7.4306916941
 30
0.0
 10
12.1283162813
 20
7.4270959284
 30
0.0
 10
12.1289103248
 20
7.4235001755
 30
0.0
 10
12.1294053535
 20
7.420503692
 30
0.0
 10
12.1298013924
 20
7.4181065533
 30
0.0
 10
12.1300488805
 20
7.4166082327
 30
0.0
 10
12.1302469541
 20
7.4154098256
 30
0.0
 10
12.1303952815
 20
7.4145103376
 30
0.0
 10
12.1305196123
 20
7.4137629358
 30
0.0
 10
12.1306052218
 20
7.413235493
 30
0.0
 10
12.1306563619
 20
7.4129407512
 30
0.0
 10
12.1306884623
 20
7.4127009502
 30
0.0
 10
12.1307444712
 20
7.4125328007
 30
0.0
 10
12.1308108101
 20
7.4122836084
 30
0.0
 10
12.1309307888
 20
7.4118591666
 30
0.0
 10
12.1311001556
 20
7.4112467331
 30
0.0
 10
12.1313042652
 20
7.4105144189
 30
0.0
 10
12.1315761076
 20
7.4095370897
 30
0.0
 10
12.1319160147
 20
7.4083157398
 30
0.0
 10
12.1324598078
 20
7.4063614058
 30
0.0
 10
12.1331395693
 20
7.4039185487
 30
0.0
 10
12.1339552741
 20
7.4009870919
 30
0.0
 10
12.1347709828
 20
7.3980556511
 30
0.0
 10
12.1354507344
 20
7.395612754
 30
0.0
 10
12.1359945474
 20
7.3936584999
 30
0.0
 10
12.1363344039
 20
7.3924369471
 30
0.0
 10
12.13660635
 20
7.3914600345
 30
0.0
 10
12.136810143
 20
7.3907264474
 30
0.0
 10
12.1369805003
 20
7.3901179964
 30
0.0
 10
12.1370987108
 20
7.3896864452
 30
0.0
 10
12.1371678829
 20
7.389448644
 30
0.0
 10
12.1372151891
 20
7.3892455047
 30
0.0
 10
12.1372799753
 20
7.3891371193
 30
0.0
 10
12.1373602596
 20
7.3889595543
 30
0.0
 10
12.137503598
 20
7.3886642147
 30
0.0
 10
12.1377068819
 20
7.3882342501
 30
0.0
 10
12.1379514583
 20
7.3877217385
 30
0.0
 10
12.1382773382
 20
7.3870371862
 30
0.0
 10
12.138684764
 20
7.386181908
 30
0.0
 10
12.1393366029
 20
7.3848132324
 30
0.0
 10
12.1401514161
 20
7.3831024674
 30
0.0
 10
12.1411291854
 20
7.3810495131
 30
0.0
 10
12.1421069577
 20
7.3789965771
 30
0.0
 10
12.1429217632
 20
7.3772857662
 30
0.0
 10
12.1435736175
 20
7.3759171825
 30
0.0
 10
12.143981004
 20
7.3750616705
 30
0.0
 10
12.1443069647
 20
7.3743775981
 30
0.0
 10
12.1445512941
 20
7.3738636204
 30
0.0
 10
12.1447553509
 20
7.373438243
 30
0.0
 10
12.1448973095
 20
7.3731347145
 30
0.0
 10
12.1449798047
 20
7.3729702701
 30
0.0
 10
12.1450377997
 20
7.3728215824
 30
0.0
 10
12.1451106122
 20
7.372769812
 30
0.0
 10
12.1452025269
 20
7.372666979
 30
0.0
 10
12.1453657858
 20
7.3725027719
 30
0.0
 10
12.1455977538
 20
7.3722599558
 30
0.0
 10
12.1458766544
 20
7.3719721011
 30
0.0
 10
12.1462483335
 20
7.3715870638
 30
0.0
 10
12.1467129968
 20
7.3711061886
 30
0.0
 10
12.1474564222
 20
7.3703365528
 30
0.0
 10
12.1483857163
 20
7.3693745893
 30
0.0
 10
12.1495008637
 20
7.3682201959
 30
0.0
 10
12.1506160134
 20
7.3670658215
 30
0.0
 10
12.1515453015
 20
7.3661038104
 30
0.0
 10
12.1522887389
 20
7.3653342698
 30
0.0
 10
12.1527533717
 20
7.3648531525
 30
0.0
 10
12.1531251136
 20
7.3644686123
 30
0.0
 10
12.1534038224
 20
7.3641792387
 30
0.0
 10
12.1536363901
 20
7.363941175
 30
0.0
 10
12.1537985786
 20
7.363768484
 30
0.0
 10
12.1538922083
 20
7.3636792444
 30
0.0
 10
12.1539597528
 20
7.3635857195
 30
0.0
 10
12.1540375333
 20
7.3635938546
 30
0.0
 10
12.1541376702
 20
7.3635692412
 30
0.0
 10
12.1543145733
 20
7.3635426892
 30
0.0
 10
12.1545664222
 20
7.3634961203
 30
0.0
 10
12.1548690132
 20
7.3634439347
 30
0.0
 10
12.1552723379
 20
7.3633730626
 30
0.0
 10
12.1557765382
 20
7.3632849146
 30
0.0
 10
12.1565832339
 20
7.3631436307
 30
0.0
 10
12.157591612
 20
7.3629671111
 30
0.0
 10
12.158801662
 20
7.3627552485
 30
0.0
 10
12.1600117136
 20
7.3625434058
 30
0.0
 10
12.1610200875
 20
7.3623668367
 30
0.0
 10
12.1618267917
 20
7.3622256518
 30
0.0
 10
12.1623309702
 20
7.3621372519
 30
0.0
 10
12.1627343398
 20
7.3620668969
 30
0.0
 10
12.1630367936
 20
7.3620131315
 30
0.0
 10
12.1632890719
 20
7.3619715054
 30
0.0
 10
12.1634652084
 20
7.3619361297
 30
0.0
 10
12.1635665735
 20
7.3619256542
 30
0.0
 10
12.1636405814
 20
7.3618903621
 30
0.0
 10
12.1637222951
 20
7.3619599422
 30
0.0
 10
12.1638285588
 20
7.3620161351
 30
0.0
 10
12.1640157726
 20
7.3621315162
 30
0.0
 10
12.1642825662
 20
7.3622874358
 30
0.0
 10
12.1646029988
 20
7.3624783533
 30
0.0
 10
12.1650301443
 20
7.3627315778
 30
0.0
 10
12.1655641097
 20
7.3630485646
 30
0.0
 10
12.1664184357
 20
7.3635554885
 30
0.0
 10
12.1674863495
 20
7.3641892309
 30
0.0
 10
12.1687678434
 20
7.3649496842
 30
0.0
 10
12.170049338
 20
7.3657101476
 30
0.0
 10
12.1717579972
 20
7.3667240953
 30
0.0
 10
12.1730394917
 20
7.3674845568
 30
0.0
 10
12.1738938213
 20
7.367991531
 30
0.0
  0
ENDSEC
  0
SECTION
  2
OBJECTS
  0
DICTIONARY
  5
C
100
AcDbDictionary
280
0
281
1
  3
ACAD_GROUP
350
D
  3
ACAD_MLINESTYLE
350
17
  3
ACAD_LAYOUT
350
1A
  3
ACAD_PLOTSETTINGS
350
19
  3
ACAD_PLOTSTYLENAME
350
E
  3
ACAD_IMAGE_DICT
350
       38D
  3
ACAD_IMAGE_VARS
350
       38E
  3
ACAD_TABLESTYLE
350
       38F
  0
IMAGEDEF_REACTOR
  5
38C
100
AcDbRasterImageDefReactor
 90
2
330
287
  0
DICTIONARY
  5
D
102
{ACAD_REACTORS
330
C
102
}
100
AcDbDictionary
280
0
281
1
  0
ACDBDICTIONARYWDFLT
  5
E
102
{ACAD_REACTORS
330
C
102
}
100
AcDbDictionary
281
1
  3
Normal
350
F
100
AcDbDictionaryWithDefault
340
F
  0
DICTIONARY
  5
38D
330
C
100
AcDbDictionary
281
1
  3
XYD_assy_2_img_1
350
       392
  0
RASTERVARIABLES
  5
38E
330
C
100
AcDbRasterVariables
 90
0
 70
0
 71
1
 72
5
  0
DICTIONARY
  5
17
102
{ACAD_REACTORS
330
C
102
}
100
AcDbDictionary
280
0
281
1
  3
Standard
350
18
  0
DICTIONARY
  5
38F
330
C
100
AcDbDictionary
281
1
  3
Standard
350
       393
  3
Standard1
350
       394
  0
DICTIONARY
  5
19
102
{ACAD_REACTORS
330
C
102
}
100
AcDbDictionary
281
1
  0
DICTIONARY
  5
1A
102
{ACAD_REACTORS
330
C
102
}
100
AcDbDictionary
281
1
  3
Model
350
390
  3
Layout1
350
391
  0
ACDBPLACEHOLDER
  5
F
102
{ACAD_REACTORS
330
E
102
}
  0
MLINESTYLE
  5
18
102
{ACAD_REACTORS
330
17
102
}
100
AcDbMlineStyle
  2
STANDARD
 70
0
  3

 62
256
 51
90.0
 52
90.0
 71
2
 49
0.5
 62
256
  6
BYLAYER
 49
-0.5
 62
256
  6
BYLAYER
  0
LAYOUT
  5
390
102
{ACAD_REACTORS
330
1A
102
}
100
AcDbPlotSettings
  1

  2
none_device
  4
ANSI_C_(22.00_x_17.00_Inches)
  6

 40
0.0
 41
0.0
 42
0.0
 43
0.0
 44
558.8
 45
431.8
 46
0.0
 47
0.0
 48
0.0
 49
0.0
140
0.0
141
0.0
142
1.0
143
1.0
 70
1024
 72
0
 73
0
 74
0
  7

 75
0
147
1.0
148
0.0
149
0.0
100
AcDbLayout
  1
Model
 70
0
 71
0
 10
0.0
 20
0.0
 11
22.0
 21
17.0
 12
0.0
 22
0.0
 32
0.0
 14
0.0
 24
0.0
 34
0.0
 15
0.0
 25
0.0
 35
0.0
146
0.0
 13
0.0
 23
0.0
 33
0.0
 16
1.0
 26
0.0
 36
0.0
 17
0.0
 27
1.0
 37
0.0
 76
0
330
204
345
0
346
0
  0
LAYOUT
  5
391
102
{ACAD_REACTORS
330
1A
102
}
100
AcDbPlotSettings
  1

  2
none_device
  4
ANSI_C_(22.00_x_17.00_Inches)
  6

 40
0.0
 41
0.0
 42
0.0
 43
0.0
 44
558.8
 45
431.8
 46
0.0
 47
0.0
 48
0.0
 49
0.0
140
0.0
141
0.0
142
1.0
143
1.0
 70
0
 72
0
 73
0
 74
0
  7

 75
0
147
1.0
148
0.0
149
0.0
100
AcDbLayout
  1
Layout1
 70
0
 71
1
 10
0.0
 20
0.0
 11
22.0
 21
17.0
 12
0.0
 22
0.0
 32
0.0
 14
0.0
 24
0.0
 34
0.0
 15
0.0
 25
0.0
 35
0.0
146
0.0
 13
0.0
 23
0.0
 33
0.0
 16
1.0
 26
0.0
 36
0.0
 17
0.0
 27
1.0
 37
0.0
 76
0
330
205
345
0
346
0
  0
IMAGEDEF
  5
392
102
{ACAD_REACTORS
330
38D
330
38C
102
}
100
AcDbRasterImageDef
 90
0
  1
XYD_assy_2_img_1.png
 10
369.0
 20
92.0
 11
0.0066666667
 21
0.0066666667
280
1
281
0
  0
TABLESTYLE
  5
393
102
{ACAD_REACTORS
330
38F
330
28A
330
28B
102
}
330
38F
100
AcDbTableStyle
  3
Standard
 70
0
 71
0
 40
0.06
 41
0.06
280
1
281
1
  7
Standard
140
0.18
170
1
 62
0
 63
7
283
0
  7
Standard
140
0.18
170
1
 62
0
 63
7
283
0
  7
Standard
140
0.18
170
1
 62
0
 63
7
283
0
  0
TABLESTYLE
  5
394
102
{ACAD_REACTORS
330
38F
330
289
102
}
330
38F
100
AcDbTableStyle
  3
Standard1
 70
1
 71
0
 40
0.06
 41
0.06
280
1
281
1
  7
Standard
140
0.18
170
1
 62
0
 63
7
283
0
  7
Standard
140
0.18
170
1
 62
0
 63
7
283
0
  7
Standard
140
0.18
170
1
 62
0
 63
7
283
0
  0
ENDSEC
  0
EOF
