999
DXF file: XYA_assy_2.dxf
999
Pro/ENGINEER 2014200 by Parametric Technology Corporation
  0
SECTION
  2
HEADER
  9
$ACADVER
  1
AC1021
  9
$DWGCODEPAGE
  3
ANSI_1252
  9
$EXTMAX
 10
22.0
 20
17.0
 30
0.0
  9
$EXTMIN
 10
0.0
 20
0.0
 30
0.0
  9
$LIMMIN
 10
0.0
 20
0.0
  9
$LIMMAX
 10
22.0
 20
17.0
  9
$VIEWCTR
 10
11.0
 20
8.5
  9
$VIEWSIZE
 40
17.0
  9
$CLAYER
  8
0
  9
$LTSCALE
 40
1.21
  9
$CELTYPE
  6
BYLAYER
  9
$DIMSCALE
 40
1.0
  9
$DIMASZ
 40
0.1875
  9
$DIMEXO
 40
0.0625
  9
$DIMDLI
 40
0.836
  9
$DIMEXE
 40
0.125
  9
$DIMCEN
 40
0.198
  9
$DIMLFAC
 40
1.0
  9
$DIMBLK
  1
_FILLED
  9
$DIMTXT
 40
0.1
  9
$DIMTOL
 70
0
  9
$DIMLIM
 70
0
  9
$DIMTFAC
 40
1.0
  9
$DIMGAP
 40
0.09
  9
$DIMDSEP
 70
46
  9
$AUNITS
 70
0
  9
$PDMODE
 70
3
  9
$PDSIZE
 40
0.3125
  9
$HANDSEED
  5
3A7
  9
$TILEMODE
 70
1
  9
$MEASUREMENT
 70
0
  9
$INSUNITS
 70
1
  0
ENDSEC
  0
SECTION
  2
CLASSES
  0
CLASS
  1
ACDBDICTIONARYWDFLT
  2
AcDbDictionaryWithDefault
  3
AutoCAD 2000
 90
0
 91
1
280
0
281
0
  0
CLASS
  1
ACDBPLACEHOLDER
  2
AcDbPlaceHolder
  3
AutoCAD 2000
 90
0
 91
1
280
0
281
0
  0
CLASS
  1
LAYOUT
  2
AcDbLayout
  3
AutoCAD 2000
 90
0
 91
0
280
0
281
0
  0
CLASS
  1
RASTERVARIABLES
  2
AcDbRasterVariables
  3
ISM
 90
0
 91
1
280
0
281
0
  0
CLASS
  1
IMAGEDEF
  2
AcDbRasterImageDef
  3
ISM
 90
0
 91
1
280
0
281
0
  0
CLASS
  1
IMAGEDEF_REACTOR
  2
AcDbRasterImageDefReactor
  3
ISM
 90
0
 91
1
280
0
281
0
  0
CLASS
  1
IMAGE
  2
AcDbRasterImage
  3
ISM
 90
127
 91
1
280
0
281
1
  0
CLASS
  1
TABLESTYLE
  2
AcDbTableStyle
  3
ObjectDBX Classes
 90
2047
 91
1
280
0
281
0
  0
CLASS
  1
ACAD_TABLE
  2
AcDbTable
  3
ObjectDBX Classes
 90
1025
 91
3
280
0
281
1
  0
ENDSEC
  0
SECTION
  2
TABLES
  0
TABLE
  2
VPORT
  5
8
100
AcDbSymbolTable
 70
2
  0
VPORT
  5
1F4
100
AcDbSymbolTableRecord
100
AcDbViewportTableRecord
  2
*ACTIVE
 70
0
 10
0.0
 20
0.0
 11
1.0
 21
1.0
 12
11.0
 22
8.5
 13
0.0
 23
0.0
 14
1.0
 24
1.0
 15
0.0
 25
0.0
 16
0.0
 26
0.0
 36
1.0
 17
0.0
 27
0.0
 37
0.0
 40
17.0
 41
1.2941176471
 42
50.0
 43
0.0
 44
0.0
 50
0.0
 51
0.0
 71
0
 72
100
 73
1
 74
1
 75
0
 76
0
 77
0
 78
0
  0
ENDTAB
  0
TABLE
  2
LTYPE
  5
5
100
AcDbSymbolTable
 70
6
  0
LTYPE
  5
14
100
AcDbSymbolTableRecord
100
AcDbLinetypeTableRecord
  2
BYBLOCK
 70
0
  3

 72
65
 73
0
 40
0.0
  0
LTYPE
  5
15
100
AcDbSymbolTableRecord
100
AcDbLinetypeTableRecord
  2
BYLAYER
 70
0
  3

 72
65
 73
0
 40
0.0
  0
LTYPE
  5
16
100
AcDbSymbolTableRecord
100
AcDbLinetypeTableRecord
  2
CONTINUOUS
 70
64
  3
Solid line
 72
65
 73
0
 40
0.0
  0
LTYPE
  5
1F5
100
AcDbSymbolTableRecord
100
AcDbLinetypeTableRecord
  2
CENTER
 70
64
  3
____ _ ____ _ ____ _ ____ _ ____ _ ____ _ ____
 72
65
 73
4
 40
0.6
 49
0.375
 74
0
 49
-0.075
 74
0
 49
0.075
 74
0
 49
-0.075
 74
0
  0
LTYPE
  5
1F6
100
AcDbSymbolTableRecord
100
AcDbLinetypeTableRecord
  2
HIDDEN
 70
64
  3
- - - - - - - - - - - - - - - - - - - -
 72
65
 73
2
 40
0.2
 49
0.1
 74
0
 49
-0.1
 74
0
  0
LTYPE
  5
1F7
100
AcDbSymbolTableRecord
100
AcDbLinetypeTableRecord
  2
PHANTOM
 70
64
  3
_____ _ _ _____ _ _ _____ _ _ _____
 72
65
 73
6
 40
0.8
 49
0.45
 74
0
 49
-0.05
 74
0
 49
0.1
 74
0
 49
-0.05
 74
0
 49
0.1
 74
0
 49
-0.05
 74
0
  0
LTYPE
  5
1F8
100
AcDbSymbolTableRecord
100
AcDbLinetypeTableRecord
  2
DOT
 70
64
  3
. . . . . . . . . . . . . . . . . . . .
 72
65
 73
2
 40
0.2
 49
0.1
 74
0
 49
-0.1
 74
0
  0
LTYPE
  5
1F9
100
AcDbSymbolTableRecord
100
AcDbLinetypeTableRecord
  2
DASHED
 70
64
  3
- - - - - - - - - - - - - - - - - - - -
 72
65
 73
2
 40
0.2
 49
0.1
 74
0
 49
-0.1
 74
0
  0
ENDTAB
  0
TABLE
  2
LAYER
  5
2
100
AcDbSymbolTable
 70
36
  0
LAYER
  5
10
100
AcDbSymbolTableRecord
100
AcDbLayerTableRecord
  2
0
 70
0
 62
7
  6
CONTINUOUS
370
-3
390
F
  0
LAYER
  5
1FA
100
AcDbSymbolTableRecord
100
AcDbLayerTableRecord
  2
DEFAULT_1
 70
0
 62
7
  6
CENTER
370
-3
390
F
  0
LAYER
  5
1FB
100
AcDbSymbolTableRecord
100
AcDbLayerTableRecord
  2
DEFAULT_2
 70
0
 62
8
  6
HIDDEN
370
-3
390
F
  0
LAYER
  5
1FC
100
AcDbSymbolTableRecord
100
AcDbLayerTableRecord
  2
DEFAULT_3
 70
0
 62
7
  6
PHANTOM
370
-3
390
F
  0
LAYER
  5
1FD
100
AcDbSymbolTableRecord
100
AcDbLayerTableRecord
  2
DATUM_PLANES
 70
0
 62
7
  6
CONTINUOUS
370
-3
390
F
  0
LAYER
  5
1FE
100
AcDbSymbolTableRecord
100
AcDbLayerTableRecord
  2
PORT_AREAS
 70
0
 62
7
  6
CONTINUOUS
370
-3
390
F
  0
LAYER
  5
1FF
100
AcDbSymbolTableRecord
100
AcDbLayerTableRecord
  2
SUNNBOMCOSMETIC
 70
0
 62
7
  6
CONTINUOUS
370
-3
390
F
  0
LAYER
  5
200
100
AcDbSymbolTableRecord
100
AcDbLayerTableRecord
  2
SUNNBOMSTAMPING
 70
0
 62
7
  6
CONTINUOUS
370
-3
390
F
  0
LAYER
  5
201
100
AcDbSymbolTableRecord
100
AcDbLayerTableRecord
  2
THREADS
 70
0
 62
7
  6
CONTINUOUS
370
-3
390
F
  0
ENDTAB
  0
TABLE
  2
STYLE
  5
3
100
AcDbSymbolTable
 70
1
  0
STYLE
  5
11
100
AcDbSymbolTableRecord
100
AcDbTextStyleTableRecord
  2
STANDARD
 70
0
 40
0.0
 41
0.8
 50
0.0
 71
0
 42
0.2
  3
txt
  4

  0
STYLE
  5
202
100
AcDbSymbolTableRecord
100
AcDbTextStyleTableRecord
  2
TEXTSTYLE_1
 70
0
 40
0.0
 41
0.8
 50
0.0
 71
0
 42
0.2
  3
gdt
  4

  0
ENDTAB
  0
TABLE
  2
VIEW
  5
6
100
AcDbSymbolTable
 70
0
  0
ENDTAB
  0
TABLE
  2
UCS
  5
7
100
AcDbSymbolTable
 70
0
  0
ENDTAB
  0
TABLE
  2
APPID
  5
9
100
AcDbSymbolTable
 70
1
  0
APPID
  5
203
100
AcDbSymbolTableRecord
100
AcDbRegAppTableRecord
  2
ACAD
 70
0
  0
ENDTAB
  0
TABLE
  2
BLOCK_RECORD
  5
1
100
AcDbSymbolTable
 70
0
  0
BLOCK_RECORD
  5
204
100
AcDbSymbolTableRecord
100
AcDbBlockTableRecord
  2
*Model_Space
  0
BLOCK_RECORD
  5
205
100
AcDbSymbolTableRecord
100
AcDbBlockTableRecord
  2
*Paper_Space
  0
BLOCK_RECORD
  5
206
100
AcDbSymbolTableRecord
100
AcDbBlockTableRecord
  2
SUN_FIRST_THIRD_ANGLE_BL0
  0
BLOCK_RECORD
  5
207
100
AcDbSymbolTableRecord
100
AcDbBlockTableRecord
  2
*T1
  0
BLOCK_RECORD
  5
208
100
AcDbSymbolTableRecord
100
AcDbBlockTableRecord
  2
*T2
  0
BLOCK_RECORD
  5
209
100
AcDbSymbolTableRecord
100
AcDbBlockTableRecord
  2
*T3
  0
ENDTAB
  0
TABLE
  2
DIMSTYLE
  5
A
100
AcDbSymbolTable
 70
1
100
AcDbDimStyleTable
 71
0
  0
DIMSTYLE
105
20A
100
AcDbSymbolTableRecord
100
AcDbDimStyleTableRecord
  2
STANDARD
 70
0
  3

  4

 40
1.0
 41
0.1875
 42
0.0625
 43
0.38
 44
0.125
 45
0.0
 46
0.0
 47
0.001
 48
0.001
140
0.1
141
0.09
142
0.0
143
25.4
144
1.0
145
0.0
146
1.0
147
0.09
 71
0.0
 72
0.0
 73
1
 74
1
 75
0
 76
0
 77
0
 78
4
170
0
171
2
172
0
173
0
174
0
175
0
176
0
177
0
178
0
270
2
271
3
272
3
273
2
274
2
275
0
280
0
281
0
282
0
283
1
284
4
285
0
286
0
287
3
288
0
340
11
278
46
  0
ENDTAB
  0
ENDSEC
  0
SECTION
  2
BLOCKS
  0
BLOCK
  5
20
100
AcDbEntity
  8
0
100
AcDbBlockBegin
  2
*Model_Space
 70
0
 10
0.0
 20
0.0
 30
0.0
  3
*Model_Space
  1

  0
ENDBLK
  5
21
100
AcDbEntity
  8
0
100
AcDbBlockEnd
  0
BLOCK
  5
1C
100
AcDbEntity
  8
0
100
AcDbBlockBegin
  2
*Paper_Space
 70
0
 10
0.0
 20
0.0
 30
0.0
  3
*Paper_Space
  1

  0
ENDBLK
  5
1D
100
AcDbEntity
  8
0
100
AcDbBlockEnd
  0
BLOCK
  5
20B
100
AcDbEntity
  8
0
100
AcDbBlockBegin
 62
2
  6
CONTINUOUS
  2
SUN_FIRST_THIRD_ANGLE_BL0
 70
64
 10
20.4816717061
 20
1.2289683772
  3
SUN_FIRST_THIRD_ANGLE_BL0
  1

  0
TEXT
  5
20C
100
AcDbEntity
  8
0
100
AcDbText
 62
2
  6
CONTINUOUS
 10
19.4750896608
 20
1.4136269581
  7
STANDARD
 40
0.08
  1
FIRST ANGLE
 41
0.8
 72
0
100
AcDbText
  0
TEXT
  5
20D
100
AcDbEntity
  8
0
100
AcDbText
 62
2
  6
CONTINUOUS
 10
20.7842537513
 20
1.4047600029
  7
STANDARD
 40
0.08
  1
THIRD ANGLE
 41
0.8
 72
0
100
AcDbText
  0
LINE
  5
20E
100
AcDbEntity
  8
0
100
AcDbLine
 62
7
  6
CONTINUOUS
 10
19.4767170086
 20
1.1727031207
 11
19.6334271527
 21
1.1717972817
  0
LINE
  5
20F
100
AcDbEntity
  8
0
100
AcDbLine
 62
7
  6
CONTINUOUS
 10
19.6596964832
 20
1.1717972817
 11
19.6950230232
 21
1.171593082
  0
LINE
  5
210
100
AcDbEntity
  8
0
100
AcDbLine
 62
7
  6
CONTINUOUS
 10
19.7194818561
 20
1.1708914427
 11
19.8852396156
 21
1.1699333054
  0
LINE
  5
211
100
AcDbEntity
  8
0
100
AcDbLine
 62
7
  6
CONTINUOUS
 10
19.4758111696
 20
1.2723454088
 11
19.88525039
 21
1.3511534004
  0
LINE
  5
212
100
AcDbEntity
  8
0
100
AcDbLine
 62
7
  6
CONTINUOUS
 10
19.88525039
 20
1.3511534004
 11
19.8831348489
 21
0.9851647912
  0
LINE
  5
213
100
AcDbEntity
  8
0
100
AcDbLine
 62
7
  6
CONTINUOUS
 10
19.8831348489
 20
0.9851647912
 11
19.4767170086
 21
1.0658141206
  0
LINE
  5
214
100
AcDbEntity
  8
0
100
AcDbLine
 62
7
  6
CONTINUOUS
 10
19.4767170086
 20
1.0658141206
 11
19.4779056764
 21
1.2714536432
  0
CIRCLE
  5
215
100
AcDbEntity
  8
0
100
AcDbCircle
 62
7
  6
CONTINUOUS
 10
20.2068232291
 20
1.1717972817
 40
0.175742101
  0
CIRCLE
  5
216
100
AcDbEntity
  8
0
100
AcDbCircle
 62
7
  6
CONTINUOUS
 10
20.2068232291
 20
1.1717972817
 40
0.1005522074
  0
LINE
  5
217
100
AcDbEntity
  8
0
100
AcDbLine
 62
7
  6
CONTINUOUS
 10
20.2077290681
 20
1.3756110529
 11
20.2071171714
 21
1.2379342989
  0
LINE
  5
218
100
AcDbEntity
  8
0
100
AcDbLine
 62
7
  6
CONTINUOUS
 10
20.2077290681
 20
1.2016899681
 11
20.2074674401
 21
1.1428236749
  0
LINE
  5
219
100
AcDbEntity
  8
0
100
AcDbLine
 62
7
  6
CONTINUOUS
 10
20.208634907
 20
1.101141841
 11
20.2080230104
 21
0.963465087
  0
LINE
  5
21A
100
AcDbEntity
  8
0
100
AcDbLine
 62
7
  6
CONTINUOUS
 10
20.0066328138
 20
1.1745147986
 11
20.1443095678
 21
1.1739029019
  0
LINE
  5
21B
100
AcDbEntity
  8
0
100
AcDbLine
 62
7
  6
CONTINUOUS
 10
20.1832714155
 20
1.1727031207
 11
20.238153505
 21
1.172335442
  0
LINE
  5
21C
100
AcDbEntity
  8
0
100
AcDbLine
 62
7
  6
CONTINUOUS
 10
20.2756669918
 20
1.1717972817
 11
20.407916871
 21
1.1712095044
  0
CIRCLE
  5
21D
100
AcDbEntity
  8
0
100
AcDbCircle
 62
7
  6
CONTINUOUS
 10
20.7509457401
 20
1.1693297793
 40
0.1722024983
  0
CIRCLE
  5
21E
100
AcDbEntity
  8
0
100
AcDbCircle
 62
7
  6
CONTINUOUS
 10
20.7509457401
 20
1.1693297793
 40
0.0985164967
  0
LINE
  5
21F
100
AcDbEntity
  8
0
100
AcDbLine
 62
7
  6
CONTINUOUS
 10
20.7169767782
 20
1.170462078
 11
20.7825395137
 21
1.1682766535
  0
LINE
  5
220
100
AcDbEntity
  8
0
100
AcDbLine
 62
7
  6
CONTINUOUS
 10
20.8177513651
 20
1.1693297793
 11
20.947965719
 21
1.1693297793
  0
LINE
  5
221
100
AcDbEntity
  8
0
100
AcDbLine
 62
7
  6
CONTINUOUS
 10
20.6875370113
 20
1.170462078
 11
20.5573226574
 21
1.170462078
  0
LINE
  5
222
100
AcDbEntity
  8
0
100
AcDbLine
 62
7
  6
CONTINUOUS
 10
20.7486811426
 20
1.1987695462
 11
20.7486811426
 21
1.1432869085
  0
LINE
  5
223
100
AcDbEntity
  8
0
100
AcDbLine
 62
7
  6
CONTINUOUS
 10
20.7498134414
 20
1.1059210505
 11
20.7498134414
 21
0.9757066966
  0
LINE
  5
224
100
AcDbEntity
  8
0
100
AcDbLine
 62
7
  6
CONTINUOUS
 10
20.7486811426
 20
1.2338708068
 11
20.7486811426
 21
1.3640851607
  0
LINE
  5
225
100
AcDbEntity
  8
0
100
AcDbLine
 62
7
  6
CONTINUOUS
 10
21.0702539817
 20
1.2701043662
 11
21.4790138229
 21
1.3448360823
  0
LINE
  5
226
100
AcDbEntity
  8
0
100
AcDbLine
 62
7
  6
CONTINUOUS
 10
21.4790138229
 20
1.3448360823
 11
21.4790138229
 21
0.9779712941
  0
LINE
  5
227
100
AcDbEntity
  8
0
100
AcDbLine
 62
7
  6
CONTINUOUS
 10
21.4790138229
 20
0.9779712941
 11
21.069121683
 21
1.0617614
  0
LINE
  5
228
100
AcDbEntity
  8
0
100
AcDbLine
 62
7
  6
CONTINUOUS
 10
21.0702539817
 20
1.2701043662
 11
21.069121683
 21
1.0617614
  0
LINE
  5
229
100
AcDbEntity
  8
0
100
AcDbLine
 62
7
  6
CONTINUOUS
 10
21.4790138229
 20
1.1693297793
 11
21.3159628059
 21
1.1693297793
  0
LINE
  5
22A
100
AcDbEntity
  8
0
100
AcDbLine
 62
7
  6
CONTINUOUS
 10
21.2876553377
 20
1.1693297793
 11
21.2502894796
 21
1.1693297793
  0
LINE
  5
22B
100
AcDbEntity
  8
0
100
AcDbLine
 62
7
  6
CONTINUOUS
 10
21.2208497126
 20
1.1659328831
 11
21.0713862804
 21
1.1659328831
  0
LINE
  5
22C
100
AcDbEntity
  8
0
100
AcDbLine
 62
7
  6
CONTINUOUS
 10
20.4796138713
 20
1.5284908897
 11
20.4766766948
 21
0.9294458646
  0
ENDBLK
  5
22D
100
AcDbEntity
  8
0
  6
BYBLOCK
 62
0
100
AcDbBlockEnd
  0
BLOCK
  5
22E
100
AcDbEntity
  8
0
100
AcDbBlockBegin
  2
*T1
 70
1
 10
0.0
 20
0.0
  3
*T1
  1

  0
LINE
  5
22F
100
AcDbEntity
  8
0
100
AcDbLine
 62
2
  6
CONTINUOUS
 10
9.275
 20
0.0
 11
-0.0
 21
0.0
  0
LINE
  5
230
100
AcDbEntity
  8
0
100
AcDbLine
 62
2
  6
CONTINUOUS
 10
9.275
 20
0.0
 11
9.275
 21
1.25
  0
LINE
  5
231
100
AcDbEntity
  8
0
100
AcDbLine
 62
2
  6
CONTINUOUS
 10
9.275
 20
0.625
 11
-0.0
 21
0.625
  0
LINE
  5
232
100
AcDbEntity
  8
0
100
AcDbLine
 62
2
  6
CONTINUOUS
 10
9.275
 20
1.25
 11
-0.0
 21
1.25
  0
LINE
  5
233
100
AcDbEntity
  8
0
100
AcDbLine
 62
2
  6
CONTINUOUS
 10
6.8
 20
0.0
 11
6.8
 21
1.25
  0
LINE
  5
234
100
AcDbEntity
  8
0
100
AcDbLine
 62
2
  6
CONTINUOUS
 10
6.4
 20
0.0
 11
6.4
 21
0.625
  0
LINE
  5
235
100
AcDbEntity
  8
0
100
AcDbLine
 62
2
  6
CONTINUOUS
 10
5.9
 20
0.0
 11
5.9
 21
0.625
  0
LINE
  5
236
100
AcDbEntity
  8
0
100
AcDbLine
 62
2
  6
CONTINUOUS
 10
5.2
 20
0.0
 11
5.2
 21
0.625
  0
LINE
  5
237
100
AcDbEntity
  8
0
100
AcDbLine
 62
2
  6
CONTINUOUS
 10
4.1
 20
0.0
 11
4.1
 21
1.25
  0
LINE
  5
238
100
AcDbEntity
  8
0
100
AcDbLine
 62
2
  6
CONTINUOUS
 10
-0.0
 20
0.0
 11
-0.0
 21
1.25
  0
MTEXT
  5
239
100
AcDbEntity
  8
0
100
AcDbMText
 62
2
  6
CONTINUOUS
  7
STANDARD
 71
2
 72
1
 10
6.6
 20
0.325
 30
0.0
 11
1.0
 21
0.0
 31
0.0
 44
0.9
  1
2
 40
0.125
 41
0.2
  0
MTEXT
  5
23A
100
AcDbEntity
  8
0
100
AcDbMText
 62
2
  6
CONTINUOUS
  7
STANDARD
 71
2
 72
1
 10
6.15
 20
0.325
 30
0.0
 11
1.0
 21
0.0
 31
0.0
 44
0.9
  1
C
 40
0.125
 41
0.2
  0
MTEXT
  5
23B
100
AcDbEntity
  8
0
100
AcDbMText
 62
2
  6
CONTINUOUS
  7
STANDARD
 71
2
 72
1
 10
5.55
 20
0.325
 30
0.0
 11
1.0
 21
0.0
 31
0.0
 44
0.9
  1
1.000
 40
0.125
 41
1.0
  0
MTEXT
  5
23C
100
AcDbEntity
  8
0
100
AcDbMText
 62
2
  6
CONTINUOUS
  7
STANDARD
 71
2
 72
1
 10
4.65
 20
0.325
 30
0.0
 11
1.0
 21
0.0
 31
0.0
 44
0.9
  1
Aug-27-19
 40
0.125
 41
1.8
  0
MTEXT
  5
23D
100
AcDbEntity
  8
0
100
AcDbMText
 62
2
  6
CONTINUOUS
  7
STANDARD
 71
2
 72
1
 10
2.05
 20
0.4625
 30
0.0
 11
1.0
 21
0.0
 31
0.0
 44
0.9
  1
T-17A Motor mount Staffa 4", 5 piston\PCross pilot
 40
0.125
 41
7.4
  0
MTEXT
  5
23E
100
AcDbEntity
  8
0
100
AcDbMText
 62
2
  6
CONTINUOUS
  7
STANDARD
 71
1
 72
1
 10
6.45
 20
0.5625
 30
0.0
 11
1.0
 21
0.0
 31
0.0
 44
0.9
  1
SHEET
 40
0.06
 41
0.48
  0
MTEXT
  5
23F
100
AcDbEntity
  8
0
100
AcDbMText
 62
2
  6
CONTINUOUS
  7
STANDARD
 71
1
 72
1
 10
5.95
 20
0.5625
 30
0.0
 11
1.0
 21
0.0
 31
0.0
 44
0.9
  1
DWG SIZE
 40
0.06
 41
0.768
  0
MTEXT
  5
240
100
AcDbEntity
  8
0
100
AcDbMText
 62
2
  6
CONTINUOUS
  7
STANDARD
 71
1
 72
1
 10
5.25
 20
0.5625
 30
0.0
 11
1.0
 21
0.0
 31
0.0
 44
0.9
  1
SCALE
 40
0.06
 41
0.48
  0
MTEXT
  5
241
100
AcDbEntity
  8
0
100
AcDbMText
 62
2
  6
CONTINUOUS
  7
STANDARD
 71
1
 72
1
 10
4.15
 20
0.5625
 30
0.0
 11
1.0
 21
0.0
 31
0.0
 44
0.9
  1
DATE
 40
0.06
 41
0.384
  0
MTEXT
  5
242
100
AcDbEntity
  8
0
100
AcDbMText
 62
2
  6
CONTINUOUS
  7
STANDARD
 71
1
 72
1
 10
0.05
 20
0.5625
 30
0.0
 11
1.0
 21
0.0
 31
0.0
 44
0.9
  1
DESCRIPTION
 40
0.06
 41
1.056
  0
MTEXT
  5
243
100
AcDbEntity
  8
0
100
AcDbMText
 62
2
  6
CONTINUOUS
  7
STANDARD
 71
2
 72
1
 10
5.45
 20
1.0375
 30
0.0
 11
1.0
 21
0.0
 31
0.0
 44
0.9
  1
ALL DIMENSIONS IN INCH\PVIEWS ARE THIRD ANGLE
 40
0.12
 41
4.224
  0
MTEXT
  5
244
100
AcDbEntity
  8
0
100
AcDbMText
 62
2
  6
CONTINUOUS
  7
STANDARD
 71
2
 72
1
 10
2.05
 20
0.95
 30
0.0
 11
1.0
 21
0.0
 31
0.0
 44
0.9
  1
XYA
 40
0.125
 41
0.6
  0
MTEXT
  5
245
100
AcDbEntity
  8
0
100
AcDbMText
 62
2
  6
CONTINUOUS
  7
STANDARD
 71
1
 72
1
 10
0.05
 20
1.1875
 30
0.0
 11
1.0
 21
0.0
 31
0.0
 44
0.9
  1
MODEL
 40
0.06
 41
0.48
  0
ENDBLK
  5
246
100
AcDbEntity
  8
0
  6
BYBLOCK
 62
0
100
AcDbBlockEnd
  0
BLOCK
  5
247
100
AcDbEntity
  8
0
100
AcDbBlockBegin
  2
*T2
 70
1
 10
0.0
 20
0.0
  3
*T2
  1

  0
LINE
  5
248
100
AcDbEntity
  8
0
100
AcDbLine
 62
2
  6
CONTINUOUS
 10
0.0
 20
0.0
 11
9.055
 21
0.0
  0
LINE
  5
249
100
AcDbEntity
  8
0
100
AcDbLine
 62
2
  6
CONTINUOUS
 10
0.0
 20
0.0
 11
0.0
 21
-1.844
  0
LINE
  5
24A
100
AcDbEntity
  8
0
100
AcDbLine
 62
2
  6
CONTINUOUS
 10
0.0
 20
-0.344
 11
9.055
 21
-0.344
  0
LINE
  5
24B
100
AcDbEntity
  8
0
100
AcDbLine
 62
2
  6
CONTINUOUS
 10
0.0
 20
-0.594
 11
9.055
 21
-0.594
  0
LINE
  5
24C
100
AcDbEntity
  8
0
100
AcDbLine
 62
2
  6
CONTINUOUS
 10
0.0
 20
-0.844
 11
9.055
 21
-0.844
  0
LINE
  5
24D
100
AcDbEntity
  8
0
100
AcDbLine
 62
2
  6
CONTINUOUS
 10
0.0
 20
-1.094
 11
9.055
 21
-1.094
  0
LINE
  5
24E
100
AcDbEntity
  8
0
100
AcDbLine
 62
2
  6
CONTINUOUS
 10
0.0
 20
-1.344
 11
9.055
 21
-1.344
  0
LINE
  5
24F
100
AcDbEntity
  8
0
100
AcDbLine
 62
2
  6
CONTINUOUS
 10
0.0
 20
-1.594
 11
9.055
 21
-1.594
  0
LINE
  5
250
100
AcDbEntity
  8
0
100
AcDbLine
 62
2
  6
CONTINUOUS
 10
0.0
 20
-1.844
 11
9.055
 21
-1.844
  0
LINE
  5
251
100
AcDbEntity
  8
0
100
AcDbLine
 62
2
  6
CONTINUOUS
 10
3.055
 20
0.0
 11
3.055
 21
-1.844
  0
LINE
  5
252
100
AcDbEntity
  8
0
100
AcDbLine
 62
2
  6
CONTINUOUS
 10
9.055
 20
0.0
 11
9.055
 21
-1.844
  0
MTEXT
  5
253
100
AcDbEntity
  8
0
100
AcDbMText
 62
2
  6
CONTINUOUS
  7
STANDARD
 71
2
 72
1
 10
1.5275
 20
-0.0995
 30
0.0
 11
1.0
 21
0.0
 31
0.0
 44
0.9
  1
Technical Data
 40
0.145
 41
3.248
  0
MTEXT
  5
254
100
AcDbEntity
  8
0
100
AcDbMText
 62
2
  6
CONTINUOUS
  7
STANDARD
 71
2
 72
1
 10
4.555
 20
-0.0995
 30
0.0
 11
1.0
 21
0.0
 31
0.0
 44
0.9
  1
U.S. Units
 40
0.145
 41
2.32
  0
MTEXT
  5
255
100
AcDbEntity
  8
0
100
AcDbMText
 62
2
  6
CONTINUOUS
  7
STANDARD
 71
2
 72
1
 10
7.555
 20
-0.0995
 30
0.0
 11
1.0
 21
0.0
 31
0.0
 44
0.9
  1
Metric Units
 40
0.145
 41
2.784
  0
MTEXT
  5
256
100
AcDbEntity
  8
0
100
AcDbMText
 62
2
  6
CONTINUOUS
  7
STANDARD
 71
2
 72
1
 10
1.5275
 20
-0.4065
 30
0.0
 11
1.0
 21
0.0
 31
0.0
 44
0.9
  1
Cavity
 40
0.125
 41
1.2
  0
MTEXT
  5
257
100
AcDbEntity
  8
0
100
AcDbMText
 62
2
  6
CONTINUOUS
  7
STANDARD
 71
2
 72
1
 10
6.055
 20
-0.4065
 30
0.0
 11
1.0
 21
0.0
 31
0.0
 44
0.9
  1
T-17A
 40
0.125
 41
1.0
  0
MTEXT
  5
258
100
AcDbEntity
  8
0
100
AcDbMText
 62
2
  6
CONTINUOUS
  7
STANDARD
 71
2
 72
1
 10
1.5275
 20
-0.6565
 30
0.0
 11
1.0
 21
0.0
 31
0.0
 44
0.9
  1
Body Features
 40
0.125
 41
2.6
  0
MTEXT
  5
259
100
AcDbEntity
  8
0
100
AcDbMText
 62
2
  6
CONTINUOUS
  7
STANDARD
 71
2
 72
1
 10
6.055
 20
-0.6565
 30
0.0
 11
1.0
 21
0.0
 31
0.0
 44
0.9
  1
Cross pilot
 40
0.125
 41
2.2
  0
MTEXT
  5
25A
100
AcDbEntity
  8
0
100
AcDbMText
 62
2
  6
CONTINUOUS
  7
STANDARD
 71
2
 72
1
 10
1.5275
 20
-0.9065
 30
0.0
 11
1.0
 21
0.0
 31
0.0
 44
0.9
  1
Body Type
 40
0.125
 41
1.8
  0
MTEXT
  5
25B
100
AcDbEntity
  8
0
100
AcDbMText
 62
2
  6
CONTINUOUS
  7
STANDARD
 71
2
 72
1
 10
6.055
 20
-0.9065
 30
0.0
 11
1.0
 21
0.0
 31
0.0
 44
0.9
  1
Motor mount
 40
0.125
 41
2.2
  0
MTEXT
  5
25C
100
AcDbEntity
  8
0
100
AcDbMText
 62
2
  6
CONTINUOUS
  7
STANDARD
 71
2
 72
1
 10
1.5275
 20
-1.1565
 30
0.0
 11
1.0
 21
0.0
 31
0.0
 44
0.9
  1
Interface
 40
0.125
 41
1.8
  0
MTEXT
  5
25D
100
AcDbEntity
  8
0
100
AcDbMText
 62
2
  6
CONTINUOUS
  7
STANDARD
 71
2
 72
1
 10
6.055
 20
-1.1565
 30
0.0
 11
1.0
 21
0.0
 31
0.0
 44
0.9
  1
Staffa 4", 5 piston
 40
0.125
 41
3.8
  0
MTEXT
  5
25E
100
AcDbEntity
  8
0
100
AcDbMText
 62
2
  6
CONTINUOUS
  7
STANDARD
 71
2
 72
1
 10
1.5275
 20
-1.4065
 30
0.0
 11
1.0
 21
0.0
 31
0.0
 44
0.9
  1
Open Cavity Quantity
 40
0.125
 41
4.0
  0
MTEXT
  5
25F
100
AcDbEntity
  8
0
100
AcDbMText
 62
2
  6
CONTINUOUS
  7
STANDARD
 71
2
 72
1
 10
6.055
 20
-1.4065
 30
0.0
 11
1.0
 21
0.0
 31
0.0
 44
0.9
  1
2
 40
0.125
 41
0.2
  0
MTEXT
  5
260
100
AcDbEntity
  8
0
100
AcDbMText
 62
2
  6
CONTINUOUS
  7
STANDARD
 71
2
 72
1
 10
1.5275
 20
-1.6565
 30
0.0
 11
1.0
 21
0.0
 31
0.0
 44
0.9
  1
Weight
 40
0.125
 41
1.2
  0
MTEXT
  5
261
100
AcDbEntity
  8
0
100
AcDbMText
 62
2
  6
CONTINUOUS
  7
STANDARD
 71
2
 72
1
 10
4.555
 20
-1.6565
 30
0.0
 11
1.0
 21
0.0
 31
0.0
 44
0.9
  1
8.240 lb.
 40
0.125
 41
1.8
  0
MTEXT
  5
262
100
AcDbEntity
  8
0
100
AcDbMText
 62
2
  6
CONTINUOUS
  7
STANDARD
 71
2
 72
1
 10
7.555
 20
-1.6565
 30
0.0
 11
1.0
 21
0.0
 31
0.0
 44
0.9
  1
3,738 kg.
 40
0.125
 41
1.8
  0
ENDBLK
  5
263
100
AcDbEntity
  8
0
  6
BYBLOCK
 62
0
100
AcDbBlockEnd
  0
BLOCK
  5
264
100
AcDbEntity
  8
0
100
AcDbBlockBegin
  2
*T3
 70
1
 10
0.0
 20
0.0
  3
*T3
  1

  0
LINE
  5
265
100
AcDbEntity
  8
0
100
AcDbLine
 62
2
  6
CONTINUOUS
 10
0.0
 20
0.0
 11
4.6
 21
0.0
  0
LINE
  5
266
100
AcDbEntity
  8
0
100
AcDbLine
 62
2
  6
CONTINUOUS
 10
0.0
 20
0.0
 11
0.0
 21
-0.93775
  0
LINE
  5
267
100
AcDbEntity
  8
0
100
AcDbLine
 62
2
  6
CONTINUOUS
 10
0.0
 20
-0.34375
 11
4.6
 21
-0.34375
  0
LINE
  5
268
100
AcDbEntity
  8
0
100
AcDbLine
 62
2
  6
CONTINUOUS
 10
0.0
 20
-0.68775
 11
4.6
 21
-0.68775
  0
LINE
  5
269
100
AcDbEntity
  8
0
100
AcDbLine
 62
2
  6
CONTINUOUS
 10
0.0
 20
-0.93775
 11
4.6
 21
-0.93775
  0
LINE
  5
26A
100
AcDbEntity
  8
0
100
AcDbLine
 62
2
  6
CONTINUOUS
 10
1.3
 20
-0.34375
 11
1.3
 21
-0.93775
  0
LINE
  5
26B
100
AcDbEntity
  8
0
100
AcDbLine
 62
2
  6
CONTINUOUS
 10
3.3
 20
-0.34375
 11
3.3
 21
-0.93775
  0
LINE
  5
26C
100
AcDbEntity
  8
0
100
AcDbLine
 62
2
  6
CONTINUOUS
 10
4.6
 20
0.0
 11
4.6
 21
-0.93775
  0
MTEXT
  5
26D
100
AcDbEntity
  8
0
100
AcDbMText
 62
2
  6
CONTINUOUS
  7
STANDARD
 71
2
 72
1
 10
2.3
 20
-0.099375
 30
0.0
 11
1.0
 21
0.0
 31
0.0
 44
0.9
  1
Port Headings
 40
0.145
 41
3.016
  0
MTEXT
  5
26E
100
AcDbEntity
  8
0
100
AcDbMText
 62
2
  6
CONTINUOUS
  7
STANDARD
 71
2
 72
1
 10
0.65
 20
-0.44325
 30
0.0
 11
1.0
 21
0.0
 31
0.0
 44
0.9
  1
Product
 40
0.145
 41
1.624
  0
MTEXT
  5
26F
100
AcDbEntity
  8
0
100
AcDbMText
 62
2
  6
CONTINUOUS
  7
STANDARD
 71
2
 72
1
 10
2.3
 20
-0.44325
 30
0.0
 11
1.0
 21
0.0
 31
0.0
 44
0.9
  1
Port
 40
0.145
 41
0.928
  0
MTEXT
  5
270
100
AcDbEntity
  8
0
100
AcDbMText
 62
2
  6
CONTINUOUS
  7
STANDARD
 71
2
 72
1
 10
3.95
 20
-0.44325
 30
0.0
 11
1.0
 21
0.0
 31
0.0
 44
0.9
  1
Size
 40
0.145
 41
0.928
  0
MTEXT
  5
271
100
AcDbEntity
  8
0
100
AcDbMText
 62
2
  6
CONTINUOUS
  7
STANDARD
 71
2
 72
1
 10
0.65
 20
-0.75025
 30
0.0
 11
1.0
 21
0.0
 31
0.0
 44
0.9
  1
XYA
 40
0.125
 41
0.6
  0
MTEXT
  5
272
100
AcDbEntity
  8
0
100
AcDbMText
 62
2
  6
CONTINUOUS
  7
STANDARD
 71
2
 72
1
 10
2.3
 20
-0.75025
 30
0.0
 11
1.0
 21
0.0
 31
0.0
 44
0.9
  1
Ports V1 & V2
 40
0.125
 41
2.6
  0
MTEXT
  5
273
100
AcDbEntity
  8
0
100
AcDbMText
 62
2
  6
CONTINUOUS
  7
STANDARD
 71
2
 72
1
 10
3.95
 20
-0.75025
 30
0.0
 11
1.0
 21
0.0
 31
0.0
 44
0.9
  1
1 1/4" NPTF
 40
0.125
 41
2.2
  0
ENDBLK
  5
274
100
AcDbEntity
  8
0
  6
BYBLOCK
 62
0
100
AcDbBlockEnd
  0
ENDSEC
  0
SECTION
  2
ENTITIES
  0
IMAGE
  5
275
100
AcDbEntity
  8
0
100
AcDbRasterImage
 62
7
  6
CONTINUOUS
 10
19.2297077316
 20
0.3094318264
 30
0.0
 11
0.0066666667
 21
0.0
 31
0.0
 12
0.0
 22
0.0066666667
 32
0.0
 13
369.0
 23
92.0
340
       3A4
 70
9
280
0
281
50
282
50
283
0
360
       39E
 71
1
 91
2
 14
-0.5
 24
-0.5
 14
368.5
 24
91.5
  0
INSERT
  5
276
100
AcDbEntity
  8
0
100
AcDbBlockReference
 62
2
  6
CONTINUOUS
  2
SUN_FIRST_THIRD_ANGLE_BL0
 10
20.4816717061
 20
1.2289683772
  0
ACAD_TABLE
  5
277
100
AcDbEntity
  8
0
 62
2
  6
CONTINUOUS
100
AcDbBlockReference
  2
*T1
 10
12.42375
 20
0.30125
 30
0.0
100
AcDbTable
342
       3A6
343
207
 11
1.0
 21
0.0
 31
0.0
 90
6
 91
4
 92
6
 93
20
 94
0
 95
0
 96
0
 70
1
 41
0.0
141
0.525
141
0.1
141
0.525
141
0.1
142
4.1
142
1.1
142
0.7
142
0.5
142
0.4
142
2.475
171
1
172
0
173
0
174
0
175
1
176
1
 91
33
178
0
145
0.0
301
CELL_VALUE
 90
4
  1
T-17A Motor mount Staffa 4", 5 piston\PCross pilot
304
ACVALUE_END
170
2
140
0.125
171
1
172
0
173
0
174
0
175
1
176
1
 91
33
178
0
145
0.0
301
CELL_VALUE
 90
4
  1
Aug-27-19
304
ACVALUE_END
170
5
140
0.125
171
1
172
0
173
0
174
0
175
1
176
1
 91
33
178
0
145
0.0
301
CELL_VALUE
 90
4
  1
1.000
304
ACVALUE_END
170
5
140
0.125
171
1
172
0
173
0
174
0
175
1
176
1
 91
33
178
0
145
0.0
301
CELL_VALUE
 90
4
  1
C
304
ACVALUE_END
170
5
140
0.125
171
1
172
0
173
0
174
0
175
1
176
1
 91
33
178
0
145
0.0
301
CELL_VALUE
 90
4
  1
2
304
ACVALUE_END
170
5
140
0.125
171
1
172
0
173
0
174
0
175
1
176
1
 91
33
178
0
145
0.0
301
CELL_VALUE
 90
4
  1
 
304
ACVALUE_END
170
1
140
0.125
171
1
172
0
173
0
174
0
175
1
176
1
 91
33
178
0
145
0.0
301
CELL_VALUE
 90
4
  1
DESCRIPTION
304
ACVALUE_END
170
1
140
0.06
171
1
172
0
173
0
174
0
175
1
176
1
 91
33
178
0
145
0.0
301
CELL_VALUE
 90
4
  1
DATE
304
ACVALUE_END
170
1
140
0.06
171
1
172
0
173
0
174
0
175
1
176
1
 91
33
178
0
145
0.0
301
CELL_VALUE
 90
4
  1
SCALE
304
ACVALUE_END
170
1
140
0.06
171
1
172
0
173
0
174
0
175
1
176
1
 91
33
178
0
145
0.0
301
CELL_VALUE
 90
4
  1
DWG SIZE
304
ACVALUE_END
170
1
140
0.06
171
1
172
0
173
0
174
0
175
1
176
1
 91
33
178
0
145
0.0
301
CELL_VALUE
 90
4
  1
SHEET
304
ACVALUE_END
170
1
140
0.06
171
1
172
0
173
0
174
0
175
1
176
1
 91
33
178
0
145
0.0
301
CELL_VALUE
 90
4
  1
 
304
ACVALUE_END
170
1
140
0.125
171
1
172
0
173
0
174
0
175
1
176
1
 91
33
178
0
145
0.0
301
CELL_VALUE
 90
4
  1
XYA
304
ACVALUE_END
170
5
140
0.125
171
1
172
0
173
0
174
0
175
4
176
1
 91
33
178
0
145
0.0
301
CELL_VALUE
 90
4
  1
ALL DIMENSIONS IN INCH\PVIEWS ARE THIRD ANGLE
304
ACVALUE_END
170
5
140
0.12
171
1
172
0
173
1
174
0
175
1
176
1
 91
1
178
0
145
0.0
170
1
171
1
172
0
173
1
174
0
175
1
176
1
 91
1
178
0
145
0.0
170
1
171
1
172
0
173
1
174
0
175
1
176
1
 91
1
178
0
145
0.0
170
5
171
1
172
0
173
0
174
0
175
1
176
1
 91
33
178
0
145
0.0
301
CELL_VALUE
 90
4
  1
 
304
ACVALUE_END
170
1
140
0.125
171
1
172
0
173
0
174
0
175
1
176
1
 91
33
178
0
145
0.0
301
CELL_VALUE
 90
4
  1
MODEL
304
ACVALUE_END
170
1
140
0.06
171
1
172
0
173
0
174
0
175
1
176
1
 91
33
178
0
145
0.0
301
CELL_VALUE
 90
4
  1
 
304
ACVALUE_END
170
1
140
0.125
171
1
172
0
173
0
174
0
175
1
176
1
 91
33
178
0
145
0.0
301
CELL_VALUE
 90
4
  1
 
304
ACVALUE_END
170
1
140
0.125
171
1
172
0
173
0
174
0
175
1
176
1
 91
33
178
0
145
0.0
301
CELL_VALUE
 90
4
  1
 
304
ACVALUE_END
170
1
140
0.125
171
1
172
0
173
0
174
0
175
1
176
1
 91
33
178
0
145
0.0
301
CELL_VALUE
 90
4
  1
 
304
ACVALUE_END
170
1
140
0.125
171
1
172
0
173
0
174
0
175
1
176
1
 91
33
178
0
145
0.0
301
CELL_VALUE
 90
4
  1
 
304
ACVALUE_END
170
1
140
0.125
  0
ACAD_TABLE
  5
278
100
AcDbEntity
  8
0
 62
2
  6
CONTINUOUS
100
AcDbBlockReference
  2
*T2
 10
12.4237499994
 20
16.47875
 30
0.0
100
AcDbTable
342
       3A5
343
208
 11
1.0
 21
0.0
 31
0.0
 90
22
 91
7
 92
3
 93
16
 94
0
 95
0
 96
0
 41
0.028
141
0.344
141
0.25
141
0.25
141
0.25
141
0.25
141
0.25
141
0.25
142
3.055
142
3.0
142
3.0
171
1
172
0
173
0
174
0
175
1
176
1
 91
33
178
0
145
0.0
301
CELL_VALUE
 90
4
  1
Technical Data
304
ACVALUE_END
170
5
140
0.145
171
1
172
0
173
0
174
0
175
1
176
1
 91
33
178
0
145
0.0
301
CELL_VALUE
 90
4
  1
U.S. Units
304
ACVALUE_END
170
5
140
0.145
171
1
172
0
173
0
174
0
175
1
176
1
 91
33
178
0
145
0.0
301
CELL_VALUE
 90
4
  1
Metric Units
304
ACVALUE_END
170
5
140
0.145
171
1
172
0
173
0
174
0
175
1
176
1
 91
33
178
0
145
0.0
301
CELL_VALUE
 90
4
  1
Cavity
304
ACVALUE_END
170
5
140
0.125
171
1
172
0
173
0
174
0
175
2
176
1
 91
33
178
0
145
0.0
301
CELL_VALUE
 90
4
  1
T-17A
304
ACVALUE_END
170
5
140
0.125
171
1
172
0
173
1
174
0
175
1
176
1
 91
1
178
0
145
0.0
170
1
171
1
172
0
173
0
174
0
175
1
176
1
 91
33
178
0
145
0.0
301
CELL_VALUE
 90
4
  1
Body Features
304
ACVALUE_END
170
5
140
0.125
171
1
172
0
173
0
174
0
175
2
176
1
 91
33
178
0
145
0.0
301
CELL_VALUE
 90
4
  1
Cross pilot
304
ACVALUE_END
170
5
140
0.125
171
1
172
0
173
1
174
0
175
1
176
1
 91
1
178
0
145
0.0
170
1
171
1
172
0
173
0
174
0
175
1
176
1
 91
33
178
0
145
0.0
301
CELL_VALUE
 90
4
  1
Body Type
304
ACVALUE_END
170
5
140
0.125
171
1
172
0
173
0
174
0
175
2
176
1
 91
33
178
0
145
0.0
301
CELL_VALUE
 90
4
  1
Motor mount
304
ACVALUE_END
170
5
140
0.125
171
1
172
0
173
1
174
0
175
1
176
1
 91
1
178
0
145
0.0
170
1
171
1
172
0
173
0
174
0
175
1
176
1
 91
33
178
0
145
0.0
301
CELL_VALUE
 90
4
  1
Interface
304
ACVALUE_END
170
5
140
0.125
171
1
172
0
173
0
174
0
175
2
176
1
 91
33
178
0
145
0.0
301
CELL_VALUE
 90
4
  1
Staffa 4", 5 piston
304
ACVALUE_END
170
5
140
0.125
171
1
172
0
173
1
174
0
175
1
176
1
 91
1
178
0
145
0.0
170
1
171
1
172
0
173
0
174
0
175
1
176
1
 91
33
178
0
145
0.0
301
CELL_VALUE
 90
4
  1
Open Cavity Quantity
304
ACVALUE_END
170
5
140
0.125
171
1
172
0
173
0
174
0
175
2
176
1
 91
33
178
0
145
0.0
301
CELL_VALUE
 90
4
  1
2
304
ACVALUE_END
170
5
140
0.125
171
1
172
0
173
1
174
0
175
1
176
1
 91
1
178
0
145
0.0
170
1
171
1
172
0
173
0
174
0
175
1
176
1
 91
33
178
0
145
0.0
301
CELL_VALUE
 90
4
  1
Weight
304
ACVALUE_END
170
5
140
0.125
171
1
172
0
173
0
174
0
175
1
176
1
 91
33
178
0
145
0.0
301
CELL_VALUE
 90
4
  1
8.240 lb.
304
ACVALUE_END
170
5
140
0.125
171
1
172
0
173
0
174
0
175
1
176
1
 91
33
178
0
145
0.0
301
CELL_VALUE
 90
4
  1
3,738 kg.
304
ACVALUE_END
170
5
140
0.125
  0
ACAD_TABLE
  5
279
100
AcDbEntity
  8
0
 62
2
  6
CONTINUOUS
100
AcDbBlockReference
  2
*T3
 10
0.52125
 20
1.459
 30
0.0
100
AcDbTable
342
       3A5
343
209
 11
1.0
 21
0.0
 31
0.0
 90
22
 91
3
 92
3
 93
16
 94
0
 95
0
 96
0
 41
0.05
141
0.34375
141
0.344
141
0.25
142
1.3
142
2.0
142
1.3
171
1
172
0
173
0
174
0
175
3
176
1
 91
33
178
0
145
0.0
301
CELL_VALUE
 90
4
  1
Port Headings
304
ACVALUE_END
170
5
140
0.145
171
1
172
0
173
1
174
0
175
1
176
1
 91
1
178
0
145
0.0
170
1
171
1
172
0
173
1
174
0
175
1
176
1
 91
1
178
0
145
0.0
170
1
171
1
172
0
173
0
174
0
175
1
176
1
 91
33
178
0
145
0.0
301
CELL_VALUE
 90
4
  1
Product
304
ACVALUE_END
170
5
140
0.145
171
1
172
0
173
0
174
0
175
1
176
1
 91
33
178
0
145
0.0
301
CELL_VALUE
 90
4
  1
Port
304
ACVALUE_END
170
5
140
0.145
171
1
172
0
173
0
174
0
175
1
176
1
 91
33
178
0
145
0.0
301
CELL_VALUE
 90
4
  1
Size
304
ACVALUE_END
170
5
140
0.145
171
1
172
0
173
0
174
0
175
1
176
1
 91
33
178
0
145
0.0
301
CELL_VALUE
 90
4
  1
XYA
304
ACVALUE_END
170
5
140
0.125
171
1
172
0
173
0
174
0
175
1
176
1
 91
33
178
0
145
0.0
301
CELL_VALUE
 90
4
  1
Ports V1 & V2
304
ACVALUE_END
170
5
140
0.125
171
1
172
0
173
0
174
0
175
1
176
1
 91
33
178
0
145
0.0
301
CELL_VALUE
 90
4
  1
1 1/4" NPTF
304
ACVALUE_END
170
5
140
0.125
  0
MTEXT
  5
27A
100
AcDbEntity
  8
0
100
AcDbMText
 62
2
  6
CONTINUOUS
  7
STANDARD
 71
1
 72
1
 10
0.52125
 20
5.75995
 30
0.0
 11
1.0
 21
0.0
 31
0.0
 44
0.6
  3
Notes\P \P1. Important: Carefully consider\P   the maximum system pressure. The\P   pressure rating of the manifold is\P   dependent on the manifold material,\P   with the port type/size a secondary\P   consideration. Manifolds\P   constructed of alu
  1
minum are not\P   rated for pressures higher than\P   3000 psi (210 bar), regardless of\P   the port type/size specified.
 40
0.1
 41
3.04
  0
LINE
  5
27B
100
AcDbEntity
  8
0
100
AcDbLine
 62
7
  6
CONTINUOUS
 10
0.30125
 20
0.30125
 11
0.30125
 21
16.69875
  0
LINE
  5
27C
100
AcDbEntity
  8
0
100
AcDbLine
 62
7
  6
CONTINUOUS
 10
0.30125
 20
0.30125
 11
21.69875
 21
0.30125
  0
LINE
  5
27D
100
AcDbEntity
  8
0
100
AcDbLine
 62
7
  6
CONTINUOUS
 10
0.30125
 20
16.69875
 11
21.69875
 21
16.69875
  0
LINE
  5
27E
100
AcDbEntity
  8
0
100
AcDbLine
 62
7
  6
CONTINUOUS
 10
21.69875
 20
0.30125
 11
21.69875
 21
16.69875
  0
LINE
  5
27F
100
AcDbEntity
  8
0
100
AcDbLine
 62
7
  6
CONTINUOUS
 10
9.4402003032
 20
11.2385257576
 11
8.6960961627
 21
10.5197763082
  0
LINE
  5
280
100
AcDbEntity
  8
0
100
AcDbLine
 62
7
  6
CONTINUOUS
 10
9.736485074
 20
11.2179783389
 11
9.8873364056
 21
11.3636895447
  0
LINE
  5
281
100
AcDbEntity
  8
0
100
AcDbLine
 62
7
  6
CONTINUOUS
 10
10.1478663851
 20
11.456191285
 11
9.8902130576
 21
11.2073172671
  0
LINE
  5
282
100
AcDbEntity
  8
0
100
AcDbLine
 62
7
  6
CONTINUOUS
 10
8.6960961627
 20
5.810887626
 11
12.5597996968
 21
5.5429388758
  0
LINE
  5
283
100
AcDbEntity
  8
0
100
AcDbLine
 62
7
  6
CONTINUOUS
 10
8.6960961627
 20
10.5197763082
 11
8.6960961627
 21
5.810887626
  0
LINE
  5
284
100
AcDbEntity
  8
0
100
AcDbLine
 62
7
  6
CONTINUOUS
 10
11.8382366812
 20
11.3389637068
 11
11.5805833538
 21
11.0900896889
  0
LINE
  5
285
100
AcDbEntity
  8
0
100
AcDbLine
 62
7
  6
CONTINUOUS
 10
10.179006554
 20
9.7259624886
 11
10.1843175001
 21
9.7310924689
  0
LINE
  5
286
100
AcDbEntity
  8
0
100
AcDbLine
 62
4
  6
CONTINUOUS
 10
12.7163850948
 20
6.8339813106
 11
12.6853268357
 21
6.8402035541
  0
LINE
  5
287
100
AcDbEntity
  8
0
100
AcDbLine
 62
4
  6
CONTINUOUS
 10
12.8178420802
 20
7.722660526
 11
12.7867838211
 21
7.7257780058
  0
LINE
  5
288
100
AcDbEntity
  8
0
100
AcDbLine
 62
4
  6
CONTINUOUS
 10
12.7495139102
 20
8.0333716075
 11
12.7184556511
 21
8.0364890873
  0
LINE
  5
289
100
AcDbEntity
  8
0
100
AcDbLine
 62
4
  6
CONTINUOUS
 10
12.6668397825
 20
7.808625699
 11
12.6372604876
 21
7.8131717348
  0
LINE
  5
28A
100
AcDbEntity
  8
0
100
AcDbLine
 62
7
  6
CONTINUOUS
 10
13.3039038373
 20
10.9705770074
 11
12.5597996968
 21
10.251827558
  0
LINE
  5
28B
100
AcDbEntity
  8
0
100
AcDbLine
 62
4
  6
CONTINUOUS
 10
12.6283866998
 20
8.2268478966
 11
12.6306051477
 21
8.2262309752
  0
LINE
  5
28C
100
AcDbEntity
  8
0
100
AcDbLine
 62
4
  6
CONTINUOUS
 10
12.6905032128
 20
9.4942552792
 11
12.6956795881
 21
9.4992552741
  0
LINE
  5
28D
100
AcDbEntity
  8
0
100
AcDbLine
 62
4
  6
CONTINUOUS
 10
12.70862053
 20
9.4610441571
 11
12.7163850948
 21
9.4612997072
  0
LINE
  5
28E
100
AcDbEntity
  8
0
100
AcDbLine
 62
4
  6
CONTINUOUS
 10
12.7495139102
 20
7.8346668568
 11
12.7184556511
 21
7.8709017996
  0
LINE
  5
28F
100
AcDbEntity
  8
0
100
AcDbLine
 62
4
  6
CONTINUOUS
 10
12.6853268357
 20
9.3081441835
 11
12.7163850948
 21
9.3743663797
  0
LINE
  5
290
100
AcDbEntity
  8
0
100
AcDbLine
 62
4
  6
CONTINUOUS
 10
12.6572265117
 20
8.4202922844
 11
12.6505711702
 21
8.4138637177
  0
LINE
  5
291
100
AcDbEntity
  8
0
100
AcDbLine
 62
4
  6
CONTINUOUS
 10
12.6461342763
 20
8.3599018989
 11
12.6394789354
 21
8.3534733329
  0
LINE
  5
292
100
AcDbEntity
  8
0
100
AcDbLine
 62
4
  6
CONTINUOUS
 10
12.7163850948
 20
9.3743663797
 11
12.6853268357
 21
9.3805886231
  0
LINE
  5
293
100
AcDbEntity
  8
0
100
AcDbLine
 62
4
  6
CONTINUOUS
 10
12.7317663328
 20
7.9499938508
 11
12.7184556511
 21
7.970254175
  0
LINE
  5
294
100
AcDbEntity
  8
0
100
AcDbLine
 62
4
  6
CONTINUOUS
 10
12.6328235937
 20
7.3121241681
 11
12.6283866998
 21
7.3243971872
  0
LINE
  5
295
100
AcDbEntity
  8
0
100
AcDbLine
 62
4
  6
CONTINUOUS
 10
12.6594449589
 20
7.3792352574
 11
12.6550080645
 21
7.3915082744
  0
LINE
  5
296
100
AcDbEntity
  8
0
100
AcDbLine
 62
4
  6
CONTINUOUS
 10
12.6594449589
 20
7.4703082722
 11
12.6550080645
 21
7.4825812822
  0
LINE
  5
297
100
AcDbEntity
  8
0
100
AcDbLine
 62
4
  6
CONTINUOUS
 10
12.6853268357
 20
9.4675219507
 11
12.6879150233
 21
9.4845108361
  0
LINE
  5
298
100
AcDbEntity
  8
0
100
AcDbLine
 62
4
  6
CONTINUOUS
 10
12.6879150233
 20
9.4845108361
 11
12.6905032128
 21
9.4942552792
  0
LINE
  5
299
100
AcDbEntity
  8
0
100
AcDbLine
 62
4
  6
CONTINUOUS
 10
12.6572265117
 20
8.296101848
 11
12.6394789354
 21
8.2789590047
  0
LINE
  5
29A
100
AcDbEntity
  8
0
100
AcDbLine
 62
4
  6
CONTINUOUS
 10
12.6594449589
 20
8.2540880953
 11
12.6372604876
 21
8.2326595403
  0
LINE
  5
29B
100
AcDbEntity
  8
0
100
AcDbLine
 62
4
  6
CONTINUOUS
 10
12.6306051477
 20
8.2262309752
 11
12.6283866998
 21
8.224088119
  0
LINE
  5
29C
100
AcDbEntity
  8
0
100
AcDbLine
 62
4
  6
CONTINUOUS
 10
12.8178420802
 20
8.3877694957
 11
12.7867838211
 21
8.3577695193
  0
LINE
  5
29D
100
AcDbEntity
  8
0
100
AcDbLine
 62
4
  6
CONTINUOUS
 10
12.791220715
 20
8.3151387889
 11
12.8134051859
 21
8.3365673435
  0
LINE
  5
29E
100
AcDbEntity
  8
0
100
AcDbLine
 62
4
  6
CONTINUOUS
 10
12.6572265117
 20
8.1774309669
 11
12.6283866998
 21
8.1495738461
  0
LINE
  5
29F
100
AcDbEntity
  8
0
100
AcDbLine
 62
4
  6
CONTINUOUS
 10
12.6594449589
 20
8.1464563801
 11
12.6372604876
 21
8.1250278251
  0
LINE
  5
2A0
100
AcDbEntity
  8
0
100
AcDbLine
 62
4
  6
CONTINUOUS
 10
12.8178420802
 20
8.2828975029
 11
12.7867838211
 21
8.2528975265
  0
LINE
  5
2A1
100
AcDbEntity
  8
0
100
AcDbLine
 62
4
  6
CONTINUOUS
 10
12.6372604876
 20
8.0753516063
 11
12.6572265117
 21
8.0946373058
  0
LINE
  5
2A2
100
AcDbEntity
  8
0
100
AcDbLine
 62
4
  6
CONTINUOUS
 10
12.791220715
 20
8.2240657948
 11
12.8134051859
 21
8.2454943494
  0
LINE
  5
2A3
100
AcDbEntity
  8
0
100
AcDbLine
 62
4
  6
CONTINUOUS
 10
12.6594449589
 20
8.063662719
 11
12.6416973815
 21
8.0465198746
  0
LINE
  5
2A4
100
AcDbEntity
  8
0
100
AcDbLine
 62
4
  6
CONTINUOUS
 10
12.8134051859
 20
8.1875387977
 11
12.791220715
 21
8.1661102431
  0
LINE
  5
2A5
100
AcDbEntity
  8
0
100
AcDbLine
 62
4
  6
CONTINUOUS
 10
12.6572265117
 20
8.0118437
 11
12.6505711702
 21
8.0054151333
  0
LINE
  5
2A6
100
AcDbEntity
  8
0
100
AcDbLine
 62
4
  6
CONTINUOUS
 10
12.6394789354
 20
7.9588235815
 11
12.6439158293
 21
7.9631092921
  0
LINE
  5
2A7
100
AcDbEntity
  8
0
100
AcDbLine
 62
4
  6
CONTINUOUS
 10
12.8134051859
 20
7.6714584152
 11
12.8178420802
 21
7.6591853982
  0
LINE
  5
2A8
100
AcDbEntity
  8
0
100
AcDbLine
 62
4
  6
CONTINUOUS
 10
12.6394789354
 20
8.2789590047
 11
12.6372604876
 21
8.2850954815
  0
LINE
  5
2A9
100
AcDbEntity
  8
0
100
AcDbLine
 62
4
  6
CONTINUOUS
 10
12.6394789354
 20
8.3534733329
 11
12.6372604876
 21
8.3596098096
  0
LINE
  5
2AA
100
AcDbEntity
  8
0
100
AcDbLine
 62
4
  6
CONTINUOUS
 10
12.6594449589
 20
8.414155807
 11
12.6572265117
 21
8.4202922844
  0
LINE
  5
2AB
100
AcDbEntity
  8
0
100
AcDbLine
 62
4
  6
CONTINUOUS
 10
12.6394789354
 20
7.8373929227
 11
12.6372604876
 21
7.8518087877
  0
LINE
  5
2AC
100
AcDbEntity
  8
0
100
AcDbLine
 62
7
  6
CONTINUOUS
 10
12.5597996968
 20
5.5429388758
 11
12.5597996968
 21
10.251827558
  0
LINE
  5
2AD
100
AcDbEntity
  8
0
100
AcDbLine
 62
4
  6
CONTINUOUS
 10
12.6283866998
 20
7.3243971872
 11
12.6283866998
 21
7.3575146451
  0
LINE
  5
2AE
100
AcDbEntity
  8
0
100
AcDbLine
 62
4
  6
CONTINUOUS
 10
12.6283866998
 20
8.224088119
 11
12.6283866998
 21
8.2268478966
  0
LINE
  5
2AF
100
AcDbEntity
  8
0
100
AcDbLine
 62
4
  6
CONTINUOUS
 10
12.6372604876
 20
8.033954831
 11
12.6372604876
 21
7.9925580005
  0
LINE
  5
2B0
100
AcDbEntity
  8
0
100
AcDbLine
 62
4
  6
CONTINUOUS
 10
12.6372604876
 20
7.6807019102
 11
12.6372604876
 21
7.7220987407
  0
LINE
  5
2B1
100
AcDbEntity
  8
0
100
AcDbLine
 62
4
  6
CONTINUOUS
 10
12.6372604876
 20
7.8518087877
 11
12.6372604876
 21
7.88492623
  0
LINE
  5
2B2
100
AcDbEntity
  8
0
100
AcDbLine
 62
4
  6
CONTINUOUS
 10
12.6372604876
 20
7.9180437276
 11
12.6372604876
 21
7.9511611699
  0
LINE
  5
2B3
100
AcDbEntity
  8
0
100
AcDbLine
 62
4
  6
CONTINUOUS
 10
12.6372604876
 20
8.2850954815
 11
12.6372604876
 21
8.3182130343
  0
LINE
  5
2B4
100
AcDbEntity
  8
0
100
AcDbLine
 62
4
  6
CONTINUOUS
 10
12.6372604876
 20
8.3596098096
 11
12.6372604876
 21
8.3927272519
  0
LINE
  5
2B5
100
AcDbEntity
  8
0
100
AcDbLine
 62
4
  6
CONTINUOUS
 10
12.6483527232
 20
8.0198309992
 11
12.6483527232
 21
8.0529484415
  0
LINE
  5
2B6
100
AcDbEntity
  8
0
100
AcDbLine
 62
4
  6
CONTINUOUS
 10
12.6594449589
 20
8.3396415894
 11
12.6594449589
 21
8.3065240365
  0
LINE
  5
2B7
100
AcDbEntity
  8
0
100
AcDbLine
 62
4
  6
CONTINUOUS
 10
12.6594449589
 20
8.2044119319
 11
12.6594449589
 21
8.1878532107
  0
LINE
  5
2B8
100
AcDbEntity
  8
0
100
AcDbLine
 62
4
  6
CONTINUOUS
 10
12.6594449589
 20
8.063662719
 11
12.6594449589
 21
8.0305452767
  0
LINE
  5
2B9
100
AcDbEntity
  8
0
100
AcDbLine
 62
4
  6
CONTINUOUS
 10
12.6594449589
 20
7.9063547851
 11
12.6594449589
 21
7.8732373427
  0
LINE
  5
2BA
100
AcDbEntity
  8
0
100
AcDbLine
 62
4
  6
CONTINUOUS
 10
12.6594449589
 20
7.3461177987
 11
12.6594449589
 21
7.3792352574
  0
LINE
  5
2BB
100
AcDbEntity
  8
0
100
AcDbLine
 62
4
  6
CONTINUOUS
 10
12.6594449589
 20
7.4454701697
 11
12.6594449589
 21
7.4703082722
  0
LINE
  5
2BC
100
AcDbEntity
  8
0
100
AcDbLine
 62
4
  6
CONTINUOUS
 10
12.6594449589
 20
8.1050595496
 11
12.6594449589
 21
8.1464563801
  0
LINE
  5
2BD
100
AcDbEntity
  8
0
100
AcDbLine
 62
4
  6
CONTINUOUS
 10
12.6594449589
 20
8.3810383646
 11
12.6594449589
 21
8.414155807
  0
LINE
  5
2BE
100
AcDbEntity
  8
0
100
AcDbLine
 62
4
  6
CONTINUOUS
 10
12.6668397825
 20
7.7920669779
 11
12.6668397825
 21
7.808625699
  0
LINE
  5
2BF
100
AcDbEntity
  8
0
100
AcDbLine
 62
4
  6
CONTINUOUS
 10
12.6853268357
 20
9.4530330628
 11
12.6853268357
 21
9.4675219507
  0
LINE
  5
2C0
100
AcDbEntity
  8
0
100
AcDbLine
 62
4
  6
CONTINUOUS
 10
12.7163850948
 20
9.4612997072
 11
12.7163850948
 21
9.5192552589
  0
LINE
  5
2C1
100
AcDbEntity
  8
0
100
AcDbLine
 62
4
  6
CONTINUOUS
 10
12.7406401215
 20
8.0358393373
 11
12.7406401215
 21
8.0799959455
  0
LINE
  5
2C2
100
AcDbEntity
  8
0
100
AcDbLine
 62
4
  6
CONTINUOUS
 10
12.6490922055
 20
8.4041558146
 11
12.6476132409
 21
8.369609802
  0
LINE
  5
2C3
100
AcDbEntity
  8
0
100
AcDbLine
 62
4
  6
CONTINUOUS
 10
12.6594449589
 20
8.0305452767
 11
12.6572265117
 21
8.0118437
  0
LINE
  5
2C4
100
AcDbEntity
  8
0
100
AcDbLine
 62
4
  6
CONTINUOUS
 10
12.6594449589
 20
7.8732373427
 11
12.6572265117
 21
7.854535766
  0
LINE
  5
2C5
100
AcDbEntity
  8
0
100
AcDbLine
 62
4
  6
CONTINUOUS
 10
12.6505711702
 20
8.4138637177
 11
12.6490922055
 21
8.4041558146
  0
LINE
  5
2C6
100
AcDbEntity
  8
0
100
AcDbLine
 62
4
  6
CONTINUOUS
 10
12.6476132409
 20
8.369609802
 11
12.6461342763
 21
8.3599018989
  0
LINE
  5
2C7
100
AcDbEntity
  8
0
100
AcDbLine
 62
4
  6
CONTINUOUS
 10
12.6372604876
 20
8.3927272519
 11
12.6394789354
 21
8.4031494411
  0
LINE
  5
2C8
100
AcDbEntity
  8
0
100
AcDbLine
 62
4
  6
CONTINUOUS
 10
12.6572265117
 20
8.3706161762
 11
12.6594449589
 21
8.3810383646
  0
LINE
  5
2C9
100
AcDbEntity
  8
0
100
AcDbLine
 62
4
  6
CONTINUOUS
 10
12.6594449589
 20
8.3065240365
 11
12.6572265117
 21
8.296101848
  0
LINE
  5
2CA
100
AcDbEntity
  8
0
100
AcDbLine
 62
4
  6
CONTINUOUS
 10
12.6594449589
 20
8.1878532107
 11
12.6572265117
 21
8.1774309669
  0
LINE
  5
2CB
100
AcDbEntity
  8
0
100
AcDbLine
 62
4
  6
CONTINUOUS
 10
12.6572265117
 20
8.0946373058
 11
12.6594449589
 21
8.1050595496
  0
LINE
  5
2CC
100
AcDbEntity
  8
0
100
AcDbLine
 62
4
  6
CONTINUOUS
 10
12.6372604876
 20
7.7220987407
 11
12.6394789354
 21
7.7325209575
  0
LINE
  5
2CD
100
AcDbEntity
  8
0
100
AcDbLine
 62
4
  6
CONTINUOUS
 10
12.6372604876
 20
7.9511611699
 11
12.6394789354
 21
7.9588235815
  0
LINE
  5
2CE
100
AcDbEntity
  8
0
100
AcDbLine
 62
4
  6
CONTINUOUS
 10
12.6416973815
 20
8.0465198746
 11
12.6372604876
 21
8.033954831
  0
LINE
  5
2CF
100
AcDbEntity
  8
0
100
AcDbLine
 62
4
  6
CONTINUOUS
 10
12.7184556511
 20
8.0364890873
 11
12.7495139102
 21
8.0996065336
  0
LINE
  5
2D0
100
AcDbEntity
  8
0
100
AcDbLine
 62
4
  6
CONTINUOUS
 10
12.8134051859
 20
8.0909462484
 11
12.791220715
 21
8.0695176938
  0
LINE
  5
2D1
100
AcDbEntity
  8
0
100
AcDbLine
 62
4
  6
CONTINUOUS
 10
12.6594449589
 20
7.9394722827
 11
12.6372604876
 21
7.9180437276
  0
LINE
  5
2D2
100
AcDbEntity
  8
0
100
AcDbLine
 62
4
  6
CONTINUOUS
 10
12.6283866998
 20
7.8763548087
 11
12.6594449589
 21
7.9063547851
  0
LINE
  5
2D3
100
AcDbEntity
  8
0
100
AcDbLine
 62
4
  6
CONTINUOUS
 10
12.7317663328
 20
7.9499938508
 11
12.7495139102
 21
7.9671366952
  0
LINE
  5
2D4
100
AcDbEntity
  8
0
100
AcDbLine
 62
4
  6
CONTINUOUS
 10
12.6572265117
 20
7.854535766
 11
12.6394789354
 21
7.8373929227
  0
LINE
  5
2D5
100
AcDbEntity
  8
0
100
AcDbLine
 62
4
  6
CONTINUOUS
 10
12.8178420802
 20
7.9213652767
 11
12.7867838211
 21
7.8913653003
  0
LINE
  5
2D6
100
AcDbEntity
  8
0
100
AcDbLine
 62
4
  6
CONTINUOUS
 10
12.6394789354
 20
7.7325209575
 11
12.6594449589
 21
7.7518066564
  0
LINE
  5
2D7
100
AcDbEntity
  8
0
100
AcDbLine
 62
4
  6
CONTINUOUS
 10
12.8178420802
 20
7.8551303644
 11
12.7867838211
 21
7.825130388
  0
LINE
  5
2D8
100
AcDbEntity
  8
0
100
AcDbLine
 62
4
  6
CONTINUOUS
 10
12.6594449589
 20
7.7021304652
 11
12.6283866998
 21
7.6721304889
  0
LINE
  5
2D9
100
AcDbEntity
  8
0
100
AcDbLine
 62
4
  6
CONTINUOUS
 10
12.791220715
 20
8.0695176938
 11
12.7867838211
 21
8.0817907043
  0
LINE
  5
2DA
100
AcDbEntity
  8
0
100
AcDbLine
 62
4
  6
CONTINUOUS
 10
12.791220715
 20
8.1661102431
 11
12.7867838211
 21
8.1783832536
  0
LINE
  5
2DB
100
AcDbEntity
  8
0
100
AcDbLine
 62
4
  6
CONTINUOUS
 10
12.8134051859
 20
8.2454943494
 11
12.8178420802
 21
8.2332213394
  0
LINE
  5
2DC
100
AcDbEntity
  8
0
100
AcDbLine
 62
4
  6
CONTINUOUS
 10
12.8134051859
 20
8.3365673435
 11
12.8178420802
 21
8.3242943334
  0
LINE
  5
2DD
100
AcDbEntity
  8
0
100
AcDbLine
 62
4
  6
CONTINUOUS
 10
12.6505711702
 20
8.0054151333
 11
12.6483527232
 21
8.0198309992
  0
LINE
  5
2DE
100
AcDbEntity
  8
0
100
AcDbLine
 62
4
  6
CONTINUOUS
 10
12.7986155382
 20
7.5771388593
 11
12.8045313976
 21
7.5386965294
  0
LINE
  5
2DF
100
AcDbEntity
  8
0
100
AcDbLine
 62
4
  6
CONTINUOUS
 10
12.7867838211
 20
7.5877886051
 11
12.7867838211
 21
7.6291854219
  0
LINE
  5
2E0
100
AcDbEntity
  8
0
100
AcDbLine
 62
4
  6
CONTINUOUS
 10
12.7867838211
 20
7.7920129181
 11
12.7867838211
 21
7.8582478304
  0
LINE
  5
2E1
100
AcDbEntity
  8
0
100
AcDbLine
 62
4
  6
CONTINUOUS
 10
12.7867838211
 20
7.8913653003
 11
12.7867838211
 21
7.9410414915
  0
LINE
  5
2E2
100
AcDbEntity
  8
0
100
AcDbLine
 62
4
  6
CONTINUOUS
 10
12.7867838211
 20
8.0817907043
 11
12.7867838211
 21
8.1149081466
  0
LINE
  5
2E3
100
AcDbEntity
  8
0
100
AcDbLine
 62
4
  6
CONTINUOUS
 10
12.7867838211
 20
8.1783832536
 11
12.7867838211
 21
8.203221363
  0
LINE
  5
2E4
100
AcDbEntity
  8
0
100
AcDbLine
 62
4
  6
CONTINUOUS
 10
12.7867838211
 20
8.2528975265
 11
12.7867838211
 21
8.2942943571
  0
LINE
  5
2E5
100
AcDbEntity
  8
0
100
AcDbLine
 62
4
  6
CONTINUOUS
 10
12.7867838211
 20
8.3577695193
 11
12.7867838211
 21
8.4074456828
  0
LINE
  5
2E6
100
AcDbEntity
  8
0
100
AcDbLine
 62
4
  6
CONTINUOUS
 10
12.8000945028
 20
8.4037440936
 11
12.8000945028
 21
8.3706266513
  0
LINE
  5
2E7
100
AcDbEntity
  8
0
100
AcDbLine
 62
4
  6
CONTINUOUS
 10
12.8000945028
 20
7.9373399023
 11
12.8000945028
 21
7.9042224323
  0
LINE
  5
2E8
100
AcDbEntity
  8
0
100
AcDbLine
 62
4
  6
CONTINUOUS
 10
12.8089682915
 20
7.7251282558
 11
12.8089682915
 21
7.769284864
  0
LINE
  5
2E9
100
AcDbEntity
  8
0
100
AcDbLine
 62
4
  6
CONTINUOUS
 10
12.8178420802
 20
8.3242943334
 11
12.8178420802
 21
8.2828975029
  0
LINE
  5
2EA
100
AcDbEntity
  8
0
100
AcDbLine
 62
4
  6
CONTINUOUS
 10
12.8178420802
 20
8.2332213394
 11
12.8178420802
 21
8.20838323
  0
LINE
  5
2EB
100
AcDbEntity
  8
0
100
AcDbLine
 62
4
  6
CONTINUOUS
 10
12.8178420802
 20
8.144908123
 11
12.8178420802
 21
8.1117906806
  0
LINE
  5
2EC
100
AcDbEntity
  8
0
100
AcDbLine
 62
4
  6
CONTINUOUS
 10
12.8178420802
 20
7.6591853982
 11
12.8178420802
 21
7.6177885815
  0
LINE
  5
2ED
100
AcDbEntity
  8
0
100
AcDbLine
 62
4
  6
CONTINUOUS
 10
12.8178420802
 20
7.9213652767
 11
12.8178420802
 21
7.9710414678
  0
LINE
  5
2EE
100
AcDbEntity
  8
0
100
AcDbLine
 62
4
  6
CONTINUOUS
 10
12.8178420802
 20
8.3877694957
 11
12.8178420802
 21
8.4374456592
  0
LINE
  5
2EF
100
AcDbEntity
  8
0
100
AcDbLine
 62
4
  6
CONTINUOUS
 10
12.7986155382
 20
8.4519916869
 11
12.8045313976
 21
8.5018625769
  0
LINE
  5
2F0
100
AcDbEntity
  8
0
100
AcDbLine
 62
4
  6
CONTINUOUS
 10
12.8045313976
 20
7.5386965294
 11
12.8104472566
 21
7.5885674224
  0
LINE
  5
2F1
100
AcDbEntity
  8
0
100
AcDbLine
 62
4
  6
CONTINUOUS
 10
12.6505711702
 20
7.3872225633
 11
12.6372604876
 21
7.3164098787
  0
LINE
  5
2F2
100
AcDbEntity
  8
0
100
AcDbLine
 62
4
  6
CONTINUOUS
 10
12.7867838211
 20
8.2942943571
 11
12.791220715
 21
8.3151387889
  0
LINE
  5
2F3
100
AcDbEntity
  8
0
100
AcDbLine
 62
4
  6
CONTINUOUS
 10
12.7867838211
 20
8.203221363
 11
12.791220715
 21
8.2240657948
  0
LINE
  5
2F4
100
AcDbEntity
  8
0
100
AcDbLine
 62
4
  6
CONTINUOUS
 10
12.6283866998
 20
7.3575146451
 11
12.6306051477
 21
7.3679368653
  0
LINE
  5
2F5
100
AcDbEntity
  8
0
100
AcDbLine
 62
4
  6
CONTINUOUS
 10
12.8178420802
 20
8.20838323
 11
12.8134051859
 21
8.1875387977
  0
LINE
  5
2F6
100
AcDbEntity
  8
0
100
AcDbLine
 62
4
  6
CONTINUOUS
 10
12.6550080645
 20
7.4246257305
 11
12.6594449589
 21
7.4454701697
  0
LINE
  5
2F7
100
AcDbEntity
  8
0
100
AcDbLine
 62
4
  6
CONTINUOUS
 10
12.8178420802
 20
8.1117906806
 11
12.8134051859
 21
8.0909462484
  0
LINE
  5
2F8
100
AcDbEntity
  8
0
100
AcDbLine
 62
4
  6
CONTINUOUS
 10
12.6572265117
 20
7.3356955782
 11
12.6594449589
 21
7.3461177987
  0
LINE
  5
2F9
100
AcDbEntity
  8
0
100
AcDbLine
 62
4
  6
CONTINUOUS
 10
12.7867838211
 20
7.6291854219
 11
12.791220715
 21
7.6500298606
  0
LINE
  5
2FA
100
AcDbEntity
  8
0
100
AcDbLine
 62
4
  6
CONTINUOUS
 10
12.7184556511
 20
7.9040192558
 11
12.7317663328
 21
7.9499938508
  0
LINE
  5
2FB
100
AcDbEntity
  8
0
100
AcDbLine
 62
4
  6
CONTINUOUS
 10
12.7184556511
 20
7.8046668804
 11
12.7495139102
 21
7.900901776
  0
LINE
  5
2FC
100
AcDbEntity
  8
0
100
AcDbLine
 62
4
  6
CONTINUOUS
 10
12.6283866998
 20
7.4899844731
 11
12.6594449589
 21
7.5779400012
  0
LINE
  5
2FD
100
AcDbEntity
  8
0
100
AcDbLine
 62
4
  6
CONTINUOUS
 10
12.6372604876
 20
7.7634955713
 11
12.6594449589
 21
7.8097622357
  0
LINE
  5
2FE
100
AcDbEntity
  8
0
100
AcDbLine
 62
4
  6
CONTINUOUS
 10
12.7867838211
 20
7.7257780058
 11
12.8178420802
 21
7.7888954521
  0
LINE
  5
2FF
100
AcDbEntity
  8
0
100
AcDbLine
 62
4
  6
CONTINUOUS
 10
12.6594449589
 20
7.5779400012
 11
12.6283866998
 21
7.5479400249
  0
LINE
  5
300
100
AcDbEntity
  8
0
100
AcDbLine
 62
4
  6
CONTINUOUS
 10
12.791220715
 20
7.6500298606
 11
12.8134051859
 21
7.6714584152
  0
LINE
  5
301
100
AcDbEntity
  8
0
100
AcDbLine
 62
4
  6
CONTINUOUS
 10
12.6594449589
 20
7.5199844495
 11
12.6283866998
 21
7.4899844731
  0
LINE
  5
302
100
AcDbEntity
  8
0
100
AcDbLine
 62
4
  6
CONTINUOUS
 10
12.6550080645
 20
7.4825812822
 11
12.6283866998
 21
7.456867017
  0
LINE
  5
303
100
AcDbEntity
  8
0
100
AcDbLine
 62
4
  6
CONTINUOUS
 10
12.8178420802
 20
7.6177885815
 11
12.7867838211
 21
7.5877886051
  0
LINE
  5
304
100
AcDbEntity
  8
0
100
AcDbLine
 62
4
  6
CONTINUOUS
 10
12.6283866998
 20
7.3989114653
 11
12.6550080645
 21
7.4246257305
  0
LINE
  5
305
100
AcDbEntity
  8
0
100
AcDbLine
 62
4
  6
CONTINUOUS
 10
12.6550080645
 20
7.3915082744
 11
12.6505711702
 21
7.3872225633
  0
LINE
  5
306
100
AcDbEntity
  8
0
100
AcDbLine
 62
4
  6
CONTINUOUS
 10
12.6372604876
 20
7.3164098787
 11
12.6328235937
 21
7.3121241681
  0
LINE
  5
307
100
AcDbEntity
  8
0
100
AcDbLine
 62
7
  6
CONTINUOUS
 10
12.5597996968
 20
10.251827558
 11
8.6960961627
 21
10.5197763082
  0
LINE
  5
308
100
AcDbEntity
  8
0
100
AcDbLine
 62
4
  6
CONTINUOUS
 10
12.6905032128
 20
9.4362997275
 11
12.6879150233
 21
9.4410441723
  0
LINE
  5
309
100
AcDbEntity
  8
0
100
AcDbLine
 62
4
  6
CONTINUOUS
 10
12.7034441538
 20
9.4705330493
 11
12.70862053
 21
9.4610441571
  0
LINE
  5
30A
100
AcDbEntity
  8
0
100
AcDbLine
 62
4
  6
CONTINUOUS
 10
12.6956795881
 20
9.4992552741
 11
12.6982677776
 21
9.4945108294
  0
LINE
  5
30B
100
AcDbEntity
  8
0
100
AcDbLine
 62
4
  6
CONTINUOUS
 10
12.6879150233
 20
9.4410441723
 11
12.6853268357
 21
9.4530330628
  0
LINE
  5
30C
100
AcDbEntity
  8
0
100
AcDbLine
 62
4
  6
CONTINUOUS
 10
12.6982677776
 20
9.4945108294
 11
12.7034441538
 21
9.4705330493
  0
LINE
  5
30D
100
AcDbEntity
  8
0
100
AcDbLine
 62
4
  6
CONTINUOUS
 10
12.8045313976
 20
8.5018625769
 11
12.8104472566
 21
8.46342025
  0
LINE
  5
30E
100
AcDbEntity
  8
0
100
AcDbLine
 62
4
  6
CONTINUOUS
 10
12.6853268357
 20
6.7677591144
 11
12.7163850948
 21
6.8339813106
  0
LINE
  5
30F
100
AcDbEntity
  8
0
100
AcDbLine
 62
7
  6
CONTINUOUS
 10
13.3039038373
 20
6.2616883252
 11
13.3039038373
 21
10.9705770074
  0
LINE
  5
310
100
AcDbEntity
  8
0
100
AcDbLine
 62
4
  6
CONTINUOUS
 10
12.6853268357
 20
6.9198924377
 11
12.7163850948
 21
6.949892414
  0
LINE
  5
311
100
AcDbEntity
  8
0
100
AcDbLine
 62
7
  6
CONTINUOUS
 10
13.3039038373
 20
10.9705770074
 11
9.4402003032
 21
11.2385257576
  0
LINE
  5
312
100
AcDbEntity
  8
0
100
AcDbLine
 62
7
  6
CONTINUOUS
 10
11.8382366812
 20
11.3389637068
 11
10.1478663851
 21
11.456191285
  0
LINE
  5
313
100
AcDbEntity
  8
0
100
AcDbLine
 62
7
  6
CONTINUOUS
 10
13.3039038373
 20
6.2616883252
 11
12.5597996968
 21
5.5429388758
  0
ARC
  5
314
100
AcDbEntity
  8
0
100
AcDbCircle
 62
7
  6
CONTINUOUS
 10
11.5113716625
 20
6.8505633751
 40
2.2515505348
100
AcDbArc
 50
112.9293601674
 51
113.2627365614
  0
ARC
  5
315
100
AcDbEntity
  8
0
100
AcDbCircle
 62
7
  6
CONTINUOUS
 10
10.6170448302
 20
9.72506892
 40
0.6033572007
100
AcDbArc
 50
266.0248350984
 51
271.2224609647
  0
ARC
  5
316
100
AcDbEntity
  8
0
100
AcDbCircle
 62
7
  6
CONTINUOUS
 10
10.6170448302
 20
7.7932171529
 40
0.6033572007
100
AcDbArc
 50
266.0248350984
 51
271.2224609647
  0
ARC
  5
317
100
AcDbEntity
  8
0
100
AcDbCircle
 62
7
  6
CONTINUOUS
 10
10.6209418823
 20
9.7317497943
 40
0.5856733084
100
AcDbArc
 50
266.0300722532
 51
270.4872267833
  0
ARC
  5
318
100
AcDbEntity
  8
0
100
AcDbCircle
 62
7
  6
CONTINUOUS
 10
10.6209418823
 20
7.7998980273
 40
0.5856733084
100
AcDbArc
 50
266.0300722532
 51
270.4872267833
  0
ARC
  5
319
100
AcDbEntity
  8
0
100
AcDbCircle
 62
7
  6
CONTINUOUS
 10
10.659272574
 20
9.8588116477
 40
0.4983014641
100
AcDbArc
 50
194.4177030607
 51
195.4622840292
  0
ARC
  5
31A
100
AcDbEntity
  8
0
100
AcDbCircle
 62
7
  6
CONTINUOUS
 10
10.6139398622
 20
9.7335080691
 40
0.4848001287
100
AcDbArc
 50
266.0322377403
 51
268.2918313565
  0
ARC
  5
31B
100
AcDbEntity
  8
0
100
AcDbCircle
 62
7
  6
CONTINUOUS
 10
10.6139398622
 20
7.8016563021
 40
0.4848001287
100
AcDbArc
 50
266.0322377403
 51
268.2918313565
  0
SPLINE
  5
31C
100
AcDbEntity
  8
0
100
AcDbSpline
 62
7
  6
CONTINUOUS
 70
0
 71
3
 72
40
 73
36
 74
0
 42
0.0000001
 43
0.0000001
 44
0.0000000001
 40
0.0
 40
0.0
 40
0.0
 40
0.0
 40
0.0311448352
 40
0.0467776712
 40
0.0624478163
 40
0.0938928931
 40
0.1254753683
 40
0.1571831038
 40
0.1890013145
 40
0.2209130644
 40
0.2528995674
 40
0.2849405815
 40
0.3170148072
 40
0.349100303
 40
0.3811749104
 40
0.4132166804
 40
0.4452042987
 40
0.4771175008
 40
0.5089374741
 40
0.5406472387
 40
0.5722320012
 40
0.6036794751
 40
0.6349801612
 40
0.6661275796
 40
0.6971184487
 40
0.7279528012
 40
0.7586340346
 40
0.7891688873
 40
0.8195673392
 40
0.849842433
 40
0.8800100174
 40
0.9100884154
 40
0.9400980228
 40
0.9700608475
 40
1.0
 40
1.0
 40
1.0
 40
1.0
 10
9.0882620601
 20
10.3573500824
 30
0.0
 10
9.0952673798
 20
10.3568642618
 30
0.0
 10
9.1057674112
 20
10.3557502751
 30
0.0
 10
9.1196703991
 20
10.3535116121
 30
0.0
 10
9.1335513084
 20
10.3507632156
 30
0.0
 10
9.1507634269
 20
10.34638616
 30
0.0
 10
9.1710571794
 20
10.3396677106
 30
0.0
 10
9.1909087882
 20
10.331512672
 30
0.0
 10
9.2102118169
 20
10.3219647663
 30
0.0
 10
9.2288635821
 20
10.3110749946
 30
0.0
 10
9.2467646572
 20
10.2989015052
 30
0.0
 10
9.2638196769
 20
10.2855092541
 30
0.0
 10
9.2799377622
 20
10.2709696673
 30
0.0
 10
9.2950330207
 20
10.2553602617
 30
0.0
 10
9.3090249935
 20
10.238764236
 30
0.0
 10
9.3218390814
 20
10.2212700315
 30
0.0
 10
9.3334069388
 20
10.2029708659
 30
0.0
 10
9.3436668347
 20
10.1839642417
 30
0.0
 10
9.3525639821
 20
10.1643514341
 30
0.0
 10
9.3600508279
 20
10.1442369565
 30
0.0
 10
9.3660873061
 20
10.1237280109
 30
0.0
 10
9.370641053
 20
10.1029339242
 30
0.0
 10
9.3736875836
 20
10.0819655731
 30
0.0
 10
9.3752104265
 20
10.060934801
 30
0.0
 10
9.37520122
 20
10.039953829
 30
0.0
 10
9.3736597654
 20
10.019134663
 30
0.0
 10
9.3705940396
 20
9.9985885009
 30
0.0
 10
9.3660201665
 20
9.9784251414
 30
0.0
 10
9.3599623416
 20
9.9587523942
 30
0.0
 10
9.3524527274
 20
9.9396755092
 30
0.0
 10
9.3435312584
 20
9.9212965703
 30
0.0
 10
9.3332455735
 20
9.9037140709
 30
0.0
 10
9.321650268
 20
9.887021877
 30
0.0
 10
9.3088084765
 20
9.8713105506
 30
0.0
 10
9.2994579684
 20
9.861542219
 30
0.0
 10
9.2946027944
 20
9.8568524556
 30
0.0
  0
SPLINE
  5
31D
100
AcDbEntity
  8
0
100
AcDbSpline
 62
7
  6
CONTINUOUS
 70
0
 71
3
 72
40
 73
36
 74
0
 42
0.0000001
 43
0.0000001
 44
0.0000000001
 40
0.0
 40
0.0
 40
0.0
 40
0.0
 40
0.0311448352
 40
0.0467776712
 40
0.0624478163
 40
0.0938928931
 40
0.1254753683
 40
0.1571831038
 40
0.1890013145
 40
0.2209130644
 40
0.2528995674
 40
0.2849405815
 40
0.3170148072
 40
0.349100303
 40
0.3811749104
 40
0.4132166804
 40
0.4452042987
 40
0.4771175008
 40
0.5089374741
 40
0.5406472387
 40
0.5722320012
 40
0.6036794751
 40
0.6349801612
 40
0.6661275796
 40
0.6971184487
 40
0.7279528012
 40
0.7586340346
 40
0.7891688873
 40
0.8195673392
 40
0.849842433
 40
0.8800100174
 40
0.9100884154
 40
0.9400980228
 40
0.9700608475
 40
1.0
 40
1.0
 40
1.0
 40
1.0
 10
10.7786322699
 20
10.2401225102
 30
0.0
 10
10.7856375896
 20
10.2396366896
 30
0.0
 10
10.796137621
 20
10.2385227028
 30
0.0
 10
10.8100406089
 20
10.2362840399
 30
0.0
 10
10.8239215182
 20
10.2335356434
 30
0.0
 10
10.8411336367
 20
10.2291585878
 30
0.0
 10
10.8614273892
 20
10.2224401384
 30
0.0
 10
10.881278998
 20
10.2142850998
 30
0.0
 10
10.9005820267
 20
10.2047371941
 30
0.0
 10
10.9192337919
 20
10.1938474224
 30
0.0
 10
10.937134867
 20
10.181673933
 30
0.0
 10
10.9541898867
 20
10.1682816819
 30
0.0
 10
10.970307972
 20
10.1537420951
 30
0.0
 10
10.9854032305
 20
10.1381326895
 30
0.0
 10
10.9993952033
 20
10.1215366638
 30
0.0
 10
11.0122092912
 20
10.1040424593
 30
0.0
 10
11.0237771486
 20
10.0857432937
 30
0.0
 10
11.0340370445
 20
10.0667366695
 30
0.0
 10
11.0429341919
 20
10.0471238618
 30
0.0
 10
11.0504210377
 20
10.0270093843
 30
0.0
 10
11.0564575159
 20
10.0065004387
 30
0.0
 10
11.0610112628
 20
9.985706352
 30
0.0
 10
11.0640577934
 20
9.9647380008
 30
0.0
 10
11.0655806363
 20
9.9437072288
 30
0.0
 10
11.0655714298
 20
9.9227262568
 30
0.0
 10
11.0640299752
 20
9.9019070908
 30
0.0
 10
11.0609642494
 20
9.8813609287
 30
0.0
 10
11.0563903763
 20
9.8611975692
 30
0.0
 10
11.0503325514
 20
9.841524822
 30
0.0
 10
11.0428229372
 20
9.822447937
 30
0.0
 10
11.0339014682
 20
9.8040689981
 30
0.0
 10
11.0236157833
 20
9.7864864987
 30
0.0
 10
11.0120204778
 20
9.7697943048
 30
0.0
 10
10.9991786863
 20
9.7540829784
 30
0.0
 10
10.9898281782
 20
9.7443146468
 30
0.0
 10
10.9849730042
 20
9.7396248834
 30
0.0
  0
SPLINE
  5
31E
100
AcDbEntity
  8
0
100
AcDbSpline
 62
7
  6
CONTINUOUS
 70
0
 71
3
 72
40
 73
36
 74
0
 42
0.0000001
 43
0.0000001
 44
0.0000000001
 40
0.0
 40
0.0
 40
0.0
 40
0.0
 40
0.0311448352
 40
0.0467776712
 40
0.0624478163
 40
0.0938928931
 40
0.1254753683
 40
0.1571831038
 40
0.1890013145
 40
0.2209130644
 40
0.2528995674
 40
0.2849405815
 40
0.3170148072
 40
0.349100303
 40
0.3811749104
 40
0.4132166804
 40
0.4452042987
 40
0.4771175008
 40
0.5089374741
 40
0.5406472387
 40
0.5722320012
 40
0.6036794751
 40
0.6349801612
 40
0.6661275796
 40
0.6971184487
 40
0.7279528012
 40
0.7586340346
 40
0.7891688873
 40
0.8195673392
 40
0.849842433
 40
0.8800100174
 40
0.9100884154
 40
0.9400980228
 40
0.9700608475
 40
1.0
 40
1.0
 40
1.0
 40
1.0
 10
10.7786322699
 20
8.3082705128
 30
0.0
 10
10.7856375896
 20
8.3077846923
 30
0.0
 10
10.796137621
 20
8.3066707055
 30
0.0
 10
10.8100406089
 20
8.3044320425
 30
0.0
 10
10.8239215182
 20
8.3016836461
 30
0.0
 10
10.8411336367
 20
8.2973065904
 30
0.0
 10
10.8614273892
 20
8.290588141
 30
0.0
 10
10.881278998
 20
8.2824331025
 30
0.0
 10
10.9005820267
 20
8.2728851968
 30
0.0
 10
10.9192337919
 20
8.261995425
 30
0.0
 10
10.937134867
 20
8.2498219356
 30
0.0
 10
10.9541898867
 20
8.2364296846
 30
0.0
 10
10.970307972
 20
8.2218900978
 30
0.0
 10
10.9854032305
 20
8.2062806922
 30
0.0
 10
10.9993952033
 20
8.1896846665
 30
0.0
 10
11.0122092912
 20
8.172190462
 30
0.0
 10
11.0237771486
 20
8.1538912963
 30
0.0
 10
11.0340370445
 20
8.1348846721
 30
0.0
 10
11.0429341919
 20
8.1152718645
 30
0.0
 10
11.0504210377
 20
8.0951573869
 30
0.0
 10
11.0564575159
 20
8.0746484414
 30
0.0
 10
11.0610112628
 20
8.0538543546
 30
0.0
 10
11.0640577934
 20
8.0328860035
 30
0.0
 10
11.0655806363
 20
8.0118552315
 30
0.0
 10
11.0655714298
 20
7.9908742594
 30
0.0
 10
11.0640299752
 20
7.9700550935
 30
0.0
 10
11.0609642494
 20
7.9495089314
 30
0.0
 10
11.0563903763
 20
7.9293455719
 30
0.0
 10
11.0503325514
 20
7.9096728246
 30
0.0
 10
11.0428229372
 20
7.8905959397
 30
0.0
 10
11.0339014682
 20
7.8722170007
 30
0.0
 10
11.0236157833
 20
7.8546345014
 30
0.0
 10
11.0120204778
 20
7.8379423074
 30
0.0
 10
10.9991786863
 20
7.8222309811
 30
0.0
 10
10.9898281782
 20
7.8124626494
 30
0.0
 10
10.9849730042
 20
7.8077728861
 30
0.0
  0
SPLINE
  5
31F
100
AcDbEntity
  8
0
100
AcDbSpline
 62
7
  6
CONTINUOUS
 70
0
 71
3
 72
40
 73
36
 74
0
 42
0.0000001
 43
0.0000001
 44
0.0000000001
 40
0.0
 40
0.0
 40
0.0
 40
0.0
 40
0.0311448352
 40
0.0467776712
 40
0.0624478163
 40
0.0938928931
 40
0.1254753683
 40
0.1571831038
 40
0.1890013145
 40
0.2209130644
 40
0.2528995674
 40
0.2849405815
 40
0.3170148072
 40
0.349100303
 40
0.3811749104
 40
0.4132166804
 40
0.4452042987
 40
0.4771175008
 40
0.5089374741
 40
0.5406472387
 40
0.5722320012
 40
0.6036794751
 40
0.6349801612
 40
0.6661275796
 40
0.6971184487
 40
0.7279528012
 40
0.7586340346
 40
0.7891688873
 40
0.8195673392
 40
0.849842433
 40
0.8800100174
 40
0.9100884154
 40
0.9400980228
 40
0.9700608475
 40
1.0
 40
1.0
 40
1.0
 40
1.0
 10
10.7786322699
 20
6.3764187746
 30
0.0
 10
10.7856375896
 20
6.375932954
 30
0.0
 10
10.796137621
 20
6.3748189673
 30
0.0
 10
10.8100406089
 20
6.3725803043
 30
0.0
 10
10.8239215182
 20
6.3698319078
 30
0.0
 10
10.8411336367
 20
6.3654548522
 30
0.0
 10
10.8614273892
 20
6.3587364028
 30
0.0
 10
10.881278998
 20
6.3505813642
 30
0.0
 10
10.9005820267
 20
6.3410334585
 30
0.0
 10
10.9192337919
 20
6.3301436868
 30
0.0
 10
10.937134867
 20
6.3179701974
 30
0.0
 10
10.9541898867
 20
6.3045779463
 30
0.0
 10
10.970307972
 20
6.2900383595
 30
0.0
 10
10.9854032305
 20
6.2744289539
 30
0.0
 10
10.9993952033
 20
6.2578329282
 30
0.0
 10
11.0122092912
 20
6.2403387237
 30
0.0
 10
11.0237771486
 20
6.2220395581
 30
0.0
 10
11.0340370445
 20
6.2030329339
 30
0.0
 10
11.0429341919
 20
6.1834201262
 30
0.0
 10
11.0504210377
 20
6.1633056487
 30
0.0
 10
11.0564575159
 20
6.1427967031
 30
0.0
 10
11.0610112628
 20
6.1220026164
 30
0.0
 10
11.0640577934
 20
6.1010342653
 30
0.0
 10
11.0655806363
 20
6.0800034932
 30
0.0
 10
11.0655714298
 20
6.0590225212
 30
0.0
 10
11.0640299752
 20
6.0382033552
 30
0.0
 10
11.0609642494
 20
6.0176571931
 30
0.0
 10
11.0563903763
 20
5.9974938336
 30
0.0
 10
11.0503325514
 20
5.9778210864
 30
0.0
 10
11.0428229372
 20
5.9587442014
 30
0.0
 10
11.0339014682
 20
5.9403652625
 30
0.0
 10
11.0236157833
 20
5.9227827631
 30
0.0
 10
11.0120204778
 20
5.9060905692
 30
0.0
 10
10.9991786863
 20
5.8903792428
 30
0.0
 10
10.9898281782
 20
5.8806109112
 30
0.0
 10
10.9849730042
 20
5.8759211478
 30
0.0
  0
SPLINE
  5
320
100
AcDbEntity
  8
0
100
AcDbSpline
 62
7
  6
CONTINUOUS
 70
0
 71
3
 72
40
 73
36
 74
0
 42
0.0000001
 43
0.0000001
 44
0.0000000001
 40
0.0
 40
0.0
 40
0.0
 40
0.0
 40
0.0311448352
 40
0.0467776712
 40
0.0624478163
 40
0.0938928931
 40
0.1254753683
 40
0.1571831038
 40
0.1890013145
 40
0.2209130644
 40
0.2528995674
 40
0.2849405815
 40
0.3170148072
 40
0.349100303
 40
0.3811749104
 40
0.4132166804
 40
0.4452042987
 40
0.4771175008
 40
0.5089374741
 40
0.5406472387
 40
0.5722320012
 40
0.6036794751
 40
0.6349801612
 40
0.6661275796
 40
0.6971184487
 40
0.7279528012
 40
0.7586340346
 40
0.7891688873
 40
0.8195673392
 40
0.849842433
 40
0.8800100174
 40
0.9100884154
 40
0.9400980228
 40
0.9700608475
 40
1.0
 40
1.0
 40
1.0
 40
1.0
 10
9.0882620601
 20
6.4936463468
 30
0.0
 10
9.0952673798
 20
6.4931605262
 30
0.0
 10
9.1057674112
 20
6.4920465395
 30
0.0
 10
9.1196703991
 20
6.4898078765
 30
0.0
 10
9.1335513084
 20
6.48705948
 30
0.0
 10
9.1507634269
 20
6.4826824244
 30
0.0
 10
9.1710571794
 20
6.475963975
 30
0.0
 10
9.1909087882
 20
6.4678089364
 30
0.0
 10
9.2102118169
 20
6.4582610307
 30
0.0
 10
9.2288635821
 20
6.447371259
 30
0.0
 10
9.2467646572
 20
6.4351977696
 30
0.0
 10
9.2638196769
 20
6.4218055185
 30
0.0
 10
9.2799377622
 20
6.4072659317
 30
0.0
 10
9.2950330207
 20
6.3916565262
 30
0.0
 10
9.3090249935
 20
6.3750605004
 30
0.0
 10
9.3218390814
 20
6.3575662959
 30
0.0
 10
9.3334069388
 20
6.3392671303
 30
0.0
 10
9.3436668347
 20
6.3202605061
 30
0.0
 10
9.3525639821
 20
6.3006476985
 30
0.0
 10
9.3600508279
 20
6.2805332209
 30
0.0
 10
9.3660873061
 20
6.2600242753
 30
0.0
 10
9.370641053
 20
6.2392301886
 30
0.0
 10
9.3736875836
 20
6.2182618375
 30
0.0
 10
9.3752104265
 20
6.1972310654
 30
0.0
 10
9.37520122
 20
6.1762500934
 30
0.0
 10
9.3736597654
 20
6.1554309274
 30
0.0
 10
9.3705940396
 20
6.1348847653
 30
0.0
 10
9.3660201665
 20
6.1147214058
 30
0.0
 10
9.3599623416
 20
6.0950486586
 30
0.0
 10
9.3524527274
 20
6.0759717736
 30
0.0
 10
9.3435312584
 20
6.0575928347
 30
0.0
 10
9.3332455735
 20
6.0400103353
 30
0.0
 10
9.321650268
 20
6.0233181414
 30
0.0
 10
9.3088084765
 20
6.007606815
 30
0.0
 10
9.2994579684
 20
5.9978384834
 30
0.0
 10
9.2946027944
 20
5.9931487201
 30
0.0
  0
SPLINE
  5
321
100
AcDbEntity
  8
0
100
AcDbSpline
 62
7
  6
CONTINUOUS
 70
0
 71
3
 72
40
 73
36
 74
0
 42
0.0000001
 43
0.0000001
 44
0.0000000001
 40
0.0
 40
0.0
 40
0.0
 40
0.0
 40
0.0311448352
 40
0.0467776712
 40
0.0624478163
 40
0.0938928931
 40
0.1254753683
 40
0.1571831038
 40
0.1890013145
 40
0.2209130644
 40
0.2528995674
 40
0.2849405815
 40
0.3170148072
 40
0.349100303
 40
0.3811749104
 40
0.4132166804
 40
0.4452042987
 40
0.4771175008
 40
0.5089374741
 40
0.5406472387
 40
0.5722320012
 40
0.6036794751
 40
0.6349801612
 40
0.6661275796
 40
0.6971184487
 40
0.7279528012
 40
0.7586340346
 40
0.7891688873
 40
0.8195673392
 40
0.849842433
 40
0.8800100174
 40
0.9100884154
 40
0.9400980228
 40
0.9700608475
 40
1.0
 40
1.0
 40
1.0
 40
1.0
 10
9.0882620601
 20
8.4254980851
 30
0.0
 10
9.0952673798
 20
8.4250122645
 30
0.0
 10
9.1057674112
 20
8.4238982777
 30
0.0
 10
9.1196703991
 20
8.4216596147
 30
0.0
 10
9.1335513084
 20
8.4189112183
 30
0.0
 10
9.1507634269
 20
8.4145341626
 30
0.0
 10
9.1710571794
 20
8.4078157132
 30
0.0
 10
9.1909087882
 20
8.3996606747
 30
0.0
 10
9.2102118169
 20
8.390112769
 30
0.0
 10
9.2288635821
 20
8.3792229972
 30
0.0
 10
9.2467646572
 20
8.3670495078
 30
0.0
 10
9.2638196769
 20
8.3536572568
 30
0.0
 10
9.2799377622
 20
8.33911767
 30
0.0
 10
9.2950330207
 20
8.3235082644
 30
0.0
 10
9.3090249935
 20
8.3069122387
 30
0.0
 10
9.3218390814
 20
8.2894180342
 30
0.0
 10
9.3334069388
 20
8.2711188685
 30
0.0
 10
9.3436668347
 20
8.2521122444
 30
0.0
 10
9.3525639821
 20
8.2324994367
 30
0.0
 10
9.3600508279
 20
8.2123849591
 30
0.0
 10
9.3660873061
 20
8.1918760136
 30
0.0
 10
9.370641053
 20
8.1710819268
 30
0.0
 10
9.3736875836
 20
8.1501135757
 30
0.0
 10
9.3752104265
 20
8.1290828037
 30
0.0
 10
9.37520122
 20
8.1081018316
 30
0.0
 10
9.3736597654
 20
8.0872826657
 30
0.0
 10
9.3705940396
 20
8.0667365036
 30
0.0
 10
9.3660201665
 20
8.0465731441
 30
0.0
 10
9.3599623416
 20
8.0269003968
 30
0.0
 10
9.3524527274
 20
8.0078235119
 30
0.0
 10
9.3435312584
 20
7.9894445729
 30
0.0
 10
9.3332455735
 20
7.9718620736
 30
0.0
 10
9.321650268
 20
7.9551698796
 30
0.0
 10
9.3088084765
 20
7.9394585533
 30
0.0
 10
9.2994579684
 20
7.9296902216
 30
0.0
 10
9.2946027944
 20
7.9250004583
 30
0.0
  0
SPLINE
  5
322
100
AcDbEntity
  8
0
100
AcDbSpline
 62
7
  6
CONTINUOUS
 70
0
 71
3
 72
47
 73
43
 74
0
 42
0.0000001
 43
0.0000001
 44
0.0000000001
 40
0.0
 40
0.0
 40
0.0
 40
0.0
 40
0.037940295
 40
0.0762766839
 40
0.1149216096
 40
0.1537872553
 40
0.192784775
 40
0.2318251059
 40
0.270819
 40
0.3096773644
 40
0.3483114932
 40
0.3866333348
 40
0.4245557502
 40
0.4619927755
 40
0.4988598868
 40
0.5350742679
 40
0.5705550838
 40
0.6052237615
 40
0.6390042793
 40
0.671823471
 40
0.7036113479
 40
0.7343014464
 40
0.7638312093
 40
0.7921424162
 40
0.8191816784
 40
0.8449010268
 40
0.8572527725
 40
0.869259393
 40
0.8809168044
 40
0.8922213562
 40
0.903170035
 40
0.9137603418
 40
0.9239905302
 40
0.9338594952
 40
0.9433670255
 40
0.9525137373
 40
0.9613013268
 40
0.9697325808
 40
0.9778116236
 40
0.985544033
 40
0.992937086
 40
1.0
 40
1.0
 40
1.0
 40
1.0
 10
12.7933836922
 20
9.3907857662
 30
0.0
 10
12.7933836922
 20
9.4043418047
 30
0.0
 10
12.7935649562
 20
9.4315957233
 30
0.0
 10
12.7943683227
 20
9.4726503276
 30
0.0
 10
12.7957028731
 20
9.5140219482
 30
0.0
 10
12.7975653524
 20
9.5556095864
 30
0.0
 10
12.799951253
 20
9.5973119856
 30
0.0
 10
12.8028547572
 20
9.6390274752
 30
0.0
 10
12.8062687935
 20
9.6806544059
 30
0.0
 10
12.8101850325
 20
9.7220913263
 30
0.0
 10
12.8145939169
 20
9.7632372568
 30
0.0
 10
12.8194846803
 20
9.8039919283
 30
0.0
 10
12.8248453752
 20
9.8442560307
 30
0.0
 10
12.8306629013
 20
9.8839314561
 30
0.0
 10
12.8369230365
 20
9.9229215393
 30
0.0
 10
12.843610472
 20
9.961131296
 30
0.0
 10
12.8507088482
 20
9.998467657
 30
0.0
 10
12.8582007943
 20
10.0348396983
 30
0.0
 10
12.8660679702
 20
10.0701588672
 30
0.0
 10
12.8742911103
 20
10.1043392041
 30
0.0
 10
12.8828500704
 20
10.137297557
 30
0.0
 10
12.8917238768
 20
10.168953803
 30
0.0
 10
12.9008907793
 20
10.1992310235
 30
0.0
 10
12.9103283068
 20
10.2280558203
 30
0.0
 10
12.9200133302
 20
10.2553581262
 30
0.0
 10
12.9283794726
 20
10.2770693741
 30
0.0
 10
12.9351912115
 20
10.293615441
 30
0.0
 10
12.9402782266
 20
10.3054363255
 30
0.0
 10
12.9454091992
 20
10.3168290775
 30
0.0
 10
12.9505811149
 20
10.327786781
 30
0.0
 10
12.955790737
 20
10.3383028155
 30
0.0
 10
12.9610349867
 20
10.3483707931
 30
0.0
 10
12.9663105964
 20
10.3579846562
 30
0.0
 10
12.971614457
 20
10.3671385752
 30
0.0
 10
12.9769432891
 20
10.3758270667
 30
0.0
 10
12.9822939612
 20
10.3840448813
 30
0.0
 10
12.9876632122
 20
10.3917871178
 30
0.0
 10
12.993047906
 20
10.399049128
 30
0.0
 10
12.9984448237
 20
10.4058265806
 30
0.0
 10
13.0038508962
 20
10.4121154834
 30
0.0
 10
13.0092628273
 20
10.4179118994
 30
0.0
 10
13.012955477
 20
10.4215266352
 30
0.0
 10
13.0148027749
 20
10.4232459127
 30
0.0
  0
SPLINE
  5
323
100
AcDbEntity
  8
0
100
AcDbSpline
 62
7
  6
CONTINUOUS
 70
0
 71
3
 72
47
 73
43
 74
0
 42
0.0000001
 43
0.0000001
 44
0.0000000001
 40
0.0
 40
0.0
 40
0.0
 40
0.0
 40
0.037940295
 40
0.0762766839
 40
0.1149216096
 40
0.1537872553
 40
0.192784775
 40
0.2318251059
 40
0.270819
 40
0.3096773644
 40
0.3483114932
 40
0.3866333348
 40
0.4245557502
 40
0.4619927755
 40
0.4988598868
 40
0.5350742679
 40
0.5705550838
 40
0.6052237615
 40
0.6390042793
 40
0.671823471
 40
0.7036113479
 40
0.7343014464
 40
0.7638312093
 40
0.7921424162
 40
0.8191816784
 40
0.8449010268
 40
0.8572527725
 40
0.869259393
 40
0.8809168044
 40
0.8922213562
 40
0.903170035
 40
0.9137603418
 40
0.9239905302
 40
0.9338594952
 40
0.9433670255
 40
0.9525137373
 40
0.9613013268
 40
0.9697325808
 40
0.9778116236
 40
0.985544033
 40
0.992937086
 40
1.0
 40
1.0
 40
1.0
 40
1.0
 10
12.7933836922
 20
6.8552303219
 30
0.0
 10
12.7933836922
 20
6.8687863604
 30
0.0
 10
12.7935649562
 20
6.896040279
 30
0.0
 10
12.7943683227
 20
6.9370948834
 30
0.0
 10
12.7957028731
 20
6.978466504
 30
0.0
 10
12.7975653524
 20
7.0200541422
 30
0.0
 10
12.799951253
 20
7.0617565413
 30
0.0
 10
12.8028547572
 20
7.1034720309
 30
0.0
 10
12.8062687935
 20
7.1450989617
 30
0.0
 10
12.8101850325
 20
7.1865358821
 30
0.0
 10
12.8145939169
 20
7.2276818126
 30
0.0
 10
12.8194846803
 20
7.268436484
 30
0.0
 10
12.8248453752
 20
7.3087005865
 30
0.0
 10
12.8306629013
 20
7.3483760119
 30
0.0
 10
12.8369230365
 20
7.387366095
 30
0.0
 10
12.843610472
 20
7.4255758517
 30
0.0
 10
12.8507088482
 20
7.4629122127
 30
0.0
 10
12.8582007943
 20
7.499284254
 30
0.0
 10
12.8660679702
 20
7.5346034229
 30
0.0
 10
12.8742911103
 20
7.5687837598
 30
0.0
 10
12.8828500704
 20
7.6017421128
 30
0.0
 10
12.8917238768
 20
7.6333983587
 30
0.0
 10
12.9008907793
 20
7.6636755792
 30
0.0
 10
12.9103283068
 20
7.692500376
 30
0.0
 10
12.9200133302
 20
7.719802682
 30
0.0
 10
12.9283794726
 20
7.7415139299
 30
0.0
 10
12.9351912115
 20
7.7580599968
 30
0.0
 10
12.9402782266
 20
7.7698808812
 30
0.0
 10
12.9454091992
 20
7.7812736333
 30
0.0
 10
12.9505811149
 20
7.7922313367
 30
0.0
 10
12.955790737
 20
7.8027473713
 30
0.0
 10
12.9610349867
 20
7.8128153489
 30
0.0
 10
12.9663105964
 20
7.8224292119
 30
0.0
 10
12.971614457
 20
7.8315831309
 30
0.0
 10
12.9769432891
 20
7.8402716225
 30
0.0
 10
12.9822939612
 20
7.8484894371
 30
0.0
 10
12.9876632122
 20
7.8562316735
 30
0.0
 10
12.993047906
 20
7.8634936838
 30
0.0
 10
12.9984448237
 20
7.8702711363
 30
0.0
 10
13.0038508962
 20
7.8765600391
 30
0.0
 10
13.0092628273
 20
7.8823564552
 30
0.0
 10
13.012955477
 20
7.8859711909
 30
0.0
 10
13.0148027749
 20
7.8876904684
 30
0.0
  0
SPLINE
  5
324
100
AcDbEntity
  8
0
100
AcDbSpline
 62
7
  6
CONTINUOUS
 70
0
 71
3
 72
18
 73
14
 74
0
 42
0.0000001
 43
0.0000001
 44
0.0000000001
 40
0.0
 40
0.0
 40
0.0
 40
0.0
 40
0.1334224774
 40
0.2702577617
 40
0.4086147325
 40
0.5453046641
 40
0.6117297836
 40
0.676121028
 40
0.737975485
 40
0.7968957098
 40
0.8526204445
 40
0.9050305764
 40
1.0
 40
1.0
 40
1.0
 40
1.0
 10
9.7573386751
 20
8.4721084804
 30
0.0
 10
9.7543213265
 20
8.4727750325
 30
0.0
 10
9.7482417068
 20
8.474277135
 30
0.0
 10
9.7391867495
 20
8.4770457974
 30
0.0
 10
9.7302469065
 20
8.480392811
 30
0.0
 10
9.7230443681
 20
8.4836791709
 30
0.0
 10
9.7175718419
 20
8.4865869365
 30
0.0
 10
9.713722676
 20
8.488847273
 30
0.0
 10
9.7101251126
 20
8.4911843602
 30
0.0
 10
9.7068060609
 20
8.4935731999
 30
0.0
 10
9.7037819021
 20
8.4959896282
 30
0.0
 10
9.7002663412
 20
8.4991167689
 30
0.0
 10
9.6978989739
 20
8.5015894537
 30
0.0
 10
9.696482666
 20
8.5032722878
 30
0.0
  0
SPLINE
  5
325
100
AcDbEntity
  8
0
100
AcDbSpline
 62
7
  6
CONTINUOUS
 70
0
 71
3
 72
35
 73
31
 74
0
 42
0.0000001
 43
0.0000001
 44
0.0000000001
 40
0.0
 40
0.0
 40
0.0
 40
0.0
 40
0.1168847904
 40
0.2354019136
 40
0.2944918447
 40
0.3528039177
 40
0.4096893008
 40
0.4644278702
 40
0.5163132885
 40
0.5647537286
 40
0.6093503589
 40
0.6499269188
 40
0.6865090224
 40
0.719273401
 40
0.7484925577
 40
0.7744894599
 40
0.7976037693
 40
0.8181755423
 40
0.8365363807
 40
0.8530061064
 40
0.8814486903
 40
0.8940614526
 40
0.9059575407
 40
0.9173937859
 40
0.9286024876
 40
0.9397844872
 40
0.9511075528
 40
0.9746444937
 40
0.9870689505
 40
1.0
 40
1.0
 40
1.0
 40
1.0
 10
10.5248102003
 20
8.825070664
 30
0.0
 10
10.5220784194
 20
8.8238963797
 30
0.0
 10
10.516544113
 20
8.8216062956
 30
0.0
 10
10.5095314289
 20
8.8189654631
 30
0.0
 10
10.5038544282
 20
8.8170171087
 30
0.0
 10
10.4996298017
 20
8.8156701214
 30
0.0
 10
10.4954797809
 20
8.814457539
 30
0.0
 10
10.4914564454
 20
8.8133994357
 30
0.0
 10
10.4876123259
 20
8.8125111978
 30
0.0
 10
10.4839938185
 20
8.8118012463
 30
0.0
 10
10.4806356663
 20
8.8112700835
 30
0.0
 10
10.4775582138
 20
8.8109110448
 30
0.0
 10
10.4747678681
 20
8.8107122437
 30
0.0
 10
10.4722598358
 20
8.8106588981
 30
0.0
 10
10.4700216991
 20
8.810735337
 30
0.0
 10
10.4680367801
 20
8.8109262593
 30
0.0
 10
10.4662866164
 20
8.8112179933
 30
0.0
 10
10.4647528842
 20
8.8115979558
 30
0.0
 10
10.4634174812
 20
8.8120561005
 30
0.0
 10
10.4619522495
 20
8.8127255122
 30
0.0
 10
10.4607185016
 20
8.8135440942
 30
0.0
 10
10.459768865
 20
8.8145047632
 30
0.0
 10
10.4592196042
 20
8.8152396713
 30
0.0
 10
10.4587971052
 20
8.8160134558
 30
0.0
 10
10.4584924967
 20
8.8168211155
 30
0.0
 10
10.458298521
 20
8.8176590404
 30
0.0
 10
10.4581770237
 20
8.8188264459
 30
0.0
 10
10.458256902
 20
8.8200364085
 30
0.0
 10
10.4585006818
 20
8.8212567085
 30
0.0
 10
10.4586761104
 20
8.8218782597
 30
0.0
 10
10.4587761084
 20
8.8221916504
 30
0.0
  0
SPLINE
  5
326
100
AcDbEntity
  8
0
100
AcDbSpline
 62
7
  6
CONTINUOUS
 70
0
 71
3
 72
30
 73
26
 74
0
 42
0.0000001
 43
0.0000001
 44
0.0000000001
 40
0.0
 40
0.0
 40
0.0
 40
0.0
 40
0.0301075446
 40
0.0602295133
 40
0.0903814073
 40
0.1205763429
 40
0.150826374
 40
0.1811427259
 40
0.2115352426
 40
0.2420124628
 40
0.272581533
 40
0.3032481896
 40
0.3340167895
 40
0.3648903344
 40
0.4269446414
 40
0.4894239638
 40
0.5523102131
 40
0.6155706976
 40
0.6473337817
 40
0.679172896
 40
0.7430389351
 40
0.807120335
 40
0.871352261
 40
0.9356677781
 40
1.0
 40
1.0
 40
1.0
 40
1.0
 10
10.5907686502
 20
7.3425454423
 30
0.0
 10
10.5840228147
 20
7.3434472812
 30
0.0
 10
10.5705689435
 20
7.3455750013
 30
0.0
 10
10.5505561535
 20
7.3497226314
 30
0.0
 10
10.530740985
 20
7.3548113553
 30
0.0
 10
10.5111564483
 20
7.3608243043
 30
0.0
 10
10.4918340533
 20
7.3677434183
 30
0.0
 10
10.4728045196
 20
7.3755494592
 30
0.0
 10
10.4540976122
 20
7.3842222887
 30
0.0
 10
10.4357423384
 20
7.3937408374
 30
0.0
 10
10.4177669778
 20
7.4040833058
 30
0.0
 10
10.4001992981
 20
7.4152270723
 30
0.0
 10
10.3830660375
 20
7.4271491398
 30
0.0
 10
10.3608018686
 20
7.4440768408
 30
0.0
 10
10.3341888669
 20
7.4670752876
 30
0.0
 10
10.3044672061
 20
7.4973304793
 30
0.0
 10
10.2770891328
 20
7.5300768119
 30
0.0
 10
10.2564030165
 20
7.5592162658
 30
0.0
 10
10.2411952227
 20
7.583536573
 30
0.0
 10
10.2268764733
 20
7.6085486431
 30
0.0
 10
10.2107673858
 20
7.6409212001
 30
0.0
 10
10.1944532346
 20
7.6812291292
 30
0.0
 10
10.1812584913
 20
7.7227720224
 30
0.0
 10
10.1712932476
 20
7.7652609999
 30
0.0
 10
10.1668606079
 20
7.7940373644
 30
0.0
 10
10.1652093728
 20
7.8084857001
 30
0.0
  0
SPLINE
  5
327
100
AcDbEntity
  8
0
100
AcDbSpline
 62
7
  6
CONTINUOUS
 70
0
 71
3
 72
23
 73
19
 74
0
 42
0.0000001
 43
0.0000001
 44
0.0000000001
 40
0.0
 40
0.0
 40
0.0
 40
0.0
 40
0.0621462706
 40
0.1245581367
 40
0.1871975902
 40
0.250021031
 40
0.3129803866
 40
0.3760242991
 40
0.4390993774
 40
0.5021514832
 40
0.5651270304
 40
0.6279742717
 40
0.6906445555
 40
0.7530935336
 40
0.8152822484
 40
0.8771784434
 40
0.9387562136
 40
1.0
 40
1.0
 40
1.0
 40
1.0
 10
12.1876432017
 20
11.0480088141
 30
0.0
 10
12.185043494
 20
11.0577008552
 30
0.0
 10
12.1790640486
 20
11.076929131
 30
0.0
 10
12.1678566043
 20
11.105032117
 30
0.0
 10
12.1544624353
 20
11.1322847503
 30
0.0
 10
12.1389711663
 20
11.158504203
 30
0.0
 10
12.1214854141
 20
11.1835175195
 30
0.0
 10
12.1021211457
 20
11.207158901
 30
0.0
 10
12.0810066624
 20
11.2292718341
 30
0.0
 10
12.0582818444
 20
11.2497098573
 30
0.0
 10
12.0340971786
 20
11.2683375593
 30
0.0
 10
12.0086127846
 20
11.2850314503
 30
0.0
 10
11.9819973894
 20
11.299680773
 30
0.0
 10
11.9544271572
 20
11.3121882285
 30
0.0
 10
11.926084836
 20
11.3224707009
 30
0.0
 10
11.8971575291
 20
11.3304596455
 30
0.0
 10
11.8678393812
 20
11.3361017043
 30
0.0
 10
11.8481019111
 20
11.3382795508
 30
0.0
 10
11.8382366812
 20
11.3389637068
 30
0.0
  0
SPLINE
  5
328
100
AcDbEntity
  8
0
100
AcDbSpline
 62
7
  6
CONTINUOUS
 70
0
 71
3
 72
23
 73
19
 74
0
 42
0.0000001
 43
0.0000001
 44
0.0000000001
 40
0.0
 40
0.0
 40
0.0
 40
0.0
 40
0.0638607871
 40
0.1275035019
 40
0.1909230262
 40
0.2541276227
 40
0.3171224329
 40
0.3799159103
 40
0.442518817
 40
0.5049436704
 40
0.567204993
 40
0.6293190716
 40
0.6913037885
 40
0.753178437
 40
0.8149635222
 40
0.8766805516
 40
0.9383517893
 40
1.0
 40
1.0
 40
1.0
 40
1.0
 10
10.1478663851
 20
11.456191285
 30
0.0
 10
10.1418200365
 20
11.4566106007
 30
0.0
 10
10.1297248944
 20
11.4571469482
 30
0.0
 10
10.1115978572
 20
11.4570389783
 30
0.0
 10
10.0935611513
 20
11.4560171459
 30
0.0
 10
10.0756611201
 20
11.4540842194
 30
0.0
 10
10.0579423919
 20
11.4512448315
 30
0.0
 10
10.0404497076
 20
11.4475061682
 30
0.0
 10
10.0232270887
 20
11.4428776202
 30
0.0
 10
10.0063179233
 20
11.4373707318
 30
0.0
 10
9.9897648163
 20
11.4309993345
 30
0.0
 10
9.9736094518
 20
11.4237794831
 30
0.0
 10
9.9578925374
 20
11.4157293268
 30
0.0
 10
9.9426536994
 20
11.406869056
 30
0.0
 10
9.927931367
 20
11.3972210278
 30
0.0
 10
9.9137624981
 20
11.3868094344
 30
0.0
 10
9.9001832728
 20
11.3756609605
 30
0.0
 10
9.8915446974
 20
11.3677544046
 30
0.0
 10
9.8873364137
 20
11.3636895363
 30
0.0
  0
SPLINE
  5
329
100
AcDbEntity
  8
0
100
AcDbSpline
 62
7
  6
CONTINUOUS
 70
0
 71
3
 72
21
 73
17
 74
0
 42
0.0000001
 43
0.0000001
 44
0.0000000001
 40
0.0
 40
0.0
 40
0.0
 40
0.0
 40
0.0616532342
 40
0.1233294953
 40
0.1850515501
 40
0.2468416649
 40
0.3087213494
 40
0.3707111104
 40
0.4328302434
 40
0.4950966323
 40
0.5575265657
 40
0.6201345673
 40
0.682933156
 40
0.7459330948
 40
0.8725263949
 40
1.0
 40
1.0
 40
1.0
 40
1.0
 10
8.8819213258
 20
10.2840877343
 30
0.0
 10
8.8852542898
 20
10.2873071479
 30
0.0
 10
8.8920960515
 20
10.2935692145
 30
0.0
 10
8.9028508216
 20
10.3023989127
 30
0.0
 10
8.9140725977
 20
10.3106449962
 30
0.0
 10
8.9257327246
 20
10.3182863301
 30
0.0
 10
8.9378019315
 20
10.3253037537
 30
0.0
 10
8.9502497812
 20
10.3316795597
 30
0.0
 10
8.9630448913
 20
10.3373977571
 30
0.0
 10
8.9761550135
 20
10.342443971
 30
0.0
 10
8.9895471608
 20
10.3468054867
 30
0.0
 10
9.0031874864
 20
10.3504713456
 30
0.0
 10
9.0170420129
 20
10.3534324185
 30
0.0
 10
9.0357801679
 20
10.3564353439
 30
0.0
 10
9.0595746342
 20
10.3583862521
 30
0.0
 10
9.0787039578
 20
10.358012939
 30
0.0
 10
9.0882620601
 20
10.3573500824
 30
0.0
  0
SPLINE
  5
32A
100
AcDbEntity
  8
0
100
AcDbSpline
 62
7
  6
CONTINUOUS
 70
0
 71
3
 72
21
 73
17
 74
0
 42
0.0000001
 43
0.0000001
 44
0.0000000001
 40
0.0
 40
0.0
 40
0.0
 40
0.0
 40
0.0616532342
 40
0.1233294953
 40
0.1850515501
 40
0.2468416649
 40
0.3087213494
 40
0.3707111104
 40
0.4328302434
 40
0.4950966323
 40
0.5575265657
 40
0.6201345673
 40
0.682933156
 40
0.7459330948
 40
0.8725263949
 40
1.0
 40
1.0
 40
1.0
 40
1.0
 10
10.5722915356
 20
10.1668601621
 30
0.0
 10
10.5756244997
 20
10.1700795757
 30
0.0
 10
10.5824662613
 20
10.1763416423
 30
0.0
 10
10.5932210314
 20
10.1851713405
 30
0.0
 10
10.6044428075
 20
10.193417424
 30
0.0
 10
10.6161029344
 20
10.2010587579
 30
0.0
 10
10.6281721413
 20
10.2080761815
 30
0.0
 10
10.640619991
 20
10.2144519875
 30
0.0
 10
10.6534151011
 20
10.2201701849
 30
0.0
 10
10.6665252233
 20
10.2252163988
 30
0.0
 10
10.6799173706
 20
10.2295779145
 30
0.0
 10
10.6935576962
 20
10.2332437734
 30
0.0
 10
10.7074122227
 20
10.2362048463
 30
0.0
 10
10.7261503777
 20
10.2392077717
 30
0.0
 10
10.749944844
 20
10.2411586799
 30
0.0
 10
10.7690741676
 20
10.2407853668
 30
0.0
 10
10.7786322699
 20
10.2401225102
 30
0.0
  0
SPLINE
  5
32B
100
AcDbEntity
  8
0
100
AcDbSpline
 62
7
  6
CONTINUOUS
 70
0
 71
3
 72
21
 73
17
 74
0
 42
0.0000001
 43
0.0000001
 44
0.0000000001
 40
0.0
 40
0.0
 40
0.0
 40
0.0
 40
0.0616532342
 40
0.1233294953
 40
0.1850515501
 40
0.2468416649
 40
0.3087213494
 40
0.3707111104
 40
0.4328302434
 40
0.4950966323
 40
0.5575265657
 40
0.6201345673
 40
0.682933156
 40
0.7459330948
 40
0.8725263949
 40
1.0
 40
1.0
 40
1.0
 40
1.0
 10
10.5722915356
 20
8.2350081648
 30
0.0
 10
10.5756244997
 20
8.2382275783
 30
0.0
 10
10.5824662613
 20
8.244489645
 30
0.0
 10
10.5932210314
 20
8.2533193432
 30
0.0
 10
10.6044428075
 20
8.2615654267
 30
0.0
 10
10.6161029344
 20
8.2692067605
 30
0.0
 10
10.6281721413
 20
8.2762241841
 30
0.0
 10
10.640619991
 20
8.2825999902
 30
0.0
 10
10.6534151011
 20
8.2883181875
 30
0.0
 10
10.6665252233
 20
8.2933644015
 30
0.0
 10
10.6799173706
 20
8.2977259172
 30
0.0
 10
10.6935576962
 20
8.3013917761
 30
0.0
 10
10.7074122227
 20
8.304352849
 30
0.0
 10
10.7261503777
 20
8.3073557744
 30
0.0
 10
10.749944844
 20
8.3093066826
 30
0.0
 10
10.7690741676
 20
8.3089333695
 30
0.0
 10
10.7786322699
 20
8.3082705128
 30
0.0
  0
SPLINE
  5
32C
100
AcDbEntity
  8
0
100
AcDbSpline
 62
7
  6
CONTINUOUS
 70
0
 71
3
 72
21
 73
17
 74
0
 42
0.0000001
 43
0.0000001
 44
0.0000000001
 40
0.0
 40
0.0
 40
0.0
 40
0.0
 40
0.0616532342
 40
0.1233294953
 40
0.1850515501
 40
0.2468416649
 40
0.3087213494
 40
0.3707111104
 40
0.4328302434
 40
0.4950966323
 40
0.5575265657
 40
0.6201345673
 40
0.682933156
 40
0.7459330948
 40
0.8725263949
 40
1.0
 40
1.0
 40
1.0
 40
1.0
 10
10.5722915356
 20
6.3031564265
 30
0.0
 10
10.5756244997
 20
6.3063758401
 30
0.0
 10
10.5824662613
 20
6.3126379067
 30
0.0
 10
10.5932210314
 20
6.3214676049
 30
0.0
 10
10.6044428075
 20
6.3297136884
 30
0.0
 10
10.6161029344
 20
6.3373550223
 30
0.0
 10
10.6281721413
 20
6.3443724459
 30
0.0
 10
10.640619991
 20
6.3507482519
 30
0.0
 10
10.6534151011
 20
6.3564664493
 30
0.0
 10
10.6665252233
 20
6.3615126632
 30
0.0
 10
10.6799173706
 20
6.3658741789
 30
0.0
 10
10.6935576962
 20
6.3695400378
 30
0.0
 10
10.7074122227
 20
6.3725011107
 30
0.0
 10
10.7261503777
 20
6.3755040361
 30
0.0
 10
10.749944844
 20
6.3774549443
 30
0.0
 10
10.7690741676
 20
6.3770816312
 30
0.0
 10
10.7786322699
 20
6.3764187746
 30
0.0
  0
SPLINE
  5
32D
100
AcDbEntity
  8
0
100
AcDbSpline
 62
7
  6
CONTINUOUS
 70
0
 71
3
 72
21
 73
17
 74
0
 42
0.0000001
 43
0.0000001
 44
0.0000000001
 40
0.0
 40
0.0
 40
0.0
 40
0.0
 40
0.0616532342
 40
0.1233294953
 40
0.1850515501
 40
0.2468416649
 40
0.3087213494
 40
0.3707111104
 40
0.4328302434
 40
0.4950966323
 40
0.5575265657
 40
0.6201345673
 40
0.682933156
 40
0.7459330948
 40
0.8725263949
 40
1.0
 40
1.0
 40
1.0
 40
1.0
 10
8.8819213258
 20
6.4203839987
 30
0.0
 10
8.8852542898
 20
6.4236034123
 30
0.0
 10
8.8920960515
 20
6.4298654789
 30
0.0
 10
8.9028508216
 20
6.4386951771
 30
0.0
 10
8.9140725977
 20
6.4469412606
 30
0.0
 10
8.9257327246
 20
6.4545825945
 30
0.0
 10
8.9378019315
 20
6.4616000181
 30
0.0
 10
8.9502497812
 20
6.4679758241
 30
0.0
 10
8.9630448913
 20
6.4736940215
 30
0.0
 10
8.9761550135
 20
6.4787402354
 30
0.0
 10
8.9895471608
 20
6.4831017511
 30
0.0
 10
9.0031874864
 20
6.48676761
 30
0.0
 10
9.0170420129
 20
6.4897286829
 30
0.0
 10
9.0357801679
 20
6.4927316084
 30
0.0
 10
9.0595746342
 20
6.4946825165
 30
0.0
 10
9.0787039578
 20
6.4943092034
 30
0.0
 10
9.0882620601
 20
6.4936463468
 30
0.0
  0
SPLINE
  5
32E
100
AcDbEntity
  8
0
100
AcDbSpline
 62
7
  6
CONTINUOUS
 70
0
 71
3
 72
21
 73
17
 74
0
 42
0.0000001
 43
0.0000001
 44
0.0000000001
 40
0.0
 40
0.0
 40
0.0
 40
0.0
 40
0.0616532342
 40
0.1233294953
 40
0.1850515501
 40
0.2468416649
 40
0.3087213494
 40
0.3707111104
 40
0.4328302434
 40
0.4950966323
 40
0.5575265657
 40
0.6201345673
 40
0.682933156
 40
0.7459330948
 40
0.8725263949
 40
1.0
 40
1.0
 40
1.0
 40
1.0
 10
8.8819213258
 20
8.352235737
 30
0.0
 10
8.8852542898
 20
8.3554551505
 30
0.0
 10
8.8920960515
 20
8.3617172172
 30
0.0
 10
8.9028508216
 20
8.3705469154
 30
0.0
 10
8.9140725977
 20
8.3787929989
 30
0.0
 10
8.9257327246
 20
8.3864343328
 30
0.0
 10
8.9378019315
 20
8.3934517563
 30
0.0
 10
8.9502497812
 20
8.3998275624
 30
0.0
 10
8.9630448913
 20
8.4055457598
 30
0.0
 10
8.9761550135
 20
8.4105919737
 30
0.0
 10
8.9895471608
 20
8.4149534894
 30
0.0
 10
9.0031874864
 20
8.4186193483
 30
0.0
 10
9.0170420129
 20
8.4215804212
 30
0.0
 10
9.0357801679
 20
8.4245833466
 30
0.0
 10
9.0595746342
 20
8.4265342548
 30
0.0
 10
9.0787039578
 20
8.4261609417
 30
0.0
 10
9.0882620601
 20
8.4254980851
 30
0.0
  0
SPLINE
  5
32F
100
AcDbEntity
  8
0
100
AcDbSpline
 62
7
  6
CONTINUOUS
 70
0
 71
3
 72
25
 73
21
 74
0
 42
0.0000001
 43
0.0000001
 44
0.0000000001
 40
0.0
 40
0.0
 40
0.0
 40
0.0
 40
0.0615661117
 40
0.0923604784
 40
0.1231635022
 40
0.1848052961
 40
0.2465220485
 40
0.2774185909
 40
0.3083426082
 40
0.3702785182
 40
0.4323563521
 40
0.4945956229
 40
0.5570140352
 40
0.6196273191
 40
0.6824490938
 40
0.7454906946
 40
0.8087612356
 40
0.8722671143
 40
0.9360130284
 40
1.0
 40
1.0
 40
1.0
 40
1.0
 10
9.3413559107
 20
9.6232506281
 30
0.0
 10
9.3500843035
 20
9.6316816086
 30
0.0
 10
9.3635225564
 20
9.6439805925
 30
0.0
 10
9.3820791782
 20
9.6596367983
 30
0.0
 10
9.4010619115
 20
9.6747984275
 30
0.0
 10
9.4255622862
 20
9.6927993643
 30
0.0
 10
9.451007806
 20
9.7094711349
 30
0.0
 10
9.4718965918
 20
9.7219903022
 30
0.0
 10
9.4931496784
 20
9.7339686611
 30
0.0
 10
9.5203472084
 20
9.7478947571
 30
0.0
 10
9.5538823481
 20
9.762875723
 30
0.0
 10
9.5882512453
 20
9.776098366
 30
0.0
 10
9.623367773
 20
9.7875287256
 30
0.0
 10
9.6591445507
 20
9.7971376584
 30
0.0
 10
9.6954922242
 20
9.8049003679
 30
0.0
 10
9.7323199767
 20
9.8107966727
 30
0.0
 10
9.7695354918
 20
9.8148109627
 30
0.0
 10
9.8070458597
 20
9.8169323979
 30
0.0
 10
9.8447555973
 20
9.8171548294
 30
0.0
 10
9.8699207671
 20
9.8160381562
 30
0.0
 10
9.8825030551
 20
9.8151655716
 30
0.0
  0
SPLINE
  5
330
100
AcDbEntity
  8
0
100
AcDbSpline
 62
7
  6
CONTINUOUS
 70
0
 71
3
 72
49
 73
45
 74
0
 42
0.0000001
 43
0.0000001
 44
0.0000000001
 40
0.0
 40
0.0
 40
0.0
 40
0.0
 40
0.0311359551
 40
0.0624378868
 40
0.0938990371
 40
0.1255088378
 40
0.1572539183
 40
0.1891182446
 40
0.2210834607
 40
0.2531292786
 40
0.2852338794
 40
0.3173743366
 40
0.3495270504
 40
0.3816681928
 40
0.4137741521
 40
0.4458219748
 40
0.4777898056
 40
0.5096573051
 40
0.5414060588
 40
0.5730199552
 40
0.6044855356
 40
0.6357923029
 40
0.6669329931
 40
0.697903773
 40
0.713327847
 40
0.7287096567
 40
0.744049746
 40
0.7593488882
 40
0.7746080809
 40
0.7898285476
 40
0.805011732
 40
0.8201592878
 40
0.8352730763
 40
0.8503551563
 40
0.8654077689
 40
0.8804333299
 40
0.8954344219
 40
0.910413765
 40
0.9253742043
 40
0.9403187562
 40
0.9552504184
 40
0.9701722424
 40
0.9850881084
 40
1.0
 40
1.0
 40
1.0
 40
1.0
 10
9.8825030551
 20
9.8151655716
 30
0.0
 10
9.9009352909
 20
9.8138872917
 30
0.0
 10
9.9378181021
 20
9.8099739121
 30
0.0
 10
9.9927059342
 20
9.8001146529
 30
0.0
 10
10.0470267768
 20
9.7863004655
 30
0.0
 10
10.1004851921
 20
9.7686038241
 30
0.0
 10
10.1527949209
 20
9.7471182505
 30
0.0
 10
10.2036744075
 20
9.7219576997
 30
0.0
 10
10.2528501017
 20
9.6932562441
 30
0.0
 10
10.3000574903
 20
9.661167214
 30
0.0
 10
10.3450426046
 20
9.6258622655
 30
0.0
 10
10.3875636102
 20
9.5875307278
 30
0.0
 10
10.4273919311
 20
9.5463782597
 30
0.0
 10
10.4643136136
 20
9.5026258805
 30
0.0
 10
10.4981306009
 20
9.4565087976
 30
0.0
 10
10.5286615606
 20
9.4082749076
 30
0.0
 10
10.5557431756
 20
9.3581836545
 30
0.0
 10
10.5792308736
 20
9.3065044428
 30
0.0
 10
10.5989995255
 20
9.2535151504
 30
0.0
 10
10.614944417
 20
9.1995006266
 30
0.0
 10
10.6269814574
 20
9.1447511912
 30
0.0
 10
10.6350477372
 20
9.089560222
 30
0.0
 10
10.6391021599
 20
9.034225725
 30
0.0
 10
10.6391206273
 20
8.9881702182
 30
0.0
 10
10.63711288
 20
8.9515592609
 30
0.0
 10
10.6346043186
 20
8.9242841703
 30
0.0
 10
10.6310947323
 20
8.8971948169
 30
0.0
 10
10.6265891611
 20
8.8703268414
 30
0.0
 10
10.6210938714
 20
8.8437161582
 30
0.0
 10
10.6146165647
 20
8.8173981195
 30
0.0
 10
10.6071662002
 20
8.7914076913
 30
0.0
 10
10.5987529283
 20
8.7657793805
 30
0.0
 10
10.5893882519
 20
8.7405471532
 30
0.0
 10
10.5790849195
 20
8.7157444052
 30
0.0
 10
10.567856804
 20
8.6914039704
 30
0.0
 10
10.5557190341
 20
8.6675580189
 30
0.0
 10
10.5426879521
 20
8.6442380176
 30
0.0
 10
10.5287809642
 20
8.6214747678
 30
0.0
 10
10.5140166202
 20
8.5992982885
 30
0.0
 10
10.498414615
 20
8.5777378119
 30
0.0
 10
10.4819957563
 20
8.5568218406
 30
0.0
 10
10.4647815342
 20
8.5365776054
 30
0.0
 10
10.4467952903
 20
8.5170325789
 30
0.0
 10
10.4343042401
 20
8.5044842304
 30
0.0
 10
10.4279396117
 20
8.4983364711
 30
0.0
  0
SPLINE
  5
331
100
AcDbEntity
  8
0
100
AcDbSpline
 62
7
  6
CONTINUOUS
 70
0
 71
3
 72
8
 73
4
 74
0
 42
0.0000001
 43
0.0000001
 44
0.0000000001
 40
0.0
 40
0.0
 40
0.0
 40
0.0
 40
1.0
 40
1.0
 40
1.0
 40
1.0
 10
12.9621620472
 20
7.8143943939
 30
0.0
 10
12.9621360234
 20
7.8143961766
 30
0.0
 10
12.9621099997
 20
7.8143979594
 30
0.0
 10
12.9620839759
 20
7.8143997422
 30
0.0
  0
LINE
  5
332
100
AcDbEntity
  8
0
100
AcDbLine
 62
7
  6
CONTINUOUS
 10
12.8594928952
 20
6.333950222
 11
12.85936288
 21
6.3339594225
  0
SPLINE
  5
333
100
AcDbEntity
  8
0
100
AcDbSpline
 62
7
  6
CONTINUOUS
 70
0
 71
3
 72
34
 73
30
 74
0
 42
0.0000001
 43
0.0000001
 44
0.0000000001
 40
0.0
 40
0.0
 40
0.0
 40
0.0
 40
0.0162143269
 40
0.0334273436
 40
0.0516716574
 40
0.0709707408
 40
0.0913402154
 40
0.1127892626
 40
0.1353215282
 40
0.1589358258
 40
0.1836269709
 40
0.2093860903
 40
0.2362011477
 40
0.2640573424
 40
0.2929372112
 40
0.3228210774
 40
0.3536871322
 40
0.385511585
 40
0.4182689609
 40
0.4519320413
 40
0.4864721137
 40
0.5218590723
 40
0.5580613947
 40
0.5950463972
 40
0.6712266109
 40
0.7501173057
 40
0.8314197157
 40
0.9148212275
 40
1.0
 40
1.0
 40
1.0
 40
1.0
 10
12.9015129966
 20
6.2540884244
 30
0.0
 10
12.8994038873
 20
6.2566816731
 30
0.0
 10
12.8952332818
 20
6.2621739663
 30
0.0
 10
12.8892855325
 20
6.2710169288
 30
0.0
 10
12.883468505
 20
6.2806961427
 30
0.0
 10
12.8777882457
 20
6.291201393
 30
0.0
 10
12.8722501847
 20
6.3025221446
 30
0.0
 10
12.8668599769
 20
6.3146468147
 30
0.0
 10
12.8616231627
 20
6.3275629676
 30
0.0
 10
12.8565451244
 20
6.341257249
 30
0.0
 10
12.8516312206
 20
6.3557154722
 30
0.0
 10
12.8468865842
 20
6.3709225827
 30
0.0
 10
12.8423162036
 20
6.3868627117
 30
0.0
 10
12.8379249499
 20
6.4035191977
 30
0.0
 10
12.8337174198
 20
6.4208745872
 30
0.0
 10
12.8296980979
 20
6.4389106819
 30
0.0
 10
12.825871249
 20
6.4576085478
 30
0.0
 10
12.8222408968
 20
6.4769485379
 30
0.0
 10
12.8188109344
 20
6.496910323
 30
0.0
 10
12.8155849707
 20
6.5174729048
 30
0.0
 10
12.8125664251
 20
6.5386146485
 30
0.0
 10
12.8097585362
 20
6.5603132957
 30
0.0
 10
12.8071642099
 20
6.5825460264
 30
0.0
 10
12.8039621659
 20
6.6131723968
 30
0.0
 10
12.8005303235
 20
6.6526200469
 30
0.0
 10
12.7973410724
 20
6.7012481527
 30
0.0
 10
12.7950553295
 20
6.7514172922
 30
0.0
 10
12.7936829151
 20
6.8029160668
 30
0.0
 10
12.7933836922
 20
6.8376703902
 30
0.0
 10
12.7933836922
 20
6.8552303219
 30
0.0
  0
SPLINE
  5
334
100
AcDbEntity
  8
0
100
AcDbSpline
 62
7
  6
CONTINUOUS
 70
0
 71
3
 72
25
 73
21
 74
0
 42
0.0000001
 43
0.0000001
 44
0.0000000001
 40
0.0
 40
0.0
 40
0.0
 40
0.0
 40
0.0615661117
 40
0.0923604784
 40
0.1231635022
 40
0.1848052961
 40
0.2465220485
 40
0.2774185909
 40
0.3083426082
 40
0.3702785182
 40
0.4323563521
 40
0.4945956229
 40
0.5570140352
 40
0.6196273191
 40
0.6824490938
 40
0.7454906946
 40
0.8087612356
 40
0.8722671143
 40
0.9360130284
 40
1.0
 40
1.0
 40
1.0
 40
1.0
 10
9.3413559107
 20
7.691398861
 30
0.0
 10
9.3500843035
 20
7.6998298416
 30
0.0
 10
9.3635225564
 20
7.7121288254
 30
0.0
 10
9.3820791782
 20
7.7277850313
 30
0.0
 10
9.4010619115
 20
7.7429466604
 30
0.0
 10
9.4255622862
 20
7.7609475973
 30
0.0
 10
9.451007806
 20
7.7776193679
 30
0.0
 10
9.4718965918
 20
7.7901385352
 30
0.0
 10
9.4931496784
 20
7.802116894
 30
0.0
 10
9.5203472084
 20
7.81604299
 30
0.0
 10
9.5538823481
 20
7.8310239559
 30
0.0
 10
9.5882512453
 20
7.844246599
 30
0.0
 10
9.623367773
 20
7.8556769586
 30
0.0
 10
9.6591445507
 20
7.8652858914
 30
0.0
 10
9.6954922242
 20
7.8730486008
 30
0.0
 10
9.7323199767
 20
7.8789449057
 30
0.0
 10
9.7695354918
 20
7.8829591957
 30
0.0
 10
9.8070458597
 20
7.8850806309
 30
0.0
 10
9.8447555973
 20
7.8853030623
 30
0.0
 10
9.8699207671
 20
7.8841863892
 30
0.0
 10
9.8825030551
 20
7.8833138046
 30
0.0
  0
SPLINE
  5
335
100
AcDbEntity
  8
0
100
AcDbSpline
 62
7
  6
CONTINUOUS
 70
0
 71
3
 72
8
 73
4
 74
0
 42
0.0000001
 43
0.0000001
 44
0.0000000001
 40
0.0
 40
0.0
 40
0.0
 40
0.0
 40
1.0
 40
1.0
 40
1.0
 40
1.0
 10
12.9621620472
 20
10.3499498381
 30
0.0
 10
12.9621360234
 20
10.3499516209
 30
0.0
 10
12.9621099997
 20
10.3499534036
 30
0.0
 10
12.9620839759
 20
10.3499551864
 30
0.0
  0
LINE
  5
336
100
AcDbEntity
  8
0
100
AcDbLine
 62
7
  6
CONTINUOUS
 10
12.8594928952
 20
8.8695056662
 11
12.85936288
 21
8.8695148667
  0
SPLINE
  5
337
100
AcDbEntity
  8
0
100
AcDbSpline
 62
7
  6
CONTINUOUS
 70
0
 71
3
 72
34
 73
30
 74
0
 42
0.0000001
 43
0.0000001
 44
0.0000000001
 40
0.0
 40
0.0
 40
0.0
 40
0.0
 40
0.0162143269
 40
0.0334273436
 40
0.0516716574
 40
0.0709707408
 40
0.0913402154
 40
0.1127892626
 40
0.1353215282
 40
0.1589358258
 40
0.1836269709
 40
0.2093860903
 40
0.2362011477
 40
0.2640573424
 40
0.2929372112
 40
0.3228210774
 40
0.3536871322
 40
0.385511585
 40
0.4182689609
 40
0.4519320413
 40
0.4864721137
 40
0.5218590723
 40
0.5580613947
 40
0.5950463972
 40
0.6712266109
 40
0.7501173057
 40
0.8314197157
 40
0.9148212275
 40
1.0
 40
1.0
 40
1.0
 40
1.0
 10
12.9015129966
 20
8.7896438686
 30
0.0
 10
12.8994038873
 20
8.7922371174
 30
0.0
 10
12.8952332818
 20
8.7977294106
 30
0.0
 10
12.8892855325
 20
8.806572373
 30
0.0
 10
12.883468505
 20
8.8162515869
 30
0.0
 10
12.8777882457
 20
8.8267568372
 30
0.0
 10
12.8722501847
 20
8.8380775888
 30
0.0
 10
12.8668599769
 20
8.8502022589
 30
0.0
 10
12.8616231627
 20
8.8631184118
 30
0.0
 10
12.8565451244
 20
8.8768126932
 30
0.0
 10
12.8516312206
 20
8.8912709164
 30
0.0
 10
12.8468865842
 20
8.906478027
 30
0.0
 10
12.8423162036
 20
8.9224181559
 30
0.0
 10
12.8379249499
 20
8.939074642
 30
0.0
 10
12.8337174198
 20
8.9564300314
 30
0.0
 10
12.8296980979
 20
8.9744661262
 30
0.0
 10
12.825871249
 20
8.993163992
 30
0.0
 10
12.8222408968
 20
9.0125039821
 30
0.0
 10
12.8188109344
 20
9.0324657673
 30
0.0
 10
12.8155849707
 20
9.0530283491
 30
0.0
 10
12.8125664251
 20
9.0741700928
 30
0.0
 10
12.8097585362
 20
9.0958687399
 30
0.0
 10
12.8071642099
 20
9.1181014706
 30
0.0
 10
12.8039621659
 20
9.1487278411
 30
0.0
 10
12.8005303235
 20
9.1881754912
 30
0.0
 10
12.7973410724
 20
9.2368035969
 30
0.0
 10
12.7950553295
 20
9.2869727364
 30
0.0
 10
12.7936829151
 20
9.338471511
 30
0.0
 10
12.7933836922
 20
9.3732258345
 30
0.0
 10
12.7933836922
 20
9.3907857662
 30
0.0
  0
SPLINE
  5
338
100
AcDbEntity
  8
0
100
AcDbSpline
 62
7
  6
CONTINUOUS
 70
0
 71
3
 72
18
 73
14
 74
0
 42
0.0000001
 43
0.0000001
 44
0.0000000001
 40
0.0
 40
0.0
 40
0.0
 40
0.0
 40
0.1036384418
 40
0.2123505587
 40
0.3264069124
 40
0.3855695808
 40
0.4462497173
 40
0.5725297715
 40
0.7061661956
 40
0.7761054265
 40
0.8483319056
 40
0.9229628578
 40
1.0
 40
1.0
 40
1.0
 40
1.0
 10
10.6289298141
 20
8.8858110847
 30
0.0
 10
10.6255301887
 20
8.8833937472
 30
0.0
 10
10.6185251332
 20
8.8784958367
 30
0.0
 10
10.6076362365
 20
8.8711438998
 30
0.0
 10
10.5981198245
 20
8.8649612304
 30
0.0
 10
10.5901511362
 20
8.859947802
 30
0.0
 10
10.5817109403
 20
8.8547608979
 30
0.0
 10
10.5706021752
 20
8.8481926669
 30
0.0
 10
10.5589971116
 20
8.8417390997
 30
0.0
 10
10.5491687326
 20
8.8365770632
 30
0.0
 10
10.5413700314
 20
8.8326611258
 30
0.0
 10
10.5332332875
 20
8.8287858826
 30
0.0
 10
10.5276589036
 20
8.8262952086
 30
0.0
 10
10.5248102003
 20
8.825070664
 30
0.0
  0
SPLINE
  5
339
100
AcDbEntity
  8
0
100
AcDbSpline
 62
7
  6
CONTINUOUS
 70
0
 71
3
 72
46
 73
42
 74
0
 42
0.0000001
 43
0.0000001
 44
0.0000000001
 40
0.0
 40
0.0
 40
0.0
 40
0.0
 40
0.0140296092
 40
0.0269682323
 40
0.038994783
 40
0.0502704481
 40
0.0609372763
 40
0.0711224887
 40
0.0809373472
 40
0.0904807169
 40
0.0998380726
 40
0.1090841631
 40
0.1182830005
 40
0.1274895192
 40
0.1367500028
 40
0.1461039516
 40
0.1555845136
 40
0.1652189281
 40
0.1850332674
 40
0.2056989554
 40
0.2273196118
 40
0.2499692331
 40
0.2737063648
 40
0.298576193
 40
0.3246199332
 40
0.3518739392
 40
0.3803760405
 40
0.4101641336
 40
0.4412806064
 40
0.4737715025
 40
0.5076894342
 40
0.5430941635
 40
0.6186361342
 40
0.6589562012
 40
0.7011076546
 40
0.7452120728
 40
0.7914075545
 40
0.839846273
 40
0.8906848817
 40
0.9440549628
 40
1.0
 40
1.0
 40
1.0
 40
1.0
 10
9.9126145221
 20
8.5383873746
 30
0.0
 10
9.9132238856
 20
8.5376636509
 30
0.0
 10
9.9143443811
 20
8.5362283869
 30
0.0
 10
9.9157914553
 20
8.5340292681
 30
0.0
 10
9.9169592233
 20
8.5318789498
 30
0.0
 10
9.9178747449
 20
8.5297758923
 30
0.0
 10
9.9185597673
 20
8.5277174245
 30
0.0
 10
9.9190347362
 20
8.5257017768
 30
0.0
 10
9.91931514
 20
8.5237266326
 30
0.0
 10
9.9194167291
 20
8.521790343
 30
0.0
 10
9.9193506648
 20
8.5198910709
 30
0.0
 10
9.9191287919
 20
8.5180272678
 30
0.0
 10
9.9187601922
 20
8.516197412
 30
0.0
 10
9.918252702
 20
8.5144003257
 30
0.0
 10
9.9176143824
 20
8.5126345177
 30
0.0
 10
9.9168507984
 20
8.5108991253
 30
0.0
 10
9.9159674672
 20
8.5091932202
 30
0.0
 10
9.9146248802
 20
8.5069358034
 30
0.0
 10
9.9126576502
 20
8.5041797238
 30
0.0
 10
9.9099078012
 20
8.501014269
 30
0.0
 10
9.9067670097
 20
8.4979563842
 30
0.0
 10
9.9032529027
 20
8.4950039641
 30
0.0
 10
9.8993772436
 20
8.4921580925
 30
0.0
 10
9.8951499946
 20
8.4894196637
 30
0.0
 10
9.8905772811
 20
8.4867927141
 30
0.0
 10
9.8856637624
 20
8.4842810148
 30
0.0
 10
9.8804112693
 20
8.4818912138
 30
0.0
 10
9.8748202541
 20
8.4796300776
 30
0.0
 10
9.8688889027
 20
8.4775070648
 30
0.0
 10
9.8626139423
 20
8.4755326092
 30
0.0
 10
9.8559900528
 20
8.4737195217
 30
0.0
 10
9.8464772
 20
8.4714894002
 30
0.0
 10
9.8364207619
 20
8.4697158566
 30
0.0
 10
9.8258409909
 20
8.4684312424
 30
0.0
 10
9.8173327663
 20
8.4677195587
 30
0.0
 10
9.8084075859
 20
8.4673181879
 30
0.0
 10
9.7990490949
 20
8.4672732903
 30
0.0
 10
9.7892428574
 20
8.4676420809
 30
0.0
 10
9.7789805077
 20
8.4684957837
 30
0.0
 10
9.7682705001
 20
8.4699221548
 30
0.0
 10
9.761022555
 20
8.4712946871
 30
0.0
 10
9.7573386751
 20
8.4721084804
 30
0.0
  0
SPLINE
  5
33A
100
AcDbEntity
  8
0
100
AcDbSpline
 62
7
  6
CONTINUOUS
 70
0
 71
3
 72
49
 73
45
 74
0
 42
0.0000001
 43
0.0000001
 44
0.0000000001
 40
0.0
 40
0.0
 40
0.0
 40
0.0
 40
0.0311359551
 40
0.0624378868
 40
0.0938990371
 40
0.1255088378
 40
0.1572539183
 40
0.1891182446
 40
0.2210834607
 40
0.2531292786
 40
0.2852338794
 40
0.3173743366
 40
0.3495270504
 40
0.3816681928
 40
0.4137741521
 40
0.4458219748
 40
0.4777898056
 40
0.5096573051
 40
0.5414060588
 40
0.5730199552
 40
0.6044855356
 40
0.6357923029
 40
0.6669329931
 40
0.697903773
 40
0.713327847
 40
0.7287096567
 40
0.744049746
 40
0.7593488882
 40
0.7746080809
 40
0.7898285476
 40
0.805011732
 40
0.8201592878
 40
0.8352730763
 40
0.8503551563
 40
0.8654077689
 40
0.8804333299
 40
0.8954344219
 40
0.910413765
 40
0.9253742043
 40
0.9403187562
 40
0.9552504184
 40
0.9701722424
 40
0.9850881084
 40
1.0
 40
1.0
 40
1.0
 40
1.0
 10
9.8825030551
 20
7.8833138046
 30
0.0
 10
9.9009352909
 20
7.8820355247
 30
0.0
 10
9.9378181021
 20
7.878122145
 30
0.0
 10
9.9927059342
 20
7.8682628859
 30
0.0
 10
10.0470267768
 20
7.8544486984
 30
0.0
 10
10.1004851921
 20
7.8367520571
 30
0.0
 10
10.1527949209
 20
7.8152664834
 30
0.0
 10
10.2036744075
 20
7.7901059326
 30
0.0
 10
10.2528501017
 20
7.7614044771
 30
0.0
 10
10.3000574903
 20
7.7293154469
 30
0.0
 10
10.3450426046
 20
7.6940104985
 30
0.0
 10
10.3875636102
 20
7.6556789608
 30
0.0
 10
10.4273919311
 20
7.6145264926
 30
0.0
 10
10.4643136136
 20
7.5707741135
 30
0.0
 10
10.4981306009
 20
7.5246570306
 30
0.0
 10
10.5286615606
 20
7.4764231406
 30
0.0
 10
10.5557431756
 20
7.4263318874
 30
0.0
 10
10.5792308736
 20
7.3746526757
 30
0.0
 10
10.5989995255
 20
7.3216633834
 30
0.0
 10
10.614944417
 20
7.2676488596
 30
0.0
 10
10.6269814574
 20
7.2128994241
 30
0.0
 10
10.6350477372
 20
7.157708455
 30
0.0
 10
10.6391021599
 20
7.102373958
 30
0.0
 10
10.6391206273
 20
7.0563184512
 30
0.0
 10
10.63711288
 20
7.0197074939
 30
0.0
 10
10.6346043186
 20
6.9924324033
 30
0.0
 10
10.6310947323
 20
6.9653430499
 30
0.0
 10
10.6265891611
 20
6.9384750744
 30
0.0
 10
10.6210938714
 20
6.9118643911
 30
0.0
 10
10.6146165647
 20
6.8855463525
 30
0.0
 10
10.6071662002
 20
6.8595559242
 30
0.0
 10
10.5987529283
 20
6.8339276135
 30
0.0
 10
10.5893882519
 20
6.8086953862
 30
0.0
 10
10.5790849195
 20
6.7838926381
 30
0.0
 10
10.567856804
 20
6.7595522033
 30
0.0
 10
10.5557190341
 20
6.7357062518
 30
0.0
 10
10.5426879521
 20
6.7123862506
 30
0.0
 10
10.5287809642
 20
6.6896230007
 30
0.0
 10
10.5140166202
 20
6.6674465215
 30
0.0
 10
10.498414615
 20
6.6458860448
 30
0.0
 10
10.4819957563
 20
6.6249700736
 30
0.0
 10
10.4647815342
 20
6.6047258383
 30
0.0
 10
10.4467952903
 20
6.5851808119
 30
0.0
 10
10.4343042401
 20
6.5726324633
 30
0.0
 10
10.4279396117
 20
6.566484704
 30
0.0
  0
SPLINE
  5
33B
100
AcDbEntity
  8
0
100
AcDbSpline
 62
7
  6
CONTINUOUS
 70
0
 71
3
 72
53
 73
49
 74
0
 42
0.0000001
 43
0.0000001
 44
0.0000000001
 40
0.0
 40
0.0
 40
0.0
 40
0.0
 40
0.0417740297
 40
0.0840369869
 40
0.1266585521
 40
0.1695065595
 40
0.2124481874
 40
0.2553501548
 40
0.2980793668
 40
0.3405034
 40
0.3824910408
 40
0.4239128105
 40
0.4646414999
 40
0.5045527101
 40
0.5435254036
 40
0.5814424718
 40
0.6181913251
 40
0.6536645175
 40
0.687760418
 40
0.720383954
 40
0.7361162212
 40
0.7514481887
 40
0.7663701981
 40
0.7808732402
 40
0.7949488863
 40
0.8085894735
 40
0.8217880069
 40
0.8345383998
 40
0.8468353625
 40
0.8586746935
 40
0.8700531797
 40
0.8809689358
 40
0.8914213497
 40
0.9014114698
 40
0.9109420406
 40
0.9200179482
 40
0.928646397
 40
0.936837438
 40
0.9446043378
 40
0.9519642164
 40
0.9589386314
 40
0.9655543018
 40
0.9718438078
 40
0.9778461912
 40
0.9836073701
 40
0.9891800475
 40
0.9946230791
 40
1.0
 40
1.0
 40
1.0
 40
1.0
 10
13.1028710442
 20
7.2596721658
 30
0.0
 10
13.1028710442
 20
7.2458295035
 30
0.0
 10
13.1026550838
 20
7.2179817277
 30
0.0
 10
13.1017003623
 20
7.1760202797
 30
0.0
 10
13.1001157591
 20
7.1337216924
 30
0.0
 10
13.0979064686
 20
7.091225985
 30
0.0
 10
13.0950797918
 20
7.048673755
 30
0.0
 10
13.091645072
 20
7.0062057758
 30
0.0
 10
13.0876136872
 20
6.9639625505
 30
0.0
 10
13.0829990015
 20
6.9220838295
 30
0.0
 10
13.0778163255
 20
6.8807081504
 30
0.0
 10
13.0720828647
 20
6.8399723742
 30
0.0
 10
13.0658176643
 20
6.8000112289
 30
0.0
 10
13.0590415467
 20
6.7609568577
 30
0.0
 10
13.0517770442
 20
6.7229383772
 30
0.0
 10
13.044048327
 20
6.686081434
 30
0.0
 10
13.0358811209
 20
6.6505078051
 30
0.0
 10
13.0273026364
 20
6.6163348831
 30
0.0
 10
13.0183414337
 20
6.5836756082
 30
0.0
 10
13.0104878024
 20
6.5575033844
 30
0.0
 10
13.0040231236
 20
6.5374131043
 30
0.0
 10
12.9991563865
 20
6.5229721389
 30
0.0
 10
12.9942167649
 20
6.5089871889
 30
0.0
 10
12.9892083632
 20
6.4954697783
 30
0.0
 10
12.9841352883
 20
6.48243107
 30
0.0
 10
12.9790018039
 20
6.4698818007
 30
0.0
 10
12.9738120906
 20
6.4578323215
 30
0.0
 10
12.9685705209
 20
6.4462925291
 30
0.0
 10
12.9632813421
 20
6.4352719275
 30
0.0
 10
12.9579490081
 20
6.4247795334
 30
0.0
 10
12.9525778155
 20
6.4148239667
 30
0.0
 10
12.947172266
 20
6.4054133273
 30
0.0
 10
12.9417366818
 20
6.3965553152
 30
0.0
 10
12.9362755662
 20
6.3882570823
 30
0.0
 10
12.9307932295
 20
6.3805253783
 30
0.0
 10
12.9252941121
 20
6.37336639
 30
0.0
 10
12.9197824517
 20
6.3667859044
 30
0.0
 10
12.9142625352
 20
6.3607891618
 30
0.0
 10
12.9087384408
 20
6.3553810259
 30
0.0
 10
12.9032141967
 20
6.3505658969
 30
0.0
 10
12.8976936431
 20
6.3463478729
 30
0.0
 10
12.8921805182
 20
6.3427307865
 30
0.0
 10
12.8866785247
 20
6.3397183077
 30
0.0
 10
12.8811914125
 20
6.3373141163
 30
0.0
 10
12.8757234217
 20
6.335521752
 30
0.0
 10
12.8702790468
 20
6.3343447621
 30
0.0
 10
12.8648649098
 20
6.333785885
 30
0.0
 10
12.8612703762
 20
6.3338269489
 30
0.0
 10
12.8594928952
 20
6.333950222
 30
0.0
  0
SPLINE
  5
33C
100
AcDbEntity
  8
0
100
AcDbSpline
 62
7
  6
CONTINUOUS
 70
0
 71
3
 72
47
 73
43
 74
0
 42
0.0000001
 43
0.0000001
 44
0.0000000001
 40
0.0
 40
0.0
 40
0.0
 40
0.0
 40
0.0964110176
 40
0.1436632231
 40
0.190184363
 40
0.2359037183
 40
0.2807528566
 40
0.3246652738
 40
0.3675763456
 40
0.4094237308
 40
0.4501475342
 40
0.4896904709
 40
0.5279980947
 40
0.5650191133
 40
0.6007056748
 40
0.635013641
 40
0.6679029762
 40
0.6993382869
 40
0.7292893371
 40
0.7577316858
 40
0.7846475669
 40
0.8100270656
 40
0.8338694563
 40
0.8452178312
 40
0.8561868946
 40
0.8667799988
 40
0.8770016481
 40
0.886857439
 40
0.8963542132
 40
0.9055003585
 40
0.914305768
 40
0.922782163
 40
0.9309433057
 40
0.9388050644
 40
0.9463857992
 40
0.9607836463
 40
0.9676580084
 40
0.9743519005
 40
0.9808974535
 40
0.9873293048
 40
0.9936841057
 40
1.0
 40
1.0
 40
1.0
 40
1.0
 10
13.1028710442
 20
7.2596721658
 30
0.0
 10
13.1028710442
 20
7.2788620502
 30
0.0
 10
13.1025640881
 20
7.3074586301
 30
0.0
 10
13.1015058992
 20
7.3452992011
 30
0.0
 10
13.1004033122
 20
7.3730429765
 30
0.0
 10
13.0989884011
 20
7.4002936077
 30
0.0
 10
13.0972635183
 20
7.4270061253
 30
0.0
 10
13.095231556
 20
7.4531364647
 30
0.0
 10
13.0928958853
 20
7.4786415481
 30
0.0
 10
13.0902603979
 20
7.5034793184
 30
0.0
 10
13.0873294988
 20
7.5276088461
 30
0.0
 10
13.0841080734
 20
7.5509903757
 30
0.0
 10
13.0806014769
 20
7.5735853946
 30
0.0
 10
13.076815555
 20
7.5953567143
 30
0.0
 10
13.0727566277
 20
7.6162685369
 30
0.0
 10
13.0684314558
 20
7.6362865041
 30
0.0
 10
13.0638472223
 20
7.655377766
 30
0.0
 10
13.0590115592
 20
7.6735110604
 30
0.0
 10
13.0539324987
 20
7.6906567844
 30
0.0
 10
13.0486184408
 20
7.7067869964
 30
0.0
 10
13.0430780899
 20
7.7218756506
 30
0.0
 10
13.0373205329
 20
7.7358981378
 30
0.0
 10
13.0322694418
 20
7.7468501821
 30
0.0
 10
13.0281157519
 20
7.7550463862
 30
0.0
 10
13.0250034662
 20
7.7608113261
 30
0.0
 10
13.021844021
 20
7.7662932358
 30
0.0
 10
13.0186386889
 20
7.7714899253
 30
0.0
 10
13.0153887514
 20
7.776399288
 30
0.0
 10
13.0120954323
 20
7.7810193015
 30
0.0
 10
13.0087600777
 20
7.7853481358
 30
0.0
 10
13.0053839317
 20
7.789383997
 30
0.0
 10
13.0019682291
 20
7.7931252359
 30
0.0
 10
12.9985144077
 20
7.7965702743
 30
0.0
 10
12.9950232826
 20
7.7997178402
 30
0.0
 10
12.9904013556
 20
7.8034510935
 30
0.0
 10
12.9856253719
 20
7.806672619
 30
0.0
 10
12.9807160777
 20
7.8093042692
 30
0.0
 10
12.9770598787
 20
7.8109441345
 30
0.0
 10
12.9733750737
 20
7.8122789229
 30
0.0
 10
12.9696631327
 20
7.8133079394
 30
0.0
 10
12.9659262026
 20
7.8140302891
 30
0.0
 10
12.9634161658
 20
7.8143074174
 30
0.0
 10
12.9621620472
 20
7.8143943939
 30
0.0
  0
SPLINE
  5
33D
100
AcDbEntity
  8
0
100
AcDbSpline
 62
7
  6
CONTINUOUS
 70
0
 71
3
 72
20
 73
16
 74
0
 42
0.0000001
 43
0.0000001
 44
0.0000000001
 40
0.0
 40
0.0
 40
0.0
 40
0.0
 40
0.1472953276
 40
0.2987547921
 40
0.3745654575
 40
0.449237244
 40
0.5217486304
 40
0.5911472549
 40
0.6566977506
 40
0.7179631125
 40
0.7748023986
 40
0.8273105512
 40
0.8757383684
 40
0.9204212927
 40
1.0
 40
1.0
 40
1.0
 40
1.0
 10
9.8546545558
 20
8.5661084084
 30
0.0
 10
9.8577825515
 20
8.5654174136
 30
0.0
 10
9.864098389
 20
8.5638823245
 30
0.0
 10
9.871915809
 20
8.5615766761
 30
0.0
 10
9.8781283714
 20
8.5594464927
 30
0.0
 10
9.882664234
 20
8.5577275936
 30
0.0
 10
9.8870090799
 20
8.5559058863
 30
0.0
 10
9.8911023062
 20
8.554005057
 30
0.0
 10
9.8948974958
 20
8.5520512657
 30
0.0
 10
9.89836691
 20
8.5500695296
 30
0.0
 10
9.9015012941
 20
8.5480810026
 30
0.0
 10
9.904306065
 20
8.5461019068
 30
0.0
 10
9.9067968244
 20
8.5441431756
 30
0.0
 10
9.9096185496
 20
8.5416631716
 30
0.0
 10
9.9114998143
 20
8.5397112813
 30
0.0
 10
9.9126145221
 20
8.5383873746
 30
0.0
  0
SPLINE
  5
33E
100
AcDbEntity
  8
0
100
AcDbSpline
 62
7
  6
CONTINUOUS
 70
0
 71
3
 72
64
 73
60
 74
0
 42
0.0000001
 43
0.0000001
 44
0.0000000001
 40
0.0
 40
0.0
 40
0.0
 40
0.0
 40
0.0452102438
 40
0.0910011378
 40
0.1371887914
 40
0.1835862952
 40
0.2300060483
 40
0.2762602665
 40
0.3221620218
 40
0.3675262007
 40
0.412170475
 40
0.4559162947
 40
0.4985898755
 40
0.5400232149
 40
0.5800551623
 40
0.5994977477
 40
0.6185332455
 40
0.6371439809
 40
0.6553128992
 40
0.6730236615
 40
0.6902607075
 40
0.707009241
 40
0.7232553821
 40
0.7389861811
 40
0.7541896801
 40
0.7688550884
 40
0.7829727896
 40
0.796534521
 40
0.8095335479
 40
0.821964756
 40
0.8338249752
 40
0.8451131945
 40
0.8558308688
 40
0.8659824321
 40
0.8755757112
 40
0.8846226184
 40
0.8931399775
 40
0.9011503991
 40
0.9086835055
 40
0.9157771539
 40
0.9224786942
 40
0.9288461105
 40
0.9319269763
 40
0.9349511316
 40
0.9379288252
 40
0.9408708543
 40
0.9437884508
 40
0.9466931505
 40
0.9495966615
 40
0.952510705
 40
0.9554468664
 40
0.9584164519
 40
0.9614303466
 40
0.964498924
 40
0.9708361702
 40
0.9775010542
 40
0.9845526578
 40
0.9920393958
 40
1.0
 40
1.0
 40
1.0
 40
1.0
 10
13.2320816116
 20
9.8145354416
 30
0.0
 10
13.2320816116
 20
9.7964660972
 30
0.0
 10
13.2317593547
 20
9.7600946064
 30
0.0
 10
13.2303383733
 20
9.7052798156
 30
0.0
 10
13.2279821225
 20
9.6500221937
 30
0.0
 10
13.2247006609
 20
9.5945600922
 30
0.0
 10
13.2205081237
 20
9.5391327227
 30
0.0
 10
13.2154226101
 20
9.4839790938
 30
0.0
 10
13.2094661069
 20
9.4293370278
 30
0.0
 10
13.2026643876
 20
9.3754421289
 30
0.0
 10
13.1950469093
 20
9.3225267412
 30
0.0
 10
13.1866467052
 20
9.2708189599
 30
0.0
 10
13.1775002348
 20
9.2205415372
 30
0.0
 10
13.1676471766
 20
9.1719112626
 30
0.0
 10
13.1587994566
 20
9.1325598006
 30
0.0
 10
13.1513860874
 20
9.102069074
 30
0.0
 10
13.1457307508
 20
9.0799635382
 30
0.0
 10
13.1399322814
 20
9.0584218437
 30
0.0
 10
13.1339968921
 20
9.0374671871
 30
0.0
 10
13.127931009
 20
9.0171221506
 30
0.0
 10
13.1217412209
 20
8.9974086397
 30
0.0
 10
13.1154341859
 20
8.9783478855
 30
0.0
 10
13.10901675
 20
8.9599603927
 30
0.0
 10
13.1024958609
 20
8.9422659322
 30
0.0
 10
13.0958785324
 20
8.9252835262
 30
0.0
 10
13.0891719577
 20
8.9090313917
 30
0.0
 10
13.0823833539
 20
8.8935269568
 30
0.0
 10
13.0755200288
 20
8.8787868196
 30
0.0
 10
13.0685894081
 20
8.8648267078
 30
0.0
 10
13.0615988803
 20
8.8516615083
 30
0.0
 10
13.054555937
 20
8.8393051875
 30
0.0
 10
13.0474680704
 20
8.8277707976
 30
0.0
 10
13.0403426858
 20
8.8170704968
 30
0.0
 10
13.0331872321
 20
8.8072154453
 30
0.0
 10
13.0260089749
 20
8.7982158995
 30
0.0
 10
13.0188150119
 20
8.7900811989
 30
0.0
 10
13.0116122856
 20
8.7828197429
 30
0.0
 10
13.0044072965
 20
8.7764392359
 30
0.0
 10
12.9972063672
 20
8.7709467304
 30
0.0
 10
12.9900152012
 20
8.7663488355
 30
0.0
 10
12.9828404033
 20
8.7626524573
 30
0.0
 10
12.976813072
 20
8.7603032748
 30
0.0
 10
12.9720267105
 20
8.7589015597
 30
0.0
 10
12.9684861924
 20
8.7580896991
 30
0.0
 10
12.9649571258
 20
8.7575064155
 30
0.0
 10
12.961440486
 20
8.7571519194
 30
0.0
 10
12.9579373898
 20
8.757026367
 30
0.0
 10
12.954448939
 20
8.7571299028
 30
0.0
 10
12.9509762636
 20
8.7574625267
 30
0.0
 10
12.9475204731
 20
8.7580240524
 30
0.0
 10
12.9440826573
 20
8.7588142961
 30
0.0
 10
12.9406639157
 20
8.7598329538
 30
0.0
 10
12.9372651607
 20
8.7610796134
 30
0.0
 10
12.9327133862
 20
8.7630660548
 30
0.0
 10
12.9270607817
 20
8.7661466344
 30
0.0
 10
12.9204541967
 20
8.7707069726
 30
0.0
 10
12.9139552258
 20
8.7761632336
 30
0.0
 10
12.9075698962
 20
8.7825073892
 30
0.0
 10
12.9035205186
 20
8.7871755263
 30
0.0
 10
12.9015129966
 20
8.7896438686
 30
0.0
  0
SPLINE
  5
33F
100
AcDbEntity
  8
0
100
AcDbSpline
 62
7
  6
CONTINUOUS
 70
0
 71
3
 72
40
 73
36
 74
0
 42
0.0000001
 43
0.0000001
 44
0.0000000001
 40
0.0
 40
0.0
 40
0.0
 40
0.0
 40
0.0311448352
 40
0.0467776712
 40
0.0624478163
 40
0.0938928931
 40
0.1254753683
 40
0.1571831038
 40
0.1890013145
 40
0.2209130644
 40
0.2528995674
 40
0.2849405815
 40
0.3170148072
 40
0.349100303
 40
0.3811749104
 40
0.4132166804
 40
0.4452042987
 40
0.4771175008
 40
0.5089374741
 40
0.5406472387
 40
0.5722320012
 40
0.6036794751
 40
0.6349801612
 40
0.6661275796
 40
0.6971184487
 40
0.7279528012
 40
0.7586340346
 40
0.7891688873
 40
0.8195673392
 40
0.849842433
 40
0.8800100174
 40
0.9100884154
 40
0.9400980228
 40
0.9700608475
 40
1.0
 40
1.0
 40
1.0
 40
1.0
 10
9.0882620601
 20
5.919886372
 30
0.0
 10
9.0812567404
 20
5.9203721926
 30
0.0
 10
9.070756709
 20
5.9214861793
 30
0.0
 10
9.0568537211
 20
5.9237248423
 30
0.0
 10
9.0429728118
 20
5.9264732387
 30
0.0
 10
9.0257606933
 20
5.9308502944
 30
0.0
 10
9.0054669407
 20
5.9375687438
 30
0.0
 10
8.985615332
 20
5.9457237823
 30
0.0
 10
8.9663123033
 20
5.955271688
 30
0.0
 10
8.9476605381
 20
5.9661614598
 30
0.0
 10
8.9297594629
 20
5.9783349492
 30
0.0
 10
8.9127044433
 20
5.9917272003
 30
0.0
 10
8.896586358
 20
6.0062667871
 30
0.0
 10
8.8814910995
 20
6.0218761926
 30
0.0
 10
8.8674991267
 20
6.0384722183
 30
0.0
 10
8.8546850388
 20
6.0559664229
 30
0.0
 10
8.8431171814
 20
6.0742655885
 30
0.0
 10
8.8328572855
 20
6.0932722127
 30
0.0
 10
8.8239601381
 20
6.1128850203
 30
0.0
 10
8.8164732923
 20
6.1329994979
 30
0.0
 10
8.8104368141
 20
6.1535084435
 30
0.0
 10
8.8058830672
 20
6.1743025302
 30
0.0
 10
8.8028365366
 20
6.1952708813
 30
0.0
 10
8.8013136937
 20
6.2163016534
 30
0.0
 10
8.8013229002
 20
6.2372826254
 30
0.0
 10
8.8028643548
 20
6.2581017914
 30
0.0
 10
8.8059300806
 20
6.2786479534
 30
0.0
 10
8.8105039537
 20
6.2988113129
 30
0.0
 10
8.8165617786
 20
6.3184840602
 30
0.0
 10
8.8240713928
 20
6.3375609452
 30
0.0
 10
8.8329928618
 20
6.3559398841
 30
0.0
 10
8.8432785467
 20
6.3735223834
 30
0.0
 10
8.8548738521
 20
6.3902145774
 30
0.0
 10
8.8677156437
 20
6.4059259038
 30
0.0
 10
8.8770661518
 20
6.4156942354
 30
0.0
 10
8.8819213258
 20
6.4203839987
 30
0.0
  0
SPLINE
  5
340
100
AcDbEntity
  8
0
100
AcDbSpline
 62
7
  6
CONTINUOUS
 70
0
 71
3
 72
21
 73
17
 74
0
 42
0.0000001
 43
0.0000001
 44
0.0000000001
 40
0.0
 40
0.0
 40
0.0
 40
0.0
 40
0.127022667
 40
0.2533990101
 40
0.3163606356
 40
0.3791674048
 40
0.4418234886
 40
0.5043336842
 40
0.5667036318
 40
0.6289397911
 40
0.6910493757
 40
0.7530403387
 40
0.814921315
 40
0.8767015794
 40
0.9383910062
 40
1.0
 40
1.0
 40
1.0
 40
1.0
 10
10.1080496632
 20
8.5212291882
 30
0.0
 10
10.1265104099
 20
8.5199489311
 30
0.0
 10
10.1634448893
 20
8.5187385491
 30
0.0
 10
10.2095385387
 20
8.520637943
 30
0.0
 10
10.2461055708
 20
8.5242053292
 30
0.0
 10
10.2733136337
 20
8.5278944549
 30
0.0
 10
10.3002982256
 20
8.5325953649
 30
0.0
 10
10.3270232956
 20
8.5383016958
 30
0.0
 10
10.3534526172
 20
8.5450057211
 30
0.0
 10
10.3795504727
 20
8.5526984706
 30
0.0
 10
10.4052815762
 20
8.5613695364
 30
0.0
 10
10.4306111684
 20
8.5710071743
 30
0.0
 10
10.4555049443
 20
8.5815984176
 30
0.0
 10
10.4799293676
 20
8.5931290321
 30
0.0
 10
10.5038509807
 20
8.6055830974
 30
0.0
 10
10.5194523325
 20
8.6144962728
 30
0.0
 10
10.5271569163
 20
8.6191003218
 30
0.0
  0
SPLINE
  5
341
100
AcDbEntity
  8
0
100
AcDbSpline
 62
7
  6
CONTINUOUS
 70
0
 71
3
 72
43
 73
39
 74
0
 42
0.0000001
 43
0.0000001
 44
0.0000000001
 40
0.0
 40
0.0
 40
0.0
 40
0.0
 40
0.0310091444
 40
0.062157145
 40
0.0934395493
 40
0.1248488956
 40
0.1563758924
 40
0.1880092274
 40
0.2197358454
 40
0.2515411714
 40
0.2834093571
 40
0.3153235436
 40
0.3472661359
 40
0.3792190868
 40
0.4111641841
 40
0.4430833403
 40
0.4749588816
 40
0.5067738313
 40
0.538512186
 40
0.5701591794
 40
0.6017015332
 40
0.6331276893
 40
0.6644280186
 40
0.6955950038
 40
0.7266233935
 40
0.7575103235
 40
0.788255398
 40
0.8188607296
 40
0.8341145396
 40
0.8493353549
 40
0.8645241344
 40
0.8796819862
 40
0.9099055255
 40
0.9400220919
 40
0.9550467607
 40
0.970049965
 40
0.9850336858
 40
1.0
 40
1.0
 40
1.0
 40
1.0
 10
10.1080496632
 20
8.5212291882
 30
0.0
 10
10.0912982687
 20
8.5223909014
 30
0.0
 10
10.0577873456
 20
8.5258326089
 30
0.0
 10
10.0078666269
 20
8.534290173
 30
0.0
 10
9.9583867499
 20
8.5460173716
 30
0.0
 10
9.9095682571
 20
8.5609622173
 30
0.0
 10
9.8616252709
 20
8.5790586311
 30
0.0
 10
9.8147689007
 20
8.6002267204
 30
0.0
 10
9.7692051934
 20
8.6243730902
 30
0.0
 10
9.725134571
 20
8.6513913129
 30
0.0
 10
9.68275087
 20
8.6811623844
 30
0.0
 10
9.6422405213
 20
8.7135552347
 30
0.0
 10
9.6037816905
 20
8.7484272562
 30
0.0
 10
9.5675435476
 20
8.7856249899
 30
0.0
 10
9.5336855253
 20
8.8249847839
 30
0.0
 10
9.5023566373
 20
8.8663335135
 30
0.0
 10
9.4736947719
 20
8.9094892913
 30
0.0
 10
9.4478261146
 20
8.9542622905
 30
0.0
 10
9.4248646209
 20
9.0004555837
 30
0.0
 10
9.4049115189
 20
9.0478659968
 30
0.0
 10
9.3880548429
 20
9.0962849779
 30
0.0
 10
9.3743690037
 20
9.1454995007
 30
0.0
 10
9.3639145238
 20
9.195293004
 30
0.0
 10
9.3567377642
 20
9.2454463723
 30
0.0
 10
9.3528706909
 20
9.2957387104
 30
0.0
 10
9.3523307723
 20
9.3459489543
 30
0.0
 10
9.3551204813
 20
9.3958544214
 30
0.0
 10
9.360216716
 20
9.4370565319
 30
0.0
 10
9.3659433231
 20
9.4696375001
 30
0.0
 10
9.371051541
 20
9.4938361778
 30
0.0
 10
9.3769720321
 20
9.5177955512
 30
0.0
 10
9.3859303369
 20
9.5493531645
 30
0.0
 10
9.3991224015
 20
9.5880855056
 30
0.0
 10
9.4149452828
 20
9.6257420646
 30
0.0
 10
9.429122631
 20
9.6550691159
 30
0.0
 10
9.4404965411
 20
9.6766326495
 30
0.0
 10
9.4526059358
 20
9.6977548397
 30
0.0
 10
9.4611653693
 20
9.7115350105
 30
0.0
 10
9.4655626094
 20
9.7183427032
 30
0.0
  0
SPLINE
  5
342
100
AcDbEntity
  8
0
100
AcDbSpline
 62
7
  6
CONTINUOUS
 70
0
 71
3
 72
42
 73
38
 74
0
 42
0.0000001
 43
0.0000001
 44
0.0000000001
 40
0.0
 40
0.0
 40
0.0
 40
0.0
 40
0.0310942582
 40
0.062336118
 40
0.093720251
 40
0.1252378796
 40
0.1568779719
 40
0.1886271638
 40
0.2204700739
 40
0.2523896042
 40
0.2843672613
 40
0.3163835011
 40
0.3484180852
 40
0.3804504459
 40
0.412460055
 40
0.4444267934
 40
0.4763313135
 40
0.5081553952
 40
0.5398822841
 40
0.57149701
 40
0.6029866828
 40
0.6343407588
 40
0.6655512669
 40
0.6966129953
 40
0.7275236344
 40
0.7582838636
 40
0.7888973795
 40
0.8193708652
 40
0.8497138977
 40
0.8799387832
 40
0.9100603305
 40
0.9250902199
 40
0.9401008231
 40
0.9550945574
 40
0.9700739296
 40
0.9850415263
 40
1.0
 40
1.0
 40
1.0
 40
1.0
 10
10.1080496632
 20
8.5666277048
 30
0.0
 10
10.0913248637
 20
8.5677875736
 30
0.0
 10
10.0578661654
 20
8.571293623
 30
0.0
 10
10.0080599591
 20
8.5800441939
 30
0.0
 10
9.9587501664
 20
8.5922556059
 30
0.0
 10
9.9101847
 20
8.6078667919
 30
0.0
 10
9.8626037826
 20
8.6267998796
 30
0.0
 10
9.8162436949
 20
8.6489605353
 30
0.0
 10
9.7713343601
 20
8.6742385216
 30
0.0
 10
9.7280985964
 20
8.7025082279
 30
0.0
 10
9.686750847
 20
8.7336291797
 30
0.0
 10
9.6474962031
 20
8.7674468261
 30
0.0
 10
9.6105294234
 20
8.8037933267
 30
0.0
 10
9.5760339482
 20
8.8424883291
 30
0.0
 10
9.5441809336
 20
8.88333981
 30
0.0
 10
9.5151285041
 20
8.9261451106
 30
0.0
 10
9.4890209856
 20
8.9706919184
 30
0.0
 10
9.4659880885
 20
9.016759242
 30
0.0
 10
9.4461443111
 20
9.0641185386
 30
0.0
 10
9.4295884361
 20
9.1125348573
 30
0.0
 10
9.416403014
 20
9.1617679664
 30
0.0
 10
9.4066538322
 20
9.2115735037
 30
0.0
 10
9.4003897136
 20
9.2617042201
 30
0.0
 10
9.3976422782
 20
9.3119111748
 30
0.0
 10
9.3984256684
 20
9.3619449487
 30
0.0
 10
9.4027364585
 20
9.4115568747
 30
0.0
 10
9.4105537763
 20
9.4605003105
 30
0.0
 10
9.4218392566
 20
9.5085316616
 30
0.0
 10
9.4365374688
 20
9.5554123055
 30
0.0
 10
9.4545747961
 20
9.6009072645
 30
0.0
 10
9.4723306625
 20
9.6375092267
 30
0.0
 10
9.4881035708
 20
9.6658605684
 30
0.0
 10
9.5006967586
 20
9.6866274751
 30
0.0
 10
9.5140448598
 20
9.7068843744
 30
0.0
 10
9.5281316231
 20
9.7266064987
 30
0.0
 10
9.5429391047
 20
9.7457689249
 30
0.0
 10
9.5532822625
 20
9.7581587407
 30
0.0
 10
9.5585667764
 20
9.7642513413
 30
0.0
  0
SPLINE
  5
343
100
AcDbEntity
  8
0
100
AcDbSpline
 62
7
  6
CONTINUOUS
 70
0
 71
3
 72
45
 73
41
 74
0
 42
0.0000001
 43
0.0000001
 44
0.0000000001
 40
0.0
 40
0.0
 40
0.0
 40
0.0
 40
0.0311131956
 40
0.0623760563
 40
0.093783047
 40
0.1253250413
 40
0.1569905747
 40
0.1887657635
 40
0.2206346414
 40
0.2525794795
 40
0.284581128
 40
0.316619382
 40
0.3486733596
 40
0.3807218888
 40
0.4127438981
 40
0.4447188059
 40
0.4766269032
 40
0.5084497258
 40
0.5401704101
 40
0.5717740241
 40
0.6032478719
 40
0.6345817682
 40
0.665768267
 40
0.6968028451
 40
0.727684037
 40
0.7584135112
 40
0.7889960798
 40
0.8194396425
 40
0.8346152087
 40
0.8497603351
 40
0.8648768123
 40
0.879966584
 40
0.8950317432
 40
0.9100745203
 40
0.925097267
 40
0.9401024496
 40
0.955092633
 40
0.970070464
 40
0.985038662
 40
1.0
 40
1.0
 40
1.0
 40
1.0
 10
10.1147739737
 20
8.5876117786
 30
0.0
 10
10.0981625424
 20
8.5887637853
 30
0.0
 10
10.064930408
 20
8.5922625329
 30
0.0
 10
10.0154703769
 20
8.6010259953
 30
0.0
 10
9.9665171524
 20
8.6132729949
 30
0.0
 10
9.9183237225
 20
8.6289405722
 30
0.0
 10
9.8711351214
 20
8.6479483928
 30
0.0
 10
9.8251922167
 20
8.6701991057
 30
0.0
 10
9.7807292149
 20
8.695578932
 30
0.0
 10
9.7379728711
 20
8.723958236
 30
0.0
 10
9.6971411733
 20
8.7551920787
 30
0.0
 10
9.6584423002
 20
8.7891210183
 30
0.0
 10
9.622073604
 20
8.82557196
 30
0.0
 10
9.5882206097
 20
8.8643590036
 30
0.0
 10
9.5570559823
 20
8.9052843048
 30
0.0
 10
9.5287387496
 20
8.9481391715
 30
0.0
 10
9.5034135179
 20
8.9927051115
 30
0.0
 10
9.4812096703
 20
9.0387548862
 30
0.0
 10
9.4622406792
 20
9.0860536557
 30
0.0
 10
9.4466036266
 20
9.1343602101
 30
0.0
 10
9.4343787104
 20
9.183428166
 30
0.0
 10
9.4256286992
 20
9.233007175
 30
0.0
 10
9.4203986811
 20
9.2828442063
 30
0.0
 10
9.41871589
 20
9.332684874
 30
0.0
 10
9.4205894444
 20
9.3822745052
 30
0.0
 10
9.4260104291
 20
9.4313601831
 30
0.0
 10
9.4349510761
 20
9.4796892829
 30
0.0
 10
9.445310331
 20
9.5191757215
 30
0.0
 10
9.4553050474
 20
9.5501283901
 30
0.0
 10
9.4636367461
 20
9.5729801409
 30
0.0
 10
9.4728004619
 20
9.5954612414
 30
0.0
 10
9.4827846954
 20
9.6175433222
 30
0.0
 10
9.4935765858
 20
9.6391980737
 30
0.0
 10
9.5051623557
 20
9.6603978434
 30
0.0
 10
9.5175272844
 20
9.6811154652
 30
0.0
 10
9.5306554753
 20
9.7013245173
 30
0.0
 10
9.5445301809
 20
9.7209991045
 30
0.0
 10
9.5591337865
 20
9.7401141298
 30
0.0
 10
9.5744472126
 20
9.7586448897
 30
0.0
 10
9.5851189721
 20
9.7705961866
 30
0.0
 10
9.5905654733
 20
9.7764655239
 30
0.0
  0
SPLINE
  5
344
100
AcDbEntity
  8
0
100
AcDbSpline
 62
7
  6
CONTINUOUS
 70
0
 71
3
 72
40
 73
36
 74
0
 42
0.0000001
 43
0.0000001
 44
0.0000000001
 40
0.0
 40
0.0
 40
0.0
 40
0.0
 40
0.0310688088
 40
0.0622825121
 40
0.0936360885
 40
0.1251211565
 40
0.1567272546
 40
0.1884416713
 40
0.220249767
 40
0.2521352455
 40
0.284080452
 40
0.3160666889
 40
0.348074546
 40
0.3800842389
 40
0.4120759511
 40
0.4440301776
 40
0.4759280641
 40
0.5077517388
 40
0.5394846307
 40
0.5711117721
 40
0.6026200818
 40
0.6339986191
 40
0.6652388075
 40
0.6963346221
 40
0.7272827396
 40
0.7580826377
 40
0.7887366441
 40
0.8192499325
 40
0.8496304615
 40
0.8798888534
 40
0.9100382109
 40
0.9400938767
 40
0.970073139
 40
0.9850425235
 40
1.0
 40
1.0
 40
1.0
 40
1.0
 10
10.1567076035
 20
8.628116557
 30
0.0
 10
10.1406205791
 20
8.629232196
 30
0.0
 10
10.1084380786
 20
8.6325838103
 30
0.0
 10
10.060520515
 20
8.6409097309
 30
0.0
 10
10.0130633834
 20
8.6525062961
 30
0.0
 10
9.9662967419
 20
8.6673175838
 30
0.0
 10
9.9204436693
 20
8.6852723648
 30
0.0
 10
9.8757237428
 20
8.7062844101
 30
0.0
 10
9.8323508259
 20
8.7302528991
 30
0.0
 10
9.7905324029
 20
8.7570629428
 30
0.0
 10
9.7504685136
 20
8.786586131
 30
0.0
 10
9.7123508031
 20
8.8186810955
 30
0.0
 10
9.6763615948
 20
8.8531941826
 30
0.0
 10
9.6426730697
 20
8.8899602324
 30
0.0
 10
9.6114464501
 20
8.9288033516
 30
0.0
 10
9.5828312235
 20
8.9695377317
 30
0.0
 10
9.5569643786
 20
9.0119684972
 30
0.0
 10
9.5339698236
 20
9.0558926829
 30
0.0
 10
9.5139577899
 20
9.1011001819
 30
0.0
 10
9.4970243162
 20
9.1473747377
 30
0.0
 10
9.483250702
 20
9.1944949361
 30
0.0
 10
9.4727031887
 20
9.2422352865
 30
0.0
 10
9.4654326424
 20
9.2903672836
 30
0.0
 10
9.4614743166
 20
9.3386604827
 30
0.0
 10
9.4608475908
 20
9.3868835824
 30
0.0
 10
9.4635558959
 20
9.4348055338
 30
0.0
 10
9.4695867226
 20
9.4821966398
 30
0.0
 10
9.4789116525
 20
9.5288296301
 30
0.0
 10
9.4914864578
 20
9.5744807993
 30
0.0
 10
9.5072511398
 20
9.6189309374
 30
0.0
 10
9.5261307375
 20
9.6619669837
 30
0.0
 10
9.5480339143
 20
9.7033807896
 30
0.0
 10
9.5687333319
 20
9.7363967362
 30
0.0
 10
9.5866859251
 20
9.7617901588
 30
0.0
 10
9.5961181438
 20
9.7741369315
 30
0.0
 10
9.6009444724
 20
9.7802177825
 30
0.0
  0
SPLINE
  5
345
100
AcDbEntity
  8
0
100
AcDbSpline
 62
7
  6
CONTINUOUS
 70
0
 71
3
 72
39
 73
35
 74
0
 42
0.0000001
 43
0.0000001
 44
0.0000000001
 40
0.0
 40
0.0
 40
0.0
 40
0.0
 40
0.0311218488
 40
0.0623941839
 40
0.0938114003
 40
0.1253642166
 40
0.1570409995
 40
0.1888276526
 40
0.2207079725
 40
0.2526639748
 40
0.2846762449
 40
0.3167243112
 40
0.3487870333
 40
0.3808429973
 40
0.4128709152
 40
0.4448500234
 40
0.4767604727
 40
0.5085837071
 40
0.5403028259
 40
0.5719029225
 40
0.6033713911
 40
0.6346982
 40
0.6658761263
 40
0.6969009381
 40
0.7277715228
 40
0.7584899562
 40
0.7890615096
 40
0.8194945829
 40
0.8498005657
 40
0.8799936292
 40
0.9100904476
 40
0.9401098492
 40
0.9700724103
 40
1.0
 40
1.0
 40
1.0
 40
1.0
 10
10.1687426792
 20
8.6846571017
 30
0.0
 10
10.1531191236
 20
8.685740599
 30
0.0
 10
10.1218632065
 20
8.689037445
 30
0.0
 10
10.0753477826
 20
8.6973067993
 30
0.0
 10
10.0293142309
 20
8.7088698018
 30
0.0
 10
9.9840030422
 20
8.7236663545
 30
0.0
 10
9.9396471183
 20
8.7416197693
 30
0.0
 10
9.8964753383
 20
8.7626370961
 30
0.0
 10
9.8547101804
 20
8.7866096784
 30
0.0
 10
9.8145669518
 20
8.8134137145
 30
0.0
 10
9.7762525778
 20
8.8429108576
 30
0.0
 10
9.7399645284
 20
8.8749488752
 30
0.0
 10
9.7058898673
 20
8.9093625205
 30
0.0
 10
9.6742043081
 20
8.9459743656
 30
0.0
 10
9.6450712741
 20
8.9845956635
 30
0.0
 10
9.6186410319
 20
9.0250273
 30
0.0
 10
9.595049997
 20
9.0670608693
 30
0.0
 10
9.5744200425
 20
9.1104797235
 30
0.0
 10
9.5568577994
 20
9.1550600367
 30
0.0
 10
9.5424541075
 20
9.2005719587
 30
0.0
 10
9.5312836155
 20
9.2467808118
 30
0.0
 10
9.5234043972
 20
9.2934482722
 30
0.0
 10
9.5188575397
 20
9.3403335624
 30
0.0
 10
9.5176669608
 20
9.3871946992
 30
0.0
 10
9.5198393231
 20
9.4337897294
 30
0.0
 10
9.5253639817
 20
9.4798779543
 30
0.0
 10
9.5342128932
 20
9.5252211781
 30
0.0
 10
9.546340821
 20
9.5695849467
 30
0.0
 10
9.561685551
 20
9.6127397291
 30
0.0
 10
9.5801682572
 20
9.6544621848
 30
0.0
 10
9.601693488
 20
9.6945360921
 30
0.0
 10
9.6261507936
 20
9.7327545699
 30
0.0
 10
9.6534113988
 20
9.7689170377
 30
0.0
 10
9.6733726513
 20
9.7915436069
 30
0.0
 10
9.6837634326
 20
9.8024449149
 30
0.0
  0
SPLINE
  5
346
100
AcDbEntity
  8
0
100
AcDbSpline
 62
7
  6
CONTINUOUS
 70
0
 71
3
 72
42
 73
38
 74
0
 42
0.0000001
 43
0.0000001
 44
0.0000000001
 40
0.0
 40
0.0
 40
0.0
 40
0.0
 40
0.0307880151
 40
0.0462275343
 40
0.0616954492
 40
0.0927133064
 40
0.1238401758
 40
0.1550703011
 40
0.1863967697
 40
0.2178115213
 40
0.2493054805
 40
0.2808686594
 40
0.3124902809
 40
0.3441589042
 40
0.3758625583
 40
0.4075888776
 40
0.4393252427
 40
0.4710589212
 40
0.5027772112
 40
0.5344675829
 40
0.5661178204
 40
0.5977161597
 40
0.629251424
 40
0.660713154
 40
0.6920917318
 40
0.7233784982
 40
0.7545658612
 40
0.7856473944
 40
0.8166179242
 40
0.8474736055
 40
0.8628590257
 40
0.8782149304
 40
0.9088349794
 40
0.939337143
 40
0.9545460813
 40
0.9697263897
 40
1.0
 40
1.0
 40
1.0
 40
1.0
 10
10.4802311429
 20
8.9855318712
 30
0.0
 10
10.4681308357
 20
8.9863710304
 30
0.0
 10
10.4499923498
 20
8.9881361682
 30
0.0
 10
10.425916282
 20
8.9914855945
 30
0.0
 10
10.4018510885
 20
8.9955083301
 30
0.0
 10
10.3719088374
 20
9.0017845079
 30
0.0
 10
10.336349865
 20
9.0112755812
 30
0.0
 10
10.3012372125
 20
9.0227041482
 30
0.0
 10
10.2666803485
 20
9.0360345629
 30
0.0
 10
10.2327861632
 20
9.051225458
 30
0.0
 10
10.1996597138
 20
9.0682296666
 30
0.0
 10
10.1674036122
 20
9.0869944314
 30
0.0
 10
10.1361177875
 20
9.1074615492
 30
0.0
 10
10.1058991575
 20
9.1295675563
 30
0.0
 10
10.0768413364
 20
9.1532439229
 30
0.0
 10
10.0490343452
 20
9.1784172653
 30
0.0
 10
10.0225643345
 20
9.2050095715
 30
0.0
 10
9.9975133199
 20
9.2329384425
 30
0.0
 10
9.9739589286
 20
9.2621173455
 30
0.0
 10
9.9519741608
 20
9.2924558809
 30
0.0
 10
9.9316271641
 20
9.3238600601
 30
0.0
 10
9.9129810237
 20
9.3562325957
 30
0.0
 10
9.8960935674
 20
9.3894731997
 30
0.0
 10
9.8810171867
 20
9.4234788938
 30
0.0
 10
9.8677986752
 20
9.4581443207
 30
0.0
 10
9.8564790824
 20
9.4933620895
 30
0.0
 10
9.8470935889
 20
9.5290230233
 30
0.0
 10
9.8396713863
 20
9.5650168033
 30
0.0
 10
9.834235623
 20
9.6012311633
 30
0.0
 10
9.8313725004
 20
9.6315314883
 30
0.0
 10
9.8300920666
 20
9.6557673694
 30
0.0
 10
9.8294856378
 20
9.6799366417
 30
0.0
 10
9.8299854824
 20
9.7100787307
 30
0.0
 10
9.8321690493
 20
9.7400879591
 30
0.0
 10
9.8349228439
 20
9.7639213735
 30
0.0
 10
9.8383379131
 20
9.7875773697
 30
0.0
 10
9.841652133
 20
9.8051882594
 30
0.0
 10
9.8441935488
 20
9.8168410571
 30
0.0
  0
SPLINE
  5
347
100
AcDbEntity
  8
0
100
AcDbSpline
 62
7
  6
CONTINUOUS
 70
0
 71
3
 72
40
 73
36
 74
0
 42
0.0000001
 43
0.0000001
 44
0.0000000001
 40
0.0
 40
0.0
 40
0.0
 40
0.0
 40
0.030786493
 40
0.0616893228
 40
0.0927052991
 40
0.1238301364
 40
0.1550581004
 40
0.1863823104
 40
0.2177947408
 40
0.2492863555
 40
0.2808472088
 40
0.3124665678
 40
0.3441330376
 40
0.3758346932
 40
0.4075592148
 40
0.439294027
 40
0.4710264395
 40
0.5027437885
 40
0.5344335789
 40
0.5660836238
 40
0.5976821828
 40
0.6292180959
 40
0.6606809134
 40
0.6920610193
 40
0.7233497476
 40
0.754539491
 40
0.7856237987
 40
0.8165974641
 40
0.8474565994
 40
0.8781986966
 40
0.9088226741
 40
0.9393289056
 40
0.9545399011
 40
0.9697222735
 40
1.0
 40
1.0
 40
1.0
 40
1.0
 10
10.4901750427
 20
9.0322481135
 30
0.0
 10
10.4787831256
 20
9.0330381456
 30
0.0
 10
10.4559952303
 20
9.0352546626
 30
0.0
 10
10.4219888985
 20
9.0404599791
 30
0.0
 10
10.3881929846
 20
9.0475363446
 30
0.0
 10
10.3547133179
 20
9.0564616392
 30
0.0
 10
10.321652929
 20
9.067208237
 30
0.0
 10
10.2891140464
 20
9.079742815
 30
0.0
 10
10.2571971387
 20
9.0940265746
 30
0.0
 10
10.226000784
 20
9.1100153123
 30
0.0
 10
10.1956213203
 20
9.1276595767
 30
0.0
 10
10.1661525623
 20
9.1469048135
 30
0.0
 10
10.1376855109
 20
9.1676915365
 30
0.0
 10
10.1103080748
 20
9.1899555094
 30
0.0
 10
10.0841048008
 20
9.2136279444
 30
0.0
 10
10.0591566141
 20
9.2386357128
 30
0.0
 10
10.0355405702
 20
9.2649015704
 30
0.0
 10
10.0133296179
 20
9.2923443943
 30
0.0
 10
9.9925923757
 20
9.3208794323
 30
0.0
 10
9.9733929204
 20
9.3504185627
 30
0.0
 10
9.9557905903
 20
9.3808705652
 30
0.0
 10
9.9398398027
 20
9.4121414002
 30
0.0
 10
9.9255898858
 20
9.4441344974
 30
0.0
 10
9.9130849272
 20
9.4767510521
 30
0.0
 10
9.9023636368
 20
9.5098903274
 30
0.0
 10
9.8934592277
 20
9.5434499647
 30
0.0
 10
9.8863993112
 20
9.5773262914
 30
0.0
 10
9.8812058136
 20
9.6114146598
 30
0.0
 10
9.877894897
 20
9.6456096912
 30
0.0
 10
9.876476941
 20
9.6798058825
 30
0.0
 10
9.8769563828
 20
9.7138968783
 30
0.0
 10
9.8789381244
 20
9.7421599955
 30
0.0
 10
9.8814702971
 20
9.764609148
 30
0.0
 10
9.8846243423
 20
9.7868931949
 30
0.0
 10
9.8876978147
 20
9.8034849417
 30
0.0
 10
9.8900589789
 20
9.8144644935
 30
0.0
  0
SPLINE
  5
348
100
AcDbEntity
  8
0
100
AcDbSpline
 62
7
  6
CONTINUOUS
 70
0
 71
3
 72
39
 73
35
 74
0
 42
0.0000001
 43
0.0000001
 44
0.0000000001
 40
0.0
 40
0.0
 40
0.0
 40
0.0
 40
0.03078211
 40
0.061680148
 40
0.0926908019
 40
0.123809948
 40
0.155031868
 40
0.1863497803
 40
0.2177557447
 40
0.2492408296
 40
0.2807951987
 40
0.3124082358
 40
0.3440686656
 40
0.375764684
 40
0.407484091
 40
0.439214427
 40
0.4709431114
 40
0.5026575821
 40
0.5343454341
 40
0.5659945581
 40
0.5975932759
 40
0.6291304727
 40
0.6605957249
 40
0.6919794222
 40
0.7232728832
 40
0.7544684617
 40
0.7855596451
 40
0.8165411412
 40
0.8474089528
 40
0.8781604398
 40
0.9087943656
 40
0.9393109285
 40
0.9697117759
 40
1.0
 40
1.0
 40
1.0
 40
1.0
 10
10.4958484318
 20
9.0464984942
 30
0.0
 10
10.4846662619
 20
9.0472739804
 30
0.0
 10
10.4622979382
 20
9.0494470785
 30
0.0
 10
10.4289165751
 20
9.0545450089
 30
0.0
 10
10.3957400285
 20
9.0614720781
 30
0.0
 10
10.3628713522
 20
9.0702067696
 30
0.0
 10
10.3304108338
 20
9.0807223048
 30
0.0
 10
10.2984580226
 20
9.0929863297
 30
0.0
 10
10.2671107556
 20
9.1069612074
 30
0.0
 10
10.2364650482
 20
9.1226040456
 30
0.0
 10
10.2066147518
 20
9.1398668661
 30
0.0
 10
10.1776512815
 20
9.1586967365
 30
0.0
 10
10.1496633352
 20
9.179035938
 30
0.0
 10
10.1227366242
 20
9.200822139
 30
0.0
 10
10.0969536125
 20
9.2239885865
 30
0.0
 10
10.072393266
 20
9.2484643093
 30
0.0
 10
10.0491308118
 20
9.2741743339
 30
0.0
 10
10.0272375094
 20
9.3010399136
 30
0.0
 10
10.0067804334
 20
9.3289787677
 30
0.0
 10
9.9878222691
 20
9.3579053321
 30
0.0
 10
9.9704211214
 20
9.3877310198
 30
0.0
 10
9.9546303375
 20
9.4183644903
 30
0.0
 10
9.9404983438
 20
9.4497119276
 30
0.0
 10
9.9280684976
 20
9.4816773251
 30
0.0
 10
9.9173789539
 20
9.5141627775
 30
0.0
 10
9.9084625484
 20
9.5470687787
 30
0.0
 10
9.9013466962
 20
9.5802945238
 30
0.0
 10
9.8960533075
 20
9.6137382182
 30
0.0
 10
9.8925987157
 20
9.6472973755
 30
0.0
 10
9.890993635
 20
9.6808691731
 30
0.0
 10
9.8912430913
 20
9.7143506026
 30
0.0
 10
9.8933465276
 20
9.747639387
 30
0.0
 10
9.8972973428
 20
9.7806320549
 30
0.0
 10
9.9011625038
 20
9.802405051
 30
0.0
 10
9.9033990355
 20
9.8132050889
 30
0.0
  0
SPLINE
  5
349
100
AcDbEntity
  8
0
100
AcDbSpline
 62
7
  6
CONTINUOUS
 70
0
 71
3
 72
39
 73
35
 74
0
 42
0.0000001
 43
0.0000001
 44
0.0000000001
 40
0.0
 40
0.0
 40
0.0
 40
0.0
 40
0.0307008712
 40
0.06150843
 40
0.0924193236
 40
0.1234308112
 40
0.1545381742
 40
0.185736147
 40
0.2170184458
 40
0.2483780069
 40
0.2798070144
 40
0.3112969901
 40
0.3428388771
 40
0.3744231287
 40
0.4060397998
 40
0.4376786415
 40
0.4693291975
 40
0.5009809017
 40
0.5326231769
 40
0.564245534
 40
0.5958376706
 40
0.6273895676
 40
0.6588915841
 40
0.69033455
 40
0.7217098546
 40
0.7530095327
 40
0.7842263448
 40
0.8153538535
 40
0.8463864932
 40
0.8773196312
 40
0.9081496234
 40
0.9388738591
 40
0.9694907988
 40
1.0
 40
1.0
 40
1.0
 40
1.0
 10
10.5752176541
 20
9.1231632804
 30
0.0
 10
10.5649543349
 20
9.123875044
 30
0.0
 10
10.5444244689
 20
9.1258225522
 30
0.0
 10
10.5137664606
 20
9.1302937614
 30
0.0
 10
10.4832668316
 20
9.1363088515
 30
0.0
 10
10.4530055397
 20
9.1438519171
 30
0.0
 10
10.4230603072
 20
9.1529035921
 30
0.0
 10
10.3935085764
 20
9.1634403481
 30
0.0
 10
10.3644266009
 20
9.1754349641
 30
0.0
 10
10.3358894647
 20
9.1888564086
 30
0.0
 10
10.3079708317
 20
9.2036699942
 30
0.0
 10
10.2807427637
 20
9.2198374297
 30
0.0
 10
10.2542755386
 20
9.2373169407
 30
0.0
 10
10.2286374704
 20
9.2560633734
 30
0.0
 10
10.2038947339
 20
9.2760283121
 30
0.0
 10
10.180111196
 20
9.2971602031
 30
0.0
 10
10.1573482514
 20
9.3194044864
 30
0.0
 10
10.1356646659
 20
9.3427037369
 30
0.0
 10
10.1151164237
 20
9.366997809
 30
0.0
 10
10.0957565746
 20
9.3922239856
 30
0.0
 10
10.0776351079
 20
9.4183171489
 30
0.0
 10
10.0607988225
 20
9.445209946
 30
0.0
 10
10.0452912076
 20
9.4728329622
 30
0.0
 10
10.0311523308
 20
9.5011148981
 30
0.0
 10
10.018418735
 20
9.5299827527
 30
0.0
 10
10.007123345
 20
9.5593620102
 30
0.0
 10
9.9972953789
 20
9.5891768294
 30
0.0
 10
9.9889602632
 20
9.6193502382
 30
0.0
 10
9.9821395791
 20
9.6498043281
 30
0.0
 10
9.9768510068
 20
9.6804604856
 30
0.0
 10
9.9731082719
 20
9.7112394697
 30
0.0
 10
9.9709211377
 20
9.7420620757
 30
0.0
 10
9.970295271
 20
9.7728476261
 30
0.0
 10
9.9709212729
 20
9.793332186
 30
0.0
 10
9.9714956358
 20
9.8035397803
 30
0.0
  0
SPLINE
  5
34A
100
AcDbEntity
  8
0
100
AcDbSpline
 62
7
  6
CONTINUOUS
 70
0
 71
3
 72
64
 73
60
 74
0
 42
0.0000001
 43
0.0000001
 44
0.0000000001
 40
0.0
 40
0.0
 40
0.0
 40
0.0
 40
0.0452102438
 40
0.0910011378
 40
0.1371887914
 40
0.1835862952
 40
0.2300060483
 40
0.2762602665
 40
0.3221620218
 40
0.3675262007
 40
0.412170475
 40
0.4559162947
 40
0.4985898755
 40
0.5400232149
 40
0.5800551623
 40
0.5994977477
 40
0.6185332455
 40
0.6371439809
 40
0.6553128992
 40
0.6730236615
 40
0.6902607075
 40
0.707009241
 40
0.7232553821
 40
0.7389861811
 40
0.7541896801
 40
0.7688550884
 40
0.7829727896
 40
0.796534521
 40
0.8095335479
 40
0.821964756
 40
0.8338249752
 40
0.8451131945
 40
0.8558308688
 40
0.8659824321
 40
0.8755757112
 40
0.8846226184
 40
0.8931399775
 40
0.9011503991
 40
0.9086835055
 40
0.9157771539
 40
0.9224786942
 40
0.9288461105
 40
0.9319269763
 40
0.9349511316
 40
0.9379288252
 40
0.9408708543
 40
0.9437884508
 40
0.9466931505
 40
0.9495966615
 40
0.952510705
 40
0.9554468664
 40
0.9584164519
 40
0.9614303466
 40
0.964498924
 40
0.9708361702
 40
0.9775010542
 40
0.9845526578
 40
0.9920393958
 40
1.0
 40
1.0
 40
1.0
 40
1.0
 10
13.2320816116
 20
7.2789799973
 30
0.0
 10
13.2320816116
 20
7.260910653
 30
0.0
 10
13.2317593547
 20
7.2245391622
 30
0.0
 10
13.2303383733
 20
7.1697243713
 30
0.0
 10
13.2279821225
 20
7.1144667494
 30
0.0
 10
13.2247006609
 20
7.0590046479
 30
0.0
 10
13.2205081237
 20
7.0035772785
 30
0.0
 10
13.2154226101
 20
6.9484236496
 30
0.0
 10
13.2094661069
 20
6.8937815835
 30
0.0
 10
13.2026643876
 20
6.8398866847
 30
0.0
 10
13.1950469093
 20
6.786971297
 30
0.0
 10
13.1866467052
 20
6.7352635157
 30
0.0
 10
13.1775002348
 20
6.684986093
 30
0.0
 10
13.1676471766
 20
6.6363558183
 30
0.0
 10
13.1587994566
 20
6.5970043564
 30
0.0
 10
13.1513860874
 20
6.5665136298
 30
0.0
 10
13.1457307508
 20
6.544408094
 30
0.0
 10
13.1399322814
 20
6.5228663994
 30
0.0
 10
13.1339968921
 20
6.5019117429
 30
0.0
 10
13.127931009
 20
6.4815667064
 30
0.0
 10
13.1217412209
 20
6.4618531954
 30
0.0
 10
13.1154341859
 20
6.4427924413
 30
0.0
 10
13.10901675
 20
6.4244049484
 30
0.0
 10
13.1024958609
 20
6.4067104879
 30
0.0
 10
13.0958785324
 20
6.389728082
 30
0.0
 10
13.0891719577
 20
6.3734759475
 30
0.0
 10
13.0823833539
 20
6.3579715125
 30
0.0
 10
13.0755200288
 20
6.3432313753
 30
0.0
 10
13.0685894081
 20
6.3292712636
 30
0.0
 10
13.0615988803
 20
6.3161060641
 30
0.0
 10
13.054555937
 20
6.3037497433
 30
0.0
 10
13.0474680704
 20
6.2922153534
 30
0.0
 10
13.0403426858
 20
6.2815150525
 30
0.0
 10
13.0331872321
 20
6.2716600011
 30
0.0
 10
13.0260089749
 20
6.2626604553
 30
0.0
 10
13.0188150119
 20
6.2545257546
 30
0.0
 10
13.0116122856
 20
6.2472642986
 30
0.0
 10
13.0044072965
 20
6.2408837916
 30
0.0
 10
12.9972063672
 20
6.2353912862
 30
0.0
 10
12.9900152012
 20
6.2307933913
 30
0.0
 10
12.9828404033
 20
6.227097013
 30
0.0
 10
12.976813072
 20
6.2247478306
 30
0.0
 10
12.9720267105
 20
6.2233461154
 30
0.0
 10
12.9684861924
 20
6.2225342548
 30
0.0
 10
12.9649571258
 20
6.2219509713
 30
0.0
 10
12.961440486
 20
6.2215964752
 30
0.0
 10
12.9579373898
 20
6.2214709228
 30
0.0
 10
12.954448939
 20
6.2215744585
 30
0.0
 10
12.9509762636
 20
6.2219070825
 30
0.0
 10
12.9475204731
 20
6.2224686081
 30
0.0
 10
12.9440826573
 20
6.2232588519
 30
0.0
 10
12.9406639157
 20
6.2242775096
 30
0.0
 10
12.9372651607
 20
6.2255241691
 30
0.0
 10
12.9327133862
 20
6.2275106105
 30
0.0
 10
12.9270607817
 20
6.2305911902
 30
0.0
 10
12.9204541967
 20
6.2351515283
 30
0.0
 10
12.9139552258
 20
6.2406077893
 30
0.0
 10
12.9075698962
 20
6.246951945
 30
0.0
 10
12.9035205186
 20
6.2516200821
 30
0.0
 10
12.9015129966
 20
6.2540884244
 30
0.0
  0
SPLINE
  5
34B
100
AcDbEntity
  8
0
100
AcDbSpline
 62
7
  6
CONTINUOUS
 70
0
 71
3
 72
39
 73
35
 74
0
 42
0.0000001
 43
0.0000001
 44
0.0000000001
 40
0.0
 40
0.0
 40
0.0
 40
0.0
 40
0.0306943322
 40
0.0614945422
 40
0.0923972618
 40
0.1233998684
 40
0.154497724
 40
0.1856856847
 40
0.2169576022
 40
0.2483065646
 40
0.2797249216
 40
0.3112043711
 40
0.3427360404
 40
0.3743105714
 40
0.4059182094
 40
0.4375488939
 40
0.4691923518
 40
0.5008381925
 40
0.532476003
 40
0.5640954449
 40
0.5956863489
 40
0.6272388091
 40
0.6587432747
 40
0.69019064
 40
0.7215723314
 40
0.7528803912
 40
0.7841075574
 40
0.8152473374
 40
0.8462940765
 40
0.8772430189
 40
0.9080903627
 40
0.9388333058
 40
0.9694700839
 40
1.0
 40
1.0
 40
1.0
 40
1.0
 10
10.5803940307
 20
9.1474817942
 30
0.0
 10
10.5705372103
 20
9.1481653671
 30
0.0
 10
10.5508205027
 20
9.1500317514
 30
0.0
 10
10.5213751557
 20
9.154308223
 30
0.0
 10
10.4920795179
 20
9.1600559444
 30
0.0
 10
10.463009196
 20
9.1672599402
 30
0.0
 10
10.434237669
 20
9.1759020172
 30
0.0
 10
10.4058381791
 20
9.1859600611
 30
0.0
 10
10.3778828542
 20
9.1974084985
 30
0.0
 10
10.3504427371
 20
9.210218179
 30
0.0
 10
10.3235875449
 20
9.2243565119
 30
0.0
 10
10.2973855048
 20
9.2397875252
 30
0.0
 10
10.2719031835
 20
9.2564719738
 30
0.0
 10
10.2472053194
 20
9.2743674361
 30
0.0
 10
10.2233546594
 20
9.2934284209
 30
0.0
 10
10.2004118008
 20
9.3136064829
 30
0.0
 10
10.1784350389
 20
9.3348503448
 30
0.0
 10
10.1574802196
 20
9.3571060263
 30
0.0
 10
10.137600587
 20
9.3803169712
 30
0.0
 10
10.1188466579
 20
9.4044242013
 30
0.0
 10
10.1012660951
 20
9.4293664657
 30
0.0
 10
10.0849035869
 20
9.4550803953
 30
0.0
 10
10.0698007346
 20
9.481500662
 30
0.0
 10
10.0559959467
 20
9.5085601435
 30
0.0
 10
10.0435243436
 20
9.5361900934
 30
0.0
 10
10.0324176596
 20
9.5643203102
 30
0.0
 10
10.0227041592
 20
9.5928793153
 30
0.0
 10
10.0144085767
 20
9.6217945411
 30
0.0
 10
10.0075520506
 20
9.6509925031
 30
0.0
 10
10.0021520716
 20
9.6803990176
 30
0.0
 10
9.998222431
 20
9.7099392708
 30
0.0
 10
9.9957732102
 20
9.7395384421
 30
0.0
 10
9.9948106574
 20
9.769120279
 30
0.0
 10
9.9951625101
 20
9.7888166086
 30
0.0
 10
9.9955876192
 20
9.7986349794
 30
0.0
  0
SPLINE
  5
34C
100
AcDbEntity
  8
0
100
AcDbSpline
 62
7
  6
CONTINUOUS
 70
0
 71
3
 72
37
 73
33
 74
0
 42
0.0000001
 43
0.0000001
 44
0.0000000001
 40
0.0
 40
0.0
 40
0.0
 40
0.0
 40
0.0306764497
 40
0.0614567511
 40
0.0923367847
 40
0.1233147065
 40
0.1543859895
 40
0.185545839
 40
0.2167885206
 40
0.248107546
 40
0.2794957547
 40
0.310945356
 40
0.3424480124
 40
0.3739949141
 40
0.405576862
 40
0.43718435
 40
0.5004201887
 40
0.5636401064
 40
0.5952278428
 40
0.626782383
 40
0.6582944588
 40
0.689755178
 40
0.7211561057
 40
0.75248934
 40
0.7837475843
 40
0.8149242172
 40
0.8460133609
 40
0.8770099414
 40
0.9079097397
 40
0.9387094377
 40
0.969406658
 40
1.0
 40
1.0
 40
1.0
 40
1.0
 10
10.5803940307
 20
9.2498699379
 30
0.0
 10
10.572454454
 20
9.2504205494
 30
0.0
 10
10.5565728122
 20
9.251914364
 30
0.0
 10
10.5328509315
 20
9.2553166848
 30
0.0
 10
10.5092439455
 20
9.2598765789
 30
0.0
 10
10.4858100437
 20
9.2655825869
 30
0.0
 10
10.4626055906
 20
9.2724210673
 30
0.0
 10
10.4396869363
 20
9.2803753363
 30
0.0
 10
10.4171095511
 20
9.2894260885
 30
0.0
 10
10.3949281207
 20
9.2995513518
 30
0.0
 10
10.3731963605
 20
9.3107265678
 30
0.0
 10
10.3519669126
 20
9.3229246445
 30
0.0
 10
10.3312911698
 20
9.3361160605
 30
0.0
 10
10.3112193075
 20
9.3502687073
 30
0.0
 10
10.2917994963
 20
9.3653487241
 30
0.0
 10
10.2668390301
 20
9.3866423904
 30
0.0
 10
10.2375050881
 20
9.4153860164
 30
0.0
 10
10.2109352806
 20
9.4466958662
 30
0.0
 10
10.1914921633
 20
9.4731030319
 30
0.0
 10
10.177853785
 20
9.4935355113
 30
0.0
 10
10.1651911886
 20
9.5145476604
 30
0.0
 10
10.1535346365
 20
9.536089041
 30
0.0
 10
10.1429124855
 20
9.5581073583
 30
0.0
 10
10.1333504626
 20
9.5805493229
 30
0.0
 10
10.1248717805
 20
9.6033605788
 30
0.0
 10
10.1174970303
 20
9.6264858852
 30
0.0
 10
10.1112440955
 20
9.6498692159
 30
0.0
 10
10.1061281581
 20
9.6734539427
 30
0.0
 10
10.1021616591
 20
9.697182877
 30
0.0
 10
10.0993542752
 20
9.7209987366
 30
0.0
 10
10.0977128704
 20
9.7448430503
 30
0.0
 10
10.0973980858
 20
9.760748623
 30
0.0
 10
10.09743687
 20
9.7686856133
 30
0.0
  0
SPLINE
  5
34D
100
AcDbEntity
  8
0
100
AcDbSpline
 62
7
  6
CONTINUOUS
 70
0
 71
3
 72
71
 73
67
 74
0
 42
0.0000001
 43
0.0000001
 44
0.0000000001
 40
0.0
 40
0.0
 40
0.0
 40
0.0
 40
0.0156748151
 40
0.0314021683
 40
0.0471806527
 40
0.0630088925
 40
0.0788847435
 40
0.0948057525
 40
0.1107690082
 40
0.1267712317
 40
0.1428087898
 40
0.1588777349
 40
0.1749738408
 40
0.1910926419
 40
0.2072294728
 40
0.2233795108
 40
0.2395378179
 40
0.2556993839
 40
0.2718591707
 40
0.2880121552
 40
0.3041533738
 40
0.3202779654
 40
0.3363812142
 40
0.3524585916
 40
0.3685057968
 40
0.3845187964
 40
0.4004938615
 40
0.4164276036
 40
0.4323170071
 40
0.4481594601
 40
0.4639527817
 40
0.4796952458
 40
0.4953856017
 40
0.5110230907
 40
0.5266074578
 40
0.5421389599
 40
0.5576183682
 40
0.5730469661
 40
0.5884265413
 40
0.6037593729
 40
0.6190482133
 40
0.6342962638
 40
0.6495071459
 40
0.664684867
 40
0.6798337808
 40
0.6949585442
 40
0.7100640695
 40
0.7251554734
 40
0.7402380231
 40
0.7553170805
 40
0.7703980447
 40
0.7854862945
 40
0.8005871309
 40
0.8157057206
 40
0.8308470413
 40
0.8460158301
 40
0.8612165346
 40
0.8764532681
 40
0.8917297695
 40
0.907049366
 40
0.9224149479
 40
0.9378289242
 40
0.9532932634
 40
0.9688093037
 40
0.9843781796
 40
1.0
 40
1.0
 40
1.0
 40
1.0
 10
9.8789743721
 20
8.2911891279
 30
0.0
 10
9.866451587
 20
8.292057586
 30
0.0
 10
9.8414024003
 20
8.2944117204
 30
0.0
 10
9.8039863866
 20
8.2997695708
 30
0.0
 10
9.766750578
 20
8.3069474751
 30
0.0
 10
9.7297859325
 20
8.315927826
 30
0.0
 10
9.6931810254
 20
8.3266890679
 30
0.0
 10
9.6570241039
 20
8.33920515
 30
0.0
 10
9.6214021661
 20
8.3534459103
 30
0.0
 10
9.5864009636
 20
8.3693769965
 30
0.0
 10
9.5521047381
 20
8.3869600135
 30
0.0
 10
9.5185960349
 20
8.4061525911
 30
0.0
 10
9.4859555023
 20
8.4269084945
 30
0.0
 10
9.4542616983
 20
8.4491777313
 30
0.0
 10
9.4235909001
 20
8.4729066702
 30
0.0
 10
9.3940169246
 20
8.4980381738
 30
0.0
 10
9.3656109508
 20
8.5245117356
 30
0.0
 10
9.33844135
 20
8.5522636242
 30
0.0
 10
9.3125735217
 20
8.5812270368
 30
0.0
 10
9.2880697372
 20
8.6113322588
 30
0.0
 10
9.2649889903
 20
8.6425068308
 30
0.0
 10
9.243386856
 20
8.6746757223
 30
0.0
 10
9.2233153572
 20
8.7077615105
 30
0.0
 10
9.2048228403
 20
8.741684567
 30
0.0
 10
9.187953855
 20
8.7763632453
 30
0.0
 10
9.1727490487
 20
8.8117140784
 30
0.0
 10
9.1592450709
 20
8.8476519795
 30
0.0
 10
9.1474744847
 20
8.884090445
 30
0.0
 10
9.1374656879
 20
8.9209417619
 30
0.0
 10
9.1292428447
 20
8.958117217
 30
0.0
 10
9.1228258265
 20
8.9955273094
 30
0.0
 10
9.1182301637
 20
9.0330819642
 30
0.0
 10
9.1154670067
 20
9.0706907483
 30
0.0
 10
9.1145430981
 20
9.1082630869
 30
0.0
 10
9.1154607547
 20
9.1457084801
 30
0.0
 10
9.118217855
 20
9.1829367209
 30
0.0
 10
9.1228078472
 20
9.2198581123
 30
0.0
 10
9.1292197634
 20
9.2563836824
 30
0.0
 10
9.1374382437
 20
9.2924253989
 30
0.0
 10
9.1474435705
 20
9.3278963814
 30
0.0
 10
9.1592117142
 20
9.3627111111
 30
0.0
 10
9.1727143883
 20
9.3967856382
 30
0.0
 10
9.1879191158
 20
9.4300377855
 30
0.0
 10
9.2047893053
 20
9.4623873485
 30
0.0
 10
9.2232843381
 20
9.4937562906
 30
0.0
 10
9.2433596628
 20
9.5240689349
 30
0.0
 10
9.2649669007
 20
9.5532521517
 30
0.0
 10
9.2880539665
 20
9.5812355344
 30
0.0
 10
9.3125651938
 20
9.6079515731
 30
0.0
 10
9.3384414707
 20
9.6333358194
 30
0.0
 10
9.3656203833
 20
9.6573270442
 30
0.0
 10
9.3940363687
 20
9.6798673875
 30
0.0
 10
9.423620875
 20
9.700902499
 30
0.0
 10
9.4543025292
 20
9.7203816709
 30
0.0
 10
9.4860073121
 20
9.7382579604
 30
0.0
 10
9.5186587396
 20
9.7544883019
 30
0.0
 10
9.5521780479
 20
9.7690336154
 30
0.0
 10
9.5864843875
 20
9.7818588984
 30
0.0
 10
9.6214950208
 20
9.7929333033
 30
0.0
 10
9.6571255275
 20
9.8022302196
 30
0.0
 10
9.6932899924
 20
9.809727312
 30
0.0
 10
9.7299012773
 20
9.8154066296
 30
0.0
 10
9.7668710093
 20
9.8192545216
 30
0.0
 10
9.8041105241
 20
9.8212618946
 30
0.0
 10
9.8415287924
 20
9.8214239381
 30
0.0
 10
9.8664939251
 20
9.8203033464
 30
0.0
 10
9.8789743721
 20
9.8194378245
 30
0.0
  0
SPLINE
  5
34E
100
AcDbEntity
  8
0
100
AcDbSpline
 62
7
  6
CONTINUOUS
 70
0
 71
3
 72
25
 73
21
 74
0
 42
0.0000001
 43
0.0000001
 44
0.0000000001
 40
0.0
 40
0.0
 40
0.0
 40
0.0
 40
0.0638614196
 40
0.1275014676
 40
0.1909210395
 40
0.2541248474
 40
0.3171188835
 40
0.3799117246
 40
0.4425139164
 40
0.5049380763
 40
0.5671987132
 40
0.629312106
 40
0.6912961344
 40
0.7222483686
 40
0.7531756041
 40
0.8149600085
 40
0.876676358
 40
0.9075187246
 40
0.9383524739
 40
1.0
 40
1.0
 40
1.0
 40
1.0
 10
9.8846477612
 20
8.3054395087
 30
0.0
 10
9.8972566781
 20
8.3045650773
 30
0.0
 10
9.922478956
 20
8.30344651
 30
0.0
 10
9.9602798955
 20
8.3036718384
 30
0.0
 10
9.9978921873
 20
8.3058025883
 30
0.0
 10
10.0352198285
 20
8.3098334694
 30
0.0
 10
10.0721692672
 20
8.3157545
 30
0.0
 10
10.1086473434
 20
8.3235508303
 30
0.0
 10
10.1445622442
 20
8.3332029584
 30
0.0
 10
10.1798234602
 20
8.3446866395
 30
0.0
 10
10.214342322
 20
8.3579731343
 30
0.0
 10
10.2480312869
 20
8.3730287277
 30
0.0
 10
10.2753578349
 20
8.3870254203
 30
0.0
 10
10.2967148039
 20
8.3990656536
 30
0.0
 10
10.3177091061
 20
8.4116510819
 30
0.0
 10
10.3432856835
 20
8.4284121104
 30
0.0
 10
10.3679139126
 20
8.4465095568
 30
0.0
 10
10.3869971656
 20
8.4617530264
 30
0.0
 10
10.4056533455
 20
8.4774942423
 30
0.0
 10
10.4191639447
 20
8.4898598585
 30
0.0
 10
10.4279396074
 20
8.4983364755
 30
0.0
  0
SPLINE
  5
34F
100
AcDbEntity
  8
0
100
AcDbSpline
 62
7
  6
CONTINUOUS
 70
0
 71
3
 72
23
 73
19
 74
0
 42
0.0000001
 43
0.0000001
 44
0.0000000001
 40
0.0
 40
0.0
 40
0.0
 40
0.0
 40
0.0637744754
 40
0.1273515938
 40
0.1907296556
 40
0.2539134226
 40
0.3169065407
 40
0.3797152283
 40
0.4423470101
 40
0.5048109469
 40
0.5671175504
 40
0.6292786812
 40
0.691307469
 40
0.753218201
 40
0.8150262073
 40
0.8767477303
 40
0.9383997833
 40
1.0
 40
1.0
 40
1.0
 40
1.0
 10
10.1080496632
 20
8.5666277048
 30
0.0
 10
10.1186879954
 20
8.5658899339
 30
0.0
 10
10.1399678454
 20
8.5648918545
 30
0.0
 10
10.1718705169
 20
8.5648351558
 30
0.0
 10
10.2036450019
 20
8.5662214104
 30
0.0
 10
10.2352257727
 20
8.5690476722
 30
0.0
 10
10.2665492453
 20
8.5733084221
 30
0.0
 10
10.2975517453
 20
8.5789950186
 30
0.0
 10
10.3281704377
 20
8.5860960094
 30
0.0
 10
10.3583432112
 20
8.5945970261
 30
0.0
 10
10.3880088611
 20
8.6044808726
 30
0.0
 10
10.417107202
 20
8.6157275529
 30
0.0
 10
10.4455791845
 20
8.6283143028
 30
0.0
 10
10.4733670387
 20
8.642215652
 30
0.0
 10
10.5004143255
 20
8.6574033727
 30
0.0
 10
10.526666356
 20
8.6738468296
 30
0.0
 10
10.5520691103
 20
8.6915120952
 30
0.0
 10
10.5684108361
 20
8.7040851103
 30
0.0
 10
10.5764206933
 20
8.7105611273
 30
0.0
  0
SPLINE
  5
350
100
AcDbEntity
  8
0
100
AcDbSpline
 62
7
  6
CONTINUOUS
 70
0
 71
3
 72
23
 73
19
 74
0
 42
0.0000001
 43
0.0000001
 44
0.0000000001
 40
0.0
 40
0.0
 40
0.0
 40
0.0
 40
0.063810018
 40
0.1274137076
 40
0.190809901
 40
0.2540036232
 40
0.3169992253
 40
0.3798038172
 40
0.442425986
 40
0.5048760705
 40
0.5671660193
 40
0.6293092875
 40
0.6913207278
 40
0.7532164528
 40
0.8150136891
 40
0.8767306172
 40
0.9383862
 40
1.0
 40
1.0
 40
1.0
 40
1.0
 10
10.1147739737
 20
8.5876117786
 30
0.0
 10
10.1256501049
 20
8.5868575163
 30
0.0
 10
10.147405873
 20
8.5858584014
 30
0.0
 10
10.1800181986
 20
8.5858970278
 30
0.0
 10
10.2124877647
 20
8.5874753703
 30
0.0
 10
10.2447416795
 20
8.5905898291
 30
0.0
 10
10.2767091547
 20
8.5952337471
 30
0.0
 10
10.3083194148
 20
8.6013968582
 30
0.0
 10
10.3395026579
 20
8.6090656601
 30
0.0
 10
10.3701899652
 20
8.6182232542
 30
0.0
 10
10.4003135195
 20
8.6288494586
 30
0.0
 10
10.4298067392
 20
8.6409208461
 30
0.0
 10
10.4586044219
 20
8.6544107877
 30
0.0
 10
10.4866429137
 20
8.6692895317
 30
0.0
 10
10.5138601553
 20
8.6855241927
 30
0.0
 10
10.5401961817
 20
8.7030790938
 30
0.0
 10
10.5655919638
 20
8.7219147603
 30
0.0
 10
10.5818639706
 20
8.7353027528
 30
0.0
 10
10.5898221599
 20
8.742193715
 30
0.0
  0
SPLINE
  5
351
100
AcDbEntity
  8
0
100
AcDbSpline
 62
7
  6
CONTINUOUS
 70
0
 71
3
 72
23
 73
19
 74
0
 42
0.0000001
 43
0.0000001
 44
0.0000000001
 40
0.0
 40
0.0
 40
0.0
 40
0.0
 40
0.0637240564
 40
0.1272630212
 40
0.1906136001
 40
0.2537807418
 40
0.3167672441
 40
0.379578168
 40
0.4422198698
 40
0.5046998648
 40
0.5670269537
 40
0.6292110933
 40
0.6912633476
 40
0.753195805
 40
0.8150214835
 40
0.8767542416
 40
0.9384086748
 40
1.0
 40
1.0
 40
1.0
 40
1.0
 10
10.1567076035
 20
8.628116557
 30
0.0
 10
10.1665340072
 20
8.6274350936
 30
0.0
 10
10.1861895639
 20
8.6264880621
 30
0.0
 10
10.2156612647
 20
8.6263216036
 30
0.0
 10
10.2450277448
 20
8.6274117815
 30
0.0
 10
10.2742350317
 20
8.6297564486
 30
0.0
 10
10.3032309525
 20
8.6333516049
 30
0.0
 10
10.33196309
 20
8.6381907346
 30
0.0
 10
10.3603796851
 20
8.6442651341
 30
0.0
 10
10.3884295051
 20
8.651563912
 30
0.0
 10
10.416061958
 20
8.6600739803
 30
0.0
 10
10.4432272218
 20
8.6697800106
 30
0.0
 10
10.4698763108
 20
8.6806645117
 30
0.0
 10
10.4959611739
 20
8.6927079005
 30
0.0
 10
10.521434697
 20
8.7058884914
 30
0.0
 10
10.5462511041
 20
8.7201826442
 30
0.0
 10
10.5703650123
 20
8.7355641262
 30
0.0
 10
10.5859518427
 20
8.7465306517
 30
0.0
 10
10.5936116858
 20
8.7521842993
 30
0.0
  0
SPLINE
  5
352
100
AcDbEntity
  8
0
100
AcDbSpline
 62
7
  6
CONTINUOUS
 70
0
 71
3
 72
23
 73
19
 74
0
 42
0.0000001
 43
0.0000001
 44
0.0000000001
 40
0.0
 40
0.0
 40
0.0
 40
0.0
 40
0.0638231784
 40
0.1274366516
 40
0.190839221
 40
0.2540361815
 40
0.3170321291
 40
0.3798345466
 40
0.4424524683
 40
0.5048967581
 40
0.5671799603
 40
0.6293161861
 40
0.6913209946
 40
0.7532112439
 40
0.8150049324
 40
0.8767210256
 40
0.938379271
 40
1.0
 40
1.0
 40
1.0
 40
1.0
 10
10.1687426792
 20
8.6846571017
 30
0.0
 10
10.1790828408
 20
8.6839400091
 30
0.0
 10
10.1997666145
 20
8.6829980437
 30
0.0
 10
10.2307704966
 20
8.6830706905
 30
0.0
 10
10.2616341806
 20
8.6846311758
 30
0.0
 10
10.292286087
 20
8.6876758221
 30
0.0
 10
10.3226567215
 20
8.6921979075
 30
0.0
 10
10.3526766196
 20
8.6981871056
 30
0.0
 10
10.3822772982
 20
8.7056298616
 30
0.0
 10
10.4113911724
 20
8.7145092317
 30
0.0
 10
10.4399517732
 20
8.7248050006
 30
0.0
 10
10.4678938846
 20
8.7364937189
 30
0.0
 10
10.4951536885
 20
8.749548749
 30
0.0
 10
10.5216689352
 20
8.7639403461
 30
0.0
 10
10.547378994
 20
8.7796356485
 30
0.0
 10
10.572225347
 20
8.7965990187
 30
0.0
 10
10.5961504623
 20
8.8147910522
 30
0.0
 10
10.6114548284
 20
8.8277146671
 30
0.0
 10
10.6189329633
 20
8.8343647694
 30
0.0
  0
SPLINE
  5
353
100
AcDbEntity
  8
0
100
AcDbSpline
 62
7
  6
CONTINUOUS
 70
0
 71
3
 72
11
 73
7
 74
0
 42
0.0000001
 43
0.0000001
 44
0.0000000001
 40
0.0
 40
0.0
 40
0.0
 40
0.0
 40
0.2521556509
 40
0.5028334291
 40
0.7520864208
 40
1.0
 40
1.0
 40
1.0
 40
1.0
 10
9.2663294222
 20
6.0918862461
 30
0.0
 10
9.2744109771
 20
6.0913257883
 30
0.0
 10
9.2905822758
 20
6.0908860167
 30
0.0
 10
9.3147321952
 20
6.0922934664
 30
0.0
 10
9.3385362355
 20
6.0957589045
 30
0.0
 10
9.354104487
 20
6.0994361215
 30
0.0
 10
9.3617673544
 20
6.1016078971
 30
0.0
  0
SPLINE
  5
354
100
AcDbEntity
  8
0
100
AcDbSpline
 62
7
  6
CONTINUOUS
 70
0
 71
3
 72
40
 73
36
 74
0
 42
0.0000001
 43
0.0000001
 44
0.0000000001
 40
0.0
 40
0.0
 40
0.0
 40
0.0
 40
0.0311448352
 40
0.0467776712
 40
0.0624478163
 40
0.0938928931
 40
0.1254753683
 40
0.1571831038
 40
0.1890013145
 40
0.2209130644
 40
0.2528995674
 40
0.2849405815
 40
0.3170148072
 40
0.349100303
 40
0.3811749104
 40
0.4132166804
 40
0.4452042987
 40
0.4771175008
 40
0.5089374741
 40
0.5406472387
 40
0.5722320012
 40
0.6036794751
 40
0.6349801612
 40
0.6661275796
 40
0.6971184487
 40
0.7279528012
 40
0.7586340346
 40
0.7891688873
 40
0.8195673392
 40
0.849842433
 40
0.8800100174
 40
0.9100884154
 40
0.9400980228
 40
0.9700608475
 40
1.0
 40
1.0
 40
1.0
 40
1.0
 10
9.0882620601
 20
7.8517381102
 30
0.0
 10
9.0812567404
 20
7.8522239308
 30
0.0
 10
9.070756709
 20
7.8533379176
 30
0.0
 10
9.0568537211
 20
7.8555765806
 30
0.0
 10
9.0429728118
 20
7.858324977
 30
0.0
 10
9.0257606933
 20
7.8627020327
 30
0.0
 10
9.0054669407
 20
7.8694204821
 30
0.0
 10
8.985615332
 20
7.8775755206
 30
0.0
 10
8.9663123033
 20
7.8871234263
 30
0.0
 10
8.9476605381
 20
7.8980131981
 30
0.0
 10
8.9297594629
 20
7.9101866875
 30
0.0
 10
8.9127044433
 20
7.9235789385
 30
0.0
 10
8.896586358
 20
7.9381185253
 30
0.0
 10
8.8814910995
 20
7.9537279309
 30
0.0
 10
8.8674991267
 20
7.9703239566
 30
0.0
 10
8.8546850388
 20
7.9878181611
 30
0.0
 10
8.8431171814
 20
8.0061173268
 30
0.0
 10
8.8328572855
 20
8.025123951
 30
0.0
 10
8.8239601381
 20
8.0447367586
 30
0.0
 10
8.8164732923
 20
8.0648512362
 30
0.0
 10
8.8104368141
 20
8.0853601817
 30
0.0
 10
8.8058830672
 20
8.1061542685
 30
0.0
 10
8.8028365366
 20
8.1271226196
 30
0.0
 10
8.8013136937
 20
8.1481533916
 30
0.0
 10
8.8013229002
 20
8.1691343637
 30
0.0
 10
8.8028643548
 20
8.1899535296
 30
0.0
 10
8.8059300806
 20
8.2104996917
 30
0.0
 10
8.8105039537
 20
8.2306630512
 30
0.0
 10
8.8165617786
 20
8.2503357985
 30
0.0
 10
8.8240713928
 20
8.2694126834
 30
0.0
 10
8.8329928618
 20
8.2877916224
 30
0.0
 10
8.8432785467
 20
8.3053741217
 30
0.0
 10
8.8548738521
 20
8.3220663157
 30
0.0
 10
8.8677156437
 20
8.337777642
 30
0.0
 10
8.8770661518
 20
8.3475459737
 30
0.0
 10
8.8819213258
 20
8.352235737
 30
0.0
  0
SPLINE
  5
355
100
AcDbEntity
  8
0
100
AcDbSpline
 62
7
  6
CONTINUOUS
 70
0
 71
3
 72
39
 73
35
 74
0
 42
0.0000001
 43
0.0000001
 44
0.0000000001
 40
0.0
 40
0.0
 40
0.0
 40
0.0
 40
0.0308460029
 40
0.0618156224
 40
0.0929034665
 40
0.1241057483
 40
0.1554153414
 40
0.1868244218
 40
0.2183236741
 40
0.249902671
 40
0.2815499711
 40
0.3132532705
 40
0.3449995658
 40
0.376775316
 40
0.4085666121
 40
0.4403593509
 40
0.4721394125
 40
0.5038928359
 40
0.5356059919
 40
0.5672657527
 40
0.5988596577
 40
0.6303760742
 40
0.6618043536
 40
0.6931349745
 40
0.7243596739
 40
0.7554715661
 40
0.786465246
 40
0.8173368778
 40
0.8480842676
 40
0.878706913
 40
0.9092060285
 40
0.9395845496
 40
0.9698471109
 40
1.0
 40
1.0
 40
1.0
 40
1.0
 10
9.2663294222
 20
6.0918862461
 30
0.0
 10
9.2607131838
 20
6.0922757335
 30
0.0
 10
9.2494783351
 20
6.0933855917
 30
0.0
 10
9.2327204319
 20
6.0960270546
 30
0.0
 10
9.2160777269
 20
6.0996398271
 30
0.0
 10
9.1996082604
 20
6.1042111203
 30
0.0
 10
9.1833682205
 20
6.109725379
 30
0.0
 10
9.1674134447
 20
6.1161635278
 30
0.0
 10
9.1517986546
 20
6.1235034681
 30
0.0
 10
9.1365774303
 20
6.1317199482
 30
0.0
 10
9.1218019872
 20
6.1407847276
 30
0.0
 10
9.1075230137
 20
6.1506666678
 30
0.0
 10
9.0937894962
 20
6.1613318366
 30
0.0
 10
9.0806485541
 20
6.172743625
 30
0.0
 10
9.0681452826
 20
6.1848628725
 30
0.0
 10
9.0563225852
 20
6.1976479867
 30
0.0
 10
9.0452210259
 20
6.2110550881
 30
0.0
 10
9.0348787041
 20
6.2250381738
 30
0.0
 10
9.0253311232
 20
6.23954927
 30
0.0
 10
9.0166110701
 20
6.2545385944
 30
0.0
 10
9.008748506
 20
6.2699547264
 30
0.0
 10
9.001770455
 20
6.2857447757
 30
0.0
 10
8.995700896
 20
6.3018545595
 30
0.0
 10
8.9905607049
 20
6.3182287992
 30
0.0
 10
8.9863675789
 20
6.3348113045
 30
0.0
 10
8.9831359771
 20
6.3515451642
 30
0.0
 10
8.9808770699
 20
6.368372938
 30
0.0
 10
8.9795986988
 20
6.3852368525
 30
0.0
 10
8.9793053183
 20
6.4020789907
 30
0.0
 10
8.9799980159
 20
6.4188415197
 30
0.0
 10
8.9816744737
 20
6.4354667952
 30
0.0
 10
8.9843290896
 20
6.4518978917
 30
0.0
 10
8.9879525663
 20
6.4680775582
 30
0.0
 10
8.991011826
 20
6.4786795171
 30
0.0
 10
8.9926983953
 20
6.4839179321
 30
0.0
  0
SPLINE
  5
356
100
AcDbEntity
  8
0
100
AcDbSpline
 62
7
  6
CONTINUOUS
 70
0
 71
3
 72
11
 73
7
 74
0
 42
0.0000001
 43
0.0000001
 44
0.0000000001
 40
0.0
 40
0.0
 40
0.0
 40
0.0
 40
0.2515885817
 40
0.5021041627
 40
0.7515646557
 40
1.0
 40
1.0
 40
1.0
 40
1.0
 10
10.4802311429
 20
8.9855318712
 30
0.0
 10
10.4935503731
 20
8.9846081795
 30
0.0
 10
10.5201957222
 20
8.9835771181
 30
0.0
 10
10.5600935827
 20
8.9844998932
 30
0.0
 10
10.5996900439
 20
8.9878911089
 30
0.0
 10
10.6258427083
 20
8.9917979885
 30
0.0
 10
10.6388135227
 20
8.9941586707
 30
0.0
  0
SPLINE
  5
357
100
AcDbEntity
  8
0
100
AcDbSpline
 62
7
  6
CONTINUOUS
 70
0
 71
3
 72
11
 73
7
 74
0
 42
0.0000001
 43
0.0000001
 44
0.0000000001
 40
0.0
 40
0.0
 40
0.0
 40
0.0
 40
0.251570901
 40
0.5020812217
 40
0.7515479391
 40
1.0
 40
1.0
 40
1.0
 40
1.0
 10
10.4901750427
 20
9.0322481135
 30
0.0
 10
10.5025913681
 20
9.0313870384
 30
0.0
 10
10.527430295
 20
9.0304172167
 30
0.0
 10
10.5646256441
 20
9.0312380282
 30
0.0
 10
10.6015463877
 20
9.0343337607
 30
0.0
 10
10.6259376654
 20
9.0379147076
 30
0.0
 10
10.6380371753
 20
9.0400806618
 30
0.0
  0
SPLINE
  5
358
100
AcDbEntity
  8
0
100
AcDbSpline
 62
7
  6
CONTINUOUS
 70
0
 71
3
 72
11
 73
7
 74
0
 42
0.0000001
 43
0.0000001
 44
0.0000000001
 40
0.0
 40
0.0
 40
0.0
 40
0.0
 40
0.2515238444
 40
0.5020204184
 40
0.7515034548
 40
1.0
 40
1.0
 40
1.0
 40
1.0
 10
10.4958484318
 20
9.0464984942
 30
0.0
 10
10.5077141001
 20
9.0456756073
 30
0.0
 10
10.5314510964
 20
9.0447269162
 30
0.0
 10
10.5670021451
 20
9.0454117089
 30
0.0
 10
10.6023065276
 20
9.048204322
 30
0.0
 10
10.6256444509
 20
9.0514719948
 30
0.0
 10
10.6372270892
 20
9.053454105
 30
0.0
  0
SPLINE
  5
359
100
AcDbEntity
  8
0
100
AcDbSpline
 62
7
  6
CONTINUOUS
 70
0
 71
3
 72
40
 73
36
 74
0
 42
0.0000001
 43
0.0000001
 44
0.0000000001
 40
0.0
 40
0.0
 40
0.0
 40
0.0
 40
0.0311448352
 40
0.0467776712
 40
0.0624478163
 40
0.0938928931
 40
0.1254753683
 40
0.1571831038
 40
0.1890013145
 40
0.2209130644
 40
0.2528995674
 40
0.2849405815
 40
0.3170148072
 40
0.349100303
 40
0.3811749104
 40
0.4132166804
 40
0.4452042987
 40
0.4771175008
 40
0.5089374741
 40
0.5406472387
 40
0.5722320012
 40
0.6036794751
 40
0.6349801612
 40
0.6661275796
 40
0.6971184487
 40
0.7279528012
 40
0.7586340346
 40
0.7891688873
 40
0.8195673392
 40
0.849842433
 40
0.8800100174
 40
0.9100884154
 40
0.9400980228
 40
0.9700608475
 40
1.0
 40
1.0
 40
1.0
 40
1.0
 10
9.0882620601
 20
9.7835901076
 30
0.0
 10
9.0812567404
 20
9.7840759282
 30
0.0
 10
9.070756709
 20
9.7851899149
 30
0.0
 10
9.0568537211
 20
9.7874285779
 30
0.0
 10
9.0429728118
 20
9.7901769743
 30
0.0
 10
9.0257606933
 20
9.79455403
 30
0.0
 10
9.0054669407
 20
9.8012724794
 30
0.0
 10
8.985615332
 20
9.8094275179
 30
0.0
 10
8.9663123033
 20
9.8189754236
 30
0.0
 10
8.9476605381
 20
9.8298651954
 30
0.0
 10
8.9297594629
 20
9.8420386848
 30
0.0
 10
8.9127044433
 20
9.8554309359
 30
0.0
 10
8.896586358
 20
9.8699705227
 30
0.0
 10
8.8814910995
 20
9.8855799282
 30
0.0
 10
8.8674991267
 20
9.9021759539
 30
0.0
 10
8.8546850388
 20
9.9196701585
 30
0.0
 10
8.8431171814
 20
9.9379693241
 30
0.0
 10
8.8328572855
 20
9.9569759483
 30
0.0
 10
8.8239601381
 20
9.9765887559
 30
0.0
 10
8.8164732923
 20
9.9967032335
 30
0.0
 10
8.8104368141
 20
10.0172121791
 30
0.0
 10
8.8058830672
 20
10.0380062658
 30
0.0
 10
8.8028365366
 20
10.0589746169
 30
0.0
 10
8.8013136937
 20
10.080005389
 30
0.0
 10
8.8013229002
 20
10.100986361
 30
0.0
 10
8.8028643548
 20
10.121805527
 30
0.0
 10
8.8059300806
 20
10.142351689
 30
0.0
 10
8.8105039537
 20
10.1625150485
 30
0.0
 10
8.8165617786
 20
10.1821877958
 30
0.0
 10
8.8240713928
 20
10.2012646808
 30
0.0
 10
8.8329928618
 20
10.2196436197
 30
0.0
 10
8.8432785467
 20
10.237226119
 30
0.0
 10
8.8548738521
 20
10.253918313
 30
0.0
 10
8.8677156437
 20
10.2696296394
 30
0.0
 10
8.8770661518
 20
10.279397971
 30
0.0
 10
8.8819213258
 20
10.2840877343
 30
0.0
  0
SPLINE
  5
35A
100
AcDbEntity
  8
0
100
AcDbSpline
 62
7
  6
CONTINUOUS
 70
0
 71
3
 72
17
 73
13
 74
0
 42
0.0000001
 43
0.0000001
 44
0.0000000001
 40
0.0
 40
0.0
 40
0.0
 40
0.0
 40
0.1232907431
 40
0.1850794128
 40
0.246968939
 40
0.371063671
 40
0.4956626422
 40
0.5581794239
 40
0.6208414623
 40
0.74659653
 40
0.8729783539
 40
1.0
 40
1.0
 40
1.0
 40
1.0
 10
9.3743948255
 20
10.07135901
 30
0.0
 10
9.3704114668
 20
10.0690043494
 30
0.0
 10
9.3642908802
 20
10.0657003612
 30
0.0
 10
9.3558916738
 20
10.0617762147
 30
0.0
 10
9.3473194398
 20
10.0581662255
 30
0.0
 10
9.3363225031
 20
10.0542642973
 30
0.0
 10
9.3250379045
 20
10.0512046828
 30
0.0
 10
9.3158639413
 20
10.0492667096
 30
0.0
 10
9.3065809377
 20
10.0476673257
 30
0.0
 10
9.2948314149
 20
10.0463169824
 30
0.0
 10
9.2806007094
 20
10.0457427926
 30
0.0
 10
9.2710852892
 20
10.0460571942
 30
0.0
 10
9.2663294222
 20
10.0463870147
 30
0.0
  0
SPLINE
  5
35B
100
AcDbEntity
  8
0
100
AcDbSpline
 62
7
  6
CONTINUOUS
 70
0
 71
3
 72
71
 73
67
 74
0
 42
0.0000001
 43
0.0000001
 44
0.0000000001
 40
0.0
 40
0.0
 40
0.0
 40
0.0
 40
0.0156218204
 40
0.0311906963
 40
0.0467067366
 40
0.0621710758
 40
0.0775850521
 40
0.092950634
 40
0.1082702305
 40
0.1235467319
 40
0.1387834654
 40
0.1539841699
 40
0.1691529587
 40
0.1842942794
 40
0.1994128691
 40
0.2145137055
 40
0.2296019553
 40
0.2446829195
 40
0.2597619769
 40
0.2748445266
 40
0.2899359305
 40
0.3050414558
 40
0.3201662192
 40
0.335315133
 40
0.3504928541
 40
0.3657037362
 40
0.3809517867
 40
0.3962406271
 40
0.4115734587
 40
0.4269530339
 40
0.4423816318
 40
0.4578610401
 40
0.4733925422
 40
0.4889769093
 40
0.5046143983
 40
0.5203047542
 40
0.5360472183
 40
0.5518405399
 40
0.5676829929
 40
0.5835723964
 40
0.5995061385
 40
0.6154812036
 40
0.6314942032
 40
0.6475414084
 40
0.6636187858
 40
0.6797220346
 40
0.6958466262
 40
0.7119878448
 40
0.7281408293
 40
0.7443006161
 40
0.7604621821
 40
0.7766204892
 40
0.7927705272
 40
0.8089073581
 40
0.8250261592
 40
0.8411222651
 40
0.8571912102
 40
0.8732287683
 40
0.8892309918
 40
0.9051942475
 40
0.9211152565
 40
0.9369911075
 40
0.9528193473
 40
0.9685978317
 40
0.9843251849
 40
1.0
 40
1.0
 40
1.0
 40
1.0
 10
9.8789743721
 20
8.2911891279
 30
0.0
 10
9.8914548192
 20
8.290323606
 30
0.0
 10
9.9164199518
 20
8.2892030143
 30
0.0
 10
9.9538382201
 20
8.2893650578
 30
0.0
 10
9.9910777349
 20
8.2913724308
 30
0.0
 10
10.0280474669
 20
8.2952203228
 30
0.0
 10
10.0646587519
 20
8.3008996404
 30
0.0
 10
10.1008232167
 20
8.3083967328
 30
0.0
 10
10.1364537234
 20
8.3176936491
 30
0.0
 10
10.1714643568
 20
8.3287680541
 30
0.0
 10
10.2057706963
 20
8.341593337
 30
0.0
 10
10.2392900046
 20
8.3561386505
 30
0.0
 10
10.2719414322
 20
8.3723689921
 30
0.0
 10
10.303646215
 20
8.3902452815
 30
0.0
 10
10.3343278692
 20
8.4097244534
 30
0.0
 10
10.3639123755
 20
8.430759565
 30
0.0
 10
10.3923283609
 20
8.4532999082
 30
0.0
 10
10.4195072735
 20
8.477291133
 30
0.0
 10
10.4453835504
 20
8.5026753793
 30
0.0
 10
10.4698947777
 20
8.529391418
 30
0.0
 10
10.4929818435
 20
8.5573748008
 30
0.0
 10
10.5145890814
 20
8.5865580175
 30
0.0
 10
10.5346644062
 20
8.6168706618
 30
0.0
 10
10.553159439
 20
8.6482396039
 30
0.0
 10
10.5700296284
 20
8.6805891669
 30
0.0
 10
10.5852343559
 20
8.7138413143
 30
0.0
 10
10.5987370301
 20
8.7479158414
 30
0.0
 10
10.6105051737
 20
8.782730571
 30
0.0
 10
10.6205105006
 20
8.8182015535
 30
0.0
 10
10.6287289808
 20
8.85424327
 30
0.0
 10
10.635140897
 20
8.8907688401
 30
0.0
 10
10.6397308892
 20
8.9276902315
 30
0.0
 10
10.6424879895
 20
8.9649184724
 30
0.0
 10
10.6434056462
 20
9.0023638656
 30
0.0
 10
10.6424817376
 20
9.0399362041
 30
0.0
 10
10.6397185806
 20
9.0775449882
 30
0.0
 10
10.6351229177
 20
9.1150996431
 30
0.0
 10
10.6287058996
 20
9.1525097354
 30
0.0
 10
10.6204830563
 20
9.1896851905
 30
0.0
 10
10.6104742595
 20
9.2265365074
 30
0.0
 10
10.5987036733
 20
9.2629749729
 30
0.0
 10
10.5851996955
 20
9.298912874
 30
0.0
 10
10.5699948892
 20
9.3342637071
 30
0.0
 10
10.5531259039
 20
9.3689423854
 30
0.0
 10
10.534633387
 20
9.4028654419
 30
0.0
 10
10.5145618882
 20
9.4359512302
 30
0.0
 10
10.4929597539
 20
9.4681201216
 30
0.0
 10
10.4698790071
 20
9.4992946937
 30
0.0
 10
10.4453752226
 20
9.5293999157
 30
0.0
 10
10.4195073943
 20
9.5583633283
 30
0.0
 10
10.3923377934
 20
9.5861152169
 30
0.0
 10
10.3639318197
 20
9.6125887786
 30
0.0
 10
10.3343578441
 20
9.6377202823
 30
0.0
 10
10.3036870459
 20
9.6614492211
 30
0.0
 10
10.2719932419
 20
9.6837184579
 30
0.0
 10
10.2393527094
 20
9.7044743614
 30
0.0
 10
10.2058440062
 20
9.7236669389
 30
0.0
 10
10.1715477807
 20
9.741249956
 30
0.0
 10
10.1365465781
 20
9.7571810421
 30
0.0
 10
10.1009246403
 20
9.7714218024
 30
0.0
 10
10.0647677188
 20
9.7839378845
 30
0.0
 10
10.0281628117
 20
9.7946991264
 30
0.0
 10
9.9911981662
 20
9.8036794773
 30
0.0
 10
9.9539623576
 20
9.8108573816
 30
0.0
 10
9.9165463439
 20
9.8162152321
 30
0.0
 10
9.8914971572
 20
9.8185693664
 30
0.0
 10
9.8789743721
 20
9.8194378245
 30
0.0
  0
SPLINE
  5
35C
100
AcDbEntity
  8
0
100
AcDbSpline
 62
7
  6
CONTINUOUS
 70
0
 71
3
 72
48
 73
44
 74
0
 42
0.0000001
 43
0.0000001
 44
0.0000000001
 40
0.0
 40
0.0
 40
0.0
 40
0.0
 40
0.0311434645
 40
0.0624399987
 40
0.0938836188
 40
0.1254646915
 40
0.1571709918
 40
0.1889877704
 40
0.2208980829
 40
0.252883145
 40
0.2849227154
 40
0.3169954955
 40
0.3490795445
 40
0.3811527045
 40
0.4131930278
 40
0.4451792012
 40
0.4770909606
 40
0.5089094951
 40
0.5406178259
 40
0.5722011588
 40
0.6036472094
 40
0.6349464788
 40
0.6660924859
 40
0.6970819508
 40
0.7279149061
 40
0.7432762793
 40
0.758600081
 40
0.7738872587
 40
0.7891389599
 40
0.8043565324
 40
0.8195415168
 40
0.8346956357
 40
0.8498207885
 40
0.8649190422
 40
0.8799926167
 40
0.8950438753
 40
0.9100753128
 40
0.9250895384
 40
0.940089262
 40
0.9550772806
 40
0.9700564593
 40
0.9850297147
 40
1.0
 40
1.0
 40
1.0
 40
1.0
 10
9.8846477612
 20
6.3735877416
 30
0.0
 10
9.8662027181
 20
6.3748669097
 30
0.0
 10
9.8293018808
 20
6.3787816466
 30
0.0
 10
9.7743980154
 20
6.3886429382
 30
0.0
 10
9.7200822153
 20
6.4024556545
 30
0.0
 10
9.6666478497
 20
6.4201455562
 30
0.0
 10
9.614378759
 20
6.4416177737
 30
0.0
 10
9.5635537839
 20
6.4667574635
 30
0.0
 10
9.5144436995
 20
6.4954303289
 30
0.0
 10
9.4673101456
 20
6.5274831929
 30
0.0
 10
9.4224042808
 20
6.5627450775
 30
0.0
 10
9.3799653991
 20
6.6010279274
 30
0.0
 10
9.3402195999
 20
6.6421275775
 30
0.0
 10
9.3033787863
 20
6.6858250213
 30
0.0
 10
9.2696393728
 20
6.731887378
 30
0.0
 10
9.2391812547
 20
6.7800691667
 30
0.0
 10
9.2121670442
 20
6.8301137112
 30
0.0
 10
9.1887409635
 20
6.8817543288
 30
0.0
 10
9.1690281772
 20
6.9347158244
 30
0.0
 10
9.1531342713
 20
6.9887159572
 30
0.0
 10
9.1411444034
 20
7.0434668837
 30
0.0
 10
9.1331229979
 20
7.0986765191
 30
0.0
 10
9.1291136028
 20
7.1540509329
 30
0.0
 10
9.1291378333
 20
7.2092926169
 30
0.0
 10
9.132525114
 20
7.2550356382
 30
0.0
 10
9.1372476136
 20
7.2912583032
 30
0.0
 10
9.1417835214
 20
7.318178494
 30
0.0
 10
9.1473114789
 20
7.3448457836
 30
0.0
 10
9.1538242181
 20
7.3712250093
 30
0.0
 10
9.1613130021
 20
7.397280815
 30
0.0
 10
9.1697678192
 20
7.4229784376
 30
0.0
 10
9.1791774716
 20
7.4482835085
 30
0.0
 10
9.1895293645
 20
7.4731622319
 30
0.0
 10
9.2008096481
 20
7.497581383
 30
0.0
 10
9.2130033398
 20
7.521508298
 30
0.0
 10
9.2260941323
 20
7.5449110138
 30
0.0
 10
9.2400645048
 20
7.5677582833
 30
0.0
 10
9.2548958652
 20
7.5900195321
 30
0.0
 10
9.2705683951
 20
7.6116650236
 30
0.0
 10
9.2870610862
 20
7.6326658389
 30
0.0
 10
9.3043520631
 20
7.6529939722
 30
0.0
 10
9.3224178432
 20
7.6726218718
 30
0.0
 10
9.334963457
 20
7.6852242326
 30
0.0
 10
9.3413559149
 20
7.6913988566
 30
0.0
  0
SPLINE
  5
35D
100
AcDbEntity
  8
0
100
AcDbSpline
 62
7
  6
CONTINUOUS
 70
0
 71
3
 72
21
 73
17
 74
0
 42
0.0000001
 43
0.0000001
 44
0.0000000001
 40
0.0
 40
0.0
 40
0.0
 40
0.0
 40
0.127022667
 40
0.2533990101
 40
0.3163606356
 40
0.3791674048
 40
0.4418234886
 40
0.5043336842
 40
0.5667036318
 40
0.6289397911
 40
0.6910493757
 40
0.7530403387
 40
0.814921315
 40
0.8767015794
 40
0.9383910062
 40
1.0
 40
1.0
 40
1.0
 40
1.0
 10
10.1080496632
 20
6.5893774212
 30
0.0
 10
10.1265104099
 20
6.5880971641
 30
0.0
 10
10.1634448893
 20
6.5868867821
 30
0.0
 10
10.2095385387
 20
6.588786176
 30
0.0
 10
10.2461055708
 20
6.5923535621
 30
0.0
 10
10.2733136337
 20
6.5960426879
 30
0.0
 10
10.3002982256
 20
6.6007435978
 30
0.0
 10
10.3270232956
 20
6.6064499288
 30
0.0
 10
10.3534526172
 20
6.6131539541
 30
0.0
 10
10.3795504727
 20
6.6208467036
 30
0.0
 10
10.4052815762
 20
6.6295177694
 30
0.0
 10
10.4306111684
 20
6.6391554073
 30
0.0
 10
10.4555049443
 20
6.6497466506
 30
0.0
 10
10.4799293676
 20
6.661277265
 30
0.0
 10
10.5038509807
 20
6.6737313303
 30
0.0
 10
10.5194523325
 20
6.6826445057
 30
0.0
 10
10.5271569163
 20
6.6872485548
 30
0.0
  0
SPLINE
  5
35E
100
AcDbEntity
  8
0
100
AcDbSpline
 62
7
  6
CONTINUOUS
 70
0
 71
3
 72
43
 73
39
 74
0
 42
0.0000001
 43
0.0000001
 44
0.0000000001
 40
0.0
 40
0.0
 40
0.0
 40
0.0
 40
0.0310091444
 40
0.062157145
 40
0.0934395493
 40
0.1248488956
 40
0.1563758924
 40
0.1880092274
 40
0.2197358454
 40
0.2515411714
 40
0.2834093571
 40
0.3153235436
 40
0.3472661359
 40
0.3792190868
 40
0.4111641841
 40
0.4430833403
 40
0.4749588816
 40
0.5067738313
 40
0.538512186
 40
0.5701591794
 40
0.6017015332
 40
0.6331276893
 40
0.6644280186
 40
0.6955950038
 40
0.7266233935
 40
0.7575103235
 40
0.788255398
 40
0.8188607296
 40
0.8341145396
 40
0.8493353549
 40
0.8645241344
 40
0.8796819862
 40
0.9099055255
 40
0.9400220919
 40
0.9550467607
 40
0.970049965
 40
0.9850336858
 40
1.0
 40
1.0
 40
1.0
 40
1.0
 10
10.1080496632
 20
6.5893774212
 30
0.0
 10
10.0912982687
 20
6.5905391344
 30
0.0
 10
10.0577873456
 20
6.5939808418
 30
0.0
 10
10.0078666269
 20
6.6024384059
 30
0.0
 10
9.9583867499
 20
6.6141656046
 30
0.0
 10
9.9095682571
 20
6.6291104503
 30
0.0
 10
9.8616252709
 20
6.647206864
 30
0.0
 10
9.8147689007
 20
6.6683749533
 30
0.0
 10
9.7692051934
 20
6.6925213232
 30
0.0
 10
9.725134571
 20
6.7195395459
 30
0.0
 10
9.68275087
 20
6.7493106174
 30
0.0
 10
9.6422405213
 20
6.7817034677
 30
0.0
 10
9.6037816905
 20
6.8165754892
 30
0.0
 10
9.5675435476
 20
6.8537732229
 30
0.0
 10
9.5336855253
 20
6.8931330169
 30
0.0
 10
9.5023566373
 20
6.9344817464
 30
0.0
 10
9.4736947719
 20
6.9776375243
 30
0.0
 10
9.4478261146
 20
7.0224105234
 30
0.0
 10
9.4248646209
 20
7.0686038167
 30
0.0
 10
9.4049115189
 20
7.1160142298
 30
0.0
 10
9.3880548429
 20
7.1644332109
 30
0.0
 10
9.3743690037
 20
7.2136477337
 30
0.0
 10
9.3639145238
 20
7.263441237
 30
0.0
 10
9.3567377642
 20
7.3135946053
 30
0.0
 10
9.3528706909
 20
7.3638869434
 30
0.0
 10
9.3523307723
 20
7.4140971873
 30
0.0
 10
9.3551204813
 20
7.4640026543
 30
0.0
 10
9.360216716
 20
7.5052047648
 30
0.0
 10
9.3659433231
 20
7.537785733
 30
0.0
 10
9.371051541
 20
7.5619844107
 30
0.0
 10
9.3769720321
 20
7.5859437842
 30
0.0
 10
9.3859303369
 20
7.6175013974
 30
0.0
 10
9.3991224015
 20
7.6562337386
 30
0.0
 10
9.4149452828
 20
7.6938902975
 30
0.0
 10
9.429122631
 20
7.7232173489
 30
0.0
 10
9.4404965411
 20
7.7447808825
 30
0.0
 10
9.4526059358
 20
7.7659030727
 30
0.0
 10
9.4611653693
 20
7.7796832434
 30
0.0
 10
9.4655626094
 20
7.7864909362
 30
0.0
  0
SPLINE
  5
35F
100
AcDbEntity
  8
0
100
AcDbSpline
 62
7
  6
CONTINUOUS
 70
0
 71
3
 72
42
 73
38
 74
0
 42
0.0000001
 43
0.0000001
 44
0.0000000001
 40
0.0
 40
0.0
 40
0.0
 40
0.0
 40
0.0310942582
 40
0.062336118
 40
0.093720251
 40
0.1252378796
 40
0.1568779719
 40
0.1886271638
 40
0.2204700739
 40
0.2523896042
 40
0.2843672613
 40
0.3163835011
 40
0.3484180852
 40
0.3804504459
 40
0.412460055
 40
0.4444267934
 40
0.4763313135
 40
0.5081553952
 40
0.5398822841
 40
0.57149701
 40
0.6029866828
 40
0.6343407588
 40
0.6655512669
 40
0.6966129953
 40
0.7275236344
 40
0.7582838636
 40
0.7888973795
 40
0.8193708652
 40
0.8497138977
 40
0.8799387832
 40
0.9100603305
 40
0.9250902199
 40
0.9401008231
 40
0.9550945574
 40
0.9700739296
 40
0.9850415263
 40
1.0
 40
1.0
 40
1.0
 40
1.0
 10
10.1080496632
 20
6.6347759377
 30
0.0
 10
10.0913248637
 20
6.6359358065
 30
0.0
 10
10.0578661654
 20
6.6394418559
 30
0.0
 10
10.0080599591
 20
6.6481924268
 30
0.0
 10
9.9587501664
 20
6.6604038388
 30
0.0
 10
9.9101847
 20
6.6760150248
 30
0.0
 10
9.8626037826
 20
6.6949481126
 30
0.0
 10
9.8162436949
 20
6.7171087682
 30
0.0
 10
9.7713343601
 20
6.7423867545
 30
0.0
 10
9.7280985964
 20
6.7706564608
 30
0.0
 10
9.686750847
 20
6.8017774127
 30
0.0
 10
9.6474962031
 20
6.835595059
 30
0.0
 10
9.6105294234
 20
6.8719415597
 30
0.0
 10
9.5760339482
 20
6.9106365621
 30
0.0
 10
9.5441809336
 20
6.951488043
 30
0.0
 10
9.5151285041
 20
6.9942933436
 30
0.0
 10
9.4890209856
 20
7.0388401513
 30
0.0
 10
9.4659880885
 20
7.0849074749
 30
0.0
 10
9.4461443111
 20
7.1322667715
 30
0.0
 10
9.4295884361
 20
7.1806830903
 30
0.0
 10
9.416403014
 20
7.2299161993
 30
0.0
 10
9.4066538322
 20
7.2797217366
 30
0.0
 10
9.4003897136
 20
7.329852453
 30
0.0
 10
9.3976422782
 20
7.3800594078
 30
0.0
 10
9.3984256684
 20
7.4300931816
 30
0.0
 10
9.4027364585
 20
7.4797051076
 30
0.0
 10
9.4105537763
 20
7.5286485434
 30
0.0
 10
9.4218392566
 20
7.5766798946
 30
0.0
 10
9.4365374688
 20
7.6235605384
 30
0.0
 10
9.4545747961
 20
7.6690554974
 30
0.0
 10
9.4723306625
 20
7.7056574597
 30
0.0
 10
9.4881035708
 20
7.7340088014
 30
0.0
 10
9.5006967586
 20
7.7547757081
 30
0.0
 10
9.5140448598
 20
7.7750326073
 30
0.0
 10
9.5281316231
 20
7.7947547316
 30
0.0
 10
9.5429391047
 20
7.8139171578
 30
0.0
 10
9.5532822625
 20
7.8263069737
 30
0.0
 10
9.5585667764
 20
7.8323995743
 30
0.0
  0
SPLINE
  5
360
100
AcDbEntity
  8
0
100
AcDbSpline
 62
7
  6
CONTINUOUS
 70
0
 71
3
 72
45
 73
41
 74
0
 42
0.0000001
 43
0.0000001
 44
0.0000000001
 40
0.0
 40
0.0
 40
0.0
 40
0.0
 40
0.0311131956
 40
0.0623760563
 40
0.093783047
 40
0.1253250413
 40
0.1569905747
 40
0.1887657635
 40
0.2206346414
 40
0.2525794795
 40
0.284581128
 40
0.316619382
 40
0.3486733596
 40
0.3807218888
 40
0.4127438981
 40
0.4447188059
 40
0.4766269032
 40
0.5084497258
 40
0.5401704101
 40
0.5717740241
 40
0.6032478719
 40
0.6345817682
 40
0.665768267
 40
0.6968028451
 40
0.727684037
 40
0.7584135112
 40
0.7889960798
 40
0.8194396425
 40
0.8346152087
 40
0.8497603351
 40
0.8648768123
 40
0.879966584
 40
0.8950317432
 40
0.9100745203
 40
0.925097267
 40
0.9401024496
 40
0.955092633
 40
0.970070464
 40
0.985038662
 40
1.0
 40
1.0
 40
1.0
 40
1.0
 10
10.1147739737
 20
6.6557600115
 30
0.0
 10
10.0981625424
 20
6.6569120182
 30
0.0
 10
10.064930408
 20
6.6604107658
 30
0.0
 10
10.0154703769
 20
6.6691742283
 30
0.0
 10
9.9665171524
 20
6.6814212278
 30
0.0
 10
9.9183237225
 20
6.6970888052
 30
0.0
 10
9.8711351214
 20
6.7160966258
 30
0.0
 10
9.8251922167
 20
6.7383473386
 30
0.0
 10
9.7807292149
 20
6.7637271649
 30
0.0
 10
9.7379728711
 20
6.792106469
 30
0.0
 10
9.6971411733
 20
6.8233403117
 30
0.0
 10
9.6584423002
 20
6.8572692513
 30
0.0
 10
9.622073604
 20
6.893720193
 30
0.0
 10
9.5882206097
 20
6.9325072366
 30
0.0
 10
9.5570559823
 20
6.9734325378
 30
0.0
 10
9.5287387496
 20
7.0162874045
 30
0.0
 10
9.5034135179
 20
7.0608533444
 30
0.0
 10
9.4812096703
 20
7.1069031192
 30
0.0
 10
9.4622406792
 20
7.1542018886
 30
0.0
 10
9.4466036266
 20
7.2025084431
 30
0.0
 10
9.4343787104
 20
7.2515763989
 30
0.0
 10
9.4256286992
 20
7.301155408
 30
0.0
 10
9.4203986811
 20
7.3509924393
 30
0.0
 10
9.41871589
 20
7.4008331069
 30
0.0
 10
9.4205894444
 20
7.4504227382
 30
0.0
 10
9.4260104291
 20
7.499508416
 30
0.0
 10
9.4349510761
 20
7.5478375159
 30
0.0
 10
9.445310331
 20
7.5873239545
 30
0.0
 10
9.4553050474
 20
7.6182766231
 30
0.0
 10
9.4636367461
 20
7.6411283739
 30
0.0
 10
9.4728004619
 20
7.6636094744
 30
0.0
 10
9.4827846954
 20
7.6856915552
 30
0.0
 10
9.4935765858
 20
7.7073463066
 30
0.0
 10
9.5051623557
 20
7.7285460763
 30
0.0
 10
9.5175272844
 20
7.7492636982
 30
0.0
 10
9.5306554753
 20
7.7694727503
 30
0.0
 10
9.5445301809
 20
7.7891473374
 30
0.0
 10
9.5591337865
 20
7.8082623627
 30
0.0
 10
9.5744472126
 20
7.8267931227
 30
0.0
 10
9.5851189721
 20
7.8387444195
 30
0.0
 10
9.5905654733
 20
7.8446137568
 30
0.0
  0
SPLINE
  5
361
100
AcDbEntity
  8
0
100
AcDbSpline
 62
7
  6
CONTINUOUS
 70
0
 71
3
 72
17
 73
13
 74
0
 42
0.0000001
 43
0.0000001
 44
0.0000000001
 40
0.0
 40
0.0
 40
0.0
 40
0.0
 40
0.1232907431
 40
0.1850794128
 40
0.246968939
 40
0.371063671
 40
0.4956626422
 40
0.5581794239
 40
0.6208414623
 40
0.74659653
 40
0.8729783539
 40
1.0
 40
1.0
 40
1.0
 40
1.0
 10
11.0647650353
 20
9.9541314378
 30
0.0
 10
11.0607816766
 20
9.9517767772
 30
0.0
 10
11.05466109
 20
9.948472789
 30
0.0
 10
11.0462618836
 20
9.9445486425
 30
0.0
 10
11.0376896496
 20
9.9409386533
 30
0.0
 10
11.0266927129
 20
9.9370367251
 30
0.0
 10
11.0154081143
 20
9.9339771106
 30
0.0
 10
11.0062341511
 20
9.9320391374
 30
0.0
 10
10.9969511475
 20
9.9304397535
 30
0.0
 10
10.9852016247
 20
9.9290894102
 30
0.0
 10
10.9709709192
 20
9.9285152204
 30
0.0
 10
10.961455499
 20
9.928829622
 30
0.0
 10
10.956699632
 20
9.9291594425
 30
0.0
  0
SPLINE
  5
362
100
AcDbEntity
  8
0
100
AcDbSpline
 62
7
  6
CONTINUOUS
 70
0
 71
3
 72
40
 73
36
 74
0
 42
0.0000001
 43
0.0000001
 44
0.0000000001
 40
0.0
 40
0.0
 40
0.0
 40
0.0
 40
0.0310688088
 40
0.0622825121
 40
0.0936360885
 40
0.1251211565
 40
0.1567272546
 40
0.1884416713
 40
0.220249767
 40
0.2521352455
 40
0.284080452
 40
0.3160666889
 40
0.348074546
 40
0.3800842389
 40
0.4120759511
 40
0.4440301776
 40
0.4759280641
 40
0.5077517388
 40
0.5394846307
 40
0.5711117721
 40
0.6026200818
 40
0.6339986191
 40
0.6652388075
 40
0.6963346221
 40
0.7272827396
 40
0.7580826377
 40
0.7887366441
 40
0.8192499325
 40
0.8496304615
 40
0.8798888534
 40
0.9100382109
 40
0.9400938767
 40
0.970073139
 40
0.9850425235
 40
1.0
 40
1.0
 40
1.0
 40
1.0
 10
10.1567076035
 20
6.69626479
 30
0.0
 10
10.1406205791
 20
6.6973804289
 30
0.0
 10
10.1084380786
 20
6.7007320432
 30
0.0
 10
10.060520515
 20
6.7090579639
 30
0.0
 10
10.0130633834
 20
6.720654529
 30
0.0
 10
9.9662967419
 20
6.7354658168
 30
0.0
 10
9.9204436693
 20
6.7534205977
 30
0.0
 10
9.8757237428
 20
6.774432643
 30
0.0
 10
9.8323508259
 20
6.7984011321
 30
0.0
 10
9.7905324029
 20
6.8252111758
 30
0.0
 10
9.7504685136
 20
6.8547343639
 30
0.0
 10
9.7123508031
 20
6.8868293285
 30
0.0
 10
9.6763615948
 20
6.9213424156
 30
0.0
 10
9.6426730697
 20
6.9581084654
 30
0.0
 10
9.6114464501
 20
6.9969515846
 30
0.0
 10
9.5828312235
 20
7.0376859647
 30
0.0
 10
9.5569643786
 20
7.0801167301
 30
0.0
 10
9.5339698236
 20
7.1240409158
 30
0.0
 10
9.5139577899
 20
7.1692484148
 30
0.0
 10
9.4970243162
 20
7.2155229707
 30
0.0
 10
9.483250702
 20
7.262643169
 30
0.0
 10
9.4727031887
 20
7.3103835195
 30
0.0
 10
9.4654326424
 20
7.3585155165
 30
0.0
 10
9.4614743166
 20
7.4068087157
 30
0.0
 10
9.4608475908
 20
7.4550318153
 30
0.0
 10
9.4635558959
 20
7.5029537668
 30
0.0
 10
9.4695867226
 20
7.5503448728
 30
0.0
 10
9.4789116525
 20
7.596977863
 30
0.0
 10
9.4914864578
 20
7.6426290322
 30
0.0
 10
9.5072511398
 20
7.6870791704
 30
0.0
 10
9.5261307375
 20
7.7301152166
 30
0.0
 10
9.5480339143
 20
7.7715290225
 30
0.0
 10
9.5687333319
 20
7.8045449691
 30
0.0
 10
9.5866859251
 20
7.8299383918
 30
0.0
 10
9.5961181438
 20
7.8422851644
 30
0.0
 10
9.6009444724
 20
7.8483660155
 30
0.0
  0
SPLINE
  5
363
100
AcDbEntity
  8
0
100
AcDbSpline
 62
7
  6
CONTINUOUS
 70
0
 71
3
 72
39
 73
35
 74
0
 42
0.0000001
 43
0.0000001
 44
0.0000000001
 40
0.0
 40
0.0
 40
0.0
 40
0.0
 40
0.0311218488
 40
0.0623941839
 40
0.0938114003
 40
0.1253642166
 40
0.1570409995
 40
0.1888276526
 40
0.2207079725
 40
0.2526639748
 40
0.2846762449
 40
0.3167243112
 40
0.3487870333
 40
0.3808429973
 40
0.4128709152
 40
0.4448500234
 40
0.4767604727
 40
0.5085837071
 40
0.5403028259
 40
0.5719029225
 40
0.6033713911
 40
0.6346982
 40
0.6658761263
 40
0.6969009381
 40
0.7277715228
 40
0.7584899562
 40
0.7890615096
 40
0.8194945829
 40
0.8498005657
 40
0.8799936292
 40
0.9100904476
 40
0.9401098492
 40
0.9700724103
 40
1.0
 40
1.0
 40
1.0
 40
1.0
 10
10.1687426792
 20
6.7528053347
 30
0.0
 10
10.1531191236
 20
6.7538888319
 30
0.0
 10
10.1218632065
 20
6.757185678
 30
0.0
 10
10.0753477826
 20
6.7654550323
 30
0.0
 10
10.0293142309
 20
6.7770180347
 30
0.0
 10
9.9840030422
 20
6.7918145874
 30
0.0
 10
9.9396471183
 20
6.8097680023
 30
0.0
 10
9.8964753383
 20
6.830785329
 30
0.0
 10
9.8547101804
 20
6.8547579114
 30
0.0
 10
9.8145669518
 20
6.8815619475
 30
0.0
 10
9.7762525778
 20
6.9110590906
 30
0.0
 10
9.7399645284
 20
6.9430971082
 30
0.0
 10
9.7058898673
 20
6.9775107535
 30
0.0
 10
9.6742043081
 20
7.0141225986
 30
0.0
 10
9.6450712741
 20
7.0527438964
 30
0.0
 10
9.6186410319
 20
7.093175533
 30
0.0
 10
9.595049997
 20
7.1352091022
 30
0.0
 10
9.5744200425
 20
7.1786279565
 30
0.0
 10
9.5568577994
 20
7.2232082697
 30
0.0
 10
9.5424541075
 20
7.2687201916
 30
0.0
 10
9.5312836155
 20
7.3149290447
 30
0.0
 10
9.5234043972
 20
7.3615965051
 30
0.0
 10
9.5188575397
 20
7.4084817953
 30
0.0
 10
9.5176669608
 20
7.4553429322
 30
0.0
 10
9.5198393231
 20
7.5019379624
 30
0.0
 10
9.5253639817
 20
7.5480261873
 30
0.0
 10
9.5342128932
 20
7.593369411
 30
0.0
 10
9.546340821
 20
7.6377331796
 30
0.0
 10
9.561685551
 20
7.6808879621
 30
0.0
 10
9.5801682572
 20
7.7226104177
 30
0.0
 10
9.601693488
 20
7.7626843251
 30
0.0
 10
9.6261507936
 20
7.8009028028
 30
0.0
 10
9.6534113988
 20
7.8370652707
 30
0.0
 10
9.6733726513
 20
7.8596918399
 30
0.0
 10
9.6837634326
 20
7.8705931479
 30
0.0
  0
SPLINE
  5
364
100
AcDbEntity
  8
0
100
AcDbSpline
 62
7
  6
CONTINUOUS
 70
0
 71
3
 72
39
 73
35
 74
0
 42
0.0000001
 43
0.0000001
 44
0.0000000001
 40
0.0
 40
0.0
 40
0.0
 40
0.0
 40
0.0310058087
 40
0.0621511473
 40
0.0934296835
 40
0.1248352673
 40
0.1563581737
 40
0.1879873334
 40
0.2197097332
 40
0.2515109076
 40
0.2833751063
 40
0.3152855738
 40
0.3472248176
 40
0.3791748897
 40
0.4111176714
 40
0.4430351598
 40
0.4749097529
 40
0.5067245305
 40
0.5384635275
 40
0.5701119959
 40
0.6016566541
 40
0.6330859181
 40
0.6643901097
 40
0.6955616393
 40
0.7265951593
 40
0.7574876843
 40
0.7882386743
 40
0.8188500776
 40
0.8493263303
 40
0.8796743114
 40
0.9099032488
 40
0.9400245773
 40
0.9700517493
 40
1.0
 40
1.0
 40
1.0
 40
1.0
 10
9.2663294222
 20
6.1826832791
 30
0.0
 10
9.2619918494
 20
6.1829840908
 30
0.0
 10
9.2533144679
 20
6.1838745906
 30
0.0
 10
9.2403875674
 20
6.1860613529
 30
0.0
 10
9.227574204
 20
6.1890928309
 30
0.0
 10
9.2149313214
 20
6.1929554314
 30
0.0
 10
9.2025139993
 20
6.1976323045
 30
0.0
 10
9.1903766745
 20
6.2031028302
 30
0.0
 10
9.1785724497
 20
6.2093430328
 30
0.0
 10
9.167152992
 20
6.2163255343
 30
0.0
 10
9.1561682788
 20
6.2240197364
 30
0.0
 10
9.1456663854
 20
6.2323919284
 30
0.0
 10
9.135693272
 20
6.2414054382
 30
0.0
 10
9.1262925892
 20
6.2510207972
 30
0.0
 10
9.1175054879
 20
6.2611959107
 30
0.0
 10
9.1093704415
 20
6.2718862411
 30
0.0
 10
9.1019230785
 20
6.2830450006
 30
0.0
 10
9.0951960282
 20
6.2946233539
 30
0.0
 10
9.0892187783
 20
6.3065706297
 30
0.0
 10
9.0840175476
 20
6.3188345401
 30
0.0
 10
9.0796151651
 20
6.3313614047
 30
0.0
 10
9.0760309696
 20
6.3440963848
 30
0.0
 10
9.0732807303
 20
6.356983723
 30
0.0
 10
9.0713765753
 20
6.3699669837
 30
0.0
 10
9.0703269374
 20
6.3829892974
 30
0.0
 10
9.0701365142
 20
6.395993607
 30
0.0
 10
9.0708062447
 20
6.4089229145
 30
0.0
 10
9.0723333016
 20
6.4217205305
 30
0.0
 10
9.0747110973
 20
6.4343303155
 30
0.0
 10
9.0779293115
 20
6.4466969499
 30
0.0
 10
9.0819738884
 20
6.4587660958
 30
0.0
 10
9.086827284
 20
6.4704849412
 30
0.0
 10
9.0924678393
 20
6.4818013032
 30
0.0
 10
9.096742421
 20
6.4890540046
 30
0.0
 10
9.0990011303
 20
6.4925945712
 30
0.0
  0
SPLINE
  5
365
100
AcDbEntity
  8
0
100
AcDbSpline
 62
7
  6
CONTINUOUS
 70
0
 71
3
 72
40
 73
36
 74
0
 42
0.0000001
 43
0.0000001
 44
0.0000000001
 40
0.0
 40
0.0
 40
0.0
 40
0.0
 40
0.0311448352
 40
0.0467776712
 40
0.0624478163
 40
0.0938928931
 40
0.1254753683
 40
0.1571831038
 40
0.1890013145
 40
0.2209130644
 40
0.2528995674
 40
0.2849405815
 40
0.3170148072
 40
0.349100303
 40
0.3811749104
 40
0.4132166804
 40
0.4452042987
 40
0.4771175008
 40
0.5089374741
 40
0.5406472387
 40
0.5722320012
 40
0.6036794751
 40
0.6349801612
 40
0.6661275796
 40
0.6971184487
 40
0.7279528012
 40
0.7586340346
 40
0.7891688873
 40
0.8195673392
 40
0.849842433
 40
0.8800100174
 40
0.9100884154
 40
0.9400980228
 40
0.9700608475
 40
1.0
 40
1.0
 40
1.0
 40
1.0
 10
10.7786322699
 20
5.8026587998
 30
0.0
 10
10.7716269502
 20
5.8031446204
 30
0.0
 10
10.7611269188
 20
5.8042586071
 30
0.0
 10
10.7472239309
 20
5.8064972701
 30
0.0
 10
10.7333430216
 20
5.8092456665
 30
0.0
 10
10.7161309031
 20
5.8136227222
 30
0.0
 10
10.6958371506
 20
5.8203411716
 30
0.0
 10
10.6759855418
 20
5.8284962101
 30
0.0
 10
10.6566825131
 20
5.8380441158
 30
0.0
 10
10.6380307479
 20
5.8489338876
 30
0.0
 10
10.6201296727
 20
5.861107377
 30
0.0
 10
10.6030746531
 20
5.8744996281
 30
0.0
 10
10.5869565678
 20
5.8890392148
 30
0.0
 10
10.5718613093
 20
5.9046486204
 30
0.0
 10
10.5578693365
 20
5.9212446461
 30
0.0
 10
10.5450552486
 20
5.9387388507
 30
0.0
 10
10.5334873912
 20
5.9570380163
 30
0.0
 10
10.5232274953
 20
5.9760446405
 30
0.0
 10
10.5143303479
 20
5.9956574481
 30
0.0
 10
10.5068435021
 20
6.0157719257
 30
0.0
 10
10.5008070239
 20
6.0362808713
 30
0.0
 10
10.496253277
 20
6.057074958
 30
0.0
 10
10.4932067464
 20
6.0780433091
 30
0.0
 10
10.4916839035
 20
6.0990740812
 30
0.0
 10
10.49169311
 20
6.1200550532
 30
0.0
 10
10.4932345646
 20
6.1408742192
 30
0.0
 10
10.4963002904
 20
6.1614203812
 30
0.0
 10
10.5008741635
 20
6.1815837407
 30
0.0
 10
10.5069319884
 20
6.201256488
 30
0.0
 10
10.5144416026
 20
6.220333373
 30
0.0
 10
10.5233630716
 20
6.2387123119
 30
0.0
 10
10.5336487565
 20
6.2562948112
 30
0.0
 10
10.5452440619
 20
6.2729870052
 30
0.0
 10
10.5580858535
 20
6.2886983316
 30
0.0
 10
10.5674363616
 20
6.2984666632
 30
0.0
 10
10.5722915356
 20
6.3031564265
 30
0.0
  0
SPLINE
  5
366
100
AcDbEntity
  8
0
100
AcDbSpline
 62
7
  6
CONTINUOUS
 70
0
 71
3
 72
42
 73
38
 74
0
 42
0.0000001
 43
0.0000001
 44
0.0000000001
 40
0.0
 40
0.0
 40
0.0
 40
0.0
 40
0.0307880151
 40
0.0462275343
 40
0.0616954492
 40
0.0927133064
 40
0.1238401758
 40
0.1550703011
 40
0.1863967697
 40
0.2178115213
 40
0.2493054805
 40
0.2808686594
 40
0.3124902809
 40
0.3441589042
 40
0.3758625583
 40
0.4075888776
 40
0.4393252427
 40
0.4710589212
 40
0.5027772112
 40
0.5344675829
 40
0.5661178204
 40
0.5977161597
 40
0.629251424
 40
0.660713154
 40
0.6920917318
 40
0.7233784982
 40
0.7545658612
 40
0.7856473944
 40
0.8166179242
 40
0.8474736055
 40
0.8628590257
 40
0.8782149304
 40
0.9088349794
 40
0.939337143
 40
0.9545460813
 40
0.9697263897
 40
1.0
 40
1.0
 40
1.0
 40
1.0
 10
10.4802311429
 20
7.0536801042
 30
0.0
 10
10.4681308357
 20
7.0545192633
 30
0.0
 10
10.4499923498
 20
7.0562844011
 30
0.0
 10
10.425916282
 20
7.0596338274
 30
0.0
 10
10.4018510885
 20
7.063656563
 30
0.0
 10
10.3719088374
 20
7.0699327408
 30
0.0
 10
10.336349865
 20
7.0794238142
 30
0.0
 10
10.3012372125
 20
7.0908523811
 30
0.0
 10
10.2666803485
 20
7.1041827959
 30
0.0
 10
10.2327861632
 20
7.119373691
 30
0.0
 10
10.1996597138
 20
7.1363778995
 30
0.0
 10
10.1674036122
 20
7.1551426644
 30
0.0
 10
10.1361177875
 20
7.1756097822
 30
0.0
 10
10.1058991575
 20
7.1977157893
 30
0.0
 10
10.0768413364
 20
7.2213921559
 30
0.0
 10
10.0490343452
 20
7.2465654982
 30
0.0
 10
10.0225643345
 20
7.2731578045
 30
0.0
 10
9.9975133199
 20
7.3010866755
 30
0.0
 10
9.9739589286
 20
7.3302655785
 30
0.0
 10
9.9519741608
 20
7.3606041138
 30
0.0
 10
9.9316271641
 20
7.3920082931
 30
0.0
 10
9.9129810237
 20
7.4243808287
 30
0.0
 10
9.8960935674
 20
7.4576214326
 30
0.0
 10
9.8810171867
 20
7.4916271268
 30
0.0
 10
9.8677986752
 20
7.5262925537
 30
0.0
 10
9.8564790824
 20
7.5615103224
 30
0.0
 10
9.8470935889
 20
7.5971712563
 30
0.0
 10
9.8396713863
 20
7.6331650362
 30
0.0
 10
9.834235623
 20
7.6693793962
 30
0.0
 10
9.8313725004
 20
7.6996797212
 30
0.0
 10
9.8300920666
 20
7.7239156023
 30
0.0
 10
9.8294856378
 20
7.7480848747
 30
0.0
 10
9.8299854824
 20
7.7782269637
 30
0.0
 10
9.8321690493
 20
7.8082361921
 30
0.0
 10
9.8349228439
 20
7.8320696065
 30
0.0
 10
9.8383379131
 20
7.8557256027
 30
0.0
 10
9.841652133
 20
7.8733364923
 30
0.0
 10
9.8441935488
 20
7.88498929
 30
0.0
  0
SPLINE
  5
367
100
AcDbEntity
  8
0
100
AcDbSpline
 62
7
  6
CONTINUOUS
 70
0
 71
3
 72
40
 73
36
 74
0
 42
0.0000001
 43
0.0000001
 44
0.0000000001
 40
0.0
 40
0.0
 40
0.0
 40
0.0
 40
0.030786493
 40
0.0616893228
 40
0.0927052991
 40
0.1238301364
 40
0.1550581004
 40
0.1863823104
 40
0.2177947408
 40
0.2492863555
 40
0.2808472088
 40
0.3124665678
 40
0.3441330376
 40
0.3758346932
 40
0.4075592148
 40
0.439294027
 40
0.4710264395
 40
0.5027437885
 40
0.5344335789
 40
0.5660836238
 40
0.5976821828
 40
0.6292180959
 40
0.6606809134
 40
0.6920610193
 40
0.7233497476
 40
0.754539491
 40
0.7856237987
 40
0.8165974641
 40
0.8474565994
 40
0.8781986966
 40
0.9088226741
 40
0.9393289056
 40
0.9545399011
 40
0.9697222735
 40
1.0
 40
1.0
 40
1.0
 40
1.0
 10
10.4901750427
 20
7.1003963465
 30
0.0
 10
10.4787831256
 20
7.1011863786
 30
0.0
 10
10.4559952303
 20
7.1034028955
 30
0.0
 10
10.4219888985
 20
7.1086082121
 30
0.0
 10
10.3881929846
 20
7.1156845775
 30
0.0
 10
10.3547133179
 20
7.1246098722
 30
0.0
 10
10.321652929
 20
7.13535647
 30
0.0
 10
10.2891140464
 20
7.147891048
 30
0.0
 10
10.2571971387
 20
7.1621748076
 30
0.0
 10
10.226000784
 20
7.1781635452
 30
0.0
 10
10.1956213203
 20
7.1958078097
 30
0.0
 10
10.1661525623
 20
7.2150530465
 30
0.0
 10
10.1376855109
 20
7.2358397694
 30
0.0
 10
10.1103080748
 20
7.2581037424
 30
0.0
 10
10.0841048008
 20
7.2817761773
 30
0.0
 10
10.0591566141
 20
7.3067839457
 30
0.0
 10
10.0355405702
 20
7.3330498033
 30
0.0
 10
10.0133296179
 20
7.3604926273
 30
0.0
 10
9.9925923757
 20
7.3890276652
 30
0.0
 10
9.9733929204
 20
7.4185667957
 30
0.0
 10
9.9557905903
 20
7.4490187982
 30
0.0
 10
9.9398398027
 20
7.4802896331
 30
0.0
 10
9.9255898858
 20
7.5122827303
 30
0.0
 10
9.9130849272
 20
7.544899285
 30
0.0
 10
9.9023636368
 20
7.5780385604
 30
0.0
 10
9.8934592277
 20
7.6115981976
 30
0.0
 10
9.8863993112
 20
7.6454745244
 30
0.0
 10
9.8812058136
 20
7.6795628928
 30
0.0
 10
9.877894897
 20
7.7137579241
 30
0.0
 10
9.876476941
 20
7.7479541155
 30
0.0
 10
9.8769563828
 20
7.7820451113
 30
0.0
 10
9.8789381244
 20
7.8103082284
 30
0.0
 10
9.8814702971
 20
7.8327573809
 30
0.0
 10
9.8846243423
 20
7.8550414278
 30
0.0
 10
9.8876978147
 20
7.8716331747
 30
0.0
 10
9.8900589789
 20
7.8826127265
 30
0.0
  0
SPLINE
  5
368
100
AcDbEntity
  8
0
100
AcDbSpline
 62
7
  6
CONTINUOUS
 70
0
 71
3
 72
39
 73
35
 74
0
 42
0.0000001
 43
0.0000001
 44
0.0000000001
 40
0.0
 40
0.0
 40
0.0
 40
0.0
 40
0.03078211
 40
0.061680148
 40
0.0926908019
 40
0.123809948
 40
0.155031868
 40
0.1863497803
 40
0.2177557447
 40
0.2492408296
 40
0.2807951987
 40
0.3124082358
 40
0.3440686656
 40
0.375764684
 40
0.407484091
 40
0.439214427
 40
0.4709431114
 40
0.5026575821
 40
0.5343454341
 40
0.5659945581
 40
0.5975932759
 40
0.6291304727
 40
0.6605957249
 40
0.6919794222
 40
0.7232728832
 40
0.7544684617
 40
0.7855596451
 40
0.8165411412
 40
0.8474089528
 40
0.8781604398
 40
0.9087943656
 40
0.9393109285
 40
0.9697117759
 40
1.0
 40
1.0
 40
1.0
 40
1.0
 10
10.4958484318
 20
7.1146467272
 30
0.0
 10
10.4846662619
 20
7.1154222133
 30
0.0
 10
10.4622979382
 20
7.1175953115
 30
0.0
 10
10.4289165751
 20
7.1226932418
 30
0.0
 10
10.3957400285
 20
7.129620311
 30
0.0
 10
10.3628713522
 20
7.1383550025
 30
0.0
 10
10.3304108338
 20
7.1488705378
 30
0.0
 10
10.2984580226
 20
7.1611345626
 30
0.0
 10
10.2671107556
 20
7.1751094404
 30
0.0
 10
10.2364650482
 20
7.1907522785
 30
0.0
 10
10.2066147518
 20
7.208015099
 30
0.0
 10
10.1776512815
 20
7.2268449695
 30
0.0
 10
10.1496633352
 20
7.247184171
 30
0.0
 10
10.1227366242
 20
7.268970372
 30
0.0
 10
10.0969536125
 20
7.2921368195
 30
0.0
 10
10.072393266
 20
7.3166125422
 30
0.0
 10
10.0491308118
 20
7.3423225669
 30
0.0
 10
10.0272375094
 20
7.3691881466
 30
0.0
 10
10.0067804334
 20
7.3971270007
 30
0.0
 10
9.9878222691
 20
7.426053565
 30
0.0
 10
9.9704211214
 20
7.4558792527
 30
0.0
 10
9.9546303375
 20
7.4865127233
 30
0.0
 10
9.9404983438
 20
7.5178601606
 30
0.0
 10
9.9280684976
 20
7.5498255581
 30
0.0
 10
9.9173789539
 20
7.5823110104
 30
0.0
 10
9.9084625484
 20
7.6152170117
 30
0.0
 10
9.9013466962
 20
7.6484427567
 30
0.0
 10
9.8960533075
 20
7.6818864511
 30
0.0
 10
9.8925987157
 20
7.7154456084
 30
0.0
 10
9.890993635
 20
7.749017406
 30
0.0
 10
9.8912430913
 20
7.7824988356
 30
0.0
 10
9.8933465276
 20
7.8157876199
 30
0.0
 10
9.8972973428
 20
7.8487802879
 30
0.0
 10
9.9011625038
 20
7.870553284
 30
0.0
 10
9.9033990355
 20
7.8813533219
 30
0.0
  0
SPLINE
  5
369
100
AcDbEntity
  8
0
100
AcDbSpline
 62
7
  6
CONTINUOUS
 70
0
 71
3
 72
17
 73
13
 74
0
 42
0.0000001
 43
0.0000001
 44
0.0000000001
 40
0.0
 40
0.0
 40
0.0
 40
0.0
 40
0.1232907431
 40
0.1850794128
 40
0.246968939
 40
0.371063671
 40
0.4956626422
 40
0.5581794239
 40
0.6208414623
 40
0.74659653
 40
0.8729783539
 40
1.0
 40
1.0
 40
1.0
 40
1.0
 10
11.0647650353
 20
8.0222794405
 30
0.0
 10
11.0607816766
 20
8.0199247798
 30
0.0
 10
11.05466109
 20
8.0166207916
 30
0.0
 10
11.0462618836
 20
8.0126966451
 30
0.0
 10
11.0376896496
 20
8.009086656
 30
0.0
 10
11.0266927129
 20
8.0051847277
 30
0.0
 10
11.0154081143
 20
8.0021251133
 30
0.0
 10
11.0062341511
 20
8.0001871401
 30
0.0
 10
10.9969511475
 20
7.9985877561
 30
0.0
 10
10.9852016247
 20
7.9972374129
 30
0.0
 10
10.9709709192
 20
7.996663223
 30
0.0
 10
10.961455499
 20
7.9969776247
 30
0.0
 10
10.956699632
 20
7.9973074452
 30
0.0
  0
SPLINE
  5
36A
100
AcDbEntity
  8
0
100
AcDbSpline
 62
7
  6
CONTINUOUS
 70
0
 71
3
 72
39
 73
35
 74
0
 42
0.0000001
 43
0.0000001
 44
0.0000000001
 40
0.0
 40
0.0
 40
0.0
 40
0.0
 40
0.0307008712
 40
0.06150843
 40
0.0924193236
 40
0.1234308112
 40
0.1545381742
 40
0.185736147
 40
0.2170184458
 40
0.2483780069
 40
0.2798070144
 40
0.3112969901
 40
0.3428388771
 40
0.3744231287
 40
0.4060397998
 40
0.4376786415
 40
0.4693291975
 40
0.5009809017
 40
0.5326231769
 40
0.564245534
 40
0.5958376706
 40
0.6273895676
 40
0.6588915841
 40
0.69033455
 40
0.7217098546
 40
0.7530095327
 40
0.7842263448
 40
0.8153538535
 40
0.8463864932
 40
0.8773196312
 40
0.9081496234
 40
0.9388738591
 40
0.9694907988
 40
1.0
 40
1.0
 40
1.0
 40
1.0
 10
10.5752176541
 20
7.1913115134
 30
0.0
 10
10.5649543349
 20
7.192023277
 30
0.0
 10
10.5444244689
 20
7.1939707852
 30
0.0
 10
10.5137664606
 20
7.1984419944
 30
0.0
 10
10.4832668316
 20
7.2044570845
 30
0.0
 10
10.4530055397
 20
7.2120001501
 30
0.0
 10
10.4230603072
 20
7.221051825
 30
0.0
 10
10.3935085764
 20
7.2315885811
 30
0.0
 10
10.3644266009
 20
7.243583197
 30
0.0
 10
10.3358894647
 20
7.2570046416
 30
0.0
 10
10.3079708317
 20
7.2718182271
 30
0.0
 10
10.2807427637
 20
7.2879856627
 30
0.0
 10
10.2542755386
 20
7.3054651736
 30
0.0
 10
10.2286374704
 20
7.3242116064
 30
0.0
 10
10.2038947339
 20
7.3441765451
 30
0.0
 10
10.180111196
 20
7.365308436
 30
0.0
 10
10.1573482514
 20
7.3875527194
 30
0.0
 10
10.1356646659
 20
7.4108519698
 30
0.0
 10
10.1151164237
 20
7.4351460419
 30
0.0
 10
10.0957565746
 20
7.4603722186
 30
0.0
 10
10.0776351079
 20
7.4864653819
 30
0.0
 10
10.0607988225
 20
7.513358179
 30
0.0
 10
10.0452912076
 20
7.5409811951
 30
0.0
 10
10.0311523308
 20
7.5692631311
 30
0.0
 10
10.018418735
 20
7.5981309857
 30
0.0
 10
10.007123345
 20
7.6275102432
 30
0.0
 10
9.9972953789
 20
7.6573250623
 30
0.0
 10
9.9889602632
 20
7.6874984712
 30
0.0
 10
9.9821395791
 20
7.7179525611
 30
0.0
 10
9.9768510068
 20
7.7486087186
 30
0.0
 10
9.9731082719
 20
7.7793877027
 30
0.0
 10
9.9709211377
 20
7.8102103086
 30
0.0
 10
9.970295271
 20
7.8409958591
 30
0.0
 10
9.9709212729
 20
7.8614804189
 30
0.0
 10
9.9714956358
 20
7.8716880133
 30
0.0
  0
SPLINE
  5
36B
100
AcDbEntity
  8
0
100
AcDbSpline
 62
7
  6
CONTINUOUS
 70
0
 71
3
 72
39
 73
35
 74
0
 42
0.0000001
 43
0.0000001
 44
0.0000000001
 40
0.0
 40
0.0
 40
0.0
 40
0.0
 40
0.0306943322
 40
0.0614945422
 40
0.0923972618
 40
0.1233998684
 40
0.154497724
 40
0.1856856847
 40
0.2169576022
 40
0.2483065646
 40
0.2797249216
 40
0.3112043711
 40
0.3427360404
 40
0.3743105714
 40
0.4059182094
 40
0.4375488939
 40
0.4691923518
 40
0.5008381925
 40
0.532476003
 40
0.5640954449
 40
0.5956863489
 40
0.6272388091
 40
0.6587432747
 40
0.69019064
 40
0.7215723314
 40
0.7528803912
 40
0.7841075574
 40
0.8152473374
 40
0.8462940765
 40
0.8772430189
 40
0.9080903627
 40
0.9388333058
 40
0.9694700839
 40
1.0
 40
1.0
 40
1.0
 40
1.0
 10
10.5803940307
 20
7.2156300272
 30
0.0
 10
10.5705372103
 20
7.2163136
 30
0.0
 10
10.5508205027
 20
7.2181799843
 30
0.0
 10
10.5213751557
 20
7.2224564559
 30
0.0
 10
10.4920795179
 20
7.2282041774
 30
0.0
 10
10.463009196
 20
7.2354081731
 30
0.0
 10
10.434237669
 20
7.2440502501
 30
0.0
 10
10.4058381791
 20
7.2541082941
 30
0.0
 10
10.3778828542
 20
7.2655567314
 30
0.0
 10
10.3504427371
 20
7.278366412
 30
0.0
 10
10.3235875449
 20
7.2925047449
 30
0.0
 10
10.2973855048
 20
7.3079357581
 30
0.0
 10
10.2719031835
 20
7.3246202068
 30
0.0
 10
10.2472053194
 20
7.342515669
 30
0.0
 10
10.2233546594
 20
7.3615766538
 30
0.0
 10
10.2004118008
 20
7.3817547159
 30
0.0
 10
10.1784350389
 20
7.4029985777
 30
0.0
 10
10.1574802196
 20
7.4252542592
 30
0.0
 10
10.137600587
 20
7.4484652041
 30
0.0
 10
10.1188466579
 20
7.4725724342
 30
0.0
 10
10.1012660951
 20
7.4975146987
 30
0.0
 10
10.0849035869
 20
7.5232286282
 30
0.0
 10
10.0698007346
 20
7.5496488949
 30
0.0
 10
10.0559959467
 20
7.5767083765
 30
0.0
 10
10.0435243436
 20
7.6043383264
 30
0.0
 10
10.0324176596
 20
7.6324685431
 30
0.0
 10
10.0227041592
 20
7.6610275483
 30
0.0
 10
10.0144085767
 20
7.689942774
 30
0.0
 10
10.0075520506
 20
7.719140736
 30
0.0
 10
10.0021520716
 20
7.7485472505
 30
0.0
 10
9.998222431
 20
7.7780875037
 30
0.0
 10
9.9957732102
 20
7.8076866751
 30
0.0
 10
9.9948106574
 20
7.837268512
 30
0.0
 10
9.9951625101
 20
7.8569648416
 30
0.0
 10
9.9955876192
 20
7.8667832123
 30
0.0
  0
SPLINE
  5
36C
100
AcDbEntity
  8
0
100
AcDbSpline
 62
7
  6
CONTINUOUS
 70
0
 71
3
 72
37
 73
33
 74
0
 42
0.0000001
 43
0.0000001
 44
0.0000000001
 40
0.0
 40
0.0
 40
0.0
 40
0.0
 40
0.0306764497
 40
0.0614567511
 40
0.0923367847
 40
0.1233147065
 40
0.1543859895
 40
0.185545839
 40
0.2167885206
 40
0.248107546
 40
0.2794957547
 40
0.310945356
 40
0.3424480124
 40
0.3739949141
 40
0.405576862
 40
0.43718435
 40
0.5004201887
 40
0.5636401064
 40
0.5952278428
 40
0.626782383
 40
0.6582944588
 40
0.689755178
 40
0.7211561057
 40
0.75248934
 40
0.7837475843
 40
0.8149242172
 40
0.8460133609
 40
0.8770099414
 40
0.9079097397
 40
0.9387094377
 40
0.969406658
 40
1.0
 40
1.0
 40
1.0
 40
1.0
 10
10.5803940307
 20
7.3180181709
 30
0.0
 10
10.572454454
 20
7.3185687824
 30
0.0
 10
10.5565728122
 20
7.3200625969
 30
0.0
 10
10.5328509315
 20
7.3234649178
 30
0.0
 10
10.5092439455
 20
7.3280248119
 30
0.0
 10
10.4858100437
 20
7.3337308198
 30
0.0
 10
10.4626055906
 20
7.3405693003
 30
0.0
 10
10.4396869363
 20
7.3485235693
 30
0.0
 10
10.4171095511
 20
7.3575743214
 30
0.0
 10
10.3949281207
 20
7.3676995848
 30
0.0
 10
10.3731963605
 20
7.3788748007
 30
0.0
 10
10.3519669126
 20
7.3910728775
 30
0.0
 10
10.3312911698
 20
7.4042642935
 30
0.0
 10
10.3112193075
 20
7.4184169402
 30
0.0
 10
10.2917994963
 20
7.433496957
 30
0.0
 10
10.2668390301
 20
7.4547906234
 30
0.0
 10
10.2375050881
 20
7.4835342493
 30
0.0
 10
10.2109352806
 20
7.5148440991
 30
0.0
 10
10.1914921633
 20
7.5412512648
 30
0.0
 10
10.177853785
 20
7.5616837442
 30
0.0
 10
10.1651911886
 20
7.5826958934
 30
0.0
 10
10.1535346365
 20
7.604237274
 30
0.0
 10
10.1429124855
 20
7.6262555913
 30
0.0
 10
10.1333504626
 20
7.6486975558
 30
0.0
 10
10.1248717805
 20
7.6715088117
 30
0.0
 10
10.1174970303
 20
7.6946341182
 30
0.0
 10
10.1112440955
 20
7.7180174488
 30
0.0
 10
10.1061281581
 20
7.7416021757
 30
0.0
 10
10.1021616591
 20
7.7653311099
 30
0.0
 10
10.0993542752
 20
7.7891469696
 30
0.0
 10
10.0977128704
 20
7.8129912833
 30
0.0
 10
10.0973980858
 20
7.828896856
 30
0.0
 10
10.09743687
 20
7.8368338462
 30
0.0
  0
SPLINE
  5
36D
100
AcDbEntity
  8
0
100
AcDbSpline
 62
7
  6
CONTINUOUS
 70
0
 71
3
 72
71
 73
67
 74
0
 42
0.0000001
 43
0.0000001
 44
0.0000000001
 40
0.0
 40
0.0
 40
0.0
 40
0.0
 40
0.0156748151
 40
0.0314021683
 40
0.0471806527
 40
0.0630088925
 40
0.0788847435
 40
0.0948057525
 40
0.1107690082
 40
0.1267712317
 40
0.1428087898
 40
0.1588777349
 40
0.1749738408
 40
0.1910926419
 40
0.2072294728
 40
0.2233795108
 40
0.2395378179
 40
0.2556993839
 40
0.2718591707
 40
0.2880121552
 40
0.3041533738
 40
0.3202779654
 40
0.3363812142
 40
0.3524585916
 40
0.3685057968
 40
0.3845187964
 40
0.4004938615
 40
0.4164276036
 40
0.4323170071
 40
0.4481594601
 40
0.4639527817
 40
0.4796952458
 40
0.4953856017
 40
0.5110230907
 40
0.5266074578
 40
0.5421389599
 40
0.5576183682
 40
0.5730469661
 40
0.5884265413
 40
0.6037593729
 40
0.6190482133
 40
0.6342962638
 40
0.6495071459
 40
0.664684867
 40
0.6798337808
 40
0.6949585442
 40
0.7100640695
 40
0.7251554734
 40
0.7402380231
 40
0.7553170805
 40
0.7703980447
 40
0.7854862945
 40
0.8005871309
 40
0.8157057206
 40
0.8308470413
 40
0.8460158301
 40
0.8612165346
 40
0.8764532681
 40
0.8917297695
 40
0.907049366
 40
0.9224149479
 40
0.9378289242
 40
0.9532932634
 40
0.9688093037
 40
0.9843781796
 40
1.0
 40
1.0
 40
1.0
 40
1.0
 10
9.8789743721
 20
6.3593373609
 30
0.0
 10
9.866451587
 20
6.360205819
 30
0.0
 10
9.8414024003
 20
6.3625599533
 30
0.0
 10
9.8039863866
 20
6.3679178037
 30
0.0
 10
9.766750578
 20
6.3750957081
 30
0.0
 10
9.7297859325
 20
6.384076059
 30
0.0
 10
9.6931810254
 20
6.3948373008
 30
0.0
 10
9.6570241039
 20
6.407353383
 30
0.0
 10
9.6214021661
 20
6.4215941432
 30
0.0
 10
9.5864009636
 20
6.4375252294
 30
0.0
 10
9.5521047381
 20
6.4551082465
 30
0.0
 10
9.5185960349
 20
6.474300824
 30
0.0
 10
9.4859555023
 20
6.4950567275
 30
0.0
 10
9.4542616983
 20
6.5173259643
 30
0.0
 10
9.4235909001
 20
6.5410549031
 30
0.0
 10
9.3940169246
 20
6.5661864068
 30
0.0
 10
9.3656109508
 20
6.5926599685
 30
0.0
 10
9.33844135
 20
6.6204118571
 30
0.0
 10
9.3125735217
 20
6.6493752697
 30
0.0
 10
9.2880697372
 20
6.6794804917
 30
0.0
 10
9.2649889903
 20
6.7106550638
 30
0.0
 10
9.243386856
 20
6.7428239552
 30
0.0
 10
9.2233153572
 20
6.7759097435
 30
0.0
 10
9.2048228403
 20
6.8098328
 30
0.0
 10
9.187953855
 20
6.8445114783
 30
0.0
 10
9.1727490487
 20
6.8798623114
 30
0.0
 10
9.1592450709
 20
6.9158002124
 30
0.0
 10
9.1474744847
 20
6.952238678
 30
0.0
 10
9.1374656879
 20
6.9890899949
 30
0.0
 10
9.1292428447
 20
7.02626545
 30
0.0
 10
9.1228258265
 20
7.0636755423
 30
0.0
 10
9.1182301637
 20
7.1012301971
 30
0.0
 10
9.1154670067
 20
7.1388389813
 30
0.0
 10
9.1145430981
 20
7.1764113198
 30
0.0
 10
9.1154607547
 20
7.213856713
 30
0.0
 10
9.118217855
 20
7.2510849539
 30
0.0
 10
9.1228078472
 20
7.2880063453
 30
0.0
 10
9.1292197634
 20
7.3245319154
 30
0.0
 10
9.1374382437
 20
7.3605736319
 30
0.0
 10
9.1474435705
 20
7.3960446143
 30
0.0
 10
9.1592117142
 20
7.430859344
 30
0.0
 10
9.1727143883
 20
7.4649338711
 30
0.0
 10
9.1879191158
 20
7.4981860184
 30
0.0
 10
9.2047893053
 20
7.5305355815
 30
0.0
 10
9.2232843381
 20
7.5619045236
 30
0.0
 10
9.2433596628
 20
7.5922171679
 30
0.0
 10
9.2649669007
 20
7.6214003846
 30
0.0
 10
9.2880539665
 20
7.6493837674
 30
0.0
 10
9.3125651938
 20
7.6760998061
 30
0.0
 10
9.3384414707
 20
7.7014840524
 30
0.0
 10
9.3656203833
 20
7.7254752772
 30
0.0
 10
9.3940363687
 20
7.7480156204
 30
0.0
 10
9.423620875
 20
7.769050732
 30
0.0
 10
9.4543025292
 20
7.7885299039
 30
0.0
 10
9.4860073121
 20
7.8064061933
 30
0.0
 10
9.5186587396
 20
7.8226365349
 30
0.0
 10
9.5521780479
 20
7.8371818484
 30
0.0
 10
9.5864843875
 20
7.8500071313
 30
0.0
 10
9.6214950208
 20
7.8610815362
 30
0.0
 10
9.6571255275
 20
7.8703784526
 30
0.0
 10
9.6932899924
 20
7.877875545
 30
0.0
 10
9.7299012773
 20
7.8835548626
 30
0.0
 10
9.7668710093
 20
7.8874027546
 30
0.0
 10
9.8041105241
 20
7.8894101276
 30
0.0
 10
9.8415287924
 20
7.8895721711
 30
0.0
 10
9.8664939251
 20
7.8884515794
 30
0.0
 10
9.8789743721
 20
7.8875860575
 30
0.0
  0
SPLINE
  5
36E
100
AcDbEntity
  8
0
100
AcDbSpline
 62
7
  6
CONTINUOUS
 70
0
 71
3
 72
17
 73
13
 74
0
 42
0.0000001
 43
0.0000001
 44
0.0000000001
 40
0.0
 40
0.0
 40
0.0
 40
0.0
 40
0.1232907431
 40
0.1850794128
 40
0.246968939
 40
0.371063671
 40
0.4956626422
 40
0.5581794239
 40
0.6208414623
 40
0.74659653
 40
0.8729783539
 40
1.0
 40
1.0
 40
1.0
 40
1.0
 10
11.0647650353
 20
6.0904277022
 30
0.0
 10
11.0607816766
 20
6.0880730416
 30
0.0
 10
11.05466109
 20
6.0847690534
 30
0.0
 10
11.0462618836
 20
6.0808449069
 30
0.0
 10
11.0376896496
 20
6.0772349177
 30
0.0
 10
11.0266927129
 20
6.0733329895
 30
0.0
 10
11.0154081143
 20
6.070273375
 30
0.0
 10
11.0062341511
 20
6.0683354018
 30
0.0
 10
10.9969511475
 20
6.0667360179
 30
0.0
 10
10.9852016247
 20
6.0653856746
 30
0.0
 10
10.9709709192
 20
6.0648114848
 30
0.0
 10
10.961455499
 20
6.0651258864
 30
0.0
 10
10.956699632
 20
6.0654557069
 30
0.0
  0
SPLINE
  5
36F
100
AcDbEntity
  8
0
100
AcDbSpline
 62
7
  6
CONTINUOUS
 70
0
 71
3
 72
25
 73
21
 74
0
 42
0.0000001
 43
0.0000001
 44
0.0000000001
 40
0.0
 40
0.0
 40
0.0
 40
0.0
 40
0.0638614196
 40
0.1275014676
 40
0.1909210395
 40
0.2541248474
 40
0.3171188835
 40
0.3799117246
 40
0.4425139164
 40
0.5049380763
 40
0.5671987132
 40
0.629312106
 40
0.6912961344
 40
0.7222483686
 40
0.7531756041
 40
0.8149600085
 40
0.876676358
 40
0.9075187246
 40
0.9383524739
 40
1.0
 40
1.0
 40
1.0
 40
1.0
 10
9.8846477612
 20
6.3735877416
 30
0.0
 10
9.8972566781
 20
6.3727133102
 30
0.0
 10
9.922478956
 20
6.371594743
 30
0.0
 10
9.9602798955
 20
6.3718200714
 30
0.0
 10
9.9978921873
 20
6.3739508212
 30
0.0
 10
10.0352198285
 20
6.3779817024
 30
0.0
 10
10.0721692672
 20
6.3839027329
 30
0.0
 10
10.1086473434
 20
6.3916990633
 30
0.0
 10
10.1445622442
 20
6.4013511914
 30
0.0
 10
10.1798234602
 20
6.4128348725
 30
0.0
 10
10.214342322
 20
6.4261213673
 30
0.0
 10
10.2480312869
 20
6.4411769606
 30
0.0
 10
10.2753578349
 20
6.4551736533
 30
0.0
 10
10.2967148039
 20
6.4672138866
 30
0.0
 10
10.3177091061
 20
6.4797993148
 30
0.0
 10
10.3432856835
 20
6.4965603433
 30
0.0
 10
10.3679139126
 20
6.5146577897
 30
0.0
 10
10.3869971656
 20
6.5299012594
 30
0.0
 10
10.4056533455
 20
6.5456424753
 30
0.0
 10
10.4191639447
 20
6.5580080914
 30
0.0
 10
10.4279396074
 20
6.5664847084
 30
0.0
  0
SPLINE
  5
370
100
AcDbEntity
  8
0
100
AcDbSpline
 62
7
  6
CONTINUOUS
 70
0
 71
3
 72
71
 73
67
 74
0
 42
0.0000001
 43
0.0000001
 44
0.0000000001
 40
0.0
 40
0.0
 40
0.0
 40
0.0
 40
0.0156748284
 40
0.0314021605
 40
0.0471806558
 40
0.0630088915
 40
0.0788847439
 40
0.0948057527
 40
0.1107690085
 40
0.1267712319
 40
0.1428087898
 40
0.1588777347
 40
0.1749738405
 40
0.1910926414
 40
0.2072294724
 40
0.2233795107
 40
0.239537818
 40
0.2556993843
 40
0.2718591712
 40
0.2880121557
 40
0.3041533741
 40
0.3202779654
 40
0.3363812138
 40
0.3524585909
 40
0.368505796
 40
0.3845187958
 40
0.4004938614
 40
0.4164276039
 40
0.4323170078
 40
0.448159461
 40
0.4639527825
 40
0.4796952463
 40
0.4953856017
 40
0.5110230901
 40
0.5266074569
 40
0.5421389589
 40
0.5576183674
 40
0.5730469657
 40
0.5884265413
 40
0.6037593734
 40
0.619048214
 40
0.6342962646
 40
0.6495071467
 40
0.6646848675
 40
0.6798337809
 40
0.6949585439
 40
0.710064069
 40
0.7251554728
 40
0.7402380225
 40
0.75531708
 40
0.7703980444
 40
0.7854862945
 40
0.8005871312
 40
0.815705721
 40
0.8308470418
 40
0.8460158305
 40
0.8612165348
 40
0.8764532681
 40
0.8917297694
 40
0.9070493658
 40
0.9224149473
 40
0.937828925
 40
0.9532932602
 40
0.9688093114
 40
0.9843781663
 40
1.0
 40
1.0
 40
1.0
 40
1.0
 10
9.8735597972
 20
8.2657515632
 30
0.0
 10
9.8607058325
 20
8.2666429887
 30
0.0
 10
9.8349942188
 20
8.2690593741
 30
0.0
 10
9.7965887266
 20
8.2745589223
 30
0.0
 10
9.7583682161
 20
8.281926637
 30
0.0
 10
9.7204260245
 20
8.2911444821
 30
0.0
 10
9.682853092
 20
8.3021903057
 30
0.0
 10
9.6457399903
 20
8.3150373823
 30
0.0
 10
9.6091760211
 20
8.3296547456
 30
0.0
 10
9.573249203
 20
8.3460071365
 30
0.0
 10
9.5380460053
 20
8.3640551432
 30
0.0
 10
9.5036511555
 20
8.3837552741
 30
0.0
 10
9.4701474335
 20
8.4050600705
 30
0.0
 10
9.4376154742
 20
8.4279182182
 30
0.0
 10
9.4061335742
 20
8.452274671
 30
0.0
 10
9.3757775041
 20
8.4780707827
 30
0.0
 10
9.3466203258
 20
8.5052444459
 30
0.0
 10
9.3187322186
 20
8.5337302435
 30
0.0
 10
9.2921803115
 20
8.5634596053
 30
0.0
 10
9.267028522
 20
8.5943609722
 30
0.0
 10
9.2433374032
 20
8.6263599679
 30
0.0
 10
9.2211639985
 20
8.6593795767
 30
0.0
 10
9.200561705
 20
8.6933403281
 30
0.0
 10
9.181580145
 20
8.7281604869
 30
0.0
 10
9.1642650473
 20
8.7637562492
 30
0.0
 10
9.1486581371
 20
8.8000419421
 30
0.0
 10
9.1347970355
 20
8.8369302295
 30
0.0
 10
9.1227151694
 20
8.8743323208
 30
0.0
 10
9.1124416889
 20
8.9121581828
 30
0.0
 10
9.1040013957
 20
8.9503167551
 30
0.0
 10
9.0974146857
 20
8.9887161693
 30
0.0
 10
9.0926974979
 20
9.0272639681
 30
0.0
 10
9.0898612756
 20
9.0658673267
 30
0.0
 10
9.0889129373
 20
9.1044332754
 30
0.0
 10
9.0898548584
 20
9.1428689219
 30
0.0
 10
9.0926848637
 20
9.1810816745
 30
0.0
 10
9.0973962309
 20
9.218979464
 30
0.0
 10
9.1039777041
 20
9.2564709655
 30
0.0
 10
9.1124135188
 20
9.2934658179
 30
0.0
 10
9.1226834376
 20
9.3298748423
 30
0.0
 10
9.1347627965
 20
9.3656102572
 30
0.0
 10
9.14862256
 20
9.4005858924
 30
0.0
 10
9.1642293893
 20
9.4347173982
 30
0.0
 10
9.1815457231
 20
9.46792245
 30
0.0
 10
9.2005298656
 20
9.5001209498
 30
0.0
 10
9.2211360862
 20
9.5312352208
 30
0.0
 10
9.2433147294
 20
9.5611901984
 30
0.0
 10
9.2670123342
 20
9.5899136135
 30
0.0
 10
9.2921717634
 20
9.6173361699
 30
0.0
 10
9.3187323425
 20
9.6433917137
 30
0.0
 10
9.3466300078
 20
9.6680173959
 30
0.0
 10
9.3757974625
 20
9.6911538255
 30
0.0
 10
9.4061643418
 20
9.7127452145
 30
0.0
 10
9.4376573849
 20
9.7327395136
 30
0.0
 10
9.4702006133
 20
9.7510885406
 30
0.0
 10
9.5037155184
 20
9.7677480951
 30
0.0
 10
9.5381212537
 20
9.7826780639
 30
0.0
 10
9.573334833
 20
9.795842517
 30
0.0
 10
9.6092713314
 20
9.8072097906
 30
0.0
 10
9.645844096
 20
9.8167525686
 30
0.0
 10
9.6829649408
 20
9.8244479269
 30
0.0
 10
9.7205444194
 20
9.8302774335
 30
0.0
 10
9.7584918329
 20
9.8342270897
 30
0.0
 10
9.7967161461
 20
9.8362875381
 30
0.0
 10
9.8351239538
 20
9.8364538747
 30
0.0
 10
9.8607492902
 20
9.8353036447
 30
0.0
 10
9.8735597972
 20
9.8344152331
 30
0.0
  0
SPLINE
  5
371
100
AcDbEntity
  8
0
100
AcDbSpline
 62
7
  6
CONTINUOUS
 70
0
 71
3
 72
23
 73
19
 74
0
 42
0.0000001
 43
0.0000001
 44
0.0000000001
 40
0.0
 40
0.0
 40
0.0
 40
0.0
 40
0.0637744754
 40
0.1273515938
 40
0.1907296556
 40
0.2539134226
 40
0.3169065407
 40
0.3797152283
 40
0.4423470101
 40
0.5048109469
 40
0.5671175504
 40
0.6292786812
 40
0.691307469
 40
0.753218201
 40
0.8150262073
 40
0.8767477303
 40
0.9383997833
 40
1.0
 40
1.0
 40
1.0
 40
1.0
 10
10.1080496632
 20
6.6347759377
 30
0.0
 10
10.1186879954
 20
6.6340381669
 30
0.0
 10
10.1399678454
 20
6.6330400874
 30
0.0
 10
10.1718705169
 20
6.6329833887
 30
0.0
 10
10.2036450019
 20
6.6343696434
 30
0.0
 10
10.2352257727
 20
6.6371959051
 30
0.0
 10
10.2665492453
 20
6.6414566551
 30
0.0
 10
10.2975517453
 20
6.6471432515
 30
0.0
 10
10.3281704377
 20
6.6542442424
 30
0.0
 10
10.3583432112
 20
6.6627452591
 30
0.0
 10
10.3880088611
 20
6.6726291055
 30
0.0
 10
10.417107202
 20
6.6838757859
 30
0.0
 10
10.4455791845
 20
6.6964625357
 30
0.0
 10
10.4733670387
 20
6.7103638849
 30
0.0
 10
10.5004143255
 20
6.7255516057
 30
0.0
 10
10.526666356
 20
6.7419950626
 30
0.0
 10
10.5520691103
 20
6.7596603282
 30
0.0
 10
10.5684108361
 20
6.7722333433
 30
0.0
 10
10.5764206933
 20
6.7787093602
 30
0.0
  0
SPLINE
  5
372
100
AcDbEntity
  8
0
100
AcDbSpline
 62
7
  6
CONTINUOUS
 70
0
 71
3
 72
17
 73
13
 74
0
 42
0.0000001
 43
0.0000001
 44
0.0000000001
 40
0.0
 40
0.0
 40
0.0
 40
0.0
 40
0.1232907431
 40
0.1850794128
 40
0.246968939
 40
0.371063671
 40
0.4956626422
 40
0.5581794239
 40
0.6208414623
 40
0.74659653
 40
0.8729783539
 40
1.0
 40
1.0
 40
1.0
 40
1.0
 10
9.3743948255
 20
6.2076552744
 30
0.0
 10
9.3704114668
 20
6.2053006138
 30
0.0
 10
9.3642908802
 20
6.2019966256
 30
0.0
 10
9.3558916738
 20
6.1980724791
 30
0.0
 10
9.3473194398
 20
6.1944624899
 30
0.0
 10
9.3363225031
 20
6.1905605617
 30
0.0
 10
9.3250379045
 20
6.1875009472
 30
0.0
 10
9.3158639413
 20
6.185562974
 30
0.0
 10
9.3065809377
 20
6.1839635901
 30
0.0
 10
9.2948314149
 20
6.1826132469
 30
0.0
 10
9.2806007094
 20
6.182039057
 30
0.0
 10
9.2710852892
 20
6.1823534586
 30
0.0
 10
9.2663294222
 20
6.1826832791
 30
0.0
  0
SPLINE
  5
373
100
AcDbEntity
  8
0
100
AcDbSpline
 62
7
  6
CONTINUOUS
 70
0
 71
3
 72
23
 73
19
 74
0
 42
0.0000001
 43
0.0000001
 44
0.0000000001
 40
0.0
 40
0.0
 40
0.0
 40
0.0
 40
0.063810018
 40
0.1274137076
 40
0.190809901
 40
0.2540036232
 40
0.3169992253
 40
0.3798038172
 40
0.442425986
 40
0.5048760705
 40
0.5671660193
 40
0.6293092875
 40
0.6913207278
 40
0.7532164528
 40
0.8150136891
 40
0.8767306172
 40
0.9383862
 40
1.0
 40
1.0
 40
1.0
 40
1.0
 10
10.1147739737
 20
6.6557600115
 30
0.0
 10
10.1256501049
 20
6.6550057493
 30
0.0
 10
10.147405873
 20
6.6540066344
 30
0.0
 10
10.1800181986
 20
6.6540452608
 30
0.0
 10
10.2124877647
 20
6.6556236033
 30
0.0
 10
10.2447416795
 20
6.658738062
 30
0.0
 10
10.2767091547
 20
6.66338198
 30
0.0
 10
10.3083194148
 20
6.6695450911
 30
0.0
 10
10.3395026579
 20
6.677213893
 30
0.0
 10
10.3701899652
 20
6.6863714872
 30
0.0
 10
10.4003135195
 20
6.6969976916
 30
0.0
 10
10.4298067392
 20
6.7090690791
 30
0.0
 10
10.4586044219
 20
6.7225590206
 30
0.0
 10
10.4866429137
 20
6.7374377647
 30
0.0
 10
10.5138601553
 20
6.7536724257
 30
0.0
 10
10.5401961817
 20
6.7712273267
 30
0.0
 10
10.5655919638
 20
6.7900629933
 30
0.0
 10
10.5818639706
 20
6.8034509858
 30
0.0
 10
10.5898221599
 20
6.810341948
 30
0.0
  0
SPLINE
  5
374
100
AcDbEntity
  8
0
100
AcDbSpline
 62
7
  6
CONTINUOUS
 70
0
 71
3
 72
23
 73
19
 74
0
 42
0.0000001
 43
0.0000001
 44
0.0000000001
 40
0.0
 40
0.0
 40
0.0
 40
0.0
 40
0.0637240564
 40
0.1272630212
 40
0.1906136001
 40
0.2537807418
 40
0.3167672441
 40
0.379578168
 40
0.4422198698
 40
0.5046998648
 40
0.5670269537
 40
0.6292110933
 40
0.6912633476
 40
0.753195805
 40
0.8150214835
 40
0.8767542416
 40
0.9384086748
 40
1.0
 40
1.0
 40
1.0
 40
1.0
 10
10.1567076035
 20
6.69626479
 30
0.0
 10
10.1665340072
 20
6.6955833266
 30
0.0
 10
10.1861895639
 20
6.694636295
 30
0.0
 10
10.2156612647
 20
6.6944698366
 30
0.0
 10
10.2450277448
 20
6.6955600145
 30
0.0
 10
10.2742350317
 20
6.6979046815
 30
0.0
 10
10.3032309525
 20
6.7014998378
 30
0.0
 10
10.33196309
 20
6.7063389675
 30
0.0
 10
10.3603796851
 20
6.7124133671
 30
0.0
 10
10.3884295051
 20
6.719712145
 30
0.0
 10
10.416061958
 20
6.7282222133
 30
0.0
 10
10.4432272218
 20
6.7379282435
 30
0.0
 10
10.4698763108
 20
6.7488127446
 30
0.0
 10
10.4959611739
 20
6.7608561334
 30
0.0
 10
10.521434697
 20
6.7740367244
 30
0.0
 10
10.5462511041
 20
6.7883308771
 30
0.0
 10
10.5703650123
 20
6.8037123592
 30
0.0
 10
10.5859518427
 20
6.8146788847
 30
0.0
 10
10.5936116858
 20
6.8203325323
 30
0.0
  0
SPLINE
  5
375
100
AcDbEntity
  8
0
100
AcDbSpline
 62
7
  6
CONTINUOUS
 70
0
 71
3
 72
17
 73
13
 74
0
 42
0.0000001
 43
0.0000001
 44
0.0000000001
 40
0.0
 40
0.0
 40
0.0
 40
0.0
 40
0.1232907431
 40
0.1850794128
 40
0.246968939
 40
0.371063671
 40
0.4956626422
 40
0.5581794239
 40
0.6208414623
 40
0.74659653
 40
0.8729783539
 40
1.0
 40
1.0
 40
1.0
 40
1.0
 10
9.3743948255
 20
8.1395070127
 30
0.0
 10
9.3704114668
 20
8.137152352
 30
0.0
 10
9.3642908802
 20
8.1338483639
 30
0.0
 10
9.3558916738
 20
8.1299242173
 30
0.0
 10
9.3473194398
 20
8.1263142282
 30
0.0
 10
9.3363225031
 20
8.1224123
 30
0.0
 10
9.3250379045
 20
8.1193526855
 30
0.0
 10
9.3158639413
 20
8.1174147123
 30
0.0
 10
9.3065809377
 20
8.1158153283
 30
0.0
 10
9.2948314149
 20
8.1144649851
 30
0.0
 10
9.2806007094
 20
8.1138907952
 30
0.0
 10
9.2710852892
 20
8.1142051969
 30
0.0
 10
9.2663294222
 20
8.1145350174
 30
0.0
  0
SPLINE
  5
376
100
AcDbEntity
  8
0
100
AcDbSpline
 62
7
  6
CONTINUOUS
 70
0
 71
3
 72
23
 73
19
 74
0
 42
0.0000001
 43
0.0000001
 44
0.0000000001
 40
0.0
 40
0.0
 40
0.0
 40
0.0
 40
0.0638231784
 40
0.1274366516
 40
0.190839221
 40
0.2540361815
 40
0.3170321291
 40
0.3798345466
 40
0.4424524683
 40
0.5048967581
 40
0.5671799603
 40
0.6293161861
 40
0.6913209946
 40
0.7532112439
 40
0.8150049324
 40
0.8767210256
 40
0.938379271
 40
1.0
 40
1.0
 40
1.0
 40
1.0
 10
10.1687426792
 20
6.7528053347
 30
0.0
 10
10.1790828408
 20
6.752088242
 30
0.0
 10
10.1997666145
 20
6.7511462767
 30
0.0
 10
10.2307704966
 20
6.7512189235
 30
0.0
 10
10.2616341806
 20
6.7527794088
 30
0.0
 10
10.292286087
 20
6.7558240551
 30
0.0
 10
10.3226567215
 20
6.7603461404
 30
0.0
 10
10.3526766196
 20
6.7663353385
 30
0.0
 10
10.3822772982
 20
6.7737780945
 30
0.0
 10
10.4113911724
 20
6.7826574647
 30
0.0
 10
10.4399517732
 20
6.7929532335
 30
0.0
 10
10.4678938846
 20
6.8046419519
 30
0.0
 10
10.4951536885
 20
6.817696982
 30
0.0
 10
10.5216689352
 20
6.8320885791
 30
0.0
 10
10.547378994
 20
6.8477838815
 30
0.0
 10
10.572225347
 20
6.8647472517
 30
0.0
 10
10.5961504623
 20
6.8829392852
 30
0.0
 10
10.6114548284
 20
6.8958629001
 30
0.0
 10
10.6189329633
 20
6.9025130024
 30
0.0
  0
SPLINE
  5
377
100
AcDbEntity
  8
0
100
AcDbSpline
 62
7
  6
CONTINUOUS
 70
0
 71
3
 72
71
 73
67
 74
0
 42
0.0000001
 43
0.0000001
 44
0.0000000001
 40
0.0
 40
0.0
 40
0.0
 40
0.0
 40
0.0156748284
 40
0.0314021605
 40
0.0471806558
 40
0.0630088915
 40
0.0788847439
 40
0.0948057527
 40
0.1107690085
 40
0.1267712319
 40
0.1428087898
 40
0.1588777347
 40
0.1749738405
 40
0.1910926414
 40
0.2072294724
 40
0.2233795107
 40
0.239537818
 40
0.2556993843
 40
0.2718591712
 40
0.2880121557
 40
0.3041533741
 40
0.3202779654
 40
0.3363812138
 40
0.3524585909
 40
0.368505796
 40
0.3845187958
 40
0.4004938614
 40
0.4164276039
 40
0.4323170078
 40
0.448159461
 40
0.4639527825
 40
0.4796952463
 40
0.4953856017
 40
0.5110230901
 40
0.5266074569
 40
0.5421389589
 40
0.5576183674
 40
0.5730469657
 40
0.5884265413
 40
0.6037593734
 40
0.619048214
 40
0.6342962646
 40
0.6495071467
 40
0.6646848675
 40
0.6798337809
 40
0.6949585439
 40
0.710064069
 40
0.7251554728
 40
0.7402380225
 40
0.75531708
 40
0.7703980444
 40
0.7854862945
 40
0.8005871312
 40
0.815705721
 40
0.8308470418
 40
0.8460158305
 40
0.8612165348
 40
0.8764532681
 40
0.8917297694
 40
0.9070493658
 40
0.9224149473
 40
0.937828925
 40
0.9532932602
 40
0.9688093114
 40
0.9843781663
 40
1.0
 40
1.0
 40
1.0
 40
1.0
 10
9.8735597972
 20
9.8344152331
 30
0.0
 10
9.8864137619
 20
9.8335238076
 30
0.0
 10
9.9121253756
 20
9.8311074222
 30
0.0
 10
9.9505308678
 20
9.825607874
 30
0.0
 10
9.9887513782
 20
9.8182401593
 30
0.0
 10
10.0266935699
 20
9.8090223141
 30
0.0
 10
10.0642665024
 20
9.7979764906
 30
0.0
 10
10.1013796041
 20
9.785129414
 30
0.0
 10
10.1379435732
 20
9.7705120507
 30
0.0
 10
10.1738703913
 20
9.7541596598
 30
0.0
 10
10.2090735891
 20
9.7361116531
 30
0.0
 10
10.2434684389
 20
9.7164115222
 30
0.0
 10
10.2769721608
 20
9.6951067257
 30
0.0
 10
10.3095041202
 20
9.6722485781
 30
0.0
 10
10.3409860202
 20
9.6478921252
 30
0.0
 10
10.3713420902
 20
9.6220960135
 30
0.0
 10
10.4004992686
 20
9.5949223504
 30
0.0
 10
10.4283873758
 20
9.5664365528
 30
0.0
 10
10.4549392829
 20
9.536707191
 30
0.0
 10
10.4800910724
 20
9.5058058241
 30
0.0
 10
10.5037821912
 20
9.4738068284
 30
0.0
 10
10.5259555958
 20
9.4407872196
 30
0.0
 10
10.5465578894
 20
9.4068264682
 30
0.0
 10
10.5655394494
 20
9.3720063093
 30
0.0
 10
10.5828545471
 20
9.3364105471
 30
0.0
 10
10.5984614573
 20
9.3001248542
 30
0.0
 10
10.6123225588
 20
9.2632365668
 30
0.0
 10
10.6244044249
 20
9.2258344754
 30
0.0
 10
10.6346779055
 20
9.1880086135
 30
0.0
 10
10.6431181986
 20
9.1498500411
 30
0.0
 10
10.6497049087
 20
9.1114506269
 30
0.0
 10
10.6544220965
 20
9.0729028282
 30
0.0
 10
10.6572583188
 20
9.0342994696
 30
0.0
 10
10.6582066571
 20
8.9957335209
 30
0.0
 10
10.657264736
 20
8.9572978744
 30
0.0
 10
10.6544347306
 20
8.9190851218
 30
0.0
 10
10.6497233635
 20
8.8811873323
 30
0.0
 10
10.6431418903
 20
8.8436958308
 30
0.0
 10
10.6347060755
 20
8.8067009784
 30
0.0
 10
10.6244361567
 20
8.770291954
 30
0.0
 10
10.6123567978
 20
8.734556539
 30
0.0
 10
10.5984970344
 20
8.6995809039
 30
0.0
 10
10.582890205
 20
8.6654493981
 30
0.0
 10
10.5655738712
 20
8.6322443462
 30
0.0
 10
10.5465897288
 20
8.6000458465
 30
0.0
 10
10.5259835082
 20
8.5689315755
 30
0.0
 10
10.5038048649
 20
8.5389765979
 30
0.0
 10
10.4801072601
 20
8.5102531827
 30
0.0
 10
10.454947831
 20
8.4828306264
 30
0.0
 10
10.4283872519
 20
8.4567750825
 30
0.0
 10
10.4004895866
 20
8.4321494003
 30
0.0
 10
10.3713221318
 20
8.4090129708
 30
0.0
 10
10.3409552526
 20
8.3874215818
 30
0.0
 10
10.3094622095
 20
8.3674272827
 30
0.0
 10
10.276918981
 20
8.3490782557
 30
0.0
 10
10.243404076
 20
8.3324187011
 30
0.0
 10
10.2089983406
 20
8.3174887324
 30
0.0
 10
10.1737847613
 20
8.3043242793
 30
0.0
 10
10.137848263
 20
8.2929570057
 30
0.0
 10
10.1012754983
 20
8.2834142276
 30
0.0
 10
10.0641546536
 20
8.2757188693
 30
0.0
 10
10.026575175
 20
8.2698893628
 30
0.0
 10
9.9886277614
 20
8.2659397066
 30
0.0
 10
9.9504034482
 20
8.2638792581
 30
0.0
 10
9.9119956405
 20
8.2637129216
 30
0.0
 10
9.8863703042
 20
8.2648631515
 30
0.0
 10
9.8735597972
 20
8.2657515632
 30
0.0
  0
SPLINE
  5
378
100
AcDbEntity
  8
0
100
AcDbSpline
 62
7
  6
CONTINUOUS
 70
0
 71
3
 72
21
 73
17
 74
0
 42
0.0000001
 43
0.0000001
 44
0.0000000001
 40
0.0
 40
0.0
 40
0.0
 40
0.0
 40
0.0616532342
 40
0.1233294953
 40
0.1850515501
 40
0.2468416649
 40
0.3087213494
 40
0.3707111104
 40
0.4328302434
 40
0.4950966323
 40
0.5575265657
 40
0.6201345673
 40
0.682933156
 40
0.7459330948
 40
0.8725263949
 40
1.0
 40
1.0
 40
1.0
 40
1.0
 10
9.2946027944
 20
9.8568524556
 30
0.0
 10
9.2912698303
 20
9.8536330421
 30
0.0
 10
9.2844280687
 20
9.8473709754
 30
0.0
 10
9.2736732986
 20
9.8385412773
 30
0.0
 10
9.2624515225
 20
9.8302951938
 30
0.0
 10
9.2507913956
 20
9.8226538599
 30
0.0
 10
9.2387221887
 20
9.8156364363
 30
0.0
 10
9.2262743389
 20
9.8092606303
 30
0.0
 10
9.2134792288
 20
9.8035424329
 30
0.0
 10
9.2003691067
 20
9.798496219
 30
0.0
 10
9.1869769594
 20
9.7941347033
 30
0.0
 10
9.1733366337
 20
9.7904688444
 30
0.0
 10
9.1594821073
 20
9.7875077714
 30
0.0
 10
9.1407439523
 20
9.784504846
 30
0.0
 10
9.116949486
 20
9.7825539379
 30
0.0
 10
9.0978201624
 20
9.7829272509
 30
0.0
 10
9.0882620601
 20
9.7835901076
 30
0.0
  0
SPLINE
  5
379
100
AcDbEntity
  8
0
100
AcDbSpline
 62
7
  6
CONTINUOUS
 70
0
 71
3
 72
11
 73
7
 74
0
 42
0.0000001
 43
0.0000001
 44
0.0000000001
 40
0.0
 40
0.0
 40
0.0
 40
0.0
 40
0.2515885817
 40
0.5021041627
 40
0.7515646557
 40
1.0
 40
1.0
 40
1.0
 40
1.0
 10
10.4802311429
 20
7.0536801042
 30
0.0
 10
10.4935503731
 20
7.0527564124
 30
0.0
 10
10.5201957222
 20
7.0517253511
 30
0.0
 10
10.5600935827
 20
7.0526481261
 30
0.0
 10
10.5996900439
 20
7.0560393419
 30
0.0
 10
10.6258427083
 20
7.0599462215
 30
0.0
 10
10.6388135227
 20
7.0623069036
 30
0.0
  0
SPLINE
  5
37A
100
AcDbEntity
  8
0
100
AcDbSpline
 62
7
  6
CONTINUOUS
 70
0
 71
3
 72
21
 73
17
 74
0
 42
0.0000001
 43
0.0000001
 44
0.0000000001
 40
0.0
 40
0.0
 40
0.0
 40
0.0
 40
0.0616532342
 40
0.1233294953
 40
0.1850515501
 40
0.2468416649
 40
0.3087213494
 40
0.3707111104
 40
0.4328302434
 40
0.4950966323
 40
0.5575265657
 40
0.6201345673
 40
0.682933156
 40
0.7459330948
 40
0.8725263949
 40
1.0
 40
1.0
 40
1.0
 40
1.0
 10
10.9849730042
 20
9.7396248834
 30
0.0
 10
10.9816400401
 20
9.7364054699
 30
0.0
 10
10.9747982785
 20
9.7301434032
 30
0.0
 10
10.9640435084
 20
9.721313705
 30
0.0
 10
10.9528217323
 20
9.7130676216
 30
0.0
 10
10.9411616054
 20
9.7054262877
 30
0.0
 10
10.9290923985
 20
9.6984088641
 30
0.0
 10
10.9166445487
 20
9.6920330581
 30
0.0
 10
10.9038494387
 20
9.6863148607
 30
0.0
 10
10.8907393165
 20
9.6812686468
 30
0.0
 10
10.8773471692
 20
9.6769071311
 30
0.0
 10
10.8637068435
 20
9.6732412722
 30
0.0
 10
10.8498523171
 20
9.6702801992
 30
0.0
 10
10.8311141621
 20
9.6672772738
 30
0.0
 10
10.8073196958
 20
9.6653263657
 30
0.0
 10
10.7881903722
 20
9.6656996787
 30
0.0
 10
10.7786322699
 20
9.6663625354
 30
0.0
  0
SPLINE
  5
37B
100
AcDbEntity
  8
0
100
AcDbSpline
 62
7
  6
CONTINUOUS
 70
0
 71
3
 72
11
 73
7
 74
0
 42
0.0000001
 43
0.0000001
 44
0.0000000001
 40
0.0
 40
0.0
 40
0.0
 40
0.0
 40
0.251570901
 40
0.5020812217
 40
0.7515479391
 40
1.0
 40
1.0
 40
1.0
 40
1.0
 10
10.4901750427
 20
7.1003963465
 30
0.0
 10
10.5025913681
 20
7.0995352714
 30
0.0
 10
10.527430295
 20
7.0985654497
 30
0.0
 10
10.5646256441
 20
7.0993862611
 30
0.0
 10
10.6015463877
 20
7.1024819936
 30
0.0
 10
10.6259376654
 20
7.1060629405
 30
0.0
 10
10.6380371753
 20
7.1082288948
 30
0.0
  0
SPLINE
  5
37C
100
AcDbEntity
  8
0
100
AcDbSpline
 62
7
  6
CONTINUOUS
 70
0
 71
3
 72
21
 73
17
 74
0
 42
0.0000001
 43
0.0000001
 44
0.0000000001
 40
0.0
 40
0.0
 40
0.0
 40
0.0
 40
0.0616532342
 40
0.1233294953
 40
0.1850515501
 40
0.2468416649
 40
0.3087213494
 40
0.3707111104
 40
0.4328302434
 40
0.4950966323
 40
0.5575265657
 40
0.6201345673
 40
0.682933156
 40
0.7459330948
 40
0.8725263949
 40
1.0
 40
1.0
 40
1.0
 40
1.0
 10
10.9849730042
 20
7.8077728861
 30
0.0
 10
10.9816400401
 20
7.8045534726
 30
0.0
 10
10.9747982785
 20
7.7982914059
 30
0.0
 10
10.9640435084
 20
7.7894617077
 30
0.0
 10
10.9528217323
 20
7.7812156242
 30
0.0
 10
10.9411616054
 20
7.7735742903
 30
0.0
 10
10.9290923985
 20
7.7665568668
 30
0.0
 10
10.9166445487
 20
7.7601810607
 30
0.0
 10
10.9038494387
 20
7.7544628633
 30
0.0
 10
10.8907393165
 20
7.7494166494
 30
0.0
 10
10.8773471692
 20
7.7450551337
 30
0.0
 10
10.8637068435
 20
7.7413892748
 30
0.0
 10
10.8498523171
 20
7.7384282019
 30
0.0
 10
10.8311141621
 20
7.7354252765
 30
0.0
 10
10.8073196958
 20
7.7334743683
 30
0.0
 10
10.7881903722
 20
7.7338476814
 30
0.0
 10
10.7786322699
 20
7.734510538
 30
0.0
  0
SPLINE
  5
37D
100
AcDbEntity
  8
0
100
AcDbSpline
 62
7
  6
CONTINUOUS
 70
0
 71
3
 72
11
 73
7
 74
0
 42
0.0000001
 43
0.0000001
 44
0.0000000001
 40
0.0
 40
0.0
 40
0.0
 40
0.0
 40
0.2515238444
 40
0.5020204184
 40
0.7515034548
 40
1.0
 40
1.0
 40
1.0
 40
1.0
 10
10.4958484318
 20
7.1146467272
 30
0.0
 10
10.5077141001
 20
7.1138238403
 30
0.0
 10
10.5314510964
 20
7.1128751491
 30
0.0
 10
10.5670021451
 20
7.1135599419
 30
0.0
 10
10.6023065276
 20
7.1163525549
 30
0.0
 10
10.6256444509
 20
7.1196202277
 30
0.0
 10
10.6372270892
 20
7.121602338
 30
0.0
  0
SPLINE
  5
37E
100
AcDbEntity
  8
0
100
AcDbSpline
 62
7
  6
CONTINUOUS
 70
0
 71
3
 72
21
 73
17
 74
0
 42
0.0000001
 43
0.0000001
 44
0.0000000001
 40
0.0
 40
0.0
 40
0.0
 40
0.0
 40
0.0616532342
 40
0.1233294953
 40
0.1850515501
 40
0.2468416649
 40
0.3087213494
 40
0.3707111104
 40
0.4328302434
 40
0.4950966323
 40
0.5575265657
 40
0.6201345673
 40
0.682933156
 40
0.7459330948
 40
0.8725263949
 40
1.0
 40
1.0
 40
1.0
 40
1.0
 10
10.9849730042
 20
5.8759211478
 30
0.0
 10
10.9816400401
 20
5.8727017343
 30
0.0
 10
10.9747982785
 20
5.8664396676
 30
0.0
 10
10.9640435084
 20
5.8576099694
 30
0.0
 10
10.9528217323
 20
5.849363886
 30
0.0
 10
10.9411616054
 20
5.8417225521
 30
0.0
 10
10.9290923985
 20
5.8347051285
 30
0.0
 10
10.9166445487
 20
5.8283293225
 30
0.0
 10
10.9038494387
 20
5.8226111251
 30
0.0
 10
10.8907393165
 20
5.8175649112
 30
0.0
 10
10.8773471692
 20
5.8132033955
 30
0.0
 10
10.8637068435
 20
5.8095375366
 30
0.0
 10
10.8498523171
 20
5.8065764636
 30
0.0
 10
10.8311141621
 20
5.8035735382
 30
0.0
 10
10.8073196958
 20
5.8016226301
 30
0.0
 10
10.7881903722
 20
5.8019959431
 30
0.0
 10
10.7786322699
 20
5.8026587998
 30
0.0
  0
SPLINE
  5
37F
100
AcDbEntity
  8
0
100
AcDbSpline
 62
7
  6
CONTINUOUS
 70
0
 71
3
 72
11
 73
7
 74
0
 42
0.0000001
 43
0.0000001
 44
0.0000000001
 40
0.0
 40
0.0
 40
0.0
 40
0.0
 40
0.2521556509
 40
0.5028334291
 40
0.7520864208
 40
1.0
 40
1.0
 40
1.0
 40
1.0
 10
9.2663294222
 20
8.0237379843
 30
0.0
 10
9.2744109771
 20
8.0231775266
 30
0.0
 10
9.2905822758
 20
8.022737755
 30
0.0
 10
9.3147321952
 20
8.0241452047
 30
0.0
 10
9.3385362355
 20
8.0276106428
 30
0.0
 10
9.354104487
 20
8.0312878597
 30
0.0
 10
9.3617673544
 20
8.0334596353
 30
0.0
  0
SPLINE
  5
380
100
AcDbEntity
  8
0
100
AcDbSpline
 62
7
  6
CONTINUOUS
 70
0
 71
3
 72
21
 73
17
 74
0
 42
0.0000001
 43
0.0000001
 44
0.0000000001
 40
0.0
 40
0.0
 40
0.0
 40
0.0
 40
0.0616532342
 40
0.1233294953
 40
0.1850515501
 40
0.2468416649
 40
0.3087213494
 40
0.3707111104
 40
0.4328302434
 40
0.4950966323
 40
0.5575265657
 40
0.6201345673
 40
0.682933156
 40
0.7459330948
 40
0.8725263949
 40
1.0
 40
1.0
 40
1.0
 40
1.0
 10
9.2946027944
 20
5.9931487201
 30
0.0
 10
9.2912698303
 20
5.9899293065
 30
0.0
 10
9.2844280687
 20
5.9836672398
 30
0.0
 10
9.2736732986
 20
5.9748375417
 30
0.0
 10
9.2624515225
 20
5.9665914582
 30
0.0
 10
9.2507913956
 20
5.9589501243
 30
0.0
 10
9.2387221887
 20
5.9519327007
 30
0.0
 10
9.2262743389
 20
5.9455568947
 30
0.0
 10
9.2134792288
 20
5.9398386973
 30
0.0
 10
9.2003691067
 20
5.9347924834
 30
0.0
 10
9.1869769594
 20
5.9304309677
 30
0.0
 10
9.1733366337
 20
5.9267651088
 30
0.0
 10
9.1594821073
 20
5.9238040358
 30
0.0
 10
9.1407439523
 20
5.9208011104
 30
0.0
 10
9.116949486
 20
5.9188502023
 30
0.0
 10
9.0978201624
 20
5.9192235153
 30
0.0
 10
9.0882620601
 20
5.919886372
 30
0.0
  0
SPLINE
  5
381
100
AcDbEntity
  8
0
100
AcDbSpline
 62
7
  6
CONTINUOUS
 70
0
 71
3
 72
21
 73
17
 74
0
 42
0.0000001
 43
0.0000001
 44
0.0000000001
 40
0.0
 40
0.0
 40
0.0
 40
0.0
 40
0.0616532342
 40
0.1233294953
 40
0.1850515501
 40
0.2468416649
 40
0.3087213494
 40
0.3707111104
 40
0.4328302434
 40
0.4950966323
 40
0.5575265657
 40
0.6201345673
 40
0.682933156
 40
0.7459330948
 40
0.8725263949
 40
1.0
 40
1.0
 40
1.0
 40
1.0
 10
9.2946027944
 20
7.9250004583
 30
0.0
 10
9.2912698303
 20
7.9217810448
 30
0.0
 10
9.2844280687
 20
7.9155189781
 30
0.0
 10
9.2736732986
 20
7.9066892799
 30
0.0
 10
9.2624515225
 20
7.8984431964
 30
0.0
 10
9.2507913956
 20
7.8908018625
 30
0.0
 10
9.2387221887
 20
7.883784439
 30
0.0
 10
9.2262743389
 20
7.8774086329
 30
0.0
 10
9.2134792288
 20
7.8716904355
 30
0.0
 10
9.2003691067
 20
7.8666442216
 30
0.0
 10
9.1869769594
 20
7.8622827059
 30
0.0
 10
9.1733366337
 20
7.858616847
 30
0.0
 10
9.1594821073
 20
7.8556557741
 30
0.0
 10
9.1407439523
 20
7.8526528487
 30
0.0
 10
9.116949486
 20
7.8507019405
 30
0.0
 10
9.0978201624
 20
7.8510752536
 30
0.0
 10
9.0882620601
 20
7.8517381102
 30
0.0
  0
SPLINE
  5
382
100
AcDbEntity
  8
0
100
AcDbSpline
 62
7
  6
CONTINUOUS
 70
0
 71
3
 72
71
 73
67
 74
0
 42
0.0000001
 43
0.0000001
 44
0.0000000001
 40
0.0
 40
0.0
 40
0.0
 40
0.0
 40
0.0156218204
 40
0.0311906963
 40
0.0467067366
 40
0.0621710758
 40
0.0775850521
 40
0.092950634
 40
0.1082702305
 40
0.1235467319
 40
0.1387834654
 40
0.1539841699
 40
0.1691529587
 40
0.1842942794
 40
0.1994128691
 40
0.2145137055
 40
0.2296019553
 40
0.2446829195
 40
0.2597619769
 40
0.2748445266
 40
0.2899359305
 40
0.3050414558
 40
0.3201662192
 40
0.335315133
 40
0.3504928541
 40
0.3657037362
 40
0.3809517867
 40
0.3962406271
 40
0.4115734587
 40
0.4269530339
 40
0.4423816318
 40
0.4578610401
 40
0.4733925422
 40
0.4889769093
 40
0.5046143983
 40
0.5203047542
 40
0.5360472183
 40
0.5518405399
 40
0.5676829929
 40
0.5835723964
 40
0.5995061385
 40
0.6154812036
 40
0.6314942032
 40
0.6475414084
 40
0.6636187858
 40
0.6797220346
 40
0.6958466262
 40
0.7119878448
 40
0.7281408293
 40
0.7443006161
 40
0.7604621821
 40
0.7766204892
 40
0.7927705272
 40
0.8089073581
 40
0.8250261592
 40
0.8411222651
 40
0.8571912102
 40
0.8732287683
 40
0.8892309918
 40
0.9051942475
 40
0.9211152565
 40
0.9369911075
 40
0.9528193473
 40
0.9685978317
 40
0.9843251849
 40
1.0
 40
1.0
 40
1.0
 40
1.0
 10
9.8789743721
 20
6.3593373609
 30
0.0
 10
9.8914548192
 20
6.3584718389
 30
0.0
 10
9.9164199518
 20
6.3573512473
 30
0.0
 10
9.9538382201
 20
6.3575132908
 30
0.0
 10
9.9910777349
 20
6.3595206638
 30
0.0
 10
10.0280474669
 20
6.3633685558
 30
0.0
 10
10.0646587519
 20
6.3690478733
 30
0.0
 10
10.1008232167
 20
6.3765449658
 30
0.0
 10
10.1364537234
 20
6.3858418821
 30
0.0
 10
10.1714643568
 20
6.396916287
 30
0.0
 10
10.2057706963
 20
6.4097415699
 30
0.0
 10
10.2392900046
 20
6.4242868835
 30
0.0
 10
10.2719414322
 20
6.440517225
 30
0.0
 10
10.303646215
 20
6.4583935144
 30
0.0
 10
10.3343278692
 20
6.4778726864
 30
0.0
 10
10.3639123755
 20
6.4989077979
 30
0.0
 10
10.3923283609
 20
6.5214481411
 30
0.0
 10
10.4195072735
 20
6.5454393659
 30
0.0
 10
10.4453835504
 20
6.5708236122
 30
0.0
 10
10.4698947777
 20
6.597539651
 30
0.0
 10
10.4929818435
 20
6.6255230337
 30
0.0
 10
10.5145890814
 20
6.6547062504
 30
0.0
 10
10.5346644062
 20
6.6850188948
 30
0.0
 10
10.553159439
 20
6.7163878368
 30
0.0
 10
10.5700296284
 20
6.7487373999
 30
0.0
 10
10.5852343559
 20
6.7819895472
 30
0.0
 10
10.5987370301
 20
6.8160640743
 30
0.0
 10
10.6105051737
 20
6.850878804
 30
0.0
 10
10.6205105006
 20
6.8863497865
 30
0.0
 10
10.6287289808
 20
6.922391503
 30
0.0
 10
10.635140897
 20
6.9589170731
 30
0.0
 10
10.6397308892
 20
6.9958384645
 30
0.0
 10
10.6424879895
 20
7.0330667053
 30
0.0
 10
10.6434056462
 20
7.0705120985
 30
0.0
 10
10.6424817376
 20
7.1080844371
 30
0.0
 10
10.6397185806
 20
7.1456932212
 30
0.0
 10
10.6351229177
 20
7.183247876
 30
0.0
 10
10.6287058996
 20
7.2206579684
 30
0.0
 10
10.6204830563
 20
7.2578334235
 30
0.0
 10
10.6104742595
 20
7.2946847404
 30
0.0
 10
10.5987036733
 20
7.3311232059
 30
0.0
 10
10.5851996955
 20
7.3670611069
 30
0.0
 10
10.5699948892
 20
7.4024119401
 30
0.0
 10
10.5531259039
 20
7.4370906184
 30
0.0
 10
10.534633387
 20
7.4710136749
 30
0.0
 10
10.5145618882
 20
7.5040994631
 30
0.0
 10
10.4929597539
 20
7.5362683545
 30
0.0
 10
10.4698790071
 20
7.5674429266
 30
0.0
 10
10.4453752226
 20
7.5975481486
 30
0.0
 10
10.4195073943
 20
7.6265115612
 30
0.0
 10
10.3923377934
 20
7.6542634498
 30
0.0
 10
10.3639318197
 20
7.6807370115
 30
0.0
 10
10.3343578441
 20
7.7058685152
 30
0.0
 10
10.3036870459
 20
7.729597454
 30
0.0
 10
10.2719932419
 20
7.7518666908
 30
0.0
 10
10.2393527094
 20
7.7726225943
 30
0.0
 10
10.2058440062
 20
7.7918151718
 30
0.0
 10
10.1715477807
 20
7.8093981889
 30
0.0
 10
10.1365465781
 20
7.8253292751
 30
0.0
 10
10.1009246403
 20
7.8395700354
 30
0.0
 10
10.0647677188
 20
7.8520861175
 30
0.0
 10
10.0281628117
 20
7.8628473594
 30
0.0
 10
9.9911981662
 20
7.8718277102
 30
0.0
 10
9.9539623576
 20
7.8790056146
 30
0.0
 10
9.9165463439
 20
7.884363465
 30
0.0
 10
9.8914971572
 20
7.8867175994
 30
0.0
 10
9.8789743721
 20
7.8875860575
 30
0.0
  0
SPLINE
  5
383
100
AcDbEntity
  8
0
100
AcDbSpline
 62
7
  6
CONTINUOUS
 70
0
 71
3
 72
39
 73
35
 74
0
 42
0.0000001
 43
0.0000001
 44
0.0000000001
 40
0.0
 40
0.0
 40
0.0
 40
0.0
 40
0.0308460029
 40
0.0618156224
 40
0.0929034665
 40
0.1241057483
 40
0.1554153414
 40
0.1868244218
 40
0.2183236741
 40
0.249902671
 40
0.2815499711
 40
0.3132532705
 40
0.3449995658
 40
0.376775316
 40
0.4085666121
 40
0.4403593509
 40
0.4721394125
 40
0.5038928359
 40
0.5356059919
 40
0.5672657527
 40
0.5988596577
 40
0.6303760742
 40
0.6618043536
 40
0.6931349745
 40
0.7243596739
 40
0.7554715661
 40
0.786465246
 40
0.8173368778
 40
0.8480842676
 40
0.878706913
 40
0.9092060285
 40
0.9395845496
 40
0.9698471109
 40
1.0
 40
1.0
 40
1.0
 40
1.0
 10
9.2663294222
 20
8.0237379843
 30
0.0
 10
9.2607131838
 20
8.0241274718
 30
0.0
 10
9.2494783351
 20
8.0252373299
 30
0.0
 10
9.2327204319
 20
8.0278787929
 30
0.0
 10
9.2160777269
 20
8.0314915653
 30
0.0
 10
9.1996082604
 20
8.0360628585
 30
0.0
 10
9.1833682205
 20
8.0415771173
 30
0.0
 10
9.1674134447
 20
8.0480152661
 30
0.0
 10
9.1517986546
 20
8.0553552064
 30
0.0
 10
9.1365774303
 20
8.0635716864
 30
0.0
 10
9.1218019872
 20
8.0726364659
 30
0.0
 10
9.1075230137
 20
8.082518406
 30
0.0
 10
9.0937894962
 20
8.0931835749
 30
0.0
 10
9.0806485541
 20
8.1045953633
 30
0.0
 10
9.0681452826
 20
8.1167146108
 30
0.0
 10
9.0563225852
 20
8.1294997249
 30
0.0
 10
9.0452210259
 20
8.1429068264
 30
0.0
 10
9.0348787041
 20
8.1568899121
 30
0.0
 10
9.0253311232
 20
8.1714010082
 30
0.0
 10
9.0166110701
 20
8.1863903327
 30
0.0
 10
9.008748506
 20
8.2018064646
 30
0.0
 10
9.001770455
 20
8.2175965139
 30
0.0
 10
8.995700896
 20
8.2337062978
 30
0.0
 10
8.9905607049
 20
8.2500805374
 30
0.0
 10
8.9863675789
 20
8.2666630427
 30
0.0
 10
8.9831359771
 20
8.2833969025
 30
0.0
 10
8.9808770699
 20
8.3002246763
 30
0.0
 10
8.9795986988
 20
8.3170885907
 30
0.0
 10
8.9793053183
 20
8.333930729
 30
0.0
 10
8.9799980159
 20
8.3506932579
 30
0.0
 10
8.9816744737
 20
8.3673185334
 30
0.0
 10
8.9843290896
 20
8.38374963
 30
0.0
 10
8.9879525663
 20
8.3999292965
 30
0.0
 10
8.991011826
 20
8.4105312553
 30
0.0
 10
8.9926983953
 20
8.4157696703
 30
0.0
  0
SPLINE
  5
384
100
AcDbEntity
  8
0
100
AcDbSpline
 62
7
  6
CONTINUOUS
 70
0
 71
3
 72
71
 73
67
 74
0
 42
0.0000001
 43
0.0000001
 44
0.0000000001
 40
0.0
 40
0.0
 40
0.0
 40
0.0
 40
0.0156748284
 40
0.0314021605
 40
0.0471806558
 40
0.0630088915
 40
0.0788847439
 40
0.0948057527
 40
0.1107690085
 40
0.1267712319
 40
0.1428087898
 40
0.1588777347
 40
0.1749738405
 40
0.1910926414
 40
0.2072294724
 40
0.2233795107
 40
0.239537818
 40
0.2556993843
 40
0.2718591712
 40
0.2880121557
 40
0.3041533741
 40
0.3202779654
 40
0.3363812138
 40
0.3524585909
 40
0.368505796
 40
0.3845187958
 40
0.4004938614
 40
0.4164276039
 40
0.4323170078
 40
0.448159461
 40
0.4639527825
 40
0.4796952463
 40
0.4953856017
 40
0.5110230901
 40
0.5266074569
 40
0.5421389589
 40
0.5576183674
 40
0.5730469657
 40
0.5884265413
 40
0.6037593734
 40
0.619048214
 40
0.6342962646
 40
0.6495071467
 40
0.6646848675
 40
0.6798337809
 40
0.6949585439
 40
0.710064069
 40
0.7251554728
 40
0.7402380225
 40
0.75531708
 40
0.7703980444
 40
0.7854862945
 40
0.8005871312
 40
0.815705721
 40
0.8308470418
 40
0.8460158305
 40
0.8612165348
 40
0.8764532681
 40
0.8917297694
 40
0.9070493658
 40
0.9224149473
 40
0.937828925
 40
0.9532932602
 40
0.9688093114
 40
0.9843781663
 40
1.0
 40
1.0
 40
1.0
 40
1.0
 10
9.8735597972
 20
6.3338997962
 30
0.0
 10
9.8607058325
 20
6.3347912216
 30
0.0
 10
9.8349942188
 20
6.3372076071
 30
0.0
 10
9.7965887266
 20
6.3427071553
 30
0.0
 10
9.7583682161
 20
6.3500748699
 30
0.0
 10
9.7204260245
 20
6.3592927151
 30
0.0
 10
9.682853092
 20
6.3703385386
 30
0.0
 10
9.6457399903
 20
6.3831856152
 30
0.0
 10
9.6091760211
 20
6.3978029785
 30
0.0
 10
9.573249203
 20
6.4141553695
 30
0.0
 10
9.5380460053
 20
6.4322033762
 30
0.0
 10
9.5036511555
 20
6.451903507
 30
0.0
 10
9.4701474335
 20
6.4732083035
 30
0.0
 10
9.4376154742
 20
6.4960664511
 30
0.0
 10
9.4061335742
 20
6.520422904
 30
0.0
 10
9.3757775041
 20
6.5462190157
 30
0.0
 10
9.3466203258
 20
6.5733926789
 30
0.0
 10
9.3187322186
 20
6.6018784764
 30
0.0
 10
9.2921803115
 20
6.6316078382
 30
0.0
 10
9.267028522
 20
6.6625092051
 30
0.0
 10
9.2433374032
 20
6.6945082008
 30
0.0
 10
9.2211639985
 20
6.7275278096
 30
0.0
 10
9.200561705
 20
6.761488561
 30
0.0
 10
9.181580145
 20
6.7963087199
 30
0.0
 10
9.1642650473
 20
6.8319044821
 30
0.0
 10
9.1486581371
 20
6.868190175
 30
0.0
 10
9.1347970355
 20
6.9050784625
 30
0.0
 10
9.1227151694
 20
6.9424805538
 30
0.0
 10
9.1124416889
 20
6.9803064157
 30
0.0
 10
9.1040013957
 20
7.0184649881
 30
0.0
 10
9.0974146857
 20
7.0568644023
 30
0.0
 10
9.0926974979
 20
7.095412201
 30
0.0
 10
9.0898612756
 20
7.1340155596
 30
0.0
 10
9.0889129373
 20
7.1725815083
 30
0.0
 10
9.0898548584
 20
7.2110171548
 30
0.0
 10
9.0926848637
 20
7.2492299074
 30
0.0
 10
9.0973962309
 20
7.287127697
 30
0.0
 10
9.1039777041
 20
7.3246191984
 30
0.0
 10
9.1124135188
 20
7.3616140509
 30
0.0
 10
9.1226834376
 20
7.3980230752
 30
0.0
 10
9.1347627965
 20
7.4337584902
 30
0.0
 10
9.14862256
 20
7.4687341254
 30
0.0
 10
9.1642293893
 20
7.5028656311
 30
0.0
 10
9.1815457231
 20
7.536070683
 30
0.0
 10
9.2005298656
 20
7.5682691827
 30
0.0
 10
9.2211360862
 20
7.5993834537
 30
0.0
 10
9.2433147294
 20
7.6293384314
 30
0.0
 10
9.2670123342
 20
7.6580618465
 30
0.0
 10
9.2921717634
 20
7.6854844028
 30
0.0
 10
9.3187323425
 20
7.7115399467
 30
0.0
 10
9.3466300078
 20
7.7361656289
 30
0.0
 10
9.3757974625
 20
7.7593020584
 30
0.0
 10
9.4061643418
 20
7.7808934475
 30
0.0
 10
9.4376573849
 20
7.8008877465
 30
0.0
 10
9.4702006133
 20
7.8192367735
 30
0.0
 10
9.5037155184
 20
7.8358963281
 30
0.0
 10
9.5381212537
 20
7.8508262968
 30
0.0
 10
9.573334833
 20
7.8639907499
 30
0.0
 10
9.6092713314
 20
7.8753580235
 30
0.0
 10
9.645844096
 20
7.8849008016
 30
0.0
 10
9.6829649408
 20
7.8925961599
 30
0.0
 10
9.7205444194
 20
7.8984256664
 30
0.0
 10
9.7584918329
 20
7.9023753227
 30
0.0
 10
9.7967161461
 20
7.9044357711
 30
0.0
 10
9.8351239538
 20
7.9046021076
 30
0.0
 10
9.8607492902
 20
7.9034518777
 30
0.0
 10
9.8735597972
 20
7.902563466
 30
0.0
  0
SPLINE
  5
385
100
AcDbEntity
  8
0
100
AcDbSpline
 62
7
  6
CONTINUOUS
 70
0
 71
3
 72
53
 73
49
 74
0
 42
0.0000001
 43
0.0000001
 44
0.0000000001
 40
0.0
 40
0.0
 40
0.0
 40
0.0
 40
0.0417740297
 40
0.0840369869
 40
0.1266585521
 40
0.1695065595
 40
0.2124481874
 40
0.2553501548
 40
0.2980793668
 40
0.3405034
 40
0.3824910408
 40
0.4239128105
 40
0.4646414999
 40
0.5045527101
 40
0.5435254036
 40
0.5814424718
 40
0.6181913251
 40
0.6536645175
 40
0.687760418
 40
0.720383954
 40
0.7361162212
 40
0.7514481887
 40
0.7663701981
 40
0.7808732402
 40
0.7949488863
 40
0.8085894735
 40
0.8217880069
 40
0.8345383998
 40
0.8468353625
 40
0.8586746935
 40
0.8700531797
 40
0.8809689358
 40
0.8914213497
 40
0.9014114698
 40
0.9109420406
 40
0.9200179482
 40
0.928646397
 40
0.936837438
 40
0.9446043378
 40
0.9519642164
 40
0.9589386314
 40
0.9655543018
 40
0.9718438078
 40
0.9778461912
 40
0.9836073701
 40
0.9891800475
 40
0.9946230791
 40
1.0
 40
1.0
 40
1.0
 40
1.0
 10
13.1028710442
 20
9.7952276101
 30
0.0
 10
13.1028710442
 20
9.7813849477
 30
0.0
 10
13.1026550838
 20
9.7535371719
 30
0.0
 10
13.1017003623
 20
9.7115757239
 30
0.0
 10
13.1001157591
 20
9.6692771367
 30
0.0
 10
13.0979064686
 20
9.6267814293
 30
0.0
 10
13.0950797918
 20
9.5842291993
 30
0.0
 10
13.091645072
 20
9.54176122
 30
0.0
 10
13.0876136872
 20
9.4995179948
 30
0.0
 10
13.0829990015
 20
9.4576392738
 30
0.0
 10
13.0778163255
 20
9.4162635947
 30
0.0
 10
13.0720828647
 20
9.3755278185
 30
0.0
 10
13.0658176643
 20
9.3355666732
 30
0.0
 10
13.0590415467
 20
9.296512302
 30
0.0
 10
13.0517770442
 20
9.2584938214
 30
0.0
 10
13.044048327
 20
9.2216368783
 30
0.0
 10
13.0358811209
 20
9.1860632494
 30
0.0
 10
13.0273026364
 20
9.1518903273
 30
0.0
 10
13.0183414337
 20
9.1192310524
 30
0.0
 10
13.0104878024
 20
9.0930588286
 30
0.0
 10
13.0040231236
 20
9.0729685486
 30
0.0
 10
12.9991563865
 20
9.0585275831
 30
0.0
 10
12.9942167649
 20
9.0445426331
 30
0.0
 10
12.9892083632
 20
9.0310252225
 30
0.0
 10
12.9841352883
 20
9.0179865142
 30
0.0
 10
12.9790018039
 20
9.005437245
 30
0.0
 10
12.9738120906
 20
8.9933877657
 30
0.0
 10
12.9685705209
 20
8.9818479734
 30
0.0
 10
12.9632813421
 20
8.9708273718
 30
0.0
 10
12.9579490081
 20
8.9603349777
 30
0.0
 10
12.9525778155
 20
8.950379411
 30
0.0
 10
12.947172266
 20
8.9409687716
 30
0.0
 10
12.9417366818
 20
8.9321107594
 30
0.0
 10
12.9362755662
 20
8.9238125265
 30
0.0
 10
12.9307932295
 20
8.9160808225
 30
0.0
 10
12.9252941121
 20
8.9089218343
 30
0.0
 10
12.9197824517
 20
8.9023413486
 30
0.0
 10
12.9142625352
 20
8.8963446061
 30
0.0
 10
12.9087384408
 20
8.8909364701
 30
0.0
 10
12.9032141967
 20
8.8861213412
 30
0.0
 10
12.8976936431
 20
8.8819033171
 30
0.0
 10
12.8921805182
 20
8.8782862307
 30
0.0
 10
12.8866785247
 20
8.875273752
 30
0.0
 10
12.8811914125
 20
8.8728695605
 30
0.0
 10
12.8757234217
 20
8.8710771963
 30
0.0
 10
12.8702790468
 20
8.8699002064
 30
0.0
 10
12.8648649098
 20
8.8693413293
 30
0.0
 10
12.8612703762
 20
8.8693823931
 30
0.0
 10
12.8594928952
 20
8.8695056662
 30
0.0
  0
SPLINE
  5
386
100
AcDbEntity
  8
0
100
AcDbSpline
 62
7
  6
CONTINUOUS
 70
0
 71
3
 72
47
 73
43
 74
0
 42
0.0000001
 43
0.0000001
 44
0.0000000001
 40
0.0
 40
0.0
 40
0.0
 40
0.0
 40
0.0964110176
 40
0.1436632231
 40
0.190184363
 40
0.2359037183
 40
0.2807528566
 40
0.3246652738
 40
0.3675763456
 40
0.4094237308
 40
0.4501475342
 40
0.4896904709
 40
0.5279980947
 40
0.5650191133
 40
0.6007056748
 40
0.635013641
 40
0.6679029762
 40
0.6993382869
 40
0.7292893371
 40
0.7577316858
 40
0.7846475669
 40
0.8100270656
 40
0.8338694563
 40
0.8452178312
 40
0.8561868946
 40
0.8667799988
 40
0.8770016481
 40
0.886857439
 40
0.8963542132
 40
0.9055003585
 40
0.914305768
 40
0.922782163
 40
0.9309433057
 40
0.9388050644
 40
0.9463857992
 40
0.9607836463
 40
0.9676580084
 40
0.9743519005
 40
0.9808974535
 40
0.9873293048
 40
0.9936841057
 40
1.0
 40
1.0
 40
1.0
 40
1.0
 10
13.1028710442
 20
9.7952276101
 30
0.0
 10
13.1028710442
 20
9.8144174944
 30
0.0
 10
13.1025640881
 20
9.8430140743
 30
0.0
 10
13.1015058992
 20
9.8808546453
 30
0.0
 10
13.1004033122
 20
9.9085984208
 30
0.0
 10
13.0989884011
 20
9.935849052
 30
0.0
 10
13.0972635183
 20
9.9625615696
 30
0.0
 10
13.095231556
 20
9.988691909
 30
0.0
 10
13.0928958853
 20
10.0141969923
 30
0.0
 10
13.0902603979
 20
10.0390347626
 30
0.0
 10
13.0873294988
 20
10.0631642903
 30
0.0
 10
13.0841080734
 20
10.0865458199
 30
0.0
 10
13.0806014769
 20
10.1091408388
 30
0.0
 10
13.076815555
 20
10.1309121586
 30
0.0
 10
13.0727566277
 20
10.1518239811
 30
0.0
 10
13.0684314558
 20
10.1718419483
 30
0.0
 10
13.0638472223
 20
10.1909332103
 30
0.0
 10
13.0590115592
 20
10.2090665046
 30
0.0
 10
13.0539324987
 20
10.2262122286
 30
0.0
 10
13.0486184408
 20
10.2423424407
 30
0.0
 10
13.0430780899
 20
10.2574310948
 30
0.0
 10
13.0373205329
 20
10.271453582
 30
0.0
 10
13.0322694418
 20
10.2824056263
 30
0.0
 10
13.0281157519
 20
10.2906018305
 30
0.0
 10
13.0250034662
 20
10.2963667704
 30
0.0
 10
13.021844021
 20
10.3018486801
 30
0.0
 10
13.0186386889
 20
10.3070453695
 30
0.0
 10
13.0153887514
 20
10.3119547322
 30
0.0
 10
13.0120954323
 20
10.3165747457
 30
0.0
 10
13.0087600777
 20
10.3209035801
 30
0.0
 10
13.0053839317
 20
10.3249394412
 30
0.0
 10
13.0019682291
 20
10.3286806801
 30
0.0
 10
12.9985144077
 20
10.3321257185
 30
0.0
 10
12.9950232826
 20
10.3352732844
 30
0.0
 10
12.9904013556
 20
10.3390065377
 30
0.0
 10
12.9856253719
 20
10.3422280632
 30
0.0
 10
12.9807160777
 20
10.3448597134
 30
0.0
 10
12.9770598787
 20
10.3464995788
 30
0.0
 10
12.9733750737
 20
10.3478343672
 30
0.0
 10
12.9696631327
 20
10.3488633836
 30
0.0
 10
12.9659262026
 20
10.3495857333
 30
0.0
 10
12.9634161658
 20
10.3498628616
 30
0.0
 10
12.9621620472
 20
10.3499498381
 30
0.0
  0
SPLINE
  5
387
100
AcDbEntity
  8
0
100
AcDbSpline
 62
7
  6
CONTINUOUS
 70
0
 71
3
 72
71
 73
67
 74
0
 42
0.0000001
 43
0.0000001
 44
0.0000000001
 40
0.0
 40
0.0
 40
0.0
 40
0.0
 40
0.0156748284
 40
0.0314021605
 40
0.0471806558
 40
0.0630088915
 40
0.0788847439
 40
0.0948057527
 40
0.1107690085
 40
0.1267712319
 40
0.1428087898
 40
0.1588777347
 40
0.1749738405
 40
0.1910926414
 40
0.2072294724
 40
0.2233795107
 40
0.239537818
 40
0.2556993843
 40
0.2718591712
 40
0.2880121557
 40
0.3041533741
 40
0.3202779654
 40
0.3363812138
 40
0.3524585909
 40
0.368505796
 40
0.3845187958
 40
0.4004938614
 40
0.4164276039
 40
0.4323170078
 40
0.448159461
 40
0.4639527825
 40
0.4796952463
 40
0.4953856017
 40
0.5110230901
 40
0.5266074569
 40
0.5421389589
 40
0.5576183674
 40
0.5730469657
 40
0.5884265413
 40
0.6037593734
 40
0.619048214
 40
0.6342962646
 40
0.6495071467
 40
0.6646848675
 40
0.6798337809
 40
0.6949585439
 40
0.710064069
 40
0.7251554728
 40
0.7402380225
 40
0.75531708
 40
0.7703980444
 40
0.7854862945
 40
0.8005871312
 40
0.815705721
 40
0.8308470418
 40
0.8460158305
 40
0.8612165348
 40
0.8764532681
 40
0.8917297694
 40
0.9070493658
 40
0.9224149473
 40
0.937828925
 40
0.9532932602
 40
0.9688093114
 40
0.9843781663
 40
1.0
 40
1.0
 40
1.0
 40
1.0
 10
9.8735597972
 20
7.902563466
 30
0.0
 10
9.8864137619
 20
7.9016720405
 30
0.0
 10
9.9121253756
 20
7.8992556551
 30
0.0
 10
9.9505308678
 20
7.8937561069
 30
0.0
 10
9.9887513782
 20
7.8863883923
 30
0.0
 10
10.0266935699
 20
7.8771705471
 30
0.0
 10
10.0642665024
 20
7.8661247235
 30
0.0
 10
10.1013796041
 20
7.8532776469
 30
0.0
 10
10.1379435732
 20
7.8386602837
 30
0.0
 10
10.1738703913
 20
7.8223078927
 30
0.0
 10
10.2090735891
 20
7.804259886
 30
0.0
 10
10.2434684389
 20
7.7845597551
 30
0.0
 10
10.2769721608
 20
7.7632549587
 30
0.0
 10
10.3095041202
 20
7.740396811
 30
0.0
 10
10.3409860202
 20
7.7160403582
 30
0.0
 10
10.3713420902
 20
7.6902442465
 30
0.0
 10
10.4004992686
 20
7.6630705833
 30
0.0
 10
10.4283873758
 20
7.6345847857
 30
0.0
 10
10.4549392829
 20
7.604855424
 30
0.0
 10
10.4800910724
 20
7.573954057
 30
0.0
 10
10.5037821912
 20
7.5419550613
 30
0.0
 10
10.5259555958
 20
7.5089354525
 30
0.0
 10
10.5465578894
 20
7.4749747011
 30
0.0
 10
10.5655394494
 20
7.4401545423
 30
0.0
 10
10.5828545471
 20
7.4045587801
 30
0.0
 10
10.5984614573
 20
7.3682730872
 30
0.0
 10
10.6123225588
 20
7.3313847997
 30
0.0
 10
10.6244044249
 20
7.2939827084
 30
0.0
 10
10.6346779055
 20
7.2561568464
 30
0.0
 10
10.6431181986
 20
7.2179982741
 30
0.0
 10
10.6497049087
 20
7.1795988599
 30
0.0
 10
10.6544220965
 20
7.1410510612
 30
0.0
 10
10.6572583188
 20
7.1024477025
 30
0.0
 10
10.6582066571
 20
7.0638817539
 30
0.0
 10
10.657264736
 20
7.0254461073
 30
0.0
 10
10.6544347306
 20
6.9872333548
 30
0.0
 10
10.6497233635
 20
6.9493355652
 30
0.0
 10
10.6431418903
 20
6.9118440637
 30
0.0
 10
10.6347060755
 20
6.8748492113
 30
0.0
 10
10.6244361567
 20
6.8384401869
 30
0.0
 10
10.6123567978
 20
6.802704772
 30
0.0
 10
10.5984970344
 20
6.7677291368
 30
0.0
 10
10.582890205
 20
6.7335976311
 30
0.0
 10
10.5655738712
 20
6.7003925792
 30
0.0
 10
10.5465897288
 20
6.6681940795
 30
0.0
 10
10.5259835082
 20
6.6370798084
 30
0.0
 10
10.5038048649
 20
6.6071248308
 30
0.0
 10
10.4801072601
 20
6.5784014157
 30
0.0
 10
10.454947831
 20
6.5509788593
 30
0.0
 10
10.4283872519
 20
6.5249233155
 30
0.0
 10
10.4004895866
 20
6.5002976333
 30
0.0
 10
10.3713221318
 20
6.4771612037
 30
0.0
 10
10.3409552526
 20
6.4555698147
 30
0.0
 10
10.3094622095
 20
6.4355755156
 30
0.0
 10
10.276918981
 20
6.4172264887
 30
0.0
 10
10.243404076
 20
6.4005669341
 30
0.0
 10
10.2089983406
 20
6.3856369654
 30
0.0
 10
10.1737847613
 20
6.3724725122
 30
0.0
 10
10.137848263
 20
6.3611052387
 30
0.0
 10
10.1012754983
 20
6.3515624606
 30
0.0
 10
10.0641546536
 20
6.3438671023
 30
0.0
 10
10.026575175
 20
6.3380375958
 30
0.0
 10
9.9886277614
 20
6.3340879395
 30
0.0
 10
9.9504034482
 20
6.3320274911
 30
0.0
 10
9.9119956405
 20
6.3318611546
 30
0.0
 10
9.8863703042
 20
6.3330113845
 30
0.0
 10
9.8735597972
 20
6.3338997962
 30
0.0
  0
SPLINE
  5
388
100
AcDbEntity
  8
0
100
AcDbSpline
 62
7
  6
CONTINUOUS
 70
0
 71
3
 72
39
 73
35
 74
0
 42
0.0000001
 43
0.0000001
 44
0.0000000001
 40
0.0
 40
0.0
 40
0.0
 40
0.0
 40
0.0310058087
 40
0.0621511473
 40
0.0934296835
 40
0.1248352673
 40
0.1563581737
 40
0.1879873334
 40
0.2197097332
 40
0.2515109076
 40
0.2833751063
 40
0.3152855738
 40
0.3472248176
 40
0.3791748897
 40
0.4111176714
 40
0.4430351598
 40
0.4749097529
 40
0.5067245305
 40
0.5384635275
 40
0.5701119959
 40
0.6016566541
 40
0.6330859181
 40
0.6643901097
 40
0.6955616393
 40
0.7265951593
 40
0.7574876843
 40
0.7882386743
 40
0.8188500776
 40
0.8493263303
 40
0.8796743114
 40
0.9099032488
 40
0.9400245773
 40
0.9700517493
 40
1.0
 40
1.0
 40
1.0
 40
1.0
 10
9.2663294222
 20
8.1145350174
 30
0.0
 10
9.2619918494
 20
8.1148358291
 30
0.0
 10
9.2533144679
 20
8.1157263288
 30
0.0
 10
9.2403875674
 20
8.1179130912
 30
0.0
 10
9.227574204
 20
8.1209445691
 30
0.0
 10
9.2149313214
 20
8.1248071697
 30
0.0
 10
9.2025139993
 20
8.1294840428
 30
0.0
 10
9.1903766745
 20
8.1349545685
 30
0.0
 10
9.1785724497
 20
8.1411947711
 30
0.0
 10
9.167152992
 20
8.1481772726
 30
0.0
 10
9.1561682788
 20
8.1558714746
 30
0.0
 10
9.1456663854
 20
8.1642436667
 30
0.0
 10
9.135693272
 20
8.1732571765
 30
0.0
 10
9.1262925892
 20
8.1828725355
 30
0.0
 10
9.1175054879
 20
8.193047649
 30
0.0
 10
9.1093704415
 20
8.2037379794
 30
0.0
 10
9.1019230785
 20
8.2148967388
 30
0.0
 10
9.0951960282
 20
8.2264750922
 30
0.0
 10
9.0892187783
 20
8.238422368
 30
0.0
 10
9.0840175476
 20
8.2506862783
 30
0.0
 10
9.0796151651
 20
8.2632131429
 30
0.0
 10
9.0760309696
 20
8.275948123
 30
0.0
 10
9.0732807303
 20
8.2888354612
 30
0.0
 10
9.0713765753
 20
8.3018187219
 30
0.0
 10
9.0703269374
 20
8.3148410357
 30
0.0
 10
9.0701365142
 20
8.3278453453
 30
0.0
 10
9.0708062447
 20
8.3407746527
 30
0.0
 10
9.0723333016
 20
8.3535722688
 30
0.0
 10
9.0747110973
 20
8.3661820537
 30
0.0
 10
9.0779293115
 20
8.3785486881
 30
0.0
 10
9.0819738884
 20
8.390617834
 30
0.0
 10
9.086827284
 20
8.4023366794
 30
0.0
 10
9.0924678393
 20
8.4136530415
 30
0.0
 10
9.096742421
 20
8.4209057428
 30
0.0
 10
9.0990011303
 20
8.4244463095
 30
0.0
  0
SPLINE
  5
389
100
AcDbEntity
  8
0
100
AcDbSpline
 62
7
  6
CONTINUOUS
 70
0
 71
3
 72
11
 73
7
 74
0
 42
0.0000001
 43
0.0000001
 44
0.0000000001
 40
0.0
 40
0.0
 40
0.0
 40
0.0
 40
0.2521556509
 40
0.5028334291
 40
0.7520864208
 40
1.0
 40
1.0
 40
1.0
 40
1.0
 10
9.2663294222
 20
9.9555899817
 30
0.0
 10
9.2744109771
 20
9.9550295239
 30
0.0
 10
9.2905822758
 20
9.9545897523
 30
0.0
 10
9.3147321952
 20
9.955997202
 30
0.0
 10
9.3385362355
 20
9.9594626401
 30
0.0
 10
9.354104487
 20
9.9631398571
 30
0.0
 10
9.3617673544
 20
9.9653116327
 30
0.0
  0
SPLINE
  5
38A
100
AcDbEntity
  8
0
100
AcDbSpline
 62
7
  6
CONTINUOUS
 70
0
 71
3
 72
57
 73
53
 74
0
 42
0.0000001
 43
0.0000001
 44
0.0000000001
 40
0.0
 40
0.0
 40
0.0
 40
0.0
 40
0.0095826314
 40
0.0187372834
 40
0.0274871811
 40
0.0358600291
 40
0.0515985196
 40
0.0590563733
 40
0.0662991698
 40
0.0733803975
 40
0.0803576937
 40
0.0872915176
 40
0.0942435752
 40
0.1012750476
 40
0.1084449001
 40
0.1158084506
 40
0.1234163697
 40
0.1313140437
 40
0.1395414635
 40
0.1481332155
 40
0.1571189497
 40
0.1665236218
 40
0.1763681708
 40
0.1866697744
 40
0.1974425042
 40
0.2086975286
 40
0.220443635
 40
0.2326874045
 40
0.2454335615
 40
0.2586851612
 40
0.2724437649
 40
0.2867096704
 40
0.3014819313
 40
0.316758638
 40
0.3325368166
 40
0.3488127448
 40
0.3655817784
 40
0.3828386678
 40
0.4005773696
 40
0.437472404
 40
0.4762081875
 40
0.5167167908
 40
0.5589230097
 40
0.6027451351
 40
0.6480956102
 40
0.6948815971
 40
0.7430055015
 40
0.7923653903
 40
0.8428555687
 40
0.8943665901
 40
0.9467866181
 40
1.0
 40
1.0
 40
1.0
 40
1.0
 10
13.0148027749
 20
7.8876904684
 30
0.0
 10
13.0165461238
 20
7.8893130007
 30
0.0
 10
13.0200312698
 20
7.8924051919
 30
0.0
 10
13.0253783643
 20
7.8966620383
 30
0.0
 10
13.0307206346
 20
7.9004265795
 30
0.0
 10
13.0376862947
 20
7.9046966716
 30
0.0
 10
13.0447926423
 20
7.908106335
 30
0.0
 10
13.0519745725
 20
7.910508059
 30
0.0
 10
13.0572456554
 20
7.9117736941
 30
0.0
 10
13.0624926777
 20
7.912533314
 30
0.0
 10
13.0677119328
 20
7.9127859173
 30
0.0
 10
13.0728990639
 20
7.9125307133
 30
0.0
 10
13.0780496933
 20
7.9117679313
 30
0.0
 10
13.0831595426
 20
7.9104984535
 30
0.0
 10
13.0882246636
 20
7.9087238925
 30
0.0
 10
13.0932415565
 20
7.9064463632
 30
0.0
 10
13.0982070965
 20
7.9036681903
 30
0.0
 10
13.103118581
 20
7.9003919847
 30
0.0
 10
13.1079734056
 20
7.8966202707
 30
0.0
 10
13.1127692461
 20
7.8923558433
 30
0.0
 10
13.1175036254
 20
7.8876014009
 30
0.0
 10
13.1221742774
 20
7.8823599861
 30
0.0
 10
13.1267786874
 20
7.8766346497
 30
0.0
 10
13.1313145313
 20
7.8704288237
 30
0.0
 10
13.1357792597
 20
7.8637460595
 30
0.0
 10
13.140170485
 20
7.8565902757
 30
0.0
 10
13.1444856769
 20
7.8489655931
 30
0.0
 10
13.1487224148
 20
7.840876463
 30
0.0
 10
13.1528782367
 20
7.832327592
 30
0.0
 10
13.1569507237
 20
7.8233239785
 30
0.0
 10
13.1609375136
 20
7.8138709048
 30
0.0
 10
13.1648362208
 20
7.8039739162
 30
0.0
 10
13.1686445979
 20
7.7936388506
 30
0.0
 10
13.1723603214
 20
7.7828717914
 30
0.0
 10
13.1759812617
 20
7.7716791102
 30
0.0
 10
13.1795051862
 20
7.7600674143
 30
0.0
 10
13.1829300705
 20
7.7480435908
 30
0.0
 10
13.1862538294
 20
7.7356147407
 30
0.0
 10
13.19060512
 20
7.7182851243
 30
0.0
 10
13.1957607271
 20
7.6956566302
 30
0.0
 10
13.2014361408
 20
7.6673530664
 30
0.0
 10
13.2066647183
 20
7.6376225812
 30
0.0
 10
13.2114338857
 20
7.6065357736
 30
0.0
 10
13.2157321234
 20
7.5741662725
 30
0.0
 10
13.2195490621
 20
7.5405909026
 30
0.0
 10
13.2228754904
 20
7.5058893811
 30
0.0
 10
13.225703377
 20
7.4701441557
 30
0.0
 10
13.2280258998
 20
7.4334401624
 30
0.0
 10
13.2298374335
 20
7.395864703
 30
0.0
 10
13.2311336149
 20
7.3575070198
 30
0.0
 10
13.2319112683
 20
7.3184585216
 30
0.0
 10
13.2320816116
 20
7.2922051123
 30
0.0
 10
13.2320816116
 20
7.2789799973
 30
0.0
  0
SPLINE
  5
38B
100
AcDbEntity
  8
0
100
AcDbSpline
 62
7
  6
CONTINUOUS
 70
0
 71
3
 72
39
 73
35
 74
0
 42
0.0000001
 43
0.0000001
 44
0.0000000001
 40
0.0
 40
0.0
 40
0.0
 40
0.0
 40
0.0308460029
 40
0.0618156224
 40
0.0929034665
 40
0.1241057483
 40
0.1554153414
 40
0.1868244218
 40
0.2183236741
 40
0.249902671
 40
0.2815499711
 40
0.3132532705
 40
0.3449995658
 40
0.376775316
 40
0.4085666121
 40
0.4403593509
 40
0.4721394125
 40
0.5038928359
 40
0.5356059919
 40
0.5672657527
 40
0.5988596577
 40
0.6303760742
 40
0.6618043536
 40
0.6931349745
 40
0.7243596739
 40
0.7554715661
 40
0.786465246
 40
0.8173368778
 40
0.8480842676
 40
0.878706913
 40
0.9092060285
 40
0.9395845496
 40
0.9698471109
 40
1.0
 40
1.0
 40
1.0
 40
1.0
 10
9.2663294222
 20
9.9555899817
 30
0.0
 10
9.2607131838
 20
9.9559794691
 30
0.0
 10
9.2494783351
 20
9.9570893273
 30
0.0
 10
9.2327204319
 20
9.9597307902
 30
0.0
 10
9.2160777269
 20
9.9633435627
 30
0.0
 10
9.1996082604
 20
9.9679148559
 30
0.0
 10
9.1833682205
 20
9.9734291146
 30
0.0
 10
9.1674134447
 20
9.9798672634
 30
0.0
 10
9.1517986546
 20
9.9872072037
 30
0.0
 10
9.1365774303
 20
9.9954236838
 30
0.0
 10
9.1218019872
 20
10.0044884632
 30
0.0
 10
9.1075230137
 20
10.0143704034
 30
0.0
 10
9.0937894962
 20
10.0250355722
 30
0.0
 10
9.0806485541
 20
10.0364473606
 30
0.0
 10
9.0681452826
 20
10.0485666081
 30
0.0
 10
9.0563225852
 20
10.0613517223
 30
0.0
 10
9.0452210259
 20
10.0747588237
 30
0.0
 10
9.0348787041
 20
10.0887419094
 30
0.0
 10
9.0253311232
 20
10.1032530056
 30
0.0
 10
9.0166110701
 20
10.11824233
 30
0.0
 10
9.008748506
 20
10.133658462
 30
0.0
 10
9.001770455
 20
10.1494485113
 30
0.0
 10
8.995700896
 20
10.1655582951
 30
0.0
 10
8.9905607049
 20
10.1819325348
 30
0.0
 10
8.9863675789
 20
10.19851504
 30
0.0
 10
8.9831359771
 20
10.2152488998
 30
0.0
 10
8.9808770699
 20
10.2320766736
 30
0.0
 10
8.9795986988
 20
10.248940588
 30
0.0
 10
8.9793053183
 20
10.2657827263
 30
0.0
 10
8.9799980159
 20
10.2825452553
 30
0.0
 10
8.9816744737
 20
10.2991705307
 30
0.0
 10
8.9843290896
 20
10.3156016273
 30
0.0
 10
8.9879525663
 20
10.3317812938
 30
0.0
 10
8.991011826
 20
10.3423832527
 30
0.0
 10
8.9926983953
 20
10.3476216677
 30
0.0
  0
SPLINE
  5
38C
100
AcDbEntity
  8
0
100
AcDbSpline
 62
7
  6
CONTINUOUS
 70
0
 71
3
 72
39
 73
35
 74
0
 42
0.0000001
 43
0.0000001
 44
0.0000000001
 40
0.0
 40
0.0
 40
0.0
 40
0.0
 40
0.0310058087
 40
0.0621511473
 40
0.0934296835
 40
0.1248352673
 40
0.1563581737
 40
0.1879873334
 40
0.2197097332
 40
0.2515109076
 40
0.2833751063
 40
0.3152855738
 40
0.3472248176
 40
0.3791748897
 40
0.4111176714
 40
0.4430351598
 40
0.4749097529
 40
0.5067245305
 40
0.5384635275
 40
0.5701119959
 40
0.6016566541
 40
0.6330859181
 40
0.6643901097
 40
0.6955616393
 40
0.7265951593
 40
0.7574876843
 40
0.7882386743
 40
0.8188500776
 40
0.8493263303
 40
0.8796743114
 40
0.9099032488
 40
0.9400245773
 40
0.9700517493
 40
1.0
 40
1.0
 40
1.0
 40
1.0
 10
9.2663294222
 20
10.0463870147
 30
0.0
 10
9.2619918494
 20
10.0466878264
 30
0.0
 10
9.2533144679
 20
10.0475783262
 30
0.0
 10
9.2403875674
 20
10.0497650885
 30
0.0
 10
9.227574204
 20
10.0527965665
 30
0.0
 10
9.2149313214
 20
10.056659167
 30
0.0
 10
9.2025139993
 20
10.0613360401
 30
0.0
 10
9.1903766745
 20
10.0668065658
 30
0.0
 10
9.1785724497
 20
10.0730467684
 30
0.0
 10
9.167152992
 20
10.0800292699
 30
0.0
 10
9.1561682788
 20
10.087723472
 30
0.0
 10
9.1456663854
 20
10.096095664
 30
0.0
 10
9.135693272
 20
10.1051091738
 30
0.0
 10
9.1262925892
 20
10.1147245328
 30
0.0
 10
9.1175054879
 20
10.1248996463
 30
0.0
 10
9.1093704415
 20
10.1355899767
 30
0.0
 10
9.1019230785
 20
10.1467487362
 30
0.0
 10
9.0951960282
 20
10.1583270895
 30
0.0
 10
9.0892187783
 20
10.1702743653
 30
0.0
 10
9.0840175476
 20
10.1825382757
 30
0.0
 10
9.0796151651
 20
10.1950651403
 30
0.0
 10
9.0760309696
 20
10.2078001204
 30
0.0
 10
9.0732807303
 20
10.2206874586
 30
0.0
 10
9.0713765753
 20
10.2336707193
 30
0.0
 10
9.0703269374
 20
10.246693033
 30
0.0
 10
9.0701365142
 20
10.2596973426
 30
0.0
 10
9.0708062447
 20
10.2726266501
 30
0.0
 10
9.0723333016
 20
10.2854242661
 30
0.0
 10
9.0747110973
 20
10.2980340511
 30
0.0
 10
9.0779293115
 20
10.3104006855
 30
0.0
 10
9.0819738884
 20
10.3224698314
 30
0.0
 10
9.086827284
 20
10.3341886768
 30
0.0
 10
9.0924678393
 20
10.3455050388
 30
0.0
 10
9.096742421
 20
10.3527577402
 30
0.0
 10
9.0990011303
 20
10.3562983068
 30
0.0
  0
SPLINE
  5
38D
100
AcDbEntity
  8
0
100
AcDbSpline
 62
7
  6
CONTINUOUS
 70
0
 71
3
 72
40
 73
36
 74
0
 42
0.0000001
 43
0.0000001
 44
0.0000000001
 40
0.0
 40
0.0
 40
0.0
 40
0.0
 40
0.0311448352
 40
0.0467776712
 40
0.0624478163
 40
0.0938928931
 40
0.1254753683
 40
0.1571831038
 40
0.1890013145
 40
0.2209130644
 40
0.2528995674
 40
0.2849405815
 40
0.3170148072
 40
0.349100303
 40
0.3811749104
 40
0.4132166804
 40
0.4452042987
 40
0.4771175008
 40
0.5089374741
 40
0.5406472387
 40
0.5722320012
 40
0.6036794751
 40
0.6349801612
 40
0.6661275796
 40
0.6971184487
 40
0.7279528012
 40
0.7586340346
 40
0.7891688873
 40
0.8195673392
 40
0.849842433
 40
0.8800100174
 40
0.9100884154
 40
0.9400980228
 40
0.9700608475
 40
1.0
 40
1.0
 40
1.0
 40
1.0
 10
10.7786322699
 20
9.6663625354
 30
0.0
 10
10.7716269502
 20
9.6668483559
 30
0.0
 10
10.7611269188
 20
9.6679623427
 30
0.0
 10
10.7472239309
 20
9.6702010057
 30
0.0
 10
10.7333430216
 20
9.6729494021
 30
0.0
 10
10.7161309031
 20
9.6773264578
 30
0.0
 10
10.6958371506
 20
9.6840449072
 30
0.0
 10
10.6759855418
 20
9.6921999457
 30
0.0
 10
10.6566825131
 20
9.7017478514
 30
0.0
 10
10.6380307479
 20
9.7126376232
 30
0.0
 10
10.6201296727
 20
9.7248111126
 30
0.0
 10
10.6030746531
 20
9.7382033637
 30
0.0
 10
10.5869565678
 20
9.7527429504
 30
0.0
 10
10.5718613093
 20
9.768352356
 30
0.0
 10
10.5578693365
 20
9.7849483817
 30
0.0
 10
10.5450552486
 20
9.8024425863
 30
0.0
 10
10.5334873912
 20
9.8207417519
 30
0.0
 10
10.5232274953
 20
9.8397483761
 30
0.0
 10
10.5143303479
 20
9.8593611837
 30
0.0
 10
10.5068435021
 20
9.8794756613
 30
0.0
 10
10.5008070239
 20
9.8999846069
 30
0.0
 10
10.496253277
 20
9.9207786936
 30
0.0
 10
10.4932067464
 20
9.9417470447
 30
0.0
 10
10.4916839035
 20
9.9627778168
 30
0.0
 10
10.49169311
 20
9.9837587888
 30
0.0
 10
10.4932345646
 20
10.0045779548
 30
0.0
 10
10.4963002904
 20
10.0251241168
 30
0.0
 10
10.5008741635
 20
10.0452874763
 30
0.0
 10
10.5069319884
 20
10.0649602236
 30
0.0
 10
10.5144416026
 20
10.0840371086
 30
0.0
 10
10.5233630716
 20
10.1024160475
 30
0.0
 10
10.5336487565
 20
10.1199985468
 30
0.0
 10
10.5452440619
 20
10.1366907408
 30
0.0
 10
10.5580858535
 20
10.1524020672
 30
0.0
 10
10.5674363616
 20
10.1621703988
 30
0.0
 10
10.5722915356
 20
10.1668601621
 30
0.0
  0
SPLINE
  5
38E
100
AcDbEntity
  8
0
100
AcDbSpline
 62
7
  6
CONTINUOUS
 70
0
 71
3
 72
11
 73
7
 74
0
 42
0.0000001
 43
0.0000001
 44
0.0000000001
 40
0.0
 40
0.0
 40
0.0
 40
0.0
 40
0.2521556509
 40
0.5028334291
 40
0.7520864208
 40
1.0
 40
1.0
 40
1.0
 40
1.0
 10
10.956699632
 20
9.8383624095
 30
0.0
 10
10.9647811869
 20
9.8378019517
 30
0.0
 10
10.9809524856
 20
9.8373621801
 30
0.0
 10
11.005102405
 20
9.8387696298
 30
0.0
 10
11.0289064453
 20
9.8422350679
 30
0.0
 10
11.0444746968
 20
9.8459122848
 30
0.0
 10
11.0521375642
 20
9.8480840605
 30
0.0
  0
SPLINE
  5
38F
100
AcDbEntity
  8
0
100
AcDbSpline
 62
7
  6
CONTINUOUS
 70
0
 71
3
 72
39
 73
35
 74
0
 42
0.0000001
 43
0.0000001
 44
0.0000000001
 40
0.0
 40
0.0
 40
0.0
 40
0.0
 40
0.0308460029
 40
0.0618156224
 40
0.0929034665
 40
0.1241057483
 40
0.1554153414
 40
0.1868244218
 40
0.2183236741
 40
0.249902671
 40
0.2815499711
 40
0.3132532705
 40
0.3449995658
 40
0.376775316
 40
0.4085666121
 40
0.4403593509
 40
0.4721394125
 40
0.5038928359
 40
0.5356059919
 40
0.5672657527
 40
0.5988596577
 40
0.6303760742
 40
0.6618043536
 40
0.6931349745
 40
0.7243596739
 40
0.7554715661
 40
0.786465246
 40
0.8173368778
 40
0.8480842676
 40
0.878706913
 40
0.9092060285
 40
0.9395845496
 40
0.9698471109
 40
1.0
 40
1.0
 40
1.0
 40
1.0
 10
10.956699632
 20
9.8383624095
 30
0.0
 10
10.9510833936
 20
9.8387518969
 30
0.0
 10
10.9398485449
 20
9.8398617551
 30
0.0
 10
10.9230906417
 20
9.842503218
 30
0.0
 10
10.9064479367
 20
9.8461159905
 30
0.0
 10
10.8899784702
 20
9.8506872837
 30
0.0
 10
10.8737384303
 20
9.8562015424
 30
0.0
 10
10.8577836545
 20
9.8626396912
 30
0.0
 10
10.8421688644
 20
9.8699796315
 30
0.0
 10
10.8269476401
 20
9.8781961115
 30
0.0
 10
10.812172197
 20
9.887260891
 30
0.0
 10
10.7978932235
 20
9.8971428312
 30
0.0
 10
10.784159706
 20
9.907808
 30
0.0
 10
10.7710187639
 20
9.9192197884
 30
0.0
 10
10.7585154924
 20
9.9313390359
 30
0.0
 10
10.746692795
 20
9.94412415
 30
0.0
 10
10.7355912357
 20
9.9575312515
 30
0.0
 10
10.7252489139
 20
9.9715143372
 30
0.0
 10
10.715701333
 20
9.9860254334
 30
0.0
 10
10.7069812799
 20
10.0010147578
 30
0.0
 10
10.6991187158
 20
10.0164308898
 30
0.0
 10
10.6921406648
 20
10.032220939
 30
0.0
 10
10.6860711058
 20
10.0483307229
 30
0.0
 10
10.6809309147
 20
10.0647049625
 30
0.0
 10
10.6767377887
 20
10.0812874678
 30
0.0
 10
10.6735061869
 20
10.0980213276
 30
0.0
 10
10.6712472797
 20
10.1148491014
 30
0.0
 10
10.6699689086
 20
10.1317130158
 30
0.0
 10
10.6696755281
 20
10.1485551541
 30
0.0
 10
10.6703682257
 20
10.165317683
 30
0.0
 10
10.6720446835
 20
10.1819429585
 30
0.0
 10
10.6746992994
 20
10.1983740551
 30
0.0
 10
10.6783227761
 20
10.2145537216
 30
0.0
 10
10.6813820358
 20
10.2251556805
 30
0.0
 10
10.6830686051
 20
10.2303940955
 30
0.0
  0
SPLINE
  5
390
100
AcDbEntity
  8
0
100
AcDbSpline
 62
7
  6
CONTINUOUS
 70
0
 71
3
 72
39
 73
35
 74
0
 42
0.0000001
 43
0.0000001
 44
0.0000000001
 40
0.0
 40
0.0
 40
0.0
 40
0.0
 40
0.0310058087
 40
0.0621511473
 40
0.0934296835
 40
0.1248352673
 40
0.1563581737
 40
0.1879873334
 40
0.2197097332
 40
0.2515109076
 40
0.2833751063
 40
0.3152855738
 40
0.3472248176
 40
0.3791748897
 40
0.4111176714
 40
0.4430351598
 40
0.4749097529
 40
0.5067245305
 40
0.5384635275
 40
0.5701119959
 40
0.6016566541
 40
0.6330859181
 40
0.6643901097
 40
0.6955616393
 40
0.7265951593
 40
0.7574876843
 40
0.7882386743
 40
0.8188500776
 40
0.8493263303
 40
0.8796743114
 40
0.9099032488
 40
0.9400245773
 40
0.9700517493
 40
1.0
 40
1.0
 40
1.0
 40
1.0
 10
10.956699632
 20
9.9291594425
 30
0.0
 10
10.9523620592
 20
9.9294602542
 30
0.0
 10
10.9436846777
 20
9.930350754
 30
0.0
 10
10.9307577772
 20
9.9325375163
 30
0.0
 10
10.9179444138
 20
9.9355689943
 30
0.0
 10
10.9053015312
 20
9.9394315948
 30
0.0
 10
10.8928842091
 20
9.9441084679
 30
0.0
 10
10.8807468843
 20
9.9495789936
 30
0.0
 10
10.8689426595
 20
9.9558191962
 30
0.0
 10
10.8575232018
 20
9.9628016977
 30
0.0
 10
10.8465384886
 20
9.9704958998
 30
0.0
 10
10.8360365952
 20
9.9788680918
 30
0.0
 10
10.8260634818
 20
9.9878816016
 30
0.0
 10
10.816662799
 20
9.9974969606
 30
0.0
 10
10.8078756977
 20
10.0076720741
 30
0.0
 10
10.7997406513
 20
10.0183624045
 30
0.0
 10
10.7922932883
 20
10.029521164
 30
0.0
 10
10.785566238
 20
10.0410995173
 30
0.0
 10
10.7795889881
 20
10.0530467931
 30
0.0
 10
10.7743877574
 20
10.0653107035
 30
0.0
 10
10.7699853749
 20
10.0778375681
 30
0.0
 10
10.7664011794
 20
10.0905725482
 30
0.0
 10
10.7636509401
 20
10.1034598863
 30
0.0
 10
10.7617467851
 20
10.1164431471
 30
0.0
 10
10.7606971472
 20
10.1294654608
 30
0.0
 10
10.760506724
 20
10.1424697704
 30
0.0
 10
10.7611764545
 20
10.1553990779
 30
0.0
 10
10.7627035114
 20
10.1681966939
 30
0.0
 10
10.7650813071
 20
10.1808064789
 30
0.0
 10
10.7682995213
 20
10.1931731132
 30
0.0
 10
10.7723440982
 20
10.2052422592
 30
0.0
 10
10.7771974938
 20
10.2169611045
 30
0.0
 10
10.7828380491
 20
10.2282774666
 30
0.0
 10
10.7871126308
 20
10.235530168
 30
0.0
 10
10.7893713401
 20
10.2390707346
 30
0.0
  0
SPLINE
  5
391
100
AcDbEntity
  8
0
100
AcDbSpline
 62
7
  6
CONTINUOUS
 70
0
 71
3
 72
57
 73
53
 74
0
 42
0.0000001
 43
0.0000001
 44
0.0000000001
 40
0.0
 40
0.0
 40
0.0
 40
0.0
 40
0.0095826314
 40
0.0187372834
 40
0.0274871811
 40
0.0358600291
 40
0.0515985196
 40
0.0590563733
 40
0.0662991698
 40
0.0733803975
 40
0.0803576937
 40
0.0872915176
 40
0.0942435752
 40
0.1012750476
 40
0.1084449001
 40
0.1158084506
 40
0.1234163697
 40
0.1313140437
 40
0.1395414635
 40
0.1481332155
 40
0.1571189497
 40
0.1665236218
 40
0.1763681708
 40
0.1866697744
 40
0.1974425042
 40
0.2086975286
 40
0.220443635
 40
0.2326874045
 40
0.2454335615
 40
0.2586851612
 40
0.2724437649
 40
0.2867096704
 40
0.3014819313
 40
0.316758638
 40
0.3325368166
 40
0.3488127448
 40
0.3655817784
 40
0.3828386678
 40
0.4005773696
 40
0.437472404
 40
0.4762081875
 40
0.5167167908
 40
0.5589230097
 40
0.6027451351
 40
0.6480956102
 40
0.6948815971
 40
0.7430055015
 40
0.7923653903
 40
0.8428555687
 40
0.8943665901
 40
0.9467866181
 40
1.0
 40
1.0
 40
1.0
 40
1.0
 10
13.0148027749
 20
10.4232459127
 30
0.0
 10
13.0165461238
 20
10.4248684449
 30
0.0
 10
13.0200312698
 20
10.4279606362
 30
0.0
 10
13.0253783643
 20
10.4322174825
 30
0.0
 10
13.0307206346
 20
10.4359820238
 30
0.0
 10
13.0376862947
 20
10.4402521159
 30
0.0
 10
13.0447926423
 20
10.4436617792
 30
0.0
 10
13.0519745725
 20
10.4460635033
 30
0.0
 10
13.0572456554
 20
10.4473291383
 30
0.0
 10
13.0624926777
 20
10.4480887583
 30
0.0
 10
13.0677119328
 20
10.4483413616
 30
0.0
 10
13.0728990639
 20
10.4480861575
 30
0.0
 10
13.0780496933
 20
10.4473233756
 30
0.0
 10
13.0831595426
 20
10.4460538978
 30
0.0
 10
13.0882246636
 20
10.4442793367
 30
0.0
 10
13.0932415565
 20
10.4420018074
 30
0.0
 10
13.0982070965
 20
10.4392236345
 30
0.0
 10
13.103118581
 20
10.435947429
 30
0.0
 10
13.1079734056
 20
10.432175715
 30
0.0
 10
13.1127692461
 20
10.4279112875
 30
0.0
 10
13.1175036254
 20
10.4231568452
 30
0.0
 10
13.1221742774
 20
10.4179154304
 30
0.0
 10
13.1267786874
 20
10.4121900939
 30
0.0
 10
13.1313145313
 20
10.405984268
 30
0.0
 10
13.1357792597
 20
10.3993015038
 30
0.0
 10
13.140170485
 20
10.3921457199
 30
0.0
 10
13.1444856769
 20
10.3845210374
 30
0.0
 10
13.1487224148
 20
10.3764319073
 30
0.0
 10
13.1528782367
 20
10.3678830362
 30
0.0
 10
13.1569507237
 20
10.3588794227
 30
0.0
 10
13.1609375136
 20
10.349426349
 30
0.0
 10
13.1648362208
 20
10.3395293604
 30
0.0
 10
13.1686445979
 20
10.3291942948
 30
0.0
 10
13.1723603214
 20
10.3184272356
 30
0.0
 10
13.1759812617
 20
10.3072345545
 30
0.0
 10
13.1795051862
 20
10.2956228585
 30
0.0
 10
13.1829300705
 20
10.2835990351
 30
0.0
 10
13.1862538294
 20
10.271170185
 30
0.0
 10
13.19060512
 20
10.2538405686
 30
0.0
 10
13.1957607271
 20
10.2312120744
 30
0.0
 10
13.2014361408
 20
10.2029085106
 30
0.0
 10
13.2066647183
 20
10.1731780254
 30
0.0
 10
13.2114338857
 20
10.1420912178
 30
0.0
 10
13.2157321234
 20
10.1097217168
 30
0.0
 10
13.2195490621
 20
10.0761463469
 30
0.0
 10
13.2228754904
 20
10.0414448254
 30
0.0
 10
13.225703377
 20
10.0056995999
 30
0.0
 10
13.2280258998
 20
9.9689956067
 30
0.0
 10
13.2298374335
 20
9.9314201472
 30
0.0
 10
13.2311336149
 20
9.8930624641
 30
0.0
 10
13.2319112683
 20
9.8540139658
 30
0.0
 10
13.2320816116
 20
9.8277605566
 30
0.0
 10
13.2320816116
 20
9.8145354416
 30
0.0
  0
SPLINE
  5
392
100
AcDbEntity
  8
0
100
AcDbSpline
 62
7
  6
CONTINUOUS
 70
0
 71
3
 72
11
 73
7
 74
0
 42
0.0000001
 43
0.0000001
 44
0.0000000001
 40
0.0
 40
0.0
 40
0.0
 40
0.0
 40
0.2521556509
 40
0.5028334291
 40
0.7520864208
 40
1.0
 40
1.0
 40
1.0
 40
1.0
 10
10.956699632
 20
7.9065104121
 30
0.0
 10
10.9647811869
 20
7.9059499544
 30
0.0
 10
10.9809524856
 20
7.9055101828
 30
0.0
 10
11.005102405
 20
7.9069176325
 30
0.0
 10
11.0289064453
 20
7.9103830706
 30
0.0
 10
11.0444746968
 20
7.9140602875
 30
0.0
 10
11.0521375642
 20
7.9162320631
 30
0.0
  0
SPLINE
  5
393
100
AcDbEntity
  8
0
100
AcDbSpline
 62
7
  6
CONTINUOUS
 70
0
 71
3
 72
39
 73
35
 74
0
 42
0.0000001
 43
0.0000001
 44
0.0000000001
 40
0.0
 40
0.0
 40
0.0
 40
0.0
 40
0.0308460029
 40
0.0618156224
 40
0.0929034665
 40
0.1241057483
 40
0.1554153414
 40
0.1868244218
 40
0.2183236741
 40
0.249902671
 40
0.2815499711
 40
0.3132532705
 40
0.3449995658
 40
0.376775316
 40
0.4085666121
 40
0.4403593509
 40
0.4721394125
 40
0.5038928359
 40
0.5356059919
 40
0.5672657527
 40
0.5988596577
 40
0.6303760742
 40
0.6618043536
 40
0.6931349745
 40
0.7243596739
 40
0.7554715661
 40
0.786465246
 40
0.8173368778
 40
0.8480842676
 40
0.878706913
 40
0.9092060285
 40
0.9395845496
 40
0.9698471109
 40
1.0
 40
1.0
 40
1.0
 40
1.0
 10
10.956699632
 20
7.9065104121
 30
0.0
 10
10.9510833936
 20
7.9068998996
 30
0.0
 10
10.9398485449
 20
7.9080097577
 30
0.0
 10
10.9230906417
 20
7.9106512207
 30
0.0
 10
10.9064479367
 20
7.9142639931
 30
0.0
 10
10.8899784702
 20
7.9188352863
 30
0.0
 10
10.8737384303
 20
7.924349545
 30
0.0
 10
10.8577836545
 20
7.9307876938
 30
0.0
 10
10.8421688644
 20
7.9381276342
 30
0.0
 10
10.8269476401
 20
7.9463441142
 30
0.0
 10
10.812172197
 20
7.9554088937
 30
0.0
 10
10.7978932235
 20
7.9652908338
 30
0.0
 10
10.784159706
 20
7.9759560027
 30
0.0
 10
10.7710187639
 20
7.9873677911
 30
0.0
 10
10.7585154924
 20
7.9994870386
 30
0.0
 10
10.746692795
 20
8.0122721527
 30
0.0
 10
10.7355912357
 20
8.0256792541
 30
0.0
 10
10.7252489139
 20
8.0396623399
 30
0.0
 10
10.715701333
 20
8.054173436
 30
0.0
 10
10.7069812799
 20
8.0691627605
 30
0.0
 10
10.6991187158
 20
8.0845788924
 30
0.0
 10
10.6921406648
 20
8.1003689417
 30
0.0
 10
10.6860711058
 20
8.1164787256
 30
0.0
 10
10.6809309147
 20
8.1328529652
 30
0.0
 10
10.6767377887
 20
8.1494354705
 30
0.0
 10
10.6735061869
 20
8.1661693302
 30
0.0
 10
10.6712472797
 20
8.1829971041
 30
0.0
 10
10.6699689086
 20
8.1998610185
 30
0.0
 10
10.6696755281
 20
8.2167031568
 30
0.0
 10
10.6703682257
 20
8.2334656857
 30
0.0
 10
10.6720446835
 20
8.2500909612
 30
0.0
 10
10.6746992994
 20
8.2665220578
 30
0.0
 10
10.6783227761
 20
8.2827017242
 30
0.0
 10
10.6813820358
 20
8.2933036831
 30
0.0
 10
10.6830686051
 20
8.2985420981
 30
0.0
  0
SPLINE
  5
394
100
AcDbEntity
  8
0
100
AcDbSpline
 62
7
  6
CONTINUOUS
 70
0
 71
3
 72
39
 73
35
 74
0
 42
0.0000001
 43
0.0000001
 44
0.0000000001
 40
0.0
 40
0.0
 40
0.0
 40
0.0
 40
0.0310058087
 40
0.0621511473
 40
0.0934296835
 40
0.1248352673
 40
0.1563581737
 40
0.1879873334
 40
0.2197097332
 40
0.2515109076
 40
0.2833751063
 40
0.3152855738
 40
0.3472248176
 40
0.3791748897
 40
0.4111176714
 40
0.4430351598
 40
0.4749097529
 40
0.5067245305
 40
0.5384635275
 40
0.5701119959
 40
0.6016566541
 40
0.6330859181
 40
0.6643901097
 40
0.6955616393
 40
0.7265951593
 40
0.7574876843
 40
0.7882386743
 40
0.8188500776
 40
0.8493263303
 40
0.8796743114
 40
0.9099032488
 40
0.9400245773
 40
0.9700517493
 40
1.0
 40
1.0
 40
1.0
 40
1.0
 10
10.956699632
 20
7.9973074452
 30
0.0
 10
10.9523620592
 20
7.9976082569
 30
0.0
 10
10.9436846777
 20
7.9984987566
 30
0.0
 10
10.9307577772
 20
8.000685519
 30
0.0
 10
10.9179444138
 20
8.0037169969
 30
0.0
 10
10.9053015312
 20
8.0075795974
 30
0.0
 10
10.8928842091
 20
8.0122564706
 30
0.0
 10
10.8807468843
 20
8.0177269963
 30
0.0
 10
10.8689426595
 20
8.0239671989
 30
0.0
 10
10.8575232018
 20
8.0309497003
 30
0.0
 10
10.8465384886
 20
8.0386439024
 30
0.0
 10
10.8360365952
 20
8.0470160944
 30
0.0
 10
10.8260634818
 20
8.0560296043
 30
0.0
 10
10.816662799
 20
8.0656449633
 30
0.0
 10
10.8078756977
 20
8.0758200768
 30
0.0
 10
10.7997406513
 20
8.0865104072
 30
0.0
 10
10.7922932883
 20
8.0976691666
 30
0.0
 10
10.785566238
 20
8.10924752
 30
0.0
 10
10.7795889881
 20
8.1211947957
 30
0.0
 10
10.7743877574
 20
8.1334587061
 30
0.0
 10
10.7699853749
 20
8.1459855707
 30
0.0
 10
10.7664011794
 20
8.1587205508
 30
0.0
 10
10.7636509401
 20
8.171607889
 30
0.0
 10
10.7617467851
 20
8.1845911497
 30
0.0
 10
10.7606971472
 20
8.1976134635
 30
0.0
 10
10.760506724
 20
8.2106177731
 30
0.0
 10
10.7611764545
 20
8.2235470805
 30
0.0
 10
10.7627035114
 20
8.2363446966
 30
0.0
 10
10.7650813071
 20
8.2489544815
 30
0.0
 10
10.7682995213
 20
8.2613211159
 30
0.0
 10
10.7723440982
 20
8.2733902618
 30
0.0
 10
10.7771974938
 20
8.2851091072
 30
0.0
 10
10.7828380491
 20
8.2964254693
 30
0.0
 10
10.7871126308
 20
8.3036781706
 30
0.0
 10
10.7893713401
 20
8.3072187373
 30
0.0
  0
SPLINE
  5
395
100
AcDbEntity
  8
0
100
AcDbSpline
 62
7
  6
CONTINUOUS
 70
0
 71
3
 72
40
 73
36
 74
0
 42
0.0000001
 43
0.0000001
 44
0.0000000001
 40
0.0
 40
0.0
 40
0.0
 40
0.0
 40
0.0311448352
 40
0.0467776712
 40
0.0624478163
 40
0.0938928931
 40
0.1254753683
 40
0.1571831038
 40
0.1890013145
 40
0.2209130644
 40
0.2528995674
 40
0.2849405815
 40
0.3170148072
 40
0.349100303
 40
0.3811749104
 40
0.4132166804
 40
0.4452042987
 40
0.4771175008
 40
0.5089374741
 40
0.5406472387
 40
0.5722320012
 40
0.6036794751
 40
0.6349801612
 40
0.6661275796
 40
0.6971184487
 40
0.7279528012
 40
0.7586340346
 40
0.7891688873
 40
0.8195673392
 40
0.849842433
 40
0.8800100174
 40
0.9100884154
 40
0.9400980228
 40
0.9700608475
 40
1.0
 40
1.0
 40
1.0
 40
1.0
 10
10.7786322699
 20
7.734510538
 30
0.0
 10
10.7716269502
 20
7.7349963586
 30
0.0
 10
10.7611269188
 20
7.7361103454
 30
0.0
 10
10.7472239309
 20
7.7383490083
 30
0.0
 10
10.7333430216
 20
7.7410974048
 30
0.0
 10
10.7161309031
 20
7.7454744605
 30
0.0
 10
10.6958371506
 20
7.7521929098
 30
0.0
 10
10.6759855418
 20
7.7603479484
 30
0.0
 10
10.6566825131
 20
7.7698958541
 30
0.0
 10
10.6380307479
 20
7.7807856259
 30
0.0
 10
10.6201296727
 20
7.7929591153
 30
0.0
 10
10.6030746531
 20
7.8063513663
 30
0.0
 10
10.5869565678
 20
7.8208909531
 30
0.0
 10
10.5718613093
 20
7.8365003587
 30
0.0
 10
10.5578693365
 20
7.8530963844
 30
0.0
 10
10.5450552486
 20
7.8705905889
 30
0.0
 10
10.5334873912
 20
7.8888897546
 30
0.0
 10
10.5232274953
 20
7.9078963787
 30
0.0
 10
10.5143303479
 20
7.9275091864
 30
0.0
 10
10.5068435021
 20
7.947623664
 30
0.0
 10
10.5008070239
 20
7.9681326095
 30
0.0
 10
10.496253277
 20
7.9889266963
 30
0.0
 10
10.4932067464
 20
8.0098950474
 30
0.0
 10
10.4916839035
 20
8.0309258194
 30
0.0
 10
10.49169311
 20
8.0519067915
 30
0.0
 10
10.4932345646
 20
8.0727259574
 30
0.0
 10
10.4963002904
 20
8.0932721195
 30
0.0
 10
10.5008741635
 20
8.113435479
 30
0.0
 10
10.5069319884
 20
8.1331082262
 30
0.0
 10
10.5144416026
 20
8.1521851112
 30
0.0
 10
10.5233630716
 20
8.1705640502
 30
0.0
 10
10.5336487565
 20
8.1881465495
 30
0.0
 10
10.5452440619
 20
8.2048387435
 30
0.0
 10
10.5580858535
 20
8.2205500698
 30
0.0
 10
10.5674363616
 20
8.2303184015
 30
0.0
 10
10.5722915356
 20
8.2350081648
 30
0.0
  0
SPLINE
  5
396
100
AcDbEntity
  8
0
100
AcDbSpline
 62
7
  6
CONTINUOUS
 70
0
 71
3
 72
31
 73
27
 74
0
 42
0.0000001
 43
0.0000001
 44
0.0000000001
 40
0.0
 40
0.0
 40
0.0
 40
0.0
 40
0.0125155661
 40
0.0192322487
 40
0.0262598752
 40
0.0412553943
 40
0.0575024178
 40
0.0749863872
 40
0.0936827896
 40
0.1135719454
 40
0.1346316194
 40
0.156846647
 40
0.1802031369
 40
0.2046916002
 40
0.2303075533
 40
0.2570476717
 40
0.2849153145
 40
0.3440530169
 40
0.407805494
 40
0.4763078268
 40
0.5497473334
 40
0.6283636909
 40
0.7124440905
 40
0.8023003292
 40
0.898184153
 40
1.0
 40
1.0
 40
1.0
 40
1.0
 10
10.4587761084
 20
8.8221916504
 30
0.0
 10
10.45902004
 20
8.822956125
 30
0.0
 10
10.4594912587
 20
8.824101139
 30
0.0
 10
10.460264563
 20
8.825596998
 30
0.0
 10
10.4611956772
 20
8.8271881323
 30
0.0
 10
10.4625829892
 20
8.829215743
 30
0.0
 10
10.4645309265
 20
8.8316609068
 30
0.0
 10
10.4667794718
 20
8.8341618222
 30
0.0
 10
10.4693130946
 20
8.8367139254
 30
0.0
 10
10.4721200023
 20
8.8393126389
 30
0.0
 10
10.4751898834
 20
8.8419551826
 30
0.0
 10
10.4785147357
 20
8.844638798
 30
0.0
 10
10.4820878913
 20
8.8473618426
 30
0.0
 10
10.4859041453
 20
8.8501231116
 30
0.0
 10
10.4899595068
 20
8.8529217995
 30
0.0
 10
10.4942509908
 20
8.8557578808
 30
0.0
 10
10.5004080503
 20
8.8596671104
 30
0.0
 10
10.508698222
 20
8.8646407444
 30
0.0
 10
10.5193927013
 20
8.8706610362
 30
0.0
 10
10.5310339981
 20
8.8768609404
 30
0.0
 10
10.5436447927
 20
8.8832614303
 30
0.0
 10
10.5572578441
 20
8.8898890805
 30
0.0
 10
10.5719139101
 20
8.8967750848
 30
0.0
 10
10.5876553211
 20
8.9039516262
 30
0.0
 10
10.6045034386
 20
8.9114396298
 30
0.0
 10
10.6161286768
 20
8.9164925457
 30
0.0
 10
10.6221260809
 20
8.919070592
 30
0.0
  0
SPLINE
  5
397
100
AcDbEntity
  8
0
100
AcDbSpline
 62
7
  6
CONTINUOUS
 70
0
 71
3
 72
47
 73
43
 74
0
 42
0.0000001
 43
0.0000001
 44
0.0000000001
 40
0.0
 40
0.0
 40
0.0
 40
0.0
 40
0.0183035111
 40
0.0350779338
 40
0.0505110185
 40
0.0647914124
 40
0.0780996472
 40
0.0906027131
 40
0.1024517833
 40
0.1137820432
 40
0.1247122931
 40
0.1353463183
 40
0.1457731003
 40
0.1560690017
 40
0.1662977135
 40
0.1765135232
 40
0.1970653648
 40
0.2180103651
 40
0.2395308773
 40
0.2505503848
 40
0.2617557998
 40
0.2847600887
 40
0.3086074599
 40
0.3333441346
 40
0.3590053879
 40
0.3856259109
 40
0.4132376267
 40
0.4418777108
 40
0.4715857397
 40
0.5024107417
 40
0.5344083576
 40
0.5676485461
 40
0.6022129444
 40
0.638203951
 40
0.6757453601
 40
0.7149896619
 40
0.7561262191
 40
0.7993891569
 40
0.8450660791
 40
0.8934988714
 40
0.9450553669
 40
1.0
 40
1.0
 40
1.0
 40
1.0
 10
9.696482666
 20
8.5032722878
 30
0.0
 10
9.6956548134
 20
8.5042559289
 30
0.0
 10
9.6941382523
 20
8.5062017738
 30
0.0
 10
9.6921932732
 20
8.5091738828
 30
0.0
 10
9.6906451194
 20
8.512053703
 30
0.0
 10
9.6894561912
 20
8.5148363497
 30
0.0
 10
9.6885908544
 20
8.5175204304
 30
0.0
 10
9.6880180141
 20
8.5201069569
 30
0.0
 10
9.6877088665
 20
8.5225979323
 30
0.0
 10
9.6876392657
 20
8.5249963067
 30
0.0
 10
9.6877869557
 20
8.5273053727
 30
0.0
 10
9.6881335739
 20
8.5295285494
 30
0.0
 10
9.6886618158
 20
8.5316695492
 30
0.0
 10
9.6893581778
 20
8.5337315619
 30
0.0
 10
9.6902089431
 20
8.5357184816
 30
0.0
 10
9.6915380051
 20
8.5382755284
 30
0.0
 10
9.6935477355
 20
8.5413150384
 30
0.0
 10
9.6964252656
 20
8.5446900889
 30
0.0
 10
9.6991528876
 20
8.5472827424
 30
0.0
 10
9.7015186677
 20
8.5492446275
 30
0.0
 10
9.7040481682
 20
8.551168148
 30
0.0
 10
9.7074395821
 20
8.5534400839
 30
0.0
 10
9.7118029608
 20
8.5559459744
 30
0.0
 10
9.7164781172
 20
8.5582632597
 30
0.0
 10
9.7214506104
 20
8.5604000953
 30
0.0
 10
9.7267107625
 20
8.5623610691
 30
0.0
 10
9.732251555
 20
8.5641510141
 30
0.0
 10
9.738069487
 20
8.5657715183
 30
0.0
 10
9.7441636647
 20
8.5672242738
 30
0.0
 10
9.7505363564
 20
8.568507776
 30
0.0
 10
9.7571926894
 20
8.5696203504
 30
0.0
 10
9.7641411614
 20
8.5705566866
 30
0.0
 10
9.7713938145
 20
8.5713106702
 30
0.0
 10
9.7789669052
 20
8.5718719433
 30
0.0
 10
9.7868815401
 20
8.5722271733
 30
0.0
 10
9.795164598
 20
8.5723580731
 30
0.0
 10
9.8038498744
 20
8.5722395958
 30
0.0
 10
9.8129791332
 20
8.5718377925
 30
0.0
 10
9.8226022015
 20
8.5711059907
 30
0.0
 10
9.8327739508
 20
8.5699795569
 30
0.0
 10
9.8435396493
 20
8.5683699794
 30
0.0
 10
9.8508860727
 20
8.566940891
 30
0.0
 10
9.8546545558
 20
8.5661084084
 30
0.0
  0
SPLINE
  5
398
100
AcDbEntity
  8
0
100
AcDbSpline
 62
7
  6
CONTINUOUS
 70
0
 71
3
 72
11
 73
7
 74
0
 42
0.0000001
 43
0.0000001
 44
0.0000000001
 40
0.0
 40
0.0
 40
0.0
 40
0.0
 40
0.2521556509
 40
0.5028334291
 40
0.7520864208
 40
1.0
 40
1.0
 40
1.0
 40
1.0
 10
10.956699632
 20
5.9746586739
 30
0.0
 10
10.9647811869
 20
5.9740982161
 30
0.0
 10
10.9809524856
 20
5.9736584445
 30
0.0
 10
11.005102405
 20
5.9750658942
 30
0.0
 10
11.0289064453
 20
5.9785313323
 30
0.0
 10
11.0444746968
 20
5.9822085492
 30
0.0
 10
11.0521375642
 20
5.9843803249
 30
0.0
  0
SPLINE
  5
399
100
AcDbEntity
  8
0
100
AcDbSpline
 62
7
  6
CONTINUOUS
 70
0
 71
3
 72
39
 73
35
 74
0
 42
0.0000001
 43
0.0000001
 44
0.0000000001
 40
0.0
 40
0.0
 40
0.0
 40
0.0
 40
0.0308460029
 40
0.0618156224
 40
0.0929034665
 40
0.1241057483
 40
0.1554153414
 40
0.1868244218
 40
0.2183236741
 40
0.249902671
 40
0.2815499711
 40
0.3132532705
 40
0.3449995658
 40
0.376775316
 40
0.4085666121
 40
0.4403593509
 40
0.4721394125
 40
0.5038928359
 40
0.5356059919
 40
0.5672657527
 40
0.5988596577
 40
0.6303760742
 40
0.6618043536
 40
0.6931349745
 40
0.7243596739
 40
0.7554715661
 40
0.786465246
 40
0.8173368778
 40
0.8480842676
 40
0.878706913
 40
0.9092060285
 40
0.9395845496
 40
0.9698471109
 40
1.0
 40
1.0
 40
1.0
 40
1.0
 10
10.956699632
 20
5.9746586739
 30
0.0
 10
10.9510833936
 20
5.9750481613
 30
0.0
 10
10.9398485449
 20
5.9761580195
 30
0.0
 10
10.9230906417
 20
5.9787994824
 30
0.0
 10
10.9064479367
 20
5.9824122549
 30
0.0
 10
10.8899784702
 20
5.9869835481
 30
0.0
 10
10.8737384303
 20
5.9924978068
 30
0.0
 10
10.8577836545
 20
5.9989359556
 30
0.0
 10
10.8421688644
 20
6.0062758959
 30
0.0
 10
10.8269476401
 20
6.014492376
 30
0.0
 10
10.812172197
 20
6.0235571554
 30
0.0
 10
10.7978932235
 20
6.0334390956
 30
0.0
 10
10.784159706
 20
6.0441042644
 30
0.0
 10
10.7710187639
 20
6.0555160528
 30
0.0
 10
10.7585154924
 20
6.0676353003
 30
0.0
 10
10.746692795
 20
6.0804204144
 30
0.0
 10
10.7355912357
 20
6.0938275159
 30
0.0
 10
10.7252489139
 20
6.1078106016
 30
0.0
 10
10.715701333
 20
6.1223216978
 30
0.0
 10
10.7069812799
 20
6.1373110222
 30
0.0
 10
10.6991187158
 20
6.1527271542
 30
0.0
 10
10.6921406648
 20
6.1685172035
 30
0.0
 10
10.6860711058
 20
6.1846269873
 30
0.0
 10
10.6809309147
 20
6.201001227
 30
0.0
 10
10.6767377887
 20
6.2175837322
 30
0.0
 10
10.6735061869
 20
6.234317592
 30
0.0
 10
10.6712472797
 20
6.2511453658
 30
0.0
 10
10.6699689086
 20
6.2680092802
 30
0.0
 10
10.6696755281
 20
6.2848514185
 30
0.0
 10
10.6703682257
 20
6.3016139474
 30
0.0
 10
10.6720446835
 20
6.3182392229
 30
0.0
 10
10.6746992994
 20
6.3346703195
 30
0.0
 10
10.6783227761
 20
6.350849986
 30
0.0
 10
10.6813820358
 20
6.3614519449
 30
0.0
 10
10.6830686051
 20
6.3666903599
 30
0.0
  0
SPLINE
  5
39A
100
AcDbEntity
  8
0
100
AcDbSpline
 62
7
  6
CONTINUOUS
 70
0
 71
3
 72
39
 73
35
 74
0
 42
0.0000001
 43
0.0000001
 44
0.0000000001
 40
0.0
 40
0.0
 40
0.0
 40
0.0
 40
0.0310058087
 40
0.0621511473
 40
0.0934296835
 40
0.1248352673
 40
0.1563581737
 40
0.1879873334
 40
0.2197097332
 40
0.2515109076
 40
0.2833751063
 40
0.3152855738
 40
0.3472248176
 40
0.3791748897
 40
0.4111176714
 40
0.4430351598
 40
0.4749097529
 40
0.5067245305
 40
0.5384635275
 40
0.5701119959
 40
0.6016566541
 40
0.6330859181
 40
0.6643901097
 40
0.6955616393
 40
0.7265951593
 40
0.7574876843
 40
0.7882386743
 40
0.8188500776
 40
0.8493263303
 40
0.8796743114
 40
0.9099032488
 40
0.9400245773
 40
0.9700517493
 40
1.0
 40
1.0
 40
1.0
 40
1.0
 10
10.956699632
 20
6.0654557069
 30
0.0
 10
10.9523620592
 20
6.0657565186
 30
0.0
 10
10.9436846777
 20
6.0666470184
 30
0.0
 10
10.9307577772
 20
6.0688337807
 30
0.0
 10
10.9179444138
 20
6.0718652587
 30
0.0
 10
10.9053015312
 20
6.0757278592
 30
0.0
 10
10.8928842091
 20
6.0804047323
 30
0.0
 10
10.8807468843
 20
6.085875258
 30
0.0
 10
10.8689426595
 20
6.0921154606
 30
0.0
 10
10.8575232018
 20
6.0990979621
 30
0.0
 10
10.8465384886
 20
6.1067921642
 30
0.0
 10
10.8360365952
 20
6.1151643562
 30
0.0
 10
10.8260634818
 20
6.124177866
 30
0.0
 10
10.816662799
 20
6.133793225
 30
0.0
 10
10.8078756977
 20
6.1439683385
 30
0.0
 10
10.7997406513
 20
6.1546586689
 30
0.0
 10
10.7922932883
 20
6.1658174284
 30
0.0
 10
10.785566238
 20
6.1773957817
 30
0.0
 10
10.7795889881
 20
6.1893430575
 30
0.0
 10
10.7743877574
 20
6.2016069679
 30
0.0
 10
10.7699853749
 20
6.2141338325
 30
0.0
 10
10.7664011794
 20
6.2268688126
 30
0.0
 10
10.7636509401
 20
6.2397561507
 30
0.0
 10
10.7617467851
 20
6.2527394115
 30
0.0
 10
10.7606971472
 20
6.2657617252
 30
0.0
 10
10.760506724
 20
6.2787660348
 30
0.0
 10
10.7611764545
 20
6.2916953423
 30
0.0
 10
10.7627035114
 20
6.3044929583
 30
0.0
 10
10.7650813071
 20
6.3171027433
 30
0.0
 10
10.7682995213
 20
6.3294693776
 30
0.0
 10
10.7723440982
 20
6.3415385236
 30
0.0
 10
10.7771974938
 20
6.353257369
 30
0.0
 10
10.7828380491
 20
6.364573731
 30
0.0
 10
10.7871126308
 20
6.3718264324
 30
0.0
 10
10.7893713401
 20
6.375366999
 30
0.0
  0
SPLINE
  5
39B
100
AcDbEntity
  8
0
100
AcDbSpline
 62
7
  6
CONTINUOUS
 70
0
 71
3
 72
48
 73
44
 74
0
 42
0.0000001
 43
0.0000001
 44
0.0000000001
 40
0.0
 40
0.0
 40
0.0
 40
0.0
 40
0.0311434645
 40
0.0624399987
 40
0.0938836188
 40
0.1254646915
 40
0.1571709918
 40
0.1889877704
 40
0.2208980829
 40
0.252883145
 40
0.2849227154
 40
0.3169954955
 40
0.3490795445
 40
0.3811527045
 40
0.4131930278
 40
0.4451792012
 40
0.4770909606
 40
0.5089094951
 40
0.5406178259
 40
0.5722011588
 40
0.6036472094
 40
0.6349464788
 40
0.6660924859
 40
0.6970819508
 40
0.7279149061
 40
0.7432762793
 40
0.758600081
 40
0.7738872587
 40
0.7891389599
 40
0.8043565324
 40
0.8195415168
 40
0.8346956357
 40
0.8498207885
 40
0.8649190422
 40
0.8799926167
 40
0.8950438753
 40
0.9100753128
 40
0.9250895384
 40
0.940089262
 40
0.9550772806
 40
0.9700564593
 40
0.9850297147
 40
1.0
 40
1.0
 40
1.0
 40
1.0
 10
9.8846477612
 20
8.3054395087
 30
0.0
 10
9.8662027181
 20
8.3067186767
 30
0.0
 10
9.8293018808
 20
8.3106334136
 30
0.0
 10
9.7743980154
 20
8.3204947052
 30
0.0
 10
9.7200822153
 20
8.3343074215
 30
0.0
 10
9.6666478497
 20
8.3519973233
 30
0.0
 10
9.614378759
 20
8.3734695407
 30
0.0
 10
9.5635537839
 20
8.3986092306
 30
0.0
 10
9.5144436995
 20
8.427282096
 30
0.0
 10
9.4673101456
 20
8.45933496
 30
0.0
 10
9.4224042808
 20
8.4945968445
 30
0.0
 10
9.3799653991
 20
8.5328796944
 30
0.0
 10
9.3402195999
 20
8.5739793445
 30
0.0
 10
9.3033787863
 20
8.6176767884
 30
0.0
 10
9.2696393728
 20
8.6637391451
 30
0.0
 10
9.2391812547
 20
8.7119209338
 30
0.0
 10
9.2121670442
 20
8.7619654783
 30
0.0
 10
9.1887409635
 20
8.8136060958
 30
0.0
 10
9.1690281772
 20
8.8665675914
 30
0.0
 10
9.1531342713
 20
8.9205677243
 30
0.0
 10
9.1411444034
 20
8.9753186507
 30
0.0
 10
9.1331229979
 20
9.0305282861
 30
0.0
 10
9.1291136028
 20
9.0859026999
 30
0.0
 10
9.1291378333
 20
9.141144384
 30
0.0
 10
9.132525114
 20
9.1868874052
 30
0.0
 10
9.1372476136
 20
9.2231100703
 30
0.0
 10
9.1417835214
 20
9.250030261
 30
0.0
 10
9.1473114789
 20
9.2766975506
 30
0.0
 10
9.1538242181
 20
9.3030767763
 30
0.0
 10
9.1613130021
 20
9.3291325821
 30
0.0
 10
9.1697678192
 20
9.3548302046
 30
0.0
 10
9.1791774716
 20
9.3801352756
 30
0.0
 10
9.1895293645
 20
9.4050139989
 30
0.0
 10
9.2008096481
 20
9.42943315
 30
0.0
 10
9.2130033398
 20
9.4533600651
 30
0.0
 10
9.2260941323
 20
9.4767627809
 30
0.0
 10
9.2400645048
 20
9.4996100504
 30
0.0
 10
9.2548958652
 20
9.5218712991
 30
0.0
 10
9.2705683951
 20
9.5435167906
 30
0.0
 10
9.2870610862
 20
9.5645176059
 30
0.0
 10
9.3043520631
 20
9.5848457392
 30
0.0
 10
9.3224178432
 20
9.6044736389
 30
0.0
 10
9.334963457
 20
9.6170759997
 30
0.0
 10
9.3413559149
 20
9.6232506237
 30
0.0
  0
SPLINE
  5
39C
100
AcDbEntity
  8
0
100
AcDbSpline
 62
4
  6
CONTINUOUS
 70
0
 71
3
 72
279
 73
275
 74
0
 42
0.0000001
 43
0.0000001
 44
0.0000000001
 40
0.0
 40
0.0
 40
0.0
 40
0.0
 40
0.015625
 40
0.0234375
 40
0.03125
 40
0.0390625
 40
0.046875
 40
0.05078125
 40
0.0546875
 40
0.056640625
 40
0.05859375
 40
0.060546875
 40
0.0615234375
 40
0.0620117188
 40
0.0625
 40
0.0629882812
 40
0.0634765625
 40
0.064453125
 40
0.06640625
 40
0.068359375
 40
0.0703125
 40
0.07421875
 40
0.078125
 40
0.0859375
 40
0.09375
 40
0.1015625
 40
0.109375
 40
0.11328125
 40
0.1171875
 40
0.119140625
 40
0.12109375
 40
0.123046875
 40
0.1240234375
 40
0.1245117188
 40
0.125
 40
0.1254882812
 40
0.1259765625
 40
0.126953125
 40
0.12890625
 40
0.130859375
 40
0.1328125
 40
0.13671875
 40
0.140625
 40
0.1484375
 40
0.15625
 40
0.1640625
 40
0.171875
 40
0.17578125
 40
0.1796875
 40
0.181640625
 40
0.18359375
 40
0.185546875
 40
0.1865234375
 40
0.1870117188
 40
0.1875
 40
0.1879882812
 40
0.1884765625
 40
0.189453125
 40
0.19140625
 40
0.193359375
 40
0.1953125
 40
0.19921875
 40
0.203125
 40
0.2109375
 40
0.21875
 40
0.2265625
 40
0.234375
 40
0.23828125
 40
0.2421875
 40
0.24609375
 40
0.248046875
 40
0.2490234375
 40
0.25
 40
0.2509765625
 40
0.251953125
 40
0.25390625
 40
0.2578125
 40
0.26171875
 40
0.265625
 40
0.2734375
 40
0.28125
 40
0.2890625
 40
0.296875
 40
0.30078125
 40
0.3046875
 40
0.30859375
 40
0.310546875
 40
0.3115234375
 40
0.3125
 40
0.3134765625
 40
0.314453125
 40
0.31640625
 40
0.3203125
 40
0.32421875
 40
0.328125
 40
0.3359375
 40
0.34375
 40
0.3515625
 40
0.359375
 40
0.3671875
 40
0.37109375
 40
0.373046875
 40
0.375
 40
0.376953125
 40
0.37890625
 40
0.3828125
 40
0.390625
 40
0.3984375
 40
0.40625
 40
0.4140625
 40
0.421875
 40
0.4296875
 40
0.43359375
 40
0.435546875
 40
0.4375
 40
0.439453125
 40
0.44140625
 40
0.4453125
 40
0.453125
 40
0.4609375
 40
0.46875
 40
0.4765625
 40
0.484375
 40
0.48828125
 40
0.4921875
 40
0.49609375
 40
0.498046875
 40
0.4990234375
 40
0.5
 40
0.5009765625
 40
0.501953125
 40
0.50390625
 40
0.5078125
 40
0.51171875
 40
0.515625
 40
0.5234375
 40
0.53125
 40
0.5390625
 40
0.546875
 40
0.55078125
 40
0.5546875
 40
0.55859375
 40
0.560546875
 40
0.5615234375
 40
0.5625
 40
0.5634765625
 40
0.564453125
 40
0.56640625
 40
0.5703125
 40
0.57421875
 40
0.578125
 40
0.5859375
 40
0.59375
 40
0.6015625
 40
0.609375
 40
0.61328125
 40
0.6171875
 40
0.619140625
 40
0.62109375
 40
0.623046875
 40
0.6240234375
 40
0.625
 40
0.6259765625
 40
0.626953125
 40
0.62890625
 40
0.630859375
 40
0.6328125
 40
0.63671875
 40
0.640625
 40
0.6484375
 40
0.65625
 40
0.6640625
 40
0.671875
 40
0.67578125
 40
0.6796875
 40
0.681640625
 40
0.68359375
 40
0.685546875
 40
0.6865234375
 40
0.6870117188
 40
0.6875
 40
0.6879882812
 40
0.6884765625
 40
0.689453125
 40
0.69140625
 40
0.693359375
 40
0.6953125
 40
0.69921875
 40
0.703125
 40
0.7109375
 40
0.71875
 40
0.7265625
 40
0.734375
 40
0.73828125
 40
0.7421875
 40
0.744140625
 40
0.74609375
 40
0.748046875
 40
0.7490234375
 40
0.7495117188
 40
0.75
 40
0.7504882812
 40
0.7509765625
 40
0.751953125
 40
0.75390625
 40
0.755859375
 40
0.7578125
 40
0.76171875
 40
0.765625
 40
0.7734375
 40
0.78125
 40
0.7890625
 40
0.796875
 40
0.80078125
 40
0.8046875
 40
0.806640625
 40
0.80859375
 40
0.810546875
 40
0.8115234375
 40
0.8120117188
 40
0.8125
 40
0.8129882812
 40
0.8134765625
 40
0.814453125
 40
0.81640625
 40
0.818359375
 40
0.8203125
 40
0.82421875
 40
0.828125
 40
0.8359375
 40
0.84375
 40
0.8515625
 40
0.859375
 40
0.86328125
 40
0.8671875
 40
0.869140625
 40
0.87109375
 40
0.873046875
 40
0.8740234375
 40
0.8745117188
 40
0.875
 40
0.8754882812
 40
0.8759765625
 40
0.876953125
 40
0.87890625
 40
0.880859375
 40
0.8828125
 40
0.88671875
 40
0.890625
 40
0.8984375
 40
0.90625
 40
0.9140625
 40
0.921875
 40
0.92578125
 40
0.9296875
 40
0.931640625
 40
0.93359375
 40
0.935546875
 40
0.9365234375
 40
0.9370117188
 40
0.9375
 40
0.9379882812
 40
0.9384765625
 40
0.939453125
 40
0.94140625
 40
0.943359375
 40
0.9453125
 40
0.94921875
 40
0.953125
 40
0.9609375
 40
0.96875
 40
0.9765625
 40
0.984375
 40
1.0
 40
1.0
 40
1.0
 40
1.0
 10
12.6439158293
 20
7.2461715185
 30
0.0
 10
12.6447553635
 20
7.2472896579
 30
0.0
 10
12.6460146648
 20
7.2489668668
 30
0.0
 10
12.647693733
 20
7.2512031463
 30
0.0
 10
12.6489530344
 20
7.2528803536
 30
0.0
 10
12.6502123352
 20
7.2545575698
 30
0.0
 10
12.6512617542
 20
7.2559552223
 30
0.0
 10
12.6521012858
 20
7.2570734061
 30
0.0
 10
12.652626001
 20
7.2577721304
 30
0.0
 10
12.6530457551
 20
7.2583314318
 30
0.0
 10
12.65336062
 20
7.2587500264
 30
0.0
 10
12.6536228506
 20
7.2591016591
 30
0.0
 10
12.6538067198
 20
7.2593422995
 30
0.0
 10
12.6539113074
 20
7.2594884
 30
0.0
 10
12.6539911015
 20
7.2595737725
 30
0.0
 10
12.6540657221
 20
7.2597516605
 30
0.0
 10
12.6541670209
 20
7.2599565742
 30
0.0
 10
12.6543434528
 20
7.2603302084
 30
0.0
 10
12.6545959381
 20
7.2608561109
 30
0.0
 10
12.6548987322
 20
7.2614905585
 30
0.0
 10
12.6553025234
 20
7.2623353134
 30
0.0
 10
12.65580724
 20
7.2633916595
 30
0.0
 10
12.656614799
 20
7.2650815883
 30
0.0
 10
12.6576242435
 20
7.2671940769
 30
0.0
 10
12.6588355789
 20
7.2697290281
 30
0.0
 10
12.6600469129
 20
7.2722639959
 30
0.0
 10
12.661056361
 20
7.2743764426
 30
0.0
 10
12.6618639127
 20
7.2760664552
 30
0.0
 10
12.662368648
 20
7.2771225883
 30
0.0
 10
12.6627724008
 20
7.2779677805
 30
0.0
 10
12.6630753122
 20
7.2786008924
 30
0.0
 10
12.6633274307
 20
7.2791309739
 30
0.0
 10
12.6635045173
 20
7.2794971479
 30
0.0
 10
12.6636047671
 20
7.2797140147
 30
0.0
 10
12.6636826098
 20
7.2798551864
 30
0.0
 10
12.6637503023
 20
7.2800784593
 30
0.0
 10
12.6638440996
 20
7.2803475187
 30
0.0
 10
12.6640065952
 20
7.2808317156
 30
0.0
 10
12.6642395941
 20
7.2815164496
 30
0.0
 10
12.6645188238
 20
7.2823411162
 30
0.0
 10
12.6648912589
 20
7.2834396289
 30
0.0
 10
12.6653567586
 20
7.2848131267
 30
0.0
 10
12.6661015829
 20
7.2870105237
 30
0.0
 10
12.6670326047
 20
7.2897573389
 30
0.0
 10
12.6681498348
 20
7.2930534856
 30
0.0
 10
12.6692670627
 20
7.2963496477
 30
0.0
 10
12.67019809
 20
7.2990964247
 30
0.0
 10
12.6709429032
 20
7.3012938979
 30
0.0
 10
12.6714084312
 20
7.3026672021
 30
0.0
 10
12.6717808083
 20
7.3037661122
 30
0.0
 10
12.6720602151
 20
7.3045895645
 30
0.0
 10
12.6722926598
 20
7.305278098
 30
0.0
 10
12.6724561449
 20
7.305755512
 30
0.0
 10
12.6725483567
 20
7.3060354392
 30
0.0
 10
12.6726209193
 20
7.3062253297
 30
0.0
 10
12.6726804709
 20
7.3064918804
 30
0.0
 10
12.6727644115
 20
7.3068205413
 30
0.0
 10
12.672909193
 20
7.3074081565
 30
0.0
 10
12.6731171292
 20
7.3082410934
 30
0.0
 10
12.6733661795
 20
7.3092434056
 30
0.0
 10
12.6736984117
 20
7.3105788481
 30
0.0
 10
12.6741136455
 20
7.3122484847
 30
0.0
 10
12.6747780513
 20
7.3149197164
 30
0.0
 10
12.6756085464
 20
7.3182588228
 30
0.0
 10
12.6766051509
 20
7.3222657107
 30
0.0
 10
12.6776017333
 20
7.3262726511
 30
0.0
 10
12.6784322839
 20
7.3296116261
 30
0.0
 10
12.6790965788
 20
7.3322831208
 30
0.0
 10
12.6795951975
 20
7.3342858827
 30
0.0
 10
12.6800094485
 20
7.3359575836
 30
0.0
 10
12.6803019061
 20
7.3371224116
 30
0.0
 10
12.6804651493
 20
7.3377964009
 30
0.0
 10
12.6805984987
 20
7.3382783052
 30
0.0
 10
12.680690118
 20
7.3388503734
 30
0.0
 10
12.6808268329
 20
7.3395816809
 30
0.0
 10
12.6810593021
 20
7.3408761222
 30
0.0
 10
12.6813949467
 20
7.3427176631
 30
0.0
 10
12.6817962025
 20
7.3449307915
 30
0.0
 10
12.6823317405
 20
7.3478804835
 30
0.0
 10
12.6830009798
 20
7.3515679936
 30
0.0
 10
12.6838041511
 20
7.3559928279
 30
0.0
 10
12.6846072792
 20
7.3604177415
 30
0.0
 10
12.6852766263
 20
7.3641050535
 30
0.0
 10
12.6858119486
 20
7.3670551418
 30
0.0
 10
12.6862138623
 20
7.3692670614
 30
0.0
 10
12.6865474487
 20
7.3711123838
 30
0.0
 10
12.6867835921
 20
7.3724000746
 30
0.0
 10
12.6869144201
 20
7.373142198
 30
0.0
 10
12.687024122
 20
7.3736810433
 30
0.0
 10
12.6870895561
 20
7.3742877275
 30
0.0
 10
12.6871922426
 20
7.3750729767
 30
0.0
 10
12.6873647498
 20
7.376458188
 30
0.0
 10
12.6876149499
 20
7.3784312971
 30
0.0
 10
12.6879135797
 20
7.3808014955
 30
0.0
 10
12.6883123173
 20
7.3839608969
 30
0.0
 10
12.6888105309
 20
7.3879104535
 30
0.0
 10
12.6894085406
 20
7.3926497531
 30
0.0
 10
12.6900062704
 20
7.3973892381
 30
0.0
 10
12.6906049664
 20
7.4021281497
 30
0.0
 10
12.6911008921
 20
7.4060789995
 30
0.0
 10
12.6914538915
 20
7.408841156
 30
0.0
 10
12.6916464708
 20
7.4104248985
 30
0.0
 10
12.6918166375
 20
7.4115975856
 30
0.0
 10
12.6918884426
 20
7.4128280679
 30
0.0
 10
12.6920184924
 20
7.4144485513
 30
0.0
 10
12.6922300934
 20
7.4172937902
 30
0.0
 10
12.6925407438
 20
7.4213535052
 30
0.0
 10
12.6929099206
 20
7.4262272715
 30
0.0
 10
12.693280131
 20
7.4311004637
 30
0.0
 10
12.6936498108
 20
7.4359738441
 30
0.0
 10
12.6940205791
 20
7.4408470457
 30
0.0
 10
12.6943263666
 20
7.4449084863
 30
0.0
 10
12.6945466325
 20
7.4477506504
 30
0.0
 10
12.6946628008
 20
7.4493760599
 30
0.0
 10
12.6947772452
 20
7.4505914109
 30
0.0
 10
12.6947872657
 20
7.4518209288
 30
0.0
 10
12.6948370507
 20
7.4534553444
 30
0.0
 10
12.6949072033
 20
7.4563178741
 30
0.0
 10
12.6950162959
 20
7.4604059988
 30
0.0
 10
12.6951434004
 20
7.4653122621
 30
0.0
 10
12.6952715318
 20
7.4702183965
 30
0.0
 10
12.6953993623
 20
7.4751245329
 30
0.0
 10
12.6955060347
 20
7.4792130808
 30
0.0
 10
12.6955911705
 20
7.4824836759
 30
0.0
 10
12.6956555407
 20
7.4849372913
 30
0.0
 10
12.6957075387
 20
7.4869798419
 30
0.0
 10
12.6957471626
 20
7.4884138053
 30
0.0
 10
12.6957647688
 20
7.4892266893
 30
0.0
 10
12.69579216
 20
7.4898547295
 30
0.0
 10
12.6957653231
 20
7.4904125229
 30
0.0
 10
12.695748456
 20
7.4911807502
 30
0.0
 10
12.6957101255
 20
7.4925137317
 30
0.0
 10
12.6956599752
 20
7.4944239596
 30
0.0
 10
12.6955978225
 20
7.4967136783
 30
0.0
 10
12.6955156415
 20
7.4997675293
 30
0.0
 10
12.6954126772
 20
7.5035845342
 30
0.0
 10
12.6952892286
 20
7.5081650835
 30
0.0
 10
12.6951657267
 20
7.512745553
 30
0.0
 10
12.6950628959
 20
7.5165627577
 30
0.0
 10
12.6949804478
 20
7.519616209
 30
0.0
 10
12.6949191098
 20
7.5219071467
 30
0.0
 10
12.694866411
 20
7.5238135612
 30
0.0
 10
12.6948326299
 20
7.5251533502
 30
0.0
 10
12.6948084735
 20
7.5259106702
 30
0.0
 10
12.694804027
 20
7.5265019675
 30
0.0
 10
12.6947473236
 20
7.5270041724
 30
0.0
 10
12.6946899468
 20
7.5277048553
 30
0.0
 10
12.6945810449
 20
7.5289165714
 30
0.0
 10
12.6944299107
 20
7.5306551641
 30
0.0
 10
12.6942466492
 20
7.5327382353
 30
0.0
 10
12.6940029643
 20
7.5355167953
 30
0.0
 10
12.6936981308
 20
7.5389896078
 30
0.0
 10
12.6933324265
 20
7.5431571448
 30
0.0
 10
12.6929667027
 20
7.5473246539
 30
0.0
 10
12.692661918
 20
7.5507975364
 30
0.0
 10
12.6924181355
 20
7.5535759564
 30
0.0
 10
12.6922656659
 20
7.5553122048
 30
0.0
 10
12.6921439321
 20
7.5567018089
 30
0.0
 10
12.6920519696
 20
7.5577423542
 30
0.0
 10
12.6919774402
 20
7.5586147489
 30
0.0
 10
12.6919130935
 20
7.5593008369
 30
0.0
 10
12.6918777395
 20
7.5598477219
 30
0.0
 10
12.6917931229
 20
7.5602712451
 30
0.0
 10
12.6916975088
 20
7.5608790345
 30
0.0
 10
12.6915720872
 20
7.5616239867
 30
0.0
 10
12.6914241085
 20
7.5625242576
 30
0.0
 10
12.6912259207
 20
7.5637224085
 30
0.0
 10
12.6909784883
 20
7.5652208539
 30
0.0
 10
12.6905824275
 20
7.5676179436
 30
0.0
 10
12.6900874094
 20
7.5706144505
 30
0.0
 10
12.6894933633
 20
7.5742101984
 30
0.0
 10
12.6888993217
 20
7.5778059561
 30
0.0
 10
12.6884042926
 20
7.5808024384
 30
0.0
 10
12.6880082537
 20
7.5831995772
 30
0.0
 10
12.6877607657
 20
7.5846978978
 30
0.0
 10
12.6875626921
 20
7.5858963049
 30
0.0
 10
12.6874143646
 20
7.5867957929
 30
0.0
 10
12.6872900339
 20
7.5875431947
 30
0.0
 10
12.6872044243
 20
7.5880706375
 30
0.0
 10
12.6871532842
 20
7.5883653793
 30
0.0
 10
12.6871211839
 20
7.5886051803
 30
0.0
 10
12.687065175
 20
7.5887733299
 30
0.0
 10
12.686998836
 20
7.5890225221
 30
0.0
 10
12.6868788573
 20
7.589446964
 30
0.0
 10
12.6867094906
 20
7.5900593974
 30
0.0
 10
12.6865053809
 20
7.5907917117
 30
0.0
 10
12.6862335385
 20
7.5917690408
 30
0.0
 10
12.6858936315
 20
7.5929903907
 30
0.0
 10
12.6853498383
 20
7.5949447247
 30
0.0
 10
12.6846700768
 20
7.5973875819
 30
0.0
 10
12.6838543721
 20
7.6003190386
 30
0.0
 10
12.6830386633
 20
7.6032504794
 30
0.0
 10
12.6823589118
 20
7.6056933765
 30
0.0
 10
12.6818150988
 20
7.6076476306
 30
0.0
 10
12.6814752422
 20
7.6088691835
 30
0.0
 10
12.6812032961
 20
7.609846096
 30
0.0
 10
12.6809995031
 20
7.6105796832
 30
0.0
 10
12.6808291458
 20
7.6111881341
 30
0.0
 10
12.6807109354
 20
7.6116196853
 30
0.0
 10
12.6806417632
 20
7.6118574865
 30
0.0
 10
12.680594457
 20
7.6120606258
 30
0.0
 10
12.6805296709
 20
7.6121690112
 30
0.0
 10
12.6804493865
 20
7.6123465762
 30
0.0
 10
12.6803060482
 20
7.6126419158
 30
0.0
 10
12.6801027642
 20
7.6130718805
 30
0.0
 10
12.6798581878
 20
7.613584392
 30
0.0
 10
12.679532308
 20
7.6142689443
 30
0.0
 10
12.6791248821
 20
7.6151242225
 30
0.0
 10
12.6784730433
 20
7.6164928982
 30
0.0
 10
12.67765823
 20
7.6182036631
 30
0.0
 10
12.6766804608
 20
7.6202566175
 30
0.0
 10
12.6757026885
 20
7.6223095534
 30
0.0
 10
12.674887883
 20
7.6240203643
 30
0.0
 10
12.6742360286
 20
7.625388948
 30
0.0
 10
12.6738286422
 20
7.62624446
 30
0.0
 10
12.6735026815
 20
7.6269285325
 30
0.0
 10
12.6732583521
 20
7.6274425101
 30
0.0
 10
12.6730542952
 20
7.6278678876
 30
0.0
 10
12.6729123367
 20
7.628171416
 30
0.0
 10
12.6728298415
 20
7.6283358605
 30
0.0
 10
12.6727718464
 20
7.6284845481
 30
0.0
 10
12.672699034
 20
7.6285363185
 30
0.0
 10
12.6726071192
 20
7.6286391516
 30
0.0
 10
12.6724438603
 20
7.6288033586
 30
0.0
 10
12.6722118923
 20
7.6290461747
 30
0.0
 10
12.6719329918
 20
7.6293340294
 30
0.0
 10
12.6715613127
 20
7.6297190668
 30
0.0
 10
12.6710966493
 20
7.6301999419
 30
0.0
 10
12.6703532239
 20
7.6309695778
 30
0.0
 10
12.6694239298
 20
7.6319315412
 30
0.0
 10
12.6683087825
 20
7.6330859346
 30
0.0
 10
12.6671936327
 20
7.634240309
 30
0.0
 10
12.6662643446
 20
7.6352023201
 30
0.0
 10
12.6655209072
 20
7.6359718607
 30
0.0
 10
12.6650562744
 20
7.6364529781
 30
0.0
 10
12.6646845326
 20
7.6368375182
 30
0.0
 10
12.6644058237
 20
7.6371268918
 30
0.0
 10
12.6641732561
 20
7.6373649556
 30
0.0
 10
12.6640110676
 20
7.6375376465
 30
0.0
 10
12.6639174378
 20
7.6376268862
 30
0.0
 10
12.6638498933
 20
7.637720411
 30
0.0
 10
12.6637721128
 20
7.637712276
 30
0.0
 10
12.6636719759
 20
7.6377368894
 30
0.0
 10
12.6634950729
 20
7.6377634413
 30
0.0
 10
12.6632432239
 20
7.6378100102
 30
0.0
 10
12.6629406329
 20
7.6378621958
 30
0.0
 10
12.6625373083
 20
7.6379330679
 30
0.0
 10
12.6620331079
 20
7.6380212159
 30
0.0
 10
12.6612264123
 20
7.6381624999
 30
0.0
 10
12.6602180341
 20
7.6383390194
 30
0.0
 10
12.6590079842
 20
7.638550882
 30
0.0
 10
12.6577979325
 20
7.6387627247
 30
0.0
 10
12.6567895587
 20
7.6389392939
 30
0.0
 10
12.6559828544
 20
7.6390804787
 30
0.0
 10
12.6554786759
 20
7.6391688786
 30
0.0
 10
12.6550753064
 20
7.6392392336
 30
0.0
 10
12.6547728526
 20
7.639292999
 30
0.0
 10
12.6545205742
 20
7.6393346251
 30
0.0
 10
12.6543444377
 20
7.6393700008
 30
0.0
 10
12.6542430727
 20
7.6393804763
 30
0.0
 10
12.6541690648
 20
7.6394157684
 30
0.0
 10
12.6540873511
 20
7.6393461883
 30
0.0
 10
12.6539810874
 20
7.6392899954
 30
0.0
 10
12.6537938735
 20
7.6391746143
 30
0.0
 10
12.6535270799
 20
7.6390186947
 30
0.0
 10
12.6532066474
 20
7.6388277772
 30
0.0
 10
12.6527795019
 20
7.6385745527
 30
0.0
 10
12.6522455364
 20
7.6382575659
 30
0.0
 10
12.6513912105
 20
7.637750642
 30
0.0
 10
12.6503232966
 20
7.6371168996
 30
0.0
 10
12.6490418028
 20
7.6363564463
 30
0.0
 10
12.6477603081
 20
7.6355959829
 30
0.0
 10
12.6460516489
 20
7.6345820353
 30
0.0
 10
12.6447701544
 20
7.6338215737
 30
0.0
 10
12.6439158248
 20
7.6333145995
 30
0.0
  0
SPLINE
  5
39D
100
AcDbEntity
  8
0
100
AcDbSpline
 62
4
  6
CONTINUOUS
 70
0
 71
3
 72
279
 73
275
 74
0
 42
0.0000001
 43
0.0000001
 44
0.0000000001
 40
0.0
 40
0.0
 40
0.0
 40
0.0
 40
0.015625
 40
0.0234375
 40
0.03125
 40
0.0390625
 40
0.046875
 40
0.05078125
 40
0.0546875
 40
0.056640625
 40
0.05859375
 40
0.060546875
 40
0.0615234375
 40
0.0620117188
 40
0.0625
 40
0.0629882812
 40
0.0634765625
 40
0.064453125
 40
0.06640625
 40
0.068359375
 40
0.0703125
 40
0.07421875
 40
0.078125
 40
0.0859375
 40
0.09375
 40
0.1015625
 40
0.109375
 40
0.11328125
 40
0.1171875
 40
0.119140625
 40
0.12109375
 40
0.123046875
 40
0.1240234375
 40
0.1245117188
 40
0.125
 40
0.1254882812
 40
0.1259765625
 40
0.126953125
 40
0.12890625
 40
0.130859375
 40
0.1328125
 40
0.13671875
 40
0.140625
 40
0.1484375
 40
0.15625
 40
0.1640625
 40
0.171875
 40
0.17578125
 40
0.1796875
 40
0.181640625
 40
0.18359375
 40
0.185546875
 40
0.1865234375
 40
0.1870117188
 40
0.1875
 40
0.1879882812
 40
0.1884765625
 40
0.189453125
 40
0.19140625
 40
0.193359375
 40
0.1953125
 40
0.19921875
 40
0.203125
 40
0.2109375
 40
0.21875
 40
0.2265625
 40
0.234375
 40
0.23828125
 40
0.2421875
 40
0.24609375
 40
0.248046875
 40
0.2490234375
 40
0.25
 40
0.2509765625
 40
0.251953125
 40
0.25390625
 40
0.2578125
 40
0.26171875
 40
0.265625
 40
0.2734375
 40
0.28125
 40
0.2890625
 40
0.296875
 40
0.30078125
 40
0.3046875
 40
0.30859375
 40
0.310546875
 40
0.3115234375
 40
0.3125
 40
0.3134765625
 40
0.314453125
 40
0.31640625
 40
0.3203125
 40
0.32421875
 40
0.328125
 40
0.3359375
 40
0.34375
 40
0.3515625
 40
0.359375
 40
0.3671875
 40
0.37109375
 40
0.373046875
 40
0.375
 40
0.376953125
 40
0.37890625
 40
0.3828125
 40
0.390625
 40
0.3984375
 40
0.40625
 40
0.4140625
 40
0.421875
 40
0.4296875
 40
0.43359375
 40
0.435546875
 40
0.4375
 40
0.439453125
 40
0.44140625
 40
0.4453125
 40
0.453125
 40
0.4609375
 40
0.46875
 40
0.4765625
 40
0.484375
 40
0.48828125
 40
0.4921875
 40
0.49609375
 40
0.498046875
 40
0.4990234375
 40
0.5
 40
0.5009765625
 40
0.501953125
 40
0.50390625
 40
0.5078125
 40
0.51171875
 40
0.515625
 40
0.5234375
 40
0.53125
 40
0.5390625
 40
0.546875
 40
0.55078125
 40
0.5546875
 40
0.55859375
 40
0.560546875
 40
0.5615234375
 40
0.5625
 40
0.5634765625
 40
0.564453125
 40
0.56640625
 40
0.5703125
 40
0.57421875
 40
0.578125
 40
0.5859375
 40
0.59375
 40
0.6015625
 40
0.609375
 40
0.61328125
 40
0.6171875
 40
0.619140625
 40
0.62109375
 40
0.623046875
 40
0.6240234375
 40
0.625
 40
0.6259765625
 40
0.626953125
 40
0.62890625
 40
0.630859375
 40
0.6328125
 40
0.63671875
 40
0.640625
 40
0.6484375
 40
0.65625
 40
0.6640625
 40
0.671875
 40
0.67578125
 40
0.6796875
 40
0.681640625
 40
0.68359375
 40
0.685546875
 40
0.6865234375
 40
0.6870117188
 40
0.6875
 40
0.6879882812
 40
0.6884765625
 40
0.689453125
 40
0.69140625
 40
0.693359375
 40
0.6953125
 40
0.69921875
 40
0.703125
 40
0.7109375
 40
0.71875
 40
0.7265625
 40
0.734375
 40
0.73828125
 40
0.7421875
 40
0.744140625
 40
0.74609375
 40
0.748046875
 40
0.7490234375
 40
0.7495117188
 40
0.75
 40
0.7504882812
 40
0.7509765625
 40
0.751953125
 40
0.75390625
 40
0.755859375
 40
0.7578125
 40
0.76171875
 40
0.765625
 40
0.7734375
 40
0.78125
 40
0.7890625
 40
0.796875
 40
0.80078125
 40
0.8046875
 40
0.806640625
 40
0.80859375
 40
0.810546875
 40
0.8115234375
 40
0.8120117188
 40
0.8125
 40
0.8129882812
 40
0.8134765625
 40
0.814453125
 40
0.81640625
 40
0.818359375
 40
0.8203125
 40
0.82421875
 40
0.828125
 40
0.8359375
 40
0.84375
 40
0.8515625
 40
0.859375
 40
0.86328125
 40
0.8671875
 40
0.869140625
 40
0.87109375
 40
0.873046875
 40
0.8740234375
 40
0.8745117188
 40
0.875
 40
0.8754882812
 40
0.8759765625
 40
0.876953125
 40
0.87890625
 40
0.880859375
 40
0.8828125
 40
0.88671875
 40
0.890625
 40
0.8984375
 40
0.90625
 40
0.9140625
 40
0.921875
 40
0.92578125
 40
0.9296875
 40
0.931640625
 40
0.93359375
 40
0.935546875
 40
0.9365234375
 40
0.9370117188
 40
0.9375
 40
0.9379882812
 40
0.9384765625
 40
0.939453125
 40
0.94140625
 40
0.943359375
 40
0.9453125
 40
0.94921875
 40
0.953125
 40
0.9609375
 40
0.96875
 40
0.9765625
 40
0.984375
 40
1.0
 40
1.0
 40
1.0
 40
1.0
 10
12.6439158293
 20
7.6333146039
 30
0.0
 10
12.6430762952
 20
7.6321964645
 30
0.0
 10
12.6418169939
 20
7.6305192556
 30
0.0
 10
12.6401379256
 20
7.6282829761
 30
0.0
 10
12.6388786243
 20
7.6266057688
 30
0.0
 10
12.6376193234
 20
7.6249285526
 30
0.0
 10
12.6365699045
 20
7.6235309001
 30
0.0
 10
12.6357303728
 20
7.6224127163
 30
0.0
 10
12.6352056577
 20
7.621713992
 30
0.0
 10
12.6347859035
 20
7.6211546906
 30
0.0
 10
12.6344710387
 20
7.620736096
 30
0.0
 10
12.634208808
 20
7.6203844633
 30
0.0
 10
12.6340249389
 20
7.6201438229
 30
0.0
 10
12.6339203513
 20
7.6199977224
 30
0.0
 10
12.6338405571
 20
7.6199123499
 30
0.0
 10
12.6337659365
 20
7.6197344619
 30
0.0
 10
12.6336646378
 20
7.6195295482
 30
0.0
 10
12.6334882059
 20
7.619155914
 30
0.0
 10
12.6332357206
 20
7.6186300115
 30
0.0
 10
12.6329329265
 20
7.6179955639
 30
0.0
 10
12.6325291352
 20
7.617150809
 30
0.0
 10
12.6320244187
 20
7.6160944629
 30
0.0
 10
12.6312168596
 20
7.6144045341
 30
0.0
 10
12.6302074152
 20
7.6122920454
 30
0.0
 10
12.6289960798
 20
7.6097570943
 30
0.0
 10
12.6277847458
 20
7.6072221265
 30
0.0
 10
12.6267752977
 20
7.6051096797
 30
0.0
 10
12.625967746
 20
7.6034196672
 30
0.0
 10
12.6254630107
 20
7.6023635341
 30
0.0
 10
12.6250592579
 20
7.6015183419
 30
0.0
 10
12.6247563465
 20
7.60088523
 30
0.0
 10
12.624504228
 20
7.6003551485
 30
0.0
 10
12.6243271413
 20
7.5999889745
 30
0.0
 10
12.6242268916
 20
7.5997721077
 30
0.0
 10
12.6241490489
 20
7.599630936
 30
0.0
 10
12.6240813563
 20
7.5994076631
 30
0.0
 10
12.6239875591
 20
7.5991386036
 30
0.0
 10
12.6238250635
 20
7.5986544068
 30
0.0
 10
12.6235920645
 20
7.5979696728
 30
0.0
 10
12.6233128349
 20
7.5971450062
 30
0.0
 10
12.6229403998
 20
7.5960464935
 30
0.0
 10
12.6224749001
 20
7.5946729957
 30
0.0
 10
12.6217300758
 20
7.5924755987
 30
0.0
 10
12.620799054
 20
7.5897287835
 30
0.0
 10
12.6196818239
 20
7.5864326368
 30
0.0
 10
12.618564596
 20
7.5831364747
 30
0.0
 10
12.6176335686
 20
7.5803896977
 30
0.0
 10
12.6168887555
 20
7.5781922245
 30
0.0
 10
12.6164232275
 20
7.5768189203
 30
0.0
 10
12.6160508504
 20
7.5757200102
 30
0.0
 10
12.6157714436
 20
7.5748965579
 30
0.0
 10
12.6155389989
 20
7.5742080244
 30
0.0
 10
12.6153755138
 20
7.5737306104
 30
0.0
 10
12.615283302
 20
7.5734506831
 30
0.0
 10
12.6152107394
 20
7.5732607927
 30
0.0
 10
12.6151511877
 20
7.572994242
 30
0.0
 10
12.6150672472
 20
7.5726655811
 30
0.0
 10
12.6149224657
 20
7.5720779659
 30
0.0
 10
12.6147145295
 20
7.571245029
 30
0.0
 10
12.6144654792
 20
7.5702427168
 30
0.0
 10
12.6141332469
 20
7.5689072743
 30
0.0
 10
12.6137180132
 20
7.5672376377
 30
0.0
 10
12.6130536074
 20
7.564566406
 30
0.0
 10
12.6122231123
 20
7.5612272996
 30
0.0
 10
12.6112265077
 20
7.5572204117
 30
0.0
 10
12.6102299254
 20
7.5532134713
 30
0.0
 10
12.6093993748
 20
7.5498744963
 30
0.0
 10
12.6087350799
 20
7.5472030016
 30
0.0
 10
12.6082364611
 20
7.5452002397
 30
0.0
 10
12.6078222102
 20
7.5435285388
 30
0.0
 10
12.6075297526
 20
7.5423637108
 30
0.0
 10
12.6073665093
 20
7.5416897215
 30
0.0
 10
12.6072331599
 20
7.5412078172
 30
0.0
 10
12.6071415407
 20
7.540635749
 30
0.0
 10
12.6070048258
 20
7.5399044415
 30
0.0
 10
12.6067723565
 20
7.5386100002
 30
0.0
 10
12.606436712
 20
7.5367684593
 30
0.0
 10
12.6060354562
 20
7.5345553309
 30
0.0
 10
12.6054999182
 20
7.5316056389
 30
0.0
 10
12.6048306789
 20
7.5279181288
 30
0.0
 10
12.6040275076
 20
7.5234932945
 30
0.0
 10
12.6032243795
 20
7.5190683809
 30
0.0
 10
12.6025550324
 20
7.5153810689
 30
0.0
 10
12.60201971
 20
7.5124309806
 30
0.0
 10
12.6016177964
 20
7.510219061
 30
0.0
 10
12.60128421
 20
7.5083737386
 30
0.0
 10
12.6010480666
 20
7.5070860477
 30
0.0
 10
12.6009172386
 20
7.5063439244
 30
0.0
 10
12.6008075367
 20
7.5058050791
 30
0.0
 10
12.6007421026
 20
7.5051983949
 30
0.0
 10
12.6006394161
 20
7.5044131457
 30
0.0
 10
12.6004669089
 20
7.5030279344
 30
0.0
 10
12.6002167088
 20
7.5010548253
 30
0.0
 10
12.599918079
 20
7.4986846269
 30
0.0
 10
12.5995193414
 20
7.4955252255
 30
0.0
 10
12.5990211278
 20
7.4915756689
 30
0.0
 10
12.5984231181
 20
7.4868363693
 30
0.0
 10
12.5978253883
 20
7.4820968843
 30
0.0
 10
12.5972266922
 20
7.4773579727
 30
0.0
 10
12.5967307665
 20
7.4734071229
 30
0.0
 10
12.5963777671
 20
7.4706449664
 30
0.0
 10
12.5961851879
 20
7.4690612239
 30
0.0
 10
12.5960150212
 20
7.4678885368
 30
0.0
 10
12.5959432161
 20
7.4666580545
 30
0.0
 10
12.5958131663
 20
7.4650375711
 30
0.0
 10
12.5956015653
 20
7.4621923321
 30
0.0
 10
12.5952909148
 20
7.4581326172
 30
0.0
 10
12.594921738
 20
7.4532588509
 30
0.0
 10
12.5945515277
 20
7.4483856587
 30
0.0
 10
12.5941818479
 20
7.4435122783
 30
0.0
 10
12.5938110795
 20
7.4386390767
 30
0.0
 10
12.5935052921
 20
7.434577636
 30
0.0
 10
12.5932850262
 20
7.431735472
 30
0.0
 10
12.5931688579
 20
7.4301100625
 30
0.0
 10
12.5930544134
 20
7.4288947115
 30
0.0
 10
12.5930443929
 20
7.4276651936
 30
0.0
 10
12.592994608
 20
7.426030778
 30
0.0
 10
12.5929244553
 20
7.4231682483
 30
0.0
 10
12.5928153628
 20
7.4190801235
 30
0.0
 10
12.5926882583
 20
7.4141738603
 30
0.0
 10
12.5925601269
 20
7.4092677259
 30
0.0
 10
12.5924322963
 20
7.4043615895
 30
0.0
 10
12.5923256239
 20
7.4002730416
 30
0.0
 10
12.5922404882
 20
7.3970024465
 30
0.0
 10
12.592176118
 20
7.3945488311
 30
0.0
 10
12.59212412
 20
7.3925062805
 30
0.0
 10
12.5920844961
 20
7.3910723171
 30
0.0
 10
12.5920668898
 20
7.3902594331
 30
0.0
 10
12.5920394987
 20
7.3896313929
 30
0.0
 10
12.5920663355
 20
7.3890735995
 30
0.0
 10
12.5920832027
 20
7.3883053722
 30
0.0
 10
12.5921215332
 20
7.3869723907
 30
0.0
 10
12.5921716835
 20
7.3850621628
 30
0.0
 10
12.5922338362
 20
7.3827724441
 30
0.0
 10
12.5923160172
 20
7.3797185931
 30
0.0
 10
12.5924189815
 20
7.3759015882
 30
0.0
 10
12.59254243
 20
7.3713210388
 30
0.0
 10
12.592665932
 20
7.3667405694
 30
0.0
 10
12.5927687627
 20
7.3629233647
 30
0.0
 10
12.5928512109
 20
7.3598699134
 30
0.0
 10
12.5929125489
 20
7.3575789757
 30
0.0
 10
12.5929652477
 20
7.3556725612
 30
0.0
 10
12.5929990288
 20
7.3543327722
 30
0.0
 10
12.5930231852
 20
7.3535754522
 30
0.0
 10
12.5930276317
 20
7.3529841549
 30
0.0
 10
12.5930843351
 20
7.35248195
 30
0.0
 10
12.5931417119
 20
7.3517812671
 30
0.0
 10
12.5932506138
 20
7.350569551
 30
0.0
 10
12.593401748
 20
7.3488309583
 30
0.0
 10
12.5935850095
 20
7.3467478871
 30
0.0
 10
12.5938286944
 20
7.3439693271
 30
0.0
 10
12.5941335278
 20
7.3404965146
 30
0.0
 10
12.5944992321
 20
7.3363289776
 30
0.0
 10
12.594864956
 20
7.3321614685
 30
0.0
 10
12.5951697406
 20
7.328688586
 30
0.0
 10
12.5954135232
 20
7.325910166
 30
0.0
 10
12.5955659927
 20
7.3241739176
 30
0.0
 10
12.5956877266
 20
7.3227843135
 30
0.0
 10
12.595779689
 20
7.3217437682
 30
0.0
 10
12.5958542184
 20
7.3208713735
 30
0.0
 10
12.5959185652
 20
7.3201852854
 30
0.0
 10
12.5959539192
 20
7.3196384005
 30
0.0
 10
12.5960385358
 20
7.3192148773
 30
0.0
 10
12.5961341498
 20
7.3186070879
 30
0.0
 10
12.5962595714
 20
7.3178621357
 30
0.0
 10
12.5964075502
 20
7.3169618648
 30
0.0
 10
12.5966057379
 20
7.3157637139
 30
0.0
 10
12.5968531704
 20
7.3142652685
 30
0.0
 10
12.5972492312
 20
7.3118681788
 30
0.0
 10
12.5977442493
 20
7.3088716719
 30
0.0
 10
12.5983382953
 20
7.305275924
 30
0.0
 10
12.598932337
 20
7.3016801663
 30
0.0
 10
12.5994273661
 20
7.298683684
 30
0.0
 10
12.599823405
 20
7.2962865452
 30
0.0
 10
12.600070893
 20
7.2947882246
 30
0.0
 10
12.6002689666
 20
7.2935898175
 30
0.0
 10
12.600417294
 20
7.2926903295
 30
0.0
 10
12.6005416248
 20
7.2919429277
 30
0.0
 10
12.6006272344
 20
7.2914154849
 30
0.0
 10
12.6006783744
 20
7.2911207431
 30
0.0
 10
12.6007104748
 20
7.2908809421
 30
0.0
 10
12.6007664837
 20
7.2907127925
 30
0.0
 10
12.6008328226
 20
7.2904636003
 30
0.0
 10
12.6009528014
 20
7.2900391584
 30
0.0
 10
12.6011221681
 20
7.289426725
 30
0.0
 10
12.6013262777
 20
7.2886944107
 30
0.0
 10
12.6015981202
 20
7.2877170815
 30
0.0
 10
12.6019380272
 20
7.2864957317
 30
0.0
 10
12.6024818204
 20
7.2845413977
 30
0.0
 10
12.6031615818
 20
7.2820985405
 30
0.0
 10
12.6039772866
 20
7.2791670838
 30
0.0
 10
12.6047929953
 20
7.276235643
 30
0.0
 10
12.6054727469
 20
7.2737927459
 30
0.0
 10
12.6060165599
 20
7.2718384918
 30
0.0
 10
12.6063564165
 20
7.2706169389
 30
0.0
 10
12.6066283625
 20
7.2696400264
 30
0.0
 10
12.6068321556
 20
7.2689064392
 30
0.0
 10
12.6070025128
 20
7.2682979883
 30
0.0
 10
12.6071207233
 20
7.2678664371
 30
0.0
 10
12.6071898954
 20
7.2676286359
 30
0.0
 10
12.6072372016
 20
7.2674254965
 30
0.0
 10
12.6073019878
 20
7.2673171112
 30
0.0
 10
12.6073822721
 20
7.2671395462
 30
0.0
 10
12.6075256105
 20
7.2668442065
 30
0.0
 10
12.6077288944
 20
7.2664142419
 30
0.0
 10
12.6079734709
 20
7.2659017304
 30
0.0
 10
12.6082993507
 20
7.2652171781
 30
0.0
 10
12.6087067766
 20
7.2643618999
 30
0.0
 10
12.6093586154
 20
7.2629932242
 30
0.0
 10
12.6101734286
 20
7.2612824593
 30
0.0
 10
12.6111511979
 20
7.2592295049
 30
0.0
 10
12.6121289702
 20
7.257176569
 30
0.0
 10
12.6129437757
 20
7.255465758
 30
0.0
 10
12.6135956301
 20
7.2540971744
 30
0.0
 10
12.6140030165
 20
7.2532416623
 30
0.0
 10
12.6143289772
 20
7.2525575899
 30
0.0
 10
12.6145733066
 20
7.2520436123
 30
0.0
 10
12.6147773635
 20
7.2516182348
 30
0.0
 10
12.614919322
 20
7.2513147063
 30
0.0
 10
12.6150018172
 20
7.2511502619
 30
0.0
 10
12.6150598123
 20
7.2510015742
 30
0.0
 10
12.6151326247
 20
7.2509498039
 30
0.0
 10
12.6152245394
 20
7.2508469708
 30
0.0
 10
12.6153877983
 20
7.2506827638
 30
0.0
 10
12.6156197664
 20
7.2504399477
 30
0.0
 10
12.6158986669
 20
7.250152093
 30
0.0
 10
12.616270346
 20
7.2497670556
 30
0.0
 10
12.6167350094
 20
7.2492861805
 30
0.0
 10
12.6174784347
 20
7.2485165446
 30
0.0
 10
12.6184077288
 20
7.2475545812
 30
0.0
 10
12.6195228762
 20
7.2464001877
 30
0.0
 10
12.620638026
 20
7.2452458134
 30
0.0
 10
12.6215673141
 20
7.2442838023
 30
0.0
 10
12.6223107514
 20
7.2435142617
 30
0.0
 10
12.6227753842
 20
7.2430331443
 30
0.0
 10
12.6231471261
 20
7.2426486042
 30
0.0
 10
12.623425835
 20
7.2423592305
 30
0.0
 10
12.6236584026
 20
7.2421211668
 30
0.0
 10
12.6238205911
 20
7.2419484759
 30
0.0
 10
12.6239142209
 20
7.2418592362
 30
0.0
 10
12.6239817654
 20
7.2417657114
 30
0.0
 10
12.6240595458
 20
7.2417738464
 30
0.0
 10
12.6241596827
 20
7.241749233
 30
0.0
 10
12.6243365858
 20
7.2417226811
 30
0.0
 10
12.6245884347
 20
7.2416761121
 30
0.0
 10
12.6248910258
 20
7.2416239266
 30
0.0
 10
12.6252943504
 20
7.2415530545
 30
0.0
 10
12.6257985508
 20
7.2414649065
 30
0.0
 10
12.6266052464
 20
7.2413236225
 30
0.0
 10
12.6276136246
 20
7.241147103
 30
0.0
 10
12.6288236745
 20
7.2409352404
 30
0.0
 10
12.6300337261
 20
7.2407233976
 30
0.0
 10
12.6310421
 20
7.2405468285
 30
0.0
 10
12.6318488043
 20
7.2404056437
 30
0.0
 10
12.6323529827
 20
7.2403172438
 30
0.0
 10
12.6327563523
 20
7.2402468888
 30
0.0
 10
12.6330588061
 20
7.2401931234
 30
0.0
 10
12.6333110844
 20
7.2401514973
 30
0.0
 10
12.633487221
 20
7.2401161216
 30
0.0
 10
12.633588586
 20
7.2401056461
 30
0.0
 10
12.6336625939
 20
7.240070354
 30
0.0
 10
12.6337443076
 20
7.2401399341
 30
0.0
 10
12.6338505713
 20
7.240196127
 30
0.0
 10
12.6340377851
 20
7.2403115081
 30
0.0
 10
12.6343045787
 20
7.2404674277
 30
0.0
 10
12.6346250113
 20
7.2406583452
 30
0.0
 10
12.6350521568
 20
7.2409115697
 30
0.0
 10
12.6355861222
 20
7.2412285565
 30
0.0
 10
12.6364404482
 20
7.2417354804
 30
0.0
 10
12.637508362
 20
7.2423692227
 30
0.0
 10
12.6387898559
 20
7.2431296761
 30
0.0
 10
12.6400713505
 20
7.2438901395
 30
0.0
 10
12.6417800098
 20
7.2449040871
 30
0.0
 10
12.6430615042
 20
7.2456645487
 30
0.0
 10
12.6439158339
 20
7.2461715228
 30
0.0
  0
ENDSEC
  0
SECTION
  2
OBJECTS
  0
DICTIONARY
  5
C
100
AcDbDictionary
280
0
281
1
  3
ACAD_GROUP
350
D
  3
ACAD_MLINESTYLE
350
17
  3
ACAD_LAYOUT
350
1A
  3
ACAD_PLOTSETTINGS
350
19
  3
ACAD_PLOTSTYLENAME
350
E
  3
ACAD_IMAGE_DICT
350
       39F
  3
ACAD_IMAGE_VARS
350
       3A0
  3
ACAD_TABLESTYLE
350
       3A1
  0
IMAGEDEF_REACTOR
  5
39E
100
AcDbRasterImageDefReactor
 90
2
330
275
  0
DICTIONARY
  5
D
102
{ACAD_REACTORS
330
C
102
}
100
AcDbDictionary
280
0
281
1
  0
ACDBDICTIONARYWDFLT
  5
E
102
{ACAD_REACTORS
330
C
102
}
100
AcDbDictionary
281
1
  3
Normal
350
F
100
AcDbDictionaryWithDefault
340
F
  0
DICTIONARY
  5
39F
330
C
100
AcDbDictionary
281
1
  3
XYA_assy_2_img_1
350
       3A4
  0
RASTERVARIABLES
  5
3A0
330
C
100
AcDbRasterVariables
 90
0
 70
0
 71
1
 72
5
  0
DICTIONARY
  5
17
102
{ACAD_REACTORS
330
C
102
}
100
AcDbDictionary
280
0
281
1
  3
Standard
350
18
  0
DICTIONARY
  5
3A1
330
C
100
AcDbDictionary
281
1
  3
Standard
350
       3A5
  3
Standard1
350
       3A6
  0
DICTIONARY
  5
19
102
{ACAD_REACTORS
330
C
102
}
100
AcDbDictionary
281
1
  0
DICTIONARY
  5
1A
102
{ACAD_REACTORS
330
C
102
}
100
AcDbDictionary
281
1
  3
Model
350
3A2
  3
Layout1
350
3A3
  0
ACDBPLACEHOLDER
  5
F
102
{ACAD_REACTORS
330
E
102
}
  0
MLINESTYLE
  5
18
102
{ACAD_REACTORS
330
17
102
}
100
AcDbMlineStyle
  2
STANDARD
 70
0
  3

 62
256
 51
90.0
 52
90.0
 71
2
 49
0.5
 62
256
  6
BYLAYER
 49
-0.5
 62
256
  6
BYLAYER
  0
LAYOUT
  5
3A2
102
{ACAD_REACTORS
330
1A
102
}
100
AcDbPlotSettings
  1

  2
none_device
  4
ANSI_C_(22.00_x_17.00_Inches)
  6

 40
0.0
 41
0.0
 42
0.0
 43
0.0
 44
558.8
 45
431.8
 46
0.0
 47
0.0
 48
0.0
 49
0.0
140
0.0
141
0.0
142
1.0
143
1.0
 70
1024
 72
0
 73
0
 74
0
  7

 75
0
147
1.0
148
0.0
149
0.0
100
AcDbLayout
  1
Model
 70
0
 71
0
 10
0.0
 20
0.0
 11
22.0
 21
17.0
 12
0.0
 22
0.0
 32
0.0
 14
0.0
 24
0.0
 34
0.0
 15
0.0
 25
0.0
 35
0.0
146
0.0
 13
0.0
 23
0.0
 33
0.0
 16
1.0
 26
0.0
 36
0.0
 17
0.0
 27
1.0
 37
0.0
 76
0
330
204
345
0
346
0
  0
LAYOUT
  5
3A3
102
{ACAD_REACTORS
330
1A
102
}
100
AcDbPlotSettings
  1

  2
none_device
  4
ANSI_C_(22.00_x_17.00_Inches)
  6

 40
0.0
 41
0.0
 42
0.0
 43
0.0
 44
558.8
 45
431.8
 46
0.0
 47
0.0
 48
0.0
 49
0.0
140
0.0
141
0.0
142
1.0
143
1.0
 70
0
 72
0
 73
0
 74
0
  7

 75
0
147
1.0
148
0.0
149
0.0
100
AcDbLayout
  1
Layout1
 70
0
 71
1
 10
0.0
 20
0.0
 11
22.0
 21
17.0
 12
0.0
 22
0.0
 32
0.0
 14
0.0
 24
0.0
 34
0.0
 15
0.0
 25
0.0
 35
0.0
146
0.0
 13
0.0
 23
0.0
 33
0.0
 16
1.0
 26
0.0
 36
0.0
 17
0.0
 27
1.0
 37
0.0
 76
0
330
205
345
0
346
0
  0
IMAGEDEF
  5
3A4
102
{ACAD_REACTORS
330
39F
330
39E
102
}
100
AcDbRasterImageDef
 90
0
  1
XYA_assy_2_img_1.png
 10
369.0
 20
92.0
 11
0.0066666667
 21
0.0066666667
280
1
281
0
  0
TABLESTYLE
  5
3A5
102
{ACAD_REACTORS
330
3A1
330
278
330
279
102
}
330
3A1
100
AcDbTableStyle
  3
Standard
 70
0
 71
0
 40
0.06
 41
0.06
280
1
281
1
  7
Standard
140
0.18
170
1
 62
0
 63
7
283
0
  7
Standard
140
0.18
170
1
 62
0
 63
7
283
0
  7
Standard
140
0.18
170
1
 62
0
 63
7
283
0
  0
TABLESTYLE
  5
3A6
102
{ACAD_REACTORS
330
3A1
330
277
102
}
330
3A1
100
AcDbTableStyle
  3
Standard1
 70
1
 71
0
 40
0.06
 41
0.06
280
1
281
1
  7
Standard
140
0.18
170
1
 62
0
 63
7
283
0
  7
Standard
140
0.18
170
1
 62
0
 63
7
283
0
  7
Standard
140
0.18
170
1
 62
0
 63
7
283
0
  0
ENDSEC
  0
EOF
