999
DXF file: XTO_assy_2.dxf
999
Pro/ENGINEER 2014200 by Parametric Technology Corporation
  0
SECTION
  2
HEADER
  9
$ACADVER
  1
AC1021
  9
$DWGCODEPAGE
  3
ANSI_1252
  9
$EXTMAX
 10
22.0
 20
17.0
 30
0.0
  9
$EXTMIN
 10
0.0
 20
0.0
 30
0.0
  9
$LIMMIN
 10
0.0
 20
0.0
  9
$LIMMAX
 10
22.0
 20
17.0
  9
$VIEWCTR
 10
11.0
 20
8.5
  9
$VIEWSIZE
 40
17.0
  9
$CLAYER
  8
0
  9
$LTSCALE
 40
1.21
  9
$CELTYPE
  6
BYLAYER
  9
$DIMSCALE
 40
1.0
  9
$DIMASZ
 40
0.1875
  9
$DIMEXO
 40
0.0625
  9
$DIMDLI
 40
0.836
  9
$DIMEXE
 40
0.125
  9
$DIMCEN
 40
0.198
  9
$DIMLFAC
 40
1.0
  9
$DIMBLK
  1
_FILLED
  9
$DIMTXT
 40
0.1
  9
$DIMTOL
 70
0
  9
$DIMLIM
 70
0
  9
$DIMTFAC
 40
1.0
  9
$DIMGAP
 40
0.09
  9
$DIMDSEP
 70
46
  9
$AUNITS
 70
0
  9
$PDMODE
 70
3
  9
$PDSIZE
 40
0.3125
  9
$HANDSEED
  5
39A
  9
$TILEMODE
 70
1
  9
$MEASUREMENT
 70
0
  9
$INSUNITS
 70
1
  0
ENDSEC
  0
SECTION
  2
CLASSES
  0
CLASS
  1
ACDBDICTIONARYWDFLT
  2
AcDbDictionaryWithDefault
  3
AutoCAD 2000
 90
0
 91
1
280
0
281
0
  0
CLASS
  1
ACDBPLACEHOLDER
  2
AcDbPlaceHolder
  3
AutoCAD 2000
 90
0
 91
1
280
0
281
0
  0
CLASS
  1
LAYOUT
  2
AcDbLayout
  3
AutoCAD 2000
 90
0
 91
0
280
0
281
0
  0
CLASS
  1
RASTERVARIABLES
  2
AcDbRasterVariables
  3
ISM
 90
0
 91
1
280
0
281
0
  0
CLASS
  1
IMAGEDEF
  2
AcDbRasterImageDef
  3
ISM
 90
0
 91
1
280
0
281
0
  0
CLASS
  1
IMAGEDEF_REACTOR
  2
AcDbRasterImageDefReactor
  3
ISM
 90
0
 91
1
280
0
281
0
  0
CLASS
  1
IMAGE
  2
AcDbRasterImage
  3
ISM
 90
127
 91
1
280
0
281
1
  0
CLASS
  1
TABLESTYLE
  2
AcDbTableStyle
  3
ObjectDBX Classes
 90
2047
 91
1
280
0
281
0
  0
CLASS
  1
ACAD_TABLE
  2
AcDbTable
  3
ObjectDBX Classes
 90
1025
 91
3
280
0
281
1
  0
ENDSEC
  0
SECTION
  2
TABLES
  0
TABLE
  2
VPORT
  5
8
100
AcDbSymbolTable
 70
2
  0
VPORT
  5
1F4
100
AcDbSymbolTableRecord
100
AcDbViewportTableRecord
  2
*ACTIVE
 70
0
 10
0.0
 20
0.0
 11
1.0
 21
1.0
 12
11.0
 22
8.5
 13
0.0
 23
0.0
 14
1.0
 24
1.0
 15
0.0
 25
0.0
 16
0.0
 26
0.0
 36
1.0
 17
0.0
 27
0.0
 37
0.0
 40
17.0
 41
1.2941176471
 42
50.0
 43
0.0
 44
0.0
 50
0.0
 51
0.0
 71
0
 72
100
 73
1
 74
1
 75
0
 76
0
 77
0
 78
0
  0
ENDTAB
  0
TABLE
  2
LTYPE
  5
5
100
AcDbSymbolTable
 70
6
  0
LTYPE
  5
14
100
AcDbSymbolTableRecord
100
AcDbLinetypeTableRecord
  2
BYBLOCK
 70
0
  3

 72
65
 73
0
 40
0.0
  0
LTYPE
  5
15
100
AcDbSymbolTableRecord
100
AcDbLinetypeTableRecord
  2
BYLAYER
 70
0
  3

 72
65
 73
0
 40
0.0
  0
LTYPE
  5
16
100
AcDbSymbolTableRecord
100
AcDbLinetypeTableRecord
  2
CONTINUOUS
 70
64
  3
Solid line
 72
65
 73
0
 40
0.0
  0
LTYPE
  5
1F5
100
AcDbSymbolTableRecord
100
AcDbLinetypeTableRecord
  2
CENTER
 70
64
  3
____ _ ____ _ ____ _ ____ _ ____ _ ____ _ ____
 72
65
 73
4
 40
0.6
 49
0.375
 74
0
 49
-0.075
 74
0
 49
0.075
 74
0
 49
-0.075
 74
0
  0
LTYPE
  5
1F6
100
AcDbSymbolTableRecord
100
AcDbLinetypeTableRecord
  2
HIDDEN
 70
64
  3
- - - - - - - - - - - - - - - - - - - -
 72
65
 73
2
 40
0.2
 49
0.1
 74
0
 49
-0.1
 74
0
  0
LTYPE
  5
1F7
100
AcDbSymbolTableRecord
100
AcDbLinetypeTableRecord
  2
PHANTOM
 70
64
  3
_____ _ _ _____ _ _ _____ _ _ _____
 72
65
 73
6
 40
0.8
 49
0.45
 74
0
 49
-0.05
 74
0
 49
0.1
 74
0
 49
-0.05
 74
0
 49
0.1
 74
0
 49
-0.05
 74
0
  0
LTYPE
  5
1F8
100
AcDbSymbolTableRecord
100
AcDbLinetypeTableRecord
  2
DOT
 70
64
  3
. . . . . . . . . . . . . . . . . . . .
 72
65
 73
2
 40
0.2
 49
0.1
 74
0
 49
-0.1
 74
0
  0
LTYPE
  5
1F9
100
AcDbSymbolTableRecord
100
AcDbLinetypeTableRecord
  2
DASHED
 70
64
  3
- - - - - - - - - - - - - - - - - - - -
 72
65
 73
2
 40
0.2
 49
0.1
 74
0
 49
-0.1
 74
0
  0
ENDTAB
  0
TABLE
  2
LAYER
  5
2
100
AcDbSymbolTable
 70
36
  0
LAYER
  5
10
100
AcDbSymbolTableRecord
100
AcDbLayerTableRecord
  2
0
 70
0
 62
7
  6
CONTINUOUS
370
-3
390
F
  0
LAYER
  5
1FA
100
AcDbSymbolTableRecord
100
AcDbLayerTableRecord
  2
DEFAULT_1
 70
0
 62
7
  6
CENTER
370
-3
390
F
  0
LAYER
  5
1FB
100
AcDbSymbolTableRecord
100
AcDbLayerTableRecord
  2
DEFAULT_2
 70
0
 62
8
  6
HIDDEN
370
-3
390
F
  0
LAYER
  5
1FC
100
AcDbSymbolTableRecord
100
AcDbLayerTableRecord
  2
DEFAULT_3
 70
0
 62
7
  6
PHANTOM
370
-3
390
F
  0
LAYER
  5
1FD
100
AcDbSymbolTableRecord
100
AcDbLayerTableRecord
  2
DATUM_PLANES
 70
0
 62
7
  6
CONTINUOUS
370
-3
390
F
  0
LAYER
  5
1FE
100
AcDbSymbolTableRecord
100
AcDbLayerTableRecord
  2
PORT_AREAS
 70
0
 62
7
  6
CONTINUOUS
370
-3
390
F
  0
LAYER
  5
1FF
100
AcDbSymbolTableRecord
100
AcDbLayerTableRecord
  2
SUNNBOMCOSMETIC
 70
0
 62
7
  6
CONTINUOUS
370
-3
390
F
  0
LAYER
  5
200
100
AcDbSymbolTableRecord
100
AcDbLayerTableRecord
  2
SUNNBOMSTAMPING
 70
0
 62
7
  6
CONTINUOUS
370
-3
390
F
  0
LAYER
  5
201
100
AcDbSymbolTableRecord
100
AcDbLayerTableRecord
  2
THREADS
 70
0
 62
7
  6
CONTINUOUS
370
-3
390
F
  0
ENDTAB
  0
TABLE
  2
STYLE
  5
3
100
AcDbSymbolTable
 70
1
  0
STYLE
  5
11
100
AcDbSymbolTableRecord
100
AcDbTextStyleTableRecord
  2
STANDARD
 70
0
 40
0.0
 41
0.8
 50
0.0
 71
0
 42
0.2
  3
txt
  4

  0
STYLE
  5
202
100
AcDbSymbolTableRecord
100
AcDbTextStyleTableRecord
  2
TEXTSTYLE_1
 70
0
 40
0.0
 41
0.8
 50
0.0
 71
0
 42
0.2
  3
gdt
  4

  0
ENDTAB
  0
TABLE
  2
VIEW
  5
6
100
AcDbSymbolTable
 70
0
  0
ENDTAB
  0
TABLE
  2
UCS
  5
7
100
AcDbSymbolTable
 70
0
  0
ENDTAB
  0
TABLE
  2
APPID
  5
9
100
AcDbSymbolTable
 70
1
  0
APPID
  5
203
100
AcDbSymbolTableRecord
100
AcDbRegAppTableRecord
  2
ACAD
 70
0
  0
ENDTAB
  0
TABLE
  2
BLOCK_RECORD
  5
1
100
AcDbSymbolTable
 70
0
  0
BLOCK_RECORD
  5
204
100
AcDbSymbolTableRecord
100
AcDbBlockTableRecord
  2
*Model_Space
  0
BLOCK_RECORD
  5
205
100
AcDbSymbolTableRecord
100
AcDbBlockTableRecord
  2
*Paper_Space
  0
BLOCK_RECORD
  5
206
100
AcDbSymbolTableRecord
100
AcDbBlockTableRecord
  2
SUN_FIRST_THIRD_ANGLE_BL0
  0
BLOCK_RECORD
  5
207
100
AcDbSymbolTableRecord
100
AcDbBlockTableRecord
  2
*T1
  0
BLOCK_RECORD
  5
208
100
AcDbSymbolTableRecord
100
AcDbBlockTableRecord
  2
*T2
  0
BLOCK_RECORD
  5
209
100
AcDbSymbolTableRecord
100
AcDbBlockTableRecord
  2
*T3
  0
ENDTAB
  0
TABLE
  2
DIMSTYLE
  5
A
100
AcDbSymbolTable
 70
1
100
AcDbDimStyleTable
 71
0
  0
DIMSTYLE
105
20A
100
AcDbSymbolTableRecord
100
AcDbDimStyleTableRecord
  2
STANDARD
 70
0
  3

  4

 40
1.0
 41
0.1875
 42
0.0625
 43
0.38
 44
0.125
 45
0.0
 46
0.0
 47
0.001
 48
0.001
140
0.1
141
0.09
142
0.0
143
25.4
144
1.0
145
0.0
146
1.0
147
0.09
 71
0.0
 72
0.0
 73
1
 74
1
 75
0
 76
0
 77
0
 78
4
170
0
171
2
172
0
173
0
174
0
175
0
176
0
177
0
178
0
270
2
271
3
272
3
273
2
274
2
275
0
280
0
281
0
282
0
283
1
284
4
285
0
286
0
287
3
288
0
340
11
278
46
  0
ENDTAB
  0
ENDSEC
  0
SECTION
  2
BLOCKS
  0
BLOCK
  5
20
100
AcDbEntity
  8
0
100
AcDbBlockBegin
  2
*Model_Space
 70
0
 10
0.0
 20
0.0
 30
0.0
  3
*Model_Space
  1

  0
ENDBLK
  5
21
100
AcDbEntity
  8
0
100
AcDbBlockEnd
  0
BLOCK
  5
1C
100
AcDbEntity
  8
0
100
AcDbBlockBegin
  2
*Paper_Space
 70
0
 10
0.0
 20
0.0
 30
0.0
  3
*Paper_Space
  1

  0
ENDBLK
  5
1D
100
AcDbEntity
  8
0
100
AcDbBlockEnd
  0
BLOCK
  5
20B
100
AcDbEntity
  8
0
100
AcDbBlockBegin
 62
2
  6
CONTINUOUS
  2
SUN_FIRST_THIRD_ANGLE_BL0
 70
64
 10
20.4816717061
 20
1.2289683772
  3
SUN_FIRST_THIRD_ANGLE_BL0
  1

  0
TEXT
  5
20C
100
AcDbEntity
  8
0
100
AcDbText
 62
2
  6
CONTINUOUS
 10
19.4750896608
 20
1.4136269581
  7
STANDARD
 40
0.08
  1
FIRST ANGLE
 41
0.8
 72
0
100
AcDbText
  0
TEXT
  5
20D
100
AcDbEntity
  8
0
100
AcDbText
 62
2
  6
CONTINUOUS
 10
20.7842537513
 20
1.4047600029
  7
STANDARD
 40
0.08
  1
THIRD ANGLE
 41
0.8
 72
0
100
AcDbText
  0
LINE
  5
20E
100
AcDbEntity
  8
0
100
AcDbLine
 62
7
  6
CONTINUOUS
 10
19.4767170086
 20
1.1727031207
 11
19.6334271527
 21
1.1717972817
  0
LINE
  5
20F
100
AcDbEntity
  8
0
100
AcDbLine
 62
7
  6
CONTINUOUS
 10
19.6596964832
 20
1.1717972817
 11
19.6950230232
 21
1.171593082
  0
LINE
  5
210
100
AcDbEntity
  8
0
100
AcDbLine
 62
7
  6
CONTINUOUS
 10
19.7194818561
 20
1.1708914427
 11
19.8852396156
 21
1.1699333054
  0
LINE
  5
211
100
AcDbEntity
  8
0
100
AcDbLine
 62
7
  6
CONTINUOUS
 10
19.4758111696
 20
1.2723454088
 11
19.88525039
 21
1.3511534004
  0
LINE
  5
212
100
AcDbEntity
  8
0
100
AcDbLine
 62
7
  6
CONTINUOUS
 10
19.88525039
 20
1.3511534004
 11
19.8831348489
 21
0.9851647912
  0
LINE
  5
213
100
AcDbEntity
  8
0
100
AcDbLine
 62
7
  6
CONTINUOUS
 10
19.8831348489
 20
0.9851647912
 11
19.4767170086
 21
1.0658141206
  0
LINE
  5
214
100
AcDbEntity
  8
0
100
AcDbLine
 62
7
  6
CONTINUOUS
 10
19.4767170086
 20
1.0658141206
 11
19.4779056764
 21
1.2714536432
  0
CIRCLE
  5
215
100
AcDbEntity
  8
0
100
AcDbCircle
 62
7
  6
CONTINUOUS
 10
20.2068232291
 20
1.1717972817
 40
0.175742101
  0
CIRCLE
  5
216
100
AcDbEntity
  8
0
100
AcDbCircle
 62
7
  6
CONTINUOUS
 10
20.2068232291
 20
1.1717972817
 40
0.1005522074
  0
LINE
  5
217
100
AcDbEntity
  8
0
100
AcDbLine
 62
7
  6
CONTINUOUS
 10
20.2077290681
 20
1.3756110529
 11
20.2071171714
 21
1.2379342989
  0
LINE
  5
218
100
AcDbEntity
  8
0
100
AcDbLine
 62
7
  6
CONTINUOUS
 10
20.2077290681
 20
1.2016899681
 11
20.2074674401
 21
1.1428236749
  0
LINE
  5
219
100
AcDbEntity
  8
0
100
AcDbLine
 62
7
  6
CONTINUOUS
 10
20.208634907
 20
1.101141841
 11
20.2080230104
 21
0.963465087
  0
LINE
  5
21A
100
AcDbEntity
  8
0
100
AcDbLine
 62
7
  6
CONTINUOUS
 10
20.0066328138
 20
1.1745147986
 11
20.1443095678
 21
1.1739029019
  0
LINE
  5
21B
100
AcDbEntity
  8
0
100
AcDbLine
 62
7
  6
CONTINUOUS
 10
20.1832714155
 20
1.1727031207
 11
20.238153505
 21
1.172335442
  0
LINE
  5
21C
100
AcDbEntity
  8
0
100
AcDbLine
 62
7
  6
CONTINUOUS
 10
20.2756669918
 20
1.1717972817
 11
20.407916871
 21
1.1712095044
  0
CIRCLE
  5
21D
100
AcDbEntity
  8
0
100
AcDbCircle
 62
7
  6
CONTINUOUS
 10
20.7509457401
 20
1.1693297793
 40
0.1722024983
  0
CIRCLE
  5
21E
100
AcDbEntity
  8
0
100
AcDbCircle
 62
7
  6
CONTINUOUS
 10
20.7509457401
 20
1.1693297793
 40
0.0985164967
  0
LINE
  5
21F
100
AcDbEntity
  8
0
100
AcDbLine
 62
7
  6
CONTINUOUS
 10
20.7169767782
 20
1.170462078
 11
20.7825395137
 21
1.1682766535
  0
LINE
  5
220
100
AcDbEntity
  8
0
100
AcDbLine
 62
7
  6
CONTINUOUS
 10
20.8177513651
 20
1.1693297793
 11
20.947965719
 21
1.1693297793
  0
LINE
  5
221
100
AcDbEntity
  8
0
100
AcDbLine
 62
7
  6
CONTINUOUS
 10
20.6875370113
 20
1.170462078
 11
20.5573226574
 21
1.170462078
  0
LINE
  5
222
100
AcDbEntity
  8
0
100
AcDbLine
 62
7
  6
CONTINUOUS
 10
20.7486811426
 20
1.1987695462
 11
20.7486811426
 21
1.1432869085
  0
LINE
  5
223
100
AcDbEntity
  8
0
100
AcDbLine
 62
7
  6
CONTINUOUS
 10
20.7498134414
 20
1.1059210505
 11
20.7498134414
 21
0.9757066966
  0
LINE
  5
224
100
AcDbEntity
  8
0
100
AcDbLine
 62
7
  6
CONTINUOUS
 10
20.7486811426
 20
1.2338708068
 11
20.7486811426
 21
1.3640851607
  0
LINE
  5
225
100
AcDbEntity
  8
0
100
AcDbLine
 62
7
  6
CONTINUOUS
 10
21.0702539817
 20
1.2701043662
 11
21.4790138229
 21
1.3448360823
  0
LINE
  5
226
100
AcDbEntity
  8
0
100
AcDbLine
 62
7
  6
CONTINUOUS
 10
21.4790138229
 20
1.3448360823
 11
21.4790138229
 21
0.9779712941
  0
LINE
  5
227
100
AcDbEntity
  8
0
100
AcDbLine
 62
7
  6
CONTINUOUS
 10
21.4790138229
 20
0.9779712941
 11
21.069121683
 21
1.0617614
  0
LINE
  5
228
100
AcDbEntity
  8
0
100
AcDbLine
 62
7
  6
CONTINUOUS
 10
21.0702539817
 20
1.2701043662
 11
21.069121683
 21
1.0617614
  0
LINE
  5
229
100
AcDbEntity
  8
0
100
AcDbLine
 62
7
  6
CONTINUOUS
 10
21.4790138229
 20
1.1693297793
 11
21.3159628059
 21
1.1693297793
  0
LINE
  5
22A
100
AcDbEntity
  8
0
100
AcDbLine
 62
7
  6
CONTINUOUS
 10
21.2876553377
 20
1.1693297793
 11
21.2502894796
 21
1.1693297793
  0
LINE
  5
22B
100
AcDbEntity
  8
0
100
AcDbLine
 62
7
  6
CONTINUOUS
 10
21.2208497126
 20
1.1659328831
 11
21.0713862804
 21
1.1659328831
  0
LINE
  5
22C
100
AcDbEntity
  8
0
100
AcDbLine
 62
7
  6
CONTINUOUS
 10
20.4796138713
 20
1.5284908897
 11
20.4766766948
 21
0.9294458646
  0
ENDBLK
  5
22D
100
AcDbEntity
  8
0
  6
BYBLOCK
 62
0
100
AcDbBlockEnd
  0
BLOCK
  5
22E
100
AcDbEntity
  8
0
100
AcDbBlockBegin
  2
*T1
 70
1
 10
0.0
 20
0.0
  3
*T1
  1

  0
LINE
  5
22F
100
AcDbEntity
  8
0
100
AcDbLine
 62
2
  6
CONTINUOUS
 10
9.275
 20
0.0
 11
-0.0
 21
0.0
  0
LINE
  5
230
100
AcDbEntity
  8
0
100
AcDbLine
 62
2
  6
CONTINUOUS
 10
9.275
 20
0.0
 11
9.275
 21
1.25
  0
LINE
  5
231
100
AcDbEntity
  8
0
100
AcDbLine
 62
2
  6
CONTINUOUS
 10
9.275
 20
0.625
 11
-0.0
 21
0.625
  0
LINE
  5
232
100
AcDbEntity
  8
0
100
AcDbLine
 62
2
  6
CONTINUOUS
 10
9.275
 20
1.25
 11
-0.0
 21
1.25
  0
LINE
  5
233
100
AcDbEntity
  8
0
100
AcDbLine
 62
2
  6
CONTINUOUS
 10
6.8
 20
0.0
 11
6.8
 21
1.25
  0
LINE
  5
234
100
AcDbEntity
  8
0
100
AcDbLine
 62
2
  6
CONTINUOUS
 10
6.4
 20
0.0
 11
6.4
 21
0.625
  0
LINE
  5
235
100
AcDbEntity
  8
0
100
AcDbLine
 62
2
  6
CONTINUOUS
 10
5.9
 20
0.0
 11
5.9
 21
0.625
  0
LINE
  5
236
100
AcDbEntity
  8
0
100
AcDbLine
 62
2
  6
CONTINUOUS
 10
5.2
 20
0.0
 11
5.2
 21
0.625
  0
LINE
  5
237
100
AcDbEntity
  8
0
100
AcDbLine
 62
2
  6
CONTINUOUS
 10
4.1
 20
0.0
 11
4.1
 21
1.25
  0
LINE
  5
238
100
AcDbEntity
  8
0
100
AcDbLine
 62
2
  6
CONTINUOUS
 10
-0.0
 20
0.0
 11
-0.0
 21
1.25
  0
MTEXT
  5
239
100
AcDbEntity
  8
0
100
AcDbMText
 62
2
  6
CONTINUOUS
  7
STANDARD
 71
2
 72
1
 10
6.6
 20
0.325
 30
0.0
 11
1.0
 21
0.0
 31
0.0
 44
0.9
  1
2
 40
0.125
 41
0.2
  0
MTEXT
  5
23A
100
AcDbEntity
  8
0
100
AcDbMText
 62
2
  6
CONTINUOUS
  7
STANDARD
 71
2
 72
1
 10
6.15
 20
0.325
 30
0.0
 11
1.0
 21
0.0
 31
0.0
 44
0.9
  1
C
 40
0.125
 41
0.2
  0
MTEXT
  5
23B
100
AcDbEntity
  8
0
100
AcDbMText
 62
2
  6
CONTINUOUS
  7
STANDARD
 71
2
 72
1
 10
5.55
 20
0.325
 30
0.0
 11
1.0
 21
0.0
 31
0.0
 44
0.9
  1
1.000
 40
0.125
 41
1.0
  0
MTEXT
  5
23C
100
AcDbEntity
  8
0
100
AcDbMText
 62
2
  6
CONTINUOUS
  7
STANDARD
 71
2
 72
1
 10
4.65
 20
0.325
 30
0.0
 11
1.0
 21
0.0
 31
0.0
 44
0.9
  1
Dec-13-22
 40
0.125
 41
1.8
  0
MTEXT
  5
23D
100
AcDbEntity
  8
0
100
AcDbMText
 62
2
  6
CONTINUOUS
  7
STANDARD
 71
2
 72
1
 10
2.05
 20
0.4625
 30
0.0
 11
1.0
 21
0.0
 31
0.0
 44
0.9
  1
T-17A Motor mount Staffa 4", 5 piston\PCross pilot
 40
0.125
 41
7.4
  0
MTEXT
  5
23E
100
AcDbEntity
  8
0
100
AcDbMText
 62
2
  6
CONTINUOUS
  7
STANDARD
 71
1
 72
1
 10
6.45
 20
0.5625
 30
0.0
 11
1.0
 21
0.0
 31
0.0
 44
0.9
  1
SHEET
 40
0.06
 41
0.48
  0
MTEXT
  5
23F
100
AcDbEntity
  8
0
100
AcDbMText
 62
2
  6
CONTINUOUS
  7
STANDARD
 71
1
 72
1
 10
5.95
 20
0.5625
 30
0.0
 11
1.0
 21
0.0
 31
0.0
 44
0.9
  1
DWG SIZE
 40
0.06
 41
0.768
  0
MTEXT
  5
240
100
AcDbEntity
  8
0
100
AcDbMText
 62
2
  6
CONTINUOUS
  7
STANDARD
 71
1
 72
1
 10
5.25
 20
0.5625
 30
0.0
 11
1.0
 21
0.0
 31
0.0
 44
0.9
  1
SCALE
 40
0.06
 41
0.48
  0
MTEXT
  5
241
100
AcDbEntity
  8
0
100
AcDbMText
 62
2
  6
CONTINUOUS
  7
STANDARD
 71
1
 72
1
 10
4.15
 20
0.5625
 30
0.0
 11
1.0
 21
0.0
 31
0.0
 44
0.9
  1
DATE
 40
0.06
 41
0.384
  0
MTEXT
  5
242
100
AcDbEntity
  8
0
100
AcDbMText
 62
2
  6
CONTINUOUS
  7
STANDARD
 71
1
 72
1
 10
0.05
 20
0.5625
 30
0.0
 11
1.0
 21
0.0
 31
0.0
 44
0.9
  1
DESCRIPTION
 40
0.06
 41
1.056
  0
MTEXT
  5
243
100
AcDbEntity
  8
0
100
AcDbMText
 62
2
  6
CONTINUOUS
  7
STANDARD
 71
2
 72
1
 10
5.45
 20
1.0375
 30
0.0
 11
1.0
 21
0.0
 31
0.0
 44
0.9
  1
ALL DIMENSIONS IN INCH\PVIEWS ARE THIRD ANGLE
 40
0.12
 41
4.224
  0
MTEXT
  5
244
100
AcDbEntity
  8
0
100
AcDbMText
 62
2
  6
CONTINUOUS
  7
STANDARD
 71
2
 72
1
 10
2.05
 20
0.95
 30
0.0
 11
1.0
 21
0.0
 31
0.0
 44
0.9
  1
XTO
 40
0.125
 41
0.6
  0
MTEXT
  5
245
100
AcDbEntity
  8
0
100
AcDbMText
 62
2
  6
CONTINUOUS
  7
STANDARD
 71
1
 72
1
 10
0.05
 20
1.1875
 30
0.0
 11
1.0
 21
0.0
 31
0.0
 44
0.9
  1
MODEL
 40
0.06
 41
0.48
  0
ENDBLK
  5
246
100
AcDbEntity
  8
0
  6
BYBLOCK
 62
0
100
AcDbBlockEnd
  0
BLOCK
  5
247
100
AcDbEntity
  8
0
100
AcDbBlockBegin
  2
*T2
 70
1
 10
0.0
 20
0.0
  3
*T2
  1

  0
LINE
  5
248
100
AcDbEntity
  8
0
100
AcDbLine
 62
2
  6
CONTINUOUS
 10
0.0
 20
0.0
 11
9.055
 21
0.0
  0
LINE
  5
249
100
AcDbEntity
  8
0
100
AcDbLine
 62
2
  6
CONTINUOUS
 10
0.0
 20
0.0
 11
0.0
 21
-3.094
  0
LINE
  5
24A
100
AcDbEntity
  8
0
100
AcDbLine
 62
2
  6
CONTINUOUS
 10
0.0
 20
-0.344
 11
9.055
 21
-0.344
  0
LINE
  5
24B
100
AcDbEntity
  8
0
100
AcDbLine
 62
2
  6
CONTINUOUS
 10
0.0
 20
-0.594
 11
9.055
 21
-0.594
  0
LINE
  5
24C
100
AcDbEntity
  8
0
100
AcDbLine
 62
2
  6
CONTINUOUS
 10
0.0
 20
-0.844
 11
9.055
 21
-0.844
  0
LINE
  5
24D
100
AcDbEntity
  8
0
100
AcDbLine
 62
2
  6
CONTINUOUS
 10
0.0
 20
-1.094
 11
9.055
 21
-1.094
  0
LINE
  5
24E
100
AcDbEntity
  8
0
100
AcDbLine
 62
2
  6
CONTINUOUS
 10
0.0
 20
-1.344
 11
9.055
 21
-1.344
  0
LINE
  5
24F
100
AcDbEntity
  8
0
100
AcDbLine
 62
2
  6
CONTINUOUS
 10
0.0
 20
-1.594
 11
9.055
 21
-1.594
  0
LINE
  5
250
100
AcDbEntity
  8
0
100
AcDbLine
 62
2
  6
CONTINUOUS
 10
0.0
 20
-1.844
 11
9.055
 21
-1.844
  0
LINE
  5
251
100
AcDbEntity
  8
0
100
AcDbLine
 62
2
  6
CONTINUOUS
 10
0.0
 20
-2.094
 11
9.055
 21
-2.094
  0
LINE
  5
252
100
AcDbEntity
  8
0
100
AcDbLine
 62
2
  6
CONTINUOUS
 10
0.0
 20
-2.344
 11
9.055
 21
-2.344
  0
LINE
  5
253
100
AcDbEntity
  8
0
100
AcDbLine
 62
2
  6
CONTINUOUS
 10
0.0
 20
-2.594
 11
9.055
 21
-2.594
  0
LINE
  5
254
100
AcDbEntity
  8
0
100
AcDbLine
 62
2
  6
CONTINUOUS
 10
0.0
 20
-2.844
 11
9.055
 21
-2.844
  0
LINE
  5
255
100
AcDbEntity
  8
0
100
AcDbLine
 62
2
  6
CONTINUOUS
 10
0.0
 20
-3.094
 11
9.055
 21
-3.094
  0
LINE
  5
256
100
AcDbEntity
  8
0
100
AcDbLine
 62
2
  6
CONTINUOUS
 10
3.055
 20
0.0
 11
3.055
 21
-3.094
  0
LINE
  5
257
100
AcDbEntity
  8
0
100
AcDbLine
 62
2
  6
CONTINUOUS
 10
9.055
 20
0.0
 11
9.055
 21
-3.094
  0
MTEXT
  5
258
100
AcDbEntity
  8
0
100
AcDbMText
 62
2
  6
CONTINUOUS
  7
STANDARD
 71
2
 72
1
 10
1.5275
 20
-0.0995
 30
0.0
 11
1.0
 21
0.0
 31
0.0
 44
0.9
  1
Technical Data
 40
0.145
 41
3.248
  0
MTEXT
  5
259
100
AcDbEntity
  8
0
100
AcDbMText
 62
2
  6
CONTINUOUS
  7
STANDARD
 71
2
 72
1
 10
4.555
 20
-0.0995
 30
0.0
 11
1.0
 21
0.0
 31
0.0
 44
0.9
  1
U.S. Units
 40
0.145
 41
2.32
  0
MTEXT
  5
25A
100
AcDbEntity
  8
0
100
AcDbMText
 62
2
  6
CONTINUOUS
  7
STANDARD
 71
2
 72
1
 10
7.555
 20
-0.0995
 30
0.0
 11
1.0
 21
0.0
 31
0.0
 44
0.9
  1
Metric Units
 40
0.145
 41
2.784
  0
MTEXT
  5
25B
100
AcDbEntity
  8
0
100
AcDbMText
 62
2
  6
CONTINUOUS
  7
STANDARD
 71
2
 72
1
 10
1.5275
 20
-0.4065
 30
0.0
 11
1.0
 21
0.0
 31
0.0
 44
0.9
  1
Cavity
 40
0.125
 41
1.2
  0
MTEXT
  5
25C
100
AcDbEntity
  8
0
100
AcDbMText
 62
2
  6
CONTINUOUS
  7
STANDARD
 71
2
 72
1
 10
6.055
 20
-0.4065
 30
0.0
 11
1.0
 21
0.0
 31
0.0
 44
0.9
  1
T-17A
 40
0.125
 41
1.0
  0
MTEXT
  5
25D
100
AcDbEntity
  8
0
100
AcDbMText
 62
2
  6
CONTINUOUS
  7
STANDARD
 71
2
 72
1
 10
1.5275
 20
-0.6565
 30
0.0
 11
1.0
 21
0.0
 31
0.0
 44
0.9
  1
Body Features
 40
0.125
 41
2.6
  0
MTEXT
  5
25E
100
AcDbEntity
  8
0
100
AcDbMText
 62
2
  6
CONTINUOUS
  7
STANDARD
 71
2
 72
1
 10
6.055
 20
-0.6565
 30
0.0
 11
1.0
 21
0.0
 31
0.0
 44
0.9
  1
Cross pilot
 40
0.125
 41
2.2
  0
MTEXT
  5
25F
100
AcDbEntity
  8
0
100
AcDbMText
 62
2
  6
CONTINUOUS
  7
STANDARD
 71
2
 72
1
 10
1.5275
 20
-0.9065
 30
0.0
 11
1.0
 21
0.0
 31
0.0
 44
0.9
  1
Body Type
 40
0.125
 41
1.8
  0
MTEXT
  5
260
100
AcDbEntity
  8
0
100
AcDbMText
 62
2
  6
CONTINUOUS
  7
STANDARD
 71
2
 72
1
 10
6.055
 20
-0.9065
 30
0.0
 11
1.0
 21
0.0
 31
0.0
 44
0.9
  1
Motor mount
 40
0.125
 41
2.2
  0
MTEXT
  5
261
100
AcDbEntity
  8
0
100
AcDbMText
 62
2
  6
CONTINUOUS
  7
STANDARD
 71
2
 72
1
 10
1.5275
 20
-1.1565
 30
0.0
 11
1.0
 21
0.0
 31
0.0
 44
0.9
  1
Interface
 40
0.125
 41
1.8
  0
MTEXT
  5
262
100
AcDbEntity
  8
0
100
AcDbMText
 62
2
  6
CONTINUOUS
  7
STANDARD
 71
2
 72
1
 10
6.055
 20
-1.1565
 30
0.0
 11
1.0
 21
0.0
 31
0.0
 44
0.9
  1
Staffa 4", 5 piston
 40
0.125
 41
3.8
  0
MTEXT
  5
263
100
AcDbEntity
  8
0
100
AcDbMText
 62
2
  6
CONTINUOUS
  7
STANDARD
 71
2
 72
1
 10
1.5275
 20
-1.4065
 30
0.0
 11
1.0
 21
0.0
 31
0.0
 44
0.9
  1
Open Cavity Quantity
 40
0.125
 41
4.0
  0
MTEXT
  5
264
100
AcDbEntity
  8
0
100
AcDbMText
 62
2
  6
CONTINUOUS
  7
STANDARD
 71
2
 72
1
 10
6.055
 20
-1.4065
 30
0.0
 11
1.0
 21
0.0
 31
0.0
 44
0.9
  1
1
 40
0.125
 41
0.2
  0
MTEXT
  5
265
100
AcDbEntity
  8
0
100
AcDbMText
 62
2
  6
CONTINUOUS
  7
STANDARD
 71
2
 72
1
 10
1.5275
 20
-1.6565
 30
0.0
 11
1.0
 21
0.0
 31
0.0
 44
0.9
  1
Weight
 40
0.125
 41
1.2
  0
MTEXT
  5
266
100
AcDbEntity
  8
0
100
AcDbMText
 62
2
  6
CONTINUOUS
  7
STANDARD
 71
2
 72
1
 10
4.555
 20
-1.6565
 30
0.0
 11
1.0
 21
0.0
 31
0.0
 44
0.9
  1
5.082 lb.
 40
0.125
 41
1.8
  0
MTEXT
  5
267
100
AcDbEntity
  8
0
100
AcDbMText
 62
2
  6
CONTINUOUS
  7
STANDARD
 71
2
 72
1
 10
7.555
 20
-1.6565
 30
0.0
 11
1.0
 21
0.0
 31
0.0
 44
0.9
  1
2,305 kg.
 40
0.125
 41
1.8
  0
MTEXT
  5
268
100
AcDbEntity
  8
0
100
AcDbMText
 62
2
  6
CONTINUOUS
  7
STANDARD
 71
2
 72
1
 10
1.5275
 20
-1.9065
 30
0.0
 11
1.0
 21
0.0
 31
0.0
 44
0.9
  1
Mounting Hole Diameter
 40
0.125
 41
4.4
  0
MTEXT
  5
269
100
AcDbEntity
  8
0
100
AcDbMText
 62
2
  6
CONTINUOUS
  7
STANDARD
 71
2
 72
1
 10
4.555
 20
-1.9065
 30
0.0
 11
1.0
 21
0.0
 31
0.0
 44
0.9
  1
.41 in.
 40
0.125
 41
1.4
  0
MTEXT
  5
26A
100
AcDbEntity
  8
0
100
AcDbMText
 62
2
  6
CONTINUOUS
  7
STANDARD
 71
2
 72
1
 10
7.555
 20
-1.9065
 30
0.0
 11
1.0
 21
0.0
 31
0.0
 44
0.9
  1
10,4 mm
 40
0.125
 41
1.4
  0
MTEXT
  5
26B
100
AcDbEntity
  8
0
100
AcDbMText
 62
2
  6
CONTINUOUS
  7
STANDARD
 71
2
 72
1
 10
1.5275
 20
-2.1565
 30
0.0
 11
1.0
 21
0.0
 31
0.0
 44
0.9
  1
Mounting Hole Depth
 40
0.125
 41
3.8
  0
MTEXT
  5
26C
100
AcDbEntity
  8
0
100
AcDbMText
 62
2
  6
CONTINUOUS
  7
STANDARD
 71
2
 72
1
 10
6.055
 20
-2.1565
 30
0.0
 11
1.0
 21
0.0
 31
0.0
 44
0.9
  1
Through
 40
0.125
 41
1.4
  0
MTEXT
  5
26D
100
AcDbEntity
  8
0
100
AcDbMText
 62
2
  6
CONTINUOUS
  7
STANDARD
 71
2
 72
1
 10
1.5275
 20
-2.4065
 30
0.0
 11
1.0
 21
0.0
 31
0.0
 44
0.9
  1
Mounting Hole Quantity
 40
0.125
 41
4.4
  0
MTEXT
  5
26E
100
AcDbEntity
  8
0
100
AcDbMText
 62
2
  6
CONTINUOUS
  7
STANDARD
 71
2
 72
1
 10
6.055
 20
-2.4065
 30
0.0
 11
1.0
 21
0.0
 31
0.0
 44
0.9
  1
6
 40
0.125
 41
0.2
  0
MTEXT
  5
26F
100
AcDbEntity
  8
0
100
AcDbMText
 62
2
  6
CONTINUOUS
  7
STANDARD
 71
2
 72
1
 10
1.5275
 20
-2.6565
 30
0.0
 11
1.0
 21
0.0
 31
0.0
 44
0.9
  1
Mounting Hole C'bore Diameter
 40
0.125
 41
5.8
  0
MTEXT
  5
270
100
AcDbEntity
  8
0
100
AcDbMText
 62
2
  6
CONTINUOUS
  7
STANDARD
 71
2
 72
1
 10
4.555
 20
-2.6565
 30
0.0
 11
1.0
 21
0.0
 31
0.0
 44
0.9
  1
.59 in.
 40
0.125
 41
1.4
  0
MTEXT
  5
271
100
AcDbEntity
  8
0
100
AcDbMText
 62
2
  6
CONTINUOUS
  7
STANDARD
 71
2
 72
1
 10
7.555
 20
-2.6565
 30
0.0
 11
1.0
 21
0.0
 31
0.0
 44
0.9
  1
15,0 mm
 40
0.125
 41
1.4
  0
MTEXT
  5
272
100
AcDbEntity
  8
0
100
AcDbMText
 62
2
  6
CONTINUOUS
  7
STANDARD
 71
2
 72
1
 10
1.5275
 20
-2.9065
 30
0.0
 11
1.0
 21
0.0
 31
0.0
 44
0.9
  1
Mounting Hole C'bore Depth
 40
0.125
 41
5.2
  0
MTEXT
  5
273
100
AcDbEntity
  8
0
100
AcDbMText
 62
2
  6
CONTINUOUS
  7
STANDARD
 71
2
 72
1
 10
4.555
 20
-2.9065
 30
0.0
 11
1.0
 21
0.0
 31
0.0
 44
0.9
  1
.69 in.
 40
0.125
 41
1.4
  0
MTEXT
  5
274
100
AcDbEntity
  8
0
100
AcDbMText
 62
2
  6
CONTINUOUS
  7
STANDARD
 71
2
 72
1
 10
7.555
 20
-2.9065
 30
0.0
 11
1.0
 21
0.0
 31
0.0
 44
0.9
  1
17,5 mm
 40
0.125
 41
1.4
  0
ENDBLK
  5
275
100
AcDbEntity
  8
0
  6
BYBLOCK
 62
0
100
AcDbBlockEnd
  0
BLOCK
  5
276
100
AcDbEntity
  8
0
100
AcDbBlockBegin
  2
*T3
 70
1
 10
0.0
 20
0.0
  3
*T3
  1

  0
LINE
  5
277
100
AcDbEntity
  8
0
100
AcDbLine
 62
2
  6
CONTINUOUS
 10
0.0
 20
0.0
 11
4.6
 21
0.0
  0
LINE
  5
278
100
AcDbEntity
  8
0
100
AcDbLine
 62
2
  6
CONTINUOUS
 10
0.0
 20
0.0
 11
0.0
 21
-0.93775
  0
LINE
  5
279
100
AcDbEntity
  8
0
100
AcDbLine
 62
2
  6
CONTINUOUS
 10
0.0
 20
-0.34375
 11
4.6
 21
-0.34375
  0
LINE
  5
27A
100
AcDbEntity
  8
0
100
AcDbLine
 62
2
  6
CONTINUOUS
 10
0.0
 20
-0.68775
 11
4.6
 21
-0.68775
  0
LINE
  5
27B
100
AcDbEntity
  8
0
100
AcDbLine
 62
2
  6
CONTINUOUS
 10
0.0
 20
-0.93775
 11
4.6
 21
-0.93775
  0
LINE
  5
27C
100
AcDbEntity
  8
0
100
AcDbLine
 62
2
  6
CONTINUOUS
 10
1.3
 20
-0.34375
 11
1.3
 21
-0.93775
  0
LINE
  5
27D
100
AcDbEntity
  8
0
100
AcDbLine
 62
2
  6
CONTINUOUS
 10
3.3
 20
-0.34375
 11
3.3
 21
-0.93775
  0
LINE
  5
27E
100
AcDbEntity
  8
0
100
AcDbLine
 62
2
  6
CONTINUOUS
 10
4.6
 20
0.0
 11
4.6
 21
-0.93775
  0
MTEXT
  5
27F
100
AcDbEntity
  8
0
100
AcDbMText
 62
2
  6
CONTINUOUS
  7
STANDARD
 71
2
 72
1
 10
2.3
 20
-0.099375
 30
0.0
 11
1.0
 21
0.0
 31
0.0
 44
0.9
  1
Port Headings
 40
0.145
 41
3.016
  0
MTEXT
  5
280
100
AcDbEntity
  8
0
100
AcDbMText
 62
2
  6
CONTINUOUS
  7
STANDARD
 71
2
 72
1
 10
0.65
 20
-0.44325
 30
0.0
 11
1.0
 21
0.0
 31
0.0
 44
0.9
  1
Product
 40
0.145
 41
1.624
  0
MTEXT
  5
281
100
AcDbEntity
  8
0
100
AcDbMText
 62
2
  6
CONTINUOUS
  7
STANDARD
 71
2
 72
1
 10
2.3
 20
-0.44325
 30
0.0
 11
1.0
 21
0.0
 31
0.0
 44
0.9
  1
Port
 40
0.145
 41
0.928
  0
MTEXT
  5
282
100
AcDbEntity
  8
0
100
AcDbMText
 62
2
  6
CONTINUOUS
  7
STANDARD
 71
2
 72
1
 10
3.95
 20
-0.44325
 30
0.0
 11
1.0
 21
0.0
 31
0.0
 44
0.9
  1
Size
 40
0.145
 41
0.928
  0
MTEXT
  5
283
100
AcDbEntity
  8
0
100
AcDbMText
 62
2
  6
CONTINUOUS
  7
STANDARD
 71
2
 72
1
 10
0.65
 20
-0.75025
 30
0.0
 11
1.0
 21
0.0
 31
0.0
 44
0.9
  1
XTO
 40
0.125
 41
0.6
  0
MTEXT
  5
284
100
AcDbEntity
  8
0
100
AcDbMText
 62
2
  6
CONTINUOUS
  7
STANDARD
 71
2
 72
1
 10
2.3
 20
-0.75025
 30
0.0
 11
1.0
 21
0.0
 31
0.0
 44
0.9
  1
Ports V1 & V2
 40
0.125
 41
2.6
  0
MTEXT
  5
285
100
AcDbEntity
  8
0
100
AcDbMText
 62
2
  6
CONTINUOUS
  7
STANDARD
 71
2
 72
1
 10
3.95
 20
-0.75025
 30
0.0
 11
1.0
 21
0.0
 31
0.0
 44
0.9
  1
1 1/4" NPTF
 40
0.125
 41
2.2
  0
ENDBLK
  5
286
100
AcDbEntity
  8
0
  6
BYBLOCK
 62
0
100
AcDbBlockEnd
  0
ENDSEC
  0
SECTION
  2
ENTITIES
  0
IMAGE
  5
287
100
AcDbEntity
  8
0
100
AcDbRasterImage
 62
7
  6
CONTINUOUS
 10
19.2297077316
 20
0.3094318264
 30
0.0
 11
0.0066666667
 21
0.0
 31
0.0
 12
0.0
 22
0.0066666667
 32
0.0
 13
369.0
 23
92.0
340
       397
 70
9
280
0
281
50
282
50
283
0
360
       391
 71
1
 91
2
 14
-0.5
 24
-0.5
 14
368.5
 24
91.5
  0
INSERT
  5
288
100
AcDbEntity
  8
0
100
AcDbBlockReference
 62
2
  6
CONTINUOUS
  2
SUN_FIRST_THIRD_ANGLE_BL0
 10
20.4816717061
 20
1.2289683772
  0
ACAD_TABLE
  5
289
100
AcDbEntity
  8
0
 62
2
  6
CONTINUOUS
100
AcDbBlockReference
  2
*T1
 10
12.42375
 20
0.30125
 30
0.0
100
AcDbTable
342
       399
343
207
 11
1.0
 21
0.0
 31
0.0
 90
6
 91
4
 92
6
 93
20
 94
0
 95
0
 96
0
 70
1
 41
0.0
141
0.525
141
0.1
141
0.525
141
0.1
142
4.1
142
1.1
142
0.7
142
0.5
142
0.4
142
2.475
171
1
172
0
173
0
174
0
175
1
176
1
 91
33
178
0
145
0.0
301
CELL_VALUE
 90
4
  1
T-17A Motor mount Staffa 4", 5 piston\PCross pilot
304
ACVALUE_END
170
2
140
0.125
171
1
172
0
173
0
174
0
175
1
176
1
 91
33
178
0
145
0.0
301
CELL_VALUE
 90
4
  1
Dec-13-22
304
ACVALUE_END
170
5
140
0.125
171
1
172
0
173
0
174
0
175
1
176
1
 91
33
178
0
145
0.0
301
CELL_VALUE
 90
4
  1
1.000
304
ACVALUE_END
170
5
140
0.125
171
1
172
0
173
0
174
0
175
1
176
1
 91
33
178
0
145
0.0
301
CELL_VALUE
 90
4
  1
C
304
ACVALUE_END
170
5
140
0.125
171
1
172
0
173
0
174
0
175
1
176
1
 91
33
178
0
145
0.0
301
CELL_VALUE
 90
4
  1
2
304
ACVALUE_END
170
5
140
0.125
171
1
172
0
173
0
174
0
175
1
176
1
 91
33
178
0
145
0.0
301
CELL_VALUE
 90
4
  1
 
304
ACVALUE_END
170
1
140
0.125
171
1
172
0
173
0
174
0
175
1
176
1
 91
33
178
0
145
0.0
301
CELL_VALUE
 90
4
  1
DESCRIPTION
304
ACVALUE_END
170
1
140
0.06
171
1
172
0
173
0
174
0
175
1
176
1
 91
33
178
0
145
0.0
301
CELL_VALUE
 90
4
  1
DATE
304
ACVALUE_END
170
1
140
0.06
171
1
172
0
173
0
174
0
175
1
176
1
 91
33
178
0
145
0.0
301
CELL_VALUE
 90
4
  1
SCALE
304
ACVALUE_END
170
1
140
0.06
171
1
172
0
173
0
174
0
175
1
176
1
 91
33
178
0
145
0.0
301
CELL_VALUE
 90
4
  1
DWG SIZE
304
ACVALUE_END
170
1
140
0.06
171
1
172
0
173
0
174
0
175
1
176
1
 91
33
178
0
145
0.0
301
CELL_VALUE
 90
4
  1
SHEET
304
ACVALUE_END
170
1
140
0.06
171
1
172
0
173
0
174
0
175
1
176
1
 91
33
178
0
145
0.0
301
CELL_VALUE
 90
4
  1
 
304
ACVALUE_END
170
1
140
0.125
171
1
172
0
173
0
174
0
175
1
176
1
 91
33
178
0
145
0.0
301
CELL_VALUE
 90
4
  1
XTO
304
ACVALUE_END
170
5
140
0.125
171
1
172
0
173
0
174
0
175
4
176
1
 91
33
178
0
145
0.0
301
CELL_VALUE
 90
4
  1
ALL DIMENSIONS IN INCH\PVIEWS ARE THIRD ANGLE
304
ACVALUE_END
170
5
140
0.12
171
1
172
0
173
1
174
0
175
1
176
1
 91
1
178
0
145
0.0
170
1
171
1
172
0
173
1
174
0
175
1
176
1
 91
1
178
0
145
0.0
170
1
171
1
172
0
173
1
174
0
175
1
176
1
 91
1
178
0
145
0.0
170
5
171
1
172
0
173
0
174
0
175
1
176
1
 91
33
178
0
145
0.0
301
CELL_VALUE
 90
4
  1
 
304
ACVALUE_END
170
1
140
0.125
171
1
172
0
173
0
174
0
175
1
176
1
 91
33
178
0
145
0.0
301
CELL_VALUE
 90
4
  1
MODEL
304
ACVALUE_END
170
1
140
0.06
171
1
172
0
173
0
174
0
175
1
176
1
 91
33
178
0
145
0.0
301
CELL_VALUE
 90
4
  1
 
304
ACVALUE_END
170
1
140
0.125
171
1
172
0
173
0
174
0
175
1
176
1
 91
33
178
0
145
0.0
301
CELL_VALUE
 90
4
  1
 
304
ACVALUE_END
170
1
140
0.125
171
1
172
0
173
0
174
0
175
1
176
1
 91
33
178
0
145
0.0
301
CELL_VALUE
 90
4
  1
 
304
ACVALUE_END
170
1
140
0.125
171
1
172
0
173
0
174
0
175
1
176
1
 91
33
178
0
145
0.0
301
CELL_VALUE
 90
4
  1
 
304
ACVALUE_END
170
1
140
0.125
171
1
172
0
173
0
174
0
175
1
176
1
 91
33
178
0
145
0.0
301
CELL_VALUE
 90
4
  1
 
304
ACVALUE_END
170
1
140
0.125
  0
ACAD_TABLE
  5
28A
100
AcDbEntity
  8
0
 62
2
  6
CONTINUOUS
100
AcDbBlockReference
  2
*T2
 10
12.4237499994
 20
16.47875
 30
0.0
100
AcDbTable
342
       398
343
208
 11
1.0
 21
0.0
 31
0.0
 90
22
 91
12
 92
3
 93
16
 94
0
 95
0
 96
0
 41
0.028
141
0.344
141
0.25
141
0.25
141
0.25
141
0.25
141
0.25
141
0.25
141
0.25
141
0.25
141
0.25
141
0.25
141
0.25
142
3.055
142
3.0
142
3.0
171
1
172
0
173
0
174
0
175
1
176
1
 91
33
178
0
145
0.0
301
CELL_VALUE
 90
4
  1
Technical Data
304
ACVALUE_END
170
5
140
0.145
171
1
172
0
173
0
174
0
175
1
176
1
 91
33
178
0
145
0.0
301
CELL_VALUE
 90
4
  1
U.S. Units
304
ACVALUE_END
170
5
140
0.145
171
1
172
0
173
0
174
0
175
1
176
1
 91
33
178
0
145
0.0
301
CELL_VALUE
 90
4
  1
Metric Units
304
ACVALUE_END
170
5
140
0.145
171
1
172
0
173
0
174
0
175
1
176
1
 91
33
178
0
145
0.0
301
CELL_VALUE
 90
4
  1
Cavity
304
ACVALUE_END
170
5
140
0.125
171
1
172
0
173
0
174
0
175
2
176
1
 91
33
178
0
145
0.0
301
CELL_VALUE
 90
4
  1
T-17A
304
ACVALUE_END
170
5
140
0.125
171
1
172
0
173
1
174
0
175
1
176
1
 91
1
178
0
145
0.0
170
1
171
1
172
0
173
0
174
0
175
1
176
1
 91
33
178
0
145
0.0
301
CELL_VALUE
 90
4
  1
Body Features
304
ACVALUE_END
170
5
140
0.125
171
1
172
0
173
0
174
0
175
2
176
1
 91
33
178
0
145
0.0
301
CELL_VALUE
 90
4
  1
Cross pilot
304
ACVALUE_END
170
5
140
0.125
171
1
172
0
173
1
174
0
175
1
176
1
 91
1
178
0
145
0.0
170
1
171
1
172
0
173
0
174
0
175
1
176
1
 91
33
178
0
145
0.0
301
CELL_VALUE
 90
4
  1
Body Type
304
ACVALUE_END
170
5
140
0.125
171
1
172
0
173
0
174
0
175
2
176
1
 91
33
178
0
145
0.0
301
CELL_VALUE
 90
4
  1
Motor mount
304
ACVALUE_END
170
5
140
0.125
171
1
172
0
173
1
174
0
175
1
176
1
 91
1
178
0
145
0.0
170
1
171
1
172
0
173
0
174
0
175
1
176
1
 91
33
178
0
145
0.0
301
CELL_VALUE
 90
4
  1
Interface
304
ACVALUE_END
170
5
140
0.125
171
1
172
0
173
0
174
0
175
2
176
1
 91
33
178
0
145
0.0
301
CELL_VALUE
 90
4
  1
Staffa 4", 5 piston
304
ACVALUE_END
170
5
140
0.125
171
1
172
0
173
1
174
0
175
1
176
1
 91
1
178
0
145
0.0
170
1
171
1
172
0
173
0
174
0
175
1
176
1
 91
33
178
0
145
0.0
301
CELL_VALUE
 90
4
  1
Open Cavity Quantity
304
ACVALUE_END
170
5
140
0.125
171
1
172
0
173
0
174
0
175
2
176
1
 91
33
178
0
145
0.0
301
CELL_VALUE
 90
4
  1
1
304
ACVALUE_END
170
5
140
0.125
171
1
172
0
173
1
174
0
175
1
176
1
 91
1
178
0
145
0.0
170
1
171
1
172
0
173
0
174
0
175
1
176
1
 91
33
178
0
145
0.0
301
CELL_VALUE
 90
4
  1
Weight
304
ACVALUE_END
170
5
140
0.125
171
1
172
0
173
0
174
0
175
1
176
1
 91
33
178
0
145
0.0
301
CELL_VALUE
 90
4
  1
5.082 lb.
304
ACVALUE_END
170
5
140
0.125
171
1
172
0
173
0
174
0
175
1
176
1
 91
33
178
0
145
0.0
301
CELL_VALUE
 90
4
  1
2,305 kg.
304
ACVALUE_END
170
5
140
0.125
171
1
172
0
173
0
174
0
175
1
176
1
 91
33
178
0
145
0.0
301
CELL_VALUE
 90
4
  1
Mounting Hole Diameter
304
ACVALUE_END
170
5
140
0.125
171
1
172
0
173
0
174
0
175
1
176
1
 91
33
178
0
145
0.0
301
CELL_VALUE
 90
4
  1
.41 in.
304
ACVALUE_END
170
5
140
0.125
171
1
172
0
173
0
174
0
175
1
176
1
 91
33
178
0
145
0.0
301
CELL_VALUE
 90
4
  1
10,4 mm
304
ACVALUE_END
170
5
140
0.125
171
1
172
0
173
0
174
0
175
1
176
1
 91
33
178
0
145
0.0
301
CELL_VALUE
 90
4
  1
Mounting Hole Depth
304
ACVALUE_END
170
5
140
0.125
171
1
172
0
173
0
174
0
175
2
176
1
 91
33
178
0
145
0.0
301
CELL_VALUE
 90
4
  1
Through
304
ACVALUE_END
170
5
140
0.125
171
1
172
0
173
1
174
0
175
1
176
1
 91
1
178
0
145
0.0
170
1
171
1
172
0
173
0
174
0
175
1
176
1
 91
33
178
0
145
0.0
301
CELL_VALUE
 90
4
  1
Mounting Hole Quantity
304
ACVALUE_END
170
5
140
0.125
171
1
172
0
173
0
174
0
175
2
176
1
 91
33
178
0
145
0.0
301
CELL_VALUE
 90
4
  1
6
304
ACVALUE_END
170
5
140
0.125
171
1
172
0
173
1
174
0
175
1
176
1
 91
1
178
0
145
0.0
170
1
171
1
172
0
173
0
174
0
175
1
176
1
 91
33
178
0
145
0.0
301
CELL_VALUE
 90
4
  1
Mounting Hole C'bore Diameter
304
ACVALUE_END
170
5
140
0.125
171
1
172
0
173
0
174
0
175
1
176
1
 91
33
178
0
145
0.0
301
CELL_VALUE
 90
4
  1
.59 in.
304
ACVALUE_END
170
5
140
0.125
171
1
172
0
173
0
174
0
175
1
176
1
 91
33
178
0
145
0.0
301
CELL_VALUE
 90
4
  1
15,0 mm
304
ACVALUE_END
170
5
140
0.125
171
1
172
0
173
0
174
0
175
1
176
1
 91
33
178
0
145
0.0
301
CELL_VALUE
 90
4
  1
Mounting Hole C'bore Depth
304
ACVALUE_END
170
5
140
0.125
171
1
172
0
173
0
174
0
175
1
176
1
 91
33
178
0
145
0.0
301
CELL_VALUE
 90
4
  1
.69 in.
304
ACVALUE_END
170
5
140
0.125
171
1
172
0
173
0
174
0
175
1
176
1
 91
33
178
0
145
0.0
301
CELL_VALUE
 90
4
  1
17,5 mm
304
ACVALUE_END
170
5
140
0.125
  0
ACAD_TABLE
  5
28B
100
AcDbEntity
  8
0
 62
2
  6
CONTINUOUS
100
AcDbBlockReference
  2
*T3
 10
0.52125
 20
1.459
 30
0.0
100
AcDbTable
342
       398
343
209
 11
1.0
 21
0.0
 31
0.0
 90
22
 91
3
 92
3
 93
16
 94
0
 95
0
 96
0
 41
0.05
141
0.34375
141
0.344
141
0.25
142
1.3
142
2.0
142
1.3
171
1
172
0
173
0
174
0
175
3
176
1
 91
33
178
0
145
0.0
301
CELL_VALUE
 90
4
  1
Port Headings
304
ACVALUE_END
170
5
140
0.145
171
1
172
0
173
1
174
0
175
1
176
1
 91
1
178
0
145
0.0
170
1
171
1
172
0
173
1
174
0
175
1
176
1
 91
1
178
0
145
0.0
170
1
171
1
172
0
173
0
174
0
175
1
176
1
 91
33
178
0
145
0.0
301
CELL_VALUE
 90
4
  1
Product
304
ACVALUE_END
170
5
140
0.145
171
1
172
0
173
0
174
0
175
1
176
1
 91
33
178
0
145
0.0
301
CELL_VALUE
 90
4
  1
Port
304
ACVALUE_END
170
5
140
0.145
171
1
172
0
173
0
174
0
175
1
176
1
 91
33
178
0
145
0.0
301
CELL_VALUE
 90
4
  1
Size
304
ACVALUE_END
170
5
140
0.145
171
1
172
0
173
0
174
0
175
1
176
1
 91
33
178
0
145
0.0
301
CELL_VALUE
 90
4
  1
XTO
304
ACVALUE_END
170
5
140
0.125
171
1
172
0
173
0
174
0
175
1
176
1
 91
33
178
0
145
0.0
301
CELL_VALUE
 90
4
  1
Ports V1 & V2
304
ACVALUE_END
170
5
140
0.125
171
1
172
0
173
0
174
0
175
1
176
1
 91
33
178
0
145
0.0
301
CELL_VALUE
 90
4
  1
1 1/4" NPTF
304
ACVALUE_END
170
5
140
0.125
  0
MTEXT
  5
28C
100
AcDbEntity
  8
0
100
AcDbMText
 62
2
  6
CONTINUOUS
  7
STANDARD
 71
1
 72
1
 10
0.52125
 20
5.75995
 30
0.0
 11
1.0
 21
0.0
 31
0.0
 44
0.6
  3
Notes\P \P1. Important: Carefully consider\P   the maximum system pressure. The\P   pressure rating of the manifold is\P   dependent on the manifold material,\P   with the port type/size a secondary\P   consideration. Manifolds\P   constructed of alu
  1
minum are not\P   rated for pressures higher than\P   3000 psi (210 bar), regardless of\P   the port type/size specified.
 40
0.1
 41
3.04
  0
LINE
  5
28D
100
AcDbEntity
  8
0
100
AcDbLine
 62
7
  6
CONTINUOUS
 10
0.30125
 20
0.30125
 11
0.30125
 21
16.69875
  0
LINE
  5
28E
100
AcDbEntity
  8
0
100
AcDbLine
 62
7
  6
CONTINUOUS
 10
0.30125
 20
0.30125
 11
21.69875
 21
0.30125
  0
LINE
  5
28F
100
AcDbEntity
  8
0
100
AcDbLine
 62
7
  6
CONTINUOUS
 10
0.30125
 20
16.69875
 11
21.69875
 21
16.69875
  0
LINE
  5
290
100
AcDbEntity
  8
0
100
AcDbLine
 62
7
  6
CONTINUOUS
 10
21.69875
 20
0.30125
 11
21.69875
 21
16.69875
  0
LINE
  5
291
100
AcDbEntity
  8
0
100
AcDbLine
 62
7
  6
CONTINUOUS
 10
9.4402003032
 20
11.2390422141
 11
8.6960961627
 21
10.5202927647
  0
LINE
  5
292
100
AcDbEntity
  8
0
100
AcDbLine
 62
7
  6
CONTINUOUS
 10
9.7383840127
 20
11.2183631036
 11
9.8883023315
 21
11.3631730882
  0
LINE
  5
293
100
AcDbEntity
  8
0
100
AcDbLine
 62
7
  6
CONTINUOUS
 10
10.1488323109
 20
11.4556748285
 11
9.8921119963
 21
11.2077020318
  0
LINE
  5
294
100
AcDbEntity
  8
0
100
AcDbLine
 62
7
  6
CONTINUOUS
 10
8.6960961627
 20
5.8114040825
 11
12.5597996968
 21
5.5434553324
  0
LINE
  5
295
100
AcDbEntity
  8
0
100
AcDbLine
 62
7
  6
CONTINUOUS
 10
8.6960961627
 20
5.8114040825
 11
8.6960961627
 21
10.5202927647
  0
LINE
  5
296
100
AcDbEntity
  8
0
100
AcDbLine
 62
7
  6
CONTINUOUS
 10
11.8372707553
 20
11.3385812246
 11
11.5805504407
 21
11.0906084279
  0
LINE
  5
297
100
AcDbEntity
  8
0
100
AcDbLine
 62
7
  6
CONTINUOUS
 10
10.179006554
 20
9.7264789451
 11
10.1843175001
 21
9.7316089254
  0
LINE
  5
298
100
AcDbEntity
  8
0
100
AcDbLine
 62
4
  6
CONTINUOUS
 10
12.7676312115
 20
6.7680866071
 11
12.7365729525
 21
6.7743088506
  0
LINE
  5
299
100
AcDbEntity
  8
0
100
AcDbLine
 62
4
  6
CONTINUOUS
 10
12.8113715848
 20
7.8328381892
 11
12.7803133257
 21
7.835955669
  0
LINE
  5
29A
100
AcDbEntity
  8
0
100
AcDbLine
 62
4
  6
CONTINUOUS
 10
12.660369287
 20
7.9188033623
 11
12.6307899921
 21
7.923349398
  0
LINE
  5
29B
100
AcDbEntity
  8
0
100
AcDbLine
 62
7
  6
CONTINUOUS
 10
12.5597996968
 20
10.2523440145
 11
13.3039038373
 21
10.9710934639
  0
LINE
  5
29C
100
AcDbEntity
  8
0
100
AcDbLine
 62
4
  6
CONTINUOUS
 10
12.6219162043
 20
8.3370255599
 11
12.6241346522
 21
8.3364086385
  0
LINE
  5
29D
100
AcDbEntity
  8
0
100
AcDbLine
 62
4
  6
CONTINUOUS
 10
12.7417493296
 20
9.4283606909
 11
12.7469257049
 21
9.4333606858
  0
LINE
  5
29E
100
AcDbEntity
  8
0
100
AcDbLine
 62
4
  6
CONTINUOUS
 10
12.7598666468
 20
9.3951495688
 11
12.7676312115
 21
9.3954051189
  0
LINE
  5
29F
100
AcDbEntity
  8
0
100
AcDbLine
 62
4
  6
CONTINUOUS
 10
12.7430434148
 20
7.9489842971
 11
12.7119851557
 21
7.98521924
  0
LINE
  5
2A0
100
AcDbEntity
  8
0
100
AcDbLine
 62
4
  6
CONTINUOUS
 10
12.7365729525
 20
9.2422495952
 11
12.7676312115
 21
9.3084717913
  0
LINE
  5
2A1
100
AcDbEntity
  8
0
100
AcDbLine
 62
4
  6
CONTINUOUS
 10
12.6507560162
 20
8.5304699476
 11
12.6441006747
 21
8.524041381
  0
LINE
  5
2A2
100
AcDbEntity
  8
0
100
AcDbLine
 62
4
  6
CONTINUOUS
 10
12.6396637808
 20
8.4700795621
 11
12.63300844
 21
8.4636509961
  0
LINE
  5
2A3
100
AcDbEntity
  8
0
100
AcDbLine
 62
4
  6
CONTINUOUS
 10
12.6507560162
 20
8.4062795113
 11
12.63300844
 21
8.389136668
  0
LINE
  5
2A4
100
AcDbEntity
  8
0
100
AcDbLine
 62
4
  6
CONTINUOUS
 10
12.6529744634
 20
8.3642657586
 11
12.6307899921
 21
8.3428372036
  0
LINE
  5
2A5
100
AcDbEntity
  8
0
100
AcDbLine
 62
4
  6
CONTINUOUS
 10
12.6241346522
 20
8.3364086385
 11
12.6219162043
 21
8.3342657823
  0
LINE
  5
2A6
100
AcDbEntity
  8
0
100
AcDbLine
 62
4
  6
CONTINUOUS
 10
12.8113715848
 20
8.497947159
 11
12.7803133257
 21
8.4679471826
  0
LINE
  5
2A7
100
AcDbEntity
  8
0
100
AcDbLine
 62
4
  6
CONTINUOUS
 10
12.7676312115
 20
9.3084717913
 11
12.7365729525
 21
9.3146940348
  0
LINE
  5
2A8
100
AcDbEntity
  8
0
100
AcDbLine
 62
4
  6
CONTINUOUS
 10
12.6263530982
 20
7.4223018313
 11
12.6219162043
 21
7.4345748505
  0
LINE
  5
2A9
100
AcDbEntity
  8
0
100
AcDbLine
 62
4
  6
CONTINUOUS
 10
12.6529744634
 20
7.4894129207
 11
12.6485375691
 21
7.5016859376
  0
LINE
  5
2AA
100
AcDbEntity
  8
0
100
AcDbLine
 62
4
  6
CONTINUOUS
 10
12.6529744634
 20
7.5804859354
 11
12.6485375691
 21
7.5927589455
  0
LINE
  5
2AB
100
AcDbEntity
  8
0
100
AcDbLine
 62
4
  6
CONTINUOUS
 10
12.7391611401
 20
9.4186162478
 11
12.7417493296
 21
9.4283606909
  0
LINE
  5
2AC
100
AcDbEntity
  8
0
100
AcDbLine
 62
4
  6
CONTINUOUS
 10
12.7847502196
 20
8.4253164521
 11
12.8069346904
 21
8.4467450067
  0
LINE
  5
2AD
100
AcDbEntity
  8
0
100
AcDbLine
 62
4
  6
CONTINUOUS
 10
12.6507560162
 20
8.2876086302
 11
12.6219162043
 21
8.2597515094
  0
LINE
  5
2AE
100
AcDbEntity
  8
0
100
AcDbLine
 62
4
  6
CONTINUOUS
 10
12.6529744634
 20
8.2566340434
 11
12.6307899921
 21
8.2352054883
  0
LINE
  5
2AF
100
AcDbEntity
  8
0
100
AcDbLine
 62
4
  6
CONTINUOUS
 10
12.8113715848
 20
8.3930751661
 11
12.7803133257
 21
8.3630751898
  0
LINE
  5
2B0
100
AcDbEntity
  8
0
100
AcDbLine
 62
4
  6
CONTINUOUS
 10
12.6307899921
 20
8.1855292696
 11
12.6507560162
 21
8.2048149691
  0
LINE
  5
2B1
100
AcDbEntity
  8
0
100
AcDbLine
 62
4
  6
CONTINUOUS
 10
12.7847502196
 20
8.3342434581
 11
12.8069346904
 21
8.3556720127
  0
LINE
  5
2B2
100
AcDbEntity
  8
0
100
AcDbLine
 62
4
  6
CONTINUOUS
 10
12.6529744634
 20
8.1738403823
 11
12.635226886
 21
8.1566975379
  0
LINE
  5
2B3
100
AcDbEntity
  8
0
100
AcDbLine
 62
4
  6
CONTINUOUS
 10
12.8069346904
 20
8.297716461
 11
12.7847502196
 21
8.2762879064
  0
LINE
  5
2B4
100
AcDbEntity
  8
0
100
AcDbLine
 62
4
  6
CONTINUOUS
 10
12.6507560162
 20
8.1220213632
 11
12.6441006747
 21
8.1155927966
  0
LINE
  5
2B5
100
AcDbEntity
  8
0
100
AcDbLine
 62
4
  6
CONTINUOUS
 10
12.7164220496
 20
8.17993032
 11
12.7386065204
 21
8.2013588746
  0
LINE
  5
2B6
100
AcDbEntity
  8
0
100
AcDbLine
 62
4
  6
CONTINUOUS
 10
12.63300844
 20
8.0690012447
 11
12.6374453339
 21
8.0732869554
  0
LINE
  5
2B7
100
AcDbEntity
  8
0
100
AcDbLine
 62
4
  6
CONTINUOUS
 10
12.7386065204
 20
8.1434033367
 11
12.7164220496
 21
8.1219747821
  0
LINE
  5
2B8
100
AcDbEntity
  8
0
100
AcDbLine
 62
4
  6
CONTINUOUS
 10
12.8069346904
 20
8.2011239116
 11
12.7847502196
 21
8.179695357
  0
LINE
  5
2B9
100
AcDbEntity
  8
0
100
AcDbLine
 62
4
  6
CONTINUOUS
 10
12.6529744634
 20
8.0496499459
 11
12.6307899921
 21
8.0282213909
  0
LINE
  5
2BA
100
AcDbEntity
  8
0
100
AcDbLine
 62
4
  6
CONTINUOUS
 10
12.6219162043
 20
7.986532472
 11
12.6529744634
 21
8.0165324483
  0
LINE
  5
2BB
100
AcDbEntity
  8
0
100
AcDbLine
 62
4
  6
CONTINUOUS
 10
12.7430434148
 20
8.0814541355
 11
12.7119851557
 21
8.0514541592
  0
LINE
  5
2BC
100
AcDbEntity
  8
0
100
AcDbLine
 62
4
  6
CONTINUOUS
 10
12.6507560162
 20
7.9647134293
 11
12.63300844
 21
7.947570586
  0
LINE
  5
2BD
100
AcDbEntity
  8
0
100
AcDbLine
 62
4
  6
CONTINUOUS
 10
12.8069346904
 20
7.7816360785
 11
12.8113715848
 21
7.7693630615
  0
LINE
  5
2BE
100
AcDbEntity
  8
0
100
AcDbLine
 62
4
  6
CONTINUOUS
 10
12.7164220496
 20
8.1219747821
 11
12.7119851557
 21
8.1342477927
  0
LINE
  5
2BF
100
AcDbEntity
  8
0
100
AcDbLine
 62
4
  6
CONTINUOUS
 10
12.63300844
 20
8.389136668
 11
12.6307899921
 21
8.3952731447
  0
LINE
  5
2C0
100
AcDbEntity
  8
0
100
AcDbLine
 62
4
  6
CONTINUOUS
 10
12.63300844
 20
8.4636509961
 11
12.6307899921
 21
8.4697874729
  0
LINE
  5
2C1
100
AcDbEntity
  8
0
100
AcDbLine
 62
4
  6
CONTINUOUS
 10
12.63300844
 20
7.947570586
 11
12.6307899921
 21
7.9619864509
  0
LINE
  5
2C2
100
AcDbEntity
  8
0
100
AcDbLine
 62
7
  6
CONTINUOUS
 10
12.5597996968
 20
5.5434553324
 11
12.5597996968
 21
10.2523440145
  0
LINE
  5
2C3
100
AcDbEntity
  8
0
100
AcDbLine
 62
4
  6
CONTINUOUS
 10
12.6219162043
 20
7.4345748505
 11
12.6219162043
 21
7.4676923083
  0
LINE
  5
2C4
100
AcDbEntity
  8
0
100
AcDbLine
 62
4
  6
CONTINUOUS
 10
12.6219162043
 20
8.3342657823
 11
12.6219162043
 21
8.3370255599
  0
LINE
  5
2C5
100
AcDbEntity
  8
0
100
AcDbLine
 62
4
  6
CONTINUOUS
 10
12.6307899921
 20
8.1441324943
 11
12.6307899921
 21
8.1027356637
  0
LINE
  5
2C6
100
AcDbEntity
  8
0
100
AcDbLine
 62
4
  6
CONTINUOUS
 10
12.6307899921
 20
7.7908795734
 11
12.6307899921
 21
7.832276404
  0
LINE
  5
2C7
100
AcDbEntity
  8
0
100
AcDbLine
 62
4
  6
CONTINUOUS
 10
12.6307899921
 20
7.9619864509
 11
12.6307899921
 21
7.9951038933
  0
LINE
  5
2C8
100
AcDbEntity
  8
0
100
AcDbLine
 62
4
  6
CONTINUOUS
 10
12.6307899921
 20
8.0282213909
 11
12.6307899921
 21
8.0613388332
  0
LINE
  5
2C9
100
AcDbEntity
  8
0
100
AcDbLine
 62
4
  6
CONTINUOUS
 10
12.6307899921
 20
8.3952731447
 11
12.6307899921
 21
8.4283906976
  0
LINE
  5
2CA
100
AcDbEntity
  8
0
100
AcDbLine
 62
4
  6
CONTINUOUS
 10
12.6307899921
 20
8.4697874729
 11
12.6307899921
 21
8.5029049152
  0
LINE
  5
2CB
100
AcDbEntity
  8
0
100
AcDbLine
 62
4
  6
CONTINUOUS
 10
12.6418822278
 20
8.1300086624
 11
12.6418822278
 21
8.1631261048
  0
LINE
  5
2CC
100
AcDbEntity
  8
0
100
AcDbLine
 62
4
  6
CONTINUOUS
 10
12.6529744634
 20
8.4498192526
 11
12.6529744634
 21
8.4167016998
  0
LINE
  5
2CD
100
AcDbEntity
  8
0
100
AcDbLine
 62
4
  6
CONTINUOUS
 10
12.6529744634
 20
8.3145895951
 11
12.6529744634
 21
8.2980308739
  0
LINE
  5
2CE
100
AcDbEntity
  8
0
100
AcDbLine
 62
4
  6
CONTINUOUS
 10
12.6529744634
 20
8.1738403823
 11
12.6529744634
 21
8.14072294
  0
LINE
  5
2CF
100
AcDbEntity
  8
0
100
AcDbLine
 62
4
  6
CONTINUOUS
 10
12.6529744634
 20
8.0165324483
 11
12.6529744634
 21
7.983415006
  0
LINE
  5
2D0
100
AcDbEntity
  8
0
100
AcDbLine
 62
4
  6
CONTINUOUS
 10
12.6529744634
 20
7.4562954619
 11
12.6529744634
 21
7.4894129207
  0
LINE
  5
2D1
100
AcDbEntity
  8
0
100
AcDbLine
 62
4
  6
CONTINUOUS
 10
12.6529744634
 20
7.555647833
 11
12.6529744634
 21
7.5804859354
  0
LINE
  5
2D2
100
AcDbEntity
  8
0
100
AcDbLine
 62
4
  6
CONTINUOUS
 10
12.6529744634
 20
8.2152372128
 11
12.6529744634
 21
8.2566340434
  0
LINE
  5
2D3
100
AcDbEntity
  8
0
100
AcDbLine
 62
4
  6
CONTINUOUS
 10
12.6529744634
 20
8.4912160279
 11
12.6529744634
 21
8.5243334702
  0
LINE
  5
2D4
100
AcDbEntity
  8
0
100
AcDbLine
 62
4
  6
CONTINUOUS
 10
12.660369287
 20
7.9022446411
 11
12.660369287
 21
7.9188033623
  0
LINE
  5
2D5
100
AcDbEntity
  8
0
100
AcDbLine
 62
4
  6
CONTINUOUS
 10
12.7119851557
 20
8.0183366961
 11
12.7119851557
 21
8.0845716153
  0
LINE
  5
2D6
100
AcDbEntity
  8
0
100
AcDbLine
 62
4
  6
CONTINUOUS
 10
12.7119851557
 20
8.1342477927
 11
12.7119851557
 21
8.1590858882
  0
LINE
  5
2D7
100
AcDbEntity
  8
0
100
AcDbLine
 62
4
  6
CONTINUOUS
 10
12.7365729525
 20
9.3871384745
 11
12.7365729525
 21
9.4016273624
  0
LINE
  5
2D8
100
AcDbEntity
  8
0
100
AcDbLine
 62
4
  6
CONTINUOUS
 10
12.7430434148
 20
8.1890858646
 11
12.7430434148
 21
8.164247769
  0
LINE
  5
2D9
100
AcDbEntity
  8
0
100
AcDbLine
 62
4
  6
CONTINUOUS
 10
12.7676312115
 20
9.3954051189
 11
12.7676312115
 21
9.4533606706
  0
LINE
  5
2DA
100
AcDbEntity
  8
0
100
AcDbLine
 62
4
  6
CONTINUOUS
 10
12.7803133257
 20
7.6979662684
 11
12.7803133257
 21
7.7393630851
  0
LINE
  5
2DB
100
AcDbEntity
  8
0
100
AcDbLine
 62
4
  6
CONTINUOUS
 10
12.7803133257
 20
7.9021905813
 11
12.7803133257
 21
7.9684254936
  0
LINE
  5
2DC
100
AcDbEntity
  8
0
100
AcDbLine
 62
4
  6
CONTINUOUS
 10
12.7803133257
 20
8.0015429636
 11
12.7803133257
 21
8.0512191547
  0
LINE
  5
2DD
100
AcDbEntity
  8
0
100
AcDbLine
 62
4
  6
CONTINUOUS
 10
12.7803133257
 20
8.1919683675
 11
12.7803133257
 21
8.2250858099
  0
LINE
  5
2DE
100
AcDbEntity
  8
0
100
AcDbLine
 62
4
  6
CONTINUOUS
 10
12.7803133257
 20
8.2885609169
 11
12.7803133257
 21
8.3133990263
  0
LINE
  5
2DF
100
AcDbEntity
  8
0
100
AcDbLine
 62
4
  6
CONTINUOUS
 10
12.7803133257
 20
8.3630751898
 11
12.7803133257
 21
8.4044720203
  0
LINE
  5
2E0
100
AcDbEntity
  8
0
100
AcDbLine
 62
4
  6
CONTINUOUS
 10
12.7803133257
 20
8.4679471826
 11
12.7803133257
 21
8.5176233461
  0
LINE
  5
2E1
100
AcDbEntity
  8
0
100
AcDbLine
 62
4
  6
CONTINUOUS
 10
12.6426217101
 20
8.5143334778
 11
12.6411427454
 21
8.4797874653
  0
LINE
  5
2E2
100
AcDbEntity
  8
0
100
AcDbLine
 62
4
  6
CONTINUOUS
 10
12.6529744634
 20
8.14072294
 11
12.6507560162
 21
8.1220213632
  0
LINE
  5
2E3
100
AcDbEntity
  8
0
100
AcDbLine
 62
4
  6
CONTINUOUS
 10
12.6529744634
 20
7.983415006
 11
12.6507560162
 21
7.9647134293
  0
LINE
  5
2E4
100
AcDbEntity
  8
0
100
AcDbLine
 62
4
  6
CONTINUOUS
 10
12.7921450427
 20
8.5621693502
 11
12.7980609022
 21
8.6120402401
  0
LINE
  5
2E5
100
AcDbEntity
  8
0
100
AcDbLine
 62
4
  6
CONTINUOUS
 10
12.7365729525
 20
9.4016273624
 11
12.7391611401
 21
9.4186162478
  0
LINE
  5
2E6
100
AcDbEntity
  8
0
100
AcDbLine
 62
4
  6
CONTINUOUS
 10
12.6441006747
 20
8.524041381
 11
12.6426217101
 21
8.5143334778
  0
LINE
  5
2E7
100
AcDbEntity
  8
0
100
AcDbLine
 62
4
  6
CONTINUOUS
 10
12.6411427454
 20
8.4797874653
 11
12.6396637808
 21
8.4700795621
  0
LINE
  5
2E8
100
AcDbEntity
  8
0
100
AcDbLine
 62
4
  6
CONTINUOUS
 10
12.6307899921
 20
8.5029049152
 11
12.63300844
 21
8.5133271044
  0
LINE
  5
2E9
100
AcDbEntity
  8
0
100
AcDbLine
 62
4
  6
CONTINUOUS
 10
12.6507560162
 20
8.4807938394
 11
12.6529744634
 21
8.4912160279
  0
LINE
  5
2EA
100
AcDbEntity
  8
0
100
AcDbLine
 62
4
  6
CONTINUOUS
 10
12.6529744634
 20
8.4167016998
 11
12.6507560162
 21
8.4062795113
  0
LINE
  5
2EB
100
AcDbEntity
  8
0
100
AcDbLine
 62
4
  6
CONTINUOUS
 10
12.6529744634
 20
8.2980308739
 11
12.6507560162
 21
8.2876086302
  0
LINE
  5
2EC
100
AcDbEntity
  8
0
100
AcDbLine
 62
4
  6
CONTINUOUS
 10
12.6507560162
 20
8.2048149691
 11
12.6529744634
 21
8.2152372128
  0
LINE
  5
2ED
100
AcDbEntity
  8
0
100
AcDbLine
 62
4
  6
CONTINUOUS
 10
12.6307899921
 20
7.832276404
 11
12.63300844
 21
7.8426986208
  0
LINE
  5
2EE
100
AcDbEntity
  8
0
100
AcDbLine
 62
4
  6
CONTINUOUS
 10
12.7119851557
 20
8.1590858882
 11
12.7164220496
 21
8.17993032
  0
LINE
  5
2EF
100
AcDbEntity
  8
0
100
AcDbLine
 62
4
  6
CONTINUOUS
 10
12.7803133257
 20
8.4044720203
 11
12.7847502196
 21
8.4253164521
  0
LINE
  5
2F0
100
AcDbEntity
  8
0
100
AcDbLine
 62
4
  6
CONTINUOUS
 10
12.7430434148
 20
8.164247769
 11
12.7386065204
 21
8.1434033367
  0
LINE
  5
2F1
100
AcDbEntity
  8
0
100
AcDbLine
 62
4
  6
CONTINUOUS
 10
12.7803133257
 20
8.3133990263
 11
12.7847502196
 21
8.3342434581
  0
LINE
  5
2F2
100
AcDbEntity
  8
0
100
AcDbLine
 62
4
  6
CONTINUOUS
 10
12.6307899921
 20
8.0613388332
 11
12.63300844
 21
8.0690012447
  0
LINE
  5
2F3
100
AcDbEntity
  8
0
100
AcDbLine
 62
4
  6
CONTINUOUS
 10
12.635226886
 20
8.1566975379
 11
12.6307899921
 21
8.1441324943
  0
LINE
  5
2F4
100
AcDbEntity
  8
0
100
AcDbLine
 62
4
  6
CONTINUOUS
 10
12.6307899921
 20
7.8736732345
 11
12.6529744634
 21
7.919939899
  0
LINE
  5
2F5
100
AcDbEntity
  8
0
100
AcDbLine
 62
4
  6
CONTINUOUS
 10
12.8113715848
 20
8.0315429399
 11
12.7803133257
 21
8.0015429636
  0
LINE
  5
2F6
100
AcDbEntity
  8
0
100
AcDbLine
 62
4
  6
CONTINUOUS
 10
12.63300844
 20
7.8426986208
 11
12.6529744634
 21
7.8619843196
  0
LINE
  5
2F7
100
AcDbEntity
  8
0
100
AcDbLine
 62
4
  6
CONTINUOUS
 10
12.8113715848
 20
7.9653080276
 11
12.7803133257
 21
7.9353080513
  0
LINE
  5
2F8
100
AcDbEntity
  8
0
100
AcDbLine
 62
4
  6
CONTINUOUS
 10
12.6529744634
 20
7.8123081285
 11
12.6219162043
 21
7.7823081521
  0
LINE
  5
2F9
100
AcDbEntity
  8
0
100
AcDbLine
 62
4
  6
CONTINUOUS
 10
12.6529744634
 20
7.6881176645
 11
12.6219162043
 21
7.6581176881
  0
LINE
  5
2FA
100
AcDbEntity
  8
0
100
AcDbLine
 62
4
  6
CONTINUOUS
 10
12.7847502196
 20
7.7602075239
 11
12.8069346904
 21
7.7816360785
  0
LINE
  5
2FB
100
AcDbEntity
  8
0
100
AcDbLine
 62
4
  6
CONTINUOUS
 10
12.6529744634
 20
7.6301621127
 11
12.6219162043
 21
7.6001621364
  0
LINE
  5
2FC
100
AcDbEntity
  8
0
100
AcDbLine
 62
4
  6
CONTINUOUS
 10
12.7386065204
 20
8.2013588746
 11
12.7430434148
 21
8.1890858646
  0
LINE
  5
2FD
100
AcDbEntity
  8
0
100
AcDbLine
 62
4
  6
CONTINUOUS
 10
12.6529744634
 20
8.5243334702
 11
12.6507560162
 21
8.5304699476
  0
LINE
  5
2FE
100
AcDbEntity
  8
0
100
AcDbLine
 62
4
  6
CONTINUOUS
 10
12.7847502196
 20
8.179695357
 11
12.7803133257
 21
8.1919683675
  0
LINE
  5
2FF
100
AcDbEntity
  8
0
100
AcDbLine
 62
4
  6
CONTINUOUS
 10
12.7847502196
 20
8.2762879064
 11
12.7803133257
 21
8.2885609169
  0
LINE
  5
300
100
AcDbEntity
  8
0
100
AcDbLine
 62
4
  6
CONTINUOUS
 10
12.8069346904
 20
8.3556720127
 11
12.8113715848
 21
8.3433990026
  0
LINE
  5
301
100
AcDbEntity
  8
0
100
AcDbLine
 62
4
  6
CONTINUOUS
 10
12.8069346904
 20
8.4467450067
 11
12.8113715848
 21
8.4344719967
  0
LINE
  5
302
100
AcDbEntity
  8
0
100
AcDbLine
 62
4
  6
CONTINUOUS
 10
12.6441006747
 20
8.1155927966
 11
12.6418822278
 21
8.1300086624
  0
LINE
  5
303
100
AcDbEntity
  8
0
100
AcDbLine
 62
4
  6
CONTINUOUS
 10
12.7921450427
 20
7.6873165226
 11
12.7980609022
 21
7.6488741927
  0
LINE
  5
304
100
AcDbEntity
  8
0
100
AcDbLine
 62
4
  6
CONTINUOUS
 10
12.7936240073
 20
8.5139217569
 11
12.7936240073
 21
8.4808043146
  0
LINE
  5
305
100
AcDbEntity
  8
0
100
AcDbLine
 62
4
  6
CONTINUOUS
 10
12.7936240073
 20
8.0475175655
 11
12.7936240073
 21
8.0144000955
  0
LINE
  5
306
100
AcDbEntity
  8
0
100
AcDbLine
 62
4
  6
CONTINUOUS
 10
12.802497796
 20
7.8353059191
 11
12.802497796
 21
7.8794625273
  0
LINE
  5
307
100
AcDbEntity
  8
0
100
AcDbLine
 62
4
  6
CONTINUOUS
 10
12.8113715848
 20
8.4344719967
 11
12.8113715848
 21
8.3930751661
  0
LINE
  5
308
100
AcDbEntity
  8
0
100
AcDbLine
 62
4
  6
CONTINUOUS
 10
12.8113715848
 20
8.3433990026
 11
12.8113715848
 21
8.3185608932
  0
LINE
  5
309
100
AcDbEntity
  8
0
100
AcDbLine
 62
4
  6
CONTINUOUS
 10
12.8113715848
 20
8.2550857862
 11
12.8113715848
 21
8.2219683439
  0
LINE
  5
30A
100
AcDbEntity
  8
0
100
AcDbLine
 62
4
  6
CONTINUOUS
 10
12.8113715848
 20
7.7693630615
 11
12.8113715848
 21
7.7279662448
  0
LINE
  5
30B
100
AcDbEntity
  8
0
100
AcDbLine
 62
4
  6
CONTINUOUS
 10
12.8113715848
 20
8.0315429399
 11
12.8113715848
 21
8.0812191311
  0
LINE
  5
30C
100
AcDbEntity
  8
0
100
AcDbLine
 62
4
  6
CONTINUOUS
 10
12.8113715848
 20
8.497947159
 11
12.8113715848
 21
8.5476233224
  0
LINE
  5
30D
100
AcDbEntity
  8
0
100
AcDbLine
 62
4
  6
CONTINUOUS
 10
12.7980609022
 20
7.6488741927
 11
12.8039767611
 21
7.6987450857
  0
LINE
  5
30E
100
AcDbEntity
  8
0
100
AcDbLine
 62
4
  6
CONTINUOUS
 10
12.6441006747
 20
7.4974002265
 11
12.6307899921
 21
7.426587542
  0
LINE
  5
30F
100
AcDbEntity
  8
0
100
AcDbLine
 62
4
  6
CONTINUOUS
 10
12.6219162043
 20
7.4676923083
 11
12.6241346522
 21
7.4781145286
  0
LINE
  5
310
100
AcDbEntity
  8
0
100
AcDbLine
 62
4
  6
CONTINUOUS
 10
12.8113715848
 20
8.3185608932
 11
12.8069346904
 21
8.297716461
  0
LINE
  5
311
100
AcDbEntity
  8
0
100
AcDbLine
 62
4
  6
CONTINUOUS
 10
12.6485375691
 20
7.5348033938
 11
12.6529744634
 21
7.555647833
  0
LINE
  5
312
100
AcDbEntity
  8
0
100
AcDbLine
 62
4
  6
CONTINUOUS
 10
12.8113715848
 20
8.2219683439
 11
12.8069346904
 21
8.2011239116
  0
LINE
  5
313
100
AcDbEntity
  8
0
100
AcDbLine
 62
4
  6
CONTINUOUS
 10
12.6507560162
 20
7.4458732415
 11
12.6529744634
 21
7.4562954619
  0
LINE
  5
314
100
AcDbEntity
  8
0
100
AcDbLine
 62
4
  6
CONTINUOUS
 10
12.7803133257
 20
7.7393630851
 11
12.7847502196
 21
7.7602075239
  0
LINE
  5
315
100
AcDbEntity
  8
0
100
AcDbLine
 62
4
  6
CONTINUOUS
 10
12.7119851557
 20
7.9189843208
 11
12.7430434148
 21
8.0152192163
  0
LINE
  5
316
100
AcDbEntity
  8
0
100
AcDbLine
 62
4
  6
CONTINUOUS
 10
12.6219162043
 20
7.6001621364
 11
12.6529744634
 21
7.6881176645
  0
LINE
  5
317
100
AcDbEntity
  8
0
100
AcDbLine
 62
4
  6
CONTINUOUS
 10
12.7803133257
 20
7.835955669
 11
12.8113715848
 21
7.8990731153
  0
LINE
  5
318
100
AcDbEntity
  8
0
100
AcDbLine
 62
4
  6
CONTINUOUS
 10
12.6485375691
 20
7.5927589455
 11
12.6219162043
 21
7.5670446803
  0
LINE
  5
319
100
AcDbEntity
  8
0
100
AcDbLine
 62
4
  6
CONTINUOUS
 10
12.8113715848
 20
7.7279662448
 11
12.7803133257
 21
7.6979662684
  0
LINE
  5
31A
100
AcDbEntity
  8
0
100
AcDbLine
 62
4
  6
CONTINUOUS
 10
12.6219162043
 20
7.5090891285
 11
12.6485375691
 21
7.5348033938
  0
LINE
  5
31B
100
AcDbEntity
  8
0
100
AcDbLine
 62
4
  6
CONTINUOUS
 10
12.6485375691
 20
7.5016859376
 11
12.6441006747
 21
7.4974002265
  0
LINE
  5
31C
100
AcDbEntity
  8
0
100
AcDbLine
 62
4
  6
CONTINUOUS
 10
12.6307899921
 20
7.426587542
 11
12.6263530982
 21
7.4223018313
  0
LINE
  5
31D
100
AcDbEntity
  8
0
100
AcDbLine
 62
7
  6
CONTINUOUS
 10
8.6960961627
 20
10.5202927647
 11
12.5597996968
 21
10.2523440145
  0
LINE
  5
31E
100
AcDbEntity
  8
0
100
AcDbLine
 62
4
  6
CONTINUOUS
 10
12.7417493296
 20
9.3704051392
 11
12.7391611401
 21
9.375149584
  0
LINE
  5
31F
100
AcDbEntity
  8
0
100
AcDbLine
 62
4
  6
CONTINUOUS
 10
12.7546902706
 20
9.404638461
 11
12.7598666468
 21
9.3951495688
  0
LINE
  5
320
100
AcDbEntity
  8
0
100
AcDbLine
 62
4
  6
CONTINUOUS
 10
12.7469257049
 20
9.4333606858
 11
12.7495138944
 21
9.4286162411
  0
LINE
  5
321
100
AcDbEntity
  8
0
100
AcDbLine
 62
4
  6
CONTINUOUS
 10
12.7391611401
 20
9.375149584
 11
12.7365729525
 21
9.3871384745
  0
LINE
  5
322
100
AcDbEntity
  8
0
100
AcDbLine
 62
4
  6
CONTINUOUS
 10
12.7495138944
 20
9.4286162411
 11
12.7546902706
 21
9.404638461
  0
LINE
  5
323
100
AcDbEntity
  8
0
100
AcDbLine
 62
4
  6
CONTINUOUS
 10
12.7980609022
 20
8.6120402401
 11
12.8039767611
 21
8.5735979132
  0
LINE
  5
324
100
AcDbEntity
  8
0
100
AcDbLine
 62
7
  6
CONTINUOUS
 10
13.3039038373
 20
6.2622047818
 11
13.3039038373
 21
10.9710934639
  0
LINE
  5
325
100
AcDbEntity
  8
0
100
AcDbLine
 62
4
  6
CONTINUOUS
 10
12.7365729525
 20
6.701864411
 11
12.7676312115
 21
6.7680866071
  0
LINE
  5
326
100
AcDbEntity
  8
0
100
AcDbLine
 62
4
  6
CONTINUOUS
 10
12.7365729525
 20
6.8539977342
 11
12.7676312115
 21
6.8839977106
  0
LINE
  5
327
100
AcDbEntity
  8
0
100
AcDbLine
 62
7
  6
CONTINUOUS
 10
9.4402003032
 20
11.2390422141
 11
13.3039038373
 21
10.9710934639
  0
LINE
  5
328
100
AcDbEntity
  8
0
100
AcDbLine
 62
7
  6
CONTINUOUS
 10
11.8372707553
 20
11.3385812246
 11
10.1488323109
 21
11.4556748285
  0
LINE
  5
329
100
AcDbEntity
  8
0
100
AcDbLine
 62
7
  6
CONTINUOUS
 10
12.5597996968
 20
5.5434553324
 11
13.3039038373
 21
6.2622047818
  0
ARC
  5
32A
100
AcDbEntity
  8
0
100
AcDbCircle
 62
7
  6
CONTINUOUS
 10
10.6170448302
 20
9.7255853765
 40
0.6033572007
100
AcDbArc
 50
266.0248350984
 51
271.2224609647
  0
ARC
  5
32B
100
AcDbEntity
  8
0
100
AcDbCircle
 62
7
  6
CONTINUOUS
 10
10.6209418823
 20
9.7322662509
 40
0.5856733084
100
AcDbArc
 50
266.0300722532
 51
270.4872267833
  0
ARC
  5
32C
100
AcDbEntity
  8
0
100
AcDbCircle
 62
7
  6
CONTINUOUS
 10
10.659272574
 20
9.8593281043
 40
0.4983014641
100
AcDbArc
 50
194.4177030607
 51
195.4622840292
  0
ARC
  5
32D
100
AcDbEntity
  8
0
100
AcDbCircle
 62
7
  6
CONTINUOUS
 10
10.6139398622
 20
9.7340245256
 40
0.4848001287
100
AcDbArc
 50
266.0322377403
 51
268.2918313565
  0
SPLINE
  5
32E
100
AcDbEntity
  8
0
100
AcDbSpline
 62
7
  6
CONTINUOUS
 70
0
 71
3
 72
40
 73
36
 74
0
 42
0.0000001
 43
0.0000001
 44
0.0000000001
 40
0.0
 40
0.0
 40
0.0
 40
0.0
 40
0.0311448352
 40
0.0467776712
 40
0.0624478163
 40
0.0938928931
 40
0.1254753683
 40
0.1571831038
 40
0.1890013145
 40
0.2209130644
 40
0.2528995674
 40
0.2849405815
 40
0.3170148072
 40
0.349100303
 40
0.3811749104
 40
0.4132166804
 40
0.4452042987
 40
0.4771175008
 40
0.5089374741
 40
0.5406472387
 40
0.5722320012
 40
0.6036794751
 40
0.6349801612
 40
0.6661275796
 40
0.6971184487
 40
0.7279528012
 40
0.7586340346
 40
0.7891688873
 40
0.8195673392
 40
0.849842433
 40
0.8800100174
 40
0.9100884154
 40
0.9400980228
 40
0.9700608475
 40
1.0
 40
1.0
 40
1.0
 40
1.0
 10
9.0882620601
 20
10.3578665389
 30
0.0
 10
9.0952673798
 20
10.3573807184
 30
0.0
 10
9.1057674112
 20
10.3562667316
 30
0.0
 10
9.1196703991
 20
10.3540280686
 30
0.0
 10
9.1335513084
 20
10.3512796722
 30
0.0
 10
9.1507634269
 20
10.3469026165
 30
0.0
 10
9.1710571794
 20
10.3401841671
 30
0.0
 10
9.1909087882
 20
10.3320291286
 30
0.0
 10
9.2102118169
 20
10.3224812229
 30
0.0
 10
9.2288635821
 20
10.3115914511
 30
0.0
 10
9.2467646572
 20
10.2994179617
 30
0.0
 10
9.2638196769
 20
10.2860257106
 30
0.0
 10
9.2799377622
 20
10.2714861239
 30
0.0
 10
9.2950330207
 20
10.2558767183
 30
0.0
 10
9.3090249935
 20
10.2392806926
 30
0.0
 10
9.3218390814
 20
10.2217864881
 30
0.0
 10
9.3334069388
 20
10.2034873224
 30
0.0
 10
9.3436668347
 20
10.1844806982
 30
0.0
 10
9.3525639821
 20
10.1648678906
 30
0.0
 10
9.3600508279
 20
10.144753413
 30
0.0
 10
9.3660873061
 20
10.1242444675
 30
0.0
 10
9.370641053
 20
10.1034503807
 30
0.0
 10
9.3736875836
 20
10.0824820296
 30
0.0
 10
9.3752104265
 20
10.0614512575
 30
0.0
 10
9.37520122
 20
10.0404702855
 30
0.0
 10
9.3736597654
 20
10.0196511195
 30
0.0
 10
9.3705940396
 20
9.9991049575
 30
0.0
 10
9.3660201665
 20
9.978941598
 30
0.0
 10
9.3599623416
 20
9.9592688507
 30
0.0
 10
9.3524527274
 20
9.9401919657
 30
0.0
 10
9.3435312584
 20
9.9218130268
 30
0.0
 10
9.3332455735
 20
9.9042305275
 30
0.0
 10
9.321650268
 20
9.8875383335
 30
0.0
 10
9.3088084765
 20
9.8718270071
 30
0.0
 10
9.2994579684
 20
9.8620586755
 30
0.0
 10
9.2946027944
 20
9.8573689122
 30
0.0
  0
SPLINE
  5
32F
100
AcDbEntity
  8
0
100
AcDbSpline
 62
7
  6
CONTINUOUS
 70
0
 71
3
 72
40
 73
36
 74
0
 42
0.0000001
 43
0.0000001
 44
0.0000000001
 40
0.0
 40
0.0
 40
0.0
 40
0.0
 40
0.0311448352
 40
0.0467776712
 40
0.0624478163
 40
0.0938928931
 40
0.1254753683
 40
0.1571831038
 40
0.1890013145
 40
0.2209130644
 40
0.2528995674
 40
0.2849405815
 40
0.3170148072
 40
0.349100303
 40
0.3811749104
 40
0.4132166804
 40
0.4452042987
 40
0.4771175008
 40
0.5089374741
 40
0.5406472387
 40
0.5722320012
 40
0.6036794751
 40
0.6349801612
 40
0.6661275796
 40
0.6971184487
 40
0.7279528012
 40
0.7586340346
 40
0.7891688873
 40
0.8195673392
 40
0.849842433
 40
0.8800100174
 40
0.9100884154
 40
0.9400980228
 40
0.9700608475
 40
1.0
 40
1.0
 40
1.0
 40
1.0
 10
10.7786322699
 20
10.2406389667
 30
0.0
 10
10.7856375896
 20
10.2401531461
 30
0.0
 10
10.796137621
 20
10.2390391594
 30
0.0
 10
10.8100406089
 20
10.2368004964
 30
0.0
 10
10.8239215182
 20
10.2340521
 30
0.0
 10
10.8411336367
 20
10.2296750443
 30
0.0
 10
10.8614273892
 20
10.2229565949
 30
0.0
 10
10.881278998
 20
10.2148015564
 30
0.0
 10
10.9005820267
 20
10.2052536507
 30
0.0
 10
10.9192337919
 20
10.1943638789
 30
0.0
 10
10.937134867
 20
10.1821903895
 30
0.0
 10
10.9541898867
 20
10.1687981384
 30
0.0
 10
10.970307972
 20
10.1542585517
 30
0.0
 10
10.9854032305
 20
10.1386491461
 30
0.0
 10
10.9993952033
 20
10.1220531204
 30
0.0
 10
11.0122092912
 20
10.1045589158
 30
0.0
 10
11.0237771486
 20
10.0862597502
 30
0.0
 10
11.0340370445
 20
10.067253126
 30
0.0
 10
11.0429341919
 20
10.0476403184
 30
0.0
 10
11.0504210377
 20
10.0275258408
 30
0.0
 10
11.0564575159
 20
10.0070168952
 30
0.0
 10
11.0610112628
 20
9.9862228085
 30
0.0
 10
11.0640577934
 20
9.9652544574
 30
0.0
 10
11.0655806363
 20
9.9442236853
 30
0.0
 10
11.0655714298
 20
9.9232427133
 30
0.0
 10
11.0640299752
 20
9.9024235473
 30
0.0
 10
11.0609642494
 20
9.8818773853
 30
0.0
 10
11.0563903763
 20
9.8617140258
 30
0.0
 10
11.0503325514
 20
9.8420412785
 30
0.0
 10
11.0428229372
 20
9.8229643935
 30
0.0
 10
11.0339014682
 20
9.8045854546
 30
0.0
 10
11.0236157833
 20
9.7870029553
 30
0.0
 10
11.0120204778
 20
9.7703107613
 30
0.0
 10
10.9991786863
 20
9.7545994349
 30
0.0
 10
10.9898281782
 20
9.7448311033
 30
0.0
 10
10.9849730042
 20
9.74014134
 30
0.0
  0
SPLINE
  5
330
100
AcDbEntity
  8
0
100
AcDbSpline
 62
7
  6
CONTINUOUS
 70
0
 71
3
 72
40
 73
36
 74
0
 42
0.0000001
 43
0.0000001
 44
0.0000000001
 40
0.0
 40
0.0
 40
0.0
 40
0.0
 40
0.0311448352
 40
0.0467776712
 40
0.0624478163
 40
0.0938928931
 40
0.1254753683
 40
0.1571831038
 40
0.1890013145
 40
0.2209130644
 40
0.2528995674
 40
0.2849405815
 40
0.3170148072
 40
0.349100303
 40
0.3811749104
 40
0.4132166804
 40
0.4452042987
 40
0.4771175008
 40
0.5089374741
 40
0.5406472387
 40
0.5722320012
 40
0.6036794751
 40
0.6349801612
 40
0.6661275796
 40
0.6971184487
 40
0.7279528012
 40
0.7586340346
 40
0.7891688873
 40
0.8195673392
 40
0.849842433
 40
0.8800100174
 40
0.9100884154
 40
0.9400980228
 40
0.9700608475
 40
1.0
 40
1.0
 40
1.0
 40
1.0
 10
10.7786322699
 20
8.3087869694
 30
0.0
 10
10.7856375896
 20
8.3083011488
 30
0.0
 10
10.796137621
 20
8.307187162
 30
0.0
 10
10.8100406089
 20
8.3049484991
 30
0.0
 10
10.8239215182
 20
8.3022001026
 30
0.0
 10
10.8411336367
 20
8.2978230469
 30
0.0
 10
10.8614273892
 20
8.2911045976
 30
0.0
 10
10.881278998
 20
8.282949559
 30
0.0
 10
10.9005820267
 20
8.2734016533
 30
0.0
 10
10.9192337919
 20
8.2625118816
 30
0.0
 10
10.937134867
 20
8.2503383921
 30
0.0
 10
10.9541898867
 20
8.2369461411
 30
0.0
 10
10.970307972
 20
8.2224065543
 30
0.0
 10
10.9854032305
 20
8.2067971487
 30
0.0
 10
10.9993952033
 20
8.190201123
 30
0.0
 10
11.0122092912
 20
8.1727069185
 30
0.0
 10
11.0237771486
 20
8.1544077528
 30
0.0
 10
11.0340370445
 20
8.1354011287
 30
0.0
 10
11.0429341919
 20
8.115788321
 30
0.0
 10
11.0504210377
 20
8.0956738435
 30
0.0
 10
11.0564575159
 20
8.0751648979
 30
0.0
 10
11.0610112628
 20
8.0543708112
 30
0.0
 10
11.0640577934
 20
8.03340246
 30
0.0
 10
11.0655806363
 20
8.012371688
 30
0.0
 10
11.0655714298
 20
7.9913907159
 30
0.0
 10
11.0640299752
 20
7.97057155
 30
0.0
 10
11.0609642494
 20
7.9500253879
 30
0.0
 10
11.0563903763
 20
7.9298620284
 30
0.0
 10
11.0503325514
 20
7.9101892812
 30
0.0
 10
11.0428229372
 20
7.8911123962
 30
0.0
 10
11.0339014682
 20
7.8727334573
 30
0.0
 10
11.0236157833
 20
7.8551509579
 30
0.0
 10
11.0120204778
 20
7.838458764
 30
0.0
 10
10.9991786863
 20
7.8227474376
 30
0.0
 10
10.9898281782
 20
7.8129791059
 30
0.0
 10
10.9849730042
 20
7.8082893426
 30
0.0
  0
SPLINE
  5
331
100
AcDbEntity
  8
0
100
AcDbSpline
 62
7
  6
CONTINUOUS
 70
0
 71
3
 72
40
 73
36
 74
0
 42
0.0000001
 43
0.0000001
 44
0.0000000001
 40
0.0
 40
0.0
 40
0.0
 40
0.0
 40
0.0311448352
 40
0.0467776712
 40
0.0624478163
 40
0.0938928931
 40
0.1254753683
 40
0.1571831038
 40
0.1890013145
 40
0.2209130644
 40
0.2528995674
 40
0.2849405815
 40
0.3170148072
 40
0.349100303
 40
0.3811749104
 40
0.4132166804
 40
0.4452042987
 40
0.4771175008
 40
0.5089374741
 40
0.5406472387
 40
0.5722320012
 40
0.6036794751
 40
0.6349801612
 40
0.6661275796
 40
0.6971184487
 40
0.7279528012
 40
0.7586340346
 40
0.7891688873
 40
0.8195673392
 40
0.849842433
 40
0.8800100174
 40
0.9100884154
 40
0.9400980228
 40
0.9700608475
 40
1.0
 40
1.0
 40
1.0
 40
1.0
 10
10.7786322699
 20
6.3769352311
 30
0.0
 10
10.7856375896
 20
6.3764494106
 30
0.0
 10
10.796137621
 20
6.3753354238
 30
0.0
 10
10.8100406089
 20
6.3730967608
 30
0.0
 10
10.8239215182
 20
6.3703483644
 30
0.0
 10
10.8411336367
 20
6.3659713087
 30
0.0
 10
10.8614273892
 20
6.3592528593
 30
0.0
 10
10.881278998
 20
6.3510978208
 30
0.0
 10
10.9005820267
 20
6.3415499151
 30
0.0
 10
10.9192337919
 20
6.3306601433
 30
0.0
 10
10.937134867
 20
6.3184866539
 30
0.0
 10
10.9541898867
 20
6.3050944028
 30
0.0
 10
10.970307972
 20
6.2905548161
 30
0.0
 10
10.9854032305
 20
6.2749454105
 30
0.0
 10
10.9993952033
 20
6.2583493848
 30
0.0
 10
11.0122092912
 20
6.2408551802
 30
0.0
 10
11.0237771486
 20
6.2225560146
 30
0.0
 10
11.0340370445
 20
6.2035493904
 30
0.0
 10
11.0429341919
 20
6.1839365828
 30
0.0
 10
11.0504210377
 20
6.1638221052
 30
0.0
 10
11.0564575159
 20
6.1433131596
 30
0.0
 10
11.0610112628
 20
6.1225190729
 30
0.0
 10
11.0640577934
 20
6.1015507218
 30
0.0
 10
11.0655806363
 20
6.0805199497
 30
0.0
 10
11.0655714298
 20
6.0595389777
 30
0.0
 10
11.0640299752
 20
6.0387198117
 30
0.0
 10
11.0609642494
 20
6.0181736497
 30
0.0
 10
11.0563903763
 20
5.9980102902
 30
0.0
 10
11.0503325514
 20
5.9783375429
 30
0.0
 10
11.0428229372
 20
5.9592606579
 30
0.0
 10
11.0339014682
 20
5.940881719
 30
0.0
 10
11.0236157833
 20
5.9232992197
 30
0.0
 10
11.0120204778
 20
5.9066070257
 30
0.0
 10
10.9991786863
 20
5.8908956993
 30
0.0
 10
10.9898281782
 20
5.8811273677
 30
0.0
 10
10.9849730042
 20
5.8764376044
 30
0.0
  0
SPLINE
  5
332
100
AcDbEntity
  8
0
100
AcDbSpline
 62
7
  6
CONTINUOUS
 70
0
 71
3
 72
40
 73
36
 74
0
 42
0.0000001
 43
0.0000001
 44
0.0000000001
 40
0.0
 40
0.0
 40
0.0
 40
0.0
 40
0.0311448352
 40
0.0467776712
 40
0.0624478163
 40
0.0938928931
 40
0.1254753683
 40
0.1571831038
 40
0.1890013145
 40
0.2209130644
 40
0.2528995674
 40
0.2849405815
 40
0.3170148072
 40
0.349100303
 40
0.3811749104
 40
0.4132166804
 40
0.4452042987
 40
0.4771175008
 40
0.5089374741
 40
0.5406472387
 40
0.5722320012
 40
0.6036794751
 40
0.6349801612
 40
0.6661275796
 40
0.6971184487
 40
0.7279528012
 40
0.7586340346
 40
0.7891688873
 40
0.8195673392
 40
0.849842433
 40
0.8800100174
 40
0.9100884154
 40
0.9400980228
 40
0.9700608475
 40
1.0
 40
1.0
 40
1.0
 40
1.0
 10
9.0882620601
 20
6.4941628033
 30
0.0
 10
9.0952673798
 20
6.4936769828
 30
0.0
 10
9.1057674112
 20
6.492562996
 30
0.0
 10
9.1196703991
 20
6.490324333
 30
0.0
 10
9.1335513084
 20
6.4875759366
 30
0.0
 10
9.1507634269
 20
6.4831988809
 30
0.0
 10
9.1710571794
 20
6.4764804315
 30
0.0
 10
9.1909087882
 20
6.468325393
 30
0.0
 10
9.2102118169
 20
6.4587774873
 30
0.0
 10
9.2288635821
 20
6.4478877155
 30
0.0
 10
9.2467646572
 20
6.4357142261
 30
0.0
 10
9.2638196769
 20
6.422321975
 30
0.0
 10
9.2799377622
 20
6.4077823883
 30
0.0
 10
9.2950330207
 20
6.3921729827
 30
0.0
 10
9.3090249935
 20
6.375576957
 30
0.0
 10
9.3218390814
 20
6.3580827525
 30
0.0
 10
9.3334069388
 20
6.3397835868
 30
0.0
 10
9.3436668347
 20
6.3207769626
 30
0.0
 10
9.3525639821
 20
6.301164155
 30
0.0
 10
9.3600508279
 20
6.2810496774
 30
0.0
 10
9.3660873061
 20
6.2605407319
 30
0.0
 10
9.370641053
 20
6.2397466451
 30
0.0
 10
9.3736875836
 20
6.218778294
 30
0.0
 10
9.3752104265
 20
6.1977475219
 30
0.0
 10
9.37520122
 20
6.1767665499
 30
0.0
 10
9.3736597654
 20
6.155947384
 30
0.0
 10
9.3705940396
 20
6.1354012219
 30
0.0
 10
9.3660201665
 20
6.1152378624
 30
0.0
 10
9.3599623416
 20
6.0955651151
 30
0.0
 10
9.3524527274
 20
6.0764882301
 30
0.0
 10
9.3435312584
 20
6.0581092912
 30
0.0
 10
9.3332455735
 20
6.0405267919
 30
0.0
 10
9.321650268
 20
6.0238345979
 30
0.0
 10
9.3088084765
 20
6.0081232715
 30
0.0
 10
9.2994579684
 20
5.9983549399
 30
0.0
 10
9.2946027944
 20
5.9936651766
 30
0.0
  0
SPLINE
  5
333
100
AcDbEntity
  8
0
100
AcDbSpline
 62
7
  6
CONTINUOUS
 70
0
 71
3
 72
40
 73
36
 74
0
 42
0.0000001
 43
0.0000001
 44
0.0000000001
 40
0.0
 40
0.0
 40
0.0
 40
0.0
 40
0.0311448352
 40
0.0467776712
 40
0.0624478163
 40
0.0938928931
 40
0.1254753683
 40
0.1571831038
 40
0.1890013145
 40
0.2209130644
 40
0.2528995674
 40
0.2849405815
 40
0.3170148072
 40
0.349100303
 40
0.3811749104
 40
0.4132166804
 40
0.4452042987
 40
0.4771175008
 40
0.5089374741
 40
0.5406472387
 40
0.5722320012
 40
0.6036794751
 40
0.6349801612
 40
0.6661275796
 40
0.6971184487
 40
0.7279528012
 40
0.7586340346
 40
0.7891688873
 40
0.8195673392
 40
0.849842433
 40
0.8800100174
 40
0.9100884154
 40
0.9400980228
 40
0.9700608475
 40
1.0
 40
1.0
 40
1.0
 40
1.0
 10
9.0882620601
 20
8.4260145416
 30
0.0
 10
9.0952673798
 20
8.425528721
 30
0.0
 10
9.1057674112
 20
8.4244147343
 30
0.0
 10
9.1196703991
 20
8.4221760713
 30
0.0
 10
9.1335513084
 20
8.4194276748
 30
0.0
 10
9.1507634269
 20
8.4150506192
 30
0.0
 10
9.1710571794
 20
8.4083321698
 30
0.0
 10
9.1909087882
 20
8.4001771312
 30
0.0
 10
9.2102118169
 20
8.3906292255
 30
0.0
 10
9.2288635821
 20
8.3797394538
 30
0.0
 10
9.2467646572
 20
8.3675659644
 30
0.0
 10
9.2638196769
 20
8.3541737133
 30
0.0
 10
9.2799377622
 20
8.3396341265
 30
0.0
 10
9.2950330207
 20
8.3240247209
 30
0.0
 10
9.3090249935
 20
8.3074286952
 30
0.0
 10
9.3218390814
 20
8.2899344907
 30
0.0
 10
9.3334069388
 20
8.2716353251
 30
0.0
 10
9.3436668347
 20
8.2526287009
 30
0.0
 10
9.3525639821
 20
8.2330158933
 30
0.0
 10
9.3600508279
 20
8.2129014157
 30
0.0
 10
9.3660873061
 20
8.1923924701
 30
0.0
 10
9.370641053
 20
8.1715983834
 30
0.0
 10
9.3736875836
 20
8.1506300323
 30
0.0
 10
9.3752104265
 20
8.1295992602
 30
0.0
 10
9.37520122
 20
8.1086182882
 30
0.0
 10
9.3736597654
 20
8.0877991222
 30
0.0
 10
9.3705940396
 20
8.0672529601
 30
0.0
 10
9.3660201665
 20
8.0470896006
 30
0.0
 10
9.3599623416
 20
8.0274168534
 30
0.0
 10
9.3524527274
 20
8.0083399684
 30
0.0
 10
9.3435312584
 20
7.9899610295
 30
0.0
 10
9.3332455735
 20
7.9723785301
 30
0.0
 10
9.321650268
 20
7.9556863362
 30
0.0
 10
9.3088084765
 20
7.9399750098
 30
0.0
 10
9.2994579684
 20
7.9302066782
 30
0.0
 10
9.2946027944
 20
7.9255169148
 30
0.0
  0
SPLINE
  5
334
100
AcDbEntity
  8
0
100
AcDbSpline
 62
7
  6
CONTINUOUS
 70
0
 71
3
 72
47
 73
43
 74
0
 42
0.0000001
 43
0.0000001
 44
0.0000000001
 40
0.0
 40
0.0
 40
0.0
 40
0.0
 40
0.037940295
 40
0.0762766839
 40
0.1149216096
 40
0.1537872553
 40
0.192784775
 40
0.2318251059
 40
0.270819
 40
0.3096773644
 40
0.3483114932
 40
0.3866333348
 40
0.4245557502
 40
0.4619927755
 40
0.4988598868
 40
0.5350742679
 40
0.5705550838
 40
0.6052237615
 40
0.6390042793
 40
0.671823471
 40
0.7036113479
 40
0.7343014464
 40
0.7638312093
 40
0.7921424162
 40
0.8191816784
 40
0.8449010268
 40
0.8572527725
 40
0.869259393
 40
0.8809168044
 40
0.8922213562
 40
0.903170035
 40
0.9137603418
 40
0.9239905302
 40
0.9338594952
 40
0.9433670255
 40
0.9525137373
 40
0.9613013268
 40
0.9697325808
 40
0.9778116236
 40
0.985544033
 40
0.992937086
 40
1.0
 40
1.0
 40
1.0
 40
1.0
 10
12.7933836922
 20
9.3913022227
 30
0.0
 10
12.7933836922
 20
9.4048582612
 30
0.0
 10
12.7935649562
 20
9.4321121798
 30
0.0
 10
12.7943683227
 20
9.4731667841
 30
0.0
 10
12.7957028731
 20
9.5145384048
 30
0.0
 10
12.7975653524
 20
9.556126043
 30
0.0
 10
12.799951253
 20
9.5978284421
 30
0.0
 10
12.8028547572
 20
9.6395439317
 30
0.0
 10
12.8062687935
 20
9.6811708624
 30
0.0
 10
12.8101850325
 20
9.7226077829
 30
0.0
 10
12.8145939169
 20
9.7637537133
 30
0.0
 10
12.8194846803
 20
9.8045083848
 30
0.0
 10
12.8248453752
 20
9.8447724873
 30
0.0
 10
12.8306629013
 20
9.8844479127
 30
0.0
 10
12.8369230365
 20
9.9234379958
 30
0.0
 10
12.843610472
 20
9.9616477525
 30
0.0
 10
12.8507088482
 20
9.9989841135
 30
0.0
 10
12.8582007943
 20
10.0353561548
 30
0.0
 10
12.8660679702
 20
10.0706753237
 30
0.0
 10
12.8742911103
 20
10.1048556606
 30
0.0
 10
12.8828500704
 20
10.1378140136
 30
0.0
 10
12.8917238768
 20
10.1694702595
 30
0.0
 10
12.9008907793
 20
10.19974748
 30
0.0
 10
12.9103283068
 20
10.2285722768
 30
0.0
 10
12.9200133302
 20
10.2558745828
 30
0.0
 10
12.9283794726
 20
10.2775858307
 30
0.0
 10
12.9351912115
 20
10.2941318976
 30
0.0
 10
12.9402782266
 20
10.305952782
 30
0.0
 10
12.9454091992
 20
10.317345534
 30
0.0
 10
12.9505811149
 20
10.3283032375
 30
0.0
 10
12.955790737
 20
10.3388192721
 30
0.0
 10
12.9610349867
 20
10.3488872497
 30
0.0
 10
12.9663105964
 20
10.3585011127
 30
0.0
 10
12.971614457
 20
10.3676550317
 30
0.0
 10
12.9769432891
 20
10.3763435233
 30
0.0
 10
12.9822939612
 20
10.3845613379
 30
0.0
 10
12.9876632122
 20
10.3923035743
 30
0.0
 10
12.993047906
 20
10.3995655846
 30
0.0
 10
12.9984448237
 20
10.4063430371
 30
0.0
 10
13.0038508962
 20
10.4126319399
 30
0.0
 10
13.0092628273
 20
10.4184283559
 30
0.0
 10
13.012955477
 20
10.4220430917
 30
0.0
 10
13.0148027749
 20
10.4237623692
 30
0.0
  0
SPLINE
  5
335
100
AcDbEntity
  8
0
100
AcDbSpline
 62
7
  6
CONTINUOUS
 70
0
 71
3
 72
47
 73
43
 74
0
 42
0.0000001
 43
0.0000001
 44
0.0000000001
 40
0.0
 40
0.0
 40
0.0
 40
0.0
 40
0.037940295
 40
0.0762766839
 40
0.1149216096
 40
0.1537872553
 40
0.192784775
 40
0.2318251059
 40
0.270819
 40
0.3096773644
 40
0.3483114932
 40
0.3866333348
 40
0.4245557502
 40
0.4619927755
 40
0.4988598868
 40
0.5350742679
 40
0.5705550838
 40
0.6052237615
 40
0.6390042793
 40
0.671823471
 40
0.7036113479
 40
0.7343014464
 40
0.7638312093
 40
0.7921424162
 40
0.8191816784
 40
0.8449010268
 40
0.8572527725
 40
0.869259393
 40
0.8809168044
 40
0.8922213562
 40
0.903170035
 40
0.9137603418
 40
0.9239905302
 40
0.9338594952
 40
0.9433670255
 40
0.9525137373
 40
0.9613013268
 40
0.9697325808
 40
0.9778116236
 40
0.985544033
 40
0.992937086
 40
1.0
 40
1.0
 40
1.0
 40
1.0
 10
12.7933836922
 20
6.8557467785
 30
0.0
 10
12.7933836922
 20
6.869302817
 30
0.0
 10
12.7935649562
 20
6.8965567356
 30
0.0
 10
12.7943683227
 20
6.9376113399
 30
0.0
 10
12.7957028731
 20
6.9789829605
 30
0.0
 10
12.7975653524
 20
7.0205705987
 30
0.0
 10
12.799951253
 20
7.0622729979
 30
0.0
 10
12.8028547572
 20
7.1039884875
 30
0.0
 10
12.8062687935
 20
7.1456154182
 30
0.0
 10
12.8101850325
 20
7.1870523386
 30
0.0
 10
12.8145939169
 20
7.2281982691
 30
0.0
 10
12.8194846803
 20
7.2689529406
 30
0.0
 10
12.8248453752
 20
7.309217043
 30
0.0
 10
12.8306629013
 20
7.3488924684
 30
0.0
 10
12.8369230365
 20
7.3878825516
 30
0.0
 10
12.843610472
 20
7.4260923083
 30
0.0
 10
12.8507088482
 20
7.4634286692
 30
0.0
 10
12.8582007943
 20
7.4998007106
 30
0.0
 10
12.8660679702
 20
7.5351198795
 30
0.0
 10
12.8742911103
 20
7.5693002164
 30
0.0
 10
12.8828500704
 20
7.6022585693
 30
0.0
 10
12.8917238768
 20
7.6339148153
 30
0.0
 10
12.9008907793
 20
7.6641920358
 30
0.0
 10
12.9103283068
 20
7.6930168326
 30
0.0
 10
12.9200133302
 20
7.7203191385
 30
0.0
 10
12.9283794726
 20
7.7420303864
 30
0.0
 10
12.9351912115
 20
7.7585764533
 30
0.0
 10
12.9402782266
 20
7.7703973378
 30
0.0
 10
12.9454091992
 20
7.7817900898
 30
0.0
 10
12.9505811149
 20
7.7927477932
 30
0.0
 10
12.955790737
 20
7.8032638278
 30
0.0
 10
12.9610349867
 20
7.8133318054
 30
0.0
 10
12.9663105964
 20
7.8229456685
 30
0.0
 10
12.971614457
 20
7.8320995874
 30
0.0
 10
12.9769432891
 20
7.840788079
 30
0.0
 10
12.9822939612
 20
7.8490058936
 30
0.0
 10
12.9876632122
 20
7.8567481301
 30
0.0
 10
12.993047906
 20
7.8640101403
 30
0.0
 10
12.9984448237
 20
7.8707875929
 30
0.0
 10
13.0038508962
 20
7.8770764957
 30
0.0
 10
13.0092628273
 20
7.8828729117
 30
0.0
 10
13.012955477
 20
7.8864876475
 30
0.0
 10
13.0148027749
 20
7.888206925
 30
0.0
  0
SPLINE
  5
336
100
AcDbEntity
  8
0
100
AcDbSpline
 62
7
  6
CONTINUOUS
 70
0
 71
3
 72
22
 73
18
 74
0
 42
0.0000001
 43
0.0000001
 44
0.0000000001
 40
0.0
 40
0.0
 40
0.0
 40
0.0
 40
0.0916433233
 40
0.1803151452
 40
0.2653905562
 40
0.346397513
 40
0.423032128
 40
0.495147687
 40
0.5627335145
 40
0.6258861971
 40
0.6847811917
 40
0.7396480106
 40
0.790750954
 40
0.8383761675
 40
0.882819741
 40
0.9243815505
 40
1.0
 40
1.0
 40
1.0
 40
1.0
 10
9.9612218821
 20
8.3799208906
 30
0.0
 10
9.9587439301
 20
8.3800927372
 30
0.0
 10
9.9538740224
 20
8.3805205621
 30
0.0
 10
9.9467366628
 20
8.3814293776
 30
0.0
 10
9.9399264289
 20
8.3825808818
 30
0.0
 10
9.933490619
 20
8.3839541841
 30
0.0
 10
9.9274624101
 20
8.3855250287
 30
0.0
 10
9.9218614652
 20
8.3872677814
 30
0.0
 10
9.9166956265
 20
8.389157022
 30
0.0
 10
9.9119632559
 20
8.3911687159
 30
0.0
 10
9.9076557031
 20
8.393280927
 30
0.0
 10
9.9037595659
 20
8.395474131
 30
0.0
 10
9.9002583567
 20
8.3977312605
 30
0.0
 10
9.8971341683
 20
8.400037391
 30
0.0
 10
9.8943680456
 20
8.40238061
 30
0.0
 10
9.8912320336
 20
8.4054421023
 30
0.0
 10
9.8892021455
 20
8.4079068245
 30
0.0
 10
9.8880413635
 20
8.4095959964
 30
0.0
  0
SPLINE
  5
337
100
AcDbEntity
  8
0
100
AcDbSpline
 62
7
  6
CONTINUOUS
 70
0
 71
3
 72
23
 73
19
 74
0
 42
0.0000001
 43
0.0000001
 44
0.0000000001
 40
0.0
 40
0.0
 40
0.0
 40
0.0
 40
0.0621544441
 40
0.1245728165
 40
0.1872170879
 40
0.2500436991
 40
0.3130046786
 40
0.3760488208
 40
0.4391229291
 40
0.5021730917
 40
0.5651459698
 40
0.6279900729
 40
0.6906570048
 40
0.7531026611
 40
0.8152883032
 40
0.8771818641
 40
0.9387575849
 40
1.0
 40
1.0
 40
1.0
 40
1.0
 10
12.1864139158
 20
11.0486029983
 30
0.0
 10
12.183793669
 20
11.0582691785
 30
0.0
 10
12.1777770618
 20
11.0774441842
 30
0.0
 10
12.1665255028
 20
11.1054647595
 30
0.0
 10
12.1530988178
 20
11.1326331775
 30
0.0
 10
12.1375864647
 20
11.158767939
 30
0.0
 10
12.120090765
 20
11.1836973692
 30
0.0
 10
12.1007272617
 20
11.2072569155
 30
0.0
 10
12.079623717
 20
11.2292912641
 30
0.0
 10
12.0569193495
 20
11.2496550837
 30
0.0
 10
12.0327638791
 20
11.2682140186
 30
0.0
 10
12.0073165613
 20
11.2848455493
 30
0.0
 10
11.9807451709
 20
11.2994397932
 30
0.0
 10
11.953224846
 20
11.3119002261
 30
0.0
 10
11.9249372388
 20
11.3221443921
 30
0.0
 10
11.8960683088
 20
11.3301042868
 30
0.0
 10
11.8668109964
 20
11.3357269705
 30
0.0
 10
11.8471151795
 20
11.3378985115
 30
0.0
 10
11.8372707553
 20
11.3385812246
 30
0.0
  0
SPLINE
  5
338
100
AcDbEntity
  8
0
100
AcDbSpline
 62
7
  6
CONTINUOUS
 70
0
 71
3
 72
23
 73
19
 74
0
 42
0.0000001
 43
0.0000001
 44
0.0000000001
 40
0.0
 40
0.0
 40
0.0
 40
0.0
 40
0.0638607871
 40
0.1275035019
 40
0.1909230262
 40
0.2541276227
 40
0.3171224329
 40
0.3799159103
 40
0.442518817
 40
0.5049436704
 40
0.567204993
 40
0.6293190716
 40
0.6913037885
 40
0.753178437
 40
0.8149635222
 40
0.8766805516
 40
0.9383517893
 40
1.0
 40
1.0
 40
1.0
 40
1.0
 10
10.1488323109
 20
11.4556748285
 30
0.0
 10
10.1427859624
 20
11.4560941442
 30
0.0
 10
10.1306908203
 20
11.4566304916
 30
0.0
 10
10.1125637831
 20
11.4565225217
 30
0.0
 10
10.0945270772
 20
11.4555006894
 30
0.0
 10
10.0766270459
 20
11.4535677629
 30
0.0
 10
10.0589083178
 20
11.4507283749
 30
0.0
 10
10.0414156335
 20
11.4469897117
 30
0.0
 10
10.0241930146
 20
11.4423611636
 30
0.0
 10
10.0072838492
 20
11.4368542753
 30
0.0
 10
9.9907307422
 20
11.4304828779
 30
0.0
 10
9.9745753777
 20
11.4232630265
 30
0.0
 10
9.9588584633
 20
11.4152128703
 30
0.0
 10
9.9436196253
 20
11.4063525995
 30
0.0
 10
9.9288972929
 20
11.3967045713
 30
0.0
 10
9.914728424
 20
11.3862929778
 30
0.0
 10
9.9011491987
 20
11.3751445039
 30
0.0
 10
9.8925106233
 20
11.367237948
 30
0.0
 10
9.8883023396
 20
11.3631730797
 30
0.0
  0
SPLINE
  5
339
100
AcDbEntity
  8
0
100
AcDbSpline
 62
7
  6
CONTINUOUS
 70
0
 71
3
 72
21
 73
17
 74
0
 42
0.0000001
 43
0.0000001
 44
0.0000000001
 40
0.0
 40
0.0
 40
0.0
 40
0.0
 40
0.0616532342
 40
0.1233294953
 40
0.1850515501
 40
0.2468416649
 40
0.3087213494
 40
0.3707111104
 40
0.4328302434
 40
0.4950966323
 40
0.5575265657
 40
0.6201345673
 40
0.682933156
 40
0.7459330948
 40
0.8725263949
 40
1.0
 40
1.0
 40
1.0
 40
1.0
 10
8.8819213258
 20
10.2846041909
 30
0.0
 10
8.8852542898
 20
10.2878236044
 30
0.0
 10
8.8920960515
 20
10.2940856711
 30
0.0
 10
8.9028508216
 20
10.3029153693
 30
0.0
 10
8.9140725977
 20
10.3111614527
 30
0.0
 10
8.9257327246
 20
10.3188027866
 30
0.0
 10
8.9378019315
 20
10.3258202102
 30
0.0
 10
8.9502497812
 20
10.3321960162
 30
0.0
 10
8.9630448913
 20
10.3379142136
 30
0.0
 10
8.9761550135
 20
10.3429604276
 30
0.0
 10
8.9895471608
 20
10.3473219432
 30
0.0
 10
9.0031874864
 20
10.3509878021
 30
0.0
 10
9.0170420129
 20
10.3539488751
 30
0.0
 10
9.0357801679
 20
10.3569518005
 30
0.0
 10
9.0595746342
 20
10.3589027086
 30
0.0
 10
9.0787039578
 20
10.3585293956
 30
0.0
 10
9.0882620601
 20
10.3578665389
 30
0.0
  0
SPLINE
  5
33A
100
AcDbEntity
  8
0
100
AcDbSpline
 62
7
  6
CONTINUOUS
 70
0
 71
3
 72
21
 73
17
 74
0
 42
0.0000001
 43
0.0000001
 44
0.0000000001
 40
0.0
 40
0.0
 40
0.0
 40
0.0
 40
0.0616532342
 40
0.1233294953
 40
0.1850515501
 40
0.2468416649
 40
0.3087213494
 40
0.3707111104
 40
0.4328302434
 40
0.4950966323
 40
0.5575265657
 40
0.6201345673
 40
0.682933156
 40
0.7459330948
 40
0.8725263949
 40
1.0
 40
1.0
 40
1.0
 40
1.0
 10
10.5722915356
 20
10.1673766187
 30
0.0
 10
10.5756244997
 20
10.1705960322
 30
0.0
 10
10.5824662613
 20
10.1768580989
 30
0.0
 10
10.5932210314
 20
10.1856877971
 30
0.0
 10
10.6044428075
 20
10.1939338805
 30
0.0
 10
10.6161029344
 20
10.2015752144
 30
0.0
 10
10.6281721413
 20
10.208592638
 30
0.0
 10
10.640619991
 20
10.214968444
 30
0.0
 10
10.6534151011
 20
10.2206866414
 30
0.0
 10
10.6665252233
 20
10.2257328553
 30
0.0
 10
10.6799173706
 20
10.230094371
 30
0.0
 10
10.6935576962
 20
10.2337602299
 30
0.0
 10
10.7074122227
 20
10.2367213029
 30
0.0
 10
10.7261503777
 20
10.2397242283
 30
0.0
 10
10.749944844
 20
10.2416751364
 30
0.0
 10
10.7690741676
 20
10.2413018234
 30
0.0
 10
10.7786322699
 20
10.2406389667
 30
0.0
  0
SPLINE
  5
33B
100
AcDbEntity
  8
0
100
AcDbSpline
 62
7
  6
CONTINUOUS
 70
0
 71
3
 72
21
 73
17
 74
0
 42
0.0000001
 43
0.0000001
 44
0.0000000001
 40
0.0
 40
0.0
 40
0.0
 40
0.0
 40
0.0616532342
 40
0.1233294953
 40
0.1850515501
 40
0.2468416649
 40
0.3087213494
 40
0.3707111104
 40
0.4328302434
 40
0.4950966323
 40
0.5575265657
 40
0.6201345673
 40
0.682933156
 40
0.7459330948
 40
0.8725263949
 40
1.0
 40
1.0
 40
1.0
 40
1.0
 10
10.5722915356
 20
8.2355246213
 30
0.0
 10
10.5756244997
 20
8.2387440349
 30
0.0
 10
10.5824662613
 20
8.2450061015
 30
0.0
 10
10.5932210314
 20
8.2538357997
 30
0.0
 10
10.6044428075
 20
8.2620818832
 30
0.0
 10
10.6161029344
 20
8.2697232171
 30
0.0
 10
10.6281721413
 20
8.2767406407
 30
0.0
 10
10.640619991
 20
8.2831164467
 30
0.0
 10
10.6534151011
 20
8.2888346441
 30
0.0
 10
10.6665252233
 20
8.293880858
 30
0.0
 10
10.6799173706
 20
8.2982423737
 30
0.0
 10
10.6935576962
 20
8.3019082326
 30
0.0
 10
10.7074122227
 20
8.3048693055
 30
0.0
 10
10.7261503777
 20
8.3078722309
 30
0.0
 10
10.749944844
 20
8.3098231391
 30
0.0
 10
10.7690741676
 20
8.309449826
 30
0.0
 10
10.7786322699
 20
8.3087869694
 30
0.0
  0
SPLINE
  5
33C
100
AcDbEntity
  8
0
100
AcDbSpline
 62
7
  6
CONTINUOUS
 70
0
 71
3
 72
21
 73
17
 74
0
 42
0.0000001
 43
0.0000001
 44
0.0000000001
 40
0.0
 40
0.0
 40
0.0
 40
0.0
 40
0.0616532342
 40
0.1233294953
 40
0.1850515501
 40
0.2468416649
 40
0.3087213494
 40
0.3707111104
 40
0.4328302434
 40
0.4950966323
 40
0.5575265657
 40
0.6201345673
 40
0.682933156
 40
0.7459330948
 40
0.8725263949
 40
1.0
 40
1.0
 40
1.0
 40
1.0
 10
10.5722915356
 20
6.3036728831
 30
0.0
 10
10.5756244997
 20
6.3068922966
 30
0.0
 10
10.5824662613
 20
6.3131543633
 30
0.0
 10
10.5932210314
 20
6.3219840615
 30
0.0
 10
10.6044428075
 20
6.3302301449
 30
0.0
 10
10.6161029344
 20
6.3378714788
 30
0.0
 10
10.6281721413
 20
6.3448889024
 30
0.0
 10
10.640619991
 20
6.3512647084
 30
0.0
 10
10.6534151011
 20
6.3569829058
 30
0.0
 10
10.6665252233
 20
6.3620291197
 30
0.0
 10
10.6799173706
 20
6.3663906354
 30
0.0
 10
10.6935576962
 20
6.3700564943
 30
0.0
 10
10.7074122227
 20
6.3730175673
 30
0.0
 10
10.7261503777
 20
6.3760204927
 30
0.0
 10
10.749944844
 20
6.3779714008
 30
0.0
 10
10.7690741676
 20
6.3775980878
 30
0.0
 10
10.7786322699
 20
6.3769352311
 30
0.0
  0
SPLINE
  5
33D
100
AcDbEntity
  8
0
100
AcDbSpline
 62
7
  6
CONTINUOUS
 70
0
 71
3
 72
21
 73
17
 74
0
 42
0.0000001
 43
0.0000001
 44
0.0000000001
 40
0.0
 40
0.0
 40
0.0
 40
0.0
 40
0.0616532342
 40
0.1233294953
 40
0.1850515501
 40
0.2468416649
 40
0.3087213494
 40
0.3707111104
 40
0.4328302434
 40
0.4950966323
 40
0.5575265657
 40
0.6201345673
 40
0.682933156
 40
0.7459330948
 40
0.8725263949
 40
1.0
 40
1.0
 40
1.0
 40
1.0
 10
8.8819213258
 20
6.4209004553
 30
0.0
 10
8.8852542898
 20
6.4241198688
 30
0.0
 10
8.8920960515
 20
6.4303819355
 30
0.0
 10
8.9028508216
 20
6.4392116337
 30
0.0
 10
8.9140725977
 20
6.4474577171
 30
0.0
 10
8.9257327246
 20
6.455099051
 30
0.0
 10
8.9378019315
 20
6.4621164746
 30
0.0
 10
8.9502497812
 20
6.4684922806
 30
0.0
 10
8.9630448913
 20
6.474210478
 30
0.0
 10
8.9761550135
 20
6.479256692
 30
0.0
 10
8.9895471608
 20
6.4836182076
 30
0.0
 10
9.0031874864
 20
6.4872840665
 30
0.0
 10
9.0170420129
 20
6.4902451395
 30
0.0
 10
9.0357801679
 20
6.4932480649
 30
0.0
 10
9.0595746342
 20
6.495198973
 30
0.0
 10
9.0787039578
 20
6.49482566
 30
0.0
 10
9.0882620601
 20
6.4941628033
 30
0.0
  0
SPLINE
  5
33E
100
AcDbEntity
  8
0
100
AcDbSpline
 62
7
  6
CONTINUOUS
 70
0
 71
3
 72
21
 73
17
 74
0
 42
0.0000001
 43
0.0000001
 44
0.0000000001
 40
0.0
 40
0.0
 40
0.0
 40
0.0
 40
0.0616532342
 40
0.1233294953
 40
0.1850515501
 40
0.2468416649
 40
0.3087213494
 40
0.3707111104
 40
0.4328302434
 40
0.4950966323
 40
0.5575265657
 40
0.6201345673
 40
0.682933156
 40
0.7459330948
 40
0.8725263949
 40
1.0
 40
1.0
 40
1.0
 40
1.0
 10
8.8819213258
 20
8.3527521935
 30
0.0
 10
8.8852542898
 20
8.3559716071
 30
0.0
 10
8.8920960515
 20
8.3622336737
 30
0.0
 10
8.9028508216
 20
8.3710633719
 30
0.0
 10
8.9140725977
 20
8.3793094554
 30
0.0
 10
8.9257327246
 20
8.3869507893
 30
0.0
 10
8.9378019315
 20
8.3939682129
 30
0.0
 10
8.9502497812
 20
8.4003440189
 30
0.0
 10
8.9630448913
 20
8.4060622163
 30
0.0
 10
8.9761550135
 20
8.4111084302
 30
0.0
 10
8.9895471608
 20
8.4154699459
 30
0.0
 10
9.0031874864
 20
8.4191358048
 30
0.0
 10
9.0170420129
 20
8.4220968777
 30
0.0
 10
9.0357801679
 20
8.4250998031
 30
0.0
 10
9.0595746342
 20
8.4270507113
 30
0.0
 10
9.0787039578
 20
8.4266773982
 30
0.0
 10
9.0882620601
 20
8.4260145416
 30
0.0
  0
SPLINE
  5
33F
100
AcDbEntity
  8
0
100
AcDbSpline
 62
7
  6
CONTINUOUS
 70
0
 71
3
 72
25
 73
21
 74
0
 42
0.0000001
 43
0.0000001
 44
0.0000000001
 40
0.0
 40
0.0
 40
0.0
 40
0.0
 40
0.0615661117
 40
0.0923604784
 40
0.1231635022
 40
0.1848052961
 40
0.2465220485
 40
0.2774185909
 40
0.3083426082
 40
0.3702785182
 40
0.4323563521
 40
0.4945956229
 40
0.5570140352
 40
0.6196273191
 40
0.6824490938
 40
0.7454906946
 40
0.8087612356
 40
0.8722671143
 40
0.9360130284
 40
1.0
 40
1.0
 40
1.0
 40
1.0
 10
9.3413559107
 20
9.6237670846
 30
0.0
 10
9.3500843035
 20
9.6321980652
 30
0.0
 10
9.3635225564
 20
9.644497049
 30
0.0
 10
9.3820791782
 20
9.6601532549
 30
0.0
 10
9.4010619115
 20
9.675314884
 30
0.0
 10
9.4255622862
 20
9.6933158209
 30
0.0
 10
9.451007806
 20
9.7099875914
 30
0.0
 10
9.4718965918
 20
9.7225067587
 30
0.0
 10
9.4931496784
 20
9.7344851176
 30
0.0
 10
9.5203472084
 20
9.7484112136
 30
0.0
 10
9.5538823481
 20
9.7633921795
 30
0.0
 10
9.5882512453
 20
9.7766148226
 30
0.0
 10
9.623367773
 20
9.7880451822
 30
0.0
 10
9.6591445507
 20
9.7976541149
 30
0.0
 10
9.6954922242
 20
9.8054168244
 30
0.0
 10
9.7323199767
 20
9.8113131293
 30
0.0
 10
9.7695354918
 20
9.8153274192
 30
0.0
 10
9.8070458597
 20
9.8174488544
 30
0.0
 10
9.8447555973
 20
9.8176712859
 30
0.0
 10
9.8699207671
 20
9.8165546128
 30
0.0
 10
9.8825030551
 20
9.8156820281
 30
0.0
  0
SPLINE
  5
340
100
AcDbEntity
  8
0
100
AcDbSpline
 62
7
  6
CONTINUOUS
 70
0
 71
3
 72
49
 73
45
 74
0
 42
0.0000001
 43
0.0000001
 44
0.0000000001
 40
0.0
 40
0.0
 40
0.0
 40
0.0
 40
0.0311359551
 40
0.0624378868
 40
0.0938990371
 40
0.1255088378
 40
0.1572539183
 40
0.1891182446
 40
0.2210834607
 40
0.2531292786
 40
0.2852338794
 40
0.3173743366
 40
0.3495270504
 40
0.3816681928
 40
0.4137741521
 40
0.4458219748
 40
0.4777898056
 40
0.5096573051
 40
0.5414060588
 40
0.5730199552
 40
0.6044855356
 40
0.6357923029
 40
0.6669329931
 40
0.697903773
 40
0.713327847
 40
0.7287096567
 40
0.744049746
 40
0.7593488882
 40
0.7746080809
 40
0.7898285476
 40
0.805011732
 40
0.8201592878
 40
0.8352730763
 40
0.8503551563
 40
0.8654077689
 40
0.8804333299
 40
0.8954344219
 40
0.910413765
 40
0.9253742043
 40
0.9403187562
 40
0.9552504184
 40
0.9701722424
 40
0.9850881084
 40
1.0
 40
1.0
 40
1.0
 40
1.0
 10
9.8825030551
 20
9.8156820281
 30
0.0
 10
9.9009352909
 20
9.8144037482
 30
0.0
 10
9.9378181021
 20
9.8104903686
 30
0.0
 10
9.9927059342
 20
9.8006311095
 30
0.0
 10
10.0470267768
 20
9.786816922
 30
0.0
 10
10.1004851921
 20
9.7691202807
 30
0.0
 10
10.1527949209
 20
9.747634707
 30
0.0
 10
10.2036744075
 20
9.7224741562
 30
0.0
 10
10.2528501017
 20
9.6937727006
 30
0.0
 10
10.3000574903
 20
9.6616836705
 30
0.0
 10
10.3450426046
 20
9.6263787221
 30
0.0
 10
10.3875636102
 20
9.5880471844
 30
0.0
 10
10.4273919311
 20
9.5468947162
 30
0.0
 10
10.4643136136
 20
9.5031423371
 30
0.0
 10
10.4981306009
 20
9.4570252541
 30
0.0
 10
10.5286615606
 20
9.4087913642
 30
0.0
 10
10.5557431756
 20
9.358700111
 30
0.0
 10
10.5792308736
 20
9.3070208993
 30
0.0
 10
10.5989995255
 20
9.254031607
 30
0.0
 10
10.614944417
 20
9.2000170832
 30
0.0
 10
10.6269814574
 20
9.1452676477
 30
0.0
 10
10.6350477372
 20
9.0900766786
 30
0.0
 10
10.6391021599
 20
9.0347421815
 30
0.0
 10
10.6391206273
 20
8.9886866747
 30
0.0
 10
10.63711288
 20
8.9520757175
 30
0.0
 10
10.6346043186
 20
8.9248006269
 30
0.0
 10
10.6310947323
 20
8.8977112735
 30
0.0
 10
10.6265891611
 20
8.8708432979
 30
0.0
 10
10.6210938714
 20
8.8442326147
 30
0.0
 10
10.6146165647
 20
8.8179145761
 30
0.0
 10
10.6071662002
 20
8.7919241478
 30
0.0
 10
10.5987529283
 20
8.7662958371
 30
0.0
 10
10.5893882519
 20
8.7410636098
 30
0.0
 10
10.5790849195
 20
8.7162608617
 30
0.0
 10
10.567856804
 20
8.6919204269
 30
0.0
 10
10.5557190341
 20
8.6680744754
 30
0.0
 10
10.5426879521
 20
8.6447544742
 30
0.0
 10
10.5287809642
 20
8.6219912243
 30
0.0
 10
10.5140166202
 20
8.5998147451
 30
0.0
 10
10.498414615
 20
8.5782542684
 30
0.0
 10
10.4819957563
 20
8.5573382972
 30
0.0
 10
10.4647815342
 20
8.5370940619
 30
0.0
 10
10.4467952903
 20
8.5175490355
 30
0.0
 10
10.4343042401
 20
8.5050006869
 30
0.0
 10
10.4279396117
 20
8.4988529276
 30
0.0
  0
SPLINE
  5
341
100
AcDbEntity
  8
0
100
AcDbSpline
 62
7
  6
CONTINUOUS
 70
0
 71
3
 72
44
 73
40
 74
0
 42
0.0000001
 43
0.0000001
 44
0.0000000001
 40
0.0
 40
0.0
 40
0.0
 40
0.0
 40
0.0072776791
 40
0.014287771
 40
0.0210887291
 40
0.0277360515
 40
0.0342832561
 40
0.0407806364
 40
0.0472747818
 40
0.0538087598
 40
0.0671395796
 40
0.0810501781
 40
0.0882932133
 40
0.0957557811
 40
0.1114099027
 40
0.128147038
 40
0.1460733052
 40
0.1652772041
 40
0.1858389433
 40
0.2078326158
 40
0.2313318863
 40
0.2564113664
 40
0.2831493949
 40
0.3116300534
 40
0.3419435809
 40
0.3741886976
 40
0.4084721562
 40
0.4449091079
 40
0.4836219546
 40
0.5247366701
 40
0.5683763588
 40
0.614648717
 40
0.6636237172
 40
0.7152960139
 40
0.7695269365
 40
0.8259603071
 40
0.8839302291
 40
0.9423975325
 40
1.0
 40
1.0
 40
1.0
 40
1.0
 10
10.1486029439
 20
8.4717095842
 30
0.0
 10
10.1489206623
 20
8.4712479962
 30
0.0
 10
10.1495099706
 20
8.4703173923
 30
0.0
 10
10.1502652945
 20
8.4688779988
 30
0.0
 10
10.1508794086
 20
8.4674253434
 30
0.0
 10
10.1513569131
 20
8.4659597001
 30
0.0
 10
10.1517027615
 20
8.464481577
 30
0.0
 10
10.1519216336
 20
8.4629913971
 30
0.0
 10
10.1520167791
 20
8.4614892842
 30
0.0
 10
10.1519832125
 20
8.4594581599
 30
0.0
 10
10.1516403108
 20
8.4568701301
 30
0.0
 10
10.1509325312
 20
8.4543032932
 30
0.0
 10
10.1501618487
 20
8.4522381021
 30
0.0
 10
10.1492233926
 20
8.4500959145
 30
0.0
 10
10.147772092
 20
8.4473861728
 30
0.0
 10
10.1456442295
 20
8.4441434484
 30
0.0
 10
10.1431053665
 20
8.4408590241
 30
0.0
 10
10.1401563055
 20
8.4375331141
 30
0.0
 10
10.1367935578
 20
8.4341672951
 30
0.0
 10
10.1330117392
 20
8.4307632502
 30
0.0
 10
10.1288022241
 20
8.4273240789
 30
0.0
 10
10.1241539053
 20
8.4238536703
 30
0.0
 10
10.1190529932
 20
8.4203569856
 30
0.0
 10
10.1134825305
 20
8.416841012
 30
0.0
 10
10.1074230876
 20
8.4133138501
 30
0.0
 10
10.1008518329
 20
8.4097866411
 30
0.0
 10
10.0937431113
 20
8.4062732133
 30
0.0
 10
10.0860684827
 20
8.4027910941
 30
0.0
 10
10.0777970191
 20
8.3993629256
 30
0.0
 10
10.0688964385
 20
8.3960176117
 30
0.0
 10
10.0593350607
 20
8.3927920947
 30
0.0
 10
10.0490853299
 20
8.3897336462
 30
0.0
 10
10.0381300519
 20
8.3869024023
 30
0.0
 10
10.0264725934
 20
8.3843738052
 30
0.0
 10
10.0141524911
 20
8.3822399269
 30
0.0
 10
10.0012661921
 20
8.3806074852
 30
0.0
 10
9.9879884483
 20
8.3795895375
 30
0.0
 10
9.9745845083
 20
8.3792878923
 30
0.0
 10
9.9656465126
 20
8.3796140415
 30
0.0
 10
9.9612218821
 20
8.3799208906
 30
0.0
  0
SPLINE
  5
342
100
AcDbEntity
  8
0
100
AcDbSpline
 62
7
  6
CONTINUOUS
 70
0
 71
3
 72
8
 73
4
 74
0
 42
0.0000001
 43
0.0000001
 44
0.0000000001
 40
0.0
 40
0.0
 40
0.0
 40
0.0
 40
1.0
 40
1.0
 40
1.0
 40
1.0
 10
12.9621620472
 20
7.8149108504
 30
0.0
 10
12.9621360234
 20
7.8149126332
 30
0.0
 10
12.9621099997
 20
7.8149144159
 30
0.0
 10
12.9620839759
 20
7.8149161987
 30
0.0
  0
LINE
  5
343
100
AcDbEntity
  8
0
100
AcDbLine
 62
7
  6
CONTINUOUS
 10
12.8594928952
 20
6.3344666785
 11
12.85936288
 21
6.334475879
  0
SPLINE
  5
344
100
AcDbEntity
  8
0
100
AcDbSpline
 62
7
  6
CONTINUOUS
 70
0
 71
3
 72
34
 73
30
 74
0
 42
0.0000001
 43
0.0000001
 44
0.0000000001
 40
0.0
 40
0.0
 40
0.0
 40
0.0
 40
0.0162143269
 40
0.0334273436
 40
0.0516716574
 40
0.0709707408
 40
0.0913402154
 40
0.1127892626
 40
0.1353215282
 40
0.1589358258
 40
0.1836269709
 40
0.2093860903
 40
0.2362011477
 40
0.2640573424
 40
0.2929372112
 40
0.3228210774
 40
0.3536871322
 40
0.385511585
 40
0.4182689609
 40
0.4519320413
 40
0.4864721137
 40
0.5218590723
 40
0.5580613947
 40
0.5950463972
 40
0.6712266109
 40
0.7501173057
 40
0.8314197157
 40
0.9148212275
 40
1.0
 40
1.0
 40
1.0
 40
1.0
 10
12.9015129966
 20
8.7901603252
 30
0.0
 10
12.8994038873
 20
8.7927535739
 30
0.0
 10
12.8952332818
 20
8.7982458671
 30
0.0
 10
12.8892855325
 20
8.8070888295
 30
0.0
 10
12.883468505
 20
8.8167680434
 30
0.0
 10
12.8777882457
 20
8.8272732938
 30
0.0
 10
12.8722501847
 20
8.8385940453
 30
0.0
 10
12.8668599769
 20
8.8507187154
 30
0.0
 10
12.8616231627
 20
8.8636348684
 30
0.0
 10
12.8565451244
 20
8.8773291497
 30
0.0
 10
12.8516312206
 20
8.8917873729
 30
0.0
 10
12.8468865842
 20
8.9069944835
 30
0.0
 10
12.8423162036
 20
8.9229346125
 30
0.0
 10
12.8379249499
 20
8.9395910985
 30
0.0
 10
12.8337174198
 20
8.9569464879
 30
0.0
 10
12.8296980979
 20
8.9749825827
 30
0.0
 10
12.825871249
 20
8.9936804486
 30
0.0
 10
12.8222408968
 20
9.0130204386
 30
0.0
 10
12.8188109344
 20
9.0329822238
 30
0.0
 10
12.8155849707
 20
9.0535448056
 30
0.0
 10
12.8125664251
 20
9.0746865493
 30
0.0
 10
12.8097585362
 20
9.0963851965
 30
0.0
 10
12.8071642099
 20
9.1186179271
 30
0.0
 10
12.8039621659
 20
9.1492442976
 30
0.0
 10
12.8005303235
 20
9.1886919477
 30
0.0
 10
12.7973410724
 20
9.2373200534
 30
0.0
 10
12.7950553295
 20
9.287489193
 30
0.0
 10
12.7936829151
 20
9.3389879676
 30
0.0
 10
12.7933836922
 20
9.373742291
 30
0.0
 10
12.7933836922
 20
9.3913022227
 30
0.0
  0
SPLINE
  5
345
100
AcDbEntity
  8
0
100
AcDbSpline
 62
7
  6
CONTINUOUS
 70
0
 71
3
 72
34
 73
30
 74
0
 42
0.0000001
 43
0.0000001
 44
0.0000000001
 40
0.0
 40
0.0
 40
0.0
 40
0.0
 40
0.0162143269
 40
0.0334273436
 40
0.0516716574
 40
0.0709707408
 40
0.0913402154
 40
0.1127892626
 40
0.1353215282
 40
0.1589358258
 40
0.1836269709
 40
0.2093860903
 40
0.2362011477
 40
0.2640573424
 40
0.2929372112
 40
0.3228210774
 40
0.3536871322
 40
0.385511585
 40
0.4182689609
 40
0.4519320413
 40
0.4864721137
 40
0.5218590723
 40
0.5580613947
 40
0.5950463972
 40
0.6712266109
 40
0.7501173057
 40
0.8314197157
 40
0.9148212275
 40
1.0
 40
1.0
 40
1.0
 40
1.0
 10
12.9015129966
 20
6.2546048809
 30
0.0
 10
12.8994038873
 20
6.2571981297
 30
0.0
 10
12.8952332818
 20
6.2626904229
 30
0.0
 10
12.8892855325
 20
6.2715333853
 30
0.0
 10
12.883468505
 20
6.2812125992
 30
0.0
 10
12.8777882457
 20
6.2917178495
 30
0.0
 10
12.8722501847
 20
6.3030386011
 30
0.0
 10
12.8668599769
 20
6.3151632712
 30
0.0
 10
12.8616231627
 20
6.3280794241
 30
0.0
 10
12.8565451244
 20
6.3417737055
 30
0.0
 10
12.8516312206
 20
6.3562319287
 30
0.0
 10
12.8468865842
 20
6.3714390393
 30
0.0
 10
12.8423162036
 20
6.3873791682
 30
0.0
 10
12.8379249499
 20
6.4040356543
 30
0.0
 10
12.8337174198
 20
6.4213910437
 30
0.0
 10
12.8296980979
 20
6.4394271385
 30
0.0
 10
12.825871249
 20
6.4581250043
 30
0.0
 10
12.8222408968
 20
6.4774649944
 30
0.0
 10
12.8188109344
 20
6.4974267795
 30
0.0
 10
12.8155849707
 20
6.5179893614
 30
0.0
 10
12.8125664251
 20
6.5391311051
 30
0.0
 10
12.8097585362
 20
6.5608297522
 30
0.0
 10
12.8071642099
 20
6.5830624829
 30
0.0
 10
12.8039621659
 20
6.6136888534
 30
0.0
 10
12.8005303235
 20
6.6531365034
 30
0.0
 10
12.7973410724
 20
6.7017646092
 30
0.0
 10
12.7950553295
 20
6.7519337487
 30
0.0
 10
12.7936829151
 20
6.8034325233
 30
0.0
 10
12.7933836922
 20
6.8381868468
 30
0.0
 10
12.7933836922
 20
6.8557467785
 30
0.0
  0
LINE
  5
346
100
AcDbEntity
  8
0
100
AcDbLine
 62
7
  6
CONTINUOUS
 10
12.8594928952
 20
8.8700221228
 11
12.85936288
 21
8.8700313232
  0
SPLINE
  5
347
100
AcDbEntity
  8
0
100
AcDbSpline
 62
7
  6
CONTINUOUS
 70
0
 71
3
 72
8
 73
4
 74
0
 42
0.0000001
 43
0.0000001
 44
0.0000000001
 40
0.0
 40
0.0
 40
0.0
 40
0.0
 40
1.0
 40
1.0
 40
1.0
 40
1.0
 10
12.9621620472
 20
10.3504662947
 30
0.0
 10
12.9621360234
 20
10.3504680774
 30
0.0
 10
12.9621099997
 20
10.3504698602
 30
0.0
 10
12.9620839759
 20
10.3504716429
 30
0.0
  0
SPLINE
  5
348
100
AcDbEntity
  8
0
100
AcDbSpline
 62
7
  6
CONTINUOUS
 70
0
 71
3
 72
11
 73
7
 74
0
 42
0.0000001
 43
0.0000001
 44
0.0000000001
 40
0.0
 40
0.0
 40
0.0
 40
0.0
 40
0.2521556509
 40
0.5028334291
 40
0.7520864208
 40
1.0
 40
1.0
 40
1.0
 40
1.0
 10
9.2663294222
 20
8.0242544409
 30
0.0
 10
9.2744109771
 20
8.0236939831
 30
0.0
 10
9.2905822758
 20
8.0232542115
 30
0.0
 10
9.3147321952
 20
8.0246616612
 30
0.0
 10
9.3385362355
 20
8.0281270993
 30
0.0
 10
9.354104487
 20
8.0318043162
 30
0.0
 10
9.3617673544
 20
8.0339760919
 30
0.0
  0
SPLINE
  5
349
100
AcDbEntity
  8
0
100
AcDbSpline
 62
7
  6
CONTINUOUS
 70
0
 71
3
 72
39
 73
35
 74
0
 42
0.0000001
 43
0.0000001
 44
0.0000000001
 40
0.0
 40
0.0
 40
0.0
 40
0.0
 40
0.0308460029
 40
0.0618156224
 40
0.0929034665
 40
0.1241057483
 40
0.1554153414
 40
0.1868244218
 40
0.2183236741
 40
0.249902671
 40
0.2815499711
 40
0.3132532705
 40
0.3449995658
 40
0.376775316
 40
0.4085666121
 40
0.4403593509
 40
0.4721394125
 40
0.5038928359
 40
0.5356059919
 40
0.5672657527
 40
0.5988596577
 40
0.6303760742
 40
0.6618043536
 40
0.6931349745
 40
0.7243596739
 40
0.7554715661
 40
0.786465246
 40
0.8173368778
 40
0.8480842676
 40
0.878706913
 40
0.9092060285
 40
0.9395845496
 40
0.9698471109
 40
1.0
 40
1.0
 40
1.0
 40
1.0
 10
9.2663294222
 20
8.0242544409
 30
0.0
 10
9.2607131838
 20
8.0246439283
 30
0.0
 10
9.2494783351
 20
8.0257537865
 30
0.0
 10
9.2327204319
 20
8.0283952494
 30
0.0
 10
9.2160777269
 20
8.0320080219
 30
0.0
 10
9.1996082604
 20
8.0365793151
 30
0.0
 10
9.1833682205
 20
8.0420935738
 30
0.0
 10
9.1674134447
 20
8.0485317226
 30
0.0
 10
9.1517986546
 20
8.0558716629
 30
0.0
 10
9.1365774303
 20
8.064088143
 30
0.0
 10
9.1218019872
 20
8.0731529224
 30
0.0
 10
9.1075230137
 20
8.0830348626
 30
0.0
 10
9.0937894962
 20
8.0937000314
 30
0.0
 10
9.0806485541
 20
8.1051118198
 30
0.0
 10
9.0681452826
 20
8.1172310673
 30
0.0
 10
9.0563225852
 20
8.1300161814
 30
0.0
 10
9.0452210259
 20
8.1434232829
 30
0.0
 10
9.0348787041
 20
8.1574063686
 30
0.0
 10
9.0253311232
 20
8.1719174648
 30
0.0
 10
9.0166110701
 20
8.1869067892
 30
0.0
 10
9.008748506
 20
8.2023229212
 30
0.0
 10
9.001770455
 20
8.2181129705
 30
0.0
 10
8.995700896
 20
8.2342227543
 30
0.0
 10
8.9905607049
 20
8.250596994
 30
0.0
 10
8.9863675789
 20
8.2671794992
 30
0.0
 10
8.9831359771
 20
8.283913359
 30
0.0
 10
8.9808770699
 20
8.3007411328
 30
0.0
 10
8.9795986988
 20
8.3176050472
 30
0.0
 10
8.9793053183
 20
8.3344471855
 30
0.0
 10
8.9799980159
 20
8.3512097145
 30
0.0
 10
8.9816744737
 20
8.3678349899
 30
0.0
 10
8.9843290896
 20
8.3842660865
 30
0.0
 10
8.9879525663
 20
8.400445753
 30
0.0
 10
8.991011826
 20
8.4110477119
 30
0.0
 10
8.9926983953
 20
8.4162861269
 30
0.0
  0
SPLINE
  5
34A
100
AcDbEntity
  8
0
100
AcDbSpline
 62
7
  6
CONTINUOUS
 70
0
 71
3
 72
39
 73
35
 74
0
 42
0.0000001
 43
0.0000001
 44
0.0000000001
 40
0.0
 40
0.0
 40
0.0
 40
0.0
 40
0.0310058087
 40
0.0621511473
 40
0.0934296835
 40
0.1248352673
 40
0.1563581737
 40
0.1879873334
 40
0.2197097332
 40
0.2515109076
 40
0.2833751063
 40
0.3152855738
 40
0.3472248176
 40
0.3791748897
 40
0.4111176714
 40
0.4430351598
 40
0.4749097529
 40
0.5067245305
 40
0.5384635275
 40
0.5701119959
 40
0.6016566541
 40
0.6330859181
 40
0.6643901097
 40
0.6955616393
 40
0.7265951593
 40
0.7574876843
 40
0.7882386743
 40
0.8188500776
 40
0.8493263303
 40
0.8796743114
 40
0.9099032488
 40
0.9400245773
 40
0.9700517493
 40
1.0
 40
1.0
 40
1.0
 40
1.0
 10
9.2663294222
 20
8.1150514739
 30
0.0
 10
9.2619918494
 20
8.1153522856
 30
0.0
 10
9.2533144679
 20
8.1162427854
 30
0.0
 10
9.2403875674
 20
8.1184295477
 30
0.0
 10
9.227574204
 20
8.1214610257
 30
0.0
 10
9.2149313214
 20
8.1253236262
 30
0.0
 10
9.2025139993
 20
8.1300004993
 30
0.0
 10
9.1903766745
 20
8.135471025
 30
0.0
 10
9.1785724497
 20
8.1417112276
 30
0.0
 10
9.167152992
 20
8.1486937291
 30
0.0
 10
9.1561682788
 20
8.1563879312
 30
0.0
 10
9.1456663854
 20
8.1647601232
 30
0.0
 10
9.135693272
 20
8.173773633
 30
0.0
 10
9.1262925892
 20
8.183388992
 30
0.0
 10
9.1175054879
 20
8.1935641055
 30
0.0
 10
9.1093704415
 20
8.2042544359
 30
0.0
 10
9.1019230785
 20
8.2154131954
 30
0.0
 10
9.0951960282
 20
8.2269915487
 30
0.0
 10
9.0892187783
 20
8.2389388245
 30
0.0
 10
9.0840175476
 20
8.2512027349
 30
0.0
 10
9.0796151651
 20
8.2637295995
 30
0.0
 10
9.0760309696
 20
8.2764645796
 30
0.0
 10
9.0732807303
 20
8.2893519177
 30
0.0
 10
9.0713765753
 20
8.3023351785
 30
0.0
 10
9.0703269374
 20
8.3153574922
 30
0.0
 10
9.0701365142
 20
8.3283618018
 30
0.0
 10
9.0708062447
 20
8.3412911093
 30
0.0
 10
9.0723333016
 20
8.3540887253
 30
0.0
 10
9.0747110973
 20
8.3666985103
 30
0.0
 10
9.0779293115
 20
8.3790651447
 30
0.0
 10
9.0819738884
 20
8.3911342906
 30
0.0
 10
9.086827284
 20
8.402853136
 30
0.0
 10
9.0924678393
 20
8.414169498
 30
0.0
 10
9.096742421
 20
8.4214221994
 30
0.0
 10
9.0990011303
 20
8.424962766
 30
0.0
  0
SPLINE
  5
34B
100
AcDbEntity
  8
0
100
AcDbSpline
 62
7
  6
CONTINUOUS
 70
0
 71
3
 72
40
 73
36
 74
0
 42
0.0000001
 43
0.0000001
 44
0.0000000001
 40
0.0
 40
0.0
 40
0.0
 40
0.0
 40
0.0311448352
 40
0.0467776712
 40
0.0624478163
 40
0.0938928931
 40
0.1254753683
 40
0.1571831038
 40
0.1890013145
 40
0.2209130644
 40
0.2528995674
 40
0.2849405815
 40
0.3170148072
 40
0.349100303
 40
0.3811749104
 40
0.4132166804
 40
0.4452042987
 40
0.4771175008
 40
0.5089374741
 40
0.5406472387
 40
0.5722320012
 40
0.6036794751
 40
0.6349801612
 40
0.6661275796
 40
0.6971184487
 40
0.7279528012
 40
0.7586340346
 40
0.7891688873
 40
0.8195673392
 40
0.849842433
 40
0.8800100174
 40
0.9100884154
 40
0.9400980228
 40
0.9700608475
 40
1.0
 40
1.0
 40
1.0
 40
1.0
 10
10.7786322699
 20
9.6668789919
 30
0.0
 10
10.7716269502
 20
9.6673648125
 30
0.0
 10
10.7611269188
 20
9.6684787992
 30
0.0
 10
10.7472239309
 20
9.6707174622
 30
0.0
 10
10.7333430216
 20
9.6734658587
 30
0.0
 10
10.7161309031
 20
9.6778429143
 30
0.0
 10
10.6958371506
 20
9.6845613637
 30
0.0
 10
10.6759855418
 20
9.6927164023
 30
0.0
 10
10.6566825131
 20
9.702264308
 30
0.0
 10
10.6380307479
 20
9.7131540797
 30
0.0
 10
10.6201296727
 20
9.7253275691
 30
0.0
 10
10.6030746531
 20
9.7387198202
 30
0.0
 10
10.5869565678
 20
9.753259407
 30
0.0
 10
10.5718613093
 20
9.7688688126
 30
0.0
 10
10.5578693365
 20
9.7854648383
 30
0.0
 10
10.5450552486
 20
9.8029590428
 30
0.0
 10
10.5334873912
 20
9.8212582084
 30
0.0
 10
10.5232274953
 20
9.8402648326
 30
0.0
 10
10.5143303479
 20
9.8598776403
 30
0.0
 10
10.5068435021
 20
9.8799921178
 30
0.0
 10
10.5008070239
 20
9.9005010634
 30
0.0
 10
10.496253277
 20
9.9212951501
 30
0.0
 10
10.4932067464
 20
9.9422635013
 30
0.0
 10
10.4916839035
 20
9.9632942733
 30
0.0
 10
10.49169311
 20
9.9842752453
 30
0.0
 10
10.4932345646
 20
10.0050944113
 30
0.0
 10
10.4963002904
 20
10.0256405734
 30
0.0
 10
10.5008741635
 20
10.0458039329
 30
0.0
 10
10.5069319884
 20
10.0654766801
 30
0.0
 10
10.5144416026
 20
10.0845535651
 30
0.0
 10
10.5233630716
 20
10.102932504
 30
0.0
 10
10.5336487565
 20
10.1205150034
 30
0.0
 10
10.5452440619
 20
10.1372071973
 30
0.0
 10
10.5580858535
 20
10.1529185237
 30
0.0
 10
10.5674363616
 20
10.1626868553
 30
0.0
 10
10.5722915356
 20
10.1673766187
 30
0.0
  0
SPLINE
  5
34C
100
AcDbEntity
  8
0
100
AcDbSpline
 62
7
  6
CONTINUOUS
 70
0
 71
3
 72
48
 73
44
 74
0
 42
0.0000001
 43
0.0000001
 44
0.0000000001
 40
0.0
 40
0.0
 40
0.0
 40
0.0
 40
0.0311434645
 40
0.0624399987
 40
0.0938836188
 40
0.1254646915
 40
0.1571709918
 40
0.1889877704
 40
0.2208980829
 40
0.252883145
 40
0.2849227154
 40
0.3169954955
 40
0.3490795445
 40
0.3811527045
 40
0.4131930278
 40
0.4451792012
 40
0.4770909606
 40
0.5089094951
 40
0.5406178259
 40
0.5722011588
 40
0.6036472094
 40
0.6349464788
 40
0.6660924859
 40
0.6970819508
 40
0.7279149061
 40
0.7432762793
 40
0.758600081
 40
0.7738872587
 40
0.7891389599
 40
0.8043565324
 40
0.8195415168
 40
0.8346956357
 40
0.8498207885
 40
0.8649190422
 40
0.8799926167
 40
0.8950438753
 40
0.9100753128
 40
0.9250895384
 40
0.940089262
 40
0.9550772806
 40
0.9700564593
 40
0.9850297147
 40
1.0
 40
1.0
 40
1.0
 40
1.0
 10
9.8846477612
 20
8.3059559652
 30
0.0
 10
9.8662027181
 20
8.3072351333
 30
0.0
 10
9.8293018808
 20
8.3111498701
 30
0.0
 10
9.7743980154
 20
8.3210111618
 30
0.0
 10
9.7200822153
 20
8.334823878
 30
0.0
 10
9.6666478497
 20
8.3525137798
 30
0.0
 10
9.614378759
 20
8.3739859973
 30
0.0
 10
9.5635537839
 20
8.3991256871
 30
0.0
 10
9.5144436995
 20
8.4277985525
 30
0.0
 10
9.4673101456
 20
8.4598514165
 30
0.0
 10
9.4224042808
 20
8.4951133011
 30
0.0
 10
9.3799653991
 20
8.5333961509
 30
0.0
 10
9.3402195999
 20
8.5744958011
 30
0.0
 10
9.3033787863
 20
8.6181932449
 30
0.0
 10
9.2696393728
 20
8.6642556016
 30
0.0
 10
9.2391812547
 20
8.7124373903
 30
0.0
 10
9.2121670442
 20
8.7624819348
 30
0.0
 10
9.1887409635
 20
8.8141225524
 30
0.0
 10
9.1690281772
 20
8.867084048
 30
0.0
 10
9.1531342713
 20
8.9210841808
 30
0.0
 10
9.1411444034
 20
8.9758351073
 30
0.0
 10
9.1331229979
 20
9.0310447427
 30
0.0
 10
9.1291136028
 20
9.0864191564
 30
0.0
 10
9.1291378333
 20
9.1416608405
 30
0.0
 10
9.132525114
 20
9.1874038618
 30
0.0
 10
9.1372476136
 20
9.2236265268
 30
0.0
 10
9.1417835214
 20
9.2505467176
 30
0.0
 10
9.1473114789
 20
9.2772140071
 30
0.0
 10
9.1538242181
 20
9.3035932328
 30
0.0
 10
9.1613130021
 20
9.3296490386
 30
0.0
 10
9.1697678192
 20
9.3553466611
 30
0.0
 10
9.1791774716
 20
9.3806517321
 30
0.0
 10
9.1895293645
 20
9.4055304555
 30
0.0
 10
9.2008096481
 20
9.4299496066
 30
0.0
 10
9.2130033398
 20
9.4538765216
 30
0.0
 10
9.2260941323
 20
9.4772792374
 30
0.0
 10
9.2400645048
 20
9.5001265069
 30
0.0
 10
9.2548958652
 20
9.5223877557
 30
0.0
 10
9.2705683951
 20
9.5440332472
 30
0.0
 10
9.2870610862
 20
9.5650340625
 30
0.0
 10
9.3043520631
 20
9.5853621958
 30
0.0
 10
9.3224178432
 20
9.6049900954
 30
0.0
 10
9.334963457
 20
9.6175924562
 30
0.0
 10
9.3413559149
 20
9.6237670802
 30
0.0
  0
SPLINE
  5
34D
100
AcDbEntity
  8
0
100
AcDbSpline
 62
7
  6
CONTINUOUS
 70
0
 71
3
 72
21
 73
17
 74
0
 42
0.0000001
 43
0.0000001
 44
0.0000000001
 40
0.0
 40
0.0
 40
0.0
 40
0.0
 40
0.127022667
 40
0.2533990101
 40
0.3163606356
 40
0.3791674048
 40
0.4418234886
 40
0.5043336842
 40
0.5667036318
 40
0.6289397911
 40
0.6910493757
 40
0.7530403387
 40
0.814921315
 40
0.8767015794
 40
0.9383910062
 40
1.0
 40
1.0
 40
1.0
 40
1.0
 10
10.1080496632
 20
8.5217456448
 30
0.0
 10
10.1265104099
 20
8.5204653876
 30
0.0
 10
10.1634448893
 20
8.5192550057
 30
0.0
 10
10.2095385387
 20
8.5211543996
 30
0.0
 10
10.2461055708
 20
8.5247217857
 30
0.0
 10
10.2733136337
 20
8.5284109115
 30
0.0
 10
10.3002982256
 20
8.5331118214
 30
0.0
 10
10.3270232956
 20
8.5388181524
 30
0.0
 10
10.3534526172
 20
8.5455221777
 30
0.0
 10
10.3795504727
 20
8.5532149272
 30
0.0
 10
10.4052815762
 20
8.561885993
 30
0.0
 10
10.4306111684
 20
8.5715236308
 30
0.0
 10
10.4555049443
 20
8.5821148741
 30
0.0
 10
10.4799293676
 20
8.5936454886
 30
0.0
 10
10.5038509807
 20
8.6060995539
 30
0.0
 10
10.5194523325
 20
8.6150127293
 30
0.0
 10
10.5271569163
 20
8.6196167784
 30
0.0
  0
SPLINE
  5
34E
100
AcDbEntity
  8
0
100
AcDbSpline
 62
7
  6
CONTINUOUS
 70
0
 71
3
 72
43
 73
39
 74
0
 42
0.0000001
 43
0.0000001
 44
0.0000000001
 40
0.0
 40
0.0
 40
0.0
 40
0.0
 40
0.0310091444
 40
0.062157145
 40
0.0934395493
 40
0.1248488956
 40
0.1563758924
 40
0.1880092274
 40
0.2197358454
 40
0.2515411714
 40
0.2834093571
 40
0.3153235436
 40
0.3472661359
 40
0.3792190868
 40
0.4111641841
 40
0.4430833403
 40
0.4749588816
 40
0.5067738313
 40
0.538512186
 40
0.5701591794
 40
0.6017015332
 40
0.6331276893
 40
0.6644280186
 40
0.6955950038
 40
0.7266233935
 40
0.7575103235
 40
0.788255398
 40
0.8188607296
 40
0.8341145396
 40
0.8493353549
 40
0.8645241344
 40
0.8796819862
 40
0.9099055255
 40
0.9400220919
 40
0.9550467607
 40
0.970049965
 40
0.9850336858
 40
1.0
 40
1.0
 40
1.0
 40
1.0
 10
10.1080496632
 20
8.5217456448
 30
0.0
 10
10.0912982687
 20
8.5229073579
 30
0.0
 10
10.0577873456
 20
8.5263490654
 30
0.0
 10
10.0078666269
 20
8.5348066295
 30
0.0
 10
9.9583867499
 20
8.5465338281
 30
0.0
 10
9.9095682571
 20
8.5614786739
 30
0.0
 10
9.8616252709
 20
8.5795750876
 30
0.0
 10
9.8147689007
 20
8.6007431769
 30
0.0
 10
9.7692051934
 20
8.6248895467
 30
0.0
 10
9.725134571
 20
8.6519077694
 30
0.0
 10
9.68275087
 20
8.681678841
 30
0.0
 10
9.6422405213
 20
8.7140716913
 30
0.0
 10
9.6037816905
 20
8.7489437127
 30
0.0
 10
9.5675435476
 20
8.7861414464
 30
0.0
 10
9.5336855253
 20
8.8255012405
 30
0.0
 10
9.5023566373
 20
8.86684997
 30
0.0
 10
9.4736947719
 20
8.9100057479
 30
0.0
 10
9.4478261146
 20
8.954778747
 30
0.0
 10
9.4248646209
 20
9.0009720403
 30
0.0
 10
9.4049115189
 20
9.0483824533
 30
0.0
 10
9.3880548429
 20
9.0968014345
 30
0.0
 10
9.3743690037
 20
9.1460159572
 30
0.0
 10
9.3639145238
 20
9.1958094605
 30
0.0
 10
9.3567377642
 20
9.2459628289
 30
0.0
 10
9.3528706909
 20
9.296255167
 30
0.0
 10
9.3523307723
 20
9.3464654109
 30
0.0
 10
9.3551204813
 20
9.3963708779
 30
0.0
 10
9.360216716
 20
9.4375729884
 30
0.0
 10
9.3659433231
 20
9.4701539566
 30
0.0
 10
9.371051541
 20
9.4943526343
 30
0.0
 10
9.3769720321
 20
9.5183120078
 30
0.0
 10
9.3859303369
 20
9.549869621
 30
0.0
 10
9.3991224015
 20
9.5886019621
 30
0.0
 10
9.4149452828
 20
9.6262585211
 30
0.0
 10
9.429122631
 20
9.6555855725
 30
0.0
 10
9.4404965411
 20
9.6771491061
 30
0.0
 10
9.4526059358
 20
9.6982712963
 30
0.0
 10
9.4611653693
 20
9.712051467
 30
0.0
 10
9.4655626094
 20
9.7188591598
 30
0.0
  0
SPLINE
  5
34F
100
AcDbEntity
  8
0
100
AcDbSpline
 62
7
  6
CONTINUOUS
 70
0
 71
3
 72
42
 73
38
 74
0
 42
0.0000001
 43
0.0000001
 44
0.0000000001
 40
0.0
 40
0.0
 40
0.0
 40
0.0
 40
0.0310942582
 40
0.062336118
 40
0.093720251
 40
0.1252378796
 40
0.1568779719
 40
0.1886271638
 40
0.2204700739
 40
0.2523896042
 40
0.2843672613
 40
0.3163835011
 40
0.3484180852
 40
0.3804504459
 40
0.412460055
 40
0.4444267934
 40
0.4763313135
 40
0.5081553952
 40
0.5398822841
 40
0.57149701
 40
0.6029866828
 40
0.6343407588
 40
0.6655512669
 40
0.6966129953
 40
0.7275236344
 40
0.7582838636
 40
0.7888973795
 40
0.8193708652
 40
0.8497138977
 40
0.8799387832
 40
0.9100603305
 40
0.9250902199
 40
0.9401008231
 40
0.9550945574
 40
0.9700739296
 40
0.9850415263
 40
1.0
 40
1.0
 40
1.0
 40
1.0
 10
10.1080496632
 20
8.5671441613
 30
0.0
 10
10.0913248637
 20
8.5683040301
 30
0.0
 10
10.0578661654
 20
8.5718100795
 30
0.0
 10
10.0080599591
 20
8.5805606504
 30
0.0
 10
9.9587501664
 20
8.5927720624
 30
0.0
 10
9.9101847
 20
8.6083832484
 30
0.0
 10
9.8626037826
 20
8.6273163361
 30
0.0
 10
9.8162436949
 20
8.6494769918
 30
0.0
 10
9.7713343601
 20
8.6747549781
 30
0.0
 10
9.7280985964
 20
8.7030246844
 30
0.0
 10
9.686750847
 20
8.7341456363
 30
0.0
 10
9.6474962031
 20
8.7679632826
 30
0.0
 10
9.6105294234
 20
8.8043097833
 30
0.0
 10
9.5760339482
 20
8.8430047856
 30
0.0
 10
9.5441809336
 20
8.8838562666
 30
0.0
 10
9.5151285041
 20
8.9266615672
 30
0.0
 10
9.4890209856
 20
8.9712083749
 30
0.0
 10
9.4659880885
 20
9.0172756985
 30
0.0
 10
9.4461443111
 20
9.0646349951
 30
0.0
 10
9.4295884361
 20
9.1130513139
 30
0.0
 10
9.416403014
 20
9.1622844229
 30
0.0
 10
9.4066538322
 20
9.2120899602
 30
0.0
 10
9.4003897136
 20
9.2622206766
 30
0.0
 10
9.3976422782
 20
9.3124276314
 30
0.0
 10
9.3984256684
 20
9.3624614052
 30
0.0
 10
9.4027364585
 20
9.4120733312
 30
0.0
 10
9.4105537763
 20
9.461016767
 30
0.0
 10
9.4218392566
 20
9.5090481181
 30
0.0
 10
9.4365374688
 20
9.555928762
 30
0.0
 10
9.4545747961
 20
9.601423721
 30
0.0
 10
9.4723306625
 20
9.6380256832
 30
0.0
 10
9.4881035708
 20
9.6663770249
 30
0.0
 10
9.5006967586
 20
9.6871439317
 30
0.0
 10
9.5140448598
 20
9.7074008309
 30
0.0
 10
9.5281316231
 20
9.7271229552
 30
0.0
 10
9.5429391047
 20
9.7462853814
 30
0.0
 10
9.5532822625
 20
9.7586751973
 30
0.0
 10
9.5585667764
 20
9.7647677978
 30
0.0
  0
SPLINE
  5
350
100
AcDbEntity
  8
0
100
AcDbSpline
 62
7
  6
CONTINUOUS
 70
0
 71
3
 72
45
 73
41
 74
0
 42
0.0000001
 43
0.0000001
 44
0.0000000001
 40
0.0
 40
0.0
 40
0.0
 40
0.0
 40
0.0311131956
 40
0.0623760563
 40
0.093783047
 40
0.1253250413
 40
0.1569905747
 40
0.1887657635
 40
0.2206346414
 40
0.2525794795
 40
0.284581128
 40
0.316619382
 40
0.3486733596
 40
0.3807218888
 40
0.4127438981
 40
0.4447188059
 40
0.4766269032
 40
0.5084497258
 40
0.5401704101
 40
0.5717740241
 40
0.6032478719
 40
0.6345817682
 40
0.665768267
 40
0.6968028451
 40
0.727684037
 40
0.7584135112
 40
0.7889960798
 40
0.8194396425
 40
0.8346152087
 40
0.8497603351
 40
0.8648768123
 40
0.879966584
 40
0.8950317432
 40
0.9100745203
 40
0.925097267
 40
0.9401024496
 40
0.955092633
 40
0.970070464
 40
0.985038662
 40
1.0
 40
1.0
 40
1.0
 40
1.0
 10
10.1147739737
 20
8.5881282351
 30
0.0
 10
10.0981625424
 20
8.5892802418
 30
0.0
 10
10.064930408
 20
8.5927789894
 30
0.0
 10
10.0154703769
 20
8.6015424518
 30
0.0
 10
9.9665171524
 20
8.6137894514
 30
0.0
 10
9.9183237225
 20
8.6294570288
 30
0.0
 10
9.8711351214
 20
8.6484648493
 30
0.0
 10
9.8251922167
 20
8.6707155622
 30
0.0
 10
9.7807292149
 20
8.6960953885
 30
0.0
 10
9.7379728711
 20
8.7244746925
 30
0.0
 10
9.6971411733
 20
8.7557085352
 30
0.0
 10
9.6584423002
 20
8.7896374748
 30
0.0
 10
9.622073604
 20
8.8260884166
 30
0.0
 10
9.5882206097
 20
8.8648754602
 30
0.0
 10
9.5570559823
 20
8.9058007614
 30
0.0
 10
9.5287387496
 20
8.9486556281
 30
0.0
 10
9.5034135179
 20
8.993221568
 30
0.0
 10
9.4812096703
 20
9.0392713427
 30
0.0
 10
9.4622406792
 20
9.0865701122
 30
0.0
 10
9.4466036266
 20
9.1348766667
 30
0.0
 10
9.4343787104
 20
9.1839446225
 30
0.0
 10
9.4256286992
 20
9.2335236315
 30
0.0
 10
9.4203986811
 20
9.2833606629
 30
0.0
 10
9.41871589
 20
9.3332013305
 30
0.0
 10
9.4205894444
 20
9.3827909618
 30
0.0
 10
9.4260104291
 20
9.4318766396
 30
0.0
 10
9.4349510761
 20
9.4802057395
 30
0.0
 10
9.445310331
 20
9.5196921781
 30
0.0
 10
9.4553050474
 20
9.5506448466
 30
0.0
 10
9.4636367461
 20
9.5734965975
 30
0.0
 10
9.4728004619
 20
9.595977698
 30
0.0
 10
9.4827846954
 20
9.6180597788
 30
0.0
 10
9.4935765858
 20
9.6397145302
 30
0.0
 10
9.5051623557
 20
9.6609142999
 30
0.0
 10
9.5175272844
 20
9.6816319217
 30
0.0
 10
9.5306554753
 20
9.7018409738
 30
0.0
 10
9.5445301809
 20
9.721515561
 30
0.0
 10
9.5591337865
 20
9.7406305863
 30
0.0
 10
9.5744472126
 20
9.7591613462
 30
0.0
 10
9.5851189721
 20
9.7711126431
 30
0.0
 10
9.5905654733
 20
9.7769819804
 30
0.0
  0
SPLINE
  5
351
100
AcDbEntity
  8
0
100
AcDbSpline
 62
7
  6
CONTINUOUS
 70
0
 71
3
 72
40
 73
36
 74
0
 42
0.0000001
 43
0.0000001
 44
0.0000000001
 40
0.0
 40
0.0
 40
0.0
 40
0.0
 40
0.0310688088
 40
0.0622825121
 40
0.0936360885
 40
0.1251211565
 40
0.1567272546
 40
0.1884416713
 40
0.220249767
 40
0.2521352455
 40
0.284080452
 40
0.3160666889
 40
0.348074546
 40
0.3800842389
 40
0.4120759511
 40
0.4440301776
 40
0.4759280641
 40
0.5077517388
 40
0.5394846307
 40
0.5711117721
 40
0.6026200818
 40
0.6339986191
 40
0.6652388075
 40
0.6963346221
 40
0.7272827396
 40
0.7580826377
 40
0.7887366441
 40
0.8192499325
 40
0.8496304615
 40
0.8798888534
 40
0.9100382109
 40
0.9400938767
 40
0.970073139
 40
0.9850425235
 40
1.0
 40
1.0
 40
1.0
 40
1.0
 10
10.1567076035
 20
8.6286330136
 30
0.0
 10
10.1406205791
 20
8.6297486525
 30
0.0
 10
10.1084380786
 20
8.6331002668
 30
0.0
 10
10.060520515
 20
8.6414261874
 30
0.0
 10
10.0130633834
 20
8.6530227526
 30
0.0
 10
9.9662967419
 20
8.6678340403
 30
0.0
 10
9.9204436693
 20
8.6857888213
 30
0.0
 10
9.8757237428
 20
8.7068008666
 30
0.0
 10
9.8323508259
 20
8.7307693557
 30
0.0
 10
9.7905324029
 20
8.7575793994
 30
0.0
 10
9.7504685136
 20
8.7871025875
 30
0.0
 10
9.7123508031
 20
8.8191975521
 30
0.0
 10
9.6763615948
 20
8.8537106391
 30
0.0
 10
9.6426730697
 20
8.890476689
 30
0.0
 10
9.6114464501
 20
8.9293198082
 30
0.0
 10
9.5828312235
 20
8.9700541883
 30
0.0
 10
9.5569643786
 20
9.0124849537
 30
0.0
 10
9.5339698236
 20
9.0564091394
 30
0.0
 10
9.5139577899
 20
9.1016166384
 30
0.0
 10
9.4970243162
 20
9.1478911943
 30
0.0
 10
9.483250702
 20
9.1950113926
 30
0.0
 10
9.4727031887
 20
9.2427517431
 30
0.0
 10
9.4654326424
 20
9.2908837401
 30
0.0
 10
9.4614743166
 20
9.3391769392
 30
0.0
 10
9.4608475908
 20
9.3874000389
 30
0.0
 10
9.4635558959
 20
9.4353219904
 30
0.0
 10
9.4695867226
 20
9.4827130964
 30
0.0
 10
9.4789116525
 20
9.5293460866
 30
0.0
 10
9.4914864578
 20
9.5749972558
 30
0.0
 10
9.5072511398
 20
9.619447394
 30
0.0
 10
9.5261307375
 20
9.6624834402
 30
0.0
 10
9.5480339143
 20
9.7038972461
 30
0.0
 10
9.5687333319
 20
9.7369131927
 30
0.0
 10
9.5866859251
 20
9.7623066154
 30
0.0
 10
9.5961181438
 20
9.774653388
 30
0.0
 10
9.6009444724
 20
9.7807342391
 30
0.0
  0
SPLINE
  5
352
100
AcDbEntity
  8
0
100
AcDbSpline
 62
7
  6
CONTINUOUS
 70
0
 71
3
 72
39
 73
35
 74
0
 42
0.0000001
 43
0.0000001
 44
0.0000000001
 40
0.0
 40
0.0
 40
0.0
 40
0.0
 40
0.0311218488
 40
0.0623941839
 40
0.0938114003
 40
0.1253642166
 40
0.1570409995
 40
0.1888276526
 40
0.2207079725
 40
0.2526639748
 40
0.2846762449
 40
0.3167243112
 40
0.3487870333
 40
0.3808429973
 40
0.4128709152
 40
0.4448500234
 40
0.4767604727
 40
0.5085837071
 40
0.5403028259
 40
0.5719029225
 40
0.6033713911
 40
0.6346982
 40
0.6658761263
 40
0.6969009381
 40
0.7277715228
 40
0.7584899562
 40
0.7890615096
 40
0.8194945829
 40
0.8498005657
 40
0.8799936292
 40
0.9100904476
 40
0.9401098492
 40
0.9700724103
 40
1.0
 40
1.0
 40
1.0
 40
1.0
 10
10.1687426792
 20
8.6851735582
 30
0.0
 10
10.1531191236
 20
8.6862570555
 30
0.0
 10
10.1218632065
 20
8.6895539015
 30
0.0
 10
10.0753477826
 20
8.6978232558
 30
0.0
 10
10.0293142309
 20
8.7093862583
 30
0.0
 10
9.9840030422
 20
8.724182811
 30
0.0
 10
9.9396471183
 20
8.7421362259
 30
0.0
 10
9.8964753383
 20
8.7631535526
 30
0.0
 10
9.8547101804
 20
8.787126135
 30
0.0
 10
9.8145669518
 20
8.8139301711
 30
0.0
 10
9.7762525778
 20
8.8434273141
 30
0.0
 10
9.7399645284
 20
8.8754653318
 30
0.0
 10
9.7058898673
 20
8.9098789771
 30
0.0
 10
9.6742043081
 20
8.9464908222
 30
0.0
 10
9.6450712741
 20
8.98511212
 30
0.0
 10
9.6186410319
 20
9.0255437566
 30
0.0
 10
9.595049997
 20
9.0675773258
 30
0.0
 10
9.5744200425
 20
9.1109961801
 30
0.0
 10
9.5568577994
 20
9.1555764932
 30
0.0
 10
9.5424541075
 20
9.2010884152
 30
0.0
 10
9.5312836155
 20
9.2472972683
 30
0.0
 10
9.5234043972
 20
9.2939647287
 30
0.0
 10
9.5188575397
 20
9.3408500189
 30
0.0
 10
9.5176669608
 20
9.3877111557
 30
0.0
 10
9.5198393231
 20
9.4343061859
 30
0.0
 10
9.5253639817
 20
9.4803944109
 30
0.0
 10
9.5342128932
 20
9.5257376346
 30
0.0
 10
9.546340821
 20
9.5701014032
 30
0.0
 10
9.561685551
 20
9.6132561856
 30
0.0
 10
9.5801682572
 20
9.6549786413
 30
0.0
 10
9.601693488
 20
9.6950525486
 30
0.0
 10
9.6261507936
 20
9.7332710264
 30
0.0
 10
9.6534113988
 20
9.7694334943
 30
0.0
 10
9.6733726513
 20
9.7920600635
 30
0.0
 10
9.6837634326
 20
9.8029613715
 30
0.0
  0
SPLINE
  5
353
100
AcDbEntity
  8
0
100
AcDbSpline
 62
7
  6
CONTINUOUS
 70
0
 71
3
 72
42
 73
38
 74
0
 42
0.0000001
 43
0.0000001
 44
0.0000000001
 40
0.0
 40
0.0
 40
0.0
 40
0.0
 40
0.0307880151
 40
0.0462275343
 40
0.0616954492
 40
0.0927133064
 40
0.1238401758
 40
0.1550703011
 40
0.1863967697
 40
0.2178115213
 40
0.2493054805
 40
0.2808686594
 40
0.3124902809
 40
0.3441589042
 40
0.3758625583
 40
0.4075888776
 40
0.4393252427
 40
0.4710589212
 40
0.5027772112
 40
0.5344675829
 40
0.5661178204
 40
0.5977161597
 40
0.629251424
 40
0.660713154
 40
0.6920917318
 40
0.7233784982
 40
0.7545658612
 40
0.7856473944
 40
0.8166179242
 40
0.8474736055
 40
0.8628590257
 40
0.8782149304
 40
0.9088349794
 40
0.939337143
 40
0.9545460813
 40
0.9697263897
 40
1.0
 40
1.0
 40
1.0
 40
1.0
 10
10.4802311429
 20
8.9860483278
 30
0.0
 10
10.4681308357
 20
8.9868874869
 30
0.0
 10
10.4499923498
 20
8.9886526247
 30
0.0
 10
10.425916282
 20
8.992002051
 30
0.0
 10
10.4018510885
 20
8.9960247866
 30
0.0
 10
10.3719088374
 20
9.0023009644
 30
0.0
 10
10.336349865
 20
9.0117920378
 30
0.0
 10
10.3012372125
 20
9.0232206047
 30
0.0
 10
10.2666803485
 20
9.0365510195
 30
0.0
 10
10.2327861632
 20
9.0517419146
 30
0.0
 10
10.1996597138
 20
9.0687461231
 30
0.0
 10
10.1674036122
 20
9.087510888
 30
0.0
 10
10.1361177875
 20
9.1079780058
 30
0.0
 10
10.1058991575
 20
9.1300840129
 30
0.0
 10
10.0768413364
 20
9.1537603795
 30
0.0
 10
10.0490343452
 20
9.1789337218
 30
0.0
 10
10.0225643345
 20
9.205526028
 30
0.0
 10
9.9975133199
 20
9.233454899
 30
0.0
 10
9.9739589286
 20
9.2626338021
 30
0.0
 10
9.9519741608
 20
9.2929723374
 30
0.0
 10
9.9316271641
 20
9.3243765167
 30
0.0
 10
9.9129810237
 20
9.3567490523
 30
0.0
 10
9.8960935674
 20
9.3899896562
 30
0.0
 10
9.8810171867
 20
9.4239953504
 30
0.0
 10
9.8677986752
 20
9.4586607772
 30
0.0
 10
9.8564790824
 20
9.493878546
 30
0.0
 10
9.8470935889
 20
9.5295394799
 30
0.0
 10
9.8396713863
 20
9.5655332598
 30
0.0
 10
9.834235623
 20
9.6017476198
 30
0.0
 10
9.8313725004
 20
9.6320479448
 30
0.0
 10
9.8300920666
 20
9.6562838259
 30
0.0
 10
9.8294856378
 20
9.6804530982
 30
0.0
 10
9.8299854824
 20
9.7105951873
 30
0.0
 10
9.8321690493
 20
9.7406044157
 30
0.0
 10
9.8349228439
 20
9.7644378301
 30
0.0
 10
9.8383379131
 20
9.7880938262
 30
0.0
 10
9.841652133
 20
9.8057047159
 30
0.0
 10
9.8441935488
 20
9.8173575136
 30
0.0
  0
SPLINE
  5
354
100
AcDbEntity
  8
0
100
AcDbSpline
 62
7
  6
CONTINUOUS
 70
0
 71
3
 72
40
 73
36
 74
0
 42
0.0000001
 43
0.0000001
 44
0.0000000001
 40
0.0
 40
0.0
 40
0.0
 40
0.0
 40
0.030786493
 40
0.0616893228
 40
0.0927052991
 40
0.1238301364
 40
0.1550581004
 40
0.1863823104
 40
0.2177947408
 40
0.2492863555
 40
0.2808472088
 40
0.3124665678
 40
0.3441330376
 40
0.3758346932
 40
0.4075592148
 40
0.439294027
 40
0.4710264395
 40
0.5027437885
 40
0.5344335789
 40
0.5660836238
 40
0.5976821828
 40
0.6292180959
 40
0.6606809134
 40
0.6920610193
 40
0.7233497476
 40
0.754539491
 40
0.7856237987
 40
0.8165974641
 40
0.8474565994
 40
0.8781986966
 40
0.9088226741
 40
0.9393289056
 40
0.9545399011
 40
0.9697222735
 40
1.0
 40
1.0
 40
1.0
 40
1.0
 10
10.4901750427
 20
9.03276457
 30
0.0
 10
10.4787831256
 20
9.0335546022
 30
0.0
 10
10.4559952303
 20
9.0357711191
 30
0.0
 10
10.4219888985
 20
9.0409764357
 30
0.0
 10
10.3881929846
 20
9.0480528011
 30
0.0
 10
10.3547133179
 20
9.0569780958
 30
0.0
 10
10.321652929
 20
9.0677246936
 30
0.0
 10
10.2891140464
 20
9.0802592716
 30
0.0
 10
10.2571971387
 20
9.0945430312
 30
0.0
 10
10.226000784
 20
9.1105317688
 30
0.0
 10
10.1956213203
 20
9.1281760332
 30
0.0
 10
10.1661525623
 20
9.1474212701
 30
0.0
 10
10.1376855109
 20
9.168207993
 30
0.0
 10
10.1103080748
 20
9.190471966
 30
0.0
 10
10.0841048008
 20
9.2141444009
 30
0.0
 10
10.0591566141
 20
9.2391521693
 30
0.0
 10
10.0355405702
 20
9.2654180269
 30
0.0
 10
10.0133296179
 20
9.2928608508
 30
0.0
 10
9.9925923757
 20
9.3213958888
 30
0.0
 10
9.9733929204
 20
9.3509350193
 30
0.0
 10
9.9557905903
 20
9.3813870217
 30
0.0
 10
9.9398398027
 20
9.4126578567
 30
0.0
 10
9.9255898858
 20
9.4446509539
 30
0.0
 10
9.9130849272
 20
9.4772675086
 30
0.0
 10
9.9023636368
 20
9.5104067839
 30
0.0
 10
9.8934592277
 20
9.5439664212
 30
0.0
 10
9.8863993112
 20
9.5778427479
 30
0.0
 10
9.8812058136
 20
9.6119311164
 30
0.0
 10
9.877894897
 20
9.6461261477
 30
0.0
 10
9.876476941
 20
9.6803223391
 30
0.0
 10
9.8769563828
 20
9.7144133348
 30
0.0
 10
9.8789381244
 20
9.742676452
 30
0.0
 10
9.8814702971
 20
9.7651256045
 30
0.0
 10
9.8846243423
 20
9.7874096514
 30
0.0
 10
9.8876978147
 20
9.8040013983
 30
0.0
 10
9.8900589789
 20
9.8149809501
 30
0.0
  0
SPLINE
  5
355
100
AcDbEntity
  8
0
100
AcDbSpline
 62
7
  6
CONTINUOUS
 70
0
 71
3
 72
39
 73
35
 74
0
 42
0.0000001
 43
0.0000001
 44
0.0000000001
 40
0.0
 40
0.0
 40
0.0
 40
0.0
 40
0.03078211
 40
0.061680148
 40
0.0926908019
 40
0.123809948
 40
0.155031868
 40
0.1863497803
 40
0.2177557447
 40
0.2492408296
 40
0.2807951987
 40
0.3124082358
 40
0.3440686656
 40
0.375764684
 40
0.407484091
 40
0.439214427
 40
0.4709431114
 40
0.5026575821
 40
0.5343454341
 40
0.5659945581
 40
0.5975932759
 40
0.6291304727
 40
0.6605957249
 40
0.6919794222
 40
0.7232728832
 40
0.7544684617
 40
0.7855596451
 40
0.8165411412
 40
0.8474089528
 40
0.8781604398
 40
0.9087943656
 40
0.9393109285
 40
0.9697117759
 40
1.0
 40
1.0
 40
1.0
 40
1.0
 10
10.4958484318
 20
9.0470149508
 30
0.0
 10
10.4846662619
 20
9.0477904369
 30
0.0
 10
10.4622979382
 20
9.0499635351
 30
0.0
 10
10.4289165751
 20
9.0550614654
 30
0.0
 10
10.3957400285
 20
9.0619885346
 30
0.0
 10
10.3628713522
 20
9.0707232261
 30
0.0
 10
10.3304108338
 20
9.0812387613
 30
0.0
 10
10.2984580226
 20
9.0935027862
 30
0.0
 10
10.2671107556
 20
9.1074776639
 30
0.0
 10
10.2364650482
 20
9.1231205021
 30
0.0
 10
10.2066147518
 20
9.1403833226
 30
0.0
 10
10.1776512815
 20
9.1592131931
 30
0.0
 10
10.1496633352
 20
9.1795523945
 30
0.0
 10
10.1227366242
 20
9.2013385955
 30
0.0
 10
10.0969536125
 20
9.2245050431
 30
0.0
 10
10.072393266
 20
9.2489807658
 30
0.0
 10
10.0491308118
 20
9.2746907905
 30
0.0
 10
10.0272375094
 20
9.3015563702
 30
0.0
 10
10.0067804334
 20
9.3294952242
 30
0.0
 10
9.9878222691
 20
9.3584217886
 30
0.0
 10
9.9704211214
 20
9.3882474763
 30
0.0
 10
9.9546303375
 20
9.4188809469
 30
0.0
 10
9.9404983438
 20
9.4502283842
 30
0.0
 10
9.9280684976
 20
9.4821937817
 30
0.0
 10
9.9173789539
 20
9.514679234
 30
0.0
 10
9.9084625484
 20
9.5475852352
 30
0.0
 10
9.9013466962
 20
9.5808109803
 30
0.0
 10
9.8960533075
 20
9.6142546747
 30
0.0
 10
9.8925987157
 20
9.647813832
 30
0.0
 10
9.890993635
 20
9.6813856296
 30
0.0
 10
9.8912430913
 20
9.7148670591
 30
0.0
 10
9.8933465276
 20
9.7481558435
 30
0.0
 10
9.8972973428
 20
9.7811485115
 30
0.0
 10
9.9011625038
 20
9.8029215076
 30
0.0
 10
9.9033990355
 20
9.8137215454
 30
0.0
  0
SPLINE
  5
356
100
AcDbEntity
  8
0
100
AcDbSpline
 62
7
  6
CONTINUOUS
 70
0
 71
3
 72
39
 73
35
 74
0
 42
0.0000001
 43
0.0000001
 44
0.0000000001
 40
0.0
 40
0.0
 40
0.0
 40
0.0
 40
0.0307008712
 40
0.06150843
 40
0.0924193236
 40
0.1234308112
 40
0.1545381742
 40
0.185736147
 40
0.2170184458
 40
0.2483780069
 40
0.2798070144
 40
0.3112969901
 40
0.3428388771
 40
0.3744231287
 40
0.4060397998
 40
0.4376786415
 40
0.4693291975
 40
0.5009809017
 40
0.5326231769
 40
0.564245534
 40
0.5958376706
 40
0.6273895676
 40
0.6588915841
 40
0.69033455
 40
0.7217098546
 40
0.7530095327
 40
0.7842263448
 40
0.8153538535
 40
0.8463864932
 40
0.8773196312
 40
0.9081496234
 40
0.9388738591
 40
0.9694907988
 40
1.0
 40
1.0
 40
1.0
 40
1.0
 10
10.5752176541
 20
9.1236797369
 30
0.0
 10
10.5649543349
 20
9.1243915005
 30
0.0
 10
10.5444244689
 20
9.1263390087
 30
0.0
 10
10.5137664606
 20
9.1308102179
 30
0.0
 10
10.4832668316
 20
9.136825308
 30
0.0
 10
10.4530055397
 20
9.1443683737
 30
0.0
 10
10.4230603072
 20
9.1534200486
 30
0.0
 10
10.3935085764
 20
9.1639568047
 30
0.0
 10
10.3644266009
 20
9.1759514206
 30
0.0
 10
10.3358894647
 20
9.1893728652
 30
0.0
 10
10.3079708317
 20
9.2041864507
 30
0.0
 10
10.2807427637
 20
9.2203538863
 30
0.0
 10
10.2542755386
 20
9.2378333972
 30
0.0
 10
10.2286374704
 20
9.2565798299
 30
0.0
 10
10.2038947339
 20
9.2765447687
 30
0.0
 10
10.180111196
 20
9.2976766596
 30
0.0
 10
10.1573482514
 20
9.319920943
 30
0.0
 10
10.1356646659
 20
9.3432201934
 30
0.0
 10
10.1151164237
 20
9.3675142655
 30
0.0
 10
10.0957565746
 20
9.3927404422
 30
0.0
 10
10.0776351079
 20
9.4188336055
 30
0.0
 10
10.0607988225
 20
9.4457264026
 30
0.0
 10
10.0452912076
 20
9.4733494187
 30
0.0
 10
10.0311523308
 20
9.5016313546
 30
0.0
 10
10.018418735
 20
9.5304992092
 30
0.0
 10
10.007123345
 20
9.5598784668
 30
0.0
 10
9.9972953789
 20
9.5896932859
 30
0.0
 10
9.9889602632
 20
9.6198666947
 30
0.0
 10
9.9821395791
 20
9.6503207846
 30
0.0
 10
9.9768510068
 20
9.6809769422
 30
0.0
 10
9.9731082719
 20
9.7117559263
 30
0.0
 10
9.9709211377
 20
9.7425785322
 30
0.0
 10
9.970295271
 20
9.7733640827
 30
0.0
 10
9.9709212729
 20
9.7938486425
 30
0.0
 10
9.9714956358
 20
9.8040562369
 30
0.0
  0
SPLINE
  5
357
100
AcDbEntity
  8
0
100
AcDbSpline
 62
7
  6
CONTINUOUS
 70
0
 71
3
 72
39
 73
35
 74
0
 42
0.0000001
 43
0.0000001
 44
0.0000000001
 40
0.0
 40
0.0
 40
0.0
 40
0.0
 40
0.0306943322
 40
0.0614945422
 40
0.0923972618
 40
0.1233998684
 40
0.154497724
 40
0.1856856847
 40
0.2169576022
 40
0.2483065646
 40
0.2797249216
 40
0.3112043711
 40
0.3427360404
 40
0.3743105714
 40
0.4059182094
 40
0.4375488939
 40
0.4691923518
 40
0.5008381925
 40
0.532476003
 40
0.5640954449
 40
0.5956863489
 40
0.6272388091
 40
0.6587432747
 40
0.69019064
 40
0.7215723314
 40
0.7528803912
 40
0.7841075574
 40
0.8152473374
 40
0.8462940765
 40
0.8772430189
 40
0.9080903627
 40
0.9388333058
 40
0.9694700839
 40
1.0
 40
1.0
 40
1.0
 40
1.0
 10
10.5803940307
 20
9.1479982508
 30
0.0
 10
10.5705372103
 20
9.1486818236
 30
0.0
 10
10.5508205027
 20
9.1505482079
 30
0.0
 10
10.5213751557
 20
9.1548246795
 30
0.0
 10
10.4920795179
 20
9.160572401
 30
0.0
 10
10.463009196
 20
9.1677763967
 30
0.0
 10
10.434237669
 20
9.1764184737
 30
0.0
 10
10.4058381791
 20
9.1864765177
 30
0.0
 10
10.3778828542
 20
9.197924955
 30
0.0
 10
10.3504427371
 20
9.2107346356
 30
0.0
 10
10.3235875449
 20
9.2248729684
 30
0.0
 10
10.2973855048
 20
9.2403039817
 30
0.0
 10
10.2719031835
 20
9.2569884304
 30
0.0
 10
10.2472053194
 20
9.2748838926
 30
0.0
 10
10.2233546594
 20
9.2939448774
 30
0.0
 10
10.2004118008
 20
9.3141229395
 30
0.0
 10
10.1784350389
 20
9.3353668013
 30
0.0
 10
10.1574802196
 20
9.3576224828
 30
0.0
 10
10.137600587
 20
9.3808334277
 30
0.0
 10
10.1188466579
 20
9.4049406578
 30
0.0
 10
10.1012660951
 20
9.4298829223
 30
0.0
 10
10.0849035869
 20
9.4555968518
 30
0.0
 10
10.0698007346
 20
9.4820171185
 30
0.0
 10
10.0559959467
 20
9.5090766001
 30
0.0
 10
10.0435243436
 20
9.5367065499
 30
0.0
 10
10.0324176596
 20
9.5648367667
 30
0.0
 10
10.0227041592
 20
9.5933957719
 30
0.0
 10
10.0144085767
 20
9.6223109976
 30
0.0
 10
10.0075520506
 20
9.6515089596
 30
0.0
 10
10.0021520716
 20
9.6809154741
 30
0.0
 10
9.998222431
 20
9.7104557273
 30
0.0
 10
9.9957732102
 20
9.7400548987
 30
0.0
 10
9.9948106574
 20
9.7696367355
 30
0.0
 10
9.9951625101
 20
9.7893330652
 30
0.0
 10
9.9955876192
 20
9.7991514359
 30
0.0
  0
SPLINE
  5
358
100
AcDbEntity
  8
0
100
AcDbSpline
 62
7
  6
CONTINUOUS
 70
0
 71
3
 72
37
 73
33
 74
0
 42
0.0000001
 43
0.0000001
 44
0.0000000001
 40
0.0
 40
0.0
 40
0.0
 40
0.0
 40
0.0306764497
 40
0.0614567511
 40
0.0923367847
 40
0.1233147065
 40
0.1543859895
 40
0.185545839
 40
0.2167885206
 40
0.248107546
 40
0.2794957547
 40
0.310945356
 40
0.3424480124
 40
0.3739949141
 40
0.405576862
 40
0.43718435
 40
0.5004201887
 40
0.5636401064
 40
0.5952278428
 40
0.626782383
 40
0.6582944588
 40
0.689755178
 40
0.7211561057
 40
0.75248934
 40
0.7837475843
 40
0.8149242172
 40
0.8460133609
 40
0.8770099414
 40
0.9079097397
 40
0.9387094377
 40
0.969406658
 40
1.0
 40
1.0
 40
1.0
 40
1.0
 10
10.5803940307
 20
9.2503863944
 30
0.0
 10
10.572454454
 20
9.2509370059
 30
0.0
 10
10.5565728122
 20
9.2524308205
 30
0.0
 10
10.5328509315
 20
9.2558331414
 30
0.0
 10
10.5092439455
 20
9.2603930355
 30
0.0
 10
10.4858100437
 20
9.2660990434
 30
0.0
 10
10.4626055906
 20
9.2729375238
 30
0.0
 10
10.4396869363
 20
9.2808917928
 30
0.0
 10
10.4171095511
 20
9.289942545
 30
0.0
 10
10.3949281207
 20
9.3000678084
 30
0.0
 10
10.3731963605
 20
9.3112430243
 30
0.0
 10
10.3519669126
 20
9.323441101
 30
0.0
 10
10.3312911698
 20
9.3366325171
 30
0.0
 10
10.3112193075
 20
9.3507851638
 30
0.0
 10
10.2917994963
 20
9.3658651806
 30
0.0
 10
10.2668390301
 20
9.387158847
 30
0.0
 10
10.2375050881
 20
9.4159024729
 30
0.0
 10
10.2109352806
 20
9.4472123227
 30
0.0
 10
10.1914921633
 20
9.4736194884
 30
0.0
 10
10.177853785
 20
9.4940519678
 30
0.0
 10
10.1651911886
 20
9.515064117
 30
0.0
 10
10.1535346365
 20
9.5366054975
 30
0.0
 10
10.1429124855
 20
9.5586238149
 30
0.0
 10
10.1333504626
 20
9.5810657794
 30
0.0
 10
10.1248717805
 20
9.6038770353
 30
0.0
 10
10.1174970303
 20
9.6270023417
 30
0.0
 10
10.1112440955
 20
9.6503856724
 30
0.0
 10
10.1061281581
 20
9.6739703992
 30
0.0
 10
10.1021616591
 20
9.6976993335
 30
0.0
 10
10.0993542752
 20
9.7215151932
 30
0.0
 10
10.0977128704
 20
9.7453595068
 30
0.0
 10
10.0973980858
 20
9.7612650796
 30
0.0
 10
10.09743687
 20
9.7692020698
 30
0.0
  0
SPLINE
  5
359
100
AcDbEntity
  8
0
100
AcDbSpline
 62
7
  6
CONTINUOUS
 70
0
 71
3
 72
71
 73
67
 74
0
 42
0.0000001
 43
0.0000001
 44
0.0000000001
 40
0.0
 40
0.0
 40
0.0
 40
0.0
 40
0.0156748151
 40
0.0314021683
 40
0.0471806527
 40
0.0630088925
 40
0.0788847435
 40
0.0948057525
 40
0.1107690082
 40
0.1267712317
 40
0.1428087898
 40
0.1588777349
 40
0.1749738408
 40
0.1910926419
 40
0.2072294728
 40
0.2233795108
 40
0.2395378179
 40
0.2556993839
 40
0.2718591707
 40
0.2880121552
 40
0.3041533738
 40
0.3202779654
 40
0.3363812142
 40
0.3524585916
 40
0.3685057968
 40
0.3845187964
 40
0.4004938615
 40
0.4164276036
 40
0.4323170071
 40
0.4481594601
 40
0.4639527817
 40
0.4796952458
 40
0.4953856017
 40
0.5110230907
 40
0.5266074578
 40
0.5421389599
 40
0.5576183682
 40
0.5730469661
 40
0.5884265413
 40
0.6037593729
 40
0.6190482133
 40
0.6342962638
 40
0.6495071459
 40
0.664684867
 40
0.6798337808
 40
0.6949585442
 40
0.7100640695
 40
0.7251554734
 40
0.7402380231
 40
0.7553170805
 40
0.7703980447
 40
0.7854862945
 40
0.8005871309
 40
0.8157057206
 40
0.8308470413
 40
0.8460158301
 40
0.8612165346
 40
0.8764532681
 40
0.8917297695
 40
0.907049366
 40
0.9224149479
 40
0.9378289242
 40
0.9532932634
 40
0.9688093037
 40
0.9843781796
 40
1.0
 40
1.0
 40
1.0
 40
1.0
 10
9.8789743721
 20
8.2917055845
 30
0.0
 10
9.866451587
 20
8.2925740426
 30
0.0
 10
9.8414024003
 20
8.2949281769
 30
0.0
 10
9.8039863866
 20
8.3002860273
 30
0.0
 10
9.766750578
 20
8.3074639317
 30
0.0
 10
9.7297859325
 20
8.3164442825
 30
0.0
 10
9.6931810254
 20
8.3272055244
 30
0.0
 10
9.6570241039
 20
8.3397216065
 30
0.0
 10
9.6214021661
 20
8.3539623668
 30
0.0
 10
9.5864009636
 20
8.369893453
 30
0.0
 10
9.5521047381
 20
8.3874764701
 30
0.0
 10
9.5185960349
 20
8.4066690476
 30
0.0
 10
9.4859555023
 20
8.4274249511
 30
0.0
 10
9.4542616983
 20
8.4496941879
 30
0.0
 10
9.4235909001
 20
8.4734231267
 30
0.0
 10
9.3940169246
 20
8.4985546304
 30
0.0
 10
9.3656109508
 20
8.5250281921
 30
0.0
 10
9.33844135
 20
8.5527800807
 30
0.0
 10
9.3125735217
 20
8.5817434933
 30
0.0
 10
9.2880697372
 20
8.6118487153
 30
0.0
 10
9.2649889903
 20
8.6430232874
 30
0.0
 10
9.243386856
 20
8.6751921788
 30
0.0
 10
9.2233153572
 20
8.7082779671
 30
0.0
 10
9.2048228403
 20
8.7422010235
 30
0.0
 10
9.187953855
 20
8.7768797019
 30
0.0
 10
9.1727490487
 20
8.812230535
 30
0.0
 10
9.1592450709
 20
8.848168436
 30
0.0
 10
9.1474744847
 20
8.8846069015
 30
0.0
 10
9.1374656879
 20
8.9214582184
 30
0.0
 10
9.1292428447
 20
8.9586336735
 30
0.0
 10
9.1228258265
 20
8.9960437659
 30
0.0
 10
9.1182301637
 20
9.0335984207
 30
0.0
 10
9.1154670067
 20
9.0712072049
 30
0.0
 10
9.1145430981
 20
9.1087795434
 30
0.0
 10
9.1154607547
 20
9.1462249366
 30
0.0
 10
9.118217855
 20
9.1834531775
 30
0.0
 10
9.1228078472
 20
9.2203745688
 30
0.0
 10
9.1292197634
 20
9.2569001389
 30
0.0
 10
9.1374382437
 20
9.2929418555
 30
0.0
 10
9.1474435705
 20
9.3284128379
 30
0.0
 10
9.1592117142
 20
9.3632275676
 30
0.0
 10
9.1727143883
 20
9.3973020947
 30
0.0
 10
9.1879191158
 20
9.430554242
 30
0.0
 10
9.2047893053
 20
9.4629038051
 30
0.0
 10
9.2232843381
 20
9.4942727471
 30
0.0
 10
9.2433596628
 20
9.5245853915
 30
0.0
 10
9.2649669007
 20
9.5537686082
 30
0.0
 10
9.2880539665
 20
9.5817519909
 30
0.0
 10
9.3125651938
 20
9.6084680297
 30
0.0
 10
9.3384414707
 20
9.633852276
 30
0.0
 10
9.3656203833
 20
9.6578435008
 30
0.0
 10
9.3940363687
 20
9.680383844
 30
0.0
 10
9.423620875
 20
9.7014189555
 30
0.0
 10
9.4543025292
 20
9.7208981275
 30
0.0
 10
9.4860073121
 20
9.7387744169
 30
0.0
 10
9.5186587396
 20
9.7550047584
 30
0.0
 10
9.5521780479
 20
9.769550072
 30
0.0
 10
9.5864843875
 20
9.7823753549
 30
0.0
 10
9.6214950208
 20
9.7934497598
 30
0.0
 10
9.6571255275
 20
9.8027466761
 30
0.0
 10
9.6932899924
 20
9.8102437686
 30
0.0
 10
9.7299012773
 20
9.8159230861
 30
0.0
 10
9.7668710093
 20
9.8197709782
 30
0.0
 10
9.8041105241
 20
9.8217783512
 30
0.0
 10
9.8415287924
 20
9.8219403947
 30
0.0
 10
9.8664939251
 20
9.820819803
 30
0.0
 10
9.8789743721
 20
9.819954281
 30
0.0
  0
SPLINE
  5
35A
100
AcDbEntity
  8
0
100
AcDbSpline
 62
7
  6
CONTINUOUS
 70
0
 71
3
 72
23
 73
19
 74
0
 42
0.0000001
 43
0.0000001
 44
0.0000000001
 40
0.0
 40
0.0
 40
0.0
 40
0.0
 40
0.1094803412
 40
0.2129678885
 40
0.3091451545
 40
0.3974139641
 40
0.4777807471
 40
0.5506395376
 40
0.6165839144
 40
0.6762784971
 40
0.7303873735
 40
0.7795380333
 40
0.8243123833
 40
0.8652472704
 40
0.9028340673
 40
0.9375372271
 40
0.9697867858
 40
1.0
 40
1.0
 40
1.0
 40
1.0
 10
10.0800248025
 20
8.4946757064
 30
0.0
 10
10.0827266024
 20
8.4944883359
 30
0.0
 10
10.0879776221
 20
8.494050686
 30
0.0
 10
10.0955770749
 20
8.493183663
 30
0.0
 10
10.1026252173
 20
8.4921455902
 30
0.0
 10
10.1090702352
 20
8.4909648528
 30
0.0
 10
10.1149034537
 20
8.4896685945
 30
0.0
 10
10.1201459807
 20
8.4882799152
 30
0.0
 10
10.1248351678
 20
8.4868171593
 30
0.0
 10
10.1290146924
 20
8.4852942963
 30
0.0
 10
10.1327285109
 20
8.4837217975
 30
0.0
 10
10.1360176788
 20
8.4821072029
 30
0.0
 10
10.1389191548
 20
8.4804560945
 30
0.0
 10
10.1414656415
 20
8.4787728123
 30
0.0
 10
10.1436850522
 20
8.4770597824
 30
0.0
 10
10.1456023295
 20
8.4753198107
 30
0.0
 10
10.1472375356
 20
8.4735539297
 30
0.0
 10
10.1481791765
 20
8.4723252424
 30
0.0
 10
10.1486029439
 20
8.4717095842
 30
0.0
  0
SPLINE
  5
35B
100
AcDbEntity
  8
0
100
AcDbSpline
 62
7
  6
CONTINUOUS
 70
0
 71
3
 72
25
 73
21
 74
0
 42
0.0000001
 43
0.0000001
 44
0.0000000001
 40
0.0
 40
0.0
 40
0.0
 40
0.0
 40
0.0638614196
 40
0.1275014676
 40
0.1909210395
 40
0.2541248474
 40
0.3171188835
 40
0.3799117246
 40
0.4425139164
 40
0.5049380763
 40
0.5671987132
 40
0.629312106
 40
0.6912961344
 40
0.7222483686
 40
0.7531756041
 40
0.8149600085
 40
0.876676358
 40
0.9075187246
 40
0.9383524739
 40
1.0
 40
1.0
 40
1.0
 40
1.0
 10
9.8846477612
 20
8.3059559652
 30
0.0
 10
9.8972566781
 20
8.3050815338
 30
0.0
 10
9.922478956
 20
8.3039629666
 30
0.0
 10
9.9602798955
 20
8.304188295
 30
0.0
 10
9.9978921873
 20
8.3063190448
 30
0.0
 10
10.0352198285
 20
8.310349926
 30
0.0
 10
10.0721692672
 20
8.3162709565
 30
0.0
 10
10.1086473434
 20
8.3240672868
 30
0.0
 10
10.1445622442
 20
8.333719415
 30
0.0
 10
10.1798234602
 20
8.345203096
 30
0.0
 10
10.214342322
 20
8.3584895909
 30
0.0
 10
10.2480312869
 20
8.3735451842
 30
0.0
 10
10.2753578349
 20
8.3875418768
 30
0.0
 10
10.2967148039
 20
8.3995821101
 30
0.0
 10
10.3177091061
 20
8.4121675384
 30
0.0
 10
10.3432856835
 20
8.4289285669
 30
0.0
 10
10.3679139126
 20
8.4470260133
 30
0.0
 10
10.3869971656
 20
8.4622694829
 30
0.0
 10
10.4056533455
 20
8.4780106988
 30
0.0
 10
10.4191639447
 20
8.490376315
 30
0.0
 10
10.4279396074
 20
8.498852932
 30
0.0
  0
SPLINE
  5
35C
100
AcDbEntity
  8
0
100
AcDbSpline
 62
7
  6
CONTINUOUS
 70
0
 71
3
 72
40
 73
36
 74
0
 42
0.0000001
 43
0.0000001
 44
0.0000000001
 40
0.0
 40
0.0
 40
0.0
 40
0.0
 40
0.0311448352
 40
0.0467776712
 40
0.0624478163
 40
0.0938928931
 40
0.1254753683
 40
0.1571831038
 40
0.1890013145
 40
0.2209130644
 40
0.2528995674
 40
0.2849405815
 40
0.3170148072
 40
0.349100303
 40
0.3811749104
 40
0.4132166804
 40
0.4452042987
 40
0.4771175008
 40
0.5089374741
 40
0.5406472387
 40
0.5722320012
 40
0.6036794751
 40
0.6349801612
 40
0.6661275796
 40
0.6971184487
 40
0.7279528012
 40
0.7586340346
 40
0.7891688873
 40
0.8195673392
 40
0.849842433
 40
0.8800100174
 40
0.9100884154
 40
0.9400980228
 40
0.9700608475
 40
1.0
 40
1.0
 40
1.0
 40
1.0
 10
9.0882620601
 20
7.8522545668
 30
0.0
 10
9.0812567404
 20
7.8527403874
 30
0.0
 10
9.070756709
 20
7.8538543741
 30
0.0
 10
9.0568537211
 20
7.8560930371
 30
0.0
 10
9.0429728118
 20
7.8588414335
 30
0.0
 10
9.0257606933
 20
7.8632184892
 30
0.0
 10
9.0054669407
 20
7.8699369386
 30
0.0
 10
8.985615332
 20
7.8780919771
 30
0.0
 10
8.9663123033
 20
7.8876398828
 30
0.0
 10
8.9476605381
 20
7.8985296546
 30
0.0
 10
8.9297594629
 20
7.910703144
 30
0.0
 10
8.9127044433
 20
7.9240953951
 30
0.0
 10
8.896586358
 20
7.9386349818
 30
0.0
 10
8.8814910995
 20
7.9542443874
 30
0.0
 10
8.8674991267
 20
7.9708404131
 30
0.0
 10
8.8546850388
 20
7.9883346177
 30
0.0
 10
8.8431171814
 20
8.0066337833
 30
0.0
 10
8.8328572855
 20
8.0256404075
 30
0.0
 10
8.8239601381
 20
8.0452532151
 30
0.0
 10
8.8164732923
 20
8.0653676927
 30
0.0
 10
8.8104368141
 20
8.0858766383
 30
0.0
 10
8.8058830672
 20
8.106670725
 30
0.0
 10
8.8028365366
 20
8.1276390761
 30
0.0
 10
8.8013136937
 20
8.1486698482
 30
0.0
 10
8.8013229002
 20
8.1696508202
 30
0.0
 10
8.8028643548
 20
8.1904699862
 30
0.0
 10
8.8059300806
 20
8.2110161482
 30
0.0
 10
8.8105039537
 20
8.2311795077
 30
0.0
 10
8.8165617786
 20
8.250852255
 30
0.0
 10
8.8240713928
 20
8.26992914
 30
0.0
 10
8.8329928618
 20
8.2883080789
 30
0.0
 10
8.8432785467
 20
8.3058905782
 30
0.0
 10
8.8548738521
 20
8.3225827722
 30
0.0
 10
8.8677156437
 20
8.3382940986
 30
0.0
 10
8.8770661518
 20
8.3480624302
 30
0.0
 10
8.8819213258
 20
8.3527521935
 30
0.0
  0
SPLINE
  5
35D
100
AcDbEntity
  8
0
100
AcDbSpline
 62
7
  6
CONTINUOUS
 70
0
 71
3
 72
23
 73
19
 74
0
 42
0.0000001
 43
0.0000001
 44
0.0000000001
 40
0.0
 40
0.0
 40
0.0
 40
0.0
 40
0.0637744754
 40
0.1273515938
 40
0.1907296556
 40
0.2539134226
 40
0.3169065407
 40
0.3797152283
 40
0.4423470101
 40
0.5048109469
 40
0.5671175504
 40
0.6292786812
 40
0.691307469
 40
0.753218201
 40
0.8150262073
 40
0.8767477303
 40
0.9383997833
 40
1.0
 40
1.0
 40
1.0
 40
1.0
 10
10.1080496632
 20
8.5671441613
 30
0.0
 10
10.1186879954
 20
8.5664063905
 30
0.0
 10
10.1399678454
 20
8.565408311
 30
0.0
 10
10.1718705169
 20
8.5653516123
 30
0.0
 10
10.2036450019
 20
8.566737867
 30
0.0
 10
10.2352257727
 20
8.5695641287
 30
0.0
 10
10.2665492453
 20
8.5738248787
 30
0.0
 10
10.2975517453
 20
8.5795114751
 30
0.0
 10
10.3281704377
 20
8.586612466
 30
0.0
 10
10.3583432112
 20
8.5951134826
 30
0.0
 10
10.3880088611
 20
8.6049973291
 30
0.0
 10
10.417107202
 20
8.6162440095
 30
0.0
 10
10.4455791845
 20
8.6288307593
 30
0.0
 10
10.4733670387
 20
8.6427321085
 30
0.0
 10
10.5004143255
 20
8.6579198293
 30
0.0
 10
10.526666356
 20
8.6743632861
 30
0.0
 10
10.5520691103
 20
8.6920285517
 30
0.0
 10
10.5684108361
 20
8.7046015669
 30
0.0
 10
10.5764206933
 20
8.7110775838
 30
0.0
  0
SPLINE
  5
35E
100
AcDbEntity
  8
0
100
AcDbSpline
 62
7
  6
CONTINUOUS
 70
0
 71
3
 72
23
 73
19
 74
0
 42
0.0000001
 43
0.0000001
 44
0.0000000001
 40
0.0
 40
0.0
 40
0.0
 40
0.0
 40
0.063810018
 40
0.1274137076
 40
0.190809901
 40
0.2540036232
 40
0.3169992253
 40
0.3798038172
 40
0.442425986
 40
0.5048760705
 40
0.5671660193
 40
0.6293092875
 40
0.6913207278
 40
0.7532164528
 40
0.8150136891
 40
0.8767306172
 40
0.9383862
 40
1.0
 40
1.0
 40
1.0
 40
1.0
 10
10.1147739737
 20
8.5881282351
 30
0.0
 10
10.1256501049
 20
8.5873739728
 30
0.0
 10
10.147405873
 20
8.5863748579
 30
0.0
 10
10.1800181986
 20
8.5864134843
 30
0.0
 10
10.2124877647
 20
8.5879918269
 30
0.0
 10
10.2447416795
 20
8.5911062856
 30
0.0
 10
10.2767091547
 20
8.5957502036
 30
0.0
 10
10.3083194148
 20
8.6019133147
 30
0.0
 10
10.3395026579
 20
8.6095821166
 30
0.0
 10
10.3701899652
 20
8.6187397108
 30
0.0
 10
10.4003135195
 20
8.6293659152
 30
0.0
 10
10.4298067392
 20
8.6414373027
 30
0.0
 10
10.4586044219
 20
8.6549272442
 30
0.0
 10
10.4866429137
 20
8.6698059883
 30
0.0
 10
10.5138601553
 20
8.6860406493
 30
0.0
 10
10.5401961817
 20
8.7035955503
 30
0.0
 10
10.5655919638
 20
8.7224312168
 30
0.0
 10
10.5818639706
 20
8.7358192094
 30
0.0
 10
10.5898221599
 20
8.7427101716
 30
0.0
  0
SPLINE
  5
35F
100
AcDbEntity
  8
0
100
AcDbSpline
 62
7
  6
CONTINUOUS
 70
0
 71
3
 72
40
 73
36
 74
0
 42
0.0000001
 43
0.0000001
 44
0.0000000001
 40
0.0
 40
0.0
 40
0.0
 40
0.0
 40
0.0311448352
 40
0.0467776712
 40
0.0624478163
 40
0.0938928931
 40
0.1254753683
 40
0.1571831038
 40
0.1890013145
 40
0.2209130644
 40
0.2528995674
 40
0.2849405815
 40
0.3170148072
 40
0.349100303
 40
0.3811749104
 40
0.4132166804
 40
0.4452042987
 40
0.4771175008
 40
0.5089374741
 40
0.5406472387
 40
0.5722320012
 40
0.6036794751
 40
0.6349801612
 40
0.6661275796
 40
0.6971184487
 40
0.7279528012
 40
0.7586340346
 40
0.7891688873
 40
0.8195673392
 40
0.849842433
 40
0.8800100174
 40
0.9100884154
 40
0.9400980228
 40
0.9700608475
 40
1.0
 40
1.0
 40
1.0
 40
1.0
 10
9.0882620601
 20
9.7841065641
 30
0.0
 10
9.0812567404
 20
9.7845923847
 30
0.0
 10
9.070756709
 20
9.7857063715
 30
0.0
 10
9.0568537211
 20
9.7879450344
 30
0.0
 10
9.0429728118
 20
9.7906934309
 30
0.0
 10
9.0257606933
 20
9.7950704866
 30
0.0
 10
9.0054669407
 20
9.8017889359
 30
0.0
 10
8.985615332
 20
9.8099439745
 30
0.0
 10
8.9663123033
 20
9.8194918802
 30
0.0
 10
8.9476605381
 20
9.8303816519
 30
0.0
 10
8.9297594629
 20
9.8425551414
 30
0.0
 10
8.9127044433
 20
9.8559473924
 30
0.0
 10
8.896586358
 20
9.8704869792
 30
0.0
 10
8.8814910995
 20
9.8860963848
 30
0.0
 10
8.8674991267
 20
9.9026924105
 30
0.0
 10
8.8546850388
 20
9.920186615
 30
0.0
 10
8.8431171814
 20
9.9384857807
 30
0.0
 10
8.8328572855
 20
9.9574924048
 30
0.0
 10
8.8239601381
 20
9.9771052125
 30
0.0
 10
8.8164732923
 20
9.99721969
 30
0.0
 10
8.8104368141
 20
10.0177286356
 30
0.0
 10
8.8058830672
 20
10.0385227223
 30
0.0
 10
8.8028365366
 20
10.0594910735
 30
0.0
 10
8.8013136937
 20
10.0805218455
 30
0.0
 10
8.8013229002
 20
10.1015028176
 30
0.0
 10
8.8028643548
 20
10.1223219835
 30
0.0
 10
8.8059300806
 20
10.1428681456
 30
0.0
 10
8.8105039537
 20
10.1630315051
 30
0.0
 10
8.8165617786
 20
10.1827042523
 30
0.0
 10
8.8240713928
 20
10.2017811373
 30
0.0
 10
8.8329928618
 20
10.2201600763
 30
0.0
 10
8.8432785467
 20
10.2377425756
 30
0.0
 10
8.8548738521
 20
10.2544347696
 30
0.0
 10
8.8677156437
 20
10.2701460959
 30
0.0
 10
8.8770661518
 20
10.2799144276
 30
0.0
 10
8.8819213258
 20
10.2846041909
 30
0.0
  0
SPLINE
  5
360
100
AcDbEntity
  8
0
100
AcDbSpline
 62
7
  6
CONTINUOUS
 70
0
 71
3
 72
23
 73
19
 74
0
 42
0.0000001
 43
0.0000001
 44
0.0000000001
 40
0.0
 40
0.0
 40
0.0
 40
0.0
 40
0.0637240564
 40
0.1272630212
 40
0.1906136001
 40
0.2537807418
 40
0.3167672441
 40
0.379578168
 40
0.4422198698
 40
0.5046998648
 40
0.5670269537
 40
0.6292110933
 40
0.6912633476
 40
0.753195805
 40
0.8150214835
 40
0.8767542416
 40
0.9384086748
 40
1.0
 40
1.0
 40
1.0
 40
1.0
 10
10.1567076035
 20
8.6286330136
 30
0.0
 10
10.1665340072
 20
8.6279515501
 30
0.0
 10
10.1861895639
 20
8.6270045186
 30
0.0
 10
10.2156612647
 20
8.6268380601
 30
0.0
 10
10.2450277448
 20
8.6279282381
 30
0.0
 10
10.2742350317
 20
8.6302729051
 30
0.0
 10
10.3032309525
 20
8.6338680614
 30
0.0
 10
10.33196309
 20
8.6387071911
 30
0.0
 10
10.3603796851
 20
8.6447815907
 30
0.0
 10
10.3884295051
 20
8.6520803686
 30
0.0
 10
10.416061958
 20
8.6605904369
 30
0.0
 10
10.4432272218
 20
8.6702964671
 30
0.0
 10
10.4698763108
 20
8.6811809682
 30
0.0
 10
10.4959611739
 20
8.693224357
 30
0.0
 10
10.521434697
 20
8.7064049479
 30
0.0
 10
10.5462511041
 20
8.7206991007
 30
0.0
 10
10.5703650123
 20
8.7360805828
 30
0.0
 10
10.5859518427
 20
8.7470471082
 30
0.0
 10
10.5936116858
 20
8.7527007559
 30
0.0
  0
SPLINE
  5
361
100
AcDbEntity
  8
0
100
AcDbSpline
 62
7
  6
CONTINUOUS
 70
0
 71
3
 72
23
 73
19
 74
0
 42
0.0000001
 43
0.0000001
 44
0.0000000001
 40
0.0
 40
0.0
 40
0.0
 40
0.0
 40
0.0638231784
 40
0.1274366516
 40
0.190839221
 40
0.2540361815
 40
0.3170321291
 40
0.3798345466
 40
0.4424524683
 40
0.5048967581
 40
0.5671799603
 40
0.6293161861
 40
0.6913209946
 40
0.7532112439
 40
0.8150049324
 40
0.8767210256
 40
0.938379271
 40
1.0
 40
1.0
 40
1.0
 40
1.0
 10
10.1687426792
 20
8.6851735582
 30
0.0
 10
10.1790828408
 20
8.6844564656
 30
0.0
 10
10.1997666145
 20
8.6835145002
 30
0.0
 10
10.2307704966
 20
8.6835871471
 30
0.0
 10
10.2616341806
 20
8.6851476324
 30
0.0
 10
10.292286087
 20
8.6881922787
 30
0.0
 10
10.3226567215
 20
8.692714364
 30
0.0
 10
10.3526766196
 20
8.6987035621
 30
0.0
 10
10.3822772982
 20
8.7061463181
 30
0.0
 10
10.4113911724
 20
8.7150256883
 30
0.0
 10
10.4399517732
 20
8.7253214571
 30
0.0
 10
10.4678938846
 20
8.7370101755
 30
0.0
 10
10.4951536885
 20
8.7500652056
 30
0.0
 10
10.5216689352
 20
8.7644568026
 30
0.0
 10
10.547378994
 20
8.780152105
 30
0.0
 10
10.572225347
 20
8.7971154753
 30
0.0
 10
10.5961504623
 20
8.8153075087
 30
0.0
 10
10.6114548284
 20
8.8282311237
 30
0.0
 10
10.6189329633
 20
8.8348812259
 30
0.0
  0
SPLINE
  5
362
100
AcDbEntity
  8
0
100
AcDbSpline
 62
7
  6
CONTINUOUS
 70
0
 71
3
 72
17
 73
13
 74
0
 42
0.0000001
 43
0.0000001
 44
0.0000000001
 40
0.0
 40
0.0
 40
0.0
 40
0.0
 40
0.1232907431
 40
0.1850794128
 40
0.246968939
 40
0.371063671
 40
0.4956626422
 40
0.5581794239
 40
0.6208414623
 40
0.74659653
 40
0.8729783539
 40
1.0
 40
1.0
 40
1.0
 40
1.0
 10
9.3743948255
 20
10.0718754666
 30
0.0
 10
9.3704114668
 20
10.0695208059
 30
0.0
 10
9.3642908802
 20
10.0662168177
 30
0.0
 10
9.3558916738
 20
10.0622926712
 30
0.0
 10
9.3473194398
 20
10.0586826821
 30
0.0
 10
9.3363225031
 20
10.0547807538
 30
0.0
 10
9.3250379045
 20
10.0517211394
 30
0.0
 10
9.3158639413
 20
10.0497831661
 30
0.0
 10
9.3065809377
 20
10.0481837822
 30
0.0
 10
9.2948314149
 20
10.046833439
 30
0.0
 10
9.2806007094
 20
10.0462592491
 30
0.0
 10
9.2710852892
 20
10.0465736508
 30
0.0
 10
9.2663294222
 20
10.0469034713
 30
0.0
  0
SPLINE
  5
363
100
AcDbEntity
  8
0
100
AcDbSpline
 62
7
  6
CONTINUOUS
 70
0
 71
3
 72
11
 73
7
 74
0
 42
0.0000001
 43
0.0000001
 44
0.0000000001
 40
0.0
 40
0.0
 40
0.0
 40
0.0
 40
0.2515885817
 40
0.5021041627
 40
0.7515646557
 40
1.0
 40
1.0
 40
1.0
 40
1.0
 10
10.4802311429
 20
8.9860483278
 30
0.0
 10
10.4935503731
 20
8.985124636
 30
0.0
 10
10.5201957222
 20
8.9840935746
 30
0.0
 10
10.5600935827
 20
8.9850163497
 30
0.0
 10
10.5996900439
 20
8.9884075654
 30
0.0
 10
10.6258427083
 20
8.9923144451
 30
0.0
 10
10.6388135227
 20
8.9946751272
 30
0.0
  0
SPLINE
  5
364
100
AcDbEntity
  8
0
100
AcDbSpline
 62
7
  6
CONTINUOUS
 70
0
 71
3
 72
21
 73
17
 74
0
 42
0.0000001
 43
0.0000001
 44
0.0000000001
 40
0.0
 40
0.0
 40
0.0
 40
0.0
 40
0.0616532342
 40
0.1233294953
 40
0.1850515501
 40
0.2468416649
 40
0.3087213494
 40
0.3707111104
 40
0.4328302434
 40
0.4950966323
 40
0.5575265657
 40
0.6201345673
 40
0.682933156
 40
0.7459330948
 40
0.8725263949
 40
1.0
 40
1.0
 40
1.0
 40
1.0
 10
9.2946027944
 20
9.8573689122
 30
0.0
 10
9.2912698303
 20
9.8541494986
 30
0.0
 10
9.2844280687
 20
9.847887432
 30
0.0
 10
9.2736732986
 20
9.8390577338
 30
0.0
 10
9.2624515225
 20
9.8308116503
 30
0.0
 10
9.2507913956
 20
9.8231703164
 30
0.0
 10
9.2387221887
 20
9.8161528929
 30
0.0
 10
9.2262743389
 20
9.8097770868
 30
0.0
 10
9.2134792288
 20
9.8040588894
 30
0.0
 10
9.2003691067
 20
9.7990126755
 30
0.0
 10
9.1869769594
 20
9.7946511598
 30
0.0
 10
9.1733366337
 20
9.7909853009
 30
0.0
 10
9.1594821073
 20
9.788024228
 30
0.0
 10
9.1407439523
 20
9.7850213026
 30
0.0
 10
9.116949486
 20
9.7830703944
 30
0.0
 10
9.0978201624
 20
9.7834437075
 30
0.0
 10
9.0882620601
 20
9.7841065641
 30
0.0
  0
SPLINE
  5
365
100
AcDbEntity
  8
0
100
AcDbSpline
 62
7
  6
CONTINUOUS
 70
0
 71
3
 72
11
 73
7
 74
0
 42
0.0000001
 43
0.0000001
 44
0.0000000001
 40
0.0
 40
0.0
 40
0.0
 40
0.0
 40
0.251570901
 40
0.5020812217
 40
0.7515479391
 40
1.0
 40
1.0
 40
1.0
 40
1.0
 10
10.4901750427
 20
9.03276457
 30
0.0
 10
10.5025913681
 20
9.031903495
 30
0.0
 10
10.527430295
 20
9.0309336732
 30
0.0
 10
10.5646256441
 20
9.0317544847
 30
0.0
 10
10.6015463877
 20
9.0348502172
 30
0.0
 10
10.6259376654
 20
9.0384311641
 30
0.0
 10
10.6380371753
 20
9.0405971184
 30
0.0
  0
SPLINE
  5
366
100
AcDbEntity
  8
0
100
AcDbSpline
 62
7
  6
CONTINUOUS
 70
0
 71
3
 72
11
 73
7
 74
0
 42
0.0000001
 43
0.0000001
 44
0.0000000001
 40
0.0
 40
0.0
 40
0.0
 40
0.0
 40
0.2515238444
 40
0.5020204184
 40
0.7515034548
 40
1.0
 40
1.0
 40
1.0
 40
1.0
 10
10.4958484318
 20
9.0470149508
 30
0.0
 10
10.5077141001
 20
9.0461920639
 30
0.0
 10
10.5314510964
 20
9.0452433727
 30
0.0
 10
10.5670021451
 20
9.0459281655
 30
0.0
 10
10.6023065276
 20
9.0487207785
 30
0.0
 10
10.6256444509
 20
9.0519884513
 30
0.0
 10
10.6372270892
 20
9.0539705616
 30
0.0
  0
SPLINE
  5
367
100
AcDbEntity
  8
0
100
AcDbSpline
 62
7
  6
CONTINUOUS
 70
0
 71
3
 72
17
 73
13
 74
0
 42
0.0000001
 43
0.0000001
 44
0.0000000001
 40
0.0
 40
0.0
 40
0.0
 40
0.0
 40
0.1232907431
 40
0.1850794128
 40
0.246968939
 40
0.371063671
 40
0.4956626422
 40
0.5581794239
 40
0.6208414623
 40
0.74659653
 40
0.8729783539
 40
1.0
 40
1.0
 40
1.0
 40
1.0
 10
11.0647650353
 20
9.9546478944
 30
0.0
 10
11.0607816766
 20
9.9522932337
 30
0.0
 10
11.05466109
 20
9.9489892455
 30
0.0
 10
11.0462618836
 20
9.945065099
 30
0.0
 10
11.0376896496
 20
9.9414551099
 30
0.0
 10
11.0266927129
 20
9.9375531816
 30
0.0
 10
11.0154081143
 20
9.9344935671
 30
0.0
 10
11.0062341511
 20
9.9325555939
 30
0.0
 10
10.9969511475
 20
9.93095621
 30
0.0
 10
10.9852016247
 20
9.9296058668
 30
0.0
 10
10.9709709192
 20
9.9290316769
 30
0.0
 10
10.961455499
 20
9.9293460786
 30
0.0
 10
10.956699632
 20
9.929675899
 30
0.0
  0
SPLINE
  5
368
100
AcDbEntity
  8
0
100
AcDbSpline
 62
7
  6
CONTINUOUS
 70
0
 71
3
 72
21
 73
17
 74
0
 42
0.0000001
 43
0.0000001
 44
0.0000000001
 40
0.0
 40
0.0
 40
0.0
 40
0.0
 40
0.0616532342
 40
0.1233294953
 40
0.1850515501
 40
0.2468416649
 40
0.3087213494
 40
0.3707111104
 40
0.4328302434
 40
0.4950966323
 40
0.5575265657
 40
0.6201345673
 40
0.682933156
 40
0.7459330948
 40
0.8725263949
 40
1.0
 40
1.0
 40
1.0
 40
1.0
 10
10.9849730042
 20
9.74014134
 30
0.0
 10
10.9816400401
 20
9.7369219264
 30
0.0
 10
10.9747982785
 20
9.7306598598
 30
0.0
 10
10.9640435084
 20
9.7218301616
 30
0.0
 10
10.9528217323
 20
9.7135840781
 30
0.0
 10
10.9411616054
 20
9.7059427442
 30
0.0
 10
10.9290923985
 20
9.6989253206
 30
0.0
 10
10.9166445487
 20
9.6925495146
 30
0.0
 10
10.9038494387
 20
9.6868313172
 30
0.0
 10
10.8907393165
 20
9.6817851033
 30
0.0
 10
10.8773471692
 20
9.6774235876
 30
0.0
 10
10.8637068435
 20
9.6737577287
 30
0.0
 10
10.8498523171
 20
9.6707966558
 30
0.0
 10
10.8311141621
 20
9.6677937304
 30
0.0
 10
10.8073196958
 20
9.6658428222
 30
0.0
 10
10.7881903722
 20
9.6662161353
 30
0.0
 10
10.7786322699
 20
9.6668789919
 30
0.0
  0
SPLINE
  5
369
100
AcDbEntity
  8
0
100
AcDbSpline
 62
7
  6
CONTINUOUS
 70
0
 71
3
 72
71
 73
67
 74
0
 42
0.0000001
 43
0.0000001
 44
0.0000000001
 40
0.0
 40
0.0
 40
0.0
 40
0.0
 40
0.0156218204
 40
0.0311906963
 40
0.0467067366
 40
0.0621710758
 40
0.0775850521
 40
0.092950634
 40
0.1082702305
 40
0.1235467319
 40
0.1387834654
 40
0.1539841699
 40
0.1691529587
 40
0.1842942794
 40
0.1994128691
 40
0.2145137055
 40
0.2296019553
 40
0.2446829195
 40
0.2597619769
 40
0.2748445266
 40
0.2899359305
 40
0.3050414558
 40
0.3201662192
 40
0.335315133
 40
0.3504928541
 40
0.3657037362
 40
0.3809517867
 40
0.3962406271
 40
0.4115734587
 40
0.4269530339
 40
0.4423816318
 40
0.4578610401
 40
0.4733925422
 40
0.4889769093
 40
0.5046143983
 40
0.5203047542
 40
0.5360472183
 40
0.5518405399
 40
0.5676829929
 40
0.5835723964
 40
0.5995061385
 40
0.6154812036
 40
0.6314942032
 40
0.6475414084
 40
0.6636187858
 40
0.6797220346
 40
0.6958466262
 40
0.7119878448
 40
0.7281408293
 40
0.7443006161
 40
0.7604621821
 40
0.7766204892
 40
0.7927705272
 40
0.8089073581
 40
0.8250261592
 40
0.8411222651
 40
0.8571912102
 40
0.8732287683
 40
0.8892309918
 40
0.9051942475
 40
0.9211152565
 40
0.9369911075
 40
0.9528193473
 40
0.9685978317
 40
0.9843251849
 40
1.0
 40
1.0
 40
1.0
 40
1.0
 10
9.8789743721
 20
8.2917055845
 30
0.0
 10
9.8914548192
 20
8.2908400625
 30
0.0
 10
9.9164199518
 20
8.2897194708
 30
0.0
 10
9.9538382201
 20
8.2898815143
 30
0.0
 10
9.9910777349
 20
8.2918888873
 30
0.0
 10
10.0280474669
 20
8.2957367794
 30
0.0
 10
10.0646587519
 20
8.3014160969
 30
0.0
 10
10.1008232167
 20
8.3089131894
 30
0.0
 10
10.1364537234
 20
8.3182101057
 30
0.0
 10
10.1714643568
 20
8.3292845106
 30
0.0
 10
10.2057706963
 20
8.3421097935
 30
0.0
 10
10.2392900046
 20
8.3566551071
 30
0.0
 10
10.2719414322
 20
8.3728854486
 30
0.0
 10
10.303646215
 20
8.390761738
 30
0.0
 10
10.3343278692
 20
8.4102409099
 30
0.0
 10
10.3639123755
 20
8.4312760215
 30
0.0
 10
10.3923283609
 20
8.4538163647
 30
0.0
 10
10.4195072735
 20
8.4778075895
 30
0.0
 10
10.4453835504
 20
8.5031918358
 30
0.0
 10
10.4698947777
 20
8.5299078746
 30
0.0
 10
10.4929818435
 20
8.5578912573
 30
0.0
 10
10.5145890814
 20
8.587074474
 30
0.0
 10
10.5346644062
 20
8.6173871183
 30
0.0
 10
10.553159439
 20
8.6487560604
 30
0.0
 10
10.5700296284
 20
8.6811056235
 30
0.0
 10
10.5852343559
 20
8.7143577708
 30
0.0
 10
10.5987370301
 20
8.7484322979
 30
0.0
 10
10.6105051737
 20
8.7832470276
 30
0.0
 10
10.6205105006
 20
8.81871801
 30
0.0
 10
10.6287289808
 20
8.8547597266
 30
0.0
 10
10.635140897
 20
8.8912852967
 30
0.0
 10
10.6397308892
 20
8.928206688
 30
0.0
 10
10.6424879895
 20
8.9654349289
 30
0.0
 10
10.6434056462
 20
9.0028803221
 30
0.0
 10
10.6424817376
 20
9.0404526606
 30
0.0
 10
10.6397185806
 20
9.0780614448
 30
0.0
 10
10.6351229177
 20
9.1156160996
 30
0.0
 10
10.6287058996
 20
9.1530261919
 30
0.0
 10
10.6204830563
 20
9.1902016471
 30
0.0
 10
10.6104742595
 20
9.2270529639
 30
0.0
 10
10.5987036733
 20
9.2634914295
 30
0.0
 10
10.5851996955
 20
9.2994293305
 30
0.0
 10
10.5699948892
 20
9.3347801636
 30
0.0
 10
10.5531259039
 20
9.369458842
 30
0.0
 10
10.534633387
 20
9.4033818984
 30
0.0
 10
10.5145618882
 20
9.4364676867
 30
0.0
 10
10.4929597539
 20
9.4686365781
 30
0.0
 10
10.4698790071
 20
9.4998111502
 30
0.0
 10
10.4453752226
 20
9.5299163722
 30
0.0
 10
10.4195073943
 20
9.5588797848
 30
0.0
 10
10.3923377934
 20
9.5866316734
 30
0.0
 10
10.3639318197
 20
9.6131052351
 30
0.0
 10
10.3343578441
 20
9.6382367388
 30
0.0
 10
10.3036870459
 20
9.6619656776
 30
0.0
 10
10.2719932419
 20
9.6842349144
 30
0.0
 10
10.2393527094
 20
9.7049908179
 30
0.0
 10
10.2058440062
 20
9.7241833954
 30
0.0
 10
10.1715477807
 20
9.7417664125
 30
0.0
 10
10.1365465781
 20
9.7576974987
 30
0.0
 10
10.1009246403
 20
9.771938259
 30
0.0
 10
10.0647677188
 20
9.7844543411
 30
0.0
 10
10.0281628117
 20
9.7952155829
 30
0.0
 10
9.9911981662
 20
9.8041959338
 30
0.0
 10
9.9539623576
 20
9.8113738382
 30
0.0
 10
9.9165463439
 20
9.8167316886
 30
0.0
 10
9.8914971572
 20
9.8190858229
 30
0.0
 10
9.8789743721
 20
9.819954281
 30
0.0
  0
SPLINE
  5
36A
100
AcDbEntity
  8
0
100
AcDbSpline
 62
7
  6
CONTINUOUS
 70
0
 71
3
 72
11
 73
7
 74
0
 42
0.0000001
 43
0.0000001
 44
0.0000000001
 40
0.0
 40
0.0
 40
0.0
 40
0.0
 40
0.2521556509
 40
0.5028334291
 40
0.7520864208
 40
1.0
 40
1.0
 40
1.0
 40
1.0
 10
9.2663294222
 20
9.9561064382
 30
0.0
 10
9.2744109771
 20
9.9555459805
 30
0.0
 10
9.2905822758
 20
9.9551062089
 30
0.0
 10
9.3147321952
 20
9.9565136585
 30
0.0
 10
9.3385362355
 20
9.9599790967
 30
0.0
 10
9.354104487
 20
9.9636563136
 30
0.0
 10
9.3617673544
 20
9.9658280892
 30
0.0
  0
SPLINE
  5
36B
100
AcDbEntity
  8
0
100
AcDbSpline
 62
7
  6
CONTINUOUS
 70
0
 71
3
 72
40
 73
36
 74
0
 42
0.0000001
 43
0.0000001
 44
0.0000000001
 40
0.0
 40
0.0
 40
0.0
 40
0.0
 40
0.0311448352
 40
0.0467776712
 40
0.0624478163
 40
0.0938928931
 40
0.1254753683
 40
0.1571831038
 40
0.1890013145
 40
0.2209130644
 40
0.2528995674
 40
0.2849405815
 40
0.3170148072
 40
0.349100303
 40
0.3811749104
 40
0.4132166804
 40
0.4452042987
 40
0.4771175008
 40
0.5089374741
 40
0.5406472387
 40
0.5722320012
 40
0.6036794751
 40
0.6349801612
 40
0.6661275796
 40
0.6971184487
 40
0.7279528012
 40
0.7586340346
 40
0.7891688873
 40
0.8195673392
 40
0.849842433
 40
0.8800100174
 40
0.9100884154
 40
0.9400980228
 40
0.9700608475
 40
1.0
 40
1.0
 40
1.0
 40
1.0
 10
10.7786322699
 20
7.7350269946
 30
0.0
 10
10.7716269502
 20
7.7355128151
 30
0.0
 10
10.7611269188
 20
7.7366268019
 30
0.0
 10
10.7472239309
 20
7.7388654649
 30
0.0
 10
10.7333430216
 20
7.7416138613
 30
0.0
 10
10.7161309031
 20
7.745990917
 30
0.0
 10
10.6958371506
 20
7.7527093664
 30
0.0
 10
10.6759855418
 20
7.7608644049
 30
0.0
 10
10.6566825131
 20
7.7704123106
 30
0.0
 10
10.6380307479
 20
7.7813020824
 30
0.0
 10
10.6201296727
 20
7.7934755718
 30
0.0
 10
10.6030746531
 20
7.8068678229
 30
0.0
 10
10.5869565678
 20
7.8214074096
 30
0.0
 10
10.5718613093
 20
7.8370168152
 30
0.0
 10
10.5578693365
 20
7.8536128409
 30
0.0
 10
10.5450552486
 20
7.8711070454
 30
0.0
 10
10.5334873912
 20
7.8894062111
 30
0.0
 10
10.5232274953
 20
7.9084128353
 30
0.0
 10
10.5143303479
 20
7.9280256429
 30
0.0
 10
10.5068435021
 20
7.9481401205
 30
0.0
 10
10.5008070239
 20
7.968649066
 30
0.0
 10
10.496253277
 20
7.9894431528
 30
0.0
 10
10.4932067464
 20
8.0104115039
 30
0.0
 10
10.4916839035
 20
8.031442276
 30
0.0
 10
10.49169311
 20
8.052423248
 30
0.0
 10
10.4932345646
 20
8.073242414
 30
0.0
 10
10.4963002904
 20
8.093788576
 30
0.0
 10
10.5008741635
 20
8.1139519355
 30
0.0
 10
10.5069319884
 20
8.1336246828
 30
0.0
 10
10.5144416026
 20
8.1527015678
 30
0.0
 10
10.5233630716
 20
8.1710805067
 30
0.0
 10
10.5336487565
 20
8.188663006
 30
0.0
 10
10.5452440619
 20
8.2053552
 30
0.0
 10
10.5580858535
 20
8.2210665264
 30
0.0
 10
10.5674363616
 20
8.230834858
 30
0.0
 10
10.5722915356
 20
8.2355246213
 30
0.0
  0
SPLINE
  5
36C
100
AcDbEntity
  8
0
100
AcDbSpline
 62
7
  6
CONTINUOUS
 70
0
 71
3
 72
17
 73
13
 74
0
 42
0.0000001
 43
0.0000001
 44
0.0000000001
 40
0.0
 40
0.0
 40
0.0
 40
0.0
 40
0.1232907431
 40
0.1850794128
 40
0.246968939
 40
0.371063671
 40
0.4956626422
 40
0.5581794239
 40
0.6208414623
 40
0.74659653
 40
0.8729783539
 40
1.0
 40
1.0
 40
1.0
 40
1.0
 10
11.0647650353
 20
8.022795897
 30
0.0
 10
11.0607816766
 20
8.0204412364
 30
0.0
 10
11.05466109
 20
8.0171372482
 30
0.0
 10
11.0462618836
 20
8.0132131017
 30
0.0
 10
11.0376896496
 20
8.0096031125
 30
0.0
 10
11.0266927129
 20
8.0057011843
 30
0.0
 10
11.0154081143
 20
8.0026415698
 30
0.0
 10
11.0062341511
 20
8.0007035966
 30
0.0
 10
10.9969511475
 20
7.9991042127
 30
0.0
 10
10.9852016247
 20
7.9977538694
 30
0.0
 10
10.9709709192
 20
7.9971796796
 30
0.0
 10
10.961455499
 20
7.9974940812
 30
0.0
 10
10.956699632
 20
7.9978239017
 30
0.0
  0
SPLINE
  5
36D
100
AcDbEntity
  8
0
100
AcDbSpline
 62
7
  6
CONTINUOUS
 70
0
 71
3
 72
39
 73
35
 74
0
 42
0.0000001
 43
0.0000001
 44
0.0000000001
 40
0.0
 40
0.0
 40
0.0
 40
0.0
 40
0.0308460029
 40
0.0618156224
 40
0.0929034665
 40
0.1241057483
 40
0.1554153414
 40
0.1868244218
 40
0.2183236741
 40
0.249902671
 40
0.2815499711
 40
0.3132532705
 40
0.3449995658
 40
0.376775316
 40
0.4085666121
 40
0.4403593509
 40
0.4721394125
 40
0.5038928359
 40
0.5356059919
 40
0.5672657527
 40
0.5988596577
 40
0.6303760742
 40
0.6618043536
 40
0.6931349745
 40
0.7243596739
 40
0.7554715661
 40
0.786465246
 40
0.8173368778
 40
0.8480842676
 40
0.878706913
 40
0.9092060285
 40
0.9395845496
 40
0.9698471109
 40
1.0
 40
1.0
 40
1.0
 40
1.0
 10
9.2663294222
 20
9.9561064382
 30
0.0
 10
9.2607131838
 20
9.9564959257
 30
0.0
 10
9.2494783351
 20
9.9576057838
 30
0.0
 10
9.2327204319
 20
9.9602472468
 30
0.0
 10
9.2160777269
 20
9.9638600192
 30
0.0
 10
9.1996082604
 20
9.9684313124
 30
0.0
 10
9.1833682205
 20
9.9739455711
 30
0.0
 10
9.1674134447
 20
9.9803837199
 30
0.0
 10
9.1517986546
 20
9.9877236603
 30
0.0
 10
9.1365774303
 20
9.9959401403
 30
0.0
 10
9.1218019872
 20
10.0050049197
 30
0.0
 10
9.1075230137
 20
10.0148868599
 30
0.0
 10
9.0937894962
 20
10.0255520288
 30
0.0
 10
9.0806485541
 20
10.0369638171
 30
0.0
 10
9.0681452826
 20
10.0490830647
 30
0.0
 10
9.0563225852
 20
10.0618681788
 30
0.0
 10
9.0452210259
 20
10.0752752802
 30
0.0
 10
9.0348787041
 20
10.089258366
 30
0.0
 10
9.0253311232
 20
10.1037694621
 30
0.0
 10
9.0166110701
 20
10.1187587866
 30
0.0
 10
9.008748506
 20
10.1341749185
 30
0.0
 10
9.001770455
 20
10.1499649678
 30
0.0
 10
8.995700896
 20
10.1660747516
 30
0.0
 10
8.9905607049
 20
10.1824489913
 30
0.0
 10
8.9863675789
 20
10.1990314966
 30
0.0
 10
8.9831359771
 20
10.2157653563
 30
0.0
 10
8.9808770699
 20
10.2325931302
 30
0.0
 10
8.9795986988
 20
10.2494570446
 30
0.0
 10
8.9793053183
 20
10.2662991828
 30
0.0
 10
8.9799980159
 20
10.2830617118
 30
0.0
 10
8.9816744737
 20
10.2996869873
 30
0.0
 10
8.9843290896
 20
10.3161180839
 30
0.0
 10
8.9879525663
 20
10.3322977503
 30
0.0
 10
8.991011826
 20
10.3428997092
 30
0.0
 10
8.9926983953
 20
10.3481381242
 30
0.0
  0
SPLINE
  5
36E
100
AcDbEntity
  8
0
100
AcDbSpline
 62
7
  6
CONTINUOUS
 70
0
 71
3
 72
21
 73
17
 74
0
 42
0.0000001
 43
0.0000001
 44
0.0000000001
 40
0.0
 40
0.0
 40
0.0
 40
0.0
 40
0.0616532342
 40
0.1233294953
 40
0.1850515501
 40
0.2468416649
 40
0.3087213494
 40
0.3707111104
 40
0.4328302434
 40
0.4950966323
 40
0.5575265657
 40
0.6201345673
 40
0.682933156
 40
0.7459330948
 40
0.8725263949
 40
1.0
 40
1.0
 40
1.0
 40
1.0
 10
10.9849730042
 20
7.8082893426
 30
0.0
 10
10.9816400401
 20
7.8050699291
 30
0.0
 10
10.9747982785
 20
7.7988078624
 30
0.0
 10
10.9640435084
 20
7.7899781642
 30
0.0
 10
10.9528217323
 20
7.7817320808
 30
0.0
 10
10.9411616054
 20
7.7740907469
 30
0.0
 10
10.9290923985
 20
7.7670733233
 30
0.0
 10
10.9166445487
 20
7.7606975173
 30
0.0
 10
10.9038494387
 20
7.7549793199
 30
0.0
 10
10.8907393165
 20
7.749933106
 30
0.0
 10
10.8773471692
 20
7.7455715903
 30
0.0
 10
10.8637068435
 20
7.7419057314
 30
0.0
 10
10.8498523171
 20
7.7389446584
 30
0.0
 10
10.8311141621
 20
7.735941733
 30
0.0
 10
10.8073196958
 20
7.7339908249
 30
0.0
 10
10.7881903722
 20
7.7343641379
 30
0.0
 10
10.7786322699
 20
7.7350269946
 30
0.0
  0
SPLINE
  5
36F
100
AcDbEntity
  8
0
100
AcDbSpline
 62
7
  6
CONTINUOUS
 70
0
 71
3
 72
39
 73
35
 74
0
 42
0.0000001
 43
0.0000001
 44
0.0000000001
 40
0.0
 40
0.0
 40
0.0
 40
0.0
 40
0.0310058087
 40
0.0621511473
 40
0.0934296835
 40
0.1248352673
 40
0.1563581737
 40
0.1879873334
 40
0.2197097332
 40
0.2515109076
 40
0.2833751063
 40
0.3152855738
 40
0.3472248176
 40
0.3791748897
 40
0.4111176714
 40
0.4430351598
 40
0.4749097529
 40
0.5067245305
 40
0.5384635275
 40
0.5701119959
 40
0.6016566541
 40
0.6330859181
 40
0.6643901097
 40
0.6955616393
 40
0.7265951593
 40
0.7574876843
 40
0.7882386743
 40
0.8188500776
 40
0.8493263303
 40
0.8796743114
 40
0.9099032488
 40
0.9400245773
 40
0.9700517493
 40
1.0
 40
1.0
 40
1.0
 40
1.0
 10
9.2663294222
 20
10.0469034713
 30
0.0
 10
9.2619918494
 20
10.047204283
 30
0.0
 10
9.2533144679
 20
10.0480947827
 30
0.0
 10
9.2403875674
 20
10.0502815451
 30
0.0
 10
9.227574204
 20
10.053313023
 30
0.0
 10
9.2149313214
 20
10.0571756235
 30
0.0
 10
9.2025139993
 20
10.0618524967
 30
0.0
 10
9.1903766745
 20
10.0673230223
 30
0.0
 10
9.1785724497
 20
10.0735632249
 30
0.0
 10
9.167152992
 20
10.0805457264
 30
0.0
 10
9.1561682788
 20
10.0882399285
 30
0.0
 10
9.1456663854
 20
10.0966121205
 30
0.0
 10
9.135693272
 20
10.1056256304
 30
0.0
 10
9.1262925892
 20
10.1152409894
 30
0.0
 10
9.1175054879
 20
10.1254161029
 30
0.0
 10
9.1093704415
 20
10.1361064332
 30
0.0
 10
9.1019230785
 20
10.1472651927
 30
0.0
 10
9.0951960282
 20
10.1588435461
 30
0.0
 10
9.0892187783
 20
10.1707908218
 30
0.0
 10
9.0840175476
 20
10.1830547322
 30
0.0
 10
9.0796151651
 20
10.1955815968
 30
0.0
 10
9.0760309696
 20
10.2083165769
 30
0.0
 10
9.0732807303
 20
10.2212039151
 30
0.0
 10
9.0713765753
 20
10.2341871758
 30
0.0
 10
9.0703269374
 20
10.2472094896
 30
0.0
 10
9.0701365142
 20
10.2602137992
 30
0.0
 10
9.0708062447
 20
10.2731431066
 30
0.0
 10
9.0723333016
 20
10.2859407226
 30
0.0
 10
9.0747110973
 20
10.2985505076
 30
0.0
 10
9.0779293115
 20
10.310917142
 30
0.0
 10
9.0819738884
 20
10.3229862879
 30
0.0
 10
9.086827284
 20
10.3347051333
 30
0.0
 10
9.0924678393
 20
10.3460214954
 30
0.0
 10
9.096742421
 20
10.3532741967
 30
0.0
 10
9.0990011303
 20
10.3568147633
 30
0.0
  0
SPLINE
  5
370
100
AcDbEntity
  8
0
100
AcDbSpline
 62
7
  6
CONTINUOUS
 70
0
 71
3
 72
53
 73
49
 74
0
 42
0.0000001
 43
0.0000001
 44
0.0000000001
 40
0.0
 40
0.0
 40
0.0
 40
0.0
 40
0.0417740297
 40
0.0840369869
 40
0.1266585521
 40
0.1695065595
 40
0.2124481874
 40
0.2553501548
 40
0.2980793668
 40
0.3405034
 40
0.3824910408
 40
0.4239128105
 40
0.4646414999
 40
0.5045527101
 40
0.5435254036
 40
0.5814424718
 40
0.6181913251
 40
0.6536645175
 40
0.687760418
 40
0.720383954
 40
0.7361162212
 40
0.7514481887
 40
0.7663701981
 40
0.7808732402
 40
0.7949488863
 40
0.8085894735
 40
0.8217880069
 40
0.8345383998
 40
0.8468353625
 40
0.8586746935
 40
0.8700531797
 40
0.8809689358
 40
0.8914213497
 40
0.9014114698
 40
0.9109420406
 40
0.9200179482
 40
0.928646397
 40
0.936837438
 40
0.9446043378
 40
0.9519642164
 40
0.9589386314
 40
0.9655543018
 40
0.9718438078
 40
0.9778461912
 40
0.9836073701
 40
0.9891800475
 40
0.9946230791
 40
1.0
 40
1.0
 40
1.0
 40
1.0
 10
13.1028710442
 20
9.7957440666
 30
0.0
 10
13.1028710442
 20
9.7819014043
 30
0.0
 10
13.1026550838
 20
9.7540536285
 30
0.0
 10
13.1017003623
 20
9.7120921805
 30
0.0
 10
13.1001157591
 20
9.6697935932
 30
0.0
 10
13.0979064686
 20
9.6272978858
 30
0.0
 10
13.0950797918
 20
9.5847456558
 30
0.0
 10
13.091645072
 20
9.5422776766
 30
0.0
 10
13.0876136872
 20
9.5000344513
 30
0.0
 10
13.0829990015
 20
9.4581557303
 30
0.0
 10
13.0778163255
 20
9.4167800512
 30
0.0
 10
13.0720828647
 20
9.376044275
 30
0.0
 10
13.0658176643
 20
9.3360831297
 30
0.0
 10
13.0590415467
 20
9.2970287585
 30
0.0
 10
13.0517770442
 20
9.259010278
 30
0.0
 10
13.044048327
 20
9.2221533348
 30
0.0
 10
13.0358811209
 20
9.1865797059
 30
0.0
 10
13.0273026364
 20
9.1524067839
 30
0.0
 10
13.0183414337
 20
9.1197475089
 30
0.0
 10
13.0104878024
 20
9.0935752852
 30
0.0
 10
13.0040231236
 20
9.0734850051
 30
0.0
 10
12.9991563865
 20
9.0590440396
 30
0.0
 10
12.9942167649
 20
9.0450590896
 30
0.0
 10
12.9892083632
 20
9.0315416791
 30
0.0
 10
12.9841352883
 20
9.0185029707
 30
0.0
 10
12.9790018039
 20
9.0059537015
 30
0.0
 10
12.9738120906
 20
8.9939042223
 30
0.0
 10
12.9685705209
 20
8.9823644299
 30
0.0
 10
12.9632813421
 20
8.9713438283
 30
0.0
 10
12.9579490081
 20
8.9608514342
 30
0.0
 10
12.9525778155
 20
8.9508958675
 30
0.0
 10
12.947172266
 20
8.9414852281
 30
0.0
 10
12.9417366818
 20
8.9326272159
 30
0.0
 10
12.9362755662
 20
8.9243289831
 30
0.0
 10
12.9307932295
 20
8.9165972791
 30
0.0
 10
12.9252941121
 20
8.9094382908
 30
0.0
 10
12.9197824517
 20
8.9028578051
 30
0.0
 10
12.9142625352
 20
8.8968610626
 30
0.0
 10
12.9087384408
 20
8.8914529267
 30
0.0
 10
12.9032141967
 20
8.8866377977
 30
0.0
 10
12.8976936431
 20
8.8824197737
 30
0.0
 10
12.8921805182
 20
8.8788026873
 30
0.0
 10
12.8866785247
 20
8.8757902085
 30
0.0
 10
12.8811914125
 20
8.8733860171
 30
0.0
 10
12.8757234217
 20
8.8715936528
 30
0.0
 10
12.8702790468
 20
8.8704166629
 30
0.0
 10
12.8648649098
 20
8.8698577858
 30
0.0
 10
12.8612703762
 20
8.8698988497
 30
0.0
 10
12.8594928952
 20
8.8700221228
 30
0.0
  0
SPLINE
  5
371
100
AcDbEntity
  8
0
100
AcDbSpline
 62
7
  6
CONTINUOUS
 70
0
 71
3
 72
71
 73
67
 74
0
 42
0.0000001
 43
0.0000001
 44
0.0000000001
 40
0.0
 40
0.0
 40
0.0
 40
0.0
 40
0.0156748284
 40
0.0314021605
 40
0.0471806558
 40
0.0630088915
 40
0.0788847439
 40
0.0948057527
 40
0.1107690085
 40
0.1267712319
 40
0.1428087898
 40
0.1588777347
 40
0.1749738405
 40
0.1910926414
 40
0.2072294724
 40
0.2233795107
 40
0.239537818
 40
0.2556993843
 40
0.2718591712
 40
0.2880121557
 40
0.3041533741
 40
0.3202779654
 40
0.3363812138
 40
0.3524585909
 40
0.368505796
 40
0.3845187958
 40
0.4004938614
 40
0.4164276039
 40
0.4323170078
 40
0.448159461
 40
0.4639527825
 40
0.4796952463
 40
0.4953856017
 40
0.5110230901
 40
0.5266074569
 40
0.5421389589
 40
0.5576183674
 40
0.5730469657
 40
0.5884265413
 40
0.6037593734
 40
0.619048214
 40
0.6342962646
 40
0.6495071467
 40
0.6646848675
 40
0.6798337809
 40
0.6949585439
 40
0.710064069
 40
0.7251554728
 40
0.7402380225
 40
0.75531708
 40
0.7703980444
 40
0.7854862945
 40
0.8005871312
 40
0.815705721
 40
0.8308470418
 40
0.8460158305
 40
0.8612165348
 40
0.8764532681
 40
0.8917297694
 40
0.9070493658
 40
0.9224149473
 40
0.937828925
 40
0.9532932602
 40
0.9688093114
 40
0.9843781663
 40
1.0
 40
1.0
 40
1.0
 40
1.0
 10
9.8735597972
 20
8.2662680197
 30
0.0
 10
9.8607058325
 20
8.2671594452
 30
0.0
 10
9.8349942188
 20
8.2695758306
 30
0.0
 10
9.7965887266
 20
8.2750753788
 30
0.0
 10
9.7583682161
 20
8.2824430935
 30
0.0
 10
9.7204260245
 20
8.2916609387
 30
0.0
 10
9.682853092
 20
8.3027067622
 30
0.0
 10
9.6457399903
 20
8.3155538388
 30
0.0
 10
9.6091760211
 20
8.3301712021
 30
0.0
 10
9.573249203
 20
8.346523593
 30
0.0
 10
9.5380460053
 20
8.3645715997
 30
0.0
 10
9.5036511555
 20
8.3842717306
 30
0.0
 10
9.4701474335
 20
8.4055765271
 30
0.0
 10
9.4376154742
 20
8.4284346747
 30
0.0
 10
9.4061335742
 20
8.4527911276
 30
0.0
 10
9.3757775041
 20
8.4785872393
 30
0.0
 10
9.3466203258
 20
8.5057609024
 30
0.0
 10
9.3187322186
 20
8.5342467
 30
0.0
 10
9.2921803115
 20
8.5639760618
 30
0.0
 10
9.267028522
 20
8.5948774287
 30
0.0
 10
9.2433374032
 20
8.6268764244
 30
0.0
 10
9.2211639985
 20
8.6598960332
 30
0.0
 10
9.200561705
 20
8.6938567846
 30
0.0
 10
9.181580145
 20
8.7286769435
 30
0.0
 10
9.1642650473
 20
8.7642727057
 30
0.0
 10
9.1486581371
 20
8.8005583986
 30
0.0
 10
9.1347970355
 20
8.8374466861
 30
0.0
 10
9.1227151694
 20
8.8748487774
 30
0.0
 10
9.1124416889
 20
8.9126746393
 30
0.0
 10
9.1040013957
 20
8.9508332117
 30
0.0
 10
9.0974146857
 20
8.9892326259
 30
0.0
 10
9.0926974979
 20
9.0277804246
 30
0.0
 10
9.0898612756
 20
9.0663837832
 30
0.0
 10
9.0889129373
 20
9.1049497319
 30
0.0
 10
9.0898548584
 20
9.1433853784
 30
0.0
 10
9.0926848637
 20
9.181598131
 30
0.0
 10
9.0973962309
 20
9.2194959205
 30
0.0
 10
9.1039777041
 20
9.256987422
 30
0.0
 10
9.1124135188
 20
9.2939822744
 30
0.0
 10
9.1226834376
 20
9.3303912988
 30
0.0
 10
9.1347627965
 20
9.3661267138
 30
0.0
 10
9.14862256
 20
9.4011023489
 30
0.0
 10
9.1642293893
 20
9.4352338547
 30
0.0
 10
9.1815457231
 20
9.4684389066
 30
0.0
 10
9.2005298656
 20
9.5006374063
 30
0.0
 10
9.2211360862
 20
9.5317516773
 30
0.0
 10
9.2433147294
 20
9.5617066549
 30
0.0
 10
9.2670123342
 20
9.5904300701
 30
0.0
 10
9.2921717634
 20
9.6178526264
 30
0.0
 10
9.3187323425
 20
9.6439081703
 30
0.0
 10
9.3466300078
 20
9.6685338525
 30
0.0
 10
9.3757974625
 20
9.691670282
 30
0.0
 10
9.4061643418
 20
9.713261671
 30
0.0
 10
9.4376573849
 20
9.7332559701
 30
0.0
 10
9.4702006133
 20
9.7516049971
 30
0.0
 10
9.5037155184
 20
9.7682645517
 30
0.0
 10
9.5381212537
 20
9.7831945204
 30
0.0
 10
9.573334833
 20
9.7963589735
 30
0.0
 10
9.6092713314
 20
9.8077262471
 30
0.0
 10
9.645844096
 20
9.8172690252
 30
0.0
 10
9.6829649408
 20
9.8249643835
 30
0.0
 10
9.7205444194
 20
9.83079389
 30
0.0
 10
9.7584918329
 20
9.8347435462
 30
0.0
 10
9.7967161461
 20
9.8368039947
 30
0.0
 10
9.8351239538
 20
9.8369703312
 30
0.0
 10
9.8607492902
 20
9.8358201013
 30
0.0
 10
9.8735597972
 20
9.8349316896
 30
0.0
  0
SPLINE
  5
372
100
AcDbEntity
  8
0
100
AcDbSpline
 62
7
  6
CONTINUOUS
 70
0
 71
3
 72
17
 73
13
 74
0
 42
0.0000001
 43
0.0000001
 44
0.0000000001
 40
0.0
 40
0.0
 40
0.0
 40
0.0
 40
0.1232907431
 40
0.1850794128
 40
0.246968939
 40
0.371063671
 40
0.4956626422
 40
0.5581794239
 40
0.6208414623
 40
0.74659653
 40
0.8729783539
 40
1.0
 40
1.0
 40
1.0
 40
1.0
 10
11.0647650353
 20
6.0909441588
 30
0.0
 10
11.0607816766
 20
6.0885894981
 30
0.0
 10
11.05466109
 20
6.0852855099
 30
0.0
 10
11.0462618836
 20
6.0813613634
 30
0.0
 10
11.0376896496
 20
6.0777513743
 30
0.0
 10
11.0266927129
 20
6.073849446
 30
0.0
 10
11.0154081143
 20
6.0707898315
 30
0.0
 10
11.0062341511
 20
6.0688518583
 30
0.0
 10
10.9969511475
 20
6.0672524744
 30
0.0
 10
10.9852016247
 20
6.0659021312
 30
0.0
 10
10.9709709192
 20
6.0653279413
 30
0.0
 10
10.961455499
 20
6.065642343
 30
0.0
 10
10.956699632
 20
6.0659721634
 30
0.0
  0
SPLINE
  5
373
100
AcDbEntity
  8
0
100
AcDbSpline
 62
7
  6
CONTINUOUS
 70
0
 71
3
 72
21
 73
17
 74
0
 42
0.0000001
 43
0.0000001
 44
0.0000000001
 40
0.0
 40
0.0
 40
0.0
 40
0.0
 40
0.0616532342
 40
0.1233294953
 40
0.1850515501
 40
0.2468416649
 40
0.3087213494
 40
0.3707111104
 40
0.4328302434
 40
0.4950966323
 40
0.5575265657
 40
0.6201345673
 40
0.682933156
 40
0.7459330948
 40
0.8725263949
 40
1.0
 40
1.0
 40
1.0
 40
1.0
 10
10.9849730042
 20
5.8764376044
 30
0.0
 10
10.9816400401
 20
5.8732181908
 30
0.0
 10
10.9747982785
 20
5.8669561242
 30
0.0
 10
10.9640435084
 20
5.858126426
 30
0.0
 10
10.9528217323
 20
5.8498803425
 30
0.0
 10
10.9411616054
 20
5.8422390086
 30
0.0
 10
10.9290923985
 20
5.835221585
 30
0.0
 10
10.9166445487
 20
5.828845779
 30
0.0
 10
10.9038494387
 20
5.8231275816
 30
0.0
 10
10.8907393165
 20
5.8180813677
 30
0.0
 10
10.8773471692
 20
5.813719852
 30
0.0
 10
10.8637068435
 20
5.8100539931
 30
0.0
 10
10.8498523171
 20
5.8070929202
 30
0.0
 10
10.8311141621
 20
5.8040899948
 30
0.0
 10
10.8073196958
 20
5.8021390866
 30
0.0
 10
10.7881903722
 20
5.8025123997
 30
0.0
 10
10.7786322699
 20
5.8031752563
 30
0.0
  0
SPLINE
  5
374
100
AcDbEntity
  8
0
100
AcDbSpline
 62
7
  6
CONTINUOUS
 70
0
 71
3
 72
47
 73
43
 74
0
 42
0.0000001
 43
0.0000001
 44
0.0000000001
 40
0.0
 40
0.0
 40
0.0
 40
0.0
 40
0.0964110176
 40
0.1436632231
 40
0.190184363
 40
0.2359037183
 40
0.2807528566
 40
0.3246652738
 40
0.3675763456
 40
0.4094237308
 40
0.4501475342
 40
0.4896904709
 40
0.5279980947
 40
0.5650191133
 40
0.6007056748
 40
0.635013641
 40
0.6679029762
 40
0.6993382869
 40
0.7292893371
 40
0.7577316858
 40
0.7846475669
 40
0.8100270656
 40
0.8338694563
 40
0.8452178312
 40
0.8561868946
 40
0.8667799988
 40
0.8770016481
 40
0.886857439
 40
0.8963542132
 40
0.9055003585
 40
0.914305768
 40
0.922782163
 40
0.9309433057
 40
0.9388050644
 40
0.9463857992
 40
0.9607836463
 40
0.9676580084
 40
0.9743519005
 40
0.9808974535
 40
0.9873293048
 40
0.9936841057
 40
1.0
 40
1.0
 40
1.0
 40
1.0
 10
13.1028710442
 20
9.7957440666
 30
0.0
 10
13.1028710442
 20
9.814933951
 30
0.0
 10
13.1025640881
 20
9.8435305309
 30
0.0
 10
13.1015058992
 20
9.8813711019
 30
0.0
 10
13.1004033122
 20
9.9091148773
 30
0.0
 10
13.0989884011
 20
9.9363655085
 30
0.0
 10
13.0972635183
 20
9.9630780261
 30
0.0
 10
13.095231556
 20
9.9892083655
 30
0.0
 10
13.0928958853
 20
10.0147134488
 30
0.0
 10
13.0902603979
 20
10.0395512192
 30
0.0
 10
13.0873294988
 20
10.0636807469
 30
0.0
 10
13.0841080734
 20
10.0870622765
 30
0.0
 10
13.0806014769
 20
10.1096572954
 30
0.0
 10
13.076815555
 20
10.1314286151
 30
0.0
 10
13.0727566277
 20
10.1523404377
 30
0.0
 10
13.0684314558
 20
10.1723584049
 30
0.0
 10
13.0638472223
 20
10.1914496668
 30
0.0
 10
13.0590115592
 20
10.2095829611
 30
0.0
 10
13.0539324987
 20
10.2267286851
 30
0.0
 10
13.0486184408
 20
10.2428588972
 30
0.0
 10
13.0430780899
 20
10.2579475514
 30
0.0
 10
13.0373205329
 20
10.2719700386
 30
0.0
 10
13.0322694418
 20
10.2829220829
 30
0.0
 10
13.0281157519
 20
10.291118287
 30
0.0
 10
13.0250034662
 20
10.2968832269
 30
0.0
 10
13.021844021
 20
10.3023651366
 30
0.0
 10
13.0186386889
 20
10.307561826
 30
0.0
 10
13.0153887514
 20
10.3124711888
 30
0.0
 10
13.0120954323
 20
10.3170912023
 30
0.0
 10
13.0087600777
 20
10.3214200366
 30
0.0
 10
13.0053839317
 20
10.3254558978
 30
0.0
 10
13.0019682291
 20
10.3291971366
 30
0.0
 10
12.9985144077
 20
10.332642175
 30
0.0
 10
12.9950232826
 20
10.335789741
 30
0.0
 10
12.9904013556
 20
10.3395229943
 30
0.0
 10
12.9856253719
 20
10.3427445197
 30
0.0
 10
12.9807160777
 20
10.34537617
 30
0.0
 10
12.9770598787
 20
10.3470160353
 30
0.0
 10
12.9733750737
 20
10.3483508237
 30
0.0
 10
12.9696631327
 20
10.3493798402
 30
0.0
 10
12.9659262026
 20
10.3501021899
 30
0.0
 10
12.9634161658
 20
10.3503793182
 30
0.0
 10
12.9621620472
 20
10.3504662947
 30
0.0
  0
SPLINE
  5
375
100
AcDbEntity
  8
0
100
AcDbSpline
 62
7
  6
CONTINUOUS
 70
0
 71
3
 72
17
 73
13
 74
0
 42
0.0000001
 43
0.0000001
 44
0.0000000001
 40
0.0
 40
0.0
 40
0.0
 40
0.0
 40
0.1232907431
 40
0.1850794128
 40
0.246968939
 40
0.371063671
 40
0.4956626422
 40
0.5581794239
 40
0.6208414623
 40
0.74659653
 40
0.8729783539
 40
1.0
 40
1.0
 40
1.0
 40
1.0
 10
9.3743948255
 20
6.208171731
 30
0.0
 10
9.3704114668
 20
6.2058170703
 30
0.0
 10
9.3642908802
 20
6.2025130821
 30
0.0
 10
9.3558916738
 20
6.1985889356
 30
0.0
 10
9.3473194398
 20
6.1949789465
 30
0.0
 10
9.3363225031
 20
6.1910770182
 30
0.0
 10
9.3250379045
 20
6.1880174038
 30
0.0
 10
9.3158639413
 20
6.1860794305
 30
0.0
 10
9.3065809377
 20
6.1844800466
 30
0.0
 10
9.2948314149
 20
6.1831297034
 30
0.0
 10
9.2806007094
 20
6.1825555135
 30
0.0
 10
9.2710852892
 20
6.1828699152
 30
0.0
 10
9.2663294222
 20
6.1831997357
 30
0.0
  0
SPLINE
  5
376
100
AcDbEntity
  8
0
100
AcDbSpline
 62
7
  6
CONTINUOUS
 70
0
 71
3
 72
53
 73
49
 74
0
 42
0.0000001
 43
0.0000001
 44
0.0000000001
 40
0.0
 40
0.0
 40
0.0
 40
0.0
 40
0.0417740297
 40
0.0840369869
 40
0.1266585521
 40
0.1695065595
 40
0.2124481874
 40
0.2553501548
 40
0.2980793668
 40
0.3405034
 40
0.3824910408
 40
0.4239128105
 40
0.4646414999
 40
0.5045527101
 40
0.5435254036
 40
0.5814424718
 40
0.6181913251
 40
0.6536645175
 40
0.687760418
 40
0.720383954
 40
0.7361162212
 40
0.7514481887
 40
0.7663701981
 40
0.7808732402
 40
0.7949488863
 40
0.8085894735
 40
0.8217880069
 40
0.8345383998
 40
0.8468353625
 40
0.8586746935
 40
0.8700531797
 40
0.8809689358
 40
0.8914213497
 40
0.9014114698
 40
0.9109420406
 40
0.9200179482
 40
0.928646397
 40
0.936837438
 40
0.9446043378
 40
0.9519642164
 40
0.9589386314
 40
0.9655543018
 40
0.9718438078
 40
0.9778461912
 40
0.9836073701
 40
0.9891800475
 40
0.9946230791
 40
1.0
 40
1.0
 40
1.0
 40
1.0
 10
13.1028710442
 20
7.2601886224
 30
0.0
 10
13.1028710442
 20
7.24634596
 30
0.0
 10
13.1026550838
 20
7.2184981842
 30
0.0
 10
13.1017003623
 20
7.1765367362
 30
0.0
 10
13.1001157591
 20
7.134238149
 30
0.0
 10
13.0979064686
 20
7.0917424416
 30
0.0
 10
13.0950797918
 20
7.0491902116
 30
0.0
 10
13.091645072
 20
7.0067222323
 30
0.0
 10
13.0876136872
 20
6.9644790071
 30
0.0
 10
13.0829990015
 20
6.9226002861
 30
0.0
 10
13.0778163255
 20
6.881224607
 30
0.0
 10
13.0720828647
 20
6.8404888308
 30
0.0
 10
13.0658176643
 20
6.8005276855
 30
0.0
 10
13.0590415467
 20
6.7614733143
 30
0.0
 10
13.0517770442
 20
6.7234548337
 30
0.0
 10
13.044048327
 20
6.6865978905
 30
0.0
 10
13.0358811209
 20
6.6510242617
 30
0.0
 10
13.0273026364
 20
6.6168513396
 30
0.0
 10
13.0183414337
 20
6.5841920647
 30
0.0
 10
13.0104878024
 20
6.5580198409
 30
0.0
 10
13.0040231236
 20
6.5379295609
 30
0.0
 10
12.9991563865
 20
6.5234885954
 30
0.0
 10
12.9942167649
 20
6.5095036454
 30
0.0
 10
12.9892083632
 20
6.4959862348
 30
0.0
 10
12.9841352883
 20
6.4829475265
 30
0.0
 10
12.9790018039
 20
6.4703982573
 30
0.0
 10
12.9738120906
 20
6.458348778
 30
0.0
 10
12.9685705209
 20
6.4468089857
 30
0.0
 10
12.9632813421
 20
6.4357883841
 30
0.0
 10
12.9579490081
 20
6.42529599
 30
0.0
 10
12.9525778155
 20
6.4153404233
 30
0.0
 10
12.947172266
 20
6.4059297838
 30
0.0
 10
12.9417366818
 20
6.3970717717
 30
0.0
 10
12.9362755662
 20
6.3887735388
 30
0.0
 10
12.9307932295
 20
6.3810418348
 30
0.0
 10
12.9252941121
 20
6.3738828465
 30
0.0
 10
12.9197824517
 20
6.3673023609
 30
0.0
 10
12.9142625352
 20
6.3613056184
 30
0.0
 10
12.9087384408
 20
6.3558974824
 30
0.0
 10
12.9032141967
 20
6.3510823534
 30
0.0
 10
12.8976936431
 20
6.3468643294
 30
0.0
 10
12.8921805182
 20
6.343247243
 30
0.0
 10
12.8866785247
 20
6.3402347643
 30
0.0
 10
12.8811914125
 20
6.3378305728
 30
0.0
 10
12.8757234217
 20
6.3360382085
 30
0.0
 10
12.8702790468
 20
6.3348612187
 30
0.0
 10
12.8648649098
 20
6.3343023416
 30
0.0
 10
12.8612703762
 20
6.3343434054
 30
0.0
 10
12.8594928952
 20
6.3344666785
 30
0.0
  0
SPLINE
  5
377
100
AcDbEntity
  8
0
100
AcDbSpline
 62
7
  6
CONTINUOUS
 70
0
 71
3
 72
21
 73
17
 74
0
 42
0.0000001
 43
0.0000001
 44
0.0000000001
 40
0.0
 40
0.0
 40
0.0
 40
0.0
 40
0.0616532342
 40
0.1233294953
 40
0.1850515501
 40
0.2468416649
 40
0.3087213494
 40
0.3707111104
 40
0.4328302434
 40
0.4950966323
 40
0.5575265657
 40
0.6201345673
 40
0.682933156
 40
0.7459330948
 40
0.8725263949
 40
1.0
 40
1.0
 40
1.0
 40
1.0
 10
9.2946027944
 20
5.9936651766
 30
0.0
 10
9.2912698303
 20
5.990445763
 30
0.0
 10
9.2844280687
 20
5.9841836964
 30
0.0
 10
9.2736732986
 20
5.9753539982
 30
0.0
 10
9.2624515225
 20
5.9671079147
 30
0.0
 10
9.2507913956
 20
5.9594665808
 30
0.0
 10
9.2387221887
 20
5.9524491573
 30
0.0
 10
9.2262743389
 20
5.9460733512
 30
0.0
 10
9.2134792288
 20
5.9403551538
 30
0.0
 10
9.2003691067
 20
5.9353089399
 30
0.0
 10
9.1869769594
 20
5.9309474242
 30
0.0
 10
9.1733366337
 20
5.9272815653
 30
0.0
 10
9.1594821073
 20
5.9243204924
 30
0.0
 10
9.1407439523
 20
5.921317567
 30
0.0
 10
9.116949486
 20
5.9193666588
 30
0.0
 10
9.0978201624
 20
5.9197399719
 30
0.0
 10
9.0882620601
 20
5.9204028285
 30
0.0
  0
SPLINE
  5
378
100
AcDbEntity
  8
0
100
AcDbSpline
 62
7
  6
CONTINUOUS
 70
0
 71
3
 72
47
 73
43
 74
0
 42
0.0000001
 43
0.0000001
 44
0.0000000001
 40
0.0
 40
0.0
 40
0.0
 40
0.0
 40
0.0964110176
 40
0.1436632231
 40
0.190184363
 40
0.2359037183
 40
0.2807528566
 40
0.3246652738
 40
0.3675763456
 40
0.4094237308
 40
0.4501475342
 40
0.4896904709
 40
0.5279980947
 40
0.5650191133
 40
0.6007056748
 40
0.635013641
 40
0.6679029762
 40
0.6993382869
 40
0.7292893371
 40
0.7577316858
 40
0.7846475669
 40
0.8100270656
 40
0.8338694563
 40
0.8452178312
 40
0.8561868946
 40
0.8667799988
 40
0.8770016481
 40
0.886857439
 40
0.8963542132
 40
0.9055003585
 40
0.914305768
 40
0.922782163
 40
0.9309433057
 40
0.9388050644
 40
0.9463857992
 40
0.9607836463
 40
0.9676580084
 40
0.9743519005
 40
0.9808974535
 40
0.9873293048
 40
0.9936841057
 40
1.0
 40
1.0
 40
1.0
 40
1.0
 10
13.1028710442
 20
7.2601886224
 30
0.0
 10
13.1028710442
 20
7.2793785067
 30
0.0
 10
13.1025640881
 20
7.3079750866
 30
0.0
 10
13.1015058992
 20
7.3458156576
 30
0.0
 10
13.1004033122
 20
7.3735594331
 30
0.0
 10
13.0989884011
 20
7.4008100643
 30
0.0
 10
13.0972635183
 20
7.4275225819
 30
0.0
 10
13.095231556
 20
7.4536529213
 30
0.0
 10
13.0928958853
 20
7.4791580046
 30
0.0
 10
13.0902603979
 20
7.5039957749
 30
0.0
 10
13.0873294988
 20
7.5281253026
 30
0.0
 10
13.0841080734
 20
7.5515068322
 30
0.0
 10
13.0806014769
 20
7.5741018511
 30
0.0
 10
13.076815555
 20
7.5958731709
 30
0.0
 10
13.0727566277
 20
7.6167849934
 30
0.0
 10
13.0684314558
 20
7.6368029606
 30
0.0
 10
13.0638472223
 20
7.6558942226
 30
0.0
 10
13.0590115592
 20
7.6740275169
 30
0.0
 10
13.0539324987
 20
7.6911732409
 30
0.0
 10
13.0486184408
 20
7.7073034529
 30
0.0
 10
13.0430780899
 20
7.7223921071
 30
0.0
 10
13.0373205329
 20
7.7364145943
 30
0.0
 10
13.0322694418
 20
7.7473666386
 30
0.0
 10
13.0281157519
 20
7.7555628428
 30
0.0
 10
13.0250034662
 20
7.7613277827
 30
0.0
 10
13.021844021
 20
7.7668096924
 30
0.0
 10
13.0186386889
 20
7.7720063818
 30
0.0
 10
13.0153887514
 20
7.7769157445
 30
0.0
 10
13.0120954323
 20
7.781535758
 30
0.0
 10
13.0087600777
 20
7.7858645923
 30
0.0
 10
13.0053839317
 20
7.7899004535
 30
0.0
 10
13.0019682291
 20
7.7936416924
 30
0.0
 10
12.9985144077
 20
7.7970867308
 30
0.0
 10
12.9950232826
 20
7.8002342967
 30
0.0
 10
12.9904013556
 20
7.80396755
 30
0.0
 10
12.9856253719
 20
7.8071890755
 30
0.0
 10
12.9807160777
 20
7.8098207257
 30
0.0
 10
12.9770598787
 20
7.811460591
 30
0.0
 10
12.9733750737
 20
7.8127953795
 30
0.0
 10
12.9696631327
 20
7.8138243959
 30
0.0
 10
12.9659262026
 20
7.8145467456
 30
0.0
 10
12.9634161658
 20
7.8148238739
 30
0.0
 10
12.9621620472
 20
7.8149108504
 30
0.0
  0
SPLINE
  5
379
100
AcDbEntity
  8
0
100
AcDbSpline
 62
7
  6
CONTINUOUS
 70
0
 71
3
 72
17
 73
13
 74
0
 42
0.0000001
 43
0.0000001
 44
0.0000000001
 40
0.0
 40
0.0
 40
0.0
 40
0.0
 40
0.1232907431
 40
0.1850794128
 40
0.246968939
 40
0.371063671
 40
0.4956626422
 40
0.5581794239
 40
0.6208414623
 40
0.74659653
 40
0.8729783539
 40
1.0
 40
1.0
 40
1.0
 40
1.0
 10
9.3743948255
 20
8.1400234692
 30
0.0
 10
9.3704114668
 20
8.1376688086
 30
0.0
 10
9.3642908802
 20
8.1343648204
 30
0.0
 10
9.3558916738
 20
8.1304406739
 30
0.0
 10
9.3473194398
 20
8.1268306847
 30
0.0
 10
9.3363225031
 20
8.1229287565
 30
0.0
 10
9.3250379045
 20
8.119869142
 30
0.0
 10
9.3158639413
 20
8.1179311688
 30
0.0
 10
9.3065809377
 20
8.1163317849
 30
0.0
 10
9.2948314149
 20
8.1149814416
 30
0.0
 10
9.2806007094
 20
8.1144072518
 30
0.0
 10
9.2710852892
 20
8.1147216534
 30
0.0
 10
9.2663294222
 20
8.1150514739
 30
0.0
  0
SPLINE
  5
37A
100
AcDbEntity
  8
0
100
AcDbSpline
 62
7
  6
CONTINUOUS
 70
0
 71
3
 72
21
 73
17
 74
0
 42
0.0000001
 43
0.0000001
 44
0.0000000001
 40
0.0
 40
0.0
 40
0.0
 40
0.0
 40
0.0616532342
 40
0.1233294953
 40
0.1850515501
 40
0.2468416649
 40
0.3087213494
 40
0.3707111104
 40
0.4328302434
 40
0.4950966323
 40
0.5575265657
 40
0.6201345673
 40
0.682933156
 40
0.7459330948
 40
0.8725263949
 40
1.0
 40
1.0
 40
1.0
 40
1.0
 10
9.2946027944
 20
7.9255169148
 30
0.0
 10
9.2912698303
 20
7.9222975013
 30
0.0
 10
9.2844280687
 20
7.9160354346
 30
0.0
 10
9.2736732986
 20
7.9072057365
 30
0.0
 10
9.2624515225
 20
7.898959653
 30
0.0
 10
9.2507913956
 20
7.8913183191
 30
0.0
 10
9.2387221887
 20
7.8843008955
 30
0.0
 10
9.2262743389
 20
7.8779250895
 30
0.0
 10
9.2134792288
 20
7.8722068921
 30
0.0
 10
9.2003691067
 20
7.8671606782
 30
0.0
 10
9.1869769594
 20
7.8627991625
 30
0.0
 10
9.1733366337
 20
7.8591333036
 30
0.0
 10
9.1594821073
 20
7.8561722306
 30
0.0
 10
9.1407439523
 20
7.8531693052
 30
0.0
 10
9.116949486
 20
7.8512183971
 30
0.0
 10
9.0978201624
 20
7.8515917101
 30
0.0
 10
9.0882620601
 20
7.8522545668
 30
0.0
  0
SPLINE
  5
37B
100
AcDbEntity
  8
0
100
AcDbSpline
 62
7
  6
CONTINUOUS
 70
0
 71
3
 72
11
 73
7
 74
0
 42
0.0000001
 43
0.0000001
 44
0.0000000001
 40
0.0
 40
0.0
 40
0.0
 40
0.0
 40
0.2521556509
 40
0.5028334291
 40
0.7520864208
 40
1.0
 40
1.0
 40
1.0
 40
1.0
 10
9.2663294222
 20
6.0924027026
 30
0.0
 10
9.2744109771
 20
6.0918422449
 30
0.0
 10
9.2905822758
 20
6.0914024733
 30
0.0
 10
9.3147321952
 20
6.092809923
 30
0.0
 10
9.3385362355
 20
6.0962753611
 30
0.0
 10
9.354104487
 20
6.099952578
 30
0.0
 10
9.3617673544
 20
6.1021243536
 30
0.0
  0
SPLINE
  5
37C
100
AcDbEntity
  8
0
100
AcDbSpline
 62
7
  6
CONTINUOUS
 70
0
 71
3
 72
40
 73
36
 74
0
 42
0.0000001
 43
0.0000001
 44
0.0000000001
 40
0.0
 40
0.0
 40
0.0
 40
0.0
 40
0.0311448352
 40
0.0467776712
 40
0.0624478163
 40
0.0938928931
 40
0.1254753683
 40
0.1571831038
 40
0.1890013145
 40
0.2209130644
 40
0.2528995674
 40
0.2849405815
 40
0.3170148072
 40
0.349100303
 40
0.3811749104
 40
0.4132166804
 40
0.4452042987
 40
0.4771175008
 40
0.5089374741
 40
0.5406472387
 40
0.5722320012
 40
0.6036794751
 40
0.6349801612
 40
0.6661275796
 40
0.6971184487
 40
0.7279528012
 40
0.7586340346
 40
0.7891688873
 40
0.8195673392
 40
0.849842433
 40
0.8800100174
 40
0.9100884154
 40
0.9400980228
 40
0.9700608475
 40
1.0
 40
1.0
 40
1.0
 40
1.0
 10
10.7786322699
 20
5.8031752563
 30
0.0
 10
10.7716269502
 20
5.8036610769
 30
0.0
 10
10.7611269188
 20
5.8047750637
 30
0.0
 10
10.7472239309
 20
5.8070137266
 30
0.0
 10
10.7333430216
 20
5.8097621231
 30
0.0
 10
10.7161309031
 20
5.8141391787
 30
0.0
 10
10.6958371506
 20
5.8208576281
 30
0.0
 10
10.6759855418
 20
5.8290126667
 30
0.0
 10
10.6566825131
 20
5.8385605724
 30
0.0
 10
10.6380307479
 20
5.8494503441
 30
0.0
 10
10.6201296727
 20
5.8616238336
 30
0.0
 10
10.6030746531
 20
5.8750160846
 30
0.0
 10
10.5869565678
 20
5.8895556714
 30
0.0
 10
10.5718613093
 20
5.905165077
 30
0.0
 10
10.5578693365
 20
5.9217611027
 30
0.0
 10
10.5450552486
 20
5.9392553072
 30
0.0
 10
10.5334873912
 20
5.9575544728
 30
0.0
 10
10.5232274953
 20
5.976561097
 30
0.0
 10
10.5143303479
 20
5.9961739047
 30
0.0
 10
10.5068435021
 20
6.0162883822
 30
0.0
 10
10.5008070239
 20
6.0367973278
 30
0.0
 10
10.496253277
 20
6.0575914145
 30
0.0
 10
10.4932067464
 20
6.0785597657
 30
0.0
 10
10.4916839035
 20
6.0995905377
 30
0.0
 10
10.49169311
 20
6.1205715097
 30
0.0
 10
10.4932345646
 20
6.1413906757
 30
0.0
 10
10.4963002904
 20
6.1619368378
 30
0.0
 10
10.5008741635
 20
6.1821001973
 30
0.0
 10
10.5069319884
 20
6.2017729445
 30
0.0
 10
10.5144416026
 20
6.2208498295
 30
0.0
 10
10.5233630716
 20
6.2392287684
 30
0.0
 10
10.5336487565
 20
6.2568112678
 30
0.0
 10
10.5452440619
 20
6.2735034617
 30
0.0
 10
10.5580858535
 20
6.2892147881
 30
0.0
 10
10.5674363616
 20
6.2989831198
 30
0.0
 10
10.5722915356
 20
6.3036728831
 30
0.0
  0
SPLINE
  5
37D
100
AcDbEntity
  8
0
100
AcDbSpline
 62
7
  6
CONTINUOUS
 70
0
 71
3
 72
39
 73
35
 74
0
 42
0.0000001
 43
0.0000001
 44
0.0000000001
 40
0.0
 40
0.0
 40
0.0
 40
0.0
 40
0.0308460029
 40
0.0618156224
 40
0.0929034665
 40
0.1241057483
 40
0.1554153414
 40
0.1868244218
 40
0.2183236741
 40
0.249902671
 40
0.2815499711
 40
0.3132532705
 40
0.3449995658
 40
0.376775316
 40
0.4085666121
 40
0.4403593509
 40
0.4721394125
 40
0.5038928359
 40
0.5356059919
 40
0.5672657527
 40
0.5988596577
 40
0.6303760742
 40
0.6618043536
 40
0.6931349745
 40
0.7243596739
 40
0.7554715661
 40
0.786465246
 40
0.8173368778
 40
0.8480842676
 40
0.878706913
 40
0.9092060285
 40
0.9395845496
 40
0.9698471109
 40
1.0
 40
1.0
 40
1.0
 40
1.0
 10
9.2663294222
 20
6.0924027026
 30
0.0
 10
9.2607131838
 20
6.0927921901
 30
0.0
 10
9.2494783351
 20
6.0939020482
 30
0.0
 10
9.2327204319
 20
6.0965435112
 30
0.0
 10
9.2160777269
 20
6.1001562836
 30
0.0
 10
9.1996082604
 20
6.1047275768
 30
0.0
 10
9.1833682205
 20
6.1102418355
 30
0.0
 10
9.1674134447
 20
6.1166799843
 30
0.0
 10
9.1517986546
 20
6.1240199247
 30
0.0
 10
9.1365774303
 20
6.1322364047
 30
0.0
 10
9.1218019872
 20
6.1413011841
 30
0.0
 10
9.1075230137
 20
6.1511831243
 30
0.0
 10
9.0937894962
 20
6.1618482932
 30
0.0
 10
9.0806485541
 20
6.1732600815
 30
0.0
 10
9.0681452826
 20
6.1853793291
 30
0.0
 10
9.0563225852
 20
6.1981644432
 30
0.0
 10
9.0452210259
 20
6.2115715446
 30
0.0
 10
9.0348787041
 20
6.2255546304
 30
0.0
 10
9.0253311232
 20
6.2400657265
 30
0.0
 10
9.0166110701
 20
6.255055051
 30
0.0
 10
9.008748506
 20
6.2704711829
 30
0.0
 10
9.001770455
 20
6.2862612322
 30
0.0
 10
8.995700896
 20
6.302371016
 30
0.0
 10
8.9905607049
 20
6.3187452557
 30
0.0
 10
8.9863675789
 20
6.335327761
 30
0.0
 10
8.9831359771
 20
6.3520616207
 30
0.0
 10
8.9808770699
 20
6.3688893946
 30
0.0
 10
8.9795986988
 20
6.385753309
 30
0.0
 10
8.9793053183
 20
6.4025954473
 30
0.0
 10
8.9799980159
 20
6.4193579762
 30
0.0
 10
8.9816744737
 20
6.4359832517
 30
0.0
 10
8.9843290896
 20
6.4524143483
 30
0.0
 10
8.9879525663
 20
6.4685940147
 30
0.0
 10
8.991011826
 20
6.4791959736
 30
0.0
 10
8.9926983953
 20
6.4844343886
 30
0.0
  0
SPLINE
  5
37E
100
AcDbEntity
  8
0
100
AcDbSpline
 62
7
  6
CONTINUOUS
 70
0
 71
3
 72
39
 73
35
 74
0
 42
0.0000001
 43
0.0000001
 44
0.0000000001
 40
0.0
 40
0.0
 40
0.0
 40
0.0
 40
0.0310058087
 40
0.0621511473
 40
0.0934296835
 40
0.1248352673
 40
0.1563581737
 40
0.1879873334
 40
0.2197097332
 40
0.2515109076
 40
0.2833751063
 40
0.3152855738
 40
0.3472248176
 40
0.3791748897
 40
0.4111176714
 40
0.4430351598
 40
0.4749097529
 40
0.5067245305
 40
0.5384635275
 40
0.5701119959
 40
0.6016566541
 40
0.6330859181
 40
0.6643901097
 40
0.6955616393
 40
0.7265951593
 40
0.7574876843
 40
0.7882386743
 40
0.8188500776
 40
0.8493263303
 40
0.8796743114
 40
0.9099032488
 40
0.9400245773
 40
0.9700517493
 40
1.0
 40
1.0
 40
1.0
 40
1.0
 10
9.2663294222
 20
6.1831997357
 30
0.0
 10
9.2619918494
 20
6.1835005474
 30
0.0
 10
9.2533144679
 20
6.1843910471
 30
0.0
 10
9.2403875674
 20
6.1865778095
 30
0.0
 10
9.227574204
 20
6.1896092874
 30
0.0
 10
9.2149313214
 20
6.1934718879
 30
0.0
 10
9.2025139993
 20
6.1981487611
 30
0.0
 10
9.1903766745
 20
6.2036192868
 30
0.0
 10
9.1785724497
 20
6.2098594893
 30
0.0
 10
9.167152992
 20
6.2168419908
 30
0.0
 10
9.1561682788
 20
6.2245361929
 30
0.0
 10
9.1456663854
 20
6.2329083849
 30
0.0
 10
9.135693272
 20
6.2419218948
 30
0.0
 10
9.1262925892
 20
6.2515372538
 30
0.0
 10
9.1175054879
 20
6.2617123673
 30
0.0
 10
9.1093704415
 20
6.2724026976
 30
0.0
 10
9.1019230785
 20
6.2835614571
 30
0.0
 10
9.0951960282
 20
6.2951398105
 30
0.0
 10
9.0892187783
 20
6.3070870862
 30
0.0
 10
9.0840175476
 20
6.3193509966
 30
0.0
 10
9.0796151651
 20
6.3318778612
 30
0.0
 10
9.0760309696
 20
6.3446128413
 30
0.0
 10
9.0732807303
 20
6.3575001795
 30
0.0
 10
9.0713765753
 20
6.3704834402
 30
0.0
 10
9.0703269374
 20
6.383505754
 30
0.0
 10
9.0701365142
 20
6.3965100636
 30
0.0
 10
9.0708062447
 20
6.409439371
 30
0.0
 10
9.0723333016
 20
6.422236987
 30
0.0
 10
9.0747110973
 20
6.434846772
 30
0.0
 10
9.0779293115
 20
6.4472134064
 30
0.0
 10
9.0819738884
 20
6.4592825523
 30
0.0
 10
9.086827284
 20
6.4710013977
 30
0.0
 10
9.0924678393
 20
6.4823177598
 30
0.0
 10
9.096742421
 20
6.4895704611
 30
0.0
 10
9.0990011303
 20
6.4931110277
 30
0.0
  0
SPLINE
  5
37F
100
AcDbEntity
  8
0
100
AcDbSpline
 62
7
  6
CONTINUOUS
 70
0
 71
3
 72
64
 73
60
 74
0
 42
0.0000001
 43
0.0000001
 44
0.0000000001
 40
0.0
 40
0.0
 40
0.0
 40
0.0
 40
0.0452102438
 40
0.0910011378
 40
0.1371887914
 40
0.1835862952
 40
0.2300060483
 40
0.2762602665
 40
0.3221620218
 40
0.3675262007
 40
0.412170475
 40
0.4559162947
 40
0.4985898755
 40
0.5400232149
 40
0.5800551623
 40
0.5994977477
 40
0.6185332455
 40
0.6371439809
 40
0.6553128992
 40
0.6730236615
 40
0.6902607075
 40
0.707009241
 40
0.7232553821
 40
0.7389861811
 40
0.7541896801
 40
0.7688550884
 40
0.7829727896
 40
0.796534521
 40
0.8095335479
 40
0.821964756
 40
0.8338249752
 40
0.8451131945
 40
0.8558308688
 40
0.8659824321
 40
0.8755757112
 40
0.8846226184
 40
0.8931399775
 40
0.9011503991
 40
0.9086835055
 40
0.9157771539
 40
0.9224786942
 40
0.9288461105
 40
0.9319269763
 40
0.9349511316
 40
0.9379288252
 40
0.9408708543
 40
0.9437884508
 40
0.9466931505
 40
0.9495966615
 40
0.952510705
 40
0.9554468664
 40
0.9584164519
 40
0.9614303466
 40
0.964498924
 40
0.9708361702
 40
0.9775010542
 40
0.9845526578
 40
0.9920393958
 40
1.0
 40
1.0
 40
1.0
 40
1.0
 10
13.2320816116
 20
7.2794964539
 30
0.0
 10
13.2320816116
 20
7.2614271095
 30
0.0
 10
13.2317593547
 20
7.2250556187
 30
0.0
 10
13.2303383733
 20
7.1702408279
 30
0.0
 10
13.2279821225
 20
7.114983206
 30
0.0
 10
13.2247006609
 20
7.0595211045
 30
0.0
 10
13.2205081237
 20
7.004093735
 30
0.0
 10
13.2154226101
 20
6.9489401061
 30
0.0
 10
13.2094661069
 20
6.8942980401
 30
0.0
 10
13.2026643876
 20
6.8404031412
 30
0.0
 10
13.1950469093
 20
6.7874877535
 30
0.0
 10
13.1866467052
 20
6.7357799722
 30
0.0
 10
13.1775002348
 20
6.6855025495
 30
0.0
 10
13.1676471766
 20
6.6368722749
 30
0.0
 10
13.1587994566
 20
6.5975208129
 30
0.0
 10
13.1513860874
 20
6.5670300863
 30
0.0
 10
13.1457307508
 20
6.5449245505
 30
0.0
 10
13.1399322814
 20
6.523382856
 30
0.0
 10
13.1339968921
 20
6.5024281994
 30
0.0
 10
13.127931009
 20
6.4820831629
 30
0.0
 10
13.1217412209
 20
6.462369652
 30
0.0
 10
13.1154341859
 20
6.4433088978
 30
0.0
 10
13.10901675
 20
6.424921405
 30
0.0
 10
13.1024958609
 20
6.4072269445
 30
0.0
 10
13.0958785324
 20
6.3902445385
 30
0.0
 10
13.0891719577
 20
6.373992404
 30
0.0
 10
13.0823833539
 20
6.3584879691
 30
0.0
 10
13.0755200288
 20
6.3437478319
 30
0.0
 10
13.0685894081
 20
6.3297877201
 30
0.0
 10
13.0615988803
 20
6.3166225206
 30
0.0
 10
13.054555937
 20
6.3042661998
 30
0.0
 10
13.0474680704
 20
6.2927318099
 30
0.0
 10
13.0403426858
 20
6.282031509
 30
0.0
 10
13.0331872321
 20
6.2721764576
 30
0.0
 10
13.0260089749
 20
6.2631769118
 30
0.0
 10
13.0188150119
 20
6.2550422112
 30
0.0
 10
13.0116122856
 20
6.2477807552
 30
0.0
 10
13.0044072965
 20
6.2414002482
 30
0.0
 10
12.9972063672
 20
6.2359077427
 30
0.0
 10
12.9900152012
 20
6.2313098478
 30
0.0
 10
12.9828404033
 20
6.2276134696
 30
0.0
 10
12.976813072
 20
6.2252642871
 30
0.0
 10
12.9720267105
 20
6.223862572
 30
0.0
 10
12.9684861924
 20
6.2230507114
 30
0.0
 10
12.9649571258
 20
6.2224674278
 30
0.0
 10
12.961440486
 20
6.2221129317
 30
0.0
 10
12.9579373898
 20
6.2219873793
 30
0.0
 10
12.954448939
 20
6.222090915
 30
0.0
 10
12.9509762636
 20
6.222423539
 30
0.0
 10
12.9475204731
 20
6.2229850646
 30
0.0
 10
12.9440826573
 20
6.2237753084
 30
0.0
 10
12.9406639157
 20
6.2247939661
 30
0.0
 10
12.9372651607
 20
6.2260406256
 30
0.0
 10
12.9327133862
 20
6.2280270671
 30
0.0
 10
12.9270607817
 20
6.2311076467
 30
0.0
 10
12.9204541967
 20
6.2356679849
 30
0.0
 10
12.9139552258
 20
6.2411242459
 30
0.0
 10
12.9075698962
 20
6.2474684015
 30
0.0
 10
12.9035205186
 20
6.2521365386
 30
0.0
 10
12.9015129966
 20
6.2546048809
 30
0.0
  0
SPLINE
  5
380
100
AcDbEntity
  8
0
100
AcDbSpline
 62
7
  6
CONTINUOUS
 70
0
 71
3
 72
11
 73
7
 74
0
 42
0.0000001
 43
0.0000001
 44
0.0000000001
 40
0.0
 40
0.0
 40
0.0
 40
0.0
 40
0.2521556509
 40
0.5028334291
 40
0.7520864208
 40
1.0
 40
1.0
 40
1.0
 40
1.0
 10
10.956699632
 20
9.838878866
 30
0.0
 10
10.9647811869
 20
9.8383184083
 30
0.0
 10
10.9809524856
 20
9.8378786367
 30
0.0
 10
11.005102405
 20
9.8392860863
 30
0.0
 10
11.0289064453
 20
9.8427515245
 30
0.0
 10
11.0444746968
 20
9.8464287414
 30
0.0
 10
11.0521375642
 20
9.848600517
 30
0.0
  0
SPLINE
  5
381
100
AcDbEntity
  8
0
100
AcDbSpline
 62
7
  6
CONTINUOUS
 70
0
 71
3
 72
39
 73
35
 74
0
 42
0.0000001
 43
0.0000001
 44
0.0000000001
 40
0.0
 40
0.0
 40
0.0
 40
0.0
 40
0.0308460029
 40
0.0618156224
 40
0.0929034665
 40
0.1241057483
 40
0.1554153414
 40
0.1868244218
 40
0.2183236741
 40
0.249902671
 40
0.2815499711
 40
0.3132532705
 40
0.3449995658
 40
0.376775316
 40
0.4085666121
 40
0.4403593509
 40
0.4721394125
 40
0.5038928359
 40
0.5356059919
 40
0.5672657527
 40
0.5988596577
 40
0.6303760742
 40
0.6618043536
 40
0.6931349745
 40
0.7243596739
 40
0.7554715661
 40
0.786465246
 40
0.8173368778
 40
0.8480842676
 40
0.878706913
 40
0.9092060285
 40
0.9395845496
 40
0.9698471109
 40
1.0
 40
1.0
 40
1.0
 40
1.0
 10
10.956699632
 20
9.838878866
 30
0.0
 10
10.9510833936
 20
9.8392683535
 30
0.0
 10
10.9398485449
 20
9.8403782116
 30
0.0
 10
10.9230906417
 20
9.8430196746
 30
0.0
 10
10.9064479367
 20
9.846632447
 30
0.0
 10
10.8899784702
 20
9.8512037402
 30
0.0
 10
10.8737384303
 20
9.8567179989
 30
0.0
 10
10.8577836545
 20
9.8631561477
 30
0.0
 10
10.8421688644
 20
9.8704960881
 30
0.0
 10
10.8269476401
 20
9.8787125681
 30
0.0
 10
10.812172197
 20
9.8877773475
 30
0.0
 10
10.7978932235
 20
9.8976592877
 30
0.0
 10
10.784159706
 20
9.9083244566
 30
0.0
 10
10.7710187639
 20
9.9197362449
 30
0.0
 10
10.7585154924
 20
9.9318554925
 30
0.0
 10
10.746692795
 20
9.9446406066
 30
0.0
 10
10.7355912357
 20
9.958047708
 30
0.0
 10
10.7252489139
 20
9.9720307938
 30
0.0
 10
10.715701333
 20
9.9865418899
 30
0.0
 10
10.7069812799
 20
10.0015312144
 30
0.0
 10
10.6991187158
 20
10.0169473463
 30
0.0
 10
10.6921406648
 20
10.0327373956
 30
0.0
 10
10.6860711058
 20
10.0488471794
 30
0.0
 10
10.6809309147
 20
10.0652214191
 30
0.0
 10
10.6767377887
 20
10.0818039244
 30
0.0
 10
10.6735061869
 20
10.0985377841
 30
0.0
 10
10.6712472797
 20
10.115365558
 30
0.0
 10
10.6699689086
 20
10.1322294724
 30
0.0
 10
10.6696755281
 20
10.1490716106
 30
0.0
 10
10.6703682257
 20
10.1658341396
 30
0.0
 10
10.6720446835
 20
10.1824594151
 30
0.0
 10
10.6746992994
 20
10.1988905117
 30
0.0
 10
10.6783227761
 20
10.2150701781
 30
0.0
 10
10.6813820358
 20
10.225672137
 30
0.0
 10
10.6830686051
 20
10.230910552
 30
0.0
  0
SPLINE
  5
382
100
AcDbEntity
  8
0
100
AcDbSpline
 62
7
  6
CONTINUOUS
 70
0
 71
3
 72
40
 73
36
 74
0
 42
0.0000001
 43
0.0000001
 44
0.0000000001
 40
0.0
 40
0.0
 40
0.0
 40
0.0
 40
0.0311448352
 40
0.0467776712
 40
0.0624478163
 40
0.0938928931
 40
0.1254753683
 40
0.1571831038
 40
0.1890013145
 40
0.2209130644
 40
0.2528995674
 40
0.2849405815
 40
0.3170148072
 40
0.349100303
 40
0.3811749104
 40
0.4132166804
 40
0.4452042987
 40
0.4771175008
 40
0.5089374741
 40
0.5406472387
 40
0.5722320012
 40
0.6036794751
 40
0.6349801612
 40
0.6661275796
 40
0.6971184487
 40
0.7279528012
 40
0.7586340346
 40
0.7891688873
 40
0.8195673392
 40
0.849842433
 40
0.8800100174
 40
0.9100884154
 40
0.9400980228
 40
0.9700608475
 40
1.0
 40
1.0
 40
1.0
 40
1.0
 10
9.0882620601
 20
5.9204028285
 30
0.0
 10
9.0812567404
 20
5.9208886491
 30
0.0
 10
9.070756709
 20
5.9220026359
 30
0.0
 10
9.0568537211
 20
5.9242412988
 30
0.0
 10
9.0429728118
 20
5.9269896953
 30
0.0
 10
9.0257606933
 20
5.931366751
 30
0.0
 10
9.0054669407
 20
5.9380852003
 30
0.0
 10
8.985615332
 20
5.9462402389
 30
0.0
 10
8.9663123033
 20
5.9557881446
 30
0.0
 10
8.9476605381
 20
5.9666779163
 30
0.0
 10
8.9297594629
 20
5.9788514058
 30
0.0
 10
8.9127044433
 20
5.9922436568
 30
0.0
 10
8.896586358
 20
6.0067832436
 30
0.0
 10
8.8814910995
 20
6.0223926492
 30
0.0
 10
8.8674991267
 20
6.0389886749
 30
0.0
 10
8.8546850388
 20
6.0564828794
 30
0.0
 10
8.8431171814
 20
6.0747820451
 30
0.0
 10
8.8328572855
 20
6.0937886692
 30
0.0
 10
8.8239601381
 20
6.1134014769
 30
0.0
 10
8.8164732923
 20
6.1335159544
 30
0.0
 10
8.8104368141
 20
6.1540249
 30
0.0
 10
8.8058830672
 20
6.1748189867
 30
0.0
 10
8.8028365366
 20
6.1957873379
 30
0.0
 10
8.8013136937
 20
6.2168181099
 30
0.0
 10
8.8013229002
 20
6.237799082
 30
0.0
 10
8.8028643548
 20
6.2586182479
 30
0.0
 10
8.8059300806
 20
6.27916441
 30
0.0
 10
8.8105039537
 20
6.2993277695
 30
0.0
 10
8.8165617786
 20
6.3190005167
 30
0.0
 10
8.8240713928
 20
6.3380774017
 30
0.0
 10
8.8329928618
 20
6.3564563407
 30
0.0
 10
8.8432785467
 20
6.37403884
 30
0.0
 10
8.8548738521
 20
6.390731034
 30
0.0
 10
8.8677156437
 20
6.4064423603
 30
0.0
 10
8.8770661518
 20
6.416210692
 30
0.0
 10
8.8819213258
 20
6.4209004553
 30
0.0
  0
SPLINE
  5
383
100
AcDbEntity
  8
0
100
AcDbSpline
 62
7
  6
CONTINUOUS
 70
0
 71
3
 72
39
 73
35
 74
0
 42
0.0000001
 43
0.0000001
 44
0.0000000001
 40
0.0
 40
0.0
 40
0.0
 40
0.0
 40
0.0310058087
 40
0.0621511473
 40
0.0934296835
 40
0.1248352673
 40
0.1563581737
 40
0.1879873334
 40
0.2197097332
 40
0.2515109076
 40
0.2833751063
 40
0.3152855738
 40
0.3472248176
 40
0.3791748897
 40
0.4111176714
 40
0.4430351598
 40
0.4749097529
 40
0.5067245305
 40
0.5384635275
 40
0.5701119959
 40
0.6016566541
 40
0.6330859181
 40
0.6643901097
 40
0.6955616393
 40
0.7265951593
 40
0.7574876843
 40
0.7882386743
 40
0.8188500776
 40
0.8493263303
 40
0.8796743114
 40
0.9099032488
 40
0.9400245773
 40
0.9700517493
 40
1.0
 40
1.0
 40
1.0
 40
1.0
 10
10.956699632
 20
9.929675899
 30
0.0
 10
10.9523620592
 20
9.9299767107
 30
0.0
 10
10.9436846777
 20
9.9308672105
 30
0.0
 10
10.9307577772
 20
9.9330539729
 30
0.0
 10
10.9179444138
 20
9.9360854508
 30
0.0
 10
10.9053015312
 20
9.9399480513
 30
0.0
 10
10.8928842091
 20
9.9446249245
 30
0.0
 10
10.8807468843
 20
9.9500954501
 30
0.0
 10
10.8689426595
 20
9.9563356527
 30
0.0
 10
10.8575232018
 20
9.9633181542
 30
0.0
 10
10.8465384886
 20
9.9710123563
 30
0.0
 10
10.8360365952
 20
9.9793845483
 30
0.0
 10
10.8260634818
 20
9.9883980582
 30
0.0
 10
10.816662799
 20
9.9980134172
 30
0.0
 10
10.8078756977
 20
10.0081885307
 30
0.0
 10
10.7997406513
 20
10.018878861
 30
0.0
 10
10.7922932883
 20
10.0300376205
 30
0.0
 10
10.785566238
 20
10.0416159739
 30
0.0
 10
10.7795889881
 20
10.0535632496
 30
0.0
 10
10.7743877574
 20
10.06582716
 30
0.0
 10
10.7699853749
 20
10.0783540246
 30
0.0
 10
10.7664011794
 20
10.0910890047
 30
0.0
 10
10.7636509401
 20
10.1039763429
 30
0.0
 10
10.7617467851
 20
10.1169596036
 30
0.0
 10
10.7606971472
 20
10.1299819174
 30
0.0
 10
10.760506724
 20
10.142986227
 30
0.0
 10
10.7611764545
 20
10.1559155344
 30
0.0
 10
10.7627035114
 20
10.1687131504
 30
0.0
 10
10.7650813071
 20
10.1813229354
 30
0.0
 10
10.7682995213
 20
10.1936895698
 30
0.0
 10
10.7723440982
 20
10.2057587157
 30
0.0
 10
10.7771974938
 20
10.2174775611
 30
0.0
 10
10.7828380491
 20
10.2287939232
 30
0.0
 10
10.7871126308
 20
10.2360466245
 30
0.0
 10
10.7893713401
 20
10.2395871911
 30
0.0
  0
SPLINE
  5
384
100
AcDbEntity
  8
0
100
AcDbSpline
 62
7
  6
CONTINUOUS
 70
0
 71
3
 72
71
 73
67
 74
0
 42
0.0000001
 43
0.0000001
 44
0.0000000001
 40
0.0
 40
0.0
 40
0.0
 40
0.0
 40
0.0156748284
 40
0.0314021605
 40
0.0471806558
 40
0.0630088915
 40
0.0788847439
 40
0.0948057527
 40
0.1107690085
 40
0.1267712319
 40
0.1428087898
 40
0.1588777347
 40
0.1749738405
 40
0.1910926414
 40
0.2072294724
 40
0.2233795107
 40
0.239537818
 40
0.2556993843
 40
0.2718591712
 40
0.2880121557
 40
0.3041533741
 40
0.3202779654
 40
0.3363812138
 40
0.3524585909
 40
0.368505796
 40
0.3845187958
 40
0.4004938614
 40
0.4164276039
 40
0.4323170078
 40
0.448159461
 40
0.4639527825
 40
0.4796952463
 40
0.4953856017
 40
0.5110230901
 40
0.5266074569
 40
0.5421389589
 40
0.5576183674
 40
0.5730469657
 40
0.5884265413
 40
0.6037593734
 40
0.619048214
 40
0.6342962646
 40
0.6495071467
 40
0.6646848675
 40
0.6798337809
 40
0.6949585439
 40
0.710064069
 40
0.7251554728
 40
0.7402380225
 40
0.75531708
 40
0.7703980444
 40
0.7854862945
 40
0.8005871312
 40
0.815705721
 40
0.8308470418
 40
0.8460158305
 40
0.8612165348
 40
0.8764532681
 40
0.8917297694
 40
0.9070493658
 40
0.9224149473
 40
0.937828925
 40
0.9532932602
 40
0.9688093114
 40
0.9843781663
 40
1.0
 40
1.0
 40
1.0
 40
1.0
 10
9.8735597972
 20
9.8349316896
 30
0.0
 10
9.8864137619
 20
9.8340402641
 30
0.0
 10
9.9121253756
 20
9.8316238787
 30
0.0
 10
9.9505308678
 20
9.8261243305
 30
0.0
 10
9.9887513782
 20
9.8187566158
 30
0.0
 10
10.0266935699
 20
9.8095387707
 30
0.0
 10
10.0642665024
 20
9.7984929471
 30
0.0
 10
10.1013796041
 20
9.7856458705
 30
0.0
 10
10.1379435732
 20
9.7710285072
 30
0.0
 10
10.1738703913
 20
9.7546761163
 30
0.0
 10
10.2090735891
 20
9.7366281096
 30
0.0
 10
10.2434684389
 20
9.7169279787
 30
0.0
 10
10.2769721608
 20
9.6956231823
 30
0.0
 10
10.3095041202
 20
9.6727650346
 30
0.0
 10
10.3409860202
 20
9.6484085818
 30
0.0
 10
10.3713420902
 20
9.6226124701
 30
0.0
 10
10.4004992686
 20
9.5954388069
 30
0.0
 10
10.4283873758
 20
9.5669530093
 30
0.0
 10
10.4549392829
 20
9.5372236475
 30
0.0
 10
10.4800910724
 20
9.5063222806
 30
0.0
 10
10.5037821912
 20
9.4743232849
 30
0.0
 10
10.5259555958
 20
9.4413036761
 30
0.0
 10
10.5465578894
 20
9.4073429247
 30
0.0
 10
10.5655394494
 20
9.3725227659
 30
0.0
 10
10.5828545471
 20
9.3369270036
 30
0.0
 10
10.5984614573
 20
9.3006413107
 30
0.0
 10
10.6123225588
 20
9.2637530233
 30
0.0
 10
10.6244044249
 20
9.226350932
 30
0.0
 10
10.6346779055
 20
9.18852507
 30
0.0
 10
10.6431181986
 20
9.1503664977
 30
0.0
 10
10.6497049087
 20
9.1119670835
 30
0.0
 10
10.6544220965
 20
9.0734192847
 30
0.0
 10
10.6572583188
 20
9.0348159261
 30
0.0
 10
10.6582066571
 20
8.9962499774
 30
0.0
 10
10.657264736
 20
8.9578143309
 30
0.0
 10
10.6544347306
 20
8.9196015783
 30
0.0
 10
10.6497233635
 20
8.8817037888
 30
0.0
 10
10.6431418903
 20
8.8442122873
 30
0.0
 10
10.6347060755
 20
8.8072174349
 30
0.0
 10
10.6244361567
 20
8.7708084105
 30
0.0
 10
10.6123567978
 20
8.7350729956
 30
0.0
 10
10.5984970344
 20
8.7000973604
 30
0.0
 10
10.582890205
 20
8.6659658546
 30
0.0
 10
10.5655738712
 20
8.6327608028
 30
0.0
 10
10.5465897288
 20
8.600562303
 30
0.0
 10
10.5259835082
 20
8.569448032
 30
0.0
 10
10.5038048649
 20
8.5394930544
 30
0.0
 10
10.4801072601
 20
8.5107696393
 30
0.0
 10
10.454947831
 20
8.4833470829
 30
0.0
 10
10.4283872519
 20
8.4572915391
 30
0.0
 10
10.4004895866
 20
8.4326658569
 30
0.0
 10
10.3713221318
 20
8.4095294273
 30
0.0
 10
10.3409552526
 20
8.3879380383
 30
0.0
 10
10.3094622095
 20
8.3679437392
 30
0.0
 10
10.276918981
 20
8.3495947122
 30
0.0
 10
10.243404076
 20
8.3329351577
 30
0.0
 10
10.2089983406
 20
8.3180051889
 30
0.0
 10
10.1737847613
 20
8.3048407358
 30
0.0
 10
10.137848263
 20
8.2934734622
 30
0.0
 10
10.1012754983
 20
8.2839306842
 30
0.0
 10
10.0641546536
 20
8.2762353259
 30
0.0
 10
10.026575175
 20
8.2704058193
 30
0.0
 10
9.9886277614
 20
8.2664561631
 30
0.0
 10
9.9504034482
 20
8.2643957147
 30
0.0
 10
9.9119956405
 20
8.2642293782
 30
0.0
 10
9.8863703042
 20
8.2653796081
 30
0.0
 10
9.8735597972
 20
8.2662680197
 30
0.0
  0
SPLINE
  5
385
100
AcDbEntity
  8
0
100
AcDbSpline
 62
7
  6
CONTINUOUS
 70
0
 71
3
 72
11
 73
7
 74
0
 42
0.0000001
 43
0.0000001
 44
0.0000000001
 40
0.0
 40
0.0
 40
0.0
 40
0.0
 40
0.2521556509
 40
0.5028334291
 40
0.7520864208
 40
1.0
 40
1.0
 40
1.0
 40
1.0
 10
10.956699632
 20
7.9070268687
 30
0.0
 10
10.9647811869
 20
7.9064664109
 30
0.0
 10
10.9809524856
 20
7.9060266393
 30
0.0
 10
11.005102405
 20
7.907434089
 30
0.0
 10
11.0289064453
 20
7.9108995271
 30
0.0
 10
11.0444746968
 20
7.914576744
 30
0.0
 10
11.0521375642
 20
7.9167485196
 30
0.0
  0
SPLINE
  5
386
100
AcDbEntity
  8
0
100
AcDbSpline
 62
7
  6
CONTINUOUS
 70
0
 71
3
 72
39
 73
35
 74
0
 42
0.0000001
 43
0.0000001
 44
0.0000000001
 40
0.0
 40
0.0
 40
0.0
 40
0.0
 40
0.0308460029
 40
0.0618156224
 40
0.0929034665
 40
0.1241057483
 40
0.1554153414
 40
0.1868244218
 40
0.2183236741
 40
0.249902671
 40
0.2815499711
 40
0.3132532705
 40
0.3449995658
 40
0.376775316
 40
0.4085666121
 40
0.4403593509
 40
0.4721394125
 40
0.5038928359
 40
0.5356059919
 40
0.5672657527
 40
0.5988596577
 40
0.6303760742
 40
0.6618043536
 40
0.6931349745
 40
0.7243596739
 40
0.7554715661
 40
0.786465246
 40
0.8173368778
 40
0.8480842676
 40
0.878706913
 40
0.9092060285
 40
0.9395845496
 40
0.9698471109
 40
1.0
 40
1.0
 40
1.0
 40
1.0
 10
10.956699632
 20
7.9070268687
 30
0.0
 10
10.9510833936
 20
7.9074163561
 30
0.0
 10
10.9398485449
 20
7.9085262143
 30
0.0
 10
10.9230906417
 20
7.9111676772
 30
0.0
 10
10.9064479367
 20
7.9147804497
 30
0.0
 10
10.8899784702
 20
7.9193517429
 30
0.0
 10
10.8737384303
 20
7.9248660016
 30
0.0
 10
10.8577836545
 20
7.9313041504
 30
0.0
 10
10.8421688644
 20
7.9386440907
 30
0.0
 10
10.8269476401
 20
7.9468605707
 30
0.0
 10
10.812172197
 20
7.9559253502
 30
0.0
 10
10.7978932235
 20
7.9658072904
 30
0.0
 10
10.784159706
 20
7.9764724592
 30
0.0
 10
10.7710187639
 20
7.9878842476
 30
0.0
 10
10.7585154924
 20
8.0000034951
 30
0.0
 10
10.746692795
 20
8.0127886092
 30
0.0
 10
10.7355912357
 20
8.0261957107
 30
0.0
 10
10.7252489139
 20
8.0401787964
 30
0.0
 10
10.715701333
 20
8.0546898926
 30
0.0
 10
10.7069812799
 20
8.069679217
 30
0.0
 10
10.6991187158
 20
8.085095349
 30
0.0
 10
10.6921406648
 20
8.1008853982
 30
0.0
 10
10.6860711058
 20
8.1169951821
 30
0.0
 10
10.6809309147
 20
8.1333694217
 30
0.0
 10
10.6767377887
 20
8.149951927
 30
0.0
 10
10.6735061869
 20
8.1666857868
 30
0.0
 10
10.6712472797
 20
8.1835135606
 30
0.0
 10
10.6699689086
 20
8.200377475
 30
0.0
 10
10.6696755281
 20
8.2172196133
 30
0.0
 10
10.6703682257
 20
8.2339821422
 30
0.0
 10
10.6720446835
 20
8.2506074177
 30
0.0
 10
10.6746992994
 20
8.2670385143
 30
0.0
 10
10.6783227761
 20
8.2832181808
 30
0.0
 10
10.6813820358
 20
8.2938201397
 30
0.0
 10
10.6830686051
 20
8.2990585547
 30
0.0
  0
SPLINE
  5
387
100
AcDbEntity
  8
0
100
AcDbSpline
 62
7
  6
CONTINUOUS
 70
0
 71
3
 72
39
 73
35
 74
0
 42
0.0000001
 43
0.0000001
 44
0.0000000001
 40
0.0
 40
0.0
 40
0.0
 40
0.0
 40
0.0310058087
 40
0.0621511473
 40
0.0934296835
 40
0.1248352673
 40
0.1563581737
 40
0.1879873334
 40
0.2197097332
 40
0.2515109076
 40
0.2833751063
 40
0.3152855738
 40
0.3472248176
 40
0.3791748897
 40
0.4111176714
 40
0.4430351598
 40
0.4749097529
 40
0.5067245305
 40
0.5384635275
 40
0.5701119959
 40
0.6016566541
 40
0.6330859181
 40
0.6643901097
 40
0.6955616393
 40
0.7265951593
 40
0.7574876843
 40
0.7882386743
 40
0.8188500776
 40
0.8493263303
 40
0.8796743114
 40
0.9099032488
 40
0.9400245773
 40
0.9700517493
 40
1.0
 40
1.0
 40
1.0
 40
1.0
 10
10.956699632
 20
7.9978239017
 30
0.0
 10
10.9523620592
 20
7.9981247134
 30
0.0
 10
10.9436846777
 20
7.9990152132
 30
0.0
 10
10.9307577772
 20
8.0012019755
 30
0.0
 10
10.9179444138
 20
8.0042334535
 30
0.0
 10
10.9053015312
 20
8.008096054
 30
0.0
 10
10.8928842091
 20
8.0127729271
 30
0.0
 10
10.8807468843
 20
8.0182434528
 30
0.0
 10
10.8689426595
 20
8.0244836554
 30
0.0
 10
10.8575232018
 20
8.0314661569
 30
0.0
 10
10.8465384886
 20
8.039160359
 30
0.0
 10
10.8360365952
 20
8.047532551
 30
0.0
 10
10.8260634818
 20
8.0565460608
 30
0.0
 10
10.816662799
 20
8.0661614198
 30
0.0
 10
10.8078756977
 20
8.0763365333
 30
0.0
 10
10.7997406513
 20
8.0870268637
 30
0.0
 10
10.7922932883
 20
8.0981856232
 30
0.0
 10
10.785566238
 20
8.1097639765
 30
0.0
 10
10.7795889881
 20
8.1217112523
 30
0.0
 10
10.7743877574
 20
8.1339751627
 30
0.0
 10
10.7699853749
 20
8.1465020273
 30
0.0
 10
10.7664011794
 20
8.1592370074
 30
0.0
 10
10.7636509401
 20
8.1721243455
 30
0.0
 10
10.7617467851
 20
8.1851076063
 30
0.0
 10
10.7606971472
 20
8.19812992
 30
0.0
 10
10.760506724
 20
8.2111342296
 30
0.0
 10
10.7611764545
 20
8.2240635371
 30
0.0
 10
10.7627035114
 20
8.2368611531
 30
0.0
 10
10.7650813071
 20
8.2494709381
 30
0.0
 10
10.7682995213
 20
8.2618375724
 30
0.0
 10
10.7723440982
 20
8.2739067184
 30
0.0
 10
10.7771974938
 20
8.2856255637
 30
0.0
 10
10.7828380491
 20
8.2969419258
 30
0.0
 10
10.7871126308
 20
8.3041946272
 30
0.0
 10
10.7893713401
 20
8.3077351938
 30
0.0
  0
SPLINE
  5
388
100
AcDbEntity
  8
0
100
AcDbSpline
 62
7
  6
CONTINUOUS
 70
0
 71
3
 72
64
 73
60
 74
0
 42
0.0000001
 43
0.0000001
 44
0.0000000001
 40
0.0
 40
0.0
 40
0.0
 40
0.0
 40
0.0452102438
 40
0.0910011378
 40
0.1371887914
 40
0.1835862952
 40
0.2300060483
 40
0.2762602665
 40
0.3221620218
 40
0.3675262007
 40
0.412170475
 40
0.4559162947
 40
0.4985898755
 40
0.5400232149
 40
0.5800551623
 40
0.5994977477
 40
0.6185332455
 40
0.6371439809
 40
0.6553128992
 40
0.6730236615
 40
0.6902607075
 40
0.707009241
 40
0.7232553821
 40
0.7389861811
 40
0.7541896801
 40
0.7688550884
 40
0.7829727896
 40
0.796534521
 40
0.8095335479
 40
0.821964756
 40
0.8338249752
 40
0.8451131945
 40
0.8558308688
 40
0.8659824321
 40
0.8755757112
 40
0.8846226184
 40
0.8931399775
 40
0.9011503991
 40
0.9086835055
 40
0.9157771539
 40
0.9224786942
 40
0.9288461105
 40
0.9319269763
 40
0.9349511316
 40
0.9379288252
 40
0.9408708543
 40
0.9437884508
 40
0.9466931505
 40
0.9495966615
 40
0.952510705
 40
0.9554468664
 40
0.9584164519
 40
0.9614303466
 40
0.964498924
 40
0.9708361702
 40
0.9775010542
 40
0.9845526578
 40
0.9920393958
 40
1.0
 40
1.0
 40
1.0
 40
1.0
 10
13.2320816116
 20
9.8150518981
 30
0.0
 10
13.2320816116
 20
9.7969825538
 30
0.0
 10
13.2317593547
 20
9.7606110629
 30
0.0
 10
13.2303383733
 20
9.7057962721
 30
0.0
 10
13.2279821225
 20
9.6505386502
 30
0.0
 10
13.2247006609
 20
9.5950765487
 30
0.0
 10
13.2205081237
 20
9.5396491792
 30
0.0
 10
13.2154226101
 20
9.4844955504
 30
0.0
 10
13.2094661069
 20
9.4298534843
 30
0.0
 10
13.2026643876
 20
9.3759585854
 30
0.0
 10
13.1950469093
 20
9.3230431977
 30
0.0
 10
13.1866467052
 20
9.2713354165
 30
0.0
 10
13.1775002348
 20
9.2210579938
 30
0.0
 10
13.1676471766
 20
9.1724277191
 30
0.0
 10
13.1587994566
 20
9.1330762572
 30
0.0
 10
13.1513860874
 20
9.1025855305
 30
0.0
 10
13.1457307508
 20
9.0804799947
 30
0.0
 10
13.1399322814
 20
9.0589383002
 30
0.0
 10
13.1339968921
 20
9.0379836436
 30
0.0
 10
13.127931009
 20
9.0176386071
 30
0.0
 10
13.1217412209
 20
8.9979250962
 30
0.0
 10
13.1154341859
 20
8.9788643421
 30
0.0
 10
13.10901675
 20
8.9604768492
 30
0.0
 10
13.1024958609
 20
8.9427823887
 30
0.0
 10
13.0958785324
 20
8.9257999827
 30
0.0
 10
13.0891719577
 20
8.9095478483
 30
0.0
 10
13.0823833539
 20
8.8940434133
 30
0.0
 10
13.0755200288
 20
8.8793032761
 30
0.0
 10
13.0685894081
 20
8.8653431643
 30
0.0
 10
13.0615988803
 20
8.8521779649
 30
0.0
 10
13.054555937
 20
8.8398216441
 30
0.0
 10
13.0474680704
 20
8.8282872541
 30
0.0
 10
13.0403426858
 20
8.8175869533
 30
0.0
 10
13.0331872321
 20
8.8077319018
 30
0.0
 10
13.0260089749
 20
8.798732356
 30
0.0
 10
13.0188150119
 20
8.7905976554
 30
0.0
 10
13.0116122856
 20
8.7833361994
 30
0.0
 10
13.0044072965
 20
8.7769556924
 30
0.0
 10
12.9972063672
 20
8.771463187
 30
0.0
 10
12.9900152012
 20
8.7668652921
 30
0.0
 10
12.9828404033
 20
8.7631689138
 30
0.0
 10
12.976813072
 20
8.7608197314
 30
0.0
 10
12.9720267105
 20
8.7594180162
 30
0.0
 10
12.9684861924
 20
8.7586061556
 30
0.0
 10
12.9649571258
 20
8.7580228721
 30
0.0
 10
12.961440486
 20
8.7576683759
 30
0.0
 10
12.9579373898
 20
8.7575428235
 30
0.0
 10
12.954448939
 20
8.7576463593
 30
0.0
 10
12.9509762636
 20
8.7579789833
 30
0.0
 10
12.9475204731
 20
8.7585405089
 30
0.0
 10
12.9440826573
 20
8.7593307526
 30
0.0
 10
12.9406639157
 20
8.7603494103
 30
0.0
 10
12.9372651607
 20
8.7615960699
 30
0.0
 10
12.9327133862
 20
8.7635825113
 30
0.0
 10
12.9270607817
 20
8.7666630909
 30
0.0
 10
12.9204541967
 20
8.7712234291
 30
0.0
 10
12.9139552258
 20
8.7766796901
 30
0.0
 10
12.9075698962
 20
8.7830238458
 30
0.0
 10
12.9035205186
 20
8.7876919829
 30
0.0
 10
12.9015129966
 20
8.7901603252
 30
0.0
  0
SPLINE
  5
389
100
AcDbEntity
  8
0
100
AcDbSpline
 62
7
  6
CONTINUOUS
 70
0
 71
3
 72
57
 73
53
 74
0
 42
0.0000001
 43
0.0000001
 44
0.0000000001
 40
0.0
 40
0.0
 40
0.0
 40
0.0
 40
0.0095826314
 40
0.0187372834
 40
0.0274871811
 40
0.0358600291
 40
0.0515985196
 40
0.0590563733
 40
0.0662991698
 40
0.0733803975
 40
0.0803576937
 40
0.0872915176
 40
0.0942435752
 40
0.1012750476
 40
0.1084449001
 40
0.1158084506
 40
0.1234163697
 40
0.1313140437
 40
0.1395414635
 40
0.1481332155
 40
0.1571189497
 40
0.1665236218
 40
0.1763681708
 40
0.1866697744
 40
0.1974425042
 40
0.2086975286
 40
0.220443635
 40
0.2326874045
 40
0.2454335615
 40
0.2586851612
 40
0.2724437649
 40
0.2867096704
 40
0.3014819313
 40
0.316758638
 40
0.3325368166
 40
0.3488127448
 40
0.3655817784
 40
0.3828386678
 40
0.4005773696
 40
0.437472404
 40
0.4762081875
 40
0.5167167908
 40
0.5589230097
 40
0.6027451351
 40
0.6480956102
 40
0.6948815971
 40
0.7430055015
 40
0.7923653903
 40
0.8428555687
 40
0.8943665901
 40
0.9467866181
 40
1.0
 40
1.0
 40
1.0
 40
1.0
 10
13.0148027749
 20
7.888206925
 30
0.0
 10
13.0165461238
 20
7.8898294572
 30
0.0
 10
13.0200312698
 20
7.8929216485
 30
0.0
 10
13.0253783643
 20
7.8971784948
 30
0.0
 10
13.0307206346
 20
7.9009430361
 30
0.0
 10
13.0376862947
 20
7.9052131282
 30
0.0
 10
13.0447926423
 20
7.9086227915
 30
0.0
 10
13.0519745725
 20
7.9110245156
 30
0.0
 10
13.0572456554
 20
7.9122901506
 30
0.0
 10
13.0624926777
 20
7.9130497705
 30
0.0
 10
13.0677119328
 20
7.9133023739
 30
0.0
 10
13.0728990639
 20
7.9130471698
 30
0.0
 10
13.0780496933
 20
7.9122843879
 30
0.0
 10
13.0831595426
 20
7.91101491
 30
0.0
 10
13.0882246636
 20
7.909240349
 30
0.0
 10
13.0932415565
 20
7.9069628197
 30
0.0
 10
13.0982070965
 20
7.9041846468
 30
0.0
 10
13.103118581
 20
7.9009084413
 30
0.0
 10
13.1079734056
 20
7.8971367273
 30
0.0
 10
13.1127692461
 20
7.8928722998
 30
0.0
 10
13.1175036254
 20
7.8881178575
 30
0.0
 10
13.1221742774
 20
7.8828764427
 30
0.0
 10
13.1267786874
 20
7.8771511062
 30
0.0
 10
13.1313145313
 20
7.8709452803
 30
0.0
 10
13.1357792597
 20
7.864262516
 30
0.0
 10
13.140170485
 20
7.8571067322
 30
0.0
 10
13.1444856769
 20
7.8494820497
 30
0.0
 10
13.1487224148
 20
7.8413929196
 30
0.0
 10
13.1528782367
 20
7.8328440485
 30
0.0
 10
13.1569507237
 20
7.823840435
 30
0.0
 10
13.1609375136
 20
7.8143873613
 30
0.0
 10
13.1648362208
 20
7.8044903727
 30
0.0
 10
13.1686445979
 20
7.7941553071
 30
0.0
 10
13.1723603214
 20
7.7833882479
 30
0.0
 10
13.1759812617
 20
7.7721955668
 30
0.0
 10
13.1795051862
 20
7.7605838708
 30
0.0
 10
13.1829300705
 20
7.7485600473
 30
0.0
 10
13.1862538294
 20
7.7361311972
 30
0.0
 10
13.19060512
 20
7.7188015809
 30
0.0
 10
13.1957607271
 20
7.6961730867
 30
0.0
 10
13.2014361408
 20
7.6678695229
 30
0.0
 10
13.2066647183
 20
7.6381390377
 30
0.0
 10
13.2114338857
 20
7.6070522301
 30
0.0
 10
13.2157321234
 20
7.574682729
 30
0.0
 10
13.2195490621
 20
7.5411073592
 30
0.0
 10
13.2228754904
 20
7.5064058377
 30
0.0
 10
13.225703377
 20
7.4706606122
 30
0.0
 10
13.2280258998
 20
7.433956619
 30
0.0
 10
13.2298374335
 20
7.3963811595
 30
0.0
 10
13.2311336149
 20
7.3580234764
 30
0.0
 10
13.2319112683
 20
7.3189749781
 30
0.0
 10
13.2320816116
 20
7.2927215689
 30
0.0
 10
13.2320816116
 20
7.2794964539
 30
0.0
  0
SPLINE
  5
38A
100
AcDbEntity
  8
0
100
AcDbSpline
 62
7
  6
CONTINUOUS
 70
0
 71
3
 72
43
 73
39
 74
0
 42
0.0000001
 43
0.0000001
 44
0.0000000001
 40
0.0
 40
0.0
 40
0.0
 40
0.0
 40
0.0205317767
 40
0.0301708
 40
0.0394741239
 40
0.0485044229
 40
0.0573213678
 40
0.0659812154
 40
0.0745370781
 40
0.0830374561
 40
0.0915270059
 40
0.1086209296
 40
0.1261043823
 40
0.1441902619
 40
0.1630416532
 40
0.1827808531
 40
0.2035037813
 40
0.2252841331
 40
0.2481849407
 40
0.2722603346
 40
0.2975627048
 40
0.3241446387
 40
0.3520623219
 40
0.3813793516
 40
0.4121670079
 40
0.4445108577
 40
0.4785096526
 40
0.5142822209
 40
0.551969781
 40
0.5917391263
 40
0.633786078
 40
0.6783336128
 40
0.7256182635
 40
0.7758491372
 40
0.8291012271
 40
0.88508632
 40
0.9427599689
 40
1.0
 40
1.0
 40
1.0
 40
1.0
 10
9.8880413635
 20
8.4095959964
 30
0.0
 10
9.8871106747
 20
8.4109503363
 30
0.0
 10
9.8858789125
 20
8.4130417639
 30
0.0
 10
9.8846126824
 20
8.4159390157
 30
0.0
 10
9.8838818734
 20
8.4180579487
 30
0.0
 10
9.883342253
 20
8.4201653851
 30
0.0
 10
9.8829853479
 20
8.4222590899
 30
0.0
 10
9.8828034034
 20
8.4243369998
 30
0.0
 10
9.8827897904
 20
8.4263973568
 30
0.0
 10
9.8829374894
 20
8.428438744
 30
0.0
 10
9.8833420913
 20
8.4311387907
 30
0.0
 10
9.8842312933
 20
8.4344822186
 30
0.0
 10
9.8858563185
 20
8.4383832517
 30
0.0
 10
9.8880053008
 20
8.4421825969
 30
0.0
 10
9.8906486988
 20
8.4458781255
 30
0.0
 10
9.8937619438
 20
8.4494699915
 30
0.0
 10
9.8973262965
 20
8.4529573346
 30
0.0
 10
9.9013262798
 20
8.4563403602
 30
0.0
 10
9.9057507684
 20
8.4596182598
 30
0.0
 10
9.9105916094
 20
8.4627907581
 30
0.0
 10
9.9158441613
 20
8.4658569517
 30
0.0
 10
9.9215069676
 20
8.468815777
 30
0.0
 10
9.9275818626
 20
8.4716659644
 30
0.0
 10
9.93407435
 20
8.4744052328
 30
0.0
 10
9.9409935419
 20
8.477031389
 30
0.0
 10
9.9483530174
 20
8.4795403854
 30
0.0
 10
9.9561708991
 20
8.4819278225
 30
0.0
 10
9.964470836
 20
8.4841871189
 30
0.0
 10
9.973282608
 20
8.4863095286
 30
0.0
 10
9.9826427178
 20
8.4882833327
 30
0.0
 10
9.9925946911
 20
8.490092331
 30
0.0
 10
10.0031879219
 20
8.4917139951
 30
0.0
 10
10.0144728637
 20
8.4931168056
 30
0.0
 10
10.0264876451
 20
8.4942565517
 30
0.0
 10
10.0392269591
 20
8.4950723469
 30
0.0
 10
10.0525822522
 20
8.4954861946
 30
0.0
 10
10.0662633323
 20
8.4954138288
 30
0.0
 10
10.0754544783
 20
8.4949926595
 30
0.0
 10
10.0800248025
 20
8.4946757064
 30
0.0
  0
SPLINE
  5
38B
100
AcDbEntity
  8
0
100
AcDbSpline
 62
7
  6
CONTINUOUS
 70
0
 71
3
 72
11
 73
7
 74
0
 42
0.0000001
 43
0.0000001
 44
0.0000000001
 40
0.0
 40
0.0
 40
0.0
 40
0.0
 40
0.2521556509
 40
0.5028334291
 40
0.7520864208
 40
1.0
 40
1.0
 40
1.0
 40
1.0
 10
10.956699632
 20
5.9751751304
 30
0.0
 10
10.9647811869
 20
5.9746146727
 30
0.0
 10
10.9809524856
 20
5.9741749011
 30
0.0
 10
11.005102405
 20
5.9755823507
 30
0.0
 10
11.0289064453
 20
5.9790477889
 30
0.0
 10
11.0444746968
 20
5.9827250058
 30
0.0
 10
11.0521375642
 20
5.9848967814
 30
0.0
  0
SPLINE
  5
38C
100
AcDbEntity
  8
0
100
AcDbSpline
 62
7
  6
CONTINUOUS
 70
0
 71
3
 72
39
 73
35
 74
0
 42
0.0000001
 43
0.0000001
 44
0.0000000001
 40
0.0
 40
0.0
 40
0.0
 40
0.0
 40
0.0308460029
 40
0.0618156224
 40
0.0929034665
 40
0.1241057483
 40
0.1554153414
 40
0.1868244218
 40
0.2183236741
 40
0.249902671
 40
0.2815499711
 40
0.3132532705
 40
0.3449995658
 40
0.376775316
 40
0.4085666121
 40
0.4403593509
 40
0.4721394125
 40
0.5038928359
 40
0.5356059919
 40
0.5672657527
 40
0.5988596577
 40
0.6303760742
 40
0.6618043536
 40
0.6931349745
 40
0.7243596739
 40
0.7554715661
 40
0.786465246
 40
0.8173368778
 40
0.8480842676
 40
0.878706913
 40
0.9092060285
 40
0.9395845496
 40
0.9698471109
 40
1.0
 40
1.0
 40
1.0
 40
1.0
 10
10.956699632
 20
5.9751751304
 30
0.0
 10
10.9510833936
 20
5.9755646179
 30
0.0
 10
10.9398485449
 20
5.976674476
 30
0.0
 10
10.9230906417
 20
5.979315939
 30
0.0
 10
10.9064479367
 20
5.9829287114
 30
0.0
 10
10.8899784702
 20
5.9875000046
 30
0.0
 10
10.8737384303
 20
5.9930142633
 30
0.0
 10
10.8577836545
 20
5.9994524121
 30
0.0
 10
10.8421688644
 20
6.0067923525
 30
0.0
 10
10.8269476401
 20
6.0150088325
 30
0.0
 10
10.812172197
 20
6.0240736119
 30
0.0
 10
10.7978932235
 20
6.0339555521
 30
0.0
 10
10.784159706
 20
6.044620721
 30
0.0
 10
10.7710187639
 20
6.0560325093
 30
0.0
 10
10.7585154924
 20
6.0681517569
 30
0.0
 10
10.746692795
 20
6.080936871
 30
0.0
 10
10.7355912357
 20
6.0943439724
 30
0.0
 10
10.7252489139
 20
6.1083270582
 30
0.0
 10
10.715701333
 20
6.1228381543
 30
0.0
 10
10.7069812799
 20
6.1378274788
 30
0.0
 10
10.6991187158
 20
6.1532436107
 30
0.0
 10
10.6921406648
 20
6.16903366
 30
0.0
 10
10.6860711058
 20
6.1851434438
 30
0.0
 10
10.6809309147
 20
6.2015176835
 30
0.0
 10
10.6767377887
 20
6.2181001888
 30
0.0
 10
10.6735061869
 20
6.2348340485
 30
0.0
 10
10.6712472797
 20
6.2516618224
 30
0.0
 10
10.6699689086
 20
6.2685257368
 30
0.0
 10
10.6696755281
 20
6.285367875
 30
0.0
 10
10.6703682257
 20
6.302130404
 30
0.0
 10
10.6720446835
 20
6.3187556795
 30
0.0
 10
10.6746992994
 20
6.3351867761
 30
0.0
 10
10.6783227761
 20
6.3513664425
 30
0.0
 10
10.6813820358
 20
6.3619684014
 30
0.0
 10
10.6830686051
 20
6.3672068164
 30
0.0
  0
SPLINE
  5
38D
100
AcDbEntity
  8
0
100
AcDbSpline
 62
7
  6
CONTINUOUS
 70
0
 71
3
 72
39
 73
35
 74
0
 42
0.0000001
 43
0.0000001
 44
0.0000000001
 40
0.0
 40
0.0
 40
0.0
 40
0.0
 40
0.0310058087
 40
0.0621511473
 40
0.0934296835
 40
0.1248352673
 40
0.1563581737
 40
0.1879873334
 40
0.2197097332
 40
0.2515109076
 40
0.2833751063
 40
0.3152855738
 40
0.3472248176
 40
0.3791748897
 40
0.4111176714
 40
0.4430351598
 40
0.4749097529
 40
0.5067245305
 40
0.5384635275
 40
0.5701119959
 40
0.6016566541
 40
0.6330859181
 40
0.6643901097
 40
0.6955616393
 40
0.7265951593
 40
0.7574876843
 40
0.7882386743
 40
0.8188500776
 40
0.8493263303
 40
0.8796743114
 40
0.9099032488
 40
0.9400245773
 40
0.9700517493
 40
1.0
 40
1.0
 40
1.0
 40
1.0
 10
10.956699632
 20
6.0659721634
 30
0.0
 10
10.9523620592
 20
6.0662729751
 30
0.0
 10
10.9436846777
 20
6.0671634749
 30
0.0
 10
10.9307577772
 20
6.0693502373
 30
0.0
 10
10.9179444138
 20
6.0723817152
 30
0.0
 10
10.9053015312
 20
6.0762443157
 30
0.0
 10
10.8928842091
 20
6.0809211889
 30
0.0
 10
10.8807468843
 20
6.0863917145
 30
0.0
 10
10.8689426595
 20
6.0926319171
 30
0.0
 10
10.8575232018
 20
6.0996144186
 30
0.0
 10
10.8465384886
 20
6.1073086207
 30
0.0
 10
10.8360365952
 20
6.1156808127
 30
0.0
 10
10.8260634818
 20
6.1246943226
 30
0.0
 10
10.816662799
 20
6.1343096816
 30
0.0
 10
10.8078756977
 20
6.1444847951
 30
0.0
 10
10.7997406513
 20
6.1551751254
 30
0.0
 10
10.7922932883
 20
6.1663338849
 30
0.0
 10
10.785566238
 20
6.1779122383
 30
0.0
 10
10.7795889881
 20
6.189859514
 30
0.0
 10
10.7743877574
 20
6.2021234244
 30
0.0
 10
10.7699853749
 20
6.214650289
 30
0.0
 10
10.7664011794
 20
6.2273852691
 30
0.0
 10
10.7636509401
 20
6.2402726073
 30
0.0
 10
10.7617467851
 20
6.253255868
 30
0.0
 10
10.7606971472
 20
6.2662781818
 30
0.0
 10
10.760506724
 20
6.2792824914
 30
0.0
 10
10.7611764545
 20
6.2922117988
 30
0.0
 10
10.7627035114
 20
6.3050094148
 30
0.0
 10
10.7650813071
 20
6.3176191998
 30
0.0
 10
10.7682995213
 20
6.3299858342
 30
0.0
 10
10.7723440982
 20
6.3420549801
 30
0.0
 10
10.7771974938
 20
6.3537738255
 30
0.0
 10
10.7828380491
 20
6.3650901876
 30
0.0
 10
10.7871126308
 20
6.3723428889
 30
0.0
 10
10.7893713401
 20
6.3758834555
 30
0.0
  0
SPLINE
  5
38E
100
AcDbEntity
  8
0
100
AcDbSpline
 62
7
  6
CONTINUOUS
 70
0
 71
3
 72
57
 73
53
 74
0
 42
0.0000001
 43
0.0000001
 44
0.0000000001
 40
0.0
 40
0.0
 40
0.0
 40
0.0
 40
0.0095826314
 40
0.0187372834
 40
0.0274871811
 40
0.0358600291
 40
0.0515985196
 40
0.0590563733
 40
0.0662991698
 40
0.0733803975
 40
0.0803576937
 40
0.0872915176
 40
0.0942435752
 40
0.1012750476
 40
0.1084449001
 40
0.1158084506
 40
0.1234163697
 40
0.1313140437
 40
0.1395414635
 40
0.1481332155
 40
0.1571189497
 40
0.1665236218
 40
0.1763681708
 40
0.1866697744
 40
0.1974425042
 40
0.2086975286
 40
0.220443635
 40
0.2326874045
 40
0.2454335615
 40
0.2586851612
 40
0.2724437649
 40
0.2867096704
 40
0.3014819313
 40
0.316758638
 40
0.3325368166
 40
0.3488127448
 40
0.3655817784
 40
0.3828386678
 40
0.4005773696
 40
0.437472404
 40
0.4762081875
 40
0.5167167908
 40
0.5589230097
 40
0.6027451351
 40
0.6480956102
 40
0.6948815971
 40
0.7430055015
 40
0.7923653903
 40
0.8428555687
 40
0.8943665901
 40
0.9467866181
 40
1.0
 40
1.0
 40
1.0
 40
1.0
 10
13.0148027749
 20
10.4237623692
 30
0.0
 10
13.0165461238
 20
10.4253849015
 30
0.0
 10
13.0200312698
 20
10.4284770927
 30
0.0
 10
13.0253783643
 20
10.4327339391
 30
0.0
 10
13.0307206346
 20
10.4364984803
 30
0.0
 10
13.0376862947
 20
10.4407685724
 30
0.0
 10
13.0447926423
 20
10.4441782358
 30
0.0
 10
13.0519745725
 20
10.4465799598
 30
0.0
 10
13.0572456554
 20
10.4478455949
 30
0.0
 10
13.0624926777
 20
10.4486052148
 30
0.0
 10
13.0677119328
 20
10.4488578181
 30
0.0
 10
13.0728990639
 20
10.448602614
 30
0.0
 10
13.0780496933
 20
10.4478398321
 30
0.0
 10
13.0831595426
 20
10.4465703543
 30
0.0
 10
13.0882246636
 20
10.4447957933
 30
0.0
 10
13.0932415565
 20
10.442518264
 30
0.0
 10
13.0982070965
 20
10.4397400911
 30
0.0
 10
13.103118581
 20
10.4364638855
 30
0.0
 10
13.1079734056
 20
10.4326921715
 30
0.0
 10
13.1127692461
 20
10.4284277441
 30
0.0
 10
13.1175036254
 20
10.4236733017
 30
0.0
 10
13.1221742774
 20
10.4184318869
 30
0.0
 10
13.1267786874
 20
10.4127065504
 30
0.0
 10
13.1313145313
 20
10.4065007245
 30
0.0
 10
13.1357792597
 20
10.3998179603
 30
0.0
 10
13.140170485
 20
10.3926621764
 30
0.0
 10
13.1444856769
 20
10.3850374939
 30
0.0
 10
13.1487224148
 20
10.3769483638
 30
0.0
 10
13.1528782367
 20
10.3683994927
 30
0.0
 10
13.1569507237
 20
10.3593958793
 30
0.0
 10
13.1609375136
 20
10.3499428055
 30
0.0
 10
13.1648362208
 20
10.3400458169
 30
0.0
 10
13.1686445979
 20
10.3297107513
 30
0.0
 10
13.1723603214
 20
10.3189436921
 30
0.0
 10
13.1759812617
 20
10.307751011
 30
0.0
 10
13.1795051862
 20
10.2961393151
 30
0.0
 10
13.1829300705
 20
10.2841154916
 30
0.0
 10
13.1862538294
 20
10.2716866415
 30
0.0
 10
13.19060512
 20
10.2543570251
 30
0.0
 10
13.1957607271
 20
10.2317285309
 30
0.0
 10
13.2014361408
 20
10.2034249672
 30
0.0
 10
13.2066647183
 20
10.173694482
 30
0.0
 10
13.2114338857
 20
10.1426076744
 30
0.0
 10
13.2157321234
 20
10.1102381733
 30
0.0
 10
13.2195490621
 20
10.0766628034
 30
0.0
 10
13.2228754904
 20
10.0419612819
 30
0.0
 10
13.225703377
 20
10.0062160564
 30
0.0
 10
13.2280258998
 20
9.9695120632
 30
0.0
 10
13.2298374335
 20
9.9319366037
 30
0.0
 10
13.2311336149
 20
9.8935789206
 30
0.0
 10
13.2319112683
 20
9.8545304224
 30
0.0
 10
13.2320816116
 20
9.8282770131
 30
0.0
 10
13.2320816116
 20
9.8150518981
 30
0.0
  0
SPLINE
  5
38F
100
AcDbEntity
  8
0
100
AcDbSpline
 62
4
  6
CONTINUOUS
 70
0
 71
3
 72
279
 73
275
 74
0
 42
0.0000001
 43
0.0000001
 44
0.0000000001
 40
0.0
 40
0.0
 40
0.0
 40
0.0
 40
0.015625
 40
0.0234375
 40
0.03125
 40
0.0390625
 40
0.046875
 40
0.05078125
 40
0.0546875
 40
0.056640625
 40
0.05859375
 40
0.060546875
 40
0.0615234375
 40
0.0620117188
 40
0.0625
 40
0.0629882812
 40
0.0634765625
 40
0.064453125
 40
0.06640625
 40
0.068359375
 40
0.0703125
 40
0.07421875
 40
0.078125
 40
0.0859375
 40
0.09375
 40
0.1015625
 40
0.109375
 40
0.11328125
 40
0.1171875
 40
0.119140625
 40
0.12109375
 40
0.123046875
 40
0.1240234375
 40
0.1245117188
 40
0.125
 40
0.1254882812
 40
0.1259765625
 40
0.126953125
 40
0.12890625
 40
0.130859375
 40
0.1328125
 40
0.13671875
 40
0.140625
 40
0.1484375
 40
0.15625
 40
0.1640625
 40
0.171875
 40
0.17578125
 40
0.1796875
 40
0.181640625
 40
0.18359375
 40
0.185546875
 40
0.1865234375
 40
0.1870117188
 40
0.1875
 40
0.1879882812
 40
0.1884765625
 40
0.189453125
 40
0.19140625
 40
0.193359375
 40
0.1953125
 40
0.19921875
 40
0.203125
 40
0.2109375
 40
0.21875
 40
0.2265625
 40
0.234375
 40
0.23828125
 40
0.2421875
 40
0.24609375
 40
0.248046875
 40
0.2490234375
 40
0.25
 40
0.2509765625
 40
0.251953125
 40
0.25390625
 40
0.2578125
 40
0.26171875
 40
0.265625
 40
0.2734375
 40
0.28125
 40
0.2890625
 40
0.296875
 40
0.30078125
 40
0.3046875
 40
0.30859375
 40
0.310546875
 40
0.3115234375
 40
0.3125
 40
0.3134765625
 40
0.314453125
 40
0.31640625
 40
0.3203125
 40
0.32421875
 40
0.328125
 40
0.3359375
 40
0.34375
 40
0.3515625
 40
0.359375
 40
0.3671875
 40
0.37109375
 40
0.373046875
 40
0.375
 40
0.376953125
 40
0.37890625
 40
0.3828125
 40
0.390625
 40
0.3984375
 40
0.40625
 40
0.4140625
 40
0.421875
 40
0.4296875
 40
0.43359375
 40
0.435546875
 40
0.4375
 40
0.439453125
 40
0.44140625
 40
0.4453125
 40
0.453125
 40
0.4609375
 40
0.46875
 40
0.4765625
 40
0.484375
 40
0.48828125
 40
0.4921875
 40
0.49609375
 40
0.498046875
 40
0.4990234375
 40
0.5
 40
0.5009765625
 40
0.501953125
 40
0.50390625
 40
0.5078125
 40
0.51171875
 40
0.515625
 40
0.5234375
 40
0.53125
 40
0.5390625
 40
0.546875
 40
0.55078125
 40
0.5546875
 40
0.55859375
 40
0.560546875
 40
0.5615234375
 40
0.5625
 40
0.5634765625
 40
0.564453125
 40
0.56640625
 40
0.5703125
 40
0.57421875
 40
0.578125
 40
0.5859375
 40
0.59375
 40
0.6015625
 40
0.609375
 40
0.61328125
 40
0.6171875
 40
0.619140625
 40
0.62109375
 40
0.623046875
 40
0.6240234375
 40
0.625
 40
0.6259765625
 40
0.626953125
 40
0.62890625
 40
0.630859375
 40
0.6328125
 40
0.63671875
 40
0.640625
 40
0.6484375
 40
0.65625
 40
0.6640625
 40
0.671875
 40
0.67578125
 40
0.6796875
 40
0.681640625
 40
0.68359375
 40
0.685546875
 40
0.6865234375
 40
0.6870117188
 40
0.6875
 40
0.6879882812
 40
0.6884765625
 40
0.689453125
 40
0.69140625
 40
0.693359375
 40
0.6953125
 40
0.69921875
 40
0.703125
 40
0.7109375
 40
0.71875
 40
0.7265625
 40
0.734375
 40
0.73828125
 40
0.7421875
 40
0.744140625
 40
0.74609375
 40
0.748046875
 40
0.7490234375
 40
0.7495117188
 40
0.75
 40
0.7504882812
 40
0.7509765625
 40
0.751953125
 40
0.75390625
 40
0.755859375
 40
0.7578125
 40
0.76171875
 40
0.765625
 40
0.7734375
 40
0.78125
 40
0.7890625
 40
0.796875
 40
0.80078125
 40
0.8046875
 40
0.806640625
 40
0.80859375
 40
0.810546875
 40
0.8115234375
 40
0.8120117188
 40
0.8125
 40
0.8129882812
 40
0.8134765625
 40
0.814453125
 40
0.81640625
 40
0.818359375
 40
0.8203125
 40
0.82421875
 40
0.828125
 40
0.8359375
 40
0.84375
 40
0.8515625
 40
0.859375
 40
0.86328125
 40
0.8671875
 40
0.869140625
 40
0.87109375
 40
0.873046875
 40
0.8740234375
 40
0.8745117188
 40
0.875
 40
0.8754882812
 40
0.8759765625
 40
0.876953125
 40
0.87890625
 40
0.880859375
 40
0.8828125
 40
0.88671875
 40
0.890625
 40
0.8984375
 40
0.90625
 40
0.9140625
 40
0.921875
 40
0.92578125
 40
0.9296875
 40
0.931640625
 40
0.93359375
 40
0.935546875
 40
0.9365234375
 40
0.9370117188
 40
0.9375
 40
0.9379882812
 40
0.9384765625
 40
0.939453125
 40
0.94140625
 40
0.943359375
 40
0.9453125
 40
0.94921875
 40
0.953125
 40
0.9609375
 40
0.96875
 40
0.9765625
 40
0.984375
 40
1.0
 40
1.0
 40
1.0
 40
1.0
 10
12.6374453339
 20
7.3563491817
 30
0.0
 10
12.638284868
 20
7.3574673212
 30
0.0
 10
12.6395441693
 20
7.3591445301
 30
0.0
 10
12.6412232376
 20
7.3613808096
 30
0.0
 10
12.6424825389
 20
7.3630580169
 30
0.0
 10
12.6437418398
 20
7.364735233
 30
0.0
 10
12.6447912587
 20
7.3661328856
 30
0.0
 10
12.6456307904
 20
7.3672510694
 30
0.0
 10
12.6461555055
 20
7.3679497937
 30
0.0
 10
12.6465752597
 20
7.368509095
 30
0.0
 10
12.6468901245
 20
7.3689276897
 30
0.0
 10
12.6471523552
 20
7.3692793224
 30
0.0
 10
12.6473362243
 20
7.3695199628
 30
0.0
 10
12.6474408119
 20
7.3696660632
 30
0.0
 10
12.6475206061
 20
7.3697514358
 30
0.0
 10
12.6475952267
 20
7.3699293238
 30
0.0
 10
12.6476965254
 20
7.3701342374
 30
0.0
 10
12.6478729573
 20
7.3705078716
 30
0.0
 10
12.6481254426
 20
7.3710337741
 30
0.0
 10
12.6484282367
 20
7.3716682217
 30
0.0
 10
12.648832028
 20
7.3725129767
 30
0.0
 10
12.6493367445
 20
7.3735693228
 30
0.0
 10
12.6501443036
 20
7.3752592516
 30
0.0
 10
12.651153748
 20
7.3773717402
 30
0.0
 10
12.6523650835
 20
7.3799066913
 30
0.0
 10
12.6535764174
 20
7.3824416592
 30
0.0
 10
12.6545858655
 20
7.3845541059
 30
0.0
 10
12.6553934172
 20
7.3862441185
 30
0.0
 10
12.6558981525
 20
7.3873002516
 30
0.0
 10
12.6563019054
 20
7.3881454437
 30
0.0
 10
12.6566048167
 20
7.3887785557
 30
0.0
 10
12.6568569352
 20
7.3893086372
 30
0.0
 10
12.6570340219
 20
7.3896748112
 30
0.0
 10
12.6571342716
 20
7.3898916779
 30
0.0
 10
12.6572121143
 20
7.3900328497
 30
0.0
 10
12.6572798069
 20
7.3902561226
 30
0.0
 10
12.6573736041
 20
7.390525182
 30
0.0
 10
12.6575360997
 20
7.3910093789
 30
0.0
 10
12.6577690987
 20
7.3916941128
 30
0.0
 10
12.6580483283
 20
7.3925187795
 30
0.0
 10
12.6584207634
 20
7.3936172921
 30
0.0
 10
12.6588862632
 20
7.39499079
 30
0.0
 10
12.6596310874
 20
7.397188187
 30
0.0
 10
12.6605621092
 20
7.3999350021
 30
0.0
 10
12.6616793393
 20
7.4032311489
 30
0.0
 10
12.6627965672
 20
7.4065273109
 30
0.0
 10
12.6637275946
 20
7.409274088
 30
0.0
 10
12.6644724077
 20
7.4114715611
 30
0.0
 10
12.6649379357
 20
7.4128448654
 30
0.0
 10
12.6653103128
 20
7.4139437755
 30
0.0
 10
12.6655897196
 20
7.4147672277
 30
0.0
 10
12.6658221643
 20
7.4154557613
 30
0.0
 10
12.6659856494
 20
7.4159331753
 30
0.0
 10
12.6660778612
 20
7.4162131025
 30
0.0
 10
12.6661504238
 20
7.416402993
 30
0.0
 10
12.6662099755
 20
7.4166695436
 30
0.0
 10
12.666293916
 20
7.4169982045
 30
0.0
 10
12.6664386975
 20
7.4175858198
 30
0.0
 10
12.6666466337
 20
7.4184187566
 30
0.0
 10
12.666895684
 20
7.4194210688
 30
0.0
 10
12.6672279163
 20
7.4207565113
 30
0.0
 10
12.66764315
 20
7.4224261479
 30
0.0
 10
12.6683075558
 20
7.4250973797
 30
0.0
 10
12.6691380509
 20
7.4284364861
 30
0.0
 10
12.6701346555
 20
7.4324433739
 30
0.0
 10
12.6711312378
 20
7.4364503144
 30
0.0
 10
12.6719617884
 20
7.4397892893
 30
0.0
 10
12.6726260833
 20
7.4424607841
 30
0.0
 10
12.6731247021
 20
7.444463546
 30
0.0
 10
12.673538953
 20
7.4461352468
 30
0.0
 10
12.6738314106
 20
7.4473000748
 30
0.0
 10
12.6739946539
 20
7.4479740641
 30
0.0
 10
12.6741280033
 20
7.4484559684
 30
0.0
 10
12.6742196225
 20
7.4490280367
 30
0.0
 10
12.6743563374
 20
7.4497593441
 30
0.0
 10
12.6745888067
 20
7.4510537854
 30
0.0
 10
12.6749244512
 20
7.4528953264
 30
0.0
 10
12.675325707
 20
7.4551084547
 30
0.0
 10
12.675861245
 20
7.4580581467
 30
0.0
 10
12.6765304843
 20
7.4617456569
 30
0.0
 10
12.6773336556
 20
7.4661704912
 30
0.0
 10
12.6781367837
 20
7.4705954048
 30
0.0
 10
12.6788061308
 20
7.4742827167
 30
0.0
 10
12.6793414532
 20
7.4772328051
 30
0.0
 10
12.6797433668
 20
7.4794447247
 30
0.0
 10
12.6800769532
 20
7.4812900471
 30
0.0
 10
12.6803130966
 20
7.4825777379
 30
0.0
 10
12.6804439247
 20
7.4833198613
 30
0.0
 10
12.6805536265
 20
7.4838587066
 30
0.0
 10
12.6806190606
 20
7.4844653907
 30
0.0
 10
12.6807217471
 20
7.48525064
 30
0.0
 10
12.6808942543
 20
7.4866358512
 30
0.0
 10
12.6811444544
 20
7.4886089603
 30
0.0
 10
12.6814430842
 20
7.4909791587
 30
0.0
 10
12.6818418218
 20
7.4941385602
 30
0.0
 10
12.6823400354
 20
7.4980881167
 30
0.0
 10
12.6829380451
 20
7.5028274163
 30
0.0
 10
12.6835357749
 20
7.5075669013
 30
0.0
 10
12.684134471
 20
7.5123058129
 30
0.0
 10
12.6846303967
 20
7.5162566628
 30
0.0
 10
12.6849833961
 20
7.5190188192
 30
0.0
 10
12.6851759753
 20
7.5206025617
 30
0.0
 10
12.685346142
 20
7.5217752489
 30
0.0
 10
12.6854179471
 20
7.5230057312
 30
0.0
 10
12.6855479969
 20
7.5246262146
 30
0.0
 10
12.685759598
 20
7.5274714535
 30
0.0
 10
12.6860702484
 20
7.5315311685
 30
0.0
 10
12.6864394252
 20
7.5364049348
 30
0.0
 10
12.6868096355
 20
7.541278127
 30
0.0
 10
12.6871793153
 20
7.5461515074
 30
0.0
 10
12.6875500837
 20
7.5510247089
 30
0.0
 10
12.6878558711
 20
7.5550861496
 30
0.0
 10
12.688076137
 20
7.5579283136
 30
0.0
 10
12.6881923053
 20
7.5595537232
 30
0.0
 10
12.6883067498
 20
7.5607690741
 30
0.0
 10
12.6883167703
 20
7.561998592
 30
0.0
 10
12.6883665552
 20
7.5636330077
 30
0.0
 10
12.6884367079
 20
7.5664955373
 30
0.0
 10
12.6885458004
 20
7.5705836621
 30
0.0
 10
12.6886729049
 20
7.5754899254
 30
0.0
 10
12.6888010363
 20
7.5803960598
 30
0.0
 10
12.6889288669
 20
7.5853021961
 30
0.0
 10
12.6890355393
 20
7.589390744
 30
0.0
 10
12.689120675
 20
7.5926613391
 30
0.0
 10
12.6891850452
 20
7.5951149545
 30
0.0
 10
12.6892370432
 20
7.5971575051
 30
0.0
 10
12.6892766671
 20
7.5985914685
 30
0.0
 10
12.6892942734
 20
7.5994043526
 30
0.0
 10
12.6893216646
 20
7.6000323928
 30
0.0
 10
12.6892948277
 20
7.6005901861
 30
0.0
 10
12.6892779605
 20
7.6013584135
 30
0.0
 10
12.68923963
 20
7.602691395
 30
0.0
 10
12.6891894797
 20
7.6046016229
 30
0.0
 10
12.689127327
 20
7.6068913416
 30
0.0
 10
12.689045146
 20
7.6099451926
 30
0.0
 10
12.6889421818
 20
7.6137621974
 30
0.0
 10
12.6888187332
 20
7.6183427468
 30
0.0
 10
12.6886952312
 20
7.6229232163
 30
0.0
 10
12.6885924005
 20
7.6267404209
 30
0.0
 10
12.6885099523
 20
7.6297938723
 30
0.0
 10
12.6884486143
 20
7.6320848099
 30
0.0
 10
12.6883959155
 20
7.6339912244
 30
0.0
 10
12.6883621344
 20
7.6353310135
 30
0.0
 10
12.688337978
 20
7.6360883334
 30
0.0
 10
12.6883335315
 20
7.6366796307
 30
0.0
 10
12.6882768281
 20
7.6371818356
 30
0.0
 10
12.6882194513
 20
7.6378825186
 30
0.0
 10
12.6881105494
 20
7.6390942346
 30
0.0
 10
12.6879594152
 20
7.6408328274
 30
0.0
 10
12.6877761537
 20
7.6429158986
 30
0.0
 10
12.6875324689
 20
7.6456944585
 30
0.0
 10
12.6872276354
 20
7.6491672711
 30
0.0
 10
12.6868619311
 20
7.6533348081
 30
0.0
 10
12.6864962072
 20
7.6575023171
 30
0.0
 10
12.6861914226
 20
7.6609751996
 30
0.0
 10
12.68594764
 20
7.6637536197
 30
0.0
 10
12.6857951705
 20
7.665489868
 30
0.0
 10
12.6856734366
 20
7.6668794721
 30
0.0
 10
12.6855814742
 20
7.6679200175
 30
0.0
 10
12.6855069448
 20
7.6687924121
 30
0.0
 10
12.685442598
 20
7.6694785002
 30
0.0
 10
12.685407244
 20
7.6700253852
 30
0.0
 10
12.6853226274
 20
7.6704489083
 30
0.0
 10
12.6852270134
 20
7.6710566978
 30
0.0
 10
12.6851015918
 20
7.6718016499
 30
0.0
 10
12.684953613
 20
7.6727019208
 30
0.0
 10
12.6847554253
 20
7.6739000717
 30
0.0
 10
12.6845079928
 20
7.6753985171
 30
0.0
 10
12.684111932
 20
7.6777956068
 30
0.0
 10
12.6836169139
 20
7.6807921137
 30
0.0
 10
12.6830228679
 20
7.6843878616
 30
0.0
 10
12.6824288262
 20
7.6879836193
 30
0.0
 10
12.6819337972
 20
7.6909801017
 30
0.0
 10
12.6815377582
 20
7.6933772405
 30
0.0
 10
12.6812902702
 20
7.694875561
 30
0.0
 10
12.6810921966
 20
7.6960739682
 30
0.0
 10
12.6809438692
 20
7.6969734561
 30
0.0
 10
12.6808195384
 20
7.6977208579
 30
0.0
 10
12.6807339288
 20
7.6982483007
 30
0.0
 10
12.6806827888
 20
7.6985430426
 30
0.0
 10
12.6806506884
 20
7.6987828435
 30
0.0
 10
12.6805946795
 20
7.6989509931
 30
0.0
 10
12.6805283406
 20
7.6992001854
 30
0.0
 10
12.6804083618
 20
7.6996246272
 30
0.0
 10
12.6802389951
 20
7.7002370606
 30
0.0
 10
12.6800348855
 20
7.7009693749
 30
0.0
 10
12.679763043
 20
7.7019467041
 30
0.0
 10
12.679423136
 20
7.7031680539
 30
0.0
 10
12.6788793428
 20
7.7051223879
 30
0.0
 10
12.6781995814
 20
7.7075652451
 30
0.0
 10
12.6773838766
 20
7.7104967019
 30
0.0
 10
12.6765681679
 20
7.7134281426
 30
0.0
 10
12.6758884163
 20
7.7158710398
 30
0.0
 10
12.6753446033
 20
7.7178252939
 30
0.0
 10
12.6750047467
 20
7.7190468467
 30
0.0
 10
12.6747328007
 20
7.7200237593
 30
0.0
 10
12.6745290077
 20
7.7207573464
 30
0.0
 10
12.6743586504
 20
7.7213657973
 30
0.0
 10
12.6742404399
 20
7.7217973486
 30
0.0
 10
12.6741712678
 20
7.7220351498
 30
0.0
 10
12.6741239616
 20
7.7222382891
 30
0.0
 10
12.6740591754
 20
7.7223466744
 30
0.0
 10
12.6739788911
 20
7.7225242395
 30
0.0
 10
12.6738355527
 20
7.7228195791
 30
0.0
 10
12.6736322688
 20
7.7232495437
 30
0.0
 10
12.6733876923
 20
7.7237620552
 30
0.0
 10
12.6730618125
 20
7.7244466075
 30
0.0
 10
12.6726543866
 20
7.7253018858
 30
0.0
 10
12.6720025478
 20
7.7266705614
 30
0.0
 10
12.6711877346
 20
7.7283813264
 30
0.0
 10
12.6702099653
 20
7.7304342807
 30
0.0
 10
12.669232193
 20
7.7324872167
 30
0.0
 10
12.6684173875
 20
7.7341980276
 30
0.0
 10
12.6677655332
 20
7.7355666112
 30
0.0
 10
12.6673581467
 20
7.7364221233
 30
0.0
 10
12.667032186
 20
7.7371061957
 30
0.0
 10
12.6667878566
 20
7.7376201734
 30
0.0
 10
12.6665837997
 20
7.7380455508
 30
0.0
 10
12.6664418412
 20
7.7383490793
 30
0.0
 10
12.666359346
 20
7.7385135237
 30
0.0
 10
12.6663013509
 20
7.7386622114
 30
0.0
 10
12.6662285385
 20
7.7387139818
 30
0.0
 10
12.6661366238
 20
7.7388168148
 30
0.0
 10
12.6659733649
 20
7.7389810218
 30
0.0
 10
12.6657413968
 20
7.739223838
 30
0.0
 10
12.6654624963
 20
7.7395116927
 30
0.0
 10
12.6650908172
 20
7.73989673
 30
0.0
 10
12.6646261538
 20
7.7403776051
 30
0.0
 10
12.6638827285
 20
7.741147241
 30
0.0
 10
12.6629534344
 20
7.7421092045
 30
0.0
 10
12.661838287
 20
7.7432635979
 30
0.0
 10
12.6607231372
 20
7.7444179723
 30
0.0
 10
12.6597938491
 20
7.7453799834
 30
0.0
 10
12.6590504118
 20
7.746149524
 30
0.0
 10
12.658585779
 20
7.7466306413
 30
0.0
 10
12.6582140371
 20
7.7470151815
 30
0.0
 10
12.6579353282
 20
7.7473045551
 30
0.0
 10
12.6577027606
 20
7.7475426188
 30
0.0
 10
12.6575405721
 20
7.7477153097
 30
0.0
 10
12.6574469423
 20
7.7478045494
 30
0.0
 10
12.6573793978
 20
7.7478980742
 30
0.0
 10
12.6573016174
 20
7.7478899392
 30
0.0
 10
12.6572014805
 20
7.7479145526
 30
0.0
 10
12.6570245774
 20
7.7479411045
 30
0.0
 10
12.6567727285
 20
7.7479876735
 30
0.0
 10
12.6564701374
 20
7.7480398591
 30
0.0
 10
12.6560668128
 20
7.7481107312
 30
0.0
 10
12.6555626124
 20
7.7481988792
 30
0.0
 10
12.6547559168
 20
7.7483401631
 30
0.0
 10
12.6537475386
 20
7.7485166827
 30
0.0
 10
12.6525374887
 20
7.7487285453
 30
0.0
 10
12.6513274371
 20
7.748940388
 30
0.0
 10
12.6503190632
 20
7.7491169571
 30
0.0
 10
12.6495123589
 20
7.749258142
 30
0.0
 10
12.6490081805
 20
7.7493465419
 30
0.0
 10
12.6486048109
 20
7.7494168969
 30
0.0
 10
12.6483023571
 20
7.7494706623
 30
0.0
 10
12.6480500788
 20
7.7495122884
 30
0.0
 10
12.6478739422
 20
7.7495476641
 30
0.0
 10
12.6477725772
 20
7.7495581396
 30
0.0
 10
12.6476985693
 20
7.7495934317
 30
0.0
 10
12.6476168556
 20
7.7495238516
 30
0.0
 10
12.6475105919
 20
7.7494676587
 30
0.0
 10
12.6473233781
 20
7.7493522776
 30
0.0
 10
12.6470565845
 20
7.749196358
 30
0.0
 10
12.6467361519
 20
7.7490054405
 30
0.0
 10
12.6463090064
 20
7.748752216
 30
0.0
 10
12.645775041
 20
7.7484352292
 30
0.0
 10
12.644920715
 20
7.7479283053
 30
0.0
 10
12.6438528012
 20
7.7472945629
 30
0.0
 10
12.6425713073
 20
7.7465341096
 30
0.0
 10
12.6412898127
 20
7.7457736462
 30
0.0
 10
12.6395811534
 20
7.7447596985
 30
0.0
 10
12.638299659
 20
7.743999237
 30
0.0
 10
12.6374453293
 20
7.7434922628
 30
0.0
  0
SPLINE
  5
390
100
AcDbEntity
  8
0
100
AcDbSpline
 62
4
  6
CONTINUOUS
 70
0
 71
3
 72
279
 73
275
 74
0
 42
0.0000001
 43
0.0000001
 44
0.0000000001
 40
0.0
 40
0.0
 40
0.0
 40
0.0
 40
0.015625
 40
0.0234375
 40
0.03125
 40
0.0390625
 40
0.046875
 40
0.05078125
 40
0.0546875
 40
0.056640625
 40
0.05859375
 40
0.060546875
 40
0.0615234375
 40
0.0620117188
 40
0.0625
 40
0.0629882812
 40
0.0634765625
 40
0.064453125
 40
0.06640625
 40
0.068359375
 40
0.0703125
 40
0.07421875
 40
0.078125
 40
0.0859375
 40
0.09375
 40
0.1015625
 40
0.109375
 40
0.11328125
 40
0.1171875
 40
0.119140625
 40
0.12109375
 40
0.123046875
 40
0.1240234375
 40
0.1245117188
 40
0.125
 40
0.1254882812
 40
0.1259765625
 40
0.126953125
 40
0.12890625
 40
0.130859375
 40
0.1328125
 40
0.13671875
 40
0.140625
 40
0.1484375
 40
0.15625
 40
0.1640625
 40
0.171875
 40
0.17578125
 40
0.1796875
 40
0.181640625
 40
0.18359375
 40
0.185546875
 40
0.1865234375
 40
0.1870117188
 40
0.1875
 40
0.1879882812
 40
0.1884765625
 40
0.189453125
 40
0.19140625
 40
0.193359375
 40
0.1953125
 40
0.19921875
 40
0.203125
 40
0.2109375
 40
0.21875
 40
0.2265625
 40
0.234375
 40
0.23828125
 40
0.2421875
 40
0.24609375
 40
0.248046875
 40
0.2490234375
 40
0.25
 40
0.2509765625
 40
0.251953125
 40
0.25390625
 40
0.2578125
 40
0.26171875
 40
0.265625
 40
0.2734375
 40
0.28125
 40
0.2890625
 40
0.296875
 40
0.30078125
 40
0.3046875
 40
0.30859375
 40
0.310546875
 40
0.3115234375
 40
0.3125
 40
0.3134765625
 40
0.314453125
 40
0.31640625
 40
0.3203125
 40
0.32421875
 40
0.328125
 40
0.3359375
 40
0.34375
 40
0.3515625
 40
0.359375
 40
0.3671875
 40
0.37109375
 40
0.373046875
 40
0.375
 40
0.376953125
 40
0.37890625
 40
0.3828125
 40
0.390625
 40
0.3984375
 40
0.40625
 40
0.4140625
 40
0.421875
 40
0.4296875
 40
0.43359375
 40
0.435546875
 40
0.4375
 40
0.439453125
 40
0.44140625
 40
0.4453125
 40
0.453125
 40
0.4609375
 40
0.46875
 40
0.4765625
 40
0.484375
 40
0.48828125
 40
0.4921875
 40
0.49609375
 40
0.498046875
 40
0.4990234375
 40
0.5
 40
0.5009765625
 40
0.501953125
 40
0.50390625
 40
0.5078125
 40
0.51171875
 40
0.515625
 40
0.5234375
 40
0.53125
 40
0.5390625
 40
0.546875
 40
0.55078125
 40
0.5546875
 40
0.55859375
 40
0.560546875
 40
0.5615234375
 40
0.5625
 40
0.5634765625
 40
0.564453125
 40
0.56640625
 40
0.5703125
 40
0.57421875
 40
0.578125
 40
0.5859375
 40
0.59375
 40
0.6015625
 40
0.609375
 40
0.61328125
 40
0.6171875
 40
0.619140625
 40
0.62109375
 40
0.623046875
 40
0.6240234375
 40
0.625
 40
0.6259765625
 40
0.626953125
 40
0.62890625
 40
0.630859375
 40
0.6328125
 40
0.63671875
 40
0.640625
 40
0.6484375
 40
0.65625
 40
0.6640625
 40
0.671875
 40
0.67578125
 40
0.6796875
 40
0.681640625
 40
0.68359375
 40
0.685546875
 40
0.6865234375
 40
0.6870117188
 40
0.6875
 40
0.6879882812
 40
0.6884765625
 40
0.689453125
 40
0.69140625
 40
0.693359375
 40
0.6953125
 40
0.69921875
 40
0.703125
 40
0.7109375
 40
0.71875
 40
0.7265625
 40
0.734375
 40
0.73828125
 40
0.7421875
 40
0.744140625
 40
0.74609375
 40
0.748046875
 40
0.7490234375
 40
0.7495117188
 40
0.75
 40
0.7504882812
 40
0.7509765625
 40
0.751953125
 40
0.75390625
 40
0.755859375
 40
0.7578125
 40
0.76171875
 40
0.765625
 40
0.7734375
 40
0.78125
 40
0.7890625
 40
0.796875
 40
0.80078125
 40
0.8046875
 40
0.806640625
 40
0.80859375
 40
0.810546875
 40
0.8115234375
 40
0.8120117188
 40
0.8125
 40
0.8129882812
 40
0.8134765625
 40
0.814453125
 40
0.81640625
 40
0.818359375
 40
0.8203125
 40
0.82421875
 40
0.828125
 40
0.8359375
 40
0.84375
 40
0.8515625
 40
0.859375
 40
0.86328125
 40
0.8671875
 40
0.869140625
 40
0.87109375
 40
0.873046875
 40
0.8740234375
 40
0.8745117188
 40
0.875
 40
0.8754882812
 40
0.8759765625
 40
0.876953125
 40
0.87890625
 40
0.880859375
 40
0.8828125
 40
0.88671875
 40
0.890625
 40
0.8984375
 40
0.90625
 40
0.9140625
 40
0.921875
 40
0.92578125
 40
0.9296875
 40
0.931640625
 40
0.93359375
 40
0.935546875
 40
0.9365234375
 40
0.9370117188
 40
0.9375
 40
0.9379882812
 40
0.9384765625
 40
0.939453125
 40
0.94140625
 40
0.943359375
 40
0.9453125
 40
0.94921875
 40
0.953125
 40
0.9609375
 40
0.96875
 40
0.9765625
 40
0.984375
 40
1.0
 40
1.0
 40
1.0
 40
1.0
 10
12.6374453339
 20
7.7434922672
 30
0.0
 10
12.6366057997
 20
7.7423741277
 30
0.0
 10
12.6353464984
 20
7.7406969188
 30
0.0
 10
12.6336674302
 20
7.7384606393
 30
0.0
 10
12.6324081288
 20
7.736783432
 30
0.0
 10
12.631148828
 20
7.7351062159
 30
0.0
 10
12.630099409
 20
7.7337085633
 30
0.0
 10
12.6292598774
 20
7.7325903795
 30
0.0
 10
12.6287351622
 20
7.7318916552
 30
0.0
 10
12.6283154081
 20
7.7313323539
 30
0.0
 10
12.6280005432
 20
7.7309137593
 30
0.0
 10
12.6277383126
 20
7.7305621266
 30
0.0
 10
12.6275544434
 20
7.7303214861
 30
0.0
 10
12.6274498558
 20
7.7301753857
 30
0.0
 10
12.6273700617
 20
7.7300900132
 30
0.0
 10
12.6272954411
 20
7.7299121251
 30
0.0
 10
12.6271941423
 20
7.7297072115
 30
0.0
 10
12.6270177104
 20
7.7293335773
 30
0.0
 10
12.6267652251
 20
7.7288076748
 30
0.0
 10
12.626462431
 20
7.7281732272
 30
0.0
 10
12.6260586398
 20
7.7273284722
 30
0.0
 10
12.6255539232
 20
7.7262721261
 30
0.0
 10
12.6247463642
 20
7.7245821973
 30
0.0
 10
12.6237369197
 20
7.7224697087
 30
0.0
 10
12.6225255843
 20
7.7199347576
 30
0.0
 10
12.6213142503
 20
7.7173997897
 30
0.0
 10
12.6203048022
 20
7.715287343
 30
0.0
 10
12.6194972505
 20
7.7135973304
 30
0.0
 10
12.6189925153
 20
7.7125411973
 30
0.0
 10
12.6185887624
 20
7.7116960052
 30
0.0
 10
12.618285851
 20
7.7110628932
 30
0.0
 10
12.6180337325
 20
7.7105328117
 30
0.0
 10
12.6178566459
 20
7.7101666377
 30
0.0
 10
12.6177563961
 20
7.709949771
 30
0.0
 10
12.6176785534
 20
7.7098085992
 30
0.0
 10
12.6176108609
 20
7.7095853263
 30
0.0
 10
12.6175170636
 20
7.7093162669
 30
0.0
 10
12.617354568
 20
7.70883207
 30
0.0
 10
12.6171215691
 20
7.7081473361
 30
0.0
 10
12.6168423394
 20
7.7073226694
 30
0.0
 10
12.6164699043
 20
7.7062241568
 30
0.0
 10
12.6160044046
 20
7.7048506589
 30
0.0
 10
12.6152595803
 20
7.7026532619
 30
0.0
 10
12.6143285585
 20
7.6999064468
 30
0.0
 10
12.6132113284
 20
7.6966103
 30
0.0
 10
12.6120941005
 20
7.693314138
 30
0.0
 10
12.6111630732
 20
7.6905673609
 30
0.0
 10
12.61041826
 20
7.6883698878
 30
0.0
 10
12.609952732
 20
7.6869965836
 30
0.0
 10
12.6095803549
 20
7.6858976734
 30
0.0
 10
12.6093009481
 20
7.6850742212
 30
0.0
 10
12.6090685034
 20
7.6843856876
 30
0.0
 10
12.6089050183
 20
7.6839082736
 30
0.0
 10
12.6088128065
 20
7.6836283464
 30
0.0
 10
12.6087402439
 20
7.6834384559
 30
0.0
 10
12.6086806923
 20
7.6831719053
 30
0.0
 10
12.6085967517
 20
7.6828432444
 30
0.0
 10
12.6084519702
 20
7.6822556291
 30
0.0
 10
12.608244034
 20
7.6814226923
 30
0.0
 10
12.6079949837
 20
7.6804203801
 30
0.0
 10
12.6076627515
 20
7.6790849376
 30
0.0
 10
12.6072475177
 20
7.677415301
 30
0.0
 10
12.6065831119
 20
7.6747440692
 30
0.0
 10
12.6057526168
 20
7.6714049628
 30
0.0
 10
12.6047560123
 20
7.667398075
 30
0.0
 10
12.6037594299
 20
7.6633911345
 30
0.0
 10
12.6029288793
 20
7.6600521596
 30
0.0
 10
12.6022645844
 20
7.6573806649
 30
0.0
 10
12.6017659657
 20
7.6553779029
 30
0.0
 10
12.6013517147
 20
7.6537062021
 30
0.0
 10
12.6010592571
 20
7.6525413741
 30
0.0
 10
12.6008960139
 20
7.6518673848
 30
0.0
 10
12.6007626645
 20
7.6513854805
 30
0.0
 10
12.6006710452
 20
7.6508134122
 30
0.0
 10
12.6005343303
 20
7.6500821048
 30
0.0
 10
12.6003018611
 20
7.6487876635
 30
0.0
 10
12.5999662165
 20
7.6469461225
 30
0.0
 10
12.5995649607
 20
7.6447329942
 30
0.0
 10
12.5990294227
 20
7.6417833022
 30
0.0
 10
12.5983601834
 20
7.638095792
 30
0.0
 10
12.5975570122
 20
7.6336709577
 30
0.0
 10
12.5967538841
 20
7.6292460442
 30
0.0
 10
12.5960845369
 20
7.6255587322
 30
0.0
 10
12.5955492146
 20
7.6226086438
 30
0.0
 10
12.5951473009
 20
7.6203967242
 30
0.0
 10
12.5948137145
 20
7.6185514019
 30
0.0
 10
12.5945775711
 20
7.617263711
 30
0.0
 10
12.5944467431
 20
7.6165215876
 30
0.0
 10
12.5943370412
 20
7.6159827424
 30
0.0
 10
12.5942716071
 20
7.6153760582
 30
0.0
 10
12.5941689206
 20
7.6145908089
 30
0.0
 10
12.5939964135
 20
7.6132055977
 30
0.0
 10
12.5937462133
 20
7.6112324886
 30
0.0
 10
12.5934475835
 20
7.6088622902
 30
0.0
 10
12.5930488459
 20
7.6057028887
 30
0.0
 10
12.5925506323
 20
7.6017533322
 30
0.0
 10
12.5919526226
 20
7.5970140326
 30
0.0
 10
12.5913548928
 20
7.5922745476
 30
0.0
 10
12.5907561968
 20
7.587535636
 30
0.0
 10
12.5902602711
 20
7.5835847862
 30
0.0
 10
12.5899072717
 20
7.5808226297
 30
0.0
 10
12.5897146924
 20
7.5792388872
 30
0.0
 10
12.5895445257
 20
7.5780662
 30
0.0
 10
12.5894727206
 20
7.5768357178
 30
0.0
 10
12.5893426708
 20
7.5752152343
 30
0.0
 10
12.5891310698
 20
7.5723699954
 30
0.0
 10
12.5888204194
 20
7.5683102804
 30
0.0
 10
12.5884512426
 20
7.5634365141
 30
0.0
 10
12.5880810322
 20
7.5585633219
 30
0.0
 10
12.5877113524
 20
7.5536899415
 30
0.0
 10
12.5873405841
 20
7.54881674
 30
0.0
 10
12.5870347966
 20
7.5447552993
 30
0.0
 10
12.5868145307
 20
7.5419131353
 30
0.0
 10
12.5866983624
 20
7.5402877257
 30
0.0
 10
12.586583918
 20
7.5390723748
 30
0.0
 10
12.5865738975
 20
7.5378428569
 30
0.0
 10
12.5865241125
 20
7.5362084413
 30
0.0
 10
12.5864539599
 20
7.5333459116
 30
0.0
 10
12.5863448673
 20
7.5292577868
 30
0.0
 10
12.5862177628
 20
7.5243515235
 30
0.0
 10
12.5860896314
 20
7.5194453891
 30
0.0
 10
12.5859618009
 20
7.5145392528
 30
0.0
 10
12.5858551285
 20
7.5104507049
 30
0.0
 10
12.5857699927
 20
7.5071801098
 30
0.0
 10
12.5857056225
 20
7.5047264944
 30
0.0
 10
12.5856536245
 20
7.5026839438
 30
0.0
 10
12.5856140006
 20
7.5012499804
 30
0.0
 10
12.5855963944
 20
7.5004370963
 30
0.0
 10
12.5855690032
 20
7.4998090561
 30
0.0
 10
12.5855958401
 20
7.4992512628
 30
0.0
 10
12.5856127072
 20
7.4984830354
 30
0.0
 10
12.5856510377
 20
7.4971500539
 30
0.0
 10
12.5857011881
 20
7.495239826
 30
0.0
 10
12.5857633407
 20
7.4929501074
 30
0.0
 10
12.5858455217
 20
7.4898962563
 30
0.0
 10
12.585948486
 20
7.4860792515
 30
0.0
 10
12.5860719346
 20
7.4814987021
 30
0.0
 10
12.5861954365
 20
7.4769182327
 30
0.0
 10
12.5862982673
 20
7.473101028
 30
0.0
 10
12.5863807154
 20
7.4700475766
 30
0.0
 10
12.5864420534
 20
7.467756639
 30
0.0
 10
12.5864947522
 20
7.4658502245
 30
0.0
 10
12.5865285333
 20
7.4645104354
 30
0.0
 10
12.5865526898
 20
7.4637531155
 30
0.0
 10
12.5865571362
 20
7.4631618182
 30
0.0
 10
12.5866138396
 20
7.4626596133
 30
0.0
 10
12.5866712164
 20
7.4619589303
 30
0.0
 10
12.5867801184
 20
7.4607472143
 30
0.0
 10
12.5869312525
 20
7.4590086215
 30
0.0
 10
12.587114514
 20
7.4569255503
 30
0.0
 10
12.5873581989
 20
7.4541469904
 30
0.0
 10
12.5876630324
 20
7.4506741778
 30
0.0
 10
12.5880287367
 20
7.4465066408
 30
0.0
 10
12.5883944605
 20
7.4423391318
 30
0.0
 10
12.5886992452
 20
7.4388662493
 30
0.0
 10
12.5889430277
 20
7.4360878293
 30
0.0
 10
12.5890954973
 20
7.4343515809
 30
0.0
 10
12.5892172312
 20
7.4329619768
 30
0.0
 10
12.5893091936
 20
7.4319214314
 30
0.0
 10
12.589383723
 20
7.4310490368
 30
0.0
 10
12.5894480697
 20
7.4303629487
 30
0.0
 10
12.5894834237
 20
7.4298160638
 30
0.0
 10
12.5895680403
 20
7.4293925406
 30
0.0
 10
12.5896636544
 20
7.4287847512
 30
0.0
 10
12.589789076
 20
7.428039799
 30
0.0
 10
12.5899370548
 20
7.4271395281
 30
0.0
 10
12.5901352425
 20
7.4259413772
 30
0.0
 10
12.5903826749
 20
7.4244429318
 30
0.0
 10
12.5907787357
 20
7.4220458421
 30
0.0
 10
12.5912737538
 20
7.4190493352
 30
0.0
 10
12.5918677999
 20
7.4154535873
 30
0.0
 10
12.5924618415
 20
7.4118578296
 30
0.0
 10
12.5929568706
 20
7.4088613473
 30
0.0
 10
12.5933529095
 20
7.4064642084
 30
0.0
 10
12.5936003975
 20
7.4049658879
 30
0.0
 10
12.5937984711
 20
7.4037674807
 30
0.0
 10
12.5939467986
 20
7.4028679928
 30
0.0
 10
12.5940711293
 20
7.402120591
 30
0.0
 10
12.5941567389
 20
7.4015931482
 30
0.0
 10
12.594207879
 20
7.4012984063
 30
0.0
 10
12.5942399794
 20
7.4010586054
 30
0.0
 10
12.5942959882
 20
7.4008904558
 30
0.0
 10
12.5943623272
 20
7.4006412635
 30
0.0
 10
12.5944823059
 20
7.4002168217
 30
0.0
 10
12.5946516726
 20
7.3996043883
 30
0.0
 10
12.5948557823
 20
7.398872074
 30
0.0
 10
12.5951276247
 20
7.3978947448
 30
0.0
 10
12.5954675318
 20
7.396673395
 30
0.0
 10
12.5960113249
 20
7.394719061
 30
0.0
 10
12.5966910864
 20
7.3922762038
 30
0.0
 10
12.5975067911
 20
7.389344747
 30
0.0
 10
12.5983224999
 20
7.3864133063
 30
0.0
 10
12.5990022514
 20
7.3839704092
 30
0.0
 10
12.5995460644
 20
7.382016155
 30
0.0
 10
12.599885921
 20
7.3807946022
 30
0.0
 10
12.6001578671
 20
7.3798176896
 30
0.0
 10
12.6003616601
 20
7.3790841025
 30
0.0
 10
12.6005320174
 20
7.3784756516
 30
0.0
 10
12.6006502278
 20
7.3780441003
 30
0.0
 10
12.6007194
 20
7.3778062991
 30
0.0
 10
12.6007667062
 20
7.3776031598
 30
0.0
 10
12.6008314923
 20
7.3774947745
 30
0.0
 10
12.6009117767
 20
7.3773172094
 30
0.0
 10
12.601055115
 20
7.3770218698
 30
0.0
 10
12.601258399
 20
7.3765919052
 30
0.0
 10
12.6015029754
 20
7.3760793937
 30
0.0
 10
12.6018288552
 20
7.3753948414
 30
0.0
 10
12.6022362811
 20
7.3745395631
 30
0.0
 10
12.6028881199
 20
7.3731708875
 30
0.0
 10
12.6037029332
 20
7.3714601226
 30
0.0
 10
12.6046807024
 20
7.3694071682
 30
0.0
 10
12.6056584747
 20
7.3673542322
 30
0.0
 10
12.6064732802
 20
7.3656434213
 30
0.0
 10
12.6071251346
 20
7.3642748377
 30
0.0
 10
12.607532521
 20
7.3634193256
 30
0.0
 10
12.6078584817
 20
7.3627352532
 30
0.0
 10
12.6081028111
 20
7.3622212755
 30
0.0
 10
12.608306868
 20
7.3617958981
 30
0.0
 10
12.6084488265
 20
7.3614923696
 30
0.0
 10
12.6085313217
 20
7.3613279252
 30
0.0
 10
12.6085893168
 20
7.3611792375
 30
0.0
 10
12.6086621292
 20
7.3611274671
 30
0.0
 10
12.608754044
 20
7.3610246341
 30
0.0
 10
12.6089173029
 20
7.3608604271
 30
0.0
 10
12.6091492709
 20
7.3606176109
 30
0.0
 10
12.6094281714
 20
7.3603297562
 30
0.0
 10
12.6097998505
 20
7.3599447189
 30
0.0
 10
12.6102645139
 20
7.3594638438
 30
0.0
 10
12.6110079393
 20
7.3586942079
 30
0.0
 10
12.6119372334
 20
7.3577322445
 30
0.0
 10
12.6130523807
 20
7.356577851
 30
0.0
 10
12.6141675305
 20
7.3554234766
 30
0.0
 10
12.6150968186
 20
7.3544614655
 30
0.0
 10
12.615840256
 20
7.353691925
 30
0.0
 10
12.6163048888
 20
7.3532108076
 30
0.0
 10
12.6166766306
 20
7.3528262674
 30
0.0
 10
12.6169553395
 20
7.3525368938
 30
0.0
 10
12.6171879071
 20
7.3522988301
 30
0.0
 10
12.6173500957
 20
7.3521261392
 30
0.0
 10
12.6174437254
 20
7.3520368995
 30
0.0
 10
12.6175112699
 20
7.3519433747
 30
0.0
 10
12.6175890504
 20
7.3519515097
 30
0.0
 10
12.6176891873
 20
7.3519268963
 30
0.0
 10
12.6178660903
 20
7.3519003444
 30
0.0
 10
12.6181179393
 20
7.3518537754
 30
0.0
 10
12.6184205303
 20
7.3518015898
 30
0.0
 10
12.6188238549
 20
7.3517307177
 30
0.0
 10
12.6193280553
 20
7.3516425697
 30
0.0
 10
12.6201347509
 20
7.3515012858
 30
0.0
 10
12.6211431291
 20
7.3513247662
 30
0.0
 10
12.622353179
 20
7.3511129037
 30
0.0
 10
12.6235632307
 20
7.3509010609
 30
0.0
 10
12.6245716045
 20
7.3507244918
 30
0.0
 10
12.6253783088
 20
7.350583307
 30
0.0
 10
12.6258824873
 20
7.350494907
 30
0.0
 10
12.6262858568
 20
7.350424552
 30
0.0
 10
12.6265883106
 20
7.3503707867
 30
0.0
 10
12.626840589
 20
7.3503291605
 30
0.0
 10
12.6270167255
 20
7.3502937848
 30
0.0
 10
12.6271180905
 20
7.3502833093
 30
0.0
 10
12.6271920984
 20
7.3502480172
 30
0.0
 10
12.6272738121
 20
7.3503175973
 30
0.0
 10
12.6273800758
 20
7.3503737902
 30
0.0
 10
12.6275672897
 20
7.3504891713
 30
0.0
 10
12.6278340833
 20
7.3506450909
 30
0.0
 10
12.6281545158
 20
7.3508360084
 30
0.0
 10
12.6285816613
 20
7.3510892329
 30
0.0
 10
12.6291156268
 20
7.3514062197
 30
0.0
 10
12.6299699527
 20
7.3519131436
 30
0.0
 10
12.6310378666
 20
7.352546886
 30
0.0
 10
12.6323193604
 20
7.3533073393
 30
0.0
 10
12.6336008551
 20
7.3540678027
 30
0.0
 10
12.6353095143
 20
7.3550817504
 30
0.0
 10
12.6365910088
 20
7.3558422119
 30
0.0
 10
12.6374453384
 20
7.3563491861
 30
0.0
  0
ENDSEC
  0
SECTION
  2
OBJECTS
  0
DICTIONARY
  5
C
100
AcDbDictionary
280
0
281
1
  3
ACAD_GROUP
350
D
  3
ACAD_MLINESTYLE
350
17
  3
ACAD_LAYOUT
350
1A
  3
ACAD_PLOTSETTINGS
350
19
  3
ACAD_PLOTSTYLENAME
350
E
  3
ACAD_IMAGE_DICT
350
       392
  3
ACAD_IMAGE_VARS
350
       393
  3
ACAD_TABLESTYLE
350
       394
  0
IMAGEDEF_REACTOR
  5
391
100
AcDbRasterImageDefReactor
 90
2
330
287
  0
DICTIONARY
  5
D
102
{ACAD_REACTORS
330
C
102
}
100
AcDbDictionary
280
0
281
1
  0
ACDBDICTIONARYWDFLT
  5
E
102
{ACAD_REACTORS
330
C
102
}
100
AcDbDictionary
281
1
  3
Normal
350
F
100
AcDbDictionaryWithDefault
340
F
  0
DICTIONARY
  5
392
330
C
100
AcDbDictionary
281
1
  3
XTO_assy_2_img_1
350
       397
  0
RASTERVARIABLES
  5
393
330
C
100
AcDbRasterVariables
 90
0
 70
0
 71
1
 72
5
  0
DICTIONARY
  5
17
102
{ACAD_REACTORS
330
C
102
}
100
AcDbDictionary
280
0
281
1
  3
Standard
350
18
  0
DICTIONARY
  5
394
330
C
100
AcDbDictionary
281
1
  3
Standard
350
       398
  3
Standard1
350
       399
  0
DICTIONARY
  5
19
102
{ACAD_REACTORS
330
C
102
}
100
AcDbDictionary
281
1
  0
DICTIONARY
  5
1A
102
{ACAD_REACTORS
330
C
102
}
100
AcDbDictionary
281
1
  3
Model
350
395
  3
Layout1
350
396
  0
ACDBPLACEHOLDER
  5
F
102
{ACAD_REACTORS
330
E
102
}
  0
MLINESTYLE
  5
18
102
{ACAD_REACTORS
330
17
102
}
100
AcDbMlineStyle
  2
STANDARD
 70
0
  3

 62
256
 51
90.0
 52
90.0
 71
2
 49
0.5
 62
256
  6
BYLAYER
 49
-0.5
 62
256
  6
BYLAYER
  0
LAYOUT
  5
395
102
{ACAD_REACTORS
330
1A
102
}
100
AcDbPlotSettings
  1

  2
none_device
  4
ANSI_C_(22.00_x_17.00_Inches)
  6

 40
0.0
 41
0.0
 42
0.0
 43
0.0
 44
558.8
 45
431.8
 46
0.0
 47
0.0
 48
0.0
 49
0.0
140
0.0
141
0.0
142
1.0
143
1.0
 70
1024
 72
0
 73
0
 74
0
  7

 75
0
147
1.0
148
0.0
149
0.0
100
AcDbLayout
  1
Model
 70
0
 71
0
 10
0.0
 20
0.0
 11
22.0
 21
17.0
 12
0.0
 22
0.0
 32
0.0
 14
0.0
 24
0.0
 34
0.0
 15
0.0
 25
0.0
 35
0.0
146
0.0
 13
0.0
 23
0.0
 33
0.0
 16
1.0
 26
0.0
 36
0.0
 17
0.0
 27
1.0
 37
0.0
 76
0
330
204
345
0
346
0
  0
LAYOUT
  5
396
102
{ACAD_REACTORS
330
1A
102
}
100
AcDbPlotSettings
  1

  2
none_device
  4
ANSI_C_(22.00_x_17.00_Inches)
  6

 40
0.0
 41
0.0
 42
0.0
 43
0.0
 44
558.8
 45
431.8
 46
0.0
 47
0.0
 48
0.0
 49
0.0
140
0.0
141
0.0
142
1.0
143
1.0
 70
0
 72
0
 73
0
 74
0
  7

 75
0
147
1.0
148
0.0
149
0.0
100
AcDbLayout
  1
Layout1
 70
0
 71
1
 10
0.0
 20
0.0
 11
22.0
 21
17.0
 12
0.0
 22
0.0
 32
0.0
 14
0.0
 24
0.0
 34
0.0
 15
0.0
 25
0.0
 35
0.0
146
0.0
 13
0.0
 23
0.0
 33
0.0
 16
1.0
 26
0.0
 36
0.0
 17
0.0
 27
1.0
 37
0.0
 76
0
330
205
345
0
346
0
  0
IMAGEDEF
  5
397
102
{ACAD_REACTORS
330
392
330
391
102
}
100
AcDbRasterImageDef
 90
0
  1
XTO_assy_2_img_1.png
 10
369.0
 20
92.0
 11
0.0066666667
 21
0.0066666667
280
1
281
0
  0
TABLESTYLE
  5
398
102
{ACAD_REACTORS
330
394
330
28A
330
28B
102
}
330
394
100
AcDbTableStyle
  3
Standard
 70
0
 71
0
 40
0.06
 41
0.06
280
1
281
1
  7
Standard
140
0.18
170
1
 62
0
 63
7
283
0
  7
Standard
140
0.18
170
1
 62
0
 63
7
283
0
  7
Standard
140
0.18
170
1
 62
0
 63
7
283
0
  0
TABLESTYLE
  5
399
102
{ACAD_REACTORS
330
394
330
289
102
}
330
394
100
AcDbTableStyle
  3
Standard1
 70
1
 71
0
 40
0.06
 41
0.06
280
1
281
1
  7
Standard
140
0.18
170
1
 62
0
 63
7
283
0
  7
Standard
140
0.18
170
1
 62
0
 63
7
283
0
  7
Standard
140
0.18
170
1
 62
0
 63
7
283
0
  0
ENDSEC
  0
EOF
