999
DXF file: XOV_assy_2.dxf
999
Pro/ENGINEER 2014200 by Parametric Technology Corporation
  0
SECTION
  2
HEADER
  9
$ACADVER
  1
AC1021
  9
$DWGCODEPAGE
  3
ANSI_1252
  9
$EXTMAX
 10
22.0
 20
17.0
 30
0.0
  9
$EXTMIN
 10
0.0
 20
0.0
 30
0.0
  9
$LIMMIN
 10
0.0
 20
0.0
  9
$LIMMAX
 10
22.0
 20
17.0
  9
$VIEWCTR
 10
11.0
 20
8.5
  9
$VIEWSIZE
 40
17.0
  9
$CLAYER
  8
0
  9
$LTSCALE
 40
1.21
  9
$CELTYPE
  6
BYLAYER
  9
$DIMSCALE
 40
1.0
  9
$DIMASZ
 40
0.1875
  9
$DIMEXO
 40
0.0625
  9
$DIMDLI
 40
0.836
  9
$DIMEXE
 40
0.125
  9
$DIMCEN
 40
0.198
  9
$DIMLFAC
 40
1.0
  9
$DIMBLK
  1
_FILLED
  9
$DIMTXT
 40
0.1
  9
$DIMTOL
 70
0
  9
$DIMLIM
 70
0
  9
$DIMTFAC
 40
1.0
  9
$DIMGAP
 40
0.09
  9
$DIMDSEP
 70
46
  9
$AUNITS
 70
0
  9
$PDMODE
 70
3
  9
$PDSIZE
 40
0.3125
  9
$HANDSEED
  5
419
  9
$TILEMODE
 70
1
  9
$MEASUREMENT
 70
0
  9
$INSUNITS
 70
1
  0
ENDSEC
  0
SECTION
  2
CLASSES
  0
CLASS
  1
ACDBDICTIONARYWDFLT
  2
AcDbDictionaryWithDefault
  3
AutoCAD 2000
 90
0
 91
1
280
0
281
0
  0
CLASS
  1
ACDBPLACEHOLDER
  2
AcDbPlaceHolder
  3
AutoCAD 2000
 90
0
 91
1
280
0
281
0
  0
CLASS
  1
LAYOUT
  2
AcDbLayout
  3
AutoCAD 2000
 90
0
 91
0
280
0
281
0
  0
CLASS
  1
RASTERVARIABLES
  2
AcDbRasterVariables
  3
ISM
 90
0
 91
1
280
0
281
0
  0
CLASS
  1
IMAGEDEF
  2
AcDbRasterImageDef
  3
ISM
 90
0
 91
1
280
0
281
0
  0
CLASS
  1
IMAGEDEF_REACTOR
  2
AcDbRasterImageDefReactor
  3
ISM
 90
0
 91
1
280
0
281
0
  0
CLASS
  1
IMAGE
  2
AcDbRasterImage
  3
ISM
 90
127
 91
1
280
0
281
1
  0
CLASS
  1
TABLESTYLE
  2
AcDbTableStyle
  3
ObjectDBX Classes
 90
2047
 91
1
280
0
281
0
  0
CLASS
  1
ACAD_TABLE
  2
AcDbTable
  3
ObjectDBX Classes
 90
1025
 91
3
280
0
281
1
  0
ENDSEC
  0
SECTION
  2
TABLES
  0
TABLE
  2
VPORT
  5
8
100
AcDbSymbolTable
 70
2
  0
VPORT
  5
1F4
100
AcDbSymbolTableRecord
100
AcDbViewportTableRecord
  2
*ACTIVE
 70
0
 10
0.0
 20
0.0
 11
1.0
 21
1.0
 12
11.0
 22
8.5
 13
0.0
 23
0.0
 14
1.0
 24
1.0
 15
0.0
 25
0.0
 16
0.0
 26
0.0
 36
1.0
 17
0.0
 27
0.0
 37
0.0
 40
17.0
 41
1.2941176471
 42
50.0
 43
0.0
 44
0.0
 50
0.0
 51
0.0
 71
0
 72
100
 73
1
 74
1
 75
0
 76
0
 77
0
 78
0
  0
ENDTAB
  0
TABLE
  2
LTYPE
  5
5
100
AcDbSymbolTable
 70
6
  0
LTYPE
  5
14
100
AcDbSymbolTableRecord
100
AcDbLinetypeTableRecord
  2
BYBLOCK
 70
0
  3

 72
65
 73
0
 40
0.0
  0
LTYPE
  5
15
100
AcDbSymbolTableRecord
100
AcDbLinetypeTableRecord
  2
BYLAYER
 70
0
  3

 72
65
 73
0
 40
0.0
  0
LTYPE
  5
16
100
AcDbSymbolTableRecord
100
AcDbLinetypeTableRecord
  2
CONTINUOUS
 70
64
  3
Solid line
 72
65
 73
0
 40
0.0
  0
LTYPE
  5
1F5
100
AcDbSymbolTableRecord
100
AcDbLinetypeTableRecord
  2
CENTER
 70
64
  3
____ _ ____ _ ____ _ ____ _ ____ _ ____ _ ____
 72
65
 73
4
 40
0.6
 49
0.375
 74
0
 49
-0.075
 74
0
 49
0.075
 74
0
 49
-0.075
 74
0
  0
LTYPE
  5
1F6
100
AcDbSymbolTableRecord
100
AcDbLinetypeTableRecord
  2
HIDDEN
 70
64
  3
- - - - - - - - - - - - - - - - - - - -
 72
65
 73
2
 40
0.2
 49
0.1
 74
0
 49
-0.1
 74
0
  0
LTYPE
  5
1F7
100
AcDbSymbolTableRecord
100
AcDbLinetypeTableRecord
  2
PHANTOM
 70
64
  3
_____ _ _ _____ _ _ _____ _ _ _____
 72
65
 73
6
 40
0.8
 49
0.45
 74
0
 49
-0.05
 74
0
 49
0.1
 74
0
 49
-0.05
 74
0
 49
0.1
 74
0
 49
-0.05
 74
0
  0
LTYPE
  5
1F8
100
AcDbSymbolTableRecord
100
AcDbLinetypeTableRecord
  2
DOT
 70
64
  3
. . . . . . . . . . . . . . . . . . . .
 72
65
 73
2
 40
0.2
 49
0.1
 74
0
 49
-0.1
 74
0
  0
LTYPE
  5
1F9
100
AcDbSymbolTableRecord
100
AcDbLinetypeTableRecord
  2
DASHED
 70
64
  3
- - - - - - - - - - - - - - - - - - - -
 72
65
 73
2
 40
0.2
 49
0.1
 74
0
 49
-0.1
 74
0
  0
ENDTAB
  0
TABLE
  2
LAYER
  5
2
100
AcDbSymbolTable
 70
36
  0
LAYER
  5
10
100
AcDbSymbolTableRecord
100
AcDbLayerTableRecord
  2
0
 70
0
 62
7
  6
CONTINUOUS
370
-3
390
F
  0
LAYER
  5
1FA
100
AcDbSymbolTableRecord
100
AcDbLayerTableRecord
  2
DEFAULT_1
 70
0
 62
7
  6
CENTER
370
-3
390
F
  0
LAYER
  5
1FB
100
AcDbSymbolTableRecord
100
AcDbLayerTableRecord
  2
DEFAULT_2
 70
0
 62
8
  6
HIDDEN
370
-3
390
F
  0
LAYER
  5
1FC
100
AcDbSymbolTableRecord
100
AcDbLayerTableRecord
  2
DEFAULT_3
 70
0
 62
7
  6
PHANTOM
370
-3
390
F
  0
LAYER
  5
1FD
100
AcDbSymbolTableRecord
100
AcDbLayerTableRecord
  2
01___PRT_ALL_DTM_PLN
 70
0
 62
7
  6
CONTINUOUS
370
-3
390
F
  0
LAYER
  5
1FE
100
AcDbSymbolTableRecord
100
AcDbLayerTableRecord
  2
01___PRT_DEF_DTM_PLN
 70
0
 62
7
  6
CONTINUOUS
370
-3
390
F
  0
LAYER
  5
1FF
100
AcDbSymbolTableRecord
100
AcDbLayerTableRecord
  2
02___PRT_ALL_AXES
 70
0
 62
7
  6
CONTINUOUS
370
-3
390
F
  0
LAYER
  5
200
100
AcDbSymbolTableRecord
100
AcDbLayerTableRecord
  2
03___PRT_ALL_CURVES
 70
0
 62
7
  6
CONTINUOUS
370
-3
390
F
  0
LAYER
  5
201
100
AcDbSymbolTableRecord
100
AcDbLayerTableRecord
  2
04___PRT_ALL_DTM_PNT
 70
0
 62
7
  6
CONTINUOUS
370
-3
390
F
  0
LAYER
  5
202
100
AcDbSymbolTableRecord
100
AcDbLayerTableRecord
  2
05___PRT_ALL_DTM_CSYS
 70
0
 62
7
  6
CONTINUOUS
370
-3
390
F
  0
LAYER
  5
203
100
AcDbSymbolTableRecord
100
AcDbLayerTableRecord
  2
05___PRT_DEF_DTM_CSYS
 70
0
 62
7
  6
CONTINUOUS
370
-3
390
F
  0
LAYER
  5
204
100
AcDbSymbolTableRecord
100
AcDbLayerTableRecord
  2
06___PRT_ALL_SURFS
 70
0
 62
7
  6
CONTINUOUS
370
-3
390
F
  0
LAYER
  5
205
100
AcDbSymbolTableRecord
100
AcDbLayerTableRecord
  2
DATUM_PLANES
 70
0
 62
7
  6
CONTINUOUS
370
-3
390
F
  0
LAYER
  5
206
100
AcDbSymbolTableRecord
100
AcDbLayerTableRecord
  2
PORT_AREAS
 70
0
 62
7
  6
CONTINUOUS
370
-3
390
F
  0
LAYER
  5
207
100
AcDbSymbolTableRecord
100
AcDbLayerTableRecord
  2
SUNNBOMCOSMETIC
 70
0
 62
7
  6
CONTINUOUS
370
-3
390
F
  0
LAYER
  5
208
100
AcDbSymbolTableRecord
100
AcDbLayerTableRecord
  2
SUNNBOMSTAMPING
 70
0
 62
7
  6
CONTINUOUS
370
-3
390
F
  0
LAYER
  5
209
100
AcDbSymbolTableRecord
100
AcDbLayerTableRecord
  2
THREADS
 70
0
 62
7
  6
CONTINUOUS
370
-3
390
F
  0
ENDTAB
  0
TABLE
  2
STYLE
  5
3
100
AcDbSymbolTable
 70
1
  0
STYLE
  5
11
100
AcDbSymbolTableRecord
100
AcDbTextStyleTableRecord
  2
STANDARD
 70
0
 40
0.0
 41
0.8
 50
0.0
 71
0
 42
0.2
  3
txt
  4

  0
STYLE
  5
20A
100
AcDbSymbolTableRecord
100
AcDbTextStyleTableRecord
  2
TEXTSTYLE_1
 70
0
 40
0.0
 41
0.8
 50
0.0
 71
0
 42
0.2
  3
gdt
  4

  0
ENDTAB
  0
TABLE
  2
VIEW
  5
6
100
AcDbSymbolTable
 70
0
  0
ENDTAB
  0
TABLE
  2
UCS
  5
7
100
AcDbSymbolTable
 70
0
  0
ENDTAB
  0
TABLE
  2
APPID
  5
9
100
AcDbSymbolTable
 70
1
  0
APPID
  5
20B
100
AcDbSymbolTableRecord
100
AcDbRegAppTableRecord
  2
ACAD
 70
0
  0
ENDTAB
  0
TABLE
  2
BLOCK_RECORD
  5
1
100
AcDbSymbolTable
 70
0
  0
BLOCK_RECORD
  5
20C
100
AcDbSymbolTableRecord
100
AcDbBlockTableRecord
  2
*Model_Space
  0
BLOCK_RECORD
  5
20D
100
AcDbSymbolTableRecord
100
AcDbBlockTableRecord
  2
*Paper_Space
  0
BLOCK_RECORD
  5
20E
100
AcDbSymbolTableRecord
100
AcDbBlockTableRecord
  2
SUN_FIRST_THIRD_ANGLE_BL0
  0
BLOCK_RECORD
  5
20F
100
AcDbSymbolTableRecord
100
AcDbBlockTableRecord
  2
*T1
  0
BLOCK_RECORD
  5
210
100
AcDbSymbolTableRecord
100
AcDbBlockTableRecord
  2
*T2
  0
BLOCK_RECORD
  5
211
100
AcDbSymbolTableRecord
100
AcDbBlockTableRecord
  2
*T3
  0
ENDTAB
  0
TABLE
  2
DIMSTYLE
  5
A
100
AcDbSymbolTable
 70
1
100
AcDbDimStyleTable
 71
0
  0
DIMSTYLE
105
212
100
AcDbSymbolTableRecord
100
AcDbDimStyleTableRecord
  2
STANDARD
 70
0
  3

  4

 40
1.0
 41
0.1875
 42
0.0625
 43
0.38
 44
0.125
 45
0.0
 46
0.0
 47
0.001
 48
0.001
140
0.1
141
0.09
142
0.0
143
25.4
144
1.0
145
0.0
146
1.0
147
0.09
 71
0.0
 72
0.0
 73
1
 74
1
 75
0
 76
0
 77
0
 78
4
170
0
171
2
172
0
173
0
174
0
175
0
176
0
177
0
178
0
270
2
271
3
272
3
273
2
274
2
275
0
280
0
281
0
282
0
283
1
284
4
285
0
286
0
287
3
288
0
340
11
278
46
  0
ENDTAB
  0
ENDSEC
  0
SECTION
  2
BLOCKS
  0
BLOCK
  5
20
100
AcDbEntity
  8
0
100
AcDbBlockBegin
  2
*Model_Space
 70
0
 10
0.0
 20
0.0
 30
0.0
  3
*Model_Space
  1

  0
ENDBLK
  5
21
100
AcDbEntity
  8
0
100
AcDbBlockEnd
  0
BLOCK
  5
1C
100
AcDbEntity
  8
0
100
AcDbBlockBegin
  2
*Paper_Space
 70
0
 10
0.0
 20
0.0
 30
0.0
  3
*Paper_Space
  1

  0
ENDBLK
  5
1D
100
AcDbEntity
  8
0
100
AcDbBlockEnd
  0
BLOCK
  5
213
100
AcDbEntity
  8
0
100
AcDbBlockBegin
 62
2
  6
CONTINUOUS
  2
SUN_FIRST_THIRD_ANGLE_BL0
 70
64
 10
20.4816717061
 20
1.2289683772
  3
SUN_FIRST_THIRD_ANGLE_BL0
  1

  0
TEXT
  5
214
100
AcDbEntity
  8
0
100
AcDbText
 62
2
  6
CONTINUOUS
 10
19.4750896608
 20
1.4136269581
  7
STANDARD
 40
0.08
  1
FIRST ANGLE
 41
0.8
 72
0
100
AcDbText
  0
TEXT
  5
215
100
AcDbEntity
  8
0
100
AcDbText
 62
2
  6
CONTINUOUS
 10
20.7842537513
 20
1.4047600029
  7
STANDARD
 40
0.08
  1
THIRD ANGLE
 41
0.8
 72
0
100
AcDbText
  0
LINE
  5
216
100
AcDbEntity
  8
0
100
AcDbLine
 62
7
  6
CONTINUOUS
 10
19.4767170086
 20
1.1727031207
 11
19.6334271527
 21
1.1717972817
  0
LINE
  5
217
100
AcDbEntity
  8
0
100
AcDbLine
 62
7
  6
CONTINUOUS
 10
19.6596964832
 20
1.1717972817
 11
19.6950230232
 21
1.171593082
  0
LINE
  5
218
100
AcDbEntity
  8
0
100
AcDbLine
 62
7
  6
CONTINUOUS
 10
19.7194818561
 20
1.1708914427
 11
19.8852396156
 21
1.1699333054
  0
LINE
  5
219
100
AcDbEntity
  8
0
100
AcDbLine
 62
7
  6
CONTINUOUS
 10
19.4758111696
 20
1.2723454088
 11
19.88525039
 21
1.3511534004
  0
LINE
  5
21A
100
AcDbEntity
  8
0
100
AcDbLine
 62
7
  6
CONTINUOUS
 10
19.88525039
 20
1.3511534004
 11
19.8831348489
 21
0.9851647912
  0
LINE
  5
21B
100
AcDbEntity
  8
0
100
AcDbLine
 62
7
  6
CONTINUOUS
 10
19.8831348489
 20
0.9851647912
 11
19.4767170086
 21
1.0658141206
  0
LINE
  5
21C
100
AcDbEntity
  8
0
100
AcDbLine
 62
7
  6
CONTINUOUS
 10
19.4767170086
 20
1.0658141206
 11
19.4779056764
 21
1.2714536432
  0
CIRCLE
  5
21D
100
AcDbEntity
  8
0
100
AcDbCircle
 62
7
  6
CONTINUOUS
 10
20.2068232291
 20
1.1717972817
 40
0.175742101
  0
CIRCLE
  5
21E
100
AcDbEntity
  8
0
100
AcDbCircle
 62
7
  6
CONTINUOUS
 10
20.2068232291
 20
1.1717972817
 40
0.1005522074
  0
LINE
  5
21F
100
AcDbEntity
  8
0
100
AcDbLine
 62
7
  6
CONTINUOUS
 10
20.2077290681
 20
1.3756110529
 11
20.2071171714
 21
1.2379342989
  0
LINE
  5
220
100
AcDbEntity
  8
0
100
AcDbLine
 62
7
  6
CONTINUOUS
 10
20.2077290681
 20
1.2016899681
 11
20.2074674401
 21
1.1428236749
  0
LINE
  5
221
100
AcDbEntity
  8
0
100
AcDbLine
 62
7
  6
CONTINUOUS
 10
20.208634907
 20
1.101141841
 11
20.2080230104
 21
0.963465087
  0
LINE
  5
222
100
AcDbEntity
  8
0
100
AcDbLine
 62
7
  6
CONTINUOUS
 10
20.0066328138
 20
1.1745147986
 11
20.1443095678
 21
1.1739029019
  0
LINE
  5
223
100
AcDbEntity
  8
0
100
AcDbLine
 62
7
  6
CONTINUOUS
 10
20.1832714155
 20
1.1727031207
 11
20.238153505
 21
1.172335442
  0
LINE
  5
224
100
AcDbEntity
  8
0
100
AcDbLine
 62
7
  6
CONTINUOUS
 10
20.2756669918
 20
1.1717972817
 11
20.407916871
 21
1.1712095044
  0
CIRCLE
  5
225
100
AcDbEntity
  8
0
100
AcDbCircle
 62
7
  6
CONTINUOUS
 10
20.7509457401
 20
1.1693297793
 40
0.1722024983
  0
CIRCLE
  5
226
100
AcDbEntity
  8
0
100
AcDbCircle
 62
7
  6
CONTINUOUS
 10
20.7509457401
 20
1.1693297793
 40
0.0985164967
  0
LINE
  5
227
100
AcDbEntity
  8
0
100
AcDbLine
 62
7
  6
CONTINUOUS
 10
20.7169767782
 20
1.170462078
 11
20.7825395137
 21
1.1682766535
  0
LINE
  5
228
100
AcDbEntity
  8
0
100
AcDbLine
 62
7
  6
CONTINUOUS
 10
20.8177513651
 20
1.1693297793
 11
20.947965719
 21
1.1693297793
  0
LINE
  5
229
100
AcDbEntity
  8
0
100
AcDbLine
 62
7
  6
CONTINUOUS
 10
20.6875370113
 20
1.170462078
 11
20.5573226574
 21
1.170462078
  0
LINE
  5
22A
100
AcDbEntity
  8
0
100
AcDbLine
 62
7
  6
CONTINUOUS
 10
20.7486811426
 20
1.1987695462
 11
20.7486811426
 21
1.1432869085
  0
LINE
  5
22B
100
AcDbEntity
  8
0
100
AcDbLine
 62
7
  6
CONTINUOUS
 10
20.7498134414
 20
1.1059210505
 11
20.7498134414
 21
0.9757066966
  0
LINE
  5
22C
100
AcDbEntity
  8
0
100
AcDbLine
 62
7
  6
CONTINUOUS
 10
20.7486811426
 20
1.2338708068
 11
20.7486811426
 21
1.3640851607
  0
LINE
  5
22D
100
AcDbEntity
  8
0
100
AcDbLine
 62
7
  6
CONTINUOUS
 10
21.0702539817
 20
1.2701043662
 11
21.4790138229
 21
1.3448360823
  0
LINE
  5
22E
100
AcDbEntity
  8
0
100
AcDbLine
 62
7
  6
CONTINUOUS
 10
21.4790138229
 20
1.3448360823
 11
21.4790138229
 21
0.9779712941
  0
LINE
  5
22F
100
AcDbEntity
  8
0
100
AcDbLine
 62
7
  6
CONTINUOUS
 10
21.4790138229
 20
0.9779712941
 11
21.069121683
 21
1.0617614
  0
LINE
  5
230
100
AcDbEntity
  8
0
100
AcDbLine
 62
7
  6
CONTINUOUS
 10
21.0702539817
 20
1.2701043662
 11
21.069121683
 21
1.0617614
  0
LINE
  5
231
100
AcDbEntity
  8
0
100
AcDbLine
 62
7
  6
CONTINUOUS
 10
21.4790138229
 20
1.1693297793
 11
21.3159628059
 21
1.1693297793
  0
LINE
  5
232
100
AcDbEntity
  8
0
100
AcDbLine
 62
7
  6
CONTINUOUS
 10
21.2876553377
 20
1.1693297793
 11
21.2502894796
 21
1.1693297793
  0
LINE
  5
233
100
AcDbEntity
  8
0
100
AcDbLine
 62
7
  6
CONTINUOUS
 10
21.2208497126
 20
1.1659328831
 11
21.0713862804
 21
1.1659328831
  0
LINE
  5
234
100
AcDbEntity
  8
0
100
AcDbLine
 62
7
  6
CONTINUOUS
 10
20.4796138713
 20
1.5284908897
 11
20.4766766948
 21
0.9294458646
  0
ENDBLK
  5
235
100
AcDbEntity
  8
0
  6
BYBLOCK
 62
0
100
AcDbBlockEnd
  0
BLOCK
  5
236
100
AcDbEntity
  8
0
100
AcDbBlockBegin
  2
*T1
 70
1
 10
0.0
 20
0.0
  3
*T1
  1

  0
LINE
  5
237
100
AcDbEntity
  8
0
100
AcDbLine
 62
2
  6
CONTINUOUS
 10
9.275
 20
0.0
 11
-0.0
 21
0.0
  0
LINE
  5
238
100
AcDbEntity
  8
0
100
AcDbLine
 62
2
  6
CONTINUOUS
 10
9.275
 20
0.0
 11
9.275
 21
1.25
  0
LINE
  5
239
100
AcDbEntity
  8
0
100
AcDbLine
 62
2
  6
CONTINUOUS
 10
9.275
 20
0.625
 11
-0.0
 21
0.625
  0
LINE
  5
23A
100
AcDbEntity
  8
0
100
AcDbLine
 62
2
  6
CONTINUOUS
 10
9.275
 20
1.25
 11
-0.0
 21
1.25
  0
LINE
  5
23B
100
AcDbEntity
  8
0
100
AcDbLine
 62
2
  6
CONTINUOUS
 10
6.8
 20
0.0
 11
6.8
 21
1.25
  0
LINE
  5
23C
100
AcDbEntity
  8
0
100
AcDbLine
 62
2
  6
CONTINUOUS
 10
6.4
 20
0.0
 11
6.4
 21
0.625
  0
LINE
  5
23D
100
AcDbEntity
  8
0
100
AcDbLine
 62
2
  6
CONTINUOUS
 10
5.9
 20
0.0
 11
5.9
 21
0.625
  0
LINE
  5
23E
100
AcDbEntity
  8
0
100
AcDbLine
 62
2
  6
CONTINUOUS
 10
5.2
 20
0.0
 11
5.2
 21
0.625
  0
LINE
  5
23F
100
AcDbEntity
  8
0
100
AcDbLine
 62
2
  6
CONTINUOUS
 10
4.1
 20
0.0
 11
4.1
 21
1.25
  0
LINE
  5
240
100
AcDbEntity
  8
0
100
AcDbLine
 62
2
  6
CONTINUOUS
 10
-0.0
 20
0.0
 11
-0.0
 21
1.25
  0
MTEXT
  5
241
100
AcDbEntity
  8
0
100
AcDbMText
 62
2
  6
CONTINUOUS
  7
STANDARD
 71
2
 72
1
 10
6.6
 20
0.325
 30
0.0
 11
1.0
 21
0.0
 31
0.0
 44
0.9
  1
2
 40
0.125
 41
0.2
  0
MTEXT
  5
242
100
AcDbEntity
  8
0
100
AcDbMText
 62
2
  6
CONTINUOUS
  7
STANDARD
 71
2
 72
1
 10
6.15
 20
0.325
 30
0.0
 11
1.0
 21
0.0
 31
0.0
 44
0.9
  1
C
 40
0.125
 41
0.2
  0
MTEXT
  5
243
100
AcDbEntity
  8
0
100
AcDbMText
 62
2
  6
CONTINUOUS
  7
STANDARD
 71
2
 72
1
 10
5.55
 20
0.325
 30
0.0
 11
1.0
 21
0.0
 31
0.0
 44
0.9
  1
1.000
 40
0.125
 41
1.0
  0
MTEXT
  5
244
100
AcDbEntity
  8
0
100
AcDbMText
 62
2
  6
CONTINUOUS
  7
STANDARD
 71
2
 72
1
 10
4.65
 20
0.325
 30
0.0
 11
1.0
 21
0.0
 31
0.0
 44
0.9
  1
Oct-31-19
 40
0.125
 41
1.8
  0
MTEXT
  5
245
100
AcDbEntity
  8
0
100
AcDbMText
 62
2
  6
CONTINUOUS
  7
STANDARD
 71
2
 72
1
 10
2.05
 20
0.4625
 30
0.0
 11
1.0
 21
0.0
 31
0.0
 44
0.9
  1
T-11A Line mount\PCross port with shuttle on port 3s
 40
0.125
 41
6.8
  0
MTEXT
  5
246
100
AcDbEntity
  8
0
100
AcDbMText
 62
2
  6
CONTINUOUS
  7
STANDARD
 71
1
 72
1
 10
6.45
 20
0.5625
 30
0.0
 11
1.0
 21
0.0
 31
0.0
 44
0.9
  1
SHEET
 40
0.06
 41
0.48
  0
MTEXT
  5
247
100
AcDbEntity
  8
0
100
AcDbMText
 62
2
  6
CONTINUOUS
  7
STANDARD
 71
1
 72
1
 10
5.95
 20
0.5625
 30
0.0
 11
1.0
 21
0.0
 31
0.0
 44
0.9
  1
DWG SIZE
 40
0.06
 41
0.768
  0
MTEXT
  5
248
100
AcDbEntity
  8
0
100
AcDbMText
 62
2
  6
CONTINUOUS
  7
STANDARD
 71
1
 72
1
 10
5.25
 20
0.5625
 30
0.0
 11
1.0
 21
0.0
 31
0.0
 44
0.9
  1
SCALE
 40
0.06
 41
0.48
  0
MTEXT
  5
249
100
AcDbEntity
  8
0
100
AcDbMText
 62
2
  6
CONTINUOUS
  7
STANDARD
 71
1
 72
1
 10
4.15
 20
0.5625
 30
0.0
 11
1.0
 21
0.0
 31
0.0
 44
0.9
  1
DATE
 40
0.06
 41
0.384
  0
MTEXT
  5
24A
100
AcDbEntity
  8
0
100
AcDbMText
 62
2
  6
CONTINUOUS
  7
STANDARD
 71
1
 72
1
 10
0.05
 20
0.5625
 30
0.0
 11
1.0
 21
0.0
 31
0.0
 44
0.9
  1
DESCRIPTION
 40
0.06
 41
1.056
  0
MTEXT
  5
24B
100
AcDbEntity
  8
0
100
AcDbMText
 62
2
  6
CONTINUOUS
  7
STANDARD
 71
2
 72
1
 10
5.45
 20
1.0375
 30
0.0
 11
1.0
 21
0.0
 31
0.0
 44
0.9
  1
ALL DIMENSIONS IN INCH\PVIEWS ARE THIRD ANGLE
 40
0.12
 41
4.224
  0
MTEXT
  5
24C
100
AcDbEntity
  8
0
100
AcDbMText
 62
2
  6
CONTINUOUS
  7
STANDARD
 71
2
 72
1
 10
2.05
 20
0.95
 30
0.0
 11
1.0
 21
0.0
 31
0.0
 44
0.9
  1
XOV
 40
0.125
 41
0.6
  0
MTEXT
  5
24D
100
AcDbEntity
  8
0
100
AcDbMText
 62
2
  6
CONTINUOUS
  7
STANDARD
 71
1
 72
1
 10
0.05
 20
1.1875
 30
0.0
 11
1.0
 21
0.0
 31
0.0
 44
0.9
  1
MODEL
 40
0.06
 41
0.48
  0
ENDBLK
  5
24E
100
AcDbEntity
  8
0
  6
BYBLOCK
 62
0
100
AcDbBlockEnd
  0
BLOCK
  5
24F
100
AcDbEntity
  8
0
100
AcDbBlockBegin
  2
*T2
 70
1
 10
0.0
 20
0.0
  3
*T2
  1

  0
LINE
  5
250
100
AcDbEntity
  8
0
100
AcDbLine
 62
2
  6
CONTINUOUS
 10
0.0
 20
0.0
 11
9.055
 21
0.0
  0
LINE
  5
251
100
AcDbEntity
  8
0
100
AcDbLine
 62
2
  6
CONTINUOUS
 10
0.0
 20
0.0
 11
0.0
 21
-1.844
  0
LINE
  5
252
100
AcDbEntity
  8
0
100
AcDbLine
 62
2
  6
CONTINUOUS
 10
0.0
 20
-0.344
 11
9.055
 21
-0.344
  0
LINE
  5
253
100
AcDbEntity
  8
0
100
AcDbLine
 62
2
  6
CONTINUOUS
 10
0.0
 20
-0.594
 11
9.055
 21
-0.594
  0
LINE
  5
254
100
AcDbEntity
  8
0
100
AcDbLine
 62
2
  6
CONTINUOUS
 10
0.0
 20
-0.844
 11
9.055
 21
-0.844
  0
LINE
  5
255
100
AcDbEntity
  8
0
100
AcDbLine
 62
2
  6
CONTINUOUS
 10
0.0
 20
-1.094
 11
9.055
 21
-1.094
  0
LINE
  5
256
100
AcDbEntity
  8
0
100
AcDbLine
 62
2
  6
CONTINUOUS
 10
0.0
 20
-1.344
 11
9.055
 21
-1.344
  0
LINE
  5
257
100
AcDbEntity
  8
0
100
AcDbLine
 62
2
  6
CONTINUOUS
 10
0.0
 20
-1.594
 11
9.055
 21
-1.594
  0
LINE
  5
258
100
AcDbEntity
  8
0
100
AcDbLine
 62
2
  6
CONTINUOUS
 10
0.0
 20
-1.844
 11
9.055
 21
-1.844
  0
LINE
  5
259
100
AcDbEntity
  8
0
100
AcDbLine
 62
2
  6
CONTINUOUS
 10
3.055
 20
0.0
 11
3.055
 21
-1.844
  0
LINE
  5
25A
100
AcDbEntity
  8
0
100
AcDbLine
 62
2
  6
CONTINUOUS
 10
9.055
 20
0.0
 11
9.055
 21
-1.844
  0
MTEXT
  5
25B
100
AcDbEntity
  8
0
100
AcDbMText
 62
2
  6
CONTINUOUS
  7
STANDARD
 71
2
 72
1
 10
1.5275
 20
-0.0995
 30
0.0
 11
1.0
 21
0.0
 31
0.0
 44
0.9
  1
Technical Data
 40
0.145
 41
3.248
  0
MTEXT
  5
25C
100
AcDbEntity
  8
0
100
AcDbMText
 62
2
  6
CONTINUOUS
  7
STANDARD
 71
2
 72
1
 10
4.555
 20
-0.0995
 30
0.0
 11
1.0
 21
0.0
 31
0.0
 44
0.9
  1
U.S. Units
 40
0.145
 41
2.32
  0
MTEXT
  5
25D
100
AcDbEntity
  8
0
100
AcDbMText
 62
2
  6
CONTINUOUS
  7
STANDARD
 71
2
 72
1
 10
7.555
 20
-0.0995
 30
0.0
 11
1.0
 21
0.0
 31
0.0
 44
0.9
  1
Metric Units
 40
0.145
 41
2.784
  0
MTEXT
  5
25E
100
AcDbEntity
  8
0
100
AcDbMText
 62
2
  6
CONTINUOUS
  7
STANDARD
 71
2
 72
1
 10
1.5275
 20
-0.4065
 30
0.0
 11
1.0
 21
0.0
 31
0.0
 44
0.9
  1
Cavity
 40
0.125
 41
1.2
  0
MTEXT
  5
25F
100
AcDbEntity
  8
0
100
AcDbMText
 62
2
  6
CONTINUOUS
  7
STANDARD
 71
2
 72
1
 10
6.055
 20
-0.4065
 30
0.0
 11
1.0
 21
0.0
 31
0.0
 44
0.9
  1
T-11A
 40
0.125
 41
1.0
  0
MTEXT
  5
260
100
AcDbEntity
  8
0
100
AcDbMText
 62
2
  6
CONTINUOUS
  7
STANDARD
 71
2
 72
1
 10
1.5275
 20
-0.6565
 30
0.0
 11
1.0
 21
0.0
 31
0.0
 44
0.9
  1
Body Features
 40
0.125
 41
2.6
  0
MTEXT
  5
261
100
AcDbEntity
  8
0
100
AcDbMText
 62
2
  6
CONTINUOUS
  7
STANDARD
 71
2
 72
1
 10
6.055
 20
-0.6565
 30
0.0
 11
1.0
 21
0.0
 31
0.0
 44
0.9
  1
Cross port with shuttle on port 3s
 40
0.125
 41
6.8
  0
MTEXT
  5
262
100
AcDbEntity
  8
0
100
AcDbMText
 62
2
  6
CONTINUOUS
  7
STANDARD
 71
2
 72
1
 10
1.5275
 20
-0.9065
 30
0.0
 11
1.0
 21
0.0
 31
0.0
 44
0.9
  1
Body Type
 40
0.125
 41
1.8
  0
MTEXT
  5
263
100
AcDbEntity
  8
0
100
AcDbMText
 62
2
  6
CONTINUOUS
  7
STANDARD
 71
2
 72
1
 10
6.055
 20
-0.9065
 30
0.0
 11
1.0
 21
0.0
 31
0.0
 44
0.9
  1
Line mount
 40
0.125
 41
2.0
  0
MTEXT
  5
264
100
AcDbEntity
  8
0
100
AcDbMText
 62
2
  6
CONTINUOUS
  7
STANDARD
 71
2
 72
1
 10
1.5275
 20
-1.1565
 30
0.0
 11
1.0
 21
0.0
 31
0.0
 44
0.9
  1
Interface
 40
0.125
 41
1.8
  0
MTEXT
  5
265
100
AcDbEntity
  8
0
100
AcDbMText
 62
2
  6
CONTINUOUS
  7
STANDARD
 71
2
 72
1
 10
6.055
 20
-1.1565
 30
0.0
 11
1.0
 21
0.0
 31
0.0
 44
0.9
  1
None
 40
0.125
 41
0.8
  0
MTEXT
  5
266
100
AcDbEntity
  8
0
100
AcDbMText
 62
2
  6
CONTINUOUS
  7
STANDARD
 71
2
 72
1
 10
1.5275
 20
-1.4065
 30
0.0
 11
1.0
 21
0.0
 31
0.0
 44
0.9
  1
Open Cavity Quantity
 40
0.125
 41
4.0
  0
MTEXT
  5
267
100
AcDbEntity
  8
0
100
AcDbMText
 62
2
  6
CONTINUOUS
  7
STANDARD
 71
2
 72
1
 10
6.055
 20
-1.4065
 30
0.0
 11
1.0
 21
0.0
 31
0.0
 44
0.9
  1
2
 40
0.125
 41
0.2
  0
MTEXT
  5
268
100
AcDbEntity
  8
0
100
AcDbMText
 62
2
  6
CONTINUOUS
  7
STANDARD
 71
2
 72
1
 10
1.5275
 20
-1.6565
 30
0.0
 11
1.0
 21
0.0
 31
0.0
 44
0.9
  1
Weight
 40
0.125
 41
1.2
  0
MTEXT
  5
269
100
AcDbEntity
  8
0
100
AcDbMText
 62
2
  6
CONTINUOUS
  7
STANDARD
 71
2
 72
1
 10
4.555
 20
-1.6565
 30
0.0
 11
1.0
 21
0.0
 31
0.0
 44
0.9
  1
5.662 lb.
 40
0.125
 41
1.8
  0
MTEXT
  5
26A
100
AcDbEntity
  8
0
100
AcDbMText
 62
2
  6
CONTINUOUS
  7
STANDARD
 71
2
 72
1
 10
7.555
 20
-1.6565
 30
0.0
 11
1.0
 21
0.0
 31
0.0
 44
0.9
  1
2,568 kg.
 40
0.125
 41
1.8
  0
ENDBLK
  5
26B
100
AcDbEntity
  8
0
  6
BYBLOCK
 62
0
100
AcDbBlockEnd
  0
BLOCK
  5
26C
100
AcDbEntity
  8
0
100
AcDbBlockBegin
  2
*T3
 70
1
 10
0.0
 20
0.0
  3
*T3
  1

  0
LINE
  5
26D
100
AcDbEntity
  8
0
100
AcDbLine
 62
2
  6
CONTINUOUS
 10
0.0
 20
0.0
 11
4.6
 21
0.0
  0
LINE
  5
26E
100
AcDbEntity
  8
0
100
AcDbLine
 62
2
  6
CONTINUOUS
 10
0.0
 20
0.0
 11
0.0
 21
-1.43775
  0
LINE
  5
26F
100
AcDbEntity
  8
0
100
AcDbLine
 62
2
  6
CONTINUOUS
 10
0.0
 20
-0.34375
 11
4.6
 21
-0.34375
  0
LINE
  5
270
100
AcDbEntity
  8
0
100
AcDbLine
 62
2
  6
CONTINUOUS
 10
0.0
 20
-0.68775
 11
4.6
 21
-0.68775
  0
LINE
  5
271
100
AcDbEntity
  8
0
100
AcDbLine
 62
2
  6
CONTINUOUS
 10
0.0
 20
-0.93775
 11
4.6
 21
-0.93775
  0
LINE
  5
272
100
AcDbEntity
  8
0
100
AcDbLine
 62
2
  6
CONTINUOUS
 10
0.0
 20
-1.18775
 11
4.6
 21
-1.18775
  0
LINE
  5
273
100
AcDbEntity
  8
0
100
AcDbLine
 62
2
  6
CONTINUOUS
 10
0.0
 20
-1.43775
 11
4.6
 21
-1.43775
  0
LINE
  5
274
100
AcDbEntity
  8
0
100
AcDbLine
 62
2
  6
CONTINUOUS
 10
1.3
 20
-0.34375
 11
1.3
 21
-1.43775
  0
LINE
  5
275
100
AcDbEntity
  8
0
100
AcDbLine
 62
2
  6
CONTINUOUS
 10
3.3
 20
-0.34375
 11
3.3
 21
-1.43775
  0
LINE
  5
276
100
AcDbEntity
  8
0
100
AcDbLine
 62
2
  6
CONTINUOUS
 10
4.6
 20
0.0
 11
4.6
 21
-1.43775
  0
MTEXT
  5
277
100
AcDbEntity
  8
0
100
AcDbMText
 62
2
  6
CONTINUOUS
  7
STANDARD
 71
2
 72
1
 10
2.3
 20
-0.099375
 30
0.0
 11
1.0
 21
0.0
 31
0.0
 44
0.9
  1
Port Headings
 40
0.145
 41
3.016
  0
MTEXT
  5
278
100
AcDbEntity
  8
0
100
AcDbMText
 62
2
  6
CONTINUOUS
  7
STANDARD
 71
2
 72
1
 10
0.65
 20
-0.44325
 30
0.0
 11
1.0
 21
0.0
 31
0.0
 44
0.9
  1
Product
 40
0.145
 41
1.624
  0
MTEXT
  5
279
100
AcDbEntity
  8
0
100
AcDbMText
 62
2
  6
CONTINUOUS
  7
STANDARD
 71
2
 72
1
 10
2.3
 20
-0.44325
 30
0.0
 11
1.0
 21
0.0
 31
0.0
 44
0.9
  1
Port
 40
0.145
 41
0.928
  0
MTEXT
  5
27A
100
AcDbEntity
  8
0
100
AcDbMText
 62
2
  6
CONTINUOUS
  7
STANDARD
 71
2
 72
1
 10
3.95
 20
-0.44325
 30
0.0
 11
1.0
 21
0.0
 31
0.0
 44
0.9
  1
Size
 40
0.145
 41
0.928
  0
MTEXT
  5
27B
100
AcDbEntity
  8
0
100
AcDbMText
 62
2
  6
CONTINUOUS
  7
STANDARD
 71
2
 72
1
 10
0.65
 20
-0.75025
 30
0.0
 11
1.0
 21
0.0
 31
0.0
 44
0.9
  1
XOV
 40
0.125
 41
0.6
  0
MTEXT
  5
27C
100
AcDbEntity
  8
0
100
AcDbMText
 62
2
  6
CONTINUOUS
  7
STANDARD
 71
2
 72
1
 10
2.3
 20
-0.75025
 30
0.0
 11
1.0
 21
0.0
 31
0.0
 44
0.9
  1
Ports 1 &  2
 40
0.125
 41
2.4
  0
MTEXT
  5
27D
100
AcDbEntity
  8
0
100
AcDbMText
 62
2
  6
CONTINUOUS
  7
STANDARD
 71
2
 72
1
 10
3.95
 20
-0.75025
 30
0.0
 11
1.0
 21
0.0
 31
0.0
 44
0.9
  1
1/2" BSPP
 40
0.125
 41
1.8
  0
MTEXT
  5
27E
100
AcDbEntity
  8
0
100
AcDbMText
 62
2
  6
CONTINUOUS
  7
STANDARD
 71
2
 72
1
 10
0.65
 20
-1.00025
 30
0.0
 11
1.0
 21
0.0
 31
0.0
 44
0.9
  1
XOV
 40
0.125
 41
0.6
  0
MTEXT
  5
27F
100
AcDbEntity
  8
0
100
AcDbMText
 62
2
  6
CONTINUOUS
  7
STANDARD
 71
2
 72
1
 10
2.3
 20
-1.00025
 30
0.0
 11
1.0
 21
0.0
 31
0.0
 44
0.9
  1
Port V
 40
0.125
 41
1.2
  0
MTEXT
  5
280
100
AcDbEntity
  8
0
100
AcDbMText
 62
2
  6
CONTINUOUS
  7
STANDARD
 71
2
 72
1
 10
3.95
 20
-1.00025
 30
0.0
 11
1.0
 21
0.0
 31
0.0
 44
0.9
  1
1/4" BSPP
 40
0.125
 41
1.8
  0
MTEXT
  5
281
100
AcDbEntity
  8
0
100
AcDbMText
 62
2
  6
CONTINUOUS
  7
STANDARD
 71
2
 72
1
 10
0.65
 20
-1.25025
 30
0.0
 11
1.0
 21
0.0
 31
0.0
 44
0.9
  1
XOV
 40
0.125
 41
0.6
  0
MTEXT
  5
282
100
AcDbEntity
  8
0
100
AcDbMText
 62
2
  6
CONTINUOUS
  7
STANDARD
 71
2
 72
1
 10
2.3
 20
-1.25025
 30
0.0
 11
1.0
 21
0.0
 31
0.0
 44
0.9
  1
Gage Ports
 40
0.125
 41
2.0
  0
MTEXT
  5
283
100
AcDbEntity
  8
0
100
AcDbMText
 62
2
  6
CONTINUOUS
  7
STANDARD
 71
2
 72
1
 10
3.95
 20
-1.25025
 30
0.0
 11
1.0
 21
0.0
 31
0.0
 44
0.9
  1
1/4" BSPP
 40
0.125
 41
1.8
  0
ENDBLK
  5
284
100
AcDbEntity
  8
0
  6
BYBLOCK
 62
0
100
AcDbBlockEnd
  0
ENDSEC
  0
SECTION
  2
ENTITIES
  0
IMAGE
  5
285
100
AcDbEntity
  8
0
100
AcDbRasterImage
 62
7
  6
CONTINUOUS
 10
19.2297077316
 20
0.3094318264
 30
0.0
 11
0.0066666667
 21
0.0
 31
0.0
 12
0.0
 22
0.0066666667
 32
0.0
 13
369.0
 23
92.0
340
       416
 70
9
280
0
281
50
282
50
283
0
360
       410
 71
1
 91
2
 14
-0.5
 24
-0.5
 14
368.5
 24
91.5
  0
INSERT
  5
286
100
AcDbEntity
  8
0
100
AcDbBlockReference
 62
2
  6
CONTINUOUS
  2
SUN_FIRST_THIRD_ANGLE_BL0
 10
20.4816717061
 20
1.2289683772
  0
ACAD_TABLE
  5
287
100
AcDbEntity
  8
0
 62
2
  6
CONTINUOUS
100
AcDbBlockReference
  2
*T1
 10
12.42375
 20
0.30125
 30
0.0
100
AcDbTable
342
       418
343
20F
 11
1.0
 21
0.0
 31
0.0
 90
6
 91
4
 92
6
 93
20
 94
0
 95
0
 96
0
 70
1
 41
0.0
141
0.525
141
0.1
141
0.525
141
0.1
142
4.1
142
1.1
142
0.7
142
0.5
142
0.4
142
2.475
171
1
172
0
173
0
174
0
175
1
176
1
 91
33
178
0
145
0.0
301
CELL_VALUE
 90
4
  1
T-11A Line mount\PCross port with shuttle on port 3s
304
ACVALUE_END
170
2
140
0.125
171
1
172
0
173
0
174
0
175
1
176
1
 91
33
178
0
145
0.0
301
CELL_VALUE
 90
4
  1
Oct-31-19
304
ACVALUE_END
170
5
140
0.125
171
1
172
0
173
0
174
0
175
1
176
1
 91
33
178
0
145
0.0
301
CELL_VALUE
 90
4
  1
1.000
304
ACVALUE_END
170
5
140
0.125
171
1
172
0
173
0
174
0
175
1
176
1
 91
33
178
0
145
0.0
301
CELL_VALUE
 90
4
  1
C
304
ACVALUE_END
170
5
140
0.125
171
1
172
0
173
0
174
0
175
1
176
1
 91
33
178
0
145
0.0
301
CELL_VALUE
 90
4
  1
2
304
ACVALUE_END
170
5
140
0.125
171
1
172
0
173
0
174
0
175
1
176
1
 91
33
178
0
145
0.0
301
CELL_VALUE
 90
4
  1
 
304
ACVALUE_END
170
1
140
0.125
171
1
172
0
173
0
174
0
175
1
176
1
 91
33
178
0
145
0.0
301
CELL_VALUE
 90
4
  1
DESCRIPTION
304
ACVALUE_END
170
1
140
0.06
171
1
172
0
173
0
174
0
175
1
176
1
 91
33
178
0
145
0.0
301
CELL_VALUE
 90
4
  1
DATE
304
ACVALUE_END
170
1
140
0.06
171
1
172
0
173
0
174
0
175
1
176
1
 91
33
178
0
145
0.0
301
CELL_VALUE
 90
4
  1
SCALE
304
ACVALUE_END
170
1
140
0.06
171
1
172
0
173
0
174
0
175
1
176
1
 91
33
178
0
145
0.0
301
CELL_VALUE
 90
4
  1
DWG SIZE
304
ACVALUE_END
170
1
140
0.06
171
1
172
0
173
0
174
0
175
1
176
1
 91
33
178
0
145
0.0
301
CELL_VALUE
 90
4
  1
SHEET
304
ACVALUE_END
170
1
140
0.06
171
1
172
0
173
0
174
0
175
1
176
1
 91
33
178
0
145
0.0
301
CELL_VALUE
 90
4
  1
 
304
ACVALUE_END
170
1
140
0.125
171
1
172
0
173
0
174
0
175
1
176
1
 91
33
178
0
145
0.0
301
CELL_VALUE
 90
4
  1
XOV
304
ACVALUE_END
170
5
140
0.125
171
1
172
0
173
0
174
0
175
4
176
1
 91
33
178
0
145
0.0
301
CELL_VALUE
 90
4
  1
ALL DIMENSIONS IN INCH\PVIEWS ARE THIRD ANGLE
304
ACVALUE_END
170
5
140
0.12
171
1
172
0
173
1
174
0
175
1
176
1
 91
1
178
0
145
0.0
170
1
171
1
172
0
173
1
174
0
175
1
176
1
 91
1
178
0
145
0.0
170
1
171
1
172
0
173
1
174
0
175
1
176
1
 91
1
178
0
145
0.0
170
5
171
1
172
0
173
0
174
0
175
1
176
1
 91
33
178
0
145
0.0
301
CELL_VALUE
 90
4
  1
 
304
ACVALUE_END
170
1
140
0.125
171
1
172
0
173
0
174
0
175
1
176
1
 91
33
178
0
145
0.0
301
CELL_VALUE
 90
4
  1
MODEL
304
ACVALUE_END
170
1
140
0.06
171
1
172
0
173
0
174
0
175
1
176
1
 91
33
178
0
145
0.0
301
CELL_VALUE
 90
4
  1
 
304
ACVALUE_END
170
1
140
0.125
171
1
172
0
173
0
174
0
175
1
176
1
 91
33
178
0
145
0.0
301
CELL_VALUE
 90
4
  1
 
304
ACVALUE_END
170
1
140
0.125
171
1
172
0
173
0
174
0
175
1
176
1
 91
33
178
0
145
0.0
301
CELL_VALUE
 90
4
  1
 
304
ACVALUE_END
170
1
140
0.125
171
1
172
0
173
0
174
0
175
1
176
1
 91
33
178
0
145
0.0
301
CELL_VALUE
 90
4
  1
 
304
ACVALUE_END
170
1
140
0.125
171
1
172
0
173
0
174
0
175
1
176
1
 91
33
178
0
145
0.0
301
CELL_VALUE
 90
4
  1
 
304
ACVALUE_END
170
1
140
0.125
  0
ACAD_TABLE
  5
288
100
AcDbEntity
  8
0
 62
2
  6
CONTINUOUS
100
AcDbBlockReference
  2
*T2
 10
12.4237499994
 20
16.47875
 30
0.0
100
AcDbTable
342
       417
343
210
 11
1.0
 21
0.0
 31
0.0
 90
22
 91
7
 92
3
 93
16
 94
0
 95
0
 96
0
 41
0.028
141
0.344
141
0.25
141
0.25
141
0.25
141
0.25
141
0.25
141
0.25
142
3.055
142
3.0
142
3.0
171
1
172
0
173
0
174
0
175
1
176
1
 91
33
178
0
145
0.0
301
CELL_VALUE
 90
4
  1
Technical Data
304
ACVALUE_END
170
5
140
0.145
171
1
172
0
173
0
174
0
175
1
176
1
 91
33
178
0
145
0.0
301
CELL_VALUE
 90
4
  1
U.S. Units
304
ACVALUE_END
170
5
140
0.145
171
1
172
0
173
0
174
0
175
1
176
1
 91
33
178
0
145
0.0
301
CELL_VALUE
 90
4
  1
Metric Units
304
ACVALUE_END
170
5
140
0.145
171
1
172
0
173
0
174
0
175
1
176
1
 91
33
178
0
145
0.0
301
CELL_VALUE
 90
4
  1
Cavity
304
ACVALUE_END
170
5
140
0.125
171
1
172
0
173
0
174
0
175
2
176
1
 91
33
178
0
145
0.0
301
CELL_VALUE
 90
4
  1
T-11A
304
ACVALUE_END
170
5
140
0.125
171
1
172
0
173
1
174
0
175
1
176
1
 91
1
178
0
145
0.0
170
1
171
1
172
0
173
0
174
0
175
1
176
1
 91
33
178
0
145
0.0
301
CELL_VALUE
 90
4
  1
Body Features
304
ACVALUE_END
170
5
140
0.125
171
1
172
0
173
0
174
0
175
2
176
1
 91
33
178
0
145
0.0
301
CELL_VALUE
 90
4
  1
Cross port with shuttle on port 3s
304
ACVALUE_END
170
5
140
0.125
171
1
172
0
173
1
174
0
175
1
176
1
 91
1
178
0
145
0.0
170
1
171
1
172
0
173
0
174
0
175
1
176
1
 91
33
178
0
145
0.0
301
CELL_VALUE
 90
4
  1
Body Type
304
ACVALUE_END
170
5
140
0.125
171
1
172
0
173
0
174
0
175
2
176
1
 91
33
178
0
145
0.0
301
CELL_VALUE
 90
4
  1
Line mount
304
ACVALUE_END
170
5
140
0.125
171
1
172
0
173
1
174
0
175
1
176
1
 91
1
178
0
145
0.0
170
1
171
1
172
0
173
0
174
0
175
1
176
1
 91
33
178
0
145
0.0
301
CELL_VALUE
 90
4
  1
Interface
304
ACVALUE_END
170
5
140
0.125
171
1
172
0
173
0
174
0
175
2
176
1
 91
33
178
0
145
0.0
301
CELL_VALUE
 90
4
  1
None
304
ACVALUE_END
170
5
140
0.125
171
1
172
0
173
1
174
0
175
1
176
1
 91
1
178
0
145
0.0
170
1
171
1
172
0
173
0
174
0
175
1
176
1
 91
33
178
0
145
0.0
301
CELL_VALUE
 90
4
  1
Open Cavity Quantity
304
ACVALUE_END
170
5
140
0.125
171
1
172
0
173
0
174
0
175
2
176
1
 91
33
178
0
145
0.0
301
CELL_VALUE
 90
4
  1
2
304
ACVALUE_END
170
5
140
0.125
171
1
172
0
173
1
174
0
175
1
176
1
 91
1
178
0
145
0.0
170
1
171
1
172
0
173
0
174
0
175
1
176
1
 91
33
178
0
145
0.0
301
CELL_VALUE
 90
4
  1
Weight
304
ACVALUE_END
170
5
140
0.125
171
1
172
0
173
0
174
0
175
1
176
1
 91
33
178
0
145
0.0
301
CELL_VALUE
 90
4
  1
5.662 lb.
304
ACVALUE_END
170
5
140
0.125
171
1
172
0
173
0
174
0
175
1
176
1
 91
33
178
0
145
0.0
301
CELL_VALUE
 90
4
  1
2,568 kg.
304
ACVALUE_END
170
5
140
0.125
  0
ACAD_TABLE
  5
289
100
AcDbEntity
  8
0
 62
2
  6
CONTINUOUS
100
AcDbBlockReference
  2
*T3
 10
0.52125
 20
1.959
 30
0.0
100
AcDbTable
342
       417
343
211
 11
1.0
 21
0.0
 31
0.0
 90
22
 91
5
 92
3
 93
16
 94
0
 95
0
 96
0
 41
0.05
141
0.34375
141
0.344
141
0.25
141
0.25
141
0.25
142
1.3
142
2.0
142
1.3
171
1
172
0
173
0
174
0
175
3
176
1
 91
33
178
0
145
0.0
301
CELL_VALUE
 90
4
  1
Port Headings
304
ACVALUE_END
170
5
140
0.145
171
1
172
0
173
1
174
0
175
1
176
1
 91
1
178
0
145
0.0
170
1
171
1
172
0
173
1
174
0
175
1
176
1
 91
1
178
0
145
0.0
170
1
171
1
172
0
173
0
174
0
175
1
176
1
 91
33
178
0
145
0.0
301
CELL_VALUE
 90
4
  1
Product
304
ACVALUE_END
170
5
140
0.145
171
1
172
0
173
0
174
0
175
1
176
1
 91
33
178
0
145
0.0
301
CELL_VALUE
 90
4
  1
Port
304
ACVALUE_END
170
5
140
0.145
171
1
172
0
173
0
174
0
175
1
176
1
 91
33
178
0
145
0.0
301
CELL_VALUE
 90
4
  1
Size
304
ACVALUE_END
170
5
140
0.145
171
1
172
0
173
0
174
0
175
1
176
1
 91
33
178
0
145
0.0
301
CELL_VALUE
 90
4
  1
XOV
304
ACVALUE_END
170
5
140
0.125
171
1
172
0
173
0
174
0
175
1
176
1
 91
33
178
0
145
0.0
301
CELL_VALUE
 90
4
  1
Ports 1 &  2
304
ACVALUE_END
170
5
140
0.125
171
1
172
0
173
0
174
0
175
1
176
1
 91
33
178
0
145
0.0
301
CELL_VALUE
 90
4
  1
1/2" BSPP
304
ACVALUE_END
170
5
140
0.125
171
1
172
0
173
0
174
0
175
1
176
1
 91
33
178
0
145
0.0
301
CELL_VALUE
 90
4
  1
XOV
304
ACVALUE_END
170
5
140
0.125
171
1
172
0
173
0
174
0
175
1
176
1
 91
33
178
0
145
0.0
301
CELL_VALUE
 90
4
  1
Port V
304
ACVALUE_END
170
5
140
0.125
171
1
172
0
173
0
174
0
175
1
176
1
 91
33
178
0
145
0.0
301
CELL_VALUE
 90
4
  1
1/4" BSPP
304
ACVALUE_END
170
5
140
0.125
171
1
172
0
173
0
174
0
175
1
176
1
 91
33
178
0
145
0.0
301
CELL_VALUE
 90
4
  1
XOV
304
ACVALUE_END
170
5
140
0.125
171
1
172
0
173
0
174
0
175
1
176
1
 91
33
178
0
145
0.0
301
CELL_VALUE
 90
4
  1
Gage Ports
304
ACVALUE_END
170
5
140
0.125
171
1
172
0
173
0
174
0
175
1
176
1
 91
33
178
0
145
0.0
301
CELL_VALUE
 90
4
  1
1/4" BSPP
304
ACVALUE_END
170
5
140
0.125
  0
MTEXT
  5
28A
100
AcDbEntity
  8
0
100
AcDbMText
 62
2
  6
CONTINUOUS
  7
STANDARD
 71
1
 72
1
 10
0.52125
 20
5.75995
 30
0.0
 11
1.0
 21
0.0
 31
0.0
 44
0.6
  3
Notes\P \P1. Important: Carefully consider\P   the maximum system pressure. The\P   pressure rating of the manifold is\P   dependent on the manifold material,\P   with the port type/size a secondary\P   consideration. Manifolds\P   constructed of alu
  1
minum are not\P   rated for pressures higher than\P   3000 psi (210 bar), regardless of\P   the port type/size specified.
 40
0.1
 41
3.04
  0
LINE
  5
28B
100
AcDbEntity
  8
0
100
AcDbLine
 62
7
  6
CONTINUOUS
 10
0.30125
 20
0.30125
 11
0.30125
 21
16.69875
  0
LINE
  5
28C
100
AcDbEntity
  8
0
100
AcDbLine
 62
7
  6
CONTINUOUS
 10
0.30125
 20
0.30125
 11
21.69875
 21
0.30125
  0
LINE
  5
28D
100
AcDbEntity
  8
0
100
AcDbLine
 62
7
  6
CONTINUOUS
 10
0.30125
 20
16.69875
 11
21.69875
 21
16.69875
  0
LINE
  5
28E
100
AcDbEntity
  8
0
100
AcDbLine
 62
7
  6
CONTINUOUS
 10
21.69875
 20
0.30125
 11
21.69875
 21
16.69875
  0
LINE
  5
28F
100
AcDbEntity
  8
0
100
AcDbLine
 62
7
  6
CONTINUOUS
 10
8.0028429203
 20
6.7164499422
 11
8.0028429203
 21
9.4934868573
  0
LINE
  5
290
100
AcDbEntity
  8
0
100
AcDbLine
 62
7
  6
CONTINUOUS
 10
8.0028429203
 20
9.4934868573
 11
9.1675276621
 21
10.6184859955
  0
LINE
  5
291
100
AcDbEntity
  8
0
100
AcDbLine
 62
4
  6
CONTINUOUS
 10
8.3626502193
 20
7.8699268196
 11
8.3988724391
 21
7.7515036967
  0
LINE
  5
292
100
AcDbEntity
  8
0
100
AcDbLine
 62
4
  6
CONTINUOUS
 10
9.0461737729
 20
10.2852669969
 11
9.0409973976
 21
10.2802670021
  0
LINE
  5
293
100
AcDbEntity
  8
0
100
AcDbLine
 62
4
  6
CONTINUOUS
 10
8.5997112878
 20
9.8540173266
 11
8.5686530287
 21
9.8240173502
  0
LINE
  5
294
100
AcDbEntity
  8
0
100
AcDbLine
 62
4
  6
CONTINUOUS
 10
8.977345348
 20
10.2712838386
 11
8.9623363392
 21
10.2642862484
  0
LINE
  5
295
100
AcDbEntity
  8
0
100
AcDbLine
 62
4
  6
CONTINUOUS
 10
8.3988724391
 20
7.7515036967
 11
8.435094659
 21
7.8649027806
  0
LINE
  5
296
100
AcDbEntity
  8
0
100
AcDbLine
 62
7
  6
CONTINUOUS
 10
12.8324723379
 20
6.3815140045
 11
8.0028429203
 21
6.7164499422
  0
LINE
  5
297
100
AcDbEntity
  8
0
100
AcDbLine
 62
7
  6
CONTINUOUS
 10
9.8220965272
 20
9.7048413759
 11
9.8214348641
 21
9.7042143197
  0
LINE
  5
298
100
AcDbEntity
  8
0
100
AcDbLine
 62
4
  6
CONTINUOUS
 10
10.15959487
 20
9.7967493346
 11
10.1492421171
 21
9.7867493426
  0
LINE
  5
299
100
AcDbEntity
  8
0
100
AcDbLine
 62
4
  6
CONTINUOUS
 10
10.2620573271
 20
9.805720476
 11
10.230999068
 21
9.7757204997
  0
LINE
  5
29A
100
AcDbEntity
  8
0
100
AcDbLine
 62
4
  6
CONTINUOUS
 10
10.0871504303
 20
9.8017733736
 11
10.1021594391
 21
9.8087709638
  0
LINE
  5
29B
100
AcDbEntity
  8
0
100
AcDbLine
 62
4
  6
CONTINUOUS
 10
10.5678845338
 20
10.032555491
 11
10.5723214277
 21
10.0368412017
  0
LINE
  5
29C
100
AcDbEntity
  8
0
100
AcDbLine
 62
4
  6
CONTINUOUS
 10
10.6080925086
 20
10.0113934159
 11
10.612529403
 21
10.015679127
  0
LINE
  5
29D
100
AcDbEntity
  8
0
100
AcDbLine
 62
4
  6
CONTINUOUS
 10
10.6678313295
 20
10.0348109778
 11
10.6412099648
 21
10.0090967125
  0
LINE
  5
29E
100
AcDbEntity
  8
0
100
AcDbLine
 62
4
  6
CONTINUOUS
 10
10.5142532096
 20
9.8493230256
 11
10.5453114686
 21
9.8793230019
  0
LINE
  5
29F
100
AcDbEntity
  8
0
100
AcDbLine
 62
4
  6
CONTINUOUS
 10
10.6991655165
 20
10.0050774814
 11
10.7257868812
 21
10.0307917466
  0
LINE
  5
2A0
100
AcDbEntity
  8
0
100
AcDbLine
 62
4
  6
CONTINUOUS
 10
10.7278460783
 20
9.9984950669
 11
10.7589043374
 21
10.0284950432
  0
LINE
  5
2A1
100
AcDbEntity
  8
0
100
AcDbLine
 62
4
  6
CONTINUOUS
 10
10.5988301196
 20
9.8710180606
 11
10.5766456487
 21
9.849589506
  0
LINE
  5
2A2
100
AcDbEntity
  8
0
100
AcDbLine
 62
4
  6
CONTINUOUS
 10
10.78580163
 20
9.9944758357
 11
10.8168598891
 21
10.0244758121
  0
LINE
  5
2A3
100
AcDbEntity
  8
0
100
AcDbLine
 62
4
  6
CONTINUOUS
 10
10.619125154
 20
9.8420501315
 11
10.6833008693
 21
9.8697534045
  0
LINE
  5
2A4
100
AcDbEntity
  8
0
100
AcDbLine
 62
4
  6
CONTINUOUS
 10
11.0931422262
 20
9.8799154586
 11
11.1573179276
 21
9.9076187325
  0
LINE
  5
2A5
100
AcDbEntity
  8
0
100
AcDbLine
 62
4
  6
CONTINUOUS
 10
11.0019496527
 20
9.9718302352
 11
11.0646463899
 21
9.9981049393
  0
LINE
  5
2A6
100
AcDbEntity
  8
0
100
AcDbLine
 62
4
  6
CONTINUOUS
 10
11.4957677609
 20
9.9773933913
 11
11.4907895353
 21
9.9754419263
  0
LINE
  5
2A7
100
AcDbEntity
  8
0
100
AcDbLine
 62
4
  6
CONTINUOUS
 10
9.9177910477
 20
7.762077444
 11
9.9033021598
 21
7.7727415107
  0
LINE
  5
2A8
100
AcDbEntity
  8
0
100
AcDbLine
 62
4
  6
CONTINUOUS
 10
9.9033021598
 20
7.7727415107
 11
9.8888132719
 21
7.7930648355
  0
LINE
  5
2A9
100
AcDbEntity
  8
0
100
AcDbLine
 62
4
  6
CONTINUOUS
 10
9.9467688236
 20
7.8663196756
 11
9.9540132676
 21
7.8561580084
  0
LINE
  5
2AA
100
AcDbEntity
  8
0
100
AcDbLine
 62
4
  6
CONTINUOUS
 10
10.0192132632
 20
7.7647030484
 11
10.0047243753
 21
7.7850263731
  0
LINE
  5
2AB
100
AcDbEntity
  8
0
100
AcDbLine
 62
4
  6
CONTINUOUS
 10
9.8888132719
 20
7.7930648355
 11
9.8815688279
 21
7.8225450152
  0
LINE
  5
2AC
100
AcDbEntity
  8
0
100
AcDbLine
 62
4
  6
CONTINUOUS
 10
10.0119688193
 20
7.8521387773
 11
10.0119688193
 21
7.842479521
  0
LINE
  5
2AD
100
AcDbEntity
  8
0
100
AcDbLine
 62
4
  6
CONTINUOUS
 10
10.0866303095
 20
9.7937709756
 11
10.0871504303
 21
9.8017733736
  0
LINE
  5
2AE
100
AcDbEntity
  8
0
100
AcDbLine
 62
4
  6
CONTINUOUS
 10
10.7515949924
 20
9.8328633171
 11
10.7826532515
 21
9.8628632934
  0
LINE
  5
2AF
100
AcDbEntity
  8
0
100
AcDbLine
 62
4
  6
CONTINUOUS
 10
10.909992094
 20
9.9858631978
 11
10.9410503531
 21
10.0158631742
  0
LINE
  5
2B0
100
AcDbEntity
  8
0
100
AcDbLine
 62
4
  6
CONTINUOUS
 10
10.9796343086
 20
10.0017038411
 11
10.9596682851
 21
9.9824181422
  0
LINE
  5
2B1
100
AcDbEntity
  8
0
100
AcDbLine
 62
4
  6
CONTINUOUS
 10
10.8178299047
 20
9.8282699103
 11
10.8488881638
 21
9.8582698866
  0
LINE
  5
2B2
100
AcDbEntity
  8
0
100
AcDbLine
 62
4
  6
CONTINUOUS
 10
10.9733886496
 20
9.8928138081
 11
10.9955731204
 21
9.9142423627
  0
LINE
  5
2B3
100
AcDbEntity
  8
0
100
AcDbLine
 62
4
  6
CONTINUOUS
 10
11.0667586975
 20
9.9772881023
 11
11.0845062738
 21
9.9944309456
  0
LINE
  5
2B4
100
AcDbEntity
  8
0
100
AcDbLine
 62
4
  6
CONTINUOUS
 10
11.1452746729
 20
10.0017001695
 11
11.1142164138
 21
9.9717001931
  0
LINE
  5
2B5
100
AcDbEntity
  8
0
100
AcDbLine
 62
4
  6
CONTINUOUS
 10
11.0535286652
 20
9.910223132
 11
11.0313441944
 21
9.8887945774
  0
LINE
  5
2B6
100
AcDbEntity
  8
0
100
AcDbLine
 62
4
  6
CONTINUOUS
 10
11.1473339114
 20
9.9694034869
 11
11.1695183827
 21
9.9908320419
  0
LINE
  5
2B7
100
AcDbEntity
  8
0
100
AcDbLine
 62
4
  6
CONTINUOUS
 10
10.9961334819
 20
9.820497926
 11
11.0183179527
 21
9.8419264806
  0
LINE
  5
2B8
100
AcDbEntity
  8
0
100
AcDbLine
 62
4
  6
CONTINUOUS
 10
11.8007775396
 20
10.117010239
 11
11.8157865483
 21
10.1240078292
  0
LINE
  5
2B9
100
AcDbEntity
  8
0
100
AcDbLine
 62
4
  6
CONTINUOUS
 10
11.9306574102
 20
10.0999645709
 11
11.9156484014
 21
10.0929669807
  0
LINE
  5
2BA
100
AcDbEntity
  8
0
100
AcDbLine
 62
4
  6
CONTINUOUS
 10
10.0337021512
 20
7.7540389817
 11
10.0192132632
 21
7.7647030484
  0
LINE
  5
2BB
100
AcDbEntity
  8
0
100
AcDbLine
 62
4
  6
CONTINUOUS
 10
9.9322799357
 20
7.8769837397
 11
9.9467688236
 21
7.8663196756
  0
LINE
  5
2BC
100
AcDbEntity
  8
0
100
AcDbLine
 62
4
  6
CONTINUOUS
 10
10.0192132632
 20
7.8323178607
 11
10.062679927
 21
7.8003256581
  0
LINE
  5
2BD
100
AcDbEntity
  8
0
100
AcDbLine
 62
4
  6
CONTINUOUS
 10
10.062679927
 20
7.8582812132
 11
10.0481910391
 21
7.8689452773
  0
LINE
  5
2BE
100
AcDbEntity
  8
0
100
AcDbLine
 62
4
  6
CONTINUOUS
 10
10.0119688193
 20
7.842479521
 11
10.0192132632
 21
7.8323178607
  0
LINE
  5
2BF
100
AcDbEntity
  8
0
100
AcDbLine
 62
4
  6
CONTINUOUS
 10
10.062679927
 20
7.8003256581
 11
10.069924371
 21
7.7901639978
  0
LINE
  5
2C0
100
AcDbEntity
  8
0
100
AcDbLine
 62
4
  6
CONTINUOUS
 10
10.069924371
 20
7.8481195461
 11
10.062679927
 21
7.8582812132
  0
LINE
  5
2C1
100
AcDbEntity
  8
0
100
AcDbLine
 62
4
  6
CONTINUOUS
 10
10.3017465779
 20
7.7837463295
 11
10.2872576899
 21
7.8040696534
  0
LINE
  5
2C2
100
AcDbEntity
  8
0
100
AcDbLine
 62
4
  6
CONTINUOUS
 10
10.2945021339
 20
7.8422042886
 11
10.2872576899
 21
7.8523659488
  0
LINE
  5
2C3
100
AcDbEntity
  8
0
100
AcDbLine
 62
4
  6
CONTINUOUS
 10
10.1568576986
 20
7.8614092189
 11
10.1930799184
 21
7.742986096
  0
LINE
  5
2C4
100
AcDbEntity
  8
0
100
AcDbLine
 62
4
  6
CONTINUOUS
 10
10.069924371
 20
7.7901639978
 11
10.069924371
 21
7.77084548
  0
LINE
  5
2C5
100
AcDbEntity
  8
0
100
AcDbLine
 62
4
  6
CONTINUOUS
 10
10.2365465822
 20
7.8558827761
 11
10.2365465822
 21
7.7399716726
  0
LINE
  5
2C6
100
AcDbEntity
  8
0
100
AcDbLine
 62
4
  6
CONTINUOUS
 10
10.2945021339
 20
7.8132265127
 11
10.2945021339
 21
7.8422042886
  0
LINE
  5
2C7
100
AcDbEntity
  8
0
100
AcDbLine
 62
4
  6
CONTINUOUS
 10
9.8815688279
 20
7.8225450152
 11
9.8888132719
 21
7.8510203872
  0
LINE
  5
2C8
100
AcDbEntity
  8
0
100
AcDbLine
 62
4
  6
CONTINUOUS
 10
11.2059369325
 20
9.9860097008
 11
11.2015000386
 21
9.9817239901
  0
LINE
  5
2C9
100
AcDbEntity
  8
0
100
AcDbLine
 62
4
  6
CONTINUOUS
 10
11.2240666315
 20
9.96637876
 11
11.230721973
 21
9.9728073267
  0
LINE
  5
2CA
100
AcDbEntity
  8
0
100
AcDbLine
 62
4
  6
CONTINUOUS
 10
11.0927260312
 20
9.8137992099
 11
11.1149105021
 21
9.8352277645
  0
LINE
  5
2CB
100
AcDbEntity
  8
0
100
AcDbLine
 62
4
  6
CONTINUOUS
 10
11.2715243478
 20
9.9607908508
 11
11.2892719252
 21
9.9779336952
  0
LINE
  5
2CC
100
AcDbEntity
  8
0
100
AcDbLine
 62
4
  6
CONTINUOUS
 10
11.3268262614
 20
9.9799227035
 11
11.3068602373
 21
9.960637004
  0
LINE
  5
2CD
100
AcDbEntity
  8
0
100
AcDbLine
 62
4
  6
CONTINUOUS
 10
11.1728660538
 20
9.8312085334
 11
11.1506815829
 21
9.8097799788
  0
LINE
  5
2CE
100
AcDbEntity
  8
0
100
AcDbLine
 62
4
  6
CONTINUOUS
 10
11.1793621309
 20
9.8031975652
 11
11.21042039
 21
9.8331975416
  0
LINE
  5
2CF
100
AcDbEntity
  8
0
100
AcDbLine
 62
4
  6
CONTINUOUS
 10
11.3543180089
 20
9.9550490909
 11
11.3765024802
 21
9.976477646
  0
LINE
  5
2D0
100
AcDbEntity
  8
0
100
AcDbLine
 62
4
  6
CONTINUOUS
 10
11.3896538984
 20
9.9548952441
 11
11.4184937103
 21
9.9827523649
  0
LINE
  5
2D1
100
AcDbEntity
  8
0
100
AcDbLine
 62
4
  6
CONTINUOUS
 10
11.2639390478
 20
9.8248925998
 11
11.241754577
 21
9.8034640452
  0
LINE
  5
2D2
100
AcDbEntity
  8
0
100
AcDbLine
 62
4
  6
CONTINUOUS
 10
11.2842341237
 20
9.7959246678
 11
11.3152923828
 21
9.8259246442
  0
LINE
  5
2D3
100
AcDbEntity
  8
0
100
AcDbLine
 62
4
  6
CONTINUOUS
 10
11.4619497241
 20
9.9475848061
 11
11.4841341954
 21
9.9690133612
  0
LINE
  5
2D4
100
AcDbEntity
  8
0
100
AcDbLine
 62
4
  6
CONTINUOUS
 10
11.4907895353
 20
9.9754419263
 11
11.4930079832
 21
9.9775847825
  0
LINE
  5
2D5
100
AcDbEntity
  8
0
100
AcDbLine
 62
4
  6
CONTINUOUS
 10
10.0481910391
 20
7.7530341739
 11
10.0337021512
 21
7.7540389817
  0
LINE
  5
2D6
100
AcDbEntity
  8
0
100
AcDbLine
 62
4
  6
CONTINUOUS
 10
9.9322799357
 20
7.7610726362
 11
9.9177910477
 21
7.762077444
  0
LINE
  5
2D7
100
AcDbEntity
  8
0
100
AcDbLine
 62
4
  6
CONTINUOUS
 10
10.2365465822
 20
7.7399716726
 11
10.2872576899
 21
7.7364548454
  0
LINE
  5
2D8
100
AcDbEntity
  8
0
100
AcDbLine
 62
4
  6
CONTINUOUS
 10
10.1351243667
 20
7.7856423628
 11
10.1785910305
 21
7.7826279394
  0
LINE
  5
2D9
100
AcDbEntity
  8
0
100
AcDbLine
 62
4
  6
CONTINUOUS
 10
10.2365465822
 20
7.8075864807
 11
10.2872576899
 21
7.8040696534
  0
LINE
  5
2DA
100
AcDbEntity
  8
0
100
AcDbLine
 62
4
  6
CONTINUOUS
 10
10.3017465779
 20
7.7547685554
 11
10.3017465779
 21
7.7837463295
  0
LINE
  5
2DB
100
AcDbEntity
  8
0
100
AcDbLine
 62
4
  6
CONTINUOUS
 10
10.1206354787
 20
7.7480101349
 11
10.1568576986
 21
7.8614092189
  0
LINE
  5
2DC
100
AcDbEntity
  8
0
100
AcDbLine
 62
4
  6
CONTINUOUS
 10
9.8888132719
 20
7.8510203872
 11
9.9033021598
 21
7.8693340989
  0
LINE
  5
2DD
100
AcDbEntity
  8
0
100
AcDbLine
 62
4
  6
CONTINUOUS
 10
11.5083247795
 20
9.9466653905
 11
11.5260723558
 21
9.9638082338
  0
LINE
  5
2DE
100
AcDbEntity
  8
0
100
AcDbLine
 62
4
  6
CONTINUOUS
 10
11.5939313431
 20
9.9522120816
 11
11.6005866839
 21
9.9586406476
  0
LINE
  5
2DF
100
AcDbEntity
  8
0
100
AcDbLine
 62
4
  6
CONTINUOUS
 10
11.6325152159
 20
9.9380527545
 11
11.6391705574
 21
9.9444813211
  0
LINE
  5
2E0
100
AcDbEntity
  8
0
100
AcDbLine
 62
4
  6
CONTINUOUS
 10
11.8732219793
 20
10.1119862
 11
11.8628692264
 21
10.101986208
  0
LINE
  5
2E1
100
AcDbEntity
  8
0
100
AcDbLine
 62
4
  6
CONTINUOUS
 10
11.9994858351
 20
10.1139477292
 11
11.9943094598
 21
10.1089477343
  0
LINE
  5
2E2
100
AcDbEntity
  8
0
100
AcDbLine
 62
4
  6
CONTINUOUS
 10
10.2872576899
 20
7.8523659488
 11
10.2365465822
 21
7.8558827761
  0
LINE
  5
2E3
100
AcDbEntity
  8
0
100
AcDbLine
 62
4
  6
CONTINUOUS
 10
10.0481910391
 20
7.8689452773
 11
10.0337021512
 21
7.8699500851
  0
LINE
  5
2E4
100
AcDbEntity
  8
0
100
AcDbLine
 62
4
  6
CONTINUOUS
 10
9.9177910477
 20
7.8779885474
 11
9.9322799357
 21
7.8769837397
  0
LINE
  5
2E5
100
AcDbEntity
  8
0
100
AcDbLine
 62
4
  6
CONTINUOUS
 10
10.6833008693
 20
9.8697534045
 11
10.6853600801
 21
9.8374567238
  0
LINE
  5
2E6
100
AcDbEntity
  8
0
100
AcDbLine
 62
4
  6
CONTINUOUS
 10
10.0192132632
 20
7.8612956366
 11
10.0119688193
 21
7.8521387773
  0
LINE
  5
2E7
100
AcDbEntity
  8
0
100
AcDbLine
 62
4
  6
CONTINUOUS
 10
9.9540132676
 20
7.7788839424
 11
9.9467688236
 21
7.7697270873
  0
LINE
  5
2E8
100
AcDbEntity
  8
0
100
AcDbLine
 62
4
  6
CONTINUOUS
 10
10.069924371
 20
7.77084548
 11
10.062679927
 21
7.761688625
  0
LINE
  5
2E9
100
AcDbEntity
  8
0
100
AcDbLine
 62
4
  6
CONTINUOUS
 10
13.4437865019
 20
9.9615350925
 11
13.4287774931
 21
9.9545375023
  0
LINE
  5
2EA
100
AcDbEntity
  8
0
100
AcDbLine
 62
4
  6
CONTINUOUS
 10
10.2872576899
 20
7.8040696534
 11
10.2945021339
 21
7.8132265127
  0
LINE
  5
2EB
100
AcDbEntity
  8
0
100
AcDbLine
 62
4
  6
CONTINUOUS
 10
10.2872576899
 20
7.7364548454
 11
10.3017465779
 21
7.7547685554
  0
LINE
  5
2EC
100
AcDbEntity
  8
0
100
AcDbLine
 62
7
  6
CONTINUOUS
 10
9.6676937655
 20
7.4406863142
 11
9.5710414098
 21
7.3473273022
  0
LINE
  5
2ED
100
AcDbEntity
  8
0
100
AcDbLine
 62
7
  6
CONTINUOUS
 10
10.0330923817
 20
7.6263088236
 11
9.9364400261
 21
7.5329498116
  0
LINE
  5
2EE
100
AcDbEntity
  8
0
100
AcDbLine
 62
7
  6
CONTINUOUS
 10
10.0903018272
 20
7.6223413351
 11
9.9936494715
 21
7.5289823231
  0
LINE
  5
2EF
100
AcDbEntity
  8
0
100
AcDbLine
 62
4
  6
CONTINUOUS
 10
9.9033021598
 20
7.8693340989
 11
9.9177910477
 21
7.8779885474
  0
LINE
  5
2F0
100
AcDbEntity
  8
0
100
AcDbLine
 62
4
  6
CONTINUOUS
 10
11.0910830291
 20
9.9122121383
 11
11.0931422262
 21
9.8799154586
  0
LINE
  5
2F1
100
AcDbEntity
  8
0
100
AcDbLine
 62
7
  6
CONTINUOUS
 10
12.6898441911
 20
9.9748730719
 11
12.6891825281
 21
9.9742460157
  0
LINE
  5
2F2
100
AcDbEntity
  8
0
100
AcDbLine
 62
4
  6
CONTINUOUS
 10
10.0337021512
 20
7.8699500851
 11
10.0192132632
 21
7.8612956366
  0
LINE
  5
2F3
100
AcDbEntity
  8
0
100
AcDbLine
 62
4
  6
CONTINUOUS
 10
9.9467688236
 20
7.7697270873
 11
9.9322799357
 21
7.7610726362
  0
LINE
  5
2F4
100
AcDbEntity
  8
0
100
AcDbLine
 62
4
  6
CONTINUOUS
 10
10.062679927
 20
7.761688625
 11
10.0481910391
 21
7.7530341739
  0
LINE
  5
2F5
100
AcDbEntity
  8
0
100
AcDbLine
 62
4
  6
CONTINUOUS
 10
11.0149702264
 20
10.0015499929
 11
11.0176238645
 21
9.9783989092
  0
LINE
  5
2F6
100
AcDbEntity
  8
0
100
AcDbLine
 62
7
  6
CONTINUOUS
 10
10.4557004434
 20
7.3860378655
 11
10.3590480878
 21
7.2926788535
  0
LINE
  5
2F7
100
AcDbEntity
  8
0
100
AcDbLine
 62
7
  6
CONTINUOUS
 10
10.4843051661
 20
7.3345092882
 11
10.3876528105
 21
7.2411502762
  0
LINE
  5
2F8
100
AcDbEntity
  8
0
100
AcDbLine
 62
4
  6
CONTINUOUS
 10
9.0415175184
 20
10.2882694
 11
9.0461737729
 21
10.2852669969
  0
LINE
  5
2F9
100
AcDbEntity
  8
0
100
AcDbLine
 62
4
  6
CONTINUOUS
 10
11.8002574188
 20
10.109007841
 11
11.8007775396
 21
10.117010239
  0
LINE
  5
2FA
100
AcDbEntity
  8
0
100
AcDbLine
 62
4
  6
CONTINUOUS
 10
13.5126149268
 20
9.9755182509
 11
13.5074385515
 21
9.970518256
  0
LINE
  5
2FB
100
AcDbEntity
  8
0
100
AcDbLine
 62
4
  6
CONTINUOUS
 10
13.0661524417
 20
9.5442685805
 11
13.0350941827
 21
9.5142686041
  0
LINE
  5
2FC
100
AcDbEntity
  8
0
100
AcDbLine
 62
4
  6
CONTINUOUS
 10
10.095942821
 20
9.7877661718
 11
10.0866303095
 21
9.7937709756
  0
LINE
  5
2FD
100
AcDbEntity
  8
0
100
AcDbLine
 62
4
  6
CONTINUOUS
 10
10.1652913679
 20
9.8097517292
 11
10.1699476224
 21
9.8067493261
  0
LINE
  5
2FE
100
AcDbEntity
  8
0
100
AcDbLine
 62
4
  6
CONTINUOUS
 10
10.7589043374
 20
10.0284950432
 11
10.78580163
 21
9.9944758357
  0
LINE
  5
2FF
100
AcDbEntity
  8
0
100
AcDbLine
 62
7
  6
CONTINUOUS
 10
10.4843051661
 20
6.9125833093
 11
10.3876528105
 21
6.8192242972
  0
LINE
  5
300
100
AcDbEntity
  8
0
100
AcDbLine
 62
7
  6
CONTINUOUS
 10
10.4557004434
 20
6.8650222204
 11
10.3590480878
 21
6.7716632084
  0
LINE
  5
301
100
AcDbEntity
  8
0
100
AcDbLine
 62
7
  6
CONTINUOUS
 10
12.8324723379
 20
9.1585509196
 11
13.9971570797
 21
10.2835500578
  0
LINE
  5
302
100
AcDbEntity
  8
0
100
AcDbLine
 62
4
  6
CONTINUOUS
 10
13.5074385515
 20
9.970518256
 11
13.4976059181
 21
9.9685206607
  0
LINE
  5
303
100
AcDbEntity
  8
0
100
AcDbLine
 62
4
  6
CONTINUOUS
 10
13.463451766
 20
9.9655302805
 11
13.4437865019
 21
9.9615350925
  0
LINE
  5
304
100
AcDbEntity
  8
0
100
AcDbLine
 62
4
  6
CONTINUOUS
 10
13.4546593751
 20
9.979537482
 11
13.4644920086
 21
9.9815350773
  0
LINE
  5
305
100
AcDbEntity
  8
0
100
AcDbLine
 62
7
  6
CONTINUOUS
 10
8.0028429203
 20
9.4934868573
 11
12.8324723379
 21
9.1585509196
  0
LINE
  5
306
100
AcDbEntity
  8
0
100
AcDbLine
 62
4
  6
CONTINUOUS
 10
10.1078435206
 20
9.7842613659
 11
10.095942821
 21
9.7877661718
  0
LINE
  5
307
100
AcDbEntity
  8
0
100
AcDbLine
 62
4
  6
CONTINUOUS
 10
10.900657639
 20
9.925418184
 11
10.9358342991
 21
9.8908248004
  0
LINE
  5
308
100
AcDbEntity
  8
0
100
AcDbLine
 62
4
  6
CONTINUOUS
 10
11.241754577
 20
9.8034640452
 11
11.2207589615
 21
9.8003266853
  0
LINE
  5
309
100
AcDbEntity
  8
0
100
AcDbLine
 62
4
  6
CONTINUOUS
 10
13.4976059181
 20
9.9685206607
 11
13.463451766
 21
9.9655302805
  0
LINE
  5
30A
100
AcDbEntity
  8
0
100
AcDbLine
 62
4
  6
CONTINUOUS
 10
10.1223324085
 20
9.7832565581
 11
10.1078435206
 21
9.7842613659
  0
LINE
  5
30B
100
AcDbEntity
  8
0
100
AcDbLine
 62
4
  6
CONTINUOUS
 10
10.1306170941
 20
9.7987589502
 11
10.15959487
 21
9.7967493346
  0
LINE
  5
30C
100
AcDbEntity
  8
0
100
AcDbLine
 62
4
  6
CONTINUOUS
 10
10.1389017797
 20
9.8142613423
 11
10.1533906676
 21
9.8132565345
  0
LINE
  5
30D
100
AcDbEntity
  8
0
100
AcDbLine
 62
4
  6
CONTINUOUS
 10
10.4613289729
 20
9.8667735657
 11
10.4995697256
 21
9.857997013
  0
LINE
  5
30E
100
AcDbEntity
  8
0
100
AcDbLine
 62
4
  6
CONTINUOUS
 10
10.1533906676
 20
9.8132565345
 11
10.1652913679
 21
9.8097517292
  0
LINE
  5
30F
100
AcDbEntity
  8
0
100
AcDbLine
 62
4
  6
CONTINUOUS
 10
9.0296168181
 20
10.2917742053
 11
9.0415175184
 21
10.2882694
  0
LINE
  5
310
100
AcDbEntity
  8
0
100
AcDbLine
 62
4
  6
CONTINUOUS
 10
10.5867082854
 20
9.876452123
 11
10.5988301196
 21
9.8710180606
  0
LINE
  5
311
100
AcDbEntity
  8
0
100
AcDbLine
 62
4
  6
CONTINUOUS
 10
10.5479185097
 20
10.0132697915
 11
10.5539794274
 21
10.0105527601
  0
LINE
  5
312
100
AcDbEntity
  8
0
100
AcDbLine
 62
4
  6
CONTINUOUS
 10
11.0082553087
 20
9.8150638637
 11
10.9961334819
 21
9.820497926
  0
LINE
  5
313
100
AcDbEntity
  8
0
100
AcDbLine
 62
4
  6
CONTINUOUS
 10
10.6412099648
 20
10.0090967125
 11
10.6533317985
 21
10.0036626498
  0
LINE
  5
314
100
AcDbEntity
  8
0
100
AcDbLine
 62
4
  6
CONTINUOUS
 10
11.104847858
 20
9.8083651476
 11
11.0927260312
 21
9.8137992099
  0
LINE
  5
315
100
AcDbEntity
  8
0
100
AcDbLine
 62
4
  6
CONTINUOUS
 10
10.6264345093
 20
10.037681857
 11
10.6324954255
 21
10.034964825
  0
LINE
  5
316
100
AcDbEntity
  8
0
100
AcDbLine
 62
4
  6
CONTINUOUS
 10
11.2892719252
 20
9.9779336952
 11
11.2854294862
 21
9.9827935796
  0
LINE
  5
317
100
AcDbEntity
  8
0
100
AcDbLine
 62
7
  6
CONTINUOUS
 10
13.6113865846
 20
9.1663018922
 11
13.6103715574
 21
9.1653395183
  0
LINE
  5
318
100
AcDbEntity
  8
0
100
AcDbLine
 62
7
  6
CONTINUOUS
 10
13.1584536295
 20
8.7288022273
 11
13.1574386022
 21
8.7278398535
  0
LINE
  5
319
100
AcDbEntity
  8
0
100
AcDbLine
 62
4
  6
CONTINUOUS
 10
10.8695993799
 20
9.8954182076
 11
10.9668925582
 21
9.9208247767
  0
LINE
  5
31A
100
AcDbEntity
  8
0
100
AcDbLine
 62
4
  6
CONTINUOUS
 10
11.9943094598
 20
10.1089477343
 11
11.9844768264
 21
10.106950139
  0
LINE
  5
31B
100
AcDbEntity
  8
0
100
AcDbLine
 62
4
  6
CONTINUOUS
 10
11.9503226743
 20
10.1039597588
 11
11.9306574102
 21
10.0999645709
  0
LINE
  5
31C
100
AcDbEntity
  8
0
100
AcDbLine
 62
4
  6
CONTINUOUS
 10
11.9415302834
 20
10.1179669604
 11
11.9513629168
 21
10.1199645557
  0
LINE
  5
31D
100
AcDbEntity
  8
0
100
AcDbLine
 62
4
  6
CONTINUOUS
 10
11.8628692264
 20
10.101986208
 11
11.8530365941
 21
10.0999886138
  0
LINE
  5
31E
100
AcDbEntity
  8
0
100
AcDbLine
 62
4
  6
CONTINUOUS
 10
11.8157865483
 20
10.1240078292
 11
11.8354518134
 21
10.128003018
  0
LINE
  5
31F
100
AcDbEntity
  8
0
100
AcDbLine
 62
4
  6
CONTINUOUS
 10
10.1492421171
 20
9.7867493426
 11
10.1394094848
 21
9.7847517484
  0
LINE
  5
320
100
AcDbEntity
  8
0
100
AcDbLine
 62
4
  6
CONTINUOUS
 10
10.1021594391
 20
9.8087709638
 11
10.1218247041
 21
9.8127661526
  0
LINE
  5
321
100
AcDbEntity
  8
0
100
AcDbLine
 62
4
  6
CONTINUOUS
 10
11.1506815829
 20
9.8097799788
 11
11.1296859674
 21
9.8066426189
  0
LINE
  5
322
100
AcDbEntity
  8
0
100
AcDbLine
 62
4
  6
CONTINUOUS
 10
11.1149105021
 20
9.8352277645
 11
11.1359061171
 21
9.838365124
  0
LINE
  5
323
100
AcDbEntity
  8
0
100
AcDbLine
 62
4
  6
CONTINUOUS
 10
11.0183179527
 20
9.8419264806
 11
11.0393135678
 21
9.84506384
  0
LINE
  5
324
100
AcDbEntity
  8
0
100
AcDbLine
 62
4
  6
CONTINUOUS
 10
11.6220174358
 20
9.9364840726
 11
11.6325152159
 21
9.9380527545
  0
LINE
  5
325
100
AcDbEntity
  8
0
100
AcDbLine
 62
4
  6
CONTINUOUS
 10
11.6005866839
 20
9.9586406476
 11
11.6110844647
 21
9.9602093301
  0
LINE
  5
326
100
AcDbEntity
  8
0
100
AcDbLine
 62
4
  6
CONTINUOUS
 10
11.0313441944
 20
9.8887945774
 11
11.0103485789
 21
9.8856572175
  0
LINE
  5
327
100
AcDbEntity
  8
0
100
AcDbLine
 62
4
  6
CONTINUOUS
 10
11.5260723558
 20
9.9638082338
 11
11.5365701366
 21
9.9653769163
  0
LINE
  5
328
100
AcDbEntity
  8
0
100
AcDbLine
 62
4
  6
CONTINUOUS
 10
10.5766456487
 20
9.849589506
 11
10.5556500263
 21
9.8464521466
  0
LINE
  5
329
100
AcDbEntity
  8
0
100
AcDbLine
 62
4
  6
CONTINUOUS
 10
10.9955731204
 20
9.9142423627
 11
11.0165687424
 21
9.9173797217
  0
LINE
  5
32A
100
AcDbEntity
  8
0
100
AcDbLine
 62
4
  6
CONTINUOUS
 10
13.4644920086
 20
9.9815350773
 11
13.4815690841
 21
9.983030267
  0
LINE
  5
32B
100
AcDbEntity
  8
0
100
AcDbLine
 62
4
  6
CONTINUOUS
 10
10.1394094848
 20
9.7847517484
 11
10.1223324085
 21
9.7832565581
  0
LINE
  5
32C
100
AcDbEntity
  8
0
100
AcDbLine
 62
4
  6
CONTINUOUS
 10
10.1218247041
 20
9.8127661526
 11
10.1389017797
 21
9.8142613423
  0
LINE
  5
32D
100
AcDbEntity
  8
0
100
AcDbLine
 62
4
  6
CONTINUOUS
 10
11.4244950204
 20
9.7999777734
 11
11.3744225532
 21
9.7973257633
  0
LINE
  5
32E
100
AcDbEntity
  8
0
100
AcDbLine
 62
4
  6
CONTINUOUS
 10
10.511401444
 20
9.869425576
 11
10.4613289729
 21
9.8667735657
  0
LINE
  5
32F
100
AcDbEntity
  8
0
100
AcDbLine
 62
4
  6
CONTINUOUS
 10
11.230721973
 20
9.9728073267
 11
11.2494991411
 21
9.9738018308
  0
LINE
  5
330
100
AcDbEntity
  8
0
100
AcDbLine
 62
4
  6
CONTINUOUS
 10
11.0845062738
 20
9.9944309456
 11
11.1032834428
 21
9.9954254506
  0
LINE
  5
331
100
AcDbEntity
  8
0
100
AcDbLine
 62
4
  6
CONTINUOUS
 10
11.2207589615
 20
9.8003266853
 11
11.1793621309
 21
9.8031975652
  0
LINE
  5
332
100
AcDbEntity
  8
0
100
AcDbLine
 62
4
  6
CONTINUOUS
 10
11.1296859674
 20
9.8066426189
 11
11.104847858
 21
9.8083651476
  0
LINE
  5
333
100
AcDbEntity
  8
0
100
AcDbLine
 62
4
  6
CONTINUOUS
 10
11.041372751
 20
9.8127671612
 11
11.0082553087
 21
9.8150638637
  0
LINE
  5
334
100
AcDbEntity
  8
0
100
AcDbLine
 62
4
  6
CONTINUOUS
 10
10.5556500263
 20
9.8464521466
 11
10.5142532096
 21
9.8493230256
  0
LINE
  5
335
100
AcDbEntity
  8
0
100
AcDbLine
 62
4
  6
CONTINUOUS
 10
10.8178299047
 20
9.8282699103
 11
10.8675060959
 21
9.8248248547
  0
LINE
  5
336
100
AcDbEntity
  8
0
100
AcDbLine
 62
4
  6
CONTINUOUS
 10
11.2842341237
 20
9.7959246678
 11
11.3339102872
 21
9.7924796142
  0
LINE
  5
337
100
AcDbEntity
  8
0
100
AcDbLine
 62
4
  6
CONTINUOUS
 10
10.6390380948
 20
9.849855986
 11
10.683194703
 21
9.8467937148
  0
LINE
  5
338
100
AcDbEntity
  8
0
100
AcDbLine
 62
4
  6
CONTINUOUS
 10
11.3350991435
 20
9.8107708098
 11
11.3019817012
 21
9.8130675122
  0
LINE
  5
339
100
AcDbEntity
  8
0
100
AcDbLine
 62
4
  6
CONTINUOUS
 10
10.8686949521
 20
9.8431160503
 11
10.8355774822
 21
9.8454127547
  0
LINE
  5
33A
100
AcDbEntity
  8
0
100
AcDbLine
 62
4
  6
CONTINUOUS
 10
10.5453114686
 20
9.8793230019
 11
10.5867082854
 21
9.876452123
  0
LINE
  5
33B
100
AcDbEntity
  8
0
100
AcDbLine
 62
4
  6
CONTINUOUS
 10
10.7495357816
 20
9.8651599977
 11
10.8157706939
 21
9.860566591
  0
LINE
  5
33C
100
AcDbEntity
  8
0
100
AcDbLine
 62
4
  6
CONTINUOUS
 10
10.8488881638
 20
9.8582698866
 11
10.898564355
 21
9.8548248311
  0
LINE
  5
33D
100
AcDbEntity
  8
0
100
AcDbLine
 62
4
  6
CONTINUOUS
 10
11.0393135678
 20
9.84506384
 11
11.0724310101
 21
9.8427671376
  0
LINE
  5
33E
100
AcDbEntity
  8
0
100
AcDbLine
 62
4
  6
CONTINUOUS
 10
11.1359061171
 20
9.838365124
 11
11.1607442265
 21
9.8366425952
  0
LINE
  5
33F
100
AcDbEntity
  8
0
100
AcDbLine
 62
4
  6
CONTINUOUS
 10
11.21042039
 20
9.8331975416
 11
11.2518172206
 21
9.8303266616
  0
LINE
  5
340
100
AcDbEntity
  8
0
100
AcDbLine
 62
4
  6
CONTINUOUS
 10
11.3152923828
 20
9.8259246442
 11
11.3649685463
 21
9.8224795905
  0
LINE
  5
341
100
AcDbEntity
  8
0
100
AcDbLine
 62
4
  6
CONTINUOUS
 10
11.0103485789
 20
9.8856572175
 11
10.9855104833
 21
9.8873797453
  0
LINE
  5
342
100
AcDbEntity
  8
0
100
AcDbLine
 62
4
  6
CONTINUOUS
 10
11.0165687424
 20
9.9173797217
 11
11.041406838
 21
9.9156571939
  0
LINE
  5
343
100
AcDbEntity
  8
0
100
AcDbLine
 62
4
  6
CONTINUOUS
 10
10.9853909315
 20
9.9729785864
 11
11.0019496527
 21
9.9718302352
  0
LINE
  5
344
100
AcDbEntity
  8
0
100
AcDbLine
 62
4
  6
CONTINUOUS
 10
11.5475032181
 20
9.9416516512
 11
11.5143856653
 21
9.9439483613
  0
LINE
  5
345
100
AcDbEntity
  8
0
100
AcDbLine
 62
4
  6
CONTINUOUS
 10
11.4122735606
 20
9.9510298598
 11
11.3957148395
 21
9.952178211
  0
LINE
  5
346
100
AcDbEntity
  8
0
100
AcDbLine
 62
4
  6
CONTINUOUS
 10
11.2715243478
 20
9.9607908508
 11
11.2384069055
 21
9.9630875533
  0
LINE
  5
347
100
AcDbEntity
  8
0
100
AcDbLine
 62
4
  6
CONTINUOUS
 10
11.1142164138
 20
9.9717001931
 11
11.0810989715
 21
9.9739968955
  0
LINE
  5
348
100
AcDbEntity
  8
0
100
AcDbLine
 62
4
  6
CONTINUOUS
 10
10.5539794274
 20
10.0105527601
 11
10.5870968862
 21
10.0082560565
  0
LINE
  5
349
100
AcDbEntity
  8
0
100
AcDbLine
 62
4
  6
CONTINUOUS
 10
10.6533317985
 20
10.0036626498
 11
10.678169901
 21
10.0019401215
  0
LINE
  5
34A
100
AcDbEntity
  8
0
100
AcDbLine
 62
4
  6
CONTINUOUS
 10
11.3129211784
 20
9.9579199709
 11
11.3543180089
 21
9.9550490909
  0
LINE
  5
34B
100
AcDbEntity
  8
0
100
AcDbLine
 62
4
  6
CONTINUOUS
 10
11.5888999934
 20
9.9387807751
 11
11.6220174358
 21
9.9364840726
  0
LINE
  5
34C
100
AcDbEntity
  8
0
100
AcDbLine
 62
4
  6
CONTINUOUS
 10
11.2494991411
 20
9.9738018308
 11
11.2826165835
 21
9.9715051284
  0
LINE
  5
34D
100
AcDbEntity
  8
0
100
AcDbLine
 62
4
  6
CONTINUOUS
 10
11.2854294862
 20
9.9827935796
 11
11.2440326556
 21
9.9856644595
  0
LINE
  5
34E
100
AcDbEntity
  8
0
100
AcDbLine
 62
4
  6
CONTINUOUS
 10
10.9321765653
 20
10.0072917528
 11
10.9735733959
 21
10.0044208729
  0
LINE
  5
34F
100
AcDbEntity
  8
0
100
AcDbLine
 62
4
  6
CONTINUOUS
 10
11.1032834428
 20
9.9954254506
 11
11.1364008851
 21
9.9931287482
  0
LINE
  5
350
100
AcDbEntity
  8
0
100
AcDbLine
 62
4
  6
CONTINUOUS
 10
11.1695183827
 20
9.9908320419
 11
11.2026358251
 21
9.9885353395
  0
LINE
  5
351
100
AcDbEntity
  8
0
100
AcDbLine
 62
4
  6
CONTINUOUS
 10
11.5365701366
 20
9.9653769163
 11
11.5696876894
 21
9.9630802062
  0
LINE
  5
352
100
AcDbEntity
  8
0
100
AcDbLine
 62
4
  6
CONTINUOUS
 10
11.6110844647
 20
9.9602093301
 11
11.6442019071
 21
9.9579126277
  0
LINE
  5
353
100
AcDbEntity
  8
0
100
AcDbLine
 62
4
  6
CONTINUOUS
 10
11.3862542716
 20
9.8087543264
 11
11.4244950204
 21
9.7999777734
  0
LINE
  5
354
100
AcDbEntity
  8
0
100
AcDbLine
 62
4
  6
CONTINUOUS
 10
11.0810989715
 20
9.9739968955
 11
11.0667586975
 21
9.9772881023
  0
LINE
  5
355
100
AcDbEntity
  8
0
100
AcDbLine
 62
4
  6
CONTINUOUS
 10
11.2384069055
 20
9.9630875533
 11
11.2240666315
 21
9.96637876
  0
LINE
  5
356
100
AcDbEntity
  8
0
100
AcDbLine
 62
4
  6
CONTINUOUS
 10
10.612529403
 20
10.015679127
 11
10.5678845338
 21
10.032555491
  0
LINE
  5
357
100
AcDbEntity
  8
0
100
AcDbLine
 62
4
  6
CONTINUOUS
 10
10.9855104833
 20
9.8873797453
 11
10.9733886496
 21
9.8928138081
  0
LINE
  5
358
100
AcDbEntity
  8
0
100
AcDbLine
 62
4
  6
CONTINUOUS
 10
11.1607442265
 20
9.8366425952
 11
11.1728660538
 21
9.8312085334
  0
LINE
  5
359
100
AcDbEntity
  8
0
100
AcDbLine
 62
4
  6
CONTINUOUS
 10
11.041406838
 20
9.9156571939
 11
11.0535286652
 21
9.910223132
  0
LINE
  5
35A
100
AcDbEntity
  8
0
100
AcDbLine
 62
4
  6
CONTINUOUS
 10
11.2518172206
 20
9.8303266616
 11
11.2639390478
 21
9.8248925998
  0
LINE
  5
35B
100
AcDbEntity
  8
0
100
AcDbLine
 62
4
  6
CONTINUOUS
 10
10.9735733959
 20
10.0044208729
 11
10.9796343086
 21
10.0017038411
  0
LINE
  5
35C
100
AcDbEntity
  8
0
100
AcDbLine
 62
4
  6
CONTINUOUS
 10
11.3068602373
 20
9.960637004
 11
11.3129211784
 21
9.9579199709
  0
LINE
  5
35D
100
AcDbEntity
  8
0
100
AcDbLine
 62
4
  6
CONTINUOUS
 10
11.3957148395
 20
9.952178211
 11
11.3896538984
 21
9.9548952441
  0
LINE
  5
35E
100
AcDbEntity
  8
0
100
AcDbLine
 62
4
  6
CONTINUOUS
 10
11.2026358251
 20
9.9885353395
 11
11.2059369325
 21
9.9860097008
  0
LINE
  5
35F
100
AcDbEntity
  8
0
100
AcDbLine
 62
4
  6
CONTINUOUS
 10
10.678169901
 20
10.0019401215
 11
10.6991655165
 21
10.0050774814
  0
LINE
  5
360
100
AcDbEntity
  8
0
100
AcDbLine
 62
4
  6
CONTINUOUS
 10
10.5870968862
 20
10.0082560565
 11
10.6080925086
 21
10.0113934159
  0
LINE
  5
361
100
AcDbEntity
  8
0
100
AcDbLine
 62
4
  6
CONTINUOUS
 10
10.5723214277
 20
10.0368412017
 11
10.5933170514
 21
10.0399785605
  0
LINE
  5
362
100
AcDbEntity
  8
0
100
AcDbLine
 62
4
  6
CONTINUOUS
 10
11.9844768264
 20
10.106950139
 11
11.9503226743
 21
10.1039597588
  0
LINE
  5
363
100
AcDbEntity
  8
0
100
AcDbLine
 62
4
  6
CONTINUOUS
 10
11.8530365941
 20
10.0999886138
 11
11.8359595178
 21
10.0984934235
  0
LINE
  5
364
100
AcDbEntity
  8
0
100
AcDbLine
 62
4
  6
CONTINUOUS
 10
11.9513629168
 20
10.1199645557
 11
11.9684399924
 21
10.1214597453
  0
LINE
  5
365
100
AcDbEntity
  8
0
100
AcDbLine
 62
4
  6
CONTINUOUS
 10
11.8354518134
 20
10.128003018
 11
11.852528889
 21
10.1294982077
  0
LINE
  5
366
100
AcDbEntity
  8
0
100
AcDbLine
 62
4
  6
CONTINUOUS
 10
10.5933170514
 20
10.0399785605
 11
10.6264345093
 21
10.037681857
  0
LINE
  5
367
100
AcDbEntity
  8
0
100
AcDbLine
 62
4
  6
CONTINUOUS
 10
11.4930079832
 20
9.9775847825
 11
11.4957677609
 21
9.9773933913
  0
LINE
  5
368
100
AcDbEntity
  8
0
100
AcDbLine
 62
4
  6
CONTINUOUS
 10
8.9623363392
 20
10.2642862484
 11
9.020291891
 21
10.2602670172
  0
LINE
  5
369
100
AcDbEntity
  8
0
100
AcDbLine
 62
4
  6
CONTINUOUS
 10
13.4287774931
 20
9.9545375023
 11
13.4867330449
 21
9.9505182712
  0
LINE
  5
36A
100
AcDbEntity
  8
0
100
AcDbLine
 62
4
  6
CONTINUOUS
 10
9.0151279302
 20
10.2927790131
 11
9.0296168181
 21
10.2917742053
  0
LINE
  5
36B
100
AcDbEntity
  8
0
100
AcDbLine
 62
4
  6
CONTINUOUS
 10
13.4815690841
 20
9.983030267
 11
13.4960579721
 21
9.9820254592
  0
LINE
  5
36C
100
AcDbEntity
  8
0
100
AcDbLine
 62
4
  6
CONTINUOUS
 10
11.8359595178
 20
10.0984934235
 11
11.8214706299
 21
10.0994982313
  0
LINE
  5
36D
100
AcDbEntity
  8
0
100
AcDbLine
 62
4
  6
CONTINUOUS
 10
11.9156484014
 20
10.0929669807
 11
11.9736039531
 21
10.0889477495
  0
LINE
  5
36E
100
AcDbEntity
  8
0
100
AcDbLine
 62
4
  6
CONTINUOUS
 10
11.8442442034
 20
10.1139958156
 11
11.8732219793
 21
10.1119862
  0
LINE
  5
36F
100
AcDbEntity
  8
0
100
AcDbLine
 62
4
  6
CONTINUOUS
 10
11.852528889
 20
10.1294982077
 11
11.8670177769
 21
10.1284933999
  0
LINE
  5
370
100
AcDbEntity
  8
0
100
AcDbLine
 62
4
  6
CONTINUOUS
 10
11.9684399924
 20
10.1214597453
 11
11.9829288803
 21
10.1204549375
  0
LINE
  5
371
100
AcDbEntity
  8
0
100
AcDbLine
 62
4
  6
CONTINUOUS
 10
11.6323701891
 20
9.9464840651
 11
11.6007317114
 21
9.9502093377
  0
LINE
  5
372
100
AcDbEntity
  8
0
100
AcDbLine
 62
4
  6
CONTINUOUS
 10
11.6007317114
 20
9.9502093377
 11
11.5939313431
 21
9.9522120816
  0
LINE
  5
373
100
AcDbEntity
  8
0
100
AcDbLine
 62
4
  6
CONTINUOUS
 10
11.6391705574
 20
9.9444813211
 11
11.6323701891
 21
9.9464840651
  0
LINE
  5
374
100
AcDbEntity
  8
0
100
AcDbLine
 62
4
  6
CONTINUOUS
 10
11.5143856653
 20
9.9439483613
 11
11.5083247795
 21
9.9466653905
  0
LINE
  5
375
100
AcDbEntity
  8
0
100
AcDbLine
 62
4
  6
CONTINUOUS
 10
11.5828391077
 20
9.9414978043
 11
11.5888999934
 21
9.9387807751
  0
LINE
  5
376
100
AcDbEntity
  8
0
100
AcDbLine
 62
4
  6
CONTINUOUS
 10
11.6442019071
 20
9.9579126277
 11
11.6502627921
 21
9.9551955978
  0
LINE
  5
377
100
AcDbEntity
  8
0
100
AcDbLine
 62
7
  6
CONTINUOUS
 10
12.8324723379
 20
9.1585509196
 11
12.8324723379
 21
6.3815140045
  0
LINE
  5
378
100
AcDbEntity
  8
0
100
AcDbLine
 62
4
  6
CONTINUOUS
 10
9.0311647642
 20
10.2782694067
 11
8.9970106121
 21
10.2752790266
  0
LINE
  5
379
100
AcDbEntity
  8
0
100
AcDbLine
 62
4
  6
CONTINUOUS
 10
8.9980508547
 20
10.2912838234
 11
9.0151279302
 21
10.2927790131
  0
LINE
  5
37A
100
AcDbEntity
  8
0
100
AcDbLine
 62
7
  6
CONTINUOUS
 10
9.1675276621
 20
10.6184859955
 11
13.9971570797
 21
10.2835500578
  0
LINE
  5
37B
100
AcDbEntity
  8
0
100
AcDbLine
 62
4
  6
CONTINUOUS
 10
11.8214706299
 20
10.0994982313
 11
11.8095699303
 21
10.1030030372
  0
LINE
  5
37C
100
AcDbEntity
  8
0
100
AcDbLine
 62
4
  6
CONTINUOUS
 10
11.8670177769
 20
10.1284933999
 11
11.8789184772
 21
10.1249885946
  0
LINE
  5
37D
100
AcDbEntity
  8
0
100
AcDbLine
 62
4
  6
CONTINUOUS
 10
11.9829288803
 20
10.1204549375
 11
11.9948295806
 21
10.1169501323
  0
LINE
  5
37E
100
AcDbEntity
  8
0
100
AcDbLine
 62
4
  6
CONTINUOUS
 10
11.8095699303
 20
10.1030030372
 11
11.8002574188
 21
10.109007841
  0
LINE
  5
37F
100
AcDbEntity
  8
0
100
AcDbLine
 62
4
  6
CONTINUOUS
 10
11.8789184772
 20
10.1249885946
 11
11.8835747317
 21
10.1219861915
  0
LINE
  5
380
100
AcDbEntity
  8
0
100
AcDbLine
 62
4
  6
CONTINUOUS
 10
11.9948295806
 20
10.1169501323
 11
11.9994858351
 21
10.1139477292
  0
LINE
  5
381
100
AcDbEntity
  8
0
100
AcDbLine
 62
4
  6
CONTINUOUS
 10
9.0409973976
 20
10.2802670021
 11
9.0311647642
 21
10.2782694067
  0
LINE
  5
382
100
AcDbEntity
  8
0
100
AcDbLine
 62
4
  6
CONTINUOUS
 10
8.9970106121
 20
10.2752790266
 11
8.977345348
 21
10.2712838386
  0
LINE
  5
383
100
AcDbEntity
  8
0
100
AcDbLine
 62
4
  6
CONTINUOUS
 10
8.9882182212
 20
10.2892862281
 11
8.9980508547
 21
10.2912838234
  0
LINE
  5
384
100
AcDbEntity
  8
0
100
AcDbLine
 62
4
  6
CONTINUOUS
 10
13.4960579721
 20
9.9820254592
 11
13.5079586723
 21
9.978520654
  0
LINE
  5
385
100
AcDbEntity
  8
0
100
AcDbLine
 62
4
  6
CONTINUOUS
 10
13.5079586723
 20
9.978520654
 11
13.5126149268
 21
9.9755182509
  0
LINE
  5
386
100
AcDbEntity
  8
0
100
AcDbLine
 62
7
  6
CONTINUOUS
 10
12.8324723379
 20
6.3815140045
 11
13.9971570797
 21
7.5065131427
  0
LINE
  5
387
100
AcDbEntity
  8
0
100
AcDbLine
 62
7
  6
CONTINUOUS
 10
13.9971570797
 20
10.2835500578
 11
13.9971570797
 21
7.5065131427
  0
ARC
  5
388
100
AcDbEntity
  8
0
100
AcDbCircle
 62
7
  6
CONTINUOUS
 10
10.0192896316
 20
7.1100721156
 40
0.5163443539
100
AcDbArc
 50
25.7640228377
 51
32.3073428428
  0
ARC
  5
389
100
AcDbEntity
  8
0
100
AcDbCircle
 62
7
  6
CONTINUOUS
 10
10.0074522217
 20
7.102277407
 40
0.5163443539
100
AcDbArc
 50
205.7640228377
 51
212.3073428428
  0
ARC
  5
38A
100
AcDbEntity
  8
0
100
AcDbCircle
 62
7
  6
CONTINUOUS
 10
9.922637276
 20
7.0167131036
 40
0.5163443539
100
AcDbArc
 50
25.7640228377
 51
32.3073428428
  0
ARC
  5
38B
100
AcDbEntity
  8
0
100
AcDbCircle
 62
7
  6
CONTINUOUS
 10
10.0284974837
 20
7.14711669
 40
0.4792267106
100
AcDbArc
 50
82.590107291
 51
86.0275106487
  0
ARC
  5
38C
100
AcDbEntity
  8
0
100
AcDbCircle
 62
7
  6
CONTINUOUS
 10
9.9982443696
 20
7.0652328327
 40
0.4792267106
100
AcDbArc
 50
262.590107291
 51
266.0275106487
  0
ARC
  5
38D
100
AcDbEntity
  8
0
100
AcDbCircle
 62
7
  6
CONTINUOUS
 10
9.9318451281
 20
7.053757678
 40
0.4792267106
100
AcDbArc
 50
82.590107291
 51
86.0275106487
  0
ARC
  5
38E
100
AcDbEntity
  8
0
100
AcDbCircle
 62
7
  6
CONTINUOUS
 10
9.9978019754
 20
7.0592859494
 40
0.4732634681
100
AcDbArc
 50
266.0310634489
 51
269.4972694561
  0
ARC
  5
38F
100
AcDbEntity
  8
0
100
AcDbCircle
 62
7
  6
CONTINUOUS
 10
9.9322875222
 20
7.0597045612
 40
0.4732634681
100
AcDbArc
 50
86.0310634489
 51
89.4972694561
  0
ARC
  5
390
100
AcDbEntity
  8
0
100
AcDbCircle
 62
7
  6
CONTINUOUS
 10
10.0289786177
 20
7.1540558232
 40
0.4722709174
100
AcDbArc
 50
86.0274199487
 51
89.5009129563
  0
ARC
  5
391
100
AcDbEntity
  8
0
100
AcDbCircle
 62
7
  6
CONTINUOUS
 10
10.1011602777
 20
7.1106361685
 40
0.4313060869
100
AcDbArc
 50
325.2870362755
 51
332.6649360488
  0
ARC
  5
392
100
AcDbEntity
  8
0
100
AcDbCircle
 62
7
  6
CONTINUOUS
 10
9.9255815756
 20
7.1017133542
 40
0.4313060869
100
AcDbArc
 50
145.2870362755
 51
152.6649360488
  0
ARC
  5
393
100
AcDbEntity
  8
0
100
AcDbCircle
 62
7
  6
CONTINUOUS
 10
10.004507922
 20
7.0172771565
 40
0.4313060869
100
AcDbArc
 50
325.2870362755
 51
332.6649360488
  0
ARC
  5
394
100
AcDbEntity
  8
0
100
AcDbCircle
 62
7
  6
CONTINUOUS
 10
8.7151969266
 20
7.2411603055
 40
0.3831254553
100
AcDbArc
 50
312.2851843463
 51
313.3663107224
  0
ARC
  5
395
100
AcDbEntity
  8
0
100
AcDbCircle
 62
7
  6
CONTINUOUS
 10
8.6361015719
 20
7.3230439327
 40
0.3830281438
100
AcDbArc
 50
135.000681848
 51
135.7280938023
  0
ARC
  5
396
100
AcDbEntity
  8
0
100
AcDbCircle
 62
7
  6
CONTINUOUS
 10
10.0598133216
 20
7.2191305262
 40
0.3816725525
100
AcDbArc
 50
111.6464410246
 51
120.9132869054
  0
ARC
  5
397
100
AcDbEntity
  8
0
100
AcDbCircle
 62
7
  6
CONTINUOUS
 10
9.7851759779
 20
9.6936231678
 40
0.0159501782
100
AcDbArc
 50
349.7403897871
 51
359.9713926926
  0
ARC
  5
398
100
AcDbEntity
  8
0
100
AcDbCircle
 62
7
  6
CONTINUOUS
 10
12.6529236419
 20
9.9636548638
 40
0.0159501782
100
AcDbArc
 50
349.7403897869
 51
359.9713926927
  0
ARC
  5
399
100
AcDbEntity
  8
0
100
AcDbCircle
 62
7
  6
CONTINUOUS
 10
9.3470700607
 20
9.6936227665
 40
0.0159438806
100
AcDbArc
 50
180.0271763138
 51
190.1667088083
  0
ARC
  5
39A
100
AcDbEntity
  8
0
100
AcDbCircle
 62
7
  6
CONTINUOUS
 10
12.2148177246
 20
9.9636544625
 40
0.0159438806
100
AcDbArc
 50
180.0271763138
 51
190.1667088083
  0
SPLINE
  5
39B
100
AcDbEntity
  8
0
100
AcDbSpline
 62
7
  6
CONTINUOUS
 70
0
 71
3
 72
20
 73
16
 74
0
 42
0.0000001
 43
0.0000001
 44
0.0000000001
 40
0.0
 40
0.0
 40
0.0
 40
0.0
 40
0.1307130444
 40
0.2609290879
 40
0.3256870374
 40
0.3901050986
 40
0.4540966361
 40
0.517574691
 40
0.5804573165
 40
0.6426728974
 40
0.7041645318
 40
0.7648928072
 40
0.8248367025
 40
0.8839927538
 40
1.0
 40
1.0
 40
1.0
 40
1.0
 10
9.5424366871
 20
7.2997662134
 30
0.0
 10
9.541247402
 20
7.2814050718
 30
0.0
 10
9.5390900762
 20
7.24473808
 30
0.0
 10
9.5370436509
 20
7.1989370042
 30
0.0
 10
9.5358635022
 20
7.1624427709
 30
0.0
 10
9.5352216095
 20
7.1352590482
 30
0.0
 10
9.5348315994
 20
7.1082507056
 30
0.0
 10
9.5347000133
 20
7.0814559778
 30
0.0
 10
9.534829153
 20
7.0549112192
 30
0.0
 10
9.5352168565
 20
7.0286486236
 30
0.0
 10
9.535856697
 20
7.0026943152
 30
0.0
 10
9.5367385101
 20
6.9770670878
 30
0.0
 10
9.5378492139
 20
6.9517778375
 30
0.0
 10
9.5396036061
 20
6.9187295475
 30
0.0
 10
9.5412310113
 20
6.8941252425
 30
0.0
 10
9.5424366871
 20
6.8778402345
 30
0.0
  0
SPLINE
  5
39C
100
AcDbEntity
  8
0
100
AcDbSpline
 62
7
  6
CONTINUOUS
 70
0
 71
3
 72
21
 73
17
 74
0
 42
0.0000001
 43
0.0000001
 44
0.0000000001
 40
0.0
 40
0.0
 40
0.0
 40
0.0
 40
0.1211316245
 40
0.1823736293
 40
0.2440533566
 40
0.3061457671
 40
0.3686121396
 40
0.431400593
 40
0.4944480865
 40
0.5576838397
 40
0.6210337674
 40
0.6844252162
 40
0.7477912094
 40
0.811073636
 40
0.8742251276
 40
1.0
 40
1.0
 40
1.0
 40
1.0
 10
9.5710414098
 20
6.8263116572
 30
0.0
 10
9.5848722661
 20
6.8154334542
 30
0.0
 10
9.6058487264
 20
6.7992480286
 30
0.0
 10
9.6342574161
 20
6.7780379708
 30
0.0
 10
9.6559735
 20
6.762202114
 30
0.0
 10
9.6780203939
 20
6.7465212275
 30
0.0
 10
9.700391007
 20
6.7310210491
 30
0.0
 10
9.7230708757
 20
6.7157273827
 30
0.0
 10
9.7460385092
 20
6.7006645687
 30
0.0
 10
9.7692663742
 20
6.6858539785
 30
0.0
 10
9.792722515
 20
6.6713126395
 30
0.0
 10
9.8163725709
 20
6.6570522673
 30
0.0
 10
9.8401818308
 20
6.64307882
 30
0.0
 10
9.8641171417
 20
6.629392549
 30
0.0
 10
9.8961140788
 20
6.6115454295
 30
0.0
 10
9.9202801058
 20
6.5985332848
 30
0.0
 10
9.9364400261
 20
6.5900081876
 30
0.0
  0
SPLINE
  5
39D
100
AcDbEntity
  8
0
100
AcDbSpline
 62
7
  6
CONTINUOUS
 70
0
 71
3
 72
15
 73
11
 74
0
 42
0.0000001
 43
0.0000001
 44
0.0000000001
 40
0.0
 40
0.0
 40
0.0
 40
0.0
 40
0.1128138383
 40
0.2295637229
 40
0.3503753066
 40
0.4750618339
 40
0.60311002
 40
0.73378544
 40
0.8663079068
 40
1.0
 40
1.0
 40
1.0
 40
1.0
 10
9.9936494715
 20
6.5860406991
 30
0.0
 10
10.0076089633
 20
6.5925778923
 30
0.0
 10
10.0359680723
 20
6.6059808598
 30
0.0
 10
10.0790923143
 20
6.6267710663
 30
0.0
 10
10.1234985597
 20
6.6486339339
 30
0.0
 10
10.1690972759
 20
6.6715655899
 30
0.0
 10
10.2157047103
 20
6.6954871487
 30
0.0
 10
10.2630777929
 20
6.7202581238
 30
0.0
 10
10.3109647518
 20
6.7457076871
 30
0.0
 10
10.3429871441
 20
6.7629608182
 30
0.0
 10
10.3590480878
 20
6.7716632084
 30
0.0
  0
SPLINE
  5
39E
100
AcDbEntity
  8
0
100
AcDbSpline
 62
7
  6
CONTINUOUS
 70
0
 71
3
 72
22
 73
18
 74
0
 42
0.0000001
 43
0.0000001
 44
0.0000000001
 40
0.0
 40
0.0
 40
0.0
 40
0.0
 40
0.0662652743
 40
0.1328051367
 40
0.1995364916
 40
0.2663370505
 40
0.3994351903
 40
0.4652808744
 40
0.5303098216
 40
0.594262539
 40
0.6569110682
 40
0.7180810003
 40
0.777662912
 40
0.8356126734
 40
0.8919431812
 40
0.9467104377
 40
1.0
 40
1.0
 40
1.0
 40
1.0
 10
10.4843051661
 20
6.9125833093
 30
0.0
 10
10.4853018199
 20
6.9218739633
 30
0.0
 10
10.4872154295
 20
6.9405029047
 30
0.0
 10
10.4898106089
 20
6.9685197623
 30
0.0
 10
10.4921009895
 20
6.9966391643
 30
0.0
 10
10.494694141
 20
7.034147313
 30
0.0
 10
10.4965264504
 20
7.0715810817
 30
0.0
 10
10.4974691211
 20
7.1087928851
 30
0.0
 10
10.4977088797
 20
7.1362655016
 30
0.0
 10
10.4974769515
 20
7.1632873498
 30
0.0
 10
10.4967796455
 20
7.1897568918
 30
0.0
 10
10.4956358286
 20
7.2155939532
 30
0.0
 10
10.4940742368
 20
7.2407452496
 30
0.0
 10
10.4921300817
 20
7.265185261
 30
0.0
 10
10.4898416255
 20
7.2889133592
 30
0.0
 10
10.4872472506
 20
7.3119486125
 30
0.0
 10
10.4853127999
 20
7.3270628795
 30
0.0
 10
10.4843051661
 20
7.3345092882
 30
0.0
  0
SPLINE
  5
39F
100
AcDbEntity
  8
0
100
AcDbSpline
 62
7
  6
CONTINUOUS
 70
0
 71
3
 72
22
 73
18
 74
0
 42
0.0000001
 43
0.0000001
 44
0.0000000001
 40
0.0
 40
0.0
 40
0.0
 40
0.0
 40
0.0578996962
 40
0.1168101933
 40
0.1767600489
 40
0.2377470615
 40
0.2997283629
 40
0.3626113545
 40
0.4262509392
 40
0.4904549087
 40
0.5549987336
 40
0.6196477114
 40
0.6841805087
 40
0.7484081384
 40
0.8121847207
 40
0.8754100196
 40
1.0
 40
1.0
 40
1.0
 40
1.0
 10
10.4557004434
 20
7.3860378655
 30
0.0
 10
10.4494466493
 20
7.3916993112
 30
0.0
 10
10.4367397794
 20
7.4030220271
 30
0.0
 10
10.4172240668
 20
7.4198277222
 30
0.0
 10
10.3970580881
 20
7.4365613734
 30
0.0
 10
10.3762184998
 20
7.4531762356
 30
0.0
 10
10.3546988954
 20
7.4696147198
 30
0.0
 10
10.3325149219
 20
7.4858097721
 30
0.0
 10
10.3097074489
 20
7.5016883531
 30
0.0
 10
10.2863424596
 20
7.5171770048
 30
0.0
 10
10.2625070267
 20
7.5322088982
 30
0.0
 10
10.2383013358
 20
7.5467300998
 30
0.0
 10
10.2138291777
 20
7.5607045363
 30
0.0
 10
10.1891886708
 20
7.5741155084
 30
0.0
 10
10.1644652725
 20
7.5869646984
 30
0.0
 10
10.1316439326
 20
7.6032900613
 30
0.0
 10
10.1068496278
 20
7.6148797857
 30
0.0
 10
10.0903018272
 20
7.6223413351
 30
0.0
  0
SPLINE
  5
3A0
100
AcDbEntity
  8
0
100
AcDbSpline
 62
7
  6
CONTINUOUS
 70
0
 71
3
 72
15
 73
11
 74
0
 42
0.0000001
 43
0.0000001
 44
0.0000000001
 40
0.0
 40
0.0
 40
0.0
 40
0.0
 40
0.1024613676
 40
0.2125928618
 40
0.3308785969
 40
0.4568383157
 40
0.5888655796
 40
0.7247022368
 40
0.8622377903
 40
1.0
 40
1.0
 40
1.0
 40
1.0
 10
10.0330923817
 20
7.6263088236
 30
0.0
 10
10.0202486005
 20
7.6207272683
 30
0.0
 10
9.9936807148
 20
7.6089585402
 30
0.0
 10
9.95260711
 20
7.5900299695
 30
0.0
 10
9.9089375017
 20
7.569074242
 30
0.0
 10
9.862920656
 20
7.5461070487
 30
0.0
 10
9.8151120904
 20
7.5213714423
 30
0.0
 10
9.7662286851
 20
7.4952810358
 30
0.0
 10
9.7169411192
 20
7.4682909758
 30
0.0
 10
9.6840969526
 20
7.4499311108
 30
0.0
 10
9.6676937655
 20
7.4406863142
 30
0.0
  0
SPLINE
  5
3A1
100
AcDbEntity
  8
0
100
AcDbSpline
 62
7
  6
CONTINUOUS
 70
0
 71
3
 72
71
 73
67
 74
0
 42
0.0000001
 43
0.0000001
 44
0.0000000001
 40
0.0
 40
0.0
 40
0.0
 40
0.0
 40
0.0156216706
 40
0.0311907745
 40
0.0467067129
 40
0.0621710762
 40
0.0775850548
 40
0.0929506339
 40
0.1082702304
 40
0.1235467312
 40
0.1387834665
 40
0.1539841688
 40
0.1691529583
 40
0.18429428
 40
0.1994128679
 40
0.2145137035
 40
0.2296019564
 40
0.2446829193
 40
0.2597619759
 40
0.2748445272
 40
0.2899359312
 40
0.3050414546
 40
0.3201662202
 40
0.3353151335
 40
0.3504928522
 40
0.365703735
 40
0.3809517875
 40
0.3962406261
 40
0.4115734583
 40
0.4269530346
 40
0.4423816308
 40
0.4578610394
 40
0.4733925444
 40
0.4889769098
 40
0.5046143965
 40
0.520304754
 40
0.5360472182
 40
0.5518405387
 40
0.5676829933
 40
0.5835723969
 40
0.5995061365
 40
0.615481204
 40
0.6314942052
 40
0.6475414082
 40
0.6636187847
 40
0.6797220354
 40
0.695846625
 40
0.7119878439
 40
0.7281408301
 40
0.744300616
 40
0.7604621807
 40
0.7766204909
 40
0.7927705277
 40
0.8089073567
 40
0.8250261591
 40
0.8411222663
 40
0.8571912088
 40
0.8732287682
 40
0.8892309912
 40
0.9051942477
 40
0.9211152546
 40
0.9369911073
 40
0.9528193701
 40
0.9685977523
 40
0.9843253342
 40
1.0
 40
1.0
 40
1.0
 40
1.0
 10
9.9562284306
 20
6.6356312155
 30
0.0
 10
9.9630122487
 20
6.6351607561
 30
0.0
 10
9.9765823535
 20
6.6345516703
 30
0.0
 10
9.9969214517
 20
6.6346397084
 30
0.0
 10
10.0171634598
 20
6.6357308777
 30
0.0
 10
10.0372587308
 20
6.6378224071
 30
0.0
 10
10.0571592059
 20
6.640909458
 30
0.0
 10
10.0768167926
 20
6.6449845968
 30
0.0
 10
10.0961841397
 20
6.6500380446
 30
0.0
 10
10.1152145508
 20
6.6560576614
 30
0.0
 10
10.1338621386
 20
6.6630289749
 30
0.0
 10
10.1520819266
 20
6.6709352345
 30
0.0
 10
10.1698299608
 20
6.6797574246
 30
0.0
 10
10.187063438
 20
6.6894742825
 30
0.0
 10
10.203740788
 20
6.700062394
 30
0.0
 10
10.2198217774
 20
6.711496247
 30
0.0
 10
10.235267602
 20
6.7237482905
 30
0.0
 10
10.2500409893
 20
6.7367889916
 30
0.0
 10
10.2641063155
 20
6.7505868816
 30
0.0
 10
10.2774296615
 20
6.7651086753
 30
0.0
 10
10.2899788953
 20
6.7803193421
 30
0.0
 10
10.3017237468
 20
6.7961821974
 30
0.0
 10
10.3126358961
 20
6.8126589743
 30
0.0
 10
10.3226890675
 20
6.8297099076
 30
0.0
 10
10.3318590477
 20
6.8472938618
 30
0.0
 10
10.3401237573
 20
6.8653684229
 30
0.0
 10
10.347463288
 20
6.8838900027
 30
0.0
 10
10.3538599808
 20
6.9028139327
 30
0.0
 10
10.359298479
 20
6.9220945738
 30
0.0
 10
10.3637657275
 20
6.941685441
 30
0.0
 10
10.3672510044
 20
6.9615393114
 30
0.0
 10
10.3697459432
 20
6.9816083376
 30
0.0
 10
10.3712445796
 20
7.0018441559
 30
0.0
 10
10.3717433759
 20
7.0221980074
 30
0.0
 10
10.3712411814
 20
7.0426208608
 30
0.0
 10
10.3697392526
 20
7.0630635267
 30
0.0
 10
10.3672412314
 20
7.0834767698
 30
0.0
 10
10.3637531815
 20
7.1038114323
 30
0.0
 10
10.3592835616
 20
7.1240185558
 30
0.0
 10
10.3538431771
 20
7.1440494923
 30
0.0
 10
10.3474451564
 20
7.1638560211
 30
0.0
 10
10.3401049171
 20
7.1833904585
 30
0.0
 10
10.3318401649
 20
7.2026057844
 30
0.0
 10
10.3226708393
 20
7.2214557552
 30
0.0
 10
10.3126190354
 20
7.2398950048
 30
0.0
 10
10.3017089655
 20
7.257879153
 30
0.0
 10
10.2899668882
 20
7.2753649043
 30
0.0
 10
10.2774210893
 20
7.2923101777
 30
0.0
 10
10.2641017889
 20
7.3086741992
 30
0.0
 10
10.2500410549
 20
7.3244175833
 30
0.0
 10
10.2352727292
 20
7.3395024331
 30
0.0
 10
10.2198323467
 20
7.3538924212
 30
0.0
 10
10.2037570811
 20
7.3675529141
 30
0.0
 10
10.1870856318
 20
7.3804510332
 30
0.0
 10
10.1698581224
 20
7.392555725
 30
0.0
 10
10.1521160109
 20
7.4038378326
 30
0.0
 10
10.1339019872
 20
7.4142701637
 30
0.0
 10
10.1152598964
 20
7.4238275962
 30
0.0
 10
10.0962346116
 20
7.4324871148
 30
0.0
 10
10.0768719223
 20
7.4402278424
 30
0.0
 10
10.057218437
 20
7.4470311071
 30
0.0
 10
10.0373214287
 20
7.4528804953
 30
0.0
 10
10.0172289186
 20
7.4577618251
 30
0.0
 10
9.9969889313
 20
7.4616635008
 30
0.0
 10
9.9766510525
 20
7.4645757761
 30
0.0
 10
9.9630352623
 20
7.4658554199
 30
0.0
 10
9.9562284306
 20
7.4663274753
 30
0.0
  0
SPLINE
  5
3A2
100
AcDbEntity
  8
0
100
AcDbSpline
 62
7
  6
CONTINUOUS
 70
0
 71
3
 72
71
 73
67
 74
0
 42
0.0000001
 43
0.0000001
 44
0.0000000001
 40
0.0
 40
0.0
 40
0.0
 40
0.0
 40
0.0156216706
 40
0.0311907745
 40
0.0467067129
 40
0.0621710762
 40
0.0775850548
 40
0.0929506339
 40
0.1082702304
 40
0.1235467312
 40
0.1387834665
 40
0.1539841688
 40
0.1691529583
 40
0.18429428
 40
0.1994128679
 40
0.2145137035
 40
0.2296019564
 40
0.2446829193
 40
0.2597619759
 40
0.2748445272
 40
0.2899359312
 40
0.3050414546
 40
0.3201662202
 40
0.3353151335
 40
0.3504928522
 40
0.365703735
 40
0.3809517875
 40
0.3962406261
 40
0.4115734583
 40
0.4269530346
 40
0.4423816308
 40
0.4578610394
 40
0.4733925444
 40
0.4889769098
 40
0.5046143965
 40
0.520304754
 40
0.5360472182
 40
0.5518405387
 40
0.5676829933
 40
0.5835723969
 40
0.5995061365
 40
0.615481204
 40
0.6314942052
 40
0.6475414082
 40
0.6636187847
 40
0.6797220354
 40
0.695846625
 40
0.7119878439
 40
0.7281408301
 40
0.744300616
 40
0.7604621807
 40
0.7766204909
 40
0.7927705277
 40
0.8089073567
 40
0.8250261591
 40
0.8411222663
 40
0.8571912088
 40
0.8732287682
 40
0.8892309912
 40
0.9051942477
 40
0.9211152546
 40
0.9369911073
 40
0.9528193701
 40
0.9685977523
 40
0.9843253342
 40
1.0
 40
1.0
 40
1.0
 40
1.0
 10
9.9562284306
 20
7.4663274753
 30
0.0
 10
9.9494446125
 20
7.4667979347
 30
0.0
 10
9.9358745077
 20
7.4674070204
 30
0.0
 10
9.9155354095
 20
7.4673189823
 30
0.0
 10
9.8952934015
 20
7.4662278131
 30
0.0
 10
9.8751981305
 20
7.4641362837
 30
0.0
 10
9.8552976554
 20
7.4610492328
 30
0.0
 10
9.8356400687
 20
7.456974094
 30
0.0
 10
9.8162727215
 20
7.4519206461
 30
0.0
 10
9.7972423104
 20
7.4459010294
 30
0.0
 10
9.7785947226
 20
7.4389297159
 30
0.0
 10
9.7603749346
 20
7.4310234563
 30
0.0
 10
9.7426269004
 20
7.4222012662
 30
0.0
 10
9.7253934232
 20
7.4124844083
 30
0.0
 10
9.7087160733
 20
7.4018962967
 30
0.0
 10
9.6926350838
 20
7.3904624438
 30
0.0
 10
9.6771892593
 20
7.3782104003
 30
0.0
 10
9.662415872
 20
7.3651696992
 30
0.0
 10
9.6483505457
 20
7.3513718092
 30
0.0
 10
9.6350271997
 20
7.3368500154
 30
0.0
 10
9.6224779659
 20
7.3216393486
 30
0.0
 10
9.6107331144
 20
7.3057764933
 30
0.0
 10
9.5998209651
 20
7.2892997165
 30
0.0
 10
9.5897677938
 20
7.2722487832
 30
0.0
 10
9.5805978136
 20
7.254664829
 30
0.0
 10
9.5723331039
 20
7.2365902679
 30
0.0
 10
9.5649935732
 20
7.2180686881
 30
0.0
 10
9.5585968804
 20
7.199144758
 30
0.0
 10
9.5531583822
 20
7.1798641169
 30
0.0
 10
9.5486911337
 20
7.1602732497
 30
0.0
 10
9.5452058568
 20
7.1404193794
 30
0.0
 10
9.5427109181
 20
7.1203503531
 30
0.0
 10
9.5412122816
 20
7.1001145348
 30
0.0
 10
9.5407134853
 20
7.0797606834
 30
0.0
 10
9.5412156799
 20
7.0593378299
 30
0.0
 10
9.5427176086
 20
7.0388951641
 30
0.0
 10
9.5452156298
 20
7.0184819209
 30
0.0
 10
9.5487036797
 20
6.9981472584
 30
0.0
 10
9.5531732997
 20
6.977940135
 30
0.0
 10
9.5586136841
 20
6.9579091985
 30
0.0
 10
9.5650117049
 20
6.9381026697
 30
0.0
 10
9.5723519441
 20
6.9185682323
 30
0.0
 10
9.5806166963
 20
6.8993529064
 30
0.0
 10
9.5897860219
 20
6.8805029356
 30
0.0
 10
9.5998378259
 20
6.862063686
 30
0.0
 10
9.6107478958
 20
6.8440795378
 30
0.0
 10
9.622489973
 20
6.8265937865
 30
0.0
 10
9.6350357719
 20
6.8096485131
 30
0.0
 10
9.6483550724
 20
6.7932844915
 30
0.0
 10
9.6624158064
 20
6.7775411074
 30
0.0
 10
9.677184132
 20
6.7624562576
 30
0.0
 10
9.6926245146
 20
6.7480662696
 30
0.0
 10
9.7086997802
 20
6.7344057766
 30
0.0
 10
9.7253712294
 20
6.7215076575
 30
0.0
 10
9.7425987388
 20
6.7094029657
 30
0.0
 10
9.7603408503
 20
6.6981208582
 30
0.0
 10
9.778554874
 20
6.687688527
 30
0.0
 10
9.7971969649
 20
6.6781310946
 30
0.0
 10
9.8162222497
 20
6.6694715759
 30
0.0
 10
9.8355849389
 20
6.6617308483
 30
0.0
 10
9.8552384242
 20
6.6549275837
 30
0.0
 10
9.8751354325
 20
6.6490781955
 30
0.0
 10
9.8952279426
 20
6.6441968656
 30
0.0
 10
9.9154679299
 20
6.6402951899
 30
0.0
 10
9.9358058088
 20
6.6373829147
 30
0.0
 10
9.9494215989
 20
6.6361032708
 30
0.0
 10
9.9562284306
 20
6.6356312155
 30
0.0
  0
SPLINE
  5
3A3
100
AcDbEntity
  8
0
100
AcDbSpline
 62
7
  6
CONTINUOUS
 70
0
 71
3
 72
20
 73
16
 74
0
 42
0.0000001
 43
0.0000001
 44
0.0000000001
 40
0.0
 40
0.0
 40
0.0
 40
0.0
 40
0.1160072463
 40
0.1751632975
 40
0.2351071928
 40
0.2958354683
 40
0.3573271027
 40
0.4195426835
 40
0.482425309
 40
0.5459033639
 40
0.6098949014
 40
0.6743129626
 40
0.7390709121
 40
0.8692869556
 40
1.0
 40
1.0
 40
1.0
 40
1.0
 10
10.3876528105
 20
6.8192242972
 30
0.0
 10
10.3864471347
 20
6.8355093053
 30
0.0
 10
10.3848197295
 20
6.8601136103
 30
0.0
 10
10.3830653373
 20
6.8931619003
 30
0.0
 10
10.3819546334
 20
6.9184511506
 30
0.0
 10
10.3810728204
 20
6.9440783779
 30
0.0
 10
10.3804329799
 20
6.9700326864
 30
0.0
 10
10.3800452764
 20
6.996295282
 30
0.0
 10
10.3799161367
 20
7.0228400406
 30
0.0
 10
10.3800477228
 20
7.0496347684
 30
0.0
 10
10.3804377328
 20
7.076643111
 30
0.0
 10
10.3810796255
 20
7.1038268337
 30
0.0
 10
10.3822597743
 20
7.1403210669
 30
0.0
 10
10.3843061996
 20
7.1861221428
 30
0.0
 10
10.3864635254
 20
7.2227891345
 30
0.0
 10
10.3876528105
 20
7.2411502762
 30
0.0
  0
SPLINE
  5
3A4
100
AcDbEntity
  8
0
100
AcDbSpline
 62
7
  6
CONTINUOUS
 70
0
 71
3
 72
21
 73
17
 74
0
 42
0.0000001
 43
0.0000001
 44
0.0000000001
 40
0.0
 40
0.0
 40
0.0
 40
0.0
 40
0.1257748724
 40
0.188926364
 40
0.2522087907
 40
0.3155747839
 40
0.3789662327
 40
0.4423161603
 40
0.5055519135
 40
0.5685994071
 40
0.6313878604
 40
0.6938542329
 40
0.7559466435
 40
0.8176263707
 40
0.8788683755
 40
1.0
 40
1.0
 40
1.0
 40
1.0
 10
10.3590480878
 20
7.2926788535
 30
0.0
 10
10.3428881675
 20
7.3012039507
 30
0.0
 10
10.3187221405
 20
7.3142160954
 30
0.0
 10
10.2867252034
 20
7.3320632149
 30
0.0
 10
10.2627898925
 20
7.345749486
 30
0.0
 10
10.2389806326
 20
7.3597229332
 30
0.0
 10
10.2153305767
 20
7.3739833054
 30
0.0
 10
10.1918744359
 20
7.3885246445
 30
0.0
 10
10.1686465709
 20
7.4033352346
 30
0.0
 10
10.1456789374
 20
7.4183980486
 30
0.0
 10
10.1229990687
 20
7.433691715
 30
0.0
 10
10.1006284556
 20
7.4491918934
 30
0.0
 10
10.0785815617
 20
7.4648727799
 30
0.0
 10
10.0568654778
 20
7.4807086367
 30
0.0
 10
10.0284567881
 20
7.5019186945
 30
0.0
 10
10.0074803278
 20
7.5181041201
 30
0.0
 10
9.9936494715
 20
7.5289823231
 30
0.0
  0
SPLINE
  5
3A5
100
AcDbEntity
  8
0
100
AcDbSpline
 62
7
  6
CONTINUOUS
 70
0
 71
3
 72
15
 73
11
 74
0
 42
0.0000001
 43
0.0000001
 44
0.0000000001
 40
0.0
 40
0.0
 40
0.0
 40
0.0
 40
0.1336920932
 40
0.2662145601
 40
0.39688998
 40
0.5249381662
 40
0.6496246935
 40
0.7704362771
 40
0.8871861617
 40
1.0
 40
1.0
 40
1.0
 40
1.0
 10
9.9364400261
 20
7.5329498116
 30
0.0
 10
9.9203790824
 20
7.5242474213
 30
0.0
 10
9.8883566901
 20
7.5069942902
 30
0.0
 10
9.8404697312
 20
7.4815447269
 30
0.0
 10
9.7930966486
 20
7.4567737519
 30
0.0
 10
9.7464892142
 20
7.432852193
 30
0.0
 10
9.700890498
 20
7.409920537
 30
0.0
 10
9.6564842526
 20
7.3880576695
 30
0.0
 10
9.6133600106
 20
7.367267463
 30
0.0
 10
9.5850009016
 20
7.3538644955
 30
0.0
 10
9.5710414098
 20
7.3473273022
 30
0.0
  0
SPLINE
  5
3A6
100
AcDbEntity
  8
0
100
AcDbSpline
 62
7
  6
CONTINUOUS
 70
0
 71
3
 72
23
 73
19
 74
0
 42
0.0000001
 43
0.0000001
 44
0.0000000001
 40
0.0
 40
0.0
 40
0.0
 40
0.0
 40
0.0637770475
 40
0.1273448957
 40
0.1907019676
 40
0.2538561301
 40
0.3168131969
 40
0.3795820893
 40
0.4421733857
 40
0.5045993357
 40
0.5668738673
 40
0.6290123829
 40
0.6910316518
 40
0.7529496446
 40
0.8147853543
 40
0.8765586057
 40
0.9382898574
 40
1.0
 40
1.0
 40
1.0
 40
1.0
 10
9.0924075122
 20
7.2445920583
 30
0.0
 10
9.0924075122
 20
7.237803417
 30
0.0
 10
9.0920825754
 20
7.224246102
 30
0.0
 10
9.0906160025
 20
7.2039926036
 30
0.0
 10
9.0881741358
 20
7.1838996522
 30
0.0
 10
9.0847628228
 20
7.1640144144
 30
0.0
 10
9.080389688
 20
7.1443823601
 30
0.0
 10
9.0750648289
 20
7.1250488711
 30
0.0
 10
9.0688004909
 20
7.106058486
 30
0.0
 10
9.0616110709
 20
7.0874549979
 30
0.0
 10
9.053513103
 20
7.0692813141
 30
0.0
 10
9.0445251969
 20
7.0515793656
 30
0.0
 10
9.0346680742
 20
7.0343899806
 30
0.0
 10
9.0239644422
 20
7.0177527979
 30
0.0
 10
9.0124389989
 20
7.0017062347
 30
0.0
 10
9.0001181605
 20
6.9862871987
 30
0.0
 10
8.9870308223
 20
6.9715317477
 30
0.0
 10
8.9778133188
 20
6.9621581297
 30
0.0
 10
8.9730888009
 20
6.9575945926
 30
0.0
  0
SPLINE
  5
3A7
100
AcDbEntity
  8
0
100
AcDbSpline
 62
7
  6
CONTINUOUS
 70
0
 71
3
 72
60
 73
56
 74
0
 42
0.0000001
 43
0.0000001
 44
0.0000000001
 40
0.0
 40
0.0
 40
0.0
 40
0.0
 40
0.0081223406
 40
0.0169168431
 40
0.0264086323
 40
0.0366142687
 40
0.0475414355
 40
0.0591910158
 40
0.0715584107
 40
0.0846344949
 40
0.0984062802
 40
0.1128573064
 40
0.1279683357
 40
0.1437174554
 40
0.1600804353
 40
0.1770310661
 40
0.1945411268
 40
0.2125807894
 40
0.2501207279
 40
0.2893847263
 40
0.3300867172
 40
0.371925751
 40
0.4145894152
 40
0.4577571198
 40
0.5011033266
 40
0.5443007676
 40
0.587023623
 40
0.6289507091
 40
0.6697687274
 40
0.7091755587
 40
0.746883655
 40
0.7650162944
 40
0.7826249702
 40
0.7996794705
 40
0.816151351
 40
0.8320139955
 40
0.8472427493
 40
0.8618153589
 40
0.8757119742
 40
0.8889156572
 40
0.9014127819
 40
0.9131933641
 40
0.9242520195
 40
0.9345885809
 40
0.9442093339
 40
0.9531286836
 40
0.9613709339
 40
0.9689732146
 40
0.9759886454
 40
0.9824900322
 40
0.9885734237
 40
0.9914974427
 40
0.9943641479
 40
0.9971919194
 40
1.0
 40
1.0
 40
1.0
 40
1.0
 10
9.7572439035
 20
10.477108177
 30
0.0
 10
9.7563911275
 20
10.4762844587
 30
0.0
 10
9.7545345621
 20
10.474651086
 30
0.0
 10
9.7514528253
 20
10.4723303791
 30
0.0
 10
9.747972568
 20
10.4700484931
 30
0.0
 10
9.7441008406
 20
10.4678098284
 30
0.0
 10
9.7398449163
 20
10.4656184061
 30
0.0
 10
9.7352130545
 20
10.4634785977
 30
0.0
 10
9.7302143729
 20
10.4613945899
 30
0.0
 10
9.7248587607
 20
10.4593705629
 30
0.0
 10
9.7191568712
 20
10.4574106373
 30
0.0
 10
9.713120118
 20
10.4555187397
 30
0.0
 10
9.706760603
 20
10.4536987537
 30
0.0
 10
9.7000911139
 20
10.4519543716
 30
0.0
 10
9.6931250821
 20
10.4502891256
 30
0.0
 10
9.6858765509
 20
10.4487064544
 30
0.0
 10
9.6783601383
 20
10.4472095142
 30
0.0
 10
9.6678616391
 20
10.4453068193
 30
0.0
 10
9.6541796253
 20
10.4431754424
 30
0.0
 10
9.6371588467
 20
10.4410351356
 30
0.0
 10
9.6194617121
 20
10.4392972326
 30
0.0
 10
9.6012312
 20
10.4379760116
 30
0.0
 10
9.582614479
 20
10.437082377
 30
0.0
 10
9.5637619593
 20
10.4366236875
 30
0.0
 10
9.5448259742
 20
10.4366037105
 30
0.0
 10
9.5259595477
 20
10.4370226083
 30
0.0
 10
9.5073151274
 20
10.437876934
 30
0.0
 10
9.4890433532
 20
10.439159668
 30
0.0
 10
9.4712917362
 20
10.4408602224
 30
0.0
 10
9.4542036985
 20
10.4429646263
 30
0.0
 10
9.4404575304
 20
10.4450667042
 30
0.0
 10
9.4299016111
 20
10.4469467276
 30
0.0
 10
9.4223380936
 20
10.448427719
 30
0.0
 10
9.41503974
 20
10.4499950427
 30
0.0
 10
9.4080212647
 20
10.4516455139
 30
0.0
 10
9.4012968228
 20
10.4533757547
 30
0.0
 10
9.3948799629
 20
10.455182278
 30
0.0
 10
9.3887835834
 20
10.4570613618
 30
0.0
 10
9.3830199231
 20
10.4590092162
 30
0.0
 10
9.3776005159
 20
10.4610218892
 30
0.0
 10
9.372536153
 20
10.4630952799
 30
0.0
 10
9.3678368858
 20
10.4652252774
 30
0.0
 10
9.3635119409
 20
10.4674076052
 30
0.0
 10
9.3595697362
 20
10.4696380169
 30
0.0
 10
9.3560178613
 20
10.4719123177
 30
0.0
 10
9.352863013
 20
10.4742263371
 30
0.0
 10
9.3501111577
 20
10.4765762787
 30
0.0
 10
9.3477675755
 20
10.4789585595
 30
0.0
 10
9.3458371647
 20
10.4813702986
 30
0.0
 10
9.3443252349
 20
10.4838082532
 30
0.0
 10
9.3434067933
 20
10.4858875468
 30
0.0
 10
9.342899413
 20
10.4875466437
 30
0.0
 10
9.3426307477
 20
10.4887772369
 30
0.0
 10
9.3424694488
 20
10.4900093023
 30
0.0
 10
9.342433557
 20
10.4908324271
 30
0.0
 10
9.3424335545
 20
10.4912423297
 30
0.0
  0
SPLINE
  5
3A8
100
AcDbEntity
  8
0
100
AcDbSpline
 62
7
  6
CONTINUOUS
 70
0
 71
3
 72
60
 73
56
 74
0
 42
0.0000001
 43
0.0000001
 44
0.0000000001
 40
0.0
 40
0.0
 40
0.0
 40
0.0
 40
0.0081223406
 40
0.0169168431
 40
0.0264086323
 40
0.0366142687
 40
0.0475414355
 40
0.0591910158
 40
0.0715584107
 40
0.0846344949
 40
0.0984062802
 40
0.1128573064
 40
0.1279683357
 40
0.1437174554
 40
0.1600804353
 40
0.1770310661
 40
0.1945411268
 40
0.2125807894
 40
0.2501207279
 40
0.2893847263
 40
0.3300867172
 40
0.371925751
 40
0.4145894152
 40
0.4577571198
 40
0.5011033266
 40
0.5443007676
 40
0.587023623
 40
0.6289507091
 40
0.6697687274
 40
0.7091755587
 40
0.746883655
 40
0.7650162944
 40
0.7826249702
 40
0.7996794705
 40
0.816151351
 40
0.8320139955
 40
0.8472427493
 40
0.8618153589
 40
0.8757119742
 40
0.8889156572
 40
0.9014127819
 40
0.9131933641
 40
0.9242520195
 40
0.9345885809
 40
0.9442093339
 40
0.9531286836
 40
0.9613709339
 40
0.9689732146
 40
0.9759886454
 40
0.9824900322
 40
0.9885734237
 40
0.9914974427
 40
0.9943641479
 40
0.9971919194
 40
1.0
 40
1.0
 40
1.0
 40
1.0
 10
12.6503768194
 20
9.271660145
 30
0.0
 10
12.6495240435
 20
9.2708364266
 30
0.0
 10
12.647667478
 20
9.269203054
 30
0.0
 10
12.6445857412
 20
9.2668823471
 30
0.0
 10
12.641105484
 20
9.2646004611
 30
0.0
 10
12.6372337566
 20
9.2623617963
 30
0.0
 10
12.6329778323
 20
9.2601703741
 30
0.0
 10
12.6283459704
 20
9.2580305656
 30
0.0
 10
12.6233472889
 20
9.2559465579
 30
0.0
 10
12.6179916767
 20
9.2539225309
 30
0.0
 10
12.6122897871
 20
9.2519626053
 30
0.0
 10
12.606253034
 20
9.2500707077
 30
0.0
 10
12.5998935189
 20
9.2482507217
 30
0.0
 10
12.5932240298
 20
9.2465063395
 30
0.0
 10
12.5862579981
 20
9.2448410936
 30
0.0
 10
12.5790094669
 20
9.2432584224
 30
0.0
 10
12.5714930542
 20
9.2417614822
 30
0.0
 10
12.5609945551
 20
9.2398587873
 30
0.0
 10
12.5473125412
 20
9.2377274104
 30
0.0
 10
12.5302917626
 20
9.2355871035
 30
0.0
 10
12.5125946281
 20
9.2338492006
 30
0.0
 10
12.494364116
 20
9.2325279796
 30
0.0
 10
12.475747395
 20
9.231634345
 30
0.0
 10
12.4568948753
 20
9.2311756554
 30
0.0
 10
12.4379588901
 20
9.2311556785
 30
0.0
 10
12.4190924636
 20
9.2315745763
 30
0.0
 10
12.4004480434
 20
9.232428902
 30
0.0
 10
12.3821762692
 20
9.2337116359
 30
0.0
 10
12.3644246522
 20
9.2354121903
 30
0.0
 10
12.3473366145
 20
9.2375165942
 30
0.0
 10
12.3335904464
 20
9.2396186722
 30
0.0
 10
12.323034527
 20
9.2414986955
 30
0.0
 10
12.3154710096
 20
9.242979687
 30
0.0
 10
12.3081726559
 20
9.2445470106
 30
0.0
 10
12.3011541806
 20
9.2461974819
 30
0.0
 10
12.2944297387
 20
9.2479277227
 30
0.0
 10
12.2880128789
 20
9.2497342459
 30
0.0
 10
12.2819164994
 20
9.2516133298
 30
0.0
 10
12.2761528391
 20
9.2535611842
 30
0.0
 10
12.2707334319
 20
9.2555738572
 30
0.0
 10
12.2656690689
 20
9.2576472479
 30
0.0
 10
12.2609698017
 20
9.2597772454
 30
0.0
 10
12.2566448569
 20
9.2619595731
 30
0.0
 10
12.2527026522
 20
9.2641899849
 30
0.0
 10
12.2491507772
 20
9.2664642857
 30
0.0
 10
12.2459959289
 20
9.2687783051
 30
0.0
 10
12.2432440737
 20
9.2711282467
 30
0.0
 10
12.2409004915
 20
9.2735105275
 30
0.0
 10
12.2389700807
 20
9.2759222666
 30
0.0
 10
12.2374581508
 20
9.2783602212
 30
0.0
 10
12.2365397092
 20
9.2804395148
 30
0.0
 10
12.2360323289
 20
9.2820986116
 30
0.0
 10
12.2357636637
 20
9.2833292049
 30
0.0
 10
12.2356023647
 20
9.2845612703
 30
0.0
 10
12.2355664729
 20
9.2853843951
 30
0.0
 10
12.2355664704
 20
9.2857942977
 30
0.0
  0
SPLINE
  5
3A9
100
AcDbEntity
  8
0
100
AcDbSpline
 62
7
  6
CONTINUOUS
 70
0
 71
3
 72
71
 73
67
 74
0
 42
0.0000001
 43
0.0000001
 44
0.0000000001
 40
0.0
 40
0.0
 40
0.0
 40
0.0
 40
0.0081224021
 40
0.0169165279
 40
0.0264081434
 40
0.0366136729
 40
0.0475406687
 40
0.0591900386
 40
0.0715572362
 40
0.0846331289
 40
0.0984046806
 40
0.1128554936
 40
0.1279662701
 40
0.143715139
 40
0.1600778855
 40
0.177028224
 40
0.1945380126
 40
0.212577401
 40
0.231114962
 40
0.2501178742
 40
0.2695520505
 40
0.2893822318
 40
0.309572107
 40
0.3300844497
 40
0.3719228157
 40
0.4145857826
 40
0.4577527732
 40
0.5010982541
 40
0.5442949581
 40
0.5870170731
 40
0.6289434202
 40
0.6697607121
 40
0.6896589881
 40
0.7091677946
 40
0.728251669
 40
0.7468762811
 40
0.7650085828
 40
0.7826169028
 40
0.7996710734
 40
0.816142615
 40
0.8320049142
 40
0.8472333772
 40
0.8618056538
 40
0.8757019563
 40
0.8889053604
 40
0.9014021796
 40
0.9131824955
 40
0.9242408713
 40
0.9345771718
 40
0.9394767076
 40
0.9441987541
 40
0.9487453348
 40
0.9531191585
 40
0.9573236229
 40
0.9613628726
 40
0.9652420105
 40
0.9689670917
 40
0.9725452814
 40
0.9759850272
 40
0.9824862539
 40
0.9855751478
 40
0.9885736479
 40
0.9914976047
 40
0.9943642476
 40
0.9971919638
 40
1.0
 40
1.0
 40
1.0
 40
1.0
 10
9.9911335568
 20
9.724028247
 30
0.0
 10
9.9893552091
 20
9.722310495
 30
0.0
 10
9.9854837278
 20
9.7189043725
 30
0.0
 10
9.9790573058
 20
9.7140650432
 30
0.0
 10
9.9717999294
 20
9.7093066296
 30
0.0
 10
9.9637261808
 20
9.7046382502
 30
0.0
 10
9.954851198
 20
9.7000685052
 30
0.0
 10
9.9451923264
 20
9.6956063156
 30
0.0
 10
9.9347685078
 20
9.6912604995
 30
0.0
 10
9.9236003616
 20
9.6870397956
 30
0.0
 10
9.9117101289
 20
9.6829527182
 30
0.0
 10
9.8991215954
 20
9.6790075435
 30
0.0
 10
9.8858600081
 20
9.675212294
 30
0.0
 10
9.8719520211
 20
9.6715747094
 30
0.0
 10
9.8574256466
 20
9.6681021848
 30
0.0
 10
9.8423101767
 20
9.664801789
 30
0.0
 10
9.826636108
 20
9.6616802521
 30
0.0
 10
9.8104350877
 20
9.6587439423
 30
0.0
 10
9.7937398522
 20
9.6559988246
 30
0.0
 10
9.7765841459
 20
9.6534504876
 30
0.0
 10
9.7590026454
 20
9.6511041273
 30
0.0
 10
9.7410309106
 20
9.6489645274
 30
0.0
 10
9.7227052632
 20
9.647036001
 30
0.0
 10
9.6976844827
 20
9.644736345
 30
0.0
 10
9.6657979132
 20
9.6424255992
 30
0.0
 10
9.6269763359
 20
9.6405620737
 30
0.0
 10
9.587662896
 20
9.6396056042
 30
0.0
 10
9.5481754547
 20
9.6395639557
 30
0.0
 10
9.5088330763
 20
9.6404375353
 30
0.0
 10
9.4699536224
 20
9.6422190942
 30
0.0
 10
9.4318514171
 20
9.644894067
 30
0.0
 10
9.4007452958
 20
9.6478738242
 30
0.0
 10
9.3764881053
 20
9.6506997359
 30
0.0
 10
9.3588329918
 20
9.6530088795
 30
0.0
 10
9.341597294
 20
9.6555208675
 30
0.0
 10
9.3248158317
 20
9.6582306313
 30
0.0
 10
9.3085225266
 20
9.6611326314
 30
0.0
 10
9.2927502947
 20
9.6642209579
 30
0.0
 10
9.2775309946
 20
9.6674893311
 30
0.0
 10
9.2628953426
 20
9.670931095
 30
0.0
 10
9.2488728445
 20
9.6745392254
 30
0.0
 10
9.2354917453
 20
9.6783063737
 30
0.0
 10
9.2227789639
 20
9.682224888
 30
0.0
 10
9.2107600112
 20
9.6862867922
 30
0.0
 10
9.1994589213
 20
9.6904838379
 30
0.0
 10
9.1888982449
 20
9.6948075409
 30
0.0
 10
9.1790988369
 20
9.6992492546
 30
0.0
 10
9.1700802416
 20
9.7038000761
 30
0.0
 10
9.1631104308
 20
9.7077433368
 30
0.0
 10
9.1579517788
 20
9.7109536214
 30
0.0
 10
9.1543583899
 20
9.7133398463
 30
0.0
 10
9.1509731008
 20
9.7157464787
 30
0.0
 10
9.1477975736
 20
9.7181723535
 30
0.0
 10
9.1448333711
 20
9.7206162765
 30
0.0
 10
9.142082019
 20
9.7230771363
 30
0.0
 10
9.1395448381
 20
9.7255537464
 30
0.0
 10
9.1372231786
 20
9.7280448933
 30
0.0
 10
9.135118087
 20
9.7305497721
 30
0.0
 10
9.1326485583
 20
9.7338433429
 30
0.0
 10
9.130551592
 20
9.7372257383
 30
0.0
 10
9.1288866586
 20
9.7406803199
 30
0.0
 10
9.1278807427
 20
9.7432352553
 30
0.0
 10
9.1270974044
 20
9.7457964024
 30
0.0
 10
9.126537268
 20
9.748362518
 30
0.0
 10
9.1262010089
 20
9.7509317833
 30
0.0
 10
9.1261261724
 20
9.7526482497
 30
0.0
 10
9.1261261782
 20
9.7535030256
 30
0.0
  0
SPLINE
  5
3AA
100
AcDbEntity
  8
0
100
AcDbSpline
 62
7
  6
CONTINUOUS
 70
0
 71
3
 72
71
 73
67
 74
0
 42
0.0000001
 43
0.0000001
 44
0.0000000001
 40
0.0
 40
0.0
 40
0.0
 40
0.0
 40
0.0081224021
 40
0.0169165279
 40
0.0264081434
 40
0.0366136729
 40
0.0475406687
 40
0.0591900386
 40
0.0715572362
 40
0.0846331289
 40
0.0984046806
 40
0.1128554936
 40
0.1279662701
 40
0.143715139
 40
0.1600778855
 40
0.177028224
 40
0.1945380126
 40
0.212577401
 40
0.231114962
 40
0.2501178742
 40
0.2695520505
 40
0.2893822318
 40
0.309572107
 40
0.3300844497
 40
0.3719228157
 40
0.4145857826
 40
0.4577527732
 40
0.5010982541
 40
0.5442949581
 40
0.5870170731
 40
0.6289434202
 40
0.6697607121
 40
0.6896589881
 40
0.7091677946
 40
0.728251669
 40
0.7468762811
 40
0.7650085828
 40
0.7826169028
 40
0.7996710734
 40
0.816142615
 40
0.8320049142
 40
0.8472333772
 40
0.8618056538
 40
0.8757019563
 40
0.8889053604
 40
0.9014021796
 40
0.9131824955
 40
0.9242408713
 40
0.9345771718
 40
0.9394767076
 40
0.9441987541
 40
0.9487453348
 40
0.9531191585
 40
0.9573236229
 40
0.9613628726
 40
0.9652420105
 40
0.9689670917
 40
0.9725452814
 40
0.9759850272
 40
0.9824862539
 40
0.9855751478
 40
0.9885736479
 40
0.9914976047
 40
0.9943642476
 40
0.9971919638
 40
1.0
 40
1.0
 40
1.0
 40
1.0
 10
12.8588812207
 20
9.9940599431
 30
0.0
 10
12.857102873
 20
9.992342191
 30
0.0
 10
12.8532313918
 20
9.9889360685
 30
0.0
 10
12.8468049697
 20
9.9840967392
 30
0.0
 10
12.8395475934
 20
9.9793383256
 30
0.0
 10
12.8314738447
 20
9.9746699462
 30
0.0
 10
12.8225988619
 20
9.9701002013
 30
0.0
 10
12.8129399904
 20
9.9656380116
 30
0.0
 10
12.8025161718
 20
9.9612921955
 30
0.0
 10
12.7913480255
 20
9.9570714916
 30
0.0
 10
12.7794577928
 20
9.9529844143
 30
0.0
 10
12.7668692593
 20
9.9490392395
 30
0.0
 10
12.7536076721
 20
9.94524399
 30
0.0
 10
12.739699685
 20
9.9416064054
 30
0.0
 10
12.7251733105
 20
9.9381338808
 30
0.0
 10
12.7100578407
 20
9.934833485
 30
0.0
 10
12.694383772
 20
9.9317119481
 30
0.0
 10
12.6781827516
 20
9.9287756383
 30
0.0
 10
12.6614875161
 20
9.9260305206
 30
0.0
 10
12.6443318099
 20
9.9234821836
 30
0.0
 10
12.6267503093
 20
9.9211358233
 30
0.0
 10
12.6087785746
 20
9.9189962235
 30
0.0
 10
12.5904529272
 20
9.917067697
 30
0.0
 10
12.5654321466
 20
9.9147680411
 30
0.0
 10
12.5335455772
 20
9.9124572952
 30
0.0
 10
12.4947239998
 20
9.9105937697
 30
0.0
 10
12.4554105599
 20
9.9096373003
 30
0.0
 10
12.4159231186
 20
9.9095956518
 30
0.0
 10
12.3765807402
 20
9.9104692313
 30
0.0
 10
12.3377012864
 20
9.9122507902
 30
0.0
 10
12.2995990811
 20
9.914925763
 30
0.0
 10
12.2684929597
 20
9.9179055202
 30
0.0
 10
12.2442357692
 20
9.9207314319
 30
0.0
 10
12.2265806557
 20
9.9230405755
 30
0.0
 10
12.2093449579
 20
9.9255525635
 30
0.0
 10
12.1925634956
 20
9.9282623273
 30
0.0
 10
12.1762701906
 20
9.9311643274
 30
0.0
 10
12.1604979587
 20
9.9342526539
 30
0.0
 10
12.1452786585
 20
9.9375210271
 30
0.0
 10
12.1306430066
 20
9.940962791
 30
0.0
 10
12.1166205084
 20
9.9445709214
 30
0.0
 10
12.1032394093
 20
9.9483380697
 30
0.0
 10
12.0905266279
 20
9.952256584
 30
0.0
 10
12.0785076752
 20
9.9563184882
 30
0.0
 10
12.0672065852
 20
9.9605155339
 30
0.0
 10
12.0566459089
 20
9.9648392369
 30
0.0
 10
12.0468465008
 20
9.9692809506
 30
0.0
 10
12.0378279055
 20
9.9738317721
 30
0.0
 10
12.0308580947
 20
9.9777750328
 30
0.0
 10
12.0256994428
 20
9.9809853174
 30
0.0
 10
12.0221060539
 20
9.9833715423
 30
0.0
 10
12.0187207647
 20
9.9857781747
 30
0.0
 10
12.0155452376
 20
9.9882040496
 30
0.0
 10
12.0125810351
 20
9.9906479725
 30
0.0
 10
12.0098296829
 20
9.9931088323
 30
0.0
 10
12.007292502
 20
9.9955854424
 30
0.0
 10
12.0049708425
 20
9.9980765893
 30
0.0
 10
12.0028657509
 20
10.0005814681
 30
0.0
 10
12.0003962222
 20
10.0038750389
 30
0.0
 10
11.9982992559
 20
10.0072574343
 30
0.0
 10
11.9966343226
 20
10.0107120159
 30
0.0
 10
11.9956284067
 20
10.0132669513
 30
0.0
 10
11.9948450683
 20
10.0158280984
 30
0.0
 10
11.9942849319
 20
10.018394214
 30
0.0
 10
11.9939486728
 20
10.0209634793
 30
0.0
 10
11.9938738363
 20
10.0226799457
 30
0.0
 10
11.9938738421
 20
10.0235347216
 30
0.0
  0
SPLINE
  5
3AB
100
AcDbEntity
  8
0
100
AcDbSpline
 62
7
  6
CONTINUOUS
 70
0
 71
3
 72
18
 73
14
 74
0
 42
0.0000001
 43
0.0000001
 44
0.0000000001
 40
0.0
 40
0.0
 40
0.0
 40
0.0
 40
0.1504680185
 40
0.2917144324
 40
0.4244425615
 40
0.4879099171
 40
0.5496094205
 40
0.6682625585
 40
0.7817882768
 40
0.8371379945
 40
0.8918078237
 40
0.9460192726
 40
1.0
 40
1.0
 40
1.0
 40
1.0
 10
13.6412811864
 20
9.3370625873
 30
0.0
 10
13.6429633139
 20
9.3386873979
 30
0.0
 10
13.6463252889
 20
9.3417360159
 30
0.0
 10
13.6515309492
 20
9.3457986726
 30
0.0
 10
13.6559280193
 20
9.3486719938
 30
0.0
 10
13.6594342916
 20
9.3506177177
 30
0.0
 10
13.6628374133
 20
9.3522881777
 30
0.0
 10
13.6670923929
 20
9.3539761206
 30
0.0
 10
13.671423063
 20
9.3551279769
 30
0.0
 10
13.6748530822
 20
9.3556953918
 30
0.0
 10
13.6773952001
 20
9.3559472199
 30
0.0
 10
13.6799270347
 20
9.3560285369
 30
0.0
 10
13.6816091225
 20
9.3559690255
 30
0.0
 10
13.6824461289
 20
9.3559109744
 30
0.0
  0
SPLINE
  5
3AC
100
AcDbEntity
  8
0
100
AcDbSpline
 62
7
  6
CONTINUOUS
 70
0
 71
3
 72
18
 73
14
 74
0
 42
0.0000001
 43
0.0000001
 44
0.0000000001
 40
0.0
 40
0.0
 40
0.0
 40
0.0
 40
0.1504680185
 40
0.2917144324
 40
0.4244425615
 40
0.4879099171
 40
0.5496094205
 40
0.6682625585
 40
0.7817882768
 40
0.8371379945
 40
0.8918078237
 40
0.9460192726
 40
1.0
 40
1.0
 40
1.0
 40
1.0
 10
13.1883482312
 20
8.8995629225
 30
0.0
 10
13.1900303588
 20
8.901187733
 30
0.0
 10
13.1933923338
 20
8.904236351
 30
0.0
 10
13.1985979941
 20
8.9082990078
 30
0.0
 10
13.2029950642
 20
8.9111723289
 30
0.0
 10
13.2065013365
 20
8.9131180528
 30
0.0
 10
13.2099044581
 20
8.9147885128
 30
0.0
 10
13.2141594378
 20
8.9164764557
 30
0.0
 10
13.2184901079
 20
8.917628312
 30
0.0
 10
13.221920127
 20
8.9181957269
 30
0.0
 10
13.224462245
 20
8.918447555
 30
0.0
 10
13.2269940795
 20
8.918528872
 30
0.0
 10
13.2286761673
 20
8.9184693607
 30
0.0
 10
13.2295131738
 20
8.9184113095
 30
0.0
  0
SPLINE
  5
3AD
100
AcDbEntity
  8
0
100
AcDbSpline
 62
7
  6
CONTINUOUS
 70
0
 71
3
 72
21
 73
17
 74
0
 42
0.0000001
 43
0.0000001
 44
0.0000000001
 40
0.0
 40
0.0
 40
0.0
 40
0.0
 40
0.1273177382
 40
0.253799893
 40
0.3167619527
 40
0.3795355237
 40
0.4421314869
 40
0.5045621428
 40
0.5668413495
 40
0.6289845239
 40
0.69100845
 40
0.7529310987
 40
0.8147714472
 40
0.8765493323
 40
0.9382852239
 40
1.0
 40
1.0
 40
1.0
 40
1.0
 10
8.9104394738
 20
7.2738244201
 30
0.0
 10
8.9104394738
 20
7.2665868917
 30
0.0
 10
8.9097486142
 20
7.2521500177
 30
0.0
 10
8.9071393948
 20
7.234302923
 30
0.0
 10
8.9040208599
 20
7.2203034329
 30
0.0
 10
8.9011769006
 20
7.2099773993
 30
0.0
 10
8.8978311451
 20
7.1998348572
 30
0.0
 10
8.8939913443
 20
7.1898988827
 30
0.0
 10
8.8896662947
 20
7.1801924758
 30
0.0
 10
8.8848659064
 20
7.1707380316
 30
0.0
 10
8.8796013191
 20
7.161557322
 30
0.0
 10
8.8738846062
 20
7.1526715431
 30
0.0
 10
8.8677289326
 20
7.1441012381
 30
0.0
 10
8.861148491
 20
7.1358660572
 30
0.0
 10
8.8541586636
 20
7.1279852922
 30
0.0
 10
8.8492356571
 20
7.1229789416
 30
0.0
 10
8.8467123329
 20
7.1205415963
 30
0.0
  0
SPLINE
  5
3AE
100
AcDbEntity
  8
0
100
AcDbSpline
 62
7
  6
CONTINUOUS
 70
0
 71
3
 72
42
 73
38
 74
0
 42
0.0000001
 43
0.0000001
 44
0.0000000001
 40
0.0
 40
0.0
 40
0.0
 40
0.0
 40
0.0310747056
 40
0.0466742377
 40
0.0623121031
 40
0.0936967548
 40
0.1252253866
 40
0.1568866096
 40
0.188666234
 40
0.220547657
 40
0.2525122025
 40
0.2845395218
 40
0.3166080091
 40
0.3486952389
 40
0.3807784134
 40
0.4128348152
 40
0.4448422591
 40
0.4767795367
 40
0.5086268466
 40
0.5403662047
 40
0.5719818277
 40
0.6034604811
 40
0.6347917865
 40
0.6659684788
 40
0.6969866066
 40
0.7278456677
 40
0.7585486729
 40
0.7891021331
 40
0.8195159634
 40
0.8498033031
 40
0.8649073458
 40
0.8799860274
 40
0.9100712977
 40
0.9400857963
 40
0.9550764681
 40
0.9700580355
 40
1.0
 40
1.0
 40
1.0
 40
1.0
 10
8.9104394738
 20
7.2738244201
 30
0.0
 10
8.9104394738
 20
7.2794497708
 30
0.0
 10
8.9101250261
 20
7.2879032994
 30
0.0
 10
8.9090865334
 20
7.2991373202
 30
0.0
 10
8.9076314013
 20
7.3103821039
 30
0.0
 10
8.9050374372
 20
7.324377054
 30
0.0
 10
8.9007107297
 20
7.340956623
 30
0.0
 10
8.8951899377
 20
7.3572534694
 30
0.0
 10
8.8885055688
 20
7.373177598
 30
0.0
 10
8.8806944214
 20
7.3886417669
 30
0.0
 10
8.8717994695
 20
7.4035610811
 30
0.0
 10
8.8618696066
 20
7.4178536896
 30
0.0
 10
8.850959383
 20
7.4314411646
 30
0.0
 10
8.8391287083
 20
7.4442489447
 30
0.0
 10
8.8264425246
 20
7.4562067346
 30
0.0
 10
8.8129704544
 20
7.4672488881
 30
0.0
 10
8.7987864222
 20
7.4773147649
 30
0.0
 10
8.7839682532
 20
7.4863490608
 30
0.0
 10
8.7685972515
 20
7.4943021088
 30
0.0
 10
8.75275776
 20
7.5011301509
 30
0.0
 10
8.7365367031
 20
7.5067955777
 30
0.0
 10
8.7200231168
 20
7.511267136
 30
0.0
 10
8.703307667
 20
7.5145201027
 30
0.0
 10
8.6864821574
 20
7.5165364245
 30
0.0
 10
8.6696390372
 20
7.5173048243
 30
0.0
 10
8.6528708806
 20
7.5168208634
 30
0.0
 10
8.6362699505
 20
7.5150870061
 30
0.0
 10
8.6199274418
 20
7.5121125009
 30
0.0
 10
8.6039339149
 20
7.507913776
 30
0.0
 10
8.5909558501
 20
7.5034085562
 30
0.0
 10
8.5808400503
 20
7.4992188658
 30
0.0
 10
8.5709290474
 20
7.4946520476
 30
0.0
 10
8.5589118823
 20
7.4882327238
 30
0.0
 10
8.5474519568
 20
7.4808938558
 30
0.0
 10
8.5386692502
 20
7.4745030005
 30
0.0
 10
8.5301576698
 20
7.4677773781
 30
0.0
 10
8.5240800203
 20
7.462356954
 30
0.0
 10
8.5201814495
 20
7.458591222
 30
0.0
  0
SPLINE
  5
3AF
100
AcDbEntity
  8
0
100
AcDbSpline
 62
7
  6
CONTINUOUS
 70
0
 71
3
 72
11
 73
7
 74
0
 42
0.0000001
 43
0.0000001
 44
0.0000000001
 40
0.0
 40
0.0
 40
0.0
 40
0.0
 40
0.2517312916
 40
0.5022812818
 40
0.7516865276
 40
1.0
 40
1.0
 40
1.0
 40
1.0
 10
10.5106570138
 20
7.1560162644
 30
0.0
 10
10.5106570138
 20
7.1466023159
 30
0.0
 10
10.5100186988
 20
7.1278121882
 30
0.0
 10
10.507134392
 20
7.0998281534
 30
0.0
 10
10.5023392225
 20
7.0722370609
 30
0.0
 10
10.4978725638
 20
7.0541492023
 30
0.0
 10
10.4953288523
 20
7.0452182563
 30
0.0
  0
SPLINE
  5
3B0
100
AcDbEntity
  8
0
100
AcDbSpline
 62
7
  6
CONTINUOUS
 70
0
 71
3
 72
11
 73
7
 74
0
 42
0.0000001
 43
0.0000001
 44
0.0000000001
 40
0.0
 40
0.0
 40
0.0
 40
0.0
 40
0.2480493634
 40
0.4974354392
 40
0.7481135223
 40
1.0
 40
1.0
 40
1.0
 40
1.0
 10
10.5106570138
 20
7.1560162644
 30
0.0
 10
10.5106570138
 20
7.167016121
 30
0.0
 10
10.5097809154
 20
7.1890846423
 30
0.0
 10
10.5058716988
 20
7.2220614371
 30
0.0
 10
10.4993897868
 20
7.2548034944
 30
0.0
 10
10.4933922283
 20
7.2762942217
 30
0.0
 10
10.4899841098
 20
7.286931607
 30
0.0
  0
SPLINE
  5
3B1
100
AcDbEntity
  8
0
100
AcDbSpline
 62
7
  6
CONTINUOUS
 70
0
 71
3
 72
21
 73
17
 74
0
 42
0.0000001
 43
0.0000001
 44
0.0000000001
 40
0.0
 40
0.0
 40
0.0
 40
0.0
 40
0.0628293531
 40
0.1257029808
 40
0.188601489
 40
0.251505272
 40
0.3772170743
 40
0.5027166172
 40
0.5653570331
 40
0.6278900671
 40
0.6902993217
 40
0.7525695018
 40
0.8146865629
 40
0.8766378401
 40
0.9384121688
 40
1.0
 40
1.0
 40
1.0
 40
1.0
 10
10.4278378457
 20
7.4107950299
 30
0.0
 10
10.4237567626
 20
7.4165352887
 30
0.0
 10
10.4153261702
 20
7.4278337058
 30
0.0
 10
10.4019134063
 20
7.4441855345
 30
0.0
 10
10.3877587888
 20
7.459911982
 30
0.0
 10
10.3679507329
 20
7.4799878195
 30
0.0
 10
10.3415169686
 20
7.5033301113
 30
0.0
 10
10.3130759048
 20
7.5241306003
 30
0.0
 10
10.289293496
 20
7.5391138001
 30
0.0
 10
10.270995448
 20
7.5494909971
 30
0.0
 10
10.2522722838
 20
7.5589877382
 30
0.0
 10
10.2331687526
 20
7.5675814218
 30
0.0
 10
10.2137311036
 20
7.5752512062
 30
0.0
 10
10.1940060342
 20
7.5819786073
 30
0.0
 10
10.1740417582
 20
7.5877472185
 30
0.0
 10
10.160582431
 20
7.5909497127
 30
0.0
 10
10.1538295251
 20
7.5923860269
 30
0.0
  0
SPLINE
  5
3B2
100
AcDbEntity
  8
0
100
AcDbSpline
 62
7
  6
CONTINUOUS
 70
0
 71
3
 72
23
 73
19
 74
0
 42
0.0000001
 43
0.0000001
 44
0.0000000001
 40
0.0
 40
0.0
 40
0.0
 40
0.0
 40
0.0637769127
 40
0.127344953
 40
0.1907019652
 40
0.2538561227
 40
0.3168132057
 40
0.3795820872
 40
0.4421733866
 40
0.5045993385
 40
0.5668738691
 40
0.6290123824
 40
0.6910316505
 40
0.7529496453
 40
0.8147853569
 40
0.8765586065
 40
0.9382898561
 40
1.0
 40
1.0
 40
1.0
 40
1.0
 10
11.6272674678
 20
7.7421701834
 30
0.0
 10
11.6272674678
 20
7.7355281239
 30
0.0
 10
11.6269495403
 20
7.7222635076
 30
0.0
 10
11.6255146386
 20
7.7024472849
 30
0.0
 10
11.6231254864
 20
7.6827881305
 30
0.0
 10
11.6197878255
 20
7.6633322228
 30
0.0
 10
11.6155090969
 20
7.6441240296
 30
0.0
 10
11.6102991965
 20
7.6252079544
 30
0.0
 10
11.6041701087
 20
7.6066275745
 30
0.0
 10
11.5971359108
 20
7.5884257372
 30
0.0
 10
11.5892127606
 20
7.5706444341
 30
0.0
 10
11.5804188933
 20
7.5533246798
 30
0.0
 10
11.5707745881
 20
7.536506416
 30
0.0
 10
11.5603020519
 20
7.5202284302
 30
0.0
 10
11.5490254304
 20
7.5045283242
 30
0.0
 10
11.5369705786
 20
7.4894422052
 30
0.0
 10
11.5241657905
 20
7.475005335
 30
0.0
 10
11.5151473114
 20
7.4658340771
 30
0.0
 10
11.5105247855
 20
7.4613690787
 30
0.0
  0
SPLINE
  5
3B3
100
AcDbEntity
  8
0
100
AcDbSpline
 62
7
  6
CONTINUOUS
 70
0
 71
3
 72
37
 73
33
 74
0
 42
0.0000001
 43
0.0000001
 44
0.0000000001
 40
0.0
 40
0.0
 40
0.0
 40
0.0
 40
0.0592062032
 40
0.1183572367
 40
0.176063495
 40
0.2313794357
 40
0.2838043778
 40
0.3331656352
 40
0.3794923924
 40
0.4229199082
 40
0.4636309178
 40
0.501822507
 40
0.537688712
 40
0.5714129644
 40
0.6031647922
 40
0.633099381
 40
0.6880571201
 40
0.7133496945
 40
0.7373322223
 40
0.7817742325
 40
0.802461392
 40
0.8222568823
 40
0.8412683857
 40
0.8596086593
 40
0.8774001837
 40
0.8947762684
 40
0.9118853068
 40
0.9288929962
 40
0.9459851337
 40
0.9633714715
 40
0.9812872609
 40
1.0
 40
1.0
 40
1.0
 40
1.0
 10
10.8820908939
 20
7.7152603093
 30
0.0
 10
10.8808930677
 20
7.7186348387
 30
0.0
 10
10.8787888059
 20
7.7254871767
 30
0.0
 10
10.8764869376
 20
7.7358941435
 30
0.0
 10
10.8750037775
 20
7.7462104254
 30
0.0
 10
10.8742713348
 20
7.7561973769
 30
0.0
 10
10.8741898075
 20
7.7657048015
 30
0.0
 10
10.8746533809
 20
7.7746558253
 30
0.0
 10
10.8755645456
 20
7.7830243944
 30
0.0
 10
10.8768398048
 20
7.7908149342
 30
0.0
 10
10.8784103563
 20
7.7980481273
 30
0.0
 10
10.8802206129
 20
7.804752086
 30
0.0
 10
10.8822260485
 20
7.8109573427
 30
0.0
 10
10.8843908561
 20
7.8166939957
 30
0.0
 10
10.8866870418
 20
7.8219906437
 30
0.0
 10
10.8898051561
 20
7.8283208536
 30
0.0
 10
10.8931785473
 20
7.8340837974
 30
0.0
 10
10.8967933402
 20
7.8392520119
 30
0.0
 10
10.9002931574
 20
7.8437128538
 30
0.0
 10
10.9039746283
 20
7.8476709264
 30
0.0
 10
10.9078297622
 20
7.8510699118
 30
0.0
 10
10.9106892012
 20
7.8532593041
 30
0.0
 10
10.9135832515
 20
7.8551549415
 30
0.0
 10
10.9165121994
 20
7.8567576911
 30
0.0
 10
10.9194754816
 20
7.858068549
 30
0.0
 10
10.922474709
 20
7.859083286
 30
0.0
 10
10.925511053
 20
7.8597977548
 30
0.0
 10
10.928587136
 20
7.8602020156
 30
0.0
 10
10.9317056885
 20
7.8602855022
 30
0.0
 10
10.9348704758
 20
7.8600309266
 30
0.0
 10
10.9380856605
 20
7.8594190572
 30
0.0
 10
10.9402095028
 20
7.8587718695
 30
0.0
 10
10.9412738081
 20
7.8583870041
 30
0.0
  0
SPLINE
  5
3B4
100
AcDbEntity
  8
0
100
AcDbSpline
 62
7
  6
CONTINUOUS
 70
0
 71
3
 72
39
 73
35
 74
0
 42
0.0000001
 43
0.0000001
 44
0.0000000001
 40
0.0
 40
0.0
 40
0.0
 40
0.0
 40
0.0310753511
 40
0.0623079071
 40
0.0936931323
 40
0.1252222879
 40
0.1568840438
 40
0.1886642044
 40
0.2205461649
 40
0.2525112495
 40
0.2845391085
 40
0.3166081364
 40
0.3486959075
 40
0.3807796234
 40
0.4128365659
 40
0.4448445499
 40
0.4767823666
 40
0.5086302146
 40
0.540370109
 40
0.5719862657
 40
0.6034654504
 40
0.6347972851
 40
0.6659745049
 40
0.6969931576
 40
0.7278527402
 40
0.7585562639
 40
0.7891102404
 40
0.8195245852
 40
0.8498124376
 40
0.8799898966
 40
0.9100756756
 40
0.9400906817
 40
0.970057529
 40
1.0
 40
1.0
 40
1.0
 40
1.0
 10
11.6272674678
 20
7.7421701834
 30
0.0
 10
11.6272674678
 20
7.7524753875
 30
0.0
 10
11.6264987244
 20
7.7731458582
 30
0.0
 10
11.6230664388
 20
7.8040526142
 30
0.0
 10
11.617371447
 20
7.8347778843
 30
0.0
 10
11.6094452086
 20
7.8651507763
 30
0.0
 10
11.5993316216
 20
7.8950050728
 30
0.0
 10
11.5870864227
 20
7.9241767598
 30
0.0
 10
11.5727770578
 20
7.9525057863
 30
0.0
 10
11.556482258
 20
7.9798366997
 30
0.0
 10
11.5382915969
 20
8.0060195425
 30
0.0
 10
11.5183050042
 20
8.0309106469
 30
0.0
 10
11.4966322223
 20
8.0543734172
 30
0.0
 10
11.4733922092
 20
8.0762790666
 30
0.0
 10
11.4487125177
 20
8.0965073454
 30
0.0
 10
11.4227285767
 20
8.1149471736
 30
0.0
 10
11.3955829555
 20
8.1314972409
 30
0.0
 10
11.3674245936
 20
8.1460665594
 30
0.0
 10
11.3384079935
 20
8.1585749552
 30
0.0
 10
11.3086923939
 20
8.1689535261
 30
0.0
 10
11.2784409073
 20
8.1771450344
 30
0.0
 10
11.2478196253
 20
8.1831041949
 30
0.0
 10
11.2169967246
 20
8.1867979353
 30
0.0
 10
11.1861415573
 20
8.1882055882
 30
0.0
 10
11.155423733
 20
8.1873190137
 30
0.0
 10
11.1250121939
 20
8.1841427025
 30
0.0
 10
11.095074287
 20
8.178693742
 30
0.0
 10
11.0657748429
 20
8.1710017328
 30
0.0
 10
11.0372752803
 20
8.1611086668
 30
0.0
 10
11.0097326538
 20
8.1490686603
 30
0.0
 10
10.9832989728
 20
8.1349478921
 30
0.0
 10
10.9581195631
 20
8.1188235205
 30
0.0
 10
10.9343351001
 20
8.1007860156
 30
0.0
 10
10.9194898307
 20
8.0875457408
 30
0.0
 10
10.9123479644
 20
8.0806472566
 30
0.0
  0
SPLINE
  5
3B5
100
AcDbEntity
  8
0
100
AcDbSpline
 62
7
  6
CONTINUOUS
 70
0
 71
3
 72
15
 73
11
 74
0
 42
0.0000001
 43
0.0000001
 44
0.0000000001
 40
0.0
 40
0.0
 40
0.0
 40
0.0
 40
0.1098906522
 40
0.2214015324
 40
0.3360758406
 40
0.455320507
 40
0.5803741139
 40
0.712293262
 40
0.8519441752
 40
1.0
 40
1.0
 40
1.0
 40
1.0
 10
9.7644335296
 20
10.4912426174
 30
0.0
 10
9.7644335332
 20
10.4906458183
 30
0.0
 10
9.7643569231
 20
10.4894420682
 30
0.0
 10
9.7640132713
 20
10.4876450855
 30
0.0
 10
9.7634418853
 20
10.485853761
 30
0.0
 10
9.7626443459
 20
10.4840707692
 30
0.0
 10
9.7616223675
 20
10.4822978369
 30
0.0
 10
9.7603776767
 20
10.4805364975
 30
0.0
 10
9.7589121437
 20
10.4787884126
 30
0.0
 10
9.7578222332
 20
10.4776668007
 30
0.0
 10
9.7572439035
 20
10.477108177
 30
0.0
  0
SPLINE
  5
3B6
100
AcDbEntity
  8
0
100
AcDbSpline
 62
7
  6
CONTINUOUS
 70
0
 71
3
 72
15
 73
11
 74
0
 42
0.0000001
 43
0.0000001
 44
0.0000000001
 40
0.0
 40
0.0
 40
0.0
 40
0.0
 40
0.1098906522
 40
0.2214015324
 40
0.3360758406
 40
0.455320507
 40
0.5803741139
 40
0.712293262
 40
0.8519441752
 40
1.0
 40
1.0
 40
1.0
 40
1.0
 10
12.6575664455
 20
9.2857945854
 30
0.0
 10
12.6575664492
 20
9.2851977863
 30
0.0
 10
12.657489839
 20
9.2839940362
 30
0.0
 10
12.6571461873
 20
9.2821970535
 30
0.0
 10
12.6565748012
 20
9.280405729
 30
0.0
 10
12.6557772619
 20
9.2786227372
 30
0.0
 10
12.6547552834
 20
9.2768498049
 30
0.0
 10
12.6535105926
 20
9.2750884655
 30
0.0
 10
12.6520450597
 20
9.2733403806
 30
0.0
 10
12.6509551492
 20
9.2722187687
 30
0.0
 10
12.6503768194
 20
9.271660145
 30
0.0
  0
SPLINE
  5
3B7
100
AcDbEntity
  8
0
100
AcDbSpline
 62
7
  6
CONTINUOUS
 70
0
 71
3
 72
55
 73
51
 74
0
 42
0.0000001
 43
0.0000001
 44
0.0000000001
 40
0.0
 40
0.0
 40
0.0
 40
0.0
 40
0.0077405257
 40
0.016054501
 40
0.0249607557
 40
0.0344722549
 40
0.0445956288
 40
0.0553326245
 40
0.0666809301
 40
0.0786350477
 40
0.0911864132
 40
0.1043240303
 40
0.1180346945
 40
0.1323031752
 40
0.1471126019
 40
0.1624443638
 40
0.1782785603
 40
0.1945938437
 40
0.2285756721
 40
0.2641981866
 40
0.3012536218
 40
0.3395217294
 40
0.3787720416
 40
0.4187660082
 40
0.4592590601
 40
0.5000026359
 40
0.5407461865
 40
0.5812391642
 40
0.6212330127
 40
0.6604831655
 40
0.6987510686
 40
0.7358062484
 40
0.7714284591
 40
0.8054099417
 40
0.82172507
 40
0.8375590436
 40
0.8528906419
 40
0.8676998342
 40
0.8819681224
 40
0.8956785669
 40
0.9088159488
 40
0.9213671134
 40
0.9333209605
 40
0.9446690809
 40
0.9554057944
 40
0.9655289274
 40
0.9750402537
 40
0.9839463466
 40
0.9922597297
 40
1.0
 40
1.0
 40
1.0
 40
1.0
 10
9.821435011
 20
9.7042143091
 30
0.0
 10
9.8204382226
 20
9.7032867587
 30
0.0
 10
9.8182924041
 20
9.7014461689
 30
0.0
 10
9.8147723153
 20
9.6988173707
 30
0.0
 10
9.8108442001
 20
9.6962282375
 30
0.0
 10
9.8065145481
 20
9.6936828875
 30
0.0
 10
9.801790052
 20
9.6911850641
 30
0.0
 10
9.7966782109
 20
9.6887388668
 30
0.0
 10
9.791187263
 20
9.6863481508
 30
0.0
 10
9.785326055
 20
9.6840168832
 30
0.0
 10
9.7791041088
 20
9.6817488408
 30
0.0
 10
9.772531558
 20
9.6795477827
 30
0.0
 10
9.7656191411
 20
9.6774173573
 30
0.0
 10
9.7583781801
 20
9.6753610504
 30
0.0
 10
9.7508205428
 20
9.6733823252
 30
0.0
 10
9.7429586467
 20
9.6714844024
 30
0.0
 10
9.7348053953
 20
9.669670458
 30
0.0
 10
9.7234087408
 20
9.6673361674
 30
0.0
 10
9.7085309875
 20
9.6646617574
 30
0.0
 10
9.6899752845
 20
9.6618724006
 30
0.0
 10
9.67060445
 20
9.6594798461
 30
0.0
 10
9.6505459638
 20
9.6575000767
 30
0.0
 10
9.6299317077
 20
9.6559463659
 30
0.0
 10
9.6088973539
 20
9.6548291062
 30
0.0
 10
9.5875813685
 20
9.6541557693
 30
0.0
 10
9.5661241037
 20
9.6539308528
 30
0.0
 10
9.5446668529
 20
9.6541558587
 30
0.0
 10
9.5233509085
 20
9.6548292831
 30
0.0
 10
9.5023166211
 20
9.6559466256
 30
0.0
 10
9.4817024559
 20
9.6575004154
 30
0.0
 10
9.4616440867
 20
9.6594802623
 30
0.0
 10
9.4422733975
 20
9.6618728968
 30
0.0
 10
9.4237178661
 20
9.6646623261
 30
0.0
 10
9.4088402709
 20
9.6673368134
 30
0.0
 10
9.3974437507
 20
9.6696711268
 30
0.0
 10
9.3892906102
 20
9.6714851305
 30
0.0
 10
9.3814288273
 20
9.6733830571
 30
0.0
 10
9.3738713117
 20
9.6753618372
 30
0.0
 10
9.366630473
 20
9.6774181576
 30
0.0
 10
9.3597181843
 20
9.6795486137
 30
0.0
 10
9.3531457682
 20
9.6817497094
 30
0.0
 10
9.3469239538
 20
9.6840177519
 30
0.0
 10
9.3410628933
 20
9.686349077
 30
0.0
 10
9.335572081
 20
9.6887397803
 30
0.0
 10
9.3304604031
 20
9.6911860299
 30
0.0
 10
9.3257360399
 20
9.6936838421
 30
0.0
 10
9.3214065304
 20
9.6962292377
 30
0.0
 10
9.3174786238
 20
9.698818388
 30
0.0
 10
9.3139586959
 20
9.7014471058
 30
0.0
 10
9.3118130596
 20
9.7032876814
 30
0.0
 10
9.3108163378
 20
9.7042152375
 30
0.0
  0
SPLINE
  5
3B8
100
AcDbEntity
  8
0
100
AcDbSpline
 62
7
  6
CONTINUOUS
 70
0
 71
3
 72
17
 73
13
 74
0
 42
0.0000001
 43
0.0000001
 44
0.0000000001
 40
0.0
 40
0.0
 40
0.0
 40
0.0
 40
0.0548653995
 40
0.1099348206
 40
0.2214348222
 40
0.3360991408
 40
0.4553350478
 40
0.5170794787
 40
0.5804143716
 40
0.712316841
 40
0.8519520933
 40
1.0
 40
1.0
 40
1.0
 40
1.0
 10
10.0061261579
 20
9.7535021935
 30
0.0
 10
10.0061261536
 20
9.7528807998
 30
0.0
 10
10.0060866886
 20
9.7516353043
 30
0.0
 10
10.005849359
 20
9.7491373182
 30
0.0
 10
10.0052496896
 20
9.7460000717
 30
0.0
 10
10.0040581345
 20
9.742265222
 30
0.0
 10
10.002688074
 20
9.7392023815
 30
0.0
 10
10.0013697371
 20
9.7367685629
 30
0.0
 10
9.9998601879
 20
9.734278895
 30
0.0
 10
9.9976682937
 20
9.7311771131
 30
0.0
 10
9.9946123961
 20
9.7275320644
 30
0.0
 10
9.9923395732
 20
9.7251931696
 30
0.0
 10
9.9911335568
 20
9.724028247
 30
0.0
  0
SPLINE
  5
3B9
100
AcDbEntity
  8
0
100
AcDbSpline
 62
7
  6
CONTINUOUS
 70
0
 71
3
 72
55
 73
51
 74
0
 42
0.0000001
 43
0.0000001
 44
0.0000000001
 40
0.0
 40
0.0
 40
0.0
 40
0.0
 40
0.0077405257
 40
0.016054501
 40
0.0249607557
 40
0.0344722549
 40
0.0445956288
 40
0.0553326245
 40
0.0666809301
 40
0.0786350477
 40
0.0911864132
 40
0.1043240303
 40
0.1180346945
 40
0.1323031752
 40
0.1471126019
 40
0.1624443638
 40
0.1782785603
 40
0.1945938437
 40
0.2285756721
 40
0.2641981866
 40
0.3012536218
 40
0.3395217294
 40
0.3787720416
 40
0.4187660082
 40
0.4592590601
 40
0.5000026359
 40
0.5407461865
 40
0.5812391642
 40
0.6212330127
 40
0.6604831655
 40
0.6987510686
 40
0.7358062484
 40
0.7714284591
 40
0.8054099417
 40
0.82172507
 40
0.8375590436
 40
0.8528906419
 40
0.8676998342
 40
0.8819681224
 40
0.8956785669
 40
0.9088159488
 40
0.9213671134
 40
0.9333209605
 40
0.9446690809
 40
0.9554057944
 40
0.9655289274
 40
0.9750402537
 40
0.9839463466
 40
0.9922597297
 40
1.0
 40
1.0
 40
1.0
 40
1.0
 10
12.6891826749
 20
9.9742460051
 30
0.0
 10
12.6881858865
 20
9.9733184547
 30
0.0
 10
12.6860400681
 20
9.9714778649
 30
0.0
 10
12.6825199792
 20
9.9688490667
 30
0.0
 10
12.6785918641
 20
9.9662599335
 30
0.0
 10
12.674262212
 20
9.9637145835
 30
0.0
 10
12.669537716
 20
9.9612167601
 30
0.0
 10
12.6644258749
 20
9.9587705628
 30
0.0
 10
12.6589349269
 20
9.9563798468
 30
0.0
 10
12.6530737189
 20
9.9540485792
 30
0.0
 10
12.6468517727
 20
9.9517805368
 30
0.0
 10
12.640279222
 20
9.9495794787
 30
0.0
 10
12.633366805
 20
9.9474490533
 30
0.0
 10
12.6261258441
 20
9.9453927464
 30
0.0
 10
12.6185682068
 20
9.9434140212
 30
0.0
 10
12.6107063106
 20
9.9415160984
 30
0.0
 10
12.6025530593
 20
9.9397021541
 30
0.0
 10
12.5911564047
 20
9.9373678634
 30
0.0
 10
12.5762786514
 20
9.9346934534
 30
0.0
 10
12.5577229485
 20
9.9319040966
 30
0.0
 10
12.538352114
 20
9.9295115421
 30
0.0
 10
12.5182936277
 20
9.9275317727
 30
0.0
 10
12.4976793716
 20
9.9259780619
 30
0.0
 10
12.4766450179
 20
9.9248608022
 30
0.0
 10
12.4553290324
 20
9.9241874653
 30
0.0
 10
12.4338717676
 20
9.9239625488
 30
0.0
 10
12.4124145168
 20
9.9241875547
 30
0.0
 10
12.3910985724
 20
9.9248609791
 30
0.0
 10
12.370064285
 20
9.9259783217
 30
0.0
 10
12.3494501199
 20
9.9275321115
 30
0.0
 10
12.3293917506
 20
9.9295119583
 30
0.0
 10
12.3100210614
 20
9.9319045928
 30
0.0
 10
12.29146553
 20
9.9346940221
 30
0.0
 10
12.2765879348
 20
9.9373685094
 30
0.0
 10
12.2651914146
 20
9.9397028228
 30
0.0
 10
12.2570382742
 20
9.9415168265
 30
0.0
 10
12.2491764913
 20
9.9434147531
 30
0.0
 10
12.2416189756
 20
9.9453935332
 30
0.0
 10
12.2343781369
 20
9.9474498536
 30
0.0
 10
12.2274658482
 20
9.9495803097
 30
0.0
 10
12.2208934321
 20
9.9517814055
 30
0.0
 10
12.2146716178
 20
9.9540494479
 30
0.0
 10
12.2088105572
 20
9.956380773
 30
0.0
 10
12.203319745
 20
9.9587714763
 30
0.0
 10
12.198208067
 20
9.9612177259
 30
0.0
 10
12.1934837039
 20
9.9637155381
 30
0.0
 10
12.1891541944
 20
9.9662609337
 30
0.0
 10
12.1852262877
 20
9.968850084
 30
0.0
 10
12.1817063599
 20
9.9714788018
 30
0.0
 10
12.1795607235
 20
9.9733193774
 30
0.0
 10
12.1785640018
 20
9.9742469335
 30
0.0
  0
SPLINE
  5
3BA
100
AcDbEntity
  8
0
100
AcDbSpline
 62
7
  6
CONTINUOUS
 70
0
 71
3
 72
17
 73
13
 74
0
 42
0.0000001
 43
0.0000001
 44
0.0000000001
 40
0.0
 40
0.0
 40
0.0
 40
0.0
 40
0.0548653995
 40
0.1099348206
 40
0.2214348222
 40
0.3360991408
 40
0.4553350478
 40
0.5170794787
 40
0.5804143716
 40
0.712316841
 40
0.8519520933
 40
1.0
 40
1.0
 40
1.0
 40
1.0
 10
12.8738738218
 20
10.0235338895
 30
0.0
 10
12.8738738176
 20
10.0229124958
 30
0.0
 10
12.8738343525
 20
10.0216670003
 30
0.0
 10
12.873597023
 20
10.0191690142
 30
0.0
 10
12.8729973535
 20
10.0160317677
 30
0.0
 10
12.8718057984
 20
10.012296918
 30
0.0
 10
12.870435738
 20
10.0092340775
 30
0.0
 10
12.8691174011
 20
10.0068002589
 30
0.0
 10
12.8676078518
 20
10.004310591
 30
0.0
 10
12.8654159576
 20
10.0012088091
 30
0.0
 10
12.86236006
 20
9.9975637604
 30
0.0
 10
12.8600872372
 20
9.9952248656
 30
0.0
 10
12.8588812207
 20
9.9940599431
 30
0.0
  0
SPLINE
  5
3BB
100
AcDbEntity
  8
0
100
AcDbSpline
 62
7
  6
CONTINUOUS
 70
0
 71
3
 72
81
 73
77
 74
0
 42
0.0000001
 43
0.0000001
 44
0.0000000001
 40
0.0
 40
0.0
 40
0.0
 40
0.0
 40
0.0027164306
 40
0.0054532406
 40
0.0082303113
 40
0.0110666128
 40
0.0139798282
 40
0.0169861412
 40
0.0201001195
 40
0.0233346405
 40
0.0267010082
 40
0.0302089739
 40
0.0338668927
 40
0.0376818791
 40
0.0416598591
 40
0.0458058003
 40
0.0501237459
 40
0.0546169413
 40
0.0592879758
 40
0.0641387574
 40
0.0691706959
 40
0.0743846914
 40
0.0853596139
 40
0.0970634815
 40
0.1094902477
 40
0.1226295218
 40
0.1364672103
 40
0.1509860393
 40
0.1661659502
 40
0.1819844132
 40
0.1984166695
 40
0.2154359556
 40
0.233013703
 40
0.2511197005
 40
0.2697222361
 40
0.2887882189
 40
0.3082833183
 40
0.3281720849
 40
0.3484180605
 40
0.368983879
 40
0.38983137
 40
0.4109216725
 40
0.4536716934
 40
0.496913714
 40
0.5403220126
 40
0.5835692765
 40
0.6263297382
 40
0.6474271808
 40
0.6682830633
 40
0.6888585076
 40
0.7091153275
 40
0.7290161282
 40
0.7485244101
 40
0.7676046883
 40
0.786222604
 40
0.804345033
 40
0.8219402078
 40
0.8389778539
 40
0.8554293539
 40
0.8712678975
 40
0.8864686613
 40
0.9010090234
 40
0.9148688331
 40
0.9280307344
 40
0.9404805411
 40
0.9522077238
 40
0.9577984982
 40
0.963206723
 40
0.9684324181
 40
0.9734760178
 40
0.9783383767
 40
0.9830208243
 40
0.9875253764
 40
0.9918546118
 40
0.9960116
 40
1.0
 40
1.0
 40
1.0
 40
1.0
 10
13.6001162438
 20
8.1687623989
 30
0.0
 10
13.5990057507
 20
8.168839418
 30
0.0
 10
13.5967821198
 20
8.1690945514
 30
0.0
 10
13.5934749955
 20
8.1697772983
 30
0.0
 10
13.5901928501
 20
8.1707598822
 30
0.0
 10
13.5869380523
 20
8.172041459
 30
0.0
 10
13.5837122667
 20
8.1736208225
 30
0.0
 10
13.5805171332
 20
8.1754967342
 30
0.0
 10
13.5773541739
 20
8.1776679236
 30
0.0
 10
13.574224723
 20
8.180132921
 30
0.0
 10
13.5711301996
 20
8.1828903697
 30
0.0
 10
13.5680719038
 20
8.1859387188
 30
0.0
 10
13.5650511551
 20
8.189276373
 30
0.0
 10
13.5620693541
 20
8.1929016833
 30
0.0
 10
13.5591277731
 20
8.1968127866
 30
0.0
 10
13.5562278327
 20
8.2010077934
 30
0.0
 10
13.5533708734
 20
8.2054846211
 30
0.0
 10
13.550558229
 20
8.2102410556
 30
0.0
 10
13.547791319
 20
8.2152747841
 30
0.0
 10
13.545071429
 20
8.220583287
 30
0.0
 10
13.5423999034
 20
8.2261639693
 30
0.0
 10
13.5388432532
 20
8.2341002724
 30
0.0
 10
13.5345422005
 20
8.2446947344
 30
0.0
 10
13.5296788709
 20
8.2582371367
 30
0.0
 10
13.5250386537
 20
8.2727910779
 30
0.0
 10
13.5206308871
 20
8.2883275835
 30
0.0
 10
13.5164644597
 20
8.3048159451
 30
0.0
 10
13.5125478214
 20
8.3222233251
 30
0.0
 10
13.5088889305
 20
8.3405149981
 30
0.0
 10
13.5054952377
 20
8.3596543912
 30
0.0
 10
13.5023736469
 20
8.3796031749
 30
0.0
 10
13.4995305057
 20
8.4003213501
 30
0.0
 10
13.4969716015
 20
8.4217673469
 30
0.0
 10
13.4947021458
 20
8.4438981154
 30
0.0
 10
13.4927267661
 20
8.4666692088
 30
0.0
 10
13.4910494779
 20
8.4900348736
 30
0.0
 10
13.489673695
 20
8.5139481487
 30
0.0
 10
13.4886022229
 20
8.5383609667
 30
0.0
 10
13.4878372527
 20
8.5632242541
 30
0.0
 10
13.4873803618
 20
8.5884880093
 30
0.0
 10
13.4872324582
 20
8.6141014702
 30
0.0
 10
13.4874487678
 20
8.6488055328
 30
0.0
 10
13.4884982658
 20
8.6926783349
 30
0.0
 10
13.4909716465
 20
8.7456516813
 30
0.0
 10
13.4946451333
 20
8.7987597696
 30
0.0
 10
13.4994892301
 20
8.8515755755
 30
0.0
 10
13.5044907892
 20
8.8951843969
 30
0.0
 10
13.509055283
 20
8.9295983903
 30
0.0
 10
13.5127289772
 20
8.9549578741
 30
0.0
 10
13.5166606748
 20
8.9799299708
 30
0.0
 10
13.5208424783
 20
9.0044645087
 30
0.0
 10
13.525265943
 20
9.02851215
 30
0.0
 10
13.5299221518
 20
9.0520245527
 30
0.0
 10
13.5348017036
 20
9.0749544594
 30
0.0
 10
13.5398947416
 20
9.097255799
 30
0.0
 10
13.5451909802
 20
9.118883773
 30
0.0
 10
13.5506797225
 20
9.1397949459
 30
0.0
 10
13.5563498856
 20
9.1599473411
 30
0.0
 10
13.5621900046
 20
9.1793005391
 30
0.0
 10
13.5681882739
 20
9.197815759
 30
0.0
 10
13.5743325718
 20
9.2154559336
 30
0.0
 10
13.5806104925
 20
9.2321858031
 30
0.0
 10
13.5870093687
 20
9.2479719761
 30
0.0
 10
13.5935163098
 20
9.2627831384
 30
0.0
 10
13.6001182244
 20
9.2765897203
 30
0.0
 10
13.6057745117
 20
9.2874013349
 30
0.0
 10
13.6103462414
 20
9.2955155955
 30
0.0
 10
13.6137358127
 20
9.3012360416
 30
0.0
 10
13.6171392182
 20
9.3066856739
 30
0.0
 10
13.6205547731
 20
9.3118617884
 30
0.0
 10
13.6239807398
 20
9.3167618226
 30
0.0
 10
13.627415508
 20
9.3213833385
 30
0.0
 10
13.6308573822
 20
9.3257241255
 30
0.0
 10
13.6343047846
 20
9.3297820344
 30
0.0
 10
13.6377558221
 20
9.3335548629
 30
0.0
 10
13.6401056377
 20
9.3359270945
 30
0.0
 10
13.6412811864
 20
9.3370625873
 30
0.0
  0
SPLINE
  5
3BC
100
AcDbEntity
  8
0
100
AcDbSpline
 62
7
  6
CONTINUOUS
 70
0
 71
3
 72
58
 73
54
 74
0
 42
0.0000001
 43
0.0000001
 44
0.0000000001
 40
0.0
 40
0.0
 40
0.0
 40
0.0
 40
0.0075207316
 40
0.0156240154
 40
0.0243308441
 40
0.0336545885
 40
0.0436023967
 40
0.0541763293
 40
0.0653743668
 40
0.0771909241
 40
0.0896174474
 40
0.1026428707
 40
0.1162537836
 40
0.1304348295
 40
0.1451688775
 40
0.1604371108
 40
0.1762193149
 40
0.192493906
 40
0.2092380423
 40
0.2264278164
 40
0.2440382293
 40
0.2620433425
 40
0.2991290016
 40
0.3374620136
 40
0.3768083309
 40
0.4169256089
 40
0.4575652772
 40
0.498474595
 40
0.5393986926
 40
0.5800825786
 40
0.6202731659
 40
0.6597213038
 40
0.6981838101
 40
0.7354255563
 40
0.771221655
 40
0.7885111024
 40
0.8053606191
 40
0.8217460097
 40
0.8376442201
 40
0.8530333336
 40
0.8678928049
 40
0.8822035224
 40
0.8959478967
 40
0.9091101695
 40
0.9216764813
 40
0.9336351439
 40
0.9449770313
 40
0.9556958254
 40
0.9657886213
 40
0.9752564319
 40
0.9841051206
 40
0.9923469282
 40
1.0
 40
1.0
 40
1.0
 40
1.0
 10
13.5559101641
 20
8.3663657158
 30
0.0
 10
13.554603101
 20
8.3679728059
 30
0.0
 10
13.5520277152
 20
8.3714267495
 30
0.0
 10
13.5484035639
 20
8.3770690367
 30
0.0
 10
13.5448828349
 20
8.3833520146
 30
0.0
 10
13.5414711799
 20
8.3902654309
 30
0.0
 10
13.5381737559
 20
8.3977985266
 30
0.0
 10
13.5349958219
 20
8.405939211
 30
0.0
 10
13.5319425966
 20
8.4146743778
 30
0.0
 10
13.529019088
 20
8.4239898082
 30
0.0
 10
13.526230136
 20
8.4338702669
 30
0.0
 10
13.5235804411
 20
8.4442995356
 30
0.0
 10
13.521074393
 20
8.4552604263
 30
0.0
 10
13.5187162036
 20
8.4667348451
 30
0.0
 10
13.5165098542
 20
8.4787038202
 30
0.0
 10
13.5144590059
 20
8.4911475306
 30
0.0
 10
13.5125671302
 20
8.5040453566
 30
0.0
 10
13.5108374051
 20
8.5173759093
 30
0.0
 10
13.5092727038
 20
8.531117071
 30
0.0
 10
13.5078756963
 20
8.5452460282
 30
0.0
 10
13.5066486812
 20
8.559739343
 30
0.0
 10
13.5052281977
 20
8.5797142091
 30
0.0
 10
13.5039038178
 20
8.6054156806
 30
0.0
 10
13.5030321154
 20
8.6370172469
 30
0.0
 10
13.5028691281
 20
8.6694653754
 30
0.0
 10
13.5034161551
 20
8.7025445525
 30
0.0
 10
13.5046697745
 20
8.736035228
 30
0.0
 10
13.506621755
 20
8.7697150212
 30
0.0
 10
13.5092591755
 20
8.8033602962
 30
0.0
 10
13.5125645058
 20
8.8367476441
 30
0.0
 10
13.516515692
 20
8.8696554007
 30
0.0
 10
13.5210863225
 20
8.9018651104
 30
0.0
 10
13.5262457896
 20
8.9331630946
 30
0.0
 10
13.5319595673
 20
8.9633415638
 30
0.0
 10
13.5372097831
 20
8.987664386
 30
0.0
 10
13.5416708447
 20
9.0064041994
 30
0.0
 10
13.5450918035
 20
9.0198941564
 30
0.0
 10
13.5486208772
 20
9.0329597235
 30
0.0
 10
13.5522521835
 20
9.0455792462
 30
0.0
 10
13.5559796903
 20
9.0577317882
 30
0.0
 10
13.5597971606
 20
9.0693972179
 30
0.0
 10
13.5636982088
 20
9.0805562265
 30
0.0
 10
13.5676763688
 20
9.0911903514
 30
0.0
 10
13.5717249703
 20
9.101282048
 30
0.0
 10
13.5758372817
 20
9.1108146913
 30
0.0
 10
13.5800065024
 20
9.1197726098
 30
0.0
 10
13.5842256819
 20
9.1281411682
 30
0.0
 10
13.5884879122
 20
9.1359067389
 30
0.0
 10
13.5927862719
 20
9.1430567575
 30
0.0
 10
13.5971137499
 20
9.1495797678
 30
0.0
 10
13.601463813
 20
9.1554656273
 30
0.0
 10
13.6058294343
 20
9.1607045139
 30
0.0
 10
13.6088553964
 20
9.1638750192
 30
0.0
 10
13.6103715574
 20
9.1653395183
 30
0.0
  0
SPLINE
  5
3BD
100
AcDbEntity
  8
0
100
AcDbSpline
 62
7
  6
CONTINUOUS
 70
0
 71
3
 72
9
 73
5
 74
0
 42
0.0000001
 43
0.0000001
 44
0.0000000001
 40
0.0
 40
0.0
 40
0.0
 40
0.0
 40
0.4961062954
 40
1.0
 40
1.0
 40
1.0
 40
1.0
 10
13.5457904975
 20
8.3930583017
 30
0.0
 10
13.5447736063
 20
8.3931288321
 30
0.0
 10
13.5427310406
 20
8.3934057177
 30
0.0
 10
13.5407415847
 20
8.3939430456
 30
0.0
 10
13.5397602429
 20
8.3942730249
 30
0.0
  0
SPLINE
  5
3BE
100
AcDbEntity
  8
0
100
AcDbSpline
 62
7
  6
CONTINUOUS
 70
0
 71
3
 72
9
 73
5
 74
0
 42
0.0000001
 43
0.0000001
 44
0.0000000001
 40
0.0
 40
0.0
 40
0.0
 40
0.0
 40
0.4961239314
 40
1.0
 40
1.0
 40
1.0
 40
1.0
 10
13.5976785466
 20
9.1412612266
 30
0.0
 10
13.5966640578
 20
9.1413315904
 30
0.0
 10
13.5946077968
 20
9.1413395931
 30
0.0
 10
13.5925680324
 20
9.1410835571
 30
0.0
 10
13.5915528987
 20
9.1408932618
 30
0.0
  0
SPLINE
  5
3BF
100
AcDbEntity
  8
0
100
AcDbSpline
 62
7
  6
CONTINUOUS
 70
0
 71
3
 72
81
 73
77
 74
0
 42
0.0000001
 43
0.0000001
 44
0.0000000001
 40
0.0
 40
0.0
 40
0.0
 40
0.0
 40
0.0027164306
 40
0.0054532406
 40
0.0082303113
 40
0.0110666128
 40
0.0139798282
 40
0.0169861412
 40
0.0201001195
 40
0.0233346405
 40
0.0267010082
 40
0.0302089739
 40
0.0338668927
 40
0.0376818791
 40
0.0416598591
 40
0.0458058003
 40
0.0501237459
 40
0.0546169413
 40
0.0592879758
 40
0.0641387574
 40
0.0691706959
 40
0.0743846914
 40
0.0853596139
 40
0.0970634815
 40
0.1094902477
 40
0.1226295218
 40
0.1364672103
 40
0.1509860393
 40
0.1661659502
 40
0.1819844132
 40
0.1984166695
 40
0.2154359556
 40
0.233013703
 40
0.2511197005
 40
0.2697222361
 40
0.2887882189
 40
0.3082833183
 40
0.3281720849
 40
0.3484180605
 40
0.368983879
 40
0.38983137
 40
0.4109216725
 40
0.4536716934
 40
0.496913714
 40
0.5403220126
 40
0.5835692765
 40
0.6263297382
 40
0.6474271808
 40
0.6682830633
 40
0.6888585076
 40
0.7091153275
 40
0.7290161282
 40
0.7485244101
 40
0.7676046883
 40
0.786222604
 40
0.804345033
 40
0.8219402078
 40
0.8389778539
 40
0.8554293539
 40
0.8712678975
 40
0.8864686613
 40
0.9010090234
 40
0.9148688331
 40
0.9280307344
 40
0.9404805411
 40
0.9522077238
 40
0.9577984982
 40
0.963206723
 40
0.9684324181
 40
0.9734760178
 40
0.9783383767
 40
0.9830208243
 40
0.9875253764
 40
0.9918546118
 40
0.9960116
 40
1.0
 40
1.0
 40
1.0
 40
1.0
 10
13.1471832887
 20
7.731262734
 30
0.0
 10
13.1460727956
 20
7.7313397531
 30
0.0
 10
13.1438491646
 20
7.7315948865
 30
0.0
 10
13.1405420403
 20
7.7322776334
 30
0.0
 10
13.137259895
 20
7.7332602173
 30
0.0
 10
13.1340050971
 20
7.7345417941
 30
0.0
 10
13.1307793116
 20
7.7361211577
 30
0.0
 10
13.1275841781
 20
7.7379970694
 30
0.0
 10
13.1244212188
 20
7.7401682588
 30
0.0
 10
13.1212917679
 20
7.7426332561
 30
0.0
 10
13.1181972444
 20
7.7453907048
 30
0.0
 10
13.1151389487
 20
7.7484390539
 30
0.0
 10
13.1121181999
 20
7.7517767081
 30
0.0
 10
13.1091363989
 20
7.7554020184
 30
0.0
 10
13.1061948179
 20
7.7593131217
 30
0.0
 10
13.1032948776
 20
7.7635081286
 30
0.0
 10
13.1004379183
 20
7.7679849562
 30
0.0
 10
13.0976252739
 20
7.7727413907
 30
0.0
 10
13.0948583639
 20
7.7777751192
 30
0.0
 10
13.0921384739
 20
7.7830836222
 30
0.0
 10
13.0894669483
 20
7.7886643045
 30
0.0
 10
13.085910298
 20
7.7966006076
 30
0.0
 10
13.0816092454
 20
7.8071950695
 30
0.0
 10
13.0767459158
 20
7.8207374718
 30
0.0
 10
13.0721056986
 20
7.8352914131
 30
0.0
 10
13.0676979319
 20
7.8508279187
 30
0.0
 10
13.0635315046
 20
7.8673162803
 30
0.0
 10
13.0596148663
 20
7.8847236602
 30
0.0
 10
13.0559559754
 20
7.9030153332
 30
0.0
 10
13.0525622826
 20
7.9221547264
 30
0.0
 10
13.0494406918
 20
7.94210351
 30
0.0
 10
13.0465975506
 20
7.9628216852
 30
0.0
 10
13.0440386464
 20
7.9842676821
 30
0.0
 10
13.0417691907
 20
8.0063984506
 30
0.0
 10
13.0397938109
 20
8.029169544
 30
0.0
 10
13.0381165228
 20
8.0525352088
 30
0.0
 10
13.0367407398
 20
8.0764484838
 30
0.0
 10
13.0356692678
 20
8.1008613018
 30
0.0
 10
13.0349042975
 20
8.1257245892
 30
0.0
 10
13.0344474066
 20
8.1509883444
 30
0.0
 10
13.0342995031
 20
8.1766018054
 30
0.0
 10
13.0345158126
 20
8.211305868
 30
0.0
 10
13.0355653107
 20
8.2551786701
 30
0.0
 10
13.0380386914
 20
8.3081520164
 30
0.0
 10
13.0417121782
 20
8.3612601048
 30
0.0
 10
13.046556275
 20
8.4140759106
 30
0.0
 10
13.0515578341
 20
8.4576847321
 30
0.0
 10
13.0561223279
 20
8.4920987255
 30
0.0
 10
13.059796022
 20
8.5174582092
 30
0.0
 10
13.0637277197
 20
8.542430306
 30
0.0
 10
13.0679095231
 20
8.5669648438
 30
0.0
 10
13.0723329879
 20
8.5910124852
 30
0.0
 10
13.0769891967
 20
8.6145248878
 30
0.0
 10
13.0818687484
 20
8.6374547945
 30
0.0
 10
13.0869617865
 20
8.6597561341
 30
0.0
 10
13.0922580251
 20
8.6813841082
 30
0.0
 10
13.0977467673
 20
8.702295281
 30
0.0
 10
13.1034169305
 20
8.7224476763
 30
0.0
 10
13.1092570494
 20
8.7418008742
 30
0.0
 10
13.1152553187
 20
8.7603160942
 30
0.0
 10
13.1213996167
 20
8.7779562687
 30
0.0
 10
13.1276775374
 20
8.7946861382
 30
0.0
 10
13.1340764136
 20
8.8104723112
 30
0.0
 10
13.1405833547
 20
8.8252834735
 30
0.0
 10
13.1471852693
 20
8.8390900554
 30
0.0
 10
13.1528415566
 20
8.84990167
 30
0.0
 10
13.1574132863
 20
8.8580159306
 30
0.0
 10
13.1608028576
 20
8.8637363767
 30
0.0
 10
13.164206263
 20
8.8691860091
 30
0.0
 10
13.167621818
 20
8.8743621235
 30
0.0
 10
13.1710477847
 20
8.8792621577
 30
0.0
 10
13.1744825529
 20
8.8838836736
 30
0.0
 10
13.1779244271
 20
8.8882244607
 30
0.0
 10
13.1813718295
 20
8.8922823696
 30
0.0
 10
13.184822867
 20
8.8960551981
 30
0.0
 10
13.1871726826
 20
8.8984274296
 30
0.0
 10
13.1883482312
 20
8.8995629225
 30
0.0
  0
SPLINE
  5
3C0
100
AcDbEntity
  8
0
100
AcDbSpline
 62
7
  6
CONTINUOUS
 70
0
 71
3
 72
58
 73
54
 74
0
 42
0.0000001
 43
0.0000001
 44
0.0000000001
 40
0.0
 40
0.0
 40
0.0
 40
0.0
 40
0.0075207316
 40
0.0156240154
 40
0.0243308441
 40
0.0336545885
 40
0.0436023967
 40
0.0541763293
 40
0.0653743668
 40
0.0771909241
 40
0.0896174474
 40
0.1026428707
 40
0.1162537836
 40
0.1304348295
 40
0.1451688775
 40
0.1604371108
 40
0.1762193149
 40
0.192493906
 40
0.2092380423
 40
0.2264278164
 40
0.2440382293
 40
0.2620433425
 40
0.2991290016
 40
0.3374620136
 40
0.3768083309
 40
0.4169256089
 40
0.4575652772
 40
0.498474595
 40
0.5393986926
 40
0.5800825786
 40
0.6202731659
 40
0.6597213038
 40
0.6981838101
 40
0.7354255563
 40
0.771221655
 40
0.7885111024
 40
0.8053606191
 40
0.8217460097
 40
0.8376442201
 40
0.8530333336
 40
0.8678928049
 40
0.8822035224
 40
0.8959478967
 40
0.9091101695
 40
0.9216764813
 40
0.9336351439
 40
0.9449770313
 40
0.9556958254
 40
0.9657886213
 40
0.9752564319
 40
0.9841051206
 40
0.9923469282
 40
1.0
 40
1.0
 40
1.0
 40
1.0
 10
13.1029772089
 20
7.9288660509
 30
0.0
 10
13.1016701458
 20
7.930473141
 30
0.0
 10
13.0990947601
 20
7.9339270846
 30
0.0
 10
13.0954706087
 20
7.9395693718
 30
0.0
 10
13.0919498797
 20
7.9458523497
 30
0.0
 10
13.0885382247
 20
7.9527657661
 30
0.0
 10
13.0852408008
 20
7.9602988617
 30
0.0
 10
13.0820628668
 20
7.9684395461
 30
0.0
 10
13.0790096415
 20
7.9771747129
 30
0.0
 10
13.0760861328
 20
7.9864901433
 30
0.0
 10
13.0732971809
 20
7.996370602
 30
0.0
 10
13.0706474859
 20
8.0067998707
 30
0.0
 10
13.0681414379
 20
8.0177607614
 30
0.0
 10
13.0657832484
 20
8.0292351803
 30
0.0
 10
13.063576899
 20
8.0412041553
 30
0.0
 10
13.0615260508
 20
8.0536478657
 30
0.0
 10
13.0596341751
 20
8.0665456918
 30
0.0
 10
13.05790445
 20
8.0798762445
 30
0.0
 10
13.0563397487
 20
8.0936174061
 30
0.0
 10
13.0549427412
 20
8.1077463634
 30
0.0
 10
13.0537157261
 20
8.1222396782
 30
0.0
 10
13.0522952426
 20
8.1422145443
 30
0.0
 10
13.0509708626
 20
8.1679160157
 30
0.0
 10
13.0500991602
 20
8.199517582
 30
0.0
 10
13.049936173
 20
8.2319657105
 30
0.0
 10
13.0504832
 20
8.2650448876
 30
0.0
 10
13.0517368194
 20
8.2985355631
 30
0.0
 10
13.0536887999
 20
8.3322153563
 30
0.0
 10
13.0563262203
 20
8.3658606314
 30
0.0
 10
13.0596315507
 20
8.3992479792
 30
0.0
 10
13.0635827368
 20
8.4321557358
 30
0.0
 10
13.0681533673
 20
8.4643654455
 30
0.0
 10
13.0733128344
 20
8.4956634297
 30
0.0
 10
13.0790266122
 20
8.5258418989
 30
0.0
 10
13.0842768279
 20
8.5501647211
 30
0.0
 10
13.0887378895
 20
8.5689045345
 30
0.0
 10
13.0921588484
 20
8.5823944915
 30
0.0
 10
13.0956879221
 20
8.5954600586
 30
0.0
 10
13.0993192284
 20
8.6080795814
 30
0.0
 10
13.1030467351
 20
8.6202321233
 30
0.0
 10
13.1068642054
 20
8.6318975531
 30
0.0
 10
13.1107652536
 20
8.6430565616
 30
0.0
 10
13.1147434137
 20
8.6536906865
 30
0.0
 10
13.1187920152
 20
8.6637823831
 30
0.0
 10
13.1229043265
 20
8.6733150264
 30
0.0
 10
13.1270735473
 20
8.682272945
 30
0.0
 10
13.1312927267
 20
8.6906415033
 30
0.0
 10
13.135554957
 20
8.698407074
 30
0.0
 10
13.1398533167
 20
8.7055570927
 30
0.0
 10
13.1441807948
 20
8.7120801029
 30
0.0
 10
13.1485308579
 20
8.7179659625
 30
0.0
 10
13.1528964792
 20
8.723204849
 30
0.0
 10
13.1559224413
 20
8.7263753544
 30
0.0
 10
13.1574386022
 20
8.7278398535
 30
0.0
  0
SPLINE
  5
3C1
100
AcDbEntity
  8
0
100
AcDbSpline
 62
7
  6
CONTINUOUS
 70
0
 71
3
 72
9
 73
5
 74
0
 42
0.0000001
 43
0.0000001
 44
0.0000000001
 40
0.0
 40
0.0
 40
0.0
 40
0.0
 40
0.4961062954
 40
1.0
 40
1.0
 40
1.0
 40
1.0
 10
13.0928575424
 20
7.9555586369
 30
0.0
 10
13.0918406512
 20
7.9556291673
 30
0.0
 10
13.0897980854
 20
7.9559060529
 30
0.0
 10
13.0878086296
 20
7.9564433808
 30
0.0
 10
13.0868272878
 20
7.95677336
 30
0.0
  0
SPLINE
  5
3C2
100
AcDbEntity
  8
0
100
AcDbSpline
 62
7
  6
CONTINUOUS
 70
0
 71
3
 72
15
 73
11
 74
0
 42
0.0000001
 43
0.0000001
 44
0.0000000001
 40
0.0
 40
0.0
 40
0.0
 40
0.0
 40
0.0853526784
 40
0.1793628571
 40
0.2837485101
 40
0.4002333869
 40
0.530275177
 40
0.6745461468
 40
0.8321587989
 40
1.0
 40
1.0
 40
1.0
 40
1.0
 10
10.9257628606
 20
7.6641369523
 30
0.0
 10
10.9239078856
 20
7.6648070291
 30
0.0
 10
10.9200969166
 20
7.666466737
 30
0.0
 10
10.914430392
 20
7.6697941822
 30
0.0
 10
10.9086151603
 20
7.6741944827
 30
0.0
 10
10.9027329333
 20
7.6798002618
 30
0.0
 10
10.8969104213
 20
7.686726205
 30
0.0
 10
10.8913326433
 20
7.695025612
 30
0.0
 10
10.8862373656
 20
7.7046301438
 30
0.0
 10
10.8833882659
 20
7.7116053383
 30
0.0
 10
10.8820908939
 20
7.7152603093
 30
0.0
  0
SPLINE
  5
3C3
100
AcDbEntity
  8
0
100
AcDbSpline
 62
7
  6
CONTINUOUS
 70
0
 71
3
 72
9
 73
5
 74
0
 42
0.0000001
 43
0.0000001
 44
0.0000000001
 40
0.0
 40
0.0
 40
0.0
 40
0.0
 40
0.4961239314
 40
1.0
 40
1.0
 40
1.0
 40
1.0
 10
13.1447455914
 20
8.7037615618
 30
0.0
 10
13.1437311027
 20
8.7038319255
 30
0.0
 10
13.1416748417
 20
8.7038399283
 30
0.0
 10
13.1396350772
 20
8.7035838922
 30
0.0
 10
13.1386199436
 20
8.7033935969
 30
0.0
  0
SPLINE
  5
3C4
100
AcDbEntity
  8
0
100
AcDbSpline
 62
7
  6
CONTINUOUS
 70
0
 71
3
 72
26
 73
22
 74
0
 42
0.0000001
 43
0.0000001
 44
0.0000000001
 40
0.0
 40
0.0
 40
0.0
 40
0.0
 40
0.0952584845
 40
0.1854914797
 40
0.2707019269
 40
0.3509300463
 40
0.4262503554
 40
0.4967726497
 40
0.5626473626
 40
0.6240667763
 40
0.681272306
 40
0.7345677454
 40
0.7843286696
 40
0.831018018
 40
0.8752016379
 40
0.8965753669
 40
0.9175836583
 40
0.9383250134
 40
0.9589027669
 40
0.9794249661
 40
1.0
 40
1.0
 40
1.0
 40
1.0
 10
11.1563854724
 20
8.186854413
 30
0.0
 10
11.1558363081
 20
8.1843530813
 30
0.0
 10
11.154908165
 20
8.1794498104
 30
0.0
 10
11.1540014048
 20
8.1722242912
 30
0.0
 10
11.15359143
 20
8.1653579352
 30
0.0
 10
11.1536498093
 20
8.1588803338
 30
0.0
 10
11.1541463416
 20
8.1528173038
 30
0.0
 10
11.1550496547
 20
8.1471915098
 30
0.0
 10
11.1563276579
 20
8.1420224941
 30
0.0
 10
11.1579483643
 20
8.137327019
 30
0.0
 10
11.1598802425
 20
8.1331193501
 30
0.0
 10
11.1620925985
 20
8.1294117014
 30
0.0
 10
11.1645563368
 20
8.1262146622
 30
0.0
 10
11.1672428504
 20
8.1235382107
 30
0.0
 10
11.1696733814
 20
8.121728864
 30
0.0
 10
11.1716920398
 20
8.1205666767
 30
0.0
 10
11.1732272254
 20
8.1198390292
 30
0.0
 10
11.1747966718
 20
8.1192467767
 30
0.0
 10
11.176397375
 20
8.1187904143
 30
0.0
 10
11.1780261309
 20
8.1184703709
 30
0.0
 10
11.1791257437
 20
8.1183484433
 30
0.0
 10
11.1796775524
 20
8.1183101709
 30
0.0
  0
SPLINE
  5
3C5
100
AcDbEntity
  8
0
100
AcDbSpline
 62
7
  6
CONTINUOUS
 70
0
 71
3
 72
39
 73
35
 74
0
 42
0.0000001
 43
0.0000001
 44
0.0000000001
 40
0.0
 40
0.0
 40
0.0
 40
0.0
 40
0.0299424712
 40
0.0599093185
 40
0.0899243247
 40
0.120010104
 40
0.1501875625
 40
0.1804754137
 40
0.2108897572
 40
0.2414437336
 40
0.272147258
 40
0.3030068403
 40
0.3340254914
 40
0.3652027096
 40
0.3965345442
 40
0.4280137297
 40
0.4596298866
 40
0.4913697802
 40
0.5232176274
 40
0.5551554443
 40
0.5871634289
 40
0.6192203717
 40
0.6513040877
 40
0.6833918591
 40
0.7154608877
 40
0.7474887471
 40
0.7794538319
 40
0.8113357927
 40
0.8431159543
 40
0.8747777099
 40
0.9063068688
 40
0.9376920891
 40
0.9689246464
 40
1.0
 40
1.0
 40
1.0
 40
1.0
 10
8.361711446
 20
7.590538249
 30
0.0
 10
8.369010899
 20
7.5975889842
 30
0.0
 10
8.3841837693
 20
7.6111214402
 30
0.0
 10
8.4084930733
 20
7.6295570224
 30
0.0
 10
8.4342281284
 20
7.6460372293
 30
0.0
 10
8.4612451406
 20
7.6604696034
 30
0.0
 10
8.4893955603
 20
7.6727753172
 30
0.0
 10
8.5185240282
 20
7.6828867304
 30
0.0
 10
8.548470032
 20
7.6907485166
 30
0.0
 10
8.5790685958
 20
7.6963177333
 30
0.0
 10
8.6101512462
 20
7.6995641285
 30
0.0
 10
8.6415469386
 20
7.7004702698
 30
0.0
 10
8.6730830056
 20
7.6990315827
 30
0.0
 10
8.7045860975
 20
7.6952563642
 30
0.0
 10
8.7358831205
 20
7.6891657092
 30
0.0
 10
8.7668021834
 20
7.680793425
 30
0.0
 10
8.7971735336
 20
7.6701858195
 30
0.0
 10
8.8268304674
 20
7.657401411
 30
0.0
 10
8.8556102319
 20
7.6425106114
 30
0.0
 10
8.8833548979
 20
7.6255953316
 30
0.0
 10
8.9099122389
 20
7.6067485742
 30
0.0
 10
8.9351365489
 20
7.586073901
 30
0.0
 10
8.9588894183
 20
7.5636848515
 30
0.0
 10
8.981040487
 20
7.5397043319
 30
0.0
 10
9.0014681433
 20
7.5142639447
 30
0.0
 10
9.0200602257
 20
7.487503306
 30
0.0
 10
9.0367146094
 20
7.4595692621
 30
0.0
 10
9.0513397492
 20
7.4306150818
 30
0.0
 10
9.063855184
 20
7.4007996507
 30
0.0
 10
9.0741919606
 20
7.3702865416
 30
0.0
 10
9.0822931083
 20
7.3392433919
 30
0.0
 10
9.0881137755
 20
7.3078400886
 30
0.0
 10
9.0916218032
 20
7.2762512945
 30
0.0
 10
9.0924075122
 20
7.2551246745
 30
0.0
 10
9.0924075122
 20
7.2445920583
 30
0.0
  0
SPLINE
  5
3C6
100
AcDbEntity
  8
0
100
AcDbSpline
 62
7
  6
CONTINUOUS
 70
0
 71
3
 72
75
 73
71
 74
0
 42
0.0000001
 43
0.0000001
 44
0.0000000001
 40
0.0
 40
0.0
 40
0.0
 40
0.0
 40
0.0038920325
 40
0.0079426654
 40
0.0121552516
 40
0.0165326044
 40
0.0210771182
 40
0.0257907156
 40
0.030674734
 40
0.035730023
 40
0.0463554446
 40
0.0576676172
 40
0.0696617677
 40
0.0823292036
 40
0.0956578988
 40
0.1096329112
 40
0.1242367761
 40
0.1394497943
 40
0.1552502408
 40
0.17161455
 40
0.188517516
 40
0.2059324376
 40
0.223831225
 40
0.2421845178
 40
0.2609618193
 40
0.2801315946
 40
0.2996613478
 40
0.3195177221
 40
0.3600725073
 40
0.4015161949
 40
0.4435601645
 40
0.4859104116
 40
0.5282702013
 40
0.5703427107
 40
0.6118336822
 40
0.6524540699
 40
0.6723499348
 40
0.6919235077
 40
0.7111413424
 40
0.729970836
 40
0.7483803114
 40
0.7663391217
 40
0.7838177747
 40
0.8007880175
 40
0.8172229445
 40
0.8330971407
 40
0.8483868473
 40
0.8630700953
 40
0.8771268894
 40
0.8905394582
 40
0.9032925481
 40
0.9153737316
 40
0.9267738379
 40
0.9374875435
 40
0.9425869218
 40
0.9475148439
 40
0.9522721255
 40
0.9568599628
 40
0.9612800236
 40
0.9655345509
 40
0.9696263266
 40
0.9735588425
 40
0.977336351
 40
0.9809639127
 40
0.9844475988
 40
0.9877945141
 40
0.9910129334
 40
0.994112455
 40
0.9971040128
 40
1.0
 40
1.0
 40
1.0
 40
1.0
 10
13.6103715574
 20
8.189754376
 30
0.0
 10
13.6115040157
 20
8.1908482468
 30
0.0
 10
13.6137678006
 20
8.1931299452
 30
0.0
 10
13.6170950584
 20
8.1967520341
 30
0.0
 10
13.6204190912
 20
8.200639253
 30
0.0
 10
13.6237381576
 20
8.2047896404
 30
0.0
 10
13.6270508453
 20
8.2092012566
 30
0.0
 10
13.6303556342
 20
8.2138721443
 30
0.0
 10
13.6336510968
 20
8.2188001672
 30
0.0
 10
13.6381046717
 20
8.2258278175
 30
0.0
 10
13.6436261712
 20
8.2352531128
 30
0.0
 10
13.6500848485
 20
8.2473690384
 30
0.0
 10
13.6564701471
 20
8.2604493781
 30
0.0
 10
13.6627701665
 20
8.27446994
 30
0.0
 10
13.66897317
 20
8.2894050009
 30
0.0
 10
13.6750675645
 20
8.3052269286
 30
0.0
 10
13.6810419278
 20
8.3219064037
 30
0.0
 10
13.6868850408
 20
8.3394124536
 30
0.0
 10
13.6925859283
 20
8.3577125153
 30
0.0
 10
13.6981338985
 20
8.3767724968
 30
0.0
 10
13.7035185333
 20
8.3965568678
 30
0.0
 10
13.7087297134
 20
8.4170287317
 30
0.0
 10
13.7137576546
 20
8.438149884
 30
0.0
 10
13.7185929309
 20
8.4598808849
 30
0.0
 10
13.7232264717
 20
8.4821811538
 30
0.0
 10
13.7276495652
 20
8.5050090325
 30
0.0
 10
13.7318539536
 20
8.5283219028
 30
0.0
 10
13.7371949859
 20
8.5602179313
 30
0.0
 10
13.7432561378
 20
8.6009784846
 30
0.0
 10
13.7494942631
 20
8.6507737028
 30
0.0
 10
13.7547001325
 20
8.7014176182
 30
0.0
 10
13.7588346905
 20
8.752531919
 30
0.0
 10
13.761866989
 20
8.8037349998
 30
0.0
 10
13.7637744637
 20
8.8546445808
 30
0.0
 10
13.7645430137
 20
8.9048803414
 30
0.0
 10
13.7642279976
 20
8.9461495002
 30
0.0
 10
13.7633903693
 20
8.9785390263
 30
0.0
 10
13.7624808048
 20
9.0022636969
 30
0.0
 10
13.761287429
 20
9.0255438439
 30
0.0
 10
13.7598124735
 20
9.0483360075
 30
0.0
 10
13.7580587327
 20
9.0705975939
 30
0.0
 10
13.7560295112
 20
9.0922870219
 30
0.0
 10
13.753728659
 20
9.1133637931
 30
0.0
 10
13.7511605288
 20
9.1337885667
 30
0.0
 10
13.7483299685
 20
9.1535232272
 30
0.0
 10
13.74524232
 20
9.1725309708
 30
0.0
 10
13.7419034339
 20
9.190776386
 30
0.0
 10
13.7383196223
 20
9.2082255159
 30
0.0
 10
13.7344976451
 20
9.2248459191
 30
0.0
 10
13.7304447057
 20
9.240606768
 30
0.0
 10
13.7261684527
 20
9.2554788928
 30
0.0
 10
13.721676904
 20
9.2694349645
 30
0.0
 10
13.7169784477
 20
9.2824491287
 30
0.0
 10
13.7128323519
 20
9.292651382
 30
0.0
 10
13.7094082725
 20
9.3003122745
 30
0.0
 10
13.7068362711
 20
9.3057126932
 30
0.0
 10
13.7042192354
 20
9.3108603692
 30
0.0
 10
13.7015583087
 20
9.3157529374
 30
0.0
 10
13.6988546771
 20
9.3203881294
 30
0.0
 10
13.6961096201
 20
9.324763852
 30
0.0
 10
13.6933243045
 20
9.328878071
 30
0.0
 10
13.6904999731
 20
9.3327289072
 30
0.0
 10
13.6876378889
 20
9.3363146205
 30
0.0
 10
13.6847392019
 20
9.3396335018
 30
0.0
 10
13.68180519
 20
9.3426840426
 30
0.0
 10
13.6788370444
 20
9.3454647852
 30
0.0
 10
13.6758359514
 20
9.3479742959
 30
0.0
 10
13.672803125
 20
9.3502113792
 30
0.0
 10
13.6697400026
 20
9.3521746105
 30
0.0
 10
13.6676473197
 20
9.3533171025
 30
0.0
 10
13.6665985191
 20
9.3538391563
 30
0.0
  0
SPLINE
  5
3C7
100
AcDbEntity
  8
0
100
AcDbSpline
 62
7
  6
CONTINUOUS
 70
0
 71
3
 72
12
 73
8
 74
0
 42
0.0000001
 43
0.0000001
 44
0.0000000001
 40
0.0
 40
0.0
 40
0.0
 40
0.0
 40
0.2786801931
 40
0.5366651969
 40
0.6585908568
 40
0.7762136906
 40
1.0
 40
1.0
 40
1.0
 40
1.0
 10
13.6103715574
 20
8.189754376
 30
0.0
 10
13.6083300175
 20
8.1877823998
 30
0.0
 10
13.60425107
 20
8.1841326471
 30
0.0
 10
13.5988495992
 20
8.1801347548
 30
0.0
 10
13.5945387692
 20
8.1774655056
 30
0.0
 10
13.5903871028
 20
8.1752186421
 30
0.0
 10
13.5871766602
 20
8.1738478265
 30
0.0
 10
13.5850207003
 20
8.1731081826
 30
0.0
  0
SPLINE
  5
3C8
100
AcDbEntity
  8
0
100
AcDbSpline
 62
7
  6
CONTINUOUS
 70
0
 71
3
 72
23
 73
19
 74
0
 42
0.0000001
 43
0.0000001
 44
0.0000000001
 40
0.0
 40
0.0
 40
0.0
 40
0.0
 40
0.0755957668
 40
0.1466392768
 40
0.213465616
 40
0.2765144371
 40
0.3363265454
 40
0.3935471053
 40
0.4489233774
 40
0.5032884899
 40
0.5575264287
 40
0.6125277193
 40
0.6691437645
 40
0.7281492125
 40
0.7902196994
 40
0.8559237551
 40
0.9257265947
 40
1.0
 40
1.0
 40
1.0
 40
1.0
 10
13.6103715574
 20
8.363621035
 30
0.0
 10
13.6092181787
 20
8.3625069567
 30
0.0
 10
13.6069129256
 20
8.3604143633
 30
0.0
 10
13.6033453285
 20
8.357618756
 30
0.0
 10
13.5997818882
 20
8.355270845
 30
0.0
 10
13.5962259323
 20
8.3533741492
 30
0.0
 10
13.5926803958
 20
8.3519321446
 30
0.0
 10
13.5891489545
 20
8.3509482835
 30
0.0
 10
13.5856362091
 20
8.3504261449
 30
0.0
 10
13.5821480395
 20
8.3503680904
 30
0.0
 10
13.5786911394
 20
8.3507750868
 30
0.0
 10
13.5752722025
 20
8.3516458174
 30
0.0
 10
13.5718970498
 20
8.352977432
 30
0.0
 10
13.5685701407
 20
8.3547659844
 30
0.0
 10
13.5652948564
 20
8.3570074196
 30
0.0
 10
13.562073829
 20
8.3596978253
 30
0.0
 10
13.5589096685
 20
8.3628332406
 30
0.0
 10
13.5569042747
 20
8.3651434141
 30
0.0
 10
13.5559101641
 20
8.3663657158
 30
0.0
  0
SPLINE
  5
3C9
100
AcDbEntity
  8
0
100
AcDbSpline
 62
7
  6
CONTINUOUS
 70
0
 71
3
 72
17
 73
13
 74
0
 42
0.0000001
 43
0.0000001
 44
0.0000000001
 40
0.0
 40
0.0
 40
0.0
 40
0.0
 40
0.1504730098
 40
0.2917304958
 40
0.4244682464
 40
0.4879391303
 40
0.549641677
 40
0.6683008574
 40
0.7818339705
 40
0.8918016563
 40
0.9460162481
 40
1.0
 40
1.0
 40
1.0
 40
1.0
 10
13.571734522
 20
8.4049375579
 30
0.0
 10
13.570674394
 20
8.4039135528
 30
0.0
 10
13.5685555153
 20
8.4019921949
 30
0.0
 10
13.5652746829
 20
8.3994316833
 30
0.0
 10
13.5625034126
 20
8.3976207596
 30
0.0
 10
13.5602935827
 20
8.3963944594
 30
0.0
 10
13.5581488439
 20
8.3953416404
 30
0.0
 10
13.5554668485
 20
8.394277878
 30
0.0
 10
13.5522202553
 20
8.3934139221
 30
0.0
 10
13.549515364
 20
8.3930528366
 30
0.0
 10
13.5473781829
 20
8.3929842315
 30
0.0
 10
13.5463180164
 20
8.3930217136
 30
0.0
 10
13.5457904975
 20
8.3930583017
 30
0.0
  0
SPLINE
  5
3CA
100
AcDbEntity
  8
0
100
AcDbSpline
 62
7
  6
CONTINUOUS
 70
0
 71
3
 72
85
 73
81
 74
0
 42
0.0000001
 43
0.0000001
 44
0.0000000001
 40
0.0
 40
0.0
 40
0.0
 40
0.0
 40
0.0042066788
 40
0.0086074935
 40
0.0132068846
 40
0.0180084713
 40
0.023015212
 40
0.0282293573
 40
0.0336522808
 40
0.0392847056
 40
0.0451268543
 40
0.0511783894
 40
0.0639057609
 40
0.07745699
 40
0.0918160974
 40
0.1069625589
 40
0.1228718872
 40
0.1395161363
 40
0.1568643268
 40
0.1748827676
 40
0.1935353074
 40
0.2127835673
 40
0.2325871874
 40
0.2529040195
 40
0.2736902933
 40
0.2949007732
 40
0.3164889486
 40
0.3384071917
 40
0.3606069028
 40
0.4056514433
 40
0.4512209342
 40
0.49690678
 40
0.542299065
 40
0.5869912085
 40
0.6089502328
 40
0.6305856853
 40
0.6518497852
 40
0.6726958718
 40
0.6930785448
 40
0.7129538181
 40
0.7322792926
 40
0.7510143657
 40
0.7691204032
 40
0.7865609363
 40
0.8033018972
 40
0.8193119271
 40
0.834562679
 40
0.8490291784
 40
0.8626902981
 40
0.8755294023
 40
0.887535143
 40
0.8932240826
 40
0.8987034043
 40
0.9039737062
 40
0.9090362359
 40
0.9138928413
 40
0.9185462306
 40
0.9229999611
 40
0.9272585728
 40
0.9313278388
 40
0.9352147769
 40
0.9389279549
 40
0.9424776533
 40
0.9458759978
 40
0.9491372613
 40
0.9522778868
 40
0.9553165858
 40
0.9582742875
 40
0.9611738409
 40
0.9640396523
 40
0.9668970632
 40
0.9697716632
 40
0.9726885462
 40
0.9756716543
 40
0.9787432124
 40
0.985225325
 40
0.9886742562
 40
0.9922790821
 40
0.9960512612
 40
1.0
 40
1.0
 40
1.0
 40
1.0
 10
13.6103715574
 20
8.363621035
 30
0.0
 10
13.6112677345
 20
8.3644866757
 30
0.0
 10
13.6130589123
 20
8.3663023628
 30
0.0
 10
13.6156843977
 20
8.3692035257
 30
0.0
 10
13.6183065976
 20
8.3723409796
 30
0.0
 10
13.6209237819
 20
8.3757127093
 30
0.0
 10
13.6235345381
 20
8.3793167172
 30
0.0
 10
13.6261373334
 20
8.3831509627
 30
0.0
 10
13.6287307091
 20
8.3872131881
 30
0.0
 10
13.6313131224
 20
8.3915009934
 30
0.0
 10
13.6338830165
 20
8.3960118615
 30
0.0
 10
13.6373492883
 20
8.4024285249
 30
0.0
 10
13.6416296932
 20
8.4109976034
 30
0.0
 10
13.6466096596
 20
8.4219581111
 30
0.0
 10
13.6515039775
 20
8.4337368184
 30
0.0
 10
13.6563009016
 20
8.4463057483
 30
0.0
 10
13.6609889143
 20
8.4596351952
 30
0.0
 10
13.665556746
 20
8.4736934733
 30
0.0
 10
13.6699934015
 20
8.4884471278
 30
0.0
 10
13.6742881935
 20
8.5038609979
 30
0.0
 10
13.6784307804
 20
8.519898305
 30
0.0
 10
13.6824112034
 20
8.5365207438
 30
0.0
 10
13.6862198868
 20
8.5536885938
 30
0.0
 10
13.6898476672
 20
8.5713608208
 30
0.0
 10
13.6932858146
 20
8.5894951678
 30
0.0
 10
13.6965260782
 20
8.6080482574
 30
0.0
 10
13.6995606667
 20
8.6269756931
 30
0.0
 10
13.7023823222
 20
8.6462322234
 30
0.0
 10
13.7058682031
 20
8.6724109081
 30
0.0
 10
13.709639763
 20
8.7056156884
 30
0.0
 10
13.7132028789
 20
8.7458328701
 30
0.0
 10
13.7157904382
 20
8.7862279598
 30
0.0
 10
13.7173777557
 20
8.8264145143
 30
0.0
 10
13.7178575188
 20
8.8596012865
 30
0.0
 10
13.7177209049
 20
8.8857512786
 30
0.0
 10
13.7173625223
 20
8.9049590812
 30
0.0
 10
13.7167486111
 20
8.923830604
 30
0.0
 10
13.7158806521
 20
8.9423207331
 30
0.0
 10
13.7147607693
 20
8.9603852293
 30
0.0
 10
13.713391681
 20
8.9779808867
 30
0.0
 10
13.7117767033
 20
8.9950656293
 30
0.0
 10
13.7099197677
 20
9.0115986251
 30
0.0
 10
13.7078253869
 20
9.0275403839
 30
0.0
 10
13.7054986454
 20
9.0428528457
 30
0.0
 10
13.7029451798
 20
9.0574994855
 30
0.0
 10
13.7001711942
 20
9.0714454184
 30
0.0
 10
13.6971834251
 20
9.0846575048
 30
0.0
 10
13.6939891109
 20
9.0971043977
 30
0.0
 10
13.6905959561
 20
9.1087567659
 30
0.0
 10
13.6870121136
 20
9.1195869907
 30
0.0
 10
13.6838190255
 20
9.1280519244
 30
0.0
 10
13.6811655557
 20
9.134382899
 30
0.0
 10
13.6791689314
 20
9.1388242849
 30
0.0
 10
13.6771311617
 20
9.1430418528
 30
0.0
 10
13.6750534638
 20
9.1470331526
 30
0.0
 10
13.6729369802
 20
9.1507958116
 30
0.0
 10
13.6707829725
 20
9.1543276497
 30
0.0
 10
13.6685926641
 20
9.1576266118
 30
0.0
 10
13.6663672184
 20
9.1606907382
 30
0.0
 10
13.6641079262
 20
9.1635182867
 30
0.0
 10
13.661815928
 20
9.1661075519
 30
0.0
 10
13.6594924227
 20
9.1684569789
 30
0.0
 10
13.6571386275
 20
9.1705651531
 30
0.0
 10
13.6547556368
 20
9.1724306052
 30
0.0
 10
13.6523447096
 20
9.1740520748
 30
0.0
 10
13.649907064
 20
9.1754282443
 30
0.0
 10
13.6474440343
 20
9.1765578034
 30
0.0
 10
13.6449571873
 20
9.1774396772
 30
0.0
 10
13.6424482055
 20
9.1780727072
 30
0.0
 10
13.6399190623
 20
9.1784561478
 30
0.0
 10
13.6373718621
 20
9.1785895634
 30
0.0
 10
13.6348087718
 20
9.17847275
 30
0.0
 10
13.6322319477
 20
9.1781061676
 30
0.0
 10
13.6296432214
 20
9.1774902748
 30
0.0
 10
13.6261159748
 20
9.1763173195
 30
0.0
 10
13.622625655
 20
9.1746476427
 30
0.0
 10
13.6192046335
 20
9.1725539622
 30
0.0
 10
13.6165807031
 20
9.1707068497
 30
0.0
 10
13.6139544286
 20
9.1686171912
 30
0.0
 10
13.6122427622
 20
9.1670988449
 30
0.0
 10
13.611386585
 20
9.1663020513
 30
0.0
  0
SPLINE
  5
3CB
100
AcDbEntity
  8
0
100
AcDbSpline
 62
7
  6
CONTINUOUS
 70
0
 71
3
 72
60
 73
56
 74
0
 42
0.0000001
 43
0.0000001
 44
0.0000000001
 40
0.0
 40
0.0
 40
0.0
 40
0.0
 40
0.0081223406
 40
0.0169168431
 40
0.0264086323
 40
0.0366142687
 40
0.0475414355
 40
0.0591910158
 40
0.0715584107
 40
0.0846344949
 40
0.0984062802
 40
0.1128573064
 40
0.1279683357
 40
0.1437174554
 40
0.1600804353
 40
0.1770310661
 40
0.1945411268
 40
0.2125807894
 40
0.2501207279
 40
0.2893847263
 40
0.3300867172
 40
0.371925751
 40
0.4145894152
 40
0.4577571198
 40
0.5011033266
 40
0.5443007676
 40
0.587023623
 40
0.6289507091
 40
0.6697687274
 40
0.7091755587
 40
0.746883655
 40
0.7650162944
 40
0.7826249702
 40
0.7996794705
 40
0.816151351
 40
0.8320139955
 40
0.8472427493
 40
0.8618153589
 40
0.8757119742
 40
0.8889156572
 40
0.9014127819
 40
0.9131933641
 40
0.9242520195
 40
0.9345885809
 40
0.9442093339
 40
0.9531286836
 40
0.9613709339
 40
0.9689732146
 40
0.9759886454
 40
0.9824900322
 40
0.9885734237
 40
0.9914974427
 40
0.9943641479
 40
0.9971919194
 40
1.0
 40
1.0
 40
1.0
 40
1.0
 10
12.2427560965
 20
9.2999287381
 30
0.0
 10
12.2436088725
 20
9.3007524565
 30
0.0
 10
12.2454654379
 20
9.3023858291
 30
0.0
 10
12.2485471747
 20
9.304706536
 30
0.0
 10
12.252027432
 20
9.306988422
 30
0.0
 10
12.2558991594
 20
9.3092270868
 30
0.0
 10
12.2601550837
 20
9.311418509
 30
0.0
 10
12.2647869455
 20
9.3135583175
 30
0.0
 10
12.2697856271
 20
9.3156423253
 30
0.0
 10
12.2751412393
 20
9.3176663522
 30
0.0
 10
12.2808431288
 20
9.3196262778
 30
0.0
 10
12.286879882
 20
9.3215181754
 30
0.0
 10
12.293239397
 20
9.3233381614
 30
0.0
 10
12.2999088861
 20
9.3250825436
 30
0.0
 10
12.3068749179
 20
9.3267477895
 30
0.0
 10
12.3141234491
 20
9.3283304607
 30
0.0
 10
12.3216398617
 20
9.3298274009
 30
0.0
 10
12.3321383609
 20
9.3317300958
 30
0.0
 10
12.3458203747
 20
9.3338614727
 30
0.0
 10
12.3628411533
 20
9.3360017796
 30
0.0
 10
12.3805382879
 20
9.3377396825
 30
0.0
 10
12.3987688
 20
9.3390609035
 30
0.0
 10
12.417385521
 20
9.3399545382
 30
0.0
 10
12.4362380407
 20
9.3404132277
 30
0.0
 10
12.4551740258
 20
9.3404332046
 30
0.0
 10
12.4740404523
 20
9.3400143068
 30
0.0
 10
12.4926848726
 20
9.3391599811
 30
0.0
 10
12.5109566468
 20
9.3378772472
 30
0.0
 10
12.5287082638
 20
9.3361766928
 30
0.0
 10
12.5457963015
 20
9.3340722889
 30
0.0
 10
12.5595424696
 20
9.3319702109
 30
0.0
 10
12.5700983889
 20
9.3300901876
 30
0.0
 10
12.5776619064
 20
9.3286091961
 30
0.0
 10
12.58496026
 20
9.3270418725
 30
0.0
 10
12.5919787353
 20
9.3253914012
 30
0.0
 10
12.5987031772
 20
9.3236611604
 30
0.0
 10
12.6051200371
 20
9.3218546372
 30
0.0
 10
12.6112164166
 20
9.3199755533
 30
0.0
 10
12.6169800769
 20
9.3180276989
 30
0.0
 10
12.6223994841
 20
9.3160150259
 30
0.0
 10
12.627463847
 20
9.3139416352
 30
0.0
 10
12.6321631142
 20
9.3118116378
 30
0.0
 10
12.6364880591
 20
9.30962931
 30
0.0
 10
12.6404302638
 20
9.3073988982
 30
0.0
 10
12.6439821387
 20
9.3051245974
 30
0.0
 10
12.647136987
 20
9.3028105781
 30
0.0
 10
12.6498888423
 20
9.3004606364
 30
0.0
 10
12.6522324245
 20
9.2980783556
 30
0.0
 10
12.6541628353
 20
9.2956666165
 30
0.0
 10
12.6556747651
 20
9.2932286619
 30
0.0
 10
12.6565932067
 20
9.2911493684
 30
0.0
 10
12.657100587
 20
9.2894902715
 30
0.0
 10
12.6573692523
 20
9.2882596782
 30
0.0
 10
12.6575305512
 20
9.2870276128
 30
0.0
 10
12.657566443
 20
9.286204488
 30
0.0
 10
12.6575664455
 20
9.2857945854
 30
0.0
  0
SPLINE
  5
3CC
100
AcDbEntity
  8
0
100
AcDbSpline
 62
7
  6
CONTINUOUS
 70
0
 71
3
 72
66
 73
62
 74
0
 42
0.0000001
 43
0.0000001
 44
0.0000000001
 40
0.0
 40
0.0
 40
0.0
 40
0.0
 40
0.0081438162
 40
0.0169766665
 40
0.026520611
 40
0.0367892928
 40
0.0477878804
 40
0.0595152686
 40
0.0719653227
 40
0.0851274989
 40
0.0989875767
 40
0.1135282248
 40
0.1287292961
 40
0.1445681454
 40
0.1610199717
 40
0.1780579704
 40
0.195653486
 40
0.2137762641
 40
0.2323945596
 40
0.2514752181
 40
0.270983879
 40
0.2908850763
 40
0.3317173214
 40
0.373670721
 40
0.4164320169
 40
0.4596801244
 40
0.5030892651
 40
0.5463321207
 40
0.5890829578
 40
0.6310207913
 40
0.6718325351
 40
0.6917216718
 40
0.71121713
 40
0.7302834701
 40
0.7488863409
 40
0.7669926639
 40
0.7845707414
 40
0.8015903322
 40
0.8180228645
 40
0.8338416117
 40
0.8490217974
 40
0.8635408656
 40
0.8773787898
 40
0.890518288
 40
0.9029452469
 40
0.9146493103
 40
0.9256244213
 40
0.935869685
 40
0.9453906267
 40
0.9542006408
 40
0.9623230479
 40
0.9697939585
 40
0.9733019808
 40
0.9766683976
 40
0.9830135709
 40
0.9860199341
 40
0.9889331896
 40
0.9917695401
 40
0.9945466611
 40
0.9972835177
 40
1.0
 40
1.0
 40
1.0
 40
1.0
 10
13.571734522
 20
8.4049375579
 30
0.0
 10
13.5732473034
 20
8.4063987925
 30
0.0
 10
13.5762650093
 20
8.4095872247
 30
0.0
 10
13.5806012413
 20
8.4148952251
 30
0.0
 10
13.5849188343
 20
8.4209079576
 30
0.0
 10
13.5892094346
 20
8.4276134334
 30
0.0
 10
13.5934651315
 20
8.4349991245
 30
0.0
 10
13.5976775872
 20
8.4430506896
 30
0.0
 10
13.6018384693
 20
8.4517524203
 30
0.0
 10
13.605939476
 20
8.461087179
 30
0.0
 10
13.6099723908
 20
8.4710364696
 30
0.0
 10
13.6139290677
 20
8.4815805174
 30
0.0
 10
13.6178015216
 20
8.4926982925
 30
0.0
 10
13.6215819517
 20
8.5043675635
 30
0.0
 10
13.6252627032
 20
8.5165649766
 30
0.0
 10
13.6288363273
 20
8.5292660894
 30
0.0
 10
13.6322956255
 20
8.5424454172
 30
0.0
 10
13.6356335994
 20
8.5560765094
 30
0.0
 10
13.6388434914
 20
8.5701319997
 30
0.0
 10
13.6419188332
 20
8.5845836409
 30
0.0
 10
13.6448534448
 20
8.5994024147
 30
0.0
 10
13.6486025887
 20
8.6197847275
 30
0.0
 10
13.6528843975
 20
8.6459603829
 30
0.0
 10
13.6573331626
 20
8.6780811345
 30
0.0
 10
13.6610992603
 20
8.7109171339
 30
0.0
 10
13.6641522354
 20
8.7442045252
 30
0.0
 10
13.6664674475
 20
8.7776760027
 30
0.0
 10
13.6680263191
 20
8.8110626738
 30
0.0
 10
13.6688164286
 20
8.8440964192
 30
0.0
 10
13.6688316137
 20
8.8765117705
 30
0.0
 10
13.6681935619
 20
8.9030152188
 30
0.0
 10
13.6672854457
 20
8.9237077384
 30
0.0
 10
13.6664183267
 20
8.938779148
 30
0.0
 10
13.6653612141
 20
8.9535054027
 30
0.0
 10
13.664116212
 20
8.9678569297
 30
0.0
 10
13.6626858706
 20
8.9818048891
 30
0.0
 10
13.6610731151
 20
8.995321271
 30
0.0
 10
13.6592812098
 20
9.0083789357
 30
0.0
 10
13.6573138006
 20
9.0209516843
 30
0.0
 10
13.6551749135
 20
9.033014316
 30
0.0
 10
13.652868887
 20
9.0445426701
 30
0.0
 10
13.6504003986
 20
9.0555136907
 30
0.0
 10
13.6477744909
 20
9.0659054929
 30
0.0
 10
13.6449964813
 20
9.0756973971
 30
0.0
 10
13.6420719571
 20
9.0848699895
 30
0.0
 10
13.6390068179
 20
9.0934052089
 30
0.0
 10
13.6358071522
 20
9.101286372
 30
0.0
 10
13.6324791477
 20
9.108498244
 30
0.0
 10
13.6290291423
 20
9.1150270663
 30
0.0
 10
13.625463218
 20
9.1208607843
 30
0.0
 10
13.6217874993
 20
9.1259881641
 30
0.0
 10
13.6185723119
 20
9.1297404763
 30
0.0
 10
13.6159470161
 20
9.1323573225
 30
0.0
 10
13.6133971738
 20
9.1346294106
 30
0.0
 10
13.6107509504
 20
9.1365943012
 30
0.0
 10
13.6080172608
 20
9.1381992871
 30
0.0
 10
13.6059841276
 20
9.1391946758
 30
0.0
 10
13.6039328003
 20
9.1400023687
 30
0.0
 10
13.6018642169
 20
9.1406216435
 30
0.0
 10
13.5997798832
 20
9.1410518796
 30
0.0
 10
13.5983784374
 20
9.141212683
 30
0.0
 10
13.5976785466
 20
9.1412612266
 30
0.0
  0
SPLINE
  5
3CD
100
AcDbEntity
  8
0
100
AcDbSpline
 62
7
  6
CONTINUOUS
 70
0
 71
3
 72
18
 73
14
 74
0
 42
0.0000001
 43
0.0000001
 44
0.0000000001
 40
0.0
 40
0.0
 40
0.0
 40
0.0
 40
0.1504680185
 40
0.2917144324
 40
0.4244425615
 40
0.4879099171
 40
0.5496094205
 40
0.6682625585
 40
0.7817882768
 40
0.8371379945
 40
0.8918078237
 40
0.9460192726
 40
1.0
 40
1.0
 40
1.0
 40
1.0
 10
13.6412811864
 20
8.1876107859
 30
0.0
 10
13.6395990588
 20
8.1859859754
 30
0.0
 10
13.6362370838
 20
8.1829373574
 30
0.0
 10
13.6310314235
 20
8.1788747006
 30
0.0
 10
13.6266343535
 20
8.1760013795
 30
0.0
 10
13.6231280812
 20
8.1740556556
 30
0.0
 10
13.6197249595
 20
8.1723851956
 30
0.0
 10
13.6154699798
 20
8.1706972527
 30
0.0
 10
13.6111393097
 20
8.1695453964
 30
0.0
 10
13.6077092906
 20
8.1689779815
 30
0.0
 10
13.6051671726
 20
8.1687261534
 30
0.0
 10
13.6026353381
 20
8.1686448364
 30
0.0
 10
13.6009532503
 20
8.1687043477
 30
0.0
 10
13.6001162438
 20
8.1687623989
 30
0.0
  0
SPLINE
  5
3CE
100
AcDbEntity
  8
0
100
AcDbSpline
 62
7
  6
CONTINUOUS
 70
0
 71
3
 72
17
 73
13
 74
0
 42
0.0000001
 43
0.0000001
 44
0.0000000001
 40
0.0
 40
0.0
 40
0.0
 40
0.0
 40
0.126656299
 40
0.252799928
 40
0.378440867
 40
0.4410855281
 40
0.5036117417
 40
0.6283085394
 40
0.7525770114
 40
0.814569483
 40
0.8764694961
 40
1.0
 40
1.0
 40
1.0
 40
1.0
 10
10.5364664377
 20
7.1444462317
 30
0.0
 10
10.5364664377
 20
7.1356342805
 30
0.0
 10
10.5359507494
 20
7.1180414696
 30
0.0
 10
10.5336218381
 20
7.0918006805
 30
0.0
 10
10.5303892042
 20
7.070150225
 30
0.0
 10
10.52703519
 20
7.0530233711
 30
0.0
 10
10.5231802983
 20
7.0360695597
 30
0.0
 10
10.5174168904
 20
7.0151636367
 30
0.0
 10
10.5104002837
 20
6.9946834025
 30
0.0
 10
10.5040561223
 20
6.9786230396
 30
0.0
 10
10.4972407312
 20
6.9628134477
 30
0.0
 10
10.4915853175
 20
6.9512058884
 30
0.0
 10
10.4875824154
 20
6.943600507
 30
0.0
  0
SPLINE
  5
3CF
100
AcDbEntity
  8
0
100
AcDbSpline
 62
7
  6
CONTINUOUS
 70
0
 71
3
 72
75
 73
71
 74
0
 42
0.0000001
 43
0.0000001
 44
0.0000000001
 40
0.0
 40
0.0
 40
0.0
 40
0.0
 40
0.0038920325
 40
0.0079426654
 40
0.0121552516
 40
0.0165326044
 40
0.0210771182
 40
0.0257907156
 40
0.030674734
 40
0.035730023
 40
0.0463554446
 40
0.0576676172
 40
0.0696617677
 40
0.0823292036
 40
0.0956578988
 40
0.1096329112
 40
0.1242367761
 40
0.1394497943
 40
0.1552502408
 40
0.17161455
 40
0.188517516
 40
0.2059324376
 40
0.223831225
 40
0.2421845178
 40
0.2609618193
 40
0.2801315946
 40
0.2996613478
 40
0.3195177221
 40
0.3600725073
 40
0.4015161949
 40
0.4435601645
 40
0.4859104116
 40
0.5282702013
 40
0.5703427107
 40
0.6118336822
 40
0.6524540699
 40
0.6723499348
 40
0.6919235077
 40
0.7111413424
 40
0.729970836
 40
0.7483803114
 40
0.7663391217
 40
0.7838177747
 40
0.8007880175
 40
0.8172229445
 40
0.8330971407
 40
0.8483868473
 40
0.8630700953
 40
0.8771268894
 40
0.8905394582
 40
0.9032925481
 40
0.9153737316
 40
0.9267738379
 40
0.9374875435
 40
0.9425869218
 40
0.9475148439
 40
0.9522721255
 40
0.9568599628
 40
0.9612800236
 40
0.9655345509
 40
0.9696263266
 40
0.9735588425
 40
0.977336351
 40
0.9809639127
 40
0.9844475988
 40
0.9877945141
 40
0.9910129334
 40
0.994112455
 40
0.9971040128
 40
1.0
 40
1.0
 40
1.0
 40
1.0
 10
13.1574386022
 20
7.7522547111
 30
0.0
 10
13.1585710606
 20
7.753348582
 30
0.0
 10
13.1608348455
 20
7.7556302803
 30
0.0
 10
13.1641621032
 20
7.7592523693
 30
0.0
 10
13.1674861361
 20
7.7631395882
 30
0.0
 10
13.1708052025
 20
7.7672899755
 30
0.0
 10
13.1741178901
 20
7.7717015917
 30
0.0
 10
13.177422679
 20
7.7763724794
 30
0.0
 10
13.1807181417
 20
7.7813005023
 30
0.0
 10
13.1851717166
 20
7.7883281527
 30
0.0
 10
13.1906932161
 20
7.7977534479
 30
0.0
 10
13.1971518934
 20
7.8098693736
 30
0.0
 10
13.2035371919
 20
7.8229497133
 30
0.0
 10
13.2098372113
 20
7.8369702751
 30
0.0
 10
13.2160402149
 20
7.851905336
 30
0.0
 10
13.2221346094
 20
7.8677272637
 30
0.0
 10
13.2281089727
 20
7.8844067388
 30
0.0
 10
13.2339520857
 20
7.9019127888
 30
0.0
 10
13.2396529732
 20
7.9202128505
 30
0.0
 10
13.2452009433
 20
7.9392728319
 30
0.0
 10
13.2505855781
 20
7.9590572029
 30
0.0
 10
13.2557967583
 20
7.9795290669
 30
0.0
 10
13.2608246994
 20
8.0006502191
 30
0.0
 10
13.2656599757
 20
8.02238122
 30
0.0
 10
13.2702935166
 20
8.044681489
 30
0.0
 10
13.27471661
 20
8.0675093676
 30
0.0
 10
13.2789209985
 20
8.0908222379
 30
0.0
 10
13.2842620307
 20
8.1227182664
 30
0.0
 10
13.2903231827
 20
8.1634788197
 30
0.0
 10
13.296561308
 20
8.2132740379
 30
0.0
 10
13.3017671773
 20
8.2639179534
 30
0.0
 10
13.3059017354
 20
8.3150322541
 30
0.0
 10
13.3089340338
 20
8.3662353349
 30
0.0
 10
13.3108415085
 20
8.4171449159
 30
0.0
 10
13.3116100585
 20
8.4673806765
 30
0.0
 10
13.3112950425
 20
8.5086498354
 30
0.0
 10
13.3104574141
 20
8.5410393614
 30
0.0
 10
13.3095478497
 20
8.564764032
 30
0.0
 10
13.3083544738
 20
8.5880441791
 30
0.0
 10
13.3068795183
 20
8.6108363427
 30
0.0
 10
13.3051257776
 20
8.6330979291
 30
0.0
 10
13.3030965561
 20
8.6547873571
 30
0.0
 10
13.3007957039
 20
8.6758641282
 30
0.0
 10
13.2982275737
 20
8.6962889019
 30
0.0
 10
13.2953970134
 20
8.7160235623
 30
0.0
 10
13.2923093649
 20
8.7350313059
 30
0.0
 10
13.2889704787
 20
8.7532767212
 30
0.0
 10
13.2853866672
 20
8.7707258511
 30
0.0
 10
13.28156469
 20
8.7873462542
 30
0.0
 10
13.2775117506
 20
8.8031071031
 30
0.0
 10
13.2732354976
 20
8.8179792279
 30
0.0
 10
13.2687439489
 20
8.8319352996
 30
0.0
 10
13.2640454926
 20
8.8449494638
 30
0.0
 10
13.2598993967
 20
8.8551517171
 30
0.0
 10
13.2564753174
 20
8.8628126096
 30
0.0
 10
13.2539033159
 20
8.8682130283
 30
0.0
 10
13.2512862802
 20
8.8733607044
 30
0.0
 10
13.2486253535
 20
8.8782532726
 30
0.0
 10
13.2459217219
 20
8.8828884646
 30
0.0
 10
13.243176665
 20
8.8872641871
 30
0.0
 10
13.2403913494
 20
8.8913784061
 30
0.0
 10
13.237567018
 20
8.8952292423
 30
0.0
 10
13.2347049338
 20
8.8988149556
 30
0.0
 10
13.2318062468
 20
8.9021338369
 30
0.0
 10
13.2288722348
 20
8.9051843777
 30
0.0
 10
13.2259040892
 20
8.9079651203
 30
0.0
 10
13.2229029963
 20
8.9104746311
 30
0.0
 10
13.2198701699
 20
8.9127117143
 30
0.0
 10
13.2168070475
 20
8.9146749456
 30
0.0
 10
13.2147143645
 20
8.9158174377
 30
0.0
 10
13.213665564
 20
8.9163394914
 30
0.0
  0
SPLINE
  5
3D0
100
AcDbEntity
  8
0
100
AcDbSpline
 62
7
  6
CONTINUOUS
 70
0
 71
3
 72
12
 73
8
 74
0
 42
0.0000001
 43
0.0000001
 44
0.0000000001
 40
0.0
 40
0.0
 40
0.0
 40
0.0
 40
0.2786801931
 40
0.5366651969
 40
0.6585908568
 40
0.7762136906
 40
1.0
 40
1.0
 40
1.0
 40
1.0
 10
13.1574386022
 20
7.7522547111
 30
0.0
 10
13.1553970623
 20
7.7502827349
 30
0.0
 10
13.1513181148
 20
7.7466329823
 30
0.0
 10
13.145916644
 20
7.7426350899
 30
0.0
 10
13.1416058141
 20
7.7399658407
 30
0.0
 10
13.1374541476
 20
7.7377189773
 30
0.0
 10
13.134243705
 20
7.7363481616
 30
0.0
 10
13.1320877451
 20
7.7356085178
 30
0.0
  0
SPLINE
  5
3D1
100
AcDbEntity
  8
0
100
AcDbSpline
 62
7
  6
CONTINUOUS
 70
0
 71
3
 72
23
 73
19
 74
0
 42
0.0000001
 43
0.0000001
 44
0.0000000001
 40
0.0
 40
0.0
 40
0.0
 40
0.0
 40
0.0755957668
 40
0.1466392768
 40
0.213465616
 40
0.2765144371
 40
0.3363265454
 40
0.3935471053
 40
0.4489233774
 40
0.5032884899
 40
0.5575264287
 40
0.6125277193
 40
0.6691437645
 40
0.7281492125
 40
0.7902196994
 40
0.8559237551
 40
0.9257265947
 40
1.0
 40
1.0
 40
1.0
 40
1.0
 10
13.1574386022
 20
7.9261213702
 30
0.0
 10
13.1562852235
 20
7.9250072918
 30
0.0
 10
13.1539799705
 20
7.9229146984
 30
0.0
 10
13.1504123734
 20
7.9201190911
 30
0.0
 10
13.1468489331
 20
7.9177711801
 30
0.0
 10
13.1432929772
 20
7.9158744844
 30
0.0
 10
13.1397474406
 20
7.9144324797
 30
0.0
 10
13.1362159994
 20
7.9134486186
 30
0.0
 10
13.132703254
 20
7.91292648
 30
0.0
 10
13.1292150844
 20
7.9128684256
 30
0.0
 10
13.1257581843
 20
7.9132754219
 30
0.0
 10
13.1223392474
 20
7.9141461526
 30
0.0
 10
13.1189640947
 20
7.9154777672
 30
0.0
 10
13.1156371856
 20
7.9172663195
 30
0.0
 10
13.1123619012
 20
7.9195077547
 30
0.0
 10
13.1091408739
 20
7.9221981605
 30
0.0
 10
13.1059767133
 20
7.9253335757
 30
0.0
 10
13.1039713196
 20
7.9276437493
 30
0.0
 10
13.1029772089
 20
7.9288660509
 30
0.0
  0
SPLINE
  5
3D2
100
AcDbEntity
  8
0
100
AcDbSpline
 62
7
  6
CONTINUOUS
 70
0
 71
3
 72
17
 73
13
 74
0
 42
0.0000001
 43
0.0000001
 44
0.0000000001
 40
0.0
 40
0.0
 40
0.0
 40
0.0
 40
0.1504730098
 40
0.2917304958
 40
0.4244682464
 40
0.4879391303
 40
0.549641677
 40
0.6683008574
 40
0.7818339705
 40
0.8918016563
 40
0.9460162481
 40
1.0
 40
1.0
 40
1.0
 40
1.0
 10
13.1188015669
 20
7.967437893
 30
0.0
 10
13.1177414389
 20
7.9664138879
 30
0.0
 10
13.1156225602
 20
7.96449253
 30
0.0
 10
13.1123417278
 20
7.9619320185
 30
0.0
 10
13.1095704575
 20
7.9601210947
 30
0.0
 10
13.1073606276
 20
7.9588947946
 30
0.0
 10
13.1052158888
 20
7.9578419756
 30
0.0
 10
13.1025338934
 20
7.9567782131
 30
0.0
 10
13.0992873002
 20
7.9559142572
 30
0.0
 10
13.0965824088
 20
7.9555531717
 30
0.0
 10
13.0944452278
 20
7.9554845666
 30
0.0
 10
13.0933850613
 20
7.9555220488
 30
0.0
 10
13.0928575424
 20
7.9555586369
 30
0.0
  0
SPLINE
  5
3D3
100
AcDbEntity
  8
0
100
AcDbSpline
 62
7
  6
CONTINUOUS
 70
0
 71
3
 72
85
 73
81
 74
0
 42
0.0000001
 43
0.0000001
 44
0.0000000001
 40
0.0
 40
0.0
 40
0.0
 40
0.0
 40
0.0042066788
 40
0.0086074935
 40
0.0132068846
 40
0.0180084713
 40
0.023015212
 40
0.0282293573
 40
0.0336522808
 40
0.0392847056
 40
0.0451268543
 40
0.0511783894
 40
0.0639057609
 40
0.07745699
 40
0.0918160974
 40
0.1069625589
 40
0.1228718872
 40
0.1395161363
 40
0.1568643268
 40
0.1748827676
 40
0.1935353074
 40
0.2127835673
 40
0.2325871874
 40
0.2529040195
 40
0.2736902933
 40
0.2949007732
 40
0.3164889486
 40
0.3384071917
 40
0.3606069028
 40
0.4056514433
 40
0.4512209342
 40
0.49690678
 40
0.542299065
 40
0.5869912085
 40
0.6089502328
 40
0.6305856853
 40
0.6518497852
 40
0.6726958718
 40
0.6930785448
 40
0.7129538181
 40
0.7322792926
 40
0.7510143657
 40
0.7691204032
 40
0.7865609363
 40
0.8033018972
 40
0.8193119271
 40
0.834562679
 40
0.8490291784
 40
0.8626902981
 40
0.8755294023
 40
0.887535143
 40
0.8932240826
 40
0.8987034043
 40
0.9039737062
 40
0.9090362359
 40
0.9138928413
 40
0.9185462306
 40
0.9229999611
 40
0.9272585728
 40
0.9313278388
 40
0.9352147769
 40
0.9389279549
 40
0.9424776533
 40
0.9458759978
 40
0.9491372613
 40
0.9522778868
 40
0.9553165858
 40
0.9582742875
 40
0.9611738409
 40
0.9640396523
 40
0.9668970632
 40
0.9697716632
 40
0.9726885462
 40
0.9756716543
 40
0.9787432124
 40
0.985225325
 40
0.9886742562
 40
0.9922790821
 40
0.9960512612
 40
1.0
 40
1.0
 40
1.0
 40
1.0
 10
13.1574386022
 20
7.9261213702
 30
0.0
 10
13.1583347794
 20
7.9269870108
 30
0.0
 10
13.1601259571
 20
7.9288026979
 30
0.0
 10
13.1627514426
 20
7.9317038608
 30
0.0
 10
13.1653736425
 20
7.9348413148
 30
0.0
 10
13.1679908268
 20
7.9382130444
 30
0.0
 10
13.170601583
 20
7.9418170524
 30
0.0
 10
13.1732043782
 20
7.9456512979
 30
0.0
 10
13.1757977539
 20
7.9497135232
 30
0.0
 10
13.1783801673
 20
7.9540013285
 30
0.0
 10
13.1809500613
 20
7.9585121967
 30
0.0
 10
13.1844163331
 20
7.96492886
 30
0.0
 10
13.1886967381
 20
7.9734979385
 30
0.0
 10
13.1936767044
 20
7.9844584462
 30
0.0
 10
13.1985710223
 20
7.9962371535
 30
0.0
 10
13.2033679465
 20
8.0088060834
 30
0.0
 10
13.2080559592
 20
8.0221355304
 30
0.0
 10
13.2126237908
 20
8.0361938084
 30
0.0
 10
13.2170604464
 20
8.0509474629
 30
0.0
 10
13.2213552384
 20
8.066361333
 30
0.0
 10
13.2254978252
 20
8.0823986401
 30
0.0
 10
13.2294782482
 20
8.099021079
 30
0.0
 10
13.2332869317
 20
8.116188929
 30
0.0
 10
13.2369147121
 20
8.133861156
 30
0.0
 10
13.2403528594
 20
8.1519955029
 30
0.0
 10
13.243593123
 20
8.1705485925
 30
0.0
 10
13.2466277116
 20
8.1894760283
 30
0.0
 10
13.2494493671
 20
8.2087325586
 30
0.0
 10
13.252935248
 20
8.2349112432
 30
0.0
 10
13.2567068079
 20
8.2681160235
 30
0.0
 10
13.2602699238
 20
8.3083332053
 30
0.0
 10
13.2628574831
 20
8.348728295
 30
0.0
 10
13.2644448006
 20
8.3889148495
 30
0.0
 10
13.2649245636
 20
8.4221016216
 30
0.0
 10
13.2647879498
 20
8.4482516138
 30
0.0
 10
13.2644295672
 20
8.4674594164
 30
0.0
 10
13.263815656
 20
8.4863309391
 30
0.0
 10
13.262947697
 20
8.5048210682
 30
0.0
 10
13.2618278142
 20
8.5228855645
 30
0.0
 10
13.2604587258
 20
8.5404812219
 30
0.0
 10
13.2588437482
 20
8.5575659644
 30
0.0
 10
13.2569868125
 20
8.5740989603
 30
0.0
 10
13.2548924317
 20
8.590040719
 30
0.0
 10
13.2525656902
 20
8.6053531809
 30
0.0
 10
13.2500122247
 20
8.6199998207
 30
0.0
 10
13.2472382391
 20
8.6339457535
 30
0.0
 10
13.2442504699
 20
8.6471578399
 30
0.0
 10
13.2410561557
 20
8.6596047328
 30
0.0
 10
13.2376630009
 20
8.671257101
 30
0.0
 10
13.2340791585
 20
8.6820873258
 30
0.0
 10
13.2308860704
 20
8.6905522596
 30
0.0
 10
13.2282326006
 20
8.6968832342
 30
0.0
 10
13.2262359763
 20
8.7013246201
 30
0.0
 10
13.2241982066
 20
8.705542188
 30
0.0
 10
13.2221205087
 20
8.7095334877
 30
0.0
 10
13.220004025
 20
8.7132961468
 30
0.0
 10
13.2178500174
 20
8.7168279848
 30
0.0
 10
13.215659709
 20
8.7201269469
 30
0.0
 10
13.2134342633
 20
8.7231910733
 30
0.0
 10
13.211174971
 20
8.7260186218
 30
0.0
 10
13.2088829729
 20
8.728607887
 30
0.0
 10
13.2065594676
 20
8.7309573141
 30
0.0
 10
13.2042056723
 20
8.7330654882
 30
0.0
 10
13.2018226817
 20
8.7349309403
 30
0.0
 10
13.1994117544
 20
8.7365524099
 30
0.0
 10
13.1969741088
 20
8.7379285794
 30
0.0
 10
13.1945110791
 20
8.7390581385
 30
0.0
 10
13.1920242322
 20
8.7399400123
 30
0.0
 10
13.1895152504
 20
8.7405730424
 30
0.0
 10
13.1869861071
 20
8.740956483
 30
0.0
 10
13.1844389069
 20
8.7410898985
 30
0.0
 10
13.1818758166
 20
8.7409730851
 30
0.0
 10
13.1792989926
 20
8.7406065028
 30
0.0
 10
13.1767102663
 20
8.73999061
 30
0.0
 10
13.1731830197
 20
8.7388176546
 30
0.0
 10
13.1696926999
 20
8.7371479778
 30
0.0
 10
13.1662716783
 20
8.7350542974
 30
0.0
 10
13.163647748
 20
8.7332071848
 30
0.0
 10
13.1610214734
 20
8.7311175264
 30
0.0
 10
13.1593098071
 20
8.7295991801
 30
0.0
 10
13.1584536299
 20
8.7288023864
 30
0.0
  0
SPLINE
  5
3D4
100
AcDbEntity
  8
0
100
AcDbSpline
 62
7
  6
CONTINUOUS
 70
0
 71
3
 72
66
 73
62
 74
0
 42
0.0000001
 43
0.0000001
 44
0.0000000001
 40
0.0
 40
0.0
 40
0.0
 40
0.0
 40
0.0081438162
 40
0.0169766665
 40
0.026520611
 40
0.0367892928
 40
0.0477878804
 40
0.0595152686
 40
0.0719653227
 40
0.0851274989
 40
0.0989875767
 40
0.1135282248
 40
0.1287292961
 40
0.1445681454
 40
0.1610199717
 40
0.1780579704
 40
0.195653486
 40
0.2137762641
 40
0.2323945596
 40
0.2514752181
 40
0.270983879
 40
0.2908850763
 40
0.3317173214
 40
0.373670721
 40
0.4164320169
 40
0.4596801244
 40
0.5030892651
 40
0.5463321207
 40
0.5890829578
 40
0.6310207913
 40
0.6718325351
 40
0.6917216718
 40
0.71121713
 40
0.7302834701
 40
0.7488863409
 40
0.7669926639
 40
0.7845707414
 40
0.8015903322
 40
0.8180228645
 40
0.8338416117
 40
0.8490217974
 40
0.8635408656
 40
0.8773787898
 40
0.890518288
 40
0.9029452469
 40
0.9146493103
 40
0.9256244213
 40
0.935869685
 40
0.9453906267
 40
0.9542006408
 40
0.9623230479
 40
0.9697939585
 40
0.9733019808
 40
0.9766683976
 40
0.9830135709
 40
0.9860199341
 40
0.9889331896
 40
0.9917695401
 40
0.9945466611
 40
0.9972835177
 40
1.0
 40
1.0
 40
1.0
 40
1.0
 10
13.1188015669
 20
7.967437893
 30
0.0
 10
13.1203143483
 20
7.9688991277
 30
0.0
 10
13.1233320542
 20
7.9720875598
 30
0.0
 10
13.1276682861
 20
7.9773955602
 30
0.0
 10
13.1319858792
 20
7.9834082928
 30
0.0
 10
13.1362764795
 20
7.9901137686
 30
0.0
 10
13.1405321763
 20
7.9974994596
 30
0.0
 10
13.1447446321
 20
8.0055510248
 30
0.0
 10
13.1489055142
 20
8.0142527555
 30
0.0
 10
13.1530065209
 20
8.0235875142
 30
0.0
 10
13.1570394357
 20
8.0335368047
 30
0.0
 10
13.1609961125
 20
8.0440808525
 30
0.0
 10
13.1648685664
 20
8.0551986276
 30
0.0
 10
13.1686489966
 20
8.0668678986
 30
0.0
 10
13.1723297481
 20
8.0790653117
 30
0.0
 10
13.1759033722
 20
8.0917664246
 30
0.0
 10
13.1793626704
 20
8.1049457523
 30
0.0
 10
13.1827006442
 20
8.1185768445
 30
0.0
 10
13.1859105363
 20
8.1326323348
 30
0.0
 10
13.1889858781
 20
8.147083976
 30
0.0
 10
13.1919204897
 20
8.1619027499
 30
0.0
 10
13.1956696335
 20
8.1822850626
 30
0.0
 10
13.1999514424
 20
8.208460718
 30
0.0
 10
13.2044002075
 20
8.2405814697
 30
0.0
 10
13.2081663052
 20
8.273417469
 30
0.0
 10
13.2112192803
 20
8.3067048603
 30
0.0
 10
13.2135344923
 20
8.3401763378
 30
0.0
 10
13.2150933639
 20
8.3735630089
 30
0.0
 10
13.2158834735
 20
8.4065967544
 30
0.0
 10
13.2158986585
 20
8.4390121056
 30
0.0
 10
13.2152606067
 20
8.465515554
 30
0.0
 10
13.2143524906
 20
8.4862080736
 30
0.0
 10
13.2134853716
 20
8.5012794831
 30
0.0
 10
13.212428259
 20
8.5160057378
 30
0.0
 10
13.2111832569
 20
8.5303572648
 30
0.0
 10
13.2097529155
 20
8.5443052243
 30
0.0
 10
13.2081401599
 20
8.5578216062
 30
0.0
 10
13.2063482547
 20
8.5708792709
 30
0.0
 10
13.2043808455
 20
8.5834520194
 30
0.0
 10
13.2022419583
 20
8.5955146511
 30
0.0
 10
13.1999359318
 20
8.6070430052
 30
0.0
 10
13.1974674434
 20
8.6180140259
 30
0.0
 10
13.1948415358
 20
8.6284058281
 30
0.0
 10
13.1920635261
 20
8.6381977323
 30
0.0
 10
13.189139002
 20
8.6473703247
 30
0.0
 10
13.1860738628
 20
8.655905544
 30
0.0
 10
13.1828741971
 20
8.6637867072
 30
0.0
 10
13.1795461926
 20
8.6709985792
 30
0.0
 10
13.1760961872
 20
8.6775274015
 30
0.0
 10
13.1725302629
 20
8.6833611194
 30
0.0
 10
13.1688545442
 20
8.6884884992
 30
0.0
 10
13.1656393568
 20
8.6922408114
 30
0.0
 10
13.163014061
 20
8.6948576576
 30
0.0
 10
13.1604642187
 20
8.6971297457
 30
0.0
 10
13.1578179952
 20
8.6990946363
 30
0.0
 10
13.1550843057
 20
8.7006996223
 30
0.0
 10
13.1530511724
 20
8.7016950109
 30
0.0
 10
13.1509998452
 20
8.7025027038
 30
0.0
 10
13.1489312618
 20
8.7031219786
 30
0.0
 10
13.1468469281
 20
8.7035522148
 30
0.0
 10
13.1454454823
 20
8.7037130182
 30
0.0
 10
13.1447455914
 20
8.7037615618
 30
0.0
  0
SPLINE
  5
3D5
100
AcDbEntity
  8
0
100
AcDbSpline
 62
7
  6
CONTINUOUS
 70
0
 71
3
 72
9
 73
5
 74
0
 42
0.0000001
 43
0.0000001
 44
0.0000000001
 40
0.0
 40
0.0
 40
0.0
 40
0.0
 40
0.4822175038
 40
1.0
 40
1.0
 40
1.0
 40
1.0
 10
11.1965768279
 20
8.1236549466
 30
0.0
 10
11.1977473282
 20
8.1244522329
 30
0.0
 10
11.2000924664
 20
8.126228073
 30
0.0
 10
11.2022781268
 20
8.1281946729
 30
0.0
 10
11.2033718916
 20
8.1292511687
 30
0.0
  0
SPLINE
  5
3D6
100
AcDbEntity
  8
0
100
AcDbSpline
 62
7
  6
CONTINUOUS
 70
0
 71
3
 72
15
 73
11
 74
0
 42
0.0000001
 43
0.0000001
 44
0.0000000001
 40
0.0
 40
0.0
 40
0.0
 40
0.0
 40
0.1012855584
 40
0.2092172746
 40
0.3238967269
 40
0.4454032381
 40
0.573776881
 40
0.7090215125
 40
0.8511127014
 40
1.0
 40
1.0
 40
1.0
 40
1.0
 10
11.2101643233
 20
8.13677946
 30
0.0
 10
11.2113133808
 20
8.1382165881
 30
0.0
 10
11.2136039302
 20
8.1412520724
 30
0.0
 10
11.2169249403
 20
8.1461114833
 30
0.0
 10
11.2202405358
 20
8.151413053
 30
0.0
 10
11.2235544215
 20
8.1571484744
 30
0.0
 10
11.2268721094
 20
8.1633092697
 30
0.0
 10
11.2302004166
 20
8.1698861063
 30
0.0
 10
11.2335481773
 20
8.1768685586
 30
0.0
 10
11.2357484265
 20
8.1816752786
 30
0.0
 10
11.2368568806
 20
8.1841425
 30
0.0
  0
SPLINE
  5
3D7
100
AcDbEntity
  8
0
100
AcDbSpline
 62
7
  6
CONTINUOUS
 70
0
 71
3
 72
9
 73
5
 74
0
 42
0.0000001
 43
0.0000001
 44
0.0000000001
 40
0.0
 40
0.0
 40
0.0
 40
0.0
 40
0.4826837424
 40
1.0
 40
1.0
 40
1.0
 40
1.0
 10
11.2033718916
 20
8.1292511687
 30
0.0
 10
11.2045458927
 20
8.1303851666
 30
0.0
 10
11.2068892637
 20
8.1328274734
 30
0.0
 10
11.2090718804
 20
8.1354131399
 30
0.0
 10
11.2101643233
 20
8.13677946
 30
0.0
  0
SPLINE
  5
3D8
100
AcDbEntity
  8
0
100
AcDbSpline
 62
7
  6
CONTINUOUS
 70
0
 71
3
 72
71
 73
67
 74
0
 42
0.0000001
 43
0.0000001
 44
0.0000000001
 40
0.0
 40
0.0
 40
0.0
 40
0.0
 40
0.0081224021
 40
0.0169165279
 40
0.0264081434
 40
0.0366136729
 40
0.0475406687
 40
0.0591900386
 40
0.0715572362
 40
0.0846331289
 40
0.0984046806
 40
0.1128554936
 40
0.1279662701
 40
0.143715139
 40
0.1600778855
 40
0.177028224
 40
0.1945380126
 40
0.212577401
 40
0.231114962
 40
0.2501178742
 40
0.2695520505
 40
0.2893822318
 40
0.309572107
 40
0.3300844497
 40
0.3719228157
 40
0.4145857826
 40
0.4577527732
 40
0.5010982541
 40
0.5442949581
 40
0.5870170731
 40
0.6289434202
 40
0.6697607121
 40
0.6896589881
 40
0.7091677946
 40
0.728251669
 40
0.7468762811
 40
0.7650085828
 40
0.7826169028
 40
0.7996710734
 40
0.816142615
 40
0.8320049142
 40
0.8472333772
 40
0.8618056538
 40
0.8757019563
 40
0.8889053604
 40
0.9014021796
 40
0.9131824955
 40
0.9242408713
 40
0.9345771718
 40
0.9394767076
 40
0.9441987541
 40
0.9487453348
 40
0.9531191585
 40
0.9573236229
 40
0.9613628726
 40
0.9652420105
 40
0.9689670917
 40
0.9725452814
 40
0.9759850272
 40
0.9824862539
 40
0.9855751478
 40
0.9885736479
 40
0.9914976047
 40
0.9943642476
 40
0.9971919638
 40
1.0
 40
1.0
 40
1.0
 40
1.0
 10
9.1411187793
 20
9.7829769721
 30
0.0
 10
9.142897127
 20
9.7846947241
 30
0.0
 10
9.1467686082
 20
9.7881008466
 30
0.0
 10
9.1531950303
 20
9.7929401759
 30
0.0
 10
9.1604524066
 20
9.7976985895
 30
0.0
 10
9.1685261553
 20
9.8023669689
 30
0.0
 10
9.1774011381
 20
9.8069367139
 30
0.0
 10
9.1870600096
 20
9.8113989036
 30
0.0
 10
9.1974838282
 20
9.8157447197
 30
0.0
 10
9.2086519745
 20
9.8199654235
 30
0.0
 10
9.2205422072
 20
9.8240525009
 30
0.0
 10
9.2331307407
 20
9.8279976756
 30
0.0
 10
9.2463923279
 20
9.8317929251
 30
0.0
 10
9.260300315
 20
9.8354305097
 30
0.0
 10
9.2748266895
 20
9.8389030343
 30
0.0
 10
9.2899421593
 20
9.8422034301
 30
0.0
 10
9.305616228
 20
9.845324967
 30
0.0
 10
9.3218172484
 20
9.8482612768
 30
0.0
 10
9.3385124839
 20
9.8510063945
 30
0.0
 10
9.3556681901
 20
9.8535547315
 30
0.0
 10
9.3732496907
 20
9.8559010918
 30
0.0
 10
9.3912214254
 20
9.8580406917
 30
0.0
 10
9.4095470728
 20
9.8599692181
 30
0.0
 10
9.4345678534
 20
9.8622688741
 30
0.0
 10
9.4664544228
 20
9.8645796199
 30
0.0
 10
9.5052760002
 20
9.8664431454
 30
0.0
 10
9.5445894401
 20
9.8673996149
 30
0.0
 10
9.5840768814
 20
9.8674412634
 30
0.0
 10
9.6234192598
 20
9.8665676838
 30
0.0
 10
9.6622987136
 20
9.8647861249
 30
0.0
 10
9.7004009189
 20
9.8621111521
 30
0.0
 10
9.7315070403
 20
9.8591313949
 30
0.0
 10
9.7557642308
 20
9.8563054832
 30
0.0
 10
9.7734193443
 20
9.8539963397
 30
0.0
 10
9.7906550421
 20
9.8514843516
 30
0.0
 10
9.8074365044
 20
9.8487745878
 30
0.0
 10
9.8237298094
 20
9.8458725877
 30
0.0
 10
9.8395020413
 20
9.8427842613
 30
0.0
 10
9.8547213415
 20
9.839515888
 30
0.0
 10
9.8693569934
 20
9.8360741242
 30
0.0
 10
9.8833794916
 20
9.8324659937
 30
0.0
 10
9.8967605907
 20
9.8286988454
 30
0.0
 10
9.9094733721
 20
9.8247803311
 30
0.0
 10
9.9214923248
 20
9.8207184269
 30
0.0
 10
9.9327934148
 20
9.8165213812
 30
0.0
 10
9.9433540911
 20
9.8121976782
 30
0.0
 10
9.9531534992
 20
9.8077559645
 30
0.0
 10
9.9621720945
 20
9.803205143
 30
0.0
 10
9.9691419053
 20
9.7992618824
 30
0.0
 10
9.9743005572
 20
9.7960515977
 30
0.0
 10
9.9778939461
 20
9.7936653729
 30
0.0
 10
9.9812792353
 20
9.7912587404
 30
0.0
 10
9.9844547624
 20
9.7888328656
 30
0.0
 10
9.9874189649
 20
9.7863889426
 30
0.0
 10
9.9901703171
 20
9.7839280828
 30
0.0
 10
9.992707498
 20
9.7814514727
 30
0.0
 10
9.9950291575
 20
9.7789603258
 30
0.0
 10
9.9971342491
 20
9.776455447
 30
0.0
 10
9.9996037778
 20
9.7731618763
 30
0.0
 10
10.0017007441
 20
9.7697794808
 30
0.0
 10
10.0033656774
 20
9.7663248992
 30
0.0
 10
10.0043715933
 20
9.7637699639
 30
0.0
 10
10.0051549317
 20
9.7612088168
 30
0.0
 10
10.0057150681
 20
9.7586427012
 30
0.0
 10
10.0060513272
 20
9.7560734358
 30
0.0
 10
10.0061261637
 20
9.7543569694
 30
0.0
 10
10.0061261579
 20
9.7535021935
 30
0.0
  0
SPLINE
  5
3D9
100
AcDbEntity
  8
0
100
AcDbSpline
 62
7
  6
CONTINUOUS
 70
0
 71
3
 72
39
 73
35
 74
0
 42
0.0000001
 43
0.0000001
 44
0.0000000001
 40
0.0
 40
0.0
 40
0.0
 40
0.0
 40
0.0311159584
 40
0.0620233352
 40
0.0927351385
 40
0.1232711775
 40
0.1536587332
 40
0.1839312107
 40
0.2141268395
 40
0.244287099
 40
0.2744549757
 40
0.3046731314
 40
0.3349820893
 40
0.3654185446
 40
0.396013864
 40
0.426792882
 40
0.4577729977
 40
0.4889636199
 40
0.5203659696
 40
0.5519731789
 40
0.5837707176
 40
0.6157370646
 40
0.6478445906
 40
0.68006064
 40
0.7123487314
 40
0.7446698626
 40
0.7769838842
 40
0.8092508939
 40
0.8414326248
 40
0.8734937998
 40
0.9054034138
 40
0.9371358961
 40
0.9686718081
 40
1.0
 40
1.0
 40
1.0
 40
1.0
 10
8.9316526854
 20
7.2643148102
 30
0.0
 10
8.9316526854
 20
7.2559699637
 30
0.0
 10
8.930837997
 20
7.2393241375
 30
0.0
 10
8.9271536222
 20
7.2146881991
 30
0.0
 10
8.9210457015
 20
7.1906958177
 30
0.0
 10
8.912572051
 20
7.1675817371
 30
0.0
 10
8.9018138166
 20
7.1455686431
 30
0.0
 10
8.8888741847
 20
7.124869858
 30
0.0
 10
8.8738778651
 20
7.1056857745
 30
0.0
 10
8.8569697214
 20
7.0882021874
 30
0.0
 10
8.8383132411
 20
7.072588439
 30
0.0
 10
8.8180891595
 20
7.0589954044
 30
0.0
 10
8.796493319
 20
7.0475542702
 30
0.0
 10
8.7737348022
 20
7.0383751484
 30
0.0
 10
8.7500338231
 20
7.0315458708
 30
0.0
 10
8.7256193843
 20
7.0271315882
 30
0.0
 10
8.7007271387
 20
7.0251738571
 30
0.0
 10
8.6755970091
 20
7.0256904985
 30
0.0
 10
8.6504709282
 20
7.0286756844
 30
0.0
 10
8.6255905091
 20
7.0340996766
 30
0.0
 10
8.6011947951
 20
7.0419095754
 30
0.0
 10
8.5775180332
 20
7.0520296967
 30
0.0
 10
8.5547873857
 20
7.0643621898
 30
0.0
 10
8.5332209708
 20
7.0787883233
 30
0.0
 10
8.5130256544
 20
7.0951692798
 30
0.0
 10
8.4943951579
 20
7.1133476341
 30
0.0
 10
8.4775083727
 20
7.1331489313
 30
0.0
 10
8.4625273901
 20
7.1543830784
 30
0.0
 10
8.4495962506
 20
7.1768463722
 30
0.0
 10
8.4388394803
 20
7.2003233892
 30
0.0
 10
8.4303607343
 20
7.2245885912
 30
0.0
 10
8.4242422151
 20
7.2494099101
 30
0.0
 10
8.4205432742
 20
7.2745458143
 30
0.0
 10
8.4197119671
 20
7.2914162552
 30
0.0
 10
8.4197119671
 20
7.2998180196
 30
0.0
  0
SPLINE
  5
3DA
100
AcDbEntity
  8
0
100
AcDbSpline
 62
7
  6
CONTINUOUS
 70
0
 71
3
 72
39
 73
35
 74
0
 42
0.0000001
 43
0.0000001
 44
0.0000000001
 40
0.0
 40
0.0
 40
0.0
 40
0.0
 40
0.030013002
 40
0.0600118704
 40
0.0900236097
 40
0.1200748779
 40
0.1501912747
 40
0.180396663
 40
0.2107125511
 40
0.2411575554
 40
0.2717469527
 40
0.3024923316
 40
0.3334013598
 40
0.3644776558
 40
0.3957207599
 40
0.4271262125
 40
0.4586857237
 40
0.4903874202
 40
0.5222161643
 40
0.5541539413
 40
0.5861802933
 40
0.6182727931
 40
0.6504075544
 40
0.6825597635
 40
0.7147042248
 40
0.746815912
 40
0.7788705175
 40
0.8108449893
 40
0.8427180527
 40
0.8744706955
 40
0.9060866213
 40
0.9375526998
 40
0.9688589506
 40
1.0
 40
1.0
 40
1.0
 40
1.0
 10
9.7261179627
 20
7.473428493
 30
0.0
 10
9.7331936379
 20
7.4822565947
 30
0.0
 10
9.7480844326
 20
7.4993279228
 30
0.0
 10
9.7724735719
 20
7.5229781032
 30
0.0
 10
9.7987626916
 20
7.5445230309
 30
0.0
 10
9.8267899245
 20
7.5638293947
 30
0.0
 10
9.8563853004
 20
7.5807805934
 30
0.0
 10
9.887368623
 20
7.5952737122
 30
0.0
 10
9.9195514918
 20
7.6072211307
 30
0.0
 10
9.9527382827
 20
7.6165506817
 30
0.0
 10
9.9867273891
 20
7.6232061889
 30
0.0
 10
10.0213124408
 20
7.6271478508
 30
0.0
 10
10.0562836068
 20
7.6283523113
 30
0.0
 10
10.0914288435
 20
7.6268127635
 30
0.0
 10
10.1265351756
 20
7.6225391003
 30
0.0
 10
10.1613899865
 20
7.61555774
 30
0.0
 10
10.19578227
 20
7.605911385
 30
0.0
 10
10.2295038915
 20
7.5936588206
 30
0.0
 10
10.2623508624
 20
7.5788746087
 30
0.0
 10
10.2941245139
 20
7.5616485039
 30
0.0
 10
10.3246326638
 20
7.5420849244
 30
0.0
 10
10.3536908364
 20
7.5203024404
 30
0.0
 10
10.3811233181
 20
7.4964329652
 30
0.0
 10
10.4067641669
 20
7.4706209342
 30
0.0
 10
10.4304582537
 20
7.4430225081
 30
0.0
 10
10.4520622307
 20
7.4138046555
 30
0.0
 10
10.4714452986
 20
7.3831440761
 30
0.0
 10
10.4884899909
 20
7.3512261628
 30
0.0
 10
10.5030930025
 20
7.3182439858
 30
0.0
 10
10.5151657113
 20
7.2843969825
 30
0.0
 10
10.5246346936
 20
7.2498900885
 30
0.0
 10
10.531442171
 20
7.2149314274
 30
0.0
 10
10.5355466697
 20
7.179735338
 30
0.0
 10
10.5364664377
 20
7.1561851948
 30
0.0
 10
10.5364664377
 20
7.1444462317
 30
0.0
  0
SPLINE
  5
3DB
100
AcDbEntity
  8
0
100
AcDbSpline
 62
7
  6
CONTINUOUS
 70
0
 71
3
 72
39
 73
35
 74
0
 42
0.0000001
 43
0.0000001
 44
0.0000000001
 40
0.0
 40
0.0
 40
0.0
 40
0.0
 40
0.0313281919
 40
0.0628641039
 40
0.0945965862
 40
0.1265062002
 40
0.1585673752
 40
0.1907491061
 40
0.2230161158
 40
0.2553301374
 40
0.2876512686
 40
0.31993936
 40
0.3521554094
 40
0.3842629354
 40
0.4162292824
 40
0.4480268211
 40
0.4796340304
 40
0.5110363801
 40
0.5422270023
 40
0.573207118
 40
0.603986136
 40
0.6345814554
 40
0.6650179107
 40
0.6953268686
 40
0.7255450243
 40
0.755712901
 40
0.7858731605
 40
0.8160687893
 40
0.8463412668
 40
0.8767288225
 40
0.9072648615
 40
0.9379766648
 40
0.9688840416
 40
1.0
 40
1.0
 40
1.0
 40
1.0
 10
8.9316526854
 20
7.2643148102
 30
0.0
 10
8.9316526854
 20
7.2727165746
 30
0.0
 10
8.9308213783
 20
7.2895870155
 30
0.0
 10
8.9271224374
 20
7.3147229196
 30
0.0
 10
8.9210039182
 20
7.3395442385
 30
0.0
 10
8.9125251722
 20
7.3638094405
 30
0.0
 10
8.9017684019
 20
7.3872864575
 30
0.0
 10
8.8888372624
 20
7.4097497514
 30
0.0
 10
8.8738562798
 20
7.4309838984
 30
0.0
 10
8.8569694947
 20
7.4507851957
 30
0.0
 10
8.8383389982
 20
7.46896355
 30
0.0
 10
8.8181436817
 20
7.4853445064
 30
0.0
 10
8.7965772669
 20
7.4997706399
 30
0.0
 10
8.7738466193
 20
7.512103133
 30
0.0
 10
8.7501698574
 20
7.5222232543
 30
0.0
 10
8.7257741435
 20
7.5300331532
 30
0.0
 10
8.7008937243
 20
7.5354571453
 30
0.0
 10
8.6757676435
 20
7.5384423312
 30
0.0
 10
8.6506375139
 20
7.5389589727
 30
0.0
 10
8.6257452683
 20
7.5370012415
 30
0.0
 10
8.6013308295
 20
7.5325869589
 30
0.0
 10
8.5776298504
 20
7.5257576814
 30
0.0
 10
8.5548713335
 20
7.5165785595
 30
0.0
 10
8.5332754931
 20
7.5051374254
 30
0.0
 10
8.5130514114
 20
7.4915443907
 30
0.0
 10
8.4943949311
 20
7.4759306423
 30
0.0
 10
8.4774867875
 20
7.4584470553
 30
0.0
 10
8.4624904678
 20
7.4392629718
 30
0.0
 10
8.4495508359
 20
7.4185641867
 30
0.0
 10
8.4387926015
 20
7.3965510926
 30
0.0
 10
8.4303189511
 20
7.3734370121
 30
0.0
 10
8.4242110303
 20
7.3494446307
 30
0.0
 10
8.4205266555
 20
7.3248086923
 30
0.0
 10
8.4197119671
 20
7.308162866
 30
0.0
 10
8.4197119671
 20
7.2998180196
 30
0.0
  0
SPLINE
  5
3DC
100
AcDbEntity
  8
0
100
AcDbSpline
 62
7
  6
CONTINUOUS
 70
0
 71
3
 72
11
 73
7
 74
0
 42
0.0000001
 43
0.0000001
 44
0.0000000001
 40
0.0
 40
0.0
 40
0.0
 40
0.0
 40
0.2523604822
 40
0.5030735616
 40
0.7522377093
 40
1.0
 40
1.0
 40
1.0
 40
1.0
 10
8.6203968094
 20
7.4396647032
 30
0.0
 10
8.6203968094
 20
7.4461270752
 30
0.0
 10
8.6210103903
 20
7.4590183769
 30
0.0
 10
8.6237854834
 20
7.4781102925
 30
0.0
 10
8.6283865016
 20
7.4967253105
 30
0.0
 10
8.6326569469
 20
7.5087389414
 30
0.0
 10
8.6350794768
 20
7.5146028641
 30
0.0
  0
SPLINE
  5
3DD
100
AcDbEntity
  8
0
100
AcDbSpline
 62
7
  6
CONTINUOUS
 70
0
 71
3
 72
18
 73
14
 74
0
 42
0.0000001
 43
0.0000001
 44
0.0000000001
 40
0.0
 40
0.0
 40
0.0
 40
0.0
 40
0.1504680185
 40
0.2917144324
 40
0.4244425615
 40
0.4879099171
 40
0.5496094205
 40
0.6682625585
 40
0.7817882768
 40
0.8371379945
 40
0.8918078237
 40
0.9460192726
 40
1.0
 40
1.0
 40
1.0
 40
1.0
 10
13.1883482312
 20
7.7501111211
 30
0.0
 10
13.1866661037
 20
7.7484863105
 30
0.0
 10
13.1833041287
 20
7.7454376925
 30
0.0
 10
13.1780984684
 20
7.7413750358
 30
0.0
 10
13.1737013983
 20
7.7385017146
 30
0.0
 10
13.170195126
 20
7.7365559907
 30
0.0
 10
13.1667920043
 20
7.7348855307
 30
0.0
 10
13.1625370247
 20
7.7331975878
 30
0.0
 10
13.1582063546
 20
7.7320457315
 30
0.0
 10
13.1547763354
 20
7.7314783166
 30
0.0
 10
13.1522342175
 20
7.7312264885
 30
0.0
 10
13.149702383
 20
7.7311451715
 30
0.0
 10
13.1480202951
 20
7.7312046829
 30
0.0
 10
13.1471832887
 20
7.731262734
 30
0.0
  0
SPLINE
  5
3DE
100
AcDbEntity
  8
0
100
AcDbSpline
 62
7
  6
CONTINUOUS
 70
0
 71
3
 72
15
 73
11
 74
0
 42
0.0000001
 43
0.0000001
 44
0.0000000001
 40
0.0
 40
0.0
 40
0.0
 40
0.0
 40
0.1098906522
 40
0.2214015324
 40
0.3360758406
 40
0.455320507
 40
0.5803741139
 40
0.712293262
 40
0.8519441752
 40
1.0
 40
1.0
 40
1.0
 40
1.0
 10
9.3424335545
 20
10.4912423297
 30
0.0
 10
9.3424335508
 20
10.4918391288
 30
0.0
 10
9.342510161
 20
10.493042879
 30
0.0
 10
9.3428538127
 20
10.4948398617
 30
0.0
 10
9.3434251988
 20
10.4966311861
 30
0.0
 10
9.3442227381
 20
10.4984141779
 30
0.0
 10
9.3452447166
 20
10.5001871103
 30
0.0
 10
9.3464894074
 20
10.5019484496
 30
0.0
 10
9.3479549403
 20
10.5036965345
 30
0.0
 10
9.3490448508
 20
10.5048181464
 30
0.0
 10
9.3496231806
 20
10.5053767701
 30
0.0
  0
SPLINE
  5
3DF
100
AcDbEntity
  8
0
100
AcDbSpline
 62
7
  6
CONTINUOUS
 70
0
 71
3
 72
15
 73
11
 74
0
 42
0.0000001
 43
0.0000001
 44
0.0000000001
 40
0.0
 40
0.0
 40
0.0
 40
0.0
 40
0.1098906522
 40
0.2214015324
 40
0.3360758406
 40
0.455320507
 40
0.5803741139
 40
0.712293262
 40
0.8519441752
 40
1.0
 40
1.0
 40
1.0
 40
1.0
 10
12.2355664704
 20
9.2857942977
 30
0.0
 10
12.2355664668
 20
9.2863910968
 30
0.0
 10
12.2356430769
 20
9.2875948469
 30
0.0
 10
12.2359867287
 20
9.2893918296
 30
0.0
 10
12.2365581147
 20
9.2911831541
 30
0.0
 10
12.2373556541
 20
9.2929661459
 30
0.0
 10
12.2383776325
 20
9.2947390783
 30
0.0
 10
12.2396223233
 20
9.2965004176
 30
0.0
 10
12.2410878563
 20
9.2982485025
 30
0.0
 10
12.2421777668
 20
9.2993701144
 30
0.0
 10
12.2427560965
 20
9.2999287381
 30
0.0
  0
SPLINE
  5
3E0
100
AcDbEntity
  8
0
100
AcDbSpline
 62
7
  6
CONTINUOUS
 70
0
 71
3
 72
69
 73
65
 74
0
 42
0.0000001
 43
0.0000001
 44
0.0000000001
 40
0.0
 40
0.0
 40
0.0
 40
0.0
 40
0.0078496125
 40
0.0150470873
 40
0.0216913576
 40
0.024849121
 40
0.0279214041
 40
0.0309297974
 40
0.0338974714
 40
0.0368486889
 40
0.0398081446
 40
0.0428003164
 40
0.0458487936
 40
0.0489757857
 40
0.0522016965
 40
0.0590172302
 40
0.0626415674
 40
0.0664256784
 40
0.0703799275
 40
0.0745129615
 40
0.0833407775
 40
0.0929542674
 40
0.1033797032
 40
0.1146306353
 40
0.1267107597
 40
0.1396158826
 40
0.1533352455
 40
0.1678527468
 40
0.1831477654
 40
0.1991956457
 40
0.2159682886
 40
0.2334345959
 40
0.251560677
 40
0.2703101734
 40
0.2896445757
 40
0.3095233513
 40
0.3299041394
 40
0.3719934528
 40
0.4155460081
 40
0.4601762292
 40
0.505485711
 40
0.5510681302
 40
0.5965139905
 40
0.6414153858
 40
0.6853707345
 40
0.727989638
 40
0.7486807963
 40
0.7688990608
 40
0.7886009751
 40
0.8077448144
 40
0.8262906967
 40
0.8442007512
 40
0.8614394592
 40
0.877973848
 40
0.8937737143
 40
0.9088120885
 40
0.9230656479
 40
0.9365151296
 40
0.9491461082
 40
0.9609499856
 40
0.9719248962
 40
0.9820774536
 40
0.9914258054
 40
1.0
 40
1.0
 40
1.0
 40
1.0
 10
9.8220965272
 20
9.7048413759
 30
0.0
 10
9.8231700945
 20
9.7058783624
 30
0.0
 10
9.8251376342
 20
9.7079644988
 30
0.0
 10
9.8276062052
 20
9.7112815332
 30
0.0
 10
9.8291662277
 20
9.7141281995
 30
0.0
 10
9.8300722687
 20
9.7164051589
 30
0.0
 10
9.8305809449
 20
9.7180889969
 30
0.0
 10
9.8309293911
 20
9.7197763359
 30
0.0
 10
9.8311171271
 20
9.7214659763
 30
0.0
 10
9.831143974
 20
9.7231565342
 30
0.0
 10
9.8310098402
 20
9.7248466298
 30
0.0
 10
9.8307148901
 20
9.7265348808
 30
0.0
 10
9.8302596285
 20
9.728219988
 30
0.0
 10
9.8296444919
 20
9.7299008393
 30
0.0
 10
9.8285930957
 20
9.7321759276
 30
0.0
 10
9.8272294565
 20
9.7344003212
 30
0.0
 10
9.8256001491
 20
9.7365604235
 30
0.0
 10
9.8241969091
 20
9.7382051461
 30
0.0
 10
9.8226386612
 20
9.7398398038
 30
0.0
 10
9.8203038906
 20
9.7420537806
 30
0.0
 10
9.8169842587
 20
9.7447842572
 30
0.0
 10
9.8124853967
 20
9.7479365588
 30
0.0
 10
9.8073970272
 20
9.75102723
 30
0.0
 10
9.8017309694
 20
9.7540494042
 30
0.0
 10
9.79550002
 20
9.756996283
 30
0.0
 10
9.7887186332
 20
9.7598609288
 30
0.0
 10
9.7814026989
 20
9.7626365675
 30
0.0
 10
9.773569495
 20
9.7653165338
 30
0.0
 10
9.7652376098
 20
9.7678943308
 30
0.0
 10
9.756426914
 20
9.7703637368
 30
0.0
 10
9.7471584731
 20
9.772718773
 30
0.0
 10
9.737454479
 20
9.7749537009
 30
0.0
 10
9.7273382095
 20
9.7770631031
 30
0.0
 10
9.7168339575
 20
9.7790418784
 30
0.0
 10
9.7059669631
 20
9.7808851991
 30
0.0
 10
9.6947633292
 20
9.7825886234
 30
0.0
 10
9.6792457108
 20
9.7846902405
 30
0.0
 10
9.6592065168
 20
9.7869267265
 30
0.0
 10
9.6345165086
 20
9.7889699615
 30
0.0
 10
9.6091690499
 20
9.7903802398
 30
0.0
 10
9.5834078945
 20
9.7911438054
 30
0.0
 10
9.5574805955
 20
9.7912531262
 30
0.0
 10
9.5316364212
 20
9.7907071167
 30
0.0
 10
9.5061237415
 20
9.789511186
 30
0.0
 10
9.4811879203
 20
9.78767699
 30
0.0
 10
9.4608929107
 20
9.7856120175
 30
0.0
 10
9.4451317176
 20
9.7836444326
 30
0.0
 10
9.4337185951
 20
9.7820366015
 30
0.0
 10
9.4226242367
 20
9.7802860735
 30
0.0
 10
9.4118752956
 20
9.7783970835
 30
0.0
 10
9.4014976139
 20
9.7763742273
 30
0.0
 10
9.391516126
 20
9.7742223876
 30
0.0
 10
9.3819547868
 20
9.7719468017
 30
0.0
 10
9.3728365156
 20
9.7695530054
 30
0.0
 10
9.364183148
 20
9.7670467834
 30
0.0
 10
9.3560153517
 20
9.7644342148
 30
0.0
 10
9.3483525672
 20
9.7617216413
 30
0.0
 10
9.3412129692
 20
9.7589155816
 30
0.0
 10
9.3346133788
 20
9.7560227531
 30
0.0
 10
9.3285691834
 20
9.7530500051
 30
0.0
 10
9.3230943899
 20
9.7500042858
 30
0.0
 10
9.3182011576
 20
9.7468922175
 30
0.0
 10
9.3139010994
 20
9.7437208716
 30
0.0
 10
9.3113284751
 20
9.7414772939
 30
0.0
 10
9.3101558089
 20
9.7403445853
 30
0.0
  0
SPLINE
  5
3E1
100
AcDbEntity
  8
0
100
AcDbSpline
 62
7
  6
CONTINUOUS
 70
0
 71
3
 72
17
 73
13
 74
0
 42
0.0000001
 43
0.0000001
 44
0.0000000001
 40
0.0
 40
0.0
 40
0.0
 40
0.0
 40
0.0548653995
 40
0.1099348206
 40
0.2214348222
 40
0.3360991408
 40
0.4553350478
 40
0.5170794787
 40
0.5804143716
 40
0.712316841
 40
0.8519520933
 40
1.0
 40
1.0
 40
1.0
 40
1.0
 10
9.1261261782
 20
9.7535030256
 30
0.0
 10
9.1261261824
 20
9.7541244193
 30
0.0
 10
9.1261656475
 20
9.7553699149
 30
0.0
 10
9.126402977
 20
9.7578679009
 30
0.0
 10
9.1270026465
 20
9.7610051474
 30
0.0
 10
9.1281942016
 20
9.7647399971
 30
0.0
 10
9.129564262
 20
9.7678028376
 30
0.0
 10
9.1308825989
 20
9.7702366562
 30
0.0
 10
9.1323921482
 20
9.7727263241
 30
0.0
 10
9.1345840424
 20
9.7758281061
 30
0.0
 10
9.13763994
 20
9.7794731547
 30
0.0
 10
9.1399127628
 20
9.7818120496
 30
0.0
 10
9.1411187793
 20
9.7829769721
 30
0.0
  0
SPLINE
  5
3E2
100
AcDbEntity
  8
0
100
AcDbSpline
 62
7
  6
CONTINUOUS
 70
0
 71
3
 72
10
 73
6
 74
0
 42
0.0000001
 43
0.0000001
 44
0.0000000001
 40
0.0
 40
0.0
 40
0.0
 40
0.0
 40
0.4728656747
 40
0.7291208893
 40
1.0
 40
1.0
 40
1.0
 40
1.0
 10
9.1302907251
 20
9.7382241541
 30
0.0
 10
9.1316026105
 20
9.7406744699
 30
0.0
 10
9.1340050504
 20
9.7442567885
 30
0.0
 10
9.1378086496
 20
9.7487402288
 30
0.0
 10
9.1399736035
 20
9.7509611882
 30
0.0
 10
9.1411187793
 20
9.7520673431
 30
0.0
  0
SPLINE
  5
3E3
100
AcDbEntity
  8
0
100
AcDbSpline
 62
7
  6
CONTINUOUS
 70
0
 71
3
 72
23
 73
19
 74
0
 42
0.0000001
 43
0.0000001
 44
0.0000000001
 40
0.0
 40
0.0
 40
0.0
 40
0.0
 40
0.0637770475
 40
0.1273448957
 40
0.1907019676
 40
0.2538561301
 40
0.3168131969
 40
0.3795820893
 40
0.4421733857
 40
0.5045993357
 40
0.5668738673
 40
0.6290123829
 40
0.6910316518
 40
0.7529496446
 40
0.8147853543
 40
0.8765586057
 40
0.9382898574
 40
1.0
 40
1.0
 40
1.0
 40
1.0
 10
8.2423927347
 20
7.3035407833
 30
0.0
 10
8.2423927347
 20
7.3103294246
 30
0.0
 10
8.2427176715
 20
7.3238867396
 30
0.0
 10
8.2441842444
 20
7.3441402381
 30
0.0
 10
8.2466261111
 20
7.3642331894
 30
0.0
 10
8.2500374241
 20
7.3841184272
 30
0.0
 10
8.2544105589
 20
7.4037504815
 30
0.0
 10
8.259735418
 20
7.4230839705
 30
0.0
 10
8.265999756
 20
7.4420743556
 30
0.0
 10
8.273189176
 20
7.4606778437
 30
0.0
 10
8.2812871439
 20
7.4788515275
 30
0.0
 10
8.2902750501
 20
7.496553476
 30
0.0
 10
8.3001321727
 20
7.513742861
 30
0.0
 10
8.3108358047
 20
7.5303800437
 30
0.0
 10
8.322361248
 20
7.5464266069
 30
0.0
 10
8.3346820864
 20
7.5618456429
 30
0.0
 10
8.3477694247
 20
7.5766010939
 30
0.0
 10
8.3569869281
 20
7.5859747119
 30
0.0
 10
8.361711446
 20
7.590538249
 30
0.0
  0
SPLINE
  5
3E4
100
AcDbEntity
  8
0
100
AcDbSpline
 62
7
  6
CONTINUOUS
 70
0
 71
3
 72
23
 73
19
 74
0
 42
0.0000001
 43
0.0000001
 44
0.0000000001
 40
0.0
 40
0.0
 40
0.0
 40
0.0
 40
0.0749625467
 40
0.1455683586
 40
0.2121600105
 40
0.2751629606
 40
0.3350981064
 40
0.3925830815
 40
0.4483293425
 40
0.503123567
 40
0.557798174
 40
0.6131915492
 40
0.6701069129
 40
0.7292781025
 40
0.7913516244
 40
0.8568785425
 40
0.9263112386
 40
1.0
 40
1.0
 40
1.0
 40
1.0
 10
9.3108163378
 20
9.7042152375
 30
0.0
 10
9.3100511169
 20
9.7049273573
 30
0.0
 10
9.308607563
 20
9.7063570329
 30
0.0
 10
9.3066597972
 20
9.7085875613
 30
0.0
 10
9.3049988321
 20
9.7108357217
 30
0.0
 10
9.3036272245
 20
9.7130996286
 30
0.0
 10
9.3025471772
 20
9.7153772228
 30
0.0
 10
9.3017611994
 20
9.7176662189
 30
0.0
 10
9.3012714282
 20
9.7199636395
 30
0.0
 10
9.3010796537
 20
9.722265863
 30
0.0
 10
9.3011866046
 20
9.7245686998
 30
0.0
 10
9.3015918622
 20
9.7268678967
 30
0.0
 10
9.3022939564
 20
9.729159594
 30
0.0
 10
9.3032906535
 20
9.7314406926
 30
0.0
 10
9.3045797104
 20
9.7337086861
 30
0.0
 10
9.306158759
 20
9.7359616086
 30
0.0
 10
9.3080253461
 20
9.7381972615
 30
0.0
 10
9.3094167388
 20
9.7396306984
 30
0.0
 10
9.3101558089
 20
9.7403445853
 30
0.0
  0
SPLINE
  5
3E5
100
AcDbEntity
  8
0
100
AcDbSpline
 62
7
  6
CONTINUOUS
 70
0
 71
3
 72
16
 73
12
 74
0
 42
0.0000001
 43
0.0000001
 44
0.0000000001
 40
0.0
 40
0.0
 40
0.0
 40
0.0
 40
0.1098865143
 40
0.2213932908
 40
0.336063432
 40
0.4553037777
 40
0.5170511403
 40
0.5803897997
 40
0.7123040909
 40
0.8519497894
 40
1.0
 40
1.0
 40
1.0
 40
1.0
 10
9.3311261819
 20
9.693615204
 30
0.0
 10
9.3311261846
 20
9.6942798792
 30
0.0
 10
9.331211519
 20
9.6956205321
 30
0.0
 10
9.3315942799
 20
9.6976219068
 30
0.0
 10
9.3322306341
 20
9.6996168995
 30
0.0
 10
9.3329623502
 20
9.7012526956
 30
0.0
 10
9.3336664689
 20
9.7025525847
 30
0.0
 10
9.3344727113
 20
9.7038823419
 30
0.0
 10
9.335643438
 20
9.705539026
 30
0.0
 10
9.3372755965
 20
9.7074858383
 30
0.0
 10
9.3384894803
 20
9.7087350353
 30
0.0
 10
9.3391335854
 20
9.7093571931
 30
0.0
  0
SPLINE
  5
3E6
100
AcDbEntity
  8
0
100
AcDbSpline
 62
7
  6
CONTINUOUS
 70
0
 71
3
 72
69
 73
65
 74
0
 42
0.0000001
 43
0.0000001
 44
0.0000000001
 40
0.0
 40
0.0
 40
0.0
 40
0.0
 40
0.0155844514
 40
0.0311164958
 40
0.046596033
 40
0.0620249362
 40
0.0774047641
 40
0.0927378569
 40
0.1080269576
 40
0.123275266
 40
0.1384864062
 40
0.153664385
 40
0.1688135563
 40
0.1839385764
 40
0.1990443578
 40
0.2141360176
 40
0.2292188235
 40
0.2442981374
 40
0.2593793583
 40
0.2744678645
 40
0.289568957
 40
0.3046878029
 40
0.3198293806
 40
0.3349984272
 40
0.3501993899
 40
0.3654363818
 40
0.3807131419
 40
0.3960329989
 40
0.4113988402
 40
0.4268130857
 40
0.4422776684
 40
0.4577940208
 40
0.4733630656
 40
0.4889852114
 40
0.5046603533
 40
0.5203878786
 40
0.5361666795
 40
0.5519951681
 40
0.5678712954
 40
0.5837925735
 40
0.5997561014
 40
0.6157585964
 40
0.6317964263
 40
0.647865644
 40
0.6639620234
 40
0.6800810983
 40
0.7123600122
 40
0.7446719581
 40
0.7608320198
 40
0.7769852785
 40
0.7931267708
 40
0.8092516359
 40
0.8253551583
 40
0.8414328088
 40
0.8574802861
 40
0.8734935573
 40
0.8894688931
 40
0.9054029073
 40
0.9212925817
 40
0.9371352945
 40
0.9529289268
 40
0.968671524
 40
0.9843624254
 40
1.0
 40
1.0
 40
1.0
 40
1.0
 10
11.6530768917
 20
7.7306001507
 30
0.0
 10
11.6530768917
 20
7.7232326333
 30
0.0
 10
11.6527163242
 20
7.7085197619
 30
0.0
 10
11.6510887815
 20
7.6865431678
 30
0.0
 10
11.6483790924
 20
7.6647470752
 30
0.0
 10
11.6445939802
 20
7.6431849159
 30
0.0
 10
11.6397423399
 20
7.6219082954
 30
0.0
 10
11.6338358714
 20
7.6009686284
 30
0.0
 10
11.6268887419
 20
7.5804163665
 30
0.0
 10
11.6189176678
 20
7.5603010705
 30
0.0
 10
11.6099418257
 20
7.5406712483
 30
0.0
 10
11.5999828127
 20
7.5215742472
 30
0.0
 10
11.5890645968
 20
7.5030561407
 30
0.0
 10
11.5772134733
 20
7.4851616079
 30
0.0
 10
11.5644580162
 20
7.4679338108
 30
0.0
 10
11.5508289756
 20
7.451414309
 30
0.0
 10
11.5363592111
 20
7.4356429561
 30
0.0
 10
11.521083611
 20
7.420657804
 30
0.0
 10
11.5050390096
 20
7.4064950118
 30
0.0
 10
11.4882641236
 20
7.3931887248
 30
0.0
 10
11.4707994269
 20
7.3807710196
 30
0.0
 10
11.4526870533
 20
7.3692718287
 30
0.0
 10
11.4339706953
 20
7.3587188668
 30
0.0
 10
11.4146954962
 20
7.3491375717
 30
0.0
 10
11.394907957
 20
7.3405510089
 30
0.0
 10
11.3746558112
 20
7.3329798299
 30
0.0
 10
11.3539879005
 20
7.3264422417
 30
0.0
 10
11.3329540601
 20
7.3209539594
 30
0.0
 10
11.3116049983
 20
7.3165281751
 30
0.0
 10
11.2899921797
 20
7.3131755095
 30
0.0
 10
11.2681676993
 20
7.3109039698
 30
0.0
 10
11.2461841494
 20
7.3097189692
 30
0.0
 10
11.2240944959
 20
7.3096233088
 30
0.0
 10
11.2019519527
 20
7.3106171734
 30
0.0
 10
11.1798098559
 20
7.3126981321
 30
0.0
 10
11.1577215319
 20
7.3158611056
 30
0.0
 10
11.1357401691
 20
7.3200984191
 30
0.0
 10
11.1139186922
 20
7.3253998221
 30
0.0
 10
11.0923096369
 20
7.3317525117
 30
0.0
 10
11.0709650293
 20
7.3391411686
 30
0.0
 10
11.0499362466
 20
7.3475479629
 30
0.0
 10
11.0292739085
 20
7.3569526027
 30
0.0
 10
11.0090277138
 20
7.3673324431
 30
0.0
 10
10.9892465069
 20
7.3786623762
 30
0.0
 10
10.9699774696
 20
7.3909154867
 30
0.0
 10
10.9450229151
 20
7.4084492952
 30
0.0
 10
10.9153451902
 20
7.4325207756
 30
0.0
 10
10.8879817844
 20
7.4592210953
 30
0.0
 10
10.8676248737
 20
7.4820143574
 30
0.0
 10
10.8531592423
 20
7.4997866983
 30
0.0
 10
10.8395340017
 20
7.518189997
 30
0.0
 10
10.8267815388
 20
7.5371803527
 30
0.0
 10
10.8149326791
 20
7.5567119584
 30
0.0
 10
10.804015947
 20
7.5767378425
 30
0.0
 10
10.7940576451
 20
7.597209795
 30
0.0
 10
10.7850817562
 20
7.6180785395
 30
0.0
 10
10.7771099127
 20
7.6392938464
 30
0.0
 10
10.7701613415
 20
7.6608046534
 30
0.0
 10
10.7642528245
 20
7.6825591766
 30
0.0
 10
10.7593986086
 20
7.7045050794
 30
0.0
 10
10.7556104839
 20
7.7265893988
 30
0.0
 10
10.7528974484
 20
7.7487593301
 30
0.0
 10
10.7512663288
 20
7.7709605661
 30
0.0
 10
10.7509020714
 20
7.7857735557
 30
0.0
 10
10.7509020714
 20
7.7931661869
 30
0.0
  0
SPLINE
  5
3E7
100
AcDbEntity
  8
0
100
AcDbSpline
 62
7
  6
CONTINUOUS
 70
0
 71
3
 72
71
 73
67
 74
0
 42
0.0000001
 43
0.0000001
 44
0.0000000001
 40
0.0
 40
0.0
 40
0.0
 40
0.0
 40
0.0081224021
 40
0.0169165279
 40
0.0264081434
 40
0.0366136729
 40
0.0475406687
 40
0.0591900386
 40
0.0715572362
 40
0.0846331289
 40
0.0984046806
 40
0.1128554936
 40
0.1279662701
 40
0.143715139
 40
0.1600778855
 40
0.177028224
 40
0.1945380126
 40
0.212577401
 40
0.231114962
 40
0.2501178742
 40
0.2695520505
 40
0.2893822318
 40
0.309572107
 40
0.3300844497
 40
0.3719228157
 40
0.4145857826
 40
0.4577527732
 40
0.5010982541
 40
0.5442949581
 40
0.5870170731
 40
0.6289434202
 40
0.6697607121
 40
0.6896589881
 40
0.7091677946
 40
0.728251669
 40
0.7468762811
 40
0.7650085828
 40
0.7826169028
 40
0.7996710734
 40
0.816142615
 40
0.8320049142
 40
0.8472333772
 40
0.8618056538
 40
0.8757019563
 40
0.8889053604
 40
0.9014021796
 40
0.9131824955
 40
0.9242408713
 40
0.9345771718
 40
0.9394767076
 40
0.9441987541
 40
0.9487453348
 40
0.9531191585
 40
0.9573236229
 40
0.9613628726
 40
0.9652420105
 40
0.9689670917
 40
0.9725452814
 40
0.9759850272
 40
0.9824862539
 40
0.9855751478
 40
0.9885736479
 40
0.9914976047
 40
0.9943642476
 40
0.9971919638
 40
1.0
 40
1.0
 40
1.0
 40
1.0
 10
12.0088664432
 20
10.0530086681
 30
0.0
 10
12.0106447909
 20
10.0547264201
 30
0.0
 10
12.0145162722
 20
10.0581325426
 30
0.0
 10
12.0209426942
 20
10.0629718719
 30
0.0
 10
12.0282000706
 20
10.0677302855
 30
0.0
 10
12.0362738192
 20
10.072398665
 30
0.0
 10
12.045148802
 20
10.0769684099
 30
0.0
 10
12.0548076736
 20
10.0814305996
 30
0.0
 10
12.0652314922
 20
10.0857764157
 30
0.0
 10
12.0763996384
 20
10.0899971196
 30
0.0
 10
12.0882898711
 20
10.0940841969
 30
0.0
 10
12.1008784046
 20
10.0980293716
 30
0.0
 10
12.1141399919
 20
10.1018246211
 30
0.0
 10
12.1280479789
 20
10.1054622057
 30
0.0
 10
12.1425743534
 20
10.1089347303
 30
0.0
 10
12.1576898233
 20
10.1122351262
 30
0.0
 10
12.173363892
 20
10.115356663
 30
0.0
 10
12.1895649123
 20
10.1182929728
 30
0.0
 10
12.2062601478
 20
10.1210380905
 30
0.0
 10
12.2234158541
 20
10.1235864275
 30
0.0
 10
12.2409973546
 20
10.1259327878
 30
0.0
 10
12.2589690894
 20
10.1280723877
 30
0.0
 10
12.2772947368
 20
10.1300009141
 30
0.0
 10
12.3023155173
 20
10.1323005701
 30
0.0
 10
12.3342020868
 20
10.1346113159
 30
0.0
 10
12.3730236641
 20
10.1364748415
 30
0.0
 10
12.412337104
 20
10.1374313109
 30
0.0
 10
12.4518245453
 20
10.1374729594
 30
0.0
 10
12.4911669237
 20
10.1365993798
 30
0.0
 10
12.5300463776
 20
10.1348178209
 30
0.0
 10
12.5681485829
 20
10.1321428481
 30
0.0
 10
12.5992547042
 20
10.1291630909
 30
0.0
 10
12.6235118947
 20
10.1263371792
 30
0.0
 10
12.6411670082
 20
10.1240280357
 30
0.0
 10
12.658402706
 20
10.1215160477
 30
0.0
 10
12.6751841683
 20
10.1188062838
 30
0.0
 10
12.6914774734
 20
10.1159042837
 30
0.0
 10
12.7072497053
 20
10.1128159573
 30
0.0
 10
12.7224690054
 20
10.109547584
 30
0.0
 10
12.7371046574
 20
10.1061058202
 30
0.0
 10
12.7511271555
 20
10.1024976897
 30
0.0
 10
12.7645082547
 20
10.0987305415
 30
0.0
 10
12.7772210361
 20
10.0948120271
 30
0.0
 10
12.7892399888
 20
10.0907501229
 30
0.0
 10
12.8005410787
 20
10.0865530772
 30
0.0
 10
12.8111017551
 20
10.0822293742
 30
0.0
 10
12.8209011631
 20
10.0777876605
 30
0.0
 10
12.8299197584
 20
10.0732368391
 30
0.0
 10
12.8368895692
 20
10.0692935784
 30
0.0
 10
12.8420482212
 20
10.0660832937
 30
0.0
 10
12.8456416101
 20
10.0636970689
 30
0.0
 10
12.8490268992
 20
10.0612904364
 30
0.0
 10
12.8522024264
 20
10.0588645616
 30
0.0
 10
12.8551666289
 20
10.0564206386
 30
0.0
 10
12.857917981
 20
10.0539597789
 30
0.0
 10
12.8604551619
 20
10.0514831687
 30
0.0
 10
12.8627768214
 20
10.0489920218
 30
0.0
 10
12.864881913
 20
10.046487143
 30
0.0
 10
12.8673514417
 20
10.0431935723
 30
0.0
 10
12.869448408
 20
10.0398111768
 30
0.0
 10
12.8711133414
 20
10.0363565952
 30
0.0
 10
12.8721192573
 20
10.0338016599
 30
0.0
 10
12.8729025956
 20
10.0312405128
 30
0.0
 10
12.873462732
 20
10.0286743972
 30
0.0
 10
12.8737989911
 20
10.0261051319
 30
0.0
 10
12.8738738276
 20
10.0243886654
 30
0.0
 10
12.8738738218
 20
10.0235338895
 30
0.0
  0
SPLINE
  5
3E8
100
AcDbEntity
  8
0
100
AcDbSpline
 62
7
  6
CONTINUOUS
 70
0
 71
3
 72
62
 73
58
 74
0
 42
0.0000001
 43
0.0000001
 44
0.0000000001
 40
0.0
 40
0.0
 40
0.0
 40
0.0
 40
0.0062941339
 40
0.0096147053
 40
0.0130620299
 40
0.020364456
 40
0.0282525894
 40
0.0367613076
 40
0.0459142636
 40
0.0557261999
 40
0.0662047374
 40
0.0773516241
 40
0.0891638085
 40
0.1016342718
 40
0.1147525376
 40
0.1285051595
 40
0.1428761577
 40
0.1578472421
 40
0.1733980459
 40
0.1895064051
 40
0.2061484787
 40
0.2232988659
 40
0.2409308162
 40
0.2590163169
 40
0.2775261576
 40
0.2964301007
 40
0.3156969631
 40
0.3551895685
 40
0.3957394972
 40
0.4370716806
 40
0.4789040236
 40
0.520949968
 40
0.5629210622
 40
0.6045295145
 40
0.6454907593
 40
0.6855260308
 40
0.7243649524
 40
0.743254716
 40
0.7617492102
 40
0.7798182455
 40
0.7974326857
 40
0.8145645226
 40
0.8311870558
 40
0.8472749826
 40
0.8628044838
 40
0.8777534471
 40
0.8921016298
 40
0.9058307952
 40
0.9189250225
 40
0.9313710256
 40
0.9431584323
 40
0.9542803089
 40
0.9647338512
 40
0.9745209636
 40
0.9836493912
 40
0.9921346681
 40
1.0
 40
1.0
 40
1.0
 40
1.0
 10
10.0021387463
 20
9.7378896333
 30
0.0
 10
10.0012653689
 20
9.7395572292
 30
0.0
 10
9.9997554576
 20
9.7420157992
 30
0.0
 10
9.9974349613
 20
9.7451598436
 30
0.0
 10
9.9947569841
 20
9.7484085074
 30
0.0
 10
9.9908898073
 20
9.7524352193
 30
0.0
 10
9.9855596938
 20
9.7571179382
 30
0.0
 10
9.9794630973
 20
9.7617345886
 30
0.0
 10
9.9726109761
 20
9.7662778092
 30
0.0
 10
9.9650150398
 20
9.7707402965
 30
0.0
 10
9.9566885741
 20
9.7751143366
 30
0.0
 10
9.9476463003
 20
9.7793922404
 30
0.0
 10
9.937904372
 20
9.7835663288
 30
0.0
 10
9.9274802985
 20
9.7876289795
 30
0.0
 10
9.9163929432
 20
9.7915727571
 30
0.0
 10
9.9046624576
 20
9.7953904261
 30
0.0
 10
9.8923102082
 20
9.7990749207
 30
0.0
 10
9.8793587538
 20
9.8026194304
 30
0.0
 10
9.8658317953
 20
9.8060174255
 30
0.0
 10
9.8517541032
 20
9.8092626049
 30
0.0
 10
9.8371514826
 20
9.8123489533
 30
0.0
 10
9.822050729
 20
9.8152707866
 30
0.0
 10
9.8064795579
 20
9.818022691
 30
0.0
 10
9.7904665562
 20
9.8205995615
 30
0.0
 10
9.7740411482
 20
9.8229966494
 30
0.0
 10
9.7572334853
 20
9.8252095513
 30
0.0
 10
9.7341651802
 20
9.8279312534
 30
0.0
 10
9.7046021255
 20
9.8308329206
 30
0.0
 10
9.668395731
 20
9.8334974166
 30
0.0
 10
9.6314382128
 20
9.8353523519
 30
0.0
 10
9.5940011052
 20
9.8363839036
 30
0.0
 10
9.5563592718
 20
9.8365843509
 30
0.0
 10
9.5187891672
 20
9.8359522279
 30
0.0
 10
9.4815667131
 20
9.834492219
 30
0.0
 10
9.4449651668
 20
9.8322152561
 30
0.0
 10
9.409253422
 20
9.8291383065
 30
0.0
 10
9.3801904554
 20
9.8258975919
 30
0.0
 10
9.3575894268
 20
9.822910261
 30
0.0
 10
9.3411788947
 20
9.820506331
 30
0.0
 10
9.3251819104
 20
9.8179228185
 30
0.0
 10
9.3096278297
 20
9.8151644741
 30
0.0
 10
9.2945452254
 20
9.8122363834
 30
0.0
 10
9.2799617765
 20
9.8091439728
 30
0.0
 10
9.2659042326
 20
9.8058929772
 30
0.0
 10
9.252398371
 20
9.8024893874
 30
0.0
 10
9.2394689266
 20
9.7989395036
 30
0.0
 10
9.2271395434
 20
9.7952499101
 30
0.0
 10
9.2154327451
 20
9.7914274026
 30
0.0
 10
9.2043698645
 20
9.7874790272
 30
0.0
 10
9.1939709863
 20
9.7834120748
 30
0.0
 10
9.1842549276
 20
9.7792339783
 30
0.0
 10
9.1752391677
 20
9.7749523257
 30
0.0
 10
9.1669397773
 20
9.7705748175
 30
0.0
 10
9.1593714933
 20
9.7661092362
 30
0.0
 10
9.1525472617
 20
9.7615630006
 30
0.0
 10
9.1464796311
 20
9.7569440921
 30
0.0
 10
9.1428107389
 20
9.7537016506
 30
0.0
 10
9.1411187793
 20
9.7520673431
 30
0.0
  0
SPLINE
  5
3E9
100
AcDbEntity
  8
0
100
AcDbSpline
 62
7
  6
CONTINUOUS
 70
0
 71
3
 72
60
 73
56
 74
0
 42
0.0000001
 43
0.0000001
 44
0.0000000001
 40
0.0
 40
0.0
 40
0.0
 40
0.0
 40
0.0028080811
 40
0.0056358509
 40
0.0085025522
 40
0.0114265654
 40
0.0175099401
 40
0.0240113047
 40
0.0310267094
 40
0.0386289617
 40
0.046871182
 40
0.0557905012
 40
0.0654112238
 40
0.0757477553
 40
0.0868063819
 40
0.0985869364
 40
0.1110840349
 40
0.1242876933
 40
0.1381842857
 40
0.1527568743
 40
0.1679856089
 40
0.1838482363
 40
0.2003201016
 40
0.2173745888
 40
0.2349832535
 40
0.2531158837
 40
0.2908239677
 40
0.3302307943
 40
0.3710488152
 40
0.4129759106
 40
0.4556987815
 40
0.4988962433
 40
0.5422424758
 40
0.5854102098
 40
0.6280739067
 40
0.6699129754
 40
0.7106150025
 40
0.7498790376
 40
0.7874190126
 40
0.8054586931
 40
0.8229687712
 40
0.8399194191
 40
0.8562824155
 40
0.872031551
 40
0.8871425954
 40
0.9015936359
 40
0.9153654347
 40
0.9284415313
 40
0.9408089377
 40
0.9524585285
 40
0.9633857047
 40
0.9735913493
 40
0.9830831457
 40
0.9918776543
 40
1.0
 40
1.0
 40
1.0
 40
1.0
 10
9.8011261542
 20
9.693615204
 30
0.0
 10
9.801126156
 20
9.6940717309
 30
0.0
 10
9.8010861911
 20
9.6949884818
 30
0.0
 10
9.800906559
 20
9.6963606887
 30
0.0
 10
9.8006073481
 20
9.6977312562
 30
0.0
 10
9.8000422742
 20
9.6995790672
 30
0.0
 10
9.7990193873
 20
9.7018948708
 30
0.0
 10
9.7973355087
 20
9.7046101324
 30
0.0
 10
9.7951855483
 20
9.7072961966
 30
0.0
 10
9.7925754195
 20
9.709949452
 30
0.0
 10
9.789510578
 20
9.71256669
 30
0.0
 10
9.7859969042
 20
9.7151439199
 30
0.0
 10
9.7820410432
 20
9.7176769136
 30
0.0
 10
9.7776504534
 20
9.7201610263
 30
0.0
 10
9.7728335879
 20
9.7225915859
 30
0.0
 10
9.767599822
 20
9.724963863
 30
0.0
 10
9.7619594315
 20
9.7272730948
 30
0.0
 10
9.7559236113
 20
9.7295147027
 30
0.0
 10
9.7495043799
 20
9.7316841193
 30
0.0
 10
9.7427145833
 20
9.7337769433
 30
0.0
 10
9.7355678524
 20
9.7357889533
 30
0.0
 10
9.7280785524
 20
9.7377160041
 30
0.0
 10
9.7202617733
 20
9.7395542122
 30
0.0
 10
9.7121332801
 20
9.7412998151
 30
0.0
 10
9.7037094611
 20
9.7429492659
 30
0.0
 10
9.6919528711
 20
9.7450431381
 30
0.0
 10
9.6766431584
 20
9.7473843238
 30
0.0
 10
9.6576114549
 20
9.7497281012
 30
0.0
 10
9.6378406898
 20
9.751622093
 30
0.0
 10
9.617490599
 20
9.7530507392
 30
0.0
 10
9.5967254725
 20
9.7540022475
 30
0.0
 10
9.5757130849
 20
9.7544687998
 30
0.0
 10
9.5546232244
 20
9.7544465571
 30
0.0
 10
9.5336263209
 20
9.7539356999
 30
0.0
 10
9.5128920354
 20
9.7529404242
 30
0.0
 10
9.4925878867
 20
9.7514689258
 30
0.0
 10
9.4728777835
 20
9.7495333493
 30
0.0
 10
9.4539209677
 20
9.7471495969
 30
0.0
 10
9.4386826856
 20
9.7447757891
 30
0.0
 10
9.4269900285
 20
9.742656674
 30
0.0
 10
9.418618657
 20
9.7409894654
 30
0.0
 10
9.4105456371
 20
9.7392267743
 30
0.0
 10
9.4027872497
 20
9.7373721159
 30
0.0
 10
9.3953591354
 20
9.7354293197
 30
0.0
 10
9.3882762533
 20
9.73340232
 30
0.0
 10
9.381552846
 20
9.731295229
 30
0.0
 10
9.3752023915
 20
9.7291123721
 30
0.0
 10
9.369237602
 20
9.7268581225
 30
0.0
 10
9.3636703425
 20
9.7245370694
 30
0.0
 10
9.358511627
 20
9.7221538686
 30
0.0
 10
9.3537716105
 20
9.719713183
 30
0.0
 10
9.3494594917
 20
9.7172198813
 30
0.0
 10
9.3455833712
 20
9.7146784421
 30
0.0
 10
9.3421511013
 20
9.7120937662
 30
0.0
 10
9.3400833605
 20
9.7102746054
 30
0.0
 10
9.3391335854
 20
9.7093571931
 30
0.0
  0
SPLINE
  5
3EA
100
AcDbEntity
  8
0
100
AcDbSpline
 62
7
  6
CONTINUOUS
 70
0
 71
3
 72
17
 73
13
 74
0
 42
0.0000001
 43
0.0000001
 44
0.0000000001
 40
0.0
 40
0.0
 40
0.0
 40
0.0
 40
0.0548653995
 40
0.1099348206
 40
0.2214348222
 40
0.3360991408
 40
0.4553350478
 40
0.5170794787
 40
0.5804143716
 40
0.712316841
 40
0.8519520933
 40
1.0
 40
1.0
 40
1.0
 40
1.0
 10
11.9938738421
 20
10.0235347216
 30
0.0
 10
11.9938738464
 20
10.0241561153
 30
0.0
 10
11.9939133114
 20
10.0254016109
 30
0.0
 10
11.994150641
 20
10.0278995969
 30
0.0
 10
11.9947503104
 20
10.0310368434
 30
0.0
 10
11.9959418655
 20
10.0347716931
 30
0.0
 10
11.997311926
 20
10.0378345337
 30
0.0
 10
11.9986302629
 20
10.0402683522
 30
0.0
 10
12.0001398121
 20
10.0427580201
 30
0.0
 10
12.0023317063
 20
10.0458598021
 30
0.0
 10
12.0053876039
 20
10.0495048507
 30
0.0
 10
12.0076604268
 20
10.0518437456
 30
0.0
 10
12.0088664432
 20
10.0530086681
 30
0.0
  0
SPLINE
  5
3EB
100
AcDbEntity
  8
0
100
AcDbSpline
 62
7
  6
CONTINUOUS
 70
0
 71
3
 72
10
 73
6
 74
0
 42
0.0000001
 43
0.0000001
 44
0.0000000001
 40
0.0
 40
0.0
 40
0.0
 40
0.0
 40
0.4728656747
 40
0.7291208893
 40
1.0
 40
1.0
 40
1.0
 40
1.0
 10
11.998038389
 20
10.0082558501
 30
0.0
 10
11.9993502744
 20
10.0107061659
 30
0.0
 10
12.0017527144
 20
10.0142884846
 30
0.0
 10
12.0055563136
 20
10.0187719248
 30
0.0
 10
12.0077212675
 20
10.0209928842
 30
0.0
 10
12.0088664432
 20
10.0220990391
 30
0.0
  0
SPLINE
  5
3EC
100
AcDbEntity
  8
0
100
AcDbSpline
 62
7
  6
CONTINUOUS
 70
0
 71
3
 72
23
 73
19
 74
0
 42
0.0000001
 43
0.0000001
 44
0.0000000001
 40
0.0
 40
0.0
 40
0.0
 40
0.0
 40
0.0749625467
 40
0.1455683586
 40
0.2121600105
 40
0.2751629606
 40
0.3350981064
 40
0.3925830815
 40
0.4483293425
 40
0.503123567
 40
0.557798174
 40
0.6131915492
 40
0.6701069129
 40
0.7292781025
 40
0.7913516244
 40
0.8568785425
 40
0.9263112386
 40
1.0
 40
1.0
 40
1.0
 40
1.0
 10
12.1785640018
 20
9.9742469335
 30
0.0
 10
12.1777987808
 20
9.9749590533
 30
0.0
 10
12.1763552269
 20
9.9763887289
 30
0.0
 10
12.1744074612
 20
9.9786192573
 30
0.0
 10
12.172746496
 20
9.9808674177
 30
0.0
 10
12.1713748884
 20
9.9831313246
 30
0.0
 10
12.1702948411
 20
9.9854089188
 30
0.0
 10
12.1695088633
 20
9.9876979149
 30
0.0
 10
12.1690190922
 20
9.9899953355
 30
0.0
 10
12.1688273176
 20
9.992297559
 30
0.0
 10
12.1689342686
 20
9.9946003958
 30
0.0
 10
12.1693395262
 20
9.9968995927
 30
0.0
 10
12.1700416204
 20
9.9991912901
 30
0.0
 10
12.1710383174
 20
10.0014723887
 30
0.0
 10
12.1723273743
 20
10.0037403821
 30
0.0
 10
12.173906423
 20
10.0059933046
 30
0.0
 10
12.1757730101
 20
10.0082289575
 30
0.0
 10
12.1771644028
 20
10.0096623944
 30
0.0
 10
12.1779034728
 20
10.0103762813
 30
0.0
  0
SPLINE
  5
3ED
100
AcDbEntity
  8
0
100
AcDbSpline
 62
7
  6
CONTINUOUS
 70
0
 71
3
 72
16
 73
12
 74
0
 42
0.0000001
 43
0.0000001
 44
0.0000000001
 40
0.0
 40
0.0
 40
0.0
 40
0.0
 40
0.1098865143
 40
0.2213932908
 40
0.336063432
 40
0.4553037777
 40
0.5170511403
 40
0.5803897997
 40
0.7123040909
 40
0.8519497894
 40
1.0
 40
1.0
 40
1.0
 40
1.0
 10
12.1988738458
 20
9.9636469001
 30
0.0
 10
12.1988738485
 20
9.9643115752
 30
0.0
 10
12.1989591829
 20
9.9656522281
 30
0.0
 10
12.1993419438
 20
9.9676536028
 30
0.0
 10
12.199978298
 20
9.9696485955
 30
0.0
 10
12.2007100142
 20
9.9712843916
 30
0.0
 10
12.2014141329
 20
9.9725842807
 30
0.0
 10
12.2022203753
 20
9.9739140379
 30
0.0
 10
12.2033911019
 20
9.975570722
 30
0.0
 10
12.2050232605
 20
9.9775175343
 30
0.0
 10
12.2062371443
 20
9.9787667314
 30
0.0
 10
12.2068812493
 20
9.9793888891
 30
0.0
  0
SPLINE
  5
3EE
100
AcDbEntity
  8
0
100
AcDbSpline
 62
7
  6
CONTINUOUS
 70
0
 71
3
 72
69
 73
65
 74
0
 42
0.0000001
 43
0.0000001
 44
0.0000000001
 40
0.0
 40
0.0
 40
0.0
 40
0.0
 40
0.0155844514
 40
0.0311164958
 40
0.046596033
 40
0.0620249362
 40
0.0774047641
 40
0.0927378569
 40
0.1080269576
 40
0.123275266
 40
0.1384864062
 40
0.153664385
 40
0.1688135563
 40
0.1839385764
 40
0.1990443578
 40
0.2141360176
 40
0.2292188235
 40
0.2442981374
 40
0.2593793583
 40
0.2744678645
 40
0.289568957
 40
0.3046878029
 40
0.3198293806
 40
0.3349984272
 40
0.3501993899
 40
0.3654363818
 40
0.3807131419
 40
0.3960329989
 40
0.4113988402
 40
0.4268130857
 40
0.4422776684
 40
0.4577940208
 40
0.4733630656
 40
0.4889852114
 40
0.5046603533
 40
0.5203878786
 40
0.5361666795
 40
0.5519951681
 40
0.5678712954
 40
0.5837925735
 40
0.5997561014
 40
0.6157585964
 40
0.6317964263
 40
0.647865644
 40
0.6639620234
 40
0.6800810983
 40
0.7123600122
 40
0.7446719581
 40
0.7608320198
 40
0.7769852785
 40
0.7931267708
 40
0.8092516359
 40
0.8253551583
 40
0.8414328088
 40
0.8574802861
 40
0.8734935573
 40
0.8894688931
 40
0.9054029073
 40
0.9212925817
 40
0.9371352945
 40
0.9529289268
 40
0.968671524
 40
0.9843624254
 40
1.0
 40
1.0
 40
1.0
 40
1.0
 10
10.7509020714
 20
7.7931661869
 30
0.0
 10
10.7509020714
 20
7.8005337043
 30
0.0
 10
10.7512626389
 20
7.8152465757
 30
0.0
 10
10.7528901815
 20
7.8372231698
 30
0.0
 10
10.7555998707
 20
7.8590192624
 30
0.0
 10
10.7593849828
 20
7.8805814217
 30
0.0
 10
10.7642366232
 20
7.9018580422
 30
0.0
 10
10.7701430917
 20
7.9227977092
 30
0.0
 10
10.7770902211
 20
7.9433499711
 30
0.0
 10
10.7850612953
 20
7.9634652671
 30
0.0
 10
10.7940371374
 20
7.9830950893
 30
0.0
 10
10.8039961504
 20
8.0021920904
 30
0.0
 10
10.8149143663
 20
8.0207101969
 30
0.0
 10
10.8267654898
 20
8.0386047297
 30
0.0
 10
10.8395209469
 20
8.0558325268
 30
0.0
 10
10.8531499874
 20
8.0723520286
 30
0.0
 10
10.8676197519
 20
8.0881233815
 30
0.0
 10
10.8828953521
 20
8.1031085336
 30
0.0
 10
10.8989399534
 20
8.1172713258
 30
0.0
 10
10.9157148395
 20
8.1305776128
 30
0.0
 10
10.9331795362
 20
8.142995318
 30
0.0
 10
10.9512919098
 20
8.1544945089
 30
0.0
 10
10.9700082677
 20
8.1650474708
 30
0.0
 10
10.9892834669
 20
8.1746287659
 30
0.0
 10
11.009071006
 20
8.1832153287
 30
0.0
 10
11.0293231519
 20
8.1907865077
 30
0.0
 10
11.0499910626
 20
8.1973240959
 30
0.0
 10
11.071024903
 20
8.2028123782
 30
0.0
 10
11.0923739647
 20
8.2072381625
 30
0.0
 10
11.1139867834
 20
8.2105908281
 30
0.0
 10
11.1358112638
 20
8.2128623678
 30
0.0
 10
11.1577948137
 20
8.2140473684
 30
0.0
 10
11.1798844671
 20
8.2141430288
 30
0.0
 10
11.2020270104
 20
8.2131491642
 30
0.0
 10
11.2241691072
 20
8.2110682055
 30
0.0
 10
11.2462574311
 20
8.207905232
 30
0.0
 10
11.268238794
 20
8.2036679185
 30
0.0
 10
11.2900602709
 20
8.1983665155
 30
0.0
 10
11.3116693262
 20
8.1920138259
 30
0.0
 10
11.3330139337
 20
8.184625169
 30
0.0
 10
11.3540427165
 20
8.1762183747
 30
0.0
 10
11.3747050546
 20
8.1668137349
 30
0.0
 10
11.3949512492
 20
8.1564338945
 30
0.0
 10
11.4147324561
 20
8.1451039614
 30
0.0
 10
11.4340014935
 20
8.1328508509
 30
0.0
 10
11.4589560479
 20
8.1153170424
 30
0.0
 10
11.4886337729
 20
8.091245562
 30
0.0
 10
11.5159971787
 20
8.0645452423
 30
0.0
 10
11.5363540894
 20
8.0417519802
 30
0.0
 10
11.5508197207
 20
8.0239796393
 30
0.0
 10
11.5644449614
 20
8.0055763406
 30
0.0
 10
11.5771974243
 20
7.9865859849
 30
0.0
 10
11.589046284
 20
7.9670543792
 30
0.0
 10
11.5999630161
 20
7.9470284951
 30
0.0
 10
11.609921318
 20
7.9265565426
 30
0.0
 10
11.6188972068
 20
7.9056877981
 30
0.0
 10
11.6268690504
 20
7.8844724912
 30
0.0
 10
11.6338176216
 20
7.8629616842
 30
0.0
 10
11.6397261386
 20
7.841207161
 30
0.0
 10
11.6445803545
 20
7.8192612582
 30
0.0
 10
11.6483684792
 20
7.7971769388
 30
0.0
 10
11.6510815147
 20
7.7750070075
 30
0.0
 10
11.6527126342
 20
7.7528057715
 30
0.0
 10
11.6530768917
 20
7.7379927819
 30
0.0
 10
11.6530768917
 20
7.7306001507
 30
0.0
  0
SPLINE
  5
3EF
100
AcDbEntity
  8
0
100
AcDbSpline
 62
7
  6
CONTINUOUS
 70
0
 71
3
 72
62
 73
58
 74
0
 42
0.0000001
 43
0.0000001
 44
0.0000000001
 40
0.0
 40
0.0
 40
0.0
 40
0.0
 40
0.0062941339
 40
0.0096147053
 40
0.0130620299
 40
0.020364456
 40
0.0282525894
 40
0.0367613076
 40
0.0459142636
 40
0.0557261999
 40
0.0662047374
 40
0.0773516241
 40
0.0891638085
 40
0.1016342718
 40
0.1147525376
 40
0.1285051595
 40
0.1428761577
 40
0.1578472421
 40
0.1733980459
 40
0.1895064051
 40
0.2061484787
 40
0.2232988659
 40
0.2409308162
 40
0.2590163169
 40
0.2775261576
 40
0.2964301007
 40
0.3156969631
 40
0.3551895685
 40
0.3957394972
 40
0.4370716806
 40
0.4789040236
 40
0.520949968
 40
0.5629210622
 40
0.6045295145
 40
0.6454907593
 40
0.6855260308
 40
0.7243649524
 40
0.743254716
 40
0.7617492102
 40
0.7798182455
 40
0.7974326857
 40
0.8145645226
 40
0.8311870558
 40
0.8472749826
 40
0.8628044838
 40
0.8777534471
 40
0.8921016298
 40
0.9058307952
 40
0.9189250225
 40
0.9313710256
 40
0.9431584323
 40
0.9542803089
 40
0.9647338512
 40
0.9745209636
 40
0.9836493912
 40
0.9921346681
 40
1.0
 40
1.0
 40
1.0
 40
1.0
 10
12.8698864102
 20
10.0079213293
 30
0.0
 10
12.8690130328
 20
10.0095889252
 30
0.0
 10
12.8675031215
 20
10.0120474952
 30
0.0
 10
12.8651826252
 20
10.0151915396
 30
0.0
 10
12.862504648
 20
10.0184402034
 30
0.0
 10
12.8586374712
 20
10.0224669153
 30
0.0
 10
12.8533073577
 20
10.0271496342
 30
0.0
 10
12.8472107613
 20
10.0317662846
 30
0.0
 10
12.84035864
 20
10.0363095052
 30
0.0
 10
12.8327627037
 20
10.0407719925
 30
0.0
 10
12.8244362381
 20
10.0451460326
 30
0.0
 10
12.8153939642
 20
10.0494239364
 30
0.0
 10
12.8056520359
 20
10.0535980248
 30
0.0
 10
12.7952279624
 20
10.0576606755
 30
0.0
 10
12.7841406072
 20
10.0616044531
 30
0.0
 10
12.7724101215
 20
10.0654221221
 30
0.0
 10
12.7600578722
 20
10.0691066167
 30
0.0
 10
12.7471064177
 20
10.0726511264
 30
0.0
 10
12.7335794592
 20
10.0760491215
 30
0.0
 10
12.7195017671
 20
10.0792943009
 30
0.0
 10
12.7048991465
 20
10.0823806493
 30
0.0
 10
12.6897983929
 20
10.0853024826
 30
0.0
 10
12.6742272219
 20
10.088054387
 30
0.0
 10
12.6582142202
 20
10.0906312575
 30
0.0
 10
12.6417888121
 20
10.0930283455
 30
0.0
 10
12.6249811492
 20
10.0952412473
 30
0.0
 10
12.6019128441
 20
10.0979629494
 30
0.0
 10
12.5723497894
 20
10.1008646166
 30
0.0
 10
12.5361433949
 20
10.1035291126
 30
0.0
 10
12.4991858768
 20
10.1053840479
 30
0.0
 10
12.4617487692
 20
10.1064155996
 30
0.0
 10
12.4241069358
 20
10.1066160469
 30
0.0
 10
12.3865368312
 20
10.1059839239
 30
0.0
 10
12.349314377
 20
10.104523915
 30
0.0
 10
12.3127128307
 20
10.1022469521
 30
0.0
 10
12.2770010859
 20
10.0991700025
 30
0.0
 10
12.2479381193
 20
10.0959292879
 30
0.0
 10
12.2253370908
 20
10.092941957
 30
0.0
 10
12.2089265586
 20
10.090538027
 30
0.0
 10
12.1929295743
 20
10.0879545145
 30
0.0
 10
12.1773754936
 20
10.0851961701
 30
0.0
 10
12.1622928894
 20
10.0822680795
 30
0.0
 10
12.1477094405
 20
10.0791756688
 30
0.0
 10
12.1336518966
 20
10.0759246732
 30
0.0
 10
12.1201460349
 20
10.0725210834
 30
0.0
 10
12.1072165906
 20
10.0689711996
 30
0.0
 10
12.0948872074
 20
10.0652816061
 30
0.0
 10
12.0831804091
 20
10.0614590986
 30
0.0
 10
12.0721175284
 20
10.0575107232
 30
0.0
 10
12.0617186502
 20
10.0534437708
 30
0.0
 10
12.0520025915
 20
10.0492656743
 30
0.0
 10
12.0429868316
 20
10.0449840217
 30
0.0
 10
12.0346874413
 20
10.0406065135
 30
0.0
 10
12.0271191573
 20
10.0361409322
 30
0.0
 10
12.0202949257
 20
10.0315946966
 30
0.0
 10
12.014227295
 20
10.0269757881
 30
0.0
 10
12.0105584028
 20
10.0237333466
 30
0.0
 10
12.0088664432
 20
10.0220990391
 30
0.0
  0
SPLINE
  5
3F0
100
AcDbEntity
  8
0
100
AcDbSpline
 62
7
  6
CONTINUOUS
 70
0
 71
3
 72
60
 73
56
 74
0
 42
0.0000001
 43
0.0000001
 44
0.0000000001
 40
0.0
 40
0.0
 40
0.0
 40
0.0
 40
0.0028080811
 40
0.0056358509
 40
0.0085025522
 40
0.0114265654
 40
0.0175099401
 40
0.0240113047
 40
0.0310267094
 40
0.0386289617
 40
0.046871182
 40
0.0557905012
 40
0.0654112238
 40
0.0757477553
 40
0.0868063819
 40
0.0985869364
 40
0.1110840349
 40
0.1242876933
 40
0.1381842857
 40
0.1527568743
 40
0.1679856089
 40
0.1838482363
 40
0.2003201016
 40
0.2173745888
 40
0.2349832535
 40
0.2531158837
 40
0.2908239677
 40
0.3302307943
 40
0.3710488152
 40
0.4129759106
 40
0.4556987815
 40
0.4988962433
 40
0.5422424758
 40
0.5854102098
 40
0.6280739067
 40
0.6699129754
 40
0.7106150025
 40
0.7498790376
 40
0.7874190126
 40
0.8054586931
 40
0.8229687712
 40
0.8399194191
 40
0.8562824155
 40
0.872031551
 40
0.8871425954
 40
0.9015936359
 40
0.9153654347
 40
0.9284415313
 40
0.9408089377
 40
0.9524585285
 40
0.9633857047
 40
0.9735913493
 40
0.9830831457
 40
0.9918776543
 40
1.0
 40
1.0
 40
1.0
 40
1.0
 10
12.6688738181
 20
9.9636469001
 30
0.0
 10
12.66887382
 20
9.9641034269
 30
0.0
 10
12.668833855
 20
9.9650201778
 30
0.0
 10
12.6686542229
 20
9.9663923847
 30
0.0
 10
12.668355012
 20
9.9677629522
 30
0.0
 10
12.6677899382
 20
9.9696107632
 30
0.0
 10
12.6667670512
 20
9.9719265668
 30
0.0
 10
12.6650831726
 20
9.9746418284
 30
0.0
 10
12.6629332122
 20
9.9773278926
 30
0.0
 10
12.6603230835
 20
9.979981148
 30
0.0
 10
12.6572582419
 20
9.982598386
 30
0.0
 10
12.6537445681
 20
9.9851756159
 30
0.0
 10
12.6497887071
 20
9.9877086096
 30
0.0
 10
12.6453981174
 20
9.9901927223
 30
0.0
 10
12.6405812519
 20
9.9926232819
 30
0.0
 10
12.6353474859
 20
9.994995559
 30
0.0
 10
12.6297070954
 20
9.9973047908
 30
0.0
 10
12.6236712752
 20
9.9995463987
 30
0.0
 10
12.6172520439
 20
10.0017158154
 30
0.0
 10
12.6104622473
 20
10.0038086393
 30
0.0
 10
12.6033155163
 20
10.0058206493
 30
0.0
 10
12.5958262164
 20
10.0077477002
 30
0.0
 10
12.5880094372
 20
10.0095859082
 30
0.0
 10
12.5798809441
 20
10.0113315111
 30
0.0
 10
12.571457125
 20
10.0129809619
 30
0.0
 10
12.5597005351
 20
10.0150748341
 30
0.0
 10
12.5443908223
 20
10.0174160198
 30
0.0
 10
12.5253591188
 20
10.0197597972
 30
0.0
 10
12.5055883537
 20
10.021653789
 30
0.0
 10
12.4852382629
 20
10.0230824352
 30
0.0
 10
12.4644731364
 20
10.0240339435
 30
0.0
 10
12.4434607489
 20
10.0245004958
 30
0.0
 10
12.4223708883
 20
10.0244782531
 30
0.0
 10
12.4013739849
 20
10.0239673959
 30
0.0
 10
12.3806396993
 20
10.0229721202
 30
0.0
 10
12.3603355506
 20
10.0215006218
 30
0.0
 10
12.3406254474
 20
10.0195650453
 30
0.0
 10
12.3216686316
 20
10.0171812929
 30
0.0
 10
12.3064303495
 20
10.0148074851
 30
0.0
 10
12.2947376924
 20
10.01268837
 30
0.0
 10
12.2863663209
 20
10.0110211614
 30
0.0
 10
12.2782933011
 20
10.0092584703
 30
0.0
 10
12.2705349137
 20
10.0074038119
 30
0.0
 10
12.2631067994
 20
10.0054610157
 30
0.0
 10
12.2560239173
 20
10.003434016
 30
0.0
 10
12.2493005099
 20
10.0013269251
 30
0.0
 10
12.2429500554
 20
9.9991440681
 30
0.0
 10
12.2369852659
 20
9.9968898185
 30
0.0
 10
12.2314180065
 20
9.9945687654
 30
0.0
 10
12.226259291
 20
9.9921855646
 30
0.0
 10
12.2215192744
 20
9.989744879
 30
0.0
 10
12.2172071556
 20
9.9872515773
 30
0.0
 10
12.2133310352
 20
9.9847101381
 30
0.0
 10
12.2098987653
 20
9.9821254622
 30
0.0
 10
12.2078310244
 20
9.9803063014
 30
0.0
 10
12.2068812493
 20
9.9793888891
 30
0.0
  0
SPLINE
  5
3F1
100
AcDbEntity
  8
0
100
AcDbSpline
 62
7
  6
CONTINUOUS
 70
0
 71
3
 72
81
 73
77
 74
0
 42
0.0000001
 43
0.0000001
 44
0.0000000001
 40
0.0
 40
0.0
 40
0.0
 40
0.0
 40
0.0027164306
 40
0.0054532406
 40
0.0082303113
 40
0.0110666128
 40
0.0139798282
 40
0.0169861412
 40
0.0201001195
 40
0.0233346405
 40
0.0267010082
 40
0.0302089739
 40
0.0338668927
 40
0.0376818791
 40
0.0416598591
 40
0.0458058003
 40
0.0501237459
 40
0.0546169413
 40
0.0592879758
 40
0.0641387574
 40
0.0691706959
 40
0.0743846914
 40
0.0853596139
 40
0.0970634815
 40
0.1094902477
 40
0.1226295218
 40
0.1364672103
 40
0.1509860393
 40
0.1661659502
 40
0.1819844132
 40
0.1984166695
 40
0.2154359556
 40
0.233013703
 40
0.2511197005
 40
0.2697222361
 40
0.2887882189
 40
0.3082833183
 40
0.3281720849
 40
0.3484180605
 40
0.368983879
 40
0.38983137
 40
0.4109216725
 40
0.4536716934
 40
0.496913714
 40
0.5403220126
 40
0.5835692765
 40
0.6263297382
 40
0.6474271808
 40
0.6682830633
 40
0.6888585076
 40
0.7091153275
 40
0.7290161282
 40
0.7485244101
 40
0.7676046883
 40
0.786222604
 40
0.804345033
 40
0.8219402078
 40
0.8389778539
 40
0.8554293539
 40
0.8712678975
 40
0.8864686613
 40
0.9010090234
 40
0.9148688331
 40
0.9280307344
 40
0.9404805411
 40
0.9522077238
 40
0.9577984982
 40
0.963206723
 40
0.9684324181
 40
0.9734760178
 40
0.9783383767
 40
0.9830208243
 40
0.9875253764
 40
0.9918546118
 40
0.9960116
 40
1.0
 40
1.0
 40
1.0
 40
1.0
 10
13.6824461289
 20
9.3559109744
 30
0.0
 10
13.683556622
 20
9.3558339553
 30
0.0
 10
13.685780253
 20
9.3555788219
 30
0.0
 10
13.6890873773
 20
9.354896075
 30
0.0
 10
13.6923695226
 20
9.3539134911
 30
0.0
 10
13.6956243205
 20
9.3526319143
 30
0.0
 10
13.6988501061
 20
9.3510525507
 30
0.0
 10
13.7020452395
 20
9.349176639
 30
0.0
 10
13.7052081988
 20
9.3470054496
 30
0.0
 10
13.7083376497
 20
9.3445404523
 30
0.0
 10
13.7114321732
 20
9.3417830036
 30
0.0
 10
13.7144904689
 20
9.3387346545
 30
0.0
 10
13.7175112177
 20
9.3353970003
 30
0.0
 10
13.7204930187
 20
9.33177169
 30
0.0
 10
13.7234345997
 20
9.3278605866
 30
0.0
 10
13.72633454
 20
9.3236655798
 30
0.0
 10
13.7291914993
 20
9.3191887522
 30
0.0
 10
13.7320041437
 20
9.3144323177
 30
0.0
 10
13.7347710537
 20
9.3093985892
 30
0.0
 10
13.7374909437
 20
9.3040900862
 30
0.0
 10
13.7401624693
 20
9.2985094039
 30
0.0
 10
13.7437191196
 20
9.2905731008
 30
0.0
 10
13.7480201722
 20
9.2799786389
 30
0.0
 10
13.7528835018
 20
9.2664362366
 30
0.0
 10
13.757523719
 20
9.2518822953
 30
0.0
 10
13.7619314857
 20
9.2363457897
 30
0.0
 10
13.766097913
 20
9.2198574281
 30
0.0
 10
13.7700145513
 20
9.2024500482
 30
0.0
 10
13.7736734422
 20
9.1841583752
 30
0.0
 10
13.777067135
 20
9.165018982
 30
0.0
 10
13.7801887258
 20
9.1450701984
 30
0.0
 10
13.783031867
 20
9.1243520232
 30
0.0
 10
13.7855907712
 20
9.1029060263
 30
0.0
 10
13.7878602269
 20
9.0807752578
 30
0.0
 10
13.7898356067
 20
9.0580041644
 30
0.0
 10
13.7915128948
 20
9.0346384996
 30
0.0
 10
13.7928886778
 20
9.0107252246
 30
0.0
 10
13.7939601499
 20
8.9863124066
 30
0.0
 10
13.7947251201
 20
8.9614491192
 30
0.0
 10
13.795182011
 20
8.936185364
 30
0.0
 10
13.7953299145
 20
8.910571903
 30
0.0
 10
13.795113605
 20
8.8758678404
 30
0.0
 10
13.7940641069
 20
8.8319950383
 30
0.0
 10
13.7915907262
 20
8.779021692
 30
0.0
 10
13.7879172394
 20
8.7259136036
 30
0.0
 10
13.7830731426
 20
8.6730977978
 30
0.0
 10
13.7780715835
 20
8.6294889763
 30
0.0
 10
13.7735070897
 20
8.5950749829
 30
0.0
 10
13.7698333956
 20
8.5697154992
 30
0.0
 10
13.765901698
 20
8.5447434024
 30
0.0
 10
13.7617198945
 20
8.5202088646
 30
0.0
 10
13.7572964297
 20
8.4961612232
 30
0.0
 10
13.752640221
 20
8.4726488206
 30
0.0
 10
13.7477606692
 20
8.4497189139
 30
0.0
 10
13.7426676311
 20
8.4274175743
 30
0.0
 10
13.7373713925
 20
8.4057896002
 30
0.0
 10
13.7318826503
 20
8.3848784274
 30
0.0
 10
13.7262124871
 20
8.3647260321
 30
0.0
 10
13.7203723682
 20
8.3453728342
 30
0.0
 10
13.7143740989
 20
8.3268576142
 30
0.0
 10
13.7082298009
 20
8.3092174397
 30
0.0
 10
13.7019518802
 20
8.2924875702
 30
0.0
 10
13.6955530041
 20
8.2767013972
 30
0.0
 10
13.6890460629
 20
8.2618902349
 30
0.0
 10
13.6824441483
 20
8.248083653
 30
0.0
 10
13.676787861
 20
8.2372720384
 30
0.0
 10
13.6722161313
 20
8.2291577778
 30
0.0
 10
13.66882656
 20
8.2234373317
 30
0.0
 10
13.6654231546
 20
8.2179876993
 30
0.0
 10
13.6620075996
 20
8.2128115849
 30
0.0
 10
13.6585816329
 20
8.2079115507
 30
0.0
 10
13.6551468647
 20
8.2032900348
 30
0.0
 10
13.6517049905
 20
8.1989492477
 30
0.0
 10
13.6482575881
 20
8.1948913388
 30
0.0
 10
13.6448065506
 20
8.1911185103
 30
0.0
 10
13.642456735
 20
8.1887462788
 30
0.0
 10
13.6412811864
 20
8.1876107859
 30
0.0
  0
SPLINE
  5
3F2
100
AcDbEntity
  8
0
100
AcDbSpline
 62
7
  6
CONTINUOUS
 70
0
 71
3
 72
39
 73
35
 74
0
 42
0.0000001
 43
0.0000001
 44
0.0000000001
 40
0.0
 40
0.0
 40
0.0
 40
0.0
 40
0.0599638552
 40
0.1184521587
 40
0.1731936771
 40
0.2237134202
 40
0.2703318815
 40
0.3135598832
 40
0.3538820771
 40
0.3917061192
 40
0.4273630334
 40
0.4611207369
 40
0.4931966512
 40
0.523769329
 40
0.5529899666
 40
0.5809858754
 40
0.6078689584
 40
0.6337395015
 40
0.6586889373
 40
0.6828054508
 40
0.706174782
 40
0.7288854587
 40
0.7510305153
 40
0.7727116298
 40
0.7940425247
 40
0.8151528505
 40
0.8361917392
 40
0.8573330744
 40
0.8787773657
 40
0.9007582849
 40
0.9235435572
 40
0.9474395647
 40
0.9727943579
 40
1.0
 40
1.0
 40
1.0
 40
1.0
 10
10.9794067746
 20
7.8092602373
 30
0.0
 10
10.9806579562
 20
7.8057353945
 30
0.0
 10
10.9828871109
 20
7.798684341
 30
0.0
 10
10.9855038559
 20
7.7881969854
 30
0.0
 10
10.9874277727
 20
7.7781609089
 30
0.0
 10
10.9887472168
 20
7.7687759949
 30
0.0
 10
10.9895683126
 20
7.7600561961
 30
0.0
 10
10.9899798471
 20
7.7519447933
 30
0.0
 10
10.9900485517
 20
7.7443721122
 30
0.0
 10
10.9898229543
 20
7.7372751333
 30
0.0
 10
10.9893383003
 20
7.7306017132
 30
0.0
 10
10.9886205225
 20
7.7243101218
 30
0.0
 10
10.9876886357
 20
7.7183674723
 30
0.0
 10
10.9865563847
 20
7.7127481054
 30
0.0
 10
10.9852345249
 20
7.7074321079
 30
0.0
 10
10.9837301069
 20
7.7024045228
 30
0.0
 10
10.9820484291
 20
7.6976543998
 30
0.0
 10
10.9801928984
 20
7.6931742736
 30
0.0
 10
10.9781650997
 20
7.6889599147
 30
0.0
 10
10.9759657947
 20
7.6850098061
 30
0.0
 10
10.9735941735
 20
7.681325318
 30
0.0
 10
10.9710487335
 20
7.677910414
 30
0.0
 10
10.9683269778
 20
7.6747718104
 30
0.0
 10
10.9654255496
 20
7.6719192305
 30
0.0
 10
10.9623405637
 20
7.6693653687
 30
0.0
 10
10.959067468
 20
7.6671265129
 30
0.0
 10
10.9556012832
 20
7.6652229892
 30
0.0
 10
10.9519371964
 20
7.6636790008
 30
0.0
 10
10.9480700743
 20
7.6625248932
 30
0.0
 10
10.9439959079
 20
7.6617952475
 30
0.0
 10
10.9397113148
 20
7.6615327165
 30
0.0
 10
10.9352146349
 20
7.6617869364
 30
0.0
 10
10.9305075678
 20
7.6626161062
 30
0.0
 10
10.9273589042
 20
7.6635604099
 30
0.0
 10
10.9257628606
 20
7.6641369523
 30
0.0
  0
SPLINE
  5
3F3
100
AcDbEntity
  8
0
100
AcDbSpline
 62
7
  6
CONTINUOUS
 70
0
 71
3
 72
69
 73
65
 74
0
 42
0.0000001
 43
0.0000001
 44
0.0000000001
 40
0.0
 40
0.0
 40
0.0
 40
0.0
 40
0.0078496125
 40
0.0150470873
 40
0.0216913576
 40
0.024849121
 40
0.0279214041
 40
0.0309297974
 40
0.0338974714
 40
0.0368486889
 40
0.0398081446
 40
0.0428003164
 40
0.0458487936
 40
0.0489757857
 40
0.0522016965
 40
0.0590172302
 40
0.0626415674
 40
0.0664256784
 40
0.0703799275
 40
0.0745129615
 40
0.0833407775
 40
0.0929542674
 40
0.1033797032
 40
0.1146306353
 40
0.1267107597
 40
0.1396158826
 40
0.1533352455
 40
0.1678527468
 40
0.1831477654
 40
0.1991956457
 40
0.2159682886
 40
0.2334345959
 40
0.251560677
 40
0.2703101734
 40
0.2896445757
 40
0.3095233513
 40
0.3299041394
 40
0.3719934528
 40
0.4155460081
 40
0.4601762292
 40
0.505485711
 40
0.5510681302
 40
0.5965139905
 40
0.6414153858
 40
0.6853707345
 40
0.727989638
 40
0.7486807963
 40
0.7688990608
 40
0.7886009751
 40
0.8077448144
 40
0.8262906967
 40
0.8442007512
 40
0.8614394592
 40
0.877973848
 40
0.8937737143
 40
0.9088120885
 40
0.9230656479
 40
0.9365151296
 40
0.9491461082
 40
0.9609499856
 40
0.9719248962
 40
0.9820774536
 40
0.9914258054
 40
1.0
 40
1.0
 40
1.0
 40
1.0
 10
12.6898441911
 20
9.9748730719
 30
0.0
 10
12.6909177585
 20
9.9759100584
 30
0.0
 10
12.6928852981
 20
9.9779961948
 30
0.0
 10
12.6953538691
 20
9.9813132292
 30
0.0
 10
12.6969138917
 20
9.9841598956
 30
0.0
 10
12.6978199327
 20
9.9864368549
 30
0.0
 10
12.6983286088
 20
9.9881206929
 30
0.0
 10
12.6986770551
 20
9.9898080319
 30
0.0
 10
12.698864791
 20
9.9914976723
 30
0.0
 10
12.6988916379
 20
9.9931882302
 30
0.0
 10
12.6987575041
 20
9.9948783258
 30
0.0
 10
12.698462554
 20
9.9965665768
 30
0.0
 10
12.6980072925
 20
9.998251684
 30
0.0
 10
12.6973921559
 20
9.9999325353
 30
0.0
 10
12.6963407596
 20
10.0022076236
 30
0.0
 10
12.6949771205
 20
10.0044320172
 30
0.0
 10
12.693347813
 20
10.0065921195
 30
0.0
 10
12.691944573
 20
10.0082368421
 30
0.0
 10
12.6903863251
 20
10.0098714998
 30
0.0
 10
12.6880515545
 20
10.0120854766
 30
0.0
 10
12.6847319226
 20
10.0148159532
 30
0.0
 10
12.6802330607
 20
10.0179682548
 30
0.0
 10
12.6751446911
 20
10.021058926
 30
0.0
 10
12.6694786334
 20
10.0240811002
 30
0.0
 10
12.6632476839
 20
10.0270279791
 30
0.0
 10
12.6564662971
 20
10.0298926248
 30
0.0
 10
12.6491503629
 20
10.0326682635
 30
0.0
 10
12.6413171589
 20
10.0353482298
 30
0.0
 10
12.6329852738
 20
10.0379260268
 30
0.0
 10
12.6241745779
 20
10.0403954329
 30
0.0
 10
12.6149061371
 20
10.042750469
 30
0.0
 10
12.6052021429
 20
10.0449853969
 30
0.0
 10
12.5950858734
 20
10.0470947991
 30
0.0
 10
12.5845816214
 20
10.0490735744
 30
0.0
 10
12.5737146271
 20
10.0509168951
 30
0.0
 10
12.5625109931
 20
10.0526203194
 30
0.0
 10
12.5469933747
 20
10.0547219365
 30
0.0
 10
12.5269541807
 20
10.0569584225
 30
0.0
 10
12.5022641725
 20
10.0590016575
 30
0.0
 10
12.4769167138
 20
10.0604119358
 30
0.0
 10
12.4511555584
 20
10.0611755014
 30
0.0
 10
12.4252282595
 20
10.0612848223
 30
0.0
 10
12.3993840852
 20
10.0607388128
 30
0.0
 10
12.3738714055
 20
10.059542882
 30
0.0
 10
12.3489355843
 20
10.057708686
 30
0.0
 10
12.3286405747
 20
10.0556437135
 30
0.0
 10
12.3128793815
 20
10.0536761286
 30
0.0
 10
12.3014662591
 20
10.0520682975
 30
0.0
 10
12.2903719006
 20
10.0503177695
 30
0.0
 10
12.2796229596
 20
10.0484287795
 30
0.0
 10
12.2692452778
 20
10.0464059233
 30
0.0
 10
12.2592637899
 20
10.0442540836
 30
0.0
 10
12.2497024508
 20
10.0419784977
 30
0.0
 10
12.2405841795
 20
10.0395847014
 30
0.0
 10
12.2319308119
 20
10.0370784794
 30
0.0
 10
12.2237630156
 20
10.0344659108
 30
0.0
 10
12.2161002311
 20
10.0317533373
 30
0.0
 10
12.2089606331
 20
10.0289472776
 30
0.0
 10
12.2023610428
 20
10.0260544491
 30
0.0
 10
12.1963168473
 20
10.0230817011
 30
0.0
 10
12.1908420539
 20
10.0200359818
 30
0.0
 10
12.1859488215
 20
10.0169239135
 30
0.0
 10
12.1816487633
 20
10.0137525676
 30
0.0
 10
12.1790761391
 20
10.0115089899
 30
0.0
 10
12.1779034728
 20
10.0103762813
 30
0.0
  0
SPLINE
  5
3F4
100
AcDbEntity
  8
0
100
AcDbSpline
 62
7
  6
CONTINUOUS
 70
0
 71
3
 72
42
 73
38
 74
0
 42
0.0000001
 43
0.0000001
 44
0.0000000001
 40
0.0
 40
0.0
 40
0.0
 40
0.0
 40
0.0299702543
 40
0.0449891776
 40
0.0600316074
 40
0.0901893361
 40
0.1204605605
 40
0.1356442982
 40
0.1508601275
 40
0.1813872954
 40
0.2120522127
 40
0.2428581148
 40
0.2738057334
 40
0.3048933176
 40
0.3361166976
 40
0.3674693873
 40
0.3989427223
 40
0.4305260298
 40
0.4622068252
 40
0.4939710338
 40
0.525803231
 40
0.5576868999
 40
0.5896047012
 40
0.6215387519
 40
0.6534709112
 40
0.6853830683
 40
0.7172574301
 40
0.7490768057
 40
0.7808248837
 40
0.8124865005
 40
0.8440478911
 40
0.8754969379
 40
0.9068233461
 40
0.938018967
 40
0.9535675796
 40
0.9690817465
 40
1.0
 40
1.0
 40
1.0
 40
1.0
 10
11.5913279754
 20
7.575728113
 30
0.0
 10
11.583726299
 20
7.5715799125
 30
0.0
 10
11.5720901742
 20
7.5657528104
 30
0.0
 10
11.5561915726
 20
7.5588097979
 30
0.0
 10
11.5400092036
 20
7.5524058177
 30
0.0
 10
11.5193228046
 20
7.5454457268
 30
0.0
 10
11.4981656204
 20
7.5399215372
 30
0.0
 10
11.4809955393
 20
7.5363692126
 30
0.0
 10
11.4636413161
 20
7.5333927131
 30
0.0
 10
11.4417007335
 20
7.5307739235
 30
0.0
 10
11.4151336877
 20
7.5294079699
 30
0.0
 10
11.388412907
 20
7.5298203004
 30
0.0
 10
11.3616566234
 20
7.5320090452
 30
0.0
 10
11.3349822075
 20
7.535964335
 30
0.0
 10
11.3085068974
 20
7.5416686074
 30
0.0
 10
11.2823469539
 20
7.549096621
 30
0.0
 10
11.2566172458
 20
7.5582155891
 30
0.0
 10
11.2314307272
 20
7.5689853216
 30
0.0
 10
11.2068979535
 20
7.5813584046
 30
0.0
 10
11.1831265994
 20
7.5952804084
 30
0.0
 10
11.1602209922
 20
7.610690127
 30
0.0
 10
11.1382816582
 20
7.6275198465
 30
0.0
 10
11.1174048865
 20
7.6456956407
 30
0.0
 10
11.0976823096
 20
7.6651376934
 30
0.0
 10
11.079200505
 20
7.6857606466
 30
0.0
 10
11.0620406187
 20
7.7074739724
 30
0.0
 10
11.0462780108
 20
7.7301823663
 30
0.0
 10
11.0319819279
 20
7.7537861637
 30
0.0
 10
11.0192152003
 20
7.7781817673
 30
0.0
 10
11.0080339673
 20
7.8032621195
 30
0.0
 10
10.9984874332
 20
7.8289170857
 30
0.0
 10
10.9906176383
 20
7.8550342325
 30
0.0
 10
10.9844593429
 20
7.8814982089
 30
0.0
 10
10.9807720752
 20
7.903770585
 30
0.0
 10
10.9787045028
 20
7.9216437527
 30
0.0
 10
10.9772290239
 20
7.93949444
 30
0.0
 10
10.9767827873
 20
7.9529164181
 30
0.0
 10
10.9767827873
 20
7.9618501937
 30
0.0
  0
SPLINE
  5
3F5
100
AcDbEntity
  8
0
100
AcDbSpline
 62
7
  6
CONTINUOUS
 70
0
 71
3
 72
60
 73
56
 74
0
 42
0.0000001
 43
0.0000001
 44
0.0000000001
 40
0.0
 40
0.0
 40
0.0
 40
0.0
 40
0.0081223406
 40
0.0169168431
 40
0.0264086323
 40
0.0366142687
 40
0.0475414355
 40
0.0591910158
 40
0.0715584107
 40
0.0846344949
 40
0.0984062802
 40
0.1128573064
 40
0.1279683357
 40
0.1437174554
 40
0.1600804353
 40
0.1770310661
 40
0.1945411268
 40
0.2125807894
 40
0.2501207279
 40
0.2893847263
 40
0.3300867172
 40
0.371925751
 40
0.4145894152
 40
0.4577571198
 40
0.5011033266
 40
0.5443007676
 40
0.587023623
 40
0.6289507091
 40
0.6697687274
 40
0.7091755587
 40
0.746883655
 40
0.7650162944
 40
0.7826249702
 40
0.7996794705
 40
0.816151351
 40
0.8320139955
 40
0.8472427493
 40
0.8618153589
 40
0.8757119742
 40
0.8889156572
 40
0.9014127819
 40
0.9131933641
 40
0.9242520195
 40
0.9345885809
 40
0.9442093339
 40
0.9531286836
 40
0.9613709339
 40
0.9689732146
 40
0.9759886454
 40
0.9824900322
 40
0.9885734237
 40
0.9914974427
 40
0.9943641479
 40
0.9971919194
 40
1.0
 40
1.0
 40
1.0
 40
1.0
 10
9.3496231806
 20
10.5053767701
 30
0.0
 10
9.3504759565
 20
10.5062004885
 30
0.0
 10
9.352332522
 20
10.5078338611
 30
0.0
 10
9.3554142588
 20
10.510154568
 30
0.0
 10
9.358894516
 20
10.512436454
 30
0.0
 10
9.3627662434
 20
10.5146751188
 30
0.0
 10
9.3670221677
 20
10.516866541
 30
0.0
 10
9.3716540296
 20
10.5190063495
 30
0.0
 10
9.3766527111
 20
10.5210903573
 30
0.0
 10
9.3820083233
 20
10.5231143843
 30
0.0
 10
9.3877102129
 20
10.5250743098
 30
0.0
 10
9.393746966
 20
10.5269662074
 30
0.0
 10
9.4001064811
 20
10.5287861934
 30
0.0
 10
9.4067759702
 20
10.5305305756
 30
0.0
 10
9.4137420019
 20
10.5321958215
 30
0.0
 10
9.4209905331
 20
10.5337784927
 30
0.0
 10
9.4285069458
 20
10.535275433
 30
0.0
 10
9.4390054449
 20
10.5371781278
 30
0.0
 10
9.4526874588
 20
10.5393095047
 30
0.0
 10
9.4697082374
 20
10.5414498116
 30
0.0
 10
9.4874053719
 20
10.5431877146
 30
0.0
 10
9.505635884
 20
10.5445089355
 30
0.0
 10
9.524252605
 20
10.5454025702
 30
0.0
 10
9.5431051247
 20
10.5458612597
 30
0.0
 10
9.5620411099
 20
10.5458812366
 30
0.0
 10
9.5809075364
 20
10.5454623388
 30
0.0
 10
9.5995519566
 20
10.5446080131
 30
0.0
 10
9.6178237308
 20
10.5433252792
 30
0.0
 10
9.6355753478
 20
10.5416247248
 30
0.0
 10
9.6526633855
 20
10.5395203209
 30
0.0
 10
9.6664095536
 20
10.5374182429
 30
0.0
 10
9.676965473
 20
10.5355382196
 30
0.0
 10
9.6845289904
 20
10.5340572282
 30
0.0
 10
9.6918273441
 20
10.5324899045
 30
0.0
 10
9.6988458194
 20
10.5308394332
 30
0.0
 10
9.7055702613
 20
10.5291091924
 30
0.0
 10
9.7119871211
 20
10.5273026692
 30
0.0
 10
9.7180835006
 20
10.5254235853
 30
0.0
 10
9.7238471609
 20
10.523475731
 30
0.0
 10
9.7292665681
 20
10.5214630579
 30
0.0
 10
9.7343309311
 20
10.5193896673
 30
0.0
 10
9.7390301983
 20
10.5172596698
 30
0.0
 10
9.7433551431
 20
10.515077342
 30
0.0
 10
9.7472973478
 20
10.5128469302
 30
0.0
 10
9.7508492228
 20
10.5105726294
 30
0.0
 10
9.7540040711
 20
10.5082586101
 30
0.0
 10
9.7567559263
 20
10.5059086684
 30
0.0
 10
9.7590995085
 20
10.5035263876
 30
0.0
 10
9.7610299193
 20
10.5011146485
 30
0.0
 10
9.7625418492
 20
10.4986766939
 30
0.0
 10
9.7634602908
 20
10.4965974004
 30
0.0
 10
9.7639676711
 20
10.4949383035
 30
0.0
 10
9.7642363363
 20
10.4937077102
 30
0.0
 10
9.7643976353
 20
10.4924756449
 30
0.0
 10
9.7644335271
 20
10.49165252
 30
0.0
 10
9.7644335296
 20
10.4912426174
 30
0.0
  0
SPLINE
  5
3F6
100
AcDbEntity
  8
0
100
AcDbSpline
 62
7
  6
CONTINUOUS
 70
0
 71
3
 72
20
 73
16
 74
0
 42
0.0000001
 43
0.0000001
 44
0.0000000001
 40
0.0
 40
0.0
 40
0.0
 40
0.0
 40
0.0731088236
 40
0.1536181218
 40
0.244265303
 40
0.2944763941
 40
0.3486272464
 40
0.4073418895
 40
0.4713302443
 40
0.5413764165
 40
0.6182852538
 40
0.7027439631
 40
0.7950475654
 40
0.8946899058
 40
1.0
 40
1.0
 40
1.0
 40
1.0
 10
10.9412738081
 20
7.8583870041
 30
0.0
 10
10.9427416593
 20
7.8578562115
 30
0.0
 10
10.9457498382
 20
7.8565205609
 30
0.0
 10
10.9502098529
 20
7.8537926328
 30
0.0
 10
10.9539160645
 20
7.8508401879
 30
0.0
 10
10.9569445126
 20
7.847980813
 30
0.0
 10
10.9593396173
 20
7.8454511987
 30
0.0
 10
10.9617840347
 20
7.8425710999
 30
0.0
 10
10.9642790021
 20
7.8392961465
 30
0.0
 10
10.9668221215
 20
7.8355769263
 30
0.0
 10
10.9694046056
 20
7.8313625442
 30
0.0
 10
10.9720065584
 20
7.8266102456
 30
0.0
 10
10.9745916401
 20
7.8213028849
 30
0.0
 10
10.9771039516
 20
7.8154725992
 30
0.0
 10
10.9786546669
 20
7.8113790834
 30
0.0
 10
10.9794067746
 20
7.8092602373
 30
0.0
  0
SPLINE
  5
3F7
100
AcDbEntity
  8
0
100
AcDbSpline
 62
7
  6
CONTINUOUS
 70
0
 71
3
 72
81
 73
77
 74
0
 42
0.0000001
 43
0.0000001
 44
0.0000000001
 40
0.0
 40
0.0
 40
0.0
 40
0.0
 40
0.0027164306
 40
0.0054532406
 40
0.0082303113
 40
0.0110666128
 40
0.0139798282
 40
0.0169861412
 40
0.0201001195
 40
0.0233346405
 40
0.0267010082
 40
0.0302089739
 40
0.0338668927
 40
0.0376818791
 40
0.0416598591
 40
0.0458058003
 40
0.0501237459
 40
0.0546169413
 40
0.0592879758
 40
0.0641387574
 40
0.0691706959
 40
0.0743846914
 40
0.0853596139
 40
0.0970634815
 40
0.1094902477
 40
0.1226295218
 40
0.1364672103
 40
0.1509860393
 40
0.1661659502
 40
0.1819844132
 40
0.1984166695
 40
0.2154359556
 40
0.233013703
 40
0.2511197005
 40
0.2697222361
 40
0.2887882189
 40
0.3082833183
 40
0.3281720849
 40
0.3484180605
 40
0.368983879
 40
0.38983137
 40
0.4109216725
 40
0.4536716934
 40
0.496913714
 40
0.5403220126
 40
0.5835692765
 40
0.6263297382
 40
0.6474271808
 40
0.6682830633
 40
0.6888585076
 40
0.7091153275
 40
0.7290161282
 40
0.7485244101
 40
0.7676046883
 40
0.786222604
 40
0.804345033
 40
0.8219402078
 40
0.8389778539
 40
0.8554293539
 40
0.8712678975
 40
0.8864686613
 40
0.9010090234
 40
0.9148688331
 40
0.9280307344
 40
0.9404805411
 40
0.9522077238
 40
0.9577984982
 40
0.963206723
 40
0.9684324181
 40
0.9734760178
 40
0.9783383767
 40
0.9830208243
 40
0.9875253764
 40
0.9918546118
 40
0.9960116
 40
1.0
 40
1.0
 40
1.0
 40
1.0
 10
13.2295131738
 20
8.9184113095
 30
0.0
 10
13.2306236669
 20
8.9183342904
 30
0.0
 10
13.2328472978
 20
8.918079157
 30
0.0
 10
13.2361544222
 20
8.9173964101
 30
0.0
 10
13.2394365675
 20
8.9164138262
 30
0.0
 10
13.2426913653
 20
8.9151322494
 30
0.0
 10
13.2459171509
 20
8.9135528859
 30
0.0
 10
13.2491122844
 20
8.9116769742
 30
0.0
 10
13.2522752437
 20
8.9095057848
 30
0.0
 10
13.2554046946
 20
8.9070407874
 30
0.0
 10
13.2584992181
 20
8.9042833387
 30
0.0
 10
13.2615575138
 20
8.9012349896
 30
0.0
 10
13.2645782625
 20
8.8978973354
 30
0.0
 10
13.2675600635
 20
8.8942720251
 30
0.0
 10
13.2705016445
 20
8.8903609218
 30
0.0
 10
13.2734015849
 20
8.886165915
 30
0.0
 10
13.2762585442
 20
8.8816890873
 30
0.0
 10
13.2790711886
 20
8.8769326528
 30
0.0
 10
13.2818380986
 20
8.8718989243
 30
0.0
 10
13.2845579886
 20
8.8665904214
 30
0.0
 10
13.2872295142
 20
8.8610097391
 30
0.0
 10
13.2907861644
 20
8.853073436
 30
0.0
 10
13.2950872171
 20
8.842478974
 30
0.0
 10
13.2999505467
 20
8.8289365717
 30
0.0
 10
13.3045907639
 20
8.8143826305
 30
0.0
 10
13.3089985306
 20
8.7988461249
 30
0.0
 10
13.3131649579
 20
8.7823577633
 30
0.0
 10
13.3170815962
 20
8.7649503833
 30
0.0
 10
13.3207404871
 20
8.7466587103
 30
0.0
 10
13.3241341799
 20
8.7275193172
 30
0.0
 10
13.3272557707
 20
8.7075705335
 30
0.0
 10
13.3300989119
 20
8.6868523583
 30
0.0
 10
13.3326578161
 20
8.6654063615
 30
0.0
 10
13.3349272718
 20
8.643275593
 30
0.0
 10
13.3369026515
 20
8.6205044996
 30
0.0
 10
13.3385799397
 20
8.5971388348
 30
0.0
 10
13.3399557227
 20
8.5732255597
 30
0.0
 10
13.3410271947
 20
8.5488127417
 30
0.0
 10
13.341792165
 20
8.5239494543
 30
0.0
 10
13.3422490559
 20
8.4986856991
 30
0.0
 10
13.3423969594
 20
8.4730722382
 30
0.0
 10
13.3421806499
 20
8.4383681756
 30
0.0
 10
13.3411311518
 20
8.3944953735
 30
0.0
 10
13.3386577711
 20
8.3415220271
 30
0.0
 10
13.3349842843
 20
8.2884139388
 30
0.0
 10
13.3301401875
 20
8.2355981329
 30
0.0
 10
13.3251386284
 20
8.1919893115
 30
0.0
 10
13.3205741346
 20
8.1575753181
 30
0.0
 10
13.3169004404
 20
8.1322158343
 30
0.0
 10
13.3129687428
 20
8.1072437375
 30
0.0
 10
13.3087869393
 20
8.0827091997
 30
0.0
 10
13.3043634746
 20
8.0586615584
 30
0.0
 10
13.2997072658
 20
8.0351491557
 30
0.0
 10
13.294827714
 20
8.012219249
 30
0.0
 10
13.289734676
 20
7.9899179094
 30
0.0
 10
13.2844384374
 20
7.9682899353
 30
0.0
 10
13.2789496951
 20
7.9473787625
 30
0.0
 10
13.273279532
 20
7.9272263673
 30
0.0
 10
13.2674394131
 20
7.9078731693
 30
0.0
 10
13.2614411437
 20
7.8893579494
 30
0.0
 10
13.2552968458
 20
7.8717177748
 30
0.0
 10
13.2490189251
 20
7.8549879053
 30
0.0
 10
13.2426200489
 20
7.8392017323
 30
0.0
 10
13.2361131078
 20
7.82439057
 30
0.0
 10
13.2295111932
 20
7.8105839881
 30
0.0
 10
13.2238549059
 20
7.7997723735
 30
0.0
 10
13.2192831762
 20
7.7916581129
 30
0.0
 10
13.2158936049
 20
7.7859376668
 30
0.0
 10
13.2124901994
 20
7.7804880345
 30
0.0
 10
13.2090746445
 20
7.77531192
 30
0.0
 10
13.2056486778
 20
7.7704118858
 30
0.0
 10
13.2022139096
 20
7.7657903699
 30
0.0
 10
13.1987720354
 20
7.7614495828
 30
0.0
 10
13.195324633
 20
7.757391674
 30
0.0
 10
13.1918735955
 20
7.7536188455
 30
0.0
 10
13.1895237799
 20
7.7512466139
 30
0.0
 10
13.1883482312
 20
7.7501111211
 30
0.0
  0
SPLINE
  5
3F8
100
AcDbEntity
  8
0
100
AcDbSpline
 62
7
  6
CONTINUOUS
 70
0
 71
3
 72
15
 73
11
 74
0
 42
0.0000001
 43
0.0000001
 44
0.0000000001
 40
0.0
 40
0.0
 40
0.0
 40
0.0
 40
0.1234434203
 40
0.2472299795
 40
0.3714208982
 40
0.4960697372
 40
0.6212214018
 40
0.7469116137
 40
0.8731658376
 40
1.0
 40
1.0
 40
1.0
 40
1.0
 10
11.1251295535
 20
8.1836383859
 30
0.0
 10
11.1211517656
 20
8.1771430181
 30
0.0
 10
11.113642348
 20
8.1638478989
 30
0.0
 10
11.103792536
 20
8.1431357944
 30
0.0
 10
11.0953839241
 20
8.1217169274
 30
0.0
 10
11.0884542322
 20
8.0996871239
 30
0.0
 10
11.0830336365
 20
8.0771433552
 30
0.0
 10
11.0791459241
 20
8.0541848204
 30
0.0
 10
11.0768080065
 20
8.0309140722
 30
0.0
 10
11.0762905354
 20
8.0152931161
 30
0.0
 10
11.0762905354
 20
8.0074673032
 30
0.0
  0
SPLINE
  5
3F9
100
AcDbEntity
  8
0
100
AcDbSpline
 62
7
  6
CONTINUOUS
 70
0
 71
3
 72
14
 73
10
 74
0
 42
0.0000001
 43
0.0000001
 44
0.0000000001
 40
0.0
 40
0.0
 40
0.0
 40
0.0
 40
0.1129665756
 40
0.2278659538
 40
0.3455207168
 40
0.4667076535
 40
0.7223106779
 40
0.8581569013
 40
1.0
 40
1.0
 40
1.0
 40
1.0
 10
11.1796775524
 20
8.1183101709
 30
0.0
 10
11.1803556923
 20
8.1182631364
 30
0.0
 10
11.1817293132
 20
8.1182375752
 30
0.0
 10
11.1838048989
 20
8.1184031236
 30
0.0
 10
11.1859044697
 20
8.1187722325
 30
0.0
 10
11.1887799803
 20
8.1195488253
 30
0.0
 10
11.1916441237
 20
8.1207353359
 30
0.0
 10
11.19446111
 20
8.1222752775
 30
0.0
 10
11.1958713974
 20
8.1231744425
 30
0.0
 10
11.1965768279
 20
8.1236549466
 30
0.0
  0
SPLINE
  5
3FA
100
AcDbEntity
  8
0
100
AcDbSpline
 62
7
  6
CONTINUOUS
 70
0
 71
3
 72
15
 73
11
 74
0
 42
0.0000001
 43
0.0000001
 44
0.0000000001
 40
0.0
 40
0.0
 40
0.0
 40
0.0
 40
0.1235559626
 40
0.2474581565
 40
0.3717469323
 40
0.4964570555
 40
0.6216180455
 40
0.7472515535
 40
0.8733769021
 40
1.0
 40
1.0
 40
1.0
 40
1.0
 10
11.0677666919
 20
8.1710626867
 30
0.0
 10
11.0644498468
 20
8.1645593602
 30
0.0
 10
11.0581997949
 20
8.1513298195
 30
0.0
 10
11.0500240459
 20
8.1309298985
 30
0.0
 10
11.0430606266
 20
8.1100123584
 30
0.0
 10
11.0373326856
 20
8.0886466548
 30
0.0
 10
11.0328588308
 20
8.0669026296
 30
0.0
 10
11.0296535125
 20
8.0448512061
 30
0.0
 10
11.0277272928
 20
8.0225656399
 30
0.0
 10
11.0273007468
 20
8.0076283435
 30
0.0
 10
11.0273007468
 20
8.0001467983
 30
0.0
  0
SPLINE
  5
3FB
100
AcDbEntity
  8
0
100
AcDbSpline
 62
7
  6
CONTINUOUS
 70
0
 71
3
 72
15
 73
11
 74
0
 42
0.0000001
 43
0.0000001
 44
0.0000000001
 40
0.0
 40
0.0
 40
0.0
 40
0.0
 40
0.1234305753
 40
0.2472017954
 40
0.3713784993
 40
0.4960175318
 40
0.6211665356
 40
0.7468637073
 40
0.8731355821
 40
1.0
 40
1.0
 40
1.0
 40
1.0
 10
11.0480380509
 20
8.1646815508
 30
0.0
 10
11.0434488451
 20
8.1573837291
 30
0.0
 10
11.0347824551
 20
8.1424304622
 30
0.0
 10
11.0234099008
 20
8.1190946348
 30
0.0
 10
11.0136976348
 20
8.0949281789
 30
0.0
 10
11.0056910955
 20
8.070043808
 30
0.0
 10
10.9994266096
 20
8.044555717
 30
0.0
 10
10.9949328664
 20
8.0185808546
 30
0.0
 10
10.9922301905
 20
7.992240151
 30
0.0
 10
10.9916320264
 20
7.9745541378
 30
0.0
 10
10.9916320264
 20
7.9656934581
 30
0.0
  0
SPLINE
  5
3FC
100
AcDbEntity
  8
0
100
AcDbSpline
 62
7
  6
CONTINUOUS
 70
0
 71
3
 72
17
 73
13
 74
0
 42
0.0000001
 43
0.0000001
 44
0.0000000001
 40
0.0
 40
0.0
 40
0.0
 40
0.0
 40
0.1235259055
 40
0.1854237095
 40
0.2474141071
 40
0.3716789688
 40
0.4963735658
 40
0.5588994994
 40
0.6215444743
 40
0.7471873879
 40
0.8733362334
 40
1.0
 40
1.0
 40
1.0
 40
1.0
 10
11.0097841581
 20
8.1488064143
 30
0.0
 10
11.0060543661
 20
8.1417674372
 30
0.0
 10
11.0007845246
 20
8.1310220863
 30
0.0
 10
10.9944333074
 20
8.1163831406
 30
0.0
 10
10.9885210515
 20
8.1015095797
 30
0.0
 10
10.9819816351
 20
8.0825386708
 30
0.0
 10
10.9766099108
 20
8.0631689863
 30
0.0
 10
10.9730168453
 20
8.0474588331
 30
0.0
 10
10.9698905844
 20
8.0315868821
 30
0.0
 10
10.9668773169
 20
8.0115205497
 30
0.0
 10
10.9647064487
 20
7.9871974468
 30
0.0
 10
10.9642257508
 20
7.9708894725
 30
0.0
 10
10.9642257508
 20
7.9627210271
 30
0.0
  0
SPLINE
  5
3FD
100
AcDbEntity
  8
0
100
AcDbSpline
 62
7
  6
CONTINUOUS
 70
0
 71
3
 72
15
 73
11
 74
0
 42
0.0000001
 43
0.0000001
 44
0.0000000001
 40
0.0
 40
0.0
 40
0.0
 40
0.0
 40
0.1234613758
 40
0.2472682719
 40
0.3714774789
 40
0.4961385893
 40
0.6212930777
 40
0.7469740042
 40
0.8732046424
 40
1.0
 40
1.0
 40
1.0
 40
1.0
 10
11.0294844953
 20
8.1575166327
 30
0.0
 10
11.0251864704
 20
8.1502552405
 30
0.0
 10
11.0170755973
 20
8.1354112713
 30
0.0
 10
11.0064428754
 20
8.1123355421
 30
0.0
 10
10.9973701917
 20
8.0885141932
 30
0.0
 10
10.9898961025
 20
8.0640481853
 30
0.0
 10
10.9840514379
 20
8.0390395308
 30
0.0
 10
10.9798605113
 20
8.0135924868
 30
0.0
 10
10.9773405817
 20
7.9878147246
 30
0.0
 10
10.9767827873
 20
7.9705161158
 30
0.0
 10
10.9767827873
 20
7.9618501937
 30
0.0
  0
SPLINE
  5
3FE
100
AcDbEntity
  8
0
100
AcDbSpline
 62
7
  6
CONTINUOUS
 70
0
 71
3
 72
23
 73
19
 74
0
 42
0.0000001
 43
0.0000001
 44
0.0000000001
 40
0.0
 40
0.0
 40
0.0
 40
0.0
 40
0.0617101439
 40
0.1234413935
 40
0.1852146431
 40
0.2470503547
 40
0.3089683495
 40
0.3709876176
 40
0.4331261309
 40
0.4954006615
 40
0.5578266134
 40
0.6204179128
 40
0.6831867943
 40
0.7461438773
 40
0.8092980348
 40
0.872655047
 40
0.9362230873
 40
1.0
 40
1.0
 40
1.0
 40
1.0
 10
10.9123479644
 20
8.0806472566
 30
0.0
 10
10.9077254385
 20
8.0761822582
 30
0.0
 10
10.8987069594
 20
8.0670110003
 30
0.0
 10
10.8859021713
 20
8.0525741301
 30
0.0
 10
10.8738473195
 20
8.0374880111
 30
0.0
 10
10.862570698
 20
8.0217879052
 30
0.0
 10
10.8520981617
 20
8.0055099193
 30
0.0
 10
10.8424538565
 20
7.9886916555
 30
0.0
 10
10.8336599893
 20
7.9713719012
 30
0.0
 10
10.8257368391
 20
7.9535905981
 30
0.0
 10
10.8187026412
 20
7.9353887608
 30
0.0
 10
10.8125735534
 20
7.9168083809
 30
0.0
 10
10.807363653
 20
7.8978923057
 30
0.0
 10
10.8030849243
 20
7.8786841125
 30
0.0
 10
10.7997472635
 20
7.8592282048
 30
0.0
 10
10.7973581113
 20
7.8395690504
 30
0.0
 10
10.7959232096
 20
7.8197528277
 30
0.0
 10
10.7956052821
 20
7.8064882114
 30
0.0
 10
10.7956052821
 20
7.7998461519
 30
0.0
  0
SPLINE
  5
3FF
100
AcDbEntity
  8
0
100
AcDbSpline
 62
7
  6
CONTINUOUS
 70
0
 71
3
 72
39
 73
35
 74
0
 42
0.0000001
 43
0.0000001
 44
0.0000000001
 40
0.0
 40
0.0
 40
0.0
 40
0.0
 40
0.0299424712
 40
0.0599093185
 40
0.0899243247
 40
0.120010104
 40
0.1501875625
 40
0.1804754137
 40
0.2108897572
 40
0.2414437336
 40
0.272147258
 40
0.3030068403
 40
0.3340254914
 40
0.3652027096
 40
0.3965345442
 40
0.4280137297
 40
0.4596298866
 40
0.4913697802
 40
0.5232176274
 40
0.5551554443
 40
0.5871634289
 40
0.6192203717
 40
0.6513040877
 40
0.6833918591
 40
0.7154608877
 40
0.7474887471
 40
0.7794538319
 40
0.8113357927
 40
0.8431159543
 40
0.8747777099
 40
0.9063068688
 40
0.9376920891
 40
0.9689246464
 40
1.0
 40
1.0
 40
1.0
 40
1.0
 10
8.9730888009
 20
6.9575945926
 30
0.0
 10
8.9657893479
 20
6.9505438574
 30
0.0
 10
8.9506164776
 20
6.9370114014
 30
0.0
 10
8.9263071736
 20
6.9185758192
 30
0.0
 10
8.9005721185
 20
6.9020956123
 30
0.0
 10
8.8735551063
 20
6.8876632382
 30
0.0
 10
8.8454046867
 20
6.8753575244
 30
0.0
 10
8.8162762187
 20
6.8652461113
 30
0.0
 10
8.7863302149
 20
6.857384325
 30
0.0
 10
8.7557316511
 20
6.8518151083
 30
0.0
 10
8.7246490007
 20
6.8485687131
 30
0.0
 10
8.6932533084
 20
6.8476625718
 30
0.0
 10
8.6617172413
 20
6.8491012589
 30
0.0
 10
8.6302141495
 20
6.8528764774
 30
0.0
 10
8.5989171264
 20
6.8589671324
 30
0.0
 10
8.5679980635
 20
6.8673394167
 30
0.0
 10
8.5376267133
 20
6.8779470221
 30
0.0
 10
8.5079697795
 20
6.8907314306
 30
0.0
 10
8.479190015
 20
6.9056222302
 30
0.0
 10
8.451445349
 20
6.9225375101
 30
0.0
 10
8.4248880081
 20
6.9413842674
 30
0.0
 10
8.399663698
 20
6.9620589406
 30
0.0
 10
8.3759108286
 20
6.9844479901
 30
0.0
 10
8.3537597599
 20
7.0084285097
 30
0.0
 10
8.3333321036
 20
7.033868897
 30
0.0
 10
8.3147400212
 20
7.0606295356
 30
0.0
 10
8.2980856376
 20
7.0885635795
 30
0.0
 10
8.2834604978
 20
7.1175177598
 30
0.0
 10
8.270945063
 20
7.1473331909
 30
0.0
 10
8.2606082863
 20
7.1778463
 30
0.0
 10
8.2525071387
 20
7.2088894497
 30
0.0
 10
8.2466864714
 20
7.2402927531
 30
0.0
 10
8.2431784437
 20
7.2718815472
 30
0.0
 10
8.2423927347
 20
7.2930081671
 30
0.0
 10
8.2423927347
 20
7.3035407833
 30
0.0
  0
SPLINE
  5
400
100
AcDbEntity
  8
0
100
AcDbSpline
 62
7
  6
CONTINUOUS
 70
0
 71
3
 72
39
 73
35
 74
0
 42
0.0000001
 43
0.0000001
 44
0.0000000001
 40
0.0
 40
0.0
 40
0.0
 40
0.0
 40
0.0299337049
 40
0.0599001887
 40
0.089922317
 40
0.1200216388
 40
0.1502178895
 40
0.1805285473
 40
0.2109684548
 40
0.2415495127
 40
0.2722804519
 40
0.3031666839
 40
0.3342102338
 40
0.3654097472
 40
0.3967605694
 40
0.42825489
 40
0.4598819464
 40
0.4916282797
 40
0.523478037
 40
0.5554133111
 40
0.5874145102
 40
0.6194607529
 40
0.6515302802
 40
0.6836008812
 40
0.7156503248
 40
0.7476567904
 40
0.7795992938
 40
0.8114581008
 40
0.8432151243
 40
0.8748543018
 40
0.90636191
 40
0.9377270132
 40
0.9689411669
 40
1.0
 40
1.0
 40
1.0
 40
1.0
 10
8.9729718689
 20
6.95772214
 30
0.0
 10
8.9655509703
 20
6.950973149
 30
0.0
 10
8.9501633413
 20
6.9380457831
 30
0.0
 10
8.9256190218
 20
6.9205141115
 30
0.0
 10
8.8997307299
 20
6.9049245201
 30
0.0
 10
8.8726397427
 20
6.8913623724
 30
0.0
 10
8.8444914776
 20
6.8798999731
 30
0.0
 10
8.8154376078
 20
6.8705988167
 30
0.0
 10
8.7856344436
 20
6.8635085651
 30
0.0
 10
8.7552422893
 20
6.8586669908
 30
0.0
 10
8.7244245185
 20
6.8560997431
 30
0.0
 10
8.6933467092
 20
6.8558202155
 30
0.0
 10
8.6621757451
 20
6.8578295215
 30
0.0
 10
8.6310789284
 20
6.8621165081
 30
0.0
 10
8.6002230915
 20
6.868657831
 30
0.0
 10
8.5697737143
 20
6.8774180922
 30
0.0
 10
8.5398940508
 20
6.8883500382
 30
0.0
 10
8.5107442542
 20
6.9013947915
 30
0.0
 10
8.4824805378
 20
6.9164822001
 30
0.0
 10
8.4552543502
 20
6.933531214
 30
0.0
 10
8.429211576
 20
6.9524503179
 30
0.0
 10
8.4044917646
 20
6.9731380187
 30
0.0
 10
8.3812273926
 20
6.995483384
 30
0.0
 10
8.35954314
 20
7.0193666117
 30
0.0
 10
8.3395552469
 20
7.0446596895
 30
0.0
 10
8.321370898
 20
7.0712270734
 30
0.0
 10
8.3050876532
 20
7.0989264034
 30
0.0
 10
8.2907929304
 20
7.1276092618
 30
0.0
 10
8.2785635353
 20
7.1571219387
 30
0.0
 10
8.2684652395
 20
7.1873063009
 30
0.0
 10
8.2605523938
 20
7.2180004098
 30
0.0
 10
8.2548677981
 20
7.2490402255
 30
0.0
 10
8.2514421136
 20
7.280257153
 30
0.0
 10
8.2506749375
 20
7.3011328601
 30
0.0
 10
8.2506749375
 20
7.3115407774
 30
0.0
  0
SPLINE
  5
401
100
AcDbEntity
  8
0
100
AcDbSpline
 62
7
  6
CONTINUOUS
 70
0
 71
3
 72
42
 73
38
 74
0
 42
0.0000001
 43
0.0000001
 44
0.0000000001
 40
0.0
 40
0.0
 40
0.0
 40
0.0
 40
0.0299419645
 40
0.0449235319
 40
0.0599142037
 40
0.0899287023
 40
0.1200139726
 40
0.1350926542
 40
0.1501966969
 40
0.1804840366
 40
0.2108978669
 40
0.2414513271
 40
0.2721543323
 40
0.3030133934
 40
0.3340315212
 40
0.3652082135
 40
0.3965395189
 40
0.4280181723
 40
0.4596337953
 40
0.4913731534
 40
0.5232204633
 40
0.5551577409
 40
0.5871651848
 40
0.6192215866
 40
0.6513047611
 40
0.6833919909
 40
0.7154604782
 40
0.7474877975
 40
0.779452343
 40
0.811333766
 40
0.8431133904
 40
0.8747746134
 40
0.9063032452
 40
0.9376878969
 40
0.9533257623
 40
0.9689252944
 40
1.0
 40
1.0
 40
1.0
 40
1.0
 10
8.8467123329
 20
7.1205415963
 30
0.0
 10
8.8428137622
 20
7.1167758642
 30
0.0
 10
8.8367361126
 20
7.1113554401
 30
0.0
 10
8.8282245322
 20
7.1046298178
 30
0.0
 10
8.8194418256
 20
7.0982389624
 30
0.0
 10
8.8079819001
 20
7.0909000945
 30
0.0
 10
8.795964735
 20
7.0844807706
 30
0.0
 10
8.7860537321
 20
7.0799139525
 30
0.0
 10
8.7759379323
 20
7.0757242621
 30
0.0
 10
8.7629598675
 20
7.0712190422
 30
0.0
 10
8.7469663407
 20
7.0670203173
 30
0.0
 10
8.7306238319
 20
7.0640458121
 30
0.0
 10
8.7140229018
 20
7.0623119549
 30
0.0
 10
8.6972547452
 20
7.0618279939
 30
0.0
 10
8.680411625
 20
7.0625963938
 30
0.0
 10
8.6635861155
 20
7.0646127155
 30
0.0
 10
8.6468706656
 20
7.0678656823
 30
0.0
 10
8.6303570793
 20
7.0723372406
 30
0.0
 10
8.6141360224
 20
7.0780026674
 30
0.0
 10
8.5982965309
 20
7.0848307094
 30
0.0
 10
8.5829255293
 20
7.0927837575
 30
0.0
 10
8.5681073602
 20
7.1018180533
 30
0.0
 10
8.553923328
 20
7.1118839302
 30
0.0
 10
8.5404512578
 20
7.1229260837
 30
0.0
 10
8.5277650742
 20
7.1348838735
 30
0.0
 10
8.5159343994
 20
7.1476916536
 30
0.0
 10
8.5050241759
 20
7.1612791287
 30
0.0
 10
8.4950943129
 20
7.1755717371
 30
0.0
 10
8.486199361
 20
7.1904910513
 30
0.0
 10
8.4783882136
 20
7.2059552202
 30
0.0
 10
8.4717038447
 20
7.2218793488
 30
0.0
 10
8.4661830527
 20
7.2381761952
 30
0.0
 10
8.4618563452
 20
7.2547557643
 30
0.0
 10
8.4592623811
 20
7.2687507143
 30
0.0
 10
8.457807249
 20
7.279995498
 30
0.0
 10
8.4567687563
 20
7.2912295188
 30
0.0
 10
8.4564543086
 20
7.2996830474
 30
0.0
 10
8.4564543086
 20
7.3053083982
 30
0.0
  0
SPLINE
  5
402
100
AcDbEntity
  8
0
100
AcDbSpline
 62
7
  6
CONTINUOUS
 70
0
 71
3
 72
37
 73
33
 74
0
 42
0.0000001
 43
0.0000001
 44
0.0000000001
 40
0.0
 40
0.0
 40
0.0
 40
0.0
 40
0.0301490457
 40
0.0604091694
 40
0.0907872922
 40
0.1212885617
 40
0.1519162945
 40
0.1826719508
 40
0.2135551407
 40
0.2445636518
 40
0.2756935011
 40
0.3069390092
 40
0.3382928962
 40
0.3697464015
 40
0.4012894191
 40
0.4329106435
 40
0.4963122094
 40
0.5598683469
 40
0.5916806627
 40
0.6234876865
 40
0.6552746252
 40
0.6870269453
 40
0.7187305681
 40
0.7503720582
 40
0.7819387976
 40
0.8134191673
 40
0.8448026951
 40
0.8760801845
 40
0.9072441017
 40
0.9382876654
 40
0.9692079883
 40
1.0
 40
1.0
 40
1.0
 40
1.0
 10
8.8989834221
 20
7.2035944378
 30
0.0
 10
8.8947086307
 20
7.2023184669
 30
0.0
 10
8.8860606406
 20
7.2000300982
 30
0.0
 10
8.8728772446
 20
7.1974061651
 30
0.0
 10
8.8595049829
 20
7.1955935856
 30
0.0
 10
8.8459928408
 20
7.1945990298
 30
0.0
 10
8.8323894486
 20
7.1944259738
 30
0.0
 10
8.8187439819
 20
7.1950749641
 30
0.0
 10
8.8051056896
 20
7.1965435741
 30
0.0
 10
8.7915237998
 20
7.1988264329
 30
0.0
 10
8.7780473192
 20
7.2019152416
 30
0.0
 10
8.7647248811
 20
7.2057988025
 30
0.0
 10
8.7516045144
 20
7.2104630671
 30
0.0
 10
8.73873365
 20
7.2158910623
 30
0.0
 10
8.7261582799
 20
7.2220634681
 30
0.0
 10
8.709835128
 20
7.2312616963
 30
0.0
 10
8.6903999113
 20
7.2445046029
 30
0.0
 10
8.6725532882
 20
7.2598636833
 30
0.0
 10
8.6593649948
 20
7.273298787
 30
0.0
 10
8.6500504002
 20
7.2839173724
 30
0.0
 10
8.6413517796
 20
7.2950343866
 30
0.0
 10
8.6333001114
 20
7.3066100814
 30
0.0
 10
8.6259245502
 20
7.3186026138
 30
0.0
 10
8.6192516868
 20
7.3309687615
 30
0.0
 10
8.6133056248
 20
7.3436639264
 30
0.0
 10
8.6081078501
 20
7.3566423339
 30
0.0
 10
8.6036771776
 20
7.3698571758
 30
0.0
 10
8.6000296064
 20
7.3832608141
 30
0.0
 10
8.5971784217
 20
7.3968047914
 30
0.0
 10
8.5951337947
 20
7.4104405622
 30
0.0
 10
8.593903424
 20
7.4241180991
 30
0.0
 10
8.5936282893
 20
7.4332519975
 30
0.0
 10
8.5936282893
 20
7.4378082967
 30
0.0
  0
SPLINE
  5
403
100
AcDbEntity
  8
0
100
AcDbSpline
 62
7
  6
CONTINUOUS
 70
0
 71
3
 72
23
 73
19
 74
0
 42
0.0000001
 43
0.0000001
 44
0.0000000001
 40
0.0
 40
0.0
 40
0.0
 40
0.0
 40
0.061689851
 40
0.1234110799
 40
0.1851828831
 40
0.2470239853
 40
0.3089524567
 40
0.370985538
 40
0.4331394925
 40
0.4954294624
 40
0.5578693367
 40
0.6204716314
 40
0.6832472989
 40
0.7462059445
 40
0.8093553843
 40
0.8727007701
 40
0.9362500366
 40
1.0
 40
1.0
 40
1.0
 40
1.0
 10
8.3618399762
 20
7.5904221967
 30
0.0
 10
8.3574212498
 20
7.5858897187
 30
0.0
 10
8.3488047814
 20
7.5766016967
 30
0.0
 10
8.336582745
 20
7.5620428223
 30
0.0
 10
8.3250859334
 20
7.5468846521
 30
0.0
 10
8.3143393833
 20
7.5311600794
 30
0.0
 10
8.3043659982
 20
7.5149026461
 30
0.0
 10
8.2951871568
 20
7.4981471951
 30
0.0
 10
8.2868224376
 20
7.480929623
 30
0.0
 10
8.2792897193
 20
7.4632867972
 30
0.0
 10
8.2726051347
 20
7.4452564738
 30
0.0
 10
8.2667829586
 20
7.4268772621
 30
0.0
 10
8.2618355642
 20
7.4081885142
 30
0.0
 10
8.2577735212
 20
7.3892302023
 30
0.0
 10
8.254605565
 20
7.3700430114
 30
0.0
 10
8.2523382523
 20
7.3506676099
 30
0.0
 10
8.2509766592
 20
7.3311463065
 30
0.0
 10
8.2506749375
 20
7.318082133
 30
0.0
 10
8.2506749375
 20
7.3115407774
 30
0.0
  0
SPLINE
  5
404
100
AcDbEntity
  8
0
100
AcDbSpline
 62
7
  6
CONTINUOUS
 70
0
 71
3
 72
23
 73
19
 74
0
 42
0.0000001
 43
0.0000001
 44
0.0000000001
 40
0.0
 40
0.0
 40
0.0
 40
0.0
 40
0.06183483
 40
0.1239222227
 40
0.186235848
 40
0.2487449804
 40
0.3114151336
 40
0.3742087491
 40
0.437085928
 40
0.5000051952
 40
0.5629242834
 40
0.6258009287
 40
0.6885936658
 40
0.7512626126
 40
0.813770234
 40
0.8760820691
 40
0.9381674432
 40
1.0
 40
1.0
 40
1.0
 40
1.0
 10
11.6016951426
 20
7.8866839447
 30
0.0
 10
11.5938209154
 20
7.8887530777
 30
0.0
 10
11.5781804435
 20
7.8934552016
 30
0.0
 10
11.5552267656
 20
7.902133667
 30
0.0
 10
11.5328431715
 20
7.9124087616
 30
0.0
 10
11.5111474809
 20
7.9242265474
 30
0.0
 10
11.4902519794
 20
7.9375255981
 30
0.0
 10
11.4702653167
 20
7.9522366897
 30
0.0
 10
11.4512912833
 20
7.9682833266
 30
0.0
 10
11.4334284562
 20
7.9855820919
 30
0.0
 10
11.4167696442
 20
8.0040430879
 30
0.0
 10
11.4014014204
 20
8.0235703973
 30
0.0
 10
11.3874036775
 20
8.0440625671
 30
0.0
 10
11.3748492063
 20
8.0654131781
 30
0.0
 10
11.3638033609
 20
8.0875112117
 30
0.0
 10
11.354323568
 20
8.110242291
 30
0.0
 10
11.3464595924
 20
8.1334867691
 30
0.0
 10
11.3423117367
 20
8.1492826932
 30
0.0
 10
11.3405214857
 20
8.1572246636
 30
0.0
  0
SPLINE
  5
405
100
AcDbEntity
  8
0
100
AcDbSpline
 62
7
  6
CONTINUOUS
 70
0
 71
3
 72
21
 73
17
 74
0
 42
0.0000001
 43
0.0000001
 44
0.0000000001
 40
0.0
 40
0.0
 40
0.0
 40
0.0
 40
0.0617147761
 40
0.1234506677
 40
0.1852285528
 40
0.2470689013
 40
0.30899155
 40
0.3710154761
 40
0.4331586505
 40
0.4954378572
 40
0.5578685131
 40
0.6204644763
 40
0.6832380473
 40
0.746200107
 40
0.8726822618
 40
1.0
 40
1.0
 40
1.0
 40
1.0
 10
8.5201814495
 20
7.458591222
 30
0.0
 10
8.5176581253
 20
7.4561538767
 30
0.0
 10
8.5127351188
 20
7.4511475261
 30
0.0
 10
8.5057452914
 20
7.443266761
 30
0.0
 10
8.4991648498
 20
7.4350315802
 30
0.0
 10
8.4930091763
 20
7.4264612751
 30
0.0
 10
8.4872924633
 20
7.4175754963
 30
0.0
 10
8.482027876
 20
7.4083947866
 30
0.0
 10
8.4772274877
 20
7.3989403424
 30
0.0
 10
8.4729024381
 20
7.3892339355
 30
0.0
 10
8.4690626373
 20
7.379297961
 30
0.0
 10
8.4657168818
 20
7.369155419
 30
0.0
 10
8.4628729225
 20
7.3588293854
 30
0.0
 10
8.4597543877
 20
7.3448298953
 30
0.0
 10
8.4571451683
 20
7.3269828006
 30
0.0
 10
8.4564543086
 20
7.3125459265
 30
0.0
 10
8.4564543086
 20
7.3053083982
 30
0.0
  0
SPLINE
  5
406
100
AcDbEntity
  8
0
100
AcDbSpline
 62
7
  6
CONTINUOUS
 70
0
 71
3
 72
11
 73
7
 74
0
 42
0.0000001
 43
0.0000001
 44
0.0000000001
 40
0.0
 40
0.0
 40
0.0
 40
0.0
 40
0.2480711051
 40
0.4973763969
 40
0.7480002036
 40
1.0
 40
1.0
 40
1.0
 40
1.0
 10
8.6049991635
 20
7.5079626912
 30
0.0
 10
8.6031161315
 20
7.5023700981
 30
0.0
 10
8.5998048748
 20
7.4909948609
 30
0.0
 10
8.5962455139
 20
7.4735417127
 30
0.0
 10
8.5941023724
 20
7.4557647949
 30
0.0
 10
8.5936282893
 20
7.4438028458
 30
0.0
 10
8.5936282893
 20
7.4378082967
 30
0.0
  0
SPLINE
  5
407
100
AcDbEntity
  8
0
100
AcDbSpline
 62
7
  6
CONTINUOUS
 70
0
 71
3
 72
23
 73
19
 74
0
 42
0.0000001
 43
0.0000001
 44
0.0000000001
 40
0.0
 40
0.0
 40
0.0
 40
0.0
 40
0.061713824
 40
0.1237221498
 40
0.1859969692
 40
0.2485039937
 40
0.3112035247
 40
0.3740514198
 40
0.43700014
 40
0.4999998531
 40
0.5629995704
 40
0.6259483016
 40
0.6887962134
 40
0.7514957681
 40
0.8140028253
 40
0.8762776817
 40
0.9382860345
 40
1.0
 40
1.0
 40
1.0
 40
1.0
 10
11.6116627762
 20
7.8553586486
 30
0.0
 10
11.6023620627
 20
7.8572585652
 30
0.0
 10
11.5838564135
 20
7.8617934083
 30
0.0
 10
11.5566469288
 20
7.8707199799
 30
0.0
 10
11.5300794186
 20
7.8817331933
 30
0.0
 10
11.5043224624
 20
7.8947633379
 30
0.0
 10
11.4795367307
 20
7.9097287112
 30
0.0
 10
11.4558775526
 20
7.9265353779
 30
0.0
 10
11.4334929848
 20
7.9450779509
 30
0.0
 10
11.4125231827
 20
7.9652402316
 30
0.0
 10
11.3930994604
 20
7.9868959306
 30
0.0
 10
11.3753435077
 20
8.0099094563
 30
0.0
 10
11.3593665886
 20
8.0341366983
 30
0.0
 10
11.3452688625
 20
8.0594260164
 30
0.0
 10
11.3331388254
 20
8.0856189252
 30
0.0
 10
11.3230525927
 20
8.1125520329
 30
0.0
 10
11.3150740215
 20
8.140054468
 30
0.0
 10
11.3111829932
 20
8.1587061373
 30
0.0
 10
11.3096064427
 20
8.1680671125
 30
0.0
  0
SPLINE
  5
408
100
AcDbEntity
  8
0
100
AcDbSpline
 62
7
  6
CONTINUOUS
 70
0
 71
3
 72
39
 73
35
 74
0
 42
0.0000001
 43
0.0000001
 44
0.0000000001
 40
0.0
 40
0.0
 40
0.0
 40
0.0
 40
0.0300777488
 40
0.0602611862
 40
0.0905595412
 40
0.1209801782
 40
0.1515285009
 40
0.1822078896
 40
0.2130196733
 40
0.2439631372
 40
0.2750355615
 40
0.306232286
 40
0.3375468024
 40
0.3689708696
 40
0.4004946512
 40
0.432106873
 40
0.4637949994
 40
0.4955454202
 40
0.5273436485
 40
0.5591745269
 40
0.5910224408
 40
0.6228715364
 40
0.6547059446
 40
0.6865100023
 40
0.718268471
 40
0.7499667511
 40
0.7815910872
 40
0.8131287704
 40
0.8445683359
 40
0.8758996785
 40
0.9071144902
 40
0.9382054449
 40
0.9691689199
 40
1.0
 40
1.0
 40
1.0
 40
1.0
 10
8.9066652005
 20
7.233427014
 30
0.0
 10
8.9028011542
 20
7.2319854901
 30
0.0
 10
8.8949627967
 20
7.229349458
 30
0.0
 10
8.8829538427
 20
7.2261592859
 30
0.0
 10
8.8707182018
 20
7.2237379198
 30
0.0
 10
8.8583037496
 20
7.2220948546
 30
0.0
 10
8.8457582033
 20
7.2212362899
 30
0.0
 10
8.8331299954
 20
7.2211654824
 30
0.0
 10
8.8204678034
 20
7.2218826174
 30
0.0
 10
8.8078204357
 20
7.2233848473
 30
0.0
 10
8.7952366254
 20
7.225666306
 30
0.0
 10
8.7827648499
 20
7.2287181341
 30
0.0
 10
8.7704531452
 20
7.232528514
 30
0.0
 10
8.7583489249
 20
7.2370827164
 30
0.0
 10
8.7464987995
 20
7.2423631572
 30
0.0
 10
8.7349483904
 20
7.2483494485
 30
0.0
 10
8.7237421614
 20
7.255018496
 30
0.0
 10
8.7129232503
 20
7.2623445876
 30
0.0
 10
8.7025333047
 20
7.2702994915
 30
0.0
 10
8.692612324
 20
7.2788525639
 30
0.0
 10
8.6831985085
 20
7.2879708669
 30
0.0
 10
8.6743281076
 20
7.2976192877
 30
0.0
 10
8.6660352739
 20
7.307760669
 30
0.0
 10
8.6583519449
 20
7.3183559645
 30
0.0
 10
8.6513077188
 20
7.3293643841
 30
0.0
 10
8.6449297433
 20
7.3407435509
 30
0.0
 10
8.6392426106
 20
7.3524496602
 30
0.0
 10
8.6342682638
 20
7.3644376496
 30
0.0
 10
8.6300259109
 20
7.3766613551
 30
0.0
 10
8.6265319032
 20
7.3890737312
 30
0.0
 10
8.6237998273
 20
7.4016268877
 30
0.0
 10
8.6218401265
 20
7.4142727547
 30
0.0
 10
8.6206606246
 20
7.4269618403
 30
0.0
 10
8.6203968094
 20
7.4354372303
 30
0.0
 10
8.6203968094
 20
7.4396647032
 30
0.0
  0
SPLINE
  5
409
100
AcDbEntity
  8
0
100
AcDbSpline
 62
7
  6
CONTINUOUS
 70
0
 71
3
 72
42
 73
38
 74
0
 42
0.0000001
 43
0.0000001
 44
0.0000000001
 40
0.0
 40
0.0
 40
0.0
 40
0.0
 40
0.0299621581
 40
0.0449760066
 40
0.06001275
 40
0.0901574873
 40
0.1204141599
 40
0.1355902589
 40
0.1507982792
 40
0.1813095263
 40
0.2119586624
 40
0.2427494188
 40
0.2736829701
 40
0.3047579491
 40
0.3359705046
 40
0.3673144018
 40
0.3987811581
 40
0.4303602142
 40
0.4620391321
 40
0.4938038206
 40
0.5256387797
 40
0.5575273638
 40
0.5894520581
 40
0.6213947644
 40
0.6533370947
 40
0.6852606668
 40
0.7171474008
 40
0.7489798117
 40
0.7807412952
 40
0.8124164044
 40
0.8439911092
 40
0.8754530485
 40
0.9067917307
 40
0.9379987993
 40
0.9535528115
 40
0.9690722368
 40
1.0
 40
1.0
 40
1.0
 40
1.0
 10
11.6209406021
 20
7.670517607
 30
0.0
 10
11.6142741278
 20
7.6667427843
 30
0.0
 10
11.6040608465
 20
7.6614297798
 30
0.0
 10
11.5900901883
 20
7.655077817
 30
0.0
 10
11.5758608086
 20
7.6492034936
 30
0.0
 10
11.5576528809
 20
7.6427869137
 30
0.0
 10
11.53900791
 20
7.6376454375
 30
0.0
 10
11.5238645021
 20
7.6343029109
 30
0.0
 10
11.5085509859
 20
7.6314720307
 30
0.0
 10
11.4891760312
 20
7.6289135028
 30
0.0
 10
11.4656946462
 20
7.6274254473
 30
0.0
 10
11.4420580763
 20
7.6275220156
 30
0.0
 10
11.4183723736
 20
7.6292027323
 30
0.0
 10
11.3947428951
 20
7.6324598759
 30
0.0
 10
11.3712749495
 20
7.6372787662
 30
0.0
 10
11.3480730325
 20
7.6436377693
 30
0.0
 10
11.3252404478
 20
7.6515084152
 30
0.0
 10
11.3028788303
 20
7.6608555236
 30
0.0
 10
11.281087705
 20
7.671637363
 30
0.0
 10
11.2599640473
 20
7.6838058373
 30
0.0
 10
11.2396018567
 20
7.6973066998
 30
0.0
 10
11.2200917428
 20
7.7120797943
 30
0.0
 10
11.2015205261
 20
7.7280593214
 30
0.0
 10
11.183970855
 20
7.7451741295
 30
0.0
 10
11.1675208417
 20
7.7633480292
 30
0.0
 10
11.1522437171
 20
7.7825001303
 30
0.0
 10
11.1382075075
 20
7.8025451978
 30
0.0
 10
11.1254747339
 20
7.8233940298
 30
0.0
 10
11.1141021356
 20
7.8449538452
 30
0.0
 10
11.1041404178
 20
7.8671287122
 30
0.0
 10
11.0956340304
 20
7.8898198981
 30
0.0
 10
11.088620951
 20
7.9129265736
 30
0.0
 10
11.0831325991
 20
7.9363452561
 30
0.0
 10
11.0798462124
 20
7.9560578914
 30
0.0
 10
11.0780033913
 20
7.971878012
 30
0.0
 10
11.0766882957
 20
7.9876784675
 30
0.0
 10
11.0762905354
 20
7.9995593919
 30
0.0
 10
11.0762905354
 20
8.0074673032
 30
0.0
  0
SPLINE
  5
40A
100
AcDbEntity
  8
0
100
AcDbSpline
 62
7
  6
CONTINUOUS
 70
0
 71
3
 72
42
 73
38
 74
0
 42
0.0000001
 43
0.0000001
 44
0.0000000001
 40
0.0
 40
0.0
 40
0.0
 40
0.0
 40
0.0300095244
 40
0.0450516821
 40
0.0601194639
 40
0.0903333788
 40
0.1206657909
 40
0.135881145
 40
0.1511289982
 40
0.1817206698
 40
0.212448646
 40
0.2433143228
 40
0.2743168053
 40
0.305452952
 40
0.3367174549
 40
0.3681029513
 40
0.3996001639
 40
0.4311980671
 40
0.4628840747
 40
0.4946442469
 40
0.5264635129
 40
0.5583259063
 40
0.5902148099
 40
0.6221132077
 40
0.6540039413
 40
0.6858699673
 40
0.7176946139
 40
0.7494618331
 40
0.7811564472
 40
0.8127643849
 40
0.8442729048
 40
0.8756708066
 40
0.906948614
 40
0.9380987641
 40
0.9536258808
 40
0.9691196229
 40
1.0
 40
1.0
 40
1.0
 40
1.0
 10
11.6064920337
 20
7.6136641178
 30
0.0
 10
11.5990375921
 20
7.6101761365
 30
0.0
 10
11.5876628569
 20
7.60532003
 30
0.0
 10
11.5721879097
 20
7.5996239803
 30
0.0
 10
11.5564756182
 20
7.5944357898
 30
0.0
 10
11.5364649429
 20
7.5889323643
 30
0.0
 10
11.5160919802
 20
7.5847695389
 30
0.0
 10
11.4996081566
 20
7.5822461952
 30
0.0
 10
11.4829795008
 20
7.5802594542
 30
0.0
 10
11.4620153874
 20
7.5787985552
 30
0.0
 10
11.436716522
 20
7.5786864349
 30
0.0
 10
11.4113503471
 20
7.5802132698
 30
0.0
 10
11.3860229881
 20
7.583372624
 30
0.0
 10
11.3608394998
 20
7.5881511741
 30
0.0
 10
11.3359045489
 20
7.5945289136
 30
0.0
 10
11.311321682
 20
7.6024792016
 30
0.0
 10
11.2871929819
 20
7.6119688859
 30
0.0
 10
11.263618626
 20
7.6229584407
 30
0.0
 10
11.2406964812
 20
7.6354021317
 30
0.0
 10
11.2185216994
 20
7.6492482066
 30
0.0
 10
11.1971863279
 20
7.6644391096
 30
0.0
 10
11.1767789298
 20
7.6809117193
 30
0.0
 10
11.1573842204
 20
7.6985976094
 30
0.0
 10
11.1390827184
 20
7.7174233315
 30
0.0
 10
11.121950414
 20
7.7373107172
 30
0.0
 10
11.106058456
 20
7.7581772009
 30
0.0
 10
11.0914728587
 20
7.7799361592
 30
0.0
 10
11.0782542289
 20
7.802497269
 30
0.0
 10
11.0664575164
 20
7.8257668735
 30
0.0
 10
11.0561317848
 20
7.8496483878
 30
0.0
 10
11.0473200146
 20
7.8740426219
 30
0.0
 10
11.0400588992
 20
7.8988484601
 30
0.0
 10
11.0343787882
 20
7.9239622706
 30
0.0
 10
11.0309787778
 20
7.9450849484
 30
0.0
 10
11.0290724618
 20
7.9620310607
 30
0.0
 10
11.0277120714
 20
7.9789549025
 30
0.0
 10
11.0273007468
 20
7.9916778568
 30
0.0
 10
11.0273007468
 20
8.0001467983
 30
0.0
  0
SPLINE
  5
40B
100
AcDbEntity
  8
0
100
AcDbSpline
 62
7
  6
CONTINUOUS
 70
0
 71
3
 72
44
 73
40
 74
0
 42
0.0000001
 43
0.0000001
 44
0.0000000001
 40
0.0
 40
0.0
 40
0.0
 40
0.0
 40
0.0149713347
 40
0.029960997
 40
0.0449710739
 40
0.0600035601
 40
0.0901384861
 40
0.1203840777
 40
0.1355543302
 40
0.1507563562
 40
0.181255331
 40
0.2118922373
 40
0.2426711917
 40
0.2735937149
 40
0.3046587405
 40
0.3358626689
 40
0.3671994643
 40
0.3986607905
 40
0.4302361809
 40
0.4619132392
 40
0.4936778664
 40
0.5255145091
 40
0.5574064268
 40
0.5893359734
 40
0.6212848881
 40
0.6532345954
 40
0.6851665064
 40
0.7170623222
 40
0.7329931055
 40
0.7489082916
 40
0.7806796683
 40
0.8123647466
 40
0.843949292
 40
0.8754207611
 40
0.9067684918
 40
0.9379840299
 40
0.9535420448
 40
0.9690652179
 40
1.0
 40
1.0
 40
1.0
 40
1.0
 10
11.5993630435
 20
7.5941540654
 30
0.0
 10
11.5956756895
 20
7.5920074783
 30
0.0
 10
11.5882190423
 20
7.587843109
 30
0.0
 10
11.5768117056
 20
7.5819955313
 30
0.0
 10
11.5651877799
 20
7.5765493595
 30
0.0
 10
11.5494071284
 20
7.5698267879
 30
0.0
 10
11.5291981157
 20
7.5624570308
 30
0.0
 10
11.5084846597
 20
7.5565121125
 30
0.0
 10
11.4916507541
 20
7.5526179549
 30
0.0
 10
11.4746211628
 20
7.5492957141
 30
0.0
 10
11.4530625933
 20
7.5462395005
 30
0.0
 10
11.4269167403
 20
7.5443438442
 30
0.0
 10
11.400581486
 20
7.5442235829
 30
0.0
 10
11.3741762453
 20
7.5458792048
 30
0.0
 10
11.3478197157
 20
7.5493029895
 30
0.0
 10
11.3216306024
 20
7.5544793284
 30
0.0
 10
11.2957267506
 20
7.5613847265
 30
0.0
 10
11.2702247121
 20
7.5699879328
 30
0.0
 10
11.2452392025
 20
7.5802500796
 30
0.0
 10
11.2208825975
 20
7.5921248613
 30
0.0
 10
11.1972644323
 20
7.6055587427
 30
0.0
 10
11.1744909134
 20
7.6204912019
 30
0.0
 10
11.1526644495
 20
7.6368549965
 30
0.0
 10
11.1318831844
 20
7.654576483
 30
0.0
 10
11.1122406009
 20
7.6735758785
 30
0.0
 10
11.0938249518
 20
7.6937678679
 30
0.0
 10
11.0767194337
 20
7.7150610496
 30
0.0
 10
11.0636141148
 20
7.7336528942
 30
0.0
 10
11.0538591998
 20
7.74898028
 30
0.0
 10
11.0446104166
 20
7.7645770473
 30
0.0
 10
11.03399929
 20
7.7845723775
 30
0.0
 10
11.0228391611
 20
7.8092716277
 30
0.0
 10
11.0133082676
 20
7.8345535069
 30
0.0
 10
11.0054499677
 20
7.8603039217
 30
0.0
 10
10.9992997344
 20
7.8864064914
 30
0.0
 10
10.995616825
 20
7.9083810368
 30
0.0
 10
10.9935516124
 20
7.9260173364
 30
0.0
 10
10.9920778096
 20
7.9436319222
 30
0.0
 10
10.9916320264
 20
7.9568773904
 30
0.0
 10
10.9916320264
 20
7.9656934581
 30
0.0
  0
SPLINE
  5
40C
100
AcDbEntity
  8
0
100
AcDbSpline
 62
7
  6
CONTINUOUS
 70
0
 71
3
 72
43
 73
39
 74
0
 42
0.0000001
 43
0.0000001
 44
0.0000000001
 40
0.0
 40
0.0
 40
0.0
 40
0.0
 40
0.0299998116
 40
0.0450363858
 40
0.0600981587
 40
0.0902989779
 40
0.1206173536
 40
0.135825522
 40
0.1510661319
 40
0.1816433201
 40
0.212357249
 40
0.2432097023
 40
0.2742001252
 40
0.3053256646
 40
0.3365812461
 40
0.367959684
 40
0.3994518216
 40
0.4310466979
 40
0.4627317384
 40
0.4944929646
 40
0.5263152208
 40
0.5581824142
 40
0.5900777654
 40
0.621984066
 40
0.6538839413
 40
0.6857601141
 40
0.7175956681
 40
0.7334949359
 40
0.7493780072
 40
0.7810843073
 40
0.8127039613
 40
0.8442240059
 40
0.875633046
 40
0.9069214197
 40
0.9380814642
 40
0.9536132545
 40
0.9691113916
 40
1.0
 40
1.0
 40
1.0
 40
1.0
 10
11.5815458183
 20
7.5561547483
 30
0.0
 10
11.5736676
 20
7.5523372401
 30
0.0
 10
11.5616381941
 20
7.5470109162
 30
0.0
 10
11.5452577286
 20
7.540739517
 30
0.0
 10
11.5286173013
 20
7.5350094757
 30
0.0
 10
11.5074077329
 20
7.5288943689
 30
0.0
 10
11.4857932341
 20
7.524211355
 30
0.0
 10
11.4682936019
 20
7.5213275439
 30
0.0
 10
11.450632935
 20
7.5190171072
 30
0.0
 10
11.4283543014
 20
7.5172228288
 30
0.0
 10
11.4014496199
 20
7.5168266685
 30
0.0
 10
11.3744553166
 20
7.5181861661
 30
0.0
 10
11.3474857436
 20
7.521295506
 30
0.0
 10
11.3206541668
 20
7.5261413902
 30
0.0
 10
11.2940734962
 20
7.5327032657
 30
0.0
 10
11.2678554915
 20
7.5409533705
 30
0.0
 10
11.2421103842
 20
7.5508568658
 30
0.0
 10
11.2169463961
 20
7.5623719811
 30
0.0
 10
11.1924692952
 20
7.5754501927
 30
0.0
 10
11.1687819546
 20
7.5900364269
 30
0.0
 10
11.1459839243
 20
7.6060692928
 30
0.0
 10
11.124171019
 20
7.6234813348
 30
0.0
 10
11.1034349095
 20
7.6421993318
 30
0.0
 10
11.0838627787
 20
7.6621445388
 30
0.0
 10
11.0655368146
 20
7.6832332565
 30
0.0
 10
11.0485344037
 20
7.705376281
 30
0.0
 10
11.0355214087
 20
7.724640207
 30
0.0
 10
11.0258419367
 20
7.7404846991
 30
0.0
 10
11.0166690178
 20
7.7565843214
 30
0.0
 10
11.0061515355
 20
7.7771849586
 30
0.0
 10
10.9950975498
 20
7.8025779594
 30
0.0
 10
10.9856630662
 20
7.8285245057
 30
0.0
 10
10.9778881902
 20
7.8549151534
 30
0.0
 10
10.971805725
 20
7.8816384302
 30
0.0
 10
10.9681646614
 20
7.9041178805
 30
0.0
 10
10.9661231456
 20
7.9221535079
 30
0.0
 10
10.9646662707
 20
7.9401656503
 30
0.0
 10
10.9642257508
 20
7.9537072525
 30
0.0
 10
10.9642257508
 20
7.9627210271
 30
0.0
  0
SPLINE
  5
40D
100
AcDbEntity
  8
0
100
AcDbSpline
 62
7
  6
CONTINUOUS
 70
0
 71
3
 72
39
 73
35
 74
0
 42
0.0000001
 43
0.0000001
 44
0.0000000001
 40
0.0
 40
0.0
 40
0.0
 40
0.0
 40
0.029942471
 40
0.0599093183
 40
0.0899243244
 40
0.1200101034
 40
0.1501875624
 40
0.1804754148
 40
0.2108897596
 40
0.2414437361
 40
0.2721472598
 40
0.3030068424
 40
0.3340254951
 40
0.3652027149
 40
0.3965345496
 40
0.4280137343
 40
0.459629891
 40
0.4913697854
 40
0.5232176334
 40
0.5551554501
 40
0.5871634341
 40
0.6192203766
 40
0.6513040925
 40
0.6833918636
 40
0.7154608915
 40
0.7474887505
 40
0.7794538351
 40
0.8113357956
 40
0.8431159562
 40
0.8747777121
 40
0.9063068677
 40
0.9376920929
 40
0.9689246489
 40
1.0
 40
1.0
 40
1.0
 40
1.0
 10
11.5105247855
 20
7.4613690787
 30
0.0
 10
11.5033829191
 20
7.4544705945
 30
0.0
 10
11.4885376498
 20
7.4412303197
 30
0.0
 10
11.4647531868
 20
7.4231928148
 30
0.0
 10
11.4395737771
 20
7.4070684432
 30
0.0
 10
11.413140096
 20
7.392947675
 30
0.0
 10
11.3855974696
 20
7.3809076685
 30
0.0
 10
11.357097907
 20
7.3710146025
 30
0.0
 10
11.3277984629
 20
7.3633225933
 30
0.0
 10
11.2978605559
 20
7.3578736328
 30
0.0
 10
11.2674490169
 20
7.3546973216
 30
0.0
 10
11.2367311926
 20
7.3538107471
 30
0.0
 10
11.2058760252
 20
7.3552184
 30
0.0
 10
11.1750531246
 20
7.3589121404
 30
0.0
 10
11.1444318426
 20
7.3648713009
 30
0.0
 10
11.114180356
 20
7.3730628092
 30
0.0
 10
11.0844647564
 20
7.3834413801
 30
0.0
 10
11.0554481563
 20
7.3959497759
 30
0.0
 10
11.0272897944
 20
7.4105190944
 30
0.0
 10
11.0001441731
 20
7.4270691617
 30
0.0
 10
10.9741602322
 20
7.4455089899
 30
0.0
 10
10.9494805407
 20
7.4657372687
 30
0.0
 10
10.9262405276
 20
7.4876429181
 30
0.0
 10
10.9045677456
 20
7.5111056884
 30
0.0
 10
10.884581153
 20
7.5359967928
 30
0.0
 10
10.8663904919
 20
7.5621796356
 30
0.0
 10
10.8500956921
 20
7.589510549
 30
0.0
 10
10.8357863271
 20
7.6178395756
 30
0.0
 10
10.8235411283
 20
7.6470112625
 30
0.0
 10
10.8134275413
 20
7.676865559
 30
0.0
 10
10.8055013029
 20
7.707238451
 30
0.0
 10
10.7998063111
 20
7.7379637211
 30
0.0
 10
10.7963740255
 20
7.7688704771
 30
0.0
 10
10.7956052821
 20
7.7895409478
 30
0.0
 10
10.7956052821
 20
7.7998461519
 30
0.0
  0
SPLINE
  5
40E
100
AcDbEntity
  8
0
100
AcDbSpline
 62
4
  6
CONTINUOUS
 70
0
 71
3
 72
346
 73
342
 74
0
 42
0.0000001
 43
0.0000001
 44
0.0000000001
 40
0.0
 40
0.0
 40
0.0
 40
0.0
 40
0.015625
 40
0.03125
 40
0.0390625
 40
0.046875
 40
0.05078125
 40
0.0546875
 40
0.05859375
 40
0.060546875
 40
0.0615234375
 40
0.0625
 40
0.0634765625
 40
0.064453125
 40
0.06640625
 40
0.0703125
 40
0.07421875
 40
0.078125
 40
0.0859375
 40
0.09375
 40
0.1015625
 40
0.109375
 40
0.11328125
 40
0.1171875
 40
0.12109375
 40
0.123046875
 40
0.1240234375
 40
0.125
 40
0.1259765625
 40
0.126953125
 40
0.12890625
 40
0.1328125
 40
0.13671875
 40
0.140625
 40
0.1484375
 40
0.15625
 40
0.1640625
 40
0.171875
 40
0.17578125
 40
0.1796875
 40
0.18359375
 40
0.185546875
 40
0.1865234375
 40
0.1875
 40
0.1884765625
 40
0.189453125
 40
0.19140625
 40
0.1953125
 40
0.19921875
 40
0.203125
 40
0.2109375
 40
0.21875
 40
0.2265625
 40
0.234375
 40
0.23828125
 40
0.2421875
 40
0.244140625
 40
0.24609375
 40
0.248046875
 40
0.2490234375
 40
0.2495117188
 40
0.25
 40
0.2504882812
 40
0.2509765625
 40
0.251953125
 40
0.25390625
 40
0.255859375
 40
0.2578125
 40
0.26171875
 40
0.265625
 40
0.2734375
 40
0.28125
 40
0.2890625
 40
0.296875
 40
0.30078125
 40
0.3046875
 40
0.306640625
 40
0.30859375
 40
0.310546875
 40
0.3115234375
 40
0.3120117188
 40
0.3125
 40
0.3129882812
 40
0.3134765625
 40
0.314453125
 40
0.31640625
 40
0.318359375
 40
0.3203125
 40
0.32421875
 40
0.328125
 40
0.3359375
 40
0.34375
 40
0.3515625
 40
0.35546875
 40
0.359375
 40
0.36328125
 40
0.3671875
 40
0.369140625
 40
0.37109375
 40
0.3720703125
 40
0.373046875
 40
0.3740234375
 40
0.3745117188
 40
0.3747558594
 40
0.375
 40
0.3752441406
 40
0.3754882812
 40
0.3759765625
 40
0.376953125
 40
0.3779296875
 40
0.37890625
 40
0.380859375
 40
0.3828125
 40
0.38671875
 40
0.390625
 40
0.39453125
 40
0.3984375
 40
0.40625
 40
0.4140625
 40
0.41796875
 40
0.421875
 40
0.42578125
 40
0.4296875
 40
0.431640625
 40
0.43359375
 40
0.4345703125
 40
0.435546875
 40
0.4365234375
 40
0.4370117188
 40
0.4372558594
 40
0.4375
 40
0.4377441406
 40
0.4379882812
 40
0.4384765625
 40
0.439453125
 40
0.4404296875
 40
0.44140625
 40
0.443359375
 40
0.4453125
 40
0.44921875
 40
0.453125
 40
0.45703125
 40
0.4609375
 40
0.46875
 40
0.4765625
 40
0.48046875
 40
0.484375
 40
0.48828125
 40
0.4921875
 40
0.494140625
 40
0.49609375
 40
0.4970703125
 40
0.498046875
 40
0.4990234375
 40
0.4995117188
 40
0.4997558594
 40
0.5
 40
0.5002441406
 40
0.5004882812
 40
0.5009765625
 40
0.501953125
 40
0.5029296875
 40
0.50390625
 40
0.505859375
 40
0.5078125
 40
0.51171875
 40
0.515625
 40
0.51953125
 40
0.5234375
 40
0.53125
 40
0.5390625
 40
0.54296875
 40
0.546875
 40
0.55078125
 40
0.5546875
 40
0.556640625
 40
0.55859375
 40
0.5595703125
 40
0.560546875
 40
0.5615234375
 40
0.5620117188
 40
0.5622558594
 40
0.5625
 40
0.5627441406
 40
0.5629882812
 40
0.5634765625
 40
0.564453125
 40
0.5654296875
 40
0.56640625
 40
0.568359375
 40
0.5703125
 40
0.57421875
 40
0.578125
 40
0.58203125
 40
0.5859375
 40
0.59375
 40
0.6015625
 40
0.60546875
 40
0.609375
 40
0.61328125
 40
0.6171875
 40
0.619140625
 40
0.62109375
 40
0.6220703125
 40
0.623046875
 40
0.6240234375
 40
0.6245117188
 40
0.6247558594
 40
0.625
 40
0.6252441406
 40
0.6254882812
 40
0.6259765625
 40
0.626953125
 40
0.6279296875
 40
0.62890625
 40
0.630859375
 40
0.6328125
 40
0.63671875
 40
0.640625
 40
0.64453125
 40
0.6484375
 40
0.65625
 40
0.6640625
 40
0.66796875
 40
0.671875
 40
0.67578125
 40
0.6796875
 40
0.681640625
 40
0.68359375
 40
0.6845703125
 40
0.685546875
 40
0.6865234375
 40
0.6870117188
 40
0.6872558594
 40
0.6875
 40
0.6877441406
 40
0.6879882812
 40
0.6884765625
 40
0.689453125
 40
0.6904296875
 40
0.69140625
 40
0.693359375
 40
0.6953125
 40
0.69921875
 40
0.703125
 40
0.70703125
 40
0.7109375
 40
0.71875
 40
0.7265625
 40
0.73046875
 40
0.734375
 40
0.73828125
 40
0.7421875
 40
0.744140625
 40
0.74609375
 40
0.7470703125
 40
0.748046875
 40
0.7490234375
 40
0.7495117188
 40
0.7497558594
 40
0.75
 40
0.7502441406
 40
0.7504882812
 40
0.7509765625
 40
0.751953125
 40
0.7529296875
 40
0.75390625
 40
0.755859375
 40
0.7578125
 40
0.76171875
 40
0.765625
 40
0.76953125
 40
0.7734375
 40
0.78125
 40
0.7890625
 40
0.79296875
 40
0.796875
 40
0.80078125
 40
0.8046875
 40
0.806640625
 40
0.80859375
 40
0.8095703125
 40
0.810546875
 40
0.8115234375
 40
0.8120117188
 40
0.8125
 40
0.8129882812
 40
0.8134765625
 40
0.814453125
 40
0.8154296875
 40
0.81640625
 40
0.818359375
 40
0.8203125
 40
0.82421875
 40
0.828125
 40
0.83203125
 40
0.8359375
 40
0.84375
 40
0.8515625
 40
0.859375
 40
0.86328125
 40
0.8671875
 40
0.869140625
 40
0.87109375
 40
0.873046875
 40
0.8740234375
 40
0.8745117188
 40
0.875
 40
0.8754882812
 40
0.8759765625
 40
0.876953125
 40
0.87890625
 40
0.880859375
 40
0.8828125
 40
0.88671875
 40
0.890625
 40
0.8984375
 40
0.90625
 40
0.9140625
 40
0.921875
 40
0.92578125
 40
0.9296875
 40
0.931640625
 40
0.93359375
 40
0.935546875
 40
0.9365234375
 40
0.9370117188
 40
0.9375
 40
0.9379882812
 40
0.9384765625
 40
0.939453125
 40
0.94140625
 40
0.943359375
 40
0.9453125
 40
0.94921875
 40
0.953125
 40
0.9609375
 40
0.96875
 40
0.9765625
 40
0.984375
 40
1.0
 40
1.0
 40
1.0
 40
1.0
 10
10.626266515
 20
9.967919601
 30
0.0
 10
10.629482019
 20
9.9677818259
 30
0.0
 10
10.6359130278
 20
9.9675062792
 30
0.0
 10
10.6439517844
 20
9.9671618287
 30
0.0
 10
10.6503827989
 20
9.966886304
 30
0.0
 10
10.6544021622
 20
9.9667140203
 30
0.0
 10
10.6576177003
 20
9.9665763783
 30
0.0
 10
10.6600292239
 20
9.9664726404
 30
0.0
 10
10.6620392404
 20
9.9663878031
 30
0.0
 10
10.6634454406
 20
9.9663252556
 30
0.0
 10
10.6642502503
 20
9.9662944504
 30
0.0
 10
10.6648502891
 20
9.9662574409
 30
0.0
 10
10.6654639687
 20
9.9662735858
 30
0.0
 10
10.66627745
 20
9.9662765714
 30
0.0
 10
10.6677032593
 20
9.9662904348
 30
0.0
 10
10.6697389706
 20
9.9663057234
 30
0.0
 10
10.6721823203
 20
9.9663260028
 30
0.0
 10
10.6754399468
 20
9.9663523665
 30
0.0
 10
10.6795120385
 20
9.9663855545
 30
0.0
 10
10.6843985267
 20
9.9664252734
 30
0.0
 10
10.6892850084
 20
9.9664650455
 30
0.0
 10
10.6933571162
 20
9.9664981006
 30
0.0
 10
10.6966147104
 20
9.9665247302
 30
0.0
 10
10.6990581585
 20
9.9665441988
 30
0.0
 10
10.7010935619
 20
9.9665620238
 30
0.0
 10
10.702519921
 20
9.9665713592
 30
0.0
 10
10.7033325214
 20
9.9665815998
 30
0.0
 10
10.7039489069
 20
9.96657546
 30
0.0
 10
10.7045387828
 20
9.9666221479
 30
0.0
 10
10.705334531
 20
9.9666659717
 30
0.0
 10
10.7067227819
 20
9.9667512486
 30
0.0
 10
10.70870825
 20
9.9668685843
 30
0.0
 10
10.7110898475
 20
9.9670113083
 30
0.0
 10
10.7142656478
 20
9.9672009358
 30
0.0
 10
10.7182352812
 20
9.9674382019
 30
0.0
 10
10.7229988976
 20
9.9677228153
 30
0.0
 10
10.7277624759
 20
9.9680074817
 30
0.0
 10
10.7317322044
 20
9.9682446153
 30
0.0
 10
10.7349078146
 20
9.9684345079
 30
0.0
 10
10.737289992
 20
9.968576423
 30
0.0
 10
10.7392736458
 20
9.9686962895
 30
0.0
 10
10.7406651355
 20
9.9687770485
 30
0.0
 10
10.7414556943
 20
9.9688281112
 30
0.0
 10
10.7420615102
 20
9.9688525633
 30
0.0
 10
10.742618028
 20
9.9689299379
 30
0.0
 10
10.7433772474
 20
9.9690146441
 30
0.0
 10
10.7446978696
 20
9.9691714809
 30
0.0
 10
10.7465886614
 20
9.9693910367
 30
0.0
 10
10.7488558187
 20
9.9696564284
 30
0.0
 10
10.7518793214
 20
9.9700096117
 30
0.0
 10
10.7556584845
 20
9.9704513217
 30
0.0
 10
10.7601935739
 20
9.9709812742
 30
0.0
 10
10.7647286329
 20
9.9715112553
 30
0.0
 10
10.7685078723
 20
9.9719528935
 30
0.0
 10
10.7715312223
 20
9.9723062203
 30
0.0
 10
10.773420908
 20
9.9725270155
 30
0.0
 10
10.7749324464
 20
9.9727037292
 30
0.0
 10
10.7760666755
 20
9.9728360522
 30
0.0
 10
10.7770100362
 20
9.9729469967
 30
0.0
 10
10.7776739805
 20
9.9730233325
 30
0.0
 10
10.778047769
 20
9.9730690225
 30
0.0
 10
10.7783439088
 20
9.9730974601
 30
0.0
 10
10.7785796589
 20
9.9731481823
 30
0.0
 10
10.778915057
 20
9.9732080388
 30
0.0
 10
10.7794921893
 20
9.9733164094
 30
0.0
 10
10.780321795
 20
9.973469331
 30
0.0
 10
10.7813151256
 20
9.9736536474
 30
0.0
 10
10.7826403336
 20
9.9738991196
 30
0.0
 10
10.7842965809
 20
9.9742060567
 30
0.0
 10
10.7869467234
 20
9.9746971019
 30
0.0
 10
10.7902593507
 20
9.9753109271
 30
0.0
 10
10.7942345269
 20
9.9760475088
 30
0.0
 10
10.7982096908
 20
9.9767840946
 30
0.0
 10
10.8015223489
 20
9.9773979096
 30
0.0
 10
10.8041724299
 20
9.9778889752
 30
0.0
 10
10.8058288335
 20
9.9781958606
 30
0.0
 10
10.8071537206
 20
9.9784414388
 30
0.0
 10
10.8081480316
 20
9.9786254314
 30
0.0
 10
10.8089745698
 20
9.978779366
 30
0.0
 10
10.8095571782
 20
9.9788859283
 30
0.0
 10
10.8098838021
 20
9.9789486821
 30
0.0
 10
10.8101465038
 20
9.9789905046
 30
0.0
 10
10.810341418
 20
9.9790523682
 30
0.0
 10
10.8106249486
 20
9.9791278624
 30
0.0
 10
10.8111101105
 20
9.9792632344
 30
0.0
 10
10.8118089586
 20
9.9794549201
 30
0.0
 10
10.8126451111
 20
9.9796856717
 30
0.0
 10
10.813760842
 20
9.9799930861
 30
0.0
 10
10.8151552109
 20
9.9803774411
 30
0.0
 10
10.8173863659
 20
9.9809923605
 30
0.0
 10
10.820175253
 20
9.9817610265
 30
0.0
 10
10.8235219419
 20
9.9826834185
 30
0.0
 10
10.8263108439
 20
9.9834520801
 30
0.0
 10
10.8285419662
 20
9.9840670091
 30
0.0
 10
10.8302153089
 20
9.9845282057
 30
0.0
 10
10.8318886477
 20
9.9849894031
 30
0.0
 10
10.8332831088
 20
9.9853737318
 30
0.0
 10
10.8343986505
 20
9.9856812002
 30
0.0
 10
10.835095926
 20
9.9858733556
 30
0.0
 10
10.8356536046
 20
9.9860271082
 30
0.0
 10
10.8360722519
 20
9.9861423452
 30
0.0
 10
10.8364198891
 20
9.9862386223
 30
0.0
 10
10.8366656599
 20
9.986305533
 30
0.0
 10
10.8368023143
 20
9.9863445223
 30
0.0
 10
10.8369154704
 20
9.9863716385
 30
0.0
 10
10.8369878582
 20
9.9864068806
 30
0.0
 10
10.8370985958
 20
9.9864510355
 30
0.0
 10
10.8372857609
 20
9.9865296274
 30
0.0
 10
10.8375566036
 20
9.986641211
 30
0.0
 10
10.8378801321
 20
9.9867754068
 30
0.0
 10
10.8383120214
 20
9.9869542314
 30
0.0
 10
10.8388517056
 20
9.9871777974
 30
0.0
 10
10.8397152995
 20
9.9875354834
 30
0.0
 10
10.8407947579
 20
9.9879825976
 30
0.0
 10
10.8420901225
 20
9.9885191317
 30
0.0
 10
10.8433854832
 20
9.9890556666
 30
0.0
 10
10.8451126321
 20
9.9897710462
 30
0.0
 10
10.8472715678
 20
9.9906652708
 30
0.0
 10
10.8494305039
 20
9.9915594954
 30
0.0
 10
10.8511576523
 20
9.9922748751
 30
0.0
 10
10.8524530147
 20
9.9928114097
 30
0.0
 10
10.8537483729
 20
9.993347945
 30
0.0
 10
10.8548278514
 20
9.9937950556
 30
0.0
 10
10.8556914042
 20
9.9941527489
 30
0.0
 10
10.8562311929
 20
9.9943762964
 30
0.0
 10
10.8566628678
 20
9.994555159
 30
0.0
 10
10.8569870513
 20
9.9946892384
 30
0.0
 10
10.8572558446
 20
9.9948011864
 30
0.0
 10
10.8574466682
 20
9.9948791277
 30
0.0
 10
10.857551544
 20
9.994924325
 30
0.0
 10
10.8576419371
 20
9.9949563655
 30
0.0
 10
10.8576874685
 20
9.994995506
 30
0.0
 10
10.8577638254
 20
9.9950452167
 30
0.0
 10
10.857890159
 20
9.9951333644
 30
0.0
 10
10.8580744474
 20
9.9952586864
 30
0.0
 10
10.8582939619
 20
9.9954093311
 30
0.0
 10
10.8585872178
 20
9.9956101004
 30
0.0
 10
10.8589535925
 20
9.9958610929
 30
0.0
 10
10.8595399011
 20
9.9962626637
 30
0.0
 10
10.8602727494
 20
9.9967646331
 30
0.0
 10
10.8611521834
 20
9.9973669939
 30
0.0
 10
10.8620316132
 20
9.9979693553
 30
0.0
 10
10.8632041877
 20
9.9987725036
 30
0.0
 10
10.8646699052
 20
9.9997764392
 30
0.0
 10
10.8661356231
 20
10.0007803746
 30
0.0
 10
10.867308197
 20
10.001583523
 30
0.0
 10
10.8681876287
 20
10.0021858843
 30
0.0
 10
10.8690670554
 20
10.0027882457
 30
0.0
 10
10.8697999264
 20
10.0032902129
 30
0.0
 10
10.8703861887
 20
10.0036917882
 30
0.0
 10
10.8707526813
 20
10.0039427692
 30
0.0
 10
10.8710456952
 20
10.0041435622
 30
0.0
 10
10.871265949
 20
10.0042941345
 30
0.0
 10
10.8714479242
 20
10.0044196828
 30
0.0
 10
10.8715783873
 20
10.0045074266
 30
0.0
 10
10.8716481278
 20
10.0045577845
 30
0.0
 10
10.8717139825
 20
10.0045949373
 30
0.0
 10
10.8717280448
 20
10.004634443
 30
0.0
 10
10.8717648604
 20
10.0046862965
 30
0.0
 10
10.8718208704
 20
10.0047774225
 30
0.0
 10
10.8719052853
 20
10.0049074026
 30
0.0
 10
10.8720046996
 20
10.0050634642
 30
0.0
 10
10.8721379099
 20
10.0052715166
 30
0.0
 10
10.8723041975
 20
10.0055315923
 30
0.0
 10
10.8725703836
 20
10.0059477076
 30
0.0
 10
10.872903073
 20
10.0064678538
 30
0.0
 10
10.8733023187
 20
10.0070920284
 30
0.0
 10
10.8737015596
 20
10.0077162031
 30
0.0
 10
10.8742338824
 20
10.0085484361
 30
0.0
 10
10.8748992853
 20
10.0095887273
 30
0.0
 10
10.8755646887
 20
10.0106290185
 30
0.0
 10
10.8760970108
 20
10.0114612515
 30
0.0
 10
10.8764962537
 20
10.0120854262
 30
0.0
 10
10.8768954917
 20
10.012709601
 30
0.0
 10
10.8772282054
 20
10.0132297464
 30
0.0
 10
10.877494342
 20
10.0136458634
 30
0.0
 10
10.8776607554
 20
10.0139059351
 30
0.0
 10
10.8777937075
 20
10.0141139955
 30
0.0
 10
10.8778939107
 20
10.0142700325
 30
0.0
 10
10.8779758573
 20
10.01440009
 30
0.0
 10
10.8780362736
 20
10.0144910778
 30
0.0
 10
10.8780660292
 20
10.0145431528
 30
0.0
 10
10.8781017776
 20
10.0145819781
 30
0.0
 10
10.8780861829
 20
10.014621686
 30
0.0
 10
10.8780832989
 20
10.0146743221
 30
0.0
 10
10.8780699079
 20
10.0147665787
 30
0.0
 10
10.8780551403
 20
10.0148982988
 30
0.0
 10
10.8780355519
 20
10.015056395
 30
0.0
 10
10.8780100863
 20
10.0152671788
 30
0.0
 10
10.8779780309
 20
10.0155306623
 30
0.0
 10
10.8779268671
 20
10.0159522339
 30
0.0
 10
10.8778628695
 20
10.016479199
 30
0.0
 10
10.8777860907
 20
10.0171115568
 30
0.0
 10
10.8777093071
 20
10.0177439148
 30
0.0
 10
10.8776069306
 20
10.0185870586
 30
0.0
 10
10.8774789594
 20
10.0196409885
 30
0.0
 10
10.8773509885
 20
10.0206949184
 30
0.0
 10
10.8772486114
 20
10.0215380622
 30
0.0
 10
10.8771718298
 20
10.0221704202
 30
0.0
 10
10.8770950433
 20
10.022802778
 30
0.0
 10
10.8770310698
 20
10.0233297433
 30
0.0
 10
10.8769798569
 20
10.0237513144
 30
0.0
 10
10.8769479264
 20
10.024014799
 30
0.0
 10
10.8769222044
 20
10.0242255807
 30
0.0
 10
10.8769033991
 20
10.0243836833
 30
0.0
 10
10.8768861815
 20
10.0245153834
 30
0.0
 10
10.8768771641
 20
10.0246076756
 30
0.0
 10
10.8768672725
 20
10.0246602547
 30
0.0
 10
10.8768732031
 20
10.0247001377
 30
0.0
 10
10.8768281059
 20
10.0247383054
 30
0.0
 10
10.8767857754
 20
10.0247897941
 30
0.0
 10
10.8767034042
 20
10.0248796205
 30
0.0
 10
10.8765900665
 20
10.0250080896
 30
0.0
 10
10.8764522056
 20
10.0251621902
 30
0.0
 10
10.8762690392
 20
10.0253676794
 30
0.0
 10
10.8760398592
 20
10.0256245335
 30
0.0
 10
10.8756732954
 20
10.0260355041
 30
0.0
 10
10.875215048
 20
10.026549216
 30
0.0
 10
10.8746651693
 20
10.027165671
 30
0.0
 10
10.8741152858
 20
10.0277821257
 30
0.0
 10
10.8733821095
 20
10.0286040654
 30
0.0
 10
10.8724656385
 20
10.02963149
 30
0.0
 10
10.8715491679
 20
10.0306589147
 30
0.0
 10
10.8708159909
 20
10.0314808544
 30
0.0
 10
10.8702661094
 20
10.0320973092
 30
0.0
 10
10.8697162231
 20
10.0327137637
 30
0.0
 10
10.8692579997
 20
10.0332274768
 30
0.0
 10
10.8688913869
 20
10.0336384451
 30
0.0
 10
10.8686623315
 20
10.0338953052
 30
0.0
 10
10.8684789094
 20
10.0341007821
 30
0.0
 10
10.8683418298
 20
10.0342549202
 30
0.0
 10
10.8682260475
 20
10.0343832719
 30
0.0
 10
10.8681480403
 20
10.0344733079
 30
0.0
 10
10.8680987175
 20
10.0345244607
 30
0.0
 10
10.8680750986
 20
10.0345636599
 30
0.0
 10
10.8680003603
 20
10.0345996692
 30
0.0
 10
10.8679185403
 20
10.0346487943
 30
0.0
 10
10.8677670476
 20
10.0347342448
 30
0.0
 10
10.8675549727
 20
10.0348565879
 30
0.0
 10
10.8672986238
 20
10.0350032836
 30
0.0
 10
10.8669574746
 20
10.0351989185
 30
0.0
 10
10.8665308157
 20
10.0354434482
 30
0.0
 10
10.8658482858
 20
10.0358347034
 30
0.0
 10
10.8649950807
 20
10.0363237699
 30
0.0
 10
10.863971253
 20
10.0369106507
 30
0.0
 10
10.8629474203
 20
10.0374975312
 30
0.0
 10
10.8615823118
 20
10.0382800387
 30
0.0
 10
10.8598759255
 20
10.039258173
 30
0.0
 10
10.8581695397
 20
10.0402363074
 30
0.0
 10
10.8568044305
 20
10.0410188148
 30
0.0
 10
10.8557805998
 20
10.0416056955
 30
0.0
 10
10.8547567649
 20
10.0421925755
 30
0.0
 10
10.853903582
 20
10.0426816446
 30
0.0
 10
10.8532210069
 20
10.0430728945
 30
0.0
 10
10.8527944629
 20
10.0433174377
 30
0.0
 10
10.8524530779
 20
10.0435130449
 30
0.0
 10
10.8521974493
 20
10.0436598249
 30
0.0
 10
10.8519831208
 20
10.0437819046
 30
0.0
 10
10.8518356513
 20
10.0438678253
 30
0.0
 10
10.851747385
 20
10.043916197
 30
0.0
 10
10.8516924477
 20
10.0439545203
 30
0.0
 10
10.8515944598
 20
10.0439850286
 30
0.0
 10
10.8514788258
 20
10.0440284323
 30
0.0
 10
10.8512694698
 20
10.0441031186
 30
0.0
 10
10.8509740476
 20
10.0442104774
 30
0.0
 10
10.8506179753
 20
10.0443390237
 30
0.0
 10
10.8501437592
 20
10.0445105181
 30
0.0
 10
10.8495508017
 20
10.0447248521
 30
0.0
 10
10.8486021744
 20
10.0450678055
 30
0.0
 10
10.8474163544
 20
10.0454964907
 30
0.0
 10
10.8459933858
 20
10.0460109158
 30
0.0
 10
10.8445704131
 20
10.0465253401
 30
0.0
 10
10.8426731176
 20
10.0472112394
 30
0.0
 10
10.8403014978
 20
10.0480686135
 30
0.0
 10
10.8379298777
 20
10.0489259875
 30
0.0
 10
10.8360325826
 20
10.049611887
 30
0.0
 10
10.8346096086
 20
10.0501263109
 30
0.0
 10
10.833186645
 20
10.0506407373
 30
0.0
 10
10.8320008094
 20
10.0510694185
 30
0.0
 10
10.8310522139
 20
10.05141238
 30
0.0
 10
10.8304591757
 20
10.0516266933
 30
0.0
 10
10.8299851252
 20
10.0517982301
 30
0.0
 10
10.8296285466
 20
10.0519266469
 30
0.0
 10
10.8293347087
 20
10.0520344111
 30
0.0
 10
10.8290922126
 20
10.0521189399
 30
0.0
 10
10.8289306312
 20
10.0521869339
 30
0.0
 10
10.8286916
 20
10.0522373795
 30
0.0
 10
10.828399946
 20
10.0523107701
 30
0.0
 10
10.8280260963
 20
10.0524004053
 30
0.0
 10
10.8275814497
 20
10.0525088678
 30
0.0
 10
10.8269871999
 20
10.0526531699
 30
0.0
 10
10.8262448627
 20
10.0528336553
 30
0.0
 10
10.8250568578
 20
10.0531223717
 30
0.0
 10
10.8235719427
 20
10.0534832878
 30
0.0
 10
10.8217900056
 20
10.0539163783
 30
0.0
 10
10.8200080789
 20
10.0543494712
 30
0.0
 10
10.8176321729
 20
10.0549269275
 30
0.0
 10
10.8146622929
 20
10.0556487486
 30
0.0
 10
10.8110984302
 20
10.0565149318
 30
0.0
 10
10.8081285636
 20
10.0572367574
 30
0.0
 10
10.8057526283
 20
10.0578142038
 30
0.0
 10
10.8042677641
 20
10.0581751398
 30
0.0
 10
10.8030796543
 20
10.0584638153
 30
0.0
 10
10.8021891702
 20
10.0586805229
 30
0.0
 10
10.8014451971
 20
10.058860473
 30
0.0
 10
10.8009281505
 20
10.0589876932
 30
0.0
 10
10.800626864
 20
10.0590584307
 30
0.0
 10
10.800417326
 20
10.0591170046
 30
0.0
 10
10.8001449963
 20
10.0591544752
 30
0.0
 10
10.7998037925
 20
10.0592117971
 30
0.0
 10
10.7991964811
 20
10.0593086809
 30
0.0
 10
10.7983342285
 20
10.0594488792
 30
0.0
 10
10.7972972418
 20
10.0596163498
 30
0.0
 10
10.7959153905
 20
10.0598399119
 30
0.0
 10
10.7941878032
 20
10.0601192728
 30
0.0
 10
10.7914238163
 20
10.0605663015
 30
0.0
 10
10.7879687799
 20
10.0611250697
 30
0.0
 10
10.7838227602
 20
10.0617955997
 30
0.0
 10
10.7796767292
 20
10.0624661254
 30
0.0
 10
10.776221721
 20
10.0630249043
 30
0.0
 10
10.7734576776
 20
10.0634719117
 30
0.0
 10
10.7717302339
 20
10.0637513267
 30
0.0
 10
10.770348088
 20
10.0639747778
 30
0.0
 10
10.7693120013
 20
10.0641425875
 30
0.0
 10
10.7684469329
 20
10.064281725
 30
0.0
 10
10.7678446482
 20
10.0643805025
 30
0.0
 10
10.7674953903
 20
10.0644347901
 30
0.0
 10
10.7672478
 20
10.064481581
 30
0.0
 10
10.7669453452
 20
10.0645051498
 30
0.0
 10
10.7665612095
 20
10.064544675
 30
0.0
 10
10.7658800556
 20
10.0646100701
 30
0.0
 10
10.7649116402
 20
10.0647054647
 30
0.0
 10
10.7637475464
 20
10.0648190937
 30
0.0
 10
10.7621961182
 20
10.064970894
 30
0.0
 10
10.7602565944
 20
10.0651605435
 30
0.0
 10
10.7571534897
 20
10.065464039
 30
0.0
 10
10.753274563
 20
10.065843389
 30
0.0
 10
10.7486198706
 20
10.0662986173
 30
0.0
 10
10.7439651729
 20
10.0667538434
 30
0.0
 10
10.7377589112
 20
10.0673608123
 30
0.0
 10
10.7331042145
 20
10.0678160388
 30
0.0
 10
10.7300010834
 20
10.0681195232
 30
0.0
  0
SPLINE
  5
40F
100
AcDbEntity
  8
0
100
AcDbSpline
 62
4
  6
CONTINUOUS
 70
0
 71
3
 72
346
 73
342
 74
0
 42
0.0000001
 43
0.0000001
 44
0.0000000001
 40
0.0
 40
0.0
 40
0.0
 40
0.0
 40
0.015625
 40
0.03125
 40
0.0390625
 40
0.046875
 40
0.05078125
 40
0.0546875
 40
0.05859375
 40
0.060546875
 40
0.0615234375
 40
0.0625
 40
0.0634765625
 40
0.064453125
 40
0.06640625
 40
0.0703125
 40
0.07421875
 40
0.078125
 40
0.0859375
 40
0.09375
 40
0.1015625
 40
0.109375
 40
0.11328125
 40
0.1171875
 40
0.12109375
 40
0.123046875
 40
0.1240234375
 40
0.125
 40
0.1259765625
 40
0.126953125
 40
0.12890625
 40
0.1328125
 40
0.13671875
 40
0.140625
 40
0.1484375
 40
0.15625
 40
0.1640625
 40
0.171875
 40
0.17578125
 40
0.1796875
 40
0.18359375
 40
0.185546875
 40
0.1865234375
 40
0.1875
 40
0.1884765625
 40
0.189453125
 40
0.19140625
 40
0.1953125
 40
0.19921875
 40
0.203125
 40
0.2109375
 40
0.21875
 40
0.2265625
 40
0.234375
 40
0.23828125
 40
0.2421875
 40
0.244140625
 40
0.24609375
 40
0.248046875
 40
0.2490234375
 40
0.2495117188
 40
0.25
 40
0.2504882812
 40
0.2509765625
 40
0.251953125
 40
0.25390625
 40
0.255859375
 40
0.2578125
 40
0.26171875
 40
0.265625
 40
0.2734375
 40
0.28125
 40
0.2890625
 40
0.296875
 40
0.30078125
 40
0.3046875
 40
0.306640625
 40
0.30859375
 40
0.310546875
 40
0.3115234375
 40
0.3120117188
 40
0.3125
 40
0.3129882812
 40
0.3134765625
 40
0.314453125
 40
0.31640625
 40
0.318359375
 40
0.3203125
 40
0.32421875
 40
0.328125
 40
0.3359375
 40
0.34375
 40
0.3515625
 40
0.35546875
 40
0.359375
 40
0.36328125
 40
0.3671875
 40
0.369140625
 40
0.37109375
 40
0.3720703125
 40
0.373046875
 40
0.3740234375
 40
0.3745117188
 40
0.3747558594
 40
0.375
 40
0.3752441406
 40
0.3754882812
 40
0.3759765625
 40
0.376953125
 40
0.3779296875
 40
0.37890625
 40
0.380859375
 40
0.3828125
 40
0.38671875
 40
0.390625
 40
0.39453125
 40
0.3984375
 40
0.40625
 40
0.4140625
 40
0.41796875
 40
0.421875
 40
0.42578125
 40
0.4296875
 40
0.431640625
 40
0.43359375
 40
0.4345703125
 40
0.435546875
 40
0.4365234375
 40
0.4370117188
 40
0.4372558594
 40
0.4375
 40
0.4377441406
 40
0.4379882812
 40
0.4384765625
 40
0.439453125
 40
0.4404296875
 40
0.44140625
 40
0.443359375
 40
0.4453125
 40
0.44921875
 40
0.453125
 40
0.45703125
 40
0.4609375
 40
0.46875
 40
0.4765625
 40
0.48046875
 40
0.484375
 40
0.48828125
 40
0.4921875
 40
0.494140625
 40
0.49609375
 40
0.4970703125
 40
0.498046875
 40
0.4990234375
 40
0.4995117188
 40
0.4997558594
 40
0.5
 40
0.5002441406
 40
0.5004882812
 40
0.5009765625
 40
0.501953125
 40
0.5029296875
 40
0.50390625
 40
0.505859375
 40
0.5078125
 40
0.51171875
 40
0.515625
 40
0.51953125
 40
0.5234375
 40
0.53125
 40
0.5390625
 40
0.54296875
 40
0.546875
 40
0.55078125
 40
0.5546875
 40
0.556640625
 40
0.55859375
 40
0.5595703125
 40
0.560546875
 40
0.5615234375
 40
0.5620117188
 40
0.5622558594
 40
0.5625
 40
0.5627441406
 40
0.5629882812
 40
0.5634765625
 40
0.564453125
 40
0.5654296875
 40
0.56640625
 40
0.568359375
 40
0.5703125
 40
0.57421875
 40
0.578125
 40
0.58203125
 40
0.5859375
 40
0.59375
 40
0.6015625
 40
0.60546875
 40
0.609375
 40
0.61328125
 40
0.6171875
 40
0.619140625
 40
0.62109375
 40
0.6220703125
 40
0.623046875
 40
0.6240234375
 40
0.6245117188
 40
0.6247558594
 40
0.625
 40
0.6252441406
 40
0.6254882812
 40
0.6259765625
 40
0.626953125
 40
0.6279296875
 40
0.62890625
 40
0.630859375
 40
0.6328125
 40
0.63671875
 40
0.640625
 40
0.64453125
 40
0.6484375
 40
0.65625
 40
0.6640625
 40
0.66796875
 40
0.671875
 40
0.67578125
 40
0.6796875
 40
0.681640625
 40
0.68359375
 40
0.6845703125
 40
0.685546875
 40
0.6865234375
 40
0.6870117188
 40
0.6872558594
 40
0.6875
 40
0.6877441406
 40
0.6879882812
 40
0.6884765625
 40
0.689453125
 40
0.6904296875
 40
0.69140625
 40
0.693359375
 40
0.6953125
 40
0.69921875
 40
0.703125
 40
0.70703125
 40
0.7109375
 40
0.71875
 40
0.7265625
 40
0.73046875
 40
0.734375
 40
0.73828125
 40
0.7421875
 40
0.744140625
 40
0.74609375
 40
0.7470703125
 40
0.748046875
 40
0.7490234375
 40
0.7495117188
 40
0.7497558594
 40
0.75
 40
0.7502441406
 40
0.7504882812
 40
0.7509765625
 40
0.751953125
 40
0.7529296875
 40
0.75390625
 40
0.755859375
 40
0.7578125
 40
0.76171875
 40
0.765625
 40
0.76953125
 40
0.7734375
 40
0.78125
 40
0.7890625
 40
0.79296875
 40
0.796875
 40
0.80078125
 40
0.8046875
 40
0.806640625
 40
0.80859375
 40
0.8095703125
 40
0.810546875
 40
0.8115234375
 40
0.8120117188
 40
0.8125
 40
0.8129882812
 40
0.8134765625
 40
0.814453125
 40
0.8154296875
 40
0.81640625
 40
0.818359375
 40
0.8203125
 40
0.82421875
 40
0.828125
 40
0.83203125
 40
0.8359375
 40
0.84375
 40
0.8515625
 40
0.859375
 40
0.86328125
 40
0.8671875
 40
0.869140625
 40
0.87109375
 40
0.873046875
 40
0.8740234375
 40
0.8745117188
 40
0.875
 40
0.8754882812
 40
0.8759765625
 40
0.876953125
 40
0.87890625
 40
0.880859375
 40
0.8828125
 40
0.88671875
 40
0.890625
 40
0.8984375
 40
0.90625
 40
0.9140625
 40
0.921875
 40
0.92578125
 40
0.9296875
 40
0.931640625
 40
0.93359375
 40
0.935546875
 40
0.9365234375
 40
0.9370117188
 40
0.9375
 40
0.9379882812
 40
0.9384765625
 40
0.939453125
 40
0.94140625
 40
0.943359375
 40
0.9453125
 40
0.94921875
 40
0.953125
 40
0.9609375
 40
0.96875
 40
0.9765625
 40
0.984375
 40
1.0
 40
1.0
 40
1.0
 40
1.0
 10
10.7300011004
 20
10.068119522
 30
0.0
 10
10.7267855964
 20
10.0682572971
 30
0.0
 10
10.7203545876
 20
10.0685328439
 30
0.0
 10
10.712315831
 20
10.0688772944
 30
0.0
 10
10.7058848165
 20
10.069152819
 30
0.0
 10
10.7018654532
 20
10.0693251027
 30
0.0
 10
10.6986499151
 20
10.0694627447
 30
0.0
 10
10.6962383914
 20
10.0695664826
 30
0.0
 10
10.694228375
 20
10.06965132
 30
0.0
 10
10.6928221748
 20
10.0697138675
 30
0.0
 10
10.6920173651
 20
10.0697446727
 30
0.0
 10
10.6914173263
 20
10.0697816821
 30
0.0
 10
10.6908036467
 20
10.0697655373
 30
0.0
 10
10.6899901654
 20
10.0697625516
 30
0.0
 10
10.6885643561
 20
10.0697486882
 30
0.0
 10
10.6865286447
 20
10.0697333997
 30
0.0
 10
10.684085295
 20
10.0697131203
 30
0.0
 10
10.6808276686
 20
10.0696867566
 30
0.0
 10
10.6767555769
 20
10.0696535686
 30
0.0
 10
10.6718690887
 20
10.0696138496
 30
0.0
 10
10.666982607
 20
10.0695740775
 30
0.0
 10
10.6629104991
 20
10.0695410225
 30
0.0
 10
10.659652905
 20
10.0695143929
 30
0.0
 10
10.6572094568
 20
10.0694949243
 30
0.0
 10
10.6551740535
 20
10.0694770993
 30
0.0
 10
10.6537476944
 20
10.0694677638
 30
0.0
 10
10.652935094
 20
10.0694575233
 30
0.0
 10
10.6523187085
 20
10.0694636631
 30
0.0
 10
10.6517288325
 20
10.0694169751
 30
0.0
 10
10.6509330844
 20
10.0693731514
 30
0.0
 10
10.6495448335
 20
10.0692878744
 30
0.0
 10
10.6475593654
 20
10.0691705388
 30
0.0
 10
10.6451777679
 20
10.0690278147
 30
0.0
 10
10.6420019676
 20
10.0688381873
 30
0.0
 10
10.6380323342
 20
10.0686009211
 30
0.0
 10
10.6332687178
 20
10.0683163078
 30
0.0
 10
10.6285051395
 20
10.0680316413
 30
0.0
 10
10.624535411
 20
10.0677945078
 30
0.0
 10
10.6213598008
 20
10.0676046151
 30
0.0
 10
10.6189776234
 20
10.0674627001
 30
0.0
 10
10.6169939696
 20
10.0673428335
 30
0.0
 10
10.6156024799
 20
10.0672620746
 30
0.0
 10
10.6148119211
 20
10.0672110119
 30
0.0
 10
10.6142061052
 20
10.0671865598
 30
0.0
 10
10.6136495874
 20
10.0671091852
 30
0.0
 10
10.612890368
 20
10.0670244789
 30
0.0
 10
10.6115697458
 20
10.0668676422
 30
0.0
 10
10.609678954
 20
10.0666480864
 30
0.0
 10
10.6074117967
 20
10.0663826946
 30
0.0
 10
10.604388294
 20
10.0660295113
 30
0.0
 10
10.6006091309
 20
10.0655878014
 30
0.0
 10
10.5960740415
 20
10.0650578489
 30
0.0
 10
10.5915389825
 20
10.0645278678
 30
0.0
 10
10.5877597431
 20
10.0640862295
 30
0.0
 10
10.5847363931
 20
10.0637329028
 30
0.0
 10
10.5828467074
 20
10.0635121076
 30
0.0
 10
10.581335169
 20
10.0633353939
 30
0.0
 10
10.5802009399
 20
10.0632030709
 30
0.0
 10
10.5792575792
 20
10.0630921263
 30
0.0
 10
10.5785936349
 20
10.0630157906
 30
0.0
 10
10.5782198464
 20
10.0629701006
 30
0.0
 10
10.5779237066
 20
10.062941663
 30
0.0
 10
10.5776879565
 20
10.0628909408
 30
0.0
 10
10.5773525584
 20
10.0628310842
 30
0.0
 10
10.5767754261
 20
10.0627227137
 30
0.0
 10
10.5759458204
 20
10.062569792
 30
0.0
 10
10.5749524897
 20
10.0623854756
 30
0.0
 10
10.5736272818
 20
10.0621400035
 30
0.0
 10
10.5719710345
 20
10.0618330664
 30
0.0
 10
10.569320892
 20
10.0613420212
 30
0.0
 10
10.5660082647
 20
10.060728196
 30
0.0
 10
10.5620330885
 20
10.0599916143
 30
0.0
 10
10.5580579246
 20
10.0592550285
 30
0.0
 10
10.5547452665
 20
10.0586412134
 30
0.0
 10
10.5520951855
 20
10.0581501479
 30
0.0
 10
10.5504387818
 20
10.0578432624
 30
0.0
 10
10.5491138948
 20
10.0575976843
 30
0.0
 10
10.5481195837
 20
10.0574136917
 30
0.0
 10
10.5472930456
 20
10.0572597571
 30
0.0
 10
10.5467104371
 20
10.0571531948
 30
0.0
 10
10.5463838133
 20
10.0570904409
 30
0.0
 10
10.5461211116
 20
10.0570486185
 30
0.0
 10
10.5459261974
 20
10.0569867549
 30
0.0
 10
10.5456426668
 20
10.0569112606
 30
0.0
 10
10.5451575048
 20
10.0567758887
 30
0.0
 10
10.5444586567
 20
10.056584203
 30
0.0
 10
10.5436225043
 20
10.0563534513
 30
0.0
 10
10.5425067734
 20
10.056046037
 30
0.0
 10
10.5411124045
 20
10.0556616819
 30
0.0
 10
10.5388812495
 20
10.0550467625
 30
0.0
 10
10.5360923623
 20
10.0542780966
 30
0.0
 10
10.5327456735
 20
10.0533557046
 30
0.0
 10
10.5299567715
 20
10.052587043
 30
0.0
 10
10.5277256491
 20
10.051972114
 30
0.0
 10
10.5260523065
 20
10.0515109174
 30
0.0
 10
10.5243789677
 20
10.05104972
 30
0.0
 10
10.5229845066
 20
10.0506653913
 30
0.0
 10
10.5218689649
 20
10.0503579229
 30
0.0
 10
10.5211716894
 20
10.0501657675
 30
0.0
 10
10.5206140108
 20
10.0500120149
 30
0.0
 10
10.5201953635
 20
10.0498967779
 30
0.0
 10
10.5198477263
 20
10.0498005007
 30
0.0
 10
10.5196019555
 20
10.04973359
 30
0.0
 10
10.5194653011
 20
10.0496946007
 30
0.0
 10
10.519352145
 20
10.0496674845
 30
0.0
 10
10.5192797571
 20
10.0496322425
 30
0.0
 10
10.5191690196
 20
10.0495880875
 30
0.0
 10
10.5189818545
 20
10.0495094957
 30
0.0
 10
10.5187110118
 20
10.0493979121
 30
0.0
 10
10.5183874833
 20
10.0492637163
 30
0.0
 10
10.517955594
 20
10.0490848917
 30
0.0
 10
10.5174159098
 20
10.0488613256
 30
0.0
 10
10.5165523159
 20
10.0485036397
 30
0.0
 10
10.5154728575
 20
10.0480565255
 30
0.0
 10
10.5141774929
 20
10.0475199914
 30
0.0
 10
10.5128821322
 20
10.0469834565
 30
0.0
 10
10.5111549832
 20
10.0462680768
 30
0.0
 10
10.5089960475
 20
10.0453738522
 30
0.0
 10
10.5068371115
 20
10.0444796277
 30
0.0
 10
10.5051099631
 20
10.043764248
 30
0.0
 10
10.5038146006
 20
10.0432277133
 30
0.0
 10
10.5025192425
 20
10.0426911781
 30
0.0
 10
10.501439764
 20
10.0422440674
 30
0.0
 10
10.5005762112
 20
10.0418863742
 30
0.0
 10
10.5000364225
 20
10.0416628267
 30
0.0
 10
10.4996047476
 20
10.041483964
 30
0.0
 10
10.4992805641
 20
10.0413498846
 30
0.0
 10
10.4990117708
 20
10.0412379367
 30
0.0
 10
10.4988209472
 20
10.0411599953
 30
0.0
 10
10.4987160714
 20
10.0411147981
 30
0.0
 10
10.4986256783
 20
10.0410827576
 30
0.0
 10
10.4985801469
 20
10.0410436171
 30
0.0
 10
10.49850379
 20
10.0409939063
 30
0.0
 10
10.4983774564
 20
10.0409057586
 30
0.0
 10
10.498193168
 20
10.0407804366
 30
0.0
 10
10.4979736535
 20
10.040629792
 30
0.0
 10
10.4976803976
 20
10.0404290227
 30
0.0
 10
10.4973140229
 20
10.0401780301
 30
0.0
 10
10.4967277143
 20
10.0397764594
 30
0.0
 10
10.495994866
 20
10.0392744899
 30
0.0
 10
10.495115432
 20
10.0386721292
 30
0.0
 10
10.4942360022
 20
10.0380697678
 30
0.0
 10
10.4930634277
 20
10.0372666194
 30
0.0
 10
10.4915977102
 20
10.0362626839
 30
0.0
 10
10.4901319922
 20
10.0352587485
 30
0.0
 10
10.4889594184
 20
10.0344556001
 30
0.0
 10
10.4880799867
 20
10.0338532388
 30
0.0
 10
10.48720056
 20
10.0332508773
 30
0.0
 10
10.4864676889
 20
10.0327489102
 30
0.0
 10
10.4858814267
 20
10.0323473348
 30
0.0
 10
10.4855149341
 20
10.0320963538
 30
0.0
 10
10.4852219202
 20
10.0318955609
 30
0.0
 10
10.4850016663
 20
10.0317449885
 30
0.0
 10
10.4848196911
 20
10.0316194403
 30
0.0
 10
10.4846892281
 20
10.0315316964
 30
0.0
 10
10.4846194876
 20
10.0314813386
 30
0.0
 10
10.4845536329
 20
10.0314441857
 30
0.0
 10
10.4845395706
 20
10.0314046801
 30
0.0
 10
10.484502755
 20
10.0313528266
 30
0.0
 10
10.484446745
 20
10.0312617006
 30
0.0
 10
10.4843623301
 20
10.0311317205
 30
0.0
 10
10.4842629158
 20
10.0309756588
 30
0.0
 10
10.4841297055
 20
10.0307676065
 30
0.0
 10
10.4839634179
 20
10.0305075308
 30
0.0
 10
10.4836972318
 20
10.0300914154
 30
0.0
 10
10.4833645424
 20
10.0295712693
 30
0.0
 10
10.4829652966
 20
10.0289470947
 30
0.0
 10
10.4825660558
 20
10.0283229199
 30
0.0
 10
10.482033733
 20
10.027490687
 30
0.0
 10
10.4813683301
 20
10.0264503957
 30
0.0
 10
10.4807029267
 20
10.0254101045
 30
0.0
 10
10.4801706046
 20
10.0245778715
 30
0.0
 10
10.4797713617
 20
10.0239536968
 30
0.0
 10
10.4793721237
 20
10.023329522
 30
0.0
 10
10.47903941
 20
10.0228093766
 30
0.0
 10
10.4787732734
 20
10.0223932597
 30
0.0
 10
10.47860686
 20
10.022133188
 30
0.0
 10
10.4784739079
 20
10.0219251275
 30
0.0
 10
10.4783737047
 20
10.0217690906
 30
0.0
 10
10.4782917581
 20
10.0216390331
 30
0.0
 10
10.4782313417
 20
10.0215480453
 30
0.0
 10
10.4782015862
 20
10.0214959703
 30
0.0
 10
10.4781658378
 20
10.021457145
 30
0.0
 10
10.4781814325
 20
10.021417437
 30
0.0
 10
10.4781843164
 20
10.021364801
 30
0.0
 10
10.4781977075
 20
10.0212725444
 30
0.0
 10
10.4782124751
 20
10.0211408243
 30
0.0
 10
10.4782320635
 20
10.020982728
 30
0.0
 10
10.4782575291
 20
10.0207719443
 30
0.0
 10
10.4782895845
 20
10.0205084607
 30
0.0
 10
10.4783407483
 20
10.0200868892
 30
0.0
 10
10.4784047459
 20
10.0195599241
 30
0.0
 10
10.4784815246
 20
10.0189275662
 30
0.0
 10
10.4785583083
 20
10.0182952083
 30
0.0
 10
10.4786606848
 20
10.0174520644
 30
0.0
 10
10.478788656
 20
10.0163981346
 30
0.0
 10
10.4789166268
 20
10.0153442047
 30
0.0
 10
10.479019004
 20
10.0145010608
 30
0.0
 10
10.4790957856
 20
10.0138687029
 30
0.0
 10
10.4791725721
 20
10.0132363451
 30
0.0
 10
10.4792365456
 20
10.0127093798
 30
0.0
 10
10.4792877585
 20
10.0122878087
 30
0.0
 10
10.479319689
 20
10.0120243241
 30
0.0
 10
10.479345411
 20
10.0118135424
 30
0.0
 10
10.4793642163
 20
10.0116554398
 30
0.0
 10
10.4793814339
 20
10.0115237396
 30
0.0
 10
10.4793904513
 20
10.0114314475
 30
0.0
 10
10.4794003429
 20
10.0113788684
 30
0.0
 10
10.4793944123
 20
10.0113389854
 30
0.0
 10
10.4794395094
 20
10.0113008176
 30
0.0
 10
10.4794818399
 20
10.011249329
 30
0.0
 10
10.4795642112
 20
10.0111595026
 30
0.0
 10
10.4796775488
 20
10.0110310335
 30
0.0
 10
10.4798154098
 20
10.0108769329
 30
0.0
 10
10.4799985762
 20
10.0106714437
 30
0.0
 10
10.4802277561
 20
10.0104145896
 30
0.0
 10
10.48059432
 20
10.0100036189
 30
0.0
 10
10.4810525674
 20
10.009489907
 30
0.0
 10
10.481602446
 20
10.0088734521
 30
0.0
 10
10.4821523296
 20
10.0082569974
 30
0.0
 10
10.4828855059
 20
10.0074350577
 30
0.0
 10
10.4838019769
 20
10.006407633
 30
0.0
 10
10.4847184475
 20
10.0053802084
 30
0.0
 10
10.4854516245
 20
10.0045582687
 30
0.0
 10
10.4860015059
 20
10.0039418139
 30
0.0
 10
10.4865513923
 20
10.0033253593
 30
0.0
 10
10.4870096157
 20
10.0028116463
 30
0.0
 10
10.4873762285
 20
10.002400678
 30
0.0
 10
10.4876052839
 20
10.0021438179
 30
0.0
 10
10.487788706
 20
10.001938341
 30
0.0
 10
10.4879257856
 20
10.0017842029
 30
0.0
 10
10.4880415679
 20
10.0016558511
 30
0.0
 10
10.4881195751
 20
10.0015658152
 30
0.0
 10
10.4881688979
 20
10.0015146623
 30
0.0
 10
10.4881925168
 20
10.0014754632
 30
0.0
 10
10.4882672551
 20
10.0014394539
 30
0.0
 10
10.488349075
 20
10.0013903288
 30
0.0
 10
10.4885005678
 20
10.0013048783
 30
0.0
 10
10.4887126427
 20
10.0011825352
 30
0.0
 10
10.4889689916
 20
10.0010358394
 30
0.0
 10
10.4893101408
 20
10.0008402046
 30
0.0
 10
10.4897367997
 20
10.0005956749
 30
0.0
 10
10.4904193296
 20
10.0002044196
 30
0.0
 10
10.4912725346
 20
9.9997153532
 30
0.0
 10
10.4922963624
 20
9.9991284724
 30
0.0
 10
10.4933201951
 20
9.9985415918
 30
0.0
 10
10.4946853036
 20
9.9977590844
 30
0.0
 10
10.4963916898
 20
9.9967809501
 30
0.0
 10
10.4980980757
 20
9.9958028157
 30
0.0
 10
10.4994631848
 20
9.9950203083
 30
0.0
 10
10.5004870156
 20
9.9944334275
 30
0.0
 10
10.5015108505
 20
9.9938465475
 30
0.0
 10
10.5023640334
 20
9.9933574785
 30
0.0
 10
10.5030466084
 20
9.9929662285
 30
0.0
 10
10.5034731524
 20
9.9927216854
 30
0.0
 10
10.5038145374
 20
9.9925260781
 30
0.0
 10
10.504070166
 20
9.9923792982
 30
0.0
 10
10.5042844946
 20
9.9922572184
 30
0.0
 10
10.5044319641
 20
9.9921712978
 30
0.0
 10
10.5045202304
 20
9.992122926
 30
0.0
 10
10.5045751677
 20
9.9920846028
 30
0.0
 10
10.5046731556
 20
9.9920540945
 30
0.0
 10
10.5047887896
 20
9.9920106908
 30
0.0
 10
10.5049981456
 20
9.9919360045
 30
0.0
 10
10.5052935678
 20
9.9918286457
 30
0.0
 10
10.5056496401
 20
9.9917000993
 30
0.0
 10
10.5061238562
 20
9.9915286049
 30
0.0
 10
10.5067168137
 20
9.991314271
 30
0.0
 10
10.5076654409
 20
9.9909713176
 30
0.0
 10
10.5088512609
 20
9.9905426324
 30
0.0
 10
10.5102742295
 20
9.9900282073
 30
0.0
 10
10.5116972023
 20
9.989513783
 30
0.0
 10
10.5135944978
 20
9.9888278837
 30
0.0
 10
10.5159661176
 20
9.9879705096
 30
0.0
 10
10.5183377377
 20
9.9871131355
 30
0.0
 10
10.5202350328
 20
9.9864272361
 30
0.0
 10
10.5216580068
 20
9.9859128121
 30
0.0
 10
10.5230809704
 20
9.9853983858
 30
0.0
 10
10.524266806
 20
9.9849697046
 30
0.0
 10
10.5252154015
 20
9.9846267431
 30
0.0
 10
10.5258084397
 20
9.9844124297
 30
0.0
 10
10.5262824902
 20
9.9842408929
 30
0.0
 10
10.5266390688
 20
9.9841124762
 30
0.0
 10
10.5269329067
 20
9.984004712
 30
0.0
 10
10.5271754028
 20
9.9839201832
 30
0.0
 10
10.5273369842
 20
9.9838521892
 30
0.0
 10
10.5275760154
 20
9.9838017436
 30
0.0
 10
10.5278676694
 20
9.9837283529
 30
0.0
 10
10.5282415191
 20
9.9836387177
 30
0.0
 10
10.5286861657
 20
9.9835302553
 30
0.0
 10
10.5292804155
 20
9.9833859532
 30
0.0
 10
10.5300227526
 20
9.9832054678
 30
0.0
 10
10.5312107576
 20
9.9829167514
 30
0.0
 10
10.5326956727
 20
9.9825558353
 30
0.0
 10
10.5344776098
 20
9.9821227448
 30
0.0
 10
10.5362595365
 20
9.9816896519
 30
0.0
 10
10.5386354425
 20
9.9811121956
 30
0.0
 10
10.5416053225
 20
9.9803903744
 30
0.0
 10
10.5451691851
 20
9.9795241913
 30
0.0
 10
10.5481390518
 20
9.9788023657
 30
0.0
 10
10.5505149871
 20
9.9782249193
 30
0.0
 10
10.5519998513
 20
9.9778639832
 30
0.0
 10
10.5531879611
 20
9.9775753078
 30
0.0
 10
10.5540784452
 20
9.9773586002
 30
0.0
 10
10.5548224183
 20
9.9771786501
 30
0.0
 10
10.5553394649
 20
9.9770514299
 30
0.0
 10
10.5556407514
 20
9.9769806924
 30
0.0
 10
10.5558502894
 20
9.9769221185
 30
0.0
 10
10.5561226191
 20
9.9768846479
 30
0.0
 10
10.5564638229
 20
9.9768273259
 30
0.0
 10
10.5570711343
 20
9.9767304422
 30
0.0
 10
10.5579333869
 20
9.9765902439
 30
0.0
 10
10.5589703736
 20
9.9764227733
 30
0.0
 10
10.5603522249
 20
9.9761992112
 30
0.0
 10
10.5620798122
 20
9.9759198503
 30
0.0
 10
10.5648437991
 20
9.9754728215
 30
0.0
 10
10.5682988355
 20
9.9749140533
 30
0.0
 10
10.5724448552
 20
9.9742435234
 30
0.0
 10
10.5765908862
 20
9.9735729976
 30
0.0
 10
10.5800458943
 20
9.9730142188
 30
0.0
 10
10.5828099377
 20
9.9725672113
 30
0.0
 10
10.5845373815
 20
9.9722877964
 30
0.0
 10
10.5859195274
 20
9.9720643452
 30
0.0
 10
10.5869556141
 20
9.9718965356
 30
0.0
 10
10.5878206825
 20
9.9717573981
 30
0.0
 10
10.5884229672
 20
9.9716586206
 30
0.0
 10
10.588772225
 20
9.9716043329
 30
0.0
 10
10.5890198154
 20
9.9715575421
 30
0.0
 10
10.5893222702
 20
9.9715339733
 30
0.0
 10
10.5897064059
 20
9.9714944481
 30
0.0
 10
10.5903875598
 20
9.971429053
 30
0.0
 10
10.5913559752
 20
9.9713336584
 30
0.0
 10
10.592520069
 20
9.9712200294
 30
0.0
 10
10.5940714972
 20
9.971068229
 30
0.0
 10
10.596011021
 20
9.9708785796
 30
0.0
 10
10.5991141257
 20
9.9705750841
 30
0.0
 10
10.6029930524
 20
9.9701957341
 30
0.0
 10
10.6076477448
 20
9.9697405058
 30
0.0
 10
10.6123024425
 20
9.9692852797
 30
0.0
 10
10.6185087042
 20
9.9686783108
 30
0.0
 10
10.6231634009
 20
9.9682230842
 30
0.0
 10
10.6262665319
 20
9.9679195999
 30
0.0
  0
ENDSEC
  0
SECTION
  2
OBJECTS
  0
DICTIONARY
  5
C
100
AcDbDictionary
280
0
281
1
  3
ACAD_GROUP
350
D
  3
ACAD_MLINESTYLE
350
17
  3
ACAD_LAYOUT
350
1A
  3
ACAD_PLOTSETTINGS
350
19
  3
ACAD_PLOTSTYLENAME
350
E
  3
ACAD_IMAGE_DICT
350
       411
  3
ACAD_IMAGE_VARS
350
       412
  3
ACAD_TABLESTYLE
350
       413
  0
IMAGEDEF_REACTOR
  5
410
100
AcDbRasterImageDefReactor
 90
2
330
285
  0
DICTIONARY
  5
D
102
{ACAD_REACTORS
330
C
102
}
100
AcDbDictionary
280
0
281
1
  0
ACDBDICTIONARYWDFLT
  5
E
102
{ACAD_REACTORS
330
C
102
}
100
AcDbDictionary
281
1
  3
Normal
350
F
100
AcDbDictionaryWithDefault
340
F
  0
DICTIONARY
  5
411
330
C
100
AcDbDictionary
281
1
  3
XOV_assy_2_img_1
350
       416
  0
RASTERVARIABLES
  5
412
330
C
100
AcDbRasterVariables
 90
0
 70
0
 71
1
 72
5
  0
DICTIONARY
  5
17
102
{ACAD_REACTORS
330
C
102
}
100
AcDbDictionary
280
0
281
1
  3
Standard
350
18
  0
DICTIONARY
  5
413
330
C
100
AcDbDictionary
281
1
  3
Standard
350
       417
  3
Standard1
350
       418
  0
DICTIONARY
  5
19
102
{ACAD_REACTORS
330
C
102
}
100
AcDbDictionary
281
1
  0
DICTIONARY
  5
1A
102
{ACAD_REACTORS
330
C
102
}
100
AcDbDictionary
281
1
  3
Model
350
414
  3
Layout1
350
415
  0
ACDBPLACEHOLDER
  5
F
102
{ACAD_REACTORS
330
E
102
}
  0
MLINESTYLE
  5
18
102
{ACAD_REACTORS
330
17
102
}
100
AcDbMlineStyle
  2
STANDARD
 70
0
  3

 62
256
 51
90.0
 52
90.0
 71
2
 49
0.5
 62
256
  6
BYLAYER
 49
-0.5
 62
256
  6
BYLAYER
  0
LAYOUT
  5
414
102
{ACAD_REACTORS
330
1A
102
}
100
AcDbPlotSettings
  1

  2
none_device
  4
ANSI_C_(22.00_x_17.00_Inches)
  6

 40
0.0
 41
0.0
 42
0.0
 43
0.0
 44
558.8
 45
431.8
 46
0.0
 47
0.0
 48
0.0
 49
0.0
140
0.0
141
0.0
142
1.0
143
1.0
 70
1024
 72
0
 73
0
 74
0
  7

 75
0
147
1.0
148
0.0
149
0.0
100
AcDbLayout
  1
Model
 70
0
 71
0
 10
0.0
 20
0.0
 11
22.0
 21
17.0
 12
0.0
 22
0.0
 32
0.0
 14
0.0
 24
0.0
 34
0.0
 15
0.0
 25
0.0
 35
0.0
146
0.0
 13
0.0
 23
0.0
 33
0.0
 16
1.0
 26
0.0
 36
0.0
 17
0.0
 27
1.0
 37
0.0
 76
0
330
20C
345
0
346
0
  0
LAYOUT
  5
415
102
{ACAD_REACTORS
330
1A
102
}
100
AcDbPlotSettings
  1

  2
none_device
  4
ANSI_C_(22.00_x_17.00_Inches)
  6

 40
0.0
 41
0.0
 42
0.0
 43
0.0
 44
558.8
 45
431.8
 46
0.0
 47
0.0
 48
0.0
 49
0.0
140
0.0
141
0.0
142
1.0
143
1.0
 70
0
 72
0
 73
0
 74
0
  7

 75
0
147
1.0
148
0.0
149
0.0
100
AcDbLayout
  1
Layout1
 70
0
 71
1
 10
0.0
 20
0.0
 11
22.0
 21
17.0
 12
0.0
 22
0.0
 32
0.0
 14
0.0
 24
0.0
 34
0.0
 15
0.0
 25
0.0
 35
0.0
146
0.0
 13
0.0
 23
0.0
 33
0.0
 16
1.0
 26
0.0
 36
0.0
 17
0.0
 27
1.0
 37
0.0
 76
0
330
20D
345
0
346
0
  0
IMAGEDEF
  5
416
102
{ACAD_REACTORS
330
411
330
410
102
}
100
AcDbRasterImageDef
 90
0
  1
XOV_assy_2_img_1.png
 10
369.0
 20
92.0
 11
0.0066666667
 21
0.0066666667
280
1
281
0
  0
TABLESTYLE
  5
417
102
{ACAD_REACTORS
330
413
330
288
330
289
102
}
330
413
100
AcDbTableStyle
  3
Standard
 70
0
 71
0
 40
0.06
 41
0.06
280
1
281
1
  7
Standard
140
0.18
170
1
 62
0
 63
7
283
0
  7
Standard
140
0.18
170
1
 62
0
 63
7
283
0
  7
Standard
140
0.18
170
1
 62
0
 63
7
283
0
  0
TABLESTYLE
  5
418
102
{ACAD_REACTORS
330
413
330
287
102
}
330
413
100
AcDbTableStyle
  3
Standard1
 70
1
 71
0
 40
0.06
 41
0.06
280
1
281
1
  7
Standard
140
0.18
170
1
 62
0
 63
7
283
0
  7
Standard
140
0.18
170
1
 62
0
 63
7
283
0
  7
Standard
140
0.18
170
1
 62
0
 63
7
283
0
  0
ENDSEC
  0
EOF
