999
DXF file: XOU_assy_2.dxf
999
Pro/ENGINEER 2014200 by Parametric Technology Corporation
  0
SECTION
  2
HEADER
  9
$ACADVER
  1
AC1021
  9
$DWGCODEPAGE
  3
ANSI_1252
  9
$EXTMAX
 10
22.0
 20
17.0
 30
0.0
  9
$EXTMIN
 10
0.0
 20
0.0
 30
0.0
  9
$LIMMIN
 10
0.0
 20
0.0
  9
$LIMMAX
 10
22.0
 20
17.0
  9
$VIEWCTR
 10
11.0
 20
8.5
  9
$VIEWSIZE
 40
17.0
  9
$CLAYER
  8
0
  9
$LTSCALE
 40
1.21
  9
$CELTYPE
  6
BYLAYER
  9
$DIMSCALE
 40
1.0
  9
$DIMASZ
 40
0.1875
  9
$DIMEXO
 40
0.0625
  9
$DIMDLI
 40
0.836
  9
$DIMEXE
 40
0.125
  9
$DIMCEN
 40
0.198
  9
$DIMLFAC
 40
1.0
  9
$DIMBLK
  1
_FILLED
  9
$DIMTXT
 40
0.1
  9
$DIMTOL
 70
0
  9
$DIMLIM
 70
0
  9
$DIMTFAC
 40
1.0
  9
$DIMGAP
 40
0.09
  9
$DIMDSEP
 70
46
  9
$AUNITS
 70
0
  9
$PDMODE
 70
3
  9
$PDSIZE
 40
0.3125
  9
$HANDSEED
  5
40A
  9
$TILEMODE
 70
1
  9
$MEASUREMENT
 70
0
  9
$INSUNITS
 70
1
  0
ENDSEC
  0
SECTION
  2
CLASSES
  0
CLASS
  1
ACDBDICTIONARYWDFLT
  2
AcDbDictionaryWithDefault
  3
AutoCAD 2000
 90
0
 91
1
280
0
281
0
  0
CLASS
  1
ACDBPLACEHOLDER
  2
AcDbPlaceHolder
  3
AutoCAD 2000
 90
0
 91
1
280
0
281
0
  0
CLASS
  1
LAYOUT
  2
AcDbLayout
  3
AutoCAD 2000
 90
0
 91
0
280
0
281
0
  0
CLASS
  1
RASTERVARIABLES
  2
AcDbRasterVariables
  3
ISM
 90
0
 91
1
280
0
281
0
  0
CLASS
  1
IMAGEDEF
  2
AcDbRasterImageDef
  3
ISM
 90
0
 91
1
280
0
281
0
  0
CLASS
  1
IMAGEDEF_REACTOR
  2
AcDbRasterImageDefReactor
  3
ISM
 90
0
 91
1
280
0
281
0
  0
CLASS
  1
IMAGE
  2
AcDbRasterImage
  3
ISM
 90
127
 91
1
280
0
281
1
  0
CLASS
  1
TABLESTYLE
  2
AcDbTableStyle
  3
ObjectDBX Classes
 90
2047
 91
1
280
0
281
0
  0
CLASS
  1
ACAD_TABLE
  2
AcDbTable
  3
ObjectDBX Classes
 90
1025
 91
3
280
0
281
1
  0
ENDSEC
  0
SECTION
  2
TABLES
  0
TABLE
  2
VPORT
  5
8
100
AcDbSymbolTable
 70
2
  0
VPORT
  5
1F4
100
AcDbSymbolTableRecord
100
AcDbViewportTableRecord
  2
*ACTIVE
 70
0
 10
0.0
 20
0.0
 11
1.0
 21
1.0
 12
11.0
 22
8.5
 13
0.0
 23
0.0
 14
1.0
 24
1.0
 15
0.0
 25
0.0
 16
0.0
 26
0.0
 36
1.0
 17
0.0
 27
0.0
 37
0.0
 40
17.0
 41
1.2941176471
 42
50.0
 43
0.0
 44
0.0
 50
0.0
 51
0.0
 71
0
 72
100
 73
1
 74
1
 75
0
 76
0
 77
0
 78
0
  0
ENDTAB
  0
TABLE
  2
LTYPE
  5
5
100
AcDbSymbolTable
 70
6
  0
LTYPE
  5
14
100
AcDbSymbolTableRecord
100
AcDbLinetypeTableRecord
  2
BYBLOCK
 70
0
  3

 72
65
 73
0
 40
0.0
  0
LTYPE
  5
15
100
AcDbSymbolTableRecord
100
AcDbLinetypeTableRecord
  2
BYLAYER
 70
0
  3

 72
65
 73
0
 40
0.0
  0
LTYPE
  5
16
100
AcDbSymbolTableRecord
100
AcDbLinetypeTableRecord
  2
CONTINUOUS
 70
64
  3
Solid line
 72
65
 73
0
 40
0.0
  0
LTYPE
  5
1F5
100
AcDbSymbolTableRecord
100
AcDbLinetypeTableRecord
  2
CENTER
 70
64
  3
____ _ ____ _ ____ _ ____ _ ____ _ ____ _ ____
 72
65
 73
4
 40
0.6
 49
0.375
 74
0
 49
-0.075
 74
0
 49
0.075
 74
0
 49
-0.075
 74
0
  0
LTYPE
  5
1F6
100
AcDbSymbolTableRecord
100
AcDbLinetypeTableRecord
  2
HIDDEN
 70
64
  3
- - - - - - - - - - - - - - - - - - - -
 72
65
 73
2
 40
0.2
 49
0.1
 74
0
 49
-0.1
 74
0
  0
LTYPE
  5
1F7
100
AcDbSymbolTableRecord
100
AcDbLinetypeTableRecord
  2
PHANTOM
 70
64
  3
_____ _ _ _____ _ _ _____ _ _ _____
 72
65
 73
6
 40
0.8
 49
0.45
 74
0
 49
-0.05
 74
0
 49
0.1
 74
0
 49
-0.05
 74
0
 49
0.1
 74
0
 49
-0.05
 74
0
  0
LTYPE
  5
1F8
100
AcDbSymbolTableRecord
100
AcDbLinetypeTableRecord
  2
DOT
 70
64
  3
. . . . . . . . . . . . . . . . . . . .
 72
65
 73
2
 40
0.2
 49
0.1
 74
0
 49
-0.1
 74
0
  0
LTYPE
  5
1F9
100
AcDbSymbolTableRecord
100
AcDbLinetypeTableRecord
  2
DASHED
 70
64
  3
- - - - - - - - - - - - - - - - - - - -
 72
65
 73
2
 40
0.2
 49
0.1
 74
0
 49
-0.1
 74
0
  0
ENDTAB
  0
TABLE
  2
LAYER
  5
2
100
AcDbSymbolTable
 70
36
  0
LAYER
  5
10
100
AcDbSymbolTableRecord
100
AcDbLayerTableRecord
  2
0
 70
0
 62
7
  6
CONTINUOUS
370
-3
390
F
  0
LAYER
  5
1FA
100
AcDbSymbolTableRecord
100
AcDbLayerTableRecord
  2
DEFAULT_1
 70
0
 62
7
  6
CENTER
370
-3
390
F
  0
LAYER
  5
1FB
100
AcDbSymbolTableRecord
100
AcDbLayerTableRecord
  2
DEFAULT_2
 70
0
 62
8
  6
HIDDEN
370
-3
390
F
  0
LAYER
  5
1FC
100
AcDbSymbolTableRecord
100
AcDbLayerTableRecord
  2
DEFAULT_3
 70
0
 62
7
  6
PHANTOM
370
-3
390
F
  0
LAYER
  5
1FD
100
AcDbSymbolTableRecord
100
AcDbLayerTableRecord
  2
01___PRT_ALL_DTM_PLN
 70
0
 62
7
  6
CONTINUOUS
370
-3
390
F
  0
LAYER
  5
1FE
100
AcDbSymbolTableRecord
100
AcDbLayerTableRecord
  2
01___PRT_DEF_DTM_PLN
 70
0
 62
7
  6
CONTINUOUS
370
-3
390
F
  0
LAYER
  5
1FF
100
AcDbSymbolTableRecord
100
AcDbLayerTableRecord
  2
02___PRT_ALL_AXES
 70
0
 62
7
  6
CONTINUOUS
370
-3
390
F
  0
LAYER
  5
200
100
AcDbSymbolTableRecord
100
AcDbLayerTableRecord
  2
03___PRT_ALL_CURVES
 70
0
 62
7
  6
CONTINUOUS
370
-3
390
F
  0
LAYER
  5
201
100
AcDbSymbolTableRecord
100
AcDbLayerTableRecord
  2
04___PRT_ALL_DTM_PNT
 70
0
 62
7
  6
CONTINUOUS
370
-3
390
F
  0
LAYER
  5
202
100
AcDbSymbolTableRecord
100
AcDbLayerTableRecord
  2
05___PRT_ALL_DTM_CSYS
 70
0
 62
7
  6
CONTINUOUS
370
-3
390
F
  0
LAYER
  5
203
100
AcDbSymbolTableRecord
100
AcDbLayerTableRecord
  2
05___PRT_DEF_DTM_CSYS
 70
0
 62
7
  6
CONTINUOUS
370
-3
390
F
  0
LAYER
  5
204
100
AcDbSymbolTableRecord
100
AcDbLayerTableRecord
  2
06___PRT_ALL_SURFS
 70
0
 62
7
  6
CONTINUOUS
370
-3
390
F
  0
LAYER
  5
205
100
AcDbSymbolTableRecord
100
AcDbLayerTableRecord
  2
DATUM_PLANES
 70
0
 62
7
  6
CONTINUOUS
370
-3
390
F
  0
LAYER
  5
206
100
AcDbSymbolTableRecord
100
AcDbLayerTableRecord
  2
PORT_AREAS
 70
0
 62
7
  6
CONTINUOUS
370
-3
390
F
  0
LAYER
  5
207
100
AcDbSymbolTableRecord
100
AcDbLayerTableRecord
  2
SUNNBOMCOSMETIC
 70
0
 62
7
  6
CONTINUOUS
370
-3
390
F
  0
LAYER
  5
208
100
AcDbSymbolTableRecord
100
AcDbLayerTableRecord
  2
SUNNBOMSTAMPING
 70
0
 62
7
  6
CONTINUOUS
370
-3
390
F
  0
LAYER
  5
209
100
AcDbSymbolTableRecord
100
AcDbLayerTableRecord
  2
THREADS
 70
0
 62
7
  6
CONTINUOUS
370
-3
390
F
  0
ENDTAB
  0
TABLE
  2
STYLE
  5
3
100
AcDbSymbolTable
 70
1
  0
STYLE
  5
11
100
AcDbSymbolTableRecord
100
AcDbTextStyleTableRecord
  2
STANDARD
 70
0
 40
0.0
 41
0.8
 50
0.0
 71
0
 42
0.2
  3
txt
  4

  0
STYLE
  5
20A
100
AcDbSymbolTableRecord
100
AcDbTextStyleTableRecord
  2
TEXTSTYLE_1
 70
0
 40
0.0
 41
0.8
 50
0.0
 71
0
 42
0.2
  3
gdt
  4

  0
ENDTAB
  0
TABLE
  2
VIEW
  5
6
100
AcDbSymbolTable
 70
0
  0
ENDTAB
  0
TABLE
  2
UCS
  5
7
100
AcDbSymbolTable
 70
0
  0
ENDTAB
  0
TABLE
  2
APPID
  5
9
100
AcDbSymbolTable
 70
1
  0
APPID
  5
20B
100
AcDbSymbolTableRecord
100
AcDbRegAppTableRecord
  2
ACAD
 70
0
  0
ENDTAB
  0
TABLE
  2
BLOCK_RECORD
  5
1
100
AcDbSymbolTable
 70
0
  0
BLOCK_RECORD
  5
20C
100
AcDbSymbolTableRecord
100
AcDbBlockTableRecord
  2
*Model_Space
  0
BLOCK_RECORD
  5
20D
100
AcDbSymbolTableRecord
100
AcDbBlockTableRecord
  2
*Paper_Space
  0
BLOCK_RECORD
  5
20E
100
AcDbSymbolTableRecord
100
AcDbBlockTableRecord
  2
SUN_FIRST_THIRD_ANGLE_BL0
  0
BLOCK_RECORD
  5
20F
100
AcDbSymbolTableRecord
100
AcDbBlockTableRecord
  2
*T1
  0
BLOCK_RECORD
  5
210
100
AcDbSymbolTableRecord
100
AcDbBlockTableRecord
  2
*T2
  0
BLOCK_RECORD
  5
211
100
AcDbSymbolTableRecord
100
AcDbBlockTableRecord
  2
*T3
  0
ENDTAB
  0
TABLE
  2
DIMSTYLE
  5
A
100
AcDbSymbolTable
 70
1
100
AcDbDimStyleTable
 71
0
  0
DIMSTYLE
105
212
100
AcDbSymbolTableRecord
100
AcDbDimStyleTableRecord
  2
STANDARD
 70
0
  3

  4

 40
1.0
 41
0.1875
 42
0.0625
 43
0.38
 44
0.125
 45
0.0
 46
0.0
 47
0.001
 48
0.001
140
0.1
141
0.09
142
0.0
143
25.4
144
1.0
145
0.0
146
1.0
147
0.09
 71
0.0
 72
0.0
 73
1
 74
1
 75
0
 76
0
 77
0
 78
4
170
0
171
2
172
0
173
0
174
0
175
0
176
0
177
0
178
0
270
2
271
3
272
3
273
2
274
2
275
0
280
0
281
0
282
0
283
1
284
4
285
0
286
0
287
3
288
0
340
11
278
46
  0
ENDTAB
  0
ENDSEC
  0
SECTION
  2
BLOCKS
  0
BLOCK
  5
20
100
AcDbEntity
  8
0
100
AcDbBlockBegin
  2
*Model_Space
 70
0
 10
0.0
 20
0.0
 30
0.0
  3
*Model_Space
  1

  0
ENDBLK
  5
21
100
AcDbEntity
  8
0
100
AcDbBlockEnd
  0
BLOCK
  5
1C
100
AcDbEntity
  8
0
100
AcDbBlockBegin
  2
*Paper_Space
 70
0
 10
0.0
 20
0.0
 30
0.0
  3
*Paper_Space
  1

  0
ENDBLK
  5
1D
100
AcDbEntity
  8
0
100
AcDbBlockEnd
  0
BLOCK
  5
213
100
AcDbEntity
  8
0
100
AcDbBlockBegin
 62
2
  6
CONTINUOUS
  2
SUN_FIRST_THIRD_ANGLE_BL0
 70
64
 10
20.4816717061
 20
1.2289683772
  3
SUN_FIRST_THIRD_ANGLE_BL0
  1

  0
TEXT
  5
214
100
AcDbEntity
  8
0
100
AcDbText
 62
2
  6
CONTINUOUS
 10
19.4750896608
 20
1.4136269581
  7
STANDARD
 40
0.08
  1
FIRST ANGLE
 41
0.8
 72
0
100
AcDbText
  0
TEXT
  5
215
100
AcDbEntity
  8
0
100
AcDbText
 62
2
  6
CONTINUOUS
 10
20.7842537513
 20
1.4047600029
  7
STANDARD
 40
0.08
  1
THIRD ANGLE
 41
0.8
 72
0
100
AcDbText
  0
LINE
  5
216
100
AcDbEntity
  8
0
100
AcDbLine
 62
7
  6
CONTINUOUS
 10
19.4767170086
 20
1.1727031207
 11
19.6334271527
 21
1.1717972817
  0
LINE
  5
217
100
AcDbEntity
  8
0
100
AcDbLine
 62
7
  6
CONTINUOUS
 10
19.6596964832
 20
1.1717972817
 11
19.6950230232
 21
1.171593082
  0
LINE
  5
218
100
AcDbEntity
  8
0
100
AcDbLine
 62
7
  6
CONTINUOUS
 10
19.7194818561
 20
1.1708914427
 11
19.8852396156
 21
1.1699333054
  0
LINE
  5
219
100
AcDbEntity
  8
0
100
AcDbLine
 62
7
  6
CONTINUOUS
 10
19.4758111696
 20
1.2723454088
 11
19.88525039
 21
1.3511534004
  0
LINE
  5
21A
100
AcDbEntity
  8
0
100
AcDbLine
 62
7
  6
CONTINUOUS
 10
19.88525039
 20
1.3511534004
 11
19.8831348489
 21
0.9851647912
  0
LINE
  5
21B
100
AcDbEntity
  8
0
100
AcDbLine
 62
7
  6
CONTINUOUS
 10
19.8831348489
 20
0.9851647912
 11
19.4767170086
 21
1.0658141206
  0
LINE
  5
21C
100
AcDbEntity
  8
0
100
AcDbLine
 62
7
  6
CONTINUOUS
 10
19.4767170086
 20
1.0658141206
 11
19.4779056764
 21
1.2714536432
  0
CIRCLE
  5
21D
100
AcDbEntity
  8
0
100
AcDbCircle
 62
7
  6
CONTINUOUS
 10
20.2068232291
 20
1.1717972817
 40
0.175742101
  0
CIRCLE
  5
21E
100
AcDbEntity
  8
0
100
AcDbCircle
 62
7
  6
CONTINUOUS
 10
20.2068232291
 20
1.1717972817
 40
0.1005522074
  0
LINE
  5
21F
100
AcDbEntity
  8
0
100
AcDbLine
 62
7
  6
CONTINUOUS
 10
20.2077290681
 20
1.3756110529
 11
20.2071171714
 21
1.2379342989
  0
LINE
  5
220
100
AcDbEntity
  8
0
100
AcDbLine
 62
7
  6
CONTINUOUS
 10
20.2077290681
 20
1.2016899681
 11
20.2074674401
 21
1.1428236749
  0
LINE
  5
221
100
AcDbEntity
  8
0
100
AcDbLine
 62
7
  6
CONTINUOUS
 10
20.208634907
 20
1.101141841
 11
20.2080230104
 21
0.963465087
  0
LINE
  5
222
100
AcDbEntity
  8
0
100
AcDbLine
 62
7
  6
CONTINUOUS
 10
20.0066328138
 20
1.1745147986
 11
20.1443095678
 21
1.1739029019
  0
LINE
  5
223
100
AcDbEntity
  8
0
100
AcDbLine
 62
7
  6
CONTINUOUS
 10
20.1832714155
 20
1.1727031207
 11
20.238153505
 21
1.172335442
  0
LINE
  5
224
100
AcDbEntity
  8
0
100
AcDbLine
 62
7
  6
CONTINUOUS
 10
20.2756669918
 20
1.1717972817
 11
20.407916871
 21
1.1712095044
  0
CIRCLE
  5
225
100
AcDbEntity
  8
0
100
AcDbCircle
 62
7
  6
CONTINUOUS
 10
20.7509457401
 20
1.1693297793
 40
0.1722024983
  0
CIRCLE
  5
226
100
AcDbEntity
  8
0
100
AcDbCircle
 62
7
  6
CONTINUOUS
 10
20.7509457401
 20
1.1693297793
 40
0.0985164967
  0
LINE
  5
227
100
AcDbEntity
  8
0
100
AcDbLine
 62
7
  6
CONTINUOUS
 10
20.7169767782
 20
1.170462078
 11
20.7825395137
 21
1.1682766535
  0
LINE
  5
228
100
AcDbEntity
  8
0
100
AcDbLine
 62
7
  6
CONTINUOUS
 10
20.8177513651
 20
1.1693297793
 11
20.947965719
 21
1.1693297793
  0
LINE
  5
229
100
AcDbEntity
  8
0
100
AcDbLine
 62
7
  6
CONTINUOUS
 10
20.6875370113
 20
1.170462078
 11
20.5573226574
 21
1.170462078
  0
LINE
  5
22A
100
AcDbEntity
  8
0
100
AcDbLine
 62
7
  6
CONTINUOUS
 10
20.7486811426
 20
1.1987695462
 11
20.7486811426
 21
1.1432869085
  0
LINE
  5
22B
100
AcDbEntity
  8
0
100
AcDbLine
 62
7
  6
CONTINUOUS
 10
20.7498134414
 20
1.1059210505
 11
20.7498134414
 21
0.9757066966
  0
LINE
  5
22C
100
AcDbEntity
  8
0
100
AcDbLine
 62
7
  6
CONTINUOUS
 10
20.7486811426
 20
1.2338708068
 11
20.7486811426
 21
1.3640851607
  0
LINE
  5
22D
100
AcDbEntity
  8
0
100
AcDbLine
 62
7
  6
CONTINUOUS
 10
21.0702539817
 20
1.2701043662
 11
21.4790138229
 21
1.3448360823
  0
LINE
  5
22E
100
AcDbEntity
  8
0
100
AcDbLine
 62
7
  6
CONTINUOUS
 10
21.4790138229
 20
1.3448360823
 11
21.4790138229
 21
0.9779712941
  0
LINE
  5
22F
100
AcDbEntity
  8
0
100
AcDbLine
 62
7
  6
CONTINUOUS
 10
21.4790138229
 20
0.9779712941
 11
21.069121683
 21
1.0617614
  0
LINE
  5
230
100
AcDbEntity
  8
0
100
AcDbLine
 62
7
  6
CONTINUOUS
 10
21.0702539817
 20
1.2701043662
 11
21.069121683
 21
1.0617614
  0
LINE
  5
231
100
AcDbEntity
  8
0
100
AcDbLine
 62
7
  6
CONTINUOUS
 10
21.4790138229
 20
1.1693297793
 11
21.3159628059
 21
1.1693297793
  0
LINE
  5
232
100
AcDbEntity
  8
0
100
AcDbLine
 62
7
  6
CONTINUOUS
 10
21.2876553377
 20
1.1693297793
 11
21.2502894796
 21
1.1693297793
  0
LINE
  5
233
100
AcDbEntity
  8
0
100
AcDbLine
 62
7
  6
CONTINUOUS
 10
21.2208497126
 20
1.1659328831
 11
21.0713862804
 21
1.1659328831
  0
LINE
  5
234
100
AcDbEntity
  8
0
100
AcDbLine
 62
7
  6
CONTINUOUS
 10
20.4796138713
 20
1.5284908897
 11
20.4766766948
 21
0.9294458646
  0
ENDBLK
  5
235
100
AcDbEntity
  8
0
  6
BYBLOCK
 62
0
100
AcDbBlockEnd
  0
BLOCK
  5
236
100
AcDbEntity
  8
0
100
AcDbBlockBegin
  2
*T1
 70
1
 10
0.0
 20
0.0
  3
*T1
  1

  0
LINE
  5
237
100
AcDbEntity
  8
0
100
AcDbLine
 62
2
  6
CONTINUOUS
 10
9.275
 20
0.0
 11
-0.0
 21
0.0
  0
LINE
  5
238
100
AcDbEntity
  8
0
100
AcDbLine
 62
2
  6
CONTINUOUS
 10
9.275
 20
0.0
 11
9.275
 21
1.25
  0
LINE
  5
239
100
AcDbEntity
  8
0
100
AcDbLine
 62
2
  6
CONTINUOUS
 10
9.275
 20
0.625
 11
-0.0
 21
0.625
  0
LINE
  5
23A
100
AcDbEntity
  8
0
100
AcDbLine
 62
2
  6
CONTINUOUS
 10
9.275
 20
1.25
 11
-0.0
 21
1.25
  0
LINE
  5
23B
100
AcDbEntity
  8
0
100
AcDbLine
 62
2
  6
CONTINUOUS
 10
6.8
 20
0.0
 11
6.8
 21
1.25
  0
LINE
  5
23C
100
AcDbEntity
  8
0
100
AcDbLine
 62
2
  6
CONTINUOUS
 10
6.4
 20
0.0
 11
6.4
 21
0.625
  0
LINE
  5
23D
100
AcDbEntity
  8
0
100
AcDbLine
 62
2
  6
CONTINUOUS
 10
5.9
 20
0.0
 11
5.9
 21
0.625
  0
LINE
  5
23E
100
AcDbEntity
  8
0
100
AcDbLine
 62
2
  6
CONTINUOUS
 10
5.2
 20
0.0
 11
5.2
 21
0.625
  0
LINE
  5
23F
100
AcDbEntity
  8
0
100
AcDbLine
 62
2
  6
CONTINUOUS
 10
4.1
 20
0.0
 11
4.1
 21
1.25
  0
LINE
  5
240
100
AcDbEntity
  8
0
100
AcDbLine
 62
2
  6
CONTINUOUS
 10
-0.0
 20
0.0
 11
-0.0
 21
1.25
  0
MTEXT
  5
241
100
AcDbEntity
  8
0
100
AcDbMText
 62
2
  6
CONTINUOUS
  7
STANDARD
 71
2
 72
1
 10
6.6
 20
0.325
 30
0.0
 11
1.0
 21
0.0
 31
0.0
 44
0.9
  1
2
 40
0.125
 41
0.2
  0
MTEXT
  5
242
100
AcDbEntity
  8
0
100
AcDbMText
 62
2
  6
CONTINUOUS
  7
STANDARD
 71
2
 72
1
 10
6.15
 20
0.325
 30
0.0
 11
1.0
 21
0.0
 31
0.0
 44
0.9
  1
C
 40
0.125
 41
0.2
  0
MTEXT
  5
243
100
AcDbEntity
  8
0
100
AcDbMText
 62
2
  6
CONTINUOUS
  7
STANDARD
 71
2
 72
1
 10
5.55
 20
0.325
 30
0.0
 11
1.0
 21
0.0
 31
0.0
 44
0.9
  1
1.000
 40
0.125
 41
1.0
  0
MTEXT
  5
244
100
AcDbEntity
  8
0
100
AcDbMText
 62
2
  6
CONTINUOUS
  7
STANDARD
 71
2
 72
1
 10
4.65
 20
0.325
 30
0.0
 11
1.0
 21
0.0
 31
0.0
 44
0.9
  1
Sep-19-23
 40
0.125
 41
1.8
  0
MTEXT
  5
245
100
AcDbEntity
  8
0
100
AcDbMText
 62
2
  6
CONTINUOUS
  7
STANDARD
 71
2
 72
1
 10
2.05
 20
0.4625
 30
0.0
 11
1.0
 21
0.0
 31
0.0
 44
0.9
  1
T-11A Line mount\PCross port with shuttle on port 3s
 40
0.125
 41
6.8
  0
MTEXT
  5
246
100
AcDbEntity
  8
0
100
AcDbMText
 62
2
  6
CONTINUOUS
  7
STANDARD
 71
1
 72
1
 10
6.45
 20
0.5625
 30
0.0
 11
1.0
 21
0.0
 31
0.0
 44
0.9
  1
SHEET
 40
0.06
 41
0.48
  0
MTEXT
  5
247
100
AcDbEntity
  8
0
100
AcDbMText
 62
2
  6
CONTINUOUS
  7
STANDARD
 71
1
 72
1
 10
5.95
 20
0.5625
 30
0.0
 11
1.0
 21
0.0
 31
0.0
 44
0.9
  1
DWG SIZE
 40
0.06
 41
0.768
  0
MTEXT
  5
248
100
AcDbEntity
  8
0
100
AcDbMText
 62
2
  6
CONTINUOUS
  7
STANDARD
 71
1
 72
1
 10
5.25
 20
0.5625
 30
0.0
 11
1.0
 21
0.0
 31
0.0
 44
0.9
  1
SCALE
 40
0.06
 41
0.48
  0
MTEXT
  5
249
100
AcDbEntity
  8
0
100
AcDbMText
 62
2
  6
CONTINUOUS
  7
STANDARD
 71
1
 72
1
 10
4.15
 20
0.5625
 30
0.0
 11
1.0
 21
0.0
 31
0.0
 44
0.9
  1
DATE
 40
0.06
 41
0.384
  0
MTEXT
  5
24A
100
AcDbEntity
  8
0
100
AcDbMText
 62
2
  6
CONTINUOUS
  7
STANDARD
 71
1
 72
1
 10
0.05
 20
0.5625
 30
0.0
 11
1.0
 21
0.0
 31
0.0
 44
0.9
  1
DESCRIPTION
 40
0.06
 41
1.056
  0
MTEXT
  5
24B
100
AcDbEntity
  8
0
100
AcDbMText
 62
2
  6
CONTINUOUS
  7
STANDARD
 71
2
 72
1
 10
5.45
 20
1.0375
 30
0.0
 11
1.0
 21
0.0
 31
0.0
 44
0.9
  1
ALL DIMENSIONS IN INCH\PVIEWS ARE THIRD ANGLE
 40
0.12
 41
4.224
  0
MTEXT
  5
24C
100
AcDbEntity
  8
0
100
AcDbMText
 62
2
  6
CONTINUOUS
  7
STANDARD
 71
2
 72
1
 10
2.05
 20
0.95
 30
0.0
 11
1.0
 21
0.0
 31
0.0
 44
0.9
  1
XOU
 40
0.125
 41
0.6
  0
MTEXT
  5
24D
100
AcDbEntity
  8
0
100
AcDbMText
 62
2
  6
CONTINUOUS
  7
STANDARD
 71
1
 72
1
 10
0.05
 20
1.1875
 30
0.0
 11
1.0
 21
0.0
 31
0.0
 44
0.9
  1
MODEL
 40
0.06
 41
0.48
  0
ENDBLK
  5
24E
100
AcDbEntity
  8
0
  6
BYBLOCK
 62
0
100
AcDbBlockEnd
  0
BLOCK
  5
24F
100
AcDbEntity
  8
0
100
AcDbBlockBegin
  2
*T2
 70
1
 10
0.0
 20
0.0
  3
*T2
  1

  0
LINE
  5
250
100
AcDbEntity
  8
0
100
AcDbLine
 62
2
  6
CONTINUOUS
 10
0.0
 20
0.0
 11
9.055
 21
0.0
  0
LINE
  5
251
100
AcDbEntity
  8
0
100
AcDbLine
 62
2
  6
CONTINUOUS
 10
0.0
 20
0.0
 11
0.0
 21
-2.844
  0
LINE
  5
252
100
AcDbEntity
  8
0
100
AcDbLine
 62
2
  6
CONTINUOUS
 10
0.0
 20
-0.344
 11
9.055
 21
-0.344
  0
LINE
  5
253
100
AcDbEntity
  8
0
100
AcDbLine
 62
2
  6
CONTINUOUS
 10
0.0
 20
-0.594
 11
9.055
 21
-0.594
  0
LINE
  5
254
100
AcDbEntity
  8
0
100
AcDbLine
 62
2
  6
CONTINUOUS
 10
0.0
 20
-0.844
 11
9.055
 21
-0.844
  0
LINE
  5
255
100
AcDbEntity
  8
0
100
AcDbLine
 62
2
  6
CONTINUOUS
 10
0.0
 20
-1.094
 11
9.055
 21
-1.094
  0
LINE
  5
256
100
AcDbEntity
  8
0
100
AcDbLine
 62
2
  6
CONTINUOUS
 10
0.0
 20
-1.344
 11
9.055
 21
-1.344
  0
LINE
  5
257
100
AcDbEntity
  8
0
100
AcDbLine
 62
2
  6
CONTINUOUS
 10
0.0
 20
-1.594
 11
9.055
 21
-1.594
  0
LINE
  5
258
100
AcDbEntity
  8
0
100
AcDbLine
 62
2
  6
CONTINUOUS
 10
0.0
 20
-1.844
 11
9.055
 21
-1.844
  0
LINE
  5
259
100
AcDbEntity
  8
0
100
AcDbLine
 62
2
  6
CONTINUOUS
 10
0.0
 20
-2.094
 11
9.055
 21
-2.094
  0
LINE
  5
25A
100
AcDbEntity
  8
0
100
AcDbLine
 62
2
  6
CONTINUOUS
 10
0.0
 20
-2.344
 11
9.055
 21
-2.344
  0
LINE
  5
25B
100
AcDbEntity
  8
0
100
AcDbLine
 62
2
  6
CONTINUOUS
 10
0.0
 20
-2.594
 11
9.055
 21
-2.594
  0
LINE
  5
25C
100
AcDbEntity
  8
0
100
AcDbLine
 62
2
  6
CONTINUOUS
 10
0.0
 20
-2.844
 11
9.055
 21
-2.844
  0
LINE
  5
25D
100
AcDbEntity
  8
0
100
AcDbLine
 62
2
  6
CONTINUOUS
 10
3.055
 20
0.0
 11
3.055
 21
-2.844
  0
LINE
  5
25E
100
AcDbEntity
  8
0
100
AcDbLine
 62
2
  6
CONTINUOUS
 10
9.055
 20
0.0
 11
9.055
 21
-2.844
  0
MTEXT
  5
25F
100
AcDbEntity
  8
0
100
AcDbMText
 62
2
  6
CONTINUOUS
  7
STANDARD
 71
2
 72
1
 10
1.5275
 20
-0.0995
 30
0.0
 11
1.0
 21
0.0
 31
0.0
 44
0.9
  1
Technical Data
 40
0.145
 41
3.248
  0
MTEXT
  5
260
100
AcDbEntity
  8
0
100
AcDbMText
 62
2
  6
CONTINUOUS
  7
STANDARD
 71
2
 72
1
 10
4.555
 20
-0.0995
 30
0.0
 11
1.0
 21
0.0
 31
0.0
 44
0.9
  1
U.S. Units
 40
0.145
 41
2.32
  0
MTEXT
  5
261
100
AcDbEntity
  8
0
100
AcDbMText
 62
2
  6
CONTINUOUS
  7
STANDARD
 71
2
 72
1
 10
7.555
 20
-0.0995
 30
0.0
 11
1.0
 21
0.0
 31
0.0
 44
0.9
  1
Metric Units
 40
0.145
 41
2.784
  0
MTEXT
  5
262
100
AcDbEntity
  8
0
100
AcDbMText
 62
2
  6
CONTINUOUS
  7
STANDARD
 71
2
 72
1
 10
1.5275
 20
-0.4065
 30
0.0
 11
1.0
 21
0.0
 31
0.0
 44
0.9
  1
Cavity
 40
0.125
 41
1.2
  0
MTEXT
  5
263
100
AcDbEntity
  8
0
100
AcDbMText
 62
2
  6
CONTINUOUS
  7
STANDARD
 71
2
 72
1
 10
6.055
 20
-0.4065
 30
0.0
 11
1.0
 21
0.0
 31
0.0
 44
0.9
  1
T-11A
 40
0.125
 41
1.0
  0
MTEXT
  5
264
100
AcDbEntity
  8
0
100
AcDbMText
 62
2
  6
CONTINUOUS
  7
STANDARD
 71
2
 72
1
 10
1.5275
 20
-0.6565
 30
0.0
 11
1.0
 21
0.0
 31
0.0
 44
0.9
  1
Body Features
 40
0.125
 41
2.6
  0
MTEXT
  5
265
100
AcDbEntity
  8
0
100
AcDbMText
 62
2
  6
CONTINUOUS
  7
STANDARD
 71
2
 72
1
 10
6.055
 20
-0.6565
 30
0.0
 11
1.0
 21
0.0
 31
0.0
 44
0.9
  1
Cross port with shuttle on port 3s
 40
0.125
 41
6.8
  0
MTEXT
  5
266
100
AcDbEntity
  8
0
100
AcDbMText
 62
2
  6
CONTINUOUS
  7
STANDARD
 71
2
 72
1
 10
1.5275
 20
-0.9065
 30
0.0
 11
1.0
 21
0.0
 31
0.0
 44
0.9
  1
Body Type
 40
0.125
 41
1.8
  0
MTEXT
  5
267
100
AcDbEntity
  8
0
100
AcDbMText
 62
2
  6
CONTINUOUS
  7
STANDARD
 71
2
 72
1
 10
6.055
 20
-0.9065
 30
0.0
 11
1.0
 21
0.0
 31
0.0
 44
0.9
  1
Line mount
 40
0.125
 41
2.0
  0
MTEXT
  5
268
100
AcDbEntity
  8
0
100
AcDbMText
 62
2
  6
CONTINUOUS
  7
STANDARD
 71
2
 72
1
 10
1.5275
 20
-1.1565
 30
0.0
 11
1.0
 21
0.0
 31
0.0
 44
0.9
  1
Interface
 40
0.125
 41
1.8
  0
MTEXT
  5
269
100
AcDbEntity
  8
0
100
AcDbMText
 62
2
  6
CONTINUOUS
  7
STANDARD
 71
2
 72
1
 10
6.055
 20
-1.1565
 30
0.0
 11
1.0
 21
0.0
 31
0.0
 44
0.9
  1
None
 40
0.125
 41
0.8
  0
MTEXT
  5
26A
100
AcDbEntity
  8
0
100
AcDbMText
 62
2
  6
CONTINUOUS
  7
STANDARD
 71
2
 72
1
 10
1.5275
 20
-1.4065
 30
0.0
 11
1.0
 21
0.0
 31
0.0
 44
0.9
  1
Open Cavity Quantity
 40
0.125
 41
4.0
  0
MTEXT
  5
26B
100
AcDbEntity
  8
0
100
AcDbMText
 62
2
  6
CONTINUOUS
  7
STANDARD
 71
2
 72
1
 10
6.055
 20
-1.4065
 30
0.0
 11
1.0
 21
0.0
 31
0.0
 44
0.9
  1
2
 40
0.125
 41
0.2
  0
MTEXT
  5
26C
100
AcDbEntity
  8
0
100
AcDbMText
 62
2
  6
CONTINUOUS
  7
STANDARD
 71
2
 72
1
 10
1.5275
 20
-1.6565
 30
0.0
 11
1.0
 21
0.0
 31
0.0
 44
0.9
  1
Weight
 40
0.125
 41
1.2
  0
MTEXT
  5
26D
100
AcDbEntity
  8
0
100
AcDbMText
 62
2
  6
CONTINUOUS
  7
STANDARD
 71
2
 72
1
 10
4.555
 20
-1.6565
 30
0.0
 11
1.0
 21
0.0
 31
0.0
 44
0.9
  1
5.789 lb.
 40
0.125
 41
1.8
  0
MTEXT
  5
26E
100
AcDbEntity
  8
0
100
AcDbMText
 62
2
  6
CONTINUOUS
  7
STANDARD
 71
2
 72
1
 10
7.555
 20
-1.6565
 30
0.0
 11
1.0
 21
0.0
 31
0.0
 44
0.9
  1
2,626 kg.
 40
0.125
 41
1.8
  0
MTEXT
  5
26F
100
AcDbEntity
  8
0
100
AcDbMText
 62
2
  6
CONTINUOUS
  7
STANDARD
 71
2
 72
1
 10
1.5275
 20
-1.9065
 30
0.0
 11
1.0
 21
0.0
 31
0.0
 44
0.9
  1
Mounting Hole Diameter
 40
0.125
 41
4.4
  0
MTEXT
  5
270
100
AcDbEntity
  8
0
100
AcDbMText
 62
2
  6
CONTINUOUS
  7
STANDARD
 71
2
 72
1
 10
4.555
 20
-1.9065
 30
0.0
 11
1.0
 21
0.0
 31
0.0
 44
0.9
  1
.42 in.
 40
0.125
 41
1.4
  0
MTEXT
  5
271
100
AcDbEntity
  8
0
100
AcDbMText
 62
2
  6
CONTINUOUS
  7
STANDARD
 71
2
 72
1
 10
7.555
 20
-1.9065
 30
0.0
 11
1.0
 21
0.0
 31
0.0
 44
0.9
  1
10,7 mm
 40
0.125
 41
1.4
  0
MTEXT
  5
272
100
AcDbEntity
  8
0
100
AcDbMText
 62
2
  6
CONTINUOUS
  7
STANDARD
 71
2
 72
1
 10
1.5275
 20
-2.1565
 30
0.0
 11
1.0
 21
0.0
 31
0.0
 44
0.9
  1
Mounting Hole Depth
 40
0.125
 41
3.8
  0
MTEXT
  5
273
100
AcDbEntity
  8
0
100
AcDbMText
 62
2
  6
CONTINUOUS
  7
STANDARD
 71
2
 72
1
 10
6.055
 20
-2.1565
 30
0.0
 11
1.0
 21
0.0
 31
0.0
 44
0.9
  1
Through
 40
0.125
 41
1.4
  0
MTEXT
  5
274
100
AcDbEntity
  8
0
100
AcDbMText
 62
2
  6
CONTINUOUS
  7
STANDARD
 71
2
 72
1
 10
1.5275
 20
-2.4065
 30
0.0
 11
1.0
 21
0.0
 31
0.0
 44
0.9
  1
Mounting Hole Quantity
 40
0.125
 41
4.4
  0
MTEXT
  5
275
100
AcDbEntity
  8
0
100
AcDbMText
 62
2
  6
CONTINUOUS
  7
STANDARD
 71
2
 72
1
 10
6.055
 20
-2.4065
 30
0.0
 11
1.0
 21
0.0
 31
0.0
 44
0.9
  1
2
 40
0.125
 41
0.2
  0
MTEXT
  5
276
100
AcDbEntity
  8
0
100
AcDbMText
 62
2
  6
CONTINUOUS
  7
STANDARD
 71
2
 72
1
 10
1.5275
 20
-2.6565
 30
0.0
 11
1.0
 21
0.0
 31
0.0
 44
0.9
  1
Includes integral cartridge(s)
 40
0.125
 41
6.0
  0
MTEXT
  5
277
100
AcDbEntity
  8
0
100
AcDbMText
 62
2
  6
CONTINUOUS
  7
STANDARD
 71
2
 72
1
 10
6.055
 20
-2.6565
 30
0.0
 11
1.0
 21
0.0
 31
0.0
 44
0.9
  1
Yes (see Included Components)
 40
0.125
 41
5.8
  0
ENDBLK
  5
278
100
AcDbEntity
  8
0
  6
BYBLOCK
 62
0
100
AcDbBlockEnd
  0
BLOCK
  5
279
100
AcDbEntity
  8
0
100
AcDbBlockBegin
  2
*T3
 70
1
 10
0.0
 20
0.0
  3
*T3
  1

  0
LINE
  5
27A
100
AcDbEntity
  8
0
100
AcDbLine
 62
2
  6
CONTINUOUS
 10
0.0
 20
0.0
 11
4.6
 21
0.0
  0
LINE
  5
27B
100
AcDbEntity
  8
0
100
AcDbLine
 62
2
  6
CONTINUOUS
 10
0.0
 20
0.0
 11
0.0
 21
-1.43775
  0
LINE
  5
27C
100
AcDbEntity
  8
0
100
AcDbLine
 62
2
  6
CONTINUOUS
 10
0.0
 20
-0.34375
 11
4.6
 21
-0.34375
  0
LINE
  5
27D
100
AcDbEntity
  8
0
100
AcDbLine
 62
2
  6
CONTINUOUS
 10
0.0
 20
-0.68775
 11
4.6
 21
-0.68775
  0
LINE
  5
27E
100
AcDbEntity
  8
0
100
AcDbLine
 62
2
  6
CONTINUOUS
 10
0.0
 20
-0.93775
 11
4.6
 21
-0.93775
  0
LINE
  5
27F
100
AcDbEntity
  8
0
100
AcDbLine
 62
2
  6
CONTINUOUS
 10
0.0
 20
-1.18775
 11
4.6
 21
-1.18775
  0
LINE
  5
280
100
AcDbEntity
  8
0
100
AcDbLine
 62
2
  6
CONTINUOUS
 10
0.0
 20
-1.43775
 11
4.6
 21
-1.43775
  0
LINE
  5
281
100
AcDbEntity
  8
0
100
AcDbLine
 62
2
  6
CONTINUOUS
 10
1.3
 20
-0.34375
 11
1.3
 21
-1.43775
  0
LINE
  5
282
100
AcDbEntity
  8
0
100
AcDbLine
 62
2
  6
CONTINUOUS
 10
3.3
 20
-0.34375
 11
3.3
 21
-1.43775
  0
LINE
  5
283
100
AcDbEntity
  8
0
100
AcDbLine
 62
2
  6
CONTINUOUS
 10
4.6
 20
0.0
 11
4.6
 21
-1.43775
  0
MTEXT
  5
284
100
AcDbEntity
  8
0
100
AcDbMText
 62
2
  6
CONTINUOUS
  7
STANDARD
 71
2
 72
1
 10
2.3
 20
-0.099375
 30
0.0
 11
1.0
 21
0.0
 31
0.0
 44
0.9
  1
Port Headings
 40
0.145
 41
3.016
  0
MTEXT
  5
285
100
AcDbEntity
  8
0
100
AcDbMText
 62
2
  6
CONTINUOUS
  7
STANDARD
 71
2
 72
1
 10
0.65
 20
-0.44325
 30
0.0
 11
1.0
 21
0.0
 31
0.0
 44
0.9
  1
Product
 40
0.145
 41
1.624
  0
MTEXT
  5
286
100
AcDbEntity
  8
0
100
AcDbMText
 62
2
  6
CONTINUOUS
  7
STANDARD
 71
2
 72
1
 10
2.3
 20
-0.44325
 30
0.0
 11
1.0
 21
0.0
 31
0.0
 44
0.9
  1
Port
 40
0.145
 41
0.928
  0
MTEXT
  5
287
100
AcDbEntity
  8
0
100
AcDbMText
 62
2
  6
CONTINUOUS
  7
STANDARD
 71
2
 72
1
 10
3.95
 20
-0.44325
 30
0.0
 11
1.0
 21
0.0
 31
0.0
 44
0.9
  1
Size
 40
0.145
 41
0.928
  0
MTEXT
  5
288
100
AcDbEntity
  8
0
100
AcDbMText
 62
2
  6
CONTINUOUS
  7
STANDARD
 71
2
 72
1
 10
0.65
 20
-0.75025
 30
0.0
 11
1.0
 21
0.0
 31
0.0
 44
0.9
  1
XOU
 40
0.125
 41
0.6
  0
MTEXT
  5
289
100
AcDbEntity
  8
0
100
AcDbMText
 62
2
  6
CONTINUOUS
  7
STANDARD
 71
2
 72
1
 10
2.3
 20
-0.75025
 30
0.0
 11
1.0
 21
0.0
 31
0.0
 44
0.9
  1
Ports 1 &  2
 40
0.125
 41
2.4
  0
MTEXT
  5
28A
100
AcDbEntity
  8
0
100
AcDbMText
 62
2
  6
CONTINUOUS
  7
STANDARD
 71
2
 72
1
 10
3.95
 20
-0.75025
 30
0.0
 11
1.0
 21
0.0
 31
0.0
 44
0.9
  1
3/8" BSPP
 40
0.125
 41
1.8
  0
MTEXT
  5
28B
100
AcDbEntity
  8
0
100
AcDbMText
 62
2
  6
CONTINUOUS
  7
STANDARD
 71
2
 72
1
 10
0.65
 20
-1.00025
 30
0.0
 11
1.0
 21
0.0
 31
0.0
 44
0.9
  1
XOU
 40
0.125
 41
0.6
  0
MTEXT
  5
28C
100
AcDbEntity
  8
0
100
AcDbMText
 62
2
  6
CONTINUOUS
  7
STANDARD
 71
2
 72
1
 10
2.3
 20
-1.00025
 30
0.0
 11
1.0
 21
0.0
 31
0.0
 44
0.9
  1
Port V
 40
0.125
 41
1.2
  0
MTEXT
  5
28D
100
AcDbEntity
  8
0
100
AcDbMText
 62
2
  6
CONTINUOUS
  7
STANDARD
 71
2
 72
1
 10
3.95
 20
-1.00025
 30
0.0
 11
1.0
 21
0.0
 31
0.0
 44
0.9
  1
1/4" BSPP
 40
0.125
 41
1.8
  0
MTEXT
  5
28E
100
AcDbEntity
  8
0
100
AcDbMText
 62
2
  6
CONTINUOUS
  7
STANDARD
 71
2
 72
1
 10
0.65
 20
-1.25025
 30
0.0
 11
1.0
 21
0.0
 31
0.0
 44
0.9
  1
XOU
 40
0.125
 41
0.6
  0
MTEXT
  5
28F
100
AcDbEntity
  8
0
100
AcDbMText
 62
2
  6
CONTINUOUS
  7
STANDARD
 71
2
 72
1
 10
2.3
 20
-1.25025
 30
0.0
 11
1.0
 21
0.0
 31
0.0
 44
0.9
  1
Gage Ports
 40
0.125
 41
2.0
  0
MTEXT
  5
290
100
AcDbEntity
  8
0
100
AcDbMText
 62
2
  6
CONTINUOUS
  7
STANDARD
 71
2
 72
1
 10
3.95
 20
-1.25025
 30
0.0
 11
1.0
 21
0.0
 31
0.0
 44
0.9
  1
1/4" BSPP
 40
0.125
 41
1.8
  0
ENDBLK
  5
291
100
AcDbEntity
  8
0
  6
BYBLOCK
 62
0
100
AcDbBlockEnd
  0
ENDSEC
  0
SECTION
  2
ENTITIES
  0
IMAGE
  5
292
100
AcDbEntity
  8
0
100
AcDbRasterImage
 62
7
  6
CONTINUOUS
 10
19.2297077316
 20
0.3094318264
 30
0.0
 11
0.0066666667
 21
0.0
 31
0.0
 12
0.0
 22
0.0066666667
 32
0.0
 13
369.0
 23
92.0
340
       407
 70
9
280
0
281
50
282
50
283
0
360
       401
 71
1
 91
2
 14
-0.5
 24
-0.5
 14
368.5
 24
91.5
  0
INSERT
  5
293
100
AcDbEntity
  8
0
100
AcDbBlockReference
 62
2
  6
CONTINUOUS
  2
SUN_FIRST_THIRD_ANGLE_BL0
 10
20.4816717061
 20
1.2289683772
  0
ACAD_TABLE
  5
294
100
AcDbEntity
  8
0
 62
2
  6
CONTINUOUS
100
AcDbBlockReference
  2
*T1
 10
12.42375
 20
0.30125
 30
0.0
100
AcDbTable
342
       409
343
20F
 11
1.0
 21
0.0
 31
0.0
 90
6
 91
4
 92
6
 93
20
 94
0
 95
0
 96
0
 70
1
 41
0.0
141
0.525
141
0.1
141
0.525
141
0.1
142
4.1
142
1.1
142
0.7
142
0.5
142
0.4
142
2.475
171
1
172
0
173
0
174
0
175
1
176
1
 91
33
178
0
145
0.0
301
CELL_VALUE
 90
4
  1
T-11A Line mount\PCross port with shuttle on port 3s
304
ACVALUE_END
170
2
140
0.125
171
1
172
0
173
0
174
0
175
1
176
1
 91
33
178
0
145
0.0
301
CELL_VALUE
 90
4
  1
Sep-19-23
304
ACVALUE_END
170
5
140
0.125
171
1
172
0
173
0
174
0
175
1
176
1
 91
33
178
0
145
0.0
301
CELL_VALUE
 90
4
  1
1.000
304
ACVALUE_END
170
5
140
0.125
171
1
172
0
173
0
174
0
175
1
176
1
 91
33
178
0
145
0.0
301
CELL_VALUE
 90
4
  1
C
304
ACVALUE_END
170
5
140
0.125
171
1
172
0
173
0
174
0
175
1
176
1
 91
33
178
0
145
0.0
301
CELL_VALUE
 90
4
  1
2
304
ACVALUE_END
170
5
140
0.125
171
1
172
0
173
0
174
0
175
1
176
1
 91
33
178
0
145
0.0
301
CELL_VALUE
 90
4
  1
 
304
ACVALUE_END
170
1
140
0.125
171
1
172
0
173
0
174
0
175
1
176
1
 91
33
178
0
145
0.0
301
CELL_VALUE
 90
4
  1
DESCRIPTION
304
ACVALUE_END
170
1
140
0.06
171
1
172
0
173
0
174
0
175
1
176
1
 91
33
178
0
145
0.0
301
CELL_VALUE
 90
4
  1
DATE
304
ACVALUE_END
170
1
140
0.06
171
1
172
0
173
0
174
0
175
1
176
1
 91
33
178
0
145
0.0
301
CELL_VALUE
 90
4
  1
SCALE
304
ACVALUE_END
170
1
140
0.06
171
1
172
0
173
0
174
0
175
1
176
1
 91
33
178
0
145
0.0
301
CELL_VALUE
 90
4
  1
DWG SIZE
304
ACVALUE_END
170
1
140
0.06
171
1
172
0
173
0
174
0
175
1
176
1
 91
33
178
0
145
0.0
301
CELL_VALUE
 90
4
  1
SHEET
304
ACVALUE_END
170
1
140
0.06
171
1
172
0
173
0
174
0
175
1
176
1
 91
33
178
0
145
0.0
301
CELL_VALUE
 90
4
  1
 
304
ACVALUE_END
170
1
140
0.125
171
1
172
0
173
0
174
0
175
1
176
1
 91
33
178
0
145
0.0
301
CELL_VALUE
 90
4
  1
XOU
304
ACVALUE_END
170
5
140
0.125
171
1
172
0
173
0
174
0
175
4
176
1
 91
33
178
0
145
0.0
301
CELL_VALUE
 90
4
  1
ALL DIMENSIONS IN INCH\PVIEWS ARE THIRD ANGLE
304
ACVALUE_END
170
5
140
0.12
171
1
172
0
173
1
174
0
175
1
176
1
 91
1
178
0
145
0.0
170
1
171
1
172
0
173
1
174
0
175
1
176
1
 91
1
178
0
145
0.0
170
1
171
1
172
0
173
1
174
0
175
1
176
1
 91
1
178
0
145
0.0
170
5
171
1
172
0
173
0
174
0
175
1
176
1
 91
33
178
0
145
0.0
301
CELL_VALUE
 90
4
  1
 
304
ACVALUE_END
170
1
140
0.125
171
1
172
0
173
0
174
0
175
1
176
1
 91
33
178
0
145
0.0
301
CELL_VALUE
 90
4
  1
MODEL
304
ACVALUE_END
170
1
140
0.06
171
1
172
0
173
0
174
0
175
1
176
1
 91
33
178
0
145
0.0
301
CELL_VALUE
 90
4
  1
 
304
ACVALUE_END
170
1
140
0.125
171
1
172
0
173
0
174
0
175
1
176
1
 91
33
178
0
145
0.0
301
CELL_VALUE
 90
4
  1
 
304
ACVALUE_END
170
1
140
0.125
171
1
172
0
173
0
174
0
175
1
176
1
 91
33
178
0
145
0.0
301
CELL_VALUE
 90
4
  1
 
304
ACVALUE_END
170
1
140
0.125
171
1
172
0
173
0
174
0
175
1
176
1
 91
33
178
0
145
0.0
301
CELL_VALUE
 90
4
  1
 
304
ACVALUE_END
170
1
140
0.125
171
1
172
0
173
0
174
0
175
1
176
1
 91
33
178
0
145
0.0
301
CELL_VALUE
 90
4
  1
 
304
ACVALUE_END
170
1
140
0.125
  0
ACAD_TABLE
  5
295
100
AcDbEntity
  8
0
 62
2
  6
CONTINUOUS
100
AcDbBlockReference
  2
*T2
 10
12.4237499994
 20
16.47875
 30
0.0
100
AcDbTable
342
       408
343
210
 11
1.0
 21
0.0
 31
0.0
 90
22
 91
11
 92
3
 93
16
 94
0
 95
0
 96
0
 41
0.028
141
0.344
141
0.25
141
0.25
141
0.25
141
0.25
141
0.25
141
0.25
141
0.25
141
0.25
141
0.25
141
0.25
142
3.055
142
3.0
142
3.0
171
1
172
0
173
0
174
0
175
1
176
1
 91
33
178
0
145
0.0
301
CELL_VALUE
 90
4
  1
Technical Data
304
ACVALUE_END
170
5
140
0.145
171
1
172
0
173
0
174
0
175
1
176
1
 91
33
178
0
145
0.0
301
CELL_VALUE
 90
4
  1
U.S. Units
304
ACVALUE_END
170
5
140
0.145
171
1
172
0
173
0
174
0
175
1
176
1
 91
33
178
0
145
0.0
301
CELL_VALUE
 90
4
  1
Metric Units
304
ACVALUE_END
170
5
140
0.145
171
1
172
0
173
0
174
0
175
1
176
1
 91
33
178
0
145
0.0
301
CELL_VALUE
 90
4
  1
Cavity
304
ACVALUE_END
170
5
140
0.125
171
1
172
0
173
0
174
0
175
2
176
1
 91
33
178
0
145
0.0
301
CELL_VALUE
 90
4
  1
T-11A
304
ACVALUE_END
170
5
140
0.125
171
1
172
0
173
1
174
0
175
1
176
1
 91
1
178
0
145
0.0
170
1
171
1
172
0
173
0
174
0
175
1
176
1
 91
33
178
0
145
0.0
301
CELL_VALUE
 90
4
  1
Body Features
304
ACVALUE_END
170
5
140
0.125
171
1
172
0
173
0
174
0
175
2
176
1
 91
33
178
0
145
0.0
301
CELL_VALUE
 90
4
  1
Cross port with shuttle on port 3s
304
ACVALUE_END
170
5
140
0.125
171
1
172
0
173
1
174
0
175
1
176
1
 91
1
178
0
145
0.0
170
1
171
1
172
0
173
0
174
0
175
1
176
1
 91
33
178
0
145
0.0
301
CELL_VALUE
 90
4
  1
Body Type
304
ACVALUE_END
170
5
140
0.125
171
1
172
0
173
0
174
0
175
2
176
1
 91
33
178
0
145
0.0
301
CELL_VALUE
 90
4
  1
Line mount
304
ACVALUE_END
170
5
140
0.125
171
1
172
0
173
1
174
0
175
1
176
1
 91
1
178
0
145
0.0
170
1
171
1
172
0
173
0
174
0
175
1
176
1
 91
33
178
0
145
0.0
301
CELL_VALUE
 90
4
  1
Interface
304
ACVALUE_END
170
5
140
0.125
171
1
172
0
173
0
174
0
175
2
176
1
 91
33
178
0
145
0.0
301
CELL_VALUE
 90
4
  1
None
304
ACVALUE_END
170
5
140
0.125
171
1
172
0
173
1
174
0
175
1
176
1
 91
1
178
0
145
0.0
170
1
171
1
172
0
173
0
174
0
175
1
176
1
 91
33
178
0
145
0.0
301
CELL_VALUE
 90
4
  1
Open Cavity Quantity
304
ACVALUE_END
170
5
140
0.125
171
1
172
0
173
0
174
0
175
2
176
1
 91
33
178
0
145
0.0
301
CELL_VALUE
 90
4
  1
2
304
ACVALUE_END
170
5
140
0.125
171
1
172
0
173
1
174
0
175
1
176
1
 91
1
178
0
145
0.0
170
1
171
1
172
0
173
0
174
0
175
1
176
1
 91
33
178
0
145
0.0
301
CELL_VALUE
 90
4
  1
Weight
304
ACVALUE_END
170
5
140
0.125
171
1
172
0
173
0
174
0
175
1
176
1
 91
33
178
0
145
0.0
301
CELL_VALUE
 90
4
  1
5.789 lb.
304
ACVALUE_END
170
5
140
0.125
171
1
172
0
173
0
174
0
175
1
176
1
 91
33
178
0
145
0.0
301
CELL_VALUE
 90
4
  1
2,626 kg.
304
ACVALUE_END
170
5
140
0.125
171
1
172
0
173
0
174
0
175
1
176
1
 91
33
178
0
145
0.0
301
CELL_VALUE
 90
4
  1
Mounting Hole Diameter
304
ACVALUE_END
170
5
140
0.125
171
1
172
0
173
0
174
0
175
1
176
1
 91
33
178
0
145
0.0
301
CELL_VALUE
 90
4
  1
.42 in.
304
ACVALUE_END
170
5
140
0.125
171
1
172
0
173
0
174
0
175
1
176
1
 91
33
178
0
145
0.0
301
CELL_VALUE
 90
4
  1
10,7 mm
304
ACVALUE_END
170
5
140
0.125
171
1
172
0
173
0
174
0
175
1
176
1
 91
33
178
0
145
0.0
301
CELL_VALUE
 90
4
  1
Mounting Hole Depth
304
ACVALUE_END
170
5
140
0.125
171
1
172
0
173
0
174
0
175
2
176
1
 91
33
178
0
145
0.0
301
CELL_VALUE
 90
4
  1
Through
304
ACVALUE_END
170
5
140
0.125
171
1
172
0
173
1
174
0
175
1
176
1
 91
1
178
0
145
0.0
170
1
171
1
172
0
173
0
174
0
175
1
176
1
 91
33
178
0
145
0.0
301
CELL_VALUE
 90
4
  1
Mounting Hole Quantity
304
ACVALUE_END
170
5
140
0.125
171
1
172
0
173
0
174
0
175
2
176
1
 91
33
178
0
145
0.0
301
CELL_VALUE
 90
4
  1
2
304
ACVALUE_END
170
5
140
0.125
171
1
172
0
173
1
174
0
175
1
176
1
 91
1
178
0
145
0.0
170
1
171
1
172
0
173
0
174
0
175
1
176
1
 91
33
178
0
145
0.0
301
CELL_VALUE
 90
4
  1
Includes integral cartridge(s)
304
ACVALUE_END
170
5
140
0.125
171
1
172
0
173
0
174
0
175
2
176
1
 91
33
178
0
145
0.0
301
CELL_VALUE
 90
4
  1
Yes (see Included Components)
304
ACVALUE_END
170
5
140
0.125
171
1
172
0
173
1
174
0
175
1
176
1
 91
1
178
0
145
0.0
170
1
  0
ACAD_TABLE
  5
296
100
AcDbEntity
  8
0
 62
2
  6
CONTINUOUS
100
AcDbBlockReference
  2
*T3
 10
0.52125
 20
1.959
 30
0.0
100
AcDbTable
342
       408
343
211
 11
1.0
 21
0.0
 31
0.0
 90
22
 91
5
 92
3
 93
16
 94
0
 95
0
 96
0
 41
0.05
141
0.34375
141
0.344
141
0.25
141
0.25
141
0.25
142
1.3
142
2.0
142
1.3
171
1
172
0
173
0
174
0
175
3
176
1
 91
33
178
0
145
0.0
301
CELL_VALUE
 90
4
  1
Port Headings
304
ACVALUE_END
170
5
140
0.145
171
1
172
0
173
1
174
0
175
1
176
1
 91
1
178
0
145
0.0
170
1
171
1
172
0
173
1
174
0
175
1
176
1
 91
1
178
0
145
0.0
170
1
171
1
172
0
173
0
174
0
175
1
176
1
 91
33
178
0
145
0.0
301
CELL_VALUE
 90
4
  1
Product
304
ACVALUE_END
170
5
140
0.145
171
1
172
0
173
0
174
0
175
1
176
1
 91
33
178
0
145
0.0
301
CELL_VALUE
 90
4
  1
Port
304
ACVALUE_END
170
5
140
0.145
171
1
172
0
173
0
174
0
175
1
176
1
 91
33
178
0
145
0.0
301
CELL_VALUE
 90
4
  1
Size
304
ACVALUE_END
170
5
140
0.145
171
1
172
0
173
0
174
0
175
1
176
1
 91
33
178
0
145
0.0
301
CELL_VALUE
 90
4
  1
XOU
304
ACVALUE_END
170
5
140
0.125
171
1
172
0
173
0
174
0
175
1
176
1
 91
33
178
0
145
0.0
301
CELL_VALUE
 90
4
  1
Ports 1 &  2
304
ACVALUE_END
170
5
140
0.125
171
1
172
0
173
0
174
0
175
1
176
1
 91
33
178
0
145
0.0
301
CELL_VALUE
 90
4
  1
3/8" BSPP
304
ACVALUE_END
170
5
140
0.125
171
1
172
0
173
0
174
0
175
1
176
1
 91
33
178
0
145
0.0
301
CELL_VALUE
 90
4
  1
XOU
304
ACVALUE_END
170
5
140
0.125
171
1
172
0
173
0
174
0
175
1
176
1
 91
33
178
0
145
0.0
301
CELL_VALUE
 90
4
  1
Port V
304
ACVALUE_END
170
5
140
0.125
171
1
172
0
173
0
174
0
175
1
176
1
 91
33
178
0
145
0.0
301
CELL_VALUE
 90
4
  1
1/4" BSPP
304
ACVALUE_END
170
5
140
0.125
171
1
172
0
173
0
174
0
175
1
176
1
 91
33
178
0
145
0.0
301
CELL_VALUE
 90
4
  1
XOU
304
ACVALUE_END
170
5
140
0.125
171
1
172
0
173
0
174
0
175
1
176
1
 91
33
178
0
145
0.0
301
CELL_VALUE
 90
4
  1
Gage Ports
304
ACVALUE_END
170
5
140
0.125
171
1
172
0
173
0
174
0
175
1
176
1
 91
33
178
0
145
0.0
301
CELL_VALUE
 90
4
  1
1/4" BSPP
304
ACVALUE_END
170
5
140
0.125
  0
MTEXT
  5
297
100
AcDbEntity
  8
0
100
AcDbMText
 62
2
  6
CONTINUOUS
  7
STANDARD
 71
1
 72
1
 10
0.52125
 20
5.75995
 30
0.0
 11
1.0
 21
0.0
 31
0.0
 44
0.6
  3
Notes\P \P1. Important: Carefully consider\P   the maximum system pressure. The\P   pressure rating of the manifold is\P   dependent on the manifold material,\P   with the port type/size a secondary\P   consideration. Manifolds\P   constructed of alu
  3
minum are not\P   rated for pressures higher than\P   3000 psi (210 bar), regardless of\P   the port type/size specified.\P2. This drawing is for reference\P   only. It is generated by an\P   automated process and does not fall\P   under Sun's docume
  1
nt control\P   process.
 40
0.1
 41
3.04
  0
LINE
  5
298
100
AcDbEntity
  8
0
100
AcDbLine
 62
7
  6
CONTINUOUS
 10
0.30125
 20
0.30125
 11
0.30125
 21
16.69875
  0
LINE
  5
299
100
AcDbEntity
  8
0
100
AcDbLine
 62
7
  6
CONTINUOUS
 10
0.30125
 20
0.30125
 11
21.69875
 21
0.30125
  0
LINE
  5
29A
100
AcDbEntity
  8
0
100
AcDbLine
 62
7
  6
CONTINUOUS
 10
0.30125
 20
16.69875
 11
21.69875
 21
16.69875
  0
LINE
  5
29B
100
AcDbEntity
  8
0
100
AcDbLine
 62
7
  6
CONTINUOUS
 10
21.69875
 20
0.30125
 11
21.69875
 21
16.69875
  0
LINE
  5
29C
100
AcDbEntity
  8
0
100
AcDbLine
 62
7
  6
CONTINUOUS
 10
8.0028429203
 20
6.7164499422
 11
8.0028429203
 21
9.4934868573
  0
LINE
  5
29D
100
AcDbEntity
  8
0
100
AcDbLine
 62
7
  6
CONTINUOUS
 10
8.0028429203
 20
9.4934868573
 11
9.1675276621
 21
10.6184859955
  0
LINE
  5
29E
100
AcDbEntity
  8
0
100
AcDbLine
 62
4
  6
CONTINUOUS
 10
8.3626502193
 20
7.8699268196
 11
8.3988724391
 21
7.7515036967
  0
LINE
  5
29F
100
AcDbEntity
  8
0
100
AcDbLine
 62
4
  6
CONTINUOUS
 10
9.0461737729
 20
10.2852669969
 11
9.0409973976
 21
10.2802670021
  0
LINE
  5
2A0
100
AcDbEntity
  8
0
100
AcDbLine
 62
4
  6
CONTINUOUS
 10
8.5997112878
 20
9.8540173266
 11
8.5686530287
 21
9.8240173502
  0
LINE
  5
2A1
100
AcDbEntity
  8
0
100
AcDbLine
 62
4
  6
CONTINUOUS
 10
8.977345348
 20
10.2712838386
 11
8.9623363392
 21
10.2642862484
  0
LINE
  5
2A2
100
AcDbEntity
  8
0
100
AcDbLine
 62
4
  6
CONTINUOUS
 10
8.3988724391
 20
7.7515036967
 11
8.435094659
 21
7.8649027806
  0
LINE
  5
2A3
100
AcDbEntity
  8
0
100
AcDbLine
 62
7
  6
CONTINUOUS
 10
12.8324723379
 20
6.3815140045
 11
8.0028429203
 21
6.7164499422
  0
LINE
  5
2A4
100
AcDbEntity
  8
0
100
AcDbLine
 62
7
  6
CONTINUOUS
 10
9.8220965272
 20
9.72029619
 11
9.8214348641
 21
9.7196691338
  0
LINE
  5
2A5
100
AcDbEntity
  8
0
100
AcDbLine
 62
4
  6
CONTINUOUS
 10
10.1692541196
 20
9.7960794634
 11
10.1589013667
 21
9.7860794714
  0
LINE
  5
2A6
100
AcDbEntity
  8
0
100
AcDbLine
 62
4
  6
CONTINUOUS
 10
10.2717165767
 20
9.8050506048
 11
10.2406583176
 21
9.7750506285
  0
LINE
  5
2A7
100
AcDbEntity
  8
0
100
AcDbLine
 62
4
  6
CONTINUOUS
 10
10.0968096799
 20
9.8011035023
 11
10.1118186887
 21
9.8081010925
  0
LINE
  5
2A8
100
AcDbEntity
  8
0
100
AcDbLine
 62
4
  6
CONTINUOUS
 10
10.5694448595
 20
10.041634103
 11
10.5539157296
 21
10.0266341145
  0
LINE
  5
2A9
100
AcDbEntity
  8
0
100
AcDbLine
 62
4
  6
CONTINUOUS
 10
10.6118712826
 20
10.0226148833
 11
10.5963421527
 21
10.0076148948
  0
LINE
  5
2AA
100
AcDbEntity
  8
0
100
AcDbLine
 62
4
  6
CONTINUOUS
 10
10.6253199292
 20
10.0056052791
 11
10.656378189
 21
10.0356052561
  0
LINE
  5
2AB
100
AcDbEntity
  8
0
100
AcDbLine
 62
4
  6
CONTINUOUS
 10
10.5142531784
 20
9.8493230237
 11
10.5453114381
 21
9.8793230008
  0
LINE
  5
2AC
100
AcDbEntity
  8
0
100
AcDbLine
 62
4
  6
CONTINUOUS
 10
10.714333742
 20
10.0315860249
 11
10.6832754822
 21
10.0015860479
  0
LINE
  5
2AD
100
AcDbEntity
  8
0
100
AcDbLine
 62
4
  6
CONTINUOUS
 10
10.7433115185
 20
10.0295764093
 11
10.7122532587
 21
9.9995764322
  0
LINE
  5
2AE
100
AcDbEntity
  8
0
100
AcDbLine
 62
4
  6
CONTINUOUS
 10
10.5988300902
 20
9.8710180592
 11
10.5766456189
 21
9.8495895042
  0
LINE
  5
2AF
100
AcDbEntity
  8
0
100
AcDbLine
 62
4
  6
CONTINUOUS
 10
10.8012670715
 20
10.025557178
 11
10.7702088117
 21
9.995557201
  0
LINE
  5
2B0
100
AcDbEntity
  8
0
100
AcDbLine
 62
4
  6
CONTINUOUS
 10
10.6191251252
 20
9.8420501295
 11
10.6833008418
 21
9.8697534031
  0
LINE
  5
2B1
100
AcDbEntity
  8
0
100
AcDbLine
 62
4
  6
CONTINUOUS
 10
9.9177910477
 20
7.762077444
 11
9.9033021598
 21
7.7727415107
  0
LINE
  5
2B2
100
AcDbEntity
  8
0
100
AcDbLine
 62
4
  6
CONTINUOUS
 10
9.9033021598
 20
7.7727415107
 11
9.8888132719
 21
7.7930648355
  0
LINE
  5
2B3
100
AcDbEntity
  8
0
100
AcDbLine
 62
4
  6
CONTINUOUS
 10
9.9467688236
 20
7.8663196756
 11
9.9540132676
 21
7.8561580084
  0
LINE
  5
2B4
100
AcDbEntity
  8
0
100
AcDbLine
 62
4
  6
CONTINUOUS
 10
10.0192132632
 20
7.7647030484
 11
10.0047243753
 21
7.7850263731
  0
LINE
  5
2B5
100
AcDbEntity
  8
0
100
AcDbLine
 62
4
  6
CONTINUOUS
 10
9.8888132719
 20
7.7930648355
 11
9.8815688279
 21
7.8225450152
  0
LINE
  5
2B6
100
AcDbEntity
  8
0
100
AcDbLine
 62
4
  6
CONTINUOUS
 10
10.0119688193
 20
7.8521387773
 11
10.0119688193
 21
7.842479521
  0
LINE
  5
2B7
100
AcDbEntity
  8
0
100
AcDbLine
 62
4
  6
CONTINUOUS
 10
10.0962895591
 20
9.7931011043
 11
10.0968096799
 21
9.8011035023
  0
LINE
  5
2B8
100
AcDbEntity
  8
0
100
AcDbLine
 62
4
  6
CONTINUOUS
 10
10.8861199177
 20
9.9875187385
 11
10.9171781775
 21
10.0175187155
  0
LINE
  5
2B9
100
AcDbEntity
  8
0
100
AcDbLine
 62
4
  6
CONTINUOUS
 10
10.7515949665
 20
9.8328633148
 11
10.7826532263
 21
9.8628632918
  0
LINE
  5
2BA
100
AcDbEntity
  8
0
100
AcDbLine
 62
4
  6
CONTINUOUS
 10
10.9440754707
 20
9.9834995072
 11
10.9596046006
 21
9.9984994957
  0
LINE
  5
2BB
100
AcDbEntity
  8
0
100
AcDbLine
 62
4
  6
CONTINUOUS
 10
10.8178298803
 20
9.828269908
 11
10.8488881401
 21
9.858269885
  0
LINE
  5
2BC
100
AcDbEntity
  8
0
100
AcDbLine
 62
4
  6
CONTINUOUS
 10
10.991405839
 20
9.980217135
 11
11.0069349689
 21
9.9952171236
  0
LINE
  5
2BD
100
AcDbEntity
  8
0
100
AcDbLine
 62
4
  6
CONTINUOUS
 10
11.0648905219
 20
9.9911978923
 11
11.0338322622
 21
9.9611979153
  0
LINE
  5
2BE
100
AcDbEntity
  8
0
100
AcDbLine
 62
4
  6
CONTINUOUS
 10
10.9775282683
 20
9.8925267222
 11
10.9997127397
 21
9.9139552773
  0
LINE
  5
2BF
100
AcDbEntity
  8
0
100
AcDbLine
 62
4
  6
CONTINUOUS
 10
11.0879984274
 20
9.9735184163
 11
11.1035275573
 21
9.9885184048
  0
LINE
  5
2C0
100
AcDbEntity
  8
0
100
AcDbLine
 62
4
  6
CONTINUOUS
 10
11.0576682858
 20
9.9099360465
 11
11.0354838144
 21
9.8885074915
  0
LINE
  5
2C1
100
AcDbEntity
  8
0
100
AcDbLine
 62
4
  6
CONTINUOUS
 10
11.1770122402
 20
9.9994991621
 11
11.1459539804
 21
9.969499185
  0
LINE
  5
2C2
100
AcDbEntity
  8
0
100
AcDbLine
 62
4
  6
CONTINUOUS
 10
10.9961334615
 20
9.8204979235
 11
11.0183179328
 21
9.8419264785
  0
LINE
  5
2C3
100
AcDbEntity
  8
0
100
AcDbLine
 62
4
  6
CONTINUOUS
 10
11.0952226505
 20
9.9119250529
 11
11.0686012851
 21
9.8862107871
  0
LINE
  5
2C4
100
AcDbEntity
  8
0
100
AcDbLine
 62
4
  6
CONTINUOUS
 10
11.79111829
 20
10.1176801102
 11
11.8061272987
 21
10.1246777004
  0
LINE
  5
2C5
100
AcDbEntity
  8
0
100
AcDbLine
 62
4
  6
CONTINUOUS
 10
11.9209981605
 20
10.1006344421
 11
11.9059891518
 21
10.0936368519
  0
LINE
  5
2C6
100
AcDbEntity
  8
0
100
AcDbLine
 62
4
  6
CONTINUOUS
 10
10.0337021512
 20
7.7540389817
 11
10.0192132632
 21
7.7647030484
  0
LINE
  5
2C7
100
AcDbEntity
  8
0
100
AcDbLine
 62
4
  6
CONTINUOUS
 10
9.9322799357
 20
7.8769837397
 11
9.9467688236
 21
7.8663196756
  0
LINE
  5
2C8
100
AcDbEntity
  8
0
100
AcDbLine
 62
4
  6
CONTINUOUS
 10
10.0192132632
 20
7.8323178607
 11
10.062679927
 21
7.8003256581
  0
LINE
  5
2C9
100
AcDbEntity
  8
0
100
AcDbLine
 62
4
  6
CONTINUOUS
 10
10.062679927
 20
7.8582812132
 11
10.0481910391
 21
7.8689452773
  0
LINE
  5
2CA
100
AcDbEntity
  8
0
100
AcDbLine
 62
4
  6
CONTINUOUS
 10
10.0119688193
 20
7.842479521
 11
10.0192132632
 21
7.8323178607
  0
LINE
  5
2CB
100
AcDbEntity
  8
0
100
AcDbLine
 62
4
  6
CONTINUOUS
 10
10.062679927
 20
7.8003256581
 11
10.069924371
 21
7.7901639978
  0
LINE
  5
2CC
100
AcDbEntity
  8
0
100
AcDbLine
 62
4
  6
CONTINUOUS
 10
10.069924371
 20
7.8481195461
 11
10.062679927
 21
7.8582812132
  0
LINE
  5
2CD
100
AcDbEntity
  8
0
100
AcDbLine
 62
4
  6
CONTINUOUS
 10
10.3017465779
 20
7.7837463295
 11
10.2872576899
 21
7.8040696534
  0
LINE
  5
2CE
100
AcDbEntity
  8
0
100
AcDbLine
 62
4
  6
CONTINUOUS
 10
10.2945021339
 20
7.8422042886
 11
10.2872576899
 21
7.8523659488
  0
LINE
  5
2CF
100
AcDbEntity
  8
0
100
AcDbLine
 62
4
  6
CONTINUOUS
 10
10.1568576986
 20
7.8614092189
 11
10.1930799184
 21
7.742986096
  0
LINE
  5
2D0
100
AcDbEntity
  8
0
100
AcDbLine
 62
4
  6
CONTINUOUS
 10
10.069924371
 20
7.7901639978
 11
10.069924371
 21
7.77084548
  0
LINE
  5
2D1
100
AcDbEntity
  8
0
100
AcDbLine
 62
4
  6
CONTINUOUS
 10
10.2365465822
 20
7.8558827761
 11
10.2365465822
 21
7.7399716726
  0
LINE
  5
2D2
100
AcDbEntity
  8
0
100
AcDbLine
 62
4
  6
CONTINUOUS
 10
10.2945021339
 20
7.8132265127
 11
10.2945021339
 21
7.8422042886
  0
LINE
  5
2D3
100
AcDbEntity
  8
0
100
AcDbLine
 62
4
  6
CONTINUOUS
 10
9.8815688279
 20
7.8225450152
 11
9.8888132719
 21
7.8510203872
  0
LINE
  5
2D4
100
AcDbEntity
  8
0
100
AcDbLine
 62
4
  6
CONTINUOUS
 10
11.2001201456
 20
9.981819686
 11
11.1845910157
 21
9.9668196975
  0
LINE
  5
2D5
100
AcDbEntity
  8
0
100
AcDbLine
 62
4
  6
CONTINUOUS
 10
11.1265568243
 20
9.8821915568
 11
11.1531781897
 21
9.9079058226
  0
LINE
  5
2D6
100
AcDbEntity
  8
0
100
AcDbLine
 62
4
  6
CONTINUOUS
 10
11.092726013
 20
9.8137992073
 11
11.1149104843
 21
9.8352277623
  0
LINE
  5
2D7
100
AcDbEntity
  8
0
100
AcDbLine
 62
4
  6
CONTINUOUS
 10
11.2811836041
 20
9.9601209788
 11
11.2915363574
 21
9.9701209711
  0
LINE
  5
2D8
100
AcDbEntity
  8
0
100
AcDbLine
 62
4
  6
CONTINUOUS
 10
11.1728660373
 20
9.8312085311
 11
11.150681566
 21
9.809779976
  0
LINE
  5
2D9
100
AcDbEntity
  8
0
100
AcDbLine
 62
4
  6
CONTINUOUS
 10
11.1793621146
 20
9.8031975623
 11
11.2104203744
 21
9.8331975394
  0
LINE
  5
2DA
100
AcDbEntity
  8
0
100
AcDbLine
 62
4
  6
CONTINUOUS
 10
11.354668287
 20
9.971101736
 11
11.3391391571
 21
9.9561017475
  0
LINE
  5
2DB
100
AcDbEntity
  8
0
100
AcDbLine
 62
4
  6
CONTINUOUS
 10
11.3933053223
 20
9.9684222485
 11
11.3777761925
 21
9.95342226
  0
LINE
  5
2DC
100
AcDbEntity
  8
0
100
AcDbLine
 62
4
  6
CONTINUOUS
 10
11.2639390334
 20
9.8248925974
 11
11.2417545621
 21
9.8034640423
  0
LINE
  5
2DD
100
AcDbEntity
  8
0
100
AcDbLine
 62
4
  6
CONTINUOUS
 10
11.4357317455
 20
9.9494030288
 11
11.4512608754
 21
9.9644030173
  0
LINE
  5
2DE
100
AcDbEntity
  8
0
100
AcDbLine
 62
4
  6
CONTINUOUS
 10
11.2842341098
 20
9.7959246648
 11
11.3152923695
 21
9.8259246418
  0
LINE
  5
2DF
100
AcDbEntity
  8
0
100
AcDbLine
 62
4
  6
CONTINUOUS
 10
11.4743687808
 20
9.9467235413
 11
11.5054270406
 21
9.9767235183
  0
LINE
  5
2E0
100
AcDbEntity
  8
0
100
AcDbLine
 62
4
  6
CONTINUOUS
 10
10.0481910391
 20
7.7530341739
 11
10.0337021512
 21
7.7540389817
  0
LINE
  5
2E1
100
AcDbEntity
  8
0
100
AcDbLine
 62
4
  6
CONTINUOUS
 10
9.9322799357
 20
7.7610726362
 11
9.9177910477
 21
7.762077444
  0
LINE
  5
2E2
100
AcDbEntity
  8
0
100
AcDbLine
 62
4
  6
CONTINUOUS
 10
10.2365465822
 20
7.7399716726
 11
10.2872576899
 21
7.7364548454
  0
LINE
  5
2E3
100
AcDbEntity
  8
0
100
AcDbLine
 62
4
  6
CONTINUOUS
 10
10.1351243667
 20
7.7856423628
 11
10.1785910305
 21
7.7826279394
  0
LINE
  5
2E4
100
AcDbEntity
  8
0
100
AcDbLine
 62
4
  6
CONTINUOUS
 10
10.2365465822
 20
7.8075864807
 11
10.2872576899
 21
7.8040696534
  0
LINE
  5
2E5
100
AcDbEntity
  8
0
100
AcDbLine
 62
4
  6
CONTINUOUS
 10
10.3017465779
 20
7.7547685554
 11
10.3017465779
 21
7.7837463295
  0
LINE
  5
2E6
100
AcDbEntity
  8
0
100
AcDbLine
 62
4
  6
CONTINUOUS
 10
10.1206354787
 20
7.7480101349
 11
10.1568576986
 21
7.8614092189
  0
LINE
  5
2E7
100
AcDbEntity
  8
0
100
AcDbLine
 62
4
  6
CONTINUOUS
 10
9.8888132719
 20
7.8510203872
 11
9.9033021598
 21
7.8693340989
  0
LINE
  5
2E8
100
AcDbEntity
  8
0
100
AcDbLine
 62
4
  6
CONTINUOUS
 10
11.5130058161
 20
9.9440440538
 11
11.528534946
 21
9.9590440423
  0
LINE
  5
2E9
100
AcDbEntity
  8
0
100
AcDbLine
 62
4
  6
CONTINUOUS
 10
11.5671719814
 20
9.9563645548
 11
11.5516428515
 21
9.9413645663
  0
LINE
  5
2EA
100
AcDbEntity
  8
0
100
AcDbLine
 62
4
  6
CONTINUOUS
 10
11.6637645697
 20
9.949665836
 11
11.6560000048
 21
9.9421658418
  0
LINE
  5
2EB
100
AcDbEntity
  8
0
100
AcDbLine
 62
4
  6
CONTINUOUS
 10
11.8635627296
 20
10.1126560712
 11
11.8532099768
 21
10.1026560793
  0
LINE
  5
2EC
100
AcDbEntity
  8
0
100
AcDbLine
 62
4
  6
CONTINUOUS
 10
11.7139555578
 20
9.9381466105
 11
11.7061909928
 21
9.9306466163
  0
LINE
  5
2ED
100
AcDbEntity
  8
0
100
AcDbLine
 62
4
  6
CONTINUOUS
 10
11.9898265855
 20
10.1146176004
 11
11.9846502102
 21
10.1096176056
  0
LINE
  5
2EE
100
AcDbEntity
  8
0
100
AcDbLine
 62
4
  6
CONTINUOUS
 10
10.2872576899
 20
7.8523659488
 11
10.2365465822
 21
7.8558827761
  0
LINE
  5
2EF
100
AcDbEntity
  8
0
100
AcDbLine
 62
4
  6
CONTINUOUS
 10
10.0481910391
 20
7.8689452773
 11
10.0337021512
 21
7.8699500851
  0
LINE
  5
2F0
100
AcDbEntity
  8
0
100
AcDbLine
 62
4
  6
CONTINUOUS
 10
9.9177910477
 20
7.8779885474
 11
9.9322799357
 21
7.8769837397
  0
LINE
  5
2F1
100
AcDbEntity
  8
0
100
AcDbLine
 62
4
  6
CONTINUOUS
 10
10.6833008418
 20
9.8697534031
 11
10.6853600528
 21
9.8374567217
  0
LINE
  5
2F2
100
AcDbEntity
  8
0
100
AcDbLine
 62
4
  6
CONTINUOUS
 10
10.0192132632
 20
7.8612956366
 11
10.0119688193
 21
7.8521387773
  0
LINE
  5
2F3
100
AcDbEntity
  8
0
100
AcDbLine
 62
4
  6
CONTINUOUS
 10
9.9540132676
 20
7.7788839424
 11
9.9467688236
 21
7.7697270873
  0
LINE
  5
2F4
100
AcDbEntity
  8
0
100
AcDbLine
 62
4
  6
CONTINUOUS
 10
10.069924371
 20
7.77084548
 11
10.062679927
 21
7.761688625
  0
LINE
  5
2F5
100
AcDbEntity
  8
0
100
AcDbLine
 62
4
  6
CONTINUOUS
 10
13.4746961352
 20
9.9593915022
 11
13.4596871265
 21
9.952393912
  0
LINE
  5
2F6
100
AcDbEntity
  8
0
100
AcDbLine
 62
4
  6
CONTINUOUS
 10
10.2872576899
 20
7.8040696534
 11
10.2945021339
 21
7.8132265127
  0
LINE
  5
2F7
100
AcDbEntity
  8
0
100
AcDbLine
 62
4
  6
CONTINUOUS
 10
10.2872576899
 20
7.7364548454
 11
10.3017465779
 21
7.7547685554
  0
LINE
  5
2F8
100
AcDbEntity
  8
0
100
AcDbLine
 62
7
  6
CONTINUOUS
 10
9.6676937655
 20
7.4406863142
 11
9.5710414098
 21
7.3473273022
  0
LINE
  5
2F9
100
AcDbEntity
  8
0
100
AcDbLine
 62
7
  6
CONTINUOUS
 10
10.0330923817
 20
7.6263088236
 11
9.9364400261
 21
7.5329498116
  0
LINE
  5
2FA
100
AcDbEntity
  8
0
100
AcDbLine
 62
7
  6
CONTINUOUS
 10
10.0903018272
 20
7.6223413351
 11
9.9936494715
 21
7.5289823231
  0
LINE
  5
2FB
100
AcDbEntity
  8
0
100
AcDbLine
 62
4
  6
CONTINUOUS
 10
9.9033021598
 20
7.8693340989
 11
9.9177910477
 21
7.8779885474
  0
LINE
  5
2FC
100
AcDbEntity
  8
0
100
AcDbLine
 62
7
  6
CONTINUOUS
 10
12.6898441911
 20
9.990327886
 11
12.6891825281
 21
9.9897008298
  0
LINE
  5
2FD
100
AcDbEntity
  8
0
100
AcDbLine
 62
4
  6
CONTINUOUS
 10
10.0337021512
 20
7.8699500851
 11
10.0192132632
 21
7.8612956366
  0
LINE
  5
2FE
100
AcDbEntity
  8
0
100
AcDbLine
 62
4
  6
CONTINUOUS
 10
9.9467688236
 20
7.7697270873
 11
9.9322799357
 21
7.7610726362
  0
LINE
  5
2FF
100
AcDbEntity
  8
0
100
AcDbLine
 62
4
  6
CONTINUOUS
 10
10.062679927
 20
7.761688625
 11
10.0481910391
 21
7.7530341739
  0
LINE
  5
300
100
AcDbEntity
  8
0
100
AcDbLine
 62
7
  6
CONTINUOUS
 10
10.4557004434
 20
7.3860378655
 11
10.3590480878
 21
7.2926788535
  0
LINE
  5
301
100
AcDbEntity
  8
0
100
AcDbLine
 62
7
  6
CONTINUOUS
 10
10.4843051661
 20
7.3345092882
 11
10.3876528105
 21
7.2411502762
  0
LINE
  5
302
100
AcDbEntity
  8
0
100
AcDbLine
 62
4
  6
CONTINUOUS
 10
9.0415175184
 20
10.2882694
 11
9.0461737729
 21
10.2852669969
  0
LINE
  5
303
100
AcDbEntity
  8
0
100
AcDbLine
 62
4
  6
CONTINUOUS
 10
11.7905981692
 20
10.1096777122
 11
11.79111829
 21
10.1176801102
  0
LINE
  5
304
100
AcDbEntity
  8
0
100
AcDbLine
 62
4
  6
CONTINUOUS
 10
13.5435245602
 20
9.9733746605
 11
13.5383481849
 21
9.9683746656
  0
LINE
  5
305
100
AcDbEntity
  8
0
100
AcDbLine
 62
4
  6
CONTINUOUS
 10
13.0970620751
 20
9.5421249901
 11
13.066003816
 21
9.5121250138
  0
LINE
  5
306
100
AcDbEntity
  8
0
100
AcDbLine
 62
4
  6
CONTINUOUS
 10
10.1056020706
 20
9.7870963006
 11
10.0962895591
 21
9.7931011043
  0
LINE
  5
307
100
AcDbEntity
  8
0
100
AcDbLine
 62
4
  6
CONTINUOUS
 10
10.1749506175
 20
9.809081858
 11
10.179606872
 21
9.8060794549
  0
LINE
  5
308
100
AcDbEntity
  8
0
100
AcDbLine
 62
7
  6
CONTINUOUS
 10
10.4843051661
 20
6.9125833093
 11
10.3876528105
 21
6.8192242972
  0
LINE
  5
309
100
AcDbEntity
  8
0
100
AcDbLine
 62
7
  6
CONTINUOUS
 10
10.4557004434
 20
6.8650222204
 11
10.3590480878
 21
6.7716632084
  0
LINE
  5
30A
100
AcDbEntity
  8
0
100
AcDbLine
 62
7
  6
CONTINUOUS
 10
12.8324723379
 20
9.1585509196
 11
13.9971570797
 21
10.2835500578
  0
LINE
  5
30B
100
AcDbEntity
  8
0
100
AcDbLine
 62
4
  6
CONTINUOUS
 10
13.5383481849
 20
9.9683746656
 11
13.5285155514
 21
9.9663770703
  0
LINE
  5
30C
100
AcDbEntity
  8
0
100
AcDbLine
 62
4
  6
CONTINUOUS
 10
13.4943613994
 20
9.9633866901
 11
13.4746961352
 21
9.9593915022
  0
LINE
  5
30D
100
AcDbEntity
  8
0
100
AcDbLine
 62
4
  6
CONTINUOUS
 10
13.4855690084
 20
9.9773938917
 11
13.4954016419
 21
9.979391487
  0
LINE
  5
30E
100
AcDbEntity
  8
0
100
AcDbLine
 62
7
  6
CONTINUOUS
 10
8.0028429203
 20
9.4934868573
 11
12.8324723379
 21
9.1585509196
  0
LINE
  5
30F
100
AcDbEntity
  8
0
100
AcDbLine
 62
4
  6
CONTINUOUS
 10
10.1175027702
 20
9.7835914947
 11
10.1056020706
 21
9.7870963006
  0
LINE
  5
310
100
AcDbEntity
  8
0
100
AcDbLine
 62
4
  6
CONTINUOUS
 10
10.9047972561
 20
9.9251310988
 11
10.939973917
 21
9.8905377145
  0
LINE
  5
311
100
AcDbEntity
  8
0
100
AcDbLine
 62
4
  6
CONTINUOUS
 10
11.2417545621
 20
9.8034640423
 11
11.2207589461
 21
9.8003266823
  0
LINE
  5
312
100
AcDbEntity
  8
0
100
AcDbLine
 62
4
  6
CONTINUOUS
 10
13.5285155514
 20
9.9663770703
 11
13.4943613994
 21
9.9633866901
  0
LINE
  5
313
100
AcDbEntity
  8
0
100
AcDbLine
 62
4
  6
CONTINUOUS
 10
13.4954016419
 20
9.979391487
 11
13.5124787175
 21
9.9808866766
  0
LINE
  5
314
100
AcDbEntity
  8
0
100
AcDbLine
 62
4
  6
CONTINUOUS
 10
10.1319916582
 20
9.7825866869
 11
10.1175027702
 21
9.7835914947
  0
LINE
  5
315
100
AcDbEntity
  8
0
100
AcDbLine
 62
4
  6
CONTINUOUS
 10
10.1402763437
 20
9.798089079
 11
10.1692541196
 21
9.7960794634
  0
LINE
  5
316
100
AcDbEntity
  8
0
100
AcDbLine
 62
4
  6
CONTINUOUS
 10
10.1485610293
 20
9.813591471
 11
10.1630499172
 21
9.8125866632
  0
LINE
  5
317
100
AcDbEntity
  8
0
100
AcDbLine
 62
4
  6
CONTINUOUS
 10
10.4613289406
 20
9.8667735642
 11
10.4995696941
 21
9.8579970113
  0
LINE
  5
318
100
AcDbEntity
  8
0
100
AcDbLine
 62
4
  6
CONTINUOUS
 10
10.1630499172
 20
9.8125866632
 11
10.1749506175
 21
9.809081858
  0
LINE
  5
319
100
AcDbEntity
  8
0
100
AcDbLine
 62
4
  6
CONTINUOUS
 10
9.0296168181
 20
10.2917742053
 11
9.0415175184
 21
10.2882694
  0
LINE
  5
31A
100
AcDbEntity
  8
0
100
AcDbLine
 62
4
  6
CONTINUOUS
 10
10.5867082558
 20
9.8764521217
 11
10.5988300902
 21
9.8710180592
  0
LINE
  5
31B
100
AcDbEntity
  8
0
100
AcDbLine
 62
4
  6
CONTINUOUS
 10
11.0082552885
 20
9.815063861
 11
10.9961334615
 21
9.8204979235
  0
LINE
  5
31C
100
AcDbEntity
  8
0
100
AcDbLine
 62
4
  6
CONTINUOUS
 10
11.10484784
 20
9.8083651448
 11
11.092726013
 21
9.8137992073
  0
LINE
  5
31D
100
AcDbEntity
  8
0
100
AcDbLine
 62
7
  6
CONTINUOUS
 10
13.6266458175
 20
9.0877705686
 11
13.6258263715
 21
9.0869936527
  0
LINE
  5
31E
100
AcDbEntity
  8
0
100
AcDbLine
 62
7
  6
CONTINUOUS
 10
13.1737128624
 20
8.6502709037
 11
13.1728934164
 21
8.6494939878
  0
LINE
  5
31F
100
AcDbEntity
  8
0
100
AcDbLine
 62
4
  6
CONTINUOUS
 10
10.8737389963
 20
9.8951311218
 11
10.9710321768
 21
9.9205376915
  0
LINE
  5
320
100
AcDbEntity
  8
0
100
AcDbLine
 62
4
  6
CONTINUOUS
 10
11.9846502102
 20
10.1096176056
 11
11.9748175767
 21
10.1076200102
  0
LINE
  5
321
100
AcDbEntity
  8
0
100
AcDbLine
 62
4
  6
CONTINUOUS
 10
11.9406634247
 20
10.1046296301
 11
11.9209981605
 21
10.1006344421
  0
LINE
  5
322
100
AcDbEntity
  8
0
100
AcDbLine
 62
4
  6
CONTINUOUS
 10
11.9318710338
 20
10.1186368316
 11
11.9417036672
 21
10.1206344269
  0
LINE
  5
323
100
AcDbEntity
  8
0
100
AcDbLine
 62
4
  6
CONTINUOUS
 10
11.8532099768
 20
10.1026560793
 11
11.8433773445
 21
10.1006584851
  0
LINE
  5
324
100
AcDbEntity
  8
0
100
AcDbLine
 62
4
  6
CONTINUOUS
 10
10.1589013667
 20
9.7860794714
 11
10.1490687344
 21
9.7840818772
  0
LINE
  5
325
100
AcDbEntity
  8
0
100
AcDbLine
 62
4
  6
CONTINUOUS
 10
11.8061272987
 20
10.1246777004
 11
11.8257925638
 21
10.1286728893
  0
LINE
  5
326
100
AcDbEntity
  8
0
100
AcDbLine
 62
4
  6
CONTINUOUS
 10
10.1118186887
 20
9.8081010925
 11
10.1314839537
 21
9.8120962814
  0
LINE
  5
327
100
AcDbEntity
  8
0
100
AcDbLine
 62
4
  6
CONTINUOUS
 10
11.150681566
 20
9.809779976
 11
11.12968595
 21
9.8066426161
  0
LINE
  5
328
100
AcDbEntity
  8
0
100
AcDbLine
 62
4
  6
CONTINUOUS
 10
11.1149104843
 20
9.8352277623
 11
11.1359060998
 21
9.8383651219
  0
LINE
  5
329
100
AcDbEntity
  8
0
100
AcDbLine
 62
4
  6
CONTINUOUS
 10
11.0183179328
 20
9.8419264785
 11
11.0393135483
 21
9.8450638381
  0
LINE
  5
32A
100
AcDbEntity
  8
0
100
AcDbLine
 62
4
  6
CONTINUOUS
 10
11.1055612083
 20
9.8790541968
 11
11.1265568243
 21
9.8821915568
  0
LINE
  5
32B
100
AcDbEntity
  8
0
100
AcDbLine
 62
4
  6
CONTINUOUS
 10
11.0354838144
 20
9.8885074915
 11
11.0144881984
 21
9.8853701315
  0
LINE
  5
32C
100
AcDbEntity
  8
0
100
AcDbLine
 62
4
  6
CONTINUOUS
 10
10.5766456189
 20
9.8495895042
 11
10.555649996
 21
9.8464521447
  0
LINE
  5
32D
100
AcDbEntity
  8
0
100
AcDbLine
 62
4
  6
CONTINUOUS
 10
10.9997127397
 20
9.9139552773
 11
11.0207083621
 21
9.9170926363
  0
LINE
  5
32E
100
AcDbEntity
  8
0
100
AcDbLine
 62
4
  6
CONTINUOUS
 10
10.1490687344
 20
9.7840818772
 11
10.1319916582
 21
9.7825866869
  0
LINE
  5
32F
100
AcDbEntity
  8
0
100
AcDbLine
 62
4
  6
CONTINUOUS
 10
10.1314839537
 20
9.8120962814
 11
10.1485610293
 21
9.813591471
  0
LINE
  5
330
100
AcDbEntity
  8
0
100
AcDbLine
 62
4
  6
CONTINUOUS
 10
11.4244950095
 20
9.7999777705
 11
11.3744225412
 21
9.7973257603
  0
LINE
  5
331
100
AcDbEntity
  8
0
100
AcDbLine
 62
4
  6
CONTINUOUS
 10
10.5114014128
 20
9.8694255746
 11
10.4613289406
 21
9.8667735642
  0
LINE
  5
332
100
AcDbEntity
  8
0
100
AcDbLine
 62
4
  6
CONTINUOUS
 10
11.2207589461
 20
9.8003266823
 11
11.1793621146
 21
9.8031975623
  0
LINE
  5
333
100
AcDbEntity
  8
0
100
AcDbLine
 62
4
  6
CONTINUOUS
 10
11.12968595
 20
9.8066426161
 11
11.10484784
 21
9.8083651448
  0
LINE
  5
334
100
AcDbEntity
  8
0
100
AcDbLine
 62
4
  6
CONTINUOUS
 10
11.0413727316
 20
9.8127671586
 11
11.0082552885
 21
9.815063861
  0
LINE
  5
335
100
AcDbEntity
  8
0
100
AcDbLine
 62
4
  6
CONTINUOUS
 10
10.555649996
 20
9.8464521447
 11
10.5142531784
 21
9.8493230237
  0
LINE
  5
336
100
AcDbEntity
  8
0
100
AcDbLine
 62
4
  6
CONTINUOUS
 10
10.8178298803
 20
9.828269908
 11
10.8675060726
 21
9.8248248523
  0
LINE
  5
337
100
AcDbEntity
  8
0
100
AcDbLine
 62
4
  6
CONTINUOUS
 10
11.2842341098
 20
9.7959246648
 11
11.3339102744
 21
9.7924796111
  0
LINE
  5
338
100
AcDbEntity
  8
0
100
AcDbLine
 62
4
  6
CONTINUOUS
 10
10.6390380664
 20
9.8498559841
 11
10.6831946756
 21
9.8467937129
  0
LINE
  5
339
100
AcDbEntity
  8
0
100
AcDbLine
 62
4
  6
CONTINUOUS
 10
11.3350991306
 20
9.8107708071
 11
11.3019816876
 21
9.8130675096
  0
LINE
  5
33A
100
AcDbEntity
  8
0
100
AcDbLine
 62
4
  6
CONTINUOUS
 10
10.8686949288
 20
9.8431160483
 11
10.8355774581
 21
9.8454127527
  0
LINE
  5
33B
100
AcDbEntity
  8
0
100
AcDbLine
 62
4
  6
CONTINUOUS
 10
10.5453114381
 20
9.8793230008
 11
10.5867082558
 21
9.8764521217
  0
LINE
  5
33C
100
AcDbEntity
  8
0
100
AcDbLine
 62
4
  6
CONTINUOUS
 10
10.7495357556
 20
9.8651599962
 11
10.8157706694
 21
9.8605665894
  0
LINE
  5
33D
100
AcDbEntity
  8
0
100
AcDbLine
 62
4
  6
CONTINUOUS
 10
10.8488881401
 20
9.858269885
 11
10.8985643324
 21
9.8548248293
  0
LINE
  5
33E
100
AcDbEntity
  8
0
100
AcDbLine
 62
4
  6
CONTINUOUS
 10
11.0393135483
 20
9.8450638381
 11
11.0724309914
 21
9.8427671356
  0
LINE
  5
33F
100
AcDbEntity
  8
0
100
AcDbLine
 62
4
  6
CONTINUOUS
 10
11.1359060998
 20
9.8383651219
 11
11.1607442098
 21
9.8366425931
  0
LINE
  5
340
100
AcDbEntity
  8
0
100
AcDbLine
 62
4
  6
CONTINUOUS
 10
11.2104203744
 20
9.8331975394
 11
11.2518172058
 21
9.8303266594
  0
LINE
  5
341
100
AcDbEntity
  8
0
100
AcDbLine
 62
4
  6
CONTINUOUS
 10
11.3152923695
 20
9.8259246418
 11
11.3649685342
 21
9.8224795881
  0
LINE
  5
342
100
AcDbEntity
  8
0
100
AcDbLine
 62
4
  6
CONTINUOUS
 10
11.0144881984
 20
9.8853701315
 11
10.9896501023
 21
9.8870926593
  0
LINE
  5
343
100
AcDbEntity
  8
0
100
AcDbLine
 62
4
  6
CONTINUOUS
 10
11.0807231122
 20
9.8807767246
 11
11.1055612083
 21
9.8790541968
  0
LINE
  5
344
100
AcDbEntity
  8
0
100
AcDbLine
 62
4
  6
CONTINUOUS
 10
11.0207083621
 20
9.9170926363
 11
11.0455464582
 21
9.9153701085
  0
LINE
  5
345
100
AcDbEntity
  8
0
100
AcDbLine
 62
4
  6
CONTINUOUS
 10
11.0338322622
 20
9.9611979153
 11
10.9951952268
 21
9.9638774028
  0
LINE
  5
346
100
AcDbEntity
  8
0
100
AcDbLine
 62
4
  6
CONTINUOUS
 10
11.7061909928
 20
9.9306466163
 11
11.6482354398
 21
9.9346658475
  0
LINE
  5
347
100
AcDbEntity
  8
0
100
AcDbLine
 62
4
  6
CONTINUOUS
 10
11.3391391571
 20
9.9561017475
 11
11.2811836041
 21
9.9601209788
  0
LINE
  5
348
100
AcDbEntity
  8
0
100
AcDbLine
 62
4
  6
CONTINUOUS
 10
11.1459539804
 20
9.969499185
 11
11.0879984274
 21
9.9735184163
  0
LINE
  5
349
100
AcDbEntity
  8
0
100
AcDbLine
 62
4
  6
CONTINUOUS
 10
11.0493613921
 20
9.9761979038
 11
10.991405839
 21
9.980217135
  0
LINE
  5
34A
100
AcDbEntity
  8
0
100
AcDbLine
 62
4
  6
CONTINUOUS
 10
10.6832754822
 20
10.0015860479
 11
10.6253199292
 21
10.0056052791
  0
LINE
  5
34B
100
AcDbEntity
  8
0
100
AcDbLine
 62
4
  6
CONTINUOUS
 10
10.5963421527
 20
10.0076148948
 11
10.5383865997
 21
10.011634126
  0
LINE
  5
34C
100
AcDbEntity
  8
0
100
AcDbLine
 62
4
  6
CONTINUOUS
 10
11.3777761925
 20
9.95342226
 11
11.4357317455
 21
9.9494030288
  0
LINE
  5
34D
100
AcDbEntity
  8
0
100
AcDbLine
 62
4
  6
CONTINUOUS
 10
11.5516428515
 20
9.9413645663
 11
11.6095984045
 21
9.937345335
  0
LINE
  5
34E
100
AcDbEntity
  8
0
100
AcDbLine
 62
4
  6
CONTINUOUS
 10
11.6560000048
 20
9.9421658418
 11
11.7139555578
 21
9.9381466105
  0
LINE
  5
34F
100
AcDbEntity
  8
0
100
AcDbLine
 62
4
  6
CONTINUOUS
 10
11.2915363574
 20
9.9701209711
 11
11.3494919104
 21
9.9661017399
  0
LINE
  5
350
100
AcDbEntity
  8
0
100
AcDbLine
 62
4
  6
CONTINUOUS
 10
11.354668287
 20
9.971101736
 11
11.3160312517
 21
9.9737812235
  0
LINE
  5
351
100
AcDbEntity
  8
0
100
AcDbLine
 62
4
  6
CONTINUOUS
 10
10.9596046006
 20
9.9984994957
 11
10.9016490476
 21
10.002518727
  0
LINE
  5
352
100
AcDbEntity
  8
0
100
AcDbLine
 62
4
  6
CONTINUOUS
 10
10.5539157296
 20
10.0266341145
 11
10.6118712826
 21
10.0226148833
  0
LINE
  5
353
100
AcDbEntity
  8
0
100
AcDbLine
 62
4
  6
CONTINUOUS
 10
11.1035275573
 20
9.9885184048
 11
11.1614831103
 21
9.9844991736
  0
LINE
  5
354
100
AcDbEntity
  8
0
100
AcDbLine
 62
4
  6
CONTINUOUS
 10
11.2001201456
 20
9.981819686
 11
11.2580756986
 21
9.9778004548
  0
LINE
  5
355
100
AcDbEntity
  8
0
100
AcDbLine
 62
4
  6
CONTINUOUS
 10
11.5671719814
 20
9.9563645548
 11
11.6251275344
 21
9.9523453235
  0
LINE
  5
356
100
AcDbEntity
  8
0
100
AcDbLine
 62
4
  6
CONTINUOUS
 10
11.6637645697
 20
9.949665836
 11
11.7217201227
 21
9.9456466048
  0
LINE
  5
357
100
AcDbEntity
  8
0
100
AcDbLine
 62
4
  6
CONTINUOUS
 10
11.5290550669
 20
9.9670464404
 11
11.5435439551
 21
9.9660416326
  0
LINE
  5
358
100
AcDbEntity
  8
0
100
AcDbLine
 62
4
  6
CONTINUOUS
 10
11.3862542599
 20
9.8087543236
 11
11.4244950095
 21
9.7999777705
  0
LINE
  5
359
100
AcDbEntity
  8
0
100
AcDbLine
 62
4
  6
CONTINUOUS
 10
10.9896501023
 20
9.8870926593
 11
10.9775282683
 21
9.8925267222
  0
LINE
  5
35A
100
AcDbEntity
  8
0
100
AcDbLine
 62
4
  6
CONTINUOUS
 10
11.1607442098
 20
9.8366425931
 11
11.1728660373
 21
9.8312085311
  0
LINE
  5
35B
100
AcDbEntity
  8
0
100
AcDbLine
 62
4
  6
CONTINUOUS
 10
11.0686012851
 20
9.8862107871
 11
11.0807231122
 21
9.8807767246
  0
LINE
  5
35C
100
AcDbEntity
  8
0
100
AcDbLine
 62
4
  6
CONTINUOUS
 10
11.0455464582
 20
9.9153701085
 11
11.0576682858
 21
9.9099360465
  0
LINE
  5
35D
100
AcDbEntity
  8
0
100
AcDbLine
 62
4
  6
CONTINUOUS
 10
11.2518172058
 20
9.8303266594
 11
11.2639390334
 21
9.8248925974
  0
LINE
  5
35E
100
AcDbEntity
  8
0
100
AcDbLine
 62
4
  6
CONTINUOUS
 10
11.9748175767
 20
10.1076200102
 11
11.9406634247
 21
10.1046296301
  0
LINE
  5
35F
100
AcDbEntity
  8
0
100
AcDbLine
 62
4
  6
CONTINUOUS
 10
11.8433773445
 20
10.1006584851
 11
11.8263002682
 21
10.0991632948
  0
LINE
  5
360
100
AcDbEntity
  8
0
100
AcDbLine
 62
4
  6
CONTINUOUS
 10
11.9417036672
 20
10.1206344269
 11
11.9587807428
 21
10.1221296166
  0
LINE
  5
361
100
AcDbEntity
  8
0
100
AcDbLine
 62
4
  6
CONTINUOUS
 10
11.8257925638
 20
10.1286728893
 11
11.8428696394
 21
10.1301680789
  0
LINE
  5
362
100
AcDbEntity
  8
0
100
AcDbLine
 62
4
  6
CONTINUOUS
 10
10.6274004125
 20
10.0376148718
 11
10.5694448595
 21
10.041634103
  0
LINE
  5
363
100
AcDbEntity
  8
0
100
AcDbLine
 62
4
  6
CONTINUOUS
 10
10.7433115185
 20
10.0295764093
 11
10.8012670715
 21
10.025557178
  0
LINE
  5
364
100
AcDbEntity
  8
0
100
AcDbLine
 62
4
  6
CONTINUOUS
 10
8.9623363392
 20
10.2642862484
 11
9.020291891
 21
10.2602670172
  0
LINE
  5
365
100
AcDbEntity
  8
0
100
AcDbLine
 62
4
  6
CONTINUOUS
 10
13.4596871265
 20
9.952393912
 11
13.5176426782
 21
9.9483746808
  0
LINE
  5
366
100
AcDbEntity
  8
0
100
AcDbLine
 62
4
  6
CONTINUOUS
 10
9.0151279302
 20
10.2927790131
 11
9.0296168181
 21
10.2917742053
  0
LINE
  5
367
100
AcDbEntity
  8
0
100
AcDbLine
 62
4
  6
CONTINUOUS
 10
13.5124787175
 20
9.9808866766
 11
13.5269676054
 21
9.9798818688
  0
LINE
  5
368
100
AcDbEntity
  8
0
100
AcDbLine
 62
4
  6
CONTINUOUS
 10
11.8263002682
 20
10.0991632948
 11
11.8118113803
 21
10.1001681025
  0
LINE
  5
369
100
AcDbEntity
  8
0
100
AcDbLine
 62
4
  6
CONTINUOUS
 10
11.9059891518
 20
10.0936368519
 11
11.9639447035
 21
10.0896176207
  0
LINE
  5
36A
100
AcDbEntity
  8
0
100
AcDbLine
 62
4
  6
CONTINUOUS
 10
11.8345849538
 20
10.1146656868
 11
11.8635627296
 21
10.1126560712
  0
LINE
  5
36B
100
AcDbEntity
  8
0
100
AcDbLine
 62
4
  6
CONTINUOUS
 10
11.8428696394
 20
10.1301680789
 11
11.8573585273
 21
10.1291632711
  0
LINE
  5
36C
100
AcDbEntity
  8
0
100
AcDbLine
 62
4
  6
CONTINUOUS
 10
11.9587807428
 20
10.1221296166
 11
11.9732696307
 21
10.1211248088
  0
LINE
  5
36D
100
AcDbEntity
  8
0
100
AcDbLine
 62
7
  6
CONTINUOUS
 10
12.8324723379
 20
9.1585509196
 11
12.8324723379
 21
6.3815140045
  0
LINE
  5
36E
100
AcDbEntity
  8
0
100
AcDbLine
 62
4
  6
CONTINUOUS
 10
9.0311647642
 20
10.2782694067
 11
8.9970106121
 21
10.2752790266
  0
LINE
  5
36F
100
AcDbEntity
  8
0
100
AcDbLine
 62
4
  6
CONTINUOUS
 10
8.9980508547
 20
10.2912838234
 11
9.0151279302
 21
10.2927790131
  0
LINE
  5
370
100
AcDbEntity
  8
0
100
AcDbLine
 62
7
  6
CONTINUOUS
 10
9.1675276621
 20
10.6184859955
 11
13.9971570797
 21
10.2835500578
  0
LINE
  5
371
100
AcDbEntity
  8
0
100
AcDbLine
 62
4
  6
CONTINUOUS
 10
11.8118113803
 20
10.1001681025
 11
11.7999106807
 21
10.1036729084
  0
LINE
  5
372
100
AcDbEntity
  8
0
100
AcDbLine
 62
4
  6
CONTINUOUS
 10
11.8573585273
 20
10.1291632711
 11
11.8692592276
 21
10.1256584659
  0
LINE
  5
373
100
AcDbEntity
  8
0
100
AcDbLine
 62
4
  6
CONTINUOUS
 10
11.9732696307
 20
10.1211248088
 11
11.985170331
 21
10.1176200036
  0
LINE
  5
374
100
AcDbEntity
  8
0
100
AcDbLine
 62
4
  6
CONTINUOUS
 10
11.7999106807
 20
10.1036729084
 11
11.7905981692
 21
10.1096777122
  0
LINE
  5
375
100
AcDbEntity
  8
0
100
AcDbLine
 62
4
  6
CONTINUOUS
 10
11.8692592276
 20
10.1256584659
 11
11.873915482
 21
10.1226560628
  0
LINE
  5
376
100
AcDbEntity
  8
0
100
AcDbLine
 62
4
  6
CONTINUOUS
 10
11.985170331
 20
10.1176200036
 11
11.9898265855
 21
10.1146176004
  0
LINE
  5
377
100
AcDbEntity
  8
0
100
AcDbLine
 62
4
  6
CONTINUOUS
 10
9.0409973976
 20
10.2802670021
 11
9.0311647642
 21
10.2782694067
  0
LINE
  5
378
100
AcDbEntity
  8
0
100
AcDbLine
 62
4
  6
CONTINUOUS
 10
8.9970106121
 20
10.2752790266
 11
8.977345348
 21
10.2712838386
  0
LINE
  5
379
100
AcDbEntity
  8
0
100
AcDbLine
 62
4
  6
CONTINUOUS
 10
8.9882182212
 20
10.2892862281
 11
8.9980508547
 21
10.2912838234
  0
LINE
  5
37A
100
AcDbEntity
  8
0
100
AcDbLine
 62
4
  6
CONTINUOUS
 10
13.5269676054
 20
9.9798818688
 11
13.5388683057
 21
9.9763770636
  0
LINE
  5
37B
100
AcDbEntity
  8
0
100
AcDbLine
 62
4
  6
CONTINUOUS
 10
13.5388683057
 20
9.9763770636
 11
13.5435245602
 21
9.9733746605
  0
LINE
  5
37C
100
AcDbEntity
  8
0
100
AcDbLine
 62
7
  6
CONTINUOUS
 10
12.8324723379
 20
6.3815140045
 11
13.9971570797
 21
7.5065131427
  0
LINE
  5
37D
100
AcDbEntity
  8
0
100
AcDbLine
 62
7
  6
CONTINUOUS
 10
13.9971570797
 20
10.2835500578
 11
13.9971570797
 21
7.5065131427
  0
ARC
  5
37E
100
AcDbEntity
  8
0
100
AcDbCircle
 62
7
  6
CONTINUOUS
 10
10.0192896316
 20
7.1100721156
 40
0.5163443539
100
AcDbArc
 50
25.7640228377
 51
32.3073428428
  0
ARC
  5
37F
100
AcDbEntity
  8
0
100
AcDbCircle
 62
7
  6
CONTINUOUS
 10
10.0074522217
 20
7.102277407
 40
0.5163443539
100
AcDbArc
 50
205.7640228377
 51
212.3073428428
  0
ARC
  5
380
100
AcDbEntity
  8
0
100
AcDbCircle
 62
7
  6
CONTINUOUS
 10
9.922637276
 20
7.0167131036
 40
0.5163443539
100
AcDbArc
 50
25.7640228377
 51
32.3073428428
  0
ARC
  5
381
100
AcDbEntity
  8
0
100
AcDbCircle
 62
7
  6
CONTINUOUS
 10
10.0284974837
 20
7.14711669
 40
0.4792267106
100
AcDbArc
 50
82.590107291
 51
86.0275106487
  0
ARC
  5
382
100
AcDbEntity
  8
0
100
AcDbCircle
 62
7
  6
CONTINUOUS
 10
9.9982443696
 20
7.0652328327
 40
0.4792267106
100
AcDbArc
 50
262.590107291
 51
266.0275106487
  0
ARC
  5
383
100
AcDbEntity
  8
0
100
AcDbCircle
 62
7
  6
CONTINUOUS
 10
9.9318451281
 20
7.053757678
 40
0.4792267106
100
AcDbArc
 50
82.590107291
 51
86.0275106487
  0
ARC
  5
384
100
AcDbEntity
  8
0
100
AcDbCircle
 62
7
  6
CONTINUOUS
 10
9.9978019754
 20
7.0592859494
 40
0.4732634681
100
AcDbArc
 50
266.0310634489
 51
269.4972694561
  0
ARC
  5
385
100
AcDbEntity
  8
0
100
AcDbCircle
 62
7
  6
CONTINUOUS
 10
9.9322875222
 20
7.0597045612
 40
0.4732634681
100
AcDbArc
 50
86.0310634489
 51
89.4972694561
  0
ARC
  5
386
100
AcDbEntity
  8
0
100
AcDbCircle
 62
7
  6
CONTINUOUS
 10
10.0289786177
 20
7.1540558232
 40
0.4722709174
100
AcDbArc
 50
86.0274199487
 51
89.5009129563
  0
ARC
  5
387
100
AcDbEntity
  8
0
100
AcDbCircle
 62
7
  6
CONTINUOUS
 10
10.1011602777
 20
7.1106361685
 40
0.4313060869
100
AcDbArc
 50
325.2870362755
 51
332.6649360488
  0
ARC
  5
388
100
AcDbEntity
  8
0
100
AcDbCircle
 62
7
  6
CONTINUOUS
 10
9.9255815756
 20
7.1017133542
 40
0.4313060869
100
AcDbArc
 50
145.2870362755
 51
152.6649360488
  0
ARC
  5
389
100
AcDbEntity
  8
0
100
AcDbCircle
 62
7
  6
CONTINUOUS
 10
10.004507922
 20
7.0172771565
 40
0.4313060869
100
AcDbArc
 50
325.2870362755
 51
332.6649360488
  0
ARC
  5
38A
100
AcDbEntity
  8
0
100
AcDbCircle
 62
7
  6
CONTINUOUS
 10
10.0598133216
 20
7.2191305262
 40
0.3816725525
100
AcDbArc
 50
111.6464410246
 51
120.9132869054
  0
ARC
  5
38B
100
AcDbEntity
  8
0
100
AcDbCircle
 62
7
  6
CONTINUOUS
 10
13.572593398
 20
8.4854670864
 40
0.0190417071
100
AcDbArc
 50
254.9689875422
 51
265.9958677522
  0
ARC
  5
38C
100
AcDbEntity
  8
0
100
AcDbCircle
 62
7
  6
CONTINUOUS
 10
13.1196604429
 20
8.0479674215
 40
0.0190417071
100
AcDbArc
 50
254.9689875422
 51
265.9958677522
  0
ARC
  5
38D
100
AcDbEntity
  8
0
100
AcDbCircle
 62
7
  6
CONTINUOUS
 10
13.6114691272
 20
9.0460467892
 40
0.0190322147
100
AcDbArc
 50
86.0680850242
 51
96.9058969467
  0
ARC
  5
38E
100
AcDbEntity
  8
0
100
AcDbCircle
 62
7
  6
CONTINUOUS
 10
13.1585361721
 20
8.6085471244
 40
0.0190322147
100
AcDbArc
 50
86.0680850242
 51
96.9058969466
  0
ARC
  5
38F
100
AcDbEntity
  8
0
100
AcDbCircle
 62
7
  6
CONTINUOUS
 10
9.7851759779
 20
9.709077982
 40
0.0159501782
100
AcDbArc
 50
349.7403897871
 51
359.9713926926
  0
ARC
  5
390
100
AcDbEntity
  8
0
100
AcDbCircle
 62
7
  6
CONTINUOUS
 10
12.6529236419
 20
9.979109678
 40
0.0159501782
100
AcDbArc
 50
349.7403897873
 51
359.9713926924
  0
ARC
  5
391
100
AcDbEntity
  8
0
100
AcDbCircle
 62
7
  6
CONTINUOUS
 10
9.3470700607
 20
9.7090775806
 40
0.0159438806
100
AcDbArc
 50
180.0271763137
 51
190.1667088084
  0
ARC
  5
392
100
AcDbEntity
  8
0
100
AcDbCircle
 62
7
  6
CONTINUOUS
 10
12.2148177246
 20
9.9791092766
 40
0.0159438806
100
AcDbArc
 50
180.0271763137
 51
190.1667088084
  0
SPLINE
  5
393
100
AcDbEntity
  8
0
100
AcDbSpline
 62
7
  6
CONTINUOUS
 70
0
 71
3
 72
20
 73
16
 74
0
 42
0.0000001
 43
0.0000001
 44
0.0000000001
 40
0.0
 40
0.0
 40
0.0
 40
0.0
 40
0.1307130444
 40
0.2609290879
 40
0.3256870374
 40
0.3901050986
 40
0.4540966361
 40
0.517574691
 40
0.5804573165
 40
0.6426728974
 40
0.7041645318
 40
0.7648928072
 40
0.8248367025
 40
0.8839927538
 40
1.0
 40
1.0
 40
1.0
 40
1.0
 10
9.5424366871
 20
7.2997662134
 30
0.0
 10
9.541247402
 20
7.2814050718
 30
0.0
 10
9.5390900762
 20
7.24473808
 30
0.0
 10
9.5370436509
 20
7.1989370042
 30
0.0
 10
9.5358635022
 20
7.1624427709
 30
0.0
 10
9.5352216095
 20
7.1352590482
 30
0.0
 10
9.5348315994
 20
7.1082507056
 30
0.0
 10
9.5347000133
 20
7.0814559778
 30
0.0
 10
9.534829153
 20
7.0549112192
 30
0.0
 10
9.5352168565
 20
7.0286486236
 30
0.0
 10
9.535856697
 20
7.0026943152
 30
0.0
 10
9.5367385101
 20
6.9770670878
 30
0.0
 10
9.5378492139
 20
6.9517778375
 30
0.0
 10
9.5396036061
 20
6.9187295475
 30
0.0
 10
9.5412310113
 20
6.8941252425
 30
0.0
 10
9.5424366871
 20
6.8778402345
 30
0.0
  0
SPLINE
  5
394
100
AcDbEntity
  8
0
100
AcDbSpline
 62
7
  6
CONTINUOUS
 70
0
 71
3
 72
21
 73
17
 74
0
 42
0.0000001
 43
0.0000001
 44
0.0000000001
 40
0.0
 40
0.0
 40
0.0
 40
0.0
 40
0.1211316245
 40
0.1823736293
 40
0.2440533566
 40
0.3061457671
 40
0.3686121396
 40
0.431400593
 40
0.4944480865
 40
0.5576838397
 40
0.6210337674
 40
0.6844252162
 40
0.7477912094
 40
0.811073636
 40
0.8742251276
 40
1.0
 40
1.0
 40
1.0
 40
1.0
 10
9.5710414098
 20
6.8263116572
 30
0.0
 10
9.5848722661
 20
6.8154334542
 30
0.0
 10
9.6058487264
 20
6.7992480286
 30
0.0
 10
9.6342574161
 20
6.7780379708
 30
0.0
 10
9.6559735
 20
6.762202114
 30
0.0
 10
9.6780203939
 20
6.7465212275
 30
0.0
 10
9.700391007
 20
6.7310210491
 30
0.0
 10
9.7230708757
 20
6.7157273827
 30
0.0
 10
9.7460385092
 20
6.7006645687
 30
0.0
 10
9.7692663742
 20
6.6858539785
 30
0.0
 10
9.792722515
 20
6.6713126395
 30
0.0
 10
9.8163725709
 20
6.6570522673
 30
0.0
 10
9.8401818308
 20
6.64307882
 30
0.0
 10
9.8641171417
 20
6.629392549
 30
0.0
 10
9.8961140788
 20
6.6115454295
 30
0.0
 10
9.9202801058
 20
6.5985332848
 30
0.0
 10
9.9364400261
 20
6.5900081876
 30
0.0
  0
SPLINE
  5
395
100
AcDbEntity
  8
0
100
AcDbSpline
 62
7
  6
CONTINUOUS
 70
0
 71
3
 72
15
 73
11
 74
0
 42
0.0000001
 43
0.0000001
 44
0.0000000001
 40
0.0
 40
0.0
 40
0.0
 40
0.0
 40
0.1128138383
 40
0.2295637229
 40
0.3503753066
 40
0.4750618339
 40
0.60311002
 40
0.73378544
 40
0.8663079068
 40
1.0
 40
1.0
 40
1.0
 40
1.0
 10
9.9936494715
 20
6.5860406991
 30
0.0
 10
10.0076089633
 20
6.5925778923
 30
0.0
 10
10.0359680723
 20
6.6059808598
 30
0.0
 10
10.0790923143
 20
6.6267710663
 30
0.0
 10
10.1234985597
 20
6.6486339339
 30
0.0
 10
10.1690972759
 20
6.6715655899
 30
0.0
 10
10.2157047103
 20
6.6954871487
 30
0.0
 10
10.2630777929
 20
6.7202581238
 30
0.0
 10
10.3109647518
 20
6.7457076871
 30
0.0
 10
10.3429871441
 20
6.7629608182
 30
0.0
 10
10.3590480878
 20
6.7716632084
 30
0.0
  0
SPLINE
  5
396
100
AcDbEntity
  8
0
100
AcDbSpline
 62
7
  6
CONTINUOUS
 70
0
 71
3
 72
22
 73
18
 74
0
 42
0.0000001
 43
0.0000001
 44
0.0000000001
 40
0.0
 40
0.0
 40
0.0
 40
0.0
 40
0.0662652743
 40
0.1328051367
 40
0.1995364916
 40
0.2663370505
 40
0.3994351903
 40
0.4652808744
 40
0.5303098216
 40
0.594262539
 40
0.6569110682
 40
0.7180810003
 40
0.777662912
 40
0.8356126734
 40
0.8919431812
 40
0.9467104377
 40
1.0
 40
1.0
 40
1.0
 40
1.0
 10
10.4843051661
 20
6.9125833093
 30
0.0
 10
10.4853018199
 20
6.9218739633
 30
0.0
 10
10.4872154295
 20
6.9405029047
 30
0.0
 10
10.4898106089
 20
6.9685197623
 30
0.0
 10
10.4921009895
 20
6.9966391643
 30
0.0
 10
10.494694141
 20
7.034147313
 30
0.0
 10
10.4965264504
 20
7.0715810817
 30
0.0
 10
10.4974691211
 20
7.1087928851
 30
0.0
 10
10.4977088797
 20
7.1362655016
 30
0.0
 10
10.4974769515
 20
7.1632873498
 30
0.0
 10
10.4967796455
 20
7.1897568918
 30
0.0
 10
10.4956358286
 20
7.2155939532
 30
0.0
 10
10.4940742368
 20
7.2407452496
 30
0.0
 10
10.4921300817
 20
7.265185261
 30
0.0
 10
10.4898416255
 20
7.2889133592
 30
0.0
 10
10.4872472506
 20
7.3119486125
 30
0.0
 10
10.4853127999
 20
7.3270628795
 30
0.0
 10
10.4843051661
 20
7.3345092882
 30
0.0
  0
SPLINE
  5
397
100
AcDbEntity
  8
0
100
AcDbSpline
 62
7
  6
CONTINUOUS
 70
0
 71
3
 72
22
 73
18
 74
0
 42
0.0000001
 43
0.0000001
 44
0.0000000001
 40
0.0
 40
0.0
 40
0.0
 40
0.0
 40
0.0578996962
 40
0.1168101933
 40
0.1767600489
 40
0.2377470615
 40
0.2997283629
 40
0.3626113545
 40
0.4262509392
 40
0.4904549087
 40
0.5549987336
 40
0.6196477114
 40
0.6841805087
 40
0.7484081384
 40
0.8121847207
 40
0.8754100196
 40
1.0
 40
1.0
 40
1.0
 40
1.0
 10
10.4557004434
 20
7.3860378655
 30
0.0
 10
10.4494466493
 20
7.3916993112
 30
0.0
 10
10.4367397794
 20
7.4030220271
 30
0.0
 10
10.4172240668
 20
7.4198277222
 30
0.0
 10
10.3970580881
 20
7.4365613734
 30
0.0
 10
10.3762184998
 20
7.4531762356
 30
0.0
 10
10.3546988954
 20
7.4696147198
 30
0.0
 10
10.3325149219
 20
7.4858097721
 30
0.0
 10
10.3097074489
 20
7.5016883531
 30
0.0
 10
10.2863424596
 20
7.5171770048
 30
0.0
 10
10.2625070267
 20
7.5322088982
 30
0.0
 10
10.2383013358
 20
7.5467300998
 30
0.0
 10
10.2138291777
 20
7.5607045363
 30
0.0
 10
10.1891886708
 20
7.5741155084
 30
0.0
 10
10.1644652725
 20
7.5869646984
 30
0.0
 10
10.1316439326
 20
7.6032900613
 30
0.0
 10
10.1068496278
 20
7.6148797857
 30
0.0
 10
10.0903018272
 20
7.6223413351
 30
0.0
  0
SPLINE
  5
398
100
AcDbEntity
  8
0
100
AcDbSpline
 62
7
  6
CONTINUOUS
 70
0
 71
3
 72
15
 73
11
 74
0
 42
0.0000001
 43
0.0000001
 44
0.0000000001
 40
0.0
 40
0.0
 40
0.0
 40
0.0
 40
0.1024613676
 40
0.2125928618
 40
0.3308785969
 40
0.4568383157
 40
0.5888655796
 40
0.7247022368
 40
0.8622377903
 40
1.0
 40
1.0
 40
1.0
 40
1.0
 10
10.0330923817
 20
7.6263088236
 30
0.0
 10
10.0202486005
 20
7.6207272683
 30
0.0
 10
9.9936807148
 20
7.6089585402
 30
0.0
 10
9.95260711
 20
7.5900299695
 30
0.0
 10
9.9089375017
 20
7.569074242
 30
0.0
 10
9.862920656
 20
7.5461070487
 30
0.0
 10
9.8151120904
 20
7.5213714423
 30
0.0
 10
9.7662286851
 20
7.4952810358
 30
0.0
 10
9.7169411192
 20
7.4682909758
 30
0.0
 10
9.6840969526
 20
7.4499311108
 30
0.0
 10
9.6676937655
 20
7.4406863142
 30
0.0
  0
SPLINE
  5
399
100
AcDbEntity
  8
0
100
AcDbSpline
 62
7
  6
CONTINUOUS
 70
0
 71
3
 72
71
 73
67
 74
0
 42
0.0000001
 43
0.0000001
 44
0.0000000001
 40
0.0
 40
0.0
 40
0.0
 40
0.0
 40
0.0156216706
 40
0.0311907745
 40
0.0467067129
 40
0.0621710762
 40
0.0775850548
 40
0.0929506339
 40
0.1082702304
 40
0.1235467312
 40
0.1387834665
 40
0.1539841688
 40
0.1691529583
 40
0.18429428
 40
0.1994128679
 40
0.2145137035
 40
0.2296019564
 40
0.2446829193
 40
0.2597619759
 40
0.2748445272
 40
0.2899359312
 40
0.3050414546
 40
0.3201662202
 40
0.3353151335
 40
0.3504928522
 40
0.365703735
 40
0.3809517875
 40
0.3962406261
 40
0.4115734583
 40
0.4269530346
 40
0.4423816308
 40
0.4578610394
 40
0.4733925444
 40
0.4889769098
 40
0.5046143965
 40
0.520304754
 40
0.5360472182
 40
0.5518405387
 40
0.5676829933
 40
0.5835723969
 40
0.5995061365
 40
0.615481204
 40
0.6314942052
 40
0.6475414082
 40
0.6636187847
 40
0.6797220354
 40
0.695846625
 40
0.7119878439
 40
0.7281408301
 40
0.744300616
 40
0.7604621807
 40
0.7766204909
 40
0.7927705277
 40
0.8089073567
 40
0.8250261591
 40
0.8411222663
 40
0.8571912088
 40
0.8732287682
 40
0.8892309912
 40
0.9051942477
 40
0.9211152546
 40
0.9369911073
 40
0.9528193701
 40
0.9685977523
 40
0.9843253342
 40
1.0
 40
1.0
 40
1.0
 40
1.0
 10
9.9562284306
 20
6.6356312155
 30
0.0
 10
9.9630122487
 20
6.6351607561
 30
0.0
 10
9.9765823535
 20
6.6345516703
 30
0.0
 10
9.9969214517
 20
6.6346397084
 30
0.0
 10
10.0171634598
 20
6.6357308777
 30
0.0
 10
10.0372587308
 20
6.6378224071
 30
0.0
 10
10.0571592059
 20
6.640909458
 30
0.0
 10
10.0768167926
 20
6.6449845968
 30
0.0
 10
10.0961841397
 20
6.6500380446
 30
0.0
 10
10.1152145508
 20
6.6560576614
 30
0.0
 10
10.1338621386
 20
6.6630289749
 30
0.0
 10
10.1520819266
 20
6.6709352345
 30
0.0
 10
10.1698299608
 20
6.6797574246
 30
0.0
 10
10.187063438
 20
6.6894742825
 30
0.0
 10
10.203740788
 20
6.700062394
 30
0.0
 10
10.2198217774
 20
6.711496247
 30
0.0
 10
10.235267602
 20
6.7237482905
 30
0.0
 10
10.2500409893
 20
6.7367889916
 30
0.0
 10
10.2641063155
 20
6.7505868816
 30
0.0
 10
10.2774296615
 20
6.7651086753
 30
0.0
 10
10.2899788953
 20
6.7803193421
 30
0.0
 10
10.3017237468
 20
6.7961821974
 30
0.0
 10
10.3126358961
 20
6.8126589743
 30
0.0
 10
10.3226890675
 20
6.8297099076
 30
0.0
 10
10.3318590477
 20
6.8472938618
 30
0.0
 10
10.3401237573
 20
6.8653684229
 30
0.0
 10
10.347463288
 20
6.8838900027
 30
0.0
 10
10.3538599808
 20
6.9028139327
 30
0.0
 10
10.359298479
 20
6.9220945738
 30
0.0
 10
10.3637657275
 20
6.941685441
 30
0.0
 10
10.3672510044
 20
6.9615393114
 30
0.0
 10
10.3697459432
 20
6.9816083376
 30
0.0
 10
10.3712445796
 20
7.0018441559
 30
0.0
 10
10.3717433759
 20
7.0221980074
 30
0.0
 10
10.3712411814
 20
7.0426208608
 30
0.0
 10
10.3697392526
 20
7.0630635267
 30
0.0
 10
10.3672412314
 20
7.0834767698
 30
0.0
 10
10.3637531815
 20
7.1038114323
 30
0.0
 10
10.3592835616
 20
7.1240185558
 30
0.0
 10
10.3538431771
 20
7.1440494923
 30
0.0
 10
10.3474451564
 20
7.1638560211
 30
0.0
 10
10.3401049171
 20
7.1833904585
 30
0.0
 10
10.3318401649
 20
7.2026057844
 30
0.0
 10
10.3226708393
 20
7.2214557552
 30
0.0
 10
10.3126190354
 20
7.2398950048
 30
0.0
 10
10.3017089655
 20
7.257879153
 30
0.0
 10
10.2899668882
 20
7.2753649043
 30
0.0
 10
10.2774210893
 20
7.2923101777
 30
0.0
 10
10.2641017889
 20
7.3086741992
 30
0.0
 10
10.2500410549
 20
7.3244175833
 30
0.0
 10
10.2352727292
 20
7.3395024331
 30
0.0
 10
10.2198323467
 20
7.3538924212
 30
0.0
 10
10.2037570811
 20
7.3675529141
 30
0.0
 10
10.1870856318
 20
7.3804510332
 30
0.0
 10
10.1698581224
 20
7.392555725
 30
0.0
 10
10.1521160109
 20
7.4038378326
 30
0.0
 10
10.1339019872
 20
7.4142701637
 30
0.0
 10
10.1152598964
 20
7.4238275962
 30
0.0
 10
10.0962346116
 20
7.4324871148
 30
0.0
 10
10.0768719223
 20
7.4402278424
 30
0.0
 10
10.057218437
 20
7.4470311071
 30
0.0
 10
10.0373214287
 20
7.4528804953
 30
0.0
 10
10.0172289186
 20
7.4577618251
 30
0.0
 10
9.9969889313
 20
7.4616635008
 30
0.0
 10
9.9766510525
 20
7.4645757761
 30
0.0
 10
9.9630352623
 20
7.4658554199
 30
0.0
 10
9.9562284306
 20
7.4663274753
 30
0.0
  0
SPLINE
  5
39A
100
AcDbEntity
  8
0
100
AcDbSpline
 62
7
  6
CONTINUOUS
 70
0
 71
3
 72
71
 73
67
 74
0
 42
0.0000001
 43
0.0000001
 44
0.0000000001
 40
0.0
 40
0.0
 40
0.0
 40
0.0
 40
0.0156216706
 40
0.0311907745
 40
0.0467067129
 40
0.0621710762
 40
0.0775850548
 40
0.0929506339
 40
0.1082702304
 40
0.1235467312
 40
0.1387834665
 40
0.1539841688
 40
0.1691529583
 40
0.18429428
 40
0.1994128679
 40
0.2145137035
 40
0.2296019564
 40
0.2446829193
 40
0.2597619759
 40
0.2748445272
 40
0.2899359312
 40
0.3050414546
 40
0.3201662202
 40
0.3353151335
 40
0.3504928522
 40
0.365703735
 40
0.3809517875
 40
0.3962406261
 40
0.4115734583
 40
0.4269530346
 40
0.4423816308
 40
0.4578610394
 40
0.4733925444
 40
0.4889769098
 40
0.5046143965
 40
0.520304754
 40
0.5360472182
 40
0.5518405387
 40
0.5676829933
 40
0.5835723969
 40
0.5995061365
 40
0.615481204
 40
0.6314942052
 40
0.6475414082
 40
0.6636187847
 40
0.6797220354
 40
0.695846625
 40
0.7119878439
 40
0.7281408301
 40
0.744300616
 40
0.7604621807
 40
0.7766204909
 40
0.7927705277
 40
0.8089073567
 40
0.8250261591
 40
0.8411222663
 40
0.8571912088
 40
0.8732287682
 40
0.8892309912
 40
0.9051942477
 40
0.9211152546
 40
0.9369911073
 40
0.9528193701
 40
0.9685977523
 40
0.9843253342
 40
1.0
 40
1.0
 40
1.0
 40
1.0
 10
9.9562284306
 20
7.4663274753
 30
0.0
 10
9.9494446125
 20
7.4667979347
 30
0.0
 10
9.9358745077
 20
7.4674070204
 30
0.0
 10
9.9155354095
 20
7.4673189823
 30
0.0
 10
9.8952934015
 20
7.4662278131
 30
0.0
 10
9.8751981305
 20
7.4641362837
 30
0.0
 10
9.8552976554
 20
7.4610492328
 30
0.0
 10
9.8356400687
 20
7.456974094
 30
0.0
 10
9.8162727215
 20
7.4519206461
 30
0.0
 10
9.7972423104
 20
7.4459010294
 30
0.0
 10
9.7785947226
 20
7.4389297159
 30
0.0
 10
9.7603749346
 20
7.4310234563
 30
0.0
 10
9.7426269004
 20
7.4222012662
 30
0.0
 10
9.7253934232
 20
7.4124844083
 30
0.0
 10
9.7087160733
 20
7.4018962967
 30
0.0
 10
9.6926350838
 20
7.3904624438
 30
0.0
 10
9.6771892593
 20
7.3782104003
 30
0.0
 10
9.662415872
 20
7.3651696992
 30
0.0
 10
9.6483505457
 20
7.3513718092
 30
0.0
 10
9.6350271997
 20
7.3368500154
 30
0.0
 10
9.6224779659
 20
7.3216393486
 30
0.0
 10
9.6107331144
 20
7.3057764933
 30
0.0
 10
9.5998209651
 20
7.2892997165
 30
0.0
 10
9.5897677938
 20
7.2722487832
 30
0.0
 10
9.5805978136
 20
7.254664829
 30
0.0
 10
9.5723331039
 20
7.2365902679
 30
0.0
 10
9.5649935732
 20
7.2180686881
 30
0.0
 10
9.5585968804
 20
7.199144758
 30
0.0
 10
9.5531583822
 20
7.1798641169
 30
0.0
 10
9.5486911337
 20
7.1602732497
 30
0.0
 10
9.5452058568
 20
7.1404193794
 30
0.0
 10
9.5427109181
 20
7.1203503531
 30
0.0
 10
9.5412122816
 20
7.1001145348
 30
0.0
 10
9.5407134853
 20
7.0797606834
 30
0.0
 10
9.5412156799
 20
7.0593378299
 30
0.0
 10
9.5427176086
 20
7.0388951641
 30
0.0
 10
9.5452156298
 20
7.0184819209
 30
0.0
 10
9.5487036797
 20
6.9981472584
 30
0.0
 10
9.5531732997
 20
6.977940135
 30
0.0
 10
9.5586136841
 20
6.9579091985
 30
0.0
 10
9.5650117049
 20
6.9381026697
 30
0.0
 10
9.5723519441
 20
6.9185682323
 30
0.0
 10
9.5806166963
 20
6.8993529064
 30
0.0
 10
9.5897860219
 20
6.8805029356
 30
0.0
 10
9.5998378259
 20
6.862063686
 30
0.0
 10
9.6107478958
 20
6.8440795378
 30
0.0
 10
9.622489973
 20
6.8265937865
 30
0.0
 10
9.6350357719
 20
6.8096485131
 30
0.0
 10
9.6483550724
 20
6.7932844915
 30
0.0
 10
9.6624158064
 20
6.7775411074
 30
0.0
 10
9.677184132
 20
6.7624562576
 30
0.0
 10
9.6926245146
 20
6.7480662696
 30
0.0
 10
9.7086997802
 20
6.7344057766
 30
0.0
 10
9.7253712294
 20
6.7215076575
 30
0.0
 10
9.7425987388
 20
6.7094029657
 30
0.0
 10
9.7603408503
 20
6.6981208582
 30
0.0
 10
9.778554874
 20
6.687688527
 30
0.0
 10
9.7971969649
 20
6.6781310946
 30
0.0
 10
9.8162222497
 20
6.6694715759
 30
0.0
 10
9.8355849389
 20
6.6617308483
 30
0.0
 10
9.8552384242
 20
6.6549275837
 30
0.0
 10
9.8751354325
 20
6.6490781955
 30
0.0
 10
9.8952279426
 20
6.6441968656
 30
0.0
 10
9.9154679299
 20
6.6402951899
 30
0.0
 10
9.9358058088
 20
6.6373829147
 30
0.0
 10
9.9494215989
 20
6.6361032708
 30
0.0
 10
9.9562284306
 20
6.6356312155
 30
0.0
  0
SPLINE
  5
39B
100
AcDbEntity
  8
0
100
AcDbSpline
 62
7
  6
CONTINUOUS
 70
0
 71
3
 72
20
 73
16
 74
0
 42
0.0000001
 43
0.0000001
 44
0.0000000001
 40
0.0
 40
0.0
 40
0.0
 40
0.0
 40
0.1160072463
 40
0.1751632975
 40
0.2351071928
 40
0.2958354683
 40
0.3573271027
 40
0.4195426835
 40
0.482425309
 40
0.5459033639
 40
0.6098949014
 40
0.6743129626
 40
0.7390709121
 40
0.8692869556
 40
1.0
 40
1.0
 40
1.0
 40
1.0
 10
10.3876528105
 20
6.8192242972
 30
0.0
 10
10.3864471347
 20
6.8355093053
 30
0.0
 10
10.3848197295
 20
6.8601136103
 30
0.0
 10
10.3830653373
 20
6.8931619003
 30
0.0
 10
10.3819546334
 20
6.9184511506
 30
0.0
 10
10.3810728204
 20
6.9440783779
 30
0.0
 10
10.3804329799
 20
6.9700326864
 30
0.0
 10
10.3800452764
 20
6.996295282
 30
0.0
 10
10.3799161367
 20
7.0228400406
 30
0.0
 10
10.3800477228
 20
7.0496347684
 30
0.0
 10
10.3804377328
 20
7.076643111
 30
0.0
 10
10.3810796255
 20
7.1038268337
 30
0.0
 10
10.3822597743
 20
7.1403210669
 30
0.0
 10
10.3843061996
 20
7.1861221428
 30
0.0
 10
10.3864635254
 20
7.2227891345
 30
0.0
 10
10.3876528105
 20
7.2411502762
 30
0.0
  0
SPLINE
  5
39C
100
AcDbEntity
  8
0
100
AcDbSpline
 62
7
  6
CONTINUOUS
 70
0
 71
3
 72
21
 73
17
 74
0
 42
0.0000001
 43
0.0000001
 44
0.0000000001
 40
0.0
 40
0.0
 40
0.0
 40
0.0
 40
0.1257748724
 40
0.188926364
 40
0.2522087907
 40
0.3155747839
 40
0.3789662327
 40
0.4423161603
 40
0.5055519135
 40
0.5685994071
 40
0.6313878604
 40
0.6938542329
 40
0.7559466435
 40
0.8176263707
 40
0.8788683755
 40
1.0
 40
1.0
 40
1.0
 40
1.0
 10
10.3590480878
 20
7.2926788535
 30
0.0
 10
10.3428881675
 20
7.3012039507
 30
0.0
 10
10.3187221405
 20
7.3142160954
 30
0.0
 10
10.2867252034
 20
7.3320632149
 30
0.0
 10
10.2627898925
 20
7.345749486
 30
0.0
 10
10.2389806326
 20
7.3597229332
 30
0.0
 10
10.2153305767
 20
7.3739833054
 30
0.0
 10
10.1918744359
 20
7.3885246445
 30
0.0
 10
10.1686465709
 20
7.4033352346
 30
0.0
 10
10.1456789374
 20
7.4183980486
 30
0.0
 10
10.1229990687
 20
7.433691715
 30
0.0
 10
10.1006284556
 20
7.4491918934
 30
0.0
 10
10.0785815617
 20
7.4648727799
 30
0.0
 10
10.0568654778
 20
7.4807086367
 30
0.0
 10
10.0284567881
 20
7.5019186945
 30
0.0
 10
10.0074803278
 20
7.5181041201
 30
0.0
 10
9.9936494715
 20
7.5289823231
 30
0.0
  0
SPLINE
  5
39D
100
AcDbEntity
  8
0
100
AcDbSpline
 62
7
  6
CONTINUOUS
 70
0
 71
3
 72
15
 73
11
 74
0
 42
0.0000001
 43
0.0000001
 44
0.0000000001
 40
0.0
 40
0.0
 40
0.0
 40
0.0
 40
0.1336920932
 40
0.2662145601
 40
0.39688998
 40
0.5249381662
 40
0.6496246935
 40
0.7704362771
 40
0.8871861617
 40
1.0
 40
1.0
 40
1.0
 40
1.0
 10
9.9364400261
 20
7.5329498116
 30
0.0
 10
9.9203790824
 20
7.5242474213
 30
0.0
 10
9.8883566901
 20
7.5069942902
 30
0.0
 10
9.8404697312
 20
7.4815447269
 30
0.0
 10
9.7930966486
 20
7.4567737519
 30
0.0
 10
9.7464892142
 20
7.432852193
 30
0.0
 10
9.700890498
 20
7.409920537
 30
0.0
 10
9.6564842526
 20
7.3880576695
 30
0.0
 10
9.6133600106
 20
7.367267463
 30
0.0
 10
9.5850009016
 20
7.3538644955
 30
0.0
 10
9.5710414098
 20
7.3473273022
 30
0.0
  0
SPLINE
  5
39E
100
AcDbEntity
  8
0
100
AcDbSpline
 62
7
  6
CONTINUOUS
 70
0
 71
3
 72
23
 73
19
 74
0
 42
0.0000001
 43
0.0000001
 44
0.0000000001
 40
0.0
 40
0.0
 40
0.0
 40
0.0
 40
0.0637770475
 40
0.1273448957
 40
0.1907019676
 40
0.2538561301
 40
0.3168131969
 40
0.3795820893
 40
0.4421733857
 40
0.5045993357
 40
0.5668738673
 40
0.6290123829
 40
0.6910316518
 40
0.7529496446
 40
0.8147853543
 40
0.8765586057
 40
0.9382898574
 40
1.0
 40
1.0
 40
1.0
 40
1.0
 10
9.0924075122
 20
7.2445920583
 30
0.0
 10
9.0924075122
 20
7.237803417
 30
0.0
 10
9.0920825754
 20
7.224246102
 30
0.0
 10
9.0906160025
 20
7.2039926036
 30
0.0
 10
9.0881741358
 20
7.1838996522
 30
0.0
 10
9.0847628228
 20
7.1640144144
 30
0.0
 10
9.080389688
 20
7.1443823601
 30
0.0
 10
9.0750648289
 20
7.1250488711
 30
0.0
 10
9.0688004909
 20
7.106058486
 30
0.0
 10
9.0616110709
 20
7.0874549979
 30
0.0
 10
9.053513103
 20
7.0692813141
 30
0.0
 10
9.0445251969
 20
7.0515793656
 30
0.0
 10
9.0346680742
 20
7.0343899806
 30
0.0
 10
9.0239644422
 20
7.0177527979
 30
0.0
 10
9.0124389989
 20
7.0017062347
 30
0.0
 10
9.0001181605
 20
6.9862871987
 30
0.0
 10
8.9870308223
 20
6.9715317477
 30
0.0
 10
8.9778133188
 20
6.9621581297
 30
0.0
 10
8.9730888009
 20
6.9575945926
 30
0.0
  0
SPLINE
  5
39F
100
AcDbEntity
  8
0
100
AcDbSpline
 62
7
  6
CONTINUOUS
 70
0
 71
3
 72
60
 73
56
 74
0
 42
0.0000001
 43
0.0000001
 44
0.0000000001
 40
0.0
 40
0.0
 40
0.0
 40
0.0
 40
0.0081223406
 40
0.0169168431
 40
0.0264086323
 40
0.0366142687
 40
0.0475414355
 40
0.0591910158
 40
0.0715584107
 40
0.0846344949
 40
0.0984062802
 40
0.1128573064
 40
0.1279683357
 40
0.1437174554
 40
0.1600804353
 40
0.1770310661
 40
0.1945411268
 40
0.2125807894
 40
0.2501207279
 40
0.2893847263
 40
0.3300867172
 40
0.371925751
 40
0.4145894152
 40
0.4577571198
 40
0.5011033266
 40
0.5443007676
 40
0.587023623
 40
0.6289507091
 40
0.6697687274
 40
0.7091755587
 40
0.746883655
 40
0.7650162944
 40
0.7826249702
 40
0.7996794705
 40
0.816151351
 40
0.8320139955
 40
0.8472427493
 40
0.8618153589
 40
0.8757119742
 40
0.8889156572
 40
0.9014127819
 40
0.9131933641
 40
0.9242520195
 40
0.9345885809
 40
0.9442093339
 40
0.9531286836
 40
0.9613709339
 40
0.9689732146
 40
0.9759886454
 40
0.9824900322
 40
0.9885734237
 40
0.9914974427
 40
0.9943641479
 40
0.9971919194
 40
1.0
 40
1.0
 40
1.0
 40
1.0
 10
9.7572439035
 20
10.477108177
 30
0.0
 10
9.7563911275
 20
10.4762844587
 30
0.0
 10
9.7545345621
 20
10.474651086
 30
0.0
 10
9.7514528253
 20
10.4723303791
 30
0.0
 10
9.747972568
 20
10.4700484931
 30
0.0
 10
9.7441008406
 20
10.4678098284
 30
0.0
 10
9.7398449163
 20
10.4656184061
 30
0.0
 10
9.7352130545
 20
10.4634785977
 30
0.0
 10
9.7302143729
 20
10.4613945899
 30
0.0
 10
9.7248587607
 20
10.4593705629
 30
0.0
 10
9.7191568712
 20
10.4574106373
 30
0.0
 10
9.713120118
 20
10.4555187397
 30
0.0
 10
9.706760603
 20
10.4536987537
 30
0.0
 10
9.7000911139
 20
10.4519543716
 30
0.0
 10
9.6931250821
 20
10.4502891256
 30
0.0
 10
9.6858765509
 20
10.4487064544
 30
0.0
 10
9.6783601383
 20
10.4472095142
 30
0.0
 10
9.6678616391
 20
10.4453068193
 30
0.0
 10
9.6541796253
 20
10.4431754424
 30
0.0
 10
9.6371588467
 20
10.4410351356
 30
0.0
 10
9.6194617121
 20
10.4392972326
 30
0.0
 10
9.6012312
 20
10.4379760116
 30
0.0
 10
9.582614479
 20
10.437082377
 30
0.0
 10
9.5637619593
 20
10.4366236875
 30
0.0
 10
9.5448259742
 20
10.4366037105
 30
0.0
 10
9.5259595477
 20
10.4370226083
 30
0.0
 10
9.5073151274
 20
10.437876934
 30
0.0
 10
9.4890433532
 20
10.439159668
 30
0.0
 10
9.4712917362
 20
10.4408602224
 30
0.0
 10
9.4542036985
 20
10.4429646263
 30
0.0
 10
9.4404575304
 20
10.4450667042
 30
0.0
 10
9.4299016111
 20
10.4469467276
 30
0.0
 10
9.4223380936
 20
10.448427719
 30
0.0
 10
9.41503974
 20
10.4499950427
 30
0.0
 10
9.4080212647
 20
10.4516455139
 30
0.0
 10
9.4012968228
 20
10.4533757547
 30
0.0
 10
9.3948799629
 20
10.455182278
 30
0.0
 10
9.3887835834
 20
10.4570613618
 30
0.0
 10
9.3830199231
 20
10.4590092162
 30
0.0
 10
9.3776005159
 20
10.4610218892
 30
0.0
 10
9.372536153
 20
10.4630952799
 30
0.0
 10
9.3678368858
 20
10.4652252774
 30
0.0
 10
9.3635119409
 20
10.4674076052
 30
0.0
 10
9.3595697362
 20
10.4696380169
 30
0.0
 10
9.3560178613
 20
10.4719123177
 30
0.0
 10
9.352863013
 20
10.4742263371
 30
0.0
 10
9.3501111577
 20
10.4765762787
 30
0.0
 10
9.3477675755
 20
10.4789585595
 30
0.0
 10
9.3458371647
 20
10.4813702986
 30
0.0
 10
9.3443252349
 20
10.4838082532
 30
0.0
 10
9.3434067933
 20
10.4858875468
 30
0.0
 10
9.342899413
 20
10.4875466437
 30
0.0
 10
9.3426307477
 20
10.4887772369
 30
0.0
 10
9.3424694488
 20
10.4900093023
 30
0.0
 10
9.342433557
 20
10.4908324271
 30
0.0
 10
9.3424335545
 20
10.4912423297
 30
0.0
  0
SPLINE
  5
3A0
100
AcDbEntity
  8
0
100
AcDbSpline
 62
7
  6
CONTINUOUS
 70
0
 71
3
 72
60
 73
56
 74
0
 42
0.0000001
 43
0.0000001
 44
0.0000000001
 40
0.0
 40
0.0
 40
0.0
 40
0.0
 40
0.0081223406
 40
0.0169168431
 40
0.0264086323
 40
0.0366142687
 40
0.0475414355
 40
0.0591910158
 40
0.0715584107
 40
0.0846344949
 40
0.0984062802
 40
0.1128573064
 40
0.1279683357
 40
0.1437174554
 40
0.1600804353
 40
0.1770310661
 40
0.1945411268
 40
0.2125807894
 40
0.2501207279
 40
0.2893847263
 40
0.3300867172
 40
0.371925751
 40
0.4145894152
 40
0.4577571198
 40
0.5011033266
 40
0.5443007676
 40
0.587023623
 40
0.6289507091
 40
0.6697687274
 40
0.7091755587
 40
0.746883655
 40
0.7650162944
 40
0.7826249702
 40
0.7996794705
 40
0.816151351
 40
0.8320139955
 40
0.8472427493
 40
0.8618153589
 40
0.8757119742
 40
0.8889156572
 40
0.9014127819
 40
0.9131933641
 40
0.9242520195
 40
0.9345885809
 40
0.9442093339
 40
0.9531286836
 40
0.9613709339
 40
0.9689732146
 40
0.9759886454
 40
0.9824900322
 40
0.9885734237
 40
0.9914974427
 40
0.9943641479
 40
0.9971919194
 40
1.0
 40
1.0
 40
1.0
 40
1.0
 10
12.6503768194
 20
9.271660145
 30
0.0
 10
12.6495240435
 20
9.2708364266
 30
0.0
 10
12.647667478
 20
9.269203054
 30
0.0
 10
12.6445857412
 20
9.2668823471
 30
0.0
 10
12.641105484
 20
9.2646004611
 30
0.0
 10
12.6372337566
 20
9.2623617963
 30
0.0
 10
12.6329778323
 20
9.2601703741
 30
0.0
 10
12.6283459704
 20
9.2580305656
 30
0.0
 10
12.6233472889
 20
9.2559465579
 30
0.0
 10
12.6179916767
 20
9.2539225309
 30
0.0
 10
12.6122897871
 20
9.2519626053
 30
0.0
 10
12.606253034
 20
9.2500707077
 30
0.0
 10
12.5998935189
 20
9.2482507217
 30
0.0
 10
12.5932240298
 20
9.2465063395
 30
0.0
 10
12.5862579981
 20
9.2448410936
 30
0.0
 10
12.5790094669
 20
9.2432584224
 30
0.0
 10
12.5714930542
 20
9.2417614822
 30
0.0
 10
12.5609945551
 20
9.2398587873
 30
0.0
 10
12.5473125412
 20
9.2377274104
 30
0.0
 10
12.5302917626
 20
9.2355871035
 30
0.0
 10
12.5125946281
 20
9.2338492006
 30
0.0
 10
12.494364116
 20
9.2325279796
 30
0.0
 10
12.475747395
 20
9.231634345
 30
0.0
 10
12.4568948753
 20
9.2311756554
 30
0.0
 10
12.4379588901
 20
9.2311556785
 30
0.0
 10
12.4190924636
 20
9.2315745763
 30
0.0
 10
12.4004480434
 20
9.232428902
 30
0.0
 10
12.3821762692
 20
9.2337116359
 30
0.0
 10
12.3644246522
 20
9.2354121903
 30
0.0
 10
12.3473366145
 20
9.2375165942
 30
0.0
 10
12.3335904464
 20
9.2396186722
 30
0.0
 10
12.323034527
 20
9.2414986955
 30
0.0
 10
12.3154710096
 20
9.242979687
 30
0.0
 10
12.3081726559
 20
9.2445470106
 30
0.0
 10
12.3011541806
 20
9.2461974819
 30
0.0
 10
12.2944297387
 20
9.2479277227
 30
0.0
 10
12.2880128789
 20
9.2497342459
 30
0.0
 10
12.2819164994
 20
9.2516133298
 30
0.0
 10
12.2761528391
 20
9.2535611842
 30
0.0
 10
12.2707334319
 20
9.2555738572
 30
0.0
 10
12.2656690689
 20
9.2576472479
 30
0.0
 10
12.2609698017
 20
9.2597772454
 30
0.0
 10
12.2566448569
 20
9.2619595731
 30
0.0
 10
12.2527026522
 20
9.2641899849
 30
0.0
 10
12.2491507772
 20
9.2664642857
 30
0.0
 10
12.2459959289
 20
9.2687783051
 30
0.0
 10
12.2432440737
 20
9.2711282467
 30
0.0
 10
12.2409004915
 20
9.2735105275
 30
0.0
 10
12.2389700807
 20
9.2759222666
 30
0.0
 10
12.2374581508
 20
9.2783602212
 30
0.0
 10
12.2365397092
 20
9.2804395148
 30
0.0
 10
12.2360323289
 20
9.2820986116
 30
0.0
 10
12.2357636637
 20
9.2833292049
 30
0.0
 10
12.2356023647
 20
9.2845612703
 30
0.0
 10
12.2355664729
 20
9.2853843951
 30
0.0
 10
12.2355664704
 20
9.2857942977
 30
0.0
  0
SPLINE
  5
3A1
100
AcDbEntity
  8
0
100
AcDbSpline
 62
7
  6
CONTINUOUS
 70
0
 71
3
 72
71
 73
67
 74
0
 42
0.0000001
 43
0.0000001
 44
0.0000000001
 40
0.0
 40
0.0
 40
0.0
 40
0.0
 40
0.0081224021
 40
0.0169165279
 40
0.0264081434
 40
0.0366136729
 40
0.0475406687
 40
0.0591900386
 40
0.0715572362
 40
0.0846331289
 40
0.0984046806
 40
0.1128554936
 40
0.1279662701
 40
0.143715139
 40
0.1600778855
 40
0.177028224
 40
0.1945380126
 40
0.212577401
 40
0.231114962
 40
0.2501178742
 40
0.2695520505
 40
0.2893822318
 40
0.309572107
 40
0.3300844497
 40
0.3719228157
 40
0.4145857826
 40
0.4577527732
 40
0.5010982541
 40
0.5442949581
 40
0.5870170731
 40
0.6289434202
 40
0.6697607121
 40
0.6896589881
 40
0.7091677946
 40
0.728251669
 40
0.7468762811
 40
0.7650085828
 40
0.7826169028
 40
0.7996710734
 40
0.816142615
 40
0.8320049142
 40
0.8472333772
 40
0.8618056538
 40
0.8757019563
 40
0.8889053604
 40
0.9014021796
 40
0.9131824955
 40
0.9242408713
 40
0.9345771718
 40
0.9394767076
 40
0.9441987541
 40
0.9487453348
 40
0.9531191585
 40
0.9573236229
 40
0.9613628726
 40
0.9652420105
 40
0.9689670917
 40
0.9725452814
 40
0.9759850272
 40
0.9824862539
 40
0.9855751478
 40
0.9885736479
 40
0.9914976047
 40
0.9943642476
 40
0.9971919638
 40
1.0
 40
1.0
 40
1.0
 40
1.0
 10
9.9911335568
 20
9.724028247
 30
0.0
 10
9.9893552091
 20
9.722310495
 30
0.0
 10
9.9854837278
 20
9.7189043725
 30
0.0
 10
9.9790573058
 20
9.7140650432
 30
0.0
 10
9.9717999294
 20
9.7093066296
 30
0.0
 10
9.9637261808
 20
9.7046382502
 30
0.0
 10
9.954851198
 20
9.7000685052
 30
0.0
 10
9.9451923264
 20
9.6956063156
 30
0.0
 10
9.9347685078
 20
9.6912604995
 30
0.0
 10
9.9236003616
 20
9.6870397956
 30
0.0
 10
9.9117101289
 20
9.6829527182
 30
0.0
 10
9.8991215954
 20
9.6790075435
 30
0.0
 10
9.8858600081
 20
9.675212294
 30
0.0
 10
9.8719520211
 20
9.6715747094
 30
0.0
 10
9.8574256466
 20
9.6681021848
 30
0.0
 10
9.8423101767
 20
9.664801789
 30
0.0
 10
9.826636108
 20
9.6616802521
 30
0.0
 10
9.8104350877
 20
9.6587439423
 30
0.0
 10
9.7937398522
 20
9.6559988246
 30
0.0
 10
9.7765841459
 20
9.6534504876
 30
0.0
 10
9.7590026454
 20
9.6511041273
 30
0.0
 10
9.7410309106
 20
9.6489645274
 30
0.0
 10
9.7227052632
 20
9.647036001
 30
0.0
 10
9.6976844827
 20
9.644736345
 30
0.0
 10
9.6657979132
 20
9.6424255992
 30
0.0
 10
9.6269763359
 20
9.6405620737
 30
0.0
 10
9.587662896
 20
9.6396056042
 30
0.0
 10
9.5481754547
 20
9.6395639557
 30
0.0
 10
9.5088330763
 20
9.6404375353
 30
0.0
 10
9.4699536224
 20
9.6422190942
 30
0.0
 10
9.4318514171
 20
9.644894067
 30
0.0
 10
9.4007452958
 20
9.6478738242
 30
0.0
 10
9.3764881053
 20
9.6506997359
 30
0.0
 10
9.3588329918
 20
9.6530088795
 30
0.0
 10
9.341597294
 20
9.6555208675
 30
0.0
 10
9.3248158317
 20
9.6582306313
 30
0.0
 10
9.3085225266
 20
9.6611326314
 30
0.0
 10
9.2927502947
 20
9.6642209579
 30
0.0
 10
9.2775309946
 20
9.6674893311
 30
0.0
 10
9.2628953426
 20
9.670931095
 30
0.0
 10
9.2488728445
 20
9.6745392254
 30
0.0
 10
9.2354917453
 20
9.6783063737
 30
0.0
 10
9.2227789639
 20
9.682224888
 30
0.0
 10
9.2107600112
 20
9.6862867922
 30
0.0
 10
9.1994589213
 20
9.6904838379
 30
0.0
 10
9.1888982449
 20
9.6948075409
 30
0.0
 10
9.1790988369
 20
9.6992492546
 30
0.0
 10
9.1700802416
 20
9.7038000761
 30
0.0
 10
9.1631104308
 20
9.7077433368
 30
0.0
 10
9.1579517788
 20
9.7109536214
 30
0.0
 10
9.1543583899
 20
9.7133398463
 30
0.0
 10
9.1509731008
 20
9.7157464787
 30
0.0
 10
9.1477975736
 20
9.7181723535
 30
0.0
 10
9.1448333711
 20
9.7206162765
 30
0.0
 10
9.142082019
 20
9.7230771363
 30
0.0
 10
9.1395448381
 20
9.7255537464
 30
0.0
 10
9.1372231786
 20
9.7280448933
 30
0.0
 10
9.135118087
 20
9.7305497721
 30
0.0
 10
9.1326485583
 20
9.7338433429
 30
0.0
 10
9.130551592
 20
9.7372257383
 30
0.0
 10
9.1288866586
 20
9.7406803199
 30
0.0
 10
9.1278807427
 20
9.7432352553
 30
0.0
 10
9.1270974044
 20
9.7457964024
 30
0.0
 10
9.126537268
 20
9.748362518
 30
0.0
 10
9.1262010089
 20
9.7509317833
 30
0.0
 10
9.1261261724
 20
9.7526482497
 30
0.0
 10
9.1261261782
 20
9.7535030256
 30
0.0
  0
SPLINE
  5
3A2
100
AcDbEntity
  8
0
100
AcDbSpline
 62
7
  6
CONTINUOUS
 70
0
 71
3
 72
71
 73
67
 74
0
 42
0.0000001
 43
0.0000001
 44
0.0000000001
 40
0.0
 40
0.0
 40
0.0
 40
0.0
 40
0.0081224021
 40
0.0169165279
 40
0.0264081434
 40
0.0366136729
 40
0.0475406687
 40
0.0591900386
 40
0.0715572362
 40
0.0846331289
 40
0.0984046806
 40
0.1128554936
 40
0.1279662701
 40
0.143715139
 40
0.1600778855
 40
0.177028224
 40
0.1945380126
 40
0.212577401
 40
0.231114962
 40
0.2501178742
 40
0.2695520505
 40
0.2893822318
 40
0.309572107
 40
0.3300844497
 40
0.3719228157
 40
0.4145857826
 40
0.4577527732
 40
0.5010982541
 40
0.5442949581
 40
0.5870170731
 40
0.6289434202
 40
0.6697607121
 40
0.6896589881
 40
0.7091677946
 40
0.728251669
 40
0.7468762811
 40
0.7650085828
 40
0.7826169028
 40
0.7996710734
 40
0.816142615
 40
0.8320049142
 40
0.8472333772
 40
0.8618056538
 40
0.8757019563
 40
0.8889053604
 40
0.9014021796
 40
0.9131824955
 40
0.9242408713
 40
0.9345771718
 40
0.9394767076
 40
0.9441987541
 40
0.9487453348
 40
0.9531191585
 40
0.9573236229
 40
0.9613628726
 40
0.9652420105
 40
0.9689670917
 40
0.9725452814
 40
0.9759850272
 40
0.9824862539
 40
0.9855751478
 40
0.9885736479
 40
0.9914976047
 40
0.9943642476
 40
0.9971919638
 40
1.0
 40
1.0
 40
1.0
 40
1.0
 10
12.8588812207
 20
9.9940599431
 30
0.0
 10
12.857102873
 20
9.992342191
 30
0.0
 10
12.8532313918
 20
9.9889360685
 30
0.0
 10
12.8468049697
 20
9.9840967392
 30
0.0
 10
12.8395475934
 20
9.9793383256
 30
0.0
 10
12.8314738447
 20
9.9746699462
 30
0.0
 10
12.8225988619
 20
9.9701002013
 30
0.0
 10
12.8129399904
 20
9.9656380116
 30
0.0
 10
12.8025161718
 20
9.9612921955
 30
0.0
 10
12.7913480255
 20
9.9570714916
 30
0.0
 10
12.7794577928
 20
9.9529844143
 30
0.0
 10
12.7668692593
 20
9.9490392395
 30
0.0
 10
12.7536076721
 20
9.94524399
 30
0.0
 10
12.739699685
 20
9.9416064054
 30
0.0
 10
12.7251733105
 20
9.9381338808
 30
0.0
 10
12.7100578407
 20
9.934833485
 30
0.0
 10
12.694383772
 20
9.9317119481
 30
0.0
 10
12.6781827516
 20
9.9287756383
 30
0.0
 10
12.6614875161
 20
9.9260305206
 30
0.0
 10
12.6443318099
 20
9.9234821836
 30
0.0
 10
12.6267503093
 20
9.9211358233
 30
0.0
 10
12.6087785746
 20
9.9189962235
 30
0.0
 10
12.5904529272
 20
9.917067697
 30
0.0
 10
12.5654321466
 20
9.9147680411
 30
0.0
 10
12.5335455772
 20
9.9124572952
 30
0.0
 10
12.4947239998
 20
9.9105937697
 30
0.0
 10
12.4554105599
 20
9.9096373003
 30
0.0
 10
12.4159231186
 20
9.9095956518
 30
0.0
 10
12.3765807402
 20
9.9104692313
 30
0.0
 10
12.3377012864
 20
9.9122507902
 30
0.0
 10
12.2995990811
 20
9.914925763
 30
0.0
 10
12.2684929597
 20
9.9179055202
 30
0.0
 10
12.2442357692
 20
9.9207314319
 30
0.0
 10
12.2265806557
 20
9.9230405755
 30
0.0
 10
12.2093449579
 20
9.9255525635
 30
0.0
 10
12.1925634956
 20
9.9282623273
 30
0.0
 10
12.1762701906
 20
9.9311643274
 30
0.0
 10
12.1604979587
 20
9.9342526539
 30
0.0
 10
12.1452786585
 20
9.9375210271
 30
0.0
 10
12.1306430066
 20
9.940962791
 30
0.0
 10
12.1166205084
 20
9.9445709214
 30
0.0
 10
12.1032394093
 20
9.9483380697
 30
0.0
 10
12.0905266279
 20
9.952256584
 30
0.0
 10
12.0785076752
 20
9.9563184882
 30
0.0
 10
12.0672065852
 20
9.9605155339
 30
0.0
 10
12.0566459089
 20
9.9648392369
 30
0.0
 10
12.0468465008
 20
9.9692809506
 30
0.0
 10
12.0378279055
 20
9.9738317721
 30
0.0
 10
12.0308580947
 20
9.9777750328
 30
0.0
 10
12.0256994428
 20
9.9809853174
 30
0.0
 10
12.0221060539
 20
9.9833715423
 30
0.0
 10
12.0187207647
 20
9.9857781747
 30
0.0
 10
12.0155452376
 20
9.9882040496
 30
0.0
 10
12.0125810351
 20
9.9906479725
 30
0.0
 10
12.0098296829
 20
9.9931088323
 30
0.0
 10
12.007292502
 20
9.9955854424
 30
0.0
 10
12.0049708425
 20
9.9980765893
 30
0.0
 10
12.0028657509
 20
10.0005814681
 30
0.0
 10
12.0003962222
 20
10.0038750389
 30
0.0
 10
11.9982992559
 20
10.0072574343
 30
0.0
 10
11.9966343226
 20
10.0107120159
 30
0.0
 10
11.9956284067
 20
10.0132669513
 30
0.0
 10
11.9948450683
 20
10.0158280984
 30
0.0
 10
11.9942849319
 20
10.018394214
 30
0.0
 10
11.9939486728
 20
10.0209634793
 30
0.0
 10
11.9938738363
 20
10.0226799457
 30
0.0
 10
11.9938738421
 20
10.0235347216
 30
0.0
  0
SPLINE
  5
3A3
100
AcDbEntity
  8
0
100
AcDbSpline
 62
7
  6
CONTINUOUS
 70
0
 71
3
 72
18
 73
14
 74
0
 42
0.0000001
 43
0.0000001
 44
0.0000000001
 40
0.0
 40
0.0
 40
0.0
 40
0.0
 40
0.150466514
 40
0.2917140478
 40
0.4244427524
 40
0.4879100217
 40
0.5496093045
 40
0.6682623303
 40
0.7817883775
 40
0.8371380958
 40
0.8918079631
 40
0.946019364
 40
1.0
 40
1.0
 40
1.0
 40
1.0
 10
13.6412811864
 20
9.2211514813
 30
0.0
 10
13.642624034
 20
9.2224485725
 30
0.0
 10
13.6453079383
 20
9.2248823073
 30
0.0
 10
13.6494636599
 20
9.2281255935
 30
0.0
 10
13.6529739058
 20
9.2304194092
 30
0.0
 10
13.6557729944
 20
9.2319727215
 30
0.0
 10
13.6584897346
 20
9.2333062768
 30
0.0
 10
13.6618865302
 20
9.2346537792
 30
0.0
 10
13.6653437401
 20
9.2355733766
 30
0.0
 10
13.6680819666
 20
9.2360263516
 30
0.0
 10
13.6701113625
 20
9.2362274308
 30
0.0
 10
13.6721325526
 20
9.2362923764
 30
0.0
 10
13.6734753802
 20
9.2362448692
 30
0.0
 10
13.6741435709
 20
9.2361985306
 30
0.0
  0
SPLINE
  5
3A4
100
AcDbEntity
  8
0
100
AcDbSpline
 62
7
  6
CONTINUOUS
 70
0
 71
3
 72
18
 73
14
 74
0
 42
0.0000001
 43
0.0000001
 44
0.0000000001
 40
0.0
 40
0.0
 40
0.0
 40
0.0
 40
0.150466514
 40
0.2917140478
 40
0.4244427524
 40
0.4879100217
 40
0.5496093045
 40
0.6682623303
 40
0.7817883775
 40
0.8371380958
 40
0.8918079631
 40
0.946019364
 40
1.0
 40
1.0
 40
1.0
 40
1.0
 10
13.1883482312
 20
8.7836518164
 30
0.0
 10
13.1896910788
 20
8.7849489077
 30
0.0
 10
13.1923749832
 20
8.7873826424
 30
0.0
 10
13.1965307048
 20
8.7906259287
 30
0.0
 10
13.2000409506
 20
8.7929197443
 30
0.0
 10
13.2028400393
 20
8.7944730567
 30
0.0
 10
13.2055567795
 20
8.7958066119
 30
0.0
 10
13.208953575
 20
8.7971541144
 30
0.0
 10
13.2124107849
 20
8.7980737117
 30
0.0
 10
13.2151490115
 20
8.7985266867
 30
0.0
 10
13.2171784073
 20
8.798727766
 30
0.0
 10
13.2191995974
 20
8.7987927115
 30
0.0
 10
13.2205424251
 20
8.7987452043
 30
0.0
 10
13.2212106158
 20
8.7986988657
 30
0.0
  0
SPLINE
  5
3A5
100
AcDbEntity
  8
0
100
AcDbSpline
 62
7
  6
CONTINUOUS
 70
0
 71
3
 72
21
 73
17
 74
0
 42
0.0000001
 43
0.0000001
 44
0.0000000001
 40
0.0
 40
0.0
 40
0.0
 40
0.0
 40
0.1273177382
 40
0.253799893
 40
0.3167619527
 40
0.3795355237
 40
0.4421314869
 40
0.5045621428
 40
0.5668413495
 40
0.6289845239
 40
0.69100845
 40
0.7529310987
 40
0.8147714472
 40
0.8765493323
 40
0.9382852239
 40
1.0
 40
1.0
 40
1.0
 40
1.0
 10
8.9062983725
 20
7.2698244231
 30
0.0
 10
8.9062983725
 20
7.2625868948
 30
0.0
 10
8.9056075129
 20
7.2481500207
 30
0.0
 10
8.9029982935
 20
7.230302926
 30
0.0
 10
8.8998797586
 20
7.2163034359
 30
0.0
 10
8.8970357993
 20
7.2059774023
 30
0.0
 10
8.8936900438
 20
7.1958348603
 30
0.0
 10
8.889850243
 20
7.1858988858
 30
0.0
 10
8.8855251934
 20
7.1761924789
 30
0.0
 10
8.8807248051
 20
7.1667380347
 30
0.0
 10
8.8754602178
 20
7.157557325
 30
0.0
 10
8.8697435049
 20
7.1486715462
 30
0.0
 10
8.8635878313
 20
7.1401012411
 30
0.0
 10
8.8570073897
 20
7.1318660603
 30
0.0
 10
8.8500175623
 20
7.1239852952
 30
0.0
 10
8.8450945558
 20
7.1189789446
 30
0.0
 10
8.8425712316
 20
7.1165415993
 30
0.0
  0
SPLINE
  5
3A6
100
AcDbEntity
  8
0
100
AcDbSpline
 62
7
  6
CONTINUOUS
 70
0
 71
3
 72
42
 73
38
 74
0
 42
0.0000001
 43
0.0000001
 44
0.0000000001
 40
0.0
 40
0.0
 40
0.0
 40
0.0
 40
0.0310747056
 40
0.0466742377
 40
0.0623121031
 40
0.0936967548
 40
0.1252253866
 40
0.1568866096
 40
0.188666234
 40
0.220547657
 40
0.2525122025
 40
0.2845395218
 40
0.3166080091
 40
0.3486952389
 40
0.3807784134
 40
0.4128348152
 40
0.4448422591
 40
0.4767795367
 40
0.5086268466
 40
0.5403662047
 40
0.5719818277
 40
0.6034604811
 40
0.6347917865
 40
0.6659684788
 40
0.6969866066
 40
0.7278456677
 40
0.7585486729
 40
0.7891021331
 40
0.8195159634
 40
0.8498033031
 40
0.8649073458
 40
0.8799860274
 40
0.9100712977
 40
0.9400857963
 40
0.9550764681
 40
0.9700580355
 40
1.0
 40
1.0
 40
1.0
 40
1.0
 10
8.9062983725
 20
7.2698244231
 30
0.0
 10
8.9062983725
 20
7.2754497739
 30
0.0
 10
8.9059839248
 20
7.2839033025
 30
0.0
 10
8.9049454321
 20
7.2951373233
 30
0.0
 10
8.9034903
 20
7.306382107
 30
0.0
 10
8.9008963359
 20
7.320377057
 30
0.0
 10
8.8965696284
 20
7.3369566261
 30
0.0
 10
8.8910488364
 20
7.3532534725
 30
0.0
 10
8.8843644675
 20
7.3691776011
 30
0.0
 10
8.8765533201
 20
7.38464177
 30
0.0
 10
8.8676583682
 20
7.3995610842
 30
0.0
 10
8.8577285052
 20
7.4138536926
 30
0.0
 10
8.8468182817
 20
7.4274411677
 30
0.0
 10
8.8349876069
 20
7.4402489478
 30
0.0
 10
8.8223014233
 20
7.4522067377
 30
0.0
 10
8.8088293531
 20
7.4632488911
 30
0.0
 10
8.7946453209
 20
7.473314768
 30
0.0
 10
8.7798271519
 20
7.4823490638
 30
0.0
 10
8.7644561502
 20
7.4903021119
 30
0.0
 10
8.7486166587
 20
7.497130154
 30
0.0
 10
8.7323956018
 20
7.5027955807
 30
0.0
 10
8.7158820155
 20
7.507267139
 30
0.0
 10
8.6991665657
 20
7.5105201058
 30
0.0
 10
8.6823410561
 20
7.5125364275
 30
0.0
 10
8.6654979359
 20
7.5133048274
 30
0.0
 10
8.6487297793
 20
7.5128208664
 30
0.0
 10
8.6321288492
 20
7.5110870092
 30
0.0
 10
8.6157863405
 20
7.508112504
 30
0.0
 10
8.5997928136
 20
7.5039137791
 30
0.0
 10
8.5868147488
 20
7.4994085592
 30
0.0
 10
8.576698949
 20
7.4952188688
 30
0.0
 10
8.5667879461
 20
7.4906520507
 30
0.0
 10
8.554770781
 20
7.4842327268
 30
0.0
 10
8.5433108555
 20
7.4768938589
 30
0.0
 10
8.5345281489
 20
7.4705030036
 30
0.0
 10
8.5260165685
 20
7.4637773812
 30
0.0
 10
8.5199389189
 20
7.4583569571
 30
0.0
 10
8.5160403482
 20
7.454591225
 30
0.0
  0
SPLINE
  5
3A7
100
AcDbEntity
  8
0
100
AcDbSpline
 62
7
  6
CONTINUOUS
 70
0
 71
3
 72
11
 73
7
 74
0
 42
0.0000001
 43
0.0000001
 44
0.0000000001
 40
0.0
 40
0.0
 40
0.0
 40
0.0
 40
0.2517312916
 40
0.5022812818
 40
0.7516865276
 40
1.0
 40
1.0
 40
1.0
 40
1.0
 10
10.5106570138
 20
7.1560162644
 30
0.0
 10
10.5106570138
 20
7.1466023159
 30
0.0
 10
10.5100186988
 20
7.1278121882
 30
0.0
 10
10.507134392
 20
7.0998281534
 30
0.0
 10
10.5023392225
 20
7.0722370609
 30
0.0
 10
10.4978725638
 20
7.0541492023
 30
0.0
 10
10.4953288523
 20
7.0452182563
 30
0.0
  0
SPLINE
  5
3A8
100
AcDbEntity
  8
0
100
AcDbSpline
 62
7
  6
CONTINUOUS
 70
0
 71
3
 72
11
 73
7
 74
0
 42
0.0000001
 43
0.0000001
 44
0.0000000001
 40
0.0
 40
0.0
 40
0.0
 40
0.0
 40
0.2480493634
 40
0.4974354392
 40
0.7481135223
 40
1.0
 40
1.0
 40
1.0
 40
1.0
 10
10.5106570138
 20
7.1560162644
 30
0.0
 10
10.5106570138
 20
7.167016121
 30
0.0
 10
10.5097809154
 20
7.1890846423
 30
0.0
 10
10.5058716988
 20
7.2220614371
 30
0.0
 10
10.4993897868
 20
7.2548034944
 30
0.0
 10
10.4933922283
 20
7.2762942217
 30
0.0
 10
10.4899841098
 20
7.286931607
 30
0.0
  0
SPLINE
  5
3A9
100
AcDbEntity
  8
0
100
AcDbSpline
 62
7
  6
CONTINUOUS
 70
0
 71
3
 72
21
 73
17
 74
0
 42
0.0000001
 43
0.0000001
 44
0.0000000001
 40
0.0
 40
0.0
 40
0.0
 40
0.0
 40
0.0628293531
 40
0.1257029808
 40
0.188601489
 40
0.251505272
 40
0.3772170743
 40
0.5027166172
 40
0.5653570331
 40
0.6278900671
 40
0.6902993217
 40
0.7525695018
 40
0.8146865629
 40
0.8766378401
 40
0.9384121688
 40
1.0
 40
1.0
 40
1.0
 40
1.0
 10
10.4278378457
 20
7.4107950299
 30
0.0
 10
10.4237567626
 20
7.4165352887
 30
0.0
 10
10.4153261702
 20
7.4278337058
 30
0.0
 10
10.4019134063
 20
7.4441855345
 30
0.0
 10
10.3877587888
 20
7.459911982
 30
0.0
 10
10.3679507329
 20
7.4799878195
 30
0.0
 10
10.3415169686
 20
7.5033301113
 30
0.0
 10
10.3130759048
 20
7.5241306003
 30
0.0
 10
10.289293496
 20
7.5391138001
 30
0.0
 10
10.270995448
 20
7.5494909971
 30
0.0
 10
10.2522722838
 20
7.5589877382
 30
0.0
 10
10.2331687526
 20
7.5675814218
 30
0.0
 10
10.2137311036
 20
7.5752512062
 30
0.0
 10
10.1940060342
 20
7.5819786073
 30
0.0
 10
10.1740417582
 20
7.5877472185
 30
0.0
 10
10.160582431
 20
7.5909497127
 30
0.0
 10
10.1538295251
 20
7.5923860269
 30
0.0
  0
SPLINE
  5
3AA
100
AcDbEntity
  8
0
100
AcDbSpline
 62
7
  6
CONTINUOUS
 70
0
 71
3
 72
23
 73
19
 74
0
 42
0.0000001
 43
0.0000001
 44
0.0000000001
 40
0.0
 40
0.0
 40
0.0
 40
0.0
 40
0.0637769127
 40
0.127344953
 40
0.1907019652
 40
0.2538561227
 40
0.3168132057
 40
0.3795820872
 40
0.4421733866
 40
0.5045993385
 40
0.5668738691
 40
0.6290123824
 40
0.6910316505
 40
0.7529496453
 40
0.8147853569
 40
0.8765586065
 40
0.9382898561
 40
1.0
 40
1.0
 40
1.0
 40
1.0
 10
11.6272674678
 20
7.7421701834
 30
0.0
 10
11.6272674678
 20
7.7355281239
 30
0.0
 10
11.6269495403
 20
7.7222635076
 30
0.0
 10
11.6255146386
 20
7.7024472849
 30
0.0
 10
11.6231254864
 20
7.6827881305
 30
0.0
 10
11.6197878255
 20
7.6633322228
 30
0.0
 10
11.6155090969
 20
7.6441240296
 30
0.0
 10
11.6102991965
 20
7.6252079544
 30
0.0
 10
11.6041701087
 20
7.6066275745
 30
0.0
 10
11.5971359108
 20
7.5884257372
 30
0.0
 10
11.5892127606
 20
7.5706444341
 30
0.0
 10
11.5804188933
 20
7.5533246798
 30
0.0
 10
11.5707745881
 20
7.536506416
 30
0.0
 10
11.5603020519
 20
7.5202284302
 30
0.0
 10
11.5490254304
 20
7.5045283242
 30
0.0
 10
11.5369705786
 20
7.4894422052
 30
0.0
 10
11.5241657905
 20
7.475005335
 30
0.0
 10
11.5151473114
 20
7.4658340771
 30
0.0
 10
11.5105247855
 20
7.4613690787
 30
0.0
  0
SPLINE
  5
3AB
100
AcDbEntity
  8
0
100
AcDbSpline
 62
7
  6
CONTINUOUS
 70
0
 71
3
 72
37
 73
33
 74
0
 42
0.0000001
 43
0.0000001
 44
0.0000000001
 40
0.0
 40
0.0
 40
0.0
 40
0.0
 40
0.0592062032
 40
0.1183572367
 40
0.176063495
 40
0.2313794357
 40
0.2838043778
 40
0.3331656352
 40
0.3794923924
 40
0.4229199082
 40
0.4636309178
 40
0.501822507
 40
0.537688712
 40
0.5714129644
 40
0.6031647922
 40
0.633099381
 40
0.6880571201
 40
0.7133496945
 40
0.7373322223
 40
0.7817742325
 40
0.802461392
 40
0.8222568823
 40
0.8412683857
 40
0.8596086593
 40
0.8774001837
 40
0.8947762684
 40
0.9118853068
 40
0.9288929962
 40
0.9459851337
 40
0.9633714715
 40
0.9812872609
 40
1.0
 40
1.0
 40
1.0
 40
1.0
 10
10.8820908939
 20
7.7152603093
 30
0.0
 10
10.8808930677
 20
7.7186348387
 30
0.0
 10
10.8787888059
 20
7.7254871767
 30
0.0
 10
10.8764869376
 20
7.7358941435
 30
0.0
 10
10.8750037775
 20
7.7462104254
 30
0.0
 10
10.8742713348
 20
7.7561973769
 30
0.0
 10
10.8741898075
 20
7.7657048015
 30
0.0
 10
10.8746533809
 20
7.7746558253
 30
0.0
 10
10.8755645456
 20
7.7830243944
 30
0.0
 10
10.8768398048
 20
7.7908149342
 30
0.0
 10
10.8784103563
 20
7.7980481273
 30
0.0
 10
10.8802206129
 20
7.804752086
 30
0.0
 10
10.8822260485
 20
7.8109573427
 30
0.0
 10
10.8843908561
 20
7.8166939957
 30
0.0
 10
10.8866870418
 20
7.8219906437
 30
0.0
 10
10.8898051561
 20
7.8283208536
 30
0.0
 10
10.8931785473
 20
7.8340837974
 30
0.0
 10
10.8967933402
 20
7.8392520119
 30
0.0
 10
10.9002931574
 20
7.8437128538
 30
0.0
 10
10.9039746283
 20
7.8476709264
 30
0.0
 10
10.9078297622
 20
7.8510699118
 30
0.0
 10
10.9106892012
 20
7.8532593041
 30
0.0
 10
10.9135832515
 20
7.8551549415
 30
0.0
 10
10.9165121994
 20
7.8567576911
 30
0.0
 10
10.9194754816
 20
7.858068549
 30
0.0
 10
10.922474709
 20
7.859083286
 30
0.0
 10
10.925511053
 20
7.8597977548
 30
0.0
 10
10.928587136
 20
7.8602020156
 30
0.0
 10
10.9317056885
 20
7.8602855022
 30
0.0
 10
10.9348704758
 20
7.8600309266
 30
0.0
 10
10.9380856605
 20
7.8594190572
 30
0.0
 10
10.9402095028
 20
7.8587718695
 30
0.0
 10
10.9412738081
 20
7.8583870041
 30
0.0
  0
SPLINE
  5
3AC
100
AcDbEntity
  8
0
100
AcDbSpline
 62
7
  6
CONTINUOUS
 70
0
 71
3
 72
39
 73
35
 74
0
 42
0.0000001
 43
0.0000001
 44
0.0000000001
 40
0.0
 40
0.0
 40
0.0
 40
0.0
 40
0.0310753511
 40
0.0623079071
 40
0.0936931323
 40
0.1252222879
 40
0.1568840438
 40
0.1886642044
 40
0.2205461649
 40
0.2525112495
 40
0.2845391085
 40
0.3166081364
 40
0.3486959075
 40
0.3807796234
 40
0.4128365659
 40
0.4448445499
 40
0.4767823666
 40
0.5086302146
 40
0.540370109
 40
0.5719862657
 40
0.6034654504
 40
0.6347972851
 40
0.6659745049
 40
0.6969931576
 40
0.7278527402
 40
0.7585562639
 40
0.7891102404
 40
0.8195245852
 40
0.8498124376
 40
0.8799898966
 40
0.9100756756
 40
0.9400906817
 40
0.970057529
 40
1.0
 40
1.0
 40
1.0
 40
1.0
 10
11.6272674678
 20
7.7421701834
 30
0.0
 10
11.6272674678
 20
7.7524753875
 30
0.0
 10
11.6264987244
 20
7.7731458582
 30
0.0
 10
11.6230664388
 20
7.8040526142
 30
0.0
 10
11.617371447
 20
7.8347778843
 30
0.0
 10
11.6094452086
 20
7.8651507763
 30
0.0
 10
11.5993316216
 20
7.8950050728
 30
0.0
 10
11.5870864227
 20
7.9241767598
 30
0.0
 10
11.5727770578
 20
7.9525057863
 30
0.0
 10
11.556482258
 20
7.9798366997
 30
0.0
 10
11.5382915969
 20
8.0060195425
 30
0.0
 10
11.5183050042
 20
8.0309106469
 30
0.0
 10
11.4966322223
 20
8.0543734172
 30
0.0
 10
11.4733922092
 20
8.0762790666
 30
0.0
 10
11.4487125177
 20
8.0965073454
 30
0.0
 10
11.4227285767
 20
8.1149471736
 30
0.0
 10
11.3955829555
 20
8.1314972409
 30
0.0
 10
11.3674245936
 20
8.1460665594
 30
0.0
 10
11.3384079935
 20
8.1585749552
 30
0.0
 10
11.3086923939
 20
8.1689535261
 30
0.0
 10
11.2784409073
 20
8.1771450344
 30
0.0
 10
11.2478196253
 20
8.1831041949
 30
0.0
 10
11.2169967246
 20
8.1867979353
 30
0.0
 10
11.1861415573
 20
8.1882055882
 30
0.0
 10
11.155423733
 20
8.1873190137
 30
0.0
 10
11.1250121939
 20
8.1841427025
 30
0.0
 10
11.095074287
 20
8.178693742
 30
0.0
 10
11.0657748429
 20
8.1710017328
 30
0.0
 10
11.0372752803
 20
8.1611086668
 30
0.0
 10
11.0097326538
 20
8.1490686603
 30
0.0
 10
10.9832989728
 20
8.1349478921
 30
0.0
 10
10.9581195631
 20
8.1188235205
 30
0.0
 10
10.9343351001
 20
8.1007860156
 30
0.0
 10
10.9194898307
 20
8.0875457408
 30
0.0
 10
10.9123479644
 20
8.0806472566
 30
0.0
  0
SPLINE
  5
3AD
100
AcDbEntity
  8
0
100
AcDbSpline
 62
7
  6
CONTINUOUS
 70
0
 71
3
 72
15
 73
11
 74
0
 42
0.0000001
 43
0.0000001
 44
0.0000000001
 40
0.0
 40
0.0
 40
0.0
 40
0.0
 40
0.1098906522
 40
0.2214015324
 40
0.3360758406
 40
0.455320507
 40
0.5803741139
 40
0.712293262
 40
0.8519441752
 40
1.0
 40
1.0
 40
1.0
 40
1.0
 10
9.7644335296
 20
10.4912426174
 30
0.0
 10
9.7644335332
 20
10.4906458183
 30
0.0
 10
9.7643569231
 20
10.4894420682
 30
0.0
 10
9.7640132713
 20
10.4876450855
 30
0.0
 10
9.7634418853
 20
10.485853761
 30
0.0
 10
9.7626443459
 20
10.4840707692
 30
0.0
 10
9.7616223675
 20
10.4822978369
 30
0.0
 10
9.7603776767
 20
10.4805364975
 30
0.0
 10
9.7589121437
 20
10.4787884126
 30
0.0
 10
9.7578222332
 20
10.4776668007
 30
0.0
 10
9.7572439035
 20
10.477108177
 30
0.0
  0
SPLINE
  5
3AE
100
AcDbEntity
  8
0
100
AcDbSpline
 62
7
  6
CONTINUOUS
 70
0
 71
3
 72
15
 73
11
 74
0
 42
0.0000001
 43
0.0000001
 44
0.0000000001
 40
0.0
 40
0.0
 40
0.0
 40
0.0
 40
0.1098906522
 40
0.2214015324
 40
0.3360758406
 40
0.455320507
 40
0.5803741139
 40
0.712293262
 40
0.8519441752
 40
1.0
 40
1.0
 40
1.0
 40
1.0
 10
12.6575664455
 20
9.2857945854
 30
0.0
 10
12.6575664492
 20
9.2851977863
 30
0.0
 10
12.657489839
 20
9.2839940362
 30
0.0
 10
12.6571461873
 20
9.2821970535
 30
0.0
 10
12.6565748012
 20
9.280405729
 30
0.0
 10
12.6557772619
 20
9.2786227372
 30
0.0
 10
12.6547552834
 20
9.2768498049
 30
0.0
 10
12.6535105926
 20
9.2750884655
 30
0.0
 10
12.6520450597
 20
9.2733403806
 30
0.0
 10
12.6509551492
 20
9.2722187687
 30
0.0
 10
12.6503768194
 20
9.271660145
 30
0.0
  0
SPLINE
  5
3AF
100
AcDbEntity
  8
0
100
AcDbSpline
 62
7
  6
CONTINUOUS
 70
0
 71
3
 72
55
 73
51
 74
0
 42
0.0000001
 43
0.0000001
 44
0.0000000001
 40
0.0
 40
0.0
 40
0.0
 40
0.0
 40
0.0077405257
 40
0.016054501
 40
0.0249607557
 40
0.0344722549
 40
0.0445956288
 40
0.0553326245
 40
0.0666809301
 40
0.0786350477
 40
0.0911864132
 40
0.1043240303
 40
0.1180346945
 40
0.1323031752
 40
0.1471126019
 40
0.1624443638
 40
0.1782785603
 40
0.1945938437
 40
0.2285756721
 40
0.2641981866
 40
0.3012536218
 40
0.3395217294
 40
0.3787720416
 40
0.4187660082
 40
0.4592590601
 40
0.5000026359
 40
0.5407461865
 40
0.5812391642
 40
0.6212330127
 40
0.6604831655
 40
0.6987510686
 40
0.7358062484
 40
0.7714284591
 40
0.8054099417
 40
0.82172507
 40
0.8375590436
 40
0.8528906419
 40
0.8676998342
 40
0.8819681224
 40
0.8956785669
 40
0.9088159488
 40
0.9213671134
 40
0.9333209605
 40
0.9446690809
 40
0.9554057944
 40
0.9655289274
 40
0.9750402537
 40
0.9839463466
 40
0.9922597297
 40
1.0
 40
1.0
 40
1.0
 40
1.0
 10
9.821435011
 20
9.7196691232
 30
0.0
 10
9.8204382226
 20
9.7187415728
 30
0.0
 10
9.8182924041
 20
9.7169009831
 30
0.0
 10
9.8147723153
 20
9.7142721848
 30
0.0
 10
9.8108442001
 20
9.7116830517
 30
0.0
 10
9.8065145481
 20
9.7091377017
 30
0.0
 10
9.801790052
 20
9.7066398782
 30
0.0
 10
9.7966782109
 20
9.704193681
 30
0.0
 10
9.791187263
 20
9.701802965
 30
0.0
 10
9.785326055
 20
9.6994716973
 30
0.0
 10
9.7791041088
 20
9.6972036549
 30
0.0
 10
9.772531558
 20
9.6950025968
 30
0.0
 10
9.7656191411
 20
9.6928721714
 30
0.0
 10
9.7583781801
 20
9.6908158645
 30
0.0
 10
9.7508205428
 20
9.6888371393
 30
0.0
 10
9.7429586467
 20
9.6869392166
 30
0.0
 10
9.7348053953
 20
9.6851252722
 30
0.0
 10
9.7234087408
 20
9.6827909816
 30
0.0
 10
9.7085309875
 20
9.6801165715
 30
0.0
 10
9.6899752845
 20
9.6773272148
 30
0.0
 10
9.67060445
 20
9.6749346603
 30
0.0
 10
9.6505459638
 20
9.6729548908
 30
0.0
 10
9.6299317077
 20
9.67140118
 30
0.0
 10
9.6088973539
 20
9.6702839203
 30
0.0
 10
9.5875813685
 20
9.6696105834
 30
0.0
 10
9.5661241037
 20
9.6693856669
 30
0.0
 10
9.5446668529
 20
9.6696106729
 30
0.0
 10
9.5233509085
 20
9.6702840972
 30
0.0
 10
9.5023166211
 20
9.6714014398
 30
0.0
 10
9.4817024559
 20
9.6729552296
 30
0.0
 10
9.4616440867
 20
9.6749350764
 30
0.0
 10
9.4422733975
 20
9.6773277109
 30
0.0
 10
9.4237178661
 20
9.6801171402
 30
0.0
 10
9.4088402709
 20
9.6827916276
 30
0.0
 10
9.3974437507
 20
9.6851259409
 30
0.0
 10
9.3892906102
 20
9.6869399447
 30
0.0
 10
9.3814288273
 20
9.6888378712
 30
0.0
 10
9.3738713117
 20
9.6908166513
 30
0.0
 10
9.366630473
 20
9.6928729717
 30
0.0
 10
9.3597181843
 20
9.6950034278
 30
0.0
 10
9.3531457682
 20
9.6972045236
 30
0.0
 10
9.3469239538
 20
9.699472566
 30
0.0
 10
9.3410628933
 20
9.7018038911
 30
0.0
 10
9.335572081
 20
9.7041945944
 30
0.0
 10
9.3304604031
 20
9.706640844
 30
0.0
 10
9.3257360399
 20
9.7091386563
 30
0.0
 10
9.3214065304
 20
9.7116840519
 30
0.0
 10
9.3174786238
 20
9.7142732022
 30
0.0
 10
9.3139586959
 20
9.7169019199
 30
0.0
 10
9.3118130596
 20
9.7187424955
 30
0.0
 10
9.3108163378
 20
9.7196700516
 30
0.0
  0
SPLINE
  5
3B0
100
AcDbEntity
  8
0
100
AcDbSpline
 62
7
  6
CONTINUOUS
 70
0
 71
3
 72
17
 73
13
 74
0
 42
0.0000001
 43
0.0000001
 44
0.0000000001
 40
0.0
 40
0.0
 40
0.0
 40
0.0
 40
0.0548653995
 40
0.1099348206
 40
0.2214348222
 40
0.3360991408
 40
0.4553350478
 40
0.5170794787
 40
0.5804143716
 40
0.712316841
 40
0.8519520933
 40
1.0
 40
1.0
 40
1.0
 40
1.0
 10
10.0061261579
 20
9.7535021935
 30
0.0
 10
10.0061261536
 20
9.7528807998
 30
0.0
 10
10.0060866886
 20
9.7516353043
 30
0.0
 10
10.005849359
 20
9.7491373182
 30
0.0
 10
10.0052496896
 20
9.7460000717
 30
0.0
 10
10.0040581345
 20
9.742265222
 30
0.0
 10
10.002688074
 20
9.7392023815
 30
0.0
 10
10.0013697371
 20
9.7367685629
 30
0.0
 10
9.9998601879
 20
9.734278895
 30
0.0
 10
9.9976682937
 20
9.7311771131
 30
0.0
 10
9.9946123961
 20
9.7275320644
 30
0.0
 10
9.9923395732
 20
9.7251931696
 30
0.0
 10
9.9911335568
 20
9.724028247
 30
0.0
  0
SPLINE
  5
3B1
100
AcDbEntity
  8
0
100
AcDbSpline
 62
7
  6
CONTINUOUS
 70
0
 71
3
 72
55
 73
51
 74
0
 42
0.0000001
 43
0.0000001
 44
0.0000000001
 40
0.0
 40
0.0
 40
0.0
 40
0.0
 40
0.0077405257
 40
0.016054501
 40
0.0249607557
 40
0.0344722549
 40
0.0445956288
 40
0.0553326245
 40
0.0666809301
 40
0.0786350477
 40
0.0911864132
 40
0.1043240303
 40
0.1180346945
 40
0.1323031752
 40
0.1471126019
 40
0.1624443638
 40
0.1782785603
 40
0.1945938437
 40
0.2285756721
 40
0.2641981866
 40
0.3012536218
 40
0.3395217294
 40
0.3787720416
 40
0.4187660082
 40
0.4592590601
 40
0.5000026359
 40
0.5407461865
 40
0.5812391642
 40
0.6212330127
 40
0.6604831655
 40
0.6987510686
 40
0.7358062484
 40
0.7714284591
 40
0.8054099417
 40
0.82172507
 40
0.8375590436
 40
0.8528906419
 40
0.8676998342
 40
0.8819681224
 40
0.8956785669
 40
0.9088159488
 40
0.9213671134
 40
0.9333209605
 40
0.9446690809
 40
0.9554057944
 40
0.9655289274
 40
0.9750402537
 40
0.9839463466
 40
0.9922597297
 40
1.0
 40
1.0
 40
1.0
 40
1.0
 10
12.6891826749
 20
9.9897008193
 30
0.0
 10
12.6881858865
 20
9.9887732688
 30
0.0
 10
12.6860400681
 20
9.9869326791
 30
0.0
 10
12.6825199792
 20
9.9843038808
 30
0.0
 10
12.6785918641
 20
9.9817147477
 30
0.0
 10
12.674262212
 20
9.9791693977
 30
0.0
 10
12.669537716
 20
9.9766715742
 30
0.0
 10
12.6644258749
 20
9.974225377
 30
0.0
 10
12.6589349269
 20
9.971834661
 30
0.0
 10
12.6530737189
 20
9.9695033934
 30
0.0
 10
12.6468517727
 20
9.9672353509
 30
0.0
 10
12.640279222
 20
9.9650342928
 30
0.0
 10
12.633366805
 20
9.9629038674
 30
0.0
 10
12.6261258441
 20
9.9608475606
 30
0.0
 10
12.6185682068
 20
9.9588688353
 30
0.0
 10
12.6107063106
 20
9.9569709126
 30
0.0
 10
12.6025530593
 20
9.9551569682
 30
0.0
 10
12.5911564047
 20
9.9528226776
 30
0.0
 10
12.5762786514
 20
9.9501482675
 30
0.0
 10
12.5577229485
 20
9.9473589108
 30
0.0
 10
12.538352114
 20
9.9449663563
 30
0.0
 10
12.5182936277
 20
9.9429865869
 30
0.0
 10
12.4976793716
 20
9.941432876
 30
0.0
 10
12.4766450179
 20
9.9403156163
 30
0.0
 10
12.4553290324
 20
9.9396422794
 30
0.0
 10
12.4338717676
 20
9.9394173629
 30
0.0
 10
12.4124145168
 20
9.9396423689
 30
0.0
 10
12.3910985724
 20
9.9403157932
 30
0.0
 10
12.370064285
 20
9.9414331358
 30
0.0
 10
12.3494501199
 20
9.9429869256
 30
0.0
 10
12.3293917506
 20
9.9449667724
 30
0.0
 10
12.3100210614
 20
9.9473594069
 30
0.0
 10
12.29146553
 20
9.9501488362
 30
0.0
 10
12.2765879348
 20
9.9528233236
 30
0.0
 10
12.2651914146
 20
9.9551576369
 30
0.0
 10
12.2570382742
 20
9.9569716407
 30
0.0
 10
12.2491764913
 20
9.9588695672
 30
0.0
 10
12.2416189756
 20
9.9608483473
 30
0.0
 10
12.2343781369
 20
9.9629046677
 30
0.0
 10
12.2274658482
 20
9.9650351238
 30
0.0
 10
12.2208934321
 20
9.9672362196
 30
0.0
 10
12.2146716178
 20
9.969504262
 30
0.0
 10
12.2088105572
 20
9.9718355872
 30
0.0
 10
12.203319745
 20
9.9742262904
 30
0.0
 10
12.198208067
 20
9.97667254
 30
0.0
 10
12.1934837039
 20
9.9791703523
 30
0.0
 10
12.1891541944
 20
9.9817157479
 30
0.0
 10
12.1852262877
 20
9.9843048982
 30
0.0
 10
12.1817063599
 20
9.986933616
 30
0.0
 10
12.1795607235
 20
9.9887741915
 30
0.0
 10
12.1785640018
 20
9.9897017476
 30
0.0
  0
SPLINE
  5
3B2
100
AcDbEntity
  8
0
100
AcDbSpline
 62
7
  6
CONTINUOUS
 70
0
 71
3
 72
17
 73
13
 74
0
 42
0.0000001
 43
0.0000001
 44
0.0000000001
 40
0.0
 40
0.0
 40
0.0
 40
0.0
 40
0.0548653995
 40
0.1099348206
 40
0.2214348222
 40
0.3360991408
 40
0.4553350478
 40
0.5170794787
 40
0.5804143716
 40
0.712316841
 40
0.8519520933
 40
1.0
 40
1.0
 40
1.0
 40
1.0
 10
12.8738738218
 20
10.0235338895
 30
0.0
 10
12.8738738176
 20
10.0229124958
 30
0.0
 10
12.8738343525
 20
10.0216670003
 30
0.0
 10
12.873597023
 20
10.0191690142
 30
0.0
 10
12.8729973535
 20
10.0160317677
 30
0.0
 10
12.8718057984
 20
10.012296918
 30
0.0
 10
12.870435738
 20
10.0092340775
 30
0.0
 10
12.8691174011
 20
10.0068002589
 30
0.0
 10
12.8676078518
 20
10.004310591
 30
0.0
 10
12.8654159576
 20
10.0012088091
 30
0.0
 10
12.86236006
 20
9.9975637604
 30
0.0
 10
12.8600872372
 20
9.9952248656
 30
0.0
 10
12.8588812207
 20
9.9940599431
 30
0.0
  0
SPLINE
  5
3B3
100
AcDbEntity
  8
0
100
AcDbSpline
 62
7
  6
CONTINUOUS
 70
0
 71
3
 72
78
 73
74
 74
0
 42
0.0000001
 43
0.0000001
 44
0.0000000001
 40
0.0
 40
0.0
 40
0.0
 40
0.0
 40
0.002716437
 40
0.0054532499
 40
0.0082303258
 40
0.0110666193
 40
0.0139798357
 40
0.0169861462
 40
0.0201001074
 40
0.0233346342
 40
0.0267009841
 40
0.0302089392
 40
0.033866861
 40
0.0376818191
 40
0.0416598027
 40
0.0458057327
 40
0.0501236562
 40
0.0546168619
 40
0.0592878722
 40
0.0641386486
 40
0.0691705883
 40
0.0743845602
 40
0.0853594804
 40
0.0970633454
 40
0.1094900995
 40
0.122629366
 40
0.1364670611
 40
0.1509858974
 40
0.166165815
 40
0.1819842919
 40
0.1984165668
 40
0.2154358706
 40
0.2330136396
 40
0.2511196715
 40
0.2697222404
 40
0.2887882524
 40
0.3082833865
 40
0.328172201
 40
0.3484182245
 40
0.3689840851
 40
0.4109212248
 40
0.4536713576
 40
0.4969134981
 40
0.540321922
 40
0.5835693174
 40
0.6263299118
 40
0.6682826143
 40
0.6888581262
 40
0.7091150154
 40
0.7290158802
 40
0.7485242227
 40
0.767604568
 40
0.7862225538
 40
0.8043450413
 40
0.8219402657
 40
0.8389779735
 40
0.8554295416
 40
0.8712681371
 40
0.88646894
 40
0.9010093515
 40
0.9148692219
 40
0.9280311672
 40
0.9404810055
 40
0.9522082213
 40
0.9632066157
 40
0.9684323229
 40
0.97347594
 40
0.978338293
 40
0.9830207537
 40
0.9875253474
 40
0.9918546279
 40
0.9960116289
 40
1.0
 40
1.0
 40
1.0
 40
1.0
 10
13.6084188018
 20
8.2884748427
 30
0.0
 10
13.6075322729
 20
8.2885363229
 30
0.0
 10
13.6057571024
 20
8.2887399642
 30
0.0
 10
13.6031169488
 20
8.2892849649
 30
0.0
 10
13.6004967577
 20
8.2900693902
 30
0.0
 10
13.5978983645
 20
8.291092417
 30
0.0
 10
13.5953231624
 20
8.2923532494
 30
0.0
 10
13.5927724273
 20
8.2938508025
 30
0.0
 10
13.5902473424
 20
8.2955840407
 30
0.0
 10
13.5877490679
 20
8.2975519056
 30
0.0
 10
13.5852786215
 20
8.2997531762
 30
0.0
 10
13.5828371162
 20
8.3021867052
 30
0.0
 10
13.5804256136
 20
8.3048512111
 30
0.0
 10
13.5780451403
 20
8.3077453124
 30
0.0
 10
13.5756968406
 20
8.3108676154
 30
0.0
 10
13.5733817507
 20
8.3142165407
 30
0.0
 10
13.5711009571
 20
8.3177904439
 30
0.0
 10
13.5688555951
 20
8.3215875902
 30
0.0
 10
13.5666466828
 20
8.3256060771
 30
0.0
 10
13.5644753434
 20
8.329843939
 30
0.0
 10
13.5623426167
 20
8.3342990872
 30
0.0
 10
13.5595032389
 20
8.3406347533
 30
0.0
 10
13.5560696328
 20
8.3490924931
 30
0.0
 10
13.5521871272
 20
8.3599036208
 30
0.0
 10
13.5484827339
 20
8.3715222773
 30
0.0
 10
13.5449639099
 20
8.3839253365
 30
0.0
 10
13.5416377604
 20
8.397088289
 30
0.0
 10
13.5385110183
 20
8.4109849145
 30
0.0
 10
13.5355900382
 20
8.4255874896
 30
0.0
 10
13.5328807742
 20
8.4408668197
 30
0.0
 10
13.5303887355
 20
8.4567923048
 30
0.0
 10
13.5281189854
 20
8.4733320115
 30
0.0
 10
13.5260761458
 20
8.4904527567
 30
0.0
 10
13.5242643877
 20
8.5081201737
 30
0.0
 10
13.5226873925
 20
8.526298776
 30
0.0
 10
13.5213483648
 20
8.5449520347
 30
0.0
 10
13.5202500329
 20
8.5640424673
 30
0.0
 10
13.5193946549
 20
8.5835316945
 30
0.0
 10
13.5187839417
 20
8.6033805659
 30
0.0
 10
13.5182945028
 20
8.6304473469
 30
0.0
 10
13.5183108138
 20
8.6648836162
 30
0.0
 10
13.5193115658
 20
8.7067262097
 30
0.0
 10
13.5212861399
 20
8.7490160443
 30
0.0
 10
13.524218744
 20
8.7914132312
 30
0.0
 10
13.52808584
 20
8.833577314
 30
0.0
 10
13.5328562527
 20
8.8751694259
 30
0.0
 10
13.5375820609
 20
8.9092916664
 30
0.0
 10
13.5417941328
 20
8.9360451292
 30
0.0
 10
13.545132562
 20
8.9556315729
 30
0.0
 10
13.5486638963
 20
8.9748292944
 30
0.0
 10
13.5523810433
 20
8.9935997294
 30
0.0
 10
13.5562764821
 20
9.0119051491
 30
0.0
 10
13.5603423491
 20
9.0297087729
 30
0.0
 10
13.5645704426
 20
9.0469748291
 30
0.0
 10
13.5689522214
 20
9.0636686457
 30
0.0
 10
13.5734788227
 20
9.0797567221
 30
0.0
 10
13.5781410985
 20
9.0952067875
 30
0.0
 10
13.5829296382
 20
9.1099878692
 30
0.0
 10
13.5878347615
 20
9.1240703791
 30
0.0
 10
13.5928465516
 20
9.1374261763
 30
0.0
 10
13.5979548953
 20
9.1500286267
 30
0.0
 10
13.6031495129
 20
9.1618526389
 30
0.0
 10
13.6084199808
 20
9.1728748671
 30
0.0
 10
13.6137557234
 20
9.1830733853
 30
0.0
 10
13.6183224409
 20
9.1909991553
 30
0.0
 10
13.6220081595
 20
9.1969009662
 30
0.0
 10
13.6247348689
 20
9.2010331681
 30
0.0
 10
13.6274698823
 20
9.2049449573
 30
0.0
 10
13.6302119291
 20
9.2086344095
 30
0.0
 10
13.6329596559
 20
9.2120997658
 30
0.0
 10
13.6357118088
 20
9.2153392844
 30
0.0
 10
13.6384668375
 20
9.2183512103
 30
0.0
 10
13.6403427316
 20
9.2202450036
 30
0.0
 10
13.6412811864
 20
9.2211514813
 30
0.0
  0
SPLINE
  5
3B4
100
AcDbEntity
  8
0
100
AcDbSpline
 62
7
  6
CONTINUOUS
 70
0
 71
3
 72
57
 73
53
 74
0
 42
0.0000001
 43
0.0000001
 44
0.0000000001
 40
0.0
 40
0.0
 40
0.0
 40
0.0
 40
0.0075208334
 40
0.015624169
 40
0.0243310884
 40
0.0336549213
 40
0.0436027779
 40
0.0541768184
 40
0.0653749137
 40
0.0771915347
 40
0.0896181529
 40
0.1026436114
 40
0.1162546035
 40
0.1304357134
 40
0.1451697967
 40
0.1604381039
 40
0.1762203432
 40
0.1924949794
 40
0.209239168
 40
0.2264289647
 40
0.2620437551
 40
0.2991294646
 40
0.337462511
 40
0.3768088514
 40
0.4169261398
 40
0.457565808
 40
0.4984751161
 40
0.5393991942
 40
0.5800830561
 40
0.6202736121
 40
0.6597217053
 40
0.6981841642
 40
0.7354258772
 40
0.7712219388
 40
0.788511346
 40
0.8053608428
 40
0.8217462248
 40
0.8376443904
 40
0.8530335039
 40
0.867892948
 40
0.8822036339
 40
0.8959480129
 40
0.9091102495
 40
0.9216765524
 40
0.9336352065
 40
0.9449770641
 40
0.9556958668
 40
0.965788648
 40
0.9752564248
 40
0.9841051282
 40
0.9923469789
 40
1.0
 40
1.0
 40
1.0
 40
1.0
 10
13.5818631334
 20
8.4420394102
 30
0.0
 10
13.5808080292
 20
8.443336721
 30
0.0
 10
13.5787291524
 20
8.4461249156
 30
0.0
 10
13.5758036108
 20
8.4506795698
 30
0.0
 10
13.5729616113
 20
8.4557514393
 30
0.0
 10
13.5702076521
 20
8.4613322049
 30
0.0
 10
13.5675458652
 20
8.4674131794
 30
0.0
 10
13.5649805944
 20
8.4739846321
 30
0.0
 10
13.5625159447
 20
8.4810359511
 30
0.0
 10
13.5601560162
 20
8.4885556757
 30
0.0
 10
13.5579047348
 20
8.4965315082
 30
0.0
 10
13.5557658164
 20
8.5049503451
 30
0.0
 10
13.553742895
 20
8.5137983247
 30
0.0
 10
13.5518393174
 20
8.5230608345
 30
0.0
 10
13.5500582896
 20
8.5327225586
 30
0.0
 10
13.5484028223
 20
8.5427675012
 30
0.0
 10
13.54687565
 20
8.5531790161
 30
0.0
 10
13.5454793877
 20
8.5639398334
 30
0.0
 10
13.5442163242
 20
8.5750321161
 30
0.0
 10
13.5426948124
 20
8.5904212143
 30
0.0
 10
13.5411531783
 20
8.6103508099
 30
0.0
 10
13.5398824546
 20
8.6350080022
 30
0.0
 10
13.5391788624
 20
8.6605177918
 30
0.0
 10
13.5390473069
 20
8.6867107957
 30
0.0
 10
13.5394889073
 20
8.7134132313
 30
0.0
 10
13.540500883
 20
8.740447821
 30
0.0
 10
13.5420765973
 20
8.7676350676
 30
0.0
 10
13.5442056163
 20
8.7947944435
 30
0.0
 10
13.5468737799
 20
8.8217456096
 30
0.0
 10
13.5500632971
 20
8.8483096304
 30
0.0
 10
13.553752853
 20
8.8743101621
 30
0.0
 10
13.5579177308
 20
8.8995747236
 30
0.0
 10
13.5625300527
 20
8.923935585
 30
0.0
 10
13.566768166
 20
8.943569611
 30
0.0
 10
13.5703692755
 20
8.9586968763
 30
0.0
 10
13.5731307674
 20
8.9695863241
 30
0.0
 10
13.5759795231
 20
8.9801331943
 30
0.0
 10
13.5789108343
 20
8.9903200011
 30
0.0
 10
13.5819197635
 20
9.0001298549
 30
0.0
 10
13.5850013369
 20
9.0095464943
 30
0.0
 10
13.5881503801
 20
9.0185543359
 30
0.0
 10
13.5913616417
 20
9.0271384854
 30
0.0
 10
13.5946298003
 20
9.0352847639
 30
0.0
 10
13.5979493645
 20
9.0429797647
 30
0.0
 10
13.6013148682
 20
9.0502108339
 30
0.0
 10
13.6047207169
 20
9.0569661508
 30
0.0
 10
13.6081612934
 20
9.0632347306
 30
0.0
 10
13.6116310541
 20
9.0690064077
 30
0.0
 10
13.6151243065
 20
9.0742719557
 30
0.0
 10
13.6186357987
 20
9.0790231889
 30
0.0
 10
13.6221598598
 20
9.0832521539
 30
0.0
 10
13.6246024929
 20
9.0858114766
 30
0.0
 10
13.6258263715
 20
9.0869936527
 30
0.0
  0
SPLINE
  5
3B5
100
AcDbEntity
  8
0
100
AcDbSpline
 62
7
  6
CONTINUOUS
 70
0
 71
3
 72
15
 73
11
 74
0
 42
0.0000001
 43
0.0000001
 44
0.0000000001
 40
0.0
 40
0.0
 40
0.0
 40
0.0
 40
0.0853526784
 40
0.1793628571
 40
0.2837485101
 40
0.4002333869
 40
0.530275177
 40
0.6745461468
 40
0.8321587989
 40
1.0
 40
1.0
 40
1.0
 40
1.0
 10
10.9257628606
 20
7.6641369523
 30
0.0
 10
10.9239078856
 20
7.6648070291
 30
0.0
 10
10.9200969166
 20
7.666466737
 30
0.0
 10
10.914430392
 20
7.6697941822
 30
0.0
 10
10.9086151603
 20
7.6741944827
 30
0.0
 10
10.9027329333
 20
7.6798002618
 30
0.0
 10
10.8969104213
 20
7.686726205
 30
0.0
 10
10.8913326433
 20
7.695025612
 30
0.0
 10
10.8862373656
 20
7.7046301438
 30
0.0
 10
10.8833882659
 20
7.7116053383
 30
0.0
 10
10.8820908939
 20
7.7152603093
 30
0.0
  0
SPLINE
  5
3B6
100
AcDbEntity
  8
0
100
AcDbSpline
 62
7
  6
CONTINUOUS
 70
0
 71
3
 72
14
 73
10
 74
0
 42
0.0000001
 43
0.0000001
 44
0.0000000001
 40
0.0
 40
0.0
 40
0.0
 40
0.0
 40
0.2739634281
 40
0.4012565629
 40
0.5238009714
 40
0.6432027729
 40
0.7611802166
 40
0.8795227955
 40
1.0
 40
1.0
 40
1.0
 40
1.0
 10
11.182195266
 20
8.1877474015
 30
0.0
 10
11.1827025284
 20
8.1868584475
 30
0.0
 10
11.1835674505
 20
8.1856159471
 30
0.0
 10
11.1849514047
 20
8.1842271042
 30
0.0
 10
11.1860407797
 20
8.1833745867
 30
0.0
 10
11.1872018635
 20
8.1826886651
 30
0.0
 10
11.188430305
 20
8.1821709794
 30
0.0
 10
11.1897209944
 20
8.1818229119
 30
0.0
 10
11.1906084226
 20
8.1817058425
 30
0.0
 10
11.1910574346
 20
8.1816746913
 30
0.0
  0
SPLINE
  5
3B7
100
AcDbEntity
  8
0
100
AcDbSpline
 62
7
  6
CONTINUOUS
 70
0
 71
3
 72
78
 73
74
 74
0
 42
0.0000001
 43
0.0000001
 44
0.0000000001
 40
0.0
 40
0.0
 40
0.0
 40
0.0
 40
0.002716437
 40
0.0054532499
 40
0.0082303258
 40
0.0110666193
 40
0.0139798357
 40
0.0169861462
 40
0.0201001074
 40
0.0233346342
 40
0.0267009841
 40
0.0302089392
 40
0.033866861
 40
0.0376818191
 40
0.0416598027
 40
0.0458057327
 40
0.0501236562
 40
0.0546168619
 40
0.0592878722
 40
0.0641386486
 40
0.0691705883
 40
0.0743845602
 40
0.0853594804
 40
0.0970633454
 40
0.1094900995
 40
0.122629366
 40
0.1364670611
 40
0.1509858974
 40
0.166165815
 40
0.1819842919
 40
0.1984165668
 40
0.2154358706
 40
0.2330136396
 40
0.2511196715
 40
0.2697222404
 40
0.2887882524
 40
0.3082833865
 40
0.328172201
 40
0.3484182245
 40
0.3689840851
 40
0.4109212248
 40
0.4536713576
 40
0.4969134981
 40
0.540321922
 40
0.5835693174
 40
0.6263299118
 40
0.6682826143
 40
0.6888581262
 40
0.7091150154
 40
0.7290158802
 40
0.7485242227
 40
0.767604568
 40
0.7862225538
 40
0.8043450413
 40
0.8219402657
 40
0.8389779735
 40
0.8554295416
 40
0.8712681371
 40
0.88646894
 40
0.9010093515
 40
0.9148692219
 40
0.9280311672
 40
0.9404810055
 40
0.9522082213
 40
0.9632066157
 40
0.9684323229
 40
0.97347594
 40
0.978338293
 40
0.9830207537
 40
0.9875253474
 40
0.9918546279
 40
0.9960116289
 40
1.0
 40
1.0
 40
1.0
 40
1.0
 10
13.1554858467
 20
7.8509751778
 30
0.0
 10
13.1545993177
 20
7.851036658
 30
0.0
 10
13.1528241472
 20
7.8512402994
 30
0.0
 10
13.1501839937
 20
7.8517853
 30
0.0
 10
13.1475638026
 20
7.8525697254
 30
0.0
 10
13.1449654093
 20
7.8535927521
 30
0.0
 10
13.1423902073
 20
7.8548535845
 30
0.0
 10
13.1398394722
 20
7.8563511376
 30
0.0
 10
13.1373143873
 20
7.8580843758
 30
0.0
 10
13.1348161128
 20
7.8600522407
 30
0.0
 10
13.1323456663
 20
7.8622535113
 30
0.0
 10
13.1299041611
 20
7.8646870403
 30
0.0
 10
13.1274926584
 20
7.8673515462
 30
0.0
 10
13.1251121852
 20
7.8702456476
 30
0.0
 10
13.1227638854
 20
7.8733679505
 30
0.0
 10
13.1204487955
 20
7.8767168759
 30
0.0
 10
13.118168002
 20
7.880290779
 30
0.0
 10
13.11592264
 20
7.8840879253
 30
0.0
 10
13.1137137276
 20
7.8881064122
 30
0.0
 10
13.1115423883
 20
7.8923442741
 30
0.0
 10
13.1094096615
 20
7.8967994224
 30
0.0
 10
13.1065702837
 20
7.9031350884
 30
0.0
 10
13.1031366776
 20
7.9115928282
 30
0.0
 10
13.0992541721
 20
7.922403956
 30
0.0
 10
13.0955497788
 20
7.9340226125
 30
0.0
 10
13.0920309547
 20
7.9464256716
 30
0.0
 10
13.0887048053
 20
7.9595886241
 30
0.0
 10
13.0855780632
 20
7.9734852497
 30
0.0
 10
13.082657083
 20
7.9880878247
 30
0.0
 10
13.079947819
 20
8.0033671548
 30
0.0
 10
13.0774557804
 20
8.01929264
 30
0.0
 10
13.0751860302
 20
8.0358323466
 30
0.0
 10
13.0731431907
 20
8.0529530918
 30
0.0
 10
13.0713314326
 20
8.0706205088
 30
0.0
 10
13.0697544374
 20
8.0887991111
 30
0.0
 10
13.0684154097
 20
8.1074523698
 30
0.0
 10
13.0673170778
 20
8.1265428024
 30
0.0
 10
13.0664616997
 20
8.1460320297
 30
0.0
 10
13.0658509865
 20
8.165880901
 30
0.0
 10
13.0653615477
 20
8.192947682
 30
0.0
 10
13.0653778587
 20
8.2273839513
 30
0.0
 10
13.0663786107
 20
8.2692265449
 30
0.0
 10
13.0683531847
 20
8.3115163794
 30
0.0
 10
13.0712857889
 20
8.3539135664
 30
0.0
 10
13.0751528849
 20
8.3960776491
 30
0.0
 10
13.0799232975
 20
8.437669761
 30
0.0
 10
13.0846491057
 20
8.4717920015
 30
0.0
 10
13.0888611777
 20
8.4985454644
 30
0.0
 10
13.0921996068
 20
8.5181319081
 30
0.0
 10
13.0957309411
 20
8.5373296296
 30
0.0
 10
13.0994480882
 20
8.5561000645
 30
0.0
 10
13.1033435269
 20
8.5744054843
 30
0.0
 10
13.107409394
 20
8.592209108
 30
0.0
 10
13.1116374875
 20
8.6094751643
 30
0.0
 10
13.1160192663
 20
8.6261689808
 30
0.0
 10
13.1205458675
 20
8.6422570573
 30
0.0
 10
13.1252081433
 20
8.6577071227
 30
0.0
 10
13.1299966831
 20
8.6724882043
 30
0.0
 10
13.1349018063
 20
8.6865707142
 30
0.0
 10
13.1399135965
 20
8.6999265115
 30
0.0
 10
13.1450219402
 20
8.7125289618
 30
0.0
 10
13.1502165577
 20
8.7243529741
 30
0.0
 10
13.1554870257
 20
8.7353752022
 30
0.0
 10
13.1608227683
 20
8.7455737204
 30
0.0
 10
13.1653894857
 20
8.7534994904
 30
0.0
 10
13.1690752044
 20
8.7594013013
 30
0.0
 10
13.1718019138
 20
8.7635335033
 30
0.0
 10
13.1745369271
 20
8.7674452924
 30
0.0
 10
13.177278974
 20
8.7711347447
 30
0.0
 10
13.1800267007
 20
8.7746001009
 30
0.0
 10
13.1827788537
 20
8.7778396196
 30
0.0
 10
13.1855338824
 20
8.7808515454
 30
0.0
 10
13.1874097765
 20
8.7827453387
 30
0.0
 10
13.1883482312
 20
8.7836518164
 30
0.0
  0
SPLINE
  5
3B8
100
AcDbEntity
  8
0
100
AcDbSpline
 62
7
  6
CONTINUOUS
 70
0
 71
3
 72
57
 73
53
 74
0
 42
0.0000001
 43
0.0000001
 44
0.0000000001
 40
0.0
 40
0.0
 40
0.0
 40
0.0
 40
0.0075208334
 40
0.015624169
 40
0.0243310884
 40
0.0336549213
 40
0.0436027779
 40
0.0541768184
 40
0.0653749137
 40
0.0771915347
 40
0.0896181529
 40
0.1026436114
 40
0.1162546035
 40
0.1304357134
 40
0.1451697967
 40
0.1604381039
 40
0.1762203432
 40
0.1924949794
 40
0.209239168
 40
0.2264289647
 40
0.2620437551
 40
0.2991294646
 40
0.337462511
 40
0.3768088514
 40
0.4169261398
 40
0.457565808
 40
0.4984751161
 40
0.5393991942
 40
0.5800830561
 40
0.6202736121
 40
0.6597217053
 40
0.6981841642
 40
0.7354258772
 40
0.7712219388
 40
0.788511346
 40
0.8053608428
 40
0.8217462248
 40
0.8376443904
 40
0.8530335039
 40
0.867892948
 40
0.8822036339
 40
0.8959480129
 40
0.9091102495
 40
0.9216765524
 40
0.9336352065
 40
0.9449770641
 40
0.9556958668
 40
0.965788648
 40
0.9752564248
 40
0.9841051282
 40
0.9923469789
 40
1.0
 40
1.0
 40
1.0
 40
1.0
 10
13.1289301782
 20
8.0045397453
 30
0.0
 10
13.1278750741
 20
8.0058370561
 30
0.0
 10
13.1257961973
 20
8.0086252507
 30
0.0
 10
13.1228706557
 20
8.013179905
 30
0.0
 10
13.1200286561
 20
8.0182517744
 30
0.0
 10
13.117274697
 20
8.0238325401
 30
0.0
 10
13.1146129101
 20
8.0299135145
 30
0.0
 10
13.1120476392
 20
8.0364849673
 30
0.0
 10
13.1095829895
 20
8.0435362862
 30
0.0
 10
13.1072230611
 20
8.0510560109
 30
0.0
 10
13.1049717797
 20
8.0590318434
 30
0.0
 10
13.1028328613
 20
8.0674506803
 30
0.0
 10
13.1008099398
 20
8.0762986598
 30
0.0
 10
13.0989063623
 20
8.0855611696
 30
0.0
 10
13.0971253345
 20
8.0952228938
 30
0.0
 10
13.0954698672
 20
8.1052678364
 30
0.0
 10
13.0939426949
 20
8.1156793513
 30
0.0
 10
13.0925464326
 20
8.1264401685
 30
0.0
 10
13.0912833691
 20
8.1375324513
 30
0.0
 10
13.0897618573
 20
8.1529215495
 30
0.0
 10
13.0882202232
 20
8.172851145
 30
0.0
 10
13.0869494995
 20
8.1975083373
 30
0.0
 10
13.0862459073
 20
8.223018127
 30
0.0
 10
13.0861143518
 20
8.2492111308
 30
0.0
 10
13.0865559522
 20
8.2759135664
 30
0.0
 10
13.0875679278
 20
8.3029481562
 30
0.0
 10
13.0891436421
 20
8.3301354027
 30
0.0
 10
13.0912726612
 20
8.3572947786
 30
0.0
 10
13.0939408247
 20
8.3842459447
 30
0.0
 10
13.097130342
 20
8.4108099655
 30
0.0
 10
13.1008198979
 20
8.4368104973
 30
0.0
 10
13.1049847757
 20
8.4620750588
 30
0.0
 10
13.1095970975
 20
8.4864359201
 30
0.0
 10
13.1138352109
 20
8.5060699461
 30
0.0
 10
13.1174363204
 20
8.5211972114
 30
0.0
 10
13.1201978123
 20
8.5320866592
 30
0.0
 10
13.123046568
 20
8.5426335295
 30
0.0
 10
13.1259778792
 20
8.5528203362
 30
0.0
 10
13.1289868083
 20
8.56263019
 30
0.0
 10
13.1320683818
 20
8.5720468294
 30
0.0
 10
13.135217425
 20
8.5810546711
 30
0.0
 10
13.1384286866
 20
8.5896388206
 30
0.0
 10
13.1416968452
 20
8.597785099
 30
0.0
 10
13.1450164094
 20
8.6054800999
 30
0.0
 10
13.148381913
 20
8.6127111691
 30
0.0
 10
13.1517877618
 20
8.6194664859
 30
0.0
 10
13.1552283383
 20
8.6257350657
 30
0.0
 10
13.1586980989
 20
8.6315067428
 30
0.0
 10
13.1621913514
 20
8.6367722908
 30
0.0
 10
13.1657028435
 20
8.641523524
 30
0.0
 10
13.1692269047
 20
8.645752489
 30
0.0
 10
13.1716695377
 20
8.6483118117
 30
0.0
 10
13.1728934164
 20
8.6494939878
 30
0.0
  0
SPLINE
  5
3B9
100
AcDbEntity
  8
0
100
AcDbSpline
 62
7
  6
CONTINUOUS
 70
0
 71
3
 72
39
 73
35
 74
0
 42
0.0000001
 43
0.0000001
 44
0.0000000001
 40
0.0
 40
0.0
 40
0.0
 40
0.0
 40
0.0299424712
 40
0.0599093185
 40
0.0899243247
 40
0.120010104
 40
0.1501875625
 40
0.1804754137
 40
0.2108897572
 40
0.2414437336
 40
0.272147258
 40
0.3030068403
 40
0.3340254914
 40
0.3652027096
 40
0.3965345442
 40
0.4280137297
 40
0.4596298866
 40
0.4913697802
 40
0.5232176274
 40
0.5551554443
 40
0.5871634289
 40
0.6192203717
 40
0.6513040877
 40
0.6833918591
 40
0.7154608877
 40
0.7474887471
 40
0.7794538319
 40
0.8113357927
 40
0.8431159543
 40
0.8747777099
 40
0.9063068688
 40
0.9376920891
 40
0.9689246464
 40
1.0
 40
1.0
 40
1.0
 40
1.0
 10
8.361711446
 20
7.590538249
 30
0.0
 10
8.369010899
 20
7.5975889842
 30
0.0
 10
8.3841837693
 20
7.6111214402
 30
0.0
 10
8.4084930733
 20
7.6295570224
 30
0.0
 10
8.4342281284
 20
7.6460372293
 30
0.0
 10
8.4612451406
 20
7.6604696034
 30
0.0
 10
8.4893955603
 20
7.6727753172
 30
0.0
 10
8.5185240282
 20
7.6828867304
 30
0.0
 10
8.548470032
 20
7.6907485166
 30
0.0
 10
8.5790685958
 20
7.6963177333
 30
0.0
 10
8.6101512462
 20
7.6995641285
 30
0.0
 10
8.6415469386
 20
7.7004702698
 30
0.0
 10
8.6730830056
 20
7.6990315827
 30
0.0
 10
8.7045860975
 20
7.6952563642
 30
0.0
 10
8.7358831205
 20
7.6891657092
 30
0.0
 10
8.7668021834
 20
7.680793425
 30
0.0
 10
8.7971735336
 20
7.6701858195
 30
0.0
 10
8.8268304674
 20
7.657401411
 30
0.0
 10
8.8556102319
 20
7.6425106114
 30
0.0
 10
8.8833548979
 20
7.6255953316
 30
0.0
 10
8.9099122389
 20
7.6067485742
 30
0.0
 10
8.9351365489
 20
7.586073901
 30
0.0
 10
8.9588894183
 20
7.5636848515
 30
0.0
 10
8.981040487
 20
7.5397043319
 30
0.0
 10
9.0014681433
 20
7.5142639447
 30
0.0
 10
9.0200602257
 20
7.487503306
 30
0.0
 10
9.0367146094
 20
7.4595692621
 30
0.0
 10
9.0513397492
 20
7.4306150818
 30
0.0
 10
9.063855184
 20
7.4007996507
 30
0.0
 10
9.0741919606
 20
7.3702865416
 30
0.0
 10
9.0822931083
 20
7.3392433919
 30
0.0
 10
9.0881137755
 20
7.3078400886
 30
0.0
 10
9.0916218032
 20
7.2762512945
 30
0.0
 10
9.0924075122
 20
7.2551246745
 30
0.0
 10
9.0924075122
 20
7.2445920583
 30
0.0
  0
SPLINE
  5
3BA
100
AcDbEntity
  8
0
100
AcDbSpline
 62
7
  6
CONTINUOUS
 70
0
 71
3
 72
42
 73
38
 74
0
 42
0.0000001
 43
0.0000001
 44
0.0000000001
 40
0.0
 40
0.0
 40
0.0
 40
0.0
 40
0.0299702543
 40
0.0449891776
 40
0.0600316074
 40
0.0901893361
 40
0.1204605605
 40
0.1356442982
 40
0.1508601275
 40
0.1813872954
 40
0.2120522127
 40
0.2428581148
 40
0.2738057334
 40
0.3048933176
 40
0.3361166976
 40
0.3674693873
 40
0.3989427223
 40
0.4305260298
 40
0.4622068252
 40
0.4939710338
 40
0.525803231
 40
0.5576868999
 40
0.5896047012
 40
0.6215387519
 40
0.6534709112
 40
0.6853830683
 40
0.7172574301
 40
0.7490768057
 40
0.7808248837
 40
0.8124865005
 40
0.8440478911
 40
0.8754969379
 40
0.9068233461
 40
0.938018967
 40
0.9535675796
 40
0.9690817465
 40
1.0
 40
1.0
 40
1.0
 40
1.0
 10
11.5913279754
 20
7.575728113
 30
0.0
 10
11.583726299
 20
7.5715799125
 30
0.0
 10
11.5720901742
 20
7.5657528104
 30
0.0
 10
11.5561915726
 20
7.5588097979
 30
0.0
 10
11.5400092036
 20
7.5524058177
 30
0.0
 10
11.5193228046
 20
7.5454457268
 30
0.0
 10
11.4981656204
 20
7.5399215372
 30
0.0
 10
11.4809955393
 20
7.5363692126
 30
0.0
 10
11.4636413161
 20
7.5333927131
 30
0.0
 10
11.4417007335
 20
7.5307739235
 30
0.0
 10
11.4151336877
 20
7.5294079699
 30
0.0
 10
11.388412907
 20
7.5298203004
 30
0.0
 10
11.3616566234
 20
7.5320090452
 30
0.0
 10
11.3349822075
 20
7.535964335
 30
0.0
 10
11.3085068974
 20
7.5416686074
 30
0.0
 10
11.2823469539
 20
7.549096621
 30
0.0
 10
11.2566172458
 20
7.5582155891
 30
0.0
 10
11.2314307272
 20
7.5689853216
 30
0.0
 10
11.2068979535
 20
7.5813584046
 30
0.0
 10
11.1831265994
 20
7.5952804084
 30
0.0
 10
11.1602209922
 20
7.610690127
 30
0.0
 10
11.1382816582
 20
7.6275198465
 30
0.0
 10
11.1174048865
 20
7.6456956407
 30
0.0
 10
11.0976823096
 20
7.6651376934
 30
0.0
 10
11.079200505
 20
7.6857606466
 30
0.0
 10
11.0620406187
 20
7.7074739724
 30
0.0
 10
11.0462780108
 20
7.7301823663
 30
0.0
 10
11.0319819279
 20
7.7537861637
 30
0.0
 10
11.0192152003
 20
7.7781817673
 30
0.0
 10
11.0080339673
 20
7.8032621195
 30
0.0
 10
10.9984874332
 20
7.8289170857
 30
0.0
 10
10.9906176383
 20
7.8550342325
 30
0.0
 10
10.9844593429
 20
7.8814982089
 30
0.0
 10
10.9807720752
 20
7.903770585
 30
0.0
 10
10.9787045028
 20
7.9216437527
 30
0.0
 10
10.9772290239
 20
7.93949444
 30
0.0
 10
10.9767827873
 20
7.9529164181
 30
0.0
 10
10.9767827873
 20
7.9618501937
 30
0.0
  0
SPLINE
  5
3BB
100
AcDbEntity
  8
0
100
AcDbSpline
 62
7
  6
CONTINUOUS
 70
0
 71
3
 72
69
 73
65
 74
0
 42
0.0000001
 43
0.0000001
 44
0.0000000001
 40
0.0
 40
0.0
 40
0.0
 40
0.0
 40
0.0078496125
 40
0.0150470873
 40
0.0216913576
 40
0.024849121
 40
0.0279214041
 40
0.0309297974
 40
0.0338974714
 40
0.0368486889
 40
0.0398081446
 40
0.0428003164
 40
0.0458487936
 40
0.0489757857
 40
0.0522016965
 40
0.0590172302
 40
0.0626415674
 40
0.0664256784
 40
0.0703799275
 40
0.0745129615
 40
0.0833407775
 40
0.0929542674
 40
0.1033797032
 40
0.1146306353
 40
0.1267107597
 40
0.1396158826
 40
0.1533352455
 40
0.1678527468
 40
0.1831477654
 40
0.1991956457
 40
0.2159682886
 40
0.2334345959
 40
0.251560677
 40
0.2703101734
 40
0.2896445757
 40
0.3095233513
 40
0.3299041394
 40
0.3719934528
 40
0.4155460081
 40
0.4601762292
 40
0.505485711
 40
0.5510681302
 40
0.5965139905
 40
0.6414153858
 40
0.6853707345
 40
0.727989638
 40
0.7486807963
 40
0.7688990608
 40
0.7886009751
 40
0.8077448144
 40
0.8262906967
 40
0.8442007512
 40
0.8614394592
 40
0.877973848
 40
0.8937737143
 40
0.9088120885
 40
0.9230656479
 40
0.9365151296
 40
0.9491461082
 40
0.9609499856
 40
0.9719248962
 40
0.9820774536
 40
0.9914258054
 40
1.0
 40
1.0
 40
1.0
 40
1.0
 10
12.6898441911
 20
9.990327886
 30
0.0
 10
12.6909177585
 20
9.9913648725
 30
0.0
 10
12.6928852981
 20
9.9934510089
 30
0.0
 10
12.6953538691
 20
9.9967680433
 30
0.0
 10
12.6969138917
 20
9.9996147097
 30
0.0
 10
12.6978199327
 20
10.001891669
 30
0.0
 10
12.6983286088
 20
10.003575507
 30
0.0
 10
12.6986770551
 20
10.0052628461
 30
0.0
 10
12.698864791
 20
10.0069524864
 30
0.0
 10
12.6988916379
 20
10.0086430444
 30
0.0
 10
12.6987575041
 20
10.01033314
 30
0.0
 10
12.698462554
 20
10.0120213909
 30
0.0
 10
12.6980072925
 20
10.0137064981
 30
0.0
 10
12.6973921559
 20
10.0153873494
 30
0.0
 10
12.6963407596
 20
10.0176624378
 30
0.0
 10
12.6949771205
 20
10.0198868313
 30
0.0
 10
12.693347813
 20
10.0220469336
 30
0.0
 10
12.691944573
 20
10.0236916562
 30
0.0
 10
12.6903863251
 20
10.0253263139
 30
0.0
 10
12.6880515545
 20
10.0275402908
 30
0.0
 10
12.6847319226
 20
10.0302707674
 30
0.0
 10
12.6802330607
 20
10.0334230689
 30
0.0
 10
12.6751446911
 20
10.0365137402
 30
0.0
 10
12.6694786334
 20
10.0395359144
 30
0.0
 10
12.6632476839
 20
10.0424827932
 30
0.0
 10
12.6564662971
 20
10.0453474389
 30
0.0
 10
12.6491503629
 20
10.0481230777
 30
0.0
 10
12.6413171589
 20
10.050803044
 30
0.0
 10
12.6329852738
 20
10.053380841
 30
0.0
 10
12.6241745779
 20
10.055850247
 30
0.0
 10
12.6149061371
 20
10.0582052831
 30
0.0
 10
12.6052021429
 20
10.0604402111
 30
0.0
 10
12.5950858734
 20
10.0625496132
 30
0.0
 10
12.5845816214
 20
10.0645283885
 30
0.0
 10
12.5737146271
 20
10.0663717093
 30
0.0
 10
12.5625109931
 20
10.0680751336
 30
0.0
 10
12.5469933747
 20
10.0701767507
 30
0.0
 10
12.5269541807
 20
10.0724132367
 30
0.0
 10
12.5022641725
 20
10.0744564716
 30
0.0
 10
12.4769167138
 20
10.0758667499
 30
0.0
 10
12.4511555584
 20
10.0766303155
 30
0.0
 10
12.4252282595
 20
10.0767396364
 30
0.0
 10
12.3993840852
 20
10.0761936269
 30
0.0
 10
12.3738714055
 20
10.0749976962
 30
0.0
 10
12.3489355843
 20
10.0731635002
 30
0.0
 10
12.3286405747
 20
10.0710985276
 30
0.0
 10
12.3128793815
 20
10.0691309427
 30
0.0
 10
12.3014662591
 20
10.0675231116
 30
0.0
 10
12.2903719006
 20
10.0657725836
 30
0.0
 10
12.2796229596
 20
10.0638835937
 30
0.0
 10
12.2692452778
 20
10.0618607375
 30
0.0
 10
12.2592637899
 20
10.0597088978
 30
0.0
 10
12.2497024508
 20
10.0574333119
 30
0.0
 10
12.2405841795
 20
10.0550395156
 30
0.0
 10
12.2319308119
 20
10.0525332935
 30
0.0
 10
12.2237630156
 20
10.0499207249
 30
0.0
 10
12.2161002311
 20
10.0472081514
 30
0.0
 10
12.2089606331
 20
10.0444020917
 30
0.0
 10
12.2023610428
 20
10.0415092632
 30
0.0
 10
12.1963168473
 20
10.0385365152
 30
0.0
 10
12.1908420539
 20
10.035490796
 30
0.0
 10
12.1859488215
 20
10.0323787276
 30
0.0
 10
12.1816487633
 20
10.0292073818
 30
0.0
 10
12.1790761391
 20
10.0269638041
 30
0.0
 10
12.1779034728
 20
10.0258310954
 30
0.0
  0
SPLINE
  5
3BC
100
AcDbEntity
  8
0
100
AcDbSpline
 62
7
  6
CONTINUOUS
 70
0
 71
3
 72
15
 73
11
 74
0
 42
0.0000001
 43
0.0000001
 44
0.0000000001
 40
0.0
 40
0.0
 40
0.0
 40
0.0
 40
0.1234613758
 40
0.2472682719
 40
0.3714774789
 40
0.4961385893
 40
0.6212930777
 40
0.7469740042
 40
0.8732046424
 40
1.0
 40
1.0
 40
1.0
 40
1.0
 10
11.0294844953
 20
8.1575166327
 30
0.0
 10
11.0251864704
 20
8.1502552405
 30
0.0
 10
11.0170755973
 20
8.1354112713
 30
0.0
 10
11.0064428754
 20
8.1123355421
 30
0.0
 10
10.9973701917
 20
8.0885141932
 30
0.0
 10
10.9898961025
 20
8.0640481853
 30
0.0
 10
10.9840514379
 20
8.0390395308
 30
0.0
 10
10.9798605113
 20
8.0135924868
 30
0.0
 10
10.9773405817
 20
7.9878147246
 30
0.0
 10
10.9767827873
 20
7.9705161158
 30
0.0
 10
10.9767827873
 20
7.9618501937
 30
0.0
  0
SPLINE
  5
3BD
100
AcDbEntity
  8
0
100
AcDbSpline
 62
7
  6
CONTINUOUS
 70
0
 71
3
 72
60
 73
56
 74
0
 42
0.0000001
 43
0.0000001
 44
0.0000000001
 40
0.0
 40
0.0
 40
0.0
 40
0.0
 40
0.0081223406
 40
0.0169168431
 40
0.0264086323
 40
0.0366142687
 40
0.0475414355
 40
0.0591910158
 40
0.0715584107
 40
0.0846344949
 40
0.0984062802
 40
0.1128573064
 40
0.1279683357
 40
0.1437174554
 40
0.1600804353
 40
0.1770310661
 40
0.1945411268
 40
0.2125807894
 40
0.2501207279
 40
0.2893847263
 40
0.3300867172
 40
0.371925751
 40
0.4145894152
 40
0.4577571198
 40
0.5011033266
 40
0.5443007676
 40
0.587023623
 40
0.6289507091
 40
0.6697687274
 40
0.7091755587
 40
0.746883655
 40
0.7650162944
 40
0.7826249702
 40
0.7996794705
 40
0.816151351
 40
0.8320139955
 40
0.8472427493
 40
0.8618153589
 40
0.8757119742
 40
0.8889156572
 40
0.9014127819
 40
0.9131933641
 40
0.9242520195
 40
0.9345885809
 40
0.9442093339
 40
0.9531286836
 40
0.9613709339
 40
0.9689732146
 40
0.9759886454
 40
0.9824900322
 40
0.9885734237
 40
0.9914974427
 40
0.9943641479
 40
0.9971919194
 40
1.0
 40
1.0
 40
1.0
 40
1.0
 10
9.3496231806
 20
10.5053767701
 30
0.0
 10
9.3504759565
 20
10.5062004885
 30
0.0
 10
9.352332522
 20
10.5078338611
 30
0.0
 10
9.3554142588
 20
10.510154568
 30
0.0
 10
9.358894516
 20
10.512436454
 30
0.0
 10
9.3627662434
 20
10.5146751188
 30
0.0
 10
9.3670221677
 20
10.516866541
 30
0.0
 10
9.3716540296
 20
10.5190063495
 30
0.0
 10
9.3766527111
 20
10.5210903573
 30
0.0
 10
9.3820083233
 20
10.5231143843
 30
0.0
 10
9.3877102129
 20
10.5250743098
 30
0.0
 10
9.393746966
 20
10.5269662074
 30
0.0
 10
9.4001064811
 20
10.5287861934
 30
0.0
 10
9.4067759702
 20
10.5305305756
 30
0.0
 10
9.4137420019
 20
10.5321958215
 30
0.0
 10
9.4209905331
 20
10.5337784927
 30
0.0
 10
9.4285069458
 20
10.535275433
 30
0.0
 10
9.4390054449
 20
10.5371781278
 30
0.0
 10
9.4526874588
 20
10.5393095047
 30
0.0
 10
9.4697082374
 20
10.5414498116
 30
0.0
 10
9.4874053719
 20
10.5431877146
 30
0.0
 10
9.505635884
 20
10.5445089355
 30
0.0
 10
9.524252605
 20
10.5454025702
 30
0.0
 10
9.5431051247
 20
10.5458612597
 30
0.0
 10
9.5620411099
 20
10.5458812366
 30
0.0
 10
9.5809075364
 20
10.5454623388
 30
0.0
 10
9.5995519566
 20
10.5446080131
 30
0.0
 10
9.6178237308
 20
10.5433252792
 30
0.0
 10
9.6355753478
 20
10.5416247248
 30
0.0
 10
9.6526633855
 20
10.5395203209
 30
0.0
 10
9.6664095536
 20
10.5374182429
 30
0.0
 10
9.676965473
 20
10.5355382196
 30
0.0
 10
9.6845289904
 20
10.5340572282
 30
0.0
 10
9.6918273441
 20
10.5324899045
 30
0.0
 10
9.6988458194
 20
10.5308394332
 30
0.0
 10
9.7055702613
 20
10.5291091924
 30
0.0
 10
9.7119871211
 20
10.5273026692
 30
0.0
 10
9.7180835006
 20
10.5254235853
 30
0.0
 10
9.7238471609
 20
10.523475731
 30
0.0
 10
9.7292665681
 20
10.5214630579
 30
0.0
 10
9.7343309311
 20
10.5193896673
 30
0.0
 10
9.7390301983
 20
10.5172596698
 30
0.0
 10
9.7433551431
 20
10.515077342
 30
0.0
 10
9.7472973478
 20
10.5128469302
 30
0.0
 10
9.7508492228
 20
10.5105726294
 30
0.0
 10
9.7540040711
 20
10.5082586101
 30
0.0
 10
9.7567559263
 20
10.5059086684
 30
0.0
 10
9.7590995085
 20
10.5035263876
 30
0.0
 10
9.7610299193
 20
10.5011146485
 30
0.0
 10
9.7625418492
 20
10.4986766939
 30
0.0
 10
9.7634602908
 20
10.4965974004
 30
0.0
 10
9.7639676711
 20
10.4949383035
 30
0.0
 10
9.7642363363
 20
10.4937077102
 30
0.0
 10
9.7643976353
 20
10.4924756449
 30
0.0
 10
9.7644335271
 20
10.49165252
 30
0.0
 10
9.7644335296
 20
10.4912426174
 30
0.0
  0
SPLINE
  5
3BE
100
AcDbEntity
  8
0
100
AcDbSpline
 62
7
  6
CONTINUOUS
 70
0
 71
3
 72
68
 73
64
 74
0
 42
0.0000001
 43
0.0000001
 44
0.0000000001
 40
0.0
 40
0.0
 40
0.0
 40
0.0
 40
0.0080156011
 40
0.0166939399
 40
0.0260562568
 40
0.0361157971
 40
0.0468779428
 40
0.058342219
 40
0.0705033746
 40
0.0833520738
 40
0.0968754844
 40
0.1110578036
 40
0.125880631
 40
0.141323207
 40
0.157362673
 40
0.1739743175
 40
0.1911317206
 40
0.2088068702
 40
0.2269703537
 40
0.2455914799
 40
0.2646383497
 40
0.2840779876
 40
0.323998195
 40
0.3650715559
 40
0.4070057193
 40
0.4495002857
 40
0.4922497123
 40
0.5349461155
 40
0.5772820954
 40
0.6189535588
 40
0.6596625615
 40
0.6795658076
 40
0.6991209728
 40
0.7182938477
 40
0.7370511428
 40
0.755360614
 40
0.7731911892
 40
0.7905130383
 40
0.8072976927
 40
0.8235182323
 40
0.8391493942
 40
0.8541677123
 40
0.8685517534
 40
0.8822823623
 40
0.8953428811
 40
0.9077195002
 40
0.9194017573
 40
0.9303830357
 40
0.9406612681
 40
0.9502399557
 40
0.9547704376
 40
0.9591305771
 40
0.9633230505
 40
0.96735119
 40
0.9712190452
 40
0.9749315897
 40
0.978494721
 40
0.9819154002
 40
0.9852018412
 40
0.9883635263
 40
0.9943541478
 40
0.9972130985
 40
1.0
 40
1.0
 40
1.0
 40
1.0
 10
13.6258263715
 20
8.304593687
 30
0.0
 10
13.6276974109
 20
8.3064009724
 30
0.0
 10
13.6314302397
 20
8.3103367395
 30
0.0
 10
13.6367994148
 20
8.3168769505
 30
0.0
 10
13.6421465288
 20
8.3242706393
 30
0.0
 10
13.6474617052
 20
8.3325037091
 30
0.0
 10
13.6527355374
 20
8.3415614586
 30
0.0
 10
13.6579581805
 20
8.351427058
 30
0.0
 10
13.6631197947
 20
8.3620821153
 30
0.0
 10
13.6682105167
 20
8.3735066027
 30
0.0
 10
13.673220614
 20
8.3856788951
 30
0.0
 10
13.6781404525
 20
8.3985758721
 30
0.0
 10
13.6829605341
 20
8.412172978
 30
0.0
 10
13.6876715674
 20
8.4264442528
 30
0.0
 10
13.6922644744
 20
8.4413624018
 30
0.0
 10
13.696730382
 20
8.4568988743
 30
0.0
 10
13.7010606578
 20
8.47302391
 30
0.0
 10
13.7052469631
 20
8.4897065874
 30
0.0
 10
13.7092812241
 20
8.5069149089
 30
0.0
 10
13.7131556336
 20
8.5246158559
 30
0.0
 10
13.7168627633
 20
8.5427754771
 30
0.0
 10
13.7216148841
 20
8.5677743327
 30
0.0
 10
13.7270722902
 20
8.5999123472
 30
0.0
 10
13.7327941084
 20
8.6393981251
 30
0.0
 10
13.737700841
 20
8.6798351294
 30
0.0
 10
13.7417546474
 20
8.7209129648
 30
0.0
 10
13.7449242025
 20
8.7623165326
 30
0.0
 10
13.7471851777
 20
8.8037280961
 30
0.0
 10
13.7485203082
 20
8.8448299448
 30
0.0
 10
13.7489194834
 20
8.8853065305
 30
0.0
 10
13.7484668183
 20
8.9185018604
 30
0.0
 10
13.7476237901
 20
8.9445060831
 30
0.0
 10
13.7467625965
 20
8.9635151701
 30
0.0
 10
13.745669537
 20
8.982139812
 30
0.0
 10
13.7443466983
 20
9.0003442742
 30
0.0
 10
13.7427966546
 20
9.0180936001
 30
0.0
 10
13.7410224335
 20
9.0353537302
 30
0.0
 10
13.7390274826
 20
9.0520915466
 30
0.0
 10
13.7368156598
 20
9.0682749438
 30
0.0
 10
13.7343912782
 20
9.0838729049
 30
0.0
 10
13.7317590573
 20
9.0988555579
 30
0.0
 10
13.7289240967
 20
9.1131942272
 30
0.0
 10
13.7258918975
 20
9.1268615112
 30
0.0
 10
13.722668362
 20
9.1398313504
 30
0.0
 10
13.7192597324
 20
9.1520790658
 30
0.0
 10
13.7156725648
 20
9.1635814384
 30
0.0
 10
13.7119137735
 20
9.1743167531
 30
0.0
 10
13.7079904976
 20
9.1842650069
 30
0.0
 10
13.7039101371
 20
9.1934074152
 30
0.0
 10
13.7003213498
 20
9.2004665667
 30
0.0
 10
13.6973683595
 20
9.2056836193
 30
0.0
 10
13.6951603655
 20
9.2093112203
 30
0.0
 10
13.692918987
 20
9.2127249352
 30
0.0
 10
13.6906452226
 20
9.2159231799
 30
0.0
 10
13.688340038
 20
9.2189044059
 30
0.0
 10
13.6860045091
 20
9.2216672352
 30
0.0
 10
13.6836396101
 20
9.2242103633
 30
0.0
 10
13.6812463992
 20
9.2265324486
 30
0.0
 10
13.6788255892
 20
9.2286325876
 30
0.0
 10
13.6756213098
 20
9.2310904063
 30
0.0
 10
13.6723022225
 20
9.2331637251
 30
0.0
 10
13.6688904197
 20
9.2347897272
 30
0.0
 10
13.6671771055
 20
9.2354460952
 30
0.0
 10
13.6663197499
 20
9.2357341506
 30
0.0
  0
SPLINE
  5
3BF
100
AcDbEntity
  8
0
100
AcDbSpline
 62
7
  6
CONTINUOUS
 70
0
 71
3
 72
15
 73
11
 74
0
 42
0.0000001
 43
0.0000001
 44
0.0000000001
 40
0.0
 40
0.0
 40
0.0
 40
0.0
 40
0.1456602017
 40
0.2845052335
 40
0.4168799616
 40
0.5432169044
 40
0.6640402895
 40
0.7799613694
 40
0.8916831182
 40
1.0
 40
1.0
 40
1.0
 40
1.0
 10
13.6258263715
 20
8.304593687
 30
0.0
 10
13.6248009732
 20
8.3036032282
 30
0.0
 10
13.6227510245
 20
8.3017165137
 30
0.0
 10
13.6196015499
 20
8.2991191901
 30
0.0
 10
13.6164548334
 20
8.2968260374
 30
0.0
 10
13.6133128454
 20
8.2948389378
 30
0.0
 10
13.6101773641
 20
8.2931593847
 30
0.0
 10
13.6070499847
 20
8.2917889263
 30
0.0
 10
13.6039330626
 20
8.290728983
 30
0.0
 10
13.6018356605
 20
8.2902237615
 30
0.0
 10
13.6007941018
 20
8.2900261187
 30
0.0
  0
SPLINE
  5
3C0
100
AcDbEntity
  8
0
100
AcDbSpline
 62
7
  6
CONTINUOUS
 70
0
 71
3
 72
23
 73
19
 74
0
 42
0.0000001
 43
0.0000001
 44
0.0000000001
 40
0.0
 40
0.0
 40
0.0
 40
0.0
 40
0.0755948859
 40
0.1466385672
 40
0.2134651221
 40
0.2765136164
 40
0.3363251986
 40
0.3935455608
 40
0.4489216461
 40
0.5032865974
 40
0.55752443
 40
0.6125256884
 40
0.669141898
 40
0.7281474526
 40
0.7902183824
 40
0.8559226801
 40
0.925726236
 40
1.0
 40
1.0
 40
1.0
 40
1.0
 10
13.6258263715
 20
8.4398233107
 30
0.0
 10
13.6248953297
 20
8.4389239933
 30
0.0
 10
13.6230344428
 20
8.4372347831
 30
0.0
 10
13.620154547
 20
8.4349780608
 30
0.0
 10
13.6172779923
 20
8.4330827411
 30
0.0
 10
13.6144074922
 20
8.4315516607
 30
0.0
 10
13.6115453991
 20
8.4303876581
 30
0.0
 10
13.6086946944
 20
8.4295934533
 30
0.0
 10
13.6058590714
 20
8.4291720049
 30
0.0
 10
13.6030432903
 20
8.4291251486
 30
0.0
 10
13.6002527572
 20
8.4294537539
 30
0.0
 10
13.5974928577
 20
8.4301566484
 30
0.0
 10
13.5947683246
 20
8.4312316503
 30
0.0
 10
13.5920827048
 20
8.432675451
 30
0.0
 10
13.5894388014
 20
8.4344849018
 30
0.0
 10
13.5868386462
 20
8.4366567215
 30
0.0
 10
13.5842844531
 20
8.4391878281
 30
0.0
 10
13.5826656169
 20
8.4410527108
 30
0.0
 10
13.5818631334
 20
8.4420394102
 30
0.0
  0
SPLINE
  5
3C1
100
AcDbEntity
  8
0
100
AcDbSpline
 62
7
  6
CONTINUOUS
 70
0
 71
3
 72
16
 73
12
 74
0
 42
0.0000001
 43
0.0000001
 44
0.0000000001
 40
0.0
 40
0.0
 40
0.0
 40
0.0
 40
0.1504807822
 40
0.2917477769
 40
0.4244946892
 40
0.4879694907
 40
0.5496756925
 40
0.668341624
 40
0.7818818185
 40
0.8918563437
 40
1.0
 40
1.0
 40
1.0
 40
1.0
 10
13.5920189656
 20
8.4759752682
 30
0.0
 10
13.5911708714
 20
8.4751560721
 30
0.0
 10
13.589475768
 20
8.4736189935
 30
0.0
 10
13.5868511044
 20
8.4715705776
 30
0.0
 10
13.5846340765
 20
8.4701218265
 30
0.0
 10
13.582866207
 20
8.4691407872
 30
0.0
 10
13.5811504131
 20
8.4682985269
 30
0.0
 10
13.579004896
 20
8.4674475272
 30
0.0
 10
13.5764073065
 20
8.4667563837
 30
0.0
 10
13.5738243764
 20
8.4664113092
 30
0.0
 10
13.5721091018
 20
8.4664132362
 30
0.0
 10
13.5712637457
 20
8.4664718598
 30
0.0
  0
SPLINE
  5
3C2
100
AcDbEntity
  8
0
100
AcDbSpline
 62
7
  6
CONTINUOUS
 70
0
 71
3
 72
80
 73
76
 74
0
 42
0.0000001
 43
0.0000001
 44
0.0000000001
 40
0.0
 40
0.0
 40
0.0
 40
0.0
 40
0.0042066576
 40
0.0086074907
 40
0.0132069315
 40
0.0180085676
 40
0.0230153322
 40
0.0282294768
 40
0.0392839255
 40
0.0511769162
 40
0.0639043312
 40
0.0774556077
 40
0.0918147871
 40
0.1069613222
 40
0.1228707048
 40
0.1395150128
 40
0.1568632911
 40
0.1748818166
 40
0.1935344206
 40
0.2127827534
 40
0.2325864708
 40
0.2529033943
 40
0.2736897441
 40
0.2949003104
 40
0.3164885865
 40
0.3606057737
 40
0.4056505112
 40
0.4512201975
 40
0.4969062437
 40
0.5422987299
 40
0.5869910725
 40
0.6305847622
 40
0.6518489577
 40
0.6726951435
 40
0.6930779161
 40
0.7129532757
 40
0.7322788388
 40
0.7510140115
 40
0.7691201444
 40
0.7865607477
 40
0.8033017883
 40
0.8193119164
 40
0.8345627539
 40
0.8490293074
 40
0.8626904963
 40
0.8755296931
 40
0.887535504
 40
0.8987028894
 40
0.9039732482
 40
0.9090357791
 40
0.9138924259
 40
0.9185458531
 40
0.9229995857
 40
0.9272582459
 40
0.9313275282
 40
0.9352144824
 40
0.9389277014
 40
0.9424774039
 40
0.9458757753
 40
0.9491370649
 40
0.9522776971
 40
0.9553164208
 40
0.9582741368
 40
0.9611737033
 40
0.9640395289
 40
0.9668969509
 40
0.9697715622
 40
0.9726884567
 40
0.9756715833
 40
0.9787431431
 40
0.9852252546
 40
0.9886742055
 40
0.9922790784
 40
0.9960512804
 40
1.0
 40
1.0
 40
1.0
 40
1.0
 10
13.6258263715
 20
8.4398233107
 30
0.0
 10
13.6265497845
 20
8.4405220741
 30
0.0
 10
13.6279956663
 20
8.4419877433
 30
0.0
 10
13.6301150291
 20
8.4443296449
 30
0.0
 10
13.6322317612
 20
8.4468622921
 30
0.0
 10
13.6343444292
 20
8.4495840613
 30
0.0
 10
13.6364519286
 20
8.4524933215
 30
0.0
 10
13.6393092006
 20
8.4567026096
 30
0.0
 10
13.6428498378
 20
8.4624338119
 30
0.0
 10
13.646979277
 20
8.4699002605
 30
0.0
 10
13.6510588306
 20
8.4780669621
 30
0.0
 10
13.6550788109
 20
8.4869146785
 30
0.0
 10
13.6590296385
 20
8.4964227662
 30
0.0
 10
13.6629018484
 20
8.5065687757
 30
0.0
 10
13.6666861522
 20
8.5173286772
 30
0.0
 10
13.6703734431
 20
8.5286769161
 30
0.0
 10
13.6739548315
 20
8.5405864914
 30
0.0
 10
13.6774217063
 20
8.5530290099
 30
0.0
 10
13.6807657286
 20
8.5659747757
 30
0.0
 10
13.683978846
 20
8.5793928785
 30
0.0
 10
13.6870533168
 20
8.5932512604
 30
0.0
 10
13.6899817628
 20
8.6075167893
 30
0.0
 10
13.6927571377
 20
8.6221553434
 30
0.0
 10
13.6953727945
 20
8.6371319386
 30
0.0
 10
13.6986625447
 20
8.6576514527
 30
0.0
 10
13.7023224429
 20
8.6838802622
 30
0.0
 10
13.7059585425
 20
8.7158910398
 30
0.0
 10
13.7088347757
 20
8.7483556394
 30
0.0
 10
13.7109235192
 20
8.7809636409
 30
0.0
 10
13.7122049075
 20
8.8134035224
 30
0.0
 10
13.7126667726
 20
8.8453650977
 30
0.0
 10
13.7123632012
 20
8.8715594898
 30
0.0
 10
13.7116970252
 20
8.8920404699
 30
0.0
 10
13.7109963699
 20
8.9069662535
 30
0.0
 10
13.7100923794
 20
8.9215484325
 30
0.0
 10
13.7089872081
 20
8.9357521552
 30
0.0
 10
13.7076835534
 20
8.9495434534
 30
0.0
 10
13.7061845889
 20
8.962889371
 30
0.0
 10
13.7044939525
 20
8.9757580228
 30
0.0
 10
13.7026157334
 20
8.9881186836
 30
0.0
 10
13.700554504
 20
8.9999418773
 30
0.0
 10
13.698315274
 20
9.0111994499
 30
0.0
 10
13.6959034687
 20
9.0218646312
 30
0.0
 10
13.693324917
 20
9.0319121363
 30
0.0
 10
13.6905858672
 20
9.0413182213
 30
0.0
 10
13.6876928964
 20
9.0500608769
 30
0.0
 10
13.6846528995
 20
9.0581194721
 30
0.0
 10
13.6819532722
 20
9.0643649707
 30
0.0
 10
13.6797167486
 20
9.0689942162
 30
0.0
 10
13.6780395209
 20
9.0722161039
 30
0.0
 10
13.6763310541
 20
9.0752534411
 30
0.0
 10
13.6745922914
 20
9.078104458
 30
0.0
 10
13.6728241808
 20
9.080767462
 30
0.0
 10
13.671027769
 20
9.0832409385
 30
0.0
 10
13.6692039931
 20
9.0855234179
 30
0.0
 10
13.6673538147
 20
9.0876135419
 30
0.0
 10
13.6654782449
 20
9.0895101015
 30
0.0
 10
13.6635781667
 20
9.0912118596
 30
0.0
 10
13.66165456
 20
9.0927177229
 30
0.0
 10
13.6597084022
 20
9.0940266473
 30
0.0
 10
13.6577406447
 20
9.0951375016
 30
0.0
 10
13.6557524342
 20
9.0960493535
 30
0.0
 10
13.6537449747
 20
9.0967612268
 30
0.0
 10
13.6517196512
 20
9.0972722168
 30
0.0
 10
13.6496780601
 20
9.0975817837
 30
0.0
 10
13.6476218854
 20
9.0976894597
 30
0.0
 10
13.6455528873
 20
9.0975951828
 30
0.0
 10
13.6434727961
 20
9.0972992881
 30
0.0
 10
13.6413831086
 20
9.0968021035
 30
0.0
 10
13.6385358111
 20
9.0958552987
 30
0.0
 10
13.6357183328
 20
9.0945074884
 30
0.0
 10
13.6329567757
 20
9.0928174246
 30
0.0
 10
13.6308386577
 20
9.0913263732
 30
0.0
 10
13.6287186496
 20
9.0896395463
 30
0.0
 10
13.6273369441
 20
9.0884139038
 30
0.0
 10
13.6266458179
 20
9.087770717
 30
0.0
  0
SPLINE
  5
3C3
100
AcDbEntity
  8
0
100
AcDbSpline
 62
7
  6
CONTINUOUS
 70
0
 71
3
 72
62
 73
58
 74
0
 42
0.0000001
 43
0.0000001
 44
0.0000000001
 40
0.0
 40
0.0
 40
0.0
 40
0.0
 40
0.008143839
 40
0.0169768244
 40
0.0265208545
 40
0.0367896139
 40
0.047788295
 40
0.0595157887
 40
0.0719659619
 40
0.085128237
 40
0.0989884391
 40
0.1135292306
 40
0.1287304142
 40
0.1445694054
 40
0.1610213937
 40
0.1780595198
 40
0.1956551924
 40
0.2137781463
 40
0.232396585
 40
0.251477413
 40
0.2908867022
 40
0.3317193159
 40
0.373673074
 40
0.4164347434
 40
0.4596832312
 40
0.5030927511
 40
0.5463359841
 40
0.5890871939
 40
0.6310253936
 40
0.6718374959
 40
0.7112215222
 40
0.7302880284
 40
0.7488910527
 40
0.7669975458
 40
0.7845757753
 40
0.8015955001
 40
0.8180281944
 40
0.8338470776
 40
0.8490273754
 40
0.8635465947
 40
0.8773846374
 40
0.8905242252
 40
0.9029513207
 40
0.9146554843
 40
0.9256306641
 40
0.9358760454
 40
0.9453970689
 40
0.9542071354
 40
0.9623296369
 40
0.9698006119
 40
0.9766724023
 40
0.9830176447
 40
0.9889330962
 40
0.9917694715
 40
0.9945466125
 40
0.9972834953
 40
1.0
 40
1.0
 40
1.0
 40
1.0
 10
13.5920189656
 20
8.4759752682
 30
0.0
 10
13.5932291835
 20
8.477144249
 30
0.0
 10
13.5956433439
 20
8.4796950013
 30
0.0
 10
13.5991123401
 20
8.4839413957
 30
0.0
 10
13.6025664212
 20
8.4887515897
 30
0.0
 10
13.6059988891
 20
8.494115975
 30
0.0
 10
13.6094034563
 20
8.5000245192
 30
0.0
 10
13.6127734207
 20
8.5064657743
 30
0.0
 10
13.6161021165
 20
8.5134271627
 30
0.0
 10
13.6193829331
 20
8.5208949641
 30
0.0
 10
13.6226092636
 20
8.5288543981
 30
0.0
 10
13.6257745942
 20
8.53728964
 30
0.0
 10
13.62887257
 20
8.5461838554
 30
0.0
 10
13.6318969126
 20
8.5555192731
 30
0.0
 10
13.634841502
 20
8.5652772071
 30
0.0
 10
13.6377004145
 20
8.5754380934
 30
0.0
 10
13.6404678529
 20
8.5859815566
 30
0.0
 10
13.6431382148
 20
8.5968864311
 30
0.0
 10
13.6457061608
 20
8.6081308296
 30
0.0
 10
13.6490221662
 20
8.6237138184
 30
0.0
 10
13.6528625997
 20
8.643875199
 30
0.0
 10
13.6569388807
 20
8.6687934373
 30
0.0
 10
13.6604978757
 20
8.6944901569
 30
0.0
 10
13.6635107595
 20
8.7207589225
 30
0.0
 10
13.6659531315
 20
8.7473888461
 30
0.0
 10
13.6678053074
 20
8.7741660232
 30
0.0
 10
13.669052406
 20
8.8008753692
 30
0.0
 10
13.6696844799
 20
8.8273023334
 30
0.0
 10
13.6696966742
 20
8.8532347291
 30
0.0
 10
13.6690891177
 20
8.8784641955
 30
0.0
 10
13.6680601594
 20
8.8989498529
 30
0.0
 10
13.6669203342
 20
8.9148295353
 30
0.0
 10
13.6659243086
 20
8.9263107686
 30
0.0
 10
13.6647800482
 20
8.9374691342
 30
0.0
 10
13.6634898419
 20
8.9482822395
 30
0.0
 10
13.6620563081
 20
8.9587283701
 30
0.0
 10
13.6604823924
 20
8.9687865711
 30
0.0
 10
13.658771282
 20
8.9784366755
 30
0.0
 10
13.6569264472
 20
8.9876593563
 30
0.0
 10
13.6549516719
 20
8.9964361764
 30
0.0
 10
13.6528509453
 20
9.0047496176
 30
0.0
 10
13.6506285201
 20
9.0125831358
 30
0.0
 10
13.6482889196
 20
9.0199212159
 30
0.0
 10
13.6458368085
 20
9.0267493911
 30
0.0
 10
13.6432770536
 20
9.0330543143
 30
0.0
 10
13.6406146764
 20
9.0388238153
 30
0.0
 10
13.6378546566
 20
9.0440468951
 30
0.0
 10
13.6350019461
 20
9.0487137869
 30
0.0
 10
13.6320612236
 20
9.0528159284
 30
0.0
 10
13.6290366811
 20
9.056345669
 30
0.0
 10
13.6259315414
 20
9.0592960173
 30
0.0
 10
13.6227494929
 20
9.0616595028
 30
0.0
 10
13.6199962754
 20
9.0631536251
 30
0.0
 10
13.6177776204
 20
9.0640270964
 30
0.0
 10
13.616122708
 20
9.0645225258
 30
0.0
 10
13.614455258
 20
9.0648667291
 30
0.0
 10
13.6133340983
 20
9.0649953779
 30
0.0
 10
13.6127741854
 20
9.0650342067
 30
0.0
  0
SPLINE
  5
3C4
100
AcDbEntity
  8
0
100
AcDbSpline
 62
7
  6
CONTINUOUS
 70
0
 71
3
 72
17
 73
13
 74
0
 42
0.0000001
 43
0.0000001
 44
0.0000000001
 40
0.0
 40
0.0
 40
0.0
 40
0.0
 40
0.126656299
 40
0.252799928
 40
0.378440867
 40
0.4410855281
 40
0.5036117417
 40
0.6283085394
 40
0.7525770114
 40
0.814569483
 40
0.8764694961
 40
1.0
 40
1.0
 40
1.0
 40
1.0
 10
10.5364664377
 20
7.1444462317
 30
0.0
 10
10.5364664377
 20
7.1356342805
 30
0.0
 10
10.5359507494
 20
7.1180414696
 30
0.0
 10
10.5336218381
 20
7.0918006805
 30
0.0
 10
10.5303892042
 20
7.070150225
 30
0.0
 10
10.52703519
 20
7.0530233711
 30
0.0
 10
10.5231802983
 20
7.0360695597
 30
0.0
 10
10.5174168904
 20
7.0151636367
 30
0.0
 10
10.5104002837
 20
6.9946834025
 30
0.0
 10
10.5040561223
 20
6.9786230396
 30
0.0
 10
10.4972407312
 20
6.9628134477
 30
0.0
 10
10.4915853175
 20
6.9512058884
 30
0.0
 10
10.4875824154
 20
6.943600507
 30
0.0
  0
SPLINE
  5
3C5
100
AcDbEntity
  8
0
100
AcDbSpline
 62
7
  6
CONTINUOUS
 70
0
 71
3
 72
68
 73
64
 74
0
 42
0.0000001
 43
0.0000001
 44
0.0000000001
 40
0.0
 40
0.0
 40
0.0
 40
0.0
 40
0.0080156011
 40
0.0166939399
 40
0.0260562568
 40
0.0361157971
 40
0.0468779428
 40
0.058342219
 40
0.0705033746
 40
0.0833520738
 40
0.0968754844
 40
0.1110578036
 40
0.125880631
 40
0.141323207
 40
0.157362673
 40
0.1739743175
 40
0.1911317206
 40
0.2088068702
 40
0.2269703537
 40
0.2455914799
 40
0.2646383497
 40
0.2840779876
 40
0.323998195
 40
0.3650715559
 40
0.4070057193
 40
0.4495002857
 40
0.4922497123
 40
0.5349461155
 40
0.5772820954
 40
0.6189535588
 40
0.6596625615
 40
0.6795658076
 40
0.6991209728
 40
0.7182938477
 40
0.7370511428
 40
0.755360614
 40
0.7731911892
 40
0.7905130383
 40
0.8072976927
 40
0.8235182323
 40
0.8391493942
 40
0.8541677123
 40
0.8685517534
 40
0.8822823623
 40
0.8953428811
 40
0.9077195002
 40
0.9194017573
 40
0.9303830357
 40
0.9406612681
 40
0.9502399557
 40
0.9547704376
 40
0.9591305771
 40
0.9633230505
 40
0.96735119
 40
0.9712190452
 40
0.9749315897
 40
0.978494721
 40
0.9819154002
 40
0.9852018412
 40
0.9883635263
 40
0.9943541478
 40
0.9972130985
 40
1.0
 40
1.0
 40
1.0
 40
1.0
 10
13.1728934164
 20
7.8670940221
 30
0.0
 10
13.1747644558
 20
7.8689013076
 30
0.0
 10
13.1784972846
 20
7.8728370746
 30
0.0
 10
13.1838664597
 20
7.8793772856
 30
0.0
 10
13.1892135736
 20
7.8867709744
 30
0.0
 10
13.19452875
 20
7.8950040443
 30
0.0
 10
13.1998025823
 20
7.9040617937
 30
0.0
 10
13.2050252253
 20
7.9139273931
 30
0.0
 10
13.2101868396
 20
7.9245824504
 30
0.0
 10
13.2152775616
 20
7.9360069378
 30
0.0
 10
13.2202876589
 20
7.9481792302
 30
0.0
 10
13.2252074974
 20
7.9610762072
 30
0.0
 10
13.230027579
 20
7.9746733131
 30
0.0
 10
13.2347386123
 20
7.9889445879
 30
0.0
 10
13.2393315193
 20
8.003862737
 30
0.0
 10
13.2437974268
 20
8.0193992095
 30
0.0
 10
13.2481277027
 20
8.0355242451
 30
0.0
 10
13.252314008
 20
8.0522069225
 30
0.0
 10
13.256348269
 20
8.0694152441
 30
0.0
 10
13.2602226784
 20
8.087116191
 30
0.0
 10
13.2639298082
 20
8.1052758123
 30
0.0
 10
13.268681929
 20
8.1302746678
 30
0.0
 10
13.2741393351
 20
8.1624126823
 30
0.0
 10
13.2798611533
 20
8.2018984602
 30
0.0
 10
13.2847678859
 20
8.2423354645
 30
0.0
 10
13.2888216922
 20
8.2834132999
 30
0.0
 10
13.2919912474
 20
8.3248168677
 30
0.0
 10
13.2942522226
 20
8.3662284312
 30
0.0
 10
13.295587353
 20
8.4073302799
 30
0.0
 10
13.2959865283
 20
8.4478068656
 30
0.0
 10
13.2955338631
 20
8.4810021955
 30
0.0
 10
13.294690835
 20
8.5070064182
 30
0.0
 10
13.2938296414
 20
8.5260155053
 30
0.0
 10
13.2927365819
 20
8.5446401471
 30
0.0
 10
13.2914137431
 20
8.5628446093
 30
0.0
 10
13.2898636994
 20
8.5805939352
 30
0.0
 10
13.2880894784
 20
8.5978540654
 30
0.0
 10
13.2860945274
 20
8.6145918817
 30
0.0
 10
13.2838827047
 20
8.6307752789
 30
0.0
 10
13.2814583231
 20
8.64637324
 30
0.0
 10
13.2788261022
 20
8.661355893
 30
0.0
 10
13.2759911416
 20
8.6756945624
 30
0.0
 10
13.2729589424
 20
8.6893618464
 30
0.0
 10
13.2697354069
 20
8.7023316855
 30
0.0
 10
13.2663267773
 20
8.714579401
 30
0.0
 10
13.2627396097
 20
8.7260817735
 30
0.0
 10
13.2589808184
 20
8.7368170883
 30
0.0
 10
13.2550575425
 20
8.746765342
 30
0.0
 10
13.250977182
 20
8.7559077503
 30
0.0
 10
13.2473883947
 20
8.7629669019
 30
0.0
 10
13.2444354044
 20
8.7681839545
 30
0.0
 10
13.2422274104
 20
8.7718115554
 30
0.0
 10
13.2399860319
 20
8.7752252703
 30
0.0
 10
13.2377122675
 20
8.7784235151
 30
0.0
 10
13.2354070829
 20
8.7814047411
 30
0.0
 10
13.233071554
 20
8.7841675703
 30
0.0
 10
13.230706655
 20
8.7867106985
 30
0.0
 10
13.2283134441
 20
8.7890327837
 30
0.0
 10
13.2258926341
 20
8.7911329227
 30
0.0
 10
13.2226883547
 20
8.7935907414
 30
0.0
 10
13.2193692674
 20
8.7956640602
 30
0.0
 10
13.2159574645
 20
8.7972900624
 30
0.0
 10
13.2142441504
 20
8.7979464303
 30
0.0
 10
13.2133867948
 20
8.7982344858
 30
0.0
  0
SPLINE
  5
3C6
100
AcDbEntity
  8
0
100
AcDbSpline
 62
7
  6
CONTINUOUS
 70
0
 71
3
 72
15
 73
11
 74
0
 42
0.0000001
 43
0.0000001
 44
0.0000000001
 40
0.0
 40
0.0
 40
0.0
 40
0.0
 40
0.1456602017
 40
0.2845052335
 40
0.4168799616
 40
0.5432169044
 40
0.6640402895
 40
0.7799613694
 40
0.8916831182
 40
1.0
 40
1.0
 40
1.0
 40
1.0
 10
13.1728934164
 20
7.8670940221
 30
0.0
 10
13.171868018
 20
7.8661035633
 30
0.0
 10
13.1698180693
 20
7.8642168489
 30
0.0
 10
13.1666685947
 20
7.8616195253
 30
0.0
 10
13.1635218783
 20
7.8593263725
 30
0.0
 10
13.1603798903
 20
7.857339273
 30
0.0
 10
13.157244409
 20
7.8556597198
 30
0.0
 10
13.1541170296
 20
7.8542892615
 30
0.0
 10
13.1510001074
 20
7.8532293181
 30
0.0
 10
13.1489027054
 20
7.8527240966
 30
0.0
 10
13.1478611467
 20
7.8525264539
 30
0.0
  0
SPLINE
  5
3C7
100
AcDbEntity
  8
0
100
AcDbSpline
 62
7
  6
CONTINUOUS
 70
0
 71
3
 72
23
 73
19
 74
0
 42
0.0000001
 43
0.0000001
 44
0.0000000001
 40
0.0
 40
0.0
 40
0.0
 40
0.0
 40
0.0755948859
 40
0.1466385672
 40
0.2134651221
 40
0.2765136164
 40
0.3363251986
 40
0.3935455608
 40
0.4489216461
 40
0.5032865974
 40
0.55752443
 40
0.6125256884
 40
0.669141898
 40
0.7281474526
 40
0.7902183824
 40
0.8559226801
 40
0.925726236
 40
1.0
 40
1.0
 40
1.0
 40
1.0
 10
13.1728934164
 20
8.0023236458
 30
0.0
 10
13.1719623745
 20
8.0014243284
 30
0.0
 10
13.1701014877
 20
7.9997351182
 30
0.0
 10
13.1672215919
 20
7.9974783959
 30
0.0
 10
13.1643450372
 20
7.9955830763
 30
0.0
 10
13.1614745371
 20
7.9940519958
 30
0.0
 10
13.1586124439
 20
7.9928879932
 30
0.0
 10
13.1557617393
 20
7.9920937884
 30
0.0
 10
13.1529261163
 20
7.9916723401
 30
0.0
 10
13.1501103352
 20
7.9916254838
 30
0.0
 10
13.1473198021
 20
7.991954089
 30
0.0
 10
13.1445599026
 20
7.9926569835
 30
0.0
 10
13.1418353695
 20
7.9937319854
 30
0.0
 10
13.1391497497
 20
7.9951757861
 30
0.0
 10
13.1365058462
 20
7.9969852369
 30
0.0
 10
13.1339056911
 20
7.9991570566
 30
0.0
 10
13.131351498
 20
8.0016881632
 30
0.0
 10
13.1297326618
 20
8.0035530459
 30
0.0
 10
13.1289301782
 20
8.0045397453
 30
0.0
  0
SPLINE
  5
3C8
100
AcDbEntity
  8
0
100
AcDbSpline
 62
7
  6
CONTINUOUS
 70
0
 71
3
 72
16
 73
12
 74
0
 42
0.0000001
 43
0.0000001
 44
0.0000000001
 40
0.0
 40
0.0
 40
0.0
 40
0.0
 40
0.1504807822
 40
0.2917477769
 40
0.4244946892
 40
0.4879694907
 40
0.5496756925
 40
0.668341624
 40
0.7818818185
 40
0.8918563437
 40
1.0
 40
1.0
 40
1.0
 40
1.0
 10
13.1390860104
 20
8.0384756033
 30
0.0
 10
13.1382379163
 20
8.0376564072
 30
0.0
 10
13.1365428129
 20
8.0361193286
 30
0.0
 10
13.1339181493
 20
8.0340709127
 30
0.0
 10
13.1317011213
 20
8.0326221616
 30
0.0
 10
13.1299332519
 20
8.0316411223
 30
0.0
 10
13.128217458
 20
8.030798862
 30
0.0
 10
13.1260719409
 20
8.0299478623
 30
0.0
 10
13.1234743514
 20
8.0292567189
 30
0.0
 10
13.1208914213
 20
8.0289116444
 30
0.0
 10
13.1191761466
 20
8.0289135713
 30
0.0
 10
13.1183307906
 20
8.028972195
 30
0.0
  0
SPLINE
  5
3C9
100
AcDbEntity
  8
0
100
AcDbSpline
 62
7
  6
CONTINUOUS
 70
0
 71
3
 72
80
 73
76
 74
0
 42
0.0000001
 43
0.0000001
 44
0.0000000001
 40
0.0
 40
0.0
 40
0.0
 40
0.0
 40
0.0042066576
 40
0.0086074907
 40
0.0132069315
 40
0.0180085676
 40
0.0230153322
 40
0.0282294768
 40
0.0392839255
 40
0.0511769162
 40
0.0639043312
 40
0.0774556077
 40
0.0918147871
 40
0.1069613222
 40
0.1228707048
 40
0.1395150128
 40
0.1568632911
 40
0.1748818166
 40
0.1935344206
 40
0.2127827534
 40
0.2325864708
 40
0.2529033943
 40
0.2736897441
 40
0.2949003104
 40
0.3164885865
 40
0.3606057737
 40
0.4056505112
 40
0.4512201975
 40
0.4969062437
 40
0.5422987299
 40
0.5869910725
 40
0.6305847622
 40
0.6518489577
 40
0.6726951435
 40
0.6930779161
 40
0.7129532757
 40
0.7322788388
 40
0.7510140115
 40
0.7691201444
 40
0.7865607477
 40
0.8033017883
 40
0.8193119164
 40
0.8345627539
 40
0.8490293074
 40
0.8626904963
 40
0.8755296931
 40
0.887535504
 40
0.8987028894
 40
0.9039732482
 40
0.9090357791
 40
0.9138924259
 40
0.9185458531
 40
0.9229995857
 40
0.9272582459
 40
0.9313275282
 40
0.9352144824
 40
0.9389277014
 40
0.9424774039
 40
0.9458757753
 40
0.9491370649
 40
0.9522776971
 40
0.9553164208
 40
0.9582741368
 40
0.9611737033
 40
0.9640395289
 40
0.9668969509
 40
0.9697715622
 40
0.9726884567
 40
0.9756715833
 40
0.9787431431
 40
0.9852252546
 40
0.9886742055
 40
0.9922790784
 40
0.9960512804
 40
1.0
 40
1.0
 40
1.0
 40
1.0
 10
13.1728934164
 20
8.0023236458
 30
0.0
 10
13.1736168294
 20
8.0030224092
 30
0.0
 10
13.1750627111
 20
8.0044880785
 30
0.0
 10
13.177182074
 20
8.00682998
 30
0.0
 10
13.1792988061
 20
8.0093626272
 30
0.0
 10
13.1814114741
 20
8.0120843964
 30
0.0
 10
13.1835189735
 20
8.0149936566
 30
0.0
 10
13.1863762454
 20
8.0192029448
 30
0.0
 10
13.1899168827
 20
8.024934147
 30
0.0
 10
13.1940463219
 20
8.0324005957
 30
0.0
 10
13.1981258755
 20
8.0405672973
 30
0.0
 10
13.2021458558
 20
8.0494150136
 30
0.0
 10
13.2060966834
 20
8.0589231013
 30
0.0
 10
13.2099688933
 20
8.0690691109
 30
0.0
 10
13.2137531971
 20
8.0798290123
 30
0.0
 10
13.217440488
 20
8.0911772512
 30
0.0
 10
13.2210218763
 20
8.1030868265
 30
0.0
 10
13.2244887512
 20
8.115529345
 30
0.0
 10
13.2278327734
 20
8.1284751108
 30
0.0
 10
13.2310458909
 20
8.1418932137
 30
0.0
 10
13.2341203617
 20
8.1557515956
 30
0.0
 10
13.2370488077
 20
8.1700171244
 30
0.0
 10
13.2398241826
 20
8.1846556785
 30
0.0
 10
13.2424398393
 20
8.1996322737
 30
0.0
 10
13.2457295895
 20
8.2201517878
 30
0.0
 10
13.2493894878
 20
8.2463805973
 30
0.0
 10
13.2530255874
 20
8.2783913749
 30
0.0
 10
13.2559018206
 20
8.3108559745
 30
0.0
 10
13.2579905641
 20
8.3434639761
 30
0.0
 10
13.2592719524
 20
8.3759038575
 30
0.0
 10
13.2597338175
 20
8.4078654328
 30
0.0
 10
13.2594302461
 20
8.4340598249
 30
0.0
 10
13.25876407
 20
8.454540805
 30
0.0
 10
13.2580634148
 20
8.4694665887
 30
0.0
 10
13.2571594243
 20
8.4840487676
 30
0.0
 10
13.2560542529
 20
8.4982524903
 30
0.0
 10
13.2547505983
 20
8.5120437885
 30
0.0
 10
13.2532516338
 20
8.5253897061
 30
0.0
 10
13.2515609974
 20
8.538258358
 30
0.0
 10
13.2496827782
 20
8.5506190187
 30
0.0
 10
13.2476215489
 20
8.5624422124
 30
0.0
 10
13.2453823189
 20
8.573699785
 30
0.0
 10
13.2429705136
 20
8.5843649663
 30
0.0
 10
13.2403919619
 20
8.5944124714
 30
0.0
 10
13.237652912
 20
8.6038185565
 30
0.0
 10
13.2347599413
 20
8.6125612121
 30
0.0
 10
13.2317199443
 20
8.6206198073
 30
0.0
 10
13.2290203171
 20
8.6268653059
 30
0.0
 10
13.2267837935
 20
8.6314945513
 30
0.0
 10
13.2251065658
 20
8.634716439
 30
0.0
 10
13.223398099
 20
8.6377537762
 30
0.0
 10
13.2216593363
 20
8.6406047931
 30
0.0
 10
13.2198912257
 20
8.6432677972
 30
0.0
 10
13.2180948138
 20
8.6457412736
 30
0.0
 10
13.216271038
 20
8.648023753
 30
0.0
 10
13.2144208596
 20
8.650113877
 30
0.0
 10
13.2125452897
 20
8.6520104367
 30
0.0
 10
13.2106452115
 20
8.6537121947
 30
0.0
 10
13.2087216049
 20
8.655218058
 30
0.0
 10
13.2067754471
 20
8.6565269824
 30
0.0
 10
13.2048076896
 20
8.6576378368
 30
0.0
 10
13.2028194791
 20
8.6585496886
 30
0.0
 10
13.2008120196
 20
8.659261562
 30
0.0
 10
13.198786696
 20
8.659772552
 30
0.0
 10
13.196745105
 20
8.6600821189
 30
0.0
 10
13.1946889303
 20
8.6601897949
 30
0.0
 10
13.1926199321
 20
8.660095518
 30
0.0
 10
13.190539841
 20
8.6597996232
 30
0.0
 10
13.1884501534
 20
8.6593024386
 30
0.0
 10
13.185602856
 20
8.6583556338
 30
0.0
 10
13.1827853777
 20
8.6570078236
 30
0.0
 10
13.1800238206
 20
8.6553177597
 30
0.0
 10
13.1779057026
 20
8.6538267083
 30
0.0
 10
13.1757856944
 20
8.6521398815
 30
0.0
 10
13.174403989
 20
8.6509142389
 30
0.0
 10
13.1737128628
 20
8.6502710522
 30
0.0
  0
SPLINE
  5
3CA
100
AcDbEntity
  8
0
100
AcDbSpline
 62
7
  6
CONTINUOUS
 70
0
 71
3
 72
62
 73
58
 74
0
 42
0.0000001
 43
0.0000001
 44
0.0000000001
 40
0.0
 40
0.0
 40
0.0
 40
0.0
 40
0.008143839
 40
0.0169768244
 40
0.0265208545
 40
0.0367896139
 40
0.047788295
 40
0.0595157887
 40
0.0719659619
 40
0.085128237
 40
0.0989884391
 40
0.1135292306
 40
0.1287304142
 40
0.1445694054
 40
0.1610213937
 40
0.1780595198
 40
0.1956551924
 40
0.2137781463
 40
0.232396585
 40
0.251477413
 40
0.2908867022
 40
0.3317193159
 40
0.373673074
 40
0.4164347434
 40
0.4596832312
 40
0.5030927511
 40
0.5463359841
 40
0.5890871939
 40
0.6310253936
 40
0.6718374959
 40
0.7112215222
 40
0.7302880284
 40
0.7488910527
 40
0.7669975458
 40
0.7845757753
 40
0.8015955001
 40
0.8180281944
 40
0.8338470776
 40
0.8490273754
 40
0.8635465947
 40
0.8773846374
 40
0.8905242252
 40
0.9029513207
 40
0.9146554843
 40
0.9256306641
 40
0.9358760454
 40
0.9453970689
 40
0.9542071354
 40
0.9623296369
 40
0.9698006119
 40
0.9766724023
 40
0.9830176447
 40
0.9889330962
 40
0.9917694715
 40
0.9945466125
 40
0.9972834953
 40
1.0
 40
1.0
 40
1.0
 40
1.0
 10
13.1390860104
 20
8.0384756033
 30
0.0
 10
13.1402962284
 20
8.0396445841
 30
0.0
 10
13.1427103888
 20
8.0421953365
 30
0.0
 10
13.146179385
 20
8.0464417308
 30
0.0
 10
13.1496334661
 20
8.0512519248
 30
0.0
 10
13.153065934
 20
8.0566163101
 30
0.0
 10
13.1564705011
 20
8.0625248543
 30
0.0
 10
13.1598404656
 20
8.0689661094
 30
0.0
 10
13.1631691614
 20
8.0759274979
 30
0.0
 10
13.1664499779
 20
8.0833952992
 30
0.0
 10
13.1696763085
 20
8.0913547332
 30
0.0
 10
13.1728416391
 20
8.0997899752
 30
0.0
 10
13.1759396149
 20
8.1086841905
 30
0.0
 10
13.1789639575
 20
8.1180196082
 30
0.0
 10
13.1819085469
 20
8.1277775423
 30
0.0
 10
13.1847674594
 20
8.1379384286
 30
0.0
 10
13.1875348978
 20
8.1484818917
 30
0.0
 10
13.1902052597
 20
8.1593867663
 30
0.0
 10
13.1927732056
 20
8.1706311647
 30
0.0
 10
13.1960892111
 20
8.1862141535
 30
0.0
 10
13.1999296446
 20
8.2063755342
 30
0.0
 10
13.2040059255
 20
8.2312937724
 30
0.0
 10
13.2075649206
 20
8.2569904921
 30
0.0
 10
13.2105778043
 20
8.2832592577
 30
0.0
 10
13.2130201764
 20
8.3098891812
 30
0.0
 10
13.2148723522
 20
8.3366663583
 30
0.0
 10
13.2161194509
 20
8.3633757043
 30
0.0
 10
13.2167515247
 20
8.3898026685
 30
0.0
 10
13.2167637191
 20
8.4157350643
 30
0.0
 10
13.2161561625
 20
8.4409645306
 30
0.0
 10
13.2151272043
 20
8.461450188
 30
0.0
 10
13.2139873791
 20
8.4773298705
 30
0.0
 10
13.2129913535
 20
8.4888111037
 30
0.0
 10
13.2118470931
 20
8.4999694693
 30
0.0
 10
13.2105568868
 20
8.5107825747
 30
0.0
 10
13.209123353
 20
8.5212287052
 30
0.0
 10
13.2075494373
 20
8.5312869062
 30
0.0
 10
13.2058383269
 20
8.5409370107
 30
0.0
 10
13.203993492
 20
8.5501596914
 30
0.0
 10
13.2020187168
 20
8.5589365115
 30
0.0
 10
13.1999179901
 20
8.5672499528
 30
0.0
 10
13.1976955649
 20
8.575083471
 30
0.0
 10
13.1953559645
 20
8.582421551
 30
0.0
 10
13.1929038534
 20
8.5892497262
 30
0.0
 10
13.1903440985
 20
8.5955546494
 30
0.0
 10
13.1876817213
 20
8.6013241505
 30
0.0
 10
13.1849217014
 20
8.6065472302
 30
0.0
 10
13.1820689909
 20
8.611214122
 30
0.0
 10
13.1791282684
 20
8.6153162635
 30
0.0
 10
13.1761037259
 20
8.6188460042
 30
0.0
 10
13.1729985863
 20
8.6217963524
 30
0.0
 10
13.1698165378
 20
8.6241598379
 30
0.0
 10
13.1670633203
 20
8.6256539602
 30
0.0
 10
13.1648446653
 20
8.6265274315
 30
0.0
 10
13.1631897528
 20
8.627022861
 30
0.0
 10
13.1615223029
 20
8.6273670642
 30
0.0
 10
13.1604011432
 20
8.6274957131
 30
0.0
 10
13.1598412303
 20
8.6275345418
 30
0.0
  0
SPLINE
  5
3CB
100
AcDbEntity
  8
0
100
AcDbSpline
 62
7
  6
CONTINUOUS
 70
0
 71
3
 72
60
 73
56
 74
0
 42
0.0000001
 43
0.0000001
 44
0.0000000001
 40
0.0
 40
0.0
 40
0.0
 40
0.0
 40
0.0081223406
 40
0.0169168431
 40
0.0264086323
 40
0.0366142687
 40
0.0475414355
 40
0.0591910158
 40
0.0715584107
 40
0.0846344949
 40
0.0984062802
 40
0.1128573064
 40
0.1279683357
 40
0.1437174554
 40
0.1600804353
 40
0.1770310661
 40
0.1945411268
 40
0.2125807894
 40
0.2501207279
 40
0.2893847263
 40
0.3300867172
 40
0.371925751
 40
0.4145894152
 40
0.4577571198
 40
0.5011033266
 40
0.5443007676
 40
0.587023623
 40
0.6289507091
 40
0.6697687274
 40
0.7091755587
 40
0.746883655
 40
0.7650162944
 40
0.7826249702
 40
0.7996794705
 40
0.816151351
 40
0.8320139955
 40
0.8472427493
 40
0.8618153589
 40
0.8757119742
 40
0.8889156572
 40
0.9014127819
 40
0.9131933641
 40
0.9242520195
 40
0.9345885809
 40
0.9442093339
 40
0.9531286836
 40
0.9613709339
 40
0.9689732146
 40
0.9759886454
 40
0.9824900322
 40
0.9885734237
 40
0.9914974427
 40
0.9943641479
 40
0.9971919194
 40
1.0
 40
1.0
 40
1.0
 40
1.0
 10
12.2427560965
 20
9.2999287381
 30
0.0
 10
12.2436088725
 20
9.3007524565
 30
0.0
 10
12.2454654379
 20
9.3023858291
 30
0.0
 10
12.2485471747
 20
9.304706536
 30
0.0
 10
12.252027432
 20
9.306988422
 30
0.0
 10
12.2558991594
 20
9.3092270868
 30
0.0
 10
12.2601550837
 20
9.311418509
 30
0.0
 10
12.2647869455
 20
9.3135583175
 30
0.0
 10
12.2697856271
 20
9.3156423253
 30
0.0
 10
12.2751412393
 20
9.3176663522
 30
0.0
 10
12.2808431288
 20
9.3196262778
 30
0.0
 10
12.286879882
 20
9.3215181754
 30
0.0
 10
12.293239397
 20
9.3233381614
 30
0.0
 10
12.2999088861
 20
9.3250825436
 30
0.0
 10
12.3068749179
 20
9.3267477895
 30
0.0
 10
12.3141234491
 20
9.3283304607
 30
0.0
 10
12.3216398617
 20
9.3298274009
 30
0.0
 10
12.3321383609
 20
9.3317300958
 30
0.0
 10
12.3458203747
 20
9.3338614727
 30
0.0
 10
12.3628411533
 20
9.3360017796
 30
0.0
 10
12.3805382879
 20
9.3377396825
 30
0.0
 10
12.3987688
 20
9.3390609035
 30
0.0
 10
12.417385521
 20
9.3399545382
 30
0.0
 10
12.4362380407
 20
9.3404132277
 30
0.0
 10
12.4551740258
 20
9.3404332046
 30
0.0
 10
12.4740404523
 20
9.3400143068
 30
0.0
 10
12.4926848726
 20
9.3391599811
 30
0.0
 10
12.5109566468
 20
9.3378772472
 30
0.0
 10
12.5287082638
 20
9.3361766928
 30
0.0
 10
12.5457963015
 20
9.3340722889
 30
0.0
 10
12.5595424696
 20
9.3319702109
 30
0.0
 10
12.5700983889
 20
9.3300901876
 30
0.0
 10
12.5776619064
 20
9.3286091961
 30
0.0
 10
12.58496026
 20
9.3270418725
 30
0.0
 10
12.5919787353
 20
9.3253914012
 30
0.0
 10
12.5987031772
 20
9.3236611604
 30
0.0
 10
12.6051200371
 20
9.3218546372
 30
0.0
 10
12.6112164166
 20
9.3199755533
 30
0.0
 10
12.6169800769
 20
9.3180276989
 30
0.0
 10
12.6223994841
 20
9.3160150259
 30
0.0
 10
12.627463847
 20
9.3139416352
 30
0.0
 10
12.6321631142
 20
9.3118116378
 30
0.0
 10
12.6364880591
 20
9.30962931
 30
0.0
 10
12.6404302638
 20
9.3073988982
 30
0.0
 10
12.6439821387
 20
9.3051245974
 30
0.0
 10
12.647136987
 20
9.3028105781
 30
0.0
 10
12.6498888423
 20
9.3004606364
 30
0.0
 10
12.6522324245
 20
9.2980783556
 30
0.0
 10
12.6541628353
 20
9.2956666165
 30
0.0
 10
12.6556747651
 20
9.2932286619
 30
0.0
 10
12.6565932067
 20
9.2911493684
 30
0.0
 10
12.657100587
 20
9.2894902715
 30
0.0
 10
12.6573692523
 20
9.2882596782
 30
0.0
 10
12.6575305512
 20
9.2870276128
 30
0.0
 10
12.657566443
 20
9.286204488
 30
0.0
 10
12.6575664455
 20
9.2857945854
 30
0.0
  0
SPLINE
  5
3CC
100
AcDbEntity
  8
0
100
AcDbSpline
 62
7
  6
CONTINUOUS
 70
0
 71
3
 72
39
 73
35
 74
0
 42
0.0000001
 43
0.0000001
 44
0.0000000001
 40
0.0
 40
0.0
 40
0.0
 40
0.0
 40
0.0311159584
 40
0.0620233352
 40
0.0927351385
 40
0.1232711775
 40
0.1536587332
 40
0.1839312107
 40
0.2141268395
 40
0.244287099
 40
0.2744549757
 40
0.3046731314
 40
0.3349820893
 40
0.3654185446
 40
0.396013864
 40
0.426792882
 40
0.4577729977
 40
0.4889636199
 40
0.5203659696
 40
0.5519731789
 40
0.5837707176
 40
0.6157370646
 40
0.6478445906
 40
0.68006064
 40
0.7123487314
 40
0.7446698626
 40
0.7769838842
 40
0.8092508939
 40
0.8414326248
 40
0.8734937998
 40
0.9054034138
 40
0.9371358961
 40
0.9686718081
 40
1.0
 40
1.0
 40
1.0
 40
1.0
 10
8.9275115841
 20
7.2603148132
 30
0.0
 10
8.9275115841
 20
7.2519699668
 30
0.0
 10
8.9266968957
 20
7.2353241405
 30
0.0
 10
8.9230125209
 20
7.2106882021
 30
0.0
 10
8.9169046001
 20
7.1866958207
 30
0.0
 10
8.9084309497
 20
7.1635817402
 30
0.0
 10
8.8976727153
 20
7.1415686461
 30
0.0
 10
8.8847330834
 20
7.120869861
 30
0.0
 10
8.8697367638
 20
7.1016857775
 30
0.0
 10
8.8528286201
 20
7.0842021905
 30
0.0
 10
8.8341721398
 20
7.0685884421
 30
0.0
 10
8.8139480582
 20
7.0549954075
 30
0.0
 10
8.7923522177
 20
7.0435542733
 30
0.0
 10
8.7695937009
 20
7.0343751514
 30
0.0
 10
8.7458927218
 20
7.0275458739
 30
0.0
 10
8.721478283
 20
7.0231315913
 30
0.0
 10
8.6965860374
 20
7.0211738602
 30
0.0
 10
8.6714559077
 20
7.0216905016
 30
0.0
 10
8.6463298269
 20
7.0246756875
 30
0.0
 10
8.6214494078
 20
7.0300996796
 30
0.0
 10
8.5970536938
 20
7.0379095785
 30
0.0
 10
8.5733769319
 20
7.0480296998
 30
0.0
 10
8.5506462844
 20
7.0603621929
 30
0.0
 10
8.5290798695
 20
7.0747883264
 30
0.0
 10
8.5088845531
 20
7.0911692828
 30
0.0
 10
8.4902540566
 20
7.1093476371
 30
0.0
 10
8.4733672714
 20
7.1291489344
 30
0.0
 10
8.4583862888
 20
7.1503830814
 30
0.0
 10
8.4454551493
 20
7.1728463753
 30
0.0
 10
8.434698379
 20
7.1963233923
 30
0.0
 10
8.426219633
 20
7.2205885943
 30
0.0
 10
8.4201011138
 20
7.2454099132
 30
0.0
 10
8.4164021729
 20
7.2705458173
 30
0.0
 10
8.4155708658
 20
7.2874162582
 30
0.0
 10
8.4155708658
 20
7.2958180226
 30
0.0
  0
SPLINE
  5
3CD
100
AcDbEntity
  8
0
100
AcDbSpline
 62
7
  6
CONTINUOUS
 70
0
 71
3
 72
39
 73
35
 74
0
 42
0.0000001
 43
0.0000001
 44
0.0000000001
 40
0.0
 40
0.0
 40
0.0
 40
0.0
 40
0.030013002
 40
0.0600118704
 40
0.0900236097
 40
0.1200748779
 40
0.1501912747
 40
0.180396663
 40
0.2107125511
 40
0.2411575554
 40
0.2717469527
 40
0.3024923316
 40
0.3334013598
 40
0.3644776558
 40
0.3957207599
 40
0.4271262125
 40
0.4586857237
 40
0.4903874202
 40
0.5222161643
 40
0.5541539413
 40
0.5861802933
 40
0.6182727931
 40
0.6504075544
 40
0.6825597635
 40
0.7147042248
 40
0.746815912
 40
0.7788705175
 40
0.8108449893
 40
0.8427180527
 40
0.8744706955
 40
0.9060866213
 40
0.9375526998
 40
0.9688589506
 40
1.0
 40
1.0
 40
1.0
 40
1.0
 10
9.7261179627
 20
7.473428493
 30
0.0
 10
9.7331936379
 20
7.4822565947
 30
0.0
 10
9.7480844326
 20
7.4993279228
 30
0.0
 10
9.7724735719
 20
7.5229781032
 30
0.0
 10
9.7987626916
 20
7.5445230309
 30
0.0
 10
9.8267899245
 20
7.5638293947
 30
0.0
 10
9.8563853004
 20
7.5807805934
 30
0.0
 10
9.887368623
 20
7.5952737122
 30
0.0
 10
9.9195514918
 20
7.6072211307
 30
0.0
 10
9.9527382827
 20
7.6165506817
 30
0.0
 10
9.9867273891
 20
7.6232061889
 30
0.0
 10
10.0213124408
 20
7.6271478508
 30
0.0
 10
10.0562836068
 20
7.6283523113
 30
0.0
 10
10.0914288435
 20
7.6268127635
 30
0.0
 10
10.1265351756
 20
7.6225391003
 30
0.0
 10
10.1613899865
 20
7.61555774
 30
0.0
 10
10.19578227
 20
7.605911385
 30
0.0
 10
10.2295038915
 20
7.5936588206
 30
0.0
 10
10.2623508624
 20
7.5788746087
 30
0.0
 10
10.2941245139
 20
7.5616485039
 30
0.0
 10
10.3246326638
 20
7.5420849244
 30
0.0
 10
10.3536908364
 20
7.5203024404
 30
0.0
 10
10.3811233181
 20
7.4964329652
 30
0.0
 10
10.4067641669
 20
7.4706209342
 30
0.0
 10
10.4304582537
 20
7.4430225081
 30
0.0
 10
10.4520622307
 20
7.4138046555
 30
0.0
 10
10.4714452986
 20
7.3831440761
 30
0.0
 10
10.4884899909
 20
7.3512261628
 30
0.0
 10
10.5030930025
 20
7.3182439858
 30
0.0
 10
10.5151657113
 20
7.2843969825
 30
0.0
 10
10.5246346936
 20
7.2498900885
 30
0.0
 10
10.531442171
 20
7.2149314274
 30
0.0
 10
10.5355466697
 20
7.179735338
 30
0.0
 10
10.5364664377
 20
7.1561851948
 30
0.0
 10
10.5364664377
 20
7.1444462317
 30
0.0
  0
SPLINE
  5
3CE
100
AcDbEntity
  8
0
100
AcDbSpline
 62
7
  6
CONTINUOUS
 70
0
 71
3
 72
39
 73
35
 74
0
 42
0.0000001
 43
0.0000001
 44
0.0000000001
 40
0.0
 40
0.0
 40
0.0
 40
0.0
 40
0.0313281919
 40
0.0628641039
 40
0.0945965862
 40
0.1265062002
 40
0.1585673752
 40
0.1907491061
 40
0.2230161158
 40
0.2553301374
 40
0.2876512686
 40
0.31993936
 40
0.3521554094
 40
0.3842629354
 40
0.4162292824
 40
0.4480268211
 40
0.4796340304
 40
0.5110363801
 40
0.5422270023
 40
0.573207118
 40
0.603986136
 40
0.6345814554
 40
0.6650179107
 40
0.6953268686
 40
0.7255450243
 40
0.755712901
 40
0.7858731605
 40
0.8160687893
 40
0.8463412668
 40
0.8767288225
 40
0.9072648615
 40
0.9379766648
 40
0.9688840416
 40
1.0
 40
1.0
 40
1.0
 40
1.0
 10
8.9275115841
 20
7.2603148132
 30
0.0
 10
8.9275115841
 20
7.2687165776
 30
0.0
 10
8.926680277
 20
7.2855870185
 30
0.0
 10
8.9229813361
 20
7.3107229227
 30
0.0
 10
8.9168628169
 20
7.3355442416
 30
0.0
 10
8.9083840709
 20
7.3598094436
 30
0.0
 10
8.8976273006
 20
7.3832864606
 30
0.0
 10
8.8846961611
 20
7.4057497544
 30
0.0
 10
8.8697151785
 20
7.4269839015
 30
0.0
 10
8.8528283934
 20
7.4467851987
 30
0.0
 10
8.8341978969
 20
7.464963553
 30
0.0
 10
8.8140025804
 20
7.4813445095
 30
0.0
 10
8.7924361656
 20
7.495770643
 30
0.0
 10
8.769705518
 20
7.5081031361
 30
0.0
 10
8.7460287561
 20
7.5182232574
 30
0.0
 10
8.7216330422
 20
7.5260331562
 30
0.0
 10
8.696752623
 20
7.5314571484
 30
0.0
 10
8.6716265422
 20
7.5344423343
 30
0.0
 10
8.6464964126
 20
7.5349589757
 30
0.0
 10
8.621604167
 20
7.5330012446
 30
0.0
 10
8.5971897282
 20
7.528586962
 30
0.0
 10
8.5734887491
 20
7.5217576845
 30
0.0
 10
8.5507302322
 20
7.5125785626
 30
0.0
 10
8.5291343918
 20
7.5011374284
 30
0.0
 10
8.5089103101
 20
7.4875443938
 30
0.0
 10
8.4902538298
 20
7.4719306454
 30
0.0
 10
8.4733456862
 20
7.4544470584
 30
0.0
 10
8.4583493665
 20
7.4352629748
 30
0.0
 10
8.4454097346
 20
7.4145641897
 30
0.0
 10
8.4346515002
 20
7.3925510957
 30
0.0
 10
8.4261778498
 20
7.3694370151
 30
0.0
 10
8.420069929
 20
7.3454446337
 30
0.0
 10
8.4163855542
 20
7.3208086953
 30
0.0
 10
8.4155708658
 20
7.3041628691
 30
0.0
 10
8.4155708658
 20
7.2958180226
 30
0.0
  0
SPLINE
  5
3CF
100
AcDbEntity
  8
0
100
AcDbSpline
 62
7
  6
CONTINUOUS
 70
0
 71
3
 72
11
 73
7
 74
0
 42
0.0000001
 43
0.0000001
 44
0.0000000001
 40
0.0
 40
0.0
 40
0.0
 40
0.0
 40
0.2523604822
 40
0.5030735616
 40
0.7522377093
 40
1.0
 40
1.0
 40
1.0
 40
1.0
 10
8.6162557081
 20
7.4356647062
 30
0.0
 10
8.6162557081
 20
7.4421270783
 30
0.0
 10
8.616869289
 20
7.4550183799
 30
0.0
 10
8.6196443821
 20
7.4741102955
 30
0.0
 10
8.6242454003
 20
7.4927253136
 30
0.0
 10
8.6285158456
 20
7.5047389444
 30
0.0
 10
8.6309383755
 20
7.5106028671
 30
0.0
  0
SPLINE
  5
3D0
100
AcDbEntity
  8
0
100
AcDbSpline
 62
7
  6
CONTINUOUS
 70
0
 71
3
 72
18
 73
14
 74
0
 42
0.0000001
 43
0.0000001
 44
0.0000000001
 40
0.0
 40
0.0
 40
0.0
 40
0.0
 40
0.150466514
 40
0.2917140478
 40
0.4244427524
 40
0.4879100217
 40
0.5496093045
 40
0.6682623303
 40
0.7817883775
 40
0.8371380958
 40
0.8918079631
 40
0.946019364
 40
1.0
 40
1.0
 40
1.0
 40
1.0
 10
13.6412811864
 20
8.303521892
 30
0.0
 10
13.6399383388
 20
8.3022248007
 30
0.0
 10
13.6372544344
 20
8.299791066
 30
0.0
 10
13.6330987128
 20
8.2965477797
 30
0.0
 10
13.629588467
 20
8.2942539641
 30
0.0
 10
13.6267893784
 20
8.2927006517
 30
0.0
 10
13.6240726381
 20
8.2913670964
 30
0.0
 10
13.6206758426
 20
8.290019594
 30
0.0
 10
13.6172186327
 20
8.2890999967
 30
0.0
 10
13.6144804062
 20
8.2886470217
 30
0.0
 10
13.6124510103
 20
8.2884459424
 30
0.0
 10
13.6104298202
 20
8.2883809969
 30
0.0
 10
13.6090869925
 20
8.2884285041
 30
0.0
 10
13.6084188018
 20
8.2884748427
 30
0.0
  0
SPLINE
  5
3D1
100
AcDbEntity
  8
0
100
AcDbSpline
 62
7
  6
CONTINUOUS
 70
0
 71
3
 72
71
 73
67
 74
0
 42
0.0000001
 43
0.0000001
 44
0.0000000001
 40
0.0
 40
0.0
 40
0.0
 40
0.0
 40
0.0081224021
 40
0.0169165279
 40
0.0264081434
 40
0.0366136729
 40
0.0475406687
 40
0.0591900386
 40
0.0715572362
 40
0.0846331289
 40
0.0984046806
 40
0.1128554936
 40
0.1279662701
 40
0.143715139
 40
0.1600778855
 40
0.177028224
 40
0.1945380126
 40
0.212577401
 40
0.231114962
 40
0.2501178742
 40
0.2695520505
 40
0.2893822318
 40
0.309572107
 40
0.3300844497
 40
0.3719228157
 40
0.4145857826
 40
0.4577527732
 40
0.5010982541
 40
0.5442949581
 40
0.5870170731
 40
0.6289434202
 40
0.6697607121
 40
0.6896589881
 40
0.7091677946
 40
0.728251669
 40
0.7468762811
 40
0.7650085828
 40
0.7826169028
 40
0.7996710734
 40
0.816142615
 40
0.8320049142
 40
0.8472333772
 40
0.8618056538
 40
0.8757019563
 40
0.8889053604
 40
0.9014021796
 40
0.9131824955
 40
0.9242408713
 40
0.9345771718
 40
0.9394767076
 40
0.9441987541
 40
0.9487453348
 40
0.9531191585
 40
0.9573236229
 40
0.9613628726
 40
0.9652420105
 40
0.9689670917
 40
0.9725452814
 40
0.9759850272
 40
0.9824862539
 40
0.9855751478
 40
0.9885736479
 40
0.9914976047
 40
0.9943642476
 40
0.9971919638
 40
1.0
 40
1.0
 40
1.0
 40
1.0
 10
9.1411187793
 20
9.7829769721
 30
0.0
 10
9.142897127
 20
9.7846947241
 30
0.0
 10
9.1467686082
 20
9.7881008466
 30
0.0
 10
9.1531950303
 20
9.7929401759
 30
0.0
 10
9.1604524066
 20
9.7976985895
 30
0.0
 10
9.1685261553
 20
9.8023669689
 30
0.0
 10
9.1774011381
 20
9.8069367139
 30
0.0
 10
9.1870600096
 20
9.8113989036
 30
0.0
 10
9.1974838282
 20
9.8157447197
 30
0.0
 10
9.2086519745
 20
9.8199654235
 30
0.0
 10
9.2205422072
 20
9.8240525009
 30
0.0
 10
9.2331307407
 20
9.8279976756
 30
0.0
 10
9.2463923279
 20
9.8317929251
 30
0.0
 10
9.260300315
 20
9.8354305097
 30
0.0
 10
9.2748266895
 20
9.8389030343
 30
0.0
 10
9.2899421593
 20
9.8422034301
 30
0.0
 10
9.305616228
 20
9.845324967
 30
0.0
 10
9.3218172484
 20
9.8482612768
 30
0.0
 10
9.3385124839
 20
9.8510063945
 30
0.0
 10
9.3556681901
 20
9.8535547315
 30
0.0
 10
9.3732496907
 20
9.8559010918
 30
0.0
 10
9.3912214254
 20
9.8580406917
 30
0.0
 10
9.4095470728
 20
9.8599692181
 30
0.0
 10
9.4345678534
 20
9.8622688741
 30
0.0
 10
9.4664544228
 20
9.8645796199
 30
0.0
 10
9.5052760002
 20
9.8664431454
 30
0.0
 10
9.5445894401
 20
9.8673996149
 30
0.0
 10
9.5840768814
 20
9.8674412634
 30
0.0
 10
9.6234192598
 20
9.8665676838
 30
0.0
 10
9.6622987136
 20
9.8647861249
 30
0.0
 10
9.7004009189
 20
9.8621111521
 30
0.0
 10
9.7315070403
 20
9.8591313949
 30
0.0
 10
9.7557642308
 20
9.8563054832
 30
0.0
 10
9.7734193443
 20
9.8539963397
 30
0.0
 10
9.7906550421
 20
9.8514843516
 30
0.0
 10
9.8074365044
 20
9.8487745878
 30
0.0
 10
9.8237298094
 20
9.8458725877
 30
0.0
 10
9.8395020413
 20
9.8427842613
 30
0.0
 10
9.8547213415
 20
9.839515888
 30
0.0
 10
9.8693569934
 20
9.8360741242
 30
0.0
 10
9.8833794916
 20
9.8324659937
 30
0.0
 10
9.8967605907
 20
9.8286988454
 30
0.0
 10
9.9094733721
 20
9.8247803311
 30
0.0
 10
9.9214923248
 20
9.8207184269
 30
0.0
 10
9.9327934148
 20
9.8165213812
 30
0.0
 10
9.9433540911
 20
9.8121976782
 30
0.0
 10
9.9531534992
 20
9.8077559645
 30
0.0
 10
9.9621720945
 20
9.803205143
 30
0.0
 10
9.9691419053
 20
9.7992618824
 30
0.0
 10
9.9743005572
 20
9.7960515977
 30
0.0
 10
9.9778939461
 20
9.7936653729
 30
0.0
 10
9.9812792353
 20
9.7912587404
 30
0.0
 10
9.9844547624
 20
9.7888328656
 30
0.0
 10
9.9874189649
 20
9.7863889426
 30
0.0
 10
9.9901703171
 20
9.7839280828
 30
0.0
 10
9.992707498
 20
9.7814514727
 30
0.0
 10
9.9950291575
 20
9.7789603258
 30
0.0
 10
9.9971342491
 20
9.776455447
 30
0.0
 10
9.9996037778
 20
9.7731618763
 30
0.0
 10
10.0017007441
 20
9.7697794808
 30
0.0
 10
10.0033656774
 20
9.7663248992
 30
0.0
 10
10.0043715933
 20
9.7637699639
 30
0.0
 10
10.0051549317
 20
9.7612088168
 30
0.0
 10
10.0057150681
 20
9.7586427012
 30
0.0
 10
10.0060513272
 20
9.7560734358
 30
0.0
 10
10.0061261637
 20
9.7543569694
 30
0.0
 10
10.0061261579
 20
9.7535021935
 30
0.0
  0
SPLINE
  5
3D2
100
AcDbEntity
  8
0
100
AcDbSpline
 62
7
  6
CONTINUOUS
 70
0
 71
3
 72
15
 73
11
 74
0
 42
0.0000001
 43
0.0000001
 44
0.0000000001
 40
0.0
 40
0.0
 40
0.0
 40
0.0
 40
0.1098906522
 40
0.2214015324
 40
0.3360758406
 40
0.455320507
 40
0.5803741139
 40
0.712293262
 40
0.8519441752
 40
1.0
 40
1.0
 40
1.0
 40
1.0
 10
9.3424335545
 20
10.4912423297
 30
0.0
 10
9.3424335508
 20
10.4918391288
 30
0.0
 10
9.342510161
 20
10.493042879
 30
0.0
 10
9.3428538127
 20
10.4948398617
 30
0.0
 10
9.3434251988
 20
10.4966311861
 30
0.0
 10
9.3442227381
 20
10.4984141779
 30
0.0
 10
9.3452447166
 20
10.5001871103
 30
0.0
 10
9.3464894074
 20
10.5019484496
 30
0.0
 10
9.3479549403
 20
10.5036965345
 30
0.0
 10
9.3490448508
 20
10.5048181464
 30
0.0
 10
9.3496231806
 20
10.5053767701
 30
0.0
  0
SPLINE
  5
3D3
100
AcDbEntity
  8
0
100
AcDbSpline
 62
7
  6
CONTINUOUS
 70
0
 71
3
 72
15
 73
11
 74
0
 42
0.0000001
 43
0.0000001
 44
0.0000000001
 40
0.0
 40
0.0
 40
0.0
 40
0.0
 40
0.1098906522
 40
0.2214015324
 40
0.3360758406
 40
0.455320507
 40
0.5803741139
 40
0.712293262
 40
0.8519441752
 40
1.0
 40
1.0
 40
1.0
 40
1.0
 10
12.2355664704
 20
9.2857942977
 30
0.0
 10
12.2355664668
 20
9.2863910968
 30
0.0
 10
12.2356430769
 20
9.2875948469
 30
0.0
 10
12.2359867287
 20
9.2893918296
 30
0.0
 10
12.2365581147
 20
9.2911831541
 30
0.0
 10
12.2373556541
 20
9.2929661459
 30
0.0
 10
12.2383776325
 20
9.2947390783
 30
0.0
 10
12.2396223233
 20
9.2965004176
 30
0.0
 10
12.2410878563
 20
9.2982485025
 30
0.0
 10
12.2421777668
 20
9.2993701144
 30
0.0
 10
12.2427560965
 20
9.2999287381
 30
0.0
  0
SPLINE
  5
3D4
100
AcDbEntity
  8
0
100
AcDbSpline
 62
7
  6
CONTINUOUS
 70
0
 71
3
 72
69
 73
65
 74
0
 42
0.0000001
 43
0.0000001
 44
0.0000000001
 40
0.0
 40
0.0
 40
0.0
 40
0.0
 40
0.0078496125
 40
0.0150470873
 40
0.0216913576
 40
0.024849121
 40
0.0279214041
 40
0.0309297974
 40
0.0338974714
 40
0.0368486889
 40
0.0398081446
 40
0.0428003164
 40
0.0458487936
 40
0.0489757857
 40
0.0522016965
 40
0.0590172302
 40
0.0626415674
 40
0.0664256784
 40
0.0703799275
 40
0.0745129615
 40
0.0833407775
 40
0.0929542674
 40
0.1033797032
 40
0.1146306353
 40
0.1267107597
 40
0.1396158826
 40
0.1533352455
 40
0.1678527468
 40
0.1831477654
 40
0.1991956457
 40
0.2159682886
 40
0.2334345959
 40
0.251560677
 40
0.2703101734
 40
0.2896445757
 40
0.3095233513
 40
0.3299041394
 40
0.3719934528
 40
0.4155460081
 40
0.4601762292
 40
0.505485711
 40
0.5510681302
 40
0.5965139905
 40
0.6414153858
 40
0.6853707345
 40
0.727989638
 40
0.7486807963
 40
0.7688990608
 40
0.7886009751
 40
0.8077448144
 40
0.8262906967
 40
0.8442007512
 40
0.8614394592
 40
0.877973848
 40
0.8937737143
 40
0.9088120885
 40
0.9230656479
 40
0.9365151296
 40
0.9491461082
 40
0.9609499856
 40
0.9719248962
 40
0.9820774536
 40
0.9914258054
 40
1.0
 40
1.0
 40
1.0
 40
1.0
 10
9.8220965272
 20
9.72029619
 30
0.0
 10
9.8231700945
 20
9.7213331765
 30
0.0
 10
9.8251376342
 20
9.7234193129
 30
0.0
 10
9.8276062052
 20
9.7267363473
 30
0.0
 10
9.8291662277
 20
9.7295830137
 30
0.0
 10
9.8300722687
 20
9.731859973
 30
0.0
 10
9.8305809449
 20
9.733543811
 30
0.0
 10
9.8309293911
 20
9.73523115
 30
0.0
 10
9.8311171271
 20
9.7369207904
 30
0.0
 10
9.831143974
 20
9.7386113484
 30
0.0
 10
9.8310098402
 20
9.740301444
 30
0.0
 10
9.8307148901
 20
9.7419896949
 30
0.0
 10
9.8302596285
 20
9.7436748021
 30
0.0
 10
9.8296444919
 20
9.7453556534
 30
0.0
 10
9.8285930957
 20
9.7476307418
 30
0.0
 10
9.8272294565
 20
9.7498551353
 30
0.0
 10
9.8256001491
 20
9.7520152376
 30
0.0
 10
9.8241969091
 20
9.7536599602
 30
0.0
 10
9.8226386612
 20
9.7552946179
 30
0.0
 10
9.8203038906
 20
9.7575085948
 30
0.0
 10
9.8169842587
 20
9.7602390713
 30
0.0
 10
9.8124853967
 20
9.7633913729
 30
0.0
 10
9.8073970272
 20
9.7664820442
 30
0.0
 10
9.8017309694
 20
9.7695042183
 30
0.0
 10
9.79550002
 20
9.7724510972
 30
0.0
 10
9.7887186332
 20
9.7753157429
 30
0.0
 10
9.7814026989
 20
9.7780913817
 30
0.0
 10
9.773569495
 20
9.780771348
 30
0.0
 10
9.7652376098
 20
9.783349145
 30
0.0
 10
9.756426914
 20
9.785818551
 30
0.0
 10
9.7471584731
 20
9.7881735871
 30
0.0
 10
9.737454479
 20
9.790408515
 30
0.0
 10
9.7273382095
 20
9.7925179172
 30
0.0
 10
9.7168339575
 20
9.7944966925
 30
0.0
 10
9.7059669631
 20
9.7963400133
 30
0.0
 10
9.6947633292
 20
9.7980434376
 30
0.0
 10
9.6792457108
 20
9.8001450546
 30
0.0
 10
9.6592065168
 20
9.8023815407
 30
0.0
 10
9.6345165086
 20
9.8044247756
 30
0.0
 10
9.6091690499
 20
9.8058350539
 30
0.0
 10
9.5834078945
 20
9.8065986195
 30
0.0
 10
9.5574805955
 20
9.8067079404
 30
0.0
 10
9.5316364212
 20
9.8061619309
 30
0.0
 10
9.5061237415
 20
9.8049660002
 30
0.0
 10
9.4811879203
 20
9.8031318042
 30
0.0
 10
9.4608929107
 20
9.8010668316
 30
0.0
 10
9.4451317176
 20
9.7990992467
 30
0.0
 10
9.4337185951
 20
9.7974914156
 30
0.0
 10
9.4226242367
 20
9.7957408876
 30
0.0
 10
9.4118752956
 20
9.7938518977
 30
0.0
 10
9.4014976139
 20
9.7918290415
 30
0.0
 10
9.391516126
 20
9.7896772018
 30
0.0
 10
9.3819547868
 20
9.7874016159
 30
0.0
 10
9.3728365156
 20
9.7850078196
 30
0.0
 10
9.364183148
 20
9.7825015975
 30
0.0
 10
9.3560153517
 20
9.7798890289
 30
0.0
 10
9.3483525672
 20
9.7771764554
 30
0.0
 10
9.3412129692
 20
9.7743703957
 30
0.0
 10
9.3346133788
 20
9.7714775672
 30
0.0
 10
9.3285691834
 20
9.7685048192
 30
0.0
 10
9.3230943899
 20
9.7654591
 30
0.0
 10
9.3182011576
 20
9.7623470316
 30
0.0
 10
9.3139010994
 20
9.7591756857
 30
0.0
 10
9.3113284751
 20
9.7569321081
 30
0.0
 10
9.3101558089
 20
9.7557993994
 30
0.0
  0
SPLINE
  5
3D5
100
AcDbEntity
  8
0
100
AcDbSpline
 62
7
  6
CONTINUOUS
 70
0
 71
3
 72
17
 73
13
 74
0
 42
0.0000001
 43
0.0000001
 44
0.0000000001
 40
0.0
 40
0.0
 40
0.0
 40
0.0
 40
0.0548653995
 40
0.1099348206
 40
0.2214348222
 40
0.3360991408
 40
0.4553350478
 40
0.5170794787
 40
0.5804143716
 40
0.712316841
 40
0.8519520933
 40
1.0
 40
1.0
 40
1.0
 40
1.0
 10
9.1261261782
 20
9.7535030256
 30
0.0
 10
9.1261261824
 20
9.7541244193
 30
0.0
 10
9.1261656475
 20
9.7553699149
 30
0.0
 10
9.126402977
 20
9.7578679009
 30
0.0
 10
9.1270026465
 20
9.7610051474
 30
0.0
 10
9.1281942016
 20
9.7647399971
 30
0.0
 10
9.129564262
 20
9.7678028376
 30
0.0
 10
9.1308825989
 20
9.7702366562
 30
0.0
 10
9.1323921482
 20
9.7727263241
 30
0.0
 10
9.1345840424
 20
9.7758281061
 30
0.0
 10
9.13763994
 20
9.7794731547
 30
0.0
 10
9.1399127628
 20
9.7818120496
 30
0.0
 10
9.1411187793
 20
9.7829769721
 30
0.0
  0
SPLINE
  5
3D6
100
AcDbEntity
  8
0
100
AcDbSpline
 62
7
  6
CONTINUOUS
 70
0
 71
3
 72
14
 73
10
 74
0
 42
0.0000001
 43
0.0000001
 44
0.0000000001
 40
0.0
 40
0.0
 40
0.0
 40
0.0
 40
0.1101567795
 40
0.2234137139
 40
0.4616382313
 40
0.5878746875
 40
0.719438403
 40
0.8567091545
 40
1.0
 40
1.0
 40
1.0
 40
1.0
 10
9.1272118771
 20
9.7460429315
 30
0.0
 10
9.127461304
 20
9.7469601884
 30
0.0
 10
9.1280491306
 20
9.7487992357
 30
0.0
 10
9.1295716948
 20
9.7524840911
 30
0.0
 10
9.1315931912
 20
9.7560966834
 30
0.0
 10
9.1340418623
 20
9.7596093759
 30
0.0
 10
9.1361616414
 20
9.7622822819
 30
0.0
 10
9.1385270703
 20
9.764940006
 30
0.0
 10
9.1402294314
 20
9.766663113
 30
0.0
 10
9.1411187793
 20
9.7675221572
 30
0.0
  0
SPLINE
  5
3D7
100
AcDbEntity
  8
0
100
AcDbSpline
 62
7
  6
CONTINUOUS
 70
0
 71
3
 72
18
 73
14
 74
0
 42
0.0000001
 43
0.0000001
 44
0.0000000001
 40
0.0
 40
0.0
 40
0.0
 40
0.0
 40
0.150466514
 40
0.2917140478
 40
0.4244427524
 40
0.4879100217
 40
0.5496093045
 40
0.6682623303
 40
0.7817883775
 40
0.8371380958
 40
0.8918079631
 40
0.946019364
 40
1.0
 40
1.0
 40
1.0
 40
1.0
 10
13.1883482312
 20
7.8660222271
 30
0.0
 10
13.1870053837
 20
7.8647251359
 30
0.0
 10
13.1843214793
 20
7.8622914011
 30
0.0
 10
13.1801657577
 20
7.8590481149
 30
0.0
 10
13.1766555119
 20
7.8567542992
 30
0.0
 10
13.1738564232
 20
7.8552009869
 30
0.0
 10
13.171139683
 20
7.8538674316
 30
0.0
 10
13.1677428874
 20
7.8525199291
 30
0.0
 10
13.1642856776
 20
7.8516003318
 30
0.0
 10
13.161547451
 20
7.8511473568
 30
0.0
 10
13.1595180551
 20
7.8509462776
 30
0.0
 10
13.157496865
 20
7.850881332
 30
0.0
 10
13.1561540374
 20
7.8509288392
 30
0.0
 10
13.1554858467
 20
7.8509751778
 30
0.0
  0
SPLINE
  5
3D8
100
AcDbEntity
  8
0
100
AcDbSpline
 62
7
  6
CONTINUOUS
 70
0
 71
3
 72
23
 73
19
 74
0
 42
0.0000001
 43
0.0000001
 44
0.0000000001
 40
0.0
 40
0.0
 40
0.0
 40
0.0
 40
0.0749625467
 40
0.1455683586
 40
0.2121600105
 40
0.2751629606
 40
0.3350981064
 40
0.3925830815
 40
0.4483293425
 40
0.503123567
 40
0.557798174
 40
0.6131915492
 40
0.6701069129
 40
0.7292781025
 40
0.7913516244
 40
0.8568785425
 40
0.9263112386
 40
1.0
 40
1.0
 40
1.0
 40
1.0
 10
9.3108163378
 20
9.7196700516
 30
0.0
 10
9.3100511169
 20
9.7203821714
 30
0.0
 10
9.308607563
 20
9.721811847
 30
0.0
 10
9.3066597972
 20
9.7240423754
 30
0.0
 10
9.3049988321
 20
9.7262905358
 30
0.0
 10
9.3036272245
 20
9.7285544428
 30
0.0
 10
9.3025471772
 20
9.7308320369
 30
0.0
 10
9.3017611994
 20
9.733121033
 30
0.0
 10
9.3012714282
 20
9.7354184536
 30
0.0
 10
9.3010796537
 20
9.7377206771
 30
0.0
 10
9.3011866046
 20
9.7400235139
 30
0.0
 10
9.3015918622
 20
9.7423227108
 30
0.0
 10
9.3022939564
 20
9.7446144082
 30
0.0
 10
9.3032906535
 20
9.7468955068
 30
0.0
 10
9.3045797104
 20
9.7491635002
 30
0.0
 10
9.306158759
 20
9.7514164227
 30
0.0
 10
9.3080253461
 20
9.7536520756
 30
0.0
 10
9.3094167388
 20
9.7550855125
 30
0.0
 10
9.3101558089
 20
9.7557993994
 30
0.0
  0
SPLINE
  5
3D9
100
AcDbEntity
  8
0
100
AcDbSpline
 62
7
  6
CONTINUOUS
 70
0
 71
3
 72
16
 73
12
 74
0
 42
0.0000001
 43
0.0000001
 44
0.0000000001
 40
0.0
 40
0.0
 40
0.0
 40
0.0
 40
0.1098865143
 40
0.2213932908
 40
0.336063432
 40
0.4553037777
 40
0.5170511403
 40
0.5803897997
 40
0.7123040909
 40
0.8519497894
 40
1.0
 40
1.0
 40
1.0
 40
1.0
 10
9.3311261819
 20
9.7090700182
 30
0.0
 10
9.3311261846
 20
9.7097346934
 30
0.0
 10
9.331211519
 20
9.7110753462
 30
0.0
 10
9.3315942799
 20
9.7130767209
 30
0.0
 10
9.3322306341
 20
9.7150717137
 30
0.0
 10
9.3329623502
 20
9.7167075097
 30
0.0
 10
9.3336664689
 20
9.7180073988
 30
0.0
 10
9.3344727113
 20
9.7193371561
 30
0.0
 10
9.335643438
 20
9.7209938401
 30
0.0
 10
9.3372755965
 20
9.7229406524
 30
0.0
 10
9.3384894803
 20
9.7241898495
 30
0.0
 10
9.3391335854
 20
9.7248120073
 30
0.0
  0
SPLINE
  5
3DA
100
AcDbEntity
  8
0
100
AcDbSpline
 62
7
  6
CONTINUOUS
 70
0
 71
3
 72
69
 73
65
 74
0
 42
0.0000001
 43
0.0000001
 44
0.0000000001
 40
0.0
 40
0.0
 40
0.0
 40
0.0
 40
0.0155844514
 40
0.0311164958
 40
0.046596033
 40
0.0620249362
 40
0.0774047641
 40
0.0927378569
 40
0.1080269576
 40
0.123275266
 40
0.1384864062
 40
0.153664385
 40
0.1688135563
 40
0.1839385764
 40
0.1990443578
 40
0.2141360176
 40
0.2292188235
 40
0.2442981374
 40
0.2593793583
 40
0.2744678645
 40
0.289568957
 40
0.3046878029
 40
0.3198293806
 40
0.3349984272
 40
0.3501993899
 40
0.3654363818
 40
0.3807131419
 40
0.3960329989
 40
0.4113988402
 40
0.4268130857
 40
0.4422776684
 40
0.4577940208
 40
0.4733630656
 40
0.4889852114
 40
0.5046603533
 40
0.5203878786
 40
0.5361666795
 40
0.5519951681
 40
0.5678712954
 40
0.5837925735
 40
0.5997561014
 40
0.6157585964
 40
0.6317964263
 40
0.647865644
 40
0.6639620234
 40
0.6800810983
 40
0.7123600122
 40
0.7446719581
 40
0.7608320198
 40
0.7769852785
 40
0.7931267708
 40
0.8092516359
 40
0.8253551583
 40
0.8414328088
 40
0.8574802861
 40
0.8734935573
 40
0.8894688931
 40
0.9054029073
 40
0.9212925817
 40
0.9371352945
 40
0.9529289268
 40
0.968671524
 40
0.9843624254
 40
1.0
 40
1.0
 40
1.0
 40
1.0
 10
11.6530768917
 20
7.7306001507
 30
0.0
 10
11.6530768917
 20
7.7232326333
 30
0.0
 10
11.6527163242
 20
7.7085197619
 30
0.0
 10
11.6510887815
 20
7.6865431678
 30
0.0
 10
11.6483790924
 20
7.6647470752
 30
0.0
 10
11.6445939802
 20
7.6431849159
 30
0.0
 10
11.6397423399
 20
7.6219082954
 30
0.0
 10
11.6338358714
 20
7.6009686284
 30
0.0
 10
11.6268887419
 20
7.5804163665
 30
0.0
 10
11.6189176678
 20
7.5603010705
 30
0.0
 10
11.6099418257
 20
7.5406712483
 30
0.0
 10
11.5999828127
 20
7.5215742472
 30
0.0
 10
11.5890645968
 20
7.5030561407
 30
0.0
 10
11.5772134733
 20
7.4851616079
 30
0.0
 10
11.5644580162
 20
7.4679338108
 30
0.0
 10
11.5508289756
 20
7.451414309
 30
0.0
 10
11.5363592111
 20
7.4356429561
 30
0.0
 10
11.521083611
 20
7.420657804
 30
0.0
 10
11.5050390096
 20
7.4064950118
 30
0.0
 10
11.4882641236
 20
7.3931887248
 30
0.0
 10
11.4707994269
 20
7.3807710196
 30
0.0
 10
11.4526870533
 20
7.3692718287
 30
0.0
 10
11.4339706953
 20
7.3587188668
 30
0.0
 10
11.4146954962
 20
7.3491375717
 30
0.0
 10
11.394907957
 20
7.3405510089
 30
0.0
 10
11.3746558112
 20
7.3329798299
 30
0.0
 10
11.3539879005
 20
7.3264422417
 30
0.0
 10
11.3329540601
 20
7.3209539594
 30
0.0
 10
11.3116049983
 20
7.3165281751
 30
0.0
 10
11.2899921797
 20
7.3131755095
 30
0.0
 10
11.2681676993
 20
7.3109039698
 30
0.0
 10
11.2461841494
 20
7.3097189692
 30
0.0
 10
11.2240944959
 20
7.3096233088
 30
0.0
 10
11.2019519527
 20
7.3106171734
 30
0.0
 10
11.1798098559
 20
7.3126981321
 30
0.0
 10
11.1577215319
 20
7.3158611056
 30
0.0
 10
11.1357401691
 20
7.3200984191
 30
0.0
 10
11.1139186922
 20
7.3253998221
 30
0.0
 10
11.0923096369
 20
7.3317525117
 30
0.0
 10
11.0709650293
 20
7.3391411686
 30
0.0
 10
11.0499362466
 20
7.3475479629
 30
0.0
 10
11.0292739085
 20
7.3569526027
 30
0.0
 10
11.0090277138
 20
7.3673324431
 30
0.0
 10
10.9892465069
 20
7.3786623762
 30
0.0
 10
10.9699774696
 20
7.3909154867
 30
0.0
 10
10.9450229151
 20
7.4084492952
 30
0.0
 10
10.9153451902
 20
7.4325207756
 30
0.0
 10
10.8879817844
 20
7.4592210953
 30
0.0
 10
10.8676248737
 20
7.4820143574
 30
0.0
 10
10.8531592423
 20
7.4997866983
 30
0.0
 10
10.8395340017
 20
7.518189997
 30
0.0
 10
10.8267815388
 20
7.5371803527
 30
0.0
 10
10.8149326791
 20
7.5567119584
 30
0.0
 10
10.804015947
 20
7.5767378425
 30
0.0
 10
10.7940576451
 20
7.597209795
 30
0.0
 10
10.7850817562
 20
7.6180785395
 30
0.0
 10
10.7771099127
 20
7.6392938464
 30
0.0
 10
10.7701613415
 20
7.6608046534
 30
0.0
 10
10.7642528245
 20
7.6825591766
 30
0.0
 10
10.7593986086
 20
7.7045050794
 30
0.0
 10
10.7556104839
 20
7.7265893988
 30
0.0
 10
10.7528974484
 20
7.7487593301
 30
0.0
 10
10.7512663288
 20
7.7709605661
 30
0.0
 10
10.7509020714
 20
7.7857735557
 30
0.0
 10
10.7509020714
 20
7.7931661869
 30
0.0
  0
SPLINE
  5
3DB
100
AcDbEntity
  8
0
100
AcDbSpline
 62
7
  6
CONTINUOUS
 70
0
 71
3
 72
71
 73
67
 74
0
 42
0.0000001
 43
0.0000001
 44
0.0000000001
 40
0.0
 40
0.0
 40
0.0
 40
0.0
 40
0.0081224021
 40
0.0169165279
 40
0.0264081434
 40
0.0366136729
 40
0.0475406687
 40
0.0591900386
 40
0.0715572362
 40
0.0846331289
 40
0.0984046806
 40
0.1128554936
 40
0.1279662701
 40
0.143715139
 40
0.1600778855
 40
0.177028224
 40
0.1945380126
 40
0.212577401
 40
0.231114962
 40
0.2501178742
 40
0.2695520505
 40
0.2893822318
 40
0.309572107
 40
0.3300844497
 40
0.3719228157
 40
0.4145857826
 40
0.4577527732
 40
0.5010982541
 40
0.5442949581
 40
0.5870170731
 40
0.6289434202
 40
0.6697607121
 40
0.6896589881
 40
0.7091677946
 40
0.728251669
 40
0.7468762811
 40
0.7650085828
 40
0.7826169028
 40
0.7996710734
 40
0.816142615
 40
0.8320049142
 40
0.8472333772
 40
0.8618056538
 40
0.8757019563
 40
0.8889053604
 40
0.9014021796
 40
0.9131824955
 40
0.9242408713
 40
0.9345771718
 40
0.9394767076
 40
0.9441987541
 40
0.9487453348
 40
0.9531191585
 40
0.9573236229
 40
0.9613628726
 40
0.9652420105
 40
0.9689670917
 40
0.9725452814
 40
0.9759850272
 40
0.9824862539
 40
0.9855751478
 40
0.9885736479
 40
0.9914976047
 40
0.9943642476
 40
0.9971919638
 40
1.0
 40
1.0
 40
1.0
 40
1.0
 10
12.0088664432
 20
10.0530086681
 30
0.0
 10
12.0106447909
 20
10.0547264201
 30
0.0
 10
12.0145162722
 20
10.0581325426
 30
0.0
 10
12.0209426942
 20
10.0629718719
 30
0.0
 10
12.0282000706
 20
10.0677302855
 30
0.0
 10
12.0362738192
 20
10.072398665
 30
0.0
 10
12.045148802
 20
10.0769684099
 30
0.0
 10
12.0548076736
 20
10.0814305996
 30
0.0
 10
12.0652314922
 20
10.0857764157
 30
0.0
 10
12.0763996384
 20
10.0899971196
 30
0.0
 10
12.0882898711
 20
10.0940841969
 30
0.0
 10
12.1008784046
 20
10.0980293716
 30
0.0
 10
12.1141399919
 20
10.1018246211
 30
0.0
 10
12.1280479789
 20
10.1054622057
 30
0.0
 10
12.1425743534
 20
10.1089347303
 30
0.0
 10
12.1576898233
 20
10.1122351262
 30
0.0
 10
12.173363892
 20
10.115356663
 30
0.0
 10
12.1895649123
 20
10.1182929728
 30
0.0
 10
12.2062601478
 20
10.1210380905
 30
0.0
 10
12.2234158541
 20
10.1235864275
 30
0.0
 10
12.2409973546
 20
10.1259327878
 30
0.0
 10
12.2589690894
 20
10.1280723877
 30
0.0
 10
12.2772947368
 20
10.1300009141
 30
0.0
 10
12.3023155173
 20
10.1323005701
 30
0.0
 10
12.3342020868
 20
10.1346113159
 30
0.0
 10
12.3730236641
 20
10.1364748415
 30
0.0
 10
12.412337104
 20
10.1374313109
 30
0.0
 10
12.4518245453
 20
10.1374729594
 30
0.0
 10
12.4911669237
 20
10.1365993798
 30
0.0
 10
12.5300463776
 20
10.1348178209
 30
0.0
 10
12.5681485829
 20
10.1321428481
 30
0.0
 10
12.5992547042
 20
10.1291630909
 30
0.0
 10
12.6235118947
 20
10.1263371792
 30
0.0
 10
12.6411670082
 20
10.1240280357
 30
0.0
 10
12.658402706
 20
10.1215160477
 30
0.0
 10
12.6751841683
 20
10.1188062838
 30
0.0
 10
12.6914774734
 20
10.1159042837
 30
0.0
 10
12.7072497053
 20
10.1128159573
 30
0.0
 10
12.7224690054
 20
10.109547584
 30
0.0
 10
12.7371046574
 20
10.1061058202
 30
0.0
 10
12.7511271555
 20
10.1024976897
 30
0.0
 10
12.7645082547
 20
10.0987305415
 30
0.0
 10
12.7772210361
 20
10.0948120271
 30
0.0
 10
12.7892399888
 20
10.0907501229
 30
0.0
 10
12.8005410787
 20
10.0865530772
 30
0.0
 10
12.8111017551
 20
10.0822293742
 30
0.0
 10
12.8209011631
 20
10.0777876605
 30
0.0
 10
12.8299197584
 20
10.0732368391
 30
0.0
 10
12.8368895692
 20
10.0692935784
 30
0.0
 10
12.8420482212
 20
10.0660832937
 30
0.0
 10
12.8456416101
 20
10.0636970689
 30
0.0
 10
12.8490268992
 20
10.0612904364
 30
0.0
 10
12.8522024264
 20
10.0588645616
 30
0.0
 10
12.8551666289
 20
10.0564206386
 30
0.0
 10
12.857917981
 20
10.0539597789
 30
0.0
 10
12.8604551619
 20
10.0514831687
 30
0.0
 10
12.8627768214
 20
10.0489920218
 30
0.0
 10
12.864881913
 20
10.046487143
 30
0.0
 10
12.8673514417
 20
10.0431935723
 30
0.0
 10
12.869448408
 20
10.0398111768
 30
0.0
 10
12.8711133414
 20
10.0363565952
 30
0.0
 10
12.8721192573
 20
10.0338016599
 30
0.0
 10
12.8729025956
 20
10.0312405128
 30
0.0
 10
12.873462732
 20
10.0286743972
 30
0.0
 10
12.8737989911
 20
10.0261051319
 30
0.0
 10
12.8738738276
 20
10.0243886654
 30
0.0
 10
12.8738738218
 20
10.0235338895
 30
0.0
  0
SPLINE
  5
3DC
100
AcDbEntity
  8
0
100
AcDbSpline
 62
7
  6
CONTINUOUS
 70
0
 71
3
 72
63
 73
59
 74
0
 42
0.0000001
 43
0.0000001
 44
0.0000000001
 40
0.0
 40
0.0
 40
0.0
 40
0.0
 40
0.0028779418
 40
0.0058268358
 40
0.0119924137
 40
0.0186038559
 40
0.0257417171
 40
0.0334665163
 40
0.0418219651
 40
0.0508382752
 40
0.0605349531
 40
0.0709229159
 40
0.0820061836
 40
0.0937832106
 40
0.106247797
 40
0.1193897763
 40
0.1331956598
 40
0.1476490613
 40
0.162730973
 40
0.1784201169
 40
0.1946931966
 40
0.2115250288
 40
0.2288887372
 40
0.2467559483
 40
0.2650968846
 40
0.2838804677
 40
0.3030744887
 40
0.3226457002
 40
0.3425598792
 40
0.3832753916
 40
0.4249330552
 40
0.4672350339
 40
0.5098774364
 40
0.5525532061
 40
0.5949549757
 40
0.6367779213
 40
0.6777226506
 40
0.717498117
 40
0.7368598853
 40
0.755825519
 40
0.7743623443
 40
0.7924387686
 40
0.8100244437
 40
0.8270903764
 40
0.8436090122
 40
0.8595544135
 40
0.8749024573
 40
0.8896309536
 40
0.9037198685
 40
0.917151659
 40
0.929911528
 40
0.9419877917
 40
0.9533724571
 40
0.9640618902
 40
0.9740575139
 40
0.9833669943
 40
0.9920063421
 40
1.0
 40
1.0
 40
1.0
 40
1.0
 10
10.0051409718
 20
9.7456642587
 30
0.0
 10
10.0049231771
 20
9.746505174
 30
0.0
 10
10.0044131387
 20
9.7481906228
 30
0.0
 10
10.003101671
 20
9.7515674619
 30
0.0
 10
10.0008977056
 20
9.7557901178
 30
0.0
 10
9.9974530702
 20
9.760732501
 30
0.0
 10
9.9931800262
 20
9.765621068
 30
0.0
 10
9.988088478
 20
9.7704490567
 30
0.0
 10
9.9821881427
 20
9.7752104322
 30
0.0
 10
9.9754897564
 20
9.7798979162
 30
0.0
 10
9.9680053577
 20
9.7845037399
 30
0.0
 10
9.9597485814
 20
9.7890197886
 30
0.0
 10
9.9507346676
 20
9.7934378184
 30
0.0
 10
9.940980419
 20
9.7977495271
 30
0.0
 10
9.9305041911
 20
9.8019466982
 30
0.0
 10
9.9193258511
 20
9.8060213014
 30
0.0
 10
9.9074666828
 20
9.8099654671
 30
0.0
 10
9.8949493407
 20
9.8137715347
 30
0.0
 10
9.881797818
 20
9.817432143
 30
0.0
 10
9.8680373644
 20
9.8209401891
 30
0.0
 10
9.8536944244
 20
9.8242888376
 30
0.0
 10
9.8387966009
 20
9.8274715879
 30
0.0
 10
9.8233725908
 20
9.8304822712
 30
0.0
 10
9.8074521108
 20
9.8333150263
 30
0.0
 10
9.7910658508
 20
9.8359643407
 30
0.0
 10
9.774245415
 20
9.8384250915
 30
0.0
 10
9.7570232563
 20
9.8406924903
 30
0.0
 10
9.739432571
 20
9.8427621461
 30
0.0
 10
9.7153549568
 20
9.8452710356
 30
0.0
 10
9.6845875417
 20
9.8478746943
 30
0.0
 10
9.6470208207
 20
9.8501354402
 30
0.0
 10
9.6088302579
 20
9.8515371791
 30
0.0
 10
9.5703104725
 20
9.8520689869
 30
0.0
 10
9.5317584086
 20
9.8517266423
 30
0.0
 10
9.4934713522
 20
9.8505128678
 30
0.0
 10
9.4557444184
 20
9.8484371784
 30
0.0
 10
9.4188686148
 20
9.8455158031
 30
0.0
 10
9.3888210149
 20
9.8423683665
 30
0.0
 10
9.3654297484
 20
9.8394326176
 30
0.0
 10
9.3484310119
 20
9.8370551471
 30
0.0
 10
9.3318524977
 20
9.8344870225
 30
0.0
 10
9.3157261586
 20
9.8317331761
 30
0.0
 10
9.3000830942
 20
9.828798971
 30
0.0
 10
9.2849534473
 20
9.8256901194
 30
0.0
 10
9.2703663687
 20
9.8224126498
 30
0.0
 10
9.2563499425
 20
9.8189729196
 30
0.0
 10
9.2429311184
 20
9.8153776332
 30
0.0
 10
9.2301356748
 20
9.8116337715
 30
0.0
 10
9.2179881603
 20
9.8077485769
 30
0.0
 10
9.2065118099
 20
9.8037296005
 30
0.0
 10
9.1957285105
 20
9.7995846197
 30
0.0
 10
9.1856587587
 20
9.795321586
 30
0.0
 10
9.1763215638
 20
9.7909486631
 30
0.0
 10
9.1677343959
 20
9.7864741023
 30
0.0
 10
9.1599132668
 20
9.7819062463
 30
0.0
 10
9.1528721948
 20
9.7772530884
 30
0.0
 10
9.1466247296
 20
9.7725231734
 30
0.0
 10
9.1428541682
 20
9.7691984143
 30
0.0
 10
9.1411187793
 20
9.7675221572
 30
0.0
  0
SPLINE
  5
3DD
100
AcDbEntity
  8
0
100
AcDbSpline
 62
7
  6
CONTINUOUS
 70
0
 71
3
 72
60
 73
56
 74
0
 42
0.0000001
 43
0.0000001
 44
0.0000000001
 40
0.0
 40
0.0
 40
0.0
 40
0.0
 40
0.0028080811
 40
0.0056358509
 40
0.0085025522
 40
0.0114265654
 40
0.0175099401
 40
0.0240113047
 40
0.0310267094
 40
0.0386289617
 40
0.046871182
 40
0.0557905012
 40
0.0654112238
 40
0.0757477553
 40
0.0868063819
 40
0.0985869364
 40
0.1110840349
 40
0.1242876933
 40
0.1381842857
 40
0.1527568743
 40
0.1679856089
 40
0.1838482363
 40
0.2003201016
 40
0.2173745888
 40
0.2349832535
 40
0.2531158837
 40
0.2908239677
 40
0.3302307943
 40
0.3710488152
 40
0.4129759106
 40
0.4556987815
 40
0.4988962433
 40
0.5422424758
 40
0.5854102098
 40
0.6280739067
 40
0.6699129754
 40
0.7106150025
 40
0.7498790376
 40
0.7874190126
 40
0.8054586931
 40
0.8229687712
 40
0.8399194191
 40
0.8562824155
 40
0.872031551
 40
0.8871425954
 40
0.9015936359
 40
0.9153654347
 40
0.9284415313
 40
0.9408089377
 40
0.9524585285
 40
0.9633857047
 40
0.9735913493
 40
0.9830831457
 40
0.9918776543
 40
1.0
 40
1.0
 40
1.0
 40
1.0
 10
9.8011261542
 20
9.7090700182
 30
0.0
 10
9.801126156
 20
9.709526545
 30
0.0
 10
9.8010861911
 20
9.7104432959
 30
0.0
 10
9.800906559
 20
9.7118155028
 30
0.0
 10
9.8006073481
 20
9.7131860703
 30
0.0
 10
9.8000422742
 20
9.7150338813
 30
0.0
 10
9.7990193873
 20
9.7173496849
 30
0.0
 10
9.7973355087
 20
9.7200649465
 30
0.0
 10
9.7951855483
 20
9.7227510108
 30
0.0
 10
9.7925754195
 20
9.7254042662
 30
0.0
 10
9.789510578
 20
9.7280215041
 30
0.0
 10
9.7859969042
 20
9.730598734
 30
0.0
 10
9.7820410432
 20
9.7331317277
 30
0.0
 10
9.7776504534
 20
9.7356158404
 30
0.0
 10
9.7728335879
 20
9.7380464
 30
0.0
 10
9.767599822
 20
9.7404186772
 30
0.0
 10
9.7619594315
 20
9.7427279089
 30
0.0
 10
9.7559236113
 20
9.7449695169
 30
0.0
 10
9.7495043799
 20
9.7471389335
 30
0.0
 10
9.7427145833
 20
9.7492317574
 30
0.0
 10
9.7355678524
 20
9.7512437674
 30
0.0
 10
9.7280785524
 20
9.7531708183
 30
0.0
 10
9.7202617733
 20
9.7550090263
 30
0.0
 10
9.7121332801
 20
9.7567546292
 30
0.0
 10
9.7037094611
 20
9.75840408
 30
0.0
 10
9.6919528711
 20
9.7604979522
 30
0.0
 10
9.6766431584
 20
9.762839138
 30
0.0
 10
9.6576114549
 20
9.7651829153
 30
0.0
 10
9.6378406898
 20
9.7670769072
 30
0.0
 10
9.617490599
 20
9.7685055533
 30
0.0
 10
9.5967254725
 20
9.7694570617
 30
0.0
 10
9.5757130849
 20
9.7699236139
 30
0.0
 10
9.5546232244
 20
9.7699013712
 30
0.0
 10
9.5336263209
 20
9.769390514
 30
0.0
 10
9.5128920354
 20
9.7683952383
 30
0.0
 10
9.4925878867
 20
9.7669237399
 30
0.0
 10
9.4728777835
 20
9.7649881635
 30
0.0
 10
9.4539209677
 20
9.762604411
 30
0.0
 10
9.4386826856
 20
9.7602306032
 30
0.0
 10
9.4269900285
 20
9.7581114881
 30
0.0
 10
9.418618657
 20
9.7564442796
 30
0.0
 10
9.4105456371
 20
9.7546815885
 30
0.0
 10
9.4027872497
 20
9.75282693
 30
0.0
 10
9.3953591354
 20
9.7508841338
 30
0.0
 10
9.3882762533
 20
9.7488571341
 30
0.0
 10
9.381552846
 20
9.7467500432
 30
0.0
 10
9.3752023915
 20
9.7445671863
 30
0.0
 10
9.369237602
 20
9.7423129366
 30
0.0
 10
9.3636703425
 20
9.7399918836
 30
0.0
 10
9.358511627
 20
9.7376086827
 30
0.0
 10
9.3537716105
 20
9.7351679972
 30
0.0
 10
9.3494594917
 20
9.7326746955
 30
0.0
 10
9.3455833712
 20
9.7301332562
 30
0.0
 10
9.3421511013
 20
9.7275485804
 30
0.0
 10
9.3400833605
 20
9.7257294196
 30
0.0
 10
9.3391335854
 20
9.7248120073
 30
0.0
  0
SPLINE
  5
3DE
100
AcDbEntity
  8
0
100
AcDbSpline
 62
7
  6
CONTINUOUS
 70
0
 71
3
 72
17
 73
13
 74
0
 42
0.0000001
 43
0.0000001
 44
0.0000000001
 40
0.0
 40
0.0
 40
0.0
 40
0.0
 40
0.0548653995
 40
0.1099348206
 40
0.2214348222
 40
0.3360991408
 40
0.4553350478
 40
0.5170794787
 40
0.5804143716
 40
0.712316841
 40
0.8519520933
 40
1.0
 40
1.0
 40
1.0
 40
1.0
 10
11.9938738421
 20
10.0235347216
 30
0.0
 10
11.9938738464
 20
10.0241561153
 30
0.0
 10
11.9939133114
 20
10.0254016109
 30
0.0
 10
11.994150641
 20
10.0278995969
 30
0.0
 10
11.9947503104
 20
10.0310368434
 30
0.0
 10
11.9959418655
 20
10.0347716931
 30
0.0
 10
11.997311926
 20
10.0378345337
 30
0.0
 10
11.9986302629
 20
10.0402683522
 30
0.0
 10
12.0001398121
 20
10.0427580201
 30
0.0
 10
12.0023317063
 20
10.0458598021
 30
0.0
 10
12.0053876039
 20
10.0495048507
 30
0.0
 10
12.0076604268
 20
10.0518437456
 30
0.0
 10
12.0088664432
 20
10.0530086681
 30
0.0
  0
SPLINE
  5
3DF
100
AcDbEntity
  8
0
100
AcDbSpline
 62
7
  6
CONTINUOUS
 70
0
 71
3
 72
14
 73
10
 74
0
 42
0.0000001
 43
0.0000001
 44
0.0000000001
 40
0.0
 40
0.0
 40
0.0
 40
0.0
 40
0.1101567795
 40
0.2234137139
 40
0.4616382313
 40
0.5878746875
 40
0.719438403
 40
0.8567091545
 40
1.0
 40
1.0
 40
1.0
 40
1.0
 10
11.9949595411
 20
10.0160746275
 30
0.0
 10
11.995208968
 20
10.0169918844
 30
0.0
 10
11.9957967945
 20
10.0188309317
 30
0.0
 10
11.9973193587
 20
10.0225157871
 30
0.0
 10
11.9993408551
 20
10.0261283794
 30
0.0
 10
12.0017895262
 20
10.0296410719
 30
0.0
 10
12.0039093053
 20
10.0323139779
 30
0.0
 10
12.0062747343
 20
10.034971702
 30
0.0
 10
12.0079770953
 20
10.036694809
 30
0.0
 10
12.0088664432
 20
10.0375538532
 30
0.0
  0
SPLINE
  5
3E0
100
AcDbEntity
  8
0
100
AcDbSpline
 62
7
  6
CONTINUOUS
 70
0
 71
3
 72
23
 73
19
 74
0
 42
0.0000001
 43
0.0000001
 44
0.0000000001
 40
0.0
 40
0.0
 40
0.0
 40
0.0
 40
0.0749625467
 40
0.1455683586
 40
0.2121600105
 40
0.2751629606
 40
0.3350981064
 40
0.3925830815
 40
0.4483293425
 40
0.503123567
 40
0.557798174
 40
0.6131915492
 40
0.6701069129
 40
0.7292781025
 40
0.7913516244
 40
0.8568785425
 40
0.9263112386
 40
1.0
 40
1.0
 40
1.0
 40
1.0
 10
12.1785640018
 20
9.9897017476
 30
0.0
 10
12.1777987808
 20
9.9904138674
 30
0.0
 10
12.1763552269
 20
9.991843543
 30
0.0
 10
12.1744074612
 20
9.9940740714
 30
0.0
 10
12.172746496
 20
9.9963222318
 30
0.0
 10
12.1713748884
 20
9.9985861388
 30
0.0
 10
12.1702948411
 20
10.000863733
 30
0.0
 10
12.1695088633
 20
10.003152729
 30
0.0
 10
12.1690190922
 20
10.0054501496
 30
0.0
 10
12.1688273176
 20
10.0077523731
 30
0.0
 10
12.1689342686
 20
10.0100552099
 30
0.0
 10
12.1693395262
 20
10.0123544068
 30
0.0
 10
12.1700416204
 20
10.0146461042
 30
0.0
 10
12.1710383174
 20
10.0169272028
 30
0.0
 10
12.1723273743
 20
10.0191951963
 30
0.0
 10
12.173906423
 20
10.0214481187
 30
0.0
 10
12.1757730101
 20
10.0236837716
 30
0.0
 10
12.1771644028
 20
10.0251172085
 30
0.0
 10
12.1779034728
 20
10.0258310954
 30
0.0
  0
SPLINE
  5
3E1
100
AcDbEntity
  8
0
100
AcDbSpline
 62
7
  6
CONTINUOUS
 70
0
 71
3
 72
16
 73
12
 74
0
 42
0.0000001
 43
0.0000001
 44
0.0000000001
 40
0.0
 40
0.0
 40
0.0
 40
0.0
 40
0.1098865143
 40
0.2213932908
 40
0.336063432
 40
0.4553037777
 40
0.5170511403
 40
0.5803897997
 40
0.7123040909
 40
0.8519497894
 40
1.0
 40
1.0
 40
1.0
 40
1.0
 10
12.1988738458
 20
9.9791017142
 30
0.0
 10
12.1988738485
 20
9.9797663894
 30
0.0
 10
12.1989591829
 20
9.9811070423
 30
0.0
 10
12.1993419438
 20
9.9831084169
 30
0.0
 10
12.199978298
 20
9.9851034097
 30
0.0
 10
12.2007100142
 20
9.9867392057
 30
0.0
 10
12.2014141329
 20
9.9880390949
 30
0.0
 10
12.2022203753
 20
9.9893688521
 30
0.0
 10
12.2033911019
 20
9.9910255361
 30
0.0
 10
12.2050232605
 20
9.9929723484
 30
0.0
 10
12.2062371443
 20
9.9942215455
 30
0.0
 10
12.2068812493
 20
9.9948437033
 30
0.0
  0
SPLINE
  5
3E2
100
AcDbEntity
  8
0
100
AcDbSpline
 62
7
  6
CONTINUOUS
 70
0
 71
3
 72
69
 73
65
 74
0
 42
0.0000001
 43
0.0000001
 44
0.0000000001
 40
0.0
 40
0.0
 40
0.0
 40
0.0
 40
0.0155844514
 40
0.0311164958
 40
0.046596033
 40
0.0620249362
 40
0.0774047641
 40
0.0927378569
 40
0.1080269576
 40
0.123275266
 40
0.1384864062
 40
0.153664385
 40
0.1688135563
 40
0.1839385764
 40
0.1990443578
 40
0.2141360176
 40
0.2292188235
 40
0.2442981374
 40
0.2593793583
 40
0.2744678645
 40
0.289568957
 40
0.3046878029
 40
0.3198293806
 40
0.3349984272
 40
0.3501993899
 40
0.3654363818
 40
0.3807131419
 40
0.3960329989
 40
0.4113988402
 40
0.4268130857
 40
0.4422776684
 40
0.4577940208
 40
0.4733630656
 40
0.4889852114
 40
0.5046603533
 40
0.5203878786
 40
0.5361666795
 40
0.5519951681
 40
0.5678712954
 40
0.5837925735
 40
0.5997561014
 40
0.6157585964
 40
0.6317964263
 40
0.647865644
 40
0.6639620234
 40
0.6800810983
 40
0.7123600122
 40
0.7446719581
 40
0.7608320198
 40
0.7769852785
 40
0.7931267708
 40
0.8092516359
 40
0.8253551583
 40
0.8414328088
 40
0.8574802861
 40
0.8734935573
 40
0.8894688931
 40
0.9054029073
 40
0.9212925817
 40
0.9371352945
 40
0.9529289268
 40
0.968671524
 40
0.9843624254
 40
1.0
 40
1.0
 40
1.0
 40
1.0
 10
10.7509020714
 20
7.7931661869
 30
0.0
 10
10.7509020714
 20
7.8005337043
 30
0.0
 10
10.7512626389
 20
7.8152465757
 30
0.0
 10
10.7528901815
 20
7.8372231698
 30
0.0
 10
10.7555998707
 20
7.8590192624
 30
0.0
 10
10.7593849828
 20
7.8805814217
 30
0.0
 10
10.7642366232
 20
7.9018580422
 30
0.0
 10
10.7701430917
 20
7.9227977092
 30
0.0
 10
10.7770902211
 20
7.9433499711
 30
0.0
 10
10.7850612953
 20
7.9634652671
 30
0.0
 10
10.7940371374
 20
7.9830950893
 30
0.0
 10
10.8039961504
 20
8.0021920904
 30
0.0
 10
10.8149143663
 20
8.0207101969
 30
0.0
 10
10.8267654898
 20
8.0386047297
 30
0.0
 10
10.8395209469
 20
8.0558325268
 30
0.0
 10
10.8531499874
 20
8.0723520286
 30
0.0
 10
10.8676197519
 20
8.0881233815
 30
0.0
 10
10.8828953521
 20
8.1031085336
 30
0.0
 10
10.8989399534
 20
8.1172713258
 30
0.0
 10
10.9157148395
 20
8.1305776128
 30
0.0
 10
10.9331795362
 20
8.142995318
 30
0.0
 10
10.9512919098
 20
8.1544945089
 30
0.0
 10
10.9700082677
 20
8.1650474708
 30
0.0
 10
10.9892834669
 20
8.1746287659
 30
0.0
 10
11.009071006
 20
8.1832153287
 30
0.0
 10
11.0293231519
 20
8.1907865077
 30
0.0
 10
11.0499910626
 20
8.1973240959
 30
0.0
 10
11.071024903
 20
8.2028123782
 30
0.0
 10
11.0923739647
 20
8.2072381625
 30
0.0
 10
11.1139867834
 20
8.2105908281
 30
0.0
 10
11.1358112638
 20
8.2128623678
 30
0.0
 10
11.1577948137
 20
8.2140473684
 30
0.0
 10
11.1798844671
 20
8.2141430288
 30
0.0
 10
11.2020270104
 20
8.2131491642
 30
0.0
 10
11.2241691072
 20
8.2110682055
 30
0.0
 10
11.2462574311
 20
8.207905232
 30
0.0
 10
11.268238794
 20
8.2036679185
 30
0.0
 10
11.2900602709
 20
8.1983665155
 30
0.0
 10
11.3116693262
 20
8.1920138259
 30
0.0
 10
11.3330139337
 20
8.184625169
 30
0.0
 10
11.3540427165
 20
8.1762183747
 30
0.0
 10
11.3747050546
 20
8.1668137349
 30
0.0
 10
11.3949512492
 20
8.1564338945
 30
0.0
 10
11.4147324561
 20
8.1451039614
 30
0.0
 10
11.4340014935
 20
8.1328508509
 30
0.0
 10
11.4589560479
 20
8.1153170424
 30
0.0
 10
11.4886337729
 20
8.091245562
 30
0.0
 10
11.5159971787
 20
8.0645452423
 30
0.0
 10
11.5363540894
 20
8.0417519802
 30
0.0
 10
11.5508197207
 20
8.0239796393
 30
0.0
 10
11.5644449614
 20
8.0055763406
 30
0.0
 10
11.5771974243
 20
7.9865859849
 30
0.0
 10
11.589046284
 20
7.9670543792
 30
0.0
 10
11.5999630161
 20
7.9470284951
 30
0.0
 10
11.609921318
 20
7.9265565426
 30
0.0
 10
11.6188972068
 20
7.9056877981
 30
0.0
 10
11.6268690504
 20
7.8844724912
 30
0.0
 10
11.6338176216
 20
7.8629616842
 30
0.0
 10
11.6397261386
 20
7.841207161
 30
0.0
 10
11.6445803545
 20
7.8192612582
 30
0.0
 10
11.6483684792
 20
7.7971769388
 30
0.0
 10
11.6510815147
 20
7.7750070075
 30
0.0
 10
11.6527126342
 20
7.7528057715
 30
0.0
 10
11.6530768917
 20
7.7379927819
 30
0.0
 10
11.6530768917
 20
7.7306001507
 30
0.0
  0
SPLINE
  5
3E3
100
AcDbEntity
  8
0
100
AcDbSpline
 62
7
  6
CONTINUOUS
 70
0
 71
3
 72
63
 73
59
 74
0
 42
0.0000001
 43
0.0000001
 44
0.0000000001
 40
0.0
 40
0.0
 40
0.0
 40
0.0
 40
0.0028779418
 40
0.0058268358
 40
0.0119924137
 40
0.0186038559
 40
0.0257417171
 40
0.0334665163
 40
0.0418219651
 40
0.0508382752
 40
0.0605349531
 40
0.0709229159
 40
0.0820061836
 40
0.0937832106
 40
0.106247797
 40
0.1193897763
 40
0.1331956598
 40
0.1476490613
 40
0.162730973
 40
0.1784201169
 40
0.1946931966
 40
0.2115250288
 40
0.2288887372
 40
0.2467559483
 40
0.2650968846
 40
0.2838804677
 40
0.3030744887
 40
0.3226457002
 40
0.3425598792
 40
0.3832753916
 40
0.4249330552
 40
0.4672350339
 40
0.5098774364
 40
0.5525532061
 40
0.5949549757
 40
0.6367779213
 40
0.6777226506
 40
0.717498117
 40
0.7368598853
 40
0.755825519
 40
0.7743623443
 40
0.7924387686
 40
0.8100244437
 40
0.8270903764
 40
0.8436090122
 40
0.8595544135
 40
0.8749024573
 40
0.8896309536
 40
0.9037198685
 40
0.917151659
 40
0.929911528
 40
0.9419877917
 40
0.9533724571
 40
0.9640618902
 40
0.9740575139
 40
0.9833669943
 40
0.9920063421
 40
1.0
 40
1.0
 40
1.0
 40
1.0
 10
12.8728886358
 20
10.0156959547
 30
0.0
 10
12.872670841
 20
10.01653687
 30
0.0
 10
12.8721608026
 20
10.0182223188
 30
0.0
 10
12.8708493349
 20
10.0215991579
 30
0.0
 10
12.8686453695
 20
10.0258218138
 30
0.0
 10
12.8652007342
 20
10.030764197
 30
0.0
 10
12.8609276902
 20
10.0356527641
 30
0.0
 10
12.8558361419
 20
10.0404807527
 30
0.0
 10
12.8499358066
 20
10.0452421282
 30
0.0
 10
12.8432374203
 20
10.0499296122
 30
0.0
 10
12.8357530217
 20
10.0545354359
 30
0.0
 10
12.8274962453
 20
10.0590514846
 30
0.0
 10
12.8184823316
 20
10.0634695144
 30
0.0
 10
12.808728083
 20
10.0677812231
 30
0.0
 10
12.798251855
 20
10.0719783942
 30
0.0
 10
12.787073515
 20
10.0760529974
 30
0.0
 10
12.7752143467
 20
10.0799971631
 30
0.0
 10
12.7626970047
 20
10.0838032307
 30
0.0
 10
12.7495454819
 20
10.087463839
 30
0.0
 10
12.7357850283
 20
10.0909718851
 30
0.0
 10
12.7214420883
 20
10.0943205336
 30
0.0
 10
12.7065442649
 20
10.0975032839
 30
0.0
 10
12.6911202548
 20
10.1005139672
 30
0.0
 10
12.6751997747
 20
10.1033467223
 30
0.0
 10
12.6588135148
 20
10.1059960367
 30
0.0
 10
12.641993079
 20
10.1084567875
 30
0.0
 10
12.6247709203
 20
10.1107241863
 30
0.0
 10
12.6071802349
 20
10.1127938422
 30
0.0
 10
12.5831026208
 20
10.1153027316
 30
0.0
 10
12.5523352057
 20
10.1179063903
 30
0.0
 10
12.5147684847
 20
10.1201671362
 30
0.0
 10
12.4765779219
 20
10.1215688752
 30
0.0
 10
12.4380581364
 20
10.1221006829
 30
0.0
 10
12.3995060726
 20
10.1217583383
 30
0.0
 10
12.3612190161
 20
10.1205445639
 30
0.0
 10
12.3234920823
 20
10.1184688744
 30
0.0
 10
12.2866162787
 20
10.1155474991
 30
0.0
 10
12.2565686789
 20
10.1124000625
 30
0.0
 10
12.2331774123
 20
10.1094643136
 30
0.0
 10
12.2161786759
 20
10.1070868432
 30
0.0
 10
12.1996001616
 20
10.1045187185
 30
0.0
 10
12.1834738225
 20
10.1017648721
 30
0.0
 10
12.1678307581
 20
10.098830667
 30
0.0
 10
12.1527011112
 20
10.0957218154
 30
0.0
 10
12.1381140326
 20
10.0924443458
 30
0.0
 10
12.1240976064
 20
10.0890046156
 30
0.0
 10
12.1106787823
 20
10.0854093292
 30
0.0
 10
12.0978833387
 20
10.0816654675
 30
0.0
 10
12.0857358242
 20
10.0777802729
 30
0.0
 10
12.0742594738
 20
10.0737612965
 30
0.0
 10
12.0634761744
 20
10.0696163157
 30
0.0
 10
12.0534064227
 20
10.065353282
 30
0.0
 10
12.0440692278
 20
10.0609803591
 30
0.0
 10
12.0354820599
 20
10.0565057983
 30
0.0
 10
12.0276609307
 20
10.0519379423
 30
0.0
 10
12.0206198588
 20
10.0472847844
 30
0.0
 10
12.0143723935
 20
10.0425548694
 30
0.0
 10
12.0106018322
 20
10.0392301103
 30
0.0
 10
12.0088664432
 20
10.0375538532
 30
0.0
  0
SPLINE
  5
3E4
100
AcDbEntity
  8
0
100
AcDbSpline
 62
7
  6
CONTINUOUS
 70
0
 71
3
 72
60
 73
56
 74
0
 42
0.0000001
 43
0.0000001
 44
0.0000000001
 40
0.0
 40
0.0
 40
0.0
 40
0.0
 40
0.0028080811
 40
0.0056358509
 40
0.0085025522
 40
0.0114265654
 40
0.0175099401
 40
0.0240113047
 40
0.0310267094
 40
0.0386289617
 40
0.046871182
 40
0.0557905012
 40
0.0654112238
 40
0.0757477553
 40
0.0868063819
 40
0.0985869364
 40
0.1110840349
 40
0.1242876933
 40
0.1381842857
 40
0.1527568743
 40
0.1679856089
 40
0.1838482363
 40
0.2003201016
 40
0.2173745888
 40
0.2349832535
 40
0.2531158837
 40
0.2908239677
 40
0.3302307943
 40
0.3710488152
 40
0.4129759106
 40
0.4556987815
 40
0.4988962433
 40
0.5422424758
 40
0.5854102098
 40
0.6280739067
 40
0.6699129754
 40
0.7106150025
 40
0.7498790376
 40
0.7874190126
 40
0.8054586931
 40
0.8229687712
 40
0.8399194191
 40
0.8562824155
 40
0.872031551
 40
0.8871425954
 40
0.9015936359
 40
0.9153654347
 40
0.9284415313
 40
0.9408089377
 40
0.9524585285
 40
0.9633857047
 40
0.9735913493
 40
0.9830831457
 40
0.9918776543
 40
1.0
 40
1.0
 40
1.0
 40
1.0
 10
12.6688738181
 20
9.9791017142
 30
0.0
 10
12.66887382
 20
9.979558241
 30
0.0
 10
12.668833855
 20
9.9804749919
 30
0.0
 10
12.6686542229
 20
9.9818471988
 30
0.0
 10
12.668355012
 20
9.9832177663
 30
0.0
 10
12.6677899382
 20
9.9850655773
 30
0.0
 10
12.6667670512
 20
9.9873813809
 30
0.0
 10
12.6650831726
 20
9.9900966425
 30
0.0
 10
12.6629332122
 20
9.9927827068
 30
0.0
 10
12.6603230835
 20
9.9954359622
 30
0.0
 10
12.6572582419
 20
9.9980532002
 30
0.0
 10
12.6537445681
 20
10.00063043
 30
0.0
 10
12.6497887071
 20
10.0031634237
 30
0.0
 10
12.6453981174
 20
10.0056475364
 30
0.0
 10
12.6405812519
 20
10.008078096
 30
0.0
 10
12.6353474859
 20
10.0104503732
 30
0.0
 10
12.6297070954
 20
10.0127596049
 30
0.0
 10
12.6236712752
 20
10.0150012129
 30
0.0
 10
12.6172520439
 20
10.0171706295
 30
0.0
 10
12.6104622473
 20
10.0192634534
 30
0.0
 10
12.6033155163
 20
10.0212754634
 30
0.0
 10
12.5958262164
 20
10.0232025143
 30
0.0
 10
12.5880094372
 20
10.0250407223
 30
0.0
 10
12.5798809441
 20
10.0267863252
 30
0.0
 10
12.571457125
 20
10.028435776
 30
0.0
 10
12.5597005351
 20
10.0305296482
 30
0.0
 10
12.5443908223
 20
10.032870834
 30
0.0
 10
12.5253591188
 20
10.0352146113
 30
0.0
 10
12.5055883537
 20
10.0371086032
 30
0.0
 10
12.4852382629
 20
10.0385372494
 30
0.0
 10
12.4644731364
 20
10.0394887577
 30
0.0
 10
12.4434607489
 20
10.0399553099
 30
0.0
 10
12.4223708883
 20
10.0399330672
 30
0.0
 10
12.4013739849
 20
10.0394222101
 30
0.0
 10
12.3806396993
 20
10.0384269343
 30
0.0
 10
12.3603355506
 20
10.036955436
 30
0.0
 10
12.3406254474
 20
10.0350198595
 30
0.0
 10
12.3216686316
 20
10.032636107
 30
0.0
 10
12.3064303495
 20
10.0302622992
 30
0.0
 10
12.2947376924
 20
10.0281431841
 30
0.0
 10
12.2863663209
 20
10.0264759756
 30
0.0
 10
12.2782933011
 20
10.0247132845
 30
0.0
 10
12.2705349137
 20
10.022858626
 30
0.0
 10
12.2631067994
 20
10.0209158299
 30
0.0
 10
12.2560239173
 20
10.0188888301
 30
0.0
 10
12.2493005099
 20
10.0167817392
 30
0.0
 10
12.2429500554
 20
10.0145988823
 30
0.0
 10
12.2369852659
 20
10.0123446326
 30
0.0
 10
12.2314180065
 20
10.0100235796
 30
0.0
 10
12.226259291
 20
10.0076403787
 30
0.0
 10
12.2215192744
 20
10.0051996932
 30
0.0
 10
12.2172071556
 20
10.0027063915
 30
0.0
 10
12.2133310352
 20
10.0001649522
 30
0.0
 10
12.2098987653
 20
9.9975802764
 30
0.0
 10
12.2078310244
 20
9.9957611156
 30
0.0
 10
12.2068812493
 20
9.9948437033
 30
0.0
  0
SPLINE
  5
3E5
100
AcDbEntity
  8
0
100
AcDbSpline
 62
7
  6
CONTINUOUS
 70
0
 71
3
 72
23
 73
19
 74
0
 42
0.0000001
 43
0.0000001
 44
0.0000000001
 40
0.0
 40
0.0
 40
0.0
 40
0.0
 40
0.0637770475
 40
0.1273448957
 40
0.1907019676
 40
0.2538561301
 40
0.3168131969
 40
0.3795820893
 40
0.4421733857
 40
0.5045993357
 40
0.5668738673
 40
0.6290123829
 40
0.6910316518
 40
0.7529496446
 40
0.8147853543
 40
0.8765586057
 40
0.9382898574
 40
1.0
 40
1.0
 40
1.0
 40
1.0
 10
8.2423927347
 20
7.3035407833
 30
0.0
 10
8.2423927347
 20
7.3103294246
 30
0.0
 10
8.2427176715
 20
7.3238867396
 30
0.0
 10
8.2441842444
 20
7.3441402381
 30
0.0
 10
8.2466261111
 20
7.3642331894
 30
0.0
 10
8.2500374241
 20
7.3841184272
 30
0.0
 10
8.2544105589
 20
7.4037504815
 30
0.0
 10
8.259735418
 20
7.4230839705
 30
0.0
 10
8.265999756
 20
7.4420743556
 30
0.0
 10
8.273189176
 20
7.4606778437
 30
0.0
 10
8.2812871439
 20
7.4788515275
 30
0.0
 10
8.2902750501
 20
7.496553476
 30
0.0
 10
8.3001321727
 20
7.513742861
 30
0.0
 10
8.3108358047
 20
7.5303800437
 30
0.0
 10
8.322361248
 20
7.5464266069
 30
0.0
 10
8.3346820864
 20
7.5618456429
 30
0.0
 10
8.3477694247
 20
7.5766010939
 30
0.0
 10
8.3569869281
 20
7.5859747119
 30
0.0
 10
8.361711446
 20
7.590538249
 30
0.0
  0
SPLINE
  5
3E6
100
AcDbEntity
  8
0
100
AcDbSpline
 62
7
  6
CONTINUOUS
 70
0
 71
3
 72
20
 73
16
 74
0
 42
0.0000001
 43
0.0000001
 44
0.0000000001
 40
0.0
 40
0.0
 40
0.0
 40
0.0
 40
0.0731088236
 40
0.1536181218
 40
0.244265303
 40
0.2944763941
 40
0.3486272464
 40
0.4073418895
 40
0.4713302443
 40
0.5413764165
 40
0.6182852538
 40
0.7027439631
 40
0.7950475654
 40
0.8946899058
 40
1.0
 40
1.0
 40
1.0
 40
1.0
 10
10.9412738081
 20
7.8583870041
 30
0.0
 10
10.9427416593
 20
7.8578562115
 30
0.0
 10
10.9457498382
 20
7.8565205609
 30
0.0
 10
10.9502098529
 20
7.8537926328
 30
0.0
 10
10.9539160645
 20
7.8508401879
 30
0.0
 10
10.9569445126
 20
7.847980813
 30
0.0
 10
10.9593396173
 20
7.8454511987
 30
0.0
 10
10.9617840347
 20
7.8425710999
 30
0.0
 10
10.9642790021
 20
7.8392961465
 30
0.0
 10
10.9668221215
 20
7.8355769263
 30
0.0
 10
10.9694046056
 20
7.8313625442
 30
0.0
 10
10.9720065584
 20
7.8266102456
 30
0.0
 10
10.9745916401
 20
7.8213028849
 30
0.0
 10
10.9771039516
 20
7.8154725992
 30
0.0
 10
10.9786546669
 20
7.8113790834
 30
0.0
 10
10.9794067746
 20
7.8092602373
 30
0.0
  0
SPLINE
  5
3E7
100
AcDbEntity
  8
0
100
AcDbSpline
 62
7
  6
CONTINUOUS
 70
0
 71
3
 72
78
 73
74
 74
0
 42
0.0000001
 43
0.0000001
 44
0.0000000001
 40
0.0
 40
0.0
 40
0.0
 40
0.0
 40
0.002716437
 40
0.0054532499
 40
0.0082303258
 40
0.0110666193
 40
0.0139798357
 40
0.0169861462
 40
0.0201001074
 40
0.0233346342
 40
0.0267009841
 40
0.0302089392
 40
0.033866861
 40
0.0376818191
 40
0.0416598027
 40
0.0458057327
 40
0.0501236562
 40
0.0546168619
 40
0.0592878722
 40
0.0641386486
 40
0.0691705883
 40
0.0743845602
 40
0.0853594804
 40
0.0970633454
 40
0.1094900995
 40
0.122629366
 40
0.1364670611
 40
0.1509858974
 40
0.166165815
 40
0.1819842919
 40
0.1984165668
 40
0.2154358706
 40
0.2330136396
 40
0.2511196715
 40
0.2697222404
 40
0.2887882524
 40
0.3082833865
 40
0.328172201
 40
0.3484182245
 40
0.3689840851
 40
0.4109212248
 40
0.4536713576
 40
0.4969134981
 40
0.540321922
 40
0.5835693174
 40
0.6263299118
 40
0.6682826143
 40
0.6888581262
 40
0.7091150154
 40
0.7290158802
 40
0.7485242227
 40
0.767604568
 40
0.7862225538
 40
0.8043450413
 40
0.8219402657
 40
0.8389779735
 40
0.8554295416
 40
0.8712681371
 40
0.88646894
 40
0.9010093515
 40
0.9148692219
 40
0.9280311672
 40
0.9404810055
 40
0.9522082213
 40
0.9632066157
 40
0.9684323229
 40
0.97347594
 40
0.978338293
 40
0.9830207537
 40
0.9875253474
 40
0.9918546279
 40
0.9960116289
 40
1.0
 40
1.0
 40
1.0
 40
1.0
 10
13.6741435709
 20
9.2361985306
 30
0.0
 10
13.6750300999
 20
9.2361370504
 30
0.0
 10
13.6768052704
 20
9.235933409
 30
0.0
 10
13.6794454239
 20
9.2353884084
 30
0.0
 10
13.6820656151
 20
9.234603983
 30
0.0
 10
13.6846640083
 20
9.2335809563
 30
0.0
 10
13.6872392104
 20
9.2323201239
 30
0.0
 10
13.6897899455
 20
9.2308225707
 30
0.0
 10
13.6923150303
 20
9.2290893326
 30
0.0
 10
13.6948133048
 20
9.2271214677
 30
0.0
 10
13.6972837513
 20
9.2249201971
 30
0.0
 10
13.6997252565
 20
9.2224866681
 30
0.0
 10
13.7021367592
 20
9.2198221622
 30
0.0
 10
13.7045172325
 20
9.2169280608
 30
0.0
 10
13.7068655322
 20
9.2138057579
 30
0.0
 10
13.7091806221
 20
9.2104568325
 30
0.0
 10
13.7114614156
 20
9.2068829293
 30
0.0
 10
13.7137067776
 20
9.2030857831
 30
0.0
 10
13.71591569
 20
9.1990672962
 30
0.0
 10
13.7180870293
 20
9.1948294343
 30
0.0
 10
13.7202197561
 20
9.190374286
 30
0.0
 10
13.7230591339
 20
9.18403862
 30
0.0
 10
13.72649274
 20
9.1755808802
 30
0.0
 10
13.7303752455
 20
9.1647697524
 30
0.0
 10
13.7340796389
 20
9.1531510959
 30
0.0
 10
13.7375984629
 20
9.1407480368
 30
0.0
 10
13.7409246123
 20
9.1275850843
 30
0.0
 10
13.7440513544
 20
9.1136884587
 30
0.0
 10
13.7469723346
 20
9.0990858837
 30
0.0
 10
13.7496815986
 20
9.0838065536
 30
0.0
 10
13.7521736372
 20
9.0678810684
 30
0.0
 10
13.7544433874
 20
9.0513413618
 30
0.0
 10
13.7564862269
 20
9.0342206166
 30
0.0
 10
13.758297985
 20
9.0165531996
 30
0.0
 10
13.7598749802
 20
8.9983745973
 30
0.0
 10
13.7612140079
 20
8.9797213385
 30
0.0
 10
13.7623123398
 20
8.960630906
 30
0.0
 10
13.7631677179
 20
8.9411416787
 30
0.0
 10
13.7637784311
 20
8.9212928074
 30
0.0
 10
13.7642678699
 20
8.8942260264
 30
0.0
 10
13.7642515589
 20
8.8597897571
 30
0.0
 10
13.7632508069
 20
8.8179471635
 30
0.0
 10
13.7612762329
 20
8.7756573289
 30
0.0
 10
13.7583436287
 20
8.733260142
 30
0.0
 10
13.7544765328
 20
8.6910960593
 30
0.0
 10
13.7497061201
 20
8.6495039474
 30
0.0
 10
13.7449803119
 20
8.6153817069
 30
0.0
 10
13.7407682399
 20
8.588628244
 30
0.0
 10
13.7374298108
 20
8.5690418003
 30
0.0
 10
13.7338984765
 20
8.5498440788
 30
0.0
 10
13.7301813294
 20
8.5310736439
 30
0.0
 10
13.7262858907
 20
8.5127682241
 30
0.0
 10
13.7222200236
 20
8.4949646004
 30
0.0
 10
13.7179919301
 20
8.4776985441
 30
0.0
 10
13.7136101514
 20
8.4610047276
 30
0.0
 10
13.7090835501
 20
8.4449166511
 30
0.0
 10
13.7044212743
 20
8.4294665857
 30
0.0
 10
13.6996327345
 20
8.4146855041
 30
0.0
 10
13.6947276113
 20
8.4006029942
 30
0.0
 10
13.6897158211
 20
8.3872471969
 30
0.0
 10
13.6846074774
 20
8.3746447466
 30
0.0
 10
13.6794128599
 20
8.3628207343
 30
0.0
 10
13.6741423919
 20
8.3517985062
 30
0.0
 10
13.6688066493
 20
8.341599988
 30
0.0
 10
13.6642399319
 20
8.3336742179
 30
0.0
 10
13.6605542132
 20
8.3277724071
 30
0.0
 10
13.6578275038
 20
8.3236402051
 30
0.0
 10
13.6550924905
 20
8.319728416
 30
0.0
 10
13.6523504436
 20
8.3160389637
 30
0.0
 10
13.6496027169
 20
8.3125736075
 30
0.0
 10
13.6468505639
 20
8.3093340888
 30
0.0
 10
13.6440955353
 20
8.306322163
 30
0.0
 10
13.6422196411
 20
8.3044283697
 30
0.0
 10
13.6412811864
 20
8.303521892
 30
0.0
  0
SPLINE
  5
3E8
100
AcDbEntity
  8
0
100
AcDbSpline
 62
7
  6
CONTINUOUS
 70
0
 71
3
 72
15
 73
11
 74
0
 42
0.0000001
 43
0.0000001
 44
0.0000000001
 40
0.0
 40
0.0
 40
0.0
 40
0.0
 40
0.1234434203
 40
0.2472299795
 40
0.3714208982
 40
0.4960697372
 40
0.6212214018
 40
0.7469116137
 40
0.8731658376
 40
1.0
 40
1.0
 40
1.0
 40
1.0
 10
11.1251295535
 20
8.1836383859
 30
0.0
 10
11.1211517656
 20
8.1771430181
 30
0.0
 10
11.113642348
 20
8.1638478989
 30
0.0
 10
11.103792536
 20
8.1431357944
 30
0.0
 10
11.0953839241
 20
8.1217169274
 30
0.0
 10
11.0884542322
 20
8.0996871239
 30
0.0
 10
11.0830336365
 20
8.0771433552
 30
0.0
 10
11.0791459241
 20
8.0541848204
 30
0.0
 10
11.0768080065
 20
8.0309140722
 30
0.0
 10
11.0762905354
 20
8.0152931161
 30
0.0
 10
11.0762905354
 20
8.0074673032
 30
0.0
  0
SPLINE
  5
3E9
100
AcDbEntity
  8
0
100
AcDbSpline
 62
7
  6
CONTINUOUS
 70
0
 71
3
 72
15
 73
11
 74
0
 42
0.0000001
 43
0.0000001
 44
0.0000000001
 40
0.0
 40
0.0
 40
0.0
 40
0.0
 40
0.1235559626
 40
0.2474581565
 40
0.3717469323
 40
0.4964570555
 40
0.6216180455
 40
0.7472515535
 40
0.8733769021
 40
1.0
 40
1.0
 40
1.0
 40
1.0
 10
11.0677666919
 20
8.1710626867
 30
0.0
 10
11.0644498468
 20
8.1645593602
 30
0.0
 10
11.0581997949
 20
8.1513298195
 30
0.0
 10
11.0500240459
 20
8.1309298985
 30
0.0
 10
11.0430606266
 20
8.1100123584
 30
0.0
 10
11.0373326856
 20
8.0886466548
 30
0.0
 10
11.0328588308
 20
8.0669026296
 30
0.0
 10
11.0296535125
 20
8.0448512061
 30
0.0
 10
11.0277272928
 20
8.0225656399
 30
0.0
 10
11.0273007468
 20
8.0076283435
 30
0.0
 10
11.0273007468
 20
8.0001467983
 30
0.0
  0
SPLINE
  5
3EA
100
AcDbEntity
  8
0
100
AcDbSpline
 62
7
  6
CONTINUOUS
 70
0
 71
3
 72
15
 73
11
 74
0
 42
0.0000001
 43
0.0000001
 44
0.0000000001
 40
0.0
 40
0.0
 40
0.0
 40
0.0
 40
0.1234305753
 40
0.2472017954
 40
0.3713784993
 40
0.4960175318
 40
0.6211665356
 40
0.7468637073
 40
0.8731355821
 40
1.0
 40
1.0
 40
1.0
 40
1.0
 10
11.0480380509
 20
8.1646815508
 30
0.0
 10
11.0434488451
 20
8.1573837291
 30
0.0
 10
11.0347824551
 20
8.1424304622
 30
0.0
 10
11.0234099008
 20
8.1190946348
 30
0.0
 10
11.0136976348
 20
8.0949281789
 30
0.0
 10
11.0056910955
 20
8.070043808
 30
0.0
 10
10.9994266096
 20
8.044555717
 30
0.0
 10
10.9949328664
 20
8.0185808546
 30
0.0
 10
10.9922301905
 20
7.992240151
 30
0.0
 10
10.9916320264
 20
7.9745541378
 30
0.0
 10
10.9916320264
 20
7.9656934581
 30
0.0
  0
SPLINE
  5
3EB
100
AcDbEntity
  8
0
100
AcDbSpline
 62
7
  6
CONTINUOUS
 70
0
 71
3
 72
17
 73
13
 74
0
 42
0.0000001
 43
0.0000001
 44
0.0000000001
 40
0.0
 40
0.0
 40
0.0
 40
0.0
 40
0.1235259055
 40
0.1854237095
 40
0.2474141071
 40
0.3716789688
 40
0.4963735658
 40
0.5588994994
 40
0.6215444743
 40
0.7471873879
 40
0.8733362334
 40
1.0
 40
1.0
 40
1.0
 40
1.0
 10
11.0097841581
 20
8.1488064143
 30
0.0
 10
11.0060543661
 20
8.1417674372
 30
0.0
 10
11.0007845246
 20
8.1310220863
 30
0.0
 10
10.9944333074
 20
8.1163831406
 30
0.0
 10
10.9885210515
 20
8.1015095797
 30
0.0
 10
10.9819816351
 20
8.0825386708
 30
0.0
 10
10.9766099108
 20
8.0631689863
 30
0.0
 10
10.9730168453
 20
8.0474588331
 30
0.0
 10
10.9698905844
 20
8.0315868821
 30
0.0
 10
10.9668773169
 20
8.0115205497
 30
0.0
 10
10.9647064487
 20
7.9871974468
 30
0.0
 10
10.9642257508
 20
7.9708894725
 30
0.0
 10
10.9642257508
 20
7.9627210271
 30
0.0
  0
SPLINE
  5
3EC
100
AcDbEntity
  8
0
100
AcDbSpline
 62
7
  6
CONTINUOUS
 70
0
 71
3
 72
23
 73
19
 74
0
 42
0.0000001
 43
0.0000001
 44
0.0000000001
 40
0.0
 40
0.0
 40
0.0
 40
0.0
 40
0.0617101439
 40
0.1234413935
 40
0.1852146431
 40
0.2470503547
 40
0.3089683495
 40
0.3709876176
 40
0.4331261309
 40
0.4954006615
 40
0.5578266134
 40
0.6204179128
 40
0.6831867943
 40
0.7461438773
 40
0.8092980348
 40
0.872655047
 40
0.9362230873
 40
1.0
 40
1.0
 40
1.0
 40
1.0
 10
10.9123479644
 20
8.0806472566
 30
0.0
 10
10.9077254385
 20
8.0761822582
 30
0.0
 10
10.8987069594
 20
8.0670110003
 30
0.0
 10
10.8859021713
 20
8.0525741301
 30
0.0
 10
10.8738473195
 20
8.0374880111
 30
0.0
 10
10.862570698
 20
8.0217879052
 30
0.0
 10
10.8520981617
 20
8.0055099193
 30
0.0
 10
10.8424538565
 20
7.9886916555
 30
0.0
 10
10.8336599893
 20
7.9713719012
 30
0.0
 10
10.8257368391
 20
7.9535905981
 30
0.0
 10
10.8187026412
 20
7.9353887608
 30
0.0
 10
10.8125735534
 20
7.9168083809
 30
0.0
 10
10.807363653
 20
7.8978923057
 30
0.0
 10
10.8030849243
 20
7.8786841125
 30
0.0
 10
10.7997472635
 20
7.8592282048
 30
0.0
 10
10.7973581113
 20
7.8395690504
 30
0.0
 10
10.7959232096
 20
7.8197528277
 30
0.0
 10
10.7956052821
 20
7.8064882114
 30
0.0
 10
10.7956052821
 20
7.7998461519
 30
0.0
  0
SPLINE
  5
3ED
100
AcDbEntity
  8
0
100
AcDbSpline
 62
7
  6
CONTINUOUS
 70
0
 71
3
 72
23
 73
19
 74
0
 42
0.0000001
 43
0.0000001
 44
0.0000000001
 40
0.0
 40
0.0
 40
0.0
 40
0.0
 40
0.06183483
 40
0.1239222227
 40
0.186235848
 40
0.2487449804
 40
0.3114151336
 40
0.3742087491
 40
0.437085928
 40
0.5000051952
 40
0.5629242834
 40
0.6258009287
 40
0.6885936658
 40
0.7512626126
 40
0.813770234
 40
0.8760820691
 40
0.9381674432
 40
1.0
 40
1.0
 40
1.0
 40
1.0
 10
11.6016951426
 20
7.8866839447
 30
0.0
 10
11.5938209154
 20
7.8887530777
 30
0.0
 10
11.5781804435
 20
7.8934552016
 30
0.0
 10
11.5552267656
 20
7.902133667
 30
0.0
 10
11.5328431715
 20
7.9124087616
 30
0.0
 10
11.5111474809
 20
7.9242265474
 30
0.0
 10
11.4902519794
 20
7.9375255981
 30
0.0
 10
11.4702653167
 20
7.9522366897
 30
0.0
 10
11.4512912833
 20
7.9682833266
 30
0.0
 10
11.4334284562
 20
7.9855820919
 30
0.0
 10
11.4167696442
 20
8.0040430879
 30
0.0
 10
11.4014014204
 20
8.0235703973
 30
0.0
 10
11.3874036775
 20
8.0440625671
 30
0.0
 10
11.3748492063
 20
8.0654131781
 30
0.0
 10
11.3638033609
 20
8.0875112117
 30
0.0
 10
11.354323568
 20
8.110242291
 30
0.0
 10
11.3464595924
 20
8.1334867691
 30
0.0
 10
11.3423117367
 20
8.1492826932
 30
0.0
 10
11.3405214857
 20
8.1572246636
 30
0.0
  0
SPLINE
  5
3EE
100
AcDbEntity
  8
0
100
AcDbSpline
 62
7
  6
CONTINUOUS
 70
0
 71
3
 72
23
 73
19
 74
0
 42
0.0000001
 43
0.0000001
 44
0.0000000001
 40
0.0
 40
0.0
 40
0.0
 40
0.0
 40
0.061713824
 40
0.1237221498
 40
0.1859969692
 40
0.2485039937
 40
0.3112035247
 40
0.3740514198
 40
0.43700014
 40
0.4999998531
 40
0.5629995704
 40
0.6259483016
 40
0.6887962134
 40
0.7514957681
 40
0.8140028253
 40
0.8762776817
 40
0.9382860345
 40
1.0
 40
1.0
 40
1.0
 40
1.0
 10
11.6116627762
 20
7.8553586486
 30
0.0
 10
11.6023620627
 20
7.8572585652
 30
0.0
 10
11.5838564135
 20
7.8617934083
 30
0.0
 10
11.5566469288
 20
7.8707199799
 30
0.0
 10
11.5300794186
 20
7.8817331933
 30
0.0
 10
11.5043224624
 20
7.8947633379
 30
0.0
 10
11.4795367307
 20
7.9097287112
 30
0.0
 10
11.4558775526
 20
7.9265353779
 30
0.0
 10
11.4334929848
 20
7.9450779509
 30
0.0
 10
11.4125231827
 20
7.9652402316
 30
0.0
 10
11.3930994604
 20
7.9868959306
 30
0.0
 10
11.3753435077
 20
8.0099094563
 30
0.0
 10
11.3593665886
 20
8.0341366983
 30
0.0
 10
11.3452688625
 20
8.0594260164
 30
0.0
 10
11.3331388254
 20
8.0856189252
 30
0.0
 10
11.3230525927
 20
8.1125520329
 30
0.0
 10
11.3150740215
 20
8.140054468
 30
0.0
 10
11.3111829932
 20
8.1587061373
 30
0.0
 10
11.3096064427
 20
8.1680671125
 30
0.0
  0
SPLINE
  5
3EF
100
AcDbEntity
  8
0
100
AcDbSpline
 62
7
  6
CONTINUOUS
 70
0
 71
3
 72
42
 73
38
 74
0
 42
0.0000001
 43
0.0000001
 44
0.0000000001
 40
0.0
 40
0.0
 40
0.0
 40
0.0
 40
0.0299621581
 40
0.0449760066
 40
0.06001275
 40
0.0901574873
 40
0.1204141599
 40
0.1355902589
 40
0.1507982792
 40
0.1813095263
 40
0.2119586624
 40
0.2427494188
 40
0.2736829701
 40
0.3047579491
 40
0.3359705046
 40
0.3673144018
 40
0.3987811581
 40
0.4303602142
 40
0.4620391321
 40
0.4938038206
 40
0.5256387797
 40
0.5575273638
 40
0.5894520581
 40
0.6213947644
 40
0.6533370947
 40
0.6852606668
 40
0.7171474008
 40
0.7489798117
 40
0.7807412952
 40
0.8124164044
 40
0.8439911092
 40
0.8754530485
 40
0.9067917307
 40
0.9379987993
 40
0.9535528115
 40
0.9690722368
 40
1.0
 40
1.0
 40
1.0
 40
1.0
 10
11.6209406021
 20
7.670517607
 30
0.0
 10
11.6142741278
 20
7.6667427843
 30
0.0
 10
11.6040608465
 20
7.6614297798
 30
0.0
 10
11.5900901883
 20
7.655077817
 30
0.0
 10
11.5758608086
 20
7.6492034936
 30
0.0
 10
11.5576528809
 20
7.6427869137
 30
0.0
 10
11.53900791
 20
7.6376454375
 30
0.0
 10
11.5238645021
 20
7.6343029109
 30
0.0
 10
11.5085509859
 20
7.6314720307
 30
0.0
 10
11.4891760312
 20
7.6289135028
 30
0.0
 10
11.4656946462
 20
7.6274254473
 30
0.0
 10
11.4420580763
 20
7.6275220156
 30
0.0
 10
11.4183723736
 20
7.6292027323
 30
0.0
 10
11.3947428951
 20
7.6324598759
 30
0.0
 10
11.3712749495
 20
7.6372787662
 30
0.0
 10
11.3480730325
 20
7.6436377693
 30
0.0
 10
11.3252404478
 20
7.6515084152
 30
0.0
 10
11.3028788303
 20
7.6608555236
 30
0.0
 10
11.281087705
 20
7.671637363
 30
0.0
 10
11.2599640473
 20
7.6838058373
 30
0.0
 10
11.2396018567
 20
7.6973066998
 30
0.0
 10
11.2200917428
 20
7.7120797943
 30
0.0
 10
11.2015205261
 20
7.7280593214
 30
0.0
 10
11.183970855
 20
7.7451741295
 30
0.0
 10
11.1675208417
 20
7.7633480292
 30
0.0
 10
11.1522437171
 20
7.7825001303
 30
0.0
 10
11.1382075075
 20
7.8025451978
 30
0.0
 10
11.1254747339
 20
7.8233940298
 30
0.0
 10
11.1141021356
 20
7.8449538452
 30
0.0
 10
11.1041404178
 20
7.8671287122
 30
0.0
 10
11.0956340304
 20
7.8898198981
 30
0.0
 10
11.088620951
 20
7.9129265736
 30
0.0
 10
11.0831325991
 20
7.9363452561
 30
0.0
 10
11.0798462124
 20
7.9560578914
 30
0.0
 10
11.0780033913
 20
7.971878012
 30
0.0
 10
11.0766882957
 20
7.9876784675
 30
0.0
 10
11.0762905354
 20
7.9995593919
 30
0.0
 10
11.0762905354
 20
8.0074673032
 30
0.0
  0
SPLINE
  5
3F0
100
AcDbEntity
  8
0
100
AcDbSpline
 62
7
  6
CONTINUOUS
 70
0
 71
3
 72
42
 73
38
 74
0
 42
0.0000001
 43
0.0000001
 44
0.0000000001
 40
0.0
 40
0.0
 40
0.0
 40
0.0
 40
0.0300095244
 40
0.0450516821
 40
0.0601194639
 40
0.0903333788
 40
0.1206657909
 40
0.135881145
 40
0.1511289982
 40
0.1817206698
 40
0.212448646
 40
0.2433143228
 40
0.2743168053
 40
0.305452952
 40
0.3367174549
 40
0.3681029513
 40
0.3996001639
 40
0.4311980671
 40
0.4628840747
 40
0.4946442469
 40
0.5264635129
 40
0.5583259063
 40
0.5902148099
 40
0.6221132077
 40
0.6540039413
 40
0.6858699673
 40
0.7176946139
 40
0.7494618331
 40
0.7811564472
 40
0.8127643849
 40
0.8442729048
 40
0.8756708066
 40
0.906948614
 40
0.9380987641
 40
0.9536258808
 40
0.9691196229
 40
1.0
 40
1.0
 40
1.0
 40
1.0
 10
11.6064920337
 20
7.6136641178
 30
0.0
 10
11.5990375921
 20
7.6101761365
 30
0.0
 10
11.5876628569
 20
7.60532003
 30
0.0
 10
11.5721879097
 20
7.5996239803
 30
0.0
 10
11.5564756182
 20
7.5944357898
 30
0.0
 10
11.5364649429
 20
7.5889323643
 30
0.0
 10
11.5160919802
 20
7.5847695389
 30
0.0
 10
11.4996081566
 20
7.5822461952
 30
0.0
 10
11.4829795008
 20
7.5802594542
 30
0.0
 10
11.4620153874
 20
7.5787985552
 30
0.0
 10
11.436716522
 20
7.5786864349
 30
0.0
 10
11.4113503471
 20
7.5802132698
 30
0.0
 10
11.3860229881
 20
7.583372624
 30
0.0
 10
11.3608394998
 20
7.5881511741
 30
0.0
 10
11.3359045489
 20
7.5945289136
 30
0.0
 10
11.311321682
 20
7.6024792016
 30
0.0
 10
11.2871929819
 20
7.6119688859
 30
0.0
 10
11.263618626
 20
7.6229584407
 30
0.0
 10
11.2406964812
 20
7.6354021317
 30
0.0
 10
11.2185216994
 20
7.6492482066
 30
0.0
 10
11.1971863279
 20
7.6644391096
 30
0.0
 10
11.1767789298
 20
7.6809117193
 30
0.0
 10
11.1573842204
 20
7.6985976094
 30
0.0
 10
11.1390827184
 20
7.7174233315
 30
0.0
 10
11.121950414
 20
7.7373107172
 30
0.0
 10
11.106058456
 20
7.7581772009
 30
0.0
 10
11.0914728587
 20
7.7799361592
 30
0.0
 10
11.0782542289
 20
7.802497269
 30
0.0
 10
11.0664575164
 20
7.8257668735
 30
0.0
 10
11.0561317848
 20
7.8496483878
 30
0.0
 10
11.0473200146
 20
7.8740426219
 30
0.0
 10
11.0400588992
 20
7.8988484601
 30
0.0
 10
11.0343787882
 20
7.9239622706
 30
0.0
 10
11.0309787778
 20
7.9450849484
 30
0.0
 10
11.0290724618
 20
7.9620310607
 30
0.0
 10
11.0277120714
 20
7.9789549025
 30
0.0
 10
11.0273007468
 20
7.9916778568
 30
0.0
 10
11.0273007468
 20
8.0001467983
 30
0.0
  0
SPLINE
  5
3F1
100
AcDbEntity
  8
0
100
AcDbSpline
 62
7
  6
CONTINUOUS
 70
0
 71
3
 72
44
 73
40
 74
0
 42
0.0000001
 43
0.0000001
 44
0.0000000001
 40
0.0
 40
0.0
 40
0.0
 40
0.0
 40
0.0149713347
 40
0.029960997
 40
0.0449710739
 40
0.0600035601
 40
0.0901384861
 40
0.1203840777
 40
0.1355543302
 40
0.1507563562
 40
0.181255331
 40
0.2118922373
 40
0.2426711917
 40
0.2735937149
 40
0.3046587405
 40
0.3358626689
 40
0.3671994643
 40
0.3986607905
 40
0.4302361809
 40
0.4619132392
 40
0.4936778664
 40
0.5255145091
 40
0.5574064268
 40
0.5893359734
 40
0.6212848881
 40
0.6532345954
 40
0.6851665064
 40
0.7170623222
 40
0.7329931055
 40
0.7489082916
 40
0.7806796683
 40
0.8123647466
 40
0.843949292
 40
0.8754207611
 40
0.9067684918
 40
0.9379840299
 40
0.9535420448
 40
0.9690652179
 40
1.0
 40
1.0
 40
1.0
 40
1.0
 10
11.5993630435
 20
7.5941540654
 30
0.0
 10
11.5956756895
 20
7.5920074783
 30
0.0
 10
11.5882190423
 20
7.587843109
 30
0.0
 10
11.5768117056
 20
7.5819955313
 30
0.0
 10
11.5651877799
 20
7.5765493595
 30
0.0
 10
11.5494071284
 20
7.5698267879
 30
0.0
 10
11.5291981157
 20
7.5624570308
 30
0.0
 10
11.5084846597
 20
7.5565121125
 30
0.0
 10
11.4916507541
 20
7.5526179549
 30
0.0
 10
11.4746211628
 20
7.5492957141
 30
0.0
 10
11.4530625933
 20
7.5462395005
 30
0.0
 10
11.4269167403
 20
7.5443438442
 30
0.0
 10
11.400581486
 20
7.5442235829
 30
0.0
 10
11.3741762453
 20
7.5458792048
 30
0.0
 10
11.3478197157
 20
7.5493029895
 30
0.0
 10
11.3216306024
 20
7.5544793284
 30
0.0
 10
11.2957267506
 20
7.5613847265
 30
0.0
 10
11.2702247121
 20
7.5699879328
 30
0.0
 10
11.2452392025
 20
7.5802500796
 30
0.0
 10
11.2208825975
 20
7.5921248613
 30
0.0
 10
11.1972644323
 20
7.6055587427
 30
0.0
 10
11.1744909134
 20
7.6204912019
 30
0.0
 10
11.1526644495
 20
7.6368549965
 30
0.0
 10
11.1318831844
 20
7.654576483
 30
0.0
 10
11.1122406009
 20
7.6735758785
 30
0.0
 10
11.0938249518
 20
7.6937678679
 30
0.0
 10
11.0767194337
 20
7.7150610496
 30
0.0
 10
11.0636141148
 20
7.7336528942
 30
0.0
 10
11.0538591998
 20
7.74898028
 30
0.0
 10
11.0446104166
 20
7.7645770473
 30
0.0
 10
11.03399929
 20
7.7845723775
 30
0.0
 10
11.0228391611
 20
7.8092716277
 30
0.0
 10
11.0133082676
 20
7.8345535069
 30
0.0
 10
11.0054499677
 20
7.8603039217
 30
0.0
 10
10.9992997344
 20
7.8864064914
 30
0.0
 10
10.995616825
 20
7.9083810368
 30
0.0
 10
10.9935516124
 20
7.9260173364
 30
0.0
 10
10.9920778096
 20
7.9436319222
 30
0.0
 10
10.9916320264
 20
7.9568773904
 30
0.0
 10
10.9916320264
 20
7.9656934581
 30
0.0
  0
SPLINE
  5
3F2
100
AcDbEntity
  8
0
100
AcDbSpline
 62
7
  6
CONTINUOUS
 70
0
 71
3
 72
43
 73
39
 74
0
 42
0.0000001
 43
0.0000001
 44
0.0000000001
 40
0.0
 40
0.0
 40
0.0
 40
0.0
 40
0.0299998116
 40
0.0450363858
 40
0.0600981587
 40
0.0902989779
 40
0.1206173536
 40
0.135825522
 40
0.1510661319
 40
0.1816433201
 40
0.212357249
 40
0.2432097023
 40
0.2742001252
 40
0.3053256646
 40
0.3365812461
 40
0.367959684
 40
0.3994518216
 40
0.4310466979
 40
0.4627317384
 40
0.4944929646
 40
0.5263152208
 40
0.5581824142
 40
0.5900777654
 40
0.621984066
 40
0.6538839413
 40
0.6857601141
 40
0.7175956681
 40
0.7334949359
 40
0.7493780072
 40
0.7810843073
 40
0.8127039613
 40
0.8442240059
 40
0.875633046
 40
0.9069214197
 40
0.9380814642
 40
0.9536132545
 40
0.9691113916
 40
1.0
 40
1.0
 40
1.0
 40
1.0
 10
11.5815458183
 20
7.5561547483
 30
0.0
 10
11.5736676
 20
7.5523372401
 30
0.0
 10
11.5616381941
 20
7.5470109162
 30
0.0
 10
11.5452577286
 20
7.540739517
 30
0.0
 10
11.5286173013
 20
7.5350094757
 30
0.0
 10
11.5074077329
 20
7.5288943689
 30
0.0
 10
11.4857932341
 20
7.524211355
 30
0.0
 10
11.4682936019
 20
7.5213275439
 30
0.0
 10
11.450632935
 20
7.5190171072
 30
0.0
 10
11.4283543014
 20
7.5172228288
 30
0.0
 10
11.4014496199
 20
7.5168266685
 30
0.0
 10
11.3744553166
 20
7.5181861661
 30
0.0
 10
11.3474857436
 20
7.521295506
 30
0.0
 10
11.3206541668
 20
7.5261413902
 30
0.0
 10
11.2940734962
 20
7.5327032657
 30
0.0
 10
11.2678554915
 20
7.5409533705
 30
0.0
 10
11.2421103842
 20
7.5508568658
 30
0.0
 10
11.2169463961
 20
7.5623719811
 30
0.0
 10
11.1924692952
 20
7.5754501927
 30
0.0
 10
11.1687819546
 20
7.5900364269
 30
0.0
 10
11.1459839243
 20
7.6060692928
 30
0.0
 10
11.124171019
 20
7.6234813348
 30
0.0
 10
11.1034349095
 20
7.6421993318
 30
0.0
 10
11.0838627787
 20
7.6621445388
 30
0.0
 10
11.0655368146
 20
7.6832332565
 30
0.0
 10
11.0485344037
 20
7.705376281
 30
0.0
 10
11.0355214087
 20
7.724640207
 30
0.0
 10
11.0258419367
 20
7.7404846991
 30
0.0
 10
11.0166690178
 20
7.7565843214
 30
0.0
 10
11.0061515355
 20
7.7771849586
 30
0.0
 10
10.9950975498
 20
7.8025779594
 30
0.0
 10
10.9856630662
 20
7.8285245057
 30
0.0
 10
10.9778881902
 20
7.8549151534
 30
0.0
 10
10.971805725
 20
7.8816384302
 30
0.0
 10
10.9681646614
 20
7.9041178805
 30
0.0
 10
10.9661231456
 20
7.9221535079
 30
0.0
 10
10.9646662707
 20
7.9401656503
 30
0.0
 10
10.9642257508
 20
7.9537072525
 30
0.0
 10
10.9642257508
 20
7.9627210271
 30
0.0
  0
SPLINE
  5
3F3
100
AcDbEntity
  8
0
100
AcDbSpline
 62
7
  6
CONTINUOUS
 70
0
 71
3
 72
39
 73
35
 74
0
 42
0.0000001
 43
0.0000001
 44
0.0000000001
 40
0.0
 40
0.0
 40
0.0
 40
0.0
 40
0.029942471
 40
0.0599093183
 40
0.0899243244
 40
0.1200101034
 40
0.1501875624
 40
0.1804754148
 40
0.2108897596
 40
0.2414437361
 40
0.2721472598
 40
0.3030068424
 40
0.3340254951
 40
0.3652027149
 40
0.3965345496
 40
0.4280137343
 40
0.459629891
 40
0.4913697854
 40
0.5232176334
 40
0.5551554501
 40
0.5871634341
 40
0.6192203766
 40
0.6513040925
 40
0.6833918636
 40
0.7154608915
 40
0.7474887505
 40
0.7794538351
 40
0.8113357956
 40
0.8431159562
 40
0.8747777121
 40
0.9063068677
 40
0.9376920929
 40
0.9689246489
 40
1.0
 40
1.0
 40
1.0
 40
1.0
 10
11.5105247855
 20
7.4613690787
 30
0.0
 10
11.5033829191
 20
7.4544705945
 30
0.0
 10
11.4885376498
 20
7.4412303197
 30
0.0
 10
11.4647531868
 20
7.4231928148
 30
0.0
 10
11.4395737771
 20
7.4070684432
 30
0.0
 10
11.413140096
 20
7.392947675
 30
0.0
 10
11.3855974696
 20
7.3809076685
 30
0.0
 10
11.357097907
 20
7.3710146025
 30
0.0
 10
11.3277984629
 20
7.3633225933
 30
0.0
 10
11.2978605559
 20
7.3578736328
 30
0.0
 10
11.2674490169
 20
7.3546973216
 30
0.0
 10
11.2367311926
 20
7.3538107471
 30
0.0
 10
11.2058760252
 20
7.3552184
 30
0.0
 10
11.1750531246
 20
7.3589121404
 30
0.0
 10
11.1444318426
 20
7.3648713009
 30
0.0
 10
11.114180356
 20
7.3730628092
 30
0.0
 10
11.0844647564
 20
7.3834413801
 30
0.0
 10
11.0554481563
 20
7.3959497759
 30
0.0
 10
11.0272897944
 20
7.4105190944
 30
0.0
 10
11.0001441731
 20
7.4270691617
 30
0.0
 10
10.9741602322
 20
7.4455089899
 30
0.0
 10
10.9494805407
 20
7.4657372687
 30
0.0
 10
10.9262405276
 20
7.4876429181
 30
0.0
 10
10.9045677456
 20
7.5111056884
 30
0.0
 10
10.884581153
 20
7.5359967928
 30
0.0
 10
10.8663904919
 20
7.5621796356
 30
0.0
 10
10.8500956921
 20
7.589510549
 30
0.0
 10
10.8357863271
 20
7.6178395756
 30
0.0
 10
10.8235411283
 20
7.6470112625
 30
0.0
 10
10.8134275413
 20
7.676865559
 30
0.0
 10
10.8055013029
 20
7.707238451
 30
0.0
 10
10.7998063111
 20
7.7379637211
 30
0.0
 10
10.7963740255
 20
7.7688704771
 30
0.0
 10
10.7956052821
 20
7.7895409478
 30
0.0
 10
10.7956052821
 20
7.7998461519
 30
0.0
  0
SPLINE
  5
3F4
100
AcDbEntity
  8
0
100
AcDbSpline
 62
7
  6
CONTINUOUS
 70
0
 71
3
 72
78
 73
74
 74
0
 42
0.0000001
 43
0.0000001
 44
0.0000000001
 40
0.0
 40
0.0
 40
0.0
 40
0.0
 40
0.002716437
 40
0.0054532499
 40
0.0082303258
 40
0.0110666193
 40
0.0139798357
 40
0.0169861462
 40
0.0201001074
 40
0.0233346342
 40
0.0267009841
 40
0.0302089392
 40
0.033866861
 40
0.0376818191
 40
0.0416598027
 40
0.0458057327
 40
0.0501236562
 40
0.0546168619
 40
0.0592878722
 40
0.0641386486
 40
0.0691705883
 40
0.0743845602
 40
0.0853594804
 40
0.0970633454
 40
0.1094900995
 40
0.122629366
 40
0.1364670611
 40
0.1509858974
 40
0.166165815
 40
0.1819842919
 40
0.1984165668
 40
0.2154358706
 40
0.2330136396
 40
0.2511196715
 40
0.2697222404
 40
0.2887882524
 40
0.3082833865
 40
0.328172201
 40
0.3484182245
 40
0.3689840851
 40
0.4109212248
 40
0.4536713576
 40
0.4969134981
 40
0.540321922
 40
0.5835693174
 40
0.6263299118
 40
0.6682826143
 40
0.6888581262
 40
0.7091150154
 40
0.7290158802
 40
0.7485242227
 40
0.767604568
 40
0.7862225538
 40
0.8043450413
 40
0.8219402657
 40
0.8389779735
 40
0.8554295416
 40
0.8712681371
 40
0.88646894
 40
0.9010093515
 40
0.9148692219
 40
0.9280311672
 40
0.9404810055
 40
0.9522082213
 40
0.9632066157
 40
0.9684323229
 40
0.97347594
 40
0.978338293
 40
0.9830207537
 40
0.9875253474
 40
0.9918546279
 40
0.9960116289
 40
1.0
 40
1.0
 40
1.0
 40
1.0
 10
13.2212106158
 20
8.7986988657
 30
0.0
 10
13.2220971448
 20
8.7986373855
 30
0.0
 10
13.2238723152
 20
8.7984337442
 30
0.0
 10
13.2265124688
 20
8.7978887435
 30
0.0
 10
13.2291326599
 20
8.7971043182
 30
0.0
 10
13.2317310531
 20
8.7960812914
 30
0.0
 10
13.2343062552
 20
8.794820459
 30
0.0
 10
13.2368569903
 20
8.7933229059
 30
0.0
 10
13.2393820752
 20
8.7915896677
 30
0.0
 10
13.2418803497
 20
8.7896218028
 30
0.0
 10
13.2443507962
 20
8.7874205322
 30
0.0
 10
13.2467923014
 20
8.7849870032
 30
0.0
 10
13.249203804
 20
8.7823224973
 30
0.0
 10
13.2515842773
 20
8.779428396
 30
0.0
 10
13.2539325771
 20
8.776306093
 30
0.0
 10
13.256247667
 20
8.7729571677
 30
0.0
 10
13.2585284605
 20
8.7693832645
 30
0.0
 10
13.2607738225
 20
8.7655861182
 30
0.0
 10
13.2629827349
 20
8.7615676313
 30
0.0
 10
13.2651540742
 20
8.7573297694
 30
0.0
 10
13.2672868009
 20
8.7528746212
 30
0.0
 10
13.2701261787
 20
8.7465389551
 30
0.0
 10
13.2735597848
 20
8.7380812153
 30
0.0
 10
13.2774422904
 20
8.7272700876
 30
0.0
 10
13.2811466837
 20
8.7156514311
 30
0.0
 10
13.2846655077
 20
8.7032483719
 30
0.0
 10
13.2879916572
 20
8.6900854194
 30
0.0
 10
13.2911183993
 20
8.6761887939
 30
0.0
 10
13.2940393794
 20
8.6615862188
 30
0.0
 10
13.2967486434
 20
8.6463068887
 30
0.0
 10
13.2992406821
 20
8.6303814036
 30
0.0
 10
13.3015104322
 20
8.6138416969
 30
0.0
 10
13.3035532718
 20
8.5967209517
 30
0.0
 10
13.3053650299
 20
8.5790535347
 30
0.0
 10
13.3069420251
 20
8.5608749324
 30
0.0
 10
13.3082810528
 20
8.5422216737
 30
0.0
 10
13.3093793847
 20
8.5231312411
 30
0.0
 10
13.3102347627
 20
8.5036420139
 30
0.0
 10
13.310845476
 20
8.4837931425
 30
0.0
 10
13.3113349148
 20
8.4567263615
 30
0.0
 10
13.3113186038
 20
8.4222900922
 30
0.0
 10
13.3103178518
 20
8.3804474987
 30
0.0
 10
13.3083432778
 20
8.3381576641
 30
0.0
 10
13.3054106736
 20
8.2957604772
 30
0.0
 10
13.3015435776
 20
8.2535963944
 30
0.0
 10
13.296773165
 20
8.2120042825
 30
0.0
 10
13.2920473568
 20
8.177882042
 30
0.0
 10
13.2878352848
 20
8.1511285792
 30
0.0
 10
13.2844968557
 20
8.1315421354
 30
0.0
 10
13.2809655214
 20
8.112344414
 30
0.0
 10
13.2772483743
 20
8.093573979
 30
0.0
 10
13.2733529355
 20
8.0752685592
 30
0.0
 10
13.2692870685
 20
8.0574649355
 30
0.0
 10
13.265058975
 20
8.0401988793
 30
0.0
 10
13.2606771962
 20
8.0235050627
 30
0.0
 10
13.256150595
 20
8.0074169863
 30
0.0
 10
13.2514883192
 20
7.9919669209
 30
0.0
 10
13.2466997794
 20
7.9771858392
 30
0.0
 10
13.2417946561
 20
7.9631033293
 30
0.0
 10
13.236782866
 20
7.9497475321
 30
0.0
 10
13.2316745223
 20
7.9371450817
 30
0.0
 10
13.2264799048
 20
7.9253210695
 30
0.0
 10
13.2212094368
 20
7.9142988413
 30
0.0
 10
13.2158736942
 20
7.9041003231
 30
0.0
 10
13.2113069767
 20
7.8961745531
 30
0.0
 10
13.2076212581
 20
7.8902727422
 30
0.0
 10
13.2048945487
 20
7.8861405403
 30
0.0
 10
13.2021595353
 20
7.8822287511
 30
0.0
 10
13.1994174885
 20
7.8785392989
 30
0.0
 10
13.1966697618
 20
7.8750739426
 30
0.0
 10
13.1939176088
 20
7.871834424
 30
0.0
 10
13.1911625801
 20
7.8688224981
 30
0.0
 10
13.189286686
 20
7.8669287048
 30
0.0
 10
13.1883482312
 20
7.8660222271
 30
0.0
  0
SPLINE
  5
3F5
100
AcDbEntity
  8
0
100
AcDbSpline
 62
7
  6
CONTINUOUS
 70
0
 71
3
 72
39
 73
35
 74
0
 42
0.0000001
 43
0.0000001
 44
0.0000000001
 40
0.0
 40
0.0
 40
0.0
 40
0.0
 40
0.0599638552
 40
0.1184521587
 40
0.1731936771
 40
0.2237134202
 40
0.2703318815
 40
0.3135598832
 40
0.3538820771
 40
0.3917061192
 40
0.4273630334
 40
0.4611207369
 40
0.4931966512
 40
0.523769329
 40
0.5529899666
 40
0.5809858754
 40
0.6078689584
 40
0.6337395015
 40
0.6586889373
 40
0.6828054508
 40
0.706174782
 40
0.7288854587
 40
0.7510305153
 40
0.7727116298
 40
0.7940425247
 40
0.8151528505
 40
0.8361917392
 40
0.8573330744
 40
0.8787773657
 40
0.9007582849
 40
0.9235435572
 40
0.9474395647
 40
0.9727943579
 40
1.0
 40
1.0
 40
1.0
 40
1.0
 10
10.9794067746
 20
7.8092602373
 30
0.0
 10
10.9806579562
 20
7.8057353945
 30
0.0
 10
10.9828871109
 20
7.798684341
 30
0.0
 10
10.9855038559
 20
7.7881969854
 30
0.0
 10
10.9874277727
 20
7.7781609089
 30
0.0
 10
10.9887472168
 20
7.7687759949
 30
0.0
 10
10.9895683126
 20
7.7600561961
 30
0.0
 10
10.9899798471
 20
7.7519447933
 30
0.0
 10
10.9900485517
 20
7.7443721122
 30
0.0
 10
10.9898229543
 20
7.7372751333
 30
0.0
 10
10.9893383003
 20
7.7306017132
 30
0.0
 10
10.9886205225
 20
7.7243101218
 30
0.0
 10
10.9876886357
 20
7.7183674723
 30
0.0
 10
10.9865563847
 20
7.7127481054
 30
0.0
 10
10.9852345249
 20
7.7074321079
 30
0.0
 10
10.9837301069
 20
7.7024045228
 30
0.0
 10
10.9820484291
 20
7.6976543998
 30
0.0
 10
10.9801928984
 20
7.6931742736
 30
0.0
 10
10.9781650997
 20
7.6889599147
 30
0.0
 10
10.9759657947
 20
7.6850098061
 30
0.0
 10
10.9735941735
 20
7.681325318
 30
0.0
 10
10.9710487335
 20
7.677910414
 30
0.0
 10
10.9683269778
 20
7.6747718104
 30
0.0
 10
10.9654255496
 20
7.6719192305
 30
0.0
 10
10.9623405637
 20
7.6693653687
 30
0.0
 10
10.959067468
 20
7.6671265129
 30
0.0
 10
10.9556012832
 20
7.6652229892
 30
0.0
 10
10.9519371964
 20
7.6636790008
 30
0.0
 10
10.9480700743
 20
7.6625248932
 30
0.0
 10
10.9439959079
 20
7.6617952475
 30
0.0
 10
10.9397113148
 20
7.6615327165
 30
0.0
 10
10.9352146349
 20
7.6617869364
 30
0.0
 10
10.9305075678
 20
7.6626161062
 30
0.0
 10
10.9273589042
 20
7.6635604099
 30
0.0
 10
10.9257628606
 20
7.6641369523
 30
0.0
  0
SPLINE
  5
3F6
100
AcDbEntity
  8
0
100
AcDbSpline
 62
7
  6
CONTINUOUS
 70
0
 71
3
 72
15
 73
11
 74
0
 42
0.0000001
 43
0.0000001
 44
0.0000000001
 40
0.0
 40
0.0
 40
0.0
 40
0.0
 40
0.101415104
 40
0.2075619312
 40
0.3196654386
 40
0.4387610837
 40
0.5657079387
 40
0.7012000677
 40
0.8458109373
 40
1.0
 40
1.0
 40
1.0
 40
1.0
 10
11.1910574346
 20
8.1816746913
 30
0.0
 10
11.1915538047
 20
8.1816402545
 30
0.0
 10
11.1925755414
 20
8.1816393785
 30
0.0
 10
11.1941353508
 20
8.1818330089
 30
0.0
 10
11.1957476503
 20
8.1822207804
 30
0.0
 10
11.1974086149
 20
8.1828020505
 30
0.0
 10
11.1991154247
 20
8.1835759631
 30
0.0
 10
11.2008653043
 20
8.1845421439
 30
0.0
 10
11.2026558761
 20
8.1856997447
 30
0.0
 10
11.2038366277
 20
8.1865701981
 30
0.0
 10
11.2044335068
 20
8.187034958
 30
0.0
  0
SPLINE
  5
3F7
100
AcDbEntity
  8
0
100
AcDbSpline
 62
7
  6
CONTINUOUS
 70
0
 71
3
 72
39
 73
35
 74
0
 42
0.0000001
 43
0.0000001
 44
0.0000000001
 40
0.0
 40
0.0
 40
0.0
 40
0.0
 40
0.0299424712
 40
0.0599093185
 40
0.0899243247
 40
0.120010104
 40
0.1501875625
 40
0.1804754137
 40
0.2108897572
 40
0.2414437336
 40
0.272147258
 40
0.3030068403
 40
0.3340254914
 40
0.3652027096
 40
0.3965345442
 40
0.4280137297
 40
0.4596298866
 40
0.4913697802
 40
0.5232176274
 40
0.5551554443
 40
0.5871634289
 40
0.6192203717
 40
0.6513040877
 40
0.6833918591
 40
0.7154608877
 40
0.7474887471
 40
0.7794538319
 40
0.8113357927
 40
0.8431159543
 40
0.8747777099
 40
0.9063068688
 40
0.9376920891
 40
0.9689246464
 40
1.0
 40
1.0
 40
1.0
 40
1.0
 10
8.9730888009
 20
6.9575945926
 30
0.0
 10
8.9657893479
 20
6.9505438574
 30
0.0
 10
8.9506164776
 20
6.9370114014
 30
0.0
 10
8.9263071736
 20
6.9185758192
 30
0.0
 10
8.9005721185
 20
6.9020956123
 30
0.0
 10
8.8735551063
 20
6.8876632382
 30
0.0
 10
8.8454046867
 20
6.8753575244
 30
0.0
 10
8.8162762187
 20
6.8652461113
 30
0.0
 10
8.7863302149
 20
6.857384325
 30
0.0
 10
8.7557316511
 20
6.8518151083
 30
0.0
 10
8.7246490007
 20
6.8485687131
 30
0.0
 10
8.6932533084
 20
6.8476625718
 30
0.0
 10
8.6617172413
 20
6.8491012589
 30
0.0
 10
8.6302141495
 20
6.8528764774
 30
0.0
 10
8.5989171264
 20
6.8589671324
 30
0.0
 10
8.5679980635
 20
6.8673394167
 30
0.0
 10
8.5376267133
 20
6.8779470221
 30
0.0
 10
8.5079697795
 20
6.8907314306
 30
0.0
 10
8.479190015
 20
6.9056222302
 30
0.0
 10
8.451445349
 20
6.9225375101
 30
0.0
 10
8.4248880081
 20
6.9413842674
 30
0.0
 10
8.399663698
 20
6.9620589406
 30
0.0
 10
8.3759108286
 20
6.9844479901
 30
0.0
 10
8.3537597599
 20
7.0084285097
 30
0.0
 10
8.3333321036
 20
7.033868897
 30
0.0
 10
8.3147400212
 20
7.0606295356
 30
0.0
 10
8.2980856376
 20
7.0885635795
 30
0.0
 10
8.2834604978
 20
7.1175177598
 30
0.0
 10
8.270945063
 20
7.1473331909
 30
0.0
 10
8.2606082863
 20
7.1778463
 30
0.0
 10
8.2525071387
 20
7.2088894497
 30
0.0
 10
8.2466864714
 20
7.2402927531
 30
0.0
 10
8.2431784437
 20
7.2718815472
 30
0.0
 10
8.2423927347
 20
7.2930081671
 30
0.0
 10
8.2423927347
 20
7.3035407833
 30
0.0
  0
SPLINE
  5
3F8
100
AcDbEntity
  8
0
100
AcDbSpline
 62
7
  6
CONTINUOUS
 70
0
 71
3
 72
39
 73
35
 74
0
 42
0.0000001
 43
0.0000001
 44
0.0000000001
 40
0.0
 40
0.0
 40
0.0
 40
0.0
 40
0.0299377079
 40
0.0599040315
 40
0.089922301
 40
0.1200146025
 40
0.1502012588
 40
0.1805003653
 40
0.2109273911
 40
0.2414948532
 40
0.2722120706
 40
0.3030850003
 40
0.3341161542
 40
0.3653045975
 40
0.3966460214
 40
0.4281328827
 40
0.4597546064
 40
0.4914978415
 40
0.5233467652
 40
0.5552834286
 40
0.5872881326
 40
0.6193398304
 40
0.651416549
 40
0.6834958233
 40
0.7155551386
 40
0.7475723721
 40
0.77952623
 40
0.8113966712
 40
0.8431653157
 40
0.8748158308
 40
0.9063342585
 40
0.9377094669
 40
0.9689328649
 40
1.0
 40
1.0
 40
1.0
 40
1.0
 10
8.9730605795
 20
6.9576274418
 30
0.0
 10
8.9656990637
 20
6.9507275286
 30
0.0
 10
8.9504162036
 20
6.9374976136
 30
0.0
 10
8.9259856528
 20
6.9195143765
 30
0.0
 10
8.9001704672
 20
6.9034801483
 30
0.0
 10
8.8731131841
 20
6.8894838276
 30
0.0
 10
8.8449608037
 20
6.8776009475
 30
0.0
 10
8.8158668573
 20
6.8678960329
 30
0.0
 10
8.7859897658
 20
6.8604215362
 30
0.0
 10
8.7554921747
 20
6.8552177683
 30
0.0
 10
8.7245400032
 20
6.8523126486
 30
0.0
 10
8.6933015562
 20
6.8517215885
 30
0.0
 10
8.6619466051
 20
6.8534473921
 30
0.0
 10
8.6306454667
 20
6.857480298
 30
0.0
 10
8.5995680889
 20
6.8637980473
 30
0.0
 10
8.5688831404
 20
6.8723660173
 30
0.0
 10
8.5387571103
 20
6.883137422
 30
0.0
 10
8.5093534152
 20
6.8960535595
 30
0.0
 10
8.4808315143
 20
6.911044119
 30
0.0
 10
8.4533460682
 20
6.9280275956
 30
0.0
 10
8.4270461107
 20
6.9469117253
 30
0.0
 10
8.4020742522
 20
6.9675939831
 30
0.0
 10
8.37856592
 20
6.9899621376
 30
0.0
 10
8.3566486159
 20
7.0138948349
 30
0.0
 10
8.3364412291
 20
7.0392622561
 30
0.0
 10
8.3180534149
 20
7.0659268305
 30
0.0
 10
8.3015850022
 20
7.093743967
 30
0.0
 10
8.2871254579
 20
7.1225628336
 30
0.0
 10
8.2747534051
 20
7.1522271461
 30
0.0
 10
8.264536182
 20
7.1825760595
 30
0.0
 10
8.2565294363
 20
7.213444803
 30
0.0
 10
8.2507769925
 20
7.24466643
 30
0.0
 10
8.2473102516
 20
7.2760693284
 30
0.0
 10
8.2465338362
 20
7.2970705057
 30
0.0
 10
8.2465338362
 20
7.3075407805
 30
0.0
  0
SPLINE
  5
3F9
100
AcDbEntity
  8
0
100
AcDbSpline
 62
7
  6
CONTINUOUS
 70
0
 71
3
 72
42
 73
38
 74
0
 42
0.0000001
 43
0.0000001
 44
0.0000000001
 40
0.0
 40
0.0
 40
0.0
 40
0.0
 40
0.0299419645
 40
0.0449235319
 40
0.0599142037
 40
0.0899287023
 40
0.1200139726
 40
0.1350926542
 40
0.1501966969
 40
0.1804840366
 40
0.2108978669
 40
0.2414513271
 40
0.2721543323
 40
0.3030133934
 40
0.3340315212
 40
0.3652082135
 40
0.3965395189
 40
0.4280181723
 40
0.4596337953
 40
0.4913731534
 40
0.5232204633
 40
0.5551577409
 40
0.5871651848
 40
0.6192215866
 40
0.6513047611
 40
0.6833919909
 40
0.7154604782
 40
0.7474877975
 40
0.779452343
 40
0.811333766
 40
0.8431133904
 40
0.8747746134
 40
0.9063032452
 40
0.9376878969
 40
0.9533257623
 40
0.9689252944
 40
1.0
 40
1.0
 40
1.0
 40
1.0
 10
8.8425712316
 20
7.1165415993
 30
0.0
 10
8.8386726609
 20
7.1127758673
 30
0.0
 10
8.8325950113
 20
7.1073554432
 30
0.0
 10
8.8240834309
 20
7.1006298208
 30
0.0
 10
8.8153007243
 20
7.0942389655
 30
0.0
 10
8.8038407988
 20
7.0869000975
 30
0.0
 10
8.7918236337
 20
7.0804807737
 30
0.0
 10
8.7819126308
 20
7.0759139555
 30
0.0
 10
8.771796831
 20
7.0717242651
 30
0.0
 10
8.7588187662
 20
7.0672190453
 30
0.0
 10
8.7428252393
 20
7.0630203204
 30
0.0
 10
8.7264827306
 20
7.0600458152
 30
0.0
 10
8.7098818005
 20
7.0583119579
 30
0.0
 10
8.6931136439
 20
7.057827997
 30
0.0
 10
8.6762705237
 20
7.0585963968
 30
0.0
 10
8.6594450142
 20
7.0606127186
 30
0.0
 10
8.6427295643
 20
7.0638656854
 30
0.0
 10
8.626215978
 20
7.0683372436
 30
0.0
 10
8.6099949211
 20
7.0740026704
 30
0.0
 10
8.5941554296
 20
7.0808307125
 30
0.0
 10
8.578784428
 20
7.0887837605
 30
0.0
 10
8.5639662589
 20
7.0978180564
 30
0.0
 10
8.5497822267
 20
7.1078839332
 30
0.0
 10
8.5363101565
 20
7.1189260867
 30
0.0
 10
8.5236239729
 20
7.1308838766
 30
0.0
 10
8.5117932981
 20
7.1436916567
 30
0.0
 10
8.5008830746
 20
7.1572791317
 30
0.0
 10
8.4909532116
 20
7.1715717402
 30
0.0
 10
8.4820582597
 20
7.1864910544
 30
0.0
 10
8.4742471123
 20
7.2019552233
 30
0.0
 10
8.4675627434
 20
7.2178793519
 30
0.0
 10
8.4620419514
 20
7.2341761983
 30
0.0
 10
8.4577152439
 20
7.2507557673
 30
0.0
 10
8.4551212798
 20
7.2647507174
 30
0.0
 10
8.4536661477
 20
7.2759955011
 30
0.0
 10
8.452627655
 20
7.2872295219
 30
0.0
 10
8.4523132073
 20
7.2956830505
 30
0.0
 10
8.4523132073
 20
7.3013084013
 30
0.0
  0
SPLINE
  5
3FA
100
AcDbEntity
  8
0
100
AcDbSpline
 62
7
  6
CONTINUOUS
 70
0
 71
3
 72
37
 73
33
 74
0
 42
0.0000001
 43
0.0000001
 44
0.0000000001
 40
0.0
 40
0.0
 40
0.0
 40
0.0
 40
0.0301490457
 40
0.0604091694
 40
0.0907872922
 40
0.1212885617
 40
0.1519162945
 40
0.1826719508
 40
0.2135551407
 40
0.2445636518
 40
0.2756935011
 40
0.3069390092
 40
0.3382928962
 40
0.3697464015
 40
0.4012894191
 40
0.4329106435
 40
0.4963122094
 40
0.5598683469
 40
0.5916806627
 40
0.6234876865
 40
0.6552746252
 40
0.6870269453
 40
0.7187305681
 40
0.7503720582
 40
0.7819387976
 40
0.8134191673
 40
0.8448026951
 40
0.8760801845
 40
0.9072441017
 40
0.9382876654
 40
0.9692079883
 40
1.0
 40
1.0
 40
1.0
 40
1.0
 10
8.8948423208
 20
7.1995944409
 30
0.0
 10
8.8905675294
 20
7.19831847
 30
0.0
 10
8.8819195393
 20
7.1960301013
 30
0.0
 10
8.8687361433
 20
7.1934061682
 30
0.0
 10
8.8553638816
 20
7.1915935887
 30
0.0
 10
8.8418517395
 20
7.1905990328
 30
0.0
 10
8.8282483473
 20
7.1904259769
 30
0.0
 10
8.8146028806
 20
7.1910749671
 30
0.0
 10
8.8009645883
 20
7.1925435772
 30
0.0
 10
8.7873826985
 20
7.194826436
 30
0.0
 10
8.7739062179
 20
7.1979152447
 30
0.0
 10
8.7605837798
 20
7.2017988056
 30
0.0
 10
8.7474634131
 20
7.2064630701
 30
0.0
 10
8.7345925487
 20
7.2118910653
 30
0.0
 10
8.7220171786
 20
7.2180634712
 30
0.0
 10
8.7056940267
 20
7.2272616994
 30
0.0
 10
8.68625881
 20
7.2405046059
 30
0.0
 10
8.6684121869
 20
7.2558636864
 30
0.0
 10
8.6552238935
 20
7.2692987901
 30
0.0
 10
8.6459092989
 20
7.2799173754
 30
0.0
 10
8.6372106783
 20
7.2910343896
 30
0.0
 10
8.6291590101
 20
7.3026100845
 30
0.0
 10
8.6217834489
 20
7.3146026168
 30
0.0
 10
8.6151105855
 20
7.3269687646
 30
0.0
 10
8.6091645235
 20
7.3396639295
 30
0.0
 10
8.6039667488
 20
7.3526423369
 30
0.0
 10
8.5995360763
 20
7.3658571788
 30
0.0
 10
8.5958885051
 20
7.3792608172
 30
0.0
 10
8.5930373204
 20
7.3928047945
 30
0.0
 10
8.5909926934
 20
7.4064405653
 30
0.0
 10
8.5897623227
 20
7.4201181022
 30
0.0
 10
8.589487188
 20
7.4292520006
 30
0.0
 10
8.589487188
 20
7.4338082998
 30
0.0
  0
SPLINE
  5
3FB
100
AcDbEntity
  8
0
100
AcDbSpline
 62
7
  6
CONTINUOUS
 70
0
 71
3
 72
23
 73
19
 74
0
 42
0.0000001
 43
0.0000001
 44
0.0000000001
 40
0.0
 40
0.0
 40
0.0
 40
0.0
 40
0.0616994028
 40
0.1234251654
 40
0.1851973314
 40
0.2470354893
 40
0.3089585751
 40
0.3709846907
 40
0.4331309439
 40
0.495413281
 40
0.5578463355
 40
0.620443316
 40
0.6832158041
 40
0.7461739022
 40
0.8093259528
 40
0.8726774016
 40
0.936236309
 40
1.0
 40
1.0
 40
1.0
 40
1.0
 10
8.3617417315
 20
7.5905073615
 30
0.0
 10
8.3571710449
 20
7.5859576416
 30
0.0
 10
8.3482560169
 20
7.5766235459
 30
0.0
 10
8.3356043662
 20
7.5619620478
 30
0.0
 10
8.32369861
 20
7.5466696402
 30
0.0
 10
8.3125656723
 20
7.5307807739
 30
0.0
 10
8.3022301956
 20
7.5143306356
 30
0.0
 10
8.2927151333
 20
7.4973558588
 30
0.0
 10
8.2840415881
 20
7.4798941809
 30
0.0
 10
8.276228822
 20
7.461984417
 30
0.0
 10
8.2692941992
 20
7.443666365
 30
0.0
 10
8.2632530653
 20
7.4249807594
 30
0.0
 10
8.2581187785
 20
7.4059691307
 30
0.0
 10
8.2539027234
 20
7.3866736928
 30
0.0
 10
8.2506143103
 20
7.367137436
 30
0.0
 10
8.2482605979
 20
7.3474033744
 30
0.0
 10
8.2468470512
 20
7.327516214
 30
0.0
 10
8.2465338362
 20
7.3142056681
 30
0.0
 10
8.2465338362
 20
7.3075407805
 30
0.0
  0
SPLINE
  5
3FC
100
AcDbEntity
  8
0
100
AcDbSpline
 62
7
  6
CONTINUOUS
 70
0
 71
3
 72
21
 73
17
 74
0
 42
0.0000001
 43
0.0000001
 44
0.0000000001
 40
0.0
 40
0.0
 40
0.0
 40
0.0
 40
0.0617147761
 40
0.1234506677
 40
0.1852285528
 40
0.2470689013
 40
0.30899155
 40
0.3710154761
 40
0.4331586505
 40
0.4954378572
 40
0.5578685131
 40
0.6204644763
 40
0.6832380473
 40
0.746200107
 40
0.8726822618
 40
1.0
 40
1.0
 40
1.0
 40
1.0
 10
8.5160403482
 20
7.454591225
 30
0.0
 10
8.513517024
 20
7.4521538798
 30
0.0
 10
8.5085940175
 20
7.4471475292
 30
0.0
 10
8.5016041901
 20
7.4392667641
 30
0.0
 10
8.4950237485
 20
7.4310315833
 30
0.0
 10
8.488868075
 20
7.4224612782
 30
0.0
 10
8.483151362
 20
7.4135754994
 30
0.0
 10
8.4778867747
 20
7.4043947897
 30
0.0
 10
8.4730863864
 20
7.3949403455
 30
0.0
 10
8.4687613368
 20
7.3852339386
 30
0.0
 10
8.464921536
 20
7.3752979641
 30
0.0
 10
8.4615757805
 20
7.3651554221
 30
0.0
 10
8.4587318212
 20
7.3548293884
 30
0.0
 10
8.4556132864
 20
7.3408298984
 30
0.0
 10
8.453004067
 20
7.3229828037
 30
0.0
 10
8.4523132073
 20
7.3085459296
 30
0.0
 10
8.4523132073
 20
7.3013084013
 30
0.0
  0
SPLINE
  5
3FD
100
AcDbEntity
  8
0
100
AcDbSpline
 62
7
  6
CONTINUOUS
 70
0
 71
3
 72
11
 73
7
 74
0
 42
0.0000001
 43
0.0000001
 44
0.0000000001
 40
0.0
 40
0.0
 40
0.0
 40
0.0
 40
0.2480711051
 40
0.4973763969
 40
0.7480002036
 40
1.0
 40
1.0
 40
1.0
 40
1.0
 10
8.6008580622
 20
7.5039626943
 30
0.0
 10
8.5989750302
 20
7.4983701011
 30
0.0
 10
8.5956637735
 20
7.486994864
 30
0.0
 10
8.5921044126
 20
7.4695417157
 30
0.0
 10
8.5899612711
 20
7.4517647979
 30
0.0
 10
8.589487188
 20
7.4398028489
 30
0.0
 10
8.589487188
 20
7.4338082998
 30
0.0
  0
SPLINE
  5
3FE
100
AcDbEntity
  8
0
100
AcDbSpline
 62
7
  6
CONTINUOUS
 70
0
 71
3
 72
39
 73
35
 74
0
 42
0.0000001
 43
0.0000001
 44
0.0000000001
 40
0.0
 40
0.0
 40
0.0
 40
0.0
 40
0.0300777488
 40
0.0602611862
 40
0.0905595412
 40
0.1209801782
 40
0.1515285009
 40
0.1822078896
 40
0.2130196733
 40
0.2439631372
 40
0.2750355615
 40
0.306232286
 40
0.3375468024
 40
0.3689708696
 40
0.4004946512
 40
0.432106873
 40
0.4637949994
 40
0.4955454202
 40
0.5273436485
 40
0.5591745269
 40
0.5910224408
 40
0.6228715364
 40
0.6547059446
 40
0.6865100023
 40
0.718268471
 40
0.7499667511
 40
0.7815910872
 40
0.8131287704
 40
0.8445683359
 40
0.8758996785
 40
0.9071144902
 40
0.9382054449
 40
0.9691689199
 40
1.0
 40
1.0
 40
1.0
 40
1.0
 10
8.9025240992
 20
7.2294270171
 30
0.0
 10
8.8986600529
 20
7.2279854932
 30
0.0
 10
8.8908216954
 20
7.225349461
 30
0.0
 10
8.8788127414
 20
7.2221592889
 30
0.0
 10
8.8665771005
 20
7.2197379229
 30
0.0
 10
8.8541626483
 20
7.2180948576
 30
0.0
 10
8.841617102
 20
7.217236293
 30
0.0
 10
8.8289888941
 20
7.2171654854
 30
0.0
 10
8.8163267021
 20
7.2178826205
 30
0.0
 10
8.8036793344
 20
7.2193848503
 30
0.0
 10
8.7910955241
 20
7.2216663091
 30
0.0
 10
8.7786237485
 20
7.2247181372
 30
0.0
 10
8.7663120439
 20
7.2285285171
 30
0.0
 10
8.7542078236
 20
7.2330827195
 30
0.0
 10
8.7423576982
 20
7.2383631603
 30
0.0
 10
8.7308072891
 20
7.2443494516
 30
0.0
 10
8.7196010601
 20
7.2510184991
 30
0.0
 10
8.708782149
 20
7.2583445906
 30
0.0
 10
8.6983922034
 20
7.2662994945
 30
0.0
 10
8.6884712227
 20
7.274852567
 30
0.0
 10
8.6790574072
 20
7.28397087
 30
0.0
 10
8.6701870063
 20
7.2936192907
 30
0.0
 10
8.6618941726
 20
7.3037606721
 30
0.0
 10
8.6542108436
 20
7.3143559675
 30
0.0
 10
8.6471666175
 20
7.3253643872
 30
0.0
 10
8.640788642
 20
7.336743554
 30
0.0
 10
8.6351015093
 20
7.3484496633
 30
0.0
 10
8.6301271625
 20
7.3604376527
 30
0.0
 10
8.6258848096
 20
7.3726613582
 30
0.0
 10
8.6223908019
 20
7.3850737343
 30
0.0
 10
8.619658726
 20
7.3976268907
 30
0.0
 10
8.6176990252
 20
7.4102727578
 30
0.0
 10
8.6165195233
 20
7.4229618434
 30
0.0
 10
8.6162557081
 20
7.4314372334
 30
0.0
 10
8.6162557081
 20
7.4356647062
 30
0.0
  0
SPLINE
  5
3FF
100
AcDbEntity
  8
0
100
AcDbSpline
 62
4
  6
CONTINUOUS
 70
0
 71
3
 72
334
 73
330
 74
0
 42
0.0000001
 43
0.0000001
 44
0.0000000001
 40
0.0
 40
0.0
 40
0.0
 40
0.0
 40
0.015625
 40
0.03125
 40
0.0390625
 40
0.046875
 40
0.05078125
 40
0.0546875
 40
0.05859375
 40
0.060546875
 40
0.0615234375
 40
0.0625
 40
0.0634765625
 40
0.064453125
 40
0.06640625
 40
0.0703125
 40
0.07421875
 40
0.078125
 40
0.0859375
 40
0.09375
 40
0.1015625
 40
0.109375
 40
0.11328125
 40
0.1171875
 40
0.12109375
 40
0.123046875
 40
0.1240234375
 40
0.125
 40
0.1259765625
 40
0.126953125
 40
0.12890625
 40
0.1328125
 40
0.13671875
 40
0.140625
 40
0.1484375
 40
0.15625
 40
0.1640625
 40
0.171875
 40
0.17578125
 40
0.1796875
 40
0.18359375
 40
0.185546875
 40
0.1865234375
 40
0.1875
 40
0.1884765625
 40
0.189453125
 40
0.19140625
 40
0.1953125
 40
0.19921875
 40
0.203125
 40
0.2109375
 40
0.21875
 40
0.2265625
 40
0.234375
 40
0.23828125
 40
0.2421875
 40
0.244140625
 40
0.24609375
 40
0.248046875
 40
0.2490234375
 40
0.2495117188
 40
0.25
 40
0.2504882812
 40
0.2509765625
 40
0.251953125
 40
0.25390625
 40
0.255859375
 40
0.2578125
 40
0.26171875
 40
0.265625
 40
0.2734375
 40
0.28125
 40
0.2890625
 40
0.296875
 40
0.30078125
 40
0.3046875
 40
0.306640625
 40
0.30859375
 40
0.310546875
 40
0.3115234375
 40
0.3120117188
 40
0.3125
 40
0.3129882812
 40
0.3134765625
 40
0.314453125
 40
0.31640625
 40
0.318359375
 40
0.3203125
 40
0.32421875
 40
0.328125
 40
0.3359375
 40
0.34375
 40
0.3515625
 40
0.35546875
 40
0.359375
 40
0.36328125
 40
0.3671875
 40
0.369140625
 40
0.37109375
 40
0.373046875
 40
0.3740234375
 40
0.3745117188
 40
0.375
 40
0.3754882812
 40
0.3759765625
 40
0.376953125
 40
0.37890625
 40
0.380859375
 40
0.3828125
 40
0.38671875
 40
0.390625
 40
0.39453125
 40
0.3984375
 40
0.40625
 40
0.4140625
 40
0.41796875
 40
0.421875
 40
0.42578125
 40
0.4296875
 40
0.431640625
 40
0.43359375
 40
0.4345703125
 40
0.435546875
 40
0.4365234375
 40
0.4370117188
 40
0.4375
 40
0.4379882812
 40
0.4384765625
 40
0.439453125
 40
0.4404296875
 40
0.44140625
 40
0.443359375
 40
0.4453125
 40
0.44921875
 40
0.453125
 40
0.45703125
 40
0.4609375
 40
0.46875
 40
0.4765625
 40
0.48046875
 40
0.484375
 40
0.48828125
 40
0.4921875
 40
0.494140625
 40
0.49609375
 40
0.4970703125
 40
0.498046875
 40
0.4990234375
 40
0.4995117188
 40
0.4997558594
 40
0.5
 40
0.5002441406
 40
0.5004882812
 40
0.5009765625
 40
0.501953125
 40
0.5029296875
 40
0.50390625
 40
0.505859375
 40
0.5078125
 40
0.51171875
 40
0.515625
 40
0.51953125
 40
0.5234375
 40
0.53125
 40
0.5390625
 40
0.54296875
 40
0.546875
 40
0.55078125
 40
0.5546875
 40
0.556640625
 40
0.55859375
 40
0.5595703125
 40
0.560546875
 40
0.5615234375
 40
0.5620117188
 40
0.5622558594
 40
0.5625
 40
0.5627441406
 40
0.5629882812
 40
0.5634765625
 40
0.564453125
 40
0.5654296875
 40
0.56640625
 40
0.568359375
 40
0.5703125
 40
0.57421875
 40
0.578125
 40
0.58203125
 40
0.5859375
 40
0.59375
 40
0.6015625
 40
0.60546875
 40
0.609375
 40
0.61328125
 40
0.6171875
 40
0.619140625
 40
0.62109375
 40
0.6220703125
 40
0.623046875
 40
0.6240234375
 40
0.6245117188
 40
0.6247558594
 40
0.625
 40
0.6252441406
 40
0.6254882812
 40
0.6259765625
 40
0.626953125
 40
0.6279296875
 40
0.62890625
 40
0.630859375
 40
0.6328125
 40
0.63671875
 40
0.640625
 40
0.64453125
 40
0.6484375
 40
0.65625
 40
0.6640625
 40
0.66796875
 40
0.671875
 40
0.67578125
 40
0.6796875
 40
0.681640625
 40
0.68359375
 40
0.6845703125
 40
0.685546875
 40
0.6865234375
 40
0.6870117188
 40
0.6872558594
 40
0.6875
 40
0.6877441406
 40
0.6879882812
 40
0.6884765625
 40
0.689453125
 40
0.6904296875
 40
0.69140625
 40
0.693359375
 40
0.6953125
 40
0.69921875
 40
0.703125
 40
0.70703125
 40
0.7109375
 40
0.71875
 40
0.7265625
 40
0.73046875
 40
0.734375
 40
0.73828125
 40
0.7421875
 40
0.744140625
 40
0.74609375
 40
0.7470703125
 40
0.748046875
 40
0.7490234375
 40
0.7495117188
 40
0.75
 40
0.7504882812
 40
0.7509765625
 40
0.751953125
 40
0.7529296875
 40
0.75390625
 40
0.755859375
 40
0.7578125
 40
0.76171875
 40
0.765625
 40
0.76953125
 40
0.7734375
 40
0.78125
 40
0.7890625
 40
0.796875
 40
0.80078125
 40
0.8046875
 40
0.806640625
 40
0.80859375
 40
0.810546875
 40
0.8115234375
 40
0.8120117188
 40
0.8125
 40
0.8129882812
 40
0.8134765625
 40
0.814453125
 40
0.81640625
 40
0.818359375
 40
0.8203125
 40
0.82421875
 40
0.828125
 40
0.8359375
 40
0.84375
 40
0.8515625
 40
0.859375
 40
0.86328125
 40
0.8671875
 40
0.869140625
 40
0.87109375
 40
0.873046875
 40
0.8740234375
 40
0.8745117188
 40
0.875
 40
0.8754882812
 40
0.8759765625
 40
0.876953125
 40
0.87890625
 40
0.880859375
 40
0.8828125
 40
0.88671875
 40
0.890625
 40
0.8984375
 40
0.90625
 40
0.9140625
 40
0.921875
 40
0.92578125
 40
0.9296875
 40
0.931640625
 40
0.93359375
 40
0.935546875
 40
0.9365234375
 40
0.9370117188
 40
0.9375
 40
0.9379882812
 40
0.9384765625
 40
0.939453125
 40
0.94140625
 40
0.943359375
 40
0.9453125
 40
0.94921875
 40
0.953125
 40
0.9609375
 40
0.96875
 40
0.9765625
 40
0.984375
 40
1.0
 40
1.0
 40
1.0
 40
1.0
 10
10.6232394459
 20
9.9735956865
 30
0.0
 10
10.6261276232
 20
9.9734719364
 30
0.0
 10
10.6319039785
 20
9.9732244393
 30
0.0
 10
10.6391244188
 20
9.9729150526
 30
0.0
 10
10.6449007792
 20
9.9726675754
 30
0.0
 10
10.6485109859
 20
9.9725128295
 30
0.0
 10
10.6513991938
 20
9.972389199
 30
0.0
 10
10.653565233
 20
9.9722960212
 30
0.0
 10
10.6553706371
 20
9.9722198201
 30
0.0
 10
10.6566336912
 20
9.9721636396
 30
0.0
 10
10.6573565742
 20
9.9721359703
 30
0.0
 10
10.6578955312
 20
9.9721027283
 30
0.0
 10
10.6584467404
 20
9.9721172296
 30
0.0
 10
10.6591774123
 20
9.9721199114
 30
0.0
 10
10.6604580793
 20
9.9721323635
 30
0.0
 10
10.6622865626
 20
9.9721460957
 30
0.0
 10
10.6644811881
 20
9.9721643108
 30
0.0
 10
10.6674072
 20
9.9721879908
 30
0.0
 10
10.6710647675
 20
9.9722178003
 30
0.0
 10
10.6754538288
 20
9.972253476
 30
0.0
 10
10.6798428843
 20
9.9722891995
 30
0.0
 10
10.6835004663
 20
9.9723188897
 30
0.0
 10
10.6864264492
 20
9.9723428084
 30
0.0
 10
10.6886211631
 20
9.9723602952
 30
0.0
 10
10.6904493698
 20
9.9723763057
 30
0.0
 10
10.6917305306
 20
9.9723846908
 30
0.0
 10
10.6924604113
 20
9.9723938889
 30
0.0
 10
10.6930140509
 20
9.9723883741
 30
0.0
 10
10.6935438797
 20
9.9724303094
 30
0.0
 10
10.6942586235
 20
9.9724696721
 30
0.0
 10
10.6955055555
 20
9.9725462681
 30
0.0
 10
10.6972889101
 20
9.9726516594
 30
0.0
 10
10.6994280696
 20
9.9727798547
 30
0.0
 10
10.7022805849
 20
9.9729501787
 30
0.0
 10
10.705846124
 20
9.9731632921
 30
0.0
 10
10.7101248214
 20
9.9734189328
 30
0.0
 10
10.7144034847
 20
9.9736746212
 30
0.0
 10
10.7179691091
 20
9.9738876154
 30
0.0
 10
10.7208214537
 20
9.9740581777
 30
0.0
 10
10.7229611341
 20
9.9741856463
 30
0.0
 10
10.7247428591
 20
9.9742933109
 30
0.0
 10
10.7259927001
 20
9.9743658489
 30
0.0
 10
10.7267027829
 20
9.9744117136
 30
0.0
 10
10.7272469289
 20
9.9744336765
 30
0.0
 10
10.7277467952
 20
9.9745031747
 30
0.0
 10
10.7284287289
 20
9.9745792581
 30
0.0
 10
10.7296149165
 20
9.9747201295
 30
0.0
 10
10.7313132325
 20
9.9749173353
 30
0.0
 10
10.7333496014
 20
9.9751557111
 30
0.0
 10
10.7360653224
 20
9.9754729417
 30
0.0
 10
10.7394597804
 20
9.9758696871
 30
0.0
 10
10.7435332141
 20
9.9763456923
 30
0.0
 10
10.7476066204
 20
9.9768217233
 30
0.0
 10
10.7510011469
 20
9.9772184044
 30
0.0
 10
10.7537167308
 20
9.9775357637
 30
0.0
 10
10.7554140533
 20
9.9777340828
 30
0.0
 10
10.7567717226
 20
9.9778928077
 30
0.0
 10
10.7577904913
 20
9.9780116607
 30
0.0
 10
10.7586378213
 20
9.9781113115
 30
0.0
 10
10.7592341784
 20
9.9781798765
 30
0.0
 10
10.7595699166
 20
9.9782209154
 30
0.0
 10
10.7598359104
 20
9.9782464582
 30
0.0
 10
10.760047662
 20
9.9782920171
 30
0.0
 10
10.7603489178
 20
9.9783457804
 30
0.0
 10
10.7608673001
 20
9.9784431192
 30
0.0
 10
10.761612455
 20
9.978580474
 30
0.0
 10
10.7625046681
 20
9.9787460277
 30
0.0
 10
10.7636949747
 20
9.9789665117
 30
0.0
 10
10.765182622
 20
9.9792422037
 30
0.0
 10
10.7675629896
 20
9.9796832622
 30
0.0
 10
10.7705384034
 20
9.9802346022
 30
0.0
 10
10.774108921
 20
9.9808962026
 30
0.0
 10
10.7776794276
 20
9.9815578066
 30
0.0
 10
10.7806548691
 20
9.9821091375
 30
0.0
 10
10.7830351814
 20
9.9825502143
 30
0.0
 10
10.7845229691
 20
9.98282586
 30
0.0
 10
10.7857129875
 20
9.9830464391
 30
0.0
 10
10.7866060813
 20
9.983211702
 30
0.0
 10
10.7873484808
 20
9.9833499666
 30
0.0
 10
10.7878717818
 20
9.9834456812
 30
0.0
 10
10.7881651566
 20
9.983502047
 30
0.0
 10
10.7884011162
 20
9.9835396121
 30
0.0
 10
10.7885761888
 20
9.9835951782
 30
0.0
 10
10.788830857
 20
9.9836629874
 30
0.0
 10
10.7892666312
 20
9.9837845789
 30
0.0
 10
10.7898943391
 20
9.9839567517
 30
0.0
 10
10.7906453742
 20
9.9841640137
 30
0.0
 10
10.7916475278
 20
9.9844401344
 30
0.0
 10
10.792899955
 20
9.9847853635
 30
0.0
 10
10.7949039864
 20
9.9853376863
 30
0.0
 10
10.797408975
 20
9.9860281048
 30
0.0
 10
10.8004149827
 20
9.9868566007
 30
0.0
 10
10.8029199857
 20
9.9875470151
 30
0.0
 10
10.8049239856
 20
9.988099347
 30
0.0
 10
10.8064269949
 20
9.9885135941
 30
0.0
 10
10.8079299677
 20
9.9889278484
 30
0.0
 10
10.8091825591
 20
9.9892730377
 30
0.0
 10
10.8101843768
 20
9.98954924
 30
0.0
 10
10.8109364379
 20
9.9897562526
 30
0.0
 10
10.8115609359
 20
9.9899292055
 30
0.0
 10
10.8120024403
 20
9.9900494044
 30
0.0
 10
10.8122479272
 20
9.9901194451
 30
0.0
 10
10.8124512018
 20
9.9901681568
 30
0.0
 10
10.8125812398
 20
9.9902314658
 30
0.0
 10
10.8127801695
 20
9.9903107861
 30
0.0
 10
10.8131163943
 20
9.990451969
 30
0.0
 10
10.813602938
 20
9.9906524186
 30
0.0
 10
10.814184127
 20
9.990893489
 30
0.0
 10
10.814959976
 20
9.9912147308
 30
0.0
 10
10.8159294681
 20
9.9916163466
 30
0.0
 10
10.8170929954
 20
9.9920982583
 30
0.0
 10
10.8182564861
 20
9.9925801772
 30
0.0
 10
10.8198078198
 20
9.9932227333
 30
0.0
 10
10.8217469827
 20
9.9940259293
 30
0.0
 10
10.8236861467
 20
9.9948291251
 30
0.0
 10
10.8252374786
 20
9.9954716816
 30
0.0
 10
10.8264009747
 20
9.9959535994
 30
0.0
 10
10.8275644817
 20
9.9964355155
 30
0.0
 10
10.828534037
 20
9.9968371176
 30
0.0
 10
10.8293097571
 20
9.9971583872
 30
0.0
 10
10.8297944094
 20
9.9973592081
 30
0.0
 10
10.8301825269
 20
9.9975198022
 30
0.0
 10
10.8304725318
 20
9.9976404192
 30
0.0
 10
10.8307176484
 20
9.997740388
 30
0.0
 10
10.8309060132
 20
9.9978215862
 30
0.0
 10
10.8310684047
 20
9.9978791427
 30
0.0
 10
10.831150189
 20
9.9979494563
 30
0.0
 10
10.8312873918
 20
9.9980387515
 30
0.0
 10
10.8314492348
 20
9.9981518995
 30
0.0
 10
10.8316475815
 20
9.9982870226
 30
0.0
 10
10.8319105994
 20
9.9984674154
 30
0.0
 10
10.8322398663
 20
9.998692828
 30
0.0
 10
10.832766417
 20
9.9990535321
 30
0.0
 10
10.8334247002
 20
9.9995043971
 30
0.0
 10
10.8342145994
 20
10.0000454415
 30
0.0
 10
10.8350045095
 20
10.0005864842
 30
0.0
 10
10.8360577191
 20
10.0013078751
 30
0.0
 10
10.8373742324
 20
10.0022096136
 30
0.0
 10
10.8386907454
 20
10.003111352
 30
0.0
 10
10.8397439555
 20
10.0038327428
 30
0.0
 10
10.8405338642
 20
10.0043737859
 30
0.0
 10
10.8413237685
 20
10.0049148291
 30
0.0
 10
10.8419820359
 20
10.0053656979
 30
0.0
 10
10.8425086188
 20
10.0057263943
 30
0.0
 10
10.8428378038
 20
10.0059518263
 30
0.0
 10
10.8431009899
 20
10.0061321793
 30
0.0
 10
10.8432988227
 20
10.0062674239
 30
0.0
 10
10.8434622735
 20
10.0063801918
 30
0.0
 10
10.8435794559
 20
10.0064590036
 30
0.0
 10
10.843642097
 20
10.0065042352
 30
0.0
 10
10.843701248
 20
10.006537606
 30
0.0
 10
10.8437138788
 20
10.0065730901
 30
0.0
 10
10.8437469467
 20
10.0066196651
 30
0.0
 10
10.8437972551
 20
10.0067015149
 30
0.0
 10
10.8438730768
 20
10.0068182634
 30
0.0
 10
10.8439623711
 20
10.0069584386
 30
0.0
 10
10.8440820211
 20
10.007145312
 30
0.0
 10
10.8442313812
 20
10.0073789129
 30
0.0
 10
10.8444704705
 20
10.0077526692
 30
0.0
 10
10.8447692933
 20
10.0082198664
 30
0.0
 10
10.8451278973
 20
10.0087805022
 30
0.0
 10
10.8454864969
 20
10.0093411383
 30
0.0
 10
10.8459646312
 20
10.0100886529
 30
0.0
 10
10.8465622985
 20
10.0110230463
 30
0.0
 10
10.8471599662
 20
10.0119574396
 30
0.0
 10
10.8476380999
 20
10.0127049543
 30
0.0
 10
10.8479967013
 20
10.0132655902
 30
0.0
 10
10.8483552983
 20
10.0138262263
 30
0.0
 10
10.8486541429
 20
10.0142934228
 30
0.0
 10
10.8488931878
 20
10.0146671805
 30
0.0
 10
10.8490426609
 20
10.0149007779
 30
0.0
 10
10.8491620789
 20
10.0150876585
 30
0.0
 10
10.8492520818
 20
10.0152278115
 30
0.0
 10
10.8493256865
 20
10.0153446296
 30
0.0
 10
10.8493799527
 20
10.0154263551
 30
0.0
 10
10.8494066792
 20
10.0154731291
 30
0.0
 10
10.8494387886
 20
10.0155080021
 30
0.0
 10
10.8494247814
 20
10.015543668
 30
0.0
 10
10.849422191
 20
10.0155909459
 30
0.0
 10
10.8494101632
 20
10.0156738111
 30
0.0
 10
10.8493968988
 20
10.0157921225
 30
0.0
 10
10.8493793045
 20
10.0159341251
 30
0.0
 10
10.8493564311
 20
10.0161234519
 30
0.0
 10
10.8493276389
 20
10.0163601138
 30
0.0
 10
10.8492816833
 20
10.0167387708
 30
0.0
 10
10.8492242005
 20
10.0172120928
 30
0.0
 10
10.8491552375
 20
10.0177800789
 30
0.0
 10
10.8490862702
 20
10.0183480651
 30
0.0
 10
10.8489943153
 20
10.01910538
 30
0.0
 10
10.848879371
 20
10.0200520236
 30
0.0
 10
10.8487644272
 20
10.0209986672
 30
0.0
 10
10.8486724716
 20
10.0217559821
 30
0.0
 10
10.8486035061
 20
10.0223239682
 30
0.0
 10
10.8485345362
 20
10.0228919543
 30
0.0
 10
10.848477075
 20
10.0233652765
 30
0.0
 10
10.8484310754
 20
10.0237439332
 30
0.0
 10
10.8484023953
 20
10.0239805959
 30
0.0
 10
10.8483792917
 20
10.0241699208
 30
0.0
 10
10.8483624007
 20
10.0243119291
 30
0.0
 10
10.8483469358
 20
10.0244302227
 30
0.0
 10
10.8483388364
 20
10.0245131198
 30
0.0
 10
10.8483299517
 20
10.0245603466
 30
0.0
 10
10.8483352786
 20
10.0245961696
 30
0.0
 10
10.8482947721
 20
10.0246304521
 30
0.0
 10
10.8482567507
 20
10.0246766994
 30
0.0
 10
10.8481827645
 20
10.0247573817
 30
0.0
 10
10.8480809643
 20
10.0248727732
 30
0.0
 10
10.8479571371
 20
10.0250111869
 30
0.0
 10
10.8477926164
 20
10.025195758
 30
0.0
 10
10.8475867661
 20
10.0254264653
 30
0.0
 10
10.8472575171
 20
10.0257956006
 30
0.0
 10
10.8468459176
 20
10.0262570185
 30
0.0
 10
10.8463520147
 20
10.0268107205
 30
0.0
 10
10.8458581073
 20
10.0273644224
 30
0.0
 10
10.8451995657
 20
10.0281026916
 30
0.0
 10
10.8443763881
 20
10.0290255281
 30
0.0
 10
10.8435532109
 20
10.0299483647
 30
0.0
 10
10.8428946687
 20
10.0306866339
 30
0.0
 10
10.8424007632
 20
10.0312403358
 30
0.0
 10
10.8419068533
 20
10.0317940375
 30
0.0
 10
10.8414952754
 20
10.0322554564
 30
0.0
 10
10.8411659824
 20
10.0326245897
 30
0.0
 10
10.840960244
 20
10.0328553023
 30
0.0
 10
10.8407954936
 20
10.0330398624
 30
0.0
 10
10.8406723682
 20
10.0331783098
 30
0.0
 10
10.8405683722
 20
10.0332935958
 30
0.0
 10
10.8404983058
 20
10.0333744664
 30
0.0
 10
10.8404540039
 20
10.0334204121
 30
0.0
 10
10.8404327893
 20
10.0334556209
 30
0.0
 10
10.8403656591
 20
10.0334879646
 30
0.0
 10
10.8402921681
 20
10.0335320889
 30
0.0
 10
10.8401560968
 20
10.0336088409
 30
0.0
 10
10.8399656104
 20
10.0337187299
 30
0.0
 10
10.8397353568
 20
10.0338504926
 30
0.0
 10
10.8394289354
 20
10.0340262125
 30
0.0
 10
10.8390457088
 20
10.0342458499
 30
0.0
 10
10.838432658
 20
10.0345972768
 30
0.0
 10
10.8376663061
 20
10.0350365581
 30
0.0
 10
10.8367467003
 20
10.0355636965
 30
0.0
 10
10.8358270901
 20
10.0360908348
 30
0.0
 10
10.8346009447
 20
10.0367936858
 30
0.0
 10
10.8330682626
 20
10.0376722496
 30
0.0
 10
10.8315355801
 20
10.0385508133
 30
0.0
 10
10.8303094352
 20
10.0392536645
 30
0.0
 10
10.8293898237
 20
10.0397808024
 30
0.0
 10
10.8284702227
 20
10.0403079421
 30
0.0
 10
10.827703856
 20
10.0407472194
 30
0.0
 10
10.8270908354
 20
10.0410986544
 30
0.0
 10
10.8267075318
 20
10.0413182712
 30
0.0
 10
10.8264012686
 20
10.0414940335
 30
0.0
 10
10.8261705316
 20
10.0416256666
 30
0.0
 10
10.8259815576
 20
10.0417359611
 30
0.0
 10
10.825822962
 20
10.0418228504
 30
0.0
 10
10.8257242806
 20
10.0418916961
 30
0.0
 10
10.825548246
 20
10.0419464999
 30
0.0
 10
10.8253405537
 20
10.0420244766
 30
0.0
 10
10.8250716678
 20
10.0421202647
 30
0.0
 10
10.8247529728
 20
10.0422359306
 30
0.0
 10
10.8243266601
 20
10.0423899004
 30
0.0
 10
10.8237942438
 20
10.0425824486
 30
0.0
 10
10.8229421126
 20
10.0428904778
 30
0.0
 10
10.8218770395
 20
10.0432755307
 30
0.0
 10
10.8205989128
 20
10.0437375871
 30
0.0
 10
10.8193207965
 20
10.0441996454
 30
0.0
 10
10.8176166377
 20
10.0448157224
 30
0.0
 10
10.8154864419
 20
10.0455858193
 30
0.0
 10
10.8129301996
 20
10.0465099339
 30
0.0
 10
10.8108000185
 20
10.0472800341
 30
0.0
 10
10.8090958272
 20
10.0478961038
 30
0.0
 10
10.8080308133
 20
10.0482811713
 30
0.0
 10
10.8071785602
 20
10.0485891704
 30
0.0
 10
10.806540033
 20
10.0488203199
 30
0.0
 10
10.8060058191
 20
10.0490124669
 30
0.0
 10
10.805636006
 20
10.0491479071
 30
0.0
 10
10.8054182253
 20
10.049223838
 30
0.0
 10
10.8052730847
 20
10.0492849088
 30
0.0
 10
10.8050583936
 20
10.0493302209
 30
0.0
 10
10.8047963988
 20
10.0493961338
 30
0.0
 10
10.8043266046
 20
10.0495089204
 30
0.0
 10
10.8036613796
 20
10.049671383
 30
0.0
 10
10.8028605801
 20
10.049865765
 30
0.0
 10
10.8017937309
 20
10.0501251412
 30
0.0
 10
10.8004598669
 20
10.050449293
 30
0.0
 10
10.7983258537
 20
10.0509679741
 30
0.0
 10
10.7956582788
 20
10.0516163122
 30
0.0
 10
10.7924572153
 20
10.052394324
 30
0.0
 10
10.7892561397
 20
10.0531723326
 30
0.0
 10
10.786588595
 20
10.053820679
 30
0.0
 10
10.7844545213
 20
10.0543393434
 30
0.0
 10
10.783120811
 20
10.0546635375
 30
0.0
 10
10.7820536464
 20
10.0549228268
 30
0.0
 10
10.7812538104
 20
10.0551174744
 30
0.0
 10
10.780585571
 20
10.0552791062
 30
0.0
 10
10.7801211579
 20
10.0553933759
 30
0.0
 10
10.7798505413
 20
10.0554569125
 30
0.0
 10
10.7796623335
 20
10.0555095238
 30
0.0
 10
10.779417726
 20
10.0555431801
 30
0.0
 10
10.7791112555
 20
10.0555946668
 30
0.0
 10
10.7785657662
 20
10.0556816882
 30
0.0
 10
10.7777912878
 20
10.0558076148
 30
0.0
 10
10.7768598626
 20
10.0559580375
 30
0.0
 10
10.7756186788
 20
10.0561588418
 30
0.0
 10
10.7740669537
 20
10.0564097648
 30
0.0
 10
10.7715843306
 20
10.0568112876
 30
0.0
 10
10.7684810045
 20
10.0573131752
 30
0.0
 10
10.7647570346
 20
10.0579154477
 30
0.0
 10
10.7610330545
 20
10.0585177163
 30
0.0
 10
10.7579297537
 20
10.0590196134
 30
0.0
 10
10.75544708
 20
10.0594211172
 30
0.0
 10
10.7538954838
 20
10.0596720887
 30
0.0
 10
10.7526540353
 20
10.0598727933
 30
0.0
 10
10.7517234185
 20
10.0600235205
 30
0.0
 10
10.7509464109
 20
10.0601484944
 30
0.0
 10
10.7504054366
 20
10.0602372166
 30
0.0
 10
10.750091732
 20
10.060285978
 30
0.0
 10
10.7498693454
 20
10.0603280058
 30
0.0
 10
10.7495976795
 20
10.0603491753
 30
0.0
 10
10.7492526474
 20
10.060384677
 30
0.0
 10
10.7486408325
 20
10.0604434151
 30
0.0
 10
10.7477709983
 20
10.0605290989
 30
0.0
 10
10.746725405
 20
10.0606311609
 30
0.0
 10
10.7453319066
 20
10.0607675085
 30
0.0
 10
10.7435898193
 20
10.0609378523
 30
0.0
 10
10.7408025994
 20
10.061210453
 30
0.0
 10
10.7373185334
 20
10.0615511866
 30
0.0
 10
10.7331376719
 20
10.0619600743
 30
0.0
 10
10.7289568056
 20
10.0623689601
 30
0.0
 10
10.723382319
 20
10.0629141417
 30
0.0
 10
10.7192014536
 20
10.0633230278
 30
0.0
 10
10.7164142101
 20
10.0635956186
 30
0.0
  0
SPLINE
  5
400
100
AcDbEntity
  8
0
100
AcDbSpline
 62
4
  6
CONTINUOUS
 70
0
 71
3
 72
334
 73
330
 74
0
 42
0.0000001
 43
0.0000001
 44
0.0000000001
 40
0.0
 40
0.0
 40
0.0
 40
0.0
 40
0.015625
 40
0.03125
 40
0.0390625
 40
0.046875
 40
0.05078125
 40
0.0546875
 40
0.05859375
 40
0.060546875
 40
0.0615234375
 40
0.0625
 40
0.0634765625
 40
0.064453125
 40
0.06640625
 40
0.0703125
 40
0.07421875
 40
0.078125
 40
0.0859375
 40
0.09375
 40
0.1015625
 40
0.109375
 40
0.11328125
 40
0.1171875
 40
0.12109375
 40
0.123046875
 40
0.1240234375
 40
0.125
 40
0.1259765625
 40
0.126953125
 40
0.12890625
 40
0.1328125
 40
0.13671875
 40
0.140625
 40
0.1484375
 40
0.15625
 40
0.1640625
 40
0.171875
 40
0.17578125
 40
0.1796875
 40
0.18359375
 40
0.185546875
 40
0.1865234375
 40
0.1875
 40
0.1884765625
 40
0.189453125
 40
0.19140625
 40
0.1953125
 40
0.19921875
 40
0.203125
 40
0.2109375
 40
0.21875
 40
0.2265625
 40
0.234375
 40
0.23828125
 40
0.2421875
 40
0.244140625
 40
0.24609375
 40
0.248046875
 40
0.2490234375
 40
0.2495117188
 40
0.25
 40
0.2504882812
 40
0.2509765625
 40
0.251953125
 40
0.25390625
 40
0.255859375
 40
0.2578125
 40
0.26171875
 40
0.265625
 40
0.2734375
 40
0.28125
 40
0.2890625
 40
0.296875
 40
0.30078125
 40
0.3046875
 40
0.306640625
 40
0.30859375
 40
0.310546875
 40
0.3115234375
 40
0.3120117188
 40
0.3125
 40
0.3129882812
 40
0.3134765625
 40
0.314453125
 40
0.31640625
 40
0.318359375
 40
0.3203125
 40
0.32421875
 40
0.328125
 40
0.3359375
 40
0.34375
 40
0.3515625
 40
0.35546875
 40
0.359375
 40
0.36328125
 40
0.3671875
 40
0.369140625
 40
0.37109375
 40
0.373046875
 40
0.3740234375
 40
0.3745117188
 40
0.375
 40
0.3754882812
 40
0.3759765625
 40
0.376953125
 40
0.37890625
 40
0.380859375
 40
0.3828125
 40
0.38671875
 40
0.390625
 40
0.39453125
 40
0.3984375
 40
0.40625
 40
0.4140625
 40
0.41796875
 40
0.421875
 40
0.42578125
 40
0.4296875
 40
0.431640625
 40
0.43359375
 40
0.4345703125
 40
0.435546875
 40
0.4365234375
 40
0.4370117188
 40
0.4375
 40
0.4379882812
 40
0.4384765625
 40
0.439453125
 40
0.4404296875
 40
0.44140625
 40
0.443359375
 40
0.4453125
 40
0.44921875
 40
0.453125
 40
0.45703125
 40
0.4609375
 40
0.46875
 40
0.4765625
 40
0.48046875
 40
0.484375
 40
0.48828125
 40
0.4921875
 40
0.494140625
 40
0.49609375
 40
0.4970703125
 40
0.498046875
 40
0.4990234375
 40
0.4995117188
 40
0.4997558594
 40
0.5
 40
0.5002441406
 40
0.5004882812
 40
0.5009765625
 40
0.501953125
 40
0.5029296875
 40
0.50390625
 40
0.505859375
 40
0.5078125
 40
0.51171875
 40
0.515625
 40
0.51953125
 40
0.5234375
 40
0.53125
 40
0.5390625
 40
0.54296875
 40
0.546875
 40
0.55078125
 40
0.5546875
 40
0.556640625
 40
0.55859375
 40
0.5595703125
 40
0.560546875
 40
0.5615234375
 40
0.5620117188
 40
0.5622558594
 40
0.5625
 40
0.5627441406
 40
0.5629882812
 40
0.5634765625
 40
0.564453125
 40
0.5654296875
 40
0.56640625
 40
0.568359375
 40
0.5703125
 40
0.57421875
 40
0.578125
 40
0.58203125
 40
0.5859375
 40
0.59375
 40
0.6015625
 40
0.60546875
 40
0.609375
 40
0.61328125
 40
0.6171875
 40
0.619140625
 40
0.62109375
 40
0.6220703125
 40
0.623046875
 40
0.6240234375
 40
0.6245117188
 40
0.6247558594
 40
0.625
 40
0.6252441406
 40
0.6254882812
 40
0.6259765625
 40
0.626953125
 40
0.6279296875
 40
0.62890625
 40
0.630859375
 40
0.6328125
 40
0.63671875
 40
0.640625
 40
0.64453125
 40
0.6484375
 40
0.65625
 40
0.6640625
 40
0.66796875
 40
0.671875
 40
0.67578125
 40
0.6796875
 40
0.681640625
 40
0.68359375
 40
0.6845703125
 40
0.685546875
 40
0.6865234375
 40
0.6870117188
 40
0.6872558594
 40
0.6875
 40
0.6877441406
 40
0.6879882812
 40
0.6884765625
 40
0.689453125
 40
0.6904296875
 40
0.69140625
 40
0.693359375
 40
0.6953125
 40
0.69921875
 40
0.703125
 40
0.70703125
 40
0.7109375
 40
0.71875
 40
0.7265625
 40
0.73046875
 40
0.734375
 40
0.73828125
 40
0.7421875
 40
0.744140625
 40
0.74609375
 40
0.7470703125
 40
0.748046875
 40
0.7490234375
 40
0.7495117188
 40
0.75
 40
0.7504882812
 40
0.7509765625
 40
0.751953125
 40
0.7529296875
 40
0.75390625
 40
0.755859375
 40
0.7578125
 40
0.76171875
 40
0.765625
 40
0.76953125
 40
0.7734375
 40
0.78125
 40
0.7890625
 40
0.796875
 40
0.80078125
 40
0.8046875
 40
0.806640625
 40
0.80859375
 40
0.810546875
 40
0.8115234375
 40
0.8120117188
 40
0.8125
 40
0.8129882812
 40
0.8134765625
 40
0.814453125
 40
0.81640625
 40
0.818359375
 40
0.8203125
 40
0.82421875
 40
0.828125
 40
0.8359375
 40
0.84375
 40
0.8515625
 40
0.859375
 40
0.86328125
 40
0.8671875
 40
0.869140625
 40
0.87109375
 40
0.873046875
 40
0.8740234375
 40
0.8745117188
 40
0.875
 40
0.8754882812
 40
0.8759765625
 40
0.876953125
 40
0.87890625
 40
0.880859375
 40
0.8828125
 40
0.88671875
 40
0.890625
 40
0.8984375
 40
0.90625
 40
0.9140625
 40
0.921875
 40
0.92578125
 40
0.9296875
 40
0.931640625
 40
0.93359375
 40
0.935546875
 40
0.9365234375
 40
0.9370117188
 40
0.9375
 40
0.9379882812
 40
0.9384765625
 40
0.939453125
 40
0.94140625
 40
0.943359375
 40
0.9453125
 40
0.94921875
 40
0.953125
 40
0.9609375
 40
0.96875
 40
0.9765625
 40
0.984375
 40
1.0
 40
1.0
 40
1.0
 40
1.0
 10
10.7164142253
 20
10.0635956175
 30
0.0
 10
10.713526048
 20
10.0637193676
 30
0.0
 10
10.7077496926
 20
10.0639668647
 30
0.0
 10
10.7005292524
 20
10.0642762514
 30
0.0
 10
10.694752892
 20
10.0645237286
 30
0.0
 10
10.6911426853
 20
10.0646784745
 30
0.0
 10
10.6882544774
 20
10.064802105
 30
0.0
 10
10.6860884381
 20
10.0648952828
 30
0.0
 10
10.6842830341
 20
10.064971484
 30
0.0
 10
10.68301998
 20
10.0650276644
 30
0.0
 10
10.682297097
 20
10.0650553337
 30
0.0
 10
10.68175814
 20
10.0650885757
 30
0.0
 10
10.6812069308
 20
10.0650740744
 30
0.0
 10
10.6804762589
 20
10.0650713927
 30
0.0
 10
10.6791955918
 20
10.0650589405
 30
0.0
 10
10.6773671085
 20
10.0650452083
 30
0.0
 10
10.675172483
 20
10.0650269932
 30
0.0
 10
10.6722464712
 20
10.0650033132
 30
0.0
 10
10.6685889037
 20
10.0649735037
 30
0.0
 10
10.6641998424
 20
10.064937828
 30
0.0
 10
10.6598107868
 20
10.0649021045
 30
0.0
 10
10.6561532048
 20
10.0648724144
 30
0.0
 10
10.653227222
 20
10.0648484956
 30
0.0
 10
10.6510325081
 20
10.0648310088
 30
0.0
 10
10.6492043014
 20
10.0648149983
 30
0.0
 10
10.6479231405
 20
10.0648066132
 30
0.0
 10
10.6471932599
 20
10.0647974151
 30
0.0
 10
10.6466396202
 20
10.0648029299
 30
0.0
 10
10.6461097915
 20
10.0647609946
 30
0.0
 10
10.6453950477
 20
10.064721632
 30
0.0
 10
10.6441481157
 20
10.0646450359
 30
0.0
 10
10.6423647611
 20
10.0645396446
 30
0.0
 10
10.6402256016
 20
10.0644114493
 30
0.0
 10
10.6373730862
 20
10.0642411253
 30
0.0
 10
10.6338075472
 20
10.064028012
 30
0.0
 10
10.6295288498
 20
10.0637723712
 30
0.0
 10
10.6252501865
 20
10.0635166828
 30
0.0
 10
10.621684562
 20
10.0633036886
 30
0.0
 10
10.6188322175
 20
10.0631331263
 30
0.0
 10
10.6166925371
 20
10.0630056577
 30
0.0
 10
10.6149108121
 20
10.0628979931
 30
0.0
 10
10.613660971
 20
10.0628254552
 30
0.0
 10
10.6129508883
 20
10.0627795904
 30
0.0
 10
10.6124067422
 20
10.0627576275
 30
0.0
 10
10.611906876
 20
10.0626881293
 30
0.0
 10
10.6112249423
 20
10.0626120459
 30
0.0
 10
10.6100387547
 20
10.0624711746
 30
0.0
 10
10.6083404387
 20
10.0622739687
 30
0.0
 10
10.6063040698
 20
10.0620355929
 30
0.0
 10
10.6035883488
 20
10.0617183624
 30
0.0
 10
10.6001938908
 20
10.0613216169
 30
0.0
 10
10.5961204571
 20
10.0608456117
 30
0.0
 10
10.5920470508
 20
10.0603695807
 30
0.0
 10
10.5886525243
 20
10.0599728996
 30
0.0
 10
10.5859369403
 20
10.0596555403
 30
0.0
 10
10.5842396178
 20
10.0594572212
 30
0.0
 10
10.5828819486
 20
10.0592984963
 30
0.0
 10
10.5818631799
 20
10.0591796433
 30
0.0
 10
10.5810158499
 20
10.0590799925
 30
0.0
 10
10.5804194928
 20
10.0590114275
 30
0.0
 10
10.5800837546
 20
10.0589703886
 30
0.0
 10
10.5798177607
 20
10.0589448458
 30
0.0
 10
10.5796060091
 20
10.0588992869
 30
0.0
 10
10.5793047534
 20
10.0588455236
 30
0.0
 10
10.5787863711
 20
10.0587481848
 30
0.0
 10
10.5780412162
 20
10.05861083
 30
0.0
 10
10.577149003
 20
10.0584452763
 30
0.0
 10
10.5759586965
 20
10.0582247924
 30
0.0
 10
10.5744710492
 20
10.0579491003
 30
0.0
 10
10.5720906816
 20
10.0575080418
 30
0.0
 10
10.5691152678
 20
10.0569567018
 30
0.0
 10
10.5655447501
 20
10.0562951014
 30
0.0
 10
10.5619742435
 20
10.0556334974
 30
0.0
 10
10.5589988021
 20
10.0550821665
 30
0.0
 10
10.5566184898
 20
10.0546410897
 30
0.0
 10
10.555130702
 20
10.054365444
 30
0.0
 10
10.5539406837
 20
10.0541448649
 30
0.0
 10
10.5530475899
 20
10.053979602
 30
0.0
 10
10.5523051903
 20
10.0538413374
 30
0.0
 10
10.5517818893
 20
10.0537456228
 30
0.0
 10
10.5514885146
 20
10.053689257
 30
0.0
 10
10.551252555
 20
10.0536516919
 30
0.0
 10
10.5510774824
 20
10.0535961258
 30
0.0
 10
10.5508228141
 20
10.0535283166
 30
0.0
 10
10.5503870399
 20
10.0534067251
 30
0.0
 10
10.549759332
 20
10.0532345523
 30
0.0
 10
10.5490082969
 20
10.0530272903
 30
0.0
 10
10.5480061433
 20
10.0527511697
 30
0.0
 10
10.5467537162
 20
10.0524059405
 30
0.0
 10
10.5447496847
 20
10.0518536177
 30
0.0
 10
10.5422446961
 20
10.0511631992
 30
0.0
 10
10.5392386885
 20
10.0503347033
 30
0.0
 10
10.5367336855
 20
10.0496442889
 30
0.0
 10
10.5347296856
 20
10.049091957
 30
0.0
 10
10.5332266762
 20
10.0486777099
 30
0.0
 10
10.5317237034
 20
10.0482634556
 30
0.0
 10
10.530471112
 20
10.0479182663
 30
0.0
 10
10.5294692944
 20
10.0476420641
 30
0.0
 10
10.5287172333
 20
10.0474350514
 30
0.0
 10
10.5280927353
 20
10.0472620985
 30
0.0
 10
10.5276512309
 20
10.0471418996
 30
0.0
 10
10.5274057439
 20
10.047071859
 30
0.0
 10
10.5272024694
 20
10.0470231472
 30
0.0
 10
10.5270724314
 20
10.0469598382
 30
0.0
 10
10.5268735017
 20
10.0468805179
 30
0.0
 10
10.5265372769
 20
10.046739335
 30
0.0
 10
10.5260507332
 20
10.0465388854
 30
0.0
 10
10.5254695442
 20
10.046297815
 30
0.0
 10
10.5246936951
 20
10.0459765733
 30
0.0
 10
10.5237242031
 20
10.0455749575
 30
0.0
 10
10.5225606758
 20
10.0450930458
 30
0.0
 10
10.5213971851
 20
10.0446111268
 30
0.0
 10
10.5198458514
 20
10.0439685707
 30
0.0
 10
10.5179066885
 20
10.0431653747
 30
0.0
 10
10.5159675245
 20
10.042362179
 30
0.0
 10
10.5144161926
 20
10.0417196225
 30
0.0
 10
10.5132526965
 20
10.0412377047
 30
0.0
 10
10.5120891895
 20
10.0407557886
 30
0.0
 10
10.5111196342
 20
10.0403541865
 30
0.0
 10
10.5103439141
 20
10.0400329168
 30
0.0
 10
10.5098592618
 20
10.0398320959
 30
0.0
 10
10.5094711443
 20
10.0396715018
 30
0.0
 10
10.5091811394
 20
10.0395508848
 30
0.0
 10
10.5089360228
 20
10.039450916
 30
0.0
 10
10.508747658
 20
10.0393697178
 30
0.0
 10
10.5085852665
 20
10.0393121613
 30
0.0
 10
10.5085034822
 20
10.0392418477
 30
0.0
 10
10.5083662793
 20
10.0391525525
 30
0.0
 10
10.5082044363
 20
10.0390394045
 30
0.0
 10
10.5080060897
 20
10.0389042814
 30
0.0
 10
10.5077430717
 20
10.0387238886
 30
0.0
 10
10.5074138048
 20
10.038498476
 30
0.0
 10
10.5068872541
 20
10.038137772
 30
0.0
 10
10.5062289709
 20
10.037686907
 30
0.0
 10
10.5054390717
 20
10.0371458625
 30
0.0
 10
10.5046491617
 20
10.0366048198
 30
0.0
 10
10.503595952
 20
10.0358834289
 30
0.0
 10
10.5022794387
 20
10.0349816905
 30
0.0
 10
10.5009629257
 20
10.034079952
 30
0.0
 10
10.4999097156
 20
10.0333585612
 30
0.0
 10
10.4991198069
 20
10.0328175181
 30
0.0
 10
10.4983299027
 20
10.0322764749
 30
0.0
 10
10.4976716352
 20
10.0318256062
 30
0.0
 10
10.4971450524
 20
10.0314649098
 30
0.0
 10
10.4968158674
 20
10.0312394777
 30
0.0
 10
10.4965526813
 20
10.0310591247
 30
0.0
 10
10.4963548485
 20
10.0309238801
 30
0.0
 10
10.4961913977
 20
10.0308111122
 30
0.0
 10
10.4960742153
 20
10.0307323004
 30
0.0
 10
10.4960115741
 20
10.0306870688
 30
0.0
 10
10.4959524232
 20
10.030653698
 30
0.0
 10
10.4959397924
 20
10.0306182139
 30
0.0
 10
10.4959067245
 20
10.0305716389
 30
0.0
 10
10.4958564161
 20
10.0304897892
 30
0.0
 10
10.4957805943
 20
10.0303730406
 30
0.0
 10
10.4956913
 20
10.0302328654
 30
0.0
 10
10.4955716501
 20
10.030045992
 30
0.0
 10
10.4954222899
 20
10.0298123911
 30
0.0
 10
10.4951832007
 20
10.0294386348
 30
0.0
 10
10.4948843778
 20
10.0289714376
 30
0.0
 10
10.4945257738
 20
10.0284108018
 30
0.0
 10
10.4941671743
 20
10.0278501658
 30
0.0
 10
10.49368904
 20
10.0271026511
 30
0.0
 10
10.4930913727
 20
10.0261682578
 30
0.0
 10
10.492493705
 20
10.0252338644
 30
0.0
 10
10.4920155713
 20
10.0244863498
 30
0.0
 10
10.4916569699
 20
10.0239257138
 30
0.0
 10
10.4912983729
 20
10.0233650777
 30
0.0
 10
10.4909995283
 20
10.0228978812
 30
0.0
 10
10.4907604834
 20
10.0225241235
 30
0.0
 10
10.4906110103
 20
10.0222905261
 30
0.0
 10
10.4904915922
 20
10.0221036455
 30
0.0
 10
10.4904015894
 20
10.0219634926
 30
0.0
 10
10.4903279846
 20
10.0218466744
 30
0.0
 10
10.4902737184
 20
10.0217649489
 30
0.0
 10
10.4902469919
 20
10.0217181749
 30
0.0
 10
10.4902148825
 20
10.0216833019
 30
0.0
 10
10.4902288898
 20
10.0216476361
 30
0.0
 10
10.4902314801
 20
10.0216003581
 30
0.0
 10
10.490243508
 20
10.021517493
 30
0.0
 10
10.4902567723
 20
10.0213991815
 30
0.0
 10
10.4902743667
 20
10.0212571789
 30
0.0
 10
10.49029724
 20
10.0210678521
 30
0.0
 10
10.4903260323
 20
10.0208311903
 30
0.0
 10
10.4903719878
 20
10.0204525332
 30
0.0
 10
10.4904294707
 20
10.0199792112
 30
0.0
 10
10.4904984336
 20
10.0194112251
 30
0.0
 10
10.490567401
 20
10.0188432389
 30
0.0
 10
10.4906593559
 20
10.0180859241
 30
0.0
 10
10.4907743001
 20
10.0171392805
 30
0.0
 10
10.490889244
 20
10.0161926368
 30
0.0
 10
10.4909811995
 20
10.015435322
 30
0.0
 10
10.491050165
 20
10.0148673358
 30
0.0
 10
10.4911191349
 20
10.0142993497
 30
0.0
 10
10.4911765962
 20
10.0138260276
 30
0.0
 10
10.4912225958
 20
10.0134473709
 30
0.0
 10
10.4912512759
 20
10.0132107081
 30
0.0
 10
10.4912743794
 20
10.0130213832
 30
0.0
 10
10.4912912705
 20
10.0128793749
 30
0.0
 10
10.4913067354
 20
10.0127610813
 30
0.0
 10
10.4913148348
 20
10.0126781842
 30
0.0
 10
10.4913237195
 20
10.0126309575
 30
0.0
 10
10.4913183926
 20
10.0125951344
 30
0.0
 10
10.491358899
 20
10.012560852
 30
0.0
 10
10.4913969204
 20
10.0125146047
 30
0.0
 10
10.4914709066
 20
10.0124339223
 30
0.0
 10
10.4915727069
 20
10.0123185309
 30
0.0
 10
10.4916965341
 20
10.0121801172
 30
0.0
 10
10.4918610548
 20
10.011995546
 30
0.0
 10
10.4920669051
 20
10.0117648388
 30
0.0
 10
10.4923961541
 20
10.0113957034
 30
0.0
 10
10.4928077535
 20
10.0109342855
 30
0.0
 10
10.4933016565
 20
10.0103805835
 30
0.0
 10
10.4937955639
 20
10.0098268816
 30
0.0
 10
10.4944541055
 20
10.0090886124
 30
0.0
 10
10.4952772831
 20
10.0081657759
 30
0.0
 10
10.4961004603
 20
10.0072429394
 30
0.0
 10
10.4967590025
 20
10.0065046702
 30
0.0
 10
10.497252908
 20
10.0059509682
 30
0.0
 10
10.4977468179
 20
10.0053972665
 30
0.0
 10
10.4981583958
 20
10.0049358476
 30
0.0
 10
10.4984876888
 20
10.0045667143
 30
0.0
 10
10.4986934271
 20
10.0043360017
 30
0.0
 10
10.4988581776
 20
10.0041514416
 30
0.0
 10
10.4989813029
 20
10.0040129942
 30
0.0
 10
10.499085299
 20
10.0038977082
 30
0.0
 10
10.4991553653
 20
10.0038168376
 30
0.0
 10
10.4991996673
 20
10.0037708919
 30
0.0
 10
10.4992208819
 20
10.0037356831
 30
0.0
 10
10.499288012
 20
10.0037033394
 30
0.0
 10
10.4993615031
 20
10.0036592151
 30
0.0
 10
10.4994975744
 20
10.0035824632
 30
0.0
 10
10.4996880608
 20
10.0034725741
 30
0.0
 10
10.4999183143
 20
10.0033408115
 30
0.0
 10
10.5002247358
 20
10.0031650915
 30
0.0
 10
10.5006079623
 20
10.0029454541
 30
0.0
 10
10.5012210132
 20
10.0025940272
 30
0.0
 10
10.501987365
 20
10.002154746
 30
0.0
 10
10.5029069708
 20
10.0016276075
 30
0.0
 10
10.503826581
 20
10.0011004693
 30
0.0
 10
10.5050527264
 20
10.0003976182
 30
0.0
 10
10.5065854086
 20
9.9995190544
 30
0.0
 10
10.508118091
 20
9.9986404907
 30
0.0
 10
10.509344236
 20
9.9979376395
 30
0.0
 10
10.5102638475
 20
9.9974105017
 30
0.0
 10
10.5111834485
 20
9.9968833619
 30
0.0
 10
10.5119498152
 20
9.9964440847
 30
0.0
 10
10.5125628357
 20
9.9960926496
 30
0.0
 10
10.5129461394
 20
9.9958730329
 30
0.0
 10
10.5132524026
 20
9.9956972705
 30
0.0
 10
10.5134831395
 20
9.9955656374
 30
0.0
 10
10.5136721135
 20
9.9954553429
 30
0.0
 10
10.5138307092
 20
9.9953684537
 30
0.0
 10
10.5139293906
 20
9.9952996079
 30
0.0
 10
10.5141054252
 20
9.9952448041
 30
0.0
 10
10.5143131175
 20
9.9951668274
 30
0.0
 10
10.5145820034
 20
9.9950710394
 30
0.0
 10
10.5149006984
 20
9.9949553734
 30
0.0
 10
10.5153270111
 20
9.9948014037
 30
0.0
 10
10.5158594273
 20
9.9946088554
 30
0.0
 10
10.5167115586
 20
9.9943008263
 30
0.0
 10
10.5177766317
 20
9.9939157733
 30
0.0
 10
10.5190547584
 20
9.9934537169
 30
0.0
 10
10.5203328746
 20
9.9929916586
 30
0.0
 10
10.5220370335
 20
9.9923755816
 30
0.0
 10
10.5241672293
 20
9.9916054847
 30
0.0
 10
10.5267234716
 20
9.9906813701
 30
0.0
 10
10.5288536527
 20
9.9899112699
 30
0.0
 10
10.5305578439
 20
9.9892952002
 30
0.0
 10
10.5316228578
 20
9.9889101327
 30
0.0
 10
10.5324751109
 20
9.9886021336
 30
0.0
 10
10.5331136382
 20
9.9883709841
 30
0.0
 10
10.533647852
 20
9.9881788371
 30
0.0
 10
10.5340176652
 20
9.988043397
 30
0.0
 10
10.5342354459
 20
9.987967466
 30
0.0
 10
10.5343805864
 20
9.9879063953
 30
0.0
 10
10.5345952776
 20
9.9878610832
 30
0.0
 10
10.5348572724
 20
9.9877951702
 30
0.0
 10
10.5353270665
 20
9.9876823837
 30
0.0
 10
10.5359922916
 20
9.987519921
 30
0.0
 10
10.5367930911
 20
9.987325539
 30
0.0
 10
10.5378599403
 20
9.9870661628
 30
0.0
 10
10.5391938042
 20
9.9867420111
 30
0.0
 10
10.5413278175
 20
9.98622333
 30
0.0
 10
10.5439953924
 20
9.9855749919
 30
0.0
 10
10.5471964559
 20
9.98479698
 30
0.0
 10
10.5503975315
 20
9.9840189714
 30
0.0
 10
10.5530650762
 20
9.983370625
 30
0.0
 10
10.5551991499
 20
9.9828519606
 30
0.0
 10
10.5565328602
 20
9.9825277665
 30
0.0
 10
10.5576000247
 20
9.9822684772
 30
0.0
 10
10.5583998608
 20
9.9820738296
 30
0.0
 10
10.5590681001
 20
9.9819121978
 30
0.0
 10
10.5595325133
 20
9.9817979281
 30
0.0
 10
10.5598031299
 20
9.9817343915
 30
0.0
 10
10.5599913377
 20
9.9816817802
 30
0.0
 10
10.5602359452
 20
9.9816481239
 30
0.0
 10
10.5605424157
 20
9.9815966372
 30
0.0
 10
10.561087905
 20
9.9815096159
 30
0.0
 10
10.5618623833
 20
9.9813836892
 30
0.0
 10
10.5627938085
 20
9.9812332665
 30
0.0
 10
10.5640349924
 20
9.9810324622
 30
0.0
 10
10.5655867175
 20
9.9807815392
 30
0.0
 10
10.5680693406
 20
9.9803800164
 30
0.0
 10
10.5711726667
 20
9.9798781288
 30
0.0
 10
10.5748966366
 20
9.9792758564
 30
0.0
 10
10.5786206167
 20
9.9786735877
 30
0.0
 10
10.5817239174
 20
9.9781716906
 30
0.0
 10
10.5842065912
 20
9.9777701869
 30
0.0
 10
10.5857581874
 20
9.9775192153
 30
0.0
 10
10.5869996359
 20
9.9773185107
 30
0.0
 10
10.5879302527
 20
9.9771677835
 30
0.0
 10
10.5887072602
 20
9.9770428096
 30
0.0
 10
10.5892482346
 20
9.9769540874
 30
0.0
 10
10.5895619392
 20
9.976905326
 30
0.0
 10
10.5897843257
 20
9.9768632983
 30
0.0
 10
10.5900559917
 20
9.9768421287
 30
0.0
 10
10.5904010238
 20
9.976806627
 30
0.0
 10
10.5910128387
 20
9.9767478889
 30
0.0
 10
10.5918826729
 20
9.9766622051
 30
0.0
 10
10.5929282662
 20
9.9765601431
 30
0.0
 10
10.5943217646
 20
9.9764237955
 30
0.0
 10
10.5960638519
 20
9.9762534517
 30
0.0
 10
10.5988510717
 20
9.975980851
 30
0.0
 10
10.6023351377
 20
9.9756401174
 30
0.0
 10
10.6065159993
 20
9.9752312297
 30
0.0
 10
10.6106968655
 20
9.974822344
 30
0.0
 10
10.6162713522
 20
9.9742771623
 30
0.0
 10
10.6204522176
 20
9.9738682762
 30
0.0
 10
10.6232394611
 20
9.9735956854
 30
0.0
  0
ENDSEC
  0
SECTION
  2
OBJECTS
  0
DICTIONARY
  5
C
100
AcDbDictionary
280
0
281
1
  3
ACAD_GROUP
350
D
  3
ACAD_MLINESTYLE
350
17
  3
ACAD_LAYOUT
350
1A
  3
ACAD_PLOTSETTINGS
350
19
  3
ACAD_PLOTSTYLENAME
350
E
  3
ACAD_IMAGE_DICT
350
       402
  3
ACAD_IMAGE_VARS
350
       403
  3
ACAD_TABLESTYLE
350
       404
  0
IMAGEDEF_REACTOR
  5
401
100
AcDbRasterImageDefReactor
 90
2
330
292
  0
DICTIONARY
  5
D
102
{ACAD_REACTORS
330
C
102
}
100
AcDbDictionary
280
0
281
1
  0
ACDBDICTIONARYWDFLT
  5
E
102
{ACAD_REACTORS
330
C
102
}
100
AcDbDictionary
281
1
  3
Normal
350
F
100
AcDbDictionaryWithDefault
340
F
  0
DICTIONARY
  5
402
330
C
100
AcDbDictionary
281
1
  3
XOU_assy_2_img_1
350
       407
  0
RASTERVARIABLES
  5
403
330
C
100
AcDbRasterVariables
 90
0
 70
0
 71
1
 72
5
  0
DICTIONARY
  5
17
102
{ACAD_REACTORS
330
C
102
}
100
AcDbDictionary
280
0
281
1
  3
Standard
350
18
  0
DICTIONARY
  5
404
330
C
100
AcDbDictionary
281
1
  3
Standard
350
       408
  3
Standard1
350
       409
  0
DICTIONARY
  5
19
102
{ACAD_REACTORS
330
C
102
}
100
AcDbDictionary
281
1
  0
DICTIONARY
  5
1A
102
{ACAD_REACTORS
330
C
102
}
100
AcDbDictionary
281
1
  3
Model
350
405
  3
Layout1
350
406
  0
ACDBPLACEHOLDER
  5
F
102
{ACAD_REACTORS
330
E
102
}
  0
MLINESTYLE
  5
18
102
{ACAD_REACTORS
330
17
102
}
100
AcDbMlineStyle
  2
STANDARD
 70
0
  3

 62
256
 51
90.0
 52
90.0
 71
2
 49
0.5
 62
256
  6
BYLAYER
 49
-0.5
 62
256
  6
BYLAYER
  0
LAYOUT
  5
405
102
{ACAD_REACTORS
330
1A
102
}
100
AcDbPlotSettings
  1

  2
none_device
  4
ANSI_C_(22.00_x_17.00_Inches)
  6

 40
0.0
 41
0.0
 42
0.0
 43
0.0
 44
558.8
 45
431.8
 46
0.0
 47
0.0
 48
0.0
 49
0.0
140
0.0
141
0.0
142
1.0
143
1.0
 70
1024
 72
0
 73
0
 74
0
  7

 75
0
147
1.0
148
0.0
149
0.0
100
AcDbLayout
  1
Model
 70
0
 71
0
 10
0.0
 20
0.0
 11
22.0
 21
17.0
 12
0.0
 22
0.0
 32
0.0
 14
0.0
 24
0.0
 34
0.0
 15
0.0
 25
0.0
 35
0.0
146
0.0
 13
0.0
 23
0.0
 33
0.0
 16
1.0
 26
0.0
 36
0.0
 17
0.0
 27
1.0
 37
0.0
 76
0
330
20C
345
0
346
0
  0
LAYOUT
  5
406
102
{ACAD_REACTORS
330
1A
102
}
100
AcDbPlotSettings
  1

  2
none_device
  4
ANSI_C_(22.00_x_17.00_Inches)
  6

 40
0.0
 41
0.0
 42
0.0
 43
0.0
 44
558.8
 45
431.8
 46
0.0
 47
0.0
 48
0.0
 49
0.0
140
0.0
141
0.0
142
1.0
143
1.0
 70
0
 72
0
 73
0
 74
0
  7

 75
0
147
1.0
148
0.0
149
0.0
100
AcDbLayout
  1
Layout1
 70
0
 71
1
 10
0.0
 20
0.0
 11
22.0
 21
17.0
 12
0.0
 22
0.0
 32
0.0
 14
0.0
 24
0.0
 34
0.0
 15
0.0
 25
0.0
 35
0.0
146
0.0
 13
0.0
 23
0.0
 33
0.0
 16
1.0
 26
0.0
 36
0.0
 17
0.0
 27
1.0
 37
0.0
 76
0
330
20D
345
0
346
0
  0
IMAGEDEF
  5
407
102
{ACAD_REACTORS
330
402
330
401
102
}
100
AcDbRasterImageDef
 90
0
  1
XOU_assy_2_img_1.png
 10
369.0
 20
92.0
 11
0.0066666667
 21
0.0066666667
280
1
281
0
  0
TABLESTYLE
  5
408
102
{ACAD_REACTORS
330
404
330
295
330
296
102
}
330
404
100
AcDbTableStyle
  3
Standard
 70
0
 71
0
 40
0.06
 41
0.06
280
1
281
1
  7
Standard
140
0.18
170
1
 62
0
 63
7
283
0
  7
Standard
140
0.18
170
1
 62
0
 63
7
283
0
  7
Standard
140
0.18
170
1
 62
0
 63
7
283
0
  0
TABLESTYLE
  5
409
102
{ACAD_REACTORS
330
404
330
294
102
}
330
404
100
AcDbTableStyle
  3
Standard1
 70
1
 71
0
 40
0.06
 41
0.06
280
1
281
1
  7
Standard
140
0.18
170
1
 62
0
 63
7
283
0
  7
Standard
140
0.18
170
1
 62
0
 63
7
283
0
  7
Standard
140
0.18
170
1
 62
0
 63
7
283
0
  0
ENDSEC
  0
EOF
