999
DXF file: XOL_assy_2.dxf
999
Pro/ENGINEER 2014200 by Parametric Technology Corporation
  0
SECTION
  2
HEADER
  9
$ACADVER
  1
AC1021
  9
$DWGCODEPAGE
  3
ANSI_1252
  9
$EXTMAX
 10
22.0
 20
17.0
 30
0.0
  9
$EXTMIN
 10
0.0
 20
0.0
 30
0.0
  9
$LIMMIN
 10
0.0
 20
0.0
  9
$LIMMAX
 10
22.0
 20
17.0
  9
$VIEWCTR
 10
11.0
 20
8.5
  9
$VIEWSIZE
 40
17.0
  9
$CLAYER
  8
0
  9
$LTSCALE
 40
1.21
  9
$CELTYPE
  6
BYLAYER
  9
$DIMSCALE
 40
1.0
  9
$DIMASZ
 40
0.1875
  9
$DIMEXO
 40
0.0625
  9
$DIMDLI
 40
0.836
  9
$DIMEXE
 40
0.125
  9
$DIMCEN
 40
0.198
  9
$DIMLFAC
 40
1.0
  9
$DIMBLK
  1
_FILLED
  9
$DIMTXT
 40
0.1
  9
$DIMTOL
 70
0
  9
$DIMLIM
 70
0
  9
$DIMTFAC
 40
1.0
  9
$DIMGAP
 40
0.09
  9
$DIMDSEP
 70
46
  9
$AUNITS
 70
0
  9
$PDMODE
 70
3
  9
$PDSIZE
 40
0.3125
  9
$HANDSEED
  5
411
  9
$TILEMODE
 70
1
  9
$MEASUREMENT
 70
0
  9
$INSUNITS
 70
1
  0
ENDSEC
  0
SECTION
  2
CLASSES
  0
CLASS
  1
ACDBDICTIONARYWDFLT
  2
AcDbDictionaryWithDefault
  3
AutoCAD 2000
 90
0
 91
1
280
0
281
0
  0
CLASS
  1
ACDBPLACEHOLDER
  2
AcDbPlaceHolder
  3
AutoCAD 2000
 90
0
 91
1
280
0
281
0
  0
CLASS
  1
LAYOUT
  2
AcDbLayout
  3
AutoCAD 2000
 90
0
 91
0
280
0
281
0
  0
CLASS
  1
RASTERVARIABLES
  2
AcDbRasterVariables
  3
ISM
 90
0
 91
1
280
0
281
0
  0
CLASS
  1
IMAGEDEF
  2
AcDbRasterImageDef
  3
ISM
 90
0
 91
1
280
0
281
0
  0
CLASS
  1
IMAGEDEF_REACTOR
  2
AcDbRasterImageDefReactor
  3
ISM
 90
0
 91
1
280
0
281
0
  0
CLASS
  1
IMAGE
  2
AcDbRasterImage
  3
ISM
 90
127
 91
1
280
0
281
1
  0
CLASS
  1
TABLESTYLE
  2
AcDbTableStyle
  3
ObjectDBX Classes
 90
2047
 91
1
280
0
281
0
  0
CLASS
  1
ACAD_TABLE
  2
AcDbTable
  3
ObjectDBX Classes
 90
1025
 91
3
280
0
281
1
  0
ENDSEC
  0
SECTION
  2
TABLES
  0
TABLE
  2
VPORT
  5
8
100
AcDbSymbolTable
 70
2
  0
VPORT
  5
1F4
100
AcDbSymbolTableRecord
100
AcDbViewportTableRecord
  2
*ACTIVE
 70
0
 10
0.0
 20
0.0
 11
1.0
 21
1.0
 12
11.0
 22
8.5
 13
0.0
 23
0.0
 14
1.0
 24
1.0
 15
0.0
 25
0.0
 16
0.0
 26
0.0
 36
1.0
 17
0.0
 27
0.0
 37
0.0
 40
17.0
 41
1.2941176471
 42
50.0
 43
0.0
 44
0.0
 50
0.0
 51
0.0
 71
0
 72
100
 73
1
 74
1
 75
0
 76
0
 77
0
 78
0
  0
ENDTAB
  0
TABLE
  2
LTYPE
  5
5
100
AcDbSymbolTable
 70
6
  0
LTYPE
  5
14
100
AcDbSymbolTableRecord
100
AcDbLinetypeTableRecord
  2
BYBLOCK
 70
0
  3

 72
65
 73
0
 40
0.0
  0
LTYPE
  5
15
100
AcDbSymbolTableRecord
100
AcDbLinetypeTableRecord
  2
BYLAYER
 70
0
  3

 72
65
 73
0
 40
0.0
  0
LTYPE
  5
16
100
AcDbSymbolTableRecord
100
AcDbLinetypeTableRecord
  2
CONTINUOUS
 70
64
  3
Solid line
 72
65
 73
0
 40
0.0
  0
LTYPE
  5
1F5
100
AcDbSymbolTableRecord
100
AcDbLinetypeTableRecord
  2
CENTER
 70
64
  3
____ _ ____ _ ____ _ ____ _ ____ _ ____ _ ____
 72
65
 73
4
 40
0.6
 49
0.375
 74
0
 49
-0.075
 74
0
 49
0.075
 74
0
 49
-0.075
 74
0
  0
LTYPE
  5
1F6
100
AcDbSymbolTableRecord
100
AcDbLinetypeTableRecord
  2
HIDDEN
 70
64
  3
- - - - - - - - - - - - - - - - - - - -
 72
65
 73
2
 40
0.2
 49
0.1
 74
0
 49
-0.1
 74
0
  0
LTYPE
  5
1F7
100
AcDbSymbolTableRecord
100
AcDbLinetypeTableRecord
  2
PHANTOM
 70
64
  3
_____ _ _ _____ _ _ _____ _ _ _____
 72
65
 73
6
 40
0.8
 49
0.45
 74
0
 49
-0.05
 74
0
 49
0.1
 74
0
 49
-0.05
 74
0
 49
0.1
 74
0
 49
-0.05
 74
0
  0
LTYPE
  5
1F8
100
AcDbSymbolTableRecord
100
AcDbLinetypeTableRecord
  2
DOT
 70
64
  3
. . . . . . . . . . . . . . . . . . . .
 72
65
 73
2
 40
0.2
 49
0.1
 74
0
 49
-0.1
 74
0
  0
LTYPE
  5
1F9
100
AcDbSymbolTableRecord
100
AcDbLinetypeTableRecord
  2
DASHED
 70
64
  3
- - - - - - - - - - - - - - - - - - - -
 72
65
 73
2
 40
0.2
 49
0.1
 74
0
 49
-0.1
 74
0
  0
ENDTAB
  0
TABLE
  2
LAYER
  5
2
100
AcDbSymbolTable
 70
36
  0
LAYER
  5
10
100
AcDbSymbolTableRecord
100
AcDbLayerTableRecord
  2
0
 70
0
 62
7
  6
CONTINUOUS
370
-3
390
F
  0
LAYER
  5
1FA
100
AcDbSymbolTableRecord
100
AcDbLayerTableRecord
  2
DEFAULT_1
 70
0
 62
7
  6
CENTER
370
-3
390
F
  0
LAYER
  5
1FB
100
AcDbSymbolTableRecord
100
AcDbLayerTableRecord
  2
DEFAULT_2
 70
0
 62
8
  6
HIDDEN
370
-3
390
F
  0
LAYER
  5
1FC
100
AcDbSymbolTableRecord
100
AcDbLayerTableRecord
  2
DEFAULT_3
 70
0
 62
7
  6
PHANTOM
370
-3
390
F
  0
LAYER
  5
1FD
100
AcDbSymbolTableRecord
100
AcDbLayerTableRecord
  2
01___PRT_ALL_DTM_PLN
 70
0
 62
7
  6
CONTINUOUS
370
-3
390
F
  0
LAYER
  5
1FE
100
AcDbSymbolTableRecord
100
AcDbLayerTableRecord
  2
01___PRT_DEF_DTM_PLN
 70
0
 62
7
  6
CONTINUOUS
370
-3
390
F
  0
LAYER
  5
1FF
100
AcDbSymbolTableRecord
100
AcDbLayerTableRecord
  2
02___PRT_ALL_AXES
 70
0
 62
7
  6
CONTINUOUS
370
-3
390
F
  0
LAYER
  5
200
100
AcDbSymbolTableRecord
100
AcDbLayerTableRecord
  2
03___PRT_ALL_CURVES
 70
0
 62
7
  6
CONTINUOUS
370
-3
390
F
  0
LAYER
  5
201
100
AcDbSymbolTableRecord
100
AcDbLayerTableRecord
  2
04___PRT_ALL_DTM_PNT
 70
0
 62
7
  6
CONTINUOUS
370
-3
390
F
  0
LAYER
  5
202
100
AcDbSymbolTableRecord
100
AcDbLayerTableRecord
  2
05___PRT_ALL_DTM_CSYS
 70
0
 62
7
  6
CONTINUOUS
370
-3
390
F
  0
LAYER
  5
203
100
AcDbSymbolTableRecord
100
AcDbLayerTableRecord
  2
05___PRT_DEF_DTM_CSYS
 70
0
 62
7
  6
CONTINUOUS
370
-3
390
F
  0
LAYER
  5
204
100
AcDbSymbolTableRecord
100
AcDbLayerTableRecord
  2
06___PRT_ALL_SURFS
 70
0
 62
7
  6
CONTINUOUS
370
-3
390
F
  0
LAYER
  5
205
100
AcDbSymbolTableRecord
100
AcDbLayerTableRecord
  2
DATUM_PLANES
 70
0
 62
7
  6
CONTINUOUS
370
-3
390
F
  0
LAYER
  5
206
100
AcDbSymbolTableRecord
100
AcDbLayerTableRecord
  2
PORT_AREAS
 70
0
 62
7
  6
CONTINUOUS
370
-3
390
F
  0
LAYER
  5
207
100
AcDbSymbolTableRecord
100
AcDbLayerTableRecord
  2
SUNNBOMCOSMETIC
 70
0
 62
7
  6
CONTINUOUS
370
-3
390
F
  0
LAYER
  5
208
100
AcDbSymbolTableRecord
100
AcDbLayerTableRecord
  2
SUNNBOMSTAMPING
 70
0
 62
7
  6
CONTINUOUS
370
-3
390
F
  0
LAYER
  5
209
100
AcDbSymbolTableRecord
100
AcDbLayerTableRecord
  2
THREADS
 70
0
 62
7
  6
CONTINUOUS
370
-3
390
F
  0
ENDTAB
  0
TABLE
  2
STYLE
  5
3
100
AcDbSymbolTable
 70
1
  0
STYLE
  5
11
100
AcDbSymbolTableRecord
100
AcDbTextStyleTableRecord
  2
STANDARD
 70
0
 40
0.0
 41
0.8
 50
0.0
 71
0
 42
0.2
  3
txt
  4

  0
STYLE
  5
20A
100
AcDbSymbolTableRecord
100
AcDbTextStyleTableRecord
  2
TEXTSTYLE_1
 70
0
 40
0.0
 41
0.8
 50
0.0
 71
0
 42
0.2
  3
gdt
  4

  0
ENDTAB
  0
TABLE
  2
VIEW
  5
6
100
AcDbSymbolTable
 70
0
  0
ENDTAB
  0
TABLE
  2
UCS
  5
7
100
AcDbSymbolTable
 70
0
  0
ENDTAB
  0
TABLE
  2
APPID
  5
9
100
AcDbSymbolTable
 70
1
  0
APPID
  5
20B
100
AcDbSymbolTableRecord
100
AcDbRegAppTableRecord
  2
ACAD
 70
0
  0
ENDTAB
  0
TABLE
  2
BLOCK_RECORD
  5
1
100
AcDbSymbolTable
 70
0
  0
BLOCK_RECORD
  5
20C
100
AcDbSymbolTableRecord
100
AcDbBlockTableRecord
  2
*Model_Space
  0
BLOCK_RECORD
  5
20D
100
AcDbSymbolTableRecord
100
AcDbBlockTableRecord
  2
*Paper_Space
  0
BLOCK_RECORD
  5
20E
100
AcDbSymbolTableRecord
100
AcDbBlockTableRecord
  2
SUN_FIRST_THIRD_ANGLE_BL0
  0
BLOCK_RECORD
  5
20F
100
AcDbSymbolTableRecord
100
AcDbBlockTableRecord
  2
*T1
  0
BLOCK_RECORD
  5
210
100
AcDbSymbolTableRecord
100
AcDbBlockTableRecord
  2
*T2
  0
BLOCK_RECORD
  5
211
100
AcDbSymbolTableRecord
100
AcDbBlockTableRecord
  2
*T3
  0
ENDTAB
  0
TABLE
  2
DIMSTYLE
  5
A
100
AcDbSymbolTable
 70
1
100
AcDbDimStyleTable
 71
0
  0
DIMSTYLE
105
212
100
AcDbSymbolTableRecord
100
AcDbDimStyleTableRecord
  2
STANDARD
 70
0
  3

  4

 40
1.0
 41
0.1875
 42
0.0625
 43
0.38
 44
0.125
 45
0.0
 46
0.0
 47
0.001
 48
0.001
140
0.1
141
0.09
142
0.0
143
25.4
144
1.0
145
0.0
146
1.0
147
0.09
 71
0.0
 72
0.0
 73
1
 74
1
 75
0
 76
0
 77
0
 78
4
170
0
171
2
172
0
173
0
174
0
175
0
176
0
177
0
178
0
270
2
271
3
272
3
273
2
274
2
275
0
280
0
281
0
282
0
283
1
284
4
285
0
286
0
287
3
288
0
340
11
278
46
  0
ENDTAB
  0
ENDSEC
  0
SECTION
  2
BLOCKS
  0
BLOCK
  5
20
100
AcDbEntity
  8
0
100
AcDbBlockBegin
  2
*Model_Space
 70
0
 10
0.0
 20
0.0
 30
0.0
  3
*Model_Space
  1

  0
ENDBLK
  5
21
100
AcDbEntity
  8
0
100
AcDbBlockEnd
  0
BLOCK
  5
1C
100
AcDbEntity
  8
0
100
AcDbBlockBegin
  2
*Paper_Space
 70
0
 10
0.0
 20
0.0
 30
0.0
  3
*Paper_Space
  1

  0
ENDBLK
  5
1D
100
AcDbEntity
  8
0
100
AcDbBlockEnd
  0
BLOCK
  5
213
100
AcDbEntity
  8
0
100
AcDbBlockBegin
 62
2
  6
CONTINUOUS
  2
SUN_FIRST_THIRD_ANGLE_BL0
 70
64
 10
20.4816717061
 20
1.2289683772
  3
SUN_FIRST_THIRD_ANGLE_BL0
  1

  0
TEXT
  5
214
100
AcDbEntity
  8
0
100
AcDbText
 62
2
  6
CONTINUOUS
 10
19.4750896608
 20
1.4136269581
  7
STANDARD
 40
0.08
  1
FIRST ANGLE
 41
0.8
 72
0
100
AcDbText
  0
TEXT
  5
215
100
AcDbEntity
  8
0
100
AcDbText
 62
2
  6
CONTINUOUS
 10
20.7842537513
 20
1.4047600029
  7
STANDARD
 40
0.08
  1
THIRD ANGLE
 41
0.8
 72
0
100
AcDbText
  0
LINE
  5
216
100
AcDbEntity
  8
0
100
AcDbLine
 62
7
  6
CONTINUOUS
 10
19.4767170086
 20
1.1727031207
 11
19.6334271527
 21
1.1717972817
  0
LINE
  5
217
100
AcDbEntity
  8
0
100
AcDbLine
 62
7
  6
CONTINUOUS
 10
19.6596964832
 20
1.1717972817
 11
19.6950230232
 21
1.171593082
  0
LINE
  5
218
100
AcDbEntity
  8
0
100
AcDbLine
 62
7
  6
CONTINUOUS
 10
19.7194818561
 20
1.1708914427
 11
19.8852396156
 21
1.1699333054
  0
LINE
  5
219
100
AcDbEntity
  8
0
100
AcDbLine
 62
7
  6
CONTINUOUS
 10
19.4758111696
 20
1.2723454088
 11
19.88525039
 21
1.3511534004
  0
LINE
  5
21A
100
AcDbEntity
  8
0
100
AcDbLine
 62
7
  6
CONTINUOUS
 10
19.88525039
 20
1.3511534004
 11
19.8831348489
 21
0.9851647912
  0
LINE
  5
21B
100
AcDbEntity
  8
0
100
AcDbLine
 62
7
  6
CONTINUOUS
 10
19.8831348489
 20
0.9851647912
 11
19.4767170086
 21
1.0658141206
  0
LINE
  5
21C
100
AcDbEntity
  8
0
100
AcDbLine
 62
7
  6
CONTINUOUS
 10
19.4767170086
 20
1.0658141206
 11
19.4779056764
 21
1.2714536432
  0
CIRCLE
  5
21D
100
AcDbEntity
  8
0
100
AcDbCircle
 62
7
  6
CONTINUOUS
 10
20.2068232291
 20
1.1717972817
 40
0.175742101
  0
CIRCLE
  5
21E
100
AcDbEntity
  8
0
100
AcDbCircle
 62
7
  6
CONTINUOUS
 10
20.2068232291
 20
1.1717972817
 40
0.1005522074
  0
LINE
  5
21F
100
AcDbEntity
  8
0
100
AcDbLine
 62
7
  6
CONTINUOUS
 10
20.2077290681
 20
1.3756110529
 11
20.2071171714
 21
1.2379342989
  0
LINE
  5
220
100
AcDbEntity
  8
0
100
AcDbLine
 62
7
  6
CONTINUOUS
 10
20.2077290681
 20
1.2016899681
 11
20.2074674401
 21
1.1428236749
  0
LINE
  5
221
100
AcDbEntity
  8
0
100
AcDbLine
 62
7
  6
CONTINUOUS
 10
20.208634907
 20
1.101141841
 11
20.2080230104
 21
0.963465087
  0
LINE
  5
222
100
AcDbEntity
  8
0
100
AcDbLine
 62
7
  6
CONTINUOUS
 10
20.0066328138
 20
1.1745147986
 11
20.1443095678
 21
1.1739029019
  0
LINE
  5
223
100
AcDbEntity
  8
0
100
AcDbLine
 62
7
  6
CONTINUOUS
 10
20.1832714155
 20
1.1727031207
 11
20.238153505
 21
1.172335442
  0
LINE
  5
224
100
AcDbEntity
  8
0
100
AcDbLine
 62
7
  6
CONTINUOUS
 10
20.2756669918
 20
1.1717972817
 11
20.407916871
 21
1.1712095044
  0
CIRCLE
  5
225
100
AcDbEntity
  8
0
100
AcDbCircle
 62
7
  6
CONTINUOUS
 10
20.7509457401
 20
1.1693297793
 40
0.1722024983
  0
CIRCLE
  5
226
100
AcDbEntity
  8
0
100
AcDbCircle
 62
7
  6
CONTINUOUS
 10
20.7509457401
 20
1.1693297793
 40
0.0985164967
  0
LINE
  5
227
100
AcDbEntity
  8
0
100
AcDbLine
 62
7
  6
CONTINUOUS
 10
20.7169767782
 20
1.170462078
 11
20.7825395137
 21
1.1682766535
  0
LINE
  5
228
100
AcDbEntity
  8
0
100
AcDbLine
 62
7
  6
CONTINUOUS
 10
20.8177513651
 20
1.1693297793
 11
20.947965719
 21
1.1693297793
  0
LINE
  5
229
100
AcDbEntity
  8
0
100
AcDbLine
 62
7
  6
CONTINUOUS
 10
20.6875370113
 20
1.170462078
 11
20.5573226574
 21
1.170462078
  0
LINE
  5
22A
100
AcDbEntity
  8
0
100
AcDbLine
 62
7
  6
CONTINUOUS
 10
20.7486811426
 20
1.1987695462
 11
20.7486811426
 21
1.1432869085
  0
LINE
  5
22B
100
AcDbEntity
  8
0
100
AcDbLine
 62
7
  6
CONTINUOUS
 10
20.7498134414
 20
1.1059210505
 11
20.7498134414
 21
0.9757066966
  0
LINE
  5
22C
100
AcDbEntity
  8
0
100
AcDbLine
 62
7
  6
CONTINUOUS
 10
20.7486811426
 20
1.2338708068
 11
20.7486811426
 21
1.3640851607
  0
LINE
  5
22D
100
AcDbEntity
  8
0
100
AcDbLine
 62
7
  6
CONTINUOUS
 10
21.0702539817
 20
1.2701043662
 11
21.4790138229
 21
1.3448360823
  0
LINE
  5
22E
100
AcDbEntity
  8
0
100
AcDbLine
 62
7
  6
CONTINUOUS
 10
21.4790138229
 20
1.3448360823
 11
21.4790138229
 21
0.9779712941
  0
LINE
  5
22F
100
AcDbEntity
  8
0
100
AcDbLine
 62
7
  6
CONTINUOUS
 10
21.4790138229
 20
0.9779712941
 11
21.069121683
 21
1.0617614
  0
LINE
  5
230
100
AcDbEntity
  8
0
100
AcDbLine
 62
7
  6
CONTINUOUS
 10
21.0702539817
 20
1.2701043662
 11
21.069121683
 21
1.0617614
  0
LINE
  5
231
100
AcDbEntity
  8
0
100
AcDbLine
 62
7
  6
CONTINUOUS
 10
21.4790138229
 20
1.1693297793
 11
21.3159628059
 21
1.1693297793
  0
LINE
  5
232
100
AcDbEntity
  8
0
100
AcDbLine
 62
7
  6
CONTINUOUS
 10
21.2876553377
 20
1.1693297793
 11
21.2502894796
 21
1.1693297793
  0
LINE
  5
233
100
AcDbEntity
  8
0
100
AcDbLine
 62
7
  6
CONTINUOUS
 10
21.2208497126
 20
1.1659328831
 11
21.0713862804
 21
1.1659328831
  0
LINE
  5
234
100
AcDbEntity
  8
0
100
AcDbLine
 62
7
  6
CONTINUOUS
 10
20.4796138713
 20
1.5284908897
 11
20.4766766948
 21
0.9294458646
  0
ENDBLK
  5
235
100
AcDbEntity
  8
0
  6
BYBLOCK
 62
0
100
AcDbBlockEnd
  0
BLOCK
  5
236
100
AcDbEntity
  8
0
100
AcDbBlockBegin
  2
*T1
 70
1
 10
0.0
 20
0.0
  3
*T1
  1

  0
LINE
  5
237
100
AcDbEntity
  8
0
100
AcDbLine
 62
2
  6
CONTINUOUS
 10
9.275
 20
0.0
 11
-0.0
 21
0.0
  0
LINE
  5
238
100
AcDbEntity
  8
0
100
AcDbLine
 62
2
  6
CONTINUOUS
 10
9.275
 20
0.0
 11
9.275
 21
1.25
  0
LINE
  5
239
100
AcDbEntity
  8
0
100
AcDbLine
 62
2
  6
CONTINUOUS
 10
9.275
 20
0.625
 11
-0.0
 21
0.625
  0
LINE
  5
23A
100
AcDbEntity
  8
0
100
AcDbLine
 62
2
  6
CONTINUOUS
 10
9.275
 20
1.25
 11
-0.0
 21
1.25
  0
LINE
  5
23B
100
AcDbEntity
  8
0
100
AcDbLine
 62
2
  6
CONTINUOUS
 10
6.8
 20
0.0
 11
6.8
 21
1.25
  0
LINE
  5
23C
100
AcDbEntity
  8
0
100
AcDbLine
 62
2
  6
CONTINUOUS
 10
6.4
 20
0.0
 11
6.4
 21
0.625
  0
LINE
  5
23D
100
AcDbEntity
  8
0
100
AcDbLine
 62
2
  6
CONTINUOUS
 10
5.9
 20
0.0
 11
5.9
 21
0.625
  0
LINE
  5
23E
100
AcDbEntity
  8
0
100
AcDbLine
 62
2
  6
CONTINUOUS
 10
5.2
 20
0.0
 11
5.2
 21
0.625
  0
LINE
  5
23F
100
AcDbEntity
  8
0
100
AcDbLine
 62
2
  6
CONTINUOUS
 10
4.1
 20
0.0
 11
4.1
 21
1.25
  0
LINE
  5
240
100
AcDbEntity
  8
0
100
AcDbLine
 62
2
  6
CONTINUOUS
 10
-0.0
 20
0.0
 11
-0.0
 21
1.25
  0
MTEXT
  5
241
100
AcDbEntity
  8
0
100
AcDbMText
 62
2
  6
CONTINUOUS
  7
STANDARD
 71
2
 72
1
 10
6.6
 20
0.325
 30
0.0
 11
1.0
 21
0.0
 31
0.0
 44
0.9
  1
2
 40
0.125
 41
0.2
  0
MTEXT
  5
242
100
AcDbEntity
  8
0
100
AcDbMText
 62
2
  6
CONTINUOUS
  7
STANDARD
 71
2
 72
1
 10
6.15
 20
0.325
 30
0.0
 11
1.0
 21
0.0
 31
0.0
 44
0.9
  1
C
 40
0.125
 41
0.2
  0
MTEXT
  5
243
100
AcDbEntity
  8
0
100
AcDbMText
 62
2
  6
CONTINUOUS
  7
STANDARD
 71
2
 72
1
 10
5.55
 20
0.325
 30
0.0
 11
1.0
 21
0.0
 31
0.0
 44
0.9
  1
1.000
 40
0.125
 41
1.0
  0
MTEXT
  5
244
100
AcDbEntity
  8
0
100
AcDbMText
 62
2
  6
CONTINUOUS
  7
STANDARD
 71
2
 72
1
 10
4.65
 20
0.325
 30
0.0
 11
1.0
 21
0.0
 31
0.0
 44
0.9
  1
Nov-16-20
 40
0.125
 41
1.8
  0
MTEXT
  5
245
100
AcDbEntity
  8
0
100
AcDbMText
 62
2
  6
CONTINUOUS
  7
STANDARD
 71
2
 72
1
 10
2.05
 20
0.4625
 30
0.0
 11
1.0
 21
0.0
 31
0.0
 44
0.9
  1
T-11A Line mount\PCross port with shuttle on port 3s
 40
0.125
 41
6.8
  0
MTEXT
  5
246
100
AcDbEntity
  8
0
100
AcDbMText
 62
2
  6
CONTINUOUS
  7
STANDARD
 71
1
 72
1
 10
6.45
 20
0.5625
 30
0.0
 11
1.0
 21
0.0
 31
0.0
 44
0.9
  1
SHEET
 40
0.06
 41
0.48
  0
MTEXT
  5
247
100
AcDbEntity
  8
0
100
AcDbMText
 62
2
  6
CONTINUOUS
  7
STANDARD
 71
1
 72
1
 10
5.95
 20
0.5625
 30
0.0
 11
1.0
 21
0.0
 31
0.0
 44
0.9
  1
DWG SIZE
 40
0.06
 41
0.768
  0
MTEXT
  5
248
100
AcDbEntity
  8
0
100
AcDbMText
 62
2
  6
CONTINUOUS
  7
STANDARD
 71
1
 72
1
 10
5.25
 20
0.5625
 30
0.0
 11
1.0
 21
0.0
 31
0.0
 44
0.9
  1
SCALE
 40
0.06
 41
0.48
  0
MTEXT
  5
249
100
AcDbEntity
  8
0
100
AcDbMText
 62
2
  6
CONTINUOUS
  7
STANDARD
 71
1
 72
1
 10
4.15
 20
0.5625
 30
0.0
 11
1.0
 21
0.0
 31
0.0
 44
0.9
  1
DATE
 40
0.06
 41
0.384
  0
MTEXT
  5
24A
100
AcDbEntity
  8
0
100
AcDbMText
 62
2
  6
CONTINUOUS
  7
STANDARD
 71
1
 72
1
 10
0.05
 20
0.5625
 30
0.0
 11
1.0
 21
0.0
 31
0.0
 44
0.9
  1
DESCRIPTION
 40
0.06
 41
1.056
  0
MTEXT
  5
24B
100
AcDbEntity
  8
0
100
AcDbMText
 62
2
  6
CONTINUOUS
  7
STANDARD
 71
2
 72
1
 10
5.45
 20
1.0375
 30
0.0
 11
1.0
 21
0.0
 31
0.0
 44
0.9
  1
ALL DIMENSIONS IN INCH\PVIEWS ARE THIRD ANGLE
 40
0.12
 41
4.224
  0
MTEXT
  5
24C
100
AcDbEntity
  8
0
100
AcDbMText
 62
2
  6
CONTINUOUS
  7
STANDARD
 71
2
 72
1
 10
2.05
 20
0.95
 30
0.0
 11
1.0
 21
0.0
 31
0.0
 44
0.9
  1
XOL
 40
0.125
 41
0.6
  0
MTEXT
  5
24D
100
AcDbEntity
  8
0
100
AcDbMText
 62
2
  6
CONTINUOUS
  7
STANDARD
 71
1
 72
1
 10
0.05
 20
1.1875
 30
0.0
 11
1.0
 21
0.0
 31
0.0
 44
0.9
  1
MODEL
 40
0.06
 41
0.48
  0
ENDBLK
  5
24E
100
AcDbEntity
  8
0
  6
BYBLOCK
 62
0
100
AcDbBlockEnd
  0
BLOCK
  5
24F
100
AcDbEntity
  8
0
100
AcDbBlockBegin
  2
*T2
 70
1
 10
0.0
 20
0.0
  3
*T2
  1

  0
LINE
  5
250
100
AcDbEntity
  8
0
100
AcDbLine
 62
2
  6
CONTINUOUS
 10
0.0
 20
0.0
 11
9.055
 21
0.0
  0
LINE
  5
251
100
AcDbEntity
  8
0
100
AcDbLine
 62
2
  6
CONTINUOUS
 10
0.0
 20
0.0
 11
0.0
 21
-2.594
  0
LINE
  5
252
100
AcDbEntity
  8
0
100
AcDbLine
 62
2
  6
CONTINUOUS
 10
0.0
 20
-0.344
 11
9.055
 21
-0.344
  0
LINE
  5
253
100
AcDbEntity
  8
0
100
AcDbLine
 62
2
  6
CONTINUOUS
 10
0.0
 20
-0.594
 11
9.055
 21
-0.594
  0
LINE
  5
254
100
AcDbEntity
  8
0
100
AcDbLine
 62
2
  6
CONTINUOUS
 10
0.0
 20
-0.844
 11
9.055
 21
-0.844
  0
LINE
  5
255
100
AcDbEntity
  8
0
100
AcDbLine
 62
2
  6
CONTINUOUS
 10
0.0
 20
-1.094
 11
9.055
 21
-1.094
  0
LINE
  5
256
100
AcDbEntity
  8
0
100
AcDbLine
 62
2
  6
CONTINUOUS
 10
0.0
 20
-1.344
 11
9.055
 21
-1.344
  0
LINE
  5
257
100
AcDbEntity
  8
0
100
AcDbLine
 62
2
  6
CONTINUOUS
 10
0.0
 20
-1.594
 11
9.055
 21
-1.594
  0
LINE
  5
258
100
AcDbEntity
  8
0
100
AcDbLine
 62
2
  6
CONTINUOUS
 10
0.0
 20
-1.844
 11
9.055
 21
-1.844
  0
LINE
  5
259
100
AcDbEntity
  8
0
100
AcDbLine
 62
2
  6
CONTINUOUS
 10
0.0
 20
-2.094
 11
9.055
 21
-2.094
  0
LINE
  5
25A
100
AcDbEntity
  8
0
100
AcDbLine
 62
2
  6
CONTINUOUS
 10
0.0
 20
-2.344
 11
9.055
 21
-2.344
  0
LINE
  5
25B
100
AcDbEntity
  8
0
100
AcDbLine
 62
2
  6
CONTINUOUS
 10
0.0
 20
-2.594
 11
9.055
 21
-2.594
  0
LINE
  5
25C
100
AcDbEntity
  8
0
100
AcDbLine
 62
2
  6
CONTINUOUS
 10
3.055
 20
0.0
 11
3.055
 21
-2.594
  0
LINE
  5
25D
100
AcDbEntity
  8
0
100
AcDbLine
 62
2
  6
CONTINUOUS
 10
9.055
 20
0.0
 11
9.055
 21
-2.594
  0
MTEXT
  5
25E
100
AcDbEntity
  8
0
100
AcDbMText
 62
2
  6
CONTINUOUS
  7
STANDARD
 71
2
 72
1
 10
1.5275
 20
-0.0995
 30
0.0
 11
1.0
 21
0.0
 31
0.0
 44
0.9
  1
Technical Data
 40
0.145
 41
3.248
  0
MTEXT
  5
25F
100
AcDbEntity
  8
0
100
AcDbMText
 62
2
  6
CONTINUOUS
  7
STANDARD
 71
2
 72
1
 10
4.555
 20
-0.0995
 30
0.0
 11
1.0
 21
0.0
 31
0.0
 44
0.9
  1
U.S. Units
 40
0.145
 41
2.32
  0
MTEXT
  5
260
100
AcDbEntity
  8
0
100
AcDbMText
 62
2
  6
CONTINUOUS
  7
STANDARD
 71
2
 72
1
 10
7.555
 20
-0.0995
 30
0.0
 11
1.0
 21
0.0
 31
0.0
 44
0.9
  1
Metric Units
 40
0.145
 41
2.784
  0
MTEXT
  5
261
100
AcDbEntity
  8
0
100
AcDbMText
 62
2
  6
CONTINUOUS
  7
STANDARD
 71
2
 72
1
 10
1.5275
 20
-0.4065
 30
0.0
 11
1.0
 21
0.0
 31
0.0
 44
0.9
  1
Cavity
 40
0.125
 41
1.2
  0
MTEXT
  5
262
100
AcDbEntity
  8
0
100
AcDbMText
 62
2
  6
CONTINUOUS
  7
STANDARD
 71
2
 72
1
 10
6.055
 20
-0.4065
 30
0.0
 11
1.0
 21
0.0
 31
0.0
 44
0.9
  1
T-11A
 40
0.125
 41
1.0
  0
MTEXT
  5
263
100
AcDbEntity
  8
0
100
AcDbMText
 62
2
  6
CONTINUOUS
  7
STANDARD
 71
2
 72
1
 10
1.5275
 20
-0.6565
 30
0.0
 11
1.0
 21
0.0
 31
0.0
 44
0.9
  1
Body Features
 40
0.125
 41
2.6
  0
MTEXT
  5
264
100
AcDbEntity
  8
0
100
AcDbMText
 62
2
  6
CONTINUOUS
  7
STANDARD
 71
2
 72
1
 10
6.055
 20
-0.6565
 30
0.0
 11
1.0
 21
0.0
 31
0.0
 44
0.9
  1
Cross port with shuttle on port 3s
 40
0.125
 41
6.8
  0
MTEXT
  5
265
100
AcDbEntity
  8
0
100
AcDbMText
 62
2
  6
CONTINUOUS
  7
STANDARD
 71
2
 72
1
 10
1.5275
 20
-0.9065
 30
0.0
 11
1.0
 21
0.0
 31
0.0
 44
0.9
  1
Body Type
 40
0.125
 41
1.8
  0
MTEXT
  5
266
100
AcDbEntity
  8
0
100
AcDbMText
 62
2
  6
CONTINUOUS
  7
STANDARD
 71
2
 72
1
 10
6.055
 20
-0.9065
 30
0.0
 11
1.0
 21
0.0
 31
0.0
 44
0.9
  1
Line mount
 40
0.125
 41
2.0
  0
MTEXT
  5
267
100
AcDbEntity
  8
0
100
AcDbMText
 62
2
  6
CONTINUOUS
  7
STANDARD
 71
2
 72
1
 10
1.5275
 20
-1.1565
 30
0.0
 11
1.0
 21
0.0
 31
0.0
 44
0.9
  1
Interface
 40
0.125
 41
1.8
  0
MTEXT
  5
268
100
AcDbEntity
  8
0
100
AcDbMText
 62
2
  6
CONTINUOUS
  7
STANDARD
 71
2
 72
1
 10
6.055
 20
-1.1565
 30
0.0
 11
1.0
 21
0.0
 31
0.0
 44
0.9
  1
None
 40
0.125
 41
0.8
  0
MTEXT
  5
269
100
AcDbEntity
  8
0
100
AcDbMText
 62
2
  6
CONTINUOUS
  7
STANDARD
 71
2
 72
1
 10
1.5275
 20
-1.4065
 30
0.0
 11
1.0
 21
0.0
 31
0.0
 44
0.9
  1
Open Cavity Quantity
 40
0.125
 41
4.0
  0
MTEXT
  5
26A
100
AcDbEntity
  8
0
100
AcDbMText
 62
2
  6
CONTINUOUS
  7
STANDARD
 71
2
 72
1
 10
6.055
 20
-1.4065
 30
0.0
 11
1.0
 21
0.0
 31
0.0
 44
0.9
  1
2
 40
0.125
 41
0.2
  0
MTEXT
  5
26B
100
AcDbEntity
  8
0
100
AcDbMText
 62
2
  6
CONTINUOUS
  7
STANDARD
 71
2
 72
1
 10
1.5275
 20
-1.6565
 30
0.0
 11
1.0
 21
0.0
 31
0.0
 44
0.9
  1
Weight
 40
0.125
 41
1.2
  0
MTEXT
  5
26C
100
AcDbEntity
  8
0
100
AcDbMText
 62
2
  6
CONTINUOUS
  7
STANDARD
 71
2
 72
1
 10
4.555
 20
-1.6565
 30
0.0
 11
1.0
 21
0.0
 31
0.0
 44
0.9
  1
5.523 lb.
 40
0.125
 41
1.8
  0
MTEXT
  5
26D
100
AcDbEntity
  8
0
100
AcDbMText
 62
2
  6
CONTINUOUS
  7
STANDARD
 71
2
 72
1
 10
7.555
 20
-1.6565
 30
0.0
 11
1.0
 21
0.0
 31
0.0
 44
0.9
  1
2,505 kg.
 40
0.125
 41
1.8
  0
MTEXT
  5
26E
100
AcDbEntity
  8
0
100
AcDbMText
 62
2
  6
CONTINUOUS
  7
STANDARD
 71
2
 72
1
 10
1.5275
 20
-1.9065
 30
0.0
 11
1.0
 21
0.0
 31
0.0
 44
0.9
  1
Mounting Hole Diameter
 40
0.125
 41
4.4
  0
MTEXT
  5
26F
100
AcDbEntity
  8
0
100
AcDbMText
 62
2
  6
CONTINUOUS
  7
STANDARD
 71
2
 72
1
 10
4.555
 20
-1.9065
 30
0.0
 11
1.0
 21
0.0
 31
0.0
 44
0.9
  1
.42 in.
 40
0.125
 41
1.4
  0
MTEXT
  5
270
100
AcDbEntity
  8
0
100
AcDbMText
 62
2
  6
CONTINUOUS
  7
STANDARD
 71
2
 72
1
 10
7.555
 20
-1.9065
 30
0.0
 11
1.0
 21
0.0
 31
0.0
 44
0.9
  1
10,7 mm
 40
0.125
 41
1.4
  0
MTEXT
  5
271
100
AcDbEntity
  8
0
100
AcDbMText
 62
2
  6
CONTINUOUS
  7
STANDARD
 71
2
 72
1
 10
1.5275
 20
-2.1565
 30
0.0
 11
1.0
 21
0.0
 31
0.0
 44
0.9
  1
Mounting Hole Depth
 40
0.125
 41
3.8
  0
MTEXT
  5
272
100
AcDbEntity
  8
0
100
AcDbMText
 62
2
  6
CONTINUOUS
  7
STANDARD
 71
2
 72
1
 10
6.055
 20
-2.1565
 30
0.0
 11
1.0
 21
0.0
 31
0.0
 44
0.9
  1
Through
 40
0.125
 41
1.4
  0
MTEXT
  5
273
100
AcDbEntity
  8
0
100
AcDbMText
 62
2
  6
CONTINUOUS
  7
STANDARD
 71
2
 72
1
 10
1.5275
 20
-2.4065
 30
0.0
 11
1.0
 21
0.0
 31
0.0
 44
0.9
  1
Mounting Hole Quantity
 40
0.125
 41
4.4
  0
MTEXT
  5
274
100
AcDbEntity
  8
0
100
AcDbMText
 62
2
  6
CONTINUOUS
  7
STANDARD
 71
2
 72
1
 10
6.055
 20
-2.4065
 30
0.0
 11
1.0
 21
0.0
 31
0.0
 44
0.9
  1
2
 40
0.125
 41
0.2
  0
ENDBLK
  5
275
100
AcDbEntity
  8
0
  6
BYBLOCK
 62
0
100
AcDbBlockEnd
  0
BLOCK
  5
276
100
AcDbEntity
  8
0
100
AcDbBlockBegin
  2
*T3
 70
1
 10
0.0
 20
0.0
  3
*T3
  1

  0
LINE
  5
277
100
AcDbEntity
  8
0
100
AcDbLine
 62
2
  6
CONTINUOUS
 10
0.0
 20
0.0
 11
4.6
 21
0.0
  0
LINE
  5
278
100
AcDbEntity
  8
0
100
AcDbLine
 62
2
  6
CONTINUOUS
 10
0.0
 20
0.0
 11
0.0
 21
-1.43775
  0
LINE
  5
279
100
AcDbEntity
  8
0
100
AcDbLine
 62
2
  6
CONTINUOUS
 10
0.0
 20
-0.34375
 11
4.6
 21
-0.34375
  0
LINE
  5
27A
100
AcDbEntity
  8
0
100
AcDbLine
 62
2
  6
CONTINUOUS
 10
0.0
 20
-0.68775
 11
4.6
 21
-0.68775
  0
LINE
  5
27B
100
AcDbEntity
  8
0
100
AcDbLine
 62
2
  6
CONTINUOUS
 10
0.0
 20
-0.93775
 11
4.6
 21
-0.93775
  0
LINE
  5
27C
100
AcDbEntity
  8
0
100
AcDbLine
 62
2
  6
CONTINUOUS
 10
0.0
 20
-1.18775
 11
4.6
 21
-1.18775
  0
LINE
  5
27D
100
AcDbEntity
  8
0
100
AcDbLine
 62
2
  6
CONTINUOUS
 10
0.0
 20
-1.43775
 11
4.6
 21
-1.43775
  0
LINE
  5
27E
100
AcDbEntity
  8
0
100
AcDbLine
 62
2
  6
CONTINUOUS
 10
1.3
 20
-0.34375
 11
1.3
 21
-1.43775
  0
LINE
  5
27F
100
AcDbEntity
  8
0
100
AcDbLine
 62
2
  6
CONTINUOUS
 10
3.3
 20
-0.34375
 11
3.3
 21
-1.43775
  0
LINE
  5
280
100
AcDbEntity
  8
0
100
AcDbLine
 62
2
  6
CONTINUOUS
 10
4.6
 20
0.0
 11
4.6
 21
-1.43775
  0
MTEXT
  5
281
100
AcDbEntity
  8
0
100
AcDbMText
 62
2
  6
CONTINUOUS
  7
STANDARD
 71
2
 72
1
 10
2.3
 20
-0.099375
 30
0.0
 11
1.0
 21
0.0
 31
0.0
 44
0.9
  1
Port Headings
 40
0.145
 41
3.016
  0
MTEXT
  5
282
100
AcDbEntity
  8
0
100
AcDbMText
 62
2
  6
CONTINUOUS
  7
STANDARD
 71
2
 72
1
 10
0.65
 20
-0.44325
 30
0.0
 11
1.0
 21
0.0
 31
0.0
 44
0.9
  1
Product
 40
0.145
 41
1.624
  0
MTEXT
  5
283
100
AcDbEntity
  8
0
100
AcDbMText
 62
2
  6
CONTINUOUS
  7
STANDARD
 71
2
 72
1
 10
2.3
 20
-0.44325
 30
0.0
 11
1.0
 21
0.0
 31
0.0
 44
0.9
  1
Port
 40
0.145
 41
0.928
  0
MTEXT
  5
284
100
AcDbEntity
  8
0
100
AcDbMText
 62
2
  6
CONTINUOUS
  7
STANDARD
 71
2
 72
1
 10
3.95
 20
-0.44325
 30
0.0
 11
1.0
 21
0.0
 31
0.0
 44
0.9
  1
Size
 40
0.145
 41
0.928
  0
MTEXT
  5
285
100
AcDbEntity
  8
0
100
AcDbMText
 62
2
  6
CONTINUOUS
  7
STANDARD
 71
2
 72
1
 10
0.65
 20
-0.75025
 30
0.0
 11
1.0
 21
0.0
 31
0.0
 44
0.9
  1
XOL
 40
0.125
 41
0.6
  0
MTEXT
  5
286
100
AcDbEntity
  8
0
100
AcDbMText
 62
2
  6
CONTINUOUS
  7
STANDARD
 71
2
 72
1
 10
2.3
 20
-0.75025
 30
0.0
 11
1.0
 21
0.0
 31
0.0
 44
0.9
  1
Ports 1 &  2
 40
0.125
 41
2.4
  0
MTEXT
  5
287
100
AcDbEntity
  8
0
100
AcDbMText
 62
2
  6
CONTINUOUS
  7
STANDARD
 71
2
 72
1
 10
3.95
 20
-0.75025
 30
0.0
 11
1.0
 21
0.0
 31
0.0
 44
0.9
  1
SAE 12
 40
0.125
 41
1.2
  0
MTEXT
  5
288
100
AcDbEntity
  8
0
100
AcDbMText
 62
2
  6
CONTINUOUS
  7
STANDARD
 71
2
 72
1
 10
0.65
 20
-1.00025
 30
0.0
 11
1.0
 21
0.0
 31
0.0
 44
0.9
  1
XOL
 40
0.125
 41
0.6
  0
MTEXT
  5
289
100
AcDbEntity
  8
0
100
AcDbMText
 62
2
  6
CONTINUOUS
  7
STANDARD
 71
2
 72
1
 10
2.3
 20
-1.00025
 30
0.0
 11
1.0
 21
0.0
 31
0.0
 44
0.9
  1
Port V
 40
0.125
 41
1.2
  0
MTEXT
  5
28A
100
AcDbEntity
  8
0
100
AcDbMText
 62
2
  6
CONTINUOUS
  7
STANDARD
 71
2
 72
1
 10
3.95
 20
-1.00025
 30
0.0
 11
1.0
 21
0.0
 31
0.0
 44
0.9
  1
SAE 6
 40
0.125
 41
1.0
  0
MTEXT
  5
28B
100
AcDbEntity
  8
0
100
AcDbMText
 62
2
  6
CONTINUOUS
  7
STANDARD
 71
2
 72
1
 10
0.65
 20
-1.25025
 30
0.0
 11
1.0
 21
0.0
 31
0.0
 44
0.9
  1
XOL
 40
0.125
 41
0.6
  0
MTEXT
  5
28C
100
AcDbEntity
  8
0
100
AcDbMText
 62
2
  6
CONTINUOUS
  7
STANDARD
 71
2
 72
1
 10
2.3
 20
-1.25025
 30
0.0
 11
1.0
 21
0.0
 31
0.0
 44
0.9
  1
Gage Ports
 40
0.125
 41
2.0
  0
MTEXT
  5
28D
100
AcDbEntity
  8
0
100
AcDbMText
 62
2
  6
CONTINUOUS
  7
STANDARD
 71
2
 72
1
 10
3.95
 20
-1.25025
 30
0.0
 11
1.0
 21
0.0
 31
0.0
 44
0.9
  1
1/4" NPTF
 40
0.125
 41
1.8
  0
ENDBLK
  5
28E
100
AcDbEntity
  8
0
  6
BYBLOCK
 62
0
100
AcDbBlockEnd
  0
ENDSEC
  0
SECTION
  2
ENTITIES
  0
IMAGE
  5
28F
100
AcDbEntity
  8
0
100
AcDbRasterImage
 62
7
  6
CONTINUOUS
 10
19.2297077316
 20
0.3094318264
 30
0.0
 11
0.0066666667
 21
0.0
 31
0.0
 12
0.0
 22
0.0066666667
 32
0.0
 13
369.0
 23
92.0
340
       40E
 70
9
280
0
281
50
282
50
283
0
360
       408
 71
1
 91
2
 14
-0.5
 24
-0.5
 14
368.5
 24
91.5
  0
INSERT
  5
290
100
AcDbEntity
  8
0
100
AcDbBlockReference
 62
2
  6
CONTINUOUS
  2
SUN_FIRST_THIRD_ANGLE_BL0
 10
20.4816717061
 20
1.2289683772
  0
ACAD_TABLE
  5
291
100
AcDbEntity
  8
0
 62
2
  6
CONTINUOUS
100
AcDbBlockReference
  2
*T1
 10
12.42375
 20
0.30125
 30
0.0
100
AcDbTable
342
       410
343
20F
 11
1.0
 21
0.0
 31
0.0
 90
6
 91
4
 92
6
 93
20
 94
0
 95
0
 96
0
 70
1
 41
0.0
141
0.525
141
0.1
141
0.525
141
0.1
142
4.1
142
1.1
142
0.7
142
0.5
142
0.4
142
2.475
171
1
172
0
173
0
174
0
175
1
176
1
 91
33
178
0
145
0.0
301
CELL_VALUE
 90
4
  1
T-11A Line mount\PCross port with shuttle on port 3s
304
ACVALUE_END
170
2
140
0.125
171
1
172
0
173
0
174
0
175
1
176
1
 91
33
178
0
145
0.0
301
CELL_VALUE
 90
4
  1
Nov-16-20
304
ACVALUE_END
170
5
140
0.125
171
1
172
0
173
0
174
0
175
1
176
1
 91
33
178
0
145
0.0
301
CELL_VALUE
 90
4
  1
1.000
304
ACVALUE_END
170
5
140
0.125
171
1
172
0
173
0
174
0
175
1
176
1
 91
33
178
0
145
0.0
301
CELL_VALUE
 90
4
  1
C
304
ACVALUE_END
170
5
140
0.125
171
1
172
0
173
0
174
0
175
1
176
1
 91
33
178
0
145
0.0
301
CELL_VALUE
 90
4
  1
2
304
ACVALUE_END
170
5
140
0.125
171
1
172
0
173
0
174
0
175
1
176
1
 91
33
178
0
145
0.0
301
CELL_VALUE
 90
4
  1
 
304
ACVALUE_END
170
1
140
0.125
171
1
172
0
173
0
174
0
175
1
176
1
 91
33
178
0
145
0.0
301
CELL_VALUE
 90
4
  1
DESCRIPTION
304
ACVALUE_END
170
1
140
0.06
171
1
172
0
173
0
174
0
175
1
176
1
 91
33
178
0
145
0.0
301
CELL_VALUE
 90
4
  1
DATE
304
ACVALUE_END
170
1
140
0.06
171
1
172
0
173
0
174
0
175
1
176
1
 91
33
178
0
145
0.0
301
CELL_VALUE
 90
4
  1
SCALE
304
ACVALUE_END
170
1
140
0.06
171
1
172
0
173
0
174
0
175
1
176
1
 91
33
178
0
145
0.0
301
CELL_VALUE
 90
4
  1
DWG SIZE
304
ACVALUE_END
170
1
140
0.06
171
1
172
0
173
0
174
0
175
1
176
1
 91
33
178
0
145
0.0
301
CELL_VALUE
 90
4
  1
SHEET
304
ACVALUE_END
170
1
140
0.06
171
1
172
0
173
0
174
0
175
1
176
1
 91
33
178
0
145
0.0
301
CELL_VALUE
 90
4
  1
 
304
ACVALUE_END
170
1
140
0.125
171
1
172
0
173
0
174
0
175
1
176
1
 91
33
178
0
145
0.0
301
CELL_VALUE
 90
4
  1
XOL
304
ACVALUE_END
170
5
140
0.125
171
1
172
0
173
0
174
0
175
4
176
1
 91
33
178
0
145
0.0
301
CELL_VALUE
 90
4
  1
ALL DIMENSIONS IN INCH\PVIEWS ARE THIRD ANGLE
304
ACVALUE_END
170
5
140
0.12
171
1
172
0
173
1
174
0
175
1
176
1
 91
1
178
0
145
0.0
170
1
171
1
172
0
173
1
174
0
175
1
176
1
 91
1
178
0
145
0.0
170
1
171
1
172
0
173
1
174
0
175
1
176
1
 91
1
178
0
145
0.0
170
5
171
1
172
0
173
0
174
0
175
1
176
1
 91
33
178
0
145
0.0
301
CELL_VALUE
 90
4
  1
 
304
ACVALUE_END
170
1
140
0.125
171
1
172
0
173
0
174
0
175
1
176
1
 91
33
178
0
145
0.0
301
CELL_VALUE
 90
4
  1
MODEL
304
ACVALUE_END
170
1
140
0.06
171
1
172
0
173
0
174
0
175
1
176
1
 91
33
178
0
145
0.0
301
CELL_VALUE
 90
4
  1
 
304
ACVALUE_END
170
1
140
0.125
171
1
172
0
173
0
174
0
175
1
176
1
 91
33
178
0
145
0.0
301
CELL_VALUE
 90
4
  1
 
304
ACVALUE_END
170
1
140
0.125
171
1
172
0
173
0
174
0
175
1
176
1
 91
33
178
0
145
0.0
301
CELL_VALUE
 90
4
  1
 
304
ACVALUE_END
170
1
140
0.125
171
1
172
0
173
0
174
0
175
1
176
1
 91
33
178
0
145
0.0
301
CELL_VALUE
 90
4
  1
 
304
ACVALUE_END
170
1
140
0.125
171
1
172
0
173
0
174
0
175
1
176
1
 91
33
178
0
145
0.0
301
CELL_VALUE
 90
4
  1
 
304
ACVALUE_END
170
1
140
0.125
  0
ACAD_TABLE
  5
292
100
AcDbEntity
  8
0
 62
2
  6
CONTINUOUS
100
AcDbBlockReference
  2
*T2
 10
12.4237499994
 20
16.47875
 30
0.0
100
AcDbTable
342
       40F
343
210
 11
1.0
 21
0.0
 31
0.0
 90
22
 91
10
 92
3
 93
16
 94
0
 95
0
 96
0
 41
0.028
141
0.344
141
0.25
141
0.25
141
0.25
141
0.25
141
0.25
141
0.25
141
0.25
141
0.25
141
0.25
142
3.055
142
3.0
142
3.0
171
1
172
0
173
0
174
0
175
1
176
1
 91
33
178
0
145
0.0
301
CELL_VALUE
 90
4
  1
Technical Data
304
ACVALUE_END
170
5
140
0.145
171
1
172
0
173
0
174
0
175
1
176
1
 91
33
178
0
145
0.0
301
CELL_VALUE
 90
4
  1
U.S. Units
304
ACVALUE_END
170
5
140
0.145
171
1
172
0
173
0
174
0
175
1
176
1
 91
33
178
0
145
0.0
301
CELL_VALUE
 90
4
  1
Metric Units
304
ACVALUE_END
170
5
140
0.145
171
1
172
0
173
0
174
0
175
1
176
1
 91
33
178
0
145
0.0
301
CELL_VALUE
 90
4
  1
Cavity
304
ACVALUE_END
170
5
140
0.125
171
1
172
0
173
0
174
0
175
2
176
1
 91
33
178
0
145
0.0
301
CELL_VALUE
 90
4
  1
T-11A
304
ACVALUE_END
170
5
140
0.125
171
1
172
0
173
1
174
0
175
1
176
1
 91
1
178
0
145
0.0
170
1
171
1
172
0
173
0
174
0
175
1
176
1
 91
33
178
0
145
0.0
301
CELL_VALUE
 90
4
  1
Body Features
304
ACVALUE_END
170
5
140
0.125
171
1
172
0
173
0
174
0
175
2
176
1
 91
33
178
0
145
0.0
301
CELL_VALUE
 90
4
  1
Cross port with shuttle on port 3s
304
ACVALUE_END
170
5
140
0.125
171
1
172
0
173
1
174
0
175
1
176
1
 91
1
178
0
145
0.0
170
1
171
1
172
0
173
0
174
0
175
1
176
1
 91
33
178
0
145
0.0
301
CELL_VALUE
 90
4
  1
Body Type
304
ACVALUE_END
170
5
140
0.125
171
1
172
0
173
0
174
0
175
2
176
1
 91
33
178
0
145
0.0
301
CELL_VALUE
 90
4
  1
Line mount
304
ACVALUE_END
170
5
140
0.125
171
1
172
0
173
1
174
0
175
1
176
1
 91
1
178
0
145
0.0
170
1
171
1
172
0
173
0
174
0
175
1
176
1
 91
33
178
0
145
0.0
301
CELL_VALUE
 90
4
  1
Interface
304
ACVALUE_END
170
5
140
0.125
171
1
172
0
173
0
174
0
175
2
176
1
 91
33
178
0
145
0.0
301
CELL_VALUE
 90
4
  1
None
304
ACVALUE_END
170
5
140
0.125
171
1
172
0
173
1
174
0
175
1
176
1
 91
1
178
0
145
0.0
170
1
171
1
172
0
173
0
174
0
175
1
176
1
 91
33
178
0
145
0.0
301
CELL_VALUE
 90
4
  1
Open Cavity Quantity
304
ACVALUE_END
170
5
140
0.125
171
1
172
0
173
0
174
0
175
2
176
1
 91
33
178
0
145
0.0
301
CELL_VALUE
 90
4
  1
2
304
ACVALUE_END
170
5
140
0.125
171
1
172
0
173
1
174
0
175
1
176
1
 91
1
178
0
145
0.0
170
1
171
1
172
0
173
0
174
0
175
1
176
1
 91
33
178
0
145
0.0
301
CELL_VALUE
 90
4
  1
Weight
304
ACVALUE_END
170
5
140
0.125
171
1
172
0
173
0
174
0
175
1
176
1
 91
33
178
0
145
0.0
301
CELL_VALUE
 90
4
  1
5.523 lb.
304
ACVALUE_END
170
5
140
0.125
171
1
172
0
173
0
174
0
175
1
176
1
 91
33
178
0
145
0.0
301
CELL_VALUE
 90
4
  1
2,505 kg.
304
ACVALUE_END
170
5
140
0.125
171
1
172
0
173
0
174
0
175
1
176
1
 91
33
178
0
145
0.0
301
CELL_VALUE
 90
4
  1
Mounting Hole Diameter
304
ACVALUE_END
170
5
140
0.125
171
1
172
0
173
0
174
0
175
1
176
1
 91
33
178
0
145
0.0
301
CELL_VALUE
 90
4
  1
.42 in.
304
ACVALUE_END
170
5
140
0.125
171
1
172
0
173
0
174
0
175
1
176
1
 91
33
178
0
145
0.0
301
CELL_VALUE
 90
4
  1
10,7 mm
304
ACVALUE_END
170
5
140
0.125
171
1
172
0
173
0
174
0
175
1
176
1
 91
33
178
0
145
0.0
301
CELL_VALUE
 90
4
  1
Mounting Hole Depth
304
ACVALUE_END
170
5
140
0.125
171
1
172
0
173
0
174
0
175
2
176
1
 91
33
178
0
145
0.0
301
CELL_VALUE
 90
4
  1
Through
304
ACVALUE_END
170
5
140
0.125
171
1
172
0
173
1
174
0
175
1
176
1
 91
1
178
0
145
0.0
170
1
171
1
172
0
173
0
174
0
175
1
176
1
 91
33
178
0
145
0.0
301
CELL_VALUE
 90
4
  1
Mounting Hole Quantity
304
ACVALUE_END
170
5
140
0.125
171
1
172
0
173
0
174
0
175
2
176
1
 91
33
178
0
145
0.0
301
CELL_VALUE
 90
4
  1
2
304
ACVALUE_END
170
5
140
0.125
171
1
172
0
173
1
174
0
175
1
176
1
 91
1
178
0
145
0.0
170
1
  0
ACAD_TABLE
  5
293
100
AcDbEntity
  8
0
 62
2
  6
CONTINUOUS
100
AcDbBlockReference
  2
*T3
 10
0.52125
 20
1.959
 30
0.0
100
AcDbTable
342
       40F
343
211
 11
1.0
 21
0.0
 31
0.0
 90
22
 91
5
 92
3
 93
16
 94
0
 95
0
 96
0
 41
0.05
141
0.34375
141
0.344
141
0.25
141
0.25
141
0.25
142
1.3
142
2.0
142
1.3
171
1
172
0
173
0
174
0
175
3
176
1
 91
33
178
0
145
0.0
301
CELL_VALUE
 90
4
  1
Port Headings
304
ACVALUE_END
170
5
140
0.145
171
1
172
0
173
1
174
0
175
1
176
1
 91
1
178
0
145
0.0
170
1
171
1
172
0
173
1
174
0
175
1
176
1
 91
1
178
0
145
0.0
170
1
171
1
172
0
173
0
174
0
175
1
176
1
 91
33
178
0
145
0.0
301
CELL_VALUE
 90
4
  1
Product
304
ACVALUE_END
170
5
140
0.145
171
1
172
0
173
0
174
0
175
1
176
1
 91
33
178
0
145
0.0
301
CELL_VALUE
 90
4
  1
Port
304
ACVALUE_END
170
5
140
0.145
171
1
172
0
173
0
174
0
175
1
176
1
 91
33
178
0
145
0.0
301
CELL_VALUE
 90
4
  1
Size
304
ACVALUE_END
170
5
140
0.145
171
1
172
0
173
0
174
0
175
1
176
1
 91
33
178
0
145
0.0
301
CELL_VALUE
 90
4
  1
XOL
304
ACVALUE_END
170
5
140
0.125
171
1
172
0
173
0
174
0
175
1
176
1
 91
33
178
0
145
0.0
301
CELL_VALUE
 90
4
  1
Ports 1 &  2
304
ACVALUE_END
170
5
140
0.125
171
1
172
0
173
0
174
0
175
1
176
1
 91
33
178
0
145
0.0
301
CELL_VALUE
 90
4
  1
SAE 12
304
ACVALUE_END
170
5
140
0.125
171
1
172
0
173
0
174
0
175
1
176
1
 91
33
178
0
145
0.0
301
CELL_VALUE
 90
4
  1
XOL
304
ACVALUE_END
170
5
140
0.125
171
1
172
0
173
0
174
0
175
1
176
1
 91
33
178
0
145
0.0
301
CELL_VALUE
 90
4
  1
Port V
304
ACVALUE_END
170
5
140
0.125
171
1
172
0
173
0
174
0
175
1
176
1
 91
33
178
0
145
0.0
301
CELL_VALUE
 90
4
  1
SAE 6
304
ACVALUE_END
170
5
140
0.125
171
1
172
0
173
0
174
0
175
1
176
1
 91
33
178
0
145
0.0
301
CELL_VALUE
 90
4
  1
XOL
304
ACVALUE_END
170
5
140
0.125
171
1
172
0
173
0
174
0
175
1
176
1
 91
33
178
0
145
0.0
301
CELL_VALUE
 90
4
  1
Gage Ports
304
ACVALUE_END
170
5
140
0.125
171
1
172
0
173
0
174
0
175
1
176
1
 91
33
178
0
145
0.0
301
CELL_VALUE
 90
4
  1
1/4" NPTF
304
ACVALUE_END
170
5
140
0.125
  0
MTEXT
  5
294
100
AcDbEntity
  8
0
100
AcDbMText
 62
2
  6
CONTINUOUS
  7
STANDARD
 71
1
 72
1
 10
0.52125
 20
5.75995
 30
0.0
 11
1.0
 21
0.0
 31
0.0
 44
0.6
  3
Notes\P \P1. Important: Carefully consider\P   the maximum system pressure. The\P   pressure rating of the manifold is\P   dependent on the manifold material,\P   with the port type/size a secondary\P   consideration. Manifolds\P   constructed of alu
  1
minum are not\P   rated for pressures higher than\P   3000 psi (210 bar), regardless of\P   the port type/size specified.
 40
0.1
 41
3.04
  0
LINE
  5
295
100
AcDbEntity
  8
0
100
AcDbLine
 62
7
  6
CONTINUOUS
 10
0.30125
 20
0.30125
 11
0.30125
 21
16.69875
  0
LINE
  5
296
100
AcDbEntity
  8
0
100
AcDbLine
 62
7
  6
CONTINUOUS
 10
0.30125
 20
0.30125
 11
21.69875
 21
0.30125
  0
LINE
  5
297
100
AcDbEntity
  8
0
100
AcDbLine
 62
7
  6
CONTINUOUS
 10
0.30125
 20
16.69875
 11
21.69875
 21
16.69875
  0
LINE
  5
298
100
AcDbEntity
  8
0
100
AcDbLine
 62
7
  6
CONTINUOUS
 10
21.69875
 20
0.30125
 11
21.69875
 21
16.69875
  0
LINE
  5
299
100
AcDbEntity
  8
0
100
AcDbLine
 62
7
  6
CONTINUOUS
 10
8.0028429203
 20
6.7164499422
 11
8.0028429203
 21
9.4934868573
  0
LINE
  5
29A
100
AcDbEntity
  8
0
100
AcDbLine
 62
7
  6
CONTINUOUS
 10
8.0028429203
 20
9.4934868573
 11
9.1675276621
 21
10.6184859955
  0
LINE
  5
29B
100
AcDbEntity
  8
0
100
AcDbLine
 62
4
  6
CONTINUOUS
 10
8.3626502193
 20
7.8699268196
 11
8.3988724391
 21
7.7515036967
  0
LINE
  5
29C
100
AcDbEntity
  8
0
100
AcDbLine
 62
4
  6
CONTINUOUS
 10
9.0461737729
 20
10.2852669969
 11
9.0409973976
 21
10.2802670021
  0
LINE
  5
29D
100
AcDbEntity
  8
0
100
AcDbLine
 62
4
  6
CONTINUOUS
 10
8.5997112878
 20
9.8540173266
 11
8.5686530287
 21
9.8240173502
  0
LINE
  5
29E
100
AcDbEntity
  8
0
100
AcDbLine
 62
4
  6
CONTINUOUS
 10
8.977345348
 20
10.2712838386
 11
8.9623363392
 21
10.2642862484
  0
LINE
  5
29F
100
AcDbEntity
  8
0
100
AcDbLine
 62
4
  6
CONTINUOUS
 10
8.3988724391
 20
7.7515036967
 11
8.435094659
 21
7.8649027806
  0
LINE
  5
2A0
100
AcDbEntity
  8
0
100
AcDbLine
 62
7
  6
CONTINUOUS
 10
12.8324723379
 20
6.3815140045
 11
8.0028429203
 21
6.7164499422
  0
LINE
  5
2A1
100
AcDbEntity
  8
0
100
AcDbLine
 62
7
  6
CONTINUOUS
 10
9.8365854154
 20
9.734746197
 11
9.8358864145
 21
9.7340837311
  0
LINE
  5
2A2
100
AcDbEntity
  8
0
100
AcDbLine
 62
4
  6
CONTINUOUS
 10
10.0340243946
 20
9.8054576767
 11
10.0236716417
 21
9.7954576847
  0
LINE
  5
2A3
100
AcDbEntity
  8
0
100
AcDbLine
 62
4
  6
CONTINUOUS
 10
10.1364868517
 20
9.8144288181
 11
10.1054285926
 21
9.7844288417
  0
LINE
  5
2A4
100
AcDbEntity
  8
0
100
AcDbLine
 62
4
  6
CONTINUOUS
 10
9.9615799549
 20
9.8104817156
 11
9.9765889637
 21
9.8174793058
  0
LINE
  5
2A5
100
AcDbEntity
  8
0
100
AcDbLine
 62
4
  6
CONTINUOUS
 10
10.5678845338
 20
10.032555491
 11
10.5723214277
 21
10.0368412017
  0
LINE
  5
2A6
100
AcDbEntity
  8
0
100
AcDbLine
 62
4
  6
CONTINUOUS
 10
10.6080925086
 20
10.0113934159
 11
10.612529403
 21
10.015679127
  0
LINE
  5
2A7
100
AcDbEntity
  8
0
100
AcDbLine
 62
4
  6
CONTINUOUS
 10
10.6678313295
 20
10.0348109778
 11
10.6412099648
 21
10.0090967125
  0
LINE
  5
2A8
100
AcDbEntity
  8
0
100
AcDbLine
 62
4
  6
CONTINUOUS
 10
10.5142532096
 20
9.8493230256
 11
10.5453114686
 21
9.8793230019
  0
LINE
  5
2A9
100
AcDbEntity
  8
0
100
AcDbLine
 62
4
  6
CONTINUOUS
 10
10.6991655165
 20
10.0050774814
 11
10.7257868812
 21
10.0307917466
  0
LINE
  5
2AA
100
AcDbEntity
  8
0
100
AcDbLine
 62
4
  6
CONTINUOUS
 10
10.7278460783
 20
9.9984950669
 11
10.7589043374
 21
10.0284950432
  0
LINE
  5
2AB
100
AcDbEntity
  8
0
100
AcDbLine
 62
4
  6
CONTINUOUS
 10
10.5988301196
 20
9.8710180606
 11
10.5766456487
 21
9.849589506
  0
LINE
  5
2AC
100
AcDbEntity
  8
0
100
AcDbLine
 62
4
  6
CONTINUOUS
 10
10.78580163
 20
9.9944758357
 11
10.8168598891
 21
10.0244758121
  0
LINE
  5
2AD
100
AcDbEntity
  8
0
100
AcDbLine
 62
4
  6
CONTINUOUS
 10
10.619125154
 20
9.8420501315
 11
10.6833008693
 21
9.8697534045
  0
LINE
  5
2AE
100
AcDbEntity
  8
0
100
AcDbLine
 62
4
  6
CONTINUOUS
 10
11.0019496527
 20
9.9718302352
 11
11.0646463899
 21
9.9981049393
  0
LINE
  5
2AF
100
AcDbEntity
  8
0
100
AcDbLine
 62
4
  6
CONTINUOUS
 10
11.4957677609
 20
9.9773933913
 11
11.4907895353
 21
9.9754419263
  0
LINE
  5
2B0
100
AcDbEntity
  8
0
100
AcDbLine
 62
4
  6
CONTINUOUS
 10
9.9177910477
 20
7.762077444
 11
9.9033021598
 21
7.7727415107
  0
LINE
  5
2B1
100
AcDbEntity
  8
0
100
AcDbLine
 62
4
  6
CONTINUOUS
 10
9.9033021598
 20
7.7727415107
 11
9.8888132719
 21
7.7930648355
  0
LINE
  5
2B2
100
AcDbEntity
  8
0
100
AcDbLine
 62
4
  6
CONTINUOUS
 10
9.9467688236
 20
7.8663196756
 11
9.9540132676
 21
7.8561580084
  0
LINE
  5
2B3
100
AcDbEntity
  8
0
100
AcDbLine
 62
4
  6
CONTINUOUS
 10
10.0192132632
 20
7.7647030484
 11
10.0047243753
 21
7.7850263731
  0
LINE
  5
2B4
100
AcDbEntity
  8
0
100
AcDbLine
 62
4
  6
CONTINUOUS
 10
9.8888132719
 20
7.7930648355
 11
9.8815688279
 21
7.8225450152
  0
LINE
  5
2B5
100
AcDbEntity
  8
0
100
AcDbLine
 62
4
  6
CONTINUOUS
 10
10.0119688193
 20
7.8521387773
 11
10.0119688193
 21
7.842479521
  0
LINE
  5
2B6
100
AcDbEntity
  8
0
100
AcDbLine
 62
4
  6
CONTINUOUS
 10
9.9610598341
 20
9.8024793176
 11
9.9615799549
 21
9.8104817156
  0
LINE
  5
2B7
100
AcDbEntity
  8
0
100
AcDbLine
 62
4
  6
CONTINUOUS
 10
10.7515949924
 20
9.8328633171
 11
10.7826532515
 21
9.8628632934
  0
LINE
  5
2B8
100
AcDbEntity
  8
0
100
AcDbLine
 62
4
  6
CONTINUOUS
 10
10.909992094
 20
9.9858631978
 11
10.9410503531
 21
10.0158631742
  0
LINE
  5
2B9
100
AcDbEntity
  8
0
100
AcDbLine
 62
4
  6
CONTINUOUS
 10
10.9796343086
 20
10.0017038411
 11
10.9596682851
 21
9.9824181422
  0
LINE
  5
2BA
100
AcDbEntity
  8
0
100
AcDbLine
 62
4
  6
CONTINUOUS
 10
10.8178299047
 20
9.8282699103
 11
10.8488881638
 21
9.8582698866
  0
LINE
  5
2BB
100
AcDbEntity
  8
0
100
AcDbLine
 62
4
  6
CONTINUOUS
 10
11.0667586975
 20
9.9772881023
 11
11.0845062738
 21
9.9944309456
  0
LINE
  5
2BC
100
AcDbEntity
  8
0
100
AcDbLine
 62
4
  6
CONTINUOUS
 10
10.9858076355
 20
9.8919525485
 11
11.0079921063
 21
9.9133811031
  0
LINE
  5
2BD
100
AcDbEntity
  8
0
100
AcDbLine
 62
4
  6
CONTINUOUS
 10
11.1452746729
 20
10.0017001695
 11
11.1142164138
 21
9.9717001931
  0
LINE
  5
2BE
100
AcDbEntity
  8
0
100
AcDbLine
 62
4
  6
CONTINUOUS
 10
11.0659476511
 20
9.9093618724
 11
11.0437631803
 21
9.8879333178
  0
LINE
  5
2BF
100
AcDbEntity
  8
0
100
AcDbLine
 62
4
  6
CONTINUOUS
 10
11.1473339114
 20
9.9694034869
 11
11.1695183827
 21
9.9908320419
  0
LINE
  5
2C0
100
AcDbEntity
  8
0
100
AcDbLine
 62
4
  6
CONTINUOUS
 10
10.9961334819
 20
9.820497926
 11
11.0183179527
 21
9.8419264806
  0
LINE
  5
2C1
100
AcDbEntity
  8
0
100
AcDbLine
 62
4
  6
CONTINUOUS
 10
11.9649850135
 20
10.105622412
 11
11.9799940222
 21
10.1126200022
  0
LINE
  5
2C2
100
AcDbEntity
  8
0
100
AcDbLine
 62
4
  6
CONTINUOUS
 10
12.0948648841
 20
10.0885767439
 11
12.0798558753
 21
10.0815791537
  0
LINE
  5
2C3
100
AcDbEntity
  8
0
100
AcDbLine
 62
4
  6
CONTINUOUS
 10
10.0337021512
 20
7.7540389817
 11
10.0192132632
 21
7.7647030484
  0
LINE
  5
2C4
100
AcDbEntity
  8
0
100
AcDbLine
 62
4
  6
CONTINUOUS
 10
9.9322799357
 20
7.8769837397
 11
9.9467688236
 21
7.8663196756
  0
LINE
  5
2C5
100
AcDbEntity
  8
0
100
AcDbLine
 62
4
  6
CONTINUOUS
 10
10.0192132632
 20
7.8323178607
 11
10.062679927
 21
7.8003256581
  0
LINE
  5
2C6
100
AcDbEntity
  8
0
100
AcDbLine
 62
4
  6
CONTINUOUS
 10
10.062679927
 20
7.8582812132
 11
10.0481910391
 21
7.8689452773
  0
LINE
  5
2C7
100
AcDbEntity
  8
0
100
AcDbLine
 62
4
  6
CONTINUOUS
 10
10.0119688193
 20
7.842479521
 11
10.0192132632
 21
7.8323178607
  0
LINE
  5
2C8
100
AcDbEntity
  8
0
100
AcDbLine
 62
4
  6
CONTINUOUS
 10
10.062679927
 20
7.8003256581
 11
10.069924371
 21
7.7901639978
  0
LINE
  5
2C9
100
AcDbEntity
  8
0
100
AcDbLine
 62
4
  6
CONTINUOUS
 10
10.069924371
 20
7.8481195461
 11
10.062679927
 21
7.8582812132
  0
LINE
  5
2CA
100
AcDbEntity
  8
0
100
AcDbLine
 62
4
  6
CONTINUOUS
 10
10.3017465779
 20
7.7837463295
 11
10.2872576899
 21
7.8040696534
  0
LINE
  5
2CB
100
AcDbEntity
  8
0
100
AcDbLine
 62
4
  6
CONTINUOUS
 10
10.2945021339
 20
7.8422042886
 11
10.2872576899
 21
7.8523659488
  0
LINE
  5
2CC
100
AcDbEntity
  8
0
100
AcDbLine
 62
4
  6
CONTINUOUS
 10
10.1568576986
 20
7.8614092189
 11
10.1930799184
 21
7.742986096
  0
LINE
  5
2CD
100
AcDbEntity
  8
0
100
AcDbLine
 62
4
  6
CONTINUOUS
 10
10.069924371
 20
7.7901639978
 11
10.069924371
 21
7.77084548
  0
LINE
  5
2CE
100
AcDbEntity
  8
0
100
AcDbLine
 62
4
  6
CONTINUOUS
 10
10.2365465822
 20
7.8558827761
 11
10.2365465822
 21
7.7399716726
  0
LINE
  5
2CF
100
AcDbEntity
  8
0
100
AcDbLine
 62
4
  6
CONTINUOUS
 10
10.2945021339
 20
7.8132265127
 11
10.2945021339
 21
7.8422042886
  0
LINE
  5
2D0
100
AcDbEntity
  8
0
100
AcDbLine
 62
4
  6
CONTINUOUS
 10
9.8815688279
 20
7.8225450152
 11
9.8888132719
 21
7.8510203872
  0
LINE
  5
2D1
100
AcDbEntity
  8
0
100
AcDbLine
 62
4
  6
CONTINUOUS
 10
11.103502015
 20
9.9113508787
 11
11.0724437559
 21
9.8813509024
  0
LINE
  5
2D2
100
AcDbEntity
  8
0
100
AcDbLine
 62
4
  6
CONTINUOUS
 10
11.2059369325
 20
9.9860097008
 11
11.2015000386
 21
9.9817239901
  0
LINE
  5
2D3
100
AcDbEntity
  8
0
100
AcDbLine
 62
4
  6
CONTINUOUS
 10
11.2240666315
 20
9.96637876
 11
11.230721973
 21
9.9728073267
  0
LINE
  5
2D4
100
AcDbEntity
  8
0
100
AcDbLine
 62
4
  6
CONTINUOUS
 10
11.0927260312
 20
9.8137992099
 11
11.1149105021
 21
9.8352277645
  0
LINE
  5
2D5
100
AcDbEntity
  8
0
100
AcDbLine
 62
4
  6
CONTINUOUS
 10
11.2715243478
 20
9.9607908508
 11
11.2892719252
 21
9.9779336952
  0
LINE
  5
2D6
100
AcDbEntity
  8
0
100
AcDbLine
 62
4
  6
CONTINUOUS
 10
11.3268262614
 20
9.9799227035
 11
11.3068602373
 21
9.960637004
  0
LINE
  5
2D7
100
AcDbEntity
  8
0
100
AcDbLine
 62
4
  6
CONTINUOUS
 10
11.1728660538
 20
9.8312085334
 11
11.1506815829
 21
9.8097799788
  0
LINE
  5
2D8
100
AcDbEntity
  8
0
100
AcDbLine
 62
4
  6
CONTINUOUS
 10
11.1793621309
 20
9.8031975652
 11
11.21042039
 21
9.8331975416
  0
LINE
  5
2D9
100
AcDbEntity
  8
0
100
AcDbLine
 62
4
  6
CONTINUOUS
 10
11.3543180089
 20
9.9550490909
 11
11.3765024802
 21
9.976477646
  0
LINE
  5
2DA
100
AcDbEntity
  8
0
100
AcDbLine
 62
4
  6
CONTINUOUS
 10
11.3896538984
 20
9.9548952441
 11
11.4184937103
 21
9.9827523649
  0
LINE
  5
2DB
100
AcDbEntity
  8
0
100
AcDbLine
 62
4
  6
CONTINUOUS
 10
11.2639390478
 20
9.8248925998
 11
11.241754577
 21
9.8034640452
  0
LINE
  5
2DC
100
AcDbEntity
  8
0
100
AcDbLine
 62
4
  6
CONTINUOUS
 10
11.2842341237
 20
9.7959246678
 11
11.3152923828
 21
9.8259246442
  0
LINE
  5
2DD
100
AcDbEntity
  8
0
100
AcDbLine
 62
4
  6
CONTINUOUS
 10
11.4619497241
 20
9.9475848061
 11
11.4841341954
 21
9.9690133612
  0
LINE
  5
2DE
100
AcDbEntity
  8
0
100
AcDbLine
 62
4
  6
CONTINUOUS
 10
11.4907895353
 20
9.9754419263
 11
11.4930079832
 21
9.9775847825
  0
LINE
  5
2DF
100
AcDbEntity
  8
0
100
AcDbLine
 62
4
  6
CONTINUOUS
 10
10.0481910391
 20
7.7530341739
 11
10.0337021512
 21
7.7540389817
  0
LINE
  5
2E0
100
AcDbEntity
  8
0
100
AcDbLine
 62
4
  6
CONTINUOUS
 10
9.9322799357
 20
7.7610726362
 11
9.9177910477
 21
7.762077444
  0
LINE
  5
2E1
100
AcDbEntity
  8
0
100
AcDbLine
 62
4
  6
CONTINUOUS
 10
10.2365465822
 20
7.7399716726
 11
10.2872576899
 21
7.7364548454
  0
LINE
  5
2E2
100
AcDbEntity
  8
0
100
AcDbLine
 62
4
  6
CONTINUOUS
 10
10.1351243667
 20
7.7856423628
 11
10.1785910305
 21
7.7826279394
  0
LINE
  5
2E3
100
AcDbEntity
  8
0
100
AcDbLine
 62
4
  6
CONTINUOUS
 10
10.2365465822
 20
7.8075864807
 11
10.2872576899
 21
7.8040696534
  0
LINE
  5
2E4
100
AcDbEntity
  8
0
100
AcDbLine
 62
4
  6
CONTINUOUS
 10
10.3017465779
 20
7.7547685554
 11
10.3017465779
 21
7.7837463295
  0
LINE
  5
2E5
100
AcDbEntity
  8
0
100
AcDbLine
 62
4
  6
CONTINUOUS
 10
10.1206354787
 20
7.7480101349
 11
10.1568576986
 21
7.8614092189
  0
LINE
  5
2E6
100
AcDbEntity
  8
0
100
AcDbLine
 62
4
  6
CONTINUOUS
 10
9.8888132719
 20
7.8510203872
 11
9.9033021598
 21
7.8693340989
  0
LINE
  5
2E7
100
AcDbEntity
  8
0
100
AcDbLine
 62
4
  6
CONTINUOUS
 10
11.5083247795
 20
9.9466653905
 11
11.5260723558
 21
9.9638082338
  0
LINE
  5
2E8
100
AcDbEntity
  8
0
100
AcDbLine
 62
4
  6
CONTINUOUS
 10
11.5939313431
 20
9.9522120816
 11
11.6005866839
 21
9.9586406476
  0
LINE
  5
2E9
100
AcDbEntity
  8
0
100
AcDbLine
 62
4
  6
CONTINUOUS
 10
11.6325152159
 20
9.9380527545
 11
11.6391705574
 21
9.9444813211
  0
LINE
  5
2EA
100
AcDbEntity
  8
0
100
AcDbLine
 62
4
  6
CONTINUOUS
 10
10.2872576899
 20
7.8523659488
 11
10.2365465822
 21
7.8558827761
  0
LINE
  5
2EB
100
AcDbEntity
  8
0
100
AcDbLine
 62
4
  6
CONTINUOUS
 10
10.0481910391
 20
7.8689452773
 11
10.0337021512
 21
7.8699500851
  0
LINE
  5
2EC
100
AcDbEntity
  8
0
100
AcDbLine
 62
4
  6
CONTINUOUS
 10
9.9177910477
 20
7.8779885474
 11
9.9322799357
 21
7.8769837397
  0
LINE
  5
2ED
100
AcDbEntity
  8
0
100
AcDbLine
 62
4
  6
CONTINUOUS
 10
10.6833008693
 20
9.8697534045
 11
10.6853600801
 21
9.8374567238
  0
LINE
  5
2EE
100
AcDbEntity
  8
0
100
AcDbLine
 62
4
  6
CONTINUOUS
 10
10.0192132632
 20
7.8612956366
 11
10.0119688193
 21
7.8521387773
  0
LINE
  5
2EF
100
AcDbEntity
  8
0
100
AcDbLine
 62
4
  6
CONTINUOUS
 10
9.9540132676
 20
7.7788839424
 11
9.9467688236
 21
7.7697270873
  0
LINE
  5
2F0
100
AcDbEntity
  8
0
100
AcDbLine
 62
4
  6
CONTINUOUS
 10
10.069924371
 20
7.77084548
 11
10.062679927
 21
7.761688625
  0
LINE
  5
2F1
100
AcDbEntity
  8
0
100
AcDbLine
 62
4
  6
CONTINUOUS
 10
12.0374294531
 20
10.100598373
 11
12.0270767003
 21
10.090598381
  0
LINE
  5
2F2
100
AcDbEntity
  8
0
100
AcDbLine
 62
4
  6
CONTINUOUS
 10
12.163693309
 20
10.1025599022
 11
12.1585169337
 21
10.0975599073
  0
LINE
  5
2F3
100
AcDbEntity
  8
0
100
AcDbLine
 62
4
  6
CONTINUOUS
 10
13.4746961352
 20
9.9593915022
 11
13.4596871265
 21
9.952393912
  0
LINE
  5
2F4
100
AcDbEntity
  8
0
100
AcDbLine
 62
4
  6
CONTINUOUS
 10
10.2872576899
 20
7.8040696534
 11
10.2945021339
 21
7.8132265127
  0
LINE
  5
2F5
100
AcDbEntity
  8
0
100
AcDbLine
 62
4
  6
CONTINUOUS
 10
10.2872576899
 20
7.7364548454
 11
10.3017465779
 21
7.7547685554
  0
LINE
  5
2F6
100
AcDbEntity
  8
0
100
AcDbLine
 62
7
  6
CONTINUOUS
 10
9.6676937655
 20
7.4406863142
 11
9.5710414098
 21
7.3473273022
  0
LINE
  5
2F7
100
AcDbEntity
  8
0
100
AcDbLine
 62
7
  6
CONTINUOUS
 10
10.0330923817
 20
7.6263088236
 11
9.9364400261
 21
7.5329498116
  0
LINE
  5
2F8
100
AcDbEntity
  8
0
100
AcDbLine
 62
7
  6
CONTINUOUS
 10
10.0903018272
 20
7.6223413351
 11
9.9936494715
 21
7.5289823231
  0
LINE
  5
2F9
100
AcDbEntity
  8
0
100
AcDbLine
 62
4
  6
CONTINUOUS
 10
9.9033021598
 20
7.8693340989
 11
9.9177910477
 21
7.8779885474
  0
LINE
  5
2FA
100
AcDbEntity
  8
0
100
AcDbLine
 62
7
  6
CONTINUOUS
 10
12.7043330794
 20
10.0047778931
 11
12.7036340784
 21
10.0041154271
  0
LINE
  5
2FB
100
AcDbEntity
  8
0
100
AcDbLine
 62
4
  6
CONTINUOUS
 10
10.0337021512
 20
7.8699500851
 11
10.0192132632
 21
7.8612956366
  0
LINE
  5
2FC
100
AcDbEntity
  8
0
100
AcDbLine
 62
4
  6
CONTINUOUS
 10
9.9467688236
 20
7.7697270873
 11
9.9322799357
 21
7.7610726362
  0
LINE
  5
2FD
100
AcDbEntity
  8
0
100
AcDbLine
 62
4
  6
CONTINUOUS
 10
10.062679927
 20
7.761688625
 11
10.0481910391
 21
7.7530341739
  0
LINE
  5
2FE
100
AcDbEntity
  8
0
100
AcDbLine
 62
4
  6
CONTINUOUS
 10
11.0149702264
 20
10.0015499929
 11
11.0176238645
 21
9.9783989092
  0
LINE
  5
2FF
100
AcDbEntity
  8
0
100
AcDbLine
 62
7
  6
CONTINUOUS
 10
10.4557004434
 20
7.3860378655
 11
10.3590480878
 21
7.2926788535
  0
LINE
  5
300
100
AcDbEntity
  8
0
100
AcDbLine
 62
7
  6
CONTINUOUS
 10
10.4843051661
 20
7.3345092882
 11
10.3876528105
 21
7.2411502762
  0
LINE
  5
301
100
AcDbEntity
  8
0
100
AcDbLine
 62
4
  6
CONTINUOUS
 10
9.0415175184
 20
10.2882694
 11
9.0461737729
 21
10.2852669969
  0
LINE
  5
302
100
AcDbEntity
  8
0
100
AcDbLine
 62
4
  6
CONTINUOUS
 10
13.5435245602
 20
9.9733746605
 11
13.5383481849
 21
9.9683746656
  0
LINE
  5
303
100
AcDbEntity
  8
0
100
AcDbLine
 62
4
  6
CONTINUOUS
 10
13.0970620751
 20
9.5421249901
 11
13.066003816
 21
9.5121250138
  0
LINE
  5
304
100
AcDbEntity
  8
0
100
AcDbLine
 62
4
  6
CONTINUOUS
 10
9.9703723456
 20
9.7964745139
 11
9.9610598341
 21
9.8024793176
  0
LINE
  5
305
100
AcDbEntity
  8
0
100
AcDbLine
 62
4
  6
CONTINUOUS
 10
10.0397208925
 20
9.8184600713
 11
10.044377147
 21
9.8154576682
  0
LINE
  5
306
100
AcDbEntity
  8
0
100
AcDbLine
 62
4
  6
CONTINUOUS
 10
10.7589043374
 20
10.0284950432
 11
10.78580163
 21
9.9944758357
  0
LINE
  5
307
100
AcDbEntity
  8
0
100
AcDbLine
 62
4
  6
CONTINUOUS
 10
11.9644648927
 20
10.097620014
 11
11.9649850135
 21
10.105622412
  0
LINE
  5
308
100
AcDbEntity
  8
0
100
AcDbLine
 62
7
  6
CONTINUOUS
 10
10.4843051661
 20
6.9125833093
 11
10.3876528105
 21
6.8192242972
  0
LINE
  5
309
100
AcDbEntity
  8
0
100
AcDbLine
 62
7
  6
CONTINUOUS
 10
10.4557004434
 20
6.8650222204
 11
10.3590480878
 21
6.7716632084
  0
LINE
  5
30A
100
AcDbEntity
  8
0
100
AcDbLine
 62
7
  6
CONTINUOUS
 10
12.8324723379
 20
9.1585509196
 11
13.9971570797
 21
10.2835500578
  0
LINE
  5
30B
100
AcDbEntity
  8
0
100
AcDbLine
 62
4
  6
CONTINUOUS
 10
13.5383481849
 20
9.9683746656
 11
13.5285155514
 21
9.9663770703
  0
LINE
  5
30C
100
AcDbEntity
  8
0
100
AcDbLine
 62
4
  6
CONTINUOUS
 10
13.4943613994
 20
9.9633866901
 11
13.4746961352
 21
9.9593915022
  0
LINE
  5
30D
100
AcDbEntity
  8
0
100
AcDbLine
 62
4
  6
CONTINUOUS
 10
13.4855690084
 20
9.9773938917
 11
13.4954016419
 21
9.979391487
  0
LINE
  5
30E
100
AcDbEntity
  8
0
100
AcDbLine
 62
7
  6
CONTINUOUS
 10
8.0028429203
 20
9.4934868573
 11
12.8324723379
 21
9.1585509196
  0
LINE
  5
30F
100
AcDbEntity
  8
0
100
AcDbLine
 62
4
  6
CONTINUOUS
 10
9.9822730452
 20
9.792969708
 11
9.9703723456
 21
9.7964745139
  0
LINE
  5
310
100
AcDbEntity
  8
0
100
AcDbLine
 62
4
  6
CONTINUOUS
 10
10.0278201922
 20
9.8219648765
 11
10.0397208925
 21
9.8184600713
  0
LINE
  5
311
100
AcDbEntity
  8
0
100
AcDbLine
 62
4
  6
CONTINUOUS
 10
10.9130766248
 20
9.9245569244
 11
10.948253285
 21
9.8899635408
  0
LINE
  5
312
100
AcDbEntity
  8
0
100
AcDbLine
 62
4
  6
CONTINUOUS
 10
11.241754577
 20
9.8034640452
 11
11.2207589615
 21
9.8003266853
  0
LINE
  5
313
100
AcDbEntity
  8
0
100
AcDbLine
 62
4
  6
CONTINUOUS
 10
13.5285155514
 20
9.9663770703
 11
13.4943613994
 21
9.9633866901
  0
LINE
  5
314
100
AcDbEntity
  8
0
100
AcDbLine
 62
4
  6
CONTINUOUS
 10
13.4954016419
 20
9.979391487
 11
13.5124787175
 21
9.9808866766
  0
LINE
  5
315
100
AcDbEntity
  8
0
100
AcDbLine
 62
4
  6
CONTINUOUS
 10
9.9967619331
 20
9.7919649002
 11
9.9822730452
 21
9.792969708
  0
LINE
  5
316
100
AcDbEntity
  8
0
100
AcDbLine
 62
4
  6
CONTINUOUS
 10
10.0050466187
 20
9.8074672922
 11
10.0340243946
 21
9.8054576767
  0
LINE
  5
317
100
AcDbEntity
  8
0
100
AcDbLine
 62
4
  6
CONTINUOUS
 10
10.0133313043
 20
9.8229696843
 11
10.0278201922
 21
9.8219648765
  0
LINE
  5
318
100
AcDbEntity
  8
0
100
AcDbLine
 62
4
  6
CONTINUOUS
 10
10.4613289729
 20
9.8667735657
 11
10.4995697256
 21
9.857997013
  0
LINE
  5
319
100
AcDbEntity
  8
0
100
AcDbLine
 62
4
  6
CONTINUOUS
 10
9.0296168181
 20
10.2917742053
 11
9.0415175184
 21
10.2882694
  0
LINE
  5
31A
100
AcDbEntity
  8
0
100
AcDbLine
 62
4
  6
CONTINUOUS
 10
10.5867082854
 20
9.876452123
 11
10.5988301196
 21
9.8710180606
  0
LINE
  5
31B
100
AcDbEntity
  8
0
100
AcDbLine
 62
4
  6
CONTINUOUS
 10
10.5479185097
 20
10.0132697915
 11
10.5539794274
 21
10.0105527601
  0
LINE
  5
31C
100
AcDbEntity
  8
0
100
AcDbLine
 62
4
  6
CONTINUOUS
 10
11.0082553087
 20
9.8150638637
 11
10.9961334819
 21
9.820497926
  0
LINE
  5
31D
100
AcDbEntity
  8
0
100
AcDbLine
 62
4
  6
CONTINUOUS
 10
10.6412099648
 20
10.0090967125
 11
10.6533317985
 21
10.0036626498
  0
LINE
  5
31E
100
AcDbEntity
  8
0
100
AcDbLine
 62
4
  6
CONTINUOUS
 10
11.104847858
 20
9.8083651476
 11
11.0927260312
 21
9.8137992099
  0
LINE
  5
31F
100
AcDbEntity
  8
0
100
AcDbLine
 62
4
  6
CONTINUOUS
 10
10.6264345093
 20
10.037681857
 11
10.6324954255
 21
10.034964825
  0
LINE
  5
320
100
AcDbEntity
  8
0
100
AcDbLine
 62
4
  6
CONTINUOUS
 10
11.2892719252
 20
9.9779336952
 11
11.2854294862
 21
9.9827935796
  0
LINE
  5
321
100
AcDbEntity
  8
0
100
AcDbLine
 62
4
  6
CONTINUOUS
 10
10.8820183658
 20
9.894556948
 11
10.9793115441
 21
9.9199635171
  0
LINE
  5
322
100
AcDbEntity
  8
0
100
AcDbLine
 62
4
  6
CONTINUOUS
 10
12.1585169337
 20
10.0975599073
 11
12.1486843003
 21
10.095562312
  0
LINE
  5
323
100
AcDbEntity
  8
0
100
AcDbLine
 62
4
  6
CONTINUOUS
 10
12.1145301482
 20
10.0925719318
 11
12.0948648841
 21
10.0885767439
  0
LINE
  5
324
100
AcDbEntity
  8
0
100
AcDbLine
 62
4
  6
CONTINUOUS
 10
12.1057377573
 20
10.1065791334
 11
12.1155703907
 21
10.1085767287
  0
LINE
  5
325
100
AcDbEntity
  8
0
100
AcDbLine
 62
4
  6
CONTINUOUS
 10
12.0270767003
 20
10.090598381
 11
12.017244068
 21
10.0886007868
  0
LINE
  5
326
100
AcDbEntity
  8
0
100
AcDbLine
 62
4
  6
CONTINUOUS
 10
11.9799940222
 20
10.1126200022
 11
11.9996592873
 21
10.116615191
  0
LINE
  5
327
100
AcDbEntity
  8
0
100
AcDbLine
 62
4
  6
CONTINUOUS
 10
10.0236716417
 20
9.7954576847
 11
10.0138390094
 21
9.7934600905
  0
LINE
  5
328
100
AcDbEntity
  8
0
100
AcDbLine
 62
4
  6
CONTINUOUS
 10
9.9765889637
 20
9.8174793058
 11
9.9962542287
 21
9.8214744947
  0
LINE
  5
329
100
AcDbEntity
  8
0
100
AcDbLine
 62
4
  6
CONTINUOUS
 10
11.1506815829
 20
9.8097799788
 11
11.1296859674
 21
9.8066426189
  0
LINE
  5
32A
100
AcDbEntity
  8
0
100
AcDbLine
 62
4
  6
CONTINUOUS
 10
11.1149105021
 20
9.8352277645
 11
11.1359061171
 21
9.838365124
  0
LINE
  5
32B
100
AcDbEntity
  8
0
100
AcDbLine
 62
4
  6
CONTINUOUS
 10
11.0183179527
 20
9.8419264806
 11
11.0393135678
 21
9.84506384
  0
LINE
  5
32C
100
AcDbEntity
  8
0
100
AcDbLine
 62
4
  6
CONTINUOUS
 10
11.6220174358
 20
9.9364840726
 11
11.6325152159
 21
9.9380527545
  0
LINE
  5
32D
100
AcDbEntity
  8
0
100
AcDbLine
 62
4
  6
CONTINUOUS
 10
11.6005866839
 20
9.9586406476
 11
11.6110844647
 21
9.9602093301
  0
LINE
  5
32E
100
AcDbEntity
  8
0
100
AcDbLine
 62
4
  6
CONTINUOUS
 10
11.0437631803
 20
9.8879333178
 11
11.0227675648
 21
9.8847959579
  0
LINE
  5
32F
100
AcDbEntity
  8
0
100
AcDbLine
 62
4
  6
CONTINUOUS
 10
11.5260723558
 20
9.9638082338
 11
11.5365701366
 21
9.9653769163
  0
LINE
  5
330
100
AcDbEntity
  8
0
100
AcDbLine
 62
4
  6
CONTINUOUS
 10
11.0079921063
 20
9.9133811031
 11
11.0289877283
 21
9.9165184621
  0
LINE
  5
331
100
AcDbEntity
  8
0
100
AcDbLine
 62
4
  6
CONTINUOUS
 10
10.5766456487
 20
9.849589506
 11
10.5556500263
 21
9.8464521466
  0
LINE
  5
332
100
AcDbEntity
  8
0
100
AcDbLine
 62
4
  6
CONTINUOUS
 10
10.0138390094
 20
9.7934600905
 11
9.9967619331
 21
9.7919649002
  0
LINE
  5
333
100
AcDbEntity
  8
0
100
AcDbLine
 62
4
  6
CONTINUOUS
 10
9.9962542287
 20
9.8214744947
 11
10.0133313043
 21
9.8229696843
  0
LINE
  5
334
100
AcDbEntity
  8
0
100
AcDbLine
 62
4
  6
CONTINUOUS
 10
12.1486843003
 20
10.095562312
 11
12.1145301482
 21
10.0925719318
  0
LINE
  5
335
100
AcDbEntity
  8
0
100
AcDbLine
 62
4
  6
CONTINUOUS
 10
12.017244068
 20
10.0886007868
 11
12.0001669917
 21
10.0871055965
  0
LINE
  5
336
100
AcDbEntity
  8
0
100
AcDbLine
 62
4
  6
CONTINUOUS
 10
11.4244950204
 20
9.7999777734
 11
11.3744225532
 21
9.7973257633
  0
LINE
  5
337
100
AcDbEntity
  8
0
100
AcDbLine
 62
4
  6
CONTINUOUS
 10
10.511401444
 20
9.869425576
 11
10.4613289729
 21
9.8667735657
  0
LINE
  5
338
100
AcDbEntity
  8
0
100
AcDbLine
 62
4
  6
CONTINUOUS
 10
11.230721973
 20
9.9728073267
 11
11.2494991411
 21
9.9738018308
  0
LINE
  5
339
100
AcDbEntity
  8
0
100
AcDbLine
 62
4
  6
CONTINUOUS
 10
11.0845062738
 20
9.9944309456
 11
11.1032834428
 21
9.9954254506
  0
LINE
  5
33A
100
AcDbEntity
  8
0
100
AcDbLine
 62
4
  6
CONTINUOUS
 10
11.2207589615
 20
9.8003266853
 11
11.1793621309
 21
9.8031975652
  0
LINE
  5
33B
100
AcDbEntity
  8
0
100
AcDbLine
 62
4
  6
CONTINUOUS
 10
11.1296859674
 20
9.8066426189
 11
11.104847858
 21
9.8083651476
  0
LINE
  5
33C
100
AcDbEntity
  8
0
100
AcDbLine
 62
4
  6
CONTINUOUS
 10
11.041372751
 20
9.8127671612
 11
11.0082553087
 21
9.8150638637
  0
LINE
  5
33D
100
AcDbEntity
  8
0
100
AcDbLine
 62
4
  6
CONTINUOUS
 10
10.5556500263
 20
9.8464521466
 11
10.5142532096
 21
9.8493230256
  0
LINE
  5
33E
100
AcDbEntity
  8
0
100
AcDbLine
 62
4
  6
CONTINUOUS
 10
10.8178299047
 20
9.8282699103
 11
10.8675060959
 21
9.8248248547
  0
LINE
  5
33F
100
AcDbEntity
  8
0
100
AcDbLine
 62
4
  6
CONTINUOUS
 10
11.2842341237
 20
9.7959246678
 11
11.3339102872
 21
9.7924796142
  0
LINE
  5
340
100
AcDbEntity
  8
0
100
AcDbLine
 62
4
  6
CONTINUOUS
 10
10.6390380948
 20
9.849855986
 11
10.683194703
 21
9.8467937148
  0
LINE
  5
341
100
AcDbEntity
  8
0
100
AcDbLine
 62
4
  6
CONTINUOUS
 10
11.3350991435
 20
9.8107708098
 11
11.3019817012
 21
9.8130675122
  0
LINE
  5
342
100
AcDbEntity
  8
0
100
AcDbLine
 62
4
  6
CONTINUOUS
 10
10.8686949521
 20
9.8431160503
 11
10.8355774822
 21
9.8454127547
  0
LINE
  5
343
100
AcDbEntity
  8
0
100
AcDbLine
 62
4
  6
CONTINUOUS
 10
10.5453114686
 20
9.8793230019
 11
10.5867082854
 21
9.876452123
  0
LINE
  5
344
100
AcDbEntity
  8
0
100
AcDbLine
 62
4
  6
CONTINUOUS
 10
10.7495357816
 20
9.8651599977
 11
10.8157706939
 21
9.860566591
  0
LINE
  5
345
100
AcDbEntity
  8
0
100
AcDbLine
 62
4
  6
CONTINUOUS
 10
10.8488881638
 20
9.8582698866
 11
10.898564355
 21
9.8548248311
  0
LINE
  5
346
100
AcDbEntity
  8
0
100
AcDbLine
 62
4
  6
CONTINUOUS
 10
11.0393135678
 20
9.84506384
 11
11.0724310101
 21
9.8427671376
  0
LINE
  5
347
100
AcDbEntity
  8
0
100
AcDbLine
 62
4
  6
CONTINUOUS
 10
11.1359061171
 20
9.838365124
 11
11.1607442265
 21
9.8366425952
  0
LINE
  5
348
100
AcDbEntity
  8
0
100
AcDbLine
 62
4
  6
CONTINUOUS
 10
11.21042039
 20
9.8331975416
 11
11.2518172206
 21
9.8303266616
  0
LINE
  5
349
100
AcDbEntity
  8
0
100
AcDbLine
 62
4
  6
CONTINUOUS
 10
11.3152923828
 20
9.8259246442
 11
11.3649685463
 21
9.8224795905
  0
LINE
  5
34A
100
AcDbEntity
  8
0
100
AcDbLine
 62
4
  6
CONTINUOUS
 10
11.0227675648
 20
9.8847959579
 11
10.9979294692
 21
9.8865184857
  0
LINE
  5
34B
100
AcDbEntity
  8
0
100
AcDbLine
 62
4
  6
CONTINUOUS
 10
11.0724437559
 20
9.8813509024
 11
11.1138405726
 21
9.8784800234
  0
LINE
  5
34C
100
AcDbEntity
  8
0
100
AcDbLine
 62
4
  6
CONTINUOUS
 10
11.0289877283
 20
9.9165184621
 11
11.0538258238
 21
9.9147959343
  0
LINE
  5
34D
100
AcDbEntity
  8
0
100
AcDbLine
 62
4
  6
CONTINUOUS
 10
10.9853909315
 20
9.9729785864
 11
11.0019496527
 21
9.9718302352
  0
LINE
  5
34E
100
AcDbEntity
  8
0
100
AcDbLine
 62
4
  6
CONTINUOUS
 10
11.5475032181
 20
9.9416516512
 11
11.5143856653
 21
9.9439483613
  0
LINE
  5
34F
100
AcDbEntity
  8
0
100
AcDbLine
 62
4
  6
CONTINUOUS
 10
11.4122735606
 20
9.9510298598
 11
11.3957148395
 21
9.952178211
  0
LINE
  5
350
100
AcDbEntity
  8
0
100
AcDbLine
 62
4
  6
CONTINUOUS
 10
11.2715243478
 20
9.9607908508
 11
11.2384069055
 21
9.9630875533
  0
LINE
  5
351
100
AcDbEntity
  8
0
100
AcDbLine
 62
4
  6
CONTINUOUS
 10
11.1142164138
 20
9.9717001931
 11
11.0810989715
 21
9.9739968955
  0
LINE
  5
352
100
AcDbEntity
  8
0
100
AcDbLine
 62
4
  6
CONTINUOUS
 10
10.5539794274
 20
10.0105527601
 11
10.5870968862
 21
10.0082560565
  0
LINE
  5
353
100
AcDbEntity
  8
0
100
AcDbLine
 62
4
  6
CONTINUOUS
 10
10.6533317985
 20
10.0036626498
 11
10.678169901
 21
10.0019401215
  0
LINE
  5
354
100
AcDbEntity
  8
0
100
AcDbLine
 62
4
  6
CONTINUOUS
 10
11.3129211784
 20
9.9579199709
 11
11.3543180089
 21
9.9550490909
  0
LINE
  5
355
100
AcDbEntity
  8
0
100
AcDbLine
 62
4
  6
CONTINUOUS
 10
11.5888999934
 20
9.9387807751
 11
11.6220174358
 21
9.9364840726
  0
LINE
  5
356
100
AcDbEntity
  8
0
100
AcDbLine
 62
4
  6
CONTINUOUS
 10
11.2494991411
 20
9.9738018308
 11
11.2826165835
 21
9.9715051284
  0
LINE
  5
357
100
AcDbEntity
  8
0
100
AcDbLine
 62
4
  6
CONTINUOUS
 10
11.2854294862
 20
9.9827935796
 11
11.2440326556
 21
9.9856644595
  0
LINE
  5
358
100
AcDbEntity
  8
0
100
AcDbLine
 62
4
  6
CONTINUOUS
 10
10.9321765653
 20
10.0072917528
 11
10.9735733959
 21
10.0044208729
  0
LINE
  5
359
100
AcDbEntity
  8
0
100
AcDbLine
 62
4
  6
CONTINUOUS
 10
11.1032834428
 20
9.9954254506
 11
11.1364008851
 21
9.9931287482
  0
LINE
  5
35A
100
AcDbEntity
  8
0
100
AcDbLine
 62
4
  6
CONTINUOUS
 10
11.1695183827
 20
9.9908320419
 11
11.2026358251
 21
9.9885353395
  0
LINE
  5
35B
100
AcDbEntity
  8
0
100
AcDbLine
 62
4
  6
CONTINUOUS
 10
11.5365701366
 20
9.9653769163
 11
11.5696876894
 21
9.9630802062
  0
LINE
  5
35C
100
AcDbEntity
  8
0
100
AcDbLine
 62
4
  6
CONTINUOUS
 10
11.6110844647
 20
9.9602093301
 11
11.6442019071
 21
9.9579126277
  0
LINE
  5
35D
100
AcDbEntity
  8
0
100
AcDbLine
 62
4
  6
CONTINUOUS
 10
11.3862542716
 20
9.8087543264
 11
11.4244950204
 21
9.7999777734
  0
LINE
  5
35E
100
AcDbEntity
  8
0
100
AcDbLine
 62
4
  6
CONTINUOUS
 10
11.0810989715
 20
9.9739968955
 11
11.0667586975
 21
9.9772881023
  0
LINE
  5
35F
100
AcDbEntity
  8
0
100
AcDbLine
 62
4
  6
CONTINUOUS
 10
11.2384069055
 20
9.9630875533
 11
11.2240666315
 21
9.96637876
  0
LINE
  5
360
100
AcDbEntity
  8
0
100
AcDbLine
 62
4
  6
CONTINUOUS
 10
10.612529403
 20
10.015679127
 11
10.5678845338
 21
10.032555491
  0
LINE
  5
361
100
AcDbEntity
  8
0
100
AcDbLine
 62
4
  6
CONTINUOUS
 10
10.9979294692
 20
9.8865184857
 11
10.9858076355
 21
9.8919525485
  0
LINE
  5
362
100
AcDbEntity
  8
0
100
AcDbLine
 62
4
  6
CONTINUOUS
 10
11.1607442265
 20
9.8366425952
 11
11.1728660538
 21
9.8312085334
  0
LINE
  5
363
100
AcDbEntity
  8
0
100
AcDbLine
 62
4
  6
CONTINUOUS
 10
11.0538258238
 20
9.9147959343
 11
11.0659476511
 21
9.9093618724
  0
LINE
  5
364
100
AcDbEntity
  8
0
100
AcDbLine
 62
4
  6
CONTINUOUS
 10
11.2518172206
 20
9.8303266616
 11
11.2639390478
 21
9.8248925998
  0
LINE
  5
365
100
AcDbEntity
  8
0
100
AcDbLine
 62
4
  6
CONTINUOUS
 10
10.9735733959
 20
10.0044208729
 11
10.9796343086
 21
10.0017038411
  0
LINE
  5
366
100
AcDbEntity
  8
0
100
AcDbLine
 62
4
  6
CONTINUOUS
 10
11.3068602373
 20
9.960637004
 11
11.3129211784
 21
9.9579199709
  0
LINE
  5
367
100
AcDbEntity
  8
0
100
AcDbLine
 62
4
  6
CONTINUOUS
 10
11.3957148395
 20
9.952178211
 11
11.3896538984
 21
9.9548952441
  0
LINE
  5
368
100
AcDbEntity
  8
0
100
AcDbLine
 62
4
  6
CONTINUOUS
 10
11.2026358251
 20
9.9885353395
 11
11.2059369325
 21
9.9860097008
  0
LINE
  5
369
100
AcDbEntity
  8
0
100
AcDbLine
 62
4
  6
CONTINUOUS
 10
10.678169901
 20
10.0019401215
 11
10.6991655165
 21
10.0050774814
  0
LINE
  5
36A
100
AcDbEntity
  8
0
100
AcDbLine
 62
4
  6
CONTINUOUS
 10
10.5870968862
 20
10.0082560565
 11
10.6080925086
 21
10.0113934159
  0
LINE
  5
36B
100
AcDbEntity
  8
0
100
AcDbLine
 62
4
  6
CONTINUOUS
 10
10.5723214277
 20
10.0368412017
 11
10.5933170514
 21
10.0399785605
  0
LINE
  5
36C
100
AcDbEntity
  8
0
100
AcDbLine
 62
4
  6
CONTINUOUS
 10
12.1155703907
 20
10.1085767287
 11
12.1326474663
 21
10.1100719183
  0
LINE
  5
36D
100
AcDbEntity
  8
0
100
AcDbLine
 62
4
  6
CONTINUOUS
 10
11.9996592873
 20
10.116615191
 11
12.0167363629
 21
10.1181103807
  0
LINE
  5
36E
100
AcDbEntity
  8
0
100
AcDbLine
 62
4
  6
CONTINUOUS
 10
10.5933170514
 20
10.0399785605
 11
10.6264345093
 21
10.037681857
  0
LINE
  5
36F
100
AcDbEntity
  8
0
100
AcDbLine
 62
4
  6
CONTINUOUS
 10
11.4930079832
 20
9.9775847825
 11
11.4957677609
 21
9.9773933913
  0
LINE
  5
370
100
AcDbEntity
  8
0
100
AcDbLine
 62
4
  6
CONTINUOUS
 10
8.9623363392
 20
10.2642862484
 11
9.020291891
 21
10.2602670172
  0
LINE
  5
371
100
AcDbEntity
  8
0
100
AcDbLine
 62
4
  6
CONTINUOUS
 10
13.4596871265
 20
9.952393912
 11
13.5176426782
 21
9.9483746808
  0
LINE
  5
372
100
AcDbEntity
  8
0
100
AcDbLine
 62
4
  6
CONTINUOUS
 10
9.0151279302
 20
10.2927790131
 11
9.0296168181
 21
10.2917742053
  0
LINE
  5
373
100
AcDbEntity
  8
0
100
AcDbLine
 62
4
  6
CONTINUOUS
 10
13.5124787175
 20
9.9808866766
 11
13.5269676054
 21
9.9798818688
  0
LINE
  5
374
100
AcDbEntity
  8
0
100
AcDbLine
 62
4
  6
CONTINUOUS
 10
12.0001669917
 20
10.0871055965
 11
11.9856781038
 21
10.0881104043
  0
LINE
  5
375
100
AcDbEntity
  8
0
100
AcDbLine
 62
4
  6
CONTINUOUS
 10
12.0798558753
 20
10.0815791537
 11
12.137811427
 21
10.0775599225
  0
LINE
  5
376
100
AcDbEntity
  8
0
100
AcDbLine
 62
4
  6
CONTINUOUS
 10
12.0084516773
 20
10.1026079886
 11
12.0374294531
 21
10.100598373
  0
LINE
  5
377
100
AcDbEntity
  8
0
100
AcDbLine
 62
4
  6
CONTINUOUS
 10
12.0167363629
 20
10.1181103807
 11
12.0312252508
 21
10.1171055729
  0
LINE
  5
378
100
AcDbEntity
  8
0
100
AcDbLine
 62
4
  6
CONTINUOUS
 10
12.1326474663
 20
10.1100719183
 11
12.1471363542
 21
10.1090671105
  0
LINE
  5
379
100
AcDbEntity
  8
0
100
AcDbLine
 62
4
  6
CONTINUOUS
 10
11.6323701891
 20
9.9464840651
 11
11.6007317114
 21
9.9502093377
  0
LINE
  5
37A
100
AcDbEntity
  8
0
100
AcDbLine
 62
4
  6
CONTINUOUS
 10
11.6007317114
 20
9.9502093377
 11
11.5939313431
 21
9.9522120816
  0
LINE
  5
37B
100
AcDbEntity
  8
0
100
AcDbLine
 62
4
  6
CONTINUOUS
 10
11.6391705574
 20
9.9444813211
 11
11.6323701891
 21
9.9464840651
  0
LINE
  5
37C
100
AcDbEntity
  8
0
100
AcDbLine
 62
4
  6
CONTINUOUS
 10
11.5143856653
 20
9.9439483613
 11
11.5083247795
 21
9.9466653905
  0
LINE
  5
37D
100
AcDbEntity
  8
0
100
AcDbLine
 62
4
  6
CONTINUOUS
 10
11.5828391077
 20
9.9414978043
 11
11.5888999934
 21
9.9387807751
  0
LINE
  5
37E
100
AcDbEntity
  8
0
100
AcDbLine
 62
4
  6
CONTINUOUS
 10
11.6442019071
 20
9.9579126277
 11
11.6502627921
 21
9.9551955978
  0
LINE
  5
37F
100
AcDbEntity
  8
0
100
AcDbLine
 62
7
  6
CONTINUOUS
 10
12.8324723379
 20
9.1585509196
 11
12.8324723379
 21
6.3815140045
  0
LINE
  5
380
100
AcDbEntity
  8
0
100
AcDbLine
 62
4
  6
CONTINUOUS
 10
9.0311647642
 20
10.2782694067
 11
8.9970106121
 21
10.2752790266
  0
LINE
  5
381
100
AcDbEntity
  8
0
100
AcDbLine
 62
4
  6
CONTINUOUS
 10
8.9980508547
 20
10.2912838234
 11
9.0151279302
 21
10.2927790131
  0
LINE
  5
382
100
AcDbEntity
  8
0
100
AcDbLine
 62
7
  6
CONTINUOUS
 10
9.1675276621
 20
10.6184859955
 11
13.9971570797
 21
10.2835500578
  0
LINE
  5
383
100
AcDbEntity
  8
0
100
AcDbLine
 62
4
  6
CONTINUOUS
 10
11.9856781038
 20
10.0881104043
 11
11.9737774042
 21
10.0916152102
  0
LINE
  5
384
100
AcDbEntity
  8
0
100
AcDbLine
 62
4
  6
CONTINUOUS
 10
12.0312252508
 20
10.1171055729
 11
12.0431259511
 21
10.1136007677
  0
LINE
  5
385
100
AcDbEntity
  8
0
100
AcDbLine
 62
4
  6
CONTINUOUS
 10
12.1471363542
 20
10.1090671105
 11
12.1590370545
 21
10.1055623053
  0
LINE
  5
386
100
AcDbEntity
  8
0
100
AcDbLine
 62
4
  6
CONTINUOUS
 10
11.9737774042
 20
10.0916152102
 11
11.9644648927
 21
10.097620014
  0
LINE
  5
387
100
AcDbEntity
  8
0
100
AcDbLine
 62
4
  6
CONTINUOUS
 10
12.0431259511
 20
10.1136007677
 11
12.0477822056
 21
10.1105983645
  0
LINE
  5
388
100
AcDbEntity
  8
0
100
AcDbLine
 62
4
  6
CONTINUOUS
 10
12.1590370545
 20
10.1055623053
 11
12.163693309
 21
10.1025599022
  0
LINE
  5
389
100
AcDbEntity
  8
0
100
AcDbLine
 62
4
  6
CONTINUOUS
 10
9.0409973976
 20
10.2802670021
 11
9.0311647642
 21
10.2782694067
  0
LINE
  5
38A
100
AcDbEntity
  8
0
100
AcDbLine
 62
4
  6
CONTINUOUS
 10
8.9970106121
 20
10.2752790266
 11
8.977345348
 21
10.2712838386
  0
LINE
  5
38B
100
AcDbEntity
  8
0
100
AcDbLine
 62
4
  6
CONTINUOUS
 10
8.9882182212
 20
10.2892862281
 11
8.9980508547
 21
10.2912838234
  0
LINE
  5
38C
100
AcDbEntity
  8
0
100
AcDbLine
 62
4
  6
CONTINUOUS
 10
13.5269676054
 20
9.9798818688
 11
13.5388683057
 21
9.9763770636
  0
LINE
  5
38D
100
AcDbEntity
  8
0
100
AcDbLine
 62
4
  6
CONTINUOUS
 10
13.5388683057
 20
9.9763770636
 11
13.5435245602
 21
9.9733746605
  0
LINE
  5
38E
100
AcDbEntity
  8
0
100
AcDbLine
 62
7
  6
CONTINUOUS
 10
12.8324723379
 20
6.3815140045
 11
13.9971570797
 21
7.5065131427
  0
LINE
  5
38F
100
AcDbEntity
  8
0
100
AcDbLine
 62
7
  6
CONTINUOUS
 10
13.9971570797
 20
10.2835500578
 11
13.9971570797
 21
7.5065131427
  0
ARC
  5
390
100
AcDbEntity
  8
0
100
AcDbCircle
 62
7
  6
CONTINUOUS
 10
10.0192896316
 20
7.1100721156
 40
0.5163443539
100
AcDbArc
 50
25.7640228377
 51
32.3073428428
  0
ARC
  5
391
100
AcDbEntity
  8
0
100
AcDbCircle
 62
7
  6
CONTINUOUS
 10
10.0074522217
 20
7.102277407
 40
0.5163443539
100
AcDbArc
 50
205.7640228377
 51
212.3073428428
  0
ARC
  5
392
100
AcDbEntity
  8
0
100
AcDbCircle
 62
7
  6
CONTINUOUS
 10
9.922637276
 20
7.0167131036
 40
0.5163443539
100
AcDbArc
 50
25.7640228377
 51
32.3073428428
  0
ARC
  5
393
100
AcDbEntity
  8
0
100
AcDbCircle
 62
7
  6
CONTINUOUS
 10
10.0284974837
 20
7.14711669
 40
0.4792267106
100
AcDbArc
 50
82.590107291
 51
86.0275106487
  0
ARC
  5
394
100
AcDbEntity
  8
0
100
AcDbCircle
 62
7
  6
CONTINUOUS
 10
9.9982443696
 20
7.0652328327
 40
0.4792267106
100
AcDbArc
 50
262.590107291
 51
266.0275106487
  0
ARC
  5
395
100
AcDbEntity
  8
0
100
AcDbCircle
 62
7
  6
CONTINUOUS
 10
9.9318451281
 20
7.053757678
 40
0.4792267106
100
AcDbArc
 50
82.590107291
 51
86.0275106487
  0
ARC
  5
396
100
AcDbEntity
  8
0
100
AcDbCircle
 62
7
  6
CONTINUOUS
 10
9.9978019754
 20
7.0592859494
 40
0.4732634681
100
AcDbArc
 50
266.0310634489
 51
269.4972694561
  0
ARC
  5
397
100
AcDbEntity
  8
0
100
AcDbCircle
 62
7
  6
CONTINUOUS
 10
9.9322875222
 20
7.0597045612
 40
0.4732634681
100
AcDbArc
 50
86.0310634489
 51
89.4972694561
  0
ARC
  5
398
100
AcDbEntity
  8
0
100
AcDbCircle
 62
7
  6
CONTINUOUS
 10
10.0289786177
 20
7.1540558232
 40
0.4722709174
100
AcDbArc
 50
86.0274199487
 51
89.5009129563
  0
ARC
  5
399
100
AcDbEntity
  8
0
100
AcDbCircle
 62
7
  6
CONTINUOUS
 10
10.1011602777
 20
7.1106361685
 40
0.4313060869
100
AcDbArc
 50
325.2870362755
 51
332.6649360488
  0
ARC
  5
39A
100
AcDbEntity
  8
0
100
AcDbCircle
 62
7
  6
CONTINUOUS
 10
9.9255815756
 20
7.1017133542
 40
0.4313060869
100
AcDbArc
 50
145.2870362755
 51
152.6649360488
  0
ARC
  5
39B
100
AcDbEntity
  8
0
100
AcDbCircle
 62
7
  6
CONTINUOUS
 10
10.004507922
 20
7.0172771565
 40
0.4313060869
100
AcDbArc
 50
325.2870362755
 51
332.6649360488
  0
ARC
  5
39C
100
AcDbEntity
  8
0
100
AcDbCircle
 62
7
  6
CONTINUOUS
 10
8.6314883693
 20
7.3278212098
 40
0.4283870444
100
AcDbArc
 50
134.9146235641
 51
135.5469358755
  0
ARC
  5
39D
100
AcDbEntity
  8
0
100
AcDbCircle
 62
7
  6
CONTINUOUS
 10
8.7199651383
 20
7.2362205372
 40
0.4282598035
100
AcDbArc
 50
312.467716482
 51
312.8861073451
  0
ARC
  5
39E
100
AcDbEntity
  8
0
100
AcDbCircle
 62
7
  6
CONTINUOUS
 10
10.0598133216
 20
7.2191305262
 40
0.3816725525
100
AcDbArc
 50
111.6464410246
 51
120.9132869054
  0
ARC
  5
39F
100
AcDbEntity
  8
0
100
AcDbCircle
 62
7
  6
CONTINUOUS
 10
8.6813273864
 20
7.2611941649
 40
0.2928260891
100
AcDbArc
 50
349.3351410777
 51
0.0338909318
  0
SPLINE
  5
3A0
100
AcDbEntity
  8
0
100
AcDbSpline
 62
7
  6
CONTINUOUS
 70
0
 71
3
 72
20
 73
16
 74
0
 42
0.0000001
 43
0.0000001
 44
0.0000000001
 40
0.0
 40
0.0
 40
0.0
 40
0.0
 40
0.1307130444
 40
0.2609290879
 40
0.3256870374
 40
0.3901050986
 40
0.4540966361
 40
0.517574691
 40
0.5804573165
 40
0.6426728974
 40
0.7041645318
 40
0.7648928072
 40
0.8248367025
 40
0.8839927538
 40
1.0
 40
1.0
 40
1.0
 40
1.0
 10
9.5424366871
 20
7.2997662134
 30
0.0
 10
9.541247402
 20
7.2814050718
 30
0.0
 10
9.5390900762
 20
7.24473808
 30
0.0
 10
9.5370436509
 20
7.1989370042
 30
0.0
 10
9.5358635022
 20
7.1624427709
 30
0.0
 10
9.5352216095
 20
7.1352590482
 30
0.0
 10
9.5348315994
 20
7.1082507056
 30
0.0
 10
9.5347000133
 20
7.0814559778
 30
0.0
 10
9.534829153
 20
7.0549112192
 30
0.0
 10
9.5352168565
 20
7.0286486236
 30
0.0
 10
9.535856697
 20
7.0026943152
 30
0.0
 10
9.5367385101
 20
6.9770670878
 30
0.0
 10
9.5378492139
 20
6.9517778375
 30
0.0
 10
9.5396036061
 20
6.9187295475
 30
0.0
 10
9.5412310113
 20
6.8941252425
 30
0.0
 10
9.5424366871
 20
6.8778402345
 30
0.0
  0
SPLINE
  5
3A1
100
AcDbEntity
  8
0
100
AcDbSpline
 62
7
  6
CONTINUOUS
 70
0
 71
3
 72
21
 73
17
 74
0
 42
0.0000001
 43
0.0000001
 44
0.0000000001
 40
0.0
 40
0.0
 40
0.0
 40
0.0
 40
0.1211316245
 40
0.1823736293
 40
0.2440533566
 40
0.3061457671
 40
0.3686121396
 40
0.431400593
 40
0.4944480865
 40
0.5576838397
 40
0.6210337674
 40
0.6844252162
 40
0.7477912094
 40
0.811073636
 40
0.8742251276
 40
1.0
 40
1.0
 40
1.0
 40
1.0
 10
9.5710414098
 20
6.8263116572
 30
0.0
 10
9.5848722661
 20
6.8154334542
 30
0.0
 10
9.6058487264
 20
6.7992480286
 30
0.0
 10
9.6342574161
 20
6.7780379708
 30
0.0
 10
9.6559735
 20
6.762202114
 30
0.0
 10
9.6780203939
 20
6.7465212275
 30
0.0
 10
9.700391007
 20
6.7310210491
 30
0.0
 10
9.7230708757
 20
6.7157273827
 30
0.0
 10
9.7460385092
 20
6.7006645687
 30
0.0
 10
9.7692663742
 20
6.6858539785
 30
0.0
 10
9.792722515
 20
6.6713126395
 30
0.0
 10
9.8163725709
 20
6.6570522673
 30
0.0
 10
9.8401818308
 20
6.64307882
 30
0.0
 10
9.8641171417
 20
6.629392549
 30
0.0
 10
9.8961140788
 20
6.6115454295
 30
0.0
 10
9.9202801058
 20
6.5985332848
 30
0.0
 10
9.9364400261
 20
6.5900081876
 30
0.0
  0
SPLINE
  5
3A2
100
AcDbEntity
  8
0
100
AcDbSpline
 62
7
  6
CONTINUOUS
 70
0
 71
3
 72
15
 73
11
 74
0
 42
0.0000001
 43
0.0000001
 44
0.0000000001
 40
0.0
 40
0.0
 40
0.0
 40
0.0
 40
0.1128138383
 40
0.2295637229
 40
0.3503753066
 40
0.4750618339
 40
0.60311002
 40
0.73378544
 40
0.8663079068
 40
1.0
 40
1.0
 40
1.0
 40
1.0
 10
9.9936494715
 20
6.5860406991
 30
0.0
 10
10.0076089633
 20
6.5925778923
 30
0.0
 10
10.0359680723
 20
6.6059808598
 30
0.0
 10
10.0790923143
 20
6.6267710663
 30
0.0
 10
10.1234985597
 20
6.6486339339
 30
0.0
 10
10.1690972759
 20
6.6715655899
 30
0.0
 10
10.2157047103
 20
6.6954871487
 30
0.0
 10
10.2630777929
 20
6.7202581238
 30
0.0
 10
10.3109647518
 20
6.7457076871
 30
0.0
 10
10.3429871441
 20
6.7629608182
 30
0.0
 10
10.3590480878
 20
6.7716632084
 30
0.0
  0
SPLINE
  5
3A3
100
AcDbEntity
  8
0
100
AcDbSpline
 62
7
  6
CONTINUOUS
 70
0
 71
3
 72
22
 73
18
 74
0
 42
0.0000001
 43
0.0000001
 44
0.0000000001
 40
0.0
 40
0.0
 40
0.0
 40
0.0
 40
0.0662652743
 40
0.1328051367
 40
0.1995364916
 40
0.2663370505
 40
0.3994351903
 40
0.4652808744
 40
0.5303098216
 40
0.594262539
 40
0.6569110682
 40
0.7180810003
 40
0.777662912
 40
0.8356126734
 40
0.8919431812
 40
0.9467104377
 40
1.0
 40
1.0
 40
1.0
 40
1.0
 10
10.4843051661
 20
6.9125833093
 30
0.0
 10
10.4853018199
 20
6.9218739633
 30
0.0
 10
10.4872154295
 20
6.9405029047
 30
0.0
 10
10.4898106089
 20
6.9685197623
 30
0.0
 10
10.4921009895
 20
6.9966391643
 30
0.0
 10
10.494694141
 20
7.034147313
 30
0.0
 10
10.4965264504
 20
7.0715810817
 30
0.0
 10
10.4974691211
 20
7.1087928851
 30
0.0
 10
10.4977088797
 20
7.1362655016
 30
0.0
 10
10.4974769515
 20
7.1632873498
 30
0.0
 10
10.4967796455
 20
7.1897568918
 30
0.0
 10
10.4956358286
 20
7.2155939532
 30
0.0
 10
10.4940742368
 20
7.2407452496
 30
0.0
 10
10.4921300817
 20
7.265185261
 30
0.0
 10
10.4898416255
 20
7.2889133592
 30
0.0
 10
10.4872472506
 20
7.3119486125
 30
0.0
 10
10.4853127999
 20
7.3270628795
 30
0.0
 10
10.4843051661
 20
7.3345092882
 30
0.0
  0
SPLINE
  5
3A4
100
AcDbEntity
  8
0
100
AcDbSpline
 62
7
  6
CONTINUOUS
 70
0
 71
3
 72
22
 73
18
 74
0
 42
0.0000001
 43
0.0000001
 44
0.0000000001
 40
0.0
 40
0.0
 40
0.0
 40
0.0
 40
0.0578996962
 40
0.1168101933
 40
0.1767600489
 40
0.2377470615
 40
0.2997283629
 40
0.3626113545
 40
0.4262509392
 40
0.4904549087
 40
0.5549987336
 40
0.6196477114
 40
0.6841805087
 40
0.7484081384
 40
0.8121847207
 40
0.8754100196
 40
1.0
 40
1.0
 40
1.0
 40
1.0
 10
10.4557004434
 20
7.3860378655
 30
0.0
 10
10.4494466493
 20
7.3916993112
 30
0.0
 10
10.4367397794
 20
7.4030220271
 30
0.0
 10
10.4172240668
 20
7.4198277222
 30
0.0
 10
10.3970580881
 20
7.4365613734
 30
0.0
 10
10.3762184998
 20
7.4531762356
 30
0.0
 10
10.3546988954
 20
7.4696147198
 30
0.0
 10
10.3325149219
 20
7.4858097721
 30
0.0
 10
10.3097074489
 20
7.5016883531
 30
0.0
 10
10.2863424596
 20
7.5171770048
 30
0.0
 10
10.2625070267
 20
7.5322088982
 30
0.0
 10
10.2383013358
 20
7.5467300998
 30
0.0
 10
10.2138291777
 20
7.5607045363
 30
0.0
 10
10.1891886708
 20
7.5741155084
 30
0.0
 10
10.1644652725
 20
7.5869646984
 30
0.0
 10
10.1316439326
 20
7.6032900613
 30
0.0
 10
10.1068496278
 20
7.6148797857
 30
0.0
 10
10.0903018272
 20
7.6223413351
 30
0.0
  0
SPLINE
  5
3A5
100
AcDbEntity
  8
0
100
AcDbSpline
 62
7
  6
CONTINUOUS
 70
0
 71
3
 72
15
 73
11
 74
0
 42
0.0000001
 43
0.0000001
 44
0.0000000001
 40
0.0
 40
0.0
 40
0.0
 40
0.0
 40
0.1024613676
 40
0.2125928618
 40
0.3308785969
 40
0.4568383157
 40
0.5888655796
 40
0.7247022368
 40
0.8622377903
 40
1.0
 40
1.0
 40
1.0
 40
1.0
 10
10.0330923817
 20
7.6263088236
 30
0.0
 10
10.0202486005
 20
7.6207272683
 30
0.0
 10
9.9936807148
 20
7.6089585402
 30
0.0
 10
9.95260711
 20
7.5900299695
 30
0.0
 10
9.9089375017
 20
7.569074242
 30
0.0
 10
9.862920656
 20
7.5461070487
 30
0.0
 10
9.8151120904
 20
7.5213714423
 30
0.0
 10
9.7662286851
 20
7.4952810358
 30
0.0
 10
9.7169411192
 20
7.4682909758
 30
0.0
 10
9.6840969526
 20
7.4499311108
 30
0.0
 10
9.6676937655
 20
7.4406863142
 30
0.0
  0
SPLINE
  5
3A6
100
AcDbEntity
  8
0
100
AcDbSpline
 62
7
  6
CONTINUOUS
 70
0
 71
3
 72
71
 73
67
 74
0
 42
0.0000001
 43
0.0000001
 44
0.0000000001
 40
0.0
 40
0.0
 40
0.0
 40
0.0
 40
0.0156216706
 40
0.0311907745
 40
0.0467067129
 40
0.0621710762
 40
0.0775850548
 40
0.0929506339
 40
0.1082702304
 40
0.1235467312
 40
0.1387834665
 40
0.1539841688
 40
0.1691529583
 40
0.18429428
 40
0.1994128679
 40
0.2145137035
 40
0.2296019564
 40
0.2446829193
 40
0.2597619759
 40
0.2748445272
 40
0.2899359312
 40
0.3050414546
 40
0.3201662202
 40
0.3353151335
 40
0.3504928522
 40
0.365703735
 40
0.3809517875
 40
0.3962406261
 40
0.4115734583
 40
0.4269530346
 40
0.4423816308
 40
0.4578610394
 40
0.4733925444
 40
0.4889769098
 40
0.5046143965
 40
0.520304754
 40
0.5360472182
 40
0.5518405387
 40
0.5676829933
 40
0.5835723969
 40
0.5995061365
 40
0.615481204
 40
0.6314942052
 40
0.6475414082
 40
0.6636187847
 40
0.6797220354
 40
0.695846625
 40
0.7119878439
 40
0.7281408301
 40
0.744300616
 40
0.7604621807
 40
0.7766204909
 40
0.7927705277
 40
0.8089073567
 40
0.8250261591
 40
0.8411222663
 40
0.8571912088
 40
0.8732287682
 40
0.8892309912
 40
0.9051942477
 40
0.9211152546
 40
0.9369911073
 40
0.9528193701
 40
0.9685977523
 40
0.9843253342
 40
1.0
 40
1.0
 40
1.0
 40
1.0
 10
9.9562284306
 20
6.6356312155
 30
0.0
 10
9.9630122487
 20
6.6351607561
 30
0.0
 10
9.9765823535
 20
6.6345516703
 30
0.0
 10
9.9969214517
 20
6.6346397084
 30
0.0
 10
10.0171634598
 20
6.6357308777
 30
0.0
 10
10.0372587308
 20
6.6378224071
 30
0.0
 10
10.0571592059
 20
6.640909458
 30
0.0
 10
10.0768167926
 20
6.6449845968
 30
0.0
 10
10.0961841397
 20
6.6500380446
 30
0.0
 10
10.1152145508
 20
6.6560576614
 30
0.0
 10
10.1338621386
 20
6.6630289749
 30
0.0
 10
10.1520819266
 20
6.6709352345
 30
0.0
 10
10.1698299608
 20
6.6797574246
 30
0.0
 10
10.187063438
 20
6.6894742825
 30
0.0
 10
10.203740788
 20
6.700062394
 30
0.0
 10
10.2198217774
 20
6.711496247
 30
0.0
 10
10.235267602
 20
6.7237482905
 30
0.0
 10
10.2500409893
 20
6.7367889916
 30
0.0
 10
10.2641063155
 20
6.7505868816
 30
0.0
 10
10.2774296615
 20
6.7651086753
 30
0.0
 10
10.2899788953
 20
6.7803193421
 30
0.0
 10
10.3017237468
 20
6.7961821974
 30
0.0
 10
10.3126358961
 20
6.8126589743
 30
0.0
 10
10.3226890675
 20
6.8297099076
 30
0.0
 10
10.3318590477
 20
6.8472938618
 30
0.0
 10
10.3401237573
 20
6.8653684229
 30
0.0
 10
10.347463288
 20
6.8838900027
 30
0.0
 10
10.3538599808
 20
6.9028139327
 30
0.0
 10
10.359298479
 20
6.9220945738
 30
0.0
 10
10.3637657275
 20
6.941685441
 30
0.0
 10
10.3672510044
 20
6.9615393114
 30
0.0
 10
10.3697459432
 20
6.9816083376
 30
0.0
 10
10.3712445796
 20
7.0018441559
 30
0.0
 10
10.3717433759
 20
7.0221980074
 30
0.0
 10
10.3712411814
 20
7.0426208608
 30
0.0
 10
10.3697392526
 20
7.0630635267
 30
0.0
 10
10.3672412314
 20
7.0834767698
 30
0.0
 10
10.3637531815
 20
7.1038114323
 30
0.0
 10
10.3592835616
 20
7.1240185558
 30
0.0
 10
10.3538431771
 20
7.1440494923
 30
0.0
 10
10.3474451564
 20
7.1638560211
 30
0.0
 10
10.3401049171
 20
7.1833904585
 30
0.0
 10
10.3318401649
 20
7.2026057844
 30
0.0
 10
10.3226708393
 20
7.2214557552
 30
0.0
 10
10.3126190354
 20
7.2398950048
 30
0.0
 10
10.3017089655
 20
7.257879153
 30
0.0
 10
10.2899668882
 20
7.2753649043
 30
0.0
 10
10.2774210893
 20
7.2923101777
 30
0.0
 10
10.2641017889
 20
7.3086741992
 30
0.0
 10
10.2500410549
 20
7.3244175833
 30
0.0
 10
10.2352727292
 20
7.3395024331
 30
0.0
 10
10.2198323467
 20
7.3538924212
 30
0.0
 10
10.2037570811
 20
7.3675529141
 30
0.0
 10
10.1870856318
 20
7.3804510332
 30
0.0
 10
10.1698581224
 20
7.392555725
 30
0.0
 10
10.1521160109
 20
7.4038378326
 30
0.0
 10
10.1339019872
 20
7.4142701637
 30
0.0
 10
10.1152598964
 20
7.4238275962
 30
0.0
 10
10.0962346116
 20
7.4324871148
 30
0.0
 10
10.0768719223
 20
7.4402278424
 30
0.0
 10
10.057218437
 20
7.4470311071
 30
0.0
 10
10.0373214287
 20
7.4528804953
 30
0.0
 10
10.0172289186
 20
7.4577618251
 30
0.0
 10
9.9969889313
 20
7.4616635008
 30
0.0
 10
9.9766510525
 20
7.4645757761
 30
0.0
 10
9.9630352623
 20
7.4658554199
 30
0.0
 10
9.9562284306
 20
7.4663274753
 30
0.0
  0
SPLINE
  5
3A7
100
AcDbEntity
  8
0
100
AcDbSpline
 62
7
  6
CONTINUOUS
 70
0
 71
3
 72
71
 73
67
 74
0
 42
0.0000001
 43
0.0000001
 44
0.0000000001
 40
0.0
 40
0.0
 40
0.0
 40
0.0
 40
0.0156216706
 40
0.0311907745
 40
0.0467067129
 40
0.0621710762
 40
0.0775850548
 40
0.0929506339
 40
0.1082702304
 40
0.1235467312
 40
0.1387834665
 40
0.1539841688
 40
0.1691529583
 40
0.18429428
 40
0.1994128679
 40
0.2145137035
 40
0.2296019564
 40
0.2446829193
 40
0.2597619759
 40
0.2748445272
 40
0.2899359312
 40
0.3050414546
 40
0.3201662202
 40
0.3353151335
 40
0.3504928522
 40
0.365703735
 40
0.3809517875
 40
0.3962406261
 40
0.4115734583
 40
0.4269530346
 40
0.4423816308
 40
0.4578610394
 40
0.4733925444
 40
0.4889769098
 40
0.5046143965
 40
0.520304754
 40
0.5360472182
 40
0.5518405387
 40
0.5676829933
 40
0.5835723969
 40
0.5995061365
 40
0.615481204
 40
0.6314942052
 40
0.6475414082
 40
0.6636187847
 40
0.6797220354
 40
0.695846625
 40
0.7119878439
 40
0.7281408301
 40
0.744300616
 40
0.7604621807
 40
0.7766204909
 40
0.7927705277
 40
0.8089073567
 40
0.8250261591
 40
0.8411222663
 40
0.8571912088
 40
0.8732287682
 40
0.8892309912
 40
0.9051942477
 40
0.9211152546
 40
0.9369911073
 40
0.9528193701
 40
0.9685977523
 40
0.9843253342
 40
1.0
 40
1.0
 40
1.0
 40
1.0
 10
9.9562284306
 20
7.4663274753
 30
0.0
 10
9.9494446125
 20
7.4667979347
 30
0.0
 10
9.9358745077
 20
7.4674070204
 30
0.0
 10
9.9155354095
 20
7.4673189823
 30
0.0
 10
9.8952934015
 20
7.4662278131
 30
0.0
 10
9.8751981305
 20
7.4641362837
 30
0.0
 10
9.8552976554
 20
7.4610492328
 30
0.0
 10
9.8356400687
 20
7.456974094
 30
0.0
 10
9.8162727215
 20
7.4519206461
 30
0.0
 10
9.7972423104
 20
7.4459010294
 30
0.0
 10
9.7785947226
 20
7.4389297159
 30
0.0
 10
9.7603749346
 20
7.4310234563
 30
0.0
 10
9.7426269004
 20
7.4222012662
 30
0.0
 10
9.7253934232
 20
7.4124844083
 30
0.0
 10
9.7087160733
 20
7.4018962967
 30
0.0
 10
9.6926350838
 20
7.3904624438
 30
0.0
 10
9.6771892593
 20
7.3782104003
 30
0.0
 10
9.662415872
 20
7.3651696992
 30
0.0
 10
9.6483505457
 20
7.3513718092
 30
0.0
 10
9.6350271997
 20
7.3368500154
 30
0.0
 10
9.6224779659
 20
7.3216393486
 30
0.0
 10
9.6107331144
 20
7.3057764933
 30
0.0
 10
9.5998209651
 20
7.2892997165
 30
0.0
 10
9.5897677938
 20
7.2722487832
 30
0.0
 10
9.5805978136
 20
7.254664829
 30
0.0
 10
9.5723331039
 20
7.2365902679
 30
0.0
 10
9.5649935732
 20
7.2180686881
 30
0.0
 10
9.5585968804
 20
7.199144758
 30
0.0
 10
9.5531583822
 20
7.1798641169
 30
0.0
 10
9.5486911337
 20
7.1602732497
 30
0.0
 10
9.5452058568
 20
7.1404193794
 30
0.0
 10
9.5427109181
 20
7.1203503531
 30
0.0
 10
9.5412122816
 20
7.1001145348
 30
0.0
 10
9.5407134853
 20
7.0797606834
 30
0.0
 10
9.5412156799
 20
7.0593378299
 30
0.0
 10
9.5427176086
 20
7.0388951641
 30
0.0
 10
9.5452156298
 20
7.0184819209
 30
0.0
 10
9.5487036797
 20
6.9981472584
 30
0.0
 10
9.5531732997
 20
6.977940135
 30
0.0
 10
9.5586136841
 20
6.9579091985
 30
0.0
 10
9.5650117049
 20
6.9381026697
 30
0.0
 10
9.5723519441
 20
6.9185682323
 30
0.0
 10
9.5806166963
 20
6.8993529064
 30
0.0
 10
9.5897860219
 20
6.8805029356
 30
0.0
 10
9.5998378259
 20
6.862063686
 30
0.0
 10
9.6107478958
 20
6.8440795378
 30
0.0
 10
9.622489973
 20
6.8265937865
 30
0.0
 10
9.6350357719
 20
6.8096485131
 30
0.0
 10
9.6483550724
 20
6.7932844915
 30
0.0
 10
9.6624158064
 20
6.7775411074
 30
0.0
 10
9.677184132
 20
6.7624562576
 30
0.0
 10
9.6926245146
 20
6.7480662696
 30
0.0
 10
9.7086997802
 20
6.7344057766
 30
0.0
 10
9.7253712294
 20
6.7215076575
 30
0.0
 10
9.7425987388
 20
6.7094029657
 30
0.0
 10
9.7603408503
 20
6.6981208582
 30
0.0
 10
9.778554874
 20
6.687688527
 30
0.0
 10
9.7971969649
 20
6.6781310946
 30
0.0
 10
9.8162222497
 20
6.6694715759
 30
0.0
 10
9.8355849389
 20
6.6617308483
 30
0.0
 10
9.8552384242
 20
6.6549275837
 30
0.0
 10
9.8751354325
 20
6.6490781955
 30
0.0
 10
9.8952279426
 20
6.6441968656
 30
0.0
 10
9.9154679299
 20
6.6402951899
 30
0.0
 10
9.9358058088
 20
6.6373829147
 30
0.0
 10
9.9494215989
 20
6.6361032708
 30
0.0
 10
9.9562284306
 20
6.6356312155
 30
0.0
  0
SPLINE
  5
3A8
100
AcDbEntity
  8
0
100
AcDbSpline
 62
7
  6
CONTINUOUS
 70
0
 71
3
 72
20
 73
16
 74
0
 42
0.0000001
 43
0.0000001
 44
0.0000000001
 40
0.0
 40
0.0
 40
0.0
 40
0.0
 40
0.1160072463
 40
0.1751632975
 40
0.2351071928
 40
0.2958354683
 40
0.3573271027
 40
0.4195426835
 40
0.482425309
 40
0.5459033639
 40
0.6098949014
 40
0.6743129626
 40
0.7390709121
 40
0.8692869556
 40
1.0
 40
1.0
 40
1.0
 40
1.0
 10
10.3876528105
 20
6.8192242972
 30
0.0
 10
10.3864471347
 20
6.8355093053
 30
0.0
 10
10.3848197295
 20
6.8601136103
 30
0.0
 10
10.3830653373
 20
6.8931619003
 30
0.0
 10
10.3819546334
 20
6.9184511506
 30
0.0
 10
10.3810728204
 20
6.9440783779
 30
0.0
 10
10.3804329799
 20
6.9700326864
 30
0.0
 10
10.3800452764
 20
6.996295282
 30
0.0
 10
10.3799161367
 20
7.0228400406
 30
0.0
 10
10.3800477228
 20
7.0496347684
 30
0.0
 10
10.3804377328
 20
7.076643111
 30
0.0
 10
10.3810796255
 20
7.1038268337
 30
0.0
 10
10.3822597743
 20
7.1403210669
 30
0.0
 10
10.3843061996
 20
7.1861221428
 30
0.0
 10
10.3864635254
 20
7.2227891345
 30
0.0
 10
10.3876528105
 20
7.2411502762
 30
0.0
  0
SPLINE
  5
3A9
100
AcDbEntity
  8
0
100
AcDbSpline
 62
7
  6
CONTINUOUS
 70
0
 71
3
 72
21
 73
17
 74
0
 42
0.0000001
 43
0.0000001
 44
0.0000000001
 40
0.0
 40
0.0
 40
0.0
 40
0.0
 40
0.1257748724
 40
0.188926364
 40
0.2522087907
 40
0.3155747839
 40
0.3789662327
 40
0.4423161603
 40
0.5055519135
 40
0.5685994071
 40
0.6313878604
 40
0.6938542329
 40
0.7559466435
 40
0.8176263707
 40
0.8788683755
 40
1.0
 40
1.0
 40
1.0
 40
1.0
 10
10.3590480878
 20
7.2926788535
 30
0.0
 10
10.3428881675
 20
7.3012039507
 30
0.0
 10
10.3187221405
 20
7.3142160954
 30
0.0
 10
10.2867252034
 20
7.3320632149
 30
0.0
 10
10.2627898925
 20
7.345749486
 30
0.0
 10
10.2389806326
 20
7.3597229332
 30
0.0
 10
10.2153305767
 20
7.3739833054
 30
0.0
 10
10.1918744359
 20
7.3885246445
 30
0.0
 10
10.1686465709
 20
7.4033352346
 30
0.0
 10
10.1456789374
 20
7.4183980486
 30
0.0
 10
10.1229990687
 20
7.433691715
 30
0.0
 10
10.1006284556
 20
7.4491918934
 30
0.0
 10
10.0785815617
 20
7.4648727799
 30
0.0
 10
10.0568654778
 20
7.4807086367
 30
0.0
 10
10.0284567881
 20
7.5019186945
 30
0.0
 10
10.0074803278
 20
7.5181041201
 30
0.0
 10
9.9936494715
 20
7.5289823231
 30
0.0
  0
SPLINE
  5
3AA
100
AcDbEntity
  8
0
100
AcDbSpline
 62
7
  6
CONTINUOUS
 70
0
 71
3
 72
15
 73
11
 74
0
 42
0.0000001
 43
0.0000001
 44
0.0000000001
 40
0.0
 40
0.0
 40
0.0
 40
0.0
 40
0.1336920932
 40
0.2662145601
 40
0.39688998
 40
0.5249381662
 40
0.6496246935
 40
0.7704362771
 40
0.8871861617
 40
1.0
 40
1.0
 40
1.0
 40
1.0
 10
9.9364400261
 20
7.5329498116
 30
0.0
 10
9.9203790824
 20
7.5242474213
 30
0.0
 10
9.8883566901
 20
7.5069942902
 30
0.0
 10
9.8404697312
 20
7.4815447269
 30
0.0
 10
9.7930966486
 20
7.4567737519
 30
0.0
 10
9.7464892142
 20
7.432852193
 30
0.0
 10
9.700890498
 20
7.409920537
 30
0.0
 10
9.6564842526
 20
7.3880576695
 30
0.0
 10
9.6133600106
 20
7.367267463
 30
0.0
 10
9.5850009016
 20
7.3538644955
 30
0.0
 10
9.5710414098
 20
7.3473273022
 30
0.0
  0
SPLINE
  5
3AB
100
AcDbEntity
  8
0
100
AcDbSpline
 62
7
  6
CONTINUOUS
 70
0
 71
3
 72
23
 73
19
 74
0
 42
0.0000001
 43
0.0000001
 44
0.0000000001
 40
0.0
 40
0.0
 40
0.0
 40
0.0
 40
0.0637772827
 40
0.1273447928
 40
0.1907019891
 40
0.2538561422
 40
0.3168131889
 40
0.3795820982
 40
0.4421733894
 40
0.5045993375
 40
0.5668738648
 40
0.6290123797
 40
0.6910316513
 40
0.752949645
 40
0.814785352
 40
0.8765586
 40
0.9382898524
 40
1.0
 40
1.0
 40
1.0
 40
1.0
 10
9.1426356582
 20
7.2411087245
 30
0.0
 10
9.1426356582
 20
7.2335177427
 30
0.0
 10
9.1422723294
 20
7.2183581743
 30
0.0
 10
9.1406324085
 20
7.1957110243
 30
0.0
 10
9.1379019555
 20
7.1732434227
 30
0.0
 10
9.1340874556
 20
7.1510080493
 30
0.0
 10
9.1291974792
 20
7.1290557924
 30
0.0
 10
9.1232433041
 20
7.1074373846
 30
0.0
 10
9.1162385927
 20
7.0862026362
 30
0.0
 10
9.108199463
 20
7.0654005167
 30
0.0
 10
9.099144411
 20
7.0450789986
 30
0.0
 10
9.0890942712
 20
7.025284955
 30
0.0
 10
9.078072174
 20
7.0060640578
 30
0.0
 10
9.0661034989
 20
6.9874606418
 30
0.0
 10
9.0532158808
 20
6.9695176562
 30
0.0
 10
9.0394388801
 20
6.9522763537
 30
0.0
 10
9.0248048146
 20
6.935777041
 30
0.0
 10
9.0144979191
 20
6.9252956303
 30
0.0
 10
9.0092150306
 20
6.9201927586
 30
0.0
  0
SPLINE
  5
3AC
100
AcDbEntity
  8
0
100
AcDbSpline
 62
7
  6
CONTINUOUS
 70
0
 71
3
 72
60
 73
56
 74
0
 42
0.0000001
 43
0.0000001
 44
0.0000000001
 40
0.0
 40
0.0
 40
0.0
 40
0.0
 40
0.0081223406
 40
0.0169168431
 40
0.0264086323
 40
0.0366142687
 40
0.0475414355
 40
0.0591910158
 40
0.0715584107
 40
0.0846344949
 40
0.0984062802
 40
0.1128573064
 40
0.1279683357
 40
0.1437174554
 40
0.1600804353
 40
0.1770310661
 40
0.1945411268
 40
0.2125807894
 40
0.2501207279
 40
0.2893847263
 40
0.3300867172
 40
0.371925751
 40
0.4145894152
 40
0.4577571198
 40
0.5011033266
 40
0.5443007676
 40
0.587023623
 40
0.6289507091
 40
0.6697687274
 40
0.7091755587
 40
0.746883655
 40
0.7650162944
 40
0.7826249702
 40
0.7996794705
 40
0.816151351
 40
0.8320139955
 40
0.8472427493
 40
0.8618153589
 40
0.8757119742
 40
0.8889156572
 40
0.9014127819
 40
0.9131933641
 40
0.9242520195
 40
0.9345885809
 40
0.9442093339
 40
0.9531286836
 40
0.9613709339
 40
0.9689732146
 40
0.9759886454
 40
0.9824900322
 40
0.9885734237
 40
0.9914974427
 40
0.9943641479
 40
0.9971919194
 40
1.0
 40
1.0
 40
1.0
 40
1.0
 10
9.7572439035
 20
10.477108177
 30
0.0
 10
9.7563911275
 20
10.4762844587
 30
0.0
 10
9.7545345621
 20
10.474651086
 30
0.0
 10
9.7514528253
 20
10.4723303791
 30
0.0
 10
9.747972568
 20
10.4700484931
 30
0.0
 10
9.7441008406
 20
10.4678098284
 30
0.0
 10
9.7398449163
 20
10.4656184061
 30
0.0
 10
9.7352130545
 20
10.4634785977
 30
0.0
 10
9.7302143729
 20
10.4613945899
 30
0.0
 10
9.7248587607
 20
10.4593705629
 30
0.0
 10
9.7191568712
 20
10.4574106373
 30
0.0
 10
9.713120118
 20
10.4555187397
 30
0.0
 10
9.706760603
 20
10.4536987537
 30
0.0
 10
9.7000911139
 20
10.4519543716
 30
0.0
 10
9.6931250821
 20
10.4502891256
 30
0.0
 10
9.6858765509
 20
10.4487064544
 30
0.0
 10
9.6783601383
 20
10.4472095142
 30
0.0
 10
9.6678616391
 20
10.4453068193
 30
0.0
 10
9.6541796253
 20
10.4431754424
 30
0.0
 10
9.6371588467
 20
10.4410351356
 30
0.0
 10
9.6194617121
 20
10.4392972326
 30
0.0
 10
9.6012312
 20
10.4379760116
 30
0.0
 10
9.582614479
 20
10.437082377
 30
0.0
 10
9.5637619593
 20
10.4366236875
 30
0.0
 10
9.5448259742
 20
10.4366037105
 30
0.0
 10
9.5259595477
 20
10.4370226083
 30
0.0
 10
9.5073151274
 20
10.437876934
 30
0.0
 10
9.4890433532
 20
10.439159668
 30
0.0
 10
9.4712917362
 20
10.4408602224
 30
0.0
 10
9.4542036985
 20
10.4429646263
 30
0.0
 10
9.4404575304
 20
10.4450667042
 30
0.0
 10
9.4299016111
 20
10.4469467276
 30
0.0
 10
9.4223380936
 20
10.448427719
 30
0.0
 10
9.41503974
 20
10.4499950427
 30
0.0
 10
9.4080212647
 20
10.4516455139
 30
0.0
 10
9.4012968228
 20
10.4533757547
 30
0.0
 10
9.3948799629
 20
10.455182278
 30
0.0
 10
9.3887835834
 20
10.4570613618
 30
0.0
 10
9.3830199231
 20
10.4590092162
 30
0.0
 10
9.3776005159
 20
10.4610218892
 30
0.0
 10
9.372536153
 20
10.4630952799
 30
0.0
 10
9.3678368858
 20
10.4652252774
 30
0.0
 10
9.3635119409
 20
10.4674076052
 30
0.0
 10
9.3595697362
 20
10.4696380169
 30
0.0
 10
9.3560178613
 20
10.4719123177
 30
0.0
 10
9.352863013
 20
10.4742263371
 30
0.0
 10
9.3501111577
 20
10.4765762787
 30
0.0
 10
9.3477675755
 20
10.4789585595
 30
0.0
 10
9.3458371647
 20
10.4813702986
 30
0.0
 10
9.3443252349
 20
10.4838082532
 30
0.0
 10
9.3434067933
 20
10.4858875468
 30
0.0
 10
9.342899413
 20
10.4875466437
 30
0.0
 10
9.3426307477
 20
10.4887772369
 30
0.0
 10
9.3424694488
 20
10.4900093023
 30
0.0
 10
9.342433557
 20
10.4908324271
 30
0.0
 10
9.3424335545
 20
10.4912423297
 30
0.0
  0
SPLINE
  5
3AD
100
AcDbEntity
  8
0
100
AcDbSpline
 62
7
  6
CONTINUOUS
 70
0
 71
3
 72
60
 73
56
 74
0
 42
0.0000001
 43
0.0000001
 44
0.0000000001
 40
0.0
 40
0.0
 40
0.0
 40
0.0
 40
0.0081223406
 40
0.0169168431
 40
0.0264086323
 40
0.0366142687
 40
0.0475414355
 40
0.0591910158
 40
0.0715584107
 40
0.0846344949
 40
0.0984062802
 40
0.1128573064
 40
0.1279683357
 40
0.1437174554
 40
0.1600804353
 40
0.1770310661
 40
0.1945411268
 40
0.2125807894
 40
0.2501207279
 40
0.2893847263
 40
0.3300867172
 40
0.371925751
 40
0.4145894152
 40
0.4577571198
 40
0.5011033266
 40
0.5443007676
 40
0.587023623
 40
0.6289507091
 40
0.6697687274
 40
0.7091755587
 40
0.746883655
 40
0.7650162944
 40
0.7826249702
 40
0.7996794705
 40
0.816151351
 40
0.8320139955
 40
0.8472427493
 40
0.8618153589
 40
0.8757119742
 40
0.8889156572
 40
0.9014127819
 40
0.9131933641
 40
0.9242520195
 40
0.9345885809
 40
0.9442093339
 40
0.9531286836
 40
0.9613709339
 40
0.9689732146
 40
0.9759886454
 40
0.9824900322
 40
0.9885734237
 40
0.9914974427
 40
0.9943641479
 40
0.9971919194
 40
1.0
 40
1.0
 40
1.0
 40
1.0
 10
12.6503768194
 20
9.271660145
 30
0.0
 10
12.6495240435
 20
9.2708364266
 30
0.0
 10
12.647667478
 20
9.269203054
 30
0.0
 10
12.6445857412
 20
9.2668823471
 30
0.0
 10
12.641105484
 20
9.2646004611
 30
0.0
 10
12.6372337566
 20
9.2623617963
 30
0.0
 10
12.6329778323
 20
9.2601703741
 30
0.0
 10
12.6283459704
 20
9.2580305656
 30
0.0
 10
12.6233472889
 20
9.2559465579
 30
0.0
 10
12.6179916767
 20
9.2539225309
 30
0.0
 10
12.6122897871
 20
9.2519626053
 30
0.0
 10
12.606253034
 20
9.2500707077
 30
0.0
 10
12.5998935189
 20
9.2482507217
 30
0.0
 10
12.5932240298
 20
9.2465063395
 30
0.0
 10
12.5862579981
 20
9.2448410936
 30
0.0
 10
12.5790094669
 20
9.2432584224
 30
0.0
 10
12.5714930542
 20
9.2417614822
 30
0.0
 10
12.5609945551
 20
9.2398587873
 30
0.0
 10
12.5473125412
 20
9.2377274104
 30
0.0
 10
12.5302917626
 20
9.2355871035
 30
0.0
 10
12.5125946281
 20
9.2338492006
 30
0.0
 10
12.494364116
 20
9.2325279796
 30
0.0
 10
12.475747395
 20
9.231634345
 30
0.0
 10
12.4568948753
 20
9.2311756554
 30
0.0
 10
12.4379588901
 20
9.2311556785
 30
0.0
 10
12.4190924636
 20
9.2315745763
 30
0.0
 10
12.4004480434
 20
9.232428902
 30
0.0
 10
12.3821762692
 20
9.2337116359
 30
0.0
 10
12.3644246522
 20
9.2354121903
 30
0.0
 10
12.3473366145
 20
9.2375165942
 30
0.0
 10
12.3335904464
 20
9.2396186722
 30
0.0
 10
12.323034527
 20
9.2414986955
 30
0.0
 10
12.3154710096
 20
9.242979687
 30
0.0
 10
12.3081726559
 20
9.2445470106
 30
0.0
 10
12.3011541806
 20
9.2461974819
 30
0.0
 10
12.2944297387
 20
9.2479277227
 30
0.0
 10
12.2880128789
 20
9.2497342459
 30
0.0
 10
12.2819164994
 20
9.2516133298
 30
0.0
 10
12.2761528391
 20
9.2535611842
 30
0.0
 10
12.2707334319
 20
9.2555738572
 30
0.0
 10
12.2656690689
 20
9.2576472479
 30
0.0
 10
12.2609698017
 20
9.2597772454
 30
0.0
 10
12.2566448569
 20
9.2619595731
 30
0.0
 10
12.2527026522
 20
9.2641899849
 30
0.0
 10
12.2491507772
 20
9.2664642857
 30
0.0
 10
12.2459959289
 20
9.2687783051
 30
0.0
 10
12.2432440737
 20
9.2711282467
 30
0.0
 10
12.2409004915
 20
9.2735105275
 30
0.0
 10
12.2389700807
 20
9.2759222666
 30
0.0
 10
12.2374581508
 20
9.2783602212
 30
0.0
 10
12.2365397092
 20
9.2804395148
 30
0.0
 10
12.2360323289
 20
9.2820986116
 30
0.0
 10
12.2357636637
 20
9.2833292049
 30
0.0
 10
12.2356023647
 20
9.2845612703
 30
0.0
 10
12.2355664729
 20
9.2853843951
 30
0.0
 10
12.2355664704
 20
9.2857942977
 30
0.0
  0
SPLINE
  5
3AE
100
AcDbEntity
  8
0
100
AcDbSpline
 62
7
  6
CONTINUOUS
 70
0
 71
3
 72
19
 73
15
 74
0
 42
0.0000001
 43
0.0000001
 44
0.0000000001
 40
0.0
 40
0.0
 40
0.0
 40
0.0
 40
0.1504611406
 40
0.2916985742
 40
0.4244193292
 40
0.4878835935
 40
0.5495802133
 40
0.6682271463
 40
0.7255606136
 40
0.7817999183
 40
0.8371467056
 40
0.8918136429
 40
0.9460222308
 40
1.0
 40
1.0
 40
1.0
 40
1.0
 10
13.6412811864
 20
9.5418388746
 30
0.0
 10
13.6435626446
 20
9.5440425942
 30
0.0
 10
13.6481224107
 20
9.5481773953
 30
0.0
 10
13.6551827754
 20
9.5536874851
 30
0.0
 10
13.6611463527
 20
9.5575845385
 30
0.0
 10
13.665901935
 20
9.5602235114
 30
0.0
 10
13.6705172143
 20
9.5624891419
 30
0.0
 10
13.6751865373
 20
9.5643410808
 30
0.0
 10
13.6798821245
 20
9.5657346898
 30
0.0
 10
13.6833539135
 20
9.5665379846
 30
0.0
 10
13.686814149
 20
9.5671105267
 30
0.0
 10
13.6902619106
 20
9.5674520663
 30
0.0
 10
13.6936958082
 20
9.5675624621
 30
0.0
 10
13.6959771928
 20
9.567481788
 30
0.0
 10
13.6971124094
 20
9.5674030642
 30
0.0
  0
SPLINE
  5
3AF
100
AcDbEntity
  8
0
100
AcDbSpline
 62
7
  6
CONTINUOUS
 70
0
 71
3
 72
19
 73
15
 74
0
 42
0.0000001
 43
0.0000001
 44
0.0000000001
 40
0.0
 40
0.0
 40
0.0
 40
0.0
 40
0.1504611406
 40
0.2916985742
 40
0.4244193292
 40
0.4878835935
 40
0.5495802133
 40
0.6682271463
 40
0.7255606136
 40
0.7817999183
 40
0.8371467056
 40
0.8918136429
 40
0.9460222308
 40
1.0
 40
1.0
 40
1.0
 40
1.0
 10
13.1883482312
 20
9.1043392098
 30
0.0
 10
13.1906296895
 20
9.1065429293
 30
0.0
 10
13.1951894556
 20
9.1106777304
 30
0.0
 10
13.2022498203
 20
9.1161878203
 30
0.0
 10
13.2082133976
 20
9.1200848736
 30
0.0
 10
13.2129689798
 20
9.1227238466
 30
0.0
 10
13.2175842592
 20
9.124989477
 30
0.0
 10
13.2222535822
 20
9.1268414159
 30
0.0
 10
13.2269491694
 20
9.128235025
 30
0.0
 10
13.2304209583
 20
9.1290383198
 30
0.0
 10
13.2338811938
 20
9.1296108619
 30
0.0
 10
13.2373289555
 20
9.1299524014
 30
0.0
 10
13.2407628531
 20
9.1300627972
 30
0.0
 10
13.2430442377
 20
9.1299821231
 30
0.0
 10
13.2441794542
 20
9.1299033993
 30
0.0
  0
SPLINE
  5
3B0
100
AcDbEntity
  8
0
100
AcDbSpline
 62
7
  6
CONTINUOUS
 70
0
 71
3
 72
21
 73
17
 74
0
 42
0.0000001
 43
0.0000001
 44
0.0000000001
 40
0.0
 40
0.0
 40
0.0
 40
0.0
 40
0.1273176899
 40
0.2537999351
 40
0.3167619508
 40
0.3795355113
 40
0.4421314924
 40
0.5045621415
 40
0.5668413449
 40
0.6289845255
 40
0.6910084484
 40
0.7529310939
 40
0.814771448
 40
0.8765493308
 40
0.9382852181
 40
1.0
 40
1.0
 40
1.0
 40
1.0
 10
8.9572194401
 20
7.2995104003
 30
0.0
 10
8.9572194401
 20
7.2916723141
 30
0.0
 10
8.956471248
 20
7.2760374849
 30
0.0
 10
8.9536455368
 20
7.2567094579
 30
0.0
 10
8.9502682127
 20
7.2415483093
 30
0.0
 10
8.947188269
 20
7.2303654363
 30
0.0
 10
8.9435648993
 20
7.2193812746
 30
0.0
 10
8.9394064571
 20
7.2086208325
 30
0.0
 10
8.9347225298
 20
7.198108997
 30
0.0
 10
8.929523823
 20
7.1878700285
 30
0.0
 10
8.9238223631
 20
7.1779275289
 30
0.0
 10
8.9176312983
 20
7.1683044116
 30
0.0
 10
8.9109648464
 20
7.159022944
 30
0.0
 10
8.9038383395
 20
7.1501044417
 30
0.0
 10
8.8962685285
 20
7.1415697203
 30
0.0
 10
8.8909370082
 20
7.1361479578
 30
0.0
 10
8.888204309
 20
7.1335083567
 30
0.0
  0
SPLINE
  5
3B1
100
AcDbEntity
  8
0
100
AcDbSpline
 62
7
  6
CONTINUOUS
 70
0
 71
3
 72
37
 73
33
 74
0
 42
0.0000001
 43
0.0000001
 44
0.0000000001
 40
0.0
 40
0.0
 40
0.0
 40
0.0
 40
0.0307116543
 40
0.0615425044
 40
0.0924882586
 40
0.1235467246
 40
0.1547123722
 40
0.1859791039
 40
0.217339439
 40
0.2487848218
 40
0.2803057167
 40
0.31189171
 40
0.3435316429
 40
0.3752137378
 40
0.406925737
 40
0.4386550464
 40
0.5020927812
 40
0.5654464029
 40
0.597071568
 40
0.6286394213
 40
0.6601390116
 40
0.6915601709
 40
0.7228936372
 40
0.7541311728
 40
0.7852656713
 40
0.8162912505
 40
0.8472033341
 40
0.8779987193
 40
0.9086756336
 40
0.9392337764
 40
0.9696743379
 40
1.0
 40
1.0
 40
1.0
 40
1.0
 10
8.9741534243
 20
7.2613673739
 30
0.0
 10
8.9741534243
 20
7.2669420073
 30
0.0
 10
8.9738402673
 20
7.2781153665
 30
0.0
 10
8.9724391342
 20
7.2948529791
 30
0.0
 10
8.9701098934
 20
7.3115508588
 30
0.0
 10
8.9668601455
 20
7.3281559319
 30
0.0
 10
8.9626999241
 20
7.3446166523
 30
0.0
 10
8.9576423508
 20
7.3608814673
 30
0.0
 10
8.9517032478
 20
7.3768995891
 30
0.0
 10
8.9449012361
 20
7.3926209731
 30
0.0
 10
8.9372576069
 20
7.4079965142
 30
0.0
 10
8.9287962771
 20
7.4229781769
 30
0.0
 10
8.919543671
 20
7.4375191885
 30
0.0
 10
8.9095288125
 20
7.4515740163
 30
0.0
 10
8.8987826047
 20
7.4650991463
 30
0.0
 10
8.883528576
 20
7.4823652871
 30
0.0
 10
8.8628107637
 20
7.502413135
 30
0.0
 10
8.8401299222
 20
7.520179809
 30
0.0
 10
8.8209822134
 20
7.5328841194
 30
0.0
 10
8.8061727453
 20
7.5416247079
 30
0.0
 10
8.7909554742
 20
7.5495536202
 30
0.0
 10
8.7753775017
 20
7.5566463986
 30
0.0
 10
8.7594875996
 20
7.5628807336
 30
0.0
 10
8.7433353843
 20
7.5682371389
 30
0.0
 10
8.7269713317
 20
7.572698831
 30
0.0
 10
8.7104465702
 20
7.5762518176
 30
0.0
 10
8.6938127443
 20
7.5788849329
 30
0.0
 10
8.6771218295
 20
7.5805898684
 30
0.0
 10
8.6604260586
 20
7.5813612311
 30
0.0
 10
8.6437774456
 20
7.5811965339
 30
0.0
 10
8.6272287702
 20
7.5800963208
 30
0.0
 10
8.6162754815
 20
7.5787386806
 30
0.0
 10
8.6108344227
 20
7.5779049122
 30
0.0
  0
SPLINE
  5
3B2
100
AcDbEntity
  8
0
100
AcDbSpline
 62
7
  6
CONTINUOUS
 70
0
 71
3
 72
42
 73
38
 74
0
 42
0.0000001
 43
0.0000001
 44
0.0000000001
 40
0.0
 40
0.0
 40
0.0
 40
0.0
 40
0.0310747399
 40
0.0466742052
 40
0.0623120863
 40
0.09369676
 40
0.1252253837
 40
0.1568866085
 40
0.1886662314
 40
0.2205476536
 40
0.2525121981
 40
0.2845395162
 40
0.3166080022
 40
0.3486952307
 40
0.3807784038
 40
0.4128348044
 40
0.4448422473
 40
0.476779524
 40
0.5086268332
 40
0.5403661909
 40
0.5719818139
 40
0.6034604675
 40
0.6347917735
 40
0.6659684668
 40
0.6969865958
 40
0.7278456582
 40
0.7585486651
 40
0.789102127
 40
0.819515959
 40
0.8498033003
 40
0.8649073404
 40
0.8799860241
 40
0.9100712959
 40
0.9400857958
 40
0.9550764676
 40
0.9700580345
 40
1.0
 40
1.0
 40
1.0
 40
1.0
 10
8.9572194401
 20
7.2995104003
 30
0.0
 10
8.9572194401
 20
7.3056025423
 30
0.0
 10
8.9568789018
 20
7.3147575277
 30
0.0
 10
8.9557542347
 20
7.3269237298
 30
0.0
 10
8.9541783545
 20
7.3391015852
 30
0.0
 10
8.9513691504
 20
7.354257825
 30
0.0
 10
8.9466834123
 20
7.3722131474
 30
0.0
 10
8.9407045129
 20
7.389862284
 30
0.0
 10
8.9334654816
 20
7.4071077757
 30
0.0
 10
8.9250061745
 20
7.4238551407
 30
0.0
 10
8.9153731301
 20
7.4400124395
 30
0.0
 10
8.9046192995
 20
7.4554910294
 30
0.0
 10
8.8928037596
 20
7.4702059749
 30
0.0
 10
8.8799913909
 20
7.4840765277
 30
0.0
 10
8.8662525246
 20
7.4970265594
 30
0.0
 10
8.8516625601
 20
7.5089849768
 30
0.0
 10
8.836301556
 20
7.5198861078
 30
0.0
 10
8.8202537953
 20
7.529670059
 30
0.0
 10
8.8036073286
 20
7.5382830422
 30
0.0
 10
8.7864534972
 20
7.5456776684
 30
0.0
 10
8.7688864385
 20
7.5518132073
 30
0.0
 10
8.7510025762
 20
7.5566558122
 30
0.0
 10
8.7329000998
 20
7.5601787087
 30
0.0
 10
8.7146784306
 20
7.5623623449
 30
0.0
 10
8.6964376892
 20
7.5631945081
 30
0.0
 10
8.6782781312
 20
7.5626703912
 30
0.0
 10
8.6602996763
 20
7.5607926616
 30
0.0
 10
8.6426010843
 20
7.5575713402
 30
0.0
 10
8.6252804389
 20
7.5530241988
 30
0.0
 10
8.6112254549
 20
7.5481451786
 30
0.0
 10
8.600270291
 20
7.5436077567
 30
0.0
 10
8.5895368513
 20
7.5386620648
 30
0.0
 10
8.5765225388
 20
7.531710028
 30
0.0
 10
8.5641116599
 20
7.5237622249
 30
0.0
 10
8.5546002149
 20
7.5168410102
 30
0.0
 10
8.5453823173
 20
7.5095573527
 30
0.0
 10
8.5388003542
 20
7.5036871424
 30
0.0
 10
8.5345782965
 20
7.4996089225
 30
0.0
  0
SPLINE
  5
3B3
100
AcDbEntity
  8
0
100
AcDbSpline
 62
7
  6
CONTINUOUS
 70
0
 71
3
 72
11
 73
7
 74
0
 42
0.0000001
 43
0.0000001
 44
0.0000000001
 40
0.0
 40
0.0
 40
0.0
 40
0.0
 40
0.2517312916
 40
0.5022812818
 40
0.7516865276
 40
1.0
 40
1.0
 40
1.0
 40
1.0
 10
10.5106570138
 20
7.1560162644
 30
0.0
 10
10.5106570138
 20
7.1466023159
 30
0.0
 10
10.5100186988
 20
7.1278121882
 30
0.0
 10
10.507134392
 20
7.0998281534
 30
0.0
 10
10.5023392225
 20
7.0722370609
 30
0.0
 10
10.4978725638
 20
7.0541492023
 30
0.0
 10
10.4953288523
 20
7.0452182563
 30
0.0
  0
SPLINE
  5
3B4
100
AcDbEntity
  8
0
100
AcDbSpline
 62
7
  6
CONTINUOUS
 70
0
 71
3
 72
11
 73
7
 74
0
 42
0.0000001
 43
0.0000001
 44
0.0000000001
 40
0.0
 40
0.0
 40
0.0
 40
0.0
 40
0.2480493634
 40
0.4974354392
 40
0.7481135223
 40
1.0
 40
1.0
 40
1.0
 40
1.0
 10
10.5106570138
 20
7.1560162644
 30
0.0
 10
10.5106570138
 20
7.167016121
 30
0.0
 10
10.5097809154
 20
7.1890846423
 30
0.0
 10
10.5058716988
 20
7.2220614371
 30
0.0
 10
10.4993897868
 20
7.2548034944
 30
0.0
 10
10.4933922283
 20
7.2762942217
 30
0.0
 10
10.4899841098
 20
7.286931607
 30
0.0
  0
SPLINE
  5
3B5
100
AcDbEntity
  8
0
100
AcDbSpline
 62
7
  6
CONTINUOUS
 70
0
 71
3
 72
21
 73
17
 74
0
 42
0.0000001
 43
0.0000001
 44
0.0000000001
 40
0.0
 40
0.0
 40
0.0
 40
0.0
 40
0.0628293531
 40
0.1257029808
 40
0.188601489
 40
0.251505272
 40
0.3772170743
 40
0.5027166172
 40
0.5653570331
 40
0.6278900671
 40
0.6902993217
 40
0.7525695018
 40
0.8146865629
 40
0.8766378401
 40
0.9384121688
 40
1.0
 40
1.0
 40
1.0
 40
1.0
 10
10.4278378457
 20
7.4107950299
 30
0.0
 10
10.4237567626
 20
7.4165352887
 30
0.0
 10
10.4153261702
 20
7.4278337058
 30
0.0
 10
10.4019134063
 20
7.4441855345
 30
0.0
 10
10.3877587888
 20
7.459911982
 30
0.0
 10
10.3679507329
 20
7.4799878195
 30
0.0
 10
10.3415169686
 20
7.5033301113
 30
0.0
 10
10.3130759048
 20
7.5241306003
 30
0.0
 10
10.289293496
 20
7.5391138001
 30
0.0
 10
10.270995448
 20
7.5494909971
 30
0.0
 10
10.2522722838
 20
7.5589877382
 30
0.0
 10
10.2331687526
 20
7.5675814218
 30
0.0
 10
10.2137311036
 20
7.5752512062
 30
0.0
 10
10.1940060342
 20
7.5819786073
 30
0.0
 10
10.1740417582
 20
7.5877472185
 30
0.0
 10
10.160582431
 20
7.5909497127
 30
0.0
 10
10.1538295251
 20
7.5923860269
 30
0.0
  0
SPLINE
  5
3B6
100
AcDbEntity
  8
0
100
AcDbSpline
 62
7
  6
CONTINUOUS
 70
0
 71
3
 72
23
 73
19
 74
0
 42
0.0000001
 43
0.0000001
 44
0.0000000001
 40
0.0
 40
0.0
 40
0.0
 40
0.0
 40
0.0637769127
 40
0.127344953
 40
0.1907019652
 40
0.2538561227
 40
0.3168132057
 40
0.3795820872
 40
0.4421733866
 40
0.5045993385
 40
0.5668738691
 40
0.6290123824
 40
0.6910316505
 40
0.7529496453
 40
0.8147853569
 40
0.8765586065
 40
0.9382898561
 40
1.0
 40
1.0
 40
1.0
 40
1.0
 10
11.6272674678
 20
7.7421701834
 30
0.0
 10
11.6272674678
 20
7.7355281239
 30
0.0
 10
11.6269495403
 20
7.7222635076
 30
0.0
 10
11.6255146386
 20
7.7024472849
 30
0.0
 10
11.6231254864
 20
7.6827881305
 30
0.0
 10
11.6197878255
 20
7.6633322228
 30
0.0
 10
11.6155090969
 20
7.6441240296
 30
0.0
 10
11.6102991965
 20
7.6252079544
 30
0.0
 10
11.6041701087
 20
7.6066275745
 30
0.0
 10
11.5971359108
 20
7.5884257372
 30
0.0
 10
11.5892127606
 20
7.5706444341
 30
0.0
 10
11.5804188933
 20
7.5533246798
 30
0.0
 10
11.5707745881
 20
7.536506416
 30
0.0
 10
11.5603020519
 20
7.5202284302
 30
0.0
 10
11.5490254304
 20
7.5045283242
 30
0.0
 10
11.5369705786
 20
7.4894422052
 30
0.0
 10
11.5241657905
 20
7.475005335
 30
0.0
 10
11.5151473114
 20
7.4658340771
 30
0.0
 10
11.5105247855
 20
7.4613690787
 30
0.0
  0
SPLINE
  5
3B7
100
AcDbEntity
  8
0
100
AcDbSpline
 62
7
  6
CONTINUOUS
 70
0
 71
3
 72
37
 73
33
 74
0
 42
0.0000001
 43
0.0000001
 44
0.0000000001
 40
0.0
 40
0.0
 40
0.0
 40
0.0
 40
0.0592062032
 40
0.1183572367
 40
0.176063495
 40
0.2313794357
 40
0.2838043778
 40
0.3331656352
 40
0.3794923924
 40
0.4229199082
 40
0.4636309178
 40
0.501822507
 40
0.537688712
 40
0.5714129644
 40
0.6031647922
 40
0.633099381
 40
0.6880571201
 40
0.7133496945
 40
0.7373322223
 40
0.7817742325
 40
0.802461392
 40
0.8222568823
 40
0.8412683857
 40
0.8596086593
 40
0.8774001837
 40
0.8947762684
 40
0.9118853068
 40
0.9288929962
 40
0.9459851337
 40
0.9633714715
 40
0.9812872609
 40
1.0
 40
1.0
 40
1.0
 40
1.0
 10
10.8820908939
 20
7.7152603093
 30
0.0
 10
10.8808930677
 20
7.7186348387
 30
0.0
 10
10.8787888059
 20
7.7254871767
 30
0.0
 10
10.8764869376
 20
7.7358941435
 30
0.0
 10
10.8750037775
 20
7.7462104254
 30
0.0
 10
10.8742713348
 20
7.7561973769
 30
0.0
 10
10.8741898075
 20
7.7657048015
 30
0.0
 10
10.8746533809
 20
7.7746558253
 30
0.0
 10
10.8755645456
 20
7.7830243944
 30
0.0
 10
10.8768398048
 20
7.7908149342
 30
0.0
 10
10.8784103563
 20
7.7980481273
 30
0.0
 10
10.8802206129
 20
7.804752086
 30
0.0
 10
10.8822260485
 20
7.8109573427
 30
0.0
 10
10.8843908561
 20
7.8166939957
 30
0.0
 10
10.8866870418
 20
7.8219906437
 30
0.0
 10
10.8898051561
 20
7.8283208536
 30
0.0
 10
10.8931785473
 20
7.8340837974
 30
0.0
 10
10.8967933402
 20
7.8392520119
 30
0.0
 10
10.9002931574
 20
7.8437128538
 30
0.0
 10
10.9039746283
 20
7.8476709264
 30
0.0
 10
10.9078297622
 20
7.8510699118
 30
0.0
 10
10.9106892012
 20
7.8532593041
 30
0.0
 10
10.9135832515
 20
7.8551549415
 30
0.0
 10
10.9165121994
 20
7.8567576911
 30
0.0
 10
10.9194754816
 20
7.858068549
 30
0.0
 10
10.922474709
 20
7.859083286
 30
0.0
 10
10.925511053
 20
7.8597977548
 30
0.0
 10
10.928587136
 20
7.8602020156
 30
0.0
 10
10.9317056885
 20
7.8602855022
 30
0.0
 10
10.9348704758
 20
7.8600309266
 30
0.0
 10
10.9380856605
 20
7.8594190572
 30
0.0
 10
10.9402095028
 20
7.8587718695
 30
0.0
 10
10.9412738081
 20
7.8583870041
 30
0.0
  0
SPLINE
  5
3B8
100
AcDbEntity
  8
0
100
AcDbSpline
 62
7
  6
CONTINUOUS
 70
0
 71
3
 72
39
 73
35
 74
0
 42
0.0000001
 43
0.0000001
 44
0.0000000001
 40
0.0
 40
0.0
 40
0.0
 40
0.0
 40
0.0310753511
 40
0.0623079071
 40
0.0936931323
 40
0.1252222879
 40
0.1568840438
 40
0.1886642044
 40
0.2205461649
 40
0.2525112495
 40
0.2845391085
 40
0.3166081364
 40
0.3486959075
 40
0.3807796234
 40
0.4128365659
 40
0.4448445499
 40
0.4767823666
 40
0.5086302146
 40
0.540370109
 40
0.5719862657
 40
0.6034654504
 40
0.6347972851
 40
0.6659745049
 40
0.6969931576
 40
0.7278527402
 40
0.7585562639
 40
0.7891102404
 40
0.8195245852
 40
0.8498124376
 40
0.8799898966
 40
0.9100756756
 40
0.9400906817
 40
0.970057529
 40
1.0
 40
1.0
 40
1.0
 40
1.0
 10
11.6272674678
 20
7.7421701834
 30
0.0
 10
11.6272674678
 20
7.7524753875
 30
0.0
 10
11.6264987244
 20
7.7731458582
 30
0.0
 10
11.6230664388
 20
7.8040526142
 30
0.0
 10
11.617371447
 20
7.8347778843
 30
0.0
 10
11.6094452086
 20
7.8651507763
 30
0.0
 10
11.5993316216
 20
7.8950050728
 30
0.0
 10
11.5870864227
 20
7.9241767598
 30
0.0
 10
11.5727770578
 20
7.9525057863
 30
0.0
 10
11.556482258
 20
7.9798366997
 30
0.0
 10
11.5382915969
 20
8.0060195425
 30
0.0
 10
11.5183050042
 20
8.0309106469
 30
0.0
 10
11.4966322223
 20
8.0543734172
 30
0.0
 10
11.4733922092
 20
8.0762790666
 30
0.0
 10
11.4487125177
 20
8.0965073454
 30
0.0
 10
11.4227285767
 20
8.1149471736
 30
0.0
 10
11.3955829555
 20
8.1314972409
 30
0.0
 10
11.3674245936
 20
8.1460665594
 30
0.0
 10
11.3384079935
 20
8.1585749552
 30
0.0
 10
11.3086923939
 20
8.1689535261
 30
0.0
 10
11.2784409073
 20
8.1771450344
 30
0.0
 10
11.2478196253
 20
8.1831041949
 30
0.0
 10
11.2169967246
 20
8.1867979353
 30
0.0
 10
11.1861415573
 20
8.1882055882
 30
0.0
 10
11.155423733
 20
8.1873190137
 30
0.0
 10
11.1250121939
 20
8.1841427025
 30
0.0
 10
11.095074287
 20
8.178693742
 30
0.0
 10
11.0657748429
 20
8.1710017328
 30
0.0
 10
11.0372752803
 20
8.1611086668
 30
0.0
 10
11.0097326538
 20
8.1490686603
 30
0.0
 10
10.9832989728
 20
8.1349478921
 30
0.0
 10
10.9581195631
 20
8.1188235205
 30
0.0
 10
10.9343351001
 20
8.1007860156
 30
0.0
 10
10.9194898307
 20
8.0875457408
 30
0.0
 10
10.9123479644
 20
8.0806472566
 30
0.0
  0
SPLINE
  5
3B9
100
AcDbEntity
  8
0
100
AcDbSpline
 62
7
  6
CONTINUOUS
 70
0
 71
3
 72
15
 73
11
 74
0
 42
0.0000001
 43
0.0000001
 44
0.0000000001
 40
0.0
 40
0.0
 40
0.0
 40
0.0
 40
0.1098906522
 40
0.2214015324
 40
0.3360758406
 40
0.455320507
 40
0.5803741139
 40
0.712293262
 40
0.8519441752
 40
1.0
 40
1.0
 40
1.0
 40
1.0
 10
9.7644335296
 20
10.4912426174
 30
0.0
 10
9.7644335332
 20
10.4906458183
 30
0.0
 10
9.7643569231
 20
10.4894420682
 30
0.0
 10
9.7640132713
 20
10.4876450855
 30
0.0
 10
9.7634418853
 20
10.485853761
 30
0.0
 10
9.7626443459
 20
10.4840707692
 30
0.0
 10
9.7616223675
 20
10.4822978369
 30
0.0
 10
9.7603776767
 20
10.4805364975
 30
0.0
 10
9.7589121437
 20
10.4787884126
 30
0.0
 10
9.7578222332
 20
10.4776668007
 30
0.0
 10
9.7572439035
 20
10.477108177
 30
0.0
  0
SPLINE
  5
3BA
100
AcDbEntity
  8
0
100
AcDbSpline
 62
7
  6
CONTINUOUS
 70
0
 71
3
 72
15
 73
11
 74
0
 42
0.0000001
 43
0.0000001
 44
0.0000000001
 40
0.0
 40
0.0
 40
0.0
 40
0.0
 40
0.1098906522
 40
0.2214015324
 40
0.3360758406
 40
0.455320507
 40
0.5803741139
 40
0.712293262
 40
0.8519441752
 40
1.0
 40
1.0
 40
1.0
 40
1.0
 10
12.6575664455
 20
9.2857945854
 30
0.0
 10
12.6575664492
 20
9.2851977863
 30
0.0
 10
12.657489839
 20
9.2839940362
 30
0.0
 10
12.6571461873
 20
9.2821970535
 30
0.0
 10
12.6565748012
 20
9.280405729
 30
0.0
 10
12.6557772619
 20
9.2786227372
 30
0.0
 10
12.6547552834
 20
9.2768498049
 30
0.0
 10
12.6535105926
 20
9.2750884655
 30
0.0
 10
12.6520450597
 20
9.2733403806
 30
0.0
 10
12.6509551492
 20
9.2722187687
 30
0.0
 10
12.6503768194
 20
9.271660145
 30
0.0
  0
SPLINE
  5
3BB
100
AcDbEntity
  8
0
100
AcDbSpline
 62
7
  6
CONTINUOUS
 70
0
 71
3
 72
55
 73
51
 74
0
 42
0.0000001
 43
0.0000001
 44
0.0000000001
 40
0.0
 40
0.0
 40
0.0
 40
0.0
 40
0.0077405295
 40
0.0160544111
 40
0.0249606134
 40
0.0344721118
 40
0.0445954544
 40
0.0553323919
 40
0.066680682
 40
0.0786347351
 40
0.0911860812
 40
0.1043236422
 40
0.1180342652
 40
0.1323027184
 40
0.147112073
 40
0.1624438228
 40
0.1782779442
 40
0.194593203
 40
0.2285749289
 40
0.2641973525
 40
0.3012527132
 40
0.3395207521
 40
0.3787709958
 40
0.4187648962
 40
0.4592578909
 40
0.5000014231
 40
0.5407449417
 40
0.5812378994
 40
0.6212317419
 40
0.6604819037
 40
0.6987498278
 40
0.7358050444
 40
0.7714273135
 40
0.8054088768
 40
0.8217240293
 40
0.8375580764
 40
0.8528896961
 40
0.8676989683
 40
0.8819673007
 40
0.8956778013
 40
0.9088152713
 40
0.9213664664
 40
0.9333204285
 40
0.9446685856
 40
0.9554053962
 40
0.9655286074
 40
0.9750399926
 40
0.9839461994
 40
0.992259621
 40
1.0
 40
1.0
 40
1.0
 40
1.0
 10
9.8358865477
 20
9.7340837215
 30
0.0
 10
9.8348333411
 20
9.733103665
 30
0.0
 10
9.8325660847
 20
9.7311588928
 30
0.0
 10
9.8288467676
 20
9.7283813159
 30
0.0
 10
9.8246963415
 20
9.725645633
 30
0.0
 10
9.8201216394
 20
9.7229562044
 30
0.0
 10
9.8151297398
 20
9.7203170023
 30
0.0
 10
9.8097285806
 20
9.7177323324
 30
0.0
 10
9.8039268494
 20
9.7152063138
 30
0.0
 10
9.7977339099
 20
9.7127430655
 30
0.0
 10
9.7911598045
 20
9.7103466644
 30
0.0
 10
9.7842152561
 20
9.7080210073
 30
0.0
 10
9.7769116015
 20
9.7057699912
 30
0.0
 10
9.7692608057
 20
9.7035973029
 30
0.0
 10
9.761275413
 20
9.7015065498
 30
0.0
 10
9.7529685358
 20
9.6995012234
 30
0.0
 10
9.7443538149
 20
9.697584576
 30
0.0
 10
9.7323121123
 20
9.6951181734
 30
0.0
 10
9.7165922819
 20
9.6922923594
 30
0.0
 10
9.6969863248
 20
9.6893451078
 30
0.0
 10
9.6765190912
 20
9.6868171173
 30
0.0
 10
9.6553252782
 20
9.6847252768
 30
0.0
 10
9.6335442357
 20
9.6830836068
 30
0.0
 10
9.6113193145
 20
9.6819030867
 30
0.0
 10
9.5887968154
 20
9.6811916125
 30
0.0
 10
9.5661250333
 20
9.6809539436
 30
0.0
 10
9.5434532587
 20
9.6811916645
 30
0.0
 10
9.5209307813
 20
9.681903184
 30
0.0
 10
9.4987058953
 20
9.6830837468
 30
0.0
 10
9.4769249034
 20
9.6847254592
 30
0.0
 10
9.4557311586
 20
9.6868173468
 30
0.0
 10
9.4352640082
 20
9.689345385
 30
0.0
 10
9.4156581447
 20
9.6922926805
 30
0.0
 10
9.3999383977
 20
9.6951185154
 30
0.0
 10
9.3878967685
 20
9.6975849585
 30
0.0
 10
9.3792821065
 20
9.6995016045
 30
0.0
 10
9.3709752938
 20
9.7015069711
 30
0.0
 10
9.3629899646
 20
9.7035977218
 30
0.0
 10
9.3553392383
 20
9.7057704342
 30
0.0
 10
9.3480356558
 20
9.7080214726
 30
0.0
 10
9.3410911768
 20
9.7103471243
 30
0.0
 10
9.3345171522
 20
9.7127435662
 30
0.0
 10
9.3283242825
 20
9.7152068011
 30
0.0
 10
9.3225226341
 20
9.717732848
 30
0.0
 10
9.3171215635
 20
9.7203175326
 30
0.0
 10
9.3121297319
 20
9.7229567172
 30
0.0
 10
9.3075551147
 20
9.7256462022
 30
0.0
 10
9.3034047966
 20
9.7283818568
 30
0.0
 10
9.2996856031
 20
9.7311594095
 30
0.0
 10
9.2974184443
 20
9.7331041231
 30
0.0
 10
9.2963652847
 20
9.7340841891
 30
0.0
  0
SPLINE
  5
3BC
100
AcDbEntity
  8
0
100
AcDbSpline
 62
7
  6
CONTINUOUS
 70
0
 71
3
 72
55
 73
51
 74
0
 42
0.0000001
 43
0.0000001
 44
0.0000000001
 40
0.0
 40
0.0
 40
0.0
 40
0.0
 40
0.0077405295
 40
0.0160544111
 40
0.0249606134
 40
0.0344721118
 40
0.0445954544
 40
0.0553323919
 40
0.066680682
 40
0.0786347351
 40
0.0911860812
 40
0.1043236422
 40
0.1180342652
 40
0.1323027184
 40
0.147112073
 40
0.1624438228
 40
0.1782779442
 40
0.194593203
 40
0.2285749289
 40
0.2641973525
 40
0.3012527132
 40
0.3395207521
 40
0.3787709958
 40
0.4187648962
 40
0.4592578909
 40
0.5000014231
 40
0.5407449417
 40
0.5812378994
 40
0.6212317419
 40
0.6604819037
 40
0.6987498278
 40
0.7358050444
 40
0.7714273135
 40
0.8054088768
 40
0.8217240293
 40
0.8375580764
 40
0.8528896961
 40
0.8676989683
 40
0.8819673007
 40
0.8956778013
 40
0.9088152713
 40
0.9213664664
 40
0.9333204285
 40
0.9446685856
 40
0.9554053962
 40
0.9655286074
 40
0.9750399926
 40
0.9839461994
 40
0.992259621
 40
1.0
 40
1.0
 40
1.0
 40
1.0
 10
12.7036342116
 20
10.0041154175
 30
0.0
 10
12.702581005
 20
10.003135361
 30
0.0
 10
12.7003137486
 20
10.0011905888
 30
0.0
 10
12.6965944316
 20
9.998413012
 30
0.0
 10
12.6924440054
 20
9.995677329
 30
0.0
 10
12.6878693033
 20
9.9929879004
 30
0.0
 10
12.6828774037
 20
9.9903486983
 30
0.0
 10
12.6774762446
 20
9.9877640284
 30
0.0
 10
12.6716745133
 20
9.9852380098
 30
0.0
 10
12.6654815739
 20
9.9827747615
 30
0.0
 10
12.6589074684
 20
9.9803783604
 30
0.0
 10
12.65196292
 20
9.9780527033
 30
0.0
 10
12.6446592654
 20
9.9758016872
 30
0.0
 10
12.6370084696
 20
9.9736289989
 30
0.0
 10
12.6290230769
 20
9.9715382458
 30
0.0
 10
12.6207161997
 20
9.9695329194
 30
0.0
 10
12.6121014789
 20
9.967616272
 30
0.0
 10
12.6000597763
 20
9.9651498694
 30
0.0
 10
12.5843399458
 20
9.9623240554
 30
0.0
 10
12.5647339888
 20
9.9593768038
 30
0.0
 10
12.5442667552
 20
9.9568488133
 30
0.0
 10
12.5230729421
 20
9.9547569728
 30
0.0
 10
12.5012918996
 20
9.9531153028
 30
0.0
 10
12.4790669784
 20
9.9519347827
 30
0.0
 10
12.4565444794
 20
9.9512233085
 30
0.0
 10
12.4338726973
 20
9.9509856396
 30
0.0
 10
12.4112009226
 20
9.9512233606
 30
0.0
 10
12.3886784452
 20
9.95193488
 30
0.0
 10
12.3664535592
 20
9.9531154428
 30
0.0
 10
12.3446725673
 20
9.9547571552
 30
0.0
 10
12.3234788225
 20
9.9568490428
 30
0.0
 10
12.3030116722
 20
9.9593770811
 30
0.0
 10
12.2834058086
 20
9.9623243765
 30
0.0
 10
12.2676860616
 20
9.9651502115
 30
0.0
 10
12.2556444325
 20
9.9676166545
 30
0.0
 10
12.2470297704
 20
9.9695333005
 30
0.0
 10
12.2387229577
 20
9.9715386671
 30
0.0
 10
12.2307376285
 20
9.9736294178
 30
0.0
 10
12.2230869022
 20
9.9758021302
 30
0.0
 10
12.2157833198
 20
9.9780531687
 30
0.0
 10
12.2088388407
 20
9.9803788203
 30
0.0
 10
12.2022648161
 20
9.9827752622
 30
0.0
 10
12.1960719465
 20
9.9852384971
 30
0.0
 10
12.1902702981
 20
9.987764544
 30
0.0
 10
12.1848692274
 20
9.9903492286
 30
0.0
 10
12.1798773958
 20
9.9929884132
 30
0.0
 10
12.1753027787
 20
9.9956778982
 30
0.0
 10
12.1711524606
 20
9.9984135529
 30
0.0
 10
12.167433267
 20
10.0011911055
 30
0.0
 10
12.1651661083
 20
10.0031358191
 30
0.0
 10
12.1641129486
 20
10.0041158851
 30
0.0
  0
SPLINE
  5
3BD
100
AcDbEntity
  8
0
100
AcDbSpline
 62
7
  6
CONTINUOUS
 70
0
 71
3
 72
91
 73
87
 74
0
 42
0.0000001
 43
0.0000001
 44
0.0000000001
 40
0.0
 40
0.0
 40
0.0
 40
0.0
 40
0.002716415
 40
0.0054532022
 40
0.008230253
 40
0.0110665237
 40
0.0139797073
 40
0.0169859914
 40
0.0200999223
 40
0.0233344139
 40
0.0267007313
 40
0.0302086537
 40
0.0338665321
 40
0.0376814587
 40
0.0416594002
 40
0.0458052811
 40
0.0501231771
 40
0.054616323
 40
0.0592872948
 40
0.064138028
 40
0.0691699046
 40
0.0743838441
 40
0.0797802815
 40
0.0853593099
 40
0.0911206192
 40
0.0970636057
 40
0.1031873656
 40
0.1094907055
 40
0.1226298526
 40
0.1364674172
 40
0.1509861262
 40
0.1661659162
 40
0.1819842491
 40
0.198416371
 40
0.2154355294
 40
0.2330131562
 40
0.2511190323
 40
0.2697214386
 40
0.2887872909
 40
0.308282264
 40
0.3281709086
 40
0.3484167625
 40
0.3689824571
 40
0.3898298261
 40
0.410920009
 40
0.432213552
 40
0.4536705077
 40
0.4752505333
 40
0.4969129892
 40
0.5186170389
 40
0.5403217469
 40
0.5619861766
 40
0.5835694872
 40
0.6050310316
 40
0.6263304548
 40
0.6474277948
 40
0.6682835806
 40
0.6888589317
 40
0.7091156588
 40
0.7290163666
 40
0.7485245594
 40
0.7676047532
 40
0.7862225854
 40
0.8043449309
 40
0.8219400259
 40
0.8389776022
 40
0.8554290332
 40
0.8712675032
 40
0.8864681917
 40
0.9010084867
 40
0.9148682422
 40
0.9280300914
 40
0.9343449372
 40
0.9404802907
 40
0.9464349309
 40
0.9522079539
 40
0.9577987124
 40
0.9632068978
 40
0.9684325718
 40
0.9734761454
 40
0.9783384941
 40
0.9830209329
 40
0.987525438
 40
0.9918546142
 40
0.9960115771
 40
1.0
 40
1.0
 40
1.0
 40
1.0
 10
13.5854499634
 20
7.9572703091
 30
0.0
 10
13.5839437965
 20
7.9573747571
 30
0.0
 10
13.5809278815
 20
7.9577207741
 30
0.0
 10
13.5764423886
 20
7.9586466284
 30
0.0
 10
13.5719908154
 20
7.9599793093
 30
0.0
 10
13.5675762953
 20
7.9617173939
 30
0.0
 10
13.5632011352
 20
7.9638594156
 30
0.0
 10
13.5588675815
 20
7.9664036867
 30
0.0
 10
13.5545775902
 20
7.9693483454
 30
0.0
 10
13.5503331421
 20
7.9726916165
 30
0.0
 10
13.5461359819
 20
7.9764314459
 30
0.0
 10
13.5419879998
 20
7.9805658743
 30
0.0
 10
13.5378909565
 20
7.9850926942
 30
0.0
 10
13.5338466758
 20
7.9900096211
 30
0.0
 10
13.5298570295
 20
7.9953142268
 30
0.0
 10
13.5259237839
 20
8.0010038462
 30
0.0
 10
13.5220488791
 20
8.0070757293
 30
0.0
 10
13.5182340747
 20
8.0135268424
 30
0.0
 10
13.5144812711
 20
8.0203540371
 30
0.0
 10
13.5107922755
 20
8.0275539315
 30
0.0
 10
13.5071688776
 20
8.0351229591
 30
0.0
 10
13.5036129248
 20
8.0430573847
 30
0.0
 10
13.5001261045
 20
8.0513532444
 30
0.0
 10
13.4967102338
 20
8.0600064306
 30
0.0
 10
13.4933669562
 20
8.0690126147
 30
0.0
 10
13.4900979854
 20
8.0783673057
 30
0.0
 10
13.4869049343
 20
8.088065841
 30
0.0
 10
13.4826925713
 20
8.1016374569
 30
0.0
 10
13.4776433369
 20
8.1194353665
 30
0.0
 10
13.4719923537
 20
8.1417983726
 30
0.0
 10
13.4666801807
 20
8.165408037
 30
0.0
 10
13.4617175887
 20
8.1902170244
 30
0.0
 10
13.4571146784
 20
8.2161757898
 30
0.0
 10
13.452880816
 20
8.2432323327
 30
0.0
 10
13.4490246231
 20
8.2713324184
 30
0.0
 10
13.4455539495
 20
8.3004196653
 30
0.0
 10
13.4424758569
 20
8.3304356753
 30
0.0
 10
13.4397966107
 20
8.3613201591
 30
0.0
 10
13.4375216663
 20
8.3930110646
 30
0.0
 10
13.4356556586
 20
8.4254447046
 30
0.0
 10
13.4342023942
 20
8.4585558867
 30
0.0
 10
13.4331648431
 20
8.4922780444
 30
0.0
 10
13.4325451272
 20
8.5265433728
 30
0.0
 10
13.4323445242
 20
8.5612829684
 30
0.0
 10
13.4325634643
 20
8.5964269705
 30
0.0
 10
13.4332015302
 20
8.6319047023
 30
0.0
 10
13.4342574578
 20
8.667644813
 30
0.0
 10
13.4357291401
 20
8.7035754207
 30
0.0
 10
13.4376136252
 20
8.7396242582
 30
0.0
 10
13.4399071263
 20
8.7757188201
 30
0.0
 10
13.4426050314
 20
8.8117865092
 30
0.0
 10
13.4457019126
 20
8.8477547832
 30
0.0
 10
13.4491915365
 20
8.8835512997
 30
0.0
 10
13.4530668777
 20
8.9191040621
 30
0.0
 10
13.4573201291
 20
8.9543415665
 30
0.0
 10
13.4619427163
 20
8.9891929471
 30
0.0
 10
13.4669253196
 20
9.0235881192
 30
0.0
 10
13.4722578919
 20
9.0574579193
 30
0.0
 10
13.4779296785
 20
9.0907342447
 30
0.0
 10
13.4839292384
 20
9.1233501915
 30
0.0
 10
13.4902444673
 20
9.1552401926
 30
0.0
 10
13.4968626154
 20
9.1863401544
 30
0.0
 10
13.5037703193
 20
9.2165875861
 30
0.0
 10
13.5109536281
 20
9.2459217269
 30
0.0
 10
13.5183980318
 20
9.2742836696
 30
0.0
 10
13.5260884893
 20
9.3016164851
 30
0.0
 10
13.5340094624
 20
9.3278653421
 30
0.0
 10
13.5421449416
 20
9.3529776389
 30
0.0
 10
13.5504784837
 20
9.3769030894
 30
0.0
 10
13.5589932568
 20
9.3995939383
 30
0.0
 10
13.5676720716
 20
9.4210047094
 30
0.0
 10
13.575125765
 20
9.4379712354
 30
0.0
 10
13.5811682725
 20
9.4508609564
 30
0.0
 10
13.5856676389
 20
9.460048319
 30
0.0
 10
13.590194904
 20
9.4688849303
 30
0.0
 10
13.5947477735
 20
9.4773664008
 30
0.0
 10
13.5993239901
 20
9.4854884865
 30
0.0
 10
13.6039212766
 20
9.493247139
 30
0.0
 10
13.6085373083
 20
9.5006385166
 30
0.0
 10
13.6131698558
 20
9.5076589073
 30
0.0
 10
13.617816527
 20
9.514304855
 30
0.0
 10
13.6224751104
 20
9.5205730489
 30
0.0
 10
13.6271433327
 20
9.5264604522
 30
0.0
 10
13.6318190202
 20
9.5319641996
 30
0.0
 10
13.6364996819
 20
9.5370813034
 30
0.0
 10
13.6396867669
 20
9.5402987836
 30
0.0
 10
13.6412811864
 20
9.5418388746
 30
0.0
  0
SPLINE
  5
3BE
100
AcDbEntity
  8
0
100
AcDbSpline
 62
7
  6
CONTINUOUS
 70
0
 71
3
 72
77
 73
73
 74
0
 42
0.0000001
 43
0.0000001
 44
0.0000000001
 40
0.0
 40
0.0
 40
0.0
 40
0.0
 40
0.0027966513
 40
0.0056682062
 40
0.0116913315
 40
0.0148721623
 40
0.0181792818
 40
0.0216219179
 40
0.0252079687
 40
0.0289442105
 40
0.0328363378
 40
0.0368890969
 40
0.0411064475
 40
0.0454915495
 40
0.0500469435
 40
0.0547745973
 40
0.0596759116
 40
0.0647518849
 40
0.0700030622
 40
0.0810308241
 40
0.0927574673
 40
0.1051760739
 40
0.1182759237
 40
0.1320430385
 40
0.1464606316
 40
0.1615094389
 40
0.1771679639
 40
0.1934127038
 40
0.2102183649
 40
0.2275580233
 40
0.2454032481
 40
0.2637242323
 40
0.2824899344
 40
0.3016681865
 40
0.3212257821
 40
0.3411285772
 40
0.3613416047
 40
0.3818291639
 40
0.4234812149
 40
0.4657884926
 40
0.5084479976
 40
0.5511535037
 40
0.5935983647
 40
0.6354783227
 40
0.6764942912
 40
0.6965873266
 40
0.7163560285
 40
0.7357657446
 40
0.7547827071
 40
0.7733741139
 40
0.7915082239
 40
0.809154472
 40
0.8262836038
 40
0.8428677769
 40
0.8588806876
 40
0.8742977326
 40
0.8890962082
 40
0.9032554846
 40
0.9167572376
 40
0.9295857533
 40
0.9417283263
 40
0.9531756826
 40
0.9586371322
 40
0.9639232226
 40
0.9690340348
 40
0.9739700602
 40
0.9787321474
 40
0.9833216356
 40
0.987740481
 40
0.9919911356
 40
0.9960764917
 40
1.0
 40
1.0
 40
1.0
 40
1.0
 10
13.5607642375
 20
8.1929206825
 30
0.0
 10
13.5597289195
 20
8.1932867291
 30
0.0
 10
13.5576603253
 20
8.1941158553
 30
0.0
 10
13.5535420031
 20
8.1961521002
 30
0.0
 10
13.5495382795
 20
8.1987259318
 30
0.0
 10
13.5456735433
 20
8.2017614638
 30
0.0
 10
13.5427534215
 20
8.2043491677
 30
0.0
 10
13.5398668865
 20
8.2072045528
 30
0.0
 10
13.5370146619
 20
8.2103263829
 30
0.0
 10
13.5341981384
 20
8.2137131321
 30
0.0
 10
13.5314184808
 20
8.2173631884
 30
0.0
 10
13.5286768899
 20
8.2212748084
 30
0.0
 10
13.5259746582
 20
8.2254461976
 30
0.0
 10
13.52331295
 20
8.2298753609
 30
0.0
 10
13.5206930098
 20
8.234560233
 30
0.0
 10
13.5181160799
 20
8.2394986226
 30
0.0
 10
13.5155833118
 20
8.2446881751
 30
0.0
 10
13.5130959216
 20
8.2501264733
 30
0.0
 10
13.5097873853
 20
8.2578319842
 30
0.0
 10
13.5057861739
 20
8.2680784888
 30
0.0
 10
13.5012590972
 20
8.2811293732
 30
0.0
 10
13.4969398372
 20
8.2951042033
 30
0.0
 10
13.4928366771
 20
8.3099764358
 30
0.0
 10
13.4889575032
 20
8.3257180156
 30
0.0
 10
13.4853098101
 20
8.3422990567
 30
0.0
 10
13.4819006656
 20
8.3596880357
 30
0.0
 10
13.4787366707
 20
8.3778518167
 30
0.0
 10
13.4758239437
 20
8.3967557374
 30
0.0
 10
13.4731681283
 20
8.4163636953
 30
0.0
 10
13.4707743799
 20
8.4366382222
 30
0.0
 10
13.4686473375
 20
8.457540549
 30
0.0
 10
13.4667911122
 20
8.4790306848
 30
0.0
 10
13.4652093017
 20
8.5010675064
 30
0.0
 10
13.463904982
 20
8.523608838
 30
0.0
 10
13.4628806841
 20
8.5466115293
 30
0.0
 10
13.4621383954
 20
8.5700315246
 30
0.0
 10
13.4616795344
 20
8.5938240135
 30
0.0
 10
13.4614456936
 20
8.6261600917
 30
0.0
 10
13.4618749869
 20
8.6671735524
 30
0.0
 10
13.4635164913
 20
8.7168681067
 30
0.0
 10
13.4662751232
 20
8.7669275217
 30
0.0
 10
13.4701297613
 20
8.8169686022
 30
0.0
 10
13.4750509158
 20
8.8666086245
 30
0.0
 10
13.4810007381
 20
8.9154676256
 30
0.0
 10
13.4868168683
 20
8.9554906811
 30
0.0
 10
13.4919604451
 20
8.9868292072
 30
0.0
 10
13.4960181989
 20
9.0097467123
 30
0.0
 10
13.5002944611
 20
9.0321944747
 30
0.0
 10
13.5047810402
 20
9.0541295564
 30
0.0
 10
13.5094693006
 20
9.0755099677
 30
0.0
 10
13.5143502352
 20
9.0962947923
 30
0.0
 10
13.519414465
 20
9.1164442636
 30
0.0
 10
13.5246522375
 20
9.1359198553
 30
0.0
 10
13.5300534735
 20
9.1546843464
 30
0.0
 10
13.5356077833
 20
9.1727018886
 30
0.0
 10
13.5413044887
 20
9.1899380905
 30
0.0
 10
13.5471326176
 20
9.2063601012
 30
0.0
 10
13.5530809606
 20
9.2219366759
 30
0.0
 10
13.5591380913
 20
9.2366382069
 30
0.0
 10
13.5652924158
 20
9.2504369115
 30
0.0
 10
13.5715321346
 20
9.2633065542
 30
0.0
 10
13.5768736714
 20
9.2733893497
 30
0.0
 10
13.5811889291
 20
9.280961605
 30
0.0
 10
13.584388457
 20
9.286304233
 30
0.0
 10
13.5876004303
 20
9.2913971042
 30
0.0
 10
13.5908232944
 20
9.2962378306
 30
0.0
 10
13.5940555284
 20
9.300824113
 30
0.0
 10
13.5972956716
 20
9.3051537927
 30
0.0
 10
13.6005422062
 20
9.3092249026
 30
0.0
 10
13.6037937163
 20
9.3130354998
 30
0.0
 10
13.6070484669
 20
9.3165836146
 30
0.0
 10
13.6092634809
 20
9.3188173399
 30
0.0
 10
13.6103715574
 20
9.3198876597
 30
0.0
  0
SPLINE
  5
3BF
100
AcDbEntity
  8
0
100
AcDbSpline
 62
7
  6
CONTINUOUS
 70
0
 71
3
 72
15
 73
11
 74
0
 42
0.0000001
 43
0.0000001
 44
0.0000000001
 40
0.0
 40
0.0
 40
0.0
 40
0.0
 40
0.108441033
 40
0.2203202389
 40
0.3363917414
 40
0.457322038
 40
0.5836915292
 40
0.7159988585
 40
0.8546582553
 40
1.0
 40
1.0
 40
1.0
 40
1.0
 10
13.6401356025
 20
9.3374160914
 30
0.0
 10
13.6388961665
 20
9.3371630911
 30
0.0
 10
13.6364011804
 20
9.3365286892
 30
0.0
 10
13.6326948555
 20
9.3352257857
 30
0.0
 10
13.6289764982
 20
9.3335605916
 30
0.0
 10
13.6252487731
 20
9.3315347811
 30
0.0
 10
13.6215135536
 20
9.3291500683
 30
0.0
 10
13.6177728518
 20
9.3264081974
 30
0.0
 10
13.6140289473
 20
9.3233112756
 30
0.0
 10
13.6115910184
 20
9.3210655687
 30
0.0
 10
13.6103715574
 20
9.3198876597
 30
0.0
  0
SPLINE
  5
3C0
100
AcDbEntity
  8
0
100
AcDbSpline
 62
7
  6
CONTINUOUS
 70
0
 71
3
 72
91
 73
87
 74
0
 42
0.0000001
 43
0.0000001
 44
0.0000000001
 40
0.0
 40
0.0
 40
0.0
 40
0.0
 40
0.002716415
 40
0.0054532022
 40
0.008230253
 40
0.0110665237
 40
0.0139797073
 40
0.0169859914
 40
0.0200999223
 40
0.0233344139
 40
0.0267007313
 40
0.0302086537
 40
0.0338665321
 40
0.0376814587
 40
0.0416594002
 40
0.0458052811
 40
0.0501231771
 40
0.054616323
 40
0.0592872948
 40
0.064138028
 40
0.0691699046
 40
0.0743838441
 40
0.0797802815
 40
0.0853593099
 40
0.0911206192
 40
0.0970636057
 40
0.1031873656
 40
0.1094907055
 40
0.1226298526
 40
0.1364674172
 40
0.1509861262
 40
0.1661659162
 40
0.1819842491
 40
0.198416371
 40
0.2154355294
 40
0.2330131562
 40
0.2511190323
 40
0.2697214386
 40
0.2887872909
 40
0.308282264
 40
0.3281709086
 40
0.3484167625
 40
0.3689824571
 40
0.3898298261
 40
0.410920009
 40
0.432213552
 40
0.4536705077
 40
0.4752505333
 40
0.4969129892
 40
0.5186170389
 40
0.5403217469
 40
0.5619861766
 40
0.5835694872
 40
0.6050310316
 40
0.6263304548
 40
0.6474277948
 40
0.6682835806
 40
0.6888589317
 40
0.7091156588
 40
0.7290163666
 40
0.7485245594
 40
0.7676047532
 40
0.7862225854
 40
0.8043449309
 40
0.8219400259
 40
0.8389776022
 40
0.8554290332
 40
0.8712675032
 40
0.8864681917
 40
0.9010084867
 40
0.9148682422
 40
0.9280300914
 40
0.9343449372
 40
0.9404802907
 40
0.9464349309
 40
0.9522079539
 40
0.9577987124
 40
0.9632068978
 40
0.9684325718
 40
0.9734761454
 40
0.9783384941
 40
0.9830209329
 40
0.987525438
 40
0.9918546142
 40
0.9960115771
 40
1.0
 40
1.0
 40
1.0
 40
1.0
 10
13.1325170082
 20
7.5197706442
 30
0.0
 10
13.1310108414
 20
7.5198750922
 30
0.0
 10
13.1279949264
 20
7.5202211092
 30
0.0
 10
13.1235094334
 20
7.5211469635
 30
0.0
 10
13.1190578603
 20
7.5224796445
 30
0.0
 10
13.1146433402
 20
7.5242177291
 30
0.0
 10
13.11026818
 20
7.5263597508
 30
0.0
 10
13.1059346264
 20
7.5289040219
 30
0.0
 10
13.1016446351
 20
7.5318486806
 30
0.0
 10
13.097400187
 20
7.5351919517
 30
0.0
 10
13.0932030268
 20
7.538931781
 30
0.0
 10
13.0890550447
 20
7.5430662095
 30
0.0
 10
13.0849580014
 20
7.5475930294
 30
0.0
 10
13.0809137206
 20
7.5525099563
 30
0.0
 10
13.0769240744
 20
7.5578145619
 30
0.0
 10
13.0729908287
 20
7.5635041813
 30
0.0
 10
13.069115924
 20
7.5695760644
 30
0.0
 10
13.0653011195
 20
7.5760271776
 30
0.0
 10
13.0615483159
 20
7.5828543722
 30
0.0
 10
13.0578593204
 20
7.5900542666
 30
0.0
 10
13.0542359225
 20
7.5976232942
 30
0.0
 10
13.0506799697
 20
7.6055577198
 30
0.0
 10
13.0471931494
 20
7.6138535795
 30
0.0
 10
13.0437772787
 20
7.6225067658
 30
0.0
 10
13.0404340011
 20
7.6315129499
 30
0.0
 10
13.0371650303
 20
7.6408676408
 30
0.0
 10
13.0339719792
 20
7.6505661761
 30
0.0
 10
13.0297596162
 20
7.664137792
 30
0.0
 10
13.0247103817
 20
7.6819357016
 30
0.0
 10
13.0190593986
 20
7.7042987078
 30
0.0
 10
13.0137472256
 20
7.7279083721
 30
0.0
 10
13.0087846336
 20
7.7527173596
 30
0.0
 10
13.0041817232
 20
7.7786761249
 30
0.0
 10
12.9999478609
 20
7.8057326678
 30
0.0
 10
12.996091668
 20
7.8338327536
 30
0.0
 10
12.9926209944
 20
7.8629200004
 30
0.0
 10
12.9895429018
 20
7.8929360105
 30
0.0
 10
12.9868636556
 20
7.9238204943
 30
0.0
 10
12.9845887111
 20
7.9555113997
 30
0.0
 10
12.9827227035
 20
7.9879450397
 30
0.0
 10
12.9812694391
 20
8.0210562219
 30
0.0
 10
12.9802318879
 20
8.0547783795
 30
0.0
 10
12.979612172
 20
8.0890437079
 30
0.0
 10
12.979411569
 20
8.1237833035
 30
0.0
 10
12.9796305091
 20
8.1589273056
 30
0.0
 10
12.980268575
 20
8.1944050375
 30
0.0
 10
12.9813245027
 20
8.2301451481
 30
0.0
 10
12.982796185
 20
8.2660757558
 30
0.0
 10
12.9846806701
 20
8.3021245933
 30
0.0
 10
12.9869741711
 20
8.3382191552
 30
0.0
 10
12.9896720762
 20
8.3742868444
 30
0.0
 10
12.9927689575
 20
8.4102551183
 30
0.0
 10
12.9962585814
 20
8.4460516348
 30
0.0
 10
13.0001339225
 20
8.4816043972
 30
0.0
 10
13.004387174
 20
8.5168419016
 30
0.0
 10
13.0090097611
 20
8.5516932823
 30
0.0
 10
13.0139923645
 20
8.5860884543
 30
0.0
 10
13.0193249368
 20
8.6199582544
 30
0.0
 10
13.0249967234
 20
8.6532345798
 30
0.0
 10
13.0309962832
 20
8.6858505266
 30
0.0
 10
13.0373115122
 20
8.7177405278
 30
0.0
 10
13.0439296603
 20
8.7488404895
 30
0.0
 10
13.0508373641
 20
8.7790879213
 30
0.0
 10
13.058020673
 20
8.808422062
 30
0.0
 10
13.0654650766
 20
8.8367840048
 30
0.0
 10
13.0731555342
 20
8.8641168202
 30
0.0
 10
13.0810765073
 20
8.8903656773
 30
0.0
 10
13.0892119864
 20
8.9154779741
 30
0.0
 10
13.0975455286
 20
8.9394034245
 30
0.0
 10
13.1060603017
 20
8.9620942734
 30
0.0
 10
13.1147391164
 20
8.9835050445
 30
0.0
 10
13.1221928099
 20
9.0004715706
 30
0.0
 10
13.1282353174
 20
9.0133612915
 30
0.0
 10
13.1327346838
 20
9.0225486542
 30
0.0
 10
13.1372619489
 20
9.0313852654
 30
0.0
 10
13.1418148184
 20
9.039866736
 30
0.0
 10
13.146391035
 20
9.0479888216
 30
0.0
 10
13.1509883215
 20
9.0557474741
 30
0.0
 10
13.1556043532
 20
9.0631388518
 30
0.0
 10
13.1602369007
 20
9.0701592425
 30
0.0
 10
13.1648835718
 20
9.0768051901
 30
0.0
 10
13.1695421553
 20
9.0830733841
 30
0.0
 10
13.1742103776
 20
9.0889607873
 30
0.0
 10
13.1788860651
 20
9.0944645348
 30
0.0
 10
13.1835667268
 20
9.0995816385
 30
0.0
 10
13.1867538118
 20
9.1027991188
 30
0.0
 10
13.1883482312
 20
9.1043392098
 30
0.0
  0
SPLINE
  5
3C1
100
AcDbEntity
  8
0
100
AcDbSpline
 62
7
  6
CONTINUOUS
 70
0
 71
3
 72
77
 73
73
 74
0
 42
0.0000001
 43
0.0000001
 44
0.0000000001
 40
0.0
 40
0.0
 40
0.0
 40
0.0
 40
0.0027966513
 40
0.0056682062
 40
0.0116913315
 40
0.0148721623
 40
0.0181792818
 40
0.0216219179
 40
0.0252079687
 40
0.0289442105
 40
0.0328363378
 40
0.0368890969
 40
0.0411064475
 40
0.0454915495
 40
0.0500469435
 40
0.0547745973
 40
0.0596759116
 40
0.0647518849
 40
0.0700030622
 40
0.0810308241
 40
0.0927574673
 40
0.1051760739
 40
0.1182759237
 40
0.1320430385
 40
0.1464606316
 40
0.1615094389
 40
0.1771679639
 40
0.1934127038
 40
0.2102183649
 40
0.2275580233
 40
0.2454032481
 40
0.2637242323
 40
0.2824899344
 40
0.3016681865
 40
0.3212257821
 40
0.3411285772
 40
0.3613416047
 40
0.3818291639
 40
0.4234812149
 40
0.4657884926
 40
0.5084479976
 40
0.5511535037
 40
0.5935983647
 40
0.6354783227
 40
0.6764942912
 40
0.6965873266
 40
0.7163560285
 40
0.7357657446
 40
0.7547827071
 40
0.7733741139
 40
0.7915082239
 40
0.809154472
 40
0.8262836038
 40
0.8428677769
 40
0.8588806876
 40
0.8742977326
 40
0.8890962082
 40
0.9032554846
 40
0.9167572376
 40
0.9295857533
 40
0.9417283263
 40
0.9531756826
 40
0.9586371322
 40
0.9639232226
 40
0.9690340348
 40
0.9739700602
 40
0.9787321474
 40
0.9833216356
 40
0.987740481
 40
0.9919911356
 40
0.9960764917
 40
1.0
 40
1.0
 40
1.0
 40
1.0
 10
13.1078312824
 20
7.7554210176
 30
0.0
 10
13.1067959644
 20
7.7557870642
 30
0.0
 10
13.1047273702
 20
7.7566161904
 30
0.0
 10
13.100609048
 20
7.7586524354
 30
0.0
 10
13.0966053244
 20
7.7612262669
 30
0.0
 10
13.0927405882
 20
7.764261799
 30
0.0
 10
13.0898204664
 20
7.7668495028
 30
0.0
 10
13.0869339313
 20
7.769704888
 30
0.0
 10
13.0840817068
 20
7.7728267181
 30
0.0
 10
13.0812651832
 20
7.7762134673
 30
0.0
 10
13.0784855257
 20
7.7798635235
 30
0.0
 10
13.0757439347
 20
7.7837751436
 30
0.0
 10
13.0730417031
 20
7.7879465327
 30
0.0
 10
13.0703799949
 20
7.792375696
 30
0.0
 10
13.0677600547
 20
7.7970605682
 30
0.0
 10
13.0651831248
 20
7.8019989577
 30
0.0
 10
13.0626503567
 20
7.8071885103
 30
0.0
 10
13.0601629665
 20
7.8126268084
 30
0.0
 10
13.0568544302
 20
7.8203323193
 30
0.0
 10
13.0528532188
 20
7.8305788239
 30
0.0
 10
13.0483261421
 20
7.8436297083
 30
0.0
 10
13.0440068821
 20
7.8576045385
 30
0.0
 10
13.039903722
 20
7.8724767709
 30
0.0
 10
13.0360245481
 20
7.8882183507
 30
0.0
 10
13.032376855
 20
7.9047993918
 30
0.0
 10
13.0289677104
 20
7.9221883709
 30
0.0
 10
13.0258037156
 20
7.9403521518
 30
0.0
 10
13.0228909885
 20
7.9592560725
 30
0.0
 10
13.0202351732
 20
7.9788640304
 30
0.0
 10
13.0178414247
 20
7.9991385573
 30
0.0
 10
13.0157143823
 20
8.0200408842
 30
0.0
 10
13.0138581571
 20
8.04153102
 30
0.0
 10
13.0122763466
 20
8.0635678415
 30
0.0
 10
13.0109720268
 20
8.0861091732
 30
0.0
 10
13.009947729
 20
8.1091118645
 30
0.0
 10
13.0092054403
 20
8.1325318598
 30
0.0
 10
13.0087465793
 20
8.1563243487
 30
0.0
 10
13.0085127385
 20
8.1886604269
 30
0.0
 10
13.0089420318
 20
8.2296738876
 30
0.0
 10
13.0105835362
 20
8.2793684418
 30
0.0
 10
13.0133421681
 20
8.3294278569
 30
0.0
 10
13.0171968062
 20
8.3794689373
 30
0.0
 10
13.0221179607
 20
8.4291089596
 30
0.0
 10
13.028067783
 20
8.4779679607
 30
0.0
 10
13.0338839132
 20
8.5179910163
 30
0.0
 10
13.0390274899
 20
8.5493295423
 30
0.0
 10
13.0430852438
 20
8.5722470475
 30
0.0
 10
13.047361506
 20
8.5946948098
 30
0.0
 10
13.051848085
 20
8.6166298916
 30
0.0
 10
13.0565363455
 20
8.6380103028
 30
0.0
 10
13.0614172801
 20
8.6587951274
 30
0.0
 10
13.0664815099
 20
8.6789445988
 30
0.0
 10
13.0717192824
 20
8.6984201905
 30
0.0
 10
13.0771205184
 20
8.7171846816
 30
0.0
 10
13.0826748281
 20
8.7352022237
 30
0.0
 10
13.0883715336
 20
8.7524384256
 30
0.0
 10
13.0941996624
 20
8.7688604363
 30
0.0
 10
13.1001480055
 20
8.784437011
 30
0.0
 10
13.1062051361
 20
8.799138542
 30
0.0
 10
13.1123594607
 20
8.8129372466
 30
0.0
 10
13.1185991795
 20
8.8258068894
 30
0.0
 10
13.1239407163
 20
8.8358896849
 30
0.0
 10
13.128255974
 20
8.8434619402
 30
0.0
 10
13.1314555019
 20
8.8488045681
 30
0.0
 10
13.1346674752
 20
8.8538974393
 30
0.0
 10
13.1378903393
 20
8.8587381658
 30
0.0
 10
13.1411225733
 20
8.8633244481
 30
0.0
 10
13.1443627165
 20
8.8676541278
 30
0.0
 10
13.1476092511
 20
8.8717252377
 30
0.0
 10
13.1508607612
 20
8.8755358349
 30
0.0
 10
13.1541155118
 20
8.8790839497
 30
0.0
 10
13.1563305257
 20
8.8813176751
 30
0.0
 10
13.1574386022
 20
8.8823879948
 30
0.0
  0
SPLINE
  5
3C2
100
AcDbEntity
  8
0
100
AcDbSpline
 62
7
  6
CONTINUOUS
 70
0
 71
3
 72
15
 73
11
 74
0
 42
0.0000001
 43
0.0000001
 44
0.0000000001
 40
0.0
 40
0.0
 40
0.0
 40
0.0
 40
0.0853526784
 40
0.1793628571
 40
0.2837485101
 40
0.4002333869
 40
0.530275177
 40
0.6745461468
 40
0.8321587989
 40
1.0
 40
1.0
 40
1.0
 40
1.0
 10
10.9257628606
 20
7.6641369523
 30
0.0
 10
10.9239078856
 20
7.6648070291
 30
0.0
 10
10.9200969166
 20
7.666466737
 30
0.0
 10
10.914430392
 20
7.6697941822
 30
0.0
 10
10.9086151603
 20
7.6741944827
 30
0.0
 10
10.9027329333
 20
7.6798002618
 30
0.0
 10
10.8969104213
 20
7.686726205
 30
0.0
 10
10.8913326433
 20
7.695025612
 30
0.0
 10
10.8862373656
 20
7.7046301438
 30
0.0
 10
10.8833882659
 20
7.7116053383
 30
0.0
 10
10.8820908939
 20
7.7152603093
 30
0.0
  0
SPLINE
  5
3C3
100
AcDbEntity
  8
0
100
AcDbSpline
 62
7
  6
CONTINUOUS
 70
0
 71
3
 72
15
 73
11
 74
0
 42
0.0000001
 43
0.0000001
 44
0.0000000001
 40
0.0
 40
0.0
 40
0.0
 40
0.0
 40
0.108441033
 40
0.2203202389
 40
0.3363917414
 40
0.457322038
 40
0.5836915292
 40
0.7159988585
 40
0.8546582553
 40
1.0
 40
1.0
 40
1.0
 40
1.0
 10
13.1872026474
 20
8.8999164265
 30
0.0
 10
13.1859632114
 20
8.8996634263
 30
0.0
 10
13.1834682252
 20
8.8990290244
 30
0.0
 10
13.1797619004
 20
8.8977261209
 30
0.0
 10
13.1760435431
 20
8.8960609268
 30
0.0
 10
13.172315818
 20
8.8940351162
 30
0.0
 10
13.1685805985
 20
8.8916504035
 30
0.0
 10
13.1648398966
 20
8.8889085325
 30
0.0
 10
13.1610959922
 20
8.8858116108
 30
0.0
 10
13.1586580633
 20
8.8835659039
 30
0.0
 10
13.1574386022
 20
8.8823879948
 30
0.0
  0
SPLINE
  5
3C4
100
AcDbEntity
  8
0
100
AcDbSpline
 62
7
  6
CONTINUOUS
 70
0
 71
3
 72
26
 73
22
 74
0
 42
0.0000001
 43
0.0000001
 44
0.0000000001
 40
0.0
 40
0.0
 40
0.0
 40
0.0
 40
0.0952584845
 40
0.1854914797
 40
0.2707019269
 40
0.3509300463
 40
0.4262503554
 40
0.4967726497
 40
0.5626473626
 40
0.6240667763
 40
0.681272306
 40
0.7345677454
 40
0.7843286696
 40
0.831018018
 40
0.8752016379
 40
0.8965753669
 40
0.9175836583
 40
0.9383250134
 40
0.9589027669
 40
0.9794249661
 40
1.0
 40
1.0
 40
1.0
 40
1.0
 10
11.1563854724
 20
8.186854413
 30
0.0
 10
11.1558363081
 20
8.1843530813
 30
0.0
 10
11.154908165
 20
8.1794498104
 30
0.0
 10
11.1540014048
 20
8.1722242912
 30
0.0
 10
11.15359143
 20
8.1653579352
 30
0.0
 10
11.1536498093
 20
8.1588803338
 30
0.0
 10
11.1541463416
 20
8.1528173038
 30
0.0
 10
11.1550496547
 20
8.1471915098
 30
0.0
 10
11.1563276579
 20
8.1420224941
 30
0.0
 10
11.1579483643
 20
8.137327019
 30
0.0
 10
11.1598802425
 20
8.1331193501
 30
0.0
 10
11.1620925985
 20
8.1294117014
 30
0.0
 10
11.1645563368
 20
8.1262146622
 30
0.0
 10
11.1672428504
 20
8.1235382107
 30
0.0
 10
11.1696733814
 20
8.121728864
 30
0.0
 10
11.1716920398
 20
8.1205666767
 30
0.0
 10
11.1732272254
 20
8.1198390292
 30
0.0
 10
11.1747966718
 20
8.1192467767
 30
0.0
 10
11.176397375
 20
8.1187904143
 30
0.0
 10
11.1780261309
 20
8.1184703709
 30
0.0
 10
11.1791257437
 20
8.1183484433
 30
0.0
 10
11.1796775524
 20
8.1183101709
 30
0.0
  0
SPLINE
  5
3C5
100
AcDbEntity
  8
0
100
AcDbSpline
 62
7
  6
CONTINUOUS
 70
0
 71
3
 72
39
 73
35
 74
0
 42
0.0000001
 43
0.0000001
 44
0.0000000001
 40
0.0
 40
0.0
 40
0.0
 40
0.0
 40
0.0299424706
 40
0.059909318
 40
0.0899243245
 40
0.120010104
 40
0.1501875638
 40
0.1804754172
 40
0.2108897627
 40
0.2414437402
 40
0.2721472662
 40
0.3030068506
 40
0.3340255036
 40
0.3652027233
 40
0.3965345594
 40
0.4280137458
 40
0.459629903
 40
0.4913697971
 40
0.523217645
 40
0.5551554619
 40
0.5871634456
 40
0.6192203877
 40
0.6513041028
 40
0.6833918731
 40
0.7154609003
 40
0.7474887587
 40
0.7794538419
 40
0.8113358007
 40
0.8431159608
 40
0.874777714
 40
0.9063068772
 40
0.9376920832
 40
0.968924649
 40
1.0
 40
1.0
 40
1.0
 40
1.0
 10
8.3255852163
 20
7.6279400831
 30
0.0
 10
8.3337473336
 20
7.6358240725
 30
0.0
 10
8.3507133959
 20
7.6509557554
 30
0.0
 10
8.3778956483
 20
7.6715700028
 30
0.0
 10
8.4066721298
 20
7.6899978041
 30
0.0
 10
8.4368820532
 20
7.7061357844
 30
0.0
 10
8.4683593442
 20
7.7198957417
 30
0.0
 10
8.5009302686
 20
7.7312020625
 30
0.0
 10
8.5344153373
 20
7.7399929022
 30
0.0
 10
8.5686300768
 20
7.7462202595
 30
0.0
 10
8.603386112
 20
7.7498502702
 30
0.0
 10
8.6384921811
 20
7.7508634478
 30
0.0
 10
8.6737552108
 20
7.7492546904
 30
0.0
 10
8.7089813655
 20
7.7450332718
 30
0.0
 10
8.7439770928
 20
7.7382227681
 30
0.0
 10
8.7785501921
 20
7.7288610058
 30
0.0
 10
8.8125108501
 20
7.7169997599
 30
0.0
 10
8.8456726597
 20
7.7027044532
 30
0.0
 10
8.8778536186
 20
7.686053793
 30
0.0
 10
8.9088771575
 20
7.6671394204
 30
0.0
 10
8.9385730657
 20
7.6460653299
 30
0.0
 10
8.9667784042
 20
7.6229472984
 30
0.0
 10
8.9933383797
 20
7.5979122572
 30
0.0
 10
9.0181072498
 20
7.5710976684
 30
0.0
 10
9.0409490614
 20
7.5426507106
 30
0.0
 10
9.0617383815
 20
7.5127274803
 30
0.0
 10
9.0803609728
 20
7.4814921514
 30
0.0
 10
9.0967144965
 20
7.4491161257
 30
0.0
 10
9.1107090012
 20
7.4157770747
 30
0.0
 10
9.1222674039
 20
7.381657902
 30
0.0
 10
9.1313259389
 20
7.3469460435
 30
0.0
 10
9.1378344907
 20
7.3118314669
 30
0.0
 10
9.1417570908
 20
7.2765094808
 30
0.0
 10
9.1426356582
 20
7.2528860945
 30
0.0
 10
9.1426356582
 20
7.2411087245
 30
0.0
  0
SPLINE
  5
3C6
100
AcDbEntity
  8
0
100
AcDbSpline
 62
7
  6
CONTINUOUS
 70
0
 71
3
 72
83
 73
79
 74
0
 42
0.0000001
 43
0.0000001
 44
0.0000000001
 40
0.0
 40
0.0
 40
0.0
 40
0.0
 40
0.0040523069
 40
0.0082800599
 40
0.0126871261
 40
0.0172767319
 40
0.0220515677
 40
0.0270137131
 40
0.0321645083
 40
0.0375047909
 40
0.0430349425
 40
0.0487549062
 40
0.0607618115
 40
0.0735189169
 40
0.0870143566
 40
0.1012323748
 40
0.1161538487
 40
0.131756692
 40
0.1480161906
 40
0.1649052945
 40
0.1823948475
 40
0.2004537836
 40
0.2190492872
 40
0.2381469631
 40
0.2577109898
 40
0.2777042525
 40
0.2980884668
 40
0.3188242938
 40
0.3398714708
 40
0.3611889293
 40
0.3827349064
 40
0.4263417895
 40
0.4703490787
 40
0.5144089205
 40
0.5581729284
 40
0.6012956946
 40
0.6225107538
 40
0.6434391275
 40
0.6640400556
 40
0.6842736297
 40
0.704100911
 40
0.7234840642
 40
0.7423864744
 40
0.7607728729
 40
0.7786094736
 40
0.7958641303
 40
0.8125065146
 40
0.8285082843
 40
0.8438432909
 40
0.858487825
 40
0.8724209283
 40
0.8856247623
 40
0.8980850489
 40
0.9040332984
 40
0.9097922642
 40
0.9153614334
 40
0.9207407263
 40
0.9259304076
 40
0.9309312402
 40
0.9357444958
 40
0.9403719786
 40
0.9448162041
 40
0.9490803591
 40
0.9531684905
 40
0.9570855949
 40
0.9608376911
 40
0.964432062
 40
0.9678772938
 40
0.9711834911
 40
0.9774235074
 40
0.9803901161
 40
0.9832752966
 40
0.9860977836
 40
0.9888777229
 40
0.9916362715
 40
0.9943951316
 40
0.9971759929
 40
1.0
 40
1.0
 40
1.0
 40
1.0
 10
13.6103715574
 20
8.2090728937
 30
0.0
 10
13.6115355715
 20
8.210197245
 30
0.0
 10
13.6138622623
 20
8.2125486796
 30
0.0
 10
13.6172775732
 20
8.2162930847
 30
0.0
 10
13.6206891049
 20
8.220326318
 30
0.0
 10
13.6240948998
 20
8.2246460862
 30
0.0
 10
13.6274933223
 20
8.2292501505
 30
0.0
 10
13.6308826128
 20
8.2341362015
 30
0.0
 10
13.6342611029
 20
8.2393016887
 30
0.0
 10
13.637626984
 20
8.244743934
 30
0.0
 10
13.6409785154
 20
8.250460102
 30
0.0
 10
13.6454990393
 20
8.2585746274
 30
0.0
 10
13.6510892311
 20
8.2693934402
 30
0.0
 10
13.6576085271
 20
8.2832155648
 30
0.0
 10
13.6640293496
 20
8.2980508777
 30
0.0
 10
13.6703381447
 20
8.3138683167
 30
0.0
 10
13.6765215763
 20
8.3306349674
 30
0.0
 10
13.6825665499
 20
8.3483157295
 30
0.0
 10
13.6884602615
 20
8.3668735318
 30
0.0
 10
13.6941902161
 20
8.3862694018
 30
0.0
 10
13.6997442649
 20
8.4064625706
 30
0.0
 10
13.705110627
 20
8.4274105575
 30
0.0
 10
13.710277933
 20
8.4490692585
 30
0.0
 10
13.7152352383
 20
8.4713930497
 30
0.0
 10
13.7199720421
 20
8.4943348944
 30
0.0
 10
13.7244783114
 20
8.5178464448
 30
0.0
 10
13.7287444992
 20
8.5418781394
 30
0.0
 10
13.7327615848
 20
8.5663793098
 30
0.0
 10
13.7365210621
 20
8.5912982783
 30
0.0
 10
13.7400150123
 20
8.6165825337
 30
0.0
 10
13.7443266449
 20
8.6508464958
 30
0.0
 10
13.7489948092
 20
8.6941953272
 30
0.0
 10
13.7534148309
 20
8.7466001316
 30
0.0
 10
13.7566375766
 20
8.7991552413
 30
0.0
 10
13.758635951
 20
8.851417491
 30
0.0
 10
13.7592707851
 20
8.894589793
 30
0.0
 10
13.7591437076
 20
8.9286428848
 30
0.0
 10
13.7587355558
 20
8.9536983559
 30
0.0
 10
13.7580150532
 20
8.9783546511
 30
0.0
 10
13.7569837154
 20
9.0025598166
 30
0.0
 10
13.7556437547
 20
9.0262628031
 30
0.0
 10
13.7539980424
 20
9.0494136461
 30
0.0
 10
13.7520501006
 20
9.0719635541
 30
0.0
 10
13.7498040918
 20
9.0938650125
 30
0.0
 10
13.74726481
 20
9.115071885
 30
0.0
 10
13.7444376742
 20
9.1355395216
 30
0.0
 10
13.7413287316
 20
9.1552248637
 30
0.0
 10
13.7379446244
 20
9.1740865337
 30
0.0
 10
13.7342925798
 20
9.1920849329
 30
0.0
 10
13.730380384
 20
9.2091823097
 30
0.0
 10
13.7262163779
 20
9.2253429703
 30
0.0
 10
13.7218094115
 20
9.2405330185
 30
0.0
 10
13.7178839096
 20
9.2525353921
 30
0.0
 10
13.7146185827
 20
9.2616185756
 30
0.0
 10
13.7121526596
 20
9.2680630596
 30
0.0
 10
13.7096331065
 20
9.274242087
 30
0.0
 10
13.7070612802
 20
9.2801524607
 30
0.0
 10
13.7044384736
 20
9.2857910826
 30
0.0
 10
13.7017660647
 20
9.2911550249
 30
0.0
 10
13.6990454606
 20
9.2962415173
 30
0.0
 10
13.6962779872
 20
9.3010478968
 30
0.0
 10
13.693465124
 20
9.3055717159
 30
0.0
 10
13.690608226
 20
9.3098106171
 30
0.0
 10
13.6877087084
 20
9.3137624166
 30
0.0
 10
13.6847680299
 20
9.3174250954
 30
0.0
 10
13.6817874711
 20
9.3207967121
 30
0.0
 10
13.6787686326
 20
9.3238754597
 30
0.0
 10
13.6757123691
 20
9.3266599196
 30
0.0
 10
13.6716689939
 20
9.32991428
 30
0.0
 10
13.6674715986
 20
9.3326638987
 30
0.0
 10
13.6631462087
 20
9.3348210826
 30
0.0
 10
13.6599263401
 20
9.3361104381
 30
0.0
 10
13.6566787866
 20
9.3370966632
 30
0.0
 10
13.6534054585
 20
9.3377789689
 30
0.0
 10
13.6501086438
 20
9.3381564673
 30
0.0
 10
13.6467906466
 20
9.3382289116
 30
0.0
 10
13.6434541706
 20
9.3379963541
 30
0.0
 10
13.6412406338
 20
9.3376416563
 30
0.0
 10
13.6401356025
 20
9.3374160914
 30
0.0
  0
SPLINE
  5
3C7
100
AcDbEntity
  8
0
100
AcDbSpline
 62
7
  6
CONTINUOUS
 70
0
 71
3
 72
53
 73
49
 74
0
 42
0.0000001
 43
0.0000001
 44
0.0000000001
 40
0.0
 40
0.0
 40
0.0
 40
0.0
 40
0.0094818375
 40
0.01947133
 40
0.029966628
 40
0.0409636841
 40
0.0524566862
 40
0.0644382133
 40
0.0768993801
 40
0.0898300905
 40
0.1032190098
 40
0.1170538058
 40
0.1313211586
 40
0.1460068327
 40
0.1610958253
 40
0.1765723005
 40
0.2086204191
 40
0.2420121841
 40
0.2765987597
 40
0.3122235223
 40
0.3487232704
 40
0.3859293712
 40
0.4236688863
 40
0.4617656655
 40
0.5000414231
 40
0.5383168063
 40
0.5764124639
 40
0.6141501164
 40
0.6513536257
 40
0.6878500711
 40
0.7234708396
 40
0.7580527498
 40
0.7914392088
 40
0.8234814189
 40
0.8389547341
 40
0.8540404207
 40
0.8687226661
 40
0.8829864713
 40
0.8968175926
 40
0.9102027454
 40
0.9231295764
 40
0.935586783
 40
0.9475642725
 40
0.9590531568
 40
0.9700460545
 40
0.9805371386
 40
0.9905224082
 40
1.0
 40
1.0
 40
1.0
 40
1.0
 10
13.5004696192
 20
8.2840202803
 30
0.0
 10
13.5021320329
 20
8.286683453
 30
0.0
 10
13.5054394482
 20
8.2922193396
 30
0.0
 10
13.5102358194
 20
8.3009068191
 30
0.0
 10
13.5149910773
 20
8.3101843279
 30
0.0
 10
13.5196992916
 20
8.3200402669
 30
0.0
 10
13.5243546006
 20
8.3304625374
 30
0.0
 10
13.5289511786
 20
8.3414382291
 30
0.0
 10
13.5334833209
 20
8.3529537276
 30
0.0
 10
13.5379452967
 20
8.3649947403
 30
0.0
 10
13.5423315682
 20
8.37754628
 30
0.0
 10
13.5466366088
 20
8.3905927241
 30
0.0
 10
13.5508550216
 20
8.4041178173
 30
0.0
 10
13.5549815399
 20
8.4181046882
 30
0.0
 10
13.5590109774
 20
8.4325359111
 30
0.0
 10
13.5643090068
 20
8.4525794903
 30
0.0
 10
13.5706371087
 20
8.4786161423
 30
0.0
 10
13.5776818645
 20
8.5109799709
 30
0.0
 10
13.5842276046
 20
8.5446554694
 30
0.0
 10
13.5902413938
 20
8.5794745084
 30
0.0
 10
13.595692946
 20
8.6152634142
 30
0.0
 10
13.600554857
 20
8.6518435235
 30
0.0
 10
13.6048027066
 20
8.6890321926
 30
0.0
 10
13.6084151816
 20
8.7266437008
 30
0.0
 10
13.6113741797
 20
8.7644901962
 30
0.0
 10
13.6136648966
 20
8.8023826402
 30
0.0
 10
13.6152759114
 20
8.8401317612
 30
0.0
 10
13.61619924
 20
8.8775490115
 30
0.0
 10
13.6164303709
 20
8.9144475161
 30
0.0
 10
13.6159682959
 20
8.9506430226
 30
0.0
 10
13.6148155086
 20
8.9859548109
 30
0.0
 10
13.6129780401
 20
9.0202067081
 30
0.0
 10
13.6104653225
 20
9.053227672
 30
0.0
 10
13.6077894835
 20
9.0798835732
 30
0.0
 10
13.6053070963
 20
9.1004622535
 30
0.0
 10
13.6033069377
 20
9.1153080533
 30
0.0
 10
13.6011493202
 20
9.1297270035
 30
0.0
 10
13.5988369734
 20
9.1437011335
 30
0.0
 10
13.5963727664
 20
9.1572130103
 30
0.0
 10
13.593759839
 20
9.1702457957
 30
0.0
 10
13.5910014691
 20
9.1827832577
 30
0.0
 10
13.5881011054
 20
9.1948097954
 30
0.0
 10
13.5850624436
 20
9.2063104671
 30
0.0
 10
13.5818892358
 20
9.2172710026
 30
0.0
 10
13.5785855148
 20
9.2276778249
 30
0.0
 10
13.5751553639
 20
9.2375181408
 30
0.0
 10
13.5716031018
 20
9.246779654
 30
0.0
 10
13.5690908122
 20
9.2527157563
 30
0.0
 10
13.5678115949
 20
9.2555812207
 30
0.0
  0
SPLINE
  5
3C8
100
AcDbEntity
  8
0
100
AcDbSpline
 62
7
  6
CONTINUOUS
 70
0
 71
3
 72
39
 73
35
 74
0
 42
0.0000001
 43
0.0000001
 44
0.0000000001
 40
0.0
 40
0.0
 40
0.0
 40
0.0
 40
0.0234836554
 40
0.0483741402
 40
0.0746109866
 40
0.1021260425
 40
0.130844419
 40
0.160685276
 40
0.1915624976
 40
0.2233852911
 40
0.2560587348
 40
0.2894842882
 40
0.3235602781
 40
0.3581823669
 40
0.393244009
 40
0.4286368993
 40
0.4642514171
 40
0.4999770657
 40
0.5357029104
 40
0.5713180157
 40
0.6067118828
 40
0.6417748867
 40
0.6763987174
 40
0.7104768221
 40
0.7439048546
 40
0.7765811316
 40
0.8084071007
 40
0.8392878266
 40
0.869132501
 40
0.8978549904
 40
0.9253744346
 40
0.9516159226
 40
0.9765112768
 40
1.0
 40
1.0
 40
1.0
 40
1.0
 10
13.478149136
 20
8.3821342852
 30
0.0
 10
13.480483736
 20
8.3878599961
 30
0.0
 10
13.4850782923
 20
8.3997426591
 30
0.0
 10
13.4915883376
 20
8.4182809347
 30
0.0
 10
13.4979006232
 20
8.4380049571
 30
0.0
 10
13.5039939718
 20
8.4588495711
 30
0.0
 10
13.5098480845
 20
8.4807462191
 30
0.0
 10
13.5154434227
 20
8.5036226437
 30
0.0
 10
13.5207613322
 20
8.5274033112
 30
0.0
 10
13.5257840899
 20
8.5520096327
 30
0.0
 10
13.5304949664
 20
8.5773602498
 30
0.0
 10
13.5348782796
 20
8.6033713096
 30
0.0
 10
13.5389194454
 20
8.6299567507
 30
0.0
 10
13.5426050256
 20
8.6570285922
 30
0.0
 10
13.5459227709
 20
8.6844972302
 30
0.0
 10
13.5488616609
 20
8.7122717371
 30
0.0
 10
13.5514119403
 20
8.7402601656
 30
0.0
 10
13.5535651505
 20
8.7683698555
 30
0.0
 10
13.5553141578
 20
8.7965077424
 30
0.0
 10
13.5566531764
 20
8.8245806677
 30
0.0
 10
13.5575777888
 20
8.8524956894
 30
0.0
 10
13.5580849598
 20
8.8801603913
 30
0.0
 10
13.5581730481
 20
8.9074831917
 30
0.0
 10
13.5578418119
 20
8.934373649
 30
0.0
 10
13.5570924117
 20
8.960742764
 30
0.0
 10
13.5559274071
 20
8.9865032793
 30
0.0
 10
13.5543507505
 20
9.0115699725
 30
0.0
 10
13.5523677759
 20
9.0358599459
 30
0.0
 10
13.5499851837
 20
9.0592929069
 30
0.0
 10
13.5472110184
 20
9.081791459
 30
0.0
 10
13.5440546526
 20
9.1032813278
 30
0.0
 10
13.5405267232
 20
9.1236917972
 30
0.0
 10
13.5366392065
 20
9.1429553994
 30
0.0
 10
13.5337297291
 20
9.1553614139
 30
0.0
 10
13.5322082589
 20
9.1613560578
 30
0.0
  0
SPLINE
  5
3C9
100
AcDbEntity
  8
0
100
AcDbSpline
 62
7
  6
CONTINUOUS
 70
0
 71
3
 72
83
 73
79
 74
0
 42
0.0000001
 43
0.0000001
 44
0.0000000001
 40
0.0
 40
0.0
 40
0.0
 40
0.0
 40
0.0039165592
 40
0.0079941979
 40
0.0122363565
 40
0.0166459536
 40
0.021225456
 40
0.0259767935
 40
0.0309012651
 40
0.0359997511
 40
0.0412727228
 40
0.0467202923
 40
0.0523422802
 40
0.05813815
 40
0.0702477787
 40
0.0830405432
 40
0.0965038762
 40
0.1106222528
 40
0.1253775538
 40
0.1407493462
 40
0.1567151289
 40
0.1732505407
 40
0.1903295314
 40
0.2079245108
 40
0.2260064752
 40
0.2445451324
 40
0.2635090221
 40
0.282865621
 40
0.3025814425
 40
0.3226221294
 40
0.3429525474
 40
0.3635368837
 40
0.3843387359
 40
0.4053211994
 40
0.4476776997
 40
0.4903050708
 40
0.5328988711
 40
0.5751549576
 40
0.596062417
 40
0.6167729485
 40
0.637249854
 40
0.6574569801
 40
0.677358806
 40
0.6969205316
 40
0.7161081686
 40
0.7348886361
 40
0.7532298666
 40
0.7711009074
 40
0.7884720245
 40
0.8053148183
 40
0.8216023502
 40
0.8373092937
 40
0.8524120925
 40
0.8668891367
 40
0.880720978
 40
0.8938905896
 40
0.9063836966
 40
0.9181891814
 40
0.9238318507
 40
0.9293001502
 40
0.934593855
 40
0.939713037
 40
0.9446581228
 40
0.9494299699
 40
0.9540298281
 40
0.9584594935
 40
0.9627212867
 40
0.9668181558
 40
0.9707537812
 40
0.9745325932
 40
0.9781599654
 40
0.981642245
 40
0.9849869068
 40
0.9882026824
 40
0.9912996186
 40
0.9942892381
 40
0.9971845335
 40
1.0
 40
1.0
 40
1.0
 40
1.0
 10
13.1574386022
 20
7.5474784238
 30
0.0
 10
13.1589895489
 20
7.5489765234
 30
0.0
 10
13.1620898424
 20
7.5521026338
 30
0.0
 10
13.1666456569
 20
7.5570675449
 30
0.0
 10
13.1711969134
 20
7.5623988844
 30
0.0
 10
13.1757412687
 20
7.568093907
 30
0.0
 10
13.1802767359
 20
7.5741499575
 30
0.0
 10
13.1848011991
 20
7.5805642793
 30
0.0
 10
13.1893126384
 20
7.5873338413
 30
0.0
 10
13.1938088647
 20
7.5944554791
 30
0.0
 10
13.1982877688
 20
7.6019258219
 30
0.0
 10
13.2027472617
 20
7.6097413333
 30
0.0
 10
13.2071852136
 20
7.6178983595
 30
0.0
 10
13.213158452
 20
7.629393094
 30
0.0
 10
13.2205423452
 20
7.6446002671
 30
0.0
 10
13.2291593852
 20
7.6638889129
 30
0.0
 10
13.2376411272
 20
7.684438971
 30
0.0
 10
13.2459713743
 20
7.7062114917
 30
0.0
 10
13.2541342094
 20
7.729165424
 30
0.0
 10
13.2621140207
 20
7.7532572904
 30
0.0
 10
13.2698955419
 20
7.7784414102
 30
0.0
 10
13.2774638789
 20
7.8046699733
 30
0.0
 10
13.2848045458
 20
7.8318931517
 30
0.0
 10
13.2919034893
 20
7.8600591944
 30
0.0
 10
13.2987471274
 20
7.8891145255
 30
0.0
 10
13.3053223739
 20
7.9190038523
 30
0.0
 10
13.3116166545
 20
7.9496702817
 30
0.0
 10
13.3176179343
 20
7.9810554322
 30
0.0
 10
13.3233147375
 20
8.013099545
 30
0.0
 10
13.328696175
 20
8.0457415929
 30
0.0
 10
13.333751973
 20
8.0789194038
 30
0.0
 10
13.3384724655
 20
8.1125697658
 30
0.0
 10
13.3428486746
 20
8.146628625
 30
0.0
 10
13.348229917
 20
8.1926409271
 30
0.0
 10
13.354032108
 20
8.2506983996
 30
0.0
 10
13.3594863217
 20
8.3207317364
 30
0.0
 10
13.3634117206
 20
8.3908120145
 30
0.0
 10
13.3653912733
 20
8.4490100228
 30
0.0
 10
13.366179633
 20
8.4951823545
 30
0.0
 10
13.3663716237
 20
8.5293699616
 30
0.0
 10
13.3661661738
 20
8.563171889
 30
0.0
 10
13.3655636719
 20
8.5965237959
 30
0.0
 10
13.3645653061
 20
8.6293621396
 30
0.0
 10
13.3631730099
 20
8.6616243774
 30
0.0
 10
13.3613894737
 20
8.6932490623
 30
0.0
 10
13.3592181337
 20
8.7241759705
 30
0.0
 10
13.3566631805
 20
8.7543462207
 30
0.0
 10
13.3537295439
 20
8.783702389
 30
0.0
 10
13.3504228784
 20
8.8121886163
 30
0.0
 10
13.3467495555
 20
8.8397507148
 30
0.0
 10
13.3427166477
 20
8.8663362796
 30
0.0
 10
13.3383319276
 20
8.8918948026
 30
0.0
 10
13.3336038493
 20
8.9163777749
 30
0.0
 10
13.3285415199
 20
8.9397387937
 30
0.0
 10
13.3231546822
 20
8.9619336237
 30
0.0
 10
13.3174536811
 20
8.9829204328
 30
0.0
 10
13.3114494421
 20
9.0026594577
 30
0.0
 10
13.3061256262
 20
9.0182648692
 30
0.0
 10
13.3017106585
 20
9.0300849913
 30
0.0
 10
13.298380702
 20
9.0384812912
 30
0.0
 10
13.2949837163
 20
9.0465388458
 30
0.0
 10
13.2915212555
 20
9.0542538674
 30
0.0
 10
13.2879949252
 20
9.0616227065
 30
0.0
 10
13.2844064442
 20
9.068641926
 30
0.0
 10
13.2807574021
 20
9.0753082016
 30
0.0
 10
13.2770495519
 20
9.0816184388
 30
0.0
 10
13.2732845702
 20
9.0875696822
 30
0.0
 10
13.2694641351
 20
9.0931591352
 30
0.0
 10
13.2655900283
 20
9.0983842312
 30
0.0
 10
13.2616638655
 20
9.1032424671
 30
0.0
 10
13.2576874245
 20
9.1077316025
 30
0.0
 10
13.253662361
 20
9.1118494728
 30
0.0
 10
13.2495903406
 20
9.1155940359
 30
0.0
 10
13.2454731015
 20
9.1189634616
 30
0.0
 10
13.2413122845
 20
9.1219558299
 30
0.0
 10
13.2371095975
 20
9.1245695406
 30
0.0
 10
13.2328672129
 20
9.1268027446
 30
0.0
 10
13.2299778478
 20
9.1280522959
 30
0.0
 10
13.2285312706
 20
9.1286092758
 30
0.0
  0
SPLINE
  5
3CA
100
AcDbEntity
  8
0
100
AcDbSpline
 62
7
  6
CONTINUOUS
 70
0
 71
3
 72
15
 73
11
 74
0
 42
0.0000001
 43
0.0000001
 44
0.0000000001
 40
0.0
 40
0.0
 40
0.0
 40
0.0
 40
0.1446698433
 40
0.2829326539
 40
0.415089484
 40
0.5415163818
 40
0.6626622854
 40
0.7790476727
 40
0.8912685909
 40
1.0
 40
1.0
 40
1.0
 40
1.0
 10
13.1574386022
 20
7.5474784238
 30
0.0
 10
13.1557903986
 20
7.5458863812
 30
0.0
 10
13.1524952674
 20
7.5428457339
 30
0.0
 10
13.1474395352
 20
7.5386375225
 30
0.0
 10
13.1423879062
 20
7.5348905247
 30
0.0
 10
13.1373432671
 20
7.5316073324
 30
0.0
 10
13.1323081301
 20
7.5287901486
 30
0.0
 10
13.1272848962
 20
7.5264410358
 30
0.0
 10
13.1222768303
 20
7.5245621475
 30
0.0
 10
13.1189032059
 20
7.5236112763
 30
0.0
 10
13.117226112
 20
7.5232193265
 30
0.0
  0
SPLINE
  5
3CB
100
AcDbEntity
  8
0
100
AcDbSpline
 62
7
  6
CONTINUOUS
 70
0
 71
3
 72
22
 73
18
 74
0
 42
0.0000001
 43
0.0000001
 44
0.0000000001
 40
0.0
 40
0.0
 40
0.0
 40
0.0
 40
0.0781421434
 40
0.1532425494
 40
0.2254210875
 40
0.2948218516
 40
0.3616185707
 40
0.4260103729
 40
0.5484369231
 40
0.6070812291
 40
0.6643923179
 40
0.7207047675
 40
0.7763728299
 40
0.8317644377
 40
0.8872533605
 40
0.9432113641
 40
1.0
 40
1.0
 40
1.0
 40
1.0
 10
13.1574386022
 20
7.7715732288
 30
0.0
 10
13.1564057438
 20
7.7705755641
 30
0.0
 10
13.15434063
 20
7.7686594471
 30
0.0
 10
13.1511809592
 20
7.765978252
 30
0.0
 10
13.1480233516
 20
7.7635495573
 30
0.0
 10
13.1448693494
 20
7.761374802
 30
0.0
 10
13.1417198625
 20
7.7594548323
 30
0.0
 10
13.1375992577
 20
7.7572732298
 30
0.0
 10
13.1334123591
 20
7.7555482332
 30
0.0
 10
13.1291967618
 20
7.7543436859
 30
0.0
 10
13.1260911161
 20
7.7537121848
 30
0.0
 10
13.1229988077
 20
7.7533406606
 30
0.0
 10
13.1199213733
 20
7.7532295517
 30
0.0
 10
13.116860681
 20
7.7533789634
 30
0.0
 10
13.1138184735
 20
7.7537888943
 30
0.0
 10
13.1107968004
 20
7.7544589877
 30
0.0
 10
13.1088151964
 20
7.7550731454
 30
0.0
 10
13.1078312824
 20
7.7554210176
 30
0.0
  0
SPLINE
  5
3CC
100
AcDbEntity
  8
0
100
AcDbSpline
 62
7
  6
CONTINUOUS
 70
0
 71
3
 72
83
 73
79
 74
0
 42
0.0000001
 43
0.0000001
 44
0.0000000001
 40
0.0
 40
0.0
 40
0.0
 40
0.0
 40
0.0040523069
 40
0.0082800599
 40
0.0126871261
 40
0.0172767319
 40
0.0220515677
 40
0.0270137131
 40
0.0321645083
 40
0.0375047909
 40
0.0430349425
 40
0.0487549062
 40
0.0607618115
 40
0.0735189169
 40
0.0870143566
 40
0.1012323748
 40
0.1161538487
 40
0.131756692
 40
0.1480161906
 40
0.1649052945
 40
0.1823948475
 40
0.2004537836
 40
0.2190492872
 40
0.2381469631
 40
0.2577109898
 40
0.2777042525
 40
0.2980884668
 40
0.3188242938
 40
0.3398714708
 40
0.3611889293
 40
0.3827349064
 40
0.4263417895
 40
0.4703490787
 40
0.5144089205
 40
0.5581729284
 40
0.6012956946
 40
0.6225107538
 40
0.6434391275
 40
0.6640400556
 40
0.6842736297
 40
0.704100911
 40
0.7234840642
 40
0.7423864744
 40
0.7607728729
 40
0.7786094736
 40
0.7958641303
 40
0.8125065146
 40
0.8285082843
 40
0.8438432909
 40
0.858487825
 40
0.8724209283
 40
0.8856247623
 40
0.8980850489
 40
0.9040332984
 40
0.9097922642
 40
0.9153614334
 40
0.9207407263
 40
0.9259304076
 40
0.9309312402
 40
0.9357444958
 40
0.9403719786
 40
0.9448162041
 40
0.9490803591
 40
0.9531684905
 40
0.9570855949
 40
0.9608376911
 40
0.964432062
 40
0.9678772938
 40
0.9711834911
 40
0.9774235074
 40
0.9803901161
 40
0.9832752966
 40
0.9860977836
 40
0.9888777229
 40
0.9916362715
 40
0.9943951316
 40
0.9971759929
 40
1.0
 40
1.0
 40
1.0
 40
1.0
 10
13.1574386022
 20
7.7715732288
 30
0.0
 10
13.1586026164
 20
7.7726975802
 30
0.0
 10
13.1609293072
 20
7.7750490147
 30
0.0
 10
13.164344618
 20
7.7787934199
 30
0.0
 10
13.1677561498
 20
7.7828266532
 30
0.0
 10
13.1711619447
 20
7.7871464213
 30
0.0
 10
13.1745603671
 20
7.7917504857
 30
0.0
 10
13.1779496576
 20
7.7966365366
 30
0.0
 10
13.1813281478
 20
7.8018020239
 30
0.0
 10
13.1846940289
 20
7.8072442691
 30
0.0
 10
13.1880455602
 20
7.8129604371
 30
0.0
 10
13.1925660842
 20
7.8210749625
 30
0.0
 10
13.198156276
 20
7.8318937753
 30
0.0
 10
13.2046755719
 20
7.8457159
 30
0.0
 10
13.2110963945
 20
7.8605512128
 30
0.0
 10
13.2174051895
 20
7.8763686518
 30
0.0
 10
13.2235886212
 20
7.8931353026
 30
0.0
 10
13.2296335947
 20
7.9108160646
 30
0.0
 10
13.2355273064
 20
7.9293738669
 30
0.0
 10
13.241257261
 20
7.948769737
 30
0.0
 10
13.2468113098
 20
7.9689629058
 30
0.0
 10
13.2521776719
 20
7.9899108926
 30
0.0
 10
13.2573449778
 20
8.0115695936
 30
0.0
 10
13.2623022832
 20
8.0338933849
 30
0.0
 10
13.267039087
 20
8.0568352295
 30
0.0
 10
13.2715453563
 20
8.0803467799
 30
0.0
 10
13.2758115441
 20
8.1043784745
 30
0.0
 10
13.2798286297
 20
8.1288796449
 30
0.0
 10
13.283588107
 20
8.1537986134
 30
0.0
 10
13.2870820572
 20
8.1790828689
 30
0.0
 10
13.2913936898
 20
8.2133468309
 30
0.0
 10
13.296061854
 20
8.2566956623
 30
0.0
 10
13.3004818757
 20
8.3091004667
 30
0.0
 10
13.3037046215
 20
8.3616555764
 30
0.0
 10
13.3057029958
 20
8.4139178262
 30
0.0
 10
13.30633783
 20
8.4570901281
 30
0.0
 10
13.3062107525
 20
8.4911432199
 30
0.0
 10
13.3058026007
 20
8.516198691
 30
0.0
 10
13.3050820981
 20
8.5408549862
 30
0.0
 10
13.3040507603
 20
8.5650601517
 30
0.0
 10
13.3027107996
 20
8.5887631383
 30
0.0
 10
13.3010650872
 20
8.6119139812
 30
0.0
 10
13.2991171455
 20
8.6344638892
 30
0.0
 10
13.2968711367
 20
8.6563653477
 30
0.0
 10
13.2943318548
 20
8.6775722201
 30
0.0
 10
13.2915047191
 20
8.6980398567
 30
0.0
 10
13.2883957765
 20
8.7177251988
 30
0.0
 10
13.2850116693
 20
8.7365868688
 30
0.0
 10
13.2813596247
 20
8.754585268
 30
0.0
 10
13.2774474288
 20
8.7716826448
 30
0.0
 10
13.2732834228
 20
8.7878433054
 30
0.0
 10
13.2688764563
 20
8.8030333536
 30
0.0
 10
13.2649509545
 20
8.8150357273
 30
0.0
 10
13.2616856276
 20
8.8241189107
 30
0.0
 10
13.2592197044
 20
8.8305633948
 30
0.0
 10
13.2567001514
 20
8.8367424221
 30
0.0
 10
13.254128325
 20
8.8426527958
 30
0.0
 10
13.2515055185
 20
8.8482914177
 30
0.0
 10
13.2488331095
 20
8.8536553601
 30
0.0
 10
13.2461125054
 20
8.8587418524
 30
0.0
 10
13.2433450321
 20
8.863548232
 30
0.0
 10
13.2405321688
 20
8.8680720511
 30
0.0
 10
13.2376752709
 20
8.8723109522
 30
0.0
 10
13.2347757533
 20
8.8762627517
 30
0.0
 10
13.2318350748
 20
8.8799254305
 30
0.0
 10
13.228854516
 20
8.8832970472
 30
0.0
 10
13.2258356775
 20
8.8863757949
 30
0.0
 10
13.222779414
 20
8.8891602547
 30
0.0
 10
13.2187360388
 20
8.8924146151
 30
0.0
 10
13.2145386435
 20
8.8951642338
 30
0.0
 10
13.2102132535
 20
8.8973214177
 30
0.0
 10
13.206993385
 20
8.8986107732
 30
0.0
 10
13.2037458315
 20
8.8995969983
 30
0.0
 10
13.2004725033
 20
8.900279304
 30
0.0
 10
13.1971756886
 20
8.9006568024
 30
0.0
 10
13.1938576915
 20
8.9007292468
 30
0.0
 10
13.1905212154
 20
8.9004966893
 30
0.0
 10
13.1883076787
 20
8.9001419914
 30
0.0
 10
13.1872026474
 20
8.8999164265
 30
0.0
  0
SPLINE
  5
3CD
100
AcDbEntity
  8
0
100
AcDbSpline
 62
7
  6
CONTINUOUS
 70
0
 71
3
 72
53
 73
49
 74
0
 42
0.0000001
 43
0.0000001
 44
0.0000000001
 40
0.0
 40
0.0
 40
0.0
 40
0.0
 40
0.0094818375
 40
0.01947133
 40
0.029966628
 40
0.0409636841
 40
0.0524566862
 40
0.0644382133
 40
0.0768993801
 40
0.0898300905
 40
0.1032190098
 40
0.1170538058
 40
0.1313211586
 40
0.1460068327
 40
0.1610958253
 40
0.1765723005
 40
0.2086204191
 40
0.2420121841
 40
0.2765987597
 40
0.3122235223
 40
0.3487232704
 40
0.3859293712
 40
0.4236688863
 40
0.4617656655
 40
0.5000414231
 40
0.5383168063
 40
0.5764124639
 40
0.6141501164
 40
0.6513536257
 40
0.6878500711
 40
0.7234708396
 40
0.7580527498
 40
0.7914392088
 40
0.8234814189
 40
0.8389547341
 40
0.8540404207
 40
0.8687226661
 40
0.8829864713
 40
0.8968175926
 40
0.9102027454
 40
0.9231295764
 40
0.935586783
 40
0.9475642725
 40
0.9590531568
 40
0.9700460545
 40
0.9805371386
 40
0.9905224082
 40
1.0
 40
1.0
 40
1.0
 40
1.0
 10
13.0475366641
 20
7.8465206154
 30
0.0
 10
13.0491990778
 20
7.8491837881
 30
0.0
 10
13.0525064931
 20
7.8547196747
 30
0.0
 10
13.0573028642
 20
7.8634071543
 30
0.0
 10
13.0620581222
 20
7.8726846631
 30
0.0
 10
13.0667663365
 20
7.8825406021
 30
0.0
 10
13.0714216455
 20
7.8929628725
 30
0.0
 10
13.0760182235
 20
7.9039385643
 30
0.0
 10
13.0805503658
 20
7.9154540627
 30
0.0
 10
13.0850123415
 20
7.9274950754
 30
0.0
 10
13.0893986131
 20
7.9400466151
 30
0.0
 10
13.0937036536
 20
7.9530930592
 30
0.0
 10
13.0979220665
 20
7.9666181524
 30
0.0
 10
13.1020485847
 20
7.9806050234
 30
0.0
 10
13.1060780223
 20
7.9950362463
 30
0.0
 10
13.1113760517
 20
8.0150798255
 30
0.0
 10
13.1177041536
 20
8.0411164775
 30
0.0
 10
13.1247489093
 20
8.0734803061
 30
0.0
 10
13.1312946495
 20
8.1071558046
 30
0.0
 10
13.1373084387
 20
8.1419748435
 30
0.0
 10
13.1427599909
 20
8.1777637493
 30
0.0
 10
13.1476219019
 20
8.2143438586
 30
0.0
 10
13.1518697514
 20
8.2515325277
 30
0.0
 10
13.1554822265
 20
8.289144036
 30
0.0
 10
13.1584412245
 20
8.3269905313
 30
0.0
 10
13.1607319414
 20
8.3648829753
 30
0.0
 10
13.1623429563
 20
8.4026320964
 30
0.0
 10
13.1632662849
 20
8.4400493467
 30
0.0
 10
13.1634974158
 20
8.4769478513
 30
0.0
 10
13.1630353407
 20
8.5131433578
 30
0.0
 10
13.1618825535
 20
8.5484551461
 30
0.0
 10
13.160045085
 20
8.5827070432
 30
0.0
 10
13.1575323673
 20
8.6157280071
 30
0.0
 10
13.1548565284
 20
8.6423839083
 30
0.0
 10
13.1523741411
 20
8.6629625886
 30
0.0
 10
13.1503739825
 20
8.6778083885
 30
0.0
 10
13.1482163651
 20
8.6922273387
 30
0.0
 10
13.1459040183
 20
8.7062014686
 30
0.0
 10
13.1434398112
 20
8.7197133455
 30
0.0
 10
13.1408268839
 20
8.7327461308
 30
0.0
 10
13.1380685139
 20
8.7452835928
 30
0.0
 10
13.1351681503
 20
8.7573101305
 30
0.0
 10
13.1321294885
 20
8.7688108022
 30
0.0
 10
13.1289562807
 20
8.7797713377
 30
0.0
 10
13.1256525597
 20
8.7901781601
 30
0.0
 10
13.1222224088
 20
8.800018476
 30
0.0
 10
13.1186701467
 20
8.8092799892
 30
0.0
 10
13.1161578571
 20
8.8152160914
 30
0.0
 10
13.1148786398
 20
8.8180815559
 30
0.0
  0
SPLINE
  5
3CE
100
AcDbEntity
  8
0
100
AcDbSpline
 62
7
  6
CONTINUOUS
 70
0
 71
3
 72
39
 73
35
 74
0
 42
0.0000001
 43
0.0000001
 44
0.0000000001
 40
0.0
 40
0.0
 40
0.0
 40
0.0
 40
0.0234836554
 40
0.0483741402
 40
0.0746109866
 40
0.1021260425
 40
0.130844419
 40
0.160685276
 40
0.1915624976
 40
0.2233852911
 40
0.2560587348
 40
0.2894842882
 40
0.3235602781
 40
0.3581823669
 40
0.393244009
 40
0.4286368993
 40
0.4642514171
 40
0.4999770657
 40
0.5357029104
 40
0.5713180157
 40
0.6067118828
 40
0.6417748867
 40
0.6763987174
 40
0.7104768221
 40
0.7439048546
 40
0.7765811316
 40
0.8084071007
 40
0.8392878266
 40
0.869132501
 40
0.8978549904
 40
0.9253744346
 40
0.9516159226
 40
0.9765112768
 40
1.0
 40
1.0
 40
1.0
 40
1.0
 10
13.0252161809
 20
7.9446346204
 30
0.0
 10
13.0275507808
 20
7.9503603312
 30
0.0
 10
13.0321453371
 20
7.9622429942
 30
0.0
 10
13.0386553825
 20
7.9807812698
 30
0.0
 10
13.044967668
 20
8.0005052922
 30
0.0
 10
13.0510610166
 20
8.0213499062
 30
0.0
 10
13.0569151293
 20
8.0432465542
 30
0.0
 10
13.0625104676
 20
8.0661229788
 30
0.0
 10
13.0678283771
 20
8.0899036463
 30
0.0
 10
13.0728511348
 20
8.1145099678
 30
0.0
 10
13.0775620113
 20
8.1398605849
 30
0.0
 10
13.0819453244
 20
8.1658716448
 30
0.0
 10
13.0859864903
 20
8.1924570858
 30
0.0
 10
13.0896720705
 20
8.2195289273
 30
0.0
 10
13.0929898157
 20
8.2469975653
 30
0.0
 10
13.0959287058
 20
8.2747720722
 30
0.0
 10
13.0984789852
 20
8.3027605008
 30
0.0
 10
13.1006321954
 20
8.3308701907
 30
0.0
 10
13.1023812026
 20
8.3590080775
 30
0.0
 10
13.1037202213
 20
8.3870810028
 30
0.0
 10
13.1046448336
 20
8.4149960245
 30
0.0
 10
13.1051520047
 20
8.4426607265
 30
0.0
 10
13.1052400929
 20
8.4699835269
 30
0.0
 10
13.1049088568
 20
8.4968739841
 30
0.0
 10
13.1041594566
 20
8.5232430992
 30
0.0
 10
13.102994452
 20
8.5490036145
 30
0.0
 10
13.1014177954
 20
8.5740703076
 30
0.0
 10
13.0994348207
 20
8.5983602811
 30
0.0
 10
13.0970522286
 20
8.621793242
 30
0.0
 10
13.0942780632
 20
8.6442917941
 30
0.0
 10
13.0911216975
 20
8.6657816629
 30
0.0
 10
13.087593768
 20
8.6861921323
 30
0.0
 10
13.0837062514
 20
8.7054557345
 30
0.0
 10
13.0807967739
 20
8.717861749
 30
0.0
 10
13.0792753038
 20
8.7238563929
 30
0.0
  0
SPLINE
  5
3CF
100
AcDbEntity
  8
0
100
AcDbSpline
 62
7
  6
CONTINUOUS
 70
0
 71
3
 72
60
 73
56
 74
0
 42
0.0000001
 43
0.0000001
 44
0.0000000001
 40
0.0
 40
0.0
 40
0.0
 40
0.0
 40
0.0081223406
 40
0.0169168431
 40
0.0264086323
 40
0.0366142687
 40
0.0475414355
 40
0.0591910158
 40
0.0715584107
 40
0.0846344949
 40
0.0984062802
 40
0.1128573064
 40
0.1279683357
 40
0.1437174554
 40
0.1600804353
 40
0.1770310661
 40
0.1945411268
 40
0.2125807894
 40
0.2501207279
 40
0.2893847263
 40
0.3300867172
 40
0.371925751
 40
0.4145894152
 40
0.4577571198
 40
0.5011033266
 40
0.5443007676
 40
0.587023623
 40
0.6289507091
 40
0.6697687274
 40
0.7091755587
 40
0.746883655
 40
0.7650162944
 40
0.7826249702
 40
0.7996794705
 40
0.816151351
 40
0.8320139955
 40
0.8472427493
 40
0.8618153589
 40
0.8757119742
 40
0.8889156572
 40
0.9014127819
 40
0.9131933641
 40
0.9242520195
 40
0.9345885809
 40
0.9442093339
 40
0.9531286836
 40
0.9613709339
 40
0.9689732146
 40
0.9759886454
 40
0.9824900322
 40
0.9885734237
 40
0.9914974427
 40
0.9943641479
 40
0.9971919194
 40
1.0
 40
1.0
 40
1.0
 40
1.0
 10
9.3496231806
 20
10.5053767701
 30
0.0
 10
9.3504759565
 20
10.5062004885
 30
0.0
 10
9.352332522
 20
10.5078338611
 30
0.0
 10
9.3554142588
 20
10.510154568
 30
0.0
 10
9.358894516
 20
10.512436454
 30
0.0
 10
9.3627662434
 20
10.5146751188
 30
0.0
 10
9.3670221677
 20
10.516866541
 30
0.0
 10
9.3716540296
 20
10.5190063495
 30
0.0
 10
9.3766527111
 20
10.5210903573
 30
0.0
 10
9.3820083233
 20
10.5231143843
 30
0.0
 10
9.3877102129
 20
10.5250743098
 30
0.0
 10
9.393746966
 20
10.5269662074
 30
0.0
 10
9.4001064811
 20
10.5287861934
 30
0.0
 10
9.4067759702
 20
10.5305305756
 30
0.0
 10
9.4137420019
 20
10.5321958215
 30
0.0
 10
9.4209905331
 20
10.5337784927
 30
0.0
 10
9.4285069458
 20
10.535275433
 30
0.0
 10
9.4390054449
 20
10.5371781278
 30
0.0
 10
9.4526874588
 20
10.5393095047
 30
0.0
 10
9.4697082374
 20
10.5414498116
 30
0.0
 10
9.4874053719
 20
10.5431877146
 30
0.0
 10
9.505635884
 20
10.5445089355
 30
0.0
 10
9.524252605
 20
10.5454025702
 30
0.0
 10
9.5431051247
 20
10.5458612597
 30
0.0
 10
9.5620411099
 20
10.5458812366
 30
0.0
 10
9.5809075364
 20
10.5454623388
 30
0.0
 10
9.5995519566
 20
10.5446080131
 30
0.0
 10
9.6178237308
 20
10.5433252792
 30
0.0
 10
9.6355753478
 20
10.5416247248
 30
0.0
 10
9.6526633855
 20
10.5395203209
 30
0.0
 10
9.6664095536
 20
10.5374182429
 30
0.0
 10
9.676965473
 20
10.5355382196
 30
0.0
 10
9.6845289904
 20
10.5340572282
 30
0.0
 10
9.6918273441
 20
10.5324899045
 30
0.0
 10
9.6988458194
 20
10.5308394332
 30
0.0
 10
9.7055702613
 20
10.5291091924
 30
0.0
 10
9.7119871211
 20
10.5273026692
 30
0.0
 10
9.7180835006
 20
10.5254235853
 30
0.0
 10
9.7238471609
 20
10.523475731
 30
0.0
 10
9.7292665681
 20
10.5214630579
 30
0.0
 10
9.7343309311
 20
10.5193896673
 30
0.0
 10
9.7390301983
 20
10.5172596698
 30
0.0
 10
9.7433551431
 20
10.515077342
 30
0.0
 10
9.7472973478
 20
10.5128469302
 30
0.0
 10
9.7508492228
 20
10.5105726294
 30
0.0
 10
9.7540040711
 20
10.5082586101
 30
0.0
 10
9.7567559263
 20
10.5059086684
 30
0.0
 10
9.7590995085
 20
10.5035263876
 30
0.0
 10
9.7610299193
 20
10.5011146485
 30
0.0
 10
9.7625418492
 20
10.4986766939
 30
0.0
 10
9.7634602908
 20
10.4965974004
 30
0.0
 10
9.7639676711
 20
10.4949383035
 30
0.0
 10
9.7642363363
 20
10.4937077102
 30
0.0
 10
9.7643976353
 20
10.4924756449
 30
0.0
 10
9.7644335271
 20
10.49165252
 30
0.0
 10
9.7644335296
 20
10.4912426174
 30
0.0
  0
SPLINE
  5
3D0
100
AcDbEntity
  8
0
100
AcDbSpline
 62
7
  6
CONTINUOUS
 70
0
 71
3
 72
9
 73
5
 74
0
 42
0.0000001
 43
0.0000001
 44
0.0000000001
 40
0.0
 40
0.0
 40
0.0
 40
0.0
 40
0.4822175038
 40
1.0
 40
1.0
 40
1.0
 40
1.0
 10
11.1965768279
 20
8.1236549466
 30
0.0
 10
11.1977473282
 20
8.1244522329
 30
0.0
 10
11.2000924664
 20
8.126228073
 30
0.0
 10
11.2022781268
 20
8.1281946729
 30
0.0
 10
11.2033718916
 20
8.1292511687
 30
0.0
  0
SPLINE
  5
3D1
100
AcDbEntity
  8
0
100
AcDbSpline
 62
7
  6
CONTINUOUS
 70
0
 71
3
 72
23
 73
19
 74
0
 42
0.0000001
 43
0.0000001
 44
0.0000000001
 40
0.0
 40
0.0
 40
0.0
 40
0.0
 40
0.0637772827
 40
0.1273447928
 40
0.1907019891
 40
0.2538561422
 40
0.3168131889
 40
0.3795820982
 40
0.4421733894
 40
0.5045993375
 40
0.5668738648
 40
0.6290123797
 40
0.6910316513
 40
0.752949645
 40
0.814785352
 40
0.8765586
 40
0.9382898524
 40
1.0
 40
1.0
 40
1.0
 40
1.0
 10
8.1921645888
 20
7.3070241171
 30
0.0
 10
8.1921645888
 20
7.3146150989
 30
0.0
 10
8.1925279175
 20
7.3297746673
 30
0.0
 10
8.1941678384
 20
7.3524218173
 30
0.0
 10
8.1968982914
 20
7.3748894189
 30
0.0
 10
8.2007127913
 20
7.3971247923
 30
0.0
 10
8.2056027677
 20
7.4190770492
 30
0.0
 10
8.2115569428
 20
7.440695457
 30
0.0
 10
8.2185616542
 20
7.4619302054
 30
0.0
 10
8.2266007839
 20
7.4827323249
 30
0.0
 10
8.2356558359
 20
7.503053843
 30
0.0
 10
8.2457059758
 20
7.5228478866
 30
0.0
 10
8.2567280729
 20
7.5420687838
 30
0.0
 10
8.2686967481
 20
7.5606721998
 30
0.0
 10
8.2815843661
 20
7.5786151854
 30
0.0
 10
8.2953613668
 20
7.5958564879
 30
0.0
 10
8.3099954323
 20
7.6123558006
 30
0.0
 10
8.3203023278
 20
7.6228372113
 30
0.0
 10
8.3255852163
 20
7.6279400831
 30
0.0
  0
SPLINE
  5
3D2
100
AcDbEntity
  8
0
100
AcDbSpline
 62
7
  6
CONTINUOUS
 70
0
 71
3
 72
15
 73
11
 74
0
 42
0.0000001
 43
0.0000001
 44
0.0000000001
 40
0.0
 40
0.0
 40
0.0
 40
0.0
 40
0.1012855584
 40
0.2092172746
 40
0.3238967269
 40
0.4454032381
 40
0.573776881
 40
0.7090215125
 40
0.8511127014
 40
1.0
 40
1.0
 40
1.0
 40
1.0
 10
11.2101643233
 20
8.13677946
 30
0.0
 10
11.2113133808
 20
8.1382165881
 30
0.0
 10
11.2136039302
 20
8.1412520724
 30
0.0
 10
11.2169249403
 20
8.1461114833
 30
0.0
 10
11.2202405358
 20
8.151413053
 30
0.0
 10
11.2235544215
 20
8.1571484744
 30
0.0
 10
11.2268721094
 20
8.1633092697
 30
0.0
 10
11.2302004166
 20
8.1698861063
 30
0.0
 10
11.2335481773
 20
8.1768685586
 30
0.0
 10
11.2357484265
 20
8.1816752786
 30
0.0
 10
11.2368568806
 20
8.1841425
 30
0.0
  0
SPLINE
  5
3D3
100
AcDbEntity
  8
0
100
AcDbSpline
 62
7
  6
CONTINUOUS
 70
0
 71
3
 72
9
 73
5
 74
0
 42
0.0000001
 43
0.0000001
 44
0.0000000001
 40
0.0
 40
0.0
 40
0.0
 40
0.0
 40
0.4826837424
 40
1.0
 40
1.0
 40
1.0
 40
1.0
 10
11.2033718916
 20
8.1292511687
 30
0.0
 10
11.2045458927
 20
8.1303851666
 30
0.0
 10
11.2068892637
 20
8.1328274734
 30
0.0
 10
11.2090718804
 20
8.1354131399
 30
0.0
 10
11.2101643233
 20
8.13677946
 30
0.0
  0
SPLINE
  5
3D4
100
AcDbEntity
  8
0
100
AcDbSpline
 62
7
  6
CONTINUOUS
 70
0
 71
3
 72
15
 73
11
 74
0
 42
0.0000001
 43
0.0000001
 44
0.0000000001
 40
0.0
 40
0.0
 40
0.0
 40
0.0
 40
0.1266118781
 40
0.2527332688
 40
0.3783629033
 40
0.5035242207
 40
0.628236945
 40
0.7525301563
 40
0.8764380233
 40
1.0
 40
1.0
 40
1.0
 40
1.0
 10
8.6006746284
 20
7.451614538
 30
0.0
 10
8.6006746284
 20
7.4560315963
 30
0.0
 10
8.6009247117
 20
7.4648507042
 30
0.0
 10
8.6020538783
 20
7.4780090665
 30
0.0
 10
8.6039330192
 20
7.4910308154
 30
0.0
 10
8.6065558742
 20
7.5038731826
 30
0.0
 10
8.6099141962
 20
7.5164949676
 30
0.0
 10
8.613997215
 20
7.5288554491
 30
0.0
 10
8.6187915263
 20
7.5409141774
 30
0.0
 10
8.6224569844
 20
7.548737556
 30
0.0
 10
8.624402354
 20
7.5525842826
 30
0.0
  0
SPLINE
  5
3D5
100
AcDbEntity
  8
0
100
AcDbSpline
 62
7
  6
CONTINUOUS
 70
0
 71
3
 72
60
 73
56
 74
0
 42
0.0000001
 43
0.0000001
 44
0.0000000001
 40
0.0
 40
0.0
 40
0.0
 40
0.0
 40
0.0081223406
 40
0.0169168431
 40
0.0264086323
 40
0.0366142687
 40
0.0475414355
 40
0.0591910158
 40
0.0715584107
 40
0.0846344949
 40
0.0984062802
 40
0.1128573064
 40
0.1279683357
 40
0.1437174554
 40
0.1600804353
 40
0.1770310661
 40
0.1945411268
 40
0.2125807894
 40
0.2501207279
 40
0.2893847263
 40
0.3300867172
 40
0.371925751
 40
0.4145894152
 40
0.4577571198
 40
0.5011033266
 40
0.5443007676
 40
0.587023623
 40
0.6289507091
 40
0.6697687274
 40
0.7091755587
 40
0.746883655
 40
0.7650162944
 40
0.7826249702
 40
0.7996794705
 40
0.816151351
 40
0.8320139955
 40
0.8472427493
 40
0.8618153589
 40
0.8757119742
 40
0.8889156572
 40
0.9014127819
 40
0.9131933641
 40
0.9242520195
 40
0.9345885809
 40
0.9442093339
 40
0.9531286836
 40
0.9613709339
 40
0.9689732146
 40
0.9759886454
 40
0.9824900322
 40
0.9885734237
 40
0.9914974427
 40
0.9943641479
 40
0.9971919194
 40
1.0
 40
1.0
 40
1.0
 40
1.0
 10
12.2427560965
 20
9.2999287381
 30
0.0
 10
12.2436088725
 20
9.3007524565
 30
0.0
 10
12.2454654379
 20
9.3023858291
 30
0.0
 10
12.2485471747
 20
9.304706536
 30
0.0
 10
12.252027432
 20
9.306988422
 30
0.0
 10
12.2558991594
 20
9.3092270868
 30
0.0
 10
12.2601550837
 20
9.311418509
 30
0.0
 10
12.2647869455
 20
9.3135583175
 30
0.0
 10
12.2697856271
 20
9.3156423253
 30
0.0
 10
12.2751412393
 20
9.3176663522
 30
0.0
 10
12.2808431288
 20
9.3196262778
 30
0.0
 10
12.286879882
 20
9.3215181754
 30
0.0
 10
12.293239397
 20
9.3233381614
 30
0.0
 10
12.2999088861
 20
9.3250825436
 30
0.0
 10
12.3068749179
 20
9.3267477895
 30
0.0
 10
12.3141234491
 20
9.3283304607
 30
0.0
 10
12.3216398617
 20
9.3298274009
 30
0.0
 10
12.3321383609
 20
9.3317300958
 30
0.0
 10
12.3458203747
 20
9.3338614727
 30
0.0
 10
12.3628411533
 20
9.3360017796
 30
0.0
 10
12.3805382879
 20
9.3377396825
 30
0.0
 10
12.3987688
 20
9.3390609035
 30
0.0
 10
12.417385521
 20
9.3399545382
 30
0.0
 10
12.4362380407
 20
9.3404132277
 30
0.0
 10
12.4551740258
 20
9.3404332046
 30
0.0
 10
12.4740404523
 20
9.3400143068
 30
0.0
 10
12.4926848726
 20
9.3391599811
 30
0.0
 10
12.5109566468
 20
9.3378772472
 30
0.0
 10
12.5287082638
 20
9.3361766928
 30
0.0
 10
12.5457963015
 20
9.3340722889
 30
0.0
 10
12.5595424696
 20
9.3319702109
 30
0.0
 10
12.5700983889
 20
9.3300901876
 30
0.0
 10
12.5776619064
 20
9.3286091961
 30
0.0
 10
12.58496026
 20
9.3270418725
 30
0.0
 10
12.5919787353
 20
9.3253914012
 30
0.0
 10
12.5987031772
 20
9.3236611604
 30
0.0
 10
12.6051200371
 20
9.3218546372
 30
0.0
 10
12.6112164166
 20
9.3199755533
 30
0.0
 10
12.6169800769
 20
9.3180276989
 30
0.0
 10
12.6223994841
 20
9.3160150259
 30
0.0
 10
12.627463847
 20
9.3139416352
 30
0.0
 10
12.6321631142
 20
9.3118116378
 30
0.0
 10
12.6364880591
 20
9.30962931
 30
0.0
 10
12.6404302638
 20
9.3073988982
 30
0.0
 10
12.6439821387
 20
9.3051245974
 30
0.0
 10
12.647136987
 20
9.3028105781
 30
0.0
 10
12.6498888423
 20
9.3004606364
 30
0.0
 10
12.6522324245
 20
9.2980783556
 30
0.0
 10
12.6541628353
 20
9.2956666165
 30
0.0
 10
12.6556747651
 20
9.2932286619
 30
0.0
 10
12.6565932067
 20
9.2911493684
 30
0.0
 10
12.657100587
 20
9.2894902715
 30
0.0
 10
12.6573692523
 20
9.2882596782
 30
0.0
 10
12.6575305512
 20
9.2870276128
 30
0.0
 10
12.657566443
 20
9.286204488
 30
0.0
 10
12.6575664455
 20
9.2857945854
 30
0.0
  0
SPLINE
  5
3D6
100
AcDbEntity
  8
0
100
AcDbSpline
 62
7
  6
CONTINUOUS
 70
0
 71
3
 72
17
 73
13
 74
0
 42
0.0000001
 43
0.0000001
 44
0.0000000001
 40
0.0
 40
0.0
 40
0.0
 40
0.0
 40
0.126656299
 40
0.252799928
 40
0.378440867
 40
0.4410855281
 40
0.5036117417
 40
0.6283085394
 40
0.7525770114
 40
0.814569483
 40
0.8764694961
 40
1.0
 40
1.0
 40
1.0
 40
1.0
 10
10.5364664377
 20
7.1444462317
 30
0.0
 10
10.5364664377
 20
7.1356342805
 30
0.0
 10
10.5359507494
 20
7.1180414696
 30
0.0
 10
10.5336218381
 20
7.0918006805
 30
0.0
 10
10.5303892042
 20
7.070150225
 30
0.0
 10
10.52703519
 20
7.0530233711
 30
0.0
 10
10.5231802983
 20
7.0360695597
 30
0.0
 10
10.5174168904
 20
7.0151636367
 30
0.0
 10
10.5104002837
 20
6.9946834025
 30
0.0
 10
10.5040561223
 20
6.9786230396
 30
0.0
 10
10.4972407312
 20
6.9628134477
 30
0.0
 10
10.4915853175
 20
6.9512058884
 30
0.0
 10
10.4875824154
 20
6.943600507
 30
0.0
  0
SPLINE
  5
3D7
100
AcDbEntity
  8
0
100
AcDbSpline
 62
7
  6
CONTINUOUS
 70
0
 71
3
 72
71
 73
67
 74
0
 42
0.0000001
 43
0.0000001
 44
0.0000000001
 40
0.0
 40
0.0
 40
0.0
 40
0.0
 40
0.0085742214
 40
0.0179224732
 40
0.0280750114
 40
0.039049891
 40
0.0508537258
 40
0.0634846799
 40
0.0769341021
 40
0.0911876129
 40
0.1062259615
 40
0.1220257693
 40
0.138560087
 40
0.155798762
 40
0.1737087663
 40
0.1922545648
 40
0.211398354
 40
0.2311002227
 40
0.2513184054
 40
0.2720094948
 40
0.3146282737
 40
0.3585834848
 40
0.403484734
 40
0.4489304537
 40
0.4945127297
 40
0.5398220674
 40
0.5844521475
 40
0.6280045662
 40
0.6492560999
 40
0.6700949201
 40
0.6904756422
 40
0.7103543453
 40
0.7296886983
 40
0.7484381401
 40
0.7665641462
 40
0.7840304031
 40
0.8008030142
 40
0.8168508231
 40
0.832145782
 40
0.84666327
 40
0.8603825802
 40
0.8732876341
 40
0.8853677472
 40
0.8966186564
 40
0.9070440257
 40
0.9166574944
 40
0.9211683078
 40
0.9254872882
 40
0.9296202838
 40
0.9335745256
 40
0.9373586399
 40
0.9409829451
 40
0.9477984723
 40
0.9510243605
 40
0.9541513511
 40
0.9571998183
 40
0.9601919778
 40
0.9631514278
 40
0.9661026354
 40
0.9690702981
 40
0.9720786722
 40
0.9751509507
 40
0.9783087204
 40
0.9849529735
 40
0.9921503506
 40
1.0
 40
1.0
 40
1.0
 40
1.0
 10
12.1634145846
 20
10.0422907181
 30
0.0
 10
12.1646536359
 20
10.0434875499
 30
0.0
 10
12.1673718721
 20
10.0458581273
 30
0.0
 10
12.1719153376
 20
10.0492089721
 30
0.0
 10
12.1770855372
 20
10.0524971868
 30
0.0
 10
12.182870219
 20
10.0557153202
 30
0.0
 10
12.1892565454
 20
10.0588563304
 30
0.0
 10
12.1962296992
 20
10.0619128959
 30
0.0
 10
12.2037734198
 20
10.0648778003
 30
0.0
 10
12.2118699469
 20
10.0677439167
 30
0.0
 10
12.2205000768
 20
10.0705043555
 30
0.0
 10
12.2296432553
 20
10.0731524429
 30
0.0
 10
12.239277651
 20
10.0756817482
 30
0.0
 10
12.2493802028
 20
10.0780861294
 30
0.0
 10
12.2599266819
 20
10.0803597668
 30
0.0
 10
12.2708917749
 20
10.0824971395
 30
0.0
 10
12.282249148
 20
10.0844930479
 30
0.0
 10
12.2939714925
 20
10.0863426512
 30
0.0
 10
12.306030638
 20
10.0880415039
 30
0.0
 10
12.3226839717
 20
10.090120463
 30
0.0
 10
12.3441277578
 20
10.0923023126
 30
0.0
 10
12.3704750419
 20
10.0942403325
 30
0.0
 10
12.3974318345
 20
10.0955039645
 30
0.0
 10
12.4247388895
 20
10.0960808696
 30
0.0
 10
12.4521337612
 20
10.0959653676
 30
0.0
 10
12.4793531348
 20
10.095158589
 30
0.0
 10
12.5061352106
 20
10.0936684371
 30
0.0
 10
12.5280503603
 20
10.091855016
 30
0.0
 10
12.5451644302
 20
10.0900650001
 30
0.0
 10
12.5576273701
 20
10.0885735453
 30
0.0
 10
12.5697923532
 20
10.0869259133
 30
0.0
 10
12.5816301406
 20
10.0851260831
 30
0.0
 10
12.5931122539
 20
10.0831784255
 30
0.0
 10
12.6042110856
 20
10.0810876479
 30
0.0
 10
12.6148999705
 20
10.0788588354
 30
0.0
 10
12.6251532493
 20
10.0764974042
 30
0.0
 10
12.6349463231
 20
10.074009076
 30
0.0
 10
12.6442557325
 20
10.0713998815
 30
0.0
 10
12.6530592311
 20
10.0686761641
 30
0.0
 10
12.6613358333
 20
10.0658445196
 30
0.0
 10
12.6690658725
 20
10.0629117657
 30
0.0
 10
12.6762311091
 20
10.05988495
 30
0.0
 10
12.6828147377
 20
10.0567712933
 30
0.0
 10
12.6888016075
 20
10.0535780232
 30
0.0
 10
12.6941776994
 20
10.0503125142
 30
0.0
 10
12.6982211231
 20
10.0474795338
 30
0.0
 10
12.7011254342
 20
10.0451767606
 30
0.0
 10
12.7030965626
 20
10.0434732022
 30
0.0
 10
12.7049058948
 20
10.0417573339
 30
0.0
 10
12.7065523465
 20
10.0400301797
 30
0.0
 10
12.7080350375
 20
10.0382923703
 30
0.0
 10
12.7097565296
 20
10.0360099686
 30
0.0
 10
12.7111974058
 20
10.0336596987
 30
0.0
 10
12.7123082693
 20
10.031255808
 30
0.0
 10
12.7129582545
 20
10.0294798273
 30
0.0
 10
12.7134392862
 20
10.0276993337
 30
0.0
 10
12.7137509007
 20
10.025915517
 30
0.0
 10
12.7138926602
 20
10.0241297588
 30
0.0
 10
12.7138642827
 20
10.0223435072
 30
0.0
 10
12.7136659042
 20
10.0205582324
 30
0.0
 10
12.7132977657
 20
10.0187753785
 30
0.0
 10
12.7127602803
 20
10.0169962303
 30
0.0
 10
12.7118029417
 20
10.0145903867
 30
0.0
 10
12.7101546282
 20
10.0115825953
 30
0.0
 10
12.7075463396
 20
10.0080777961
 30
0.0
 10
12.7054674236
 20
10.0058735855
 30
0.0
 10
12.7043330794
 20
10.0047778931
 30
0.0
  0
SPLINE
  5
3D8
100
AcDbEntity
  8
0
100
AcDbSpline
 62
7
  6
CONTINUOUS
 70
0
 71
3
 72
39
 73
35
 74
0
 42
0.0000001
 43
0.0000001
 44
0.0000000001
 40
0.0
 40
0.0
 40
0.0
 40
0.0
 40
0.030013002
 40
0.0600118704
 40
0.0900236097
 40
0.1200748779
 40
0.1501912747
 40
0.180396663
 40
0.2107125511
 40
0.2411575554
 40
0.2717469527
 40
0.3024923316
 40
0.3334013598
 40
0.3644776558
 40
0.3957207599
 40
0.4271262125
 40
0.4586857237
 40
0.4903874202
 40
0.5222161643
 40
0.5541539413
 40
0.5861802933
 40
0.6182727931
 40
0.6504075544
 40
0.6825597635
 40
0.7147042248
 40
0.746815912
 40
0.7788705175
 40
0.8108449893
 40
0.8427180527
 40
0.8744706955
 40
0.9060866213
 40
0.9375526998
 40
0.9688589506
 40
1.0
 40
1.0
 40
1.0
 40
1.0
 10
9.7261179627
 20
7.473428493
 30
0.0
 10
9.7331936379
 20
7.4822565947
 30
0.0
 10
9.7480844326
 20
7.4993279228
 30
0.0
 10
9.7724735719
 20
7.5229781032
 30
0.0
 10
9.7987626916
 20
7.5445230309
 30
0.0
 10
9.8267899245
 20
7.5638293947
 30
0.0
 10
9.8563853004
 20
7.5807805934
 30
0.0
 10
9.887368623
 20
7.5952737122
 30
0.0
 10
9.9195514918
 20
7.6072211307
 30
0.0
 10
9.9527382827
 20
7.6165506817
 30
0.0
 10
9.9867273891
 20
7.6232061889
 30
0.0
 10
10.0213124408
 20
7.6271478508
 30
0.0
 10
10.0562836068
 20
7.6283523113
 30
0.0
 10
10.0914288435
 20
7.6268127635
 30
0.0
 10
10.1265351756
 20
7.6225391003
 30
0.0
 10
10.1613899865
 20
7.61555774
 30
0.0
 10
10.19578227
 20
7.605911385
 30
0.0
 10
10.2295038915
 20
7.5936588206
 30
0.0
 10
10.2623508624
 20
7.5788746087
 30
0.0
 10
10.2941245139
 20
7.5616485039
 30
0.0
 10
10.3246326638
 20
7.5420849244
 30
0.0
 10
10.3536908364
 20
7.5203024404
 30
0.0
 10
10.3811233181
 20
7.4964329652
 30
0.0
 10
10.4067641669
 20
7.4706209342
 30
0.0
 10
10.4304582537
 20
7.4430225081
 30
0.0
 10
10.4520622307
 20
7.4138046555
 30
0.0
 10
10.4714452986
 20
7.3831440761
 30
0.0
 10
10.4884899909
 20
7.3512261628
 30
0.0
 10
10.5030930025
 20
7.3182439858
 30
0.0
 10
10.5151657113
 20
7.2843969825
 30
0.0
 10
10.5246346936
 20
7.2498900885
 30
0.0
 10
10.531442171
 20
7.2149314274
 30
0.0
 10
10.5355466697
 20
7.179735338
 30
0.0
 10
10.5364664377
 20
7.1561851948
 30
0.0
 10
10.5364664377
 20
7.1444462317
 30
0.0
  0
SPLINE
  5
3D9
100
AcDbEntity
  8
0
100
AcDbSpline
 62
7
  6
CONTINUOUS
 70
0
 71
3
 72
15
 73
11
 74
0
 42
0.0000001
 43
0.0000001
 44
0.0000000001
 40
0.0
 40
0.0
 40
0.0
 40
0.0
 40
0.1098906522
 40
0.2214015324
 40
0.3360758406
 40
0.455320507
 40
0.5803741139
 40
0.712293262
 40
0.8519441752
 40
1.0
 40
1.0
 40
1.0
 40
1.0
 10
9.3424335545
 20
10.4912423297
 30
0.0
 10
9.3424335508
 20
10.4918391288
 30
0.0
 10
9.342510161
 20
10.493042879
 30
0.0
 10
9.3428538127
 20
10.4948398617
 30
0.0
 10
9.3434251988
 20
10.4966311861
 30
0.0
 10
9.3442227381
 20
10.4984141779
 30
0.0
 10
9.3452447166
 20
10.5001871103
 30
0.0
 10
9.3464894074
 20
10.5019484496
 30
0.0
 10
9.3479549403
 20
10.5036965345
 30
0.0
 10
9.3490448508
 20
10.5048181464
 30
0.0
 10
9.3496231806
 20
10.5053767701
 30
0.0
  0
SPLINE
  5
3DA
100
AcDbEntity
  8
0
100
AcDbSpline
 62
7
  6
CONTINUOUS
 70
0
 71
3
 72
15
 73
11
 74
0
 42
0.0000001
 43
0.0000001
 44
0.0000000001
 40
0.0
 40
0.0
 40
0.0
 40
0.0
 40
0.1098906522
 40
0.2214015324
 40
0.3360758406
 40
0.455320507
 40
0.5803741139
 40
0.712293262
 40
0.8519441752
 40
1.0
 40
1.0
 40
1.0
 40
1.0
 10
12.2355664704
 20
9.2857942977
 30
0.0
 10
12.2355664668
 20
9.2863910968
 30
0.0
 10
12.2356430769
 20
9.2875948469
 30
0.0
 10
12.2359867287
 20
9.2893918296
 30
0.0
 10
12.2365581147
 20
9.2911831541
 30
0.0
 10
12.2373556541
 20
9.2929661459
 30
0.0
 10
12.2383776325
 20
9.2947390783
 30
0.0
 10
12.2396223233
 20
9.2965004176
 30
0.0
 10
12.2410878563
 20
9.2982485025
 30
0.0
 10
12.2421777668
 20
9.2993701144
 30
0.0
 10
12.2427560965
 20
9.2999287381
 30
0.0
  0
SPLINE
  5
3DB
100
AcDbEntity
  8
0
100
AcDbSpline
 62
7
  6
CONTINUOUS
 70
0
 71
3
 72
19
 73
15
 74
0
 42
0.0000001
 43
0.0000001
 44
0.0000000001
 40
0.0
 40
0.0
 40
0.0
 40
0.0
 40
0.1504611406
 40
0.2916985742
 40
0.4244193292
 40
0.4878835935
 40
0.5495802133
 40
0.6682271463
 40
0.7255606136
 40
0.7817999183
 40
0.8371467056
 40
0.8918136429
 40
0.9460222308
 40
1.0
 40
1.0
 40
1.0
 40
1.0
 10
13.6412811864
 20
7.9828344986
 30
0.0
 10
13.6389997281
 20
7.9806307791
 30
0.0
 10
13.634439962
 20
7.976495978
 30
0.0
 10
13.6273795974
 20
7.9709858881
 30
0.0
 10
13.62141602
 20
7.9670888348
 30
0.0
 10
13.6166604378
 20
7.9644498618
 30
0.0
 10
13.6120451584
 20
7.9621842314
 30
0.0
 10
13.6073758354
 20
7.9603322925
 30
0.0
 10
13.6026802482
 20
7.9589386834
 30
0.0
 10
13.5992084593
 20
7.9581353886
 30
0.0
 10
13.5957482238
 20
7.9575628465
 30
0.0
 10
13.5923004621
 20
7.9572213069
 30
0.0
 10
13.5888665645
 20
7.9571109112
 30
0.0
 10
13.5865851799
 20
7.9571915853
 30
0.0
 10
13.5854499634
 20
7.9572703091
 30
0.0
  0
SPLINE
  5
3DC
100
AcDbEntity
  8
0
100
AcDbSpline
 62
7
  6
CONTINUOUS
 70
0
 71
3
 72
23
 73
19
 74
0
 42
0.0000001
 43
0.0000001
 44
0.0000000001
 40
0.0
 40
0.0
 40
0.0
 40
0.0
 40
0.0749628051
 40
0.1455694763
 40
0.2121612381
 40
0.2751647772
 40
0.3350999254
 40
0.3925851505
 40
0.4483313412
 40
0.5031255342
 40
0.5577999583
 40
0.6131929736
 40
0.6701081672
 40
0.729279347
 40
0.7913525608
 40
0.8568785119
 40
0.9263106069
 40
1.0
 40
1.0
 40
1.0
 40
1.0
 10
9.2963652847
 20
9.7340841891
 30
0.0
 10
9.2955567308
 20
9.734836626
 30
0.0
 10
9.294031436
 20
9.7363472598
 30
0.0
 10
9.2919733046
 20
9.7387040288
 30
0.0
 10
9.2902183026
 20
9.7410795074
 30
0.0
 10
9.2887689432
 20
9.7434715502
 30
0.0
 10
9.2876277618
 20
9.7458781196
 30
0.0
 10
9.2867971909
 20
9.7482966869
 30
0.0
 10
9.2862797091
 20
9.7507241911
 30
0.0
 10
9.2860770019
 20
9.7531567523
 30
0.0
 10
9.2861900179
 20
9.7555899645
 30
0.0
 10
9.2866181621
 20
9.7580193374
 30
0.0
 10
9.2873600093
 20
9.7604407806
 30
0.0
 10
9.2884131176
 20
9.7628510319
 30
0.0
 10
9.2897751441
 20
9.7652474232
 30
0.0
 10
9.2914435671
 20
9.7676278893
 30
0.0
 10
9.2934158234
 20
9.7699901165
 30
0.0
 10
9.2948859988
 20
9.7715047094
 30
0.0
 10
9.2956669206
 20
9.7722590221
 30
0.0
  0
SPLINE
  5
3DD
100
AcDbEntity
  8
0
100
AcDbSpline
 62
7
  6
CONTINUOUS
 70
0
 71
3
 72
53
 73
49
 74
0
 42
0.0000001
 43
0.0000001
 44
0.0000000001
 40
0.0
 40
0.0
 40
0.0
 40
0.0
 40
0.0080832531
 40
0.0167337175
 40
0.025964511
 40
0.0357832706
 40
0.0461928334
 40
0.0571922729
 40
0.0687773213
 40
0.0809409436
 40
0.093673692
 40
0.106963939
 40
0.1207982587
 40
0.1351614131
 40
0.1500367865
 40
0.1654062078
 40
0.1975477843
 40
0.2314191708
 40
0.2668364142
 40
0.3036022769
 40
0.3415084079
 40
0.3803373466
 40
0.4198644247
 40
0.4598596079
 40
0.5000893023
 40
0.5403181412
 40
0.5803107646
 40
0.6198335979
 40
0.6586566392
 40
0.6965552658
 40
0.7333120763
 40
0.768718793
 40
0.8025782664
 40
0.8347066487
 40
0.8500690317
 40
0.864937094
 40
0.8792926862
 40
0.8931192098
 40
0.9064014546
 40
0.9191260181
 40
0.9312813045
 40
0.9428578849
 40
0.9538487817
 40
0.9642497955
 40
0.9740599875
 40
0.9832821528
 40
0.991924326
 40
1.0
 40
1.0
 40
1.0
 40
1.0
 10
9.7674790993
 20
9.7031777661
 30
0.0
 10
9.7666169069
 20
9.7038901723
 30
0.0
 10
9.7647798607
 20
9.7053025479
 30
0.0
 10
9.761805967
 20
9.7073210998
 30
0.0
 10
9.7585263865
 20
9.7093074936
 30
0.0
 10
9.754946188
 20
9.7112585998
 30
0.0
 10
9.7510707499
 20
9.7131715826
 30
0.0
 10
9.7469059839
 20
9.7150434649
 30
0.0
 10
9.7424582835
 20
9.7168713729
 30
0.0
 10
9.7377345112
 20
9.7186524538
 30
0.0
 10
9.7327419814
 20
9.7203839059
 30
0.0
 10
9.7274884544
 20
9.7220630366
 30
0.0
 10
9.7219821044
 20
9.7236871666
 30
0.0
 10
9.7162315263
 20
9.7252537806
 30
0.0
 10
9.7102456867
 20
9.7267603803
 30
0.0
 10
9.7018374802
 20
9.7287152097
 30
0.0
 10
9.6908051963
 20
9.7309812356
 30
0.0
 10
9.6769768478
 20
9.7333878048
 30
0.0
 10
9.6624544926
 20
9.7355052177
 30
0.0
 10
9.6473290141
 20
9.737320018
 30
0.0
 10
9.6316949683
 20
9.7388206286
 30
0.0
 10
9.6156502181
 20
9.7399975018
 30
0.0
 10
9.5992952272
 20
9.7408431513
 30
0.0
 10
9.5827324367
 20
9.741352202
 30
0.0
 10
9.5660656057
 20
9.7415214194
 30
0.0
 10
9.5493991542
 20
9.7413497284
 30
0.0
 10
9.5328374995
 20
9.7408382198
 30
0.0
 10
9.5164843938
 20
9.7399901437
 30
0.0
 10
9.5004422659
 20
9.7388108907
 30
0.0
 10
9.4848115631
 20
9.7373079623
 30
0.0
 10
9.4696901269
 20
9.7354909209
 30
0.0
 10
9.4551724874
 20
9.733371358
 30
0.0
 10
9.4413494977
 20
9.7309627438
 30
0.0
 10
9.4303220936
 20
9.7286950548
 30
0.0
 10
9.4219180971
 20
9.7267389456
 30
0.0
 10
9.4159356073
 20
9.725231457
 30
0.0
 10
9.410188512
 20
9.7236639903
 30
0.0
 10
9.4046857726
 20
9.7220390428
 30
0.0
 10
9.3994359775
 20
9.7203591341
 30
0.0
 10
9.3944472954
 20
9.7186269405
 30
0.0
 10
9.389727481
 20
9.7168451601
 30
0.0
 10
9.3852838416
 20
9.7150165939
 30
0.0
 10
9.3811232281
 20
9.7131440956
 30
0.0
 10
9.3772520349
 20
9.7112305297
 30
0.0
 10
9.3736761782
 20
9.709278896
 30
0.0
 10
9.3704010005
 20
9.707292034
 30
0.0
 10
9.3674315257
 20
9.7052729995
 30
0.0
 10
9.3655975308
 20
9.70386025
 30
0.0
 10
9.3647368553
 20
9.7031476552
 30
0.0
  0
SPLINE
  5
3DE
100
AcDbEntity
  8
0
100
AcDbSpline
 62
7
  6
CONTINUOUS
 70
0
 71
3
 72
23
 73
19
 74
0
 42
0.0000001
 43
0.0000001
 44
0.0000000001
 40
0.0
 40
0.0
 40
0.0
 40
0.0
 40
0.0749628051
 40
0.1455694763
 40
0.2121612381
 40
0.2751647772
 40
0.3350999254
 40
0.3925851505
 40
0.4483313412
 40
0.5031255342
 40
0.5577999583
 40
0.6131929736
 40
0.6701081672
 40
0.729279347
 40
0.7913525608
 40
0.8568785119
 40
0.9263106069
 40
1.0
 40
1.0
 40
1.0
 40
1.0
 10
12.1641129486
 20
10.0041158851
 30
0.0
 10
12.1633043947
 20
10.004868322
 30
0.0
 10
12.1617791
 20
10.0063789559
 30
0.0
 10
12.1597209685
 20
10.0087357248
 30
0.0
 10
12.1579659666
 20
10.0111112034
 30
0.0
 10
12.1565166071
 20
10.0135032463
 30
0.0
 10
12.1553754258
 20
10.0159098156
 30
0.0
 10
12.1545448549
 20
10.0183283829
 30
0.0
 10
12.1540273731
 20
10.0207558871
 30
0.0
 10
12.1538246658
 20
10.0231884483
 30
0.0
 10
12.1539376819
 20
10.0256216605
 30
0.0
 10
12.1543658261
 20
10.0280510334
 30
0.0
 10
12.1551076732
 20
10.0304724766
 30
0.0
 10
12.1561607816
 20
10.0328827279
 30
0.0
 10
12.157522808
 20
10.0352791192
 30
0.0
 10
12.1591912311
 20
10.0376595853
 30
0.0
 10
12.1611634873
 20
10.0400218125
 30
0.0
 10
12.1626336627
 20
10.0415364054
 30
0.0
 10
12.1634145846
 20
10.0422907181
 30
0.0
  0
SPLINE
  5
3DF
100
AcDbEntity
  8
0
100
AcDbSpline
 62
7
  6
CONTINUOUS
 70
0
 71
3
 72
71
 73
67
 74
0
 42
0.0000001
 43
0.0000001
 44
0.0000000001
 40
0.0
 40
0.0
 40
0.0
 40
0.0
 40
0.0085742214
 40
0.0179224732
 40
0.0280750114
 40
0.039049891
 40
0.0508537258
 40
0.0634846799
 40
0.0769341021
 40
0.0911876129
 40
0.1062259615
 40
0.1220257693
 40
0.138560087
 40
0.155798762
 40
0.1737087663
 40
0.1922545648
 40
0.211398354
 40
0.2311002227
 40
0.2513184054
 40
0.2720094948
 40
0.3146282737
 40
0.3585834848
 40
0.403484734
 40
0.4489304537
 40
0.4945127297
 40
0.5398220674
 40
0.5844521475
 40
0.6280045662
 40
0.6492560999
 40
0.6700949201
 40
0.6904756422
 40
0.7103543453
 40
0.7296886983
 40
0.7484381401
 40
0.7665641462
 40
0.7840304031
 40
0.8008030142
 40
0.8168508231
 40
0.832145782
 40
0.84666327
 40
0.8603825802
 40
0.8732876341
 40
0.8853677472
 40
0.8966186564
 40
0.9070440257
 40
0.9166574944
 40
0.9211683078
 40
0.9254872882
 40
0.9296202838
 40
0.9335745256
 40
0.9373586399
 40
0.9409829451
 40
0.9477984723
 40
0.9510243605
 40
0.9541513511
 40
0.9571998183
 40
0.9601919778
 40
0.9631514278
 40
0.9661026354
 40
0.9690702981
 40
0.9720786722
 40
0.9751509507
 40
0.9783087204
 40
0.9849529735
 40
0.9921503506
 40
1.0
 40
1.0
 40
1.0
 40
1.0
 10
9.2956669206
 20
9.7722590221
 30
0.0
 10
9.296905972
 20
9.7734558538
 30
0.0
 10
9.2996242081
 20
9.7758264313
 30
0.0
 10
9.3041676736
 20
9.7791772761
 30
0.0
 10
9.3093378733
 20
9.7824654908
 30
0.0
 10
9.315122555
 20
9.7856836242
 30
0.0
 10
9.3215088814
 20
9.7888246344
 30
0.0
 10
9.3284820352
 20
9.7918811999
 30
0.0
 10
9.3360257558
 20
9.7948461043
 30
0.0
 10
9.344122283
 20
9.7977122207
 30
0.0
 10
9.3527524129
 20
9.8004726595
 30
0.0
 10
9.3618955913
 20
9.8031207469
 30
0.0
 10
9.3715299871
 20
9.8056500522
 30
0.0
 10
9.3816325388
 20
9.8080544334
 30
0.0
 10
9.3921790179
 20
9.8103280708
 30
0.0
 10
9.4031441109
 20
9.8124654435
 30
0.0
 10
9.414501484
 20
9.8144613519
 30
0.0
 10
9.4262238285
 20
9.8163109551
 30
0.0
 10
9.438282974
 20
9.8180098079
 30
0.0
 10
9.4549363078
 20
9.820088767
 30
0.0
 10
9.4763800938
 20
9.8222706166
 30
0.0
 10
9.5027273779
 20
9.8242086365
 30
0.0
 10
9.5296841706
 20
9.8254722684
 30
0.0
 10
9.5569912256
 20
9.8260491736
 30
0.0
 10
9.5843860973
 20
9.8259336715
 30
0.0
 10
9.6116054709
 20
9.825126893
 30
0.0
 10
9.6383875467
 20
9.8236367411
 30
0.0
 10
9.6603026963
 20
9.82182332
 30
0.0
 10
9.6774167662
 20
9.8200333041
 30
0.0
 10
9.6898797061
 20
9.8185418493
 30
0.0
 10
9.7020446892
 20
9.8168942173
 30
0.0
 10
9.7138824767
 20
9.8150943871
 30
0.0
 10
9.72536459
 20
9.8131467295
 30
0.0
 10
9.7364634216
 20
9.8110559519
 30
0.0
 10
9.7471523066
 20
9.8088271394
 30
0.0
 10
9.7574055854
 20
9.8064657082
 30
0.0
 10
9.7671986592
 20
9.80397738
 30
0.0
 10
9.7765080686
 20
9.8013681855
 30
0.0
 10
9.7853115672
 20
9.7986444681
 30
0.0
 10
9.7935881694
 20
9.7958128236
 30
0.0
 10
9.8013182085
 20
9.7928800696
 30
0.0
 10
9.8084834452
 20
9.789853254
 30
0.0
 10
9.8150670738
 20
9.7867395973
 30
0.0
 10
9.8210539436
 20
9.7835463272
 30
0.0
 10
9.8264300354
 20
9.7802808182
 30
0.0
 10
9.8304734592
 20
9.7774478378
 30
0.0
 10
9.8333777703
 20
9.7751450646
 30
0.0
 10
9.8353488987
 20
9.7734415062
 30
0.0
 10
9.8371582308
 20
9.7717256379
 30
0.0
 10
9.8388046825
 20
9.7699984837
 30
0.0
 10
9.8402873736
 20
9.7682606743
 30
0.0
 10
9.8420088656
 20
9.7659782726
 30
0.0
 10
9.8434497419
 20
9.7636280027
 30
0.0
 10
9.8445606053
 20
9.761224112
 30
0.0
 10
9.8452105906
 20
9.7594481313
 30
0.0
 10
9.8456916222
 20
9.7576676376
 30
0.0
 10
9.8460032367
 20
9.755883821
 30
0.0
 10
9.8461449962
 20
9.7540980628
 30
0.0
 10
9.8461166187
 20
9.7523118112
 30
0.0
 10
9.8459182403
 20
9.7505265364
 30
0.0
 10
9.8455501018
 20
9.7487436825
 30
0.0
 10
9.8450126164
 20
9.7469645343
 30
0.0
 10
9.8440552778
 20
9.7445586907
 30
0.0
 10
9.8424069642
 20
9.7415508993
 30
0.0
 10
9.8397986756
 20
9.7380461001
 30
0.0
 10
9.8377197597
 20
9.7358418895
 30
0.0
 10
9.8365854154
 20
9.734746197
 30
0.0
  0
SPLINE
  5
3E0
100
AcDbEntity
  8
0
100
AcDbSpline
 62
7
  6
CONTINUOUS
 70
0
 71
3
 72
53
 73
49
 74
0
 42
0.0000001
 43
0.0000001
 44
0.0000000001
 40
0.0
 40
0.0
 40
0.0
 40
0.0
 40
0.0080832531
 40
0.0167337175
 40
0.025964511
 40
0.0357832706
 40
0.0461928334
 40
0.0571922729
 40
0.0687773213
 40
0.0809409436
 40
0.093673692
 40
0.106963939
 40
0.1207982587
 40
0.1351614131
 40
0.1500367865
 40
0.1654062078
 40
0.1975477843
 40
0.2314191708
 40
0.2668364142
 40
0.3036022769
 40
0.3415084079
 40
0.3803373466
 40
0.4198644247
 40
0.4598596079
 40
0.5000893023
 40
0.5403181412
 40
0.5803107646
 40
0.6198335979
 40
0.6586566392
 40
0.6965552658
 40
0.7333120763
 40
0.768718793
 40
0.8025782664
 40
0.8347066487
 40
0.8500690317
 40
0.864937094
 40
0.8792926862
 40
0.8931192098
 40
0.9064014546
 40
0.9191260181
 40
0.9312813045
 40
0.9428578849
 40
0.9538487817
 40
0.9642497955
 40
0.9740599875
 40
0.9832821528
 40
0.991924326
 40
1.0
 40
1.0
 40
1.0
 40
1.0
 10
12.6352267632
 20
9.9732094621
 30
0.0
 10
12.6343645709
 20
9.9739218683
 30
0.0
 10
12.6325275246
 20
9.9753342439
 30
0.0
 10
12.6295536309
 20
9.9773527958
 30
0.0
 10
12.6262740504
 20
9.9793391896
 30
0.0
 10
12.622693852
 20
9.9812902958
 30
0.0
 10
12.6188184138
 20
9.9832032786
 30
0.0
 10
12.6146536478
 20
9.9850751609
 30
0.0
 10
12.6102059474
 20
9.9869030689
 30
0.0
 10
12.6054821751
 20
9.9886841499
 30
0.0
 10
12.6004896453
 20
9.9904156019
 30
0.0
 10
12.5952361183
 20
9.9920947326
 30
0.0
 10
12.5897297683
 20
9.9937188626
 30
0.0
 10
12.5839791902
 20
9.9952854766
 30
0.0
 10
12.5779933506
 20
9.9967920763
 30
0.0
 10
12.5695851442
 20
9.9987469057
 30
0.0
 10
12.5585528603
 20
10.0010129316
 30
0.0
 10
12.5447245117
 20
10.0034195008
 30
0.0
 10
12.5302021565
 20
10.0055369137
 30
0.0
 10
12.5150766781
 20
10.0073517141
 30
0.0
 10
12.4994426323
 20
10.0088523246
 30
0.0
 10
12.483397882
 20
10.0100291978
 30
0.0
 10
12.4670428912
 20
10.0108748473
 30
0.0
 10
12.4504801006
 20
10.0113838981
 30
0.0
 10
12.4338132697
 20
10.0115531154
 30
0.0
 10
12.4171468181
 20
10.0113814244
 30
0.0
 10
12.4005851635
 20
10.0108699158
 30
0.0
 10
12.3842320577
 20
10.0100218397
 30
0.0
 10
12.3681899299
 20
10.0088425867
 30
0.0
 10
12.352559227
 20
10.0073396583
 30
0.0
 10
12.3374377909
 20
10.0055226169
 30
0.0
 10
12.3229201513
 20
10.003403054
 30
0.0
 10
12.3090971617
 20
10.0009944398
 30
0.0
 10
12.2980697575
 20
9.9987267508
 30
0.0
 10
12.289665761
 20
9.9967706417
 30
0.0
 10
12.2836832712
 20
9.995263153
 30
0.0
 10
12.277936176
 20
9.9936956863
 30
0.0
 10
12.2724334365
 20
9.9920707388
 30
0.0
 10
12.2671836414
 20
9.9903908301
 30
0.0
 10
12.2621949593
 20
9.9886586366
 30
0.0
 10
12.2574751449
 20
9.9868768561
 30
0.0
 10
12.2530315055
 20
9.9850482899
 30
0.0
 10
12.248870892
 20
9.9831757916
 30
0.0
 10
12.2449996988
 20
9.9812622257
 30
0.0
 10
12.2414238421
 20
9.979310592
 30
0.0
 10
12.2381486645
 20
9.97732373
 30
0.0
 10
12.2351791896
 20
9.9753046955
 30
0.0
 10
12.2333451947
 20
9.973891946
 30
0.0
 10
12.2324845192
 20
9.9731793512
 30
0.0
  0
SPLINE
  5
3E1
100
AcDbEntity
  8
0
100
AcDbSpline
 62
7
  6
CONTINUOUS
 70
0
 71
3
 72
19
 73
15
 74
0
 42
0.0000001
 43
0.0000001
 44
0.0000000001
 40
0.0
 40
0.0
 40
0.0
 40
0.0
 40
0.1504611406
 40
0.2916985742
 40
0.4244193292
 40
0.4878835935
 40
0.5495802133
 40
0.6682271463
 40
0.7255606136
 40
0.7817999183
 40
0.8371467056
 40
0.8918136429
 40
0.9460222308
 40
1.0
 40
1.0
 40
1.0
 40
1.0
 10
13.1883482312
 20
7.5453348338
 30
0.0
 10
13.186066773
 20
7.5431311142
 30
0.0
 10
13.1815070069
 20
7.5389963131
 30
0.0
 10
13.1744466422
 20
7.5334862233
 30
0.0
 10
13.1684830649
 20
7.5295891699
 30
0.0
 10
13.1637274827
 20
7.526950197
 30
0.0
 10
13.1591122033
 20
7.5246845665
 30
0.0
 10
13.1544428803
 20
7.5228326276
 30
0.0
 10
13.1497472931
 20
7.5214390186
 30
0.0
 10
13.1462755041
 20
7.5206357238
 30
0.0
 10
13.1428152687
 20
7.5200631817
 30
0.0
 10
13.139367507
 20
7.5197216421
 30
0.0
 10
13.1359336094
 20
7.5196112463
 30
0.0
 10
13.1336522248
 20
7.5196919204
 30
0.0
 10
13.1325170082
 20
7.5197706442
 30
0.0
  0
SPLINE
  5
3E2
100
AcDbEntity
  8
0
100
AcDbSpline
 62
7
  6
CONTINUOUS
 70
0
 71
3
 72
69
 73
65
 74
0
 42
0.0000001
 43
0.0000001
 44
0.0000000001
 40
0.0
 40
0.0
 40
0.0
 40
0.0
 40
0.0155844514
 40
0.0311164958
 40
0.046596033
 40
0.0620249362
 40
0.0774047641
 40
0.0927378569
 40
0.1080269576
 40
0.123275266
 40
0.1384864062
 40
0.153664385
 40
0.1688135563
 40
0.1839385764
 40
0.1990443578
 40
0.2141360176
 40
0.2292188235
 40
0.2442981374
 40
0.2593793583
 40
0.2744678645
 40
0.289568957
 40
0.3046878029
 40
0.3198293806
 40
0.3349984272
 40
0.3501993899
 40
0.3654363818
 40
0.3807131419
 40
0.3960329989
 40
0.4113988402
 40
0.4268130857
 40
0.4422776684
 40
0.4577940208
 40
0.4733630656
 40
0.4889852114
 40
0.5046603533
 40
0.5203878786
 40
0.5361666795
 40
0.5519951681
 40
0.5678712954
 40
0.5837925735
 40
0.5997561014
 40
0.6157585964
 40
0.6317964263
 40
0.647865644
 40
0.6639620234
 40
0.6800810983
 40
0.7123600122
 40
0.7446719581
 40
0.7608320198
 40
0.7769852785
 40
0.7931267708
 40
0.8092516359
 40
0.8253551583
 40
0.8414328088
 40
0.8574802861
 40
0.8734935573
 40
0.8894688931
 40
0.9054029073
 40
0.9212925817
 40
0.9371352945
 40
0.9529289268
 40
0.968671524
 40
0.9843624254
 40
1.0
 40
1.0
 40
1.0
 40
1.0
 10
11.6530768917
 20
7.7306001507
 30
0.0
 10
11.6530768917
 20
7.7232326333
 30
0.0
 10
11.6527163242
 20
7.7085197619
 30
0.0
 10
11.6510887815
 20
7.6865431678
 30
0.0
 10
11.6483790924
 20
7.6647470752
 30
0.0
 10
11.6445939802
 20
7.6431849159
 30
0.0
 10
11.6397423399
 20
7.6219082954
 30
0.0
 10
11.6338358714
 20
7.6009686284
 30
0.0
 10
11.6268887419
 20
7.5804163665
 30
0.0
 10
11.6189176678
 20
7.5603010705
 30
0.0
 10
11.6099418257
 20
7.5406712483
 30
0.0
 10
11.5999828127
 20
7.5215742472
 30
0.0
 10
11.5890645968
 20
7.5030561407
 30
0.0
 10
11.5772134733
 20
7.4851616079
 30
0.0
 10
11.5644580162
 20
7.4679338108
 30
0.0
 10
11.5508289756
 20
7.451414309
 30
0.0
 10
11.5363592111
 20
7.4356429561
 30
0.0
 10
11.521083611
 20
7.420657804
 30
0.0
 10
11.5050390096
 20
7.4064950118
 30
0.0
 10
11.4882641236
 20
7.3931887248
 30
0.0
 10
11.4707994269
 20
7.3807710196
 30
0.0
 10
11.4526870533
 20
7.3692718287
 30
0.0
 10
11.4339706953
 20
7.3587188668
 30
0.0
 10
11.4146954962
 20
7.3491375717
 30
0.0
 10
11.394907957
 20
7.3405510089
 30
0.0
 10
11.3746558112
 20
7.3329798299
 30
0.0
 10
11.3539879005
 20
7.3264422417
 30
0.0
 10
11.3329540601
 20
7.3209539594
 30
0.0
 10
11.3116049983
 20
7.3165281751
 30
0.0
 10
11.2899921797
 20
7.3131755095
 30
0.0
 10
11.2681676993
 20
7.3109039698
 30
0.0
 10
11.2461841494
 20
7.3097189692
 30
0.0
 10
11.2240944959
 20
7.3096233088
 30
0.0
 10
11.2019519527
 20
7.3106171734
 30
0.0
 10
11.1798098559
 20
7.3126981321
 30
0.0
 10
11.1577215319
 20
7.3158611056
 30
0.0
 10
11.1357401691
 20
7.3200984191
 30
0.0
 10
11.1139186922
 20
7.3253998221
 30
0.0
 10
11.0923096369
 20
7.3317525117
 30
0.0
 10
11.0709650293
 20
7.3391411686
 30
0.0
 10
11.0499362466
 20
7.3475479629
 30
0.0
 10
11.0292739085
 20
7.3569526027
 30
0.0
 10
11.0090277138
 20
7.3673324431
 30
0.0
 10
10.9892465069
 20
7.3786623762
 30
0.0
 10
10.9699774696
 20
7.3909154867
 30
0.0
 10
10.9450229151
 20
7.4084492952
 30
0.0
 10
10.9153451902
 20
7.4325207756
 30
0.0
 10
10.8879817844
 20
7.4592210953
 30
0.0
 10
10.8676248737
 20
7.4820143574
 30
0.0
 10
10.8531592423
 20
7.4997866983
 30
0.0
 10
10.8395340017
 20
7.518189997
 30
0.0
 10
10.8267815388
 20
7.5371803527
 30
0.0
 10
10.8149326791
 20
7.5567119584
 30
0.0
 10
10.804015947
 20
7.5767378425
 30
0.0
 10
10.7940576451
 20
7.597209795
 30
0.0
 10
10.7850817562
 20
7.6180785395
 30
0.0
 10
10.7771099127
 20
7.6392938464
 30
0.0
 10
10.7701613415
 20
7.6608046534
 30
0.0
 10
10.7642528245
 20
7.6825591766
 30
0.0
 10
10.7593986086
 20
7.7045050794
 30
0.0
 10
10.7556104839
 20
7.7265893988
 30
0.0
 10
10.7528974484
 20
7.7487593301
 30
0.0
 10
10.7512663288
 20
7.7709605661
 30
0.0
 10
10.7509020714
 20
7.7857735557
 30
0.0
 10
10.7509020714
 20
7.7931661869
 30
0.0
  0
SPLINE
  5
3E3
100
AcDbEntity
  8
0
100
AcDbSpline
 62
7
  6
CONTINUOUS
 70
0
 71
3
 72
91
 73
87
 74
0
 42
0.0000001
 43
0.0000001
 44
0.0000000001
 40
0.0
 40
0.0
 40
0.0
 40
0.0
 40
0.002716415
 40
0.0054532022
 40
0.008230253
 40
0.0110665237
 40
0.0139797073
 40
0.0169859914
 40
0.0200999223
 40
0.0233344139
 40
0.0267007313
 40
0.0302086537
 40
0.0338665321
 40
0.0376814587
 40
0.0416594002
 40
0.0458052811
 40
0.0501231771
 40
0.054616323
 40
0.0592872948
 40
0.064138028
 40
0.0691699046
 40
0.0743838441
 40
0.0797802815
 40
0.0853593099
 40
0.0911206192
 40
0.0970636057
 40
0.1031873656
 40
0.1094907055
 40
0.1226298526
 40
0.1364674172
 40
0.1509861262
 40
0.1661659162
 40
0.1819842491
 40
0.198416371
 40
0.2154355294
 40
0.2330131562
 40
0.2511190323
 40
0.2697214386
 40
0.2887872909
 40
0.308282264
 40
0.3281709086
 40
0.3484167625
 40
0.3689824571
 40
0.3898298261
 40
0.410920009
 40
0.432213552
 40
0.4536705077
 40
0.4752505333
 40
0.4969129892
 40
0.5186170389
 40
0.5403217469
 40
0.5619861766
 40
0.5835694872
 40
0.6050310316
 40
0.6263304548
 40
0.6474277948
 40
0.6682835806
 40
0.6888589317
 40
0.7091156588
 40
0.7290163666
 40
0.7485245594
 40
0.7676047532
 40
0.7862225854
 40
0.8043449309
 40
0.8219400259
 40
0.8389776022
 40
0.8554290332
 40
0.8712675032
 40
0.8864681917
 40
0.9010084867
 40
0.9148682422
 40
0.9280300914
 40
0.9343449372
 40
0.9404802907
 40
0.9464349309
 40
0.9522079539
 40
0.9577987124
 40
0.9632068978
 40
0.9684325718
 40
0.9734761454
 40
0.9783384941
 40
0.9830209329
 40
0.987525438
 40
0.9918546142
 40
0.9960115771
 40
1.0
 40
1.0
 40
1.0
 40
1.0
 10
13.6971124094
 20
9.5674030642
 30
0.0
 10
13.6986185763
 20
9.5672986161
 30
0.0
 10
13.7016344912
 20
9.5669525991
 30
0.0
 10
13.7061199842
 20
9.5660267449
 30
0.0
 10
13.7105715574
 20
9.5646940639
 30
0.0
 10
13.7149860774
 20
9.5629559793
 30
0.0
 10
13.7193612376
 20
9.5608139576
 30
0.0
 10
13.7236947912
 20
9.5582696865
 30
0.0
 10
13.7279847825
 20
9.5553250278
 30
0.0
 10
13.7322292307
 20
9.5519817567
 30
0.0
 10
13.7364263908
 20
9.5482419274
 30
0.0
 10
13.7405743729
 20
9.5441074989
 30
0.0
 10
13.7446714162
 20
9.539580679
 30
0.0
 10
13.748715697
 20
9.5346637521
 30
0.0
 10
13.7527053432
 20
9.5293591465
 30
0.0
 10
13.7566385889
 20
9.5236695271
 30
0.0
 10
13.7605134936
 20
9.517597644
 30
0.0
 10
13.7643282981
 20
9.5111465308
 30
0.0
 10
13.7680811017
 20
9.5043193362
 30
0.0
 10
13.7717700972
 20
9.4971194418
 30
0.0
 10
13.7753934951
 20
9.4895504142
 30
0.0
 10
13.7789494479
 20
9.4816159886
 30
0.0
 10
13.7824362682
 20
9.4733201289
 30
0.0
 10
13.7858521389
 20
9.4646669426
 30
0.0
 10
13.7891954165
 20
9.4556607585
 30
0.0
 10
13.7924643873
 20
9.4463060676
 30
0.0
 10
13.7956574385
 20
9.4366075323
 30
0.0
 10
13.7998698014
 20
9.4230359164
 30
0.0
 10
13.8049190359
 20
9.4052380068
 30
0.0
 10
13.810570019
 20
9.3828750006
 30
0.0
 10
13.815882192
 20
9.3592653363
 30
0.0
 10
13.820844784
 20
9.3344563488
 30
0.0
 10
13.8254476944
 20
9.3084975835
 30
0.0
 10
13.8296815567
 20
9.2814410406
 30
0.0
 10
13.8335377496
 20
9.2533409548
 30
0.0
 10
13.8370084232
 20
9.224253708
 30
0.0
 10
13.8400865158
 20
9.1942376979
 30
0.0
 10
13.842765762
 20
9.1633532141
 30
0.0
 10
13.8450407065
 20
9.1316623087
 30
0.0
 10
13.8469067141
 20
9.0992286687
 30
0.0
 10
13.8483599785
 20
9.0661174865
 30
0.0
 10
13.8493975297
 20
9.0323953289
 30
0.0
 10
13.8500172456
 20
8.9981300005
 30
0.0
 10
13.8502178486
 20
8.9633904049
 30
0.0
 10
13.8499989085
 20
8.9282464028
 30
0.0
 10
13.8493608426
 20
8.8927686709
 30
0.0
 10
13.848304915
 20
8.8570285603
 30
0.0
 10
13.8468332326
 20
8.8210979526
 30
0.0
 10
13.8449487475
 20
8.785049115
 30
0.0
 10
13.8426552465
 20
8.7489545532
 30
0.0
 10
13.8399573414
 20
8.712886864
 30
0.0
 10
13.8368604601
 20
8.6769185901
 30
0.0
 10
13.8333708362
 20
8.6411220736
 30
0.0
 10
13.8294954951
 20
8.6055693112
 30
0.0
 10
13.8252422436
 20
8.5703318068
 30
0.0
 10
13.8206196565
 20
8.5354804261
 30
0.0
 10
13.8156370531
 20
8.5010852541
 30
0.0
 10
13.8103044808
 20
8.467215454
 30
0.0
 10
13.8046326943
 20
8.4339391286
 30
0.0
 10
13.7986331344
 20
8.4013231818
 30
0.0
 10
13.7923179054
 20
8.3694331806
 30
0.0
 10
13.7856997573
 20
8.3383332189
 30
0.0
 10
13.7787920535
 20
8.3080857871
 30
0.0
 10
13.7716087446
 20
8.2787516464
 30
0.0
 10
13.764164341
 20
8.2503897036
 30
0.0
 10
13.7564738834
 20
8.2230568882
 30
0.0
 10
13.7485529103
 20
8.1968080311
 30
0.0
 10
13.7404174312
 20
8.1716957343
 30
0.0
 10
13.732083889
 20
8.1477702839
 30
0.0
 10
13.7235691159
 20
8.125079435
 30
0.0
 10
13.7148903012
 20
8.1036686639
 30
0.0
 10
13.7074366077
 20
8.0867021378
 30
0.0
 10
13.7013941002
 20
8.0738124169
 30
0.0
 10
13.6968947339
 20
8.0646250542
 30
0.0
 10
13.6923674687
 20
8.055788443
 30
0.0
 10
13.6878145992
 20
8.0473069724
 30
0.0
 10
13.6832383826
 20
8.0391848868
 30
0.0
 10
13.6786410961
 20
8.0314262343
 30
0.0
 10
13.6740250644
 20
8.0240348566
 30
0.0
 10
13.6693925169
 20
8.0170144659
 30
0.0
 10
13.6647458458
 20
8.0103685183
 30
0.0
 10
13.6600872623
 20
8.0041003243
 30
0.0
 10
13.65541904
 20
7.9982129211
 30
0.0
 10
13.6507433526
 20
7.9927091736
 30
0.0
 10
13.6460626908
 20
7.9875920699
 30
0.0
 10
13.6428756058
 20
7.9843745896
 30
0.0
 10
13.6412811864
 20
7.9828344986
 30
0.0
  0
SPLINE
  5
3E4
100
AcDbEntity
  8
0
100
AcDbSpline
 62
7
  6
CONTINUOUS
 70
0
 71
3
 72
83
 73
79
 74
0
 42
0.0000001
 43
0.0000001
 44
0.0000000001
 40
0.0
 40
0.0
 40
0.0
 40
0.0
 40
0.0039165592
 40
0.0079941979
 40
0.0122363565
 40
0.0166459536
 40
0.021225456
 40
0.0259767935
 40
0.0309012651
 40
0.0359997511
 40
0.0412727228
 40
0.0467202923
 40
0.0523422802
 40
0.05813815
 40
0.0702477787
 40
0.0830405432
 40
0.0965038762
 40
0.1106222528
 40
0.1253775538
 40
0.1407493462
 40
0.1567151289
 40
0.1732505407
 40
0.1903295314
 40
0.2079245108
 40
0.2260064752
 40
0.2445451324
 40
0.2635090221
 40
0.282865621
 40
0.3025814425
 40
0.3226221294
 40
0.3429525474
 40
0.3635368837
 40
0.3843387359
 40
0.4053211994
 40
0.4476776997
 40
0.4903050708
 40
0.5328988711
 40
0.5751549576
 40
0.596062417
 40
0.6167729485
 40
0.637249854
 40
0.6574569801
 40
0.677358806
 40
0.6969205316
 40
0.7161081686
 40
0.7348886361
 40
0.7532298666
 40
0.7711009074
 40
0.7884720245
 40
0.8053148183
 40
0.8216023502
 40
0.8373092937
 40
0.8524120925
 40
0.8668891367
 40
0.880720978
 40
0.8938905896
 40
0.9063836966
 40
0.9181891814
 40
0.9238318507
 40
0.9293001502
 40
0.934593855
 40
0.939713037
 40
0.9446581228
 40
0.9494299699
 40
0.9540298281
 40
0.9584594935
 40
0.9627212867
 40
0.9668181558
 40
0.9707537812
 40
0.9745325932
 40
0.9781599654
 40
0.981642245
 40
0.9849869068
 40
0.9882026824
 40
0.9912996186
 40
0.9942892381
 40
0.9971845335
 40
1.0
 40
1.0
 40
1.0
 40
1.0
 10
13.6103715574
 20
7.9849780887
 30
0.0
 10
13.6119225041
 20
7.9864761882
 30
0.0
 10
13.6150227975
 20
7.9896022986
 30
0.0
 10
13.619578612
 20
7.9945672098
 30
0.0
 10
13.6241298686
 20
7.9998985492
 30
0.0
 10
13.6286742238
 20
8.0055935719
 30
0.0
 10
13.633209691
 20
8.0116496224
 30
0.0
 10
13.6377341542
 20
8.0180639441
 30
0.0
 10
13.6422455936
 20
8.0248335062
 30
0.0
 10
13.6467418198
 20
8.031955144
 30
0.0
 10
13.6512207239
 20
8.0394254867
 30
0.0
 10
13.6556802169
 20
8.0472409982
 30
0.0
 10
13.6601181687
 20
8.0553980243
 30
0.0
 10
13.6660914071
 20
8.0668927589
 30
0.0
 10
13.6734753003
 20
8.082099932
 30
0.0
 10
13.6820923404
 20
8.1013885778
 30
0.0
 10
13.6905740824
 20
8.1219386358
 30
0.0
 10
13.6989043294
 20
8.1437111566
 30
0.0
 10
13.7070671645
 20
8.1666650889
 30
0.0
 10
13.7150469758
 20
8.1907569553
 30
0.0
 10
13.722828497
 20
8.2159410751
 30
0.0
 10
13.730396834
 20
8.2421696382
 30
0.0
 10
13.7377375009
 20
8.2693928166
 30
0.0
 10
13.7448364444
 20
8.2975588593
 30
0.0
 10
13.7516800826
 20
8.3266141903
 30
0.0
 10
13.758255329
 20
8.3565035172
 30
0.0
 10
13.7645496096
 20
8.3871699466
 30
0.0
 10
13.7705508894
 20
8.4185550971
 30
0.0
 10
13.7762476926
 20
8.4505992099
 30
0.0
 10
13.7816291301
 20
8.4832412577
 30
0.0
 10
13.7866849281
 20
8.5164190687
 30
0.0
 10
13.7914054206
 20
8.5500694307
 30
0.0
 10
13.7957816297
 20
8.5841282899
 30
0.0
 10
13.8011628721
 20
8.630140592
 30
0.0
 10
13.8069650631
 20
8.6881980645
 30
0.0
 10
13.8124192769
 20
8.7582314013
 30
0.0
 10
13.8163446758
 20
8.8283116794
 30
0.0
 10
13.8183242285
 20
8.8865096877
 30
0.0
 10
13.8191125881
 20
8.9326820193
 30
0.0
 10
13.8193045788
 20
8.9668696265
 30
0.0
 10
13.819099129
 20
9.0006715539
 30
0.0
 10
13.8184966271
 20
9.0340234607
 30
0.0
 10
13.8174982612
 20
9.0668618045
 30
0.0
 10
13.816105965
 20
9.0991240423
 30
0.0
 10
13.8143224288
 20
9.1307487272
 30
0.0
 10
13.8121510888
 20
9.1616756354
 30
0.0
 10
13.8095961356
 20
9.1918458855
 30
0.0
 10
13.806662499
 20
9.2212020539
 30
0.0
 10
13.8033558335
 20
9.2496882812
 30
0.0
 10
13.7996825106
 20
9.2772503797
 30
0.0
 10
13.7956496029
 20
9.3038359445
 30
0.0
 10
13.7912648828
 20
9.3293944675
 30
0.0
 10
13.7865368044
 20
9.3538774397
 30
0.0
 10
13.781474475
 20
9.3772384585
 30
0.0
 10
13.7760876374
 20
9.3994332886
 30
0.0
 10
13.7703866363
 20
9.4204200977
 30
0.0
 10
13.7643823973
 20
9.4401591226
 30
0.0
 10
13.7590585814
 20
9.4557645341
 30
0.0
 10
13.7546436136
 20
9.4675846562
 30
0.0
 10
13.7513136572
 20
9.4759809561
 30
0.0
 10
13.7479166714
 20
9.4840385107
 30
0.0
 10
13.7444542106
 20
9.4917535322
 30
0.0
 10
13.7409278803
 20
9.4991223714
 30
0.0
 10
13.7373393994
 20
9.5061415908
 30
0.0
 10
13.7336903572
 20
9.5128078665
 30
0.0
 10
13.729982507
 20
9.5191181036
 30
0.0
 10
13.7262175254
 20
9.5250693471
 30
0.0
 10
13.7223970902
 20
9.5306588
 30
0.0
 10
13.7185229834
 20
9.5358838961
 30
0.0
 10
13.7145968206
 20
9.5407421319
 30
0.0
 10
13.7106203797
 20
9.5452312673
 30
0.0
 10
13.7065953162
 20
9.5493491376
 30
0.0
 10
13.7025232958
 20
9.5530937008
 30
0.0
 10
13.6984060566
 20
9.5564631265
 30
0.0
 10
13.6942452396
 20
9.5594554948
 30
0.0
 10
13.6900425526
 20
9.5620692055
 30
0.0
 10
13.685800168
 20
9.5643024095
 30
0.0
 10
13.6829108029
 20
9.5655519608
 30
0.0
 10
13.6814642257
 20
9.5661089406
 30
0.0
  0
SPLINE
  5
3E5
100
AcDbEntity
  8
0
100
AcDbSpline
 62
7
  6
CONTINUOUS
 70
0
 71
3
 72
15
 73
11
 74
0
 42
0.0000001
 43
0.0000001
 44
0.0000000001
 40
0.0
 40
0.0
 40
0.0
 40
0.0
 40
0.1446698433
 40
0.2829326539
 40
0.415089484
 40
0.5415163818
 40
0.6626622854
 40
0.7790476727
 40
0.8912685909
 40
1.0
 40
1.0
 40
1.0
 40
1.0
 10
13.6103715574
 20
7.9849780887
 30
0.0
 10
13.6087233537
 20
7.9833860461
 30
0.0
 10
13.6054282225
 20
7.9803453987
 30
0.0
 10
13.6003724903
 20
7.9761371874
 30
0.0
 10
13.5953208614
 20
7.9723901896
 30
0.0
 10
13.5902762223
 20
7.9691069973
 30
0.0
 10
13.5852410852
 20
7.9662898135
 30
0.0
 10
13.5802178513
 20
7.9639407006
 30
0.0
 10
13.5752097855
 20
7.9620618124
 30
0.0
 10
13.571836161
 20
7.9611109412
 30
0.0
 10
13.5701590671
 20
7.9607189913
 30
0.0
  0
SPLINE
  5
3E6
100
AcDbEntity
  8
0
100
AcDbSpline
 62
7
  6
CONTINUOUS
 70
0
 71
3
 72
69
 73
65
 74
0
 42
0.0000001
 43
0.0000001
 44
0.0000000001
 40
0.0
 40
0.0
 40
0.0
 40
0.0
 40
0.0155844514
 40
0.0311164958
 40
0.046596033
 40
0.0620249362
 40
0.0774047641
 40
0.0927378569
 40
0.1080269576
 40
0.123275266
 40
0.1384864062
 40
0.153664385
 40
0.1688135563
 40
0.1839385764
 40
0.1990443578
 40
0.2141360176
 40
0.2292188235
 40
0.2442981374
 40
0.2593793583
 40
0.2744678645
 40
0.289568957
 40
0.3046878029
 40
0.3198293806
 40
0.3349984272
 40
0.3501993899
 40
0.3654363818
 40
0.3807131419
 40
0.3960329989
 40
0.4113988402
 40
0.4268130857
 40
0.4422776684
 40
0.4577940208
 40
0.4733630656
 40
0.4889852114
 40
0.5046603533
 40
0.5203878786
 40
0.5361666795
 40
0.5519951681
 40
0.5678712954
 40
0.5837925735
 40
0.5997561014
 40
0.6157585964
 40
0.6317964263
 40
0.647865644
 40
0.6639620234
 40
0.6800810983
 40
0.7123600122
 40
0.7446719581
 40
0.7608320198
 40
0.7769852785
 40
0.7931267708
 40
0.8092516359
 40
0.8253551583
 40
0.8414328088
 40
0.8574802861
 40
0.8734935573
 40
0.8894688931
 40
0.9054029073
 40
0.9212925817
 40
0.9371352945
 40
0.9529289268
 40
0.968671524
 40
0.9843624254
 40
1.0
 40
1.0
 40
1.0
 40
1.0
 10
10.7509020714
 20
7.7931661869
 30
0.0
 10
10.7509020714
 20
7.8005337043
 30
0.0
 10
10.7512626389
 20
7.8152465757
 30
0.0
 10
10.7528901815
 20
7.8372231698
 30
0.0
 10
10.7555998707
 20
7.8590192624
 30
0.0
 10
10.7593849828
 20
7.8805814217
 30
0.0
 10
10.7642366232
 20
7.9018580422
 30
0.0
 10
10.7701430917
 20
7.9227977092
 30
0.0
 10
10.7770902211
 20
7.9433499711
 30
0.0
 10
10.7850612953
 20
7.9634652671
 30
0.0
 10
10.7940371374
 20
7.9830950893
 30
0.0
 10
10.8039961504
 20
8.0021920904
 30
0.0
 10
10.8149143663
 20
8.0207101969
 30
0.0
 10
10.8267654898
 20
8.0386047297
 30
0.0
 10
10.8395209469
 20
8.0558325268
 30
0.0
 10
10.8531499874
 20
8.0723520286
 30
0.0
 10
10.8676197519
 20
8.0881233815
 30
0.0
 10
10.8828953521
 20
8.1031085336
 30
0.0
 10
10.8989399534
 20
8.1172713258
 30
0.0
 10
10.9157148395
 20
8.1305776128
 30
0.0
 10
10.9331795362
 20
8.142995318
 30
0.0
 10
10.9512919098
 20
8.1544945089
 30
0.0
 10
10.9700082677
 20
8.1650474708
 30
0.0
 10
10.9892834669
 20
8.1746287659
 30
0.0
 10
11.009071006
 20
8.1832153287
 30
0.0
 10
11.0293231519
 20
8.1907865077
 30
0.0
 10
11.0499910626
 20
8.1973240959
 30
0.0
 10
11.071024903
 20
8.2028123782
 30
0.0
 10
11.0923739647
 20
8.2072381625
 30
0.0
 10
11.1139867834
 20
8.2105908281
 30
0.0
 10
11.1358112638
 20
8.2128623678
 30
0.0
 10
11.1577948137
 20
8.2140473684
 30
0.0
 10
11.1798844671
 20
8.2141430288
 30
0.0
 10
11.2020270104
 20
8.2131491642
 30
0.0
 10
11.2241691072
 20
8.2110682055
 30
0.0
 10
11.2462574311
 20
8.207905232
 30
0.0
 10
11.268238794
 20
8.2036679185
 30
0.0
 10
11.2900602709
 20
8.1983665155
 30
0.0
 10
11.3116693262
 20
8.1920138259
 30
0.0
 10
11.3330139337
 20
8.184625169
 30
0.0
 10
11.3540427165
 20
8.1762183747
 30
0.0
 10
11.3747050546
 20
8.1668137349
 30
0.0
 10
11.3949512492
 20
8.1564338945
 30
0.0
 10
11.4147324561
 20
8.1451039614
 30
0.0
 10
11.4340014935
 20
8.1328508509
 30
0.0
 10
11.4589560479
 20
8.1153170424
 30
0.0
 10
11.4886337729
 20
8.091245562
 30
0.0
 10
11.5159971787
 20
8.0645452423
 30
0.0
 10
11.5363540894
 20
8.0417519802
 30
0.0
 10
11.5508197207
 20
8.0239796393
 30
0.0
 10
11.5644449614
 20
8.0055763406
 30
0.0
 10
11.5771974243
 20
7.9865859849
 30
0.0
 10
11.589046284
 20
7.9670543792
 30
0.0
 10
11.5999630161
 20
7.9470284951
 30
0.0
 10
11.609921318
 20
7.9265565426
 30
0.0
 10
11.6188972068
 20
7.9056877981
 30
0.0
 10
11.6268690504
 20
7.8844724912
 30
0.0
 10
11.6338176216
 20
7.8629616842
 30
0.0
 10
11.6397261386
 20
7.841207161
 30
0.0
 10
11.6445803545
 20
7.8192612582
 30
0.0
 10
11.6483684792
 20
7.7971769388
 30
0.0
 10
11.6510815147
 20
7.7750070075
 30
0.0
 10
11.6527126342
 20
7.7528057715
 30
0.0
 10
11.6530768917
 20
7.7379927819
 30
0.0
 10
11.6530768917
 20
7.7306001507
 30
0.0
  0
SPLINE
  5
3E7
100
AcDbEntity
  8
0
100
AcDbSpline
 62
7
  6
CONTINUOUS
 70
0
 71
3
 72
39
 73
35
 74
0
 42
0.0000001
 43
0.0000001
 44
0.0000000001
 40
0.0
 40
0.0
 40
0.0
 40
0.0
 40
0.0599638552
 40
0.1184521587
 40
0.1731936771
 40
0.2237134202
 40
0.2703318815
 40
0.3135598832
 40
0.3538820771
 40
0.3917061192
 40
0.4273630334
 40
0.4611207369
 40
0.4931966512
 40
0.523769329
 40
0.5529899666
 40
0.5809858754
 40
0.6078689584
 40
0.6337395015
 40
0.6586889373
 40
0.6828054508
 40
0.706174782
 40
0.7288854587
 40
0.7510305153
 40
0.7727116298
 40
0.7940425247
 40
0.8151528505
 40
0.8361917392
 40
0.8573330744
 40
0.8787773657
 40
0.9007582849
 40
0.9235435572
 40
0.9474395647
 40
0.9727943579
 40
1.0
 40
1.0
 40
1.0
 40
1.0
 10
10.9794067746
 20
7.8092602373
 30
0.0
 10
10.9806579562
 20
7.8057353945
 30
0.0
 10
10.9828871109
 20
7.798684341
 30
0.0
 10
10.9855038559
 20
7.7881969854
 30
0.0
 10
10.9874277727
 20
7.7781609089
 30
0.0
 10
10.9887472168
 20
7.7687759949
 30
0.0
 10
10.9895683126
 20
7.7600561961
 30
0.0
 10
10.9899798471
 20
7.7519447933
 30
0.0
 10
10.9900485517
 20
7.7443721122
 30
0.0
 10
10.9898229543
 20
7.7372751333
 30
0.0
 10
10.9893383003
 20
7.7306017132
 30
0.0
 10
10.9886205225
 20
7.7243101218
 30
0.0
 10
10.9876886357
 20
7.7183674723
 30
0.0
 10
10.9865563847
 20
7.7127481054
 30
0.0
 10
10.9852345249
 20
7.7074321079
 30
0.0
 10
10.9837301069
 20
7.7024045228
 30
0.0
 10
10.9820484291
 20
7.6976543998
 30
0.0
 10
10.9801928984
 20
7.6931742736
 30
0.0
 10
10.9781650997
 20
7.6889599147
 30
0.0
 10
10.9759657947
 20
7.6850098061
 30
0.0
 10
10.9735941735
 20
7.681325318
 30
0.0
 10
10.9710487335
 20
7.677910414
 30
0.0
 10
10.9683269778
 20
7.6747718104
 30
0.0
 10
10.9654255496
 20
7.6719192305
 30
0.0
 10
10.9623405637
 20
7.6693653687
 30
0.0
 10
10.959067468
 20
7.6671265129
 30
0.0
 10
10.9556012832
 20
7.6652229892
 30
0.0
 10
10.9519371964
 20
7.6636790008
 30
0.0
 10
10.9480700743
 20
7.6625248932
 30
0.0
 10
10.9439959079
 20
7.6617952475
 30
0.0
 10
10.9397113148
 20
7.6615327165
 30
0.0
 10
10.9352146349
 20
7.6617869364
 30
0.0
 10
10.9305075678
 20
7.6626161062
 30
0.0
 10
10.9273589042
 20
7.6635604099
 30
0.0
 10
10.9257628606
 20
7.6641369523
 30
0.0
  0
SPLINE
  5
3E8
100
AcDbEntity
  8
0
100
AcDbSpline
 62
7
  6
CONTINUOUS
 70
0
 71
3
 72
22
 73
18
 74
0
 42
0.0000001
 43
0.0000001
 44
0.0000000001
 40
0.0
 40
0.0
 40
0.0
 40
0.0
 40
0.0781421434
 40
0.1532425494
 40
0.2254210875
 40
0.2948218516
 40
0.3616185707
 40
0.4260103729
 40
0.5484369231
 40
0.6070812291
 40
0.6643923179
 40
0.7207047675
 40
0.7763728299
 40
0.8317644377
 40
0.8872533605
 40
0.9432113641
 40
1.0
 40
1.0
 40
1.0
 40
1.0
 10
13.6103715574
 20
8.2090728937
 30
0.0
 10
13.6093386989
 20
8.208075229
 30
0.0
 10
13.6072735851
 20
8.206159112
 30
0.0
 10
13.6041139144
 20
8.2034779169
 30
0.0
 10
13.6009563068
 20
8.2010492221
 30
0.0
 10
13.5978023045
 20
8.1988744669
 30
0.0
 10
13.5946528176
 20
8.1969544971
 30
0.0
 10
13.5905322128
 20
8.1947728947
 30
0.0
 10
13.5863453142
 20
8.1930478981
 30
0.0
 10
13.582129717
 20
8.1918433508
 30
0.0
 10
13.5790240712
 20
8.1912118497
 30
0.0
 10
13.5759317628
 20
8.1908403255
 30
0.0
 10
13.5728543285
 20
8.1907292165
 30
0.0
 10
13.5697936361
 20
8.1908786283
 30
0.0
 10
13.5667514286
 20
8.1912885592
 30
0.0
 10
13.5637297556
 20
8.1919586526
 30
0.0
 10
13.5617481516
 20
8.1925728102
 30
0.0
 10
13.5607642375
 20
8.1929206825
 30
0.0
  0
SPLINE
  5
3E9
100
AcDbEntity
  8
0
100
AcDbSpline
 62
7
  6
CONTINUOUS
 70
0
 71
3
 72
42
 73
38
 74
0
 42
0.0000001
 43
0.0000001
 44
0.0000000001
 40
0.0
 40
0.0
 40
0.0
 40
0.0
 40
0.0299702543
 40
0.0449891776
 40
0.0600316074
 40
0.0901893361
 40
0.1204605605
 40
0.1356442982
 40
0.1508601275
 40
0.1813872954
 40
0.2120522127
 40
0.2428581148
 40
0.2738057334
 40
0.3048933176
 40
0.3361166976
 40
0.3674693873
 40
0.3989427223
 40
0.4305260298
 40
0.4622068252
 40
0.4939710338
 40
0.525803231
 40
0.5576868999
 40
0.5896047012
 40
0.6215387519
 40
0.6534709112
 40
0.6853830683
 40
0.7172574301
 40
0.7490768057
 40
0.7808248837
 40
0.8124865005
 40
0.8440478911
 40
0.8754969379
 40
0.9068233461
 40
0.938018967
 40
0.9535675796
 40
0.9690817465
 40
1.0
 40
1.0
 40
1.0
 40
1.0
 10
11.5913279754
 20
7.575728113
 30
0.0
 10
11.583726299
 20
7.5715799125
 30
0.0
 10
11.5720901742
 20
7.5657528104
 30
0.0
 10
11.5561915726
 20
7.5588097979
 30
0.0
 10
11.5400092036
 20
7.5524058177
 30
0.0
 10
11.5193228046
 20
7.5454457268
 30
0.0
 10
11.4981656204
 20
7.5399215372
 30
0.0
 10
11.4809955393
 20
7.5363692126
 30
0.0
 10
11.4636413161
 20
7.5333927131
 30
0.0
 10
11.4417007335
 20
7.5307739235
 30
0.0
 10
11.4151336877
 20
7.5294079699
 30
0.0
 10
11.388412907
 20
7.5298203004
 30
0.0
 10
11.3616566234
 20
7.5320090452
 30
0.0
 10
11.3349822075
 20
7.535964335
 30
0.0
 10
11.3085068974
 20
7.5416686074
 30
0.0
 10
11.2823469539
 20
7.549096621
 30
0.0
 10
11.2566172458
 20
7.5582155891
 30
0.0
 10
11.2314307272
 20
7.5689853216
 30
0.0
 10
11.2068979535
 20
7.5813584046
 30
0.0
 10
11.1831265994
 20
7.5952804084
 30
0.0
 10
11.1602209922
 20
7.610690127
 30
0.0
 10
11.1382816582
 20
7.6275198465
 30
0.0
 10
11.1174048865
 20
7.6456956407
 30
0.0
 10
11.0976823096
 20
7.6651376934
 30
0.0
 10
11.079200505
 20
7.6857606466
 30
0.0
 10
11.0620406187
 20
7.7074739724
 30
0.0
 10
11.0462780108
 20
7.7301823663
 30
0.0
 10
11.0319819279
 20
7.7537861637
 30
0.0
 10
11.0192152003
 20
7.7781817673
 30
0.0
 10
11.0080339673
 20
7.8032621195
 30
0.0
 10
10.9984874332
 20
7.8289170857
 30
0.0
 10
10.9906176383
 20
7.8550342325
 30
0.0
 10
10.9844593429
 20
7.8814982089
 30
0.0
 10
10.9807720752
 20
7.903770585
 30
0.0
 10
10.9787045028
 20
7.9216437527
 30
0.0
 10
10.9772290239
 20
7.93949444
 30
0.0
 10
10.9767827873
 20
7.9529164181
 30
0.0
 10
10.9767827873
 20
7.9618501937
 30
0.0
  0
SPLINE
  5
3EA
100
AcDbEntity
  8
0
100
AcDbSpline
 62
7
  6
CONTINUOUS
 70
0
 71
3
 72
20
 73
16
 74
0
 42
0.0000001
 43
0.0000001
 44
0.0000000001
 40
0.0
 40
0.0
 40
0.0
 40
0.0
 40
0.0731088236
 40
0.1536181218
 40
0.244265303
 40
0.2944763941
 40
0.3486272464
 40
0.4073418895
 40
0.4713302443
 40
0.5413764165
 40
0.6182852538
 40
0.7027439631
 40
0.7950475654
 40
0.8946899058
 40
1.0
 40
1.0
 40
1.0
 40
1.0
 10
10.9412738081
 20
7.8583870041
 30
0.0
 10
10.9427416593
 20
7.8578562115
 30
0.0
 10
10.9457498382
 20
7.8565205609
 30
0.0
 10
10.9502098529
 20
7.8537926328
 30
0.0
 10
10.9539160645
 20
7.8508401879
 30
0.0
 10
10.9569445126
 20
7.847980813
 30
0.0
 10
10.9593396173
 20
7.8454511987
 30
0.0
 10
10.9617840347
 20
7.8425710999
 30
0.0
 10
10.9642790021
 20
7.8392961465
 30
0.0
 10
10.9668221215
 20
7.8355769263
 30
0.0
 10
10.9694046056
 20
7.8313625442
 30
0.0
 10
10.9720065584
 20
7.8266102456
 30
0.0
 10
10.9745916401
 20
7.8213028849
 30
0.0
 10
10.9771039516
 20
7.8154725992
 30
0.0
 10
10.9786546669
 20
7.8113790834
 30
0.0
 10
10.9794067746
 20
7.8092602373
 30
0.0
  0
SPLINE
  5
3EB
100
AcDbEntity
  8
0
100
AcDbSpline
 62
7
  6
CONTINUOUS
 70
0
 71
3
 72
91
 73
87
 74
0
 42
0.0000001
 43
0.0000001
 44
0.0000000001
 40
0.0
 40
0.0
 40
0.0
 40
0.0
 40
0.002716415
 40
0.0054532022
 40
0.008230253
 40
0.0110665237
 40
0.0139797073
 40
0.0169859914
 40
0.0200999223
 40
0.0233344139
 40
0.0267007313
 40
0.0302086537
 40
0.0338665321
 40
0.0376814587
 40
0.0416594002
 40
0.0458052811
 40
0.0501231771
 40
0.054616323
 40
0.0592872948
 40
0.064138028
 40
0.0691699046
 40
0.0743838441
 40
0.0797802815
 40
0.0853593099
 40
0.0911206192
 40
0.0970636057
 40
0.1031873656
 40
0.1094907055
 40
0.1226298526
 40
0.1364674172
 40
0.1509861262
 40
0.1661659162
 40
0.1819842491
 40
0.198416371
 40
0.2154355294
 40
0.2330131562
 40
0.2511190323
 40
0.2697214386
 40
0.2887872909
 40
0.308282264
 40
0.3281709086
 40
0.3484167625
 40
0.3689824571
 40
0.3898298261
 40
0.410920009
 40
0.432213552
 40
0.4536705077
 40
0.4752505333
 40
0.4969129892
 40
0.5186170389
 40
0.5403217469
 40
0.5619861766
 40
0.5835694872
 40
0.6050310316
 40
0.6263304548
 40
0.6474277948
 40
0.6682835806
 40
0.6888589317
 40
0.7091156588
 40
0.7290163666
 40
0.7485245594
 40
0.7676047532
 40
0.7862225854
 40
0.8043449309
 40
0.8219400259
 40
0.8389776022
 40
0.8554290332
 40
0.8712675032
 40
0.8864681917
 40
0.9010084867
 40
0.9148682422
 40
0.9280300914
 40
0.9343449372
 40
0.9404802907
 40
0.9464349309
 40
0.9522079539
 40
0.9577987124
 40
0.9632068978
 40
0.9684325718
 40
0.9734761454
 40
0.9783384941
 40
0.9830209329
 40
0.987525438
 40
0.9918546142
 40
0.9960115771
 40
1.0
 40
1.0
 40
1.0
 40
1.0
 10
13.2441794542
 20
9.1299033993
 30
0.0
 10
13.2456856211
 20
9.1297989513
 30
0.0
 10
13.2487015361
 20
9.1294529343
 30
0.0
 10
13.253187029
 20
9.12852708
 30
0.0
 10
13.2576386022
 20
9.1271943991
 30
0.0
 10
13.2620531223
 20
9.1254563145
 30
0.0
 10
13.2664282825
 20
9.1233142928
 30
0.0
 10
13.2707618361
 20
9.1207700217
 30
0.0
 10
13.2750518274
 20
9.117825363
 30
0.0
 10
13.2792962755
 20
9.1144820919
 30
0.0
 10
13.2834934357
 20
9.1107422625
 30
0.0
 10
13.2876414178
 20
9.1066078341
 30
0.0
 10
13.2917384611
 20
9.1020810142
 30
0.0
 10
13.2957827419
 20
9.0971640873
 30
0.0
 10
13.2997723881
 20
9.0918594816
 30
0.0
 10
13.3037056337
 20
9.0861698622
 30
0.0
 10
13.3075805385
 20
9.0800979791
 30
0.0
 10
13.3113953429
 20
9.073646866
 30
0.0
 10
13.3151481465
 20
9.0668196713
 30
0.0
 10
13.3188371421
 20
9.0596197769
 30
0.0
 10
13.32246054
 20
9.0520507493
 30
0.0
 10
13.3260164928
 20
9.0441163237
 30
0.0
 10
13.3295033131
 20
9.035820464
 30
0.0
 10
13.3329191838
 20
9.0271672778
 30
0.0
 10
13.3362624614
 20
9.0181610937
 30
0.0
 10
13.3395314322
 20
9.0088064027
 30
0.0
 10
13.3427244833
 20
8.9991078674
 30
0.0
 10
13.3469368463
 20
8.9855362515
 30
0.0
 10
13.3519860807
 20
8.9677383419
 30
0.0
 10
13.3576370639
 20
8.9453753358
 30
0.0
 10
13.3629492369
 20
8.9217656714
 30
0.0
 10
13.3679118289
 20
8.896956684
 30
0.0
 10
13.3725147392
 20
8.8709979186
 30
0.0
 10
13.3767486016
 20
8.8439413757
 30
0.0
 10
13.3806047945
 20
8.8158412899
 30
0.0
 10
13.3840754681
 20
8.7867540431
 30
0.0
 10
13.3871535607
 20
8.7567380331
 30
0.0
 10
13.3898328069
 20
8.7258535493
 30
0.0
 10
13.3921077513
 20
8.6941626438
 30
0.0
 10
13.393973759
 20
8.6617290038
 30
0.0
 10
13.3954270234
 20
8.6286178217
 30
0.0
 10
13.3964645745
 20
8.594895664
 30
0.0
 10
13.3970842904
 20
8.5606303356
 30
0.0
 10
13.3972848935
 20
8.52589074
 30
0.0
 10
13.3970659534
 20
8.4907467379
 30
0.0
 10
13.3964278875
 20
8.4552690061
 30
0.0
 10
13.3953719598
 20
8.4195288954
 30
0.0
 10
13.3939002775
 20
8.3835982877
 30
0.0
 10
13.3920157924
 20
8.3475494502
 30
0.0
 10
13.3897222914
 20
8.3114548883
 30
0.0
 10
13.3870243862
 20
8.2753871992
 30
0.0
 10
13.383927505
 20
8.2394189252
 30
0.0
 10
13.3804378811
 20
8.2036224087
 30
0.0
 10
13.3765625399
 20
8.1680696463
 30
0.0
 10
13.3723092885
 20
8.1328321419
 30
0.0
 10
13.3676867013
 20
8.0979807613
 30
0.0
 10
13.362704098
 20
8.0635855892
 30
0.0
 10
13.3573715257
 20
8.0297157891
 30
0.0
 10
13.3516997391
 20
7.9964394637
 30
0.0
 10
13.3457001792
 20
7.9638235169
 30
0.0
 10
13.3393849503
 20
7.9319335158
 30
0.0
 10
13.3327668022
 20
7.900833554
 30
0.0
 10
13.3258590984
 20
7.8705861223
 30
0.0
 10
13.3186757895
 20
7.8412519815
 30
0.0
 10
13.3112313858
 20
7.8128900388
 30
0.0
 10
13.3035409283
 20
7.7855572233
 30
0.0
 10
13.2956199552
 20
7.7593083663
 30
0.0
 10
13.2874844761
 20
7.7341960695
 30
0.0
 10
13.2791509339
 20
7.710270619
 30
0.0
 10
13.2706361608
 20
7.6875797701
 30
0.0
 10
13.2619573461
 20
7.666168999
 30
0.0
 10
13.2545036526
 20
7.649202473
 30
0.0
 10
13.2484611451
 20
7.636312752
 30
0.0
 10
13.2439617787
 20
7.6271253894
 30
0.0
 10
13.2394345136
 20
7.6182887781
 30
0.0
 10
13.2348816441
 20
7.6098073075
 30
0.0
 10
13.2303054275
 20
7.6016852219
 30
0.0
 10
13.225708141
 20
7.5939265694
 30
0.0
 10
13.2210921093
 20
7.5865351918
 30
0.0
 10
13.2164595618
 20
7.5795148011
 30
0.0
 10
13.2118128906
 20
7.5728688534
 30
0.0
 10
13.2071543072
 20
7.5666006594
 30
0.0
 10
13.2024860849
 20
7.5607132562
 30
0.0
 10
13.1978103974
 20
7.5552095088
 30
0.0
 10
13.1931297357
 20
7.550092405
 30
0.0
 10
13.1899426507
 20
7.5468749248
 30
0.0
 10
13.1883482312
 20
7.5453348338
 30
0.0
  0
SPLINE
  5
3EC
100
AcDbEntity
  8
0
100
AcDbSpline
 62
7
  6
CONTINUOUS
 70
0
 71
3
 72
15
 73
11
 74
0
 42
0.0000001
 43
0.0000001
 44
0.0000000001
 40
0.0
 40
0.0
 40
0.0
 40
0.0
 40
0.1234434203
 40
0.2472299795
 40
0.3714208982
 40
0.4960697372
 40
0.6212214018
 40
0.7469116137
 40
0.8731658376
 40
1.0
 40
1.0
 40
1.0
 40
1.0
 10
11.1251295535
 20
8.1836383859
 30
0.0
 10
11.1211517656
 20
8.1771430181
 30
0.0
 10
11.113642348
 20
8.1638478989
 30
0.0
 10
11.103792536
 20
8.1431357944
 30
0.0
 10
11.0953839241
 20
8.1217169274
 30
0.0
 10
11.0884542322
 20
8.0996871239
 30
0.0
 10
11.0830336365
 20
8.0771433552
 30
0.0
 10
11.0791459241
 20
8.0541848204
 30
0.0
 10
11.0768080065
 20
8.0309140722
 30
0.0
 10
11.0762905354
 20
8.0152931161
 30
0.0
 10
11.0762905354
 20
8.0074673032
 30
0.0
  0
SPLINE
  5
3ED
100
AcDbEntity
  8
0
100
AcDbSpline
 62
7
  6
CONTINUOUS
 70
0
 71
3
 72
15
 73
11
 74
0
 42
0.0000001
 43
0.0000001
 44
0.0000000001
 40
0.0
 40
0.0
 40
0.0
 40
0.0
 40
0.1235559626
 40
0.2474581565
 40
0.3717469323
 40
0.4964570555
 40
0.6216180455
 40
0.7472515535
 40
0.8733769021
 40
1.0
 40
1.0
 40
1.0
 40
1.0
 10
11.0677666919
 20
8.1710626867
 30
0.0
 10
11.0644498468
 20
8.1645593602
 30
0.0
 10
11.0581997949
 20
8.1513298195
 30
0.0
 10
11.0500240459
 20
8.1309298985
 30
0.0
 10
11.0430606266
 20
8.1100123584
 30
0.0
 10
11.0373326856
 20
8.0886466548
 30
0.0
 10
11.0328588308
 20
8.0669026296
 30
0.0
 10
11.0296535125
 20
8.0448512061
 30
0.0
 10
11.0277272928
 20
8.0225656399
 30
0.0
 10
11.0273007468
 20
8.0076283435
 30
0.0
 10
11.0273007468
 20
8.0001467983
 30
0.0
  0
SPLINE
  5
3EE
100
AcDbEntity
  8
0
100
AcDbSpline
 62
7
  6
CONTINUOUS
 70
0
 71
3
 72
15
 73
11
 74
0
 42
0.0000001
 43
0.0000001
 44
0.0000000001
 40
0.0
 40
0.0
 40
0.0
 40
0.0
 40
0.1234305753
 40
0.2472017954
 40
0.3713784993
 40
0.4960175318
 40
0.6211665356
 40
0.7468637073
 40
0.8731355821
 40
1.0
 40
1.0
 40
1.0
 40
1.0
 10
11.0480380509
 20
8.1646815508
 30
0.0
 10
11.0434488451
 20
8.1573837291
 30
0.0
 10
11.0347824551
 20
8.1424304622
 30
0.0
 10
11.0234099008
 20
8.1190946348
 30
0.0
 10
11.0136976348
 20
8.0949281789
 30
0.0
 10
11.0056910955
 20
8.070043808
 30
0.0
 10
10.9994266096
 20
8.044555717
 30
0.0
 10
10.9949328664
 20
8.0185808546
 30
0.0
 10
10.9922301905
 20
7.992240151
 30
0.0
 10
10.9916320264
 20
7.9745541378
 30
0.0
 10
10.9916320264
 20
7.9656934581
 30
0.0
  0
SPLINE
  5
3EF
100
AcDbEntity
  8
0
100
AcDbSpline
 62
7
  6
CONTINUOUS
 70
0
 71
3
 72
17
 73
13
 74
0
 42
0.0000001
 43
0.0000001
 44
0.0000000001
 40
0.0
 40
0.0
 40
0.0
 40
0.0
 40
0.1235259055
 40
0.1854237095
 40
0.2474141071
 40
0.3716789688
 40
0.4963735658
 40
0.5588994994
 40
0.6215444743
 40
0.7471873879
 40
0.8733362334
 40
1.0
 40
1.0
 40
1.0
 40
1.0
 10
11.0097841581
 20
8.1488064143
 30
0.0
 10
11.0060543661
 20
8.1417674372
 30
0.0
 10
11.0007845246
 20
8.1310220863
 30
0.0
 10
10.9944333074
 20
8.1163831406
 30
0.0
 10
10.9885210515
 20
8.1015095797
 30
0.0
 10
10.9819816351
 20
8.0825386708
 30
0.0
 10
10.9766099108
 20
8.0631689863
 30
0.0
 10
10.9730168453
 20
8.0474588331
 30
0.0
 10
10.9698905844
 20
8.0315868821
 30
0.0
 10
10.9668773169
 20
8.0115205497
 30
0.0
 10
10.9647064487
 20
7.9871974468
 30
0.0
 10
10.9642257508
 20
7.9708894725
 30
0.0
 10
10.9642257508
 20
7.9627210271
 30
0.0
  0
SPLINE
  5
3F0
100
AcDbEntity
  8
0
100
AcDbSpline
 62
7
  6
CONTINUOUS
 70
0
 71
3
 72
23
 73
19
 74
0
 42
0.0000001
 43
0.0000001
 44
0.0000000001
 40
0.0
 40
0.0
 40
0.0
 40
0.0
 40
0.0617101439
 40
0.1234413935
 40
0.1852146431
 40
0.2470503547
 40
0.3089683495
 40
0.3709876176
 40
0.4331261309
 40
0.4954006615
 40
0.5578266134
 40
0.6204179128
 40
0.6831867943
 40
0.7461438773
 40
0.8092980348
 40
0.872655047
 40
0.9362230873
 40
1.0
 40
1.0
 40
1.0
 40
1.0
 10
10.9123479644
 20
8.0806472566
 30
0.0
 10
10.9077254385
 20
8.0761822582
 30
0.0
 10
10.8987069594
 20
8.0670110003
 30
0.0
 10
10.8859021713
 20
8.0525741301
 30
0.0
 10
10.8738473195
 20
8.0374880111
 30
0.0
 10
10.862570698
 20
8.0217879052
 30
0.0
 10
10.8520981617
 20
8.0055099193
 30
0.0
 10
10.8424538565
 20
7.9886916555
 30
0.0
 10
10.8336599893
 20
7.9713719012
 30
0.0
 10
10.8257368391
 20
7.9535905981
 30
0.0
 10
10.8187026412
 20
7.9353887608
 30
0.0
 10
10.8125735534
 20
7.9168083809
 30
0.0
 10
10.807363653
 20
7.8978923057
 30
0.0
 10
10.8030849243
 20
7.8786841125
 30
0.0
 10
10.7997472635
 20
7.8592282048
 30
0.0
 10
10.7973581113
 20
7.8395690504
 30
0.0
 10
10.7959232096
 20
7.8197528277
 30
0.0
 10
10.7956052821
 20
7.8064882114
 30
0.0
 10
10.7956052821
 20
7.7998461519
 30
0.0
  0
SPLINE
  5
3F1
100
AcDbEntity
  8
0
100
AcDbSpline
 62
7
  6
CONTINUOUS
 70
0
 71
3
 72
14
 73
10
 74
0
 42
0.0000001
 43
0.0000001
 44
0.0000000001
 40
0.0
 40
0.0
 40
0.0
 40
0.0
 40
0.1129665756
 40
0.2278659538
 40
0.3455207168
 40
0.4667076535
 40
0.7223106779
 40
0.8581569013
 40
1.0
 40
1.0
 40
1.0
 40
1.0
 10
11.1796775524
 20
8.1183101709
 30
0.0
 10
11.1803556923
 20
8.1182631364
 30
0.0
 10
11.1817293132
 20
8.1182375752
 30
0.0
 10
11.1838048989
 20
8.1184031236
 30
0.0
 10
11.1859044697
 20
8.1187722325
 30
0.0
 10
11.1887799803
 20
8.1195488253
 30
0.0
 10
11.1916441237
 20
8.1207353359
 30
0.0
 10
11.19446111
 20
8.1222752775
 30
0.0
 10
11.1958713974
 20
8.1231744425
 30
0.0
 10
11.1965768279
 20
8.1236549466
 30
0.0
  0
SPLINE
  5
3F2
100
AcDbEntity
  8
0
100
AcDbSpline
 62
7
  6
CONTINUOUS
 70
0
 71
3
 72
23
 73
19
 74
0
 42
0.0000001
 43
0.0000001
 44
0.0000000001
 40
0.0
 40
0.0
 40
0.0
 40
0.0
 40
0.06183483
 40
0.1239222227
 40
0.186235848
 40
0.2487449804
 40
0.3114151336
 40
0.3742087491
 40
0.437085928
 40
0.5000051952
 40
0.5629242834
 40
0.6258009287
 40
0.6885936658
 40
0.7512626126
 40
0.813770234
 40
0.8760820691
 40
0.9381674432
 40
1.0
 40
1.0
 40
1.0
 40
1.0
 10
11.6016951426
 20
7.8866839447
 30
0.0
 10
11.5938209154
 20
7.8887530777
 30
0.0
 10
11.5781804435
 20
7.8934552016
 30
0.0
 10
11.5552267656
 20
7.902133667
 30
0.0
 10
11.5328431715
 20
7.9124087616
 30
0.0
 10
11.5111474809
 20
7.9242265474
 30
0.0
 10
11.4902519794
 20
7.9375255981
 30
0.0
 10
11.4702653167
 20
7.9522366897
 30
0.0
 10
11.4512912833
 20
7.9682833266
 30
0.0
 10
11.4334284562
 20
7.9855820919
 30
0.0
 10
11.4167696442
 20
8.0040430879
 30
0.0
 10
11.4014014204
 20
8.0235703973
 30
0.0
 10
11.3874036775
 20
8.0440625671
 30
0.0
 10
11.3748492063
 20
8.0654131781
 30
0.0
 10
11.3638033609
 20
8.0875112117
 30
0.0
 10
11.354323568
 20
8.110242291
 30
0.0
 10
11.3464595924
 20
8.1334867691
 30
0.0
 10
11.3423117367
 20
8.1492826932
 30
0.0
 10
11.3405214857
 20
8.1572246636
 30
0.0
  0
SPLINE
  5
3F3
100
AcDbEntity
  8
0
100
AcDbSpline
 62
7
  6
CONTINUOUS
 70
0
 71
3
 72
23
 73
19
 74
0
 42
0.0000001
 43
0.0000001
 44
0.0000000001
 40
0.0
 40
0.0
 40
0.0
 40
0.0
 40
0.061713824
 40
0.1237221498
 40
0.1859969692
 40
0.2485039937
 40
0.3112035247
 40
0.3740514198
 40
0.43700014
 40
0.4999998531
 40
0.5629995704
 40
0.6259483016
 40
0.6887962134
 40
0.7514957681
 40
0.8140028253
 40
0.8762776817
 40
0.9382860345
 40
1.0
 40
1.0
 40
1.0
 40
1.0
 10
11.6116627762
 20
7.8553586486
 30
0.0
 10
11.6023620627
 20
7.8572585652
 30
0.0
 10
11.5838564135
 20
7.8617934083
 30
0.0
 10
11.5566469288
 20
7.8707199799
 30
0.0
 10
11.5300794186
 20
7.8817331933
 30
0.0
 10
11.5043224624
 20
7.8947633379
 30
0.0
 10
11.4795367307
 20
7.9097287112
 30
0.0
 10
11.4558775526
 20
7.9265353779
 30
0.0
 10
11.4334929848
 20
7.9450779509
 30
0.0
 10
11.4125231827
 20
7.9652402316
 30
0.0
 10
11.3930994604
 20
7.9868959306
 30
0.0
 10
11.3753435077
 20
8.0099094563
 30
0.0
 10
11.3593665886
 20
8.0341366983
 30
0.0
 10
11.3452688625
 20
8.0594260164
 30
0.0
 10
11.3331388254
 20
8.0856189252
 30
0.0
 10
11.3230525927
 20
8.1125520329
 30
0.0
 10
11.3150740215
 20
8.140054468
 30
0.0
 10
11.3111829932
 20
8.1587061373
 30
0.0
 10
11.3096064427
 20
8.1680671125
 30
0.0
  0
SPLINE
  5
3F4
100
AcDbEntity
  8
0
100
AcDbSpline
 62
7
  6
CONTINUOUS
 70
0
 71
3
 72
42
 73
38
 74
0
 42
0.0000001
 43
0.0000001
 44
0.0000000001
 40
0.0
 40
0.0
 40
0.0
 40
0.0
 40
0.0299621581
 40
0.0449760066
 40
0.06001275
 40
0.0901574873
 40
0.1204141599
 40
0.1355902589
 40
0.1507982792
 40
0.1813095263
 40
0.2119586624
 40
0.2427494188
 40
0.2736829701
 40
0.3047579491
 40
0.3359705046
 40
0.3673144018
 40
0.3987811581
 40
0.4303602142
 40
0.4620391321
 40
0.4938038206
 40
0.5256387797
 40
0.5575273638
 40
0.5894520581
 40
0.6213947644
 40
0.6533370947
 40
0.6852606668
 40
0.7171474008
 40
0.7489798117
 40
0.7807412952
 40
0.8124164044
 40
0.8439911092
 40
0.8754530485
 40
0.9067917307
 40
0.9379987993
 40
0.9535528115
 40
0.9690722368
 40
1.0
 40
1.0
 40
1.0
 40
1.0
 10
11.6209406021
 20
7.670517607
 30
0.0
 10
11.6142741278
 20
7.6667427843
 30
0.0
 10
11.6040608465
 20
7.6614297798
 30
0.0
 10
11.5900901883
 20
7.655077817
 30
0.0
 10
11.5758608086
 20
7.6492034936
 30
0.0
 10
11.5576528809
 20
7.6427869137
 30
0.0
 10
11.53900791
 20
7.6376454375
 30
0.0
 10
11.5238645021
 20
7.6343029109
 30
0.0
 10
11.5085509859
 20
7.6314720307
 30
0.0
 10
11.4891760312
 20
7.6289135028
 30
0.0
 10
11.4656946462
 20
7.6274254473
 30
0.0
 10
11.4420580763
 20
7.6275220156
 30
0.0
 10
11.4183723736
 20
7.6292027323
 30
0.0
 10
11.3947428951
 20
7.6324598759
 30
0.0
 10
11.3712749495
 20
7.6372787662
 30
0.0
 10
11.3480730325
 20
7.6436377693
 30
0.0
 10
11.3252404478
 20
7.6515084152
 30
0.0
 10
11.3028788303
 20
7.6608555236
 30
0.0
 10
11.281087705
 20
7.671637363
 30
0.0
 10
11.2599640473
 20
7.6838058373
 30
0.0
 10
11.2396018567
 20
7.6973066998
 30
0.0
 10
11.2200917428
 20
7.7120797943
 30
0.0
 10
11.2015205261
 20
7.7280593214
 30
0.0
 10
11.183970855
 20
7.7451741295
 30
0.0
 10
11.1675208417
 20
7.7633480292
 30
0.0
 10
11.1522437171
 20
7.7825001303
 30
0.0
 10
11.1382075075
 20
7.8025451978
 30
0.0
 10
11.1254747339
 20
7.8233940298
 30
0.0
 10
11.1141021356
 20
7.8449538452
 30
0.0
 10
11.1041404178
 20
7.8671287122
 30
0.0
 10
11.0956340304
 20
7.8898198981
 30
0.0
 10
11.088620951
 20
7.9129265736
 30
0.0
 10
11.0831325991
 20
7.9363452561
 30
0.0
 10
11.0798462124
 20
7.9560578914
 30
0.0
 10
11.0780033913
 20
7.971878012
 30
0.0
 10
11.0766882957
 20
7.9876784675
 30
0.0
 10
11.0762905354
 20
7.9995593919
 30
0.0
 10
11.0762905354
 20
8.0074673032
 30
0.0
  0
SPLINE
  5
3F5
100
AcDbEntity
  8
0
100
AcDbSpline
 62
7
  6
CONTINUOUS
 70
0
 71
3
 72
42
 73
38
 74
0
 42
0.0000001
 43
0.0000001
 44
0.0000000001
 40
0.0
 40
0.0
 40
0.0
 40
0.0
 40
0.0300095244
 40
0.0450516821
 40
0.0601194639
 40
0.0903333788
 40
0.1206657909
 40
0.135881145
 40
0.1511289982
 40
0.1817206698
 40
0.212448646
 40
0.2433143228
 40
0.2743168053
 40
0.305452952
 40
0.3367174549
 40
0.3681029513
 40
0.3996001639
 40
0.4311980671
 40
0.4628840747
 40
0.4946442469
 40
0.5264635129
 40
0.5583259063
 40
0.5902148099
 40
0.6221132077
 40
0.6540039413
 40
0.6858699673
 40
0.7176946139
 40
0.7494618331
 40
0.7811564472
 40
0.8127643849
 40
0.8442729048
 40
0.8756708066
 40
0.906948614
 40
0.9380987641
 40
0.9536258808
 40
0.9691196229
 40
1.0
 40
1.0
 40
1.0
 40
1.0
 10
11.6064920337
 20
7.6136641178
 30
0.0
 10
11.5990375921
 20
7.6101761365
 30
0.0
 10
11.5876628569
 20
7.60532003
 30
0.0
 10
11.5721879097
 20
7.5996239803
 30
0.0
 10
11.5564756182
 20
7.5944357898
 30
0.0
 10
11.5364649429
 20
7.5889323643
 30
0.0
 10
11.5160919802
 20
7.5847695389
 30
0.0
 10
11.4996081566
 20
7.5822461952
 30
0.0
 10
11.4829795008
 20
7.5802594542
 30
0.0
 10
11.4620153874
 20
7.5787985552
 30
0.0
 10
11.436716522
 20
7.5786864349
 30
0.0
 10
11.4113503471
 20
7.5802132698
 30
0.0
 10
11.3860229881
 20
7.583372624
 30
0.0
 10
11.3608394998
 20
7.5881511741
 30
0.0
 10
11.3359045489
 20
7.5945289136
 30
0.0
 10
11.311321682
 20
7.6024792016
 30
0.0
 10
11.2871929819
 20
7.6119688859
 30
0.0
 10
11.263618626
 20
7.6229584407
 30
0.0
 10
11.2406964812
 20
7.6354021317
 30
0.0
 10
11.2185216994
 20
7.6492482066
 30
0.0
 10
11.1971863279
 20
7.6644391096
 30
0.0
 10
11.1767789298
 20
7.6809117193
 30
0.0
 10
11.1573842204
 20
7.6985976094
 30
0.0
 10
11.1390827184
 20
7.7174233315
 30
0.0
 10
11.121950414
 20
7.7373107172
 30
0.0
 10
11.106058456
 20
7.7581772009
 30
0.0
 10
11.0914728587
 20
7.7799361592
 30
0.0
 10
11.0782542289
 20
7.802497269
 30
0.0
 10
11.0664575164
 20
7.8257668735
 30
0.0
 10
11.0561317848
 20
7.8496483878
 30
0.0
 10
11.0473200146
 20
7.8740426219
 30
0.0
 10
11.0400588992
 20
7.8988484601
 30
0.0
 10
11.0343787882
 20
7.9239622706
 30
0.0
 10
11.0309787778
 20
7.9450849484
 30
0.0
 10
11.0290724618
 20
7.9620310607
 30
0.0
 10
11.0277120714
 20
7.9789549025
 30
0.0
 10
11.0273007468
 20
7.9916778568
 30
0.0
 10
11.0273007468
 20
8.0001467983
 30
0.0
  0
SPLINE
  5
3F6
100
AcDbEntity
  8
0
100
AcDbSpline
 62
7
  6
CONTINUOUS
 70
0
 71
3
 72
39
 73
35
 74
0
 42
0.0000001
 43
0.0000001
 44
0.0000000001
 40
0.0
 40
0.0
 40
0.0
 40
0.0
 40
0.0299424706
 40
0.059909318
 40
0.0899243245
 40
0.120010104
 40
0.1501875638
 40
0.1804754172
 40
0.2108897627
 40
0.2414437402
 40
0.2721472662
 40
0.3030068506
 40
0.3340255036
 40
0.3652027233
 40
0.3965345594
 40
0.4280137458
 40
0.459629903
 40
0.4913697971
 40
0.523217645
 40
0.5551554619
 40
0.5871634456
 40
0.6192203877
 40
0.6513041028
 40
0.6833918731
 40
0.7154609003
 40
0.7474887587
 40
0.7794538419
 40
0.8113358007
 40
0.8431159608
 40
0.874777714
 40
0.9063068772
 40
0.9376920832
 40
0.968924649
 40
1.0
 40
1.0
 40
1.0
 40
1.0
 10
9.0092150306
 20
6.9201927586
 30
0.0
 10
9.0010529133
 20
6.9123087691
 30
0.0
 10
8.984086851
 20
6.8971770862
 30
0.0
 10
8.9569045986
 20
6.8765628388
 30
0.0
 10
8.9281281171
 20
6.8581350376
 30
0.0
 10
8.8979181938
 20
6.8419970572
 30
0.0
 10
8.8664409027
 20
6.8282370999
 30
0.0
 10
8.8338699783
 20
6.8169307791
 30
0.0
 10
8.8003849096
 20
6.8081399394
 30
0.0
 10
8.7661701701
 20
6.8019125821
 30
0.0
 10
8.7314141349
 20
6.7982825714
 30
0.0
 10
8.6963080658
 20
6.7972693938
 30
0.0
 10
8.6610450362
 20
6.7988781512
 30
0.0
 10
8.6258188814
 20
6.8030995698
 30
0.0
 10
8.5908231541
 20
6.8099100735
 30
0.0
 10
8.5562500548
 20
6.8192718358
 30
0.0
 10
8.5222893968
 20
6.8311330818
 30
0.0
 10
8.4891275872
 20
6.8454283884
 30
0.0
 10
8.4569466283
 20
6.8620790486
 30
0.0
 10
8.4259230894
 20
6.8809934212
 30
0.0
 10
8.3962271812
 20
6.9020675117
 30
0.0
 10
8.3680218428
 20
6.9251855432
 30
0.0
 10
8.3414618672
 20
6.9502205845
 30
0.0
 10
8.3166929972
 20
6.9770351733
 30
0.0
 10
8.2938511856
 20
7.005482131
 30
0.0
 10
8.2730618655
 20
7.0354053613
 30
0.0
 10
8.2544392741
 20
7.0666406902
 30
0.0
 10
8.2380857505
 20
7.0990167159
 30
0.0
 10
8.2240912457
 20
7.1323557669
 30
0.0
 10
8.212532843
 20
7.1664749396
 30
0.0
 10
8.2034743081
 20
7.2011867981
 30
0.0
 10
8.1969657562
 20
7.2363013747
 30
0.0
 10
8.1930431561
 20
7.2716233608
 30
0.0
 10
8.1921645888
 20
7.2952467471
 30
0.0
 10
8.1921645888
 20
7.3070241171
 30
0.0
  0
SPLINE
  5
3F7
100
AcDbEntity
  8
0
100
AcDbSpline
 62
7
  6
CONTINUOUS
 70
0
 71
3
 72
39
 73
35
 74
0
 42
0.0000001
 43
0.0000001
 44
0.0000000001
 40
0.0
 40
0.0
 40
0.0
 40
0.0
 40
0.029934491
 40
0.0599008837
 40
0.0899221432
 40
0.1200199335
 40
0.1502141157
 40
0.1805222987
 40
0.2109594568
 40
0.2415376207
 40
0.2722656457
 40
0.3031490592
 40
0.3341899878
 40
0.3653871652
 40
0.3967360092
 40
0.4282287656
 40
0.4598547102
 40
0.4916004059
 40
0.5234500061
 40
0.5553855946
 40
0.5873875565
 40
0.6194349741
 40
0.6515060431
 40
0.6835784992
 40
0.7156300508
 40
0.7476388129
 40
0.7795837356
 40
0.8114450204
 40
0.8432045192
 40
0.8748461089
 40
0.9063560258
 40
0.9377232702
 40
0.9689393939
 40
1.0
 40
1.0
 40
1.0
 40
1.0
 10
9.0091153135
 20
6.920311317
 30
0.0
 10
9.0008312191
 20
6.9127289235
 30
0.0
 10
8.9836494379
 20
6.8982019807
 30
0.0
 10
8.9562307063
 20
6.8784913416
 30
0.0
 10
8.9272995898
 20
6.8609539637
 30
0.0
 10
8.8970143348
 20
6.845686163
 30
0.0
 10
8.8655379127
 20
6.8327695768
 30
0.0
 10
8.8330403742
 20
6.8222736645
 30
0.0
 10
8.7996970096
 20
6.8142545987
 30
0.0
 10
8.7656876245
 20
6.8087552049
 30
0.0
 10
8.7311955011
 20
6.8058047014
 30
0.0
 10
8.6964064309
 20
6.8054185586
 30
0.0
 10
8.6615077053
 20
6.8075983998
 30
0.0
 10
8.6266871114
 20
6.8123320779
 30
0.0
 10
8.5921319344
 20
6.8195937449
 30
0.0
 10
8.5580279698
 20
6.829344017
 30
0.0
 10
8.5245585255
 20
6.8415301421
 30
0.0
 10
8.4919034471
 20
6.8560863132
 30
0.0
 10
8.4602381775
 20
6.8729340566
 30
0.0
 10
8.429732828
 20
6.8919826456
 30
0.0
 10
8.4005512818
 20
6.9131295876
 30
0.0
 10
8.372850287
 20
6.9362611224
 30
0.0
 10
8.3467786542
 20
6.961252881
 30
0.0
 10
8.3224764694
 20
6.9879705461
 30
0.0
 10
8.3000743561
 20
7.0162705682
 30
0.0
 10
8.2796927619
 20
7.04600091
 30
0.0
 10
8.2614412894
 20
7.0770018413
 30
0.0
 10
8.2454181584
 20
7.1091068284
 30
0.0
 10
8.2317096709
 20
7.142143385
 30
0.0
 10
8.2203897711
 20
7.1759340657
 30
0.0
 10
8.2115195514
 20
7.2102971182
 30
0.0
 10
8.2051470789
 20
7.2450484256
 30
0.0
 10
8.2013068234
 20
7.2799987573
 30
0.0
 10
8.2004467916
 20
7.3033713685
 30
0.0
 10
8.2004467916
 20
7.3150241111
 30
0.0
  0
SPLINE
  5
3F8
100
AcDbEntity
  8
0
100
AcDbSpline
 62
7
  6
CONTINUOUS
 70
0
 71
3
 72
44
 73
40
 74
0
 42
0.0000001
 43
0.0000001
 44
0.0000000001
 40
0.0
 40
0.0
 40
0.0
 40
0.0
 40
0.0149713347
 40
0.029960997
 40
0.0449710739
 40
0.0600035601
 40
0.0901384861
 40
0.1203840777
 40
0.1355543302
 40
0.1507563562
 40
0.181255331
 40
0.2118922373
 40
0.2426711917
 40
0.2735937149
 40
0.3046587405
 40
0.3358626689
 40
0.3671994643
 40
0.3986607905
 40
0.4302361809
 40
0.4619132392
 40
0.4936778664
 40
0.5255145091
 40
0.5574064268
 40
0.5893359734
 40
0.6212848881
 40
0.6532345954
 40
0.6851665064
 40
0.7170623222
 40
0.7329931055
 40
0.7489082916
 40
0.7806796683
 40
0.8123647466
 40
0.843949292
 40
0.8754207611
 40
0.9067684918
 40
0.9379840299
 40
0.9535420448
 40
0.9690652179
 40
1.0
 40
1.0
 40
1.0
 40
1.0
 10
11.5993630435
 20
7.5941540654
 30
0.0
 10
11.5956756895
 20
7.5920074783
 30
0.0
 10
11.5882190423
 20
7.587843109
 30
0.0
 10
11.5768117056
 20
7.5819955313
 30
0.0
 10
11.5651877799
 20
7.5765493595
 30
0.0
 10
11.5494071284
 20
7.5698267879
 30
0.0
 10
11.5291981157
 20
7.5624570308
 30
0.0
 10
11.5084846597
 20
7.5565121125
 30
0.0
 10
11.4916507541
 20
7.5526179549
 30
0.0
 10
11.4746211628
 20
7.5492957141
 30
0.0
 10
11.4530625933
 20
7.5462395005
 30
0.0
 10
11.4269167403
 20
7.5443438442
 30
0.0
 10
11.400581486
 20
7.5442235829
 30
0.0
 10
11.3741762453
 20
7.5458792048
 30
0.0
 10
11.3478197157
 20
7.5493029895
 30
0.0
 10
11.3216306024
 20
7.5544793284
 30
0.0
 10
11.2957267506
 20
7.5613847265
 30
0.0
 10
11.2702247121
 20
7.5699879328
 30
0.0
 10
11.2452392025
 20
7.5802500796
 30
0.0
 10
11.2208825975
 20
7.5921248613
 30
0.0
 10
11.1972644323
 20
7.6055587427
 30
0.0
 10
11.1744909134
 20
7.6204912019
 30
0.0
 10
11.1526644495
 20
7.6368549965
 30
0.0
 10
11.1318831844
 20
7.654576483
 30
0.0
 10
11.1122406009
 20
7.6735758785
 30
0.0
 10
11.0938249518
 20
7.6937678679
 30
0.0
 10
11.0767194337
 20
7.7150610496
 30
0.0
 10
11.0636141148
 20
7.7336528942
 30
0.0
 10
11.0538591998
 20
7.74898028
 30
0.0
 10
11.0446104166
 20
7.7645770473
 30
0.0
 10
11.03399929
 20
7.7845723775
 30
0.0
 10
11.0228391611
 20
7.8092716277
 30
0.0
 10
11.0133082676
 20
7.8345535069
 30
0.0
 10
11.0054499677
 20
7.8603039217
 30
0.0
 10
10.9992997344
 20
7.8864064914
 30
0.0
 10
10.995616825
 20
7.9083810368
 30
0.0
 10
10.9935516124
 20
7.9260173364
 30
0.0
 10
10.9920778096
 20
7.9436319222
 30
0.0
 10
10.9916320264
 20
7.9568773904
 30
0.0
 10
10.9916320264
 20
7.9656934581
 30
0.0
  0
SPLINE
  5
3F9
100
AcDbEntity
  8
0
100
AcDbSpline
 62
7
  6
CONTINUOUS
 70
0
 71
3
 72
39
 73
35
 74
0
 42
0.0000001
 43
0.0000001
 44
0.0000000001
 40
0.0
 40
0.0
 40
0.0
 40
0.0
 40
0.0307265246
 40
0.0612836917
 40
0.0916944147
 40
0.1219869321
 40
0.1521938576
 40
0.1823510088
 40
0.212496076
 40
0.2426672092
 40
0.2729015709
 40
0.3032339494
 40
0.3336954773
 40
0.3643125234
 40
0.3951058088
 40
0.4260897478
 40
0.4572720576
 40
0.4886536225
 40
0.5202285792
 40
0.5519846451
 40
0.5839036301
 40
0.6159621046
 40
0.6481322227
 40
0.6803826419
 40
0.7126795226
 40
0.7449875917
 40
0.7772712324
 40
0.8094955799
 40
0.8416276023
 40
0.8736371456
 40
0.9054979123
 40
0.9371883589
 40
0.9686921348
 40
1.0
 40
1.0
 40
1.0
 40
1.0
 10
8.96909534
 20
7.2070026218
 30
0.0
 10
8.9674154768
 20
7.1981106731
 30
0.0
 10
8.9632238048
 20
7.1805223541
 30
0.0
 10
8.9544632977
 20
7.1549358056
 30
0.0
 10
8.9433203035
 20
7.1304302875
 30
0.0
 10
8.9298901388
 20
7.1072189245
 30
0.0
 10
8.9142871572
 20
7.085499977
 30
0.0
 10
8.8966448759
 20
7.0654599103
 30
0.0
 10
8.8771142983
 20
7.0472705807
 30
0.0
 10
8.8558628611
 20
7.0310878914
 30
0.0
 10
8.8330728799
 20
7.0170502599
 30
0.0
 10
8.8089397668
 20
7.00527766
 30
0.0
 10
8.7836704436
 20
6.9958703286
 30
0.0
 10
8.7574813928
 20
6.9889080321
 30
0.0
 10
8.7305967227
 20
6.9844496229
 30
0.0
 10
8.7032462928
 20
6.9825322818
 30
0.0
 10
8.675663661
 20
6.9831714995
 30
0.0
 10
8.6480841435
 20
6.9863610819
 30
0.0
 10
8.6207428025
 20
6.9920729585
 30
0.0
 10
8.5938724917
 20
7.0002577737
 30
0.0
 10
8.5677019493
 20
7.010845275
 30
0.0
 10
8.5424537948
 20
7.0237447231
 30
0.0
 10
8.5183427934
 20
7.0388459744
 30
0.0
 10
8.4955740271
 20
7.0560202574
 30
0.0
 10
8.4743410867
 20
7.0751211771
 30
0.0
 10
8.4548246449
 20
7.0959861808
 30
0.0
 10
8.4371908011
 20
7.1184377227
 30
0.0
 10
8.4215896597
 20
7.1422847851
 30
0.0
 10
8.4081542785
 20
7.1673245812
 30
0.0
 10
8.3969993048
 20
7.1933441761
 30
0.0
 10
8.3882200766
 20
7.2201219885
 30
0.0
 10
8.3818920468
 20
7.2474309491
 30
0.0
 10
8.378069562
 20
7.2750354926
 30
0.0
 10
8.3772112283
 20
7.2935450087
 30
0.0
 10
8.3772112283
 20
7.3027654558
 30
0.0
  0
SPLINE
  5
3FA
100
AcDbEntity
  8
0
100
AcDbSpline
 62
7
  6
CONTINUOUS
 70
0
 71
3
 72
50
 73
46
 74
0
 42
0.0000001
 43
0.0000001
 44
0.0000000001
 40
0.0
 40
0.0
 40
0.0
 40
0.0
 40
0.0153300906
 40
0.0306191134
 40
0.0458697017
 40
0.0610848373
 40
0.0762678199
 40
0.0914222326
 40
0.1065519175
 40
0.1216609337
 40
0.13675353
 40
0.1518341065
 40
0.1669071674
 40
0.1819772882
 40
0.1970490738
 40
0.2121271083
 40
0.227215922
 40
0.2423199495
 40
0.2574434816
 40
0.2725906361
 40
0.2877653204
 40
0.3029711891
 40
0.318211623
 40
0.3334896998
 40
0.3641609619
 40
0.39501118
 40
0.4260518678
 40
0.4572881439
 40
0.4887186827
 40
0.5203358674
 40
0.5521261471
 40
0.5840705627
 40
0.6161454071
 40
0.6483230047
 40
0.6805725911
 40
0.7128612533
 40
0.7451549163
 40
0.7774193574
 40
0.8096212202
 40
0.8417290151
 40
0.8737140733
 40
0.9055514448
 40
0.9372207629
 40
0.9687064844
 40
1.0
 40
1.0
 40
1.0
 40
1.0
 10
8.9718620201
 20
7.2240244457
 30
0.0
 10
8.9708676807
 20
7.2200387036
 30
0.0
 10
8.96869522
 20
7.2121230482
 30
0.0
 10
8.9648864516
 20
7.2004320881
 30
0.0
 10
8.9605396897
 20
7.1889629125
 30
0.0
 10
8.9556639681
 20
7.1777394346
 30
0.0
 10
8.9502691799
 20
7.1667846855
 30
0.0
 10
8.9443664808
 20
7.1561211864
 30
0.0
 10
8.9379679992
 20
7.1457708542
 30
0.0
 10
8.9310868023
 20
7.1357550327
 30
0.0
 10
8.9237371155
 20
7.1260942688
 30
0.0
 10
8.9159340256
 20
7.1168084439
 30
0.0
 10
8.9076935224
 20
7.1079167082
 30
0.0
 10
8.8990326293
 20
7.0994372789
 30
0.0
 10
8.8899691178
 20
7.0913876291
 30
0.0
 10
8.8805216055
 20
7.0837843464
 30
0.0
 10
8.8707095864
 20
7.0766429849
 30
0.0
 10
8.8605531955
 20
7.0699782853
 30
0.0
 10
8.8500733233
 20
7.0638039521
 30
0.0
 10
8.8392915725
 20
7.0581325979
 30
0.0
 10
8.8282300486
 20
7.0529759512
 30
0.0
 10
8.8169116098
 20
7.0483445881
 30
0.0
 10
8.8053592095
 20
7.0442479023
 30
0.0
 10
8.7896584526
 20
7.0395044366
 30
0.0
 10
8.7695544544
 20
7.0349543187
 30
0.0
 10
8.7449238395
 20
7.0317520009
 30
0.0
 10
8.7199512957
 20
7.0308236462
 30
0.0
 10
8.6948433834
 20
7.0321766452
 30
0.0
 10
8.6698058192
 20
7.0357991299
 30
0.0
 10
8.6450440503
 20
7.0416607403
 30
0.0
 10
8.6207609813
 20
7.0497127969
 30
0.0
 10
8.5971555481
 20
7.0598888573
 30
0.0
 10
8.5744210536
 20
7.0721051455
 30
0.0
 10
8.5527435916
 20
7.0862612203
 30
0.0
 10
8.5323006209
 20
7.1022409256
 30
0.0
 10
8.5132595403
 20
7.1199132861
 30
0.0
 10
8.4957762343
 20
7.1391334598
 30
0.0
 10
8.4799939179
 20
7.1597440371
 30
0.0
 10
8.4660420154
 20
7.1815763094
 30
0.0
 10
8.4540349829
 20
7.2044515106
 30
0.0
 10
8.4440714348
 20
7.2281824016
 30
0.0
 10
8.4362334102
 20
7.2525744923
 30
0.0
 10
8.4305857061
 20
7.277428651
 30
0.0
 10
8.4271749673
 20
7.3025385368
 30
0.0
 10
8.4264092962
 20
7.3193706352
 30
0.0
 10
8.4264092962
 20
7.3277561475
 30
0.0
  0
SPLINE
  5
3FB
100
AcDbEntity
  8
0
100
AcDbSpline
 62
7
  6
CONTINUOUS
 70
0
 71
3
 72
43
 73
39
 74
0
 42
0.0000001
 43
0.0000001
 44
0.0000000001
 40
0.0
 40
0.0
 40
0.0
 40
0.0
 40
0.0299998116
 40
0.0450363858
 40
0.0600981587
 40
0.0902989779
 40
0.1206173536
 40
0.135825522
 40
0.1510661319
 40
0.1816433201
 40
0.212357249
 40
0.2432097023
 40
0.2742001252
 40
0.3053256646
 40
0.3365812461
 40
0.367959684
 40
0.3994518216
 40
0.4310466979
 40
0.4627317384
 40
0.4944929646
 40
0.5263152208
 40
0.5581824142
 40
0.5900777654
 40
0.621984066
 40
0.6538839413
 40
0.6857601141
 40
0.7175956681
 40
0.7334949359
 40
0.7493780072
 40
0.7810843073
 40
0.8127039613
 40
0.8442240059
 40
0.875633046
 40
0.9069214197
 40
0.9380814642
 40
0.9536132545
 40
0.9691113916
 40
1.0
 40
1.0
 40
1.0
 40
1.0
 10
11.5815458183
 20
7.5561547483
 30
0.0
 10
11.5736676
 20
7.5523372401
 30
0.0
 10
11.5616381941
 20
7.5470109162
 30
0.0
 10
11.5452577286
 20
7.540739517
 30
0.0
 10
11.5286173013
 20
7.5350094757
 30
0.0
 10
11.5074077329
 20
7.5288943689
 30
0.0
 10
11.4857932341
 20
7.524211355
 30
0.0
 10
11.4682936019
 20
7.5213275439
 30
0.0
 10
11.450632935
 20
7.5190171072
 30
0.0
 10
11.4283543014
 20
7.5172228288
 30
0.0
 10
11.4014496199
 20
7.5168266685
 30
0.0
 10
11.3744553166
 20
7.5181861661
 30
0.0
 10
11.3474857436
 20
7.521295506
 30
0.0
 10
11.3206541668
 20
7.5261413902
 30
0.0
 10
11.2940734962
 20
7.5327032657
 30
0.0
 10
11.2678554915
 20
7.5409533705
 30
0.0
 10
11.2421103842
 20
7.5508568658
 30
0.0
 10
11.2169463961
 20
7.5623719811
 30
0.0
 10
11.1924692952
 20
7.5754501927
 30
0.0
 10
11.1687819546
 20
7.5900364269
 30
0.0
 10
11.1459839243
 20
7.6060692928
 30
0.0
 10
11.124171019
 20
7.6234813348
 30
0.0
 10
11.1034349095
 20
7.6421993318
 30
0.0
 10
11.0838627787
 20
7.6621445388
 30
0.0
 10
11.0655368146
 20
7.6832332565
 30
0.0
 10
11.0485344037
 20
7.705376281
 30
0.0
 10
11.0355214087
 20
7.724640207
 30
0.0
 10
11.0258419367
 20
7.7404846991
 30
0.0
 10
11.0166690178
 20
7.7565843214
 30
0.0
 10
11.0061515355
 20
7.7771849586
 30
0.0
 10
10.9950975498
 20
7.8025779594
 30
0.0
 10
10.9856630662
 20
7.8285245057
 30
0.0
 10
10.9778881902
 20
7.8549151534
 30
0.0
 10
10.971805725
 20
7.8816384302
 30
0.0
 10
10.9681646614
 20
7.9041178805
 30
0.0
 10
10.9661231456
 20
7.9221535079
 30
0.0
 10
10.9646662707
 20
7.9401656503
 30
0.0
 10
10.9642257508
 20
7.9537072525
 30
0.0
 10
10.9642257508
 20
7.9627210271
 30
0.0
  0
SPLINE
  5
3FC
100
AcDbEntity
  8
0
100
AcDbSpline
 62
7
  6
CONTINUOUS
 70
0
 71
3
 72
42
 73
38
 74
0
 42
0.0000001
 43
0.0000001
 44
0.0000000001
 40
0.0
 40
0.0
 40
0.0
 40
0.0
 40
0.0299419655
 40
0.0449235324
 40
0.0599142042
 40
0.0899287041
 40
0.1200139759
 40
0.1350926596
 40
0.1501966997
 40
0.180484041
 40
0.210897873
 40
0.2414513349
 40
0.2721543418
 40
0.3030134042
 40
0.3340315332
 40
0.3652082265
 40
0.3965395325
 40
0.4280181861
 40
0.4596338091
 40
0.4913731668
 40
0.523220476
 40
0.5551577527
 40
0.5871651956
 40
0.6192215962
 40
0.6513047693
 40
0.6833919978
 40
0.7154604838
 40
0.7474878019
 40
0.7794523464
 40
0.8113337686
 40
0.8431133915
 40
0.8747746163
 40
0.90630324
 40
0.9376879137
 40
0.9533257948
 40
0.9689252601
 40
1.0
 40
1.0
 40
1.0
 40
1.0
 10
8.888204309
 20
7.1335083567
 30
0.0
 10
8.8839822514
 20
7.1294301367
 30
0.0
 10
8.8774002883
 20
7.1235599264
 30
0.0
 10
8.8681823907
 20
7.1162762689
 30
0.0
 10
8.8586709456
 20
7.1093550543
 30
0.0
 10
8.8462600667
 20
7.1014072511
 30
0.0
 10
8.8332457543
 20
7.0944552143
 30
0.0
 10
8.8225123146
 20
7.0895095224
 30
0.0
 10
8.8115571507
 20
7.0849721005
 30
0.0
 10
8.7975021667
 20
7.0800930803
 30
0.0
 10
8.7801815212
 20
7.0755459389
 30
0.0
 10
8.7624829293
 20
7.0723246175
 30
0.0
 10
8.7445044744
 20
7.0704468879
 30
0.0
 10
8.7263449164
 20
7.069922771
 30
0.0
 10
8.708104175
 20
7.0707549342
 30
0.0
 10
8.6898825058
 20
7.0729385704
 30
0.0
 10
8.6717800293
 20
7.0764614669
 30
0.0
 10
8.6538961671
 20
7.0813040719
 30
0.0
 10
8.6363291083
 20
7.0874396108
 30
0.0
 10
8.6191752769
 20
7.0948342369
 30
0.0
 10
8.6025288102
 20
7.1034472201
 30
0.0
 10
8.5864810495
 20
7.1132311713
 30
0.0
 10
8.5711200454
 20
7.1241323023
 30
0.0
 10
8.556530081
 20
7.1360907197
 30
0.0
 10
8.5427912146
 20
7.1490407514
 30
0.0
 10
8.5299788459
 20
7.1629113042
 30
0.0
 10
8.518163306
 20
7.1776262498
 30
0.0
 10
8.5074094755
 20
7.1931048397
 30
0.0
 10
8.4977764311
 20
7.2092621385
 30
0.0
 10
8.489317124
 20
7.2260095034
 30
0.0
 10
8.4820780927
 20
7.2432549951
 30
0.0
 10
8.4760991933
 20
7.2609041317
 30
0.0
 10
8.4714134552
 20
7.2788594541
 30
0.0
 10
8.468604251
 20
7.2940156939
 30
0.0
 10
8.4670283708
 20
7.3061935493
 30
0.0
 10
8.4659037038
 20
7.3183597515
 30
0.0
 10
8.4655631654
 20
7.3275147368
 30
0.0
 10
8.4655631654
 20
7.3336068788
 30
0.0
  0
SPLINE
  5
3FD
100
AcDbEntity
  8
0
100
AcDbSpline
 62
7
  6
CONTINUOUS
 70
0
 71
3
 72
39
 73
35
 74
0
 42
0.0000001
 43
0.0000001
 44
0.0000000001
 40
0.0
 40
0.0
 40
0.0
 40
0.0
 40
0.0300584522
 40
0.0602204414
 40
0.0904959388
 40
0.1208930308
 40
0.1514178082
 40
0.1820742919
 40
0.2128643945
 40
0.2437879168
 40
0.2748425778
 40
0.3060240772
 40
0.3373261859
 40
0.3687408625
 40
0.4002583915
 40
0.4318675435
 40
0.4635557515
 40
0.4953093036
 40
0.527113547
 40
0.5589531042
 40
0.5908120953
 40
0.6226743648
 40
0.6545237108
 40
0.686344115
 40
0.7181199704
 40
0.7498363053
 40
0.7814790019
 40
0.8130350033
 40
0.8444925283
 40
0.8758411841
 40
0.9070723841
 40
0.9381787244
 40
0.9691560984
 40
1.0
 40
1.0
 40
1.0
 40
1.0
 10
8.9374597387
 20
7.2045680151
 30
0.0
 10
8.9327950077
 20
7.2027161373
 30
0.0
 10
8.9233239387
 20
7.1993138481
 30
0.0
 10
8.908789573
 20
7.1951451323
 30
0.0
 10
8.8939591013
 20
7.1919181978
 30
0.0
 10
8.8788917225
 20
7.1896459546
 30
0.0
 10
8.8636465203
 20
7.1883371603
 30
0.0
 10
8.8482835348
 20
7.1879968856
 30
0.0
 10
8.8328631754
 20
7.1886263645
 30
0.0
 10
8.8174460797
 20
7.1902230306
 30
0.0
 10
8.8020928497
 20
7.1927805102
 30
0.0
 10
8.7868638218
 20
7.1962886577
 30
0.0
 10
8.7718188298
 20
7.2007336028
 30
0.0
 10
8.7570169735
 20
7.2060978047
 30
0.0
 10
8.7425163889
 20
7.2123601234
 30
0.0
 10
8.728374023
 20
7.2194959022
 30
0.0
 10
8.7146454124
 20
7.2274770652
 30
0.0
 10
8.7013844687
 20
7.236272228
 30
0.0
 10
8.6886432645
 20
7.2458468146
 30
0.0
 10
8.6764718289
 20
7.2561631926
 30
0.0
 10
8.6649179572
 20
7.2671808275
 30
0.0
 10
8.6540270244
 20
7.2788564393
 30
0.0
 10
8.6438418085
 20
7.2911441714
 30
0.0
 10
8.6344023244
 20
7.3039957691
 30
0.0
 10
8.6257456676
 20
7.3173607668
 30
0.0
 10
8.61790587
 20
7.3311866852
 30
0.0
 10
8.6109137659
 20
7.3454192328
 30
0.0
 10
8.6047968567
 20
7.3600025172
 30
0.0
 10
8.5995792356
 20
7.3748792591
 30
0.0
 10
8.595281428
 20
7.389991055
 30
0.0
 10
8.5919204653
 20
7.4052784467
 30
0.0
 10
8.5895094984
 20
7.4206816847
 30
0.0
 10
8.5880582783
 20
7.4361393207
 30
0.0
 10
8.5877336761
 20
7.4464645092
 30
0.0
 10
8.5877336761
 20
7.4516145373
 30
0.0
  0
SPLINE
  5
3FE
100
AcDbEntity
  8
0
100
AcDbSpline
 62
7
  6
CONTINUOUS
 70
0
 71
3
 72
39
 73
35
 74
0
 42
0.0000001
 43
0.0000001
 44
0.0000000001
 40
0.0
 40
0.0
 40
0.0
 40
0.0
 40
0.029942471
 40
0.0599093183
 40
0.0899243244
 40
0.1200101034
 40
0.1501875624
 40
0.1804754148
 40
0.2108897596
 40
0.2414437361
 40
0.2721472598
 40
0.3030068424
 40
0.3340254951
 40
0.3652027149
 40
0.3965345496
 40
0.4280137343
 40
0.459629891
 40
0.4913697854
 40
0.5232176334
 40
0.5551554501
 40
0.5871634341
 40
0.6192203766
 40
0.6513040925
 40
0.6833918636
 40
0.7154608915
 40
0.7474887505
 40
0.7794538351
 40
0.8113357956
 40
0.8431159562
 40
0.8747777121
 40
0.9063068677
 40
0.9376920929
 40
0.9689246489
 40
1.0
 40
1.0
 40
1.0
 40
1.0
 10
11.5105247855
 20
7.4613690787
 30
0.0
 10
11.5033829191
 20
7.4544705945
 30
0.0
 10
11.4885376498
 20
7.4412303197
 30
0.0
 10
11.4647531868
 20
7.4231928148
 30
0.0
 10
11.4395737771
 20
7.4070684432
 30
0.0
 10
11.413140096
 20
7.392947675
 30
0.0
 10
11.3855974696
 20
7.3809076685
 30
0.0
 10
11.357097907
 20
7.3710146025
 30
0.0
 10
11.3277984629
 20
7.3633225933
 30
0.0
 10
11.2978605559
 20
7.3578736328
 30
0.0
 10
11.2674490169
 20
7.3546973216
 30
0.0
 10
11.2367311926
 20
7.3538107471
 30
0.0
 10
11.2058760252
 20
7.3552184
 30
0.0
 10
11.1750531246
 20
7.3589121404
 30
0.0
 10
11.1444318426
 20
7.3648713009
 30
0.0
 10
11.114180356
 20
7.3730628092
 30
0.0
 10
11.0844647564
 20
7.3834413801
 30
0.0
 10
11.0554481563
 20
7.3959497759
 30
0.0
 10
11.0272897944
 20
7.4105190944
 30
0.0
 10
11.0001441731
 20
7.4270691617
 30
0.0
 10
10.9741602322
 20
7.4455089899
 30
0.0
 10
10.9494805407
 20
7.4657372687
 30
0.0
 10
10.9262405276
 20
7.4876429181
 30
0.0
 10
10.9045677456
 20
7.5111056884
 30
0.0
 10
10.884581153
 20
7.5359967928
 30
0.0
 10
10.8663904919
 20
7.5621796356
 30
0.0
 10
10.8500956921
 20
7.589510549
 30
0.0
 10
10.8357863271
 20
7.6178395756
 30
0.0
 10
10.8235411283
 20
7.6470112625
 30
0.0
 10
10.8134275413
 20
7.676865559
 30
0.0
 10
10.8055013029
 20
7.707238451
 30
0.0
 10
10.7998063111
 20
7.7379637211
 30
0.0
 10
10.7963740255
 20
7.7688704771
 30
0.0
 10
10.7956052821
 20
7.7895409478
 30
0.0
 10
10.7956052821
 20
7.7998461519
 30
0.0
  0
SPLINE
  5
3FF
100
AcDbEntity
  8
0
100
AcDbSpline
 62
7
  6
CONTINUOUS
 70
0
 71
3
 72
23
 73
19
 74
0
 42
0.0000001
 43
0.0000001
 44
0.0000000001
 40
0.0
 40
0.0
 40
0.0
 40
0.0
 40
0.0616917607
 40
0.1234138634
 40
0.1851856868
 40
0.2470261313
 40
0.3089534417
 40
0.3709850432
 40
0.4331373804
 40
0.4954257626
 40
0.5578642211
 40
0.620465421
 40
0.6832404743
 40
0.7461990023
 40
0.8093490644
 40
0.8726958696
 40
0.9362468281
 40
1.0
 40
1.0
 40
1.0
 40
1.0
 10
8.3256952509
 20
7.6278312573
 30
0.0
 10
8.3207186866
 20
7.6227587632
 30
0.0
 10
8.3110140053
 20
7.6123615787
 30
0.0
 10
8.2972469087
 20
7.5960571783
 30
0.0
 10
8.2842956452
 20
7.5790752804
 30
0.0
 10
8.272188656
 20
7.5614530329
 30
0.0
 10
8.2609519014
 20
7.5432283619
 30
0.0
 10
8.2506096312
 20
7.5244406514
 30
0.0
 10
8.2411841295
 20
7.5051304428
 30
0.0
 10
8.232695737
 20
7.4853394043
 30
0.0
 10
8.2251627214
 20
7.4651102548
 30
0.0
 10
8.218601281
 20
7.4444866574
 30
0.0
 10
8.2130255214
 20
7.4235131129
 30
0.0
 10
8.2084474446
 20
7.402234832
 30
0.0
 10
8.2048769548
 20
7.3806978421
 30
0.0
 10
8.2023215068
 20
7.3589482093
 30
0.0
 10
8.2007868435
 20
7.3370337315
 30
0.0
 10
8.2004467916
 20
7.3223676397
 30
0.0
 10
8.2004467916
 20
7.3150241111
 30
0.0
  0
SPLINE
  5
400
100
AcDbEntity
  8
0
100
AcDbSpline
 62
7
  6
CONTINUOUS
 70
0
 71
3
 72
23
 73
19
 74
0
 42
0.0000001
 43
0.0000001
 44
0.0000000001
 40
0.0
 40
0.0
 40
0.0
 40
0.0
 40
0.0630509762
 40
0.1257811295
 40
0.1882284312
 40
0.2504394748
 40
0.3124681531
 40
0.3743740475
 40
0.4362205971
 40
0.4980731146
 40
0.5599967253
 40
0.6220543092
 40
0.6843045418
 40
0.746800099
 40
0.8095860805
 40
0.872698938
 40
0.9361643615
 40
1.0
 40
1.0
 40
1.0
 40
1.0
 10
8.6108344227
 20
7.5779049122
 30
0.0
 10
8.6026543447
 20
7.5766514262
 30
0.0
 10
8.5864347967
 20
7.5734437821
 30
0.0
 10
8.5626819129
 20
7.5665402695
 30
0.0
 10
8.5397320556
 20
7.5576052166
 30
0.0
 10
8.5177518899
 20
7.546702412
 30
0.0
 10
8.4968981809
 20
7.5339094347
 30
0.0
 10
8.4773204698
 20
7.5193176477
 30
0.0
 10
8.4591589577
 20
7.5030313626
 30
0.0
 10
8.4425437385
 20
7.4851671241
 30
0.0
 10
8.4275937198
 20
7.4658528799
 30
0.0
 10
8.4144157422
 20
7.4452270214
 30
0.0
 10
8.4031038529
 20
7.423437318
 30
0.0
 10
8.3937386439
 20
7.4006397578
 30
0.0
 10
8.3863866423
 20
7.3769976495
 30
0.0
 10
8.3810999328
 20
7.3526795426
 30
0.0
 10
8.377915582
 20
7.3278614412
 30
0.0
 10
8.3772112283
 20
7.3111440048
 30
0.0
 10
8.3772112283
 20
7.3027654558
 30
0.0
  0
SPLINE
  5
401
100
AcDbEntity
  8
0
100
AcDbSpline
 62
7
  6
CONTINUOUS
 70
0
 71
3
 72
23
 73
19
 74
0
 42
0.0000001
 43
0.0000001
 44
0.0000000001
 40
0.0
 40
0.0
 40
0.0
 40
0.0
 40
0.0628597302
 40
0.1254348649
 40
0.1877652632
 40
0.2498976712
 40
0.3118844691
 40
0.373782215
 40
0.4356500369
 40
0.4975479283
 40
0.5595350131
 40
0.621667841
 40
0.6839987791
 40
0.7465745683
 40
0.8094349921
 40
0.8726122375
 40
0.9361287109
 40
1.0
 40
1.0
 40
1.0
 40
1.0
 10
8.62734585
 20
7.5799525575
 30
0.0
 10
8.6201941616
 20
7.5784123417
 30
0.0
 10
8.6060439097
 20
7.5747422311
 30
0.0
 10
8.5854055058
 20
7.5674850082
 30
0.0
 10
8.5655337032
 20
7.5585347298
 30
0.0
 10
8.5465606768
 20
7.5479501249
 30
0.0
 10
8.5286102889
 20
7.5358001991
 30
0.0
 10
8.5118003673
 20
7.5221644518
 30
0.0
 10
8.4962410766
 20
7.5071321616
 30
0.0
 10
8.4820343879
 20
7.4908018382
 30
0.0
 10
8.4692733276
 20
7.4732805429
 30
0.0
 10
8.4580413734
 20
7.4546831561
 30
0.0
 10
8.4484118835
 20
7.4351316145
 30
0.0
 10
8.4404476292
 20
7.4147540276
 30
0.0
 10
8.4342003609
 20
7.3936839908
 30
0.0
 10
8.4297106513
 20
7.3720589813
 30
0.0
 10
8.427007317
 20
7.3500222609
 30
0.0
 10
8.4264092962
 20
7.3351895356
 30
0.0
 10
8.4264092962
 20
7.3277561475
 30
0.0
  0
SPLINE
  5
402
100
AcDbEntity
  8
0
100
AcDbSpline
 62
7
  6
CONTINUOUS
 70
0
 71
3
 72
21
 73
17
 74
0
 42
0.0000001
 43
0.0000001
 44
0.0000000001
 40
0.0
 40
0.0
 40
0.0
 40
0.0
 40
0.0617147819
 40
0.1234506692
 40
0.185228552
 40
0.2470689061
 40
0.3089915516
 40
0.3710154745
 40
0.4331586551
 40
0.4954378585
 40
0.5578685076
 40
0.6204644887
 40
0.6832380492
 40
0.7462000649
 40
0.8726823101
 40
1.0
 40
1.0
 40
1.0
 40
1.0
 10
8.5345782965
 20
7.4996089225
 30
0.0
 10
8.5318455973
 20
7.4969693213
 30
0.0
 10
8.526514077
 20
7.4915475588
 30
0.0
 10
8.518944266
 20
7.4830128374
 30
0.0
 10
8.5118177592
 20
7.4740943352
 30
0.0
 10
8.5051513073
 20
7.4648128676
 30
0.0
 10
8.4989602425
 20
7.4551897503
 30
0.0
 10
8.4932587826
 20
7.4452472507
 30
0.0
 10
8.4880600758
 20
7.4350082821
 30
0.0
 10
8.4833761484
 20
7.4244964466
 30
0.0
 10
8.4792177063
 20
7.4137360046
 30
0.0
 10
8.4755943365
 20
7.4027518428
 30
0.0
 10
8.4725143929
 20
7.3915689698
 30
0.0
 10
8.4691370687
 20
7.3764078212
 30
0.0
 10
8.4663113576
 20
7.3570797942
 30
0.0
 10
8.4655631654
 20
7.341444965
 30
0.0
 10
8.4655631654
 20
7.3336068788
 30
0.0
  0
SPLINE
  5
403
100
AcDbEntity
  8
0
100
AcDbSpline
 62
7
  6
CONTINUOUS
 70
0
 71
3
 72
13
 73
9
 74
0
 42
0.0000001
 43
0.0000001
 44
0.0000000001
 40
0.0
 40
0.0
 40
0.0
 40
0.0
 40
0.1236904819
 40
0.2477152969
 40
0.3721021503
 40
0.4968756251
 40
0.7475714771
 40
1.0
 40
1.0
 40
1.0
 40
1.0
 10
8.6073865492
 20
7.5465647206
 30
0.0
 10
8.6057691335
 20
7.5428786381
 30
0.0
 10
8.6027249322
 20
7.5354091801
 30
0.0
 10
8.5987496402
 20
7.5239652166
 30
0.0
 10
8.5953688321
 20
7.5122944756
 30
0.0
 10
8.5916600619
 20
7.4964494113
 30
0.0
 10
8.5885555232
 20
7.4762145318
 30
0.0
 10
8.5877336761
 20
7.4598294517
 30
0.0
 10
8.5877336761
 20
7.4516145373
 30
0.0
  0
SPLINE
  5
404
100
AcDbEntity
  8
0
100
AcDbSpline
 62
7
  6
CONTINUOUS
 70
0
 71
3
 72
39
 73
35
 74
0
 42
0.0000001
 43
0.0000001
 44
0.0000000001
 40
0.0
 40
0.0
 40
0.0
 40
0.0
 40
0.0300136697
 40
0.0601241733
 40
0.090343468
 40
0.1206815937
 40
0.1511465202
 40
0.1817440348
 40
0.2124776726
 40
0.2433486858
 40
0.2743560535
 40
0.3054965281
 40
0.3367647158
 40
0.3681531887
 40
0.3996526256
 40
0.4312519768
 40
0.4629386531
 40
0.4946987305
 40
0.5265171715
 40
0.5583780586
 40
0.5902648369
 40
0.6221605638
 40
0.6540481627
 40
0.6859106781
 40
0.7177315293
 40
0.7494947614
 40
0.7811852893
 40
0.8127891278
 40
0.8442936309
 40
0.8756876325
 40
0.9069618489
 40
0.938108418
 40
0.969122616
 40
1.0
 40
1.0
 40
1.0
 40
1.0
 10
8.9440562479
 20
7.2213481405
 30
0.0
 10
8.9396227446
 20
7.2193014066
 30
0.0
 10
8.9305988616
 20
7.215502526
 30
0.0
 10
8.9166873983
 20
7.2107242498
 30
0.0
 10
8.9024352319
 20
7.2068759685
 30
0.0
 10
8.8879022328
 20
7.2039739093
 30
0.0
 10
8.873148391
 20
7.2020298781
 30
0.0
 10
8.8582348631
 20
7.2010518409
 30
0.0
 10
8.8432233703
 20
7.2010437271
 30
0.0
 10
8.8281760369
 20
7.2020054639
 30
0.0
 10
8.8131551103
 20
7.2039329674
 30
0.0
 10
8.7982227118
 20
7.206818167
 30
0.0
 10
8.7834405807
 20
7.2106490403
 30
0.0
 10
8.7688698222
 20
7.2154096655
 30
0.0
 10
8.7545706571
 20
7.2210802872
 30
0.0
 10
8.7406021737
 20
7.2276373958
 30
0.0
 10
8.7270220875
 20
7.2350538307
 30
0.0
 10
8.7138865053
 20
7.2432988922
 30
0.0
 10
8.7012496956
 20
7.2523384684
 30
0.0
 10
8.6891638673
 20
7.262135175
 30
0.0
 10
8.6776789553
 20
7.2726485094
 30
0.0
 10
8.6668424168
 20
7.2838350167
 30
0.0
 10
8.6566990363
 20
7.2956484676
 30
0.0
 10
8.6472907427
 20
7.3080400486
 30
0.0
 10
8.6386564363
 20
7.3209585605
 30
0.0
 10
8.630831824
 20
7.3343506269
 30
0.0
 10
8.6238492799
 20
7.3481609159
 30
0.0
 10
8.6177377034
 20
7.3623323677
 30
0.0
 10
8.6125224227
 20
7.3768064197
 30
0.0
 10
8.6082250333
 20
7.3915232831
 30
0.0
 10
8.6048634378
 20
7.4064220443
 30
0.0
 10
8.6024515124
 20
7.4214414084
 30
0.0
 10
8.6009994722
 20
7.4365183623
 30
0.0
 10
8.6006746284
 20
7.4465908725
 30
0.0
 10
8.6006746284
 20
7.451614538
 30
0.0
  0
SPLINE
  5
405
100
AcDbEntity
  8
0
100
AcDbSpline
 62
7
  6
CONTINUOUS
 70
0
 71
3
 72
15
 73
11
 74
0
 42
0.0000001
 43
0.0000001
 44
0.0000000001
 40
0.0
 40
0.0
 40
0.0
 40
0.0
 40
0.1234613758
 40
0.2472682719
 40
0.3714774789
 40
0.4961385893
 40
0.6212930777
 40
0.7469740042
 40
0.8732046424
 40
1.0
 40
1.0
 40
1.0
 40
1.0
 10
11.0294844953
 20
8.1575166327
 30
0.0
 10
11.0251864704
 20
8.1502552405
 30
0.0
 10
11.0170755973
 20
8.1354112713
 30
0.0
 10
11.0064428754
 20
8.1123355421
 30
0.0
 10
10.9973701917
 20
8.0885141932
 30
0.0
 10
10.9898961025
 20
8.0640481853
 30
0.0
 10
10.9840514379
 20
8.0390395308
 30
0.0
 10
10.9798605113
 20
8.0135924868
 30
0.0
 10
10.9773405817
 20
7.9878147246
 30
0.0
 10
10.9767827873
 20
7.9705161158
 30
0.0
 10
10.9767827873
 20
7.9618501937
 30
0.0
  0
SPLINE
  5
406
100
AcDbEntity
  8
0
100
AcDbSpline
 62
4
  6
CONTINUOUS
 70
0
 71
3
 72
346
 73
342
 74
0
 42
0.0000001
 43
0.0000001
 44
0.0000000001
 40
0.0
 40
0.0
 40
0.0
 40
0.0
 40
0.015625
 40
0.03125
 40
0.0390625
 40
0.046875
 40
0.05078125
 40
0.0546875
 40
0.05859375
 40
0.060546875
 40
0.0615234375
 40
0.0625
 40
0.0634765625
 40
0.064453125
 40
0.06640625
 40
0.0703125
 40
0.07421875
 40
0.078125
 40
0.0859375
 40
0.09375
 40
0.1015625
 40
0.109375
 40
0.11328125
 40
0.1171875
 40
0.12109375
 40
0.123046875
 40
0.1240234375
 40
0.125
 40
0.1259765625
 40
0.126953125
 40
0.12890625
 40
0.1328125
 40
0.13671875
 40
0.140625
 40
0.1484375
 40
0.15625
 40
0.1640625
 40
0.171875
 40
0.17578125
 40
0.1796875
 40
0.18359375
 40
0.185546875
 40
0.1865234375
 40
0.1875
 40
0.1884765625
 40
0.189453125
 40
0.19140625
 40
0.1953125
 40
0.19921875
 40
0.203125
 40
0.2109375
 40
0.21875
 40
0.2265625
 40
0.234375
 40
0.23828125
 40
0.2421875
 40
0.244140625
 40
0.24609375
 40
0.248046875
 40
0.2490234375
 40
0.2495117188
 40
0.25
 40
0.2504882812
 40
0.2509765625
 40
0.251953125
 40
0.25390625
 40
0.255859375
 40
0.2578125
 40
0.26171875
 40
0.265625
 40
0.2734375
 40
0.28125
 40
0.2890625
 40
0.296875
 40
0.30078125
 40
0.3046875
 40
0.306640625
 40
0.30859375
 40
0.310546875
 40
0.3115234375
 40
0.3120117188
 40
0.3125
 40
0.3129882812
 40
0.3134765625
 40
0.314453125
 40
0.31640625
 40
0.318359375
 40
0.3203125
 40
0.32421875
 40
0.328125
 40
0.3359375
 40
0.34375
 40
0.3515625
 40
0.35546875
 40
0.359375
 40
0.36328125
 40
0.3671875
 40
0.369140625
 40
0.37109375
 40
0.3720703125
 40
0.373046875
 40
0.3740234375
 40
0.3745117188
 40
0.3747558594
 40
0.375
 40
0.3752441406
 40
0.3754882812
 40
0.3759765625
 40
0.376953125
 40
0.3779296875
 40
0.37890625
 40
0.380859375
 40
0.3828125
 40
0.38671875
 40
0.390625
 40
0.39453125
 40
0.3984375
 40
0.40625
 40
0.4140625
 40
0.41796875
 40
0.421875
 40
0.42578125
 40
0.4296875
 40
0.431640625
 40
0.43359375
 40
0.4345703125
 40
0.435546875
 40
0.4365234375
 40
0.4370117188
 40
0.4372558594
 40
0.4375
 40
0.4377441406
 40
0.4379882812
 40
0.4384765625
 40
0.439453125
 40
0.4404296875
 40
0.44140625
 40
0.443359375
 40
0.4453125
 40
0.44921875
 40
0.453125
 40
0.45703125
 40
0.4609375
 40
0.46875
 40
0.4765625
 40
0.48046875
 40
0.484375
 40
0.48828125
 40
0.4921875
 40
0.494140625
 40
0.49609375
 40
0.4970703125
 40
0.498046875
 40
0.4990234375
 40
0.4995117188
 40
0.4997558594
 40
0.5
 40
0.5002441406
 40
0.5004882812
 40
0.5009765625
 40
0.501953125
 40
0.5029296875
 40
0.50390625
 40
0.505859375
 40
0.5078125
 40
0.51171875
 40
0.515625
 40
0.51953125
 40
0.5234375
 40
0.53125
 40
0.5390625
 40
0.54296875
 40
0.546875
 40
0.55078125
 40
0.5546875
 40
0.556640625
 40
0.55859375
 40
0.5595703125
 40
0.560546875
 40
0.5615234375
 40
0.5620117188
 40
0.5622558594
 40
0.5625
 40
0.5627441406
 40
0.5629882812
 40
0.5634765625
 40
0.564453125
 40
0.5654296875
 40
0.56640625
 40
0.568359375
 40
0.5703125
 40
0.57421875
 40
0.578125
 40
0.58203125
 40
0.5859375
 40
0.59375
 40
0.6015625
 40
0.60546875
 40
0.609375
 40
0.61328125
 40
0.6171875
 40
0.619140625
 40
0.62109375
 40
0.6220703125
 40
0.623046875
 40
0.6240234375
 40
0.6245117188
 40
0.6247558594
 40
0.625
 40
0.6252441406
 40
0.6254882812
 40
0.6259765625
 40
0.626953125
 40
0.6279296875
 40
0.62890625
 40
0.630859375
 40
0.6328125
 40
0.63671875
 40
0.640625
 40
0.64453125
 40
0.6484375
 40
0.65625
 40
0.6640625
 40
0.66796875
 40
0.671875
 40
0.67578125
 40
0.6796875
 40
0.681640625
 40
0.68359375
 40
0.6845703125
 40
0.685546875
 40
0.6865234375
 40
0.6870117188
 40
0.6872558594
 40
0.6875
 40
0.6877441406
 40
0.6879882812
 40
0.6884765625
 40
0.689453125
 40
0.6904296875
 40
0.69140625
 40
0.693359375
 40
0.6953125
 40
0.69921875
 40
0.703125
 40
0.70703125
 40
0.7109375
 40
0.71875
 40
0.7265625
 40
0.73046875
 40
0.734375
 40
0.73828125
 40
0.7421875
 40
0.744140625
 40
0.74609375
 40
0.7470703125
 40
0.748046875
 40
0.7490234375
 40
0.7495117188
 40
0.7497558594
 40
0.75
 40
0.7502441406
 40
0.7504882812
 40
0.7509765625
 40
0.751953125
 40
0.7529296875
 40
0.75390625
 40
0.755859375
 40
0.7578125
 40
0.76171875
 40
0.765625
 40
0.76953125
 40
0.7734375
 40
0.78125
 40
0.7890625
 40
0.79296875
 40
0.796875
 40
0.80078125
 40
0.8046875
 40
0.806640625
 40
0.80859375
 40
0.8095703125
 40
0.810546875
 40
0.8115234375
 40
0.8120117188
 40
0.8125
 40
0.8129882812
 40
0.8134765625
 40
0.814453125
 40
0.8154296875
 40
0.81640625
 40
0.818359375
 40
0.8203125
 40
0.82421875
 40
0.828125
 40
0.83203125
 40
0.8359375
 40
0.84375
 40
0.8515625
 40
0.859375
 40
0.86328125
 40
0.8671875
 40
0.869140625
 40
0.87109375
 40
0.873046875
 40
0.8740234375
 40
0.8745117188
 40
0.875
 40
0.8754882812
 40
0.8759765625
 40
0.876953125
 40
0.87890625
 40
0.880859375
 40
0.8828125
 40
0.88671875
 40
0.890625
 40
0.8984375
 40
0.90625
 40
0.9140625
 40
0.921875
 40
0.92578125
 40
0.9296875
 40
0.931640625
 40
0.93359375
 40
0.935546875
 40
0.9365234375
 40
0.9370117188
 40
0.9375
 40
0.9379882812
 40
0.9384765625
 40
0.939453125
 40
0.94140625
 40
0.943359375
 40
0.9453125
 40
0.94921875
 40
0.953125
 40
0.9609375
 40
0.96875
 40
0.9765625
 40
0.984375
 40
1.0
 40
1.0
 40
1.0
 40
1.0
 10
10.626266515
 20
9.967919601
 30
0.0
 10
10.629482019
 20
9.9677818259
 30
0.0
 10
10.6359130278
 20
9.9675062792
 30
0.0
 10
10.6439517844
 20
9.9671618287
 30
0.0
 10
10.6503827989
 20
9.966886304
 30
0.0
 10
10.6544021622
 20
9.9667140203
 30
0.0
 10
10.6576177003
 20
9.9665763783
 30
0.0
 10
10.6600292239
 20
9.9664726404
 30
0.0
 10
10.6620392404
 20
9.9663878031
 30
0.0
 10
10.6634454406
 20
9.9663252556
 30
0.0
 10
10.6642502503
 20
9.9662944504
 30
0.0
 10
10.6648502891
 20
9.9662574409
 30
0.0
 10
10.6654639687
 20
9.9662735858
 30
0.0
 10
10.66627745
 20
9.9662765714
 30
0.0
 10
10.6677032593
 20
9.9662904348
 30
0.0
 10
10.6697389706
 20
9.9663057234
 30
0.0
 10
10.6721823203
 20
9.9663260028
 30
0.0
 10
10.6754399468
 20
9.9663523665
 30
0.0
 10
10.6795120385
 20
9.9663855545
 30
0.0
 10
10.6843985267
 20
9.9664252734
 30
0.0
 10
10.6892850084
 20
9.9664650455
 30
0.0
 10
10.6933571162
 20
9.9664981006
 30
0.0
 10
10.6966147104
 20
9.9665247302
 30
0.0
 10
10.6990581585
 20
9.9665441988
 30
0.0
 10
10.7010935619
 20
9.9665620238
 30
0.0
 10
10.702519921
 20
9.9665713592
 30
0.0
 10
10.7033325214
 20
9.9665815998
 30
0.0
 10
10.7039489069
 20
9.96657546
 30
0.0
 10
10.7045387828
 20
9.9666221479
 30
0.0
 10
10.705334531
 20
9.9666659717
 30
0.0
 10
10.7067227819
 20
9.9667512486
 30
0.0
 10
10.70870825
 20
9.9668685843
 30
0.0
 10
10.7110898475
 20
9.9670113083
 30
0.0
 10
10.7142656478
 20
9.9672009358
 30
0.0
 10
10.7182352812
 20
9.9674382019
 30
0.0
 10
10.7229988976
 20
9.9677228153
 30
0.0
 10
10.7277624759
 20
9.9680074817
 30
0.0
 10
10.7317322044
 20
9.9682446153
 30
0.0
 10
10.7349078146
 20
9.9684345079
 30
0.0
 10
10.737289992
 20
9.968576423
 30
0.0
 10
10.7392736458
 20
9.9686962895
 30
0.0
 10
10.7406651355
 20
9.9687770485
 30
0.0
 10
10.7414556943
 20
9.9688281112
 30
0.0
 10
10.7420615102
 20
9.9688525633
 30
0.0
 10
10.742618028
 20
9.9689299379
 30
0.0
 10
10.7433772474
 20
9.9690146441
 30
0.0
 10
10.7446978696
 20
9.9691714809
 30
0.0
 10
10.7465886614
 20
9.9693910367
 30
0.0
 10
10.7488558187
 20
9.9696564284
 30
0.0
 10
10.7518793214
 20
9.9700096117
 30
0.0
 10
10.7556584845
 20
9.9704513217
 30
0.0
 10
10.7601935739
 20
9.9709812742
 30
0.0
 10
10.7647286329
 20
9.9715112553
 30
0.0
 10
10.7685078723
 20
9.9719528935
 30
0.0
 10
10.7715312223
 20
9.9723062203
 30
0.0
 10
10.773420908
 20
9.9725270155
 30
0.0
 10
10.7749324464
 20
9.9727037292
 30
0.0
 10
10.7760666755
 20
9.9728360522
 30
0.0
 10
10.7770100362
 20
9.9729469967
 30
0.0
 10
10.7776739805
 20
9.9730233325
 30
0.0
 10
10.778047769
 20
9.9730690225
 30
0.0
 10
10.7783439088
 20
9.9730974601
 30
0.0
 10
10.7785796589
 20
9.9731481823
 30
0.0
 10
10.778915057
 20
9.9732080388
 30
0.0
 10
10.7794921893
 20
9.9733164094
 30
0.0
 10
10.780321795
 20
9.973469331
 30
0.0
 10
10.7813151256
 20
9.9736536474
 30
0.0
 10
10.7826403336
 20
9.9738991196
 30
0.0
 10
10.7842965809
 20
9.9742060567
 30
0.0
 10
10.7869467234
 20
9.9746971019
 30
0.0
 10
10.7902593507
 20
9.9753109271
 30
0.0
 10
10.7942345269
 20
9.9760475088
 30
0.0
 10
10.7982096908
 20
9.9767840946
 30
0.0
 10
10.8015223489
 20
9.9773979096
 30
0.0
 10
10.8041724299
 20
9.9778889752
 30
0.0
 10
10.8058288335
 20
9.9781958606
 30
0.0
 10
10.8071537206
 20
9.9784414388
 30
0.0
 10
10.8081480316
 20
9.9786254314
 30
0.0
 10
10.8089745698
 20
9.978779366
 30
0.0
 10
10.8095571782
 20
9.9788859283
 30
0.0
 10
10.8098838021
 20
9.9789486821
 30
0.0
 10
10.8101465038
 20
9.9789905046
 30
0.0
 10
10.810341418
 20
9.9790523682
 30
0.0
 10
10.8106249486
 20
9.9791278624
 30
0.0
 10
10.8111101105
 20
9.9792632344
 30
0.0
 10
10.8118089586
 20
9.9794549201
 30
0.0
 10
10.8126451111
 20
9.9796856717
 30
0.0
 10
10.813760842
 20
9.9799930861
 30
0.0
 10
10.8151552109
 20
9.9803774411
 30
0.0
 10
10.8173863659
 20
9.9809923605
 30
0.0
 10
10.820175253
 20
9.9817610265
 30
0.0
 10
10.8235219419
 20
9.9826834185
 30
0.0
 10
10.8263108439
 20
9.9834520801
 30
0.0
 10
10.8285419662
 20
9.9840670091
 30
0.0
 10
10.8302153089
 20
9.9845282057
 30
0.0
 10
10.8318886477
 20
9.9849894031
 30
0.0
 10
10.8332831088
 20
9.9853737318
 30
0.0
 10
10.8343986505
 20
9.9856812002
 30
0.0
 10
10.835095926
 20
9.9858733556
 30
0.0
 10
10.8356536046
 20
9.9860271082
 30
0.0
 10
10.8360722519
 20
9.9861423452
 30
0.0
 10
10.8364198891
 20
9.9862386223
 30
0.0
 10
10.8366656599
 20
9.986305533
 30
0.0
 10
10.8368023143
 20
9.9863445223
 30
0.0
 10
10.8369154704
 20
9.9863716385
 30
0.0
 10
10.8369878582
 20
9.9864068806
 30
0.0
 10
10.8370985958
 20
9.9864510355
 30
0.0
 10
10.8372857609
 20
9.9865296274
 30
0.0
 10
10.8375566036
 20
9.986641211
 30
0.0
 10
10.8378801321
 20
9.9867754068
 30
0.0
 10
10.8383120214
 20
9.9869542314
 30
0.0
 10
10.8388517056
 20
9.9871777974
 30
0.0
 10
10.8397152995
 20
9.9875354834
 30
0.0
 10
10.8407947579
 20
9.9879825976
 30
0.0
 10
10.8420901225
 20
9.9885191317
 30
0.0
 10
10.8433854832
 20
9.9890556666
 30
0.0
 10
10.8451126321
 20
9.9897710462
 30
0.0
 10
10.8472715678
 20
9.9906652708
 30
0.0
 10
10.8494305039
 20
9.9915594954
 30
0.0
 10
10.8511576523
 20
9.9922748751
 30
0.0
 10
10.8524530147
 20
9.9928114097
 30
0.0
 10
10.8537483729
 20
9.993347945
 30
0.0
 10
10.8548278514
 20
9.9937950556
 30
0.0
 10
10.8556914042
 20
9.9941527489
 30
0.0
 10
10.8562311929
 20
9.9943762964
 30
0.0
 10
10.8566628678
 20
9.994555159
 30
0.0
 10
10.8569870513
 20
9.9946892384
 30
0.0
 10
10.8572558446
 20
9.9948011864
 30
0.0
 10
10.8574466682
 20
9.9948791277
 30
0.0
 10
10.857551544
 20
9.994924325
 30
0.0
 10
10.8576419371
 20
9.9949563655
 30
0.0
 10
10.8576874685
 20
9.994995506
 30
0.0
 10
10.8577638254
 20
9.9950452167
 30
0.0
 10
10.857890159
 20
9.9951333644
 30
0.0
 10
10.8580744474
 20
9.9952586864
 30
0.0
 10
10.8582939619
 20
9.9954093311
 30
0.0
 10
10.8585872178
 20
9.9956101004
 30
0.0
 10
10.8589535925
 20
9.9958610929
 30
0.0
 10
10.8595399011
 20
9.9962626637
 30
0.0
 10
10.8602727494
 20
9.9967646331
 30
0.0
 10
10.8611521834
 20
9.9973669939
 30
0.0
 10
10.8620316132
 20
9.9979693553
 30
0.0
 10
10.8632041877
 20
9.9987725036
 30
0.0
 10
10.8646699052
 20
9.9997764392
 30
0.0
 10
10.8661356231
 20
10.0007803746
 30
0.0
 10
10.867308197
 20
10.001583523
 30
0.0
 10
10.8681876287
 20
10.0021858843
 30
0.0
 10
10.8690670554
 20
10.0027882457
 30
0.0
 10
10.8697999264
 20
10.0032902129
 30
0.0
 10
10.8703861887
 20
10.0036917882
 30
0.0
 10
10.8707526813
 20
10.0039427692
 30
0.0
 10
10.8710456952
 20
10.0041435622
 30
0.0
 10
10.871265949
 20
10.0042941345
 30
0.0
 10
10.8714479242
 20
10.0044196828
 30
0.0
 10
10.8715783873
 20
10.0045074266
 30
0.0
 10
10.8716481278
 20
10.0045577845
 30
0.0
 10
10.8717139825
 20
10.0045949373
 30
0.0
 10
10.8717280448
 20
10.004634443
 30
0.0
 10
10.8717648604
 20
10.0046862965
 30
0.0
 10
10.8718208704
 20
10.0047774225
 30
0.0
 10
10.8719052853
 20
10.0049074026
 30
0.0
 10
10.8720046996
 20
10.0050634642
 30
0.0
 10
10.8721379099
 20
10.0052715166
 30
0.0
 10
10.8723041975
 20
10.0055315923
 30
0.0
 10
10.8725703836
 20
10.0059477076
 30
0.0
 10
10.872903073
 20
10.0064678538
 30
0.0
 10
10.8733023187
 20
10.0070920284
 30
0.0
 10
10.8737015596
 20
10.0077162031
 30
0.0
 10
10.8742338824
 20
10.0085484361
 30
0.0
 10
10.8748992853
 20
10.0095887273
 30
0.0
 10
10.8755646887
 20
10.0106290185
 30
0.0
 10
10.8760970108
 20
10.0114612515
 30
0.0
 10
10.8764962537
 20
10.0120854262
 30
0.0
 10
10.8768954917
 20
10.012709601
 30
0.0
 10
10.8772282054
 20
10.0132297464
 30
0.0
 10
10.877494342
 20
10.0136458634
 30
0.0
 10
10.8776607554
 20
10.0139059351
 30
0.0
 10
10.8777937075
 20
10.0141139955
 30
0.0
 10
10.8778939107
 20
10.0142700325
 30
0.0
 10
10.8779758573
 20
10.01440009
 30
0.0
 10
10.8780362736
 20
10.0144910778
 30
0.0
 10
10.8780660292
 20
10.0145431528
 30
0.0
 10
10.8781017776
 20
10.0145819781
 30
0.0
 10
10.8780861829
 20
10.014621686
 30
0.0
 10
10.8780832989
 20
10.0146743221
 30
0.0
 10
10.8780699079
 20
10.0147665787
 30
0.0
 10
10.8780551403
 20
10.0148982988
 30
0.0
 10
10.8780355519
 20
10.015056395
 30
0.0
 10
10.8780100863
 20
10.0152671788
 30
0.0
 10
10.8779780309
 20
10.0155306623
 30
0.0
 10
10.8779268671
 20
10.0159522339
 30
0.0
 10
10.8778628695
 20
10.016479199
 30
0.0
 10
10.8777860907
 20
10.0171115568
 30
0.0
 10
10.8777093071
 20
10.0177439148
 30
0.0
 10
10.8776069306
 20
10.0185870586
 30
0.0
 10
10.8774789594
 20
10.0196409885
 30
0.0
 10
10.8773509885
 20
10.0206949184
 30
0.0
 10
10.8772486114
 20
10.0215380622
 30
0.0
 10
10.8771718298
 20
10.0221704202
 30
0.0
 10
10.8770950433
 20
10.022802778
 30
0.0
 10
10.8770310698
 20
10.0233297433
 30
0.0
 10
10.8769798569
 20
10.0237513144
 30
0.0
 10
10.8769479264
 20
10.024014799
 30
0.0
 10
10.8769222044
 20
10.0242255807
 30
0.0
 10
10.8769033991
 20
10.0243836833
 30
0.0
 10
10.8768861815
 20
10.0245153834
 30
0.0
 10
10.8768771641
 20
10.0246076756
 30
0.0
 10
10.8768672725
 20
10.0246602547
 30
0.0
 10
10.8768732031
 20
10.0247001377
 30
0.0
 10
10.8768281059
 20
10.0247383054
 30
0.0
 10
10.8767857754
 20
10.0247897941
 30
0.0
 10
10.8767034042
 20
10.0248796205
 30
0.0
 10
10.8765900665
 20
10.0250080896
 30
0.0
 10
10.8764522056
 20
10.0251621902
 30
0.0
 10
10.8762690392
 20
10.0253676794
 30
0.0
 10
10.8760398592
 20
10.0256245335
 30
0.0
 10
10.8756732954
 20
10.0260355041
 30
0.0
 10
10.875215048
 20
10.026549216
 30
0.0
 10
10.8746651693
 20
10.027165671
 30
0.0
 10
10.8741152858
 20
10.0277821257
 30
0.0
 10
10.8733821095
 20
10.0286040654
 30
0.0
 10
10.8724656385
 20
10.02963149
 30
0.0
 10
10.8715491679
 20
10.0306589147
 30
0.0
 10
10.8708159909
 20
10.0314808544
 30
0.0
 10
10.8702661094
 20
10.0320973092
 30
0.0
 10
10.8697162231
 20
10.0327137637
 30
0.0
 10
10.8692579997
 20
10.0332274768
 30
0.0
 10
10.8688913869
 20
10.0336384451
 30
0.0
 10
10.8686623315
 20
10.0338953052
 30
0.0
 10
10.8684789094
 20
10.0341007821
 30
0.0
 10
10.8683418298
 20
10.0342549202
 30
0.0
 10
10.8682260475
 20
10.0343832719
 30
0.0
 10
10.8681480403
 20
10.0344733079
 30
0.0
 10
10.8680987175
 20
10.0345244607
 30
0.0
 10
10.8680750986
 20
10.0345636599
 30
0.0
 10
10.8680003603
 20
10.0345996692
 30
0.0
 10
10.8679185403
 20
10.0346487943
 30
0.0
 10
10.8677670476
 20
10.0347342448
 30
0.0
 10
10.8675549727
 20
10.0348565879
 30
0.0
 10
10.8672986238
 20
10.0350032836
 30
0.0
 10
10.8669574746
 20
10.0351989185
 30
0.0
 10
10.8665308157
 20
10.0354434482
 30
0.0
 10
10.8658482858
 20
10.0358347034
 30
0.0
 10
10.8649950807
 20
10.0363237699
 30
0.0
 10
10.863971253
 20
10.0369106507
 30
0.0
 10
10.8629474203
 20
10.0374975312
 30
0.0
 10
10.8615823118
 20
10.0382800387
 30
0.0
 10
10.8598759255
 20
10.039258173
 30
0.0
 10
10.8581695397
 20
10.0402363074
 30
0.0
 10
10.8568044305
 20
10.0410188148
 30
0.0
 10
10.8557805998
 20
10.0416056955
 30
0.0
 10
10.8547567649
 20
10.0421925755
 30
0.0
 10
10.853903582
 20
10.0426816446
 30
0.0
 10
10.8532210069
 20
10.0430728945
 30
0.0
 10
10.8527944629
 20
10.0433174377
 30
0.0
 10
10.8524530779
 20
10.0435130449
 30
0.0
 10
10.8521974493
 20
10.0436598249
 30
0.0
 10
10.8519831208
 20
10.0437819046
 30
0.0
 10
10.8518356513
 20
10.0438678253
 30
0.0
 10
10.851747385
 20
10.043916197
 30
0.0
 10
10.8516924477
 20
10.0439545203
 30
0.0
 10
10.8515944598
 20
10.0439850286
 30
0.0
 10
10.8514788258
 20
10.0440284323
 30
0.0
 10
10.8512694698
 20
10.0441031186
 30
0.0
 10
10.8509740476
 20
10.0442104774
 30
0.0
 10
10.8506179753
 20
10.0443390237
 30
0.0
 10
10.8501437592
 20
10.0445105181
 30
0.0
 10
10.8495508017
 20
10.0447248521
 30
0.0
 10
10.8486021744
 20
10.0450678055
 30
0.0
 10
10.8474163544
 20
10.0454964907
 30
0.0
 10
10.8459933858
 20
10.0460109158
 30
0.0
 10
10.8445704131
 20
10.0465253401
 30
0.0
 10
10.8426731176
 20
10.0472112394
 30
0.0
 10
10.8403014978
 20
10.0480686135
 30
0.0
 10
10.8379298777
 20
10.0489259875
 30
0.0
 10
10.8360325826
 20
10.049611887
 30
0.0
 10
10.8346096086
 20
10.0501263109
 30
0.0
 10
10.833186645
 20
10.0506407373
 30
0.0
 10
10.8320008094
 20
10.0510694185
 30
0.0
 10
10.8310522139
 20
10.05141238
 30
0.0
 10
10.8304591757
 20
10.0516266933
 30
0.0
 10
10.8299851252
 20
10.0517982301
 30
0.0
 10
10.8296285466
 20
10.0519266469
 30
0.0
 10
10.8293347087
 20
10.0520344111
 30
0.0
 10
10.8290922126
 20
10.0521189399
 30
0.0
 10
10.8289306312
 20
10.0521869339
 30
0.0
 10
10.8286916
 20
10.0522373795
 30
0.0
 10
10.828399946
 20
10.0523107701
 30
0.0
 10
10.8280260963
 20
10.0524004053
 30
0.0
 10
10.8275814497
 20
10.0525088678
 30
0.0
 10
10.8269871999
 20
10.0526531699
 30
0.0
 10
10.8262448627
 20
10.0528336553
 30
0.0
 10
10.8250568578
 20
10.0531223717
 30
0.0
 10
10.8235719427
 20
10.0534832878
 30
0.0
 10
10.8217900056
 20
10.0539163783
 30
0.0
 10
10.8200080789
 20
10.0543494712
 30
0.0
 10
10.8176321729
 20
10.0549269275
 30
0.0
 10
10.8146622929
 20
10.0556487486
 30
0.0
 10
10.8110984302
 20
10.0565149318
 30
0.0
 10
10.8081285636
 20
10.0572367574
 30
0.0
 10
10.8057526283
 20
10.0578142038
 30
0.0
 10
10.8042677641
 20
10.0581751398
 30
0.0
 10
10.8030796543
 20
10.0584638153
 30
0.0
 10
10.8021891702
 20
10.0586805229
 30
0.0
 10
10.8014451971
 20
10.058860473
 30
0.0
 10
10.8009281505
 20
10.0589876932
 30
0.0
 10
10.800626864
 20
10.0590584307
 30
0.0
 10
10.800417326
 20
10.0591170046
 30
0.0
 10
10.8001449963
 20
10.0591544752
 30
0.0
 10
10.7998037925
 20
10.0592117971
 30
0.0
 10
10.7991964811
 20
10.0593086809
 30
0.0
 10
10.7983342285
 20
10.0594488792
 30
0.0
 10
10.7972972418
 20
10.0596163498
 30
0.0
 10
10.7959153905
 20
10.0598399119
 30
0.0
 10
10.7941878032
 20
10.0601192728
 30
0.0
 10
10.7914238163
 20
10.0605663015
 30
0.0
 10
10.7879687799
 20
10.0611250697
 30
0.0
 10
10.7838227602
 20
10.0617955997
 30
0.0
 10
10.7796767292
 20
10.0624661254
 30
0.0
 10
10.776221721
 20
10.0630249043
 30
0.0
 10
10.7734576776
 20
10.0634719117
 30
0.0
 10
10.7717302339
 20
10.0637513267
 30
0.0
 10
10.770348088
 20
10.0639747778
 30
0.0
 10
10.7693120013
 20
10.0641425875
 30
0.0
 10
10.7684469329
 20
10.064281725
 30
0.0
 10
10.7678446482
 20
10.0643805025
 30
0.0
 10
10.7674953903
 20
10.0644347901
 30
0.0
 10
10.7672478
 20
10.064481581
 30
0.0
 10
10.7669453452
 20
10.0645051498
 30
0.0
 10
10.7665612095
 20
10.064544675
 30
0.0
 10
10.7658800556
 20
10.0646100701
 30
0.0
 10
10.7649116402
 20
10.0647054647
 30
0.0
 10
10.7637475464
 20
10.0648190937
 30
0.0
 10
10.7621961182
 20
10.064970894
 30
0.0
 10
10.7602565944
 20
10.0651605435
 30
0.0
 10
10.7571534897
 20
10.065464039
 30
0.0
 10
10.753274563
 20
10.065843389
 30
0.0
 10
10.7486198706
 20
10.0662986173
 30
0.0
 10
10.7439651729
 20
10.0667538434
 30
0.0
 10
10.7377589112
 20
10.0673608123
 30
0.0
 10
10.7331042145
 20
10.0678160388
 30
0.0
 10
10.7300010834
 20
10.0681195232
 30
0.0
  0
SPLINE
  5
407
100
AcDbEntity
  8
0
100
AcDbSpline
 62
4
  6
CONTINUOUS
 70
0
 71
3
 72
346
 73
342
 74
0
 42
0.0000001
 43
0.0000001
 44
0.0000000001
 40
0.0
 40
0.0
 40
0.0
 40
0.0
 40
0.015625
 40
0.03125
 40
0.0390625
 40
0.046875
 40
0.05078125
 40
0.0546875
 40
0.05859375
 40
0.060546875
 40
0.0615234375
 40
0.0625
 40
0.0634765625
 40
0.064453125
 40
0.06640625
 40
0.0703125
 40
0.07421875
 40
0.078125
 40
0.0859375
 40
0.09375
 40
0.1015625
 40
0.109375
 40
0.11328125
 40
0.1171875
 40
0.12109375
 40
0.123046875
 40
0.1240234375
 40
0.125
 40
0.1259765625
 40
0.126953125
 40
0.12890625
 40
0.1328125
 40
0.13671875
 40
0.140625
 40
0.1484375
 40
0.15625
 40
0.1640625
 40
0.171875
 40
0.17578125
 40
0.1796875
 40
0.18359375
 40
0.185546875
 40
0.1865234375
 40
0.1875
 40
0.1884765625
 40
0.189453125
 40
0.19140625
 40
0.1953125
 40
0.19921875
 40
0.203125
 40
0.2109375
 40
0.21875
 40
0.2265625
 40
0.234375
 40
0.23828125
 40
0.2421875
 40
0.244140625
 40
0.24609375
 40
0.248046875
 40
0.2490234375
 40
0.2495117188
 40
0.25
 40
0.2504882812
 40
0.2509765625
 40
0.251953125
 40
0.25390625
 40
0.255859375
 40
0.2578125
 40
0.26171875
 40
0.265625
 40
0.2734375
 40
0.28125
 40
0.2890625
 40
0.296875
 40
0.30078125
 40
0.3046875
 40
0.306640625
 40
0.30859375
 40
0.310546875
 40
0.3115234375
 40
0.3120117188
 40
0.3125
 40
0.3129882812
 40
0.3134765625
 40
0.314453125
 40
0.31640625
 40
0.318359375
 40
0.3203125
 40
0.32421875
 40
0.328125
 40
0.3359375
 40
0.34375
 40
0.3515625
 40
0.35546875
 40
0.359375
 40
0.36328125
 40
0.3671875
 40
0.369140625
 40
0.37109375
 40
0.3720703125
 40
0.373046875
 40
0.3740234375
 40
0.3745117188
 40
0.3747558594
 40
0.375
 40
0.3752441406
 40
0.3754882812
 40
0.3759765625
 40
0.376953125
 40
0.3779296875
 40
0.37890625
 40
0.380859375
 40
0.3828125
 40
0.38671875
 40
0.390625
 40
0.39453125
 40
0.3984375
 40
0.40625
 40
0.4140625
 40
0.41796875
 40
0.421875
 40
0.42578125
 40
0.4296875
 40
0.431640625
 40
0.43359375
 40
0.4345703125
 40
0.435546875
 40
0.4365234375
 40
0.4370117188
 40
0.4372558594
 40
0.4375
 40
0.4377441406
 40
0.4379882812
 40
0.4384765625
 40
0.439453125
 40
0.4404296875
 40
0.44140625
 40
0.443359375
 40
0.4453125
 40
0.44921875
 40
0.453125
 40
0.45703125
 40
0.4609375
 40
0.46875
 40
0.4765625
 40
0.48046875
 40
0.484375
 40
0.48828125
 40
0.4921875
 40
0.494140625
 40
0.49609375
 40
0.4970703125
 40
0.498046875
 40
0.4990234375
 40
0.4995117188
 40
0.4997558594
 40
0.5
 40
0.5002441406
 40
0.5004882812
 40
0.5009765625
 40
0.501953125
 40
0.5029296875
 40
0.50390625
 40
0.505859375
 40
0.5078125
 40
0.51171875
 40
0.515625
 40
0.51953125
 40
0.5234375
 40
0.53125
 40
0.5390625
 40
0.54296875
 40
0.546875
 40
0.55078125
 40
0.5546875
 40
0.556640625
 40
0.55859375
 40
0.5595703125
 40
0.560546875
 40
0.5615234375
 40
0.5620117188
 40
0.5622558594
 40
0.5625
 40
0.5627441406
 40
0.5629882812
 40
0.5634765625
 40
0.564453125
 40
0.5654296875
 40
0.56640625
 40
0.568359375
 40
0.5703125
 40
0.57421875
 40
0.578125
 40
0.58203125
 40
0.5859375
 40
0.59375
 40
0.6015625
 40
0.60546875
 40
0.609375
 40
0.61328125
 40
0.6171875
 40
0.619140625
 40
0.62109375
 40
0.6220703125
 40
0.623046875
 40
0.6240234375
 40
0.6245117188
 40
0.6247558594
 40
0.625
 40
0.6252441406
 40
0.6254882812
 40
0.6259765625
 40
0.626953125
 40
0.6279296875
 40
0.62890625
 40
0.630859375
 40
0.6328125
 40
0.63671875
 40
0.640625
 40
0.64453125
 40
0.6484375
 40
0.65625
 40
0.6640625
 40
0.66796875
 40
0.671875
 40
0.67578125
 40
0.6796875
 40
0.681640625
 40
0.68359375
 40
0.6845703125
 40
0.685546875
 40
0.6865234375
 40
0.6870117188
 40
0.6872558594
 40
0.6875
 40
0.6877441406
 40
0.6879882812
 40
0.6884765625
 40
0.689453125
 40
0.6904296875
 40
0.69140625
 40
0.693359375
 40
0.6953125
 40
0.69921875
 40
0.703125
 40
0.70703125
 40
0.7109375
 40
0.71875
 40
0.7265625
 40
0.73046875
 40
0.734375
 40
0.73828125
 40
0.7421875
 40
0.744140625
 40
0.74609375
 40
0.7470703125
 40
0.748046875
 40
0.7490234375
 40
0.7495117188
 40
0.7497558594
 40
0.75
 40
0.7502441406
 40
0.7504882812
 40
0.7509765625
 40
0.751953125
 40
0.7529296875
 40
0.75390625
 40
0.755859375
 40
0.7578125
 40
0.76171875
 40
0.765625
 40
0.76953125
 40
0.7734375
 40
0.78125
 40
0.7890625
 40
0.79296875
 40
0.796875
 40
0.80078125
 40
0.8046875
 40
0.806640625
 40
0.80859375
 40
0.8095703125
 40
0.810546875
 40
0.8115234375
 40
0.8120117188
 40
0.8125
 40
0.8129882812
 40
0.8134765625
 40
0.814453125
 40
0.8154296875
 40
0.81640625
 40
0.818359375
 40
0.8203125
 40
0.82421875
 40
0.828125
 40
0.83203125
 40
0.8359375
 40
0.84375
 40
0.8515625
 40
0.859375
 40
0.86328125
 40
0.8671875
 40
0.869140625
 40
0.87109375
 40
0.873046875
 40
0.8740234375
 40
0.8745117188
 40
0.875
 40
0.8754882812
 40
0.8759765625
 40
0.876953125
 40
0.87890625
 40
0.880859375
 40
0.8828125
 40
0.88671875
 40
0.890625
 40
0.8984375
 40
0.90625
 40
0.9140625
 40
0.921875
 40
0.92578125
 40
0.9296875
 40
0.931640625
 40
0.93359375
 40
0.935546875
 40
0.9365234375
 40
0.9370117188
 40
0.9375
 40
0.9379882812
 40
0.9384765625
 40
0.939453125
 40
0.94140625
 40
0.943359375
 40
0.9453125
 40
0.94921875
 40
0.953125
 40
0.9609375
 40
0.96875
 40
0.9765625
 40
0.984375
 40
1.0
 40
1.0
 40
1.0
 40
1.0
 10
10.7300011004
 20
10.068119522
 30
0.0
 10
10.7267855964
 20
10.0682572971
 30
0.0
 10
10.7203545876
 20
10.0685328439
 30
0.0
 10
10.712315831
 20
10.0688772944
 30
0.0
 10
10.7058848165
 20
10.069152819
 30
0.0
 10
10.7018654532
 20
10.0693251027
 30
0.0
 10
10.6986499151
 20
10.0694627447
 30
0.0
 10
10.6962383914
 20
10.0695664826
 30
0.0
 10
10.694228375
 20
10.06965132
 30
0.0
 10
10.6928221748
 20
10.0697138675
 30
0.0
 10
10.6920173651
 20
10.0697446727
 30
0.0
 10
10.6914173263
 20
10.0697816821
 30
0.0
 10
10.6908036467
 20
10.0697655373
 30
0.0
 10
10.6899901654
 20
10.0697625516
 30
0.0
 10
10.6885643561
 20
10.0697486882
 30
0.0
 10
10.6865286447
 20
10.0697333997
 30
0.0
 10
10.684085295
 20
10.0697131203
 30
0.0
 10
10.6808276686
 20
10.0696867566
 30
0.0
 10
10.6767555769
 20
10.0696535686
 30
0.0
 10
10.6718690887
 20
10.0696138496
 30
0.0
 10
10.666982607
 20
10.0695740775
 30
0.0
 10
10.6629104991
 20
10.0695410225
 30
0.0
 10
10.659652905
 20
10.0695143929
 30
0.0
 10
10.6572094568
 20
10.0694949243
 30
0.0
 10
10.6551740535
 20
10.0694770993
 30
0.0
 10
10.6537476944
 20
10.0694677638
 30
0.0
 10
10.652935094
 20
10.0694575233
 30
0.0
 10
10.6523187085
 20
10.0694636631
 30
0.0
 10
10.6517288325
 20
10.0694169751
 30
0.0
 10
10.6509330844
 20
10.0693731514
 30
0.0
 10
10.6495448335
 20
10.0692878744
 30
0.0
 10
10.6475593654
 20
10.0691705388
 30
0.0
 10
10.6451777679
 20
10.0690278147
 30
0.0
 10
10.6420019676
 20
10.0688381873
 30
0.0
 10
10.6380323342
 20
10.0686009211
 30
0.0
 10
10.6332687178
 20
10.0683163078
 30
0.0
 10
10.6285051395
 20
10.0680316413
 30
0.0
 10
10.624535411
 20
10.0677945078
 30
0.0
 10
10.6213598008
 20
10.0676046151
 30
0.0
 10
10.6189776234
 20
10.0674627001
 30
0.0
 10
10.6169939696
 20
10.0673428335
 30
0.0
 10
10.6156024799
 20
10.0672620746
 30
0.0
 10
10.6148119211
 20
10.0672110119
 30
0.0
 10
10.6142061052
 20
10.0671865598
 30
0.0
 10
10.6136495874
 20
10.0671091852
 30
0.0
 10
10.612890368
 20
10.0670244789
 30
0.0
 10
10.6115697458
 20
10.0668676422
 30
0.0
 10
10.609678954
 20
10.0666480864
 30
0.0
 10
10.6074117967
 20
10.0663826946
 30
0.0
 10
10.604388294
 20
10.0660295113
 30
0.0
 10
10.6006091309
 20
10.0655878014
 30
0.0
 10
10.5960740415
 20
10.0650578489
 30
0.0
 10
10.5915389825
 20
10.0645278678
 30
0.0
 10
10.5877597431
 20
10.0640862295
 30
0.0
 10
10.5847363931
 20
10.0637329028
 30
0.0
 10
10.5828467074
 20
10.0635121076
 30
0.0
 10
10.581335169
 20
10.0633353939
 30
0.0
 10
10.5802009399
 20
10.0632030709
 30
0.0
 10
10.5792575792
 20
10.0630921263
 30
0.0
 10
10.5785936349
 20
10.0630157906
 30
0.0
 10
10.5782198464
 20
10.0629701006
 30
0.0
 10
10.5779237066
 20
10.062941663
 30
0.0
 10
10.5776879565
 20
10.0628909408
 30
0.0
 10
10.5773525584
 20
10.0628310842
 30
0.0
 10
10.5767754261
 20
10.0627227137
 30
0.0
 10
10.5759458204
 20
10.062569792
 30
0.0
 10
10.5749524897
 20
10.0623854756
 30
0.0
 10
10.5736272818
 20
10.0621400035
 30
0.0
 10
10.5719710345
 20
10.0618330664
 30
0.0
 10
10.569320892
 20
10.0613420212
 30
0.0
 10
10.5660082647
 20
10.060728196
 30
0.0
 10
10.5620330885
 20
10.0599916143
 30
0.0
 10
10.5580579246
 20
10.0592550285
 30
0.0
 10
10.5547452665
 20
10.0586412134
 30
0.0
 10
10.5520951855
 20
10.0581501479
 30
0.0
 10
10.5504387818
 20
10.0578432624
 30
0.0
 10
10.5491138948
 20
10.0575976843
 30
0.0
 10
10.5481195837
 20
10.0574136917
 30
0.0
 10
10.5472930456
 20
10.0572597571
 30
0.0
 10
10.5467104371
 20
10.0571531948
 30
0.0
 10
10.5463838133
 20
10.0570904409
 30
0.0
 10
10.5461211116
 20
10.0570486185
 30
0.0
 10
10.5459261974
 20
10.0569867549
 30
0.0
 10
10.5456426668
 20
10.0569112606
 30
0.0
 10
10.5451575048
 20
10.0567758887
 30
0.0
 10
10.5444586567
 20
10.056584203
 30
0.0
 10
10.5436225043
 20
10.0563534513
 30
0.0
 10
10.5425067734
 20
10.056046037
 30
0.0
 10
10.5411124045
 20
10.0556616819
 30
0.0
 10
10.5388812495
 20
10.0550467625
 30
0.0
 10
10.5360923623
 20
10.0542780966
 30
0.0
 10
10.5327456735
 20
10.0533557046
 30
0.0
 10
10.5299567715
 20
10.052587043
 30
0.0
 10
10.5277256491
 20
10.051972114
 30
0.0
 10
10.5260523065
 20
10.0515109174
 30
0.0
 10
10.5243789677
 20
10.05104972
 30
0.0
 10
10.5229845066
 20
10.0506653913
 30
0.0
 10
10.5218689649
 20
10.0503579229
 30
0.0
 10
10.5211716894
 20
10.0501657675
 30
0.0
 10
10.5206140108
 20
10.0500120149
 30
0.0
 10
10.5201953635
 20
10.0498967779
 30
0.0
 10
10.5198477263
 20
10.0498005007
 30
0.0
 10
10.5196019555
 20
10.04973359
 30
0.0
 10
10.5194653011
 20
10.0496946007
 30
0.0
 10
10.519352145
 20
10.0496674845
 30
0.0
 10
10.5192797571
 20
10.0496322425
 30
0.0
 10
10.5191690196
 20
10.0495880875
 30
0.0
 10
10.5189818545
 20
10.0495094957
 30
0.0
 10
10.5187110118
 20
10.0493979121
 30
0.0
 10
10.5183874833
 20
10.0492637163
 30
0.0
 10
10.517955594
 20
10.0490848917
 30
0.0
 10
10.5174159098
 20
10.0488613256
 30
0.0
 10
10.5165523159
 20
10.0485036397
 30
0.0
 10
10.5154728575
 20
10.0480565255
 30
0.0
 10
10.5141774929
 20
10.0475199914
 30
0.0
 10
10.5128821322
 20
10.0469834565
 30
0.0
 10
10.5111549832
 20
10.0462680768
 30
0.0
 10
10.5089960475
 20
10.0453738522
 30
0.0
 10
10.5068371115
 20
10.0444796277
 30
0.0
 10
10.5051099631
 20
10.043764248
 30
0.0
 10
10.5038146006
 20
10.0432277133
 30
0.0
 10
10.5025192425
 20
10.0426911781
 30
0.0
 10
10.501439764
 20
10.0422440674
 30
0.0
 10
10.5005762112
 20
10.0418863742
 30
0.0
 10
10.5000364225
 20
10.0416628267
 30
0.0
 10
10.4996047476
 20
10.041483964
 30
0.0
 10
10.4992805641
 20
10.0413498846
 30
0.0
 10
10.4990117708
 20
10.0412379367
 30
0.0
 10
10.4988209472
 20
10.0411599953
 30
0.0
 10
10.4987160714
 20
10.0411147981
 30
0.0
 10
10.4986256783
 20
10.0410827576
 30
0.0
 10
10.4985801469
 20
10.0410436171
 30
0.0
 10
10.49850379
 20
10.0409939063
 30
0.0
 10
10.4983774564
 20
10.0409057586
 30
0.0
 10
10.498193168
 20
10.0407804366
 30
0.0
 10
10.4979736535
 20
10.040629792
 30
0.0
 10
10.4976803976
 20
10.0404290227
 30
0.0
 10
10.4973140229
 20
10.0401780301
 30
0.0
 10
10.4967277143
 20
10.0397764594
 30
0.0
 10
10.495994866
 20
10.0392744899
 30
0.0
 10
10.495115432
 20
10.0386721292
 30
0.0
 10
10.4942360022
 20
10.0380697678
 30
0.0
 10
10.4930634277
 20
10.0372666194
 30
0.0
 10
10.4915977102
 20
10.0362626839
 30
0.0
 10
10.4901319922
 20
10.0352587485
 30
0.0
 10
10.4889594184
 20
10.0344556001
 30
0.0
 10
10.4880799867
 20
10.0338532388
 30
0.0
 10
10.48720056
 20
10.0332508773
 30
0.0
 10
10.4864676889
 20
10.0327489102
 30
0.0
 10
10.4858814267
 20
10.0323473348
 30
0.0
 10
10.4855149341
 20
10.0320963538
 30
0.0
 10
10.4852219202
 20
10.0318955609
 30
0.0
 10
10.4850016663
 20
10.0317449885
 30
0.0
 10
10.4848196911
 20
10.0316194403
 30
0.0
 10
10.4846892281
 20
10.0315316964
 30
0.0
 10
10.4846194876
 20
10.0314813386
 30
0.0
 10
10.4845536329
 20
10.0314441857
 30
0.0
 10
10.4845395706
 20
10.0314046801
 30
0.0
 10
10.484502755
 20
10.0313528266
 30
0.0
 10
10.484446745
 20
10.0312617006
 30
0.0
 10
10.4843623301
 20
10.0311317205
 30
0.0
 10
10.4842629158
 20
10.0309756588
 30
0.0
 10
10.4841297055
 20
10.0307676065
 30
0.0
 10
10.4839634179
 20
10.0305075308
 30
0.0
 10
10.4836972318
 20
10.0300914154
 30
0.0
 10
10.4833645424
 20
10.0295712693
 30
0.0
 10
10.4829652966
 20
10.0289470947
 30
0.0
 10
10.4825660558
 20
10.0283229199
 30
0.0
 10
10.482033733
 20
10.027490687
 30
0.0
 10
10.4813683301
 20
10.0264503957
 30
0.0
 10
10.4807029267
 20
10.0254101045
 30
0.0
 10
10.4801706046
 20
10.0245778715
 30
0.0
 10
10.4797713617
 20
10.0239536968
 30
0.0
 10
10.4793721237
 20
10.023329522
 30
0.0
 10
10.47903941
 20
10.0228093766
 30
0.0
 10
10.4787732734
 20
10.0223932597
 30
0.0
 10
10.47860686
 20
10.022133188
 30
0.0
 10
10.4784739079
 20
10.0219251275
 30
0.0
 10
10.4783737047
 20
10.0217690906
 30
0.0
 10
10.4782917581
 20
10.0216390331
 30
0.0
 10
10.4782313417
 20
10.0215480453
 30
0.0
 10
10.4782015862
 20
10.0214959703
 30
0.0
 10
10.4781658378
 20
10.021457145
 30
0.0
 10
10.4781814325
 20
10.021417437
 30
0.0
 10
10.4781843164
 20
10.021364801
 30
0.0
 10
10.4781977075
 20
10.0212725444
 30
0.0
 10
10.4782124751
 20
10.0211408243
 30
0.0
 10
10.4782320635
 20
10.020982728
 30
0.0
 10
10.4782575291
 20
10.0207719443
 30
0.0
 10
10.4782895845
 20
10.0205084607
 30
0.0
 10
10.4783407483
 20
10.0200868892
 30
0.0
 10
10.4784047459
 20
10.0195599241
 30
0.0
 10
10.4784815246
 20
10.0189275662
 30
0.0
 10
10.4785583083
 20
10.0182952083
 30
0.0
 10
10.4786606848
 20
10.0174520644
 30
0.0
 10
10.478788656
 20
10.0163981346
 30
0.0
 10
10.4789166268
 20
10.0153442047
 30
0.0
 10
10.479019004
 20
10.0145010608
 30
0.0
 10
10.4790957856
 20
10.0138687029
 30
0.0
 10
10.4791725721
 20
10.0132363451
 30
0.0
 10
10.4792365456
 20
10.0127093798
 30
0.0
 10
10.4792877585
 20
10.0122878087
 30
0.0
 10
10.479319689
 20
10.0120243241
 30
0.0
 10
10.479345411
 20
10.0118135424
 30
0.0
 10
10.4793642163
 20
10.0116554398
 30
0.0
 10
10.4793814339
 20
10.0115237396
 30
0.0
 10
10.4793904513
 20
10.0114314475
 30
0.0
 10
10.4794003429
 20
10.0113788684
 30
0.0
 10
10.4793944123
 20
10.0113389854
 30
0.0
 10
10.4794395094
 20
10.0113008176
 30
0.0
 10
10.4794818399
 20
10.011249329
 30
0.0
 10
10.4795642112
 20
10.0111595026
 30
0.0
 10
10.4796775488
 20
10.0110310335
 30
0.0
 10
10.4798154098
 20
10.0108769329
 30
0.0
 10
10.4799985762
 20
10.0106714437
 30
0.0
 10
10.4802277561
 20
10.0104145896
 30
0.0
 10
10.48059432
 20
10.0100036189
 30
0.0
 10
10.4810525674
 20
10.009489907
 30
0.0
 10
10.481602446
 20
10.0088734521
 30
0.0
 10
10.4821523296
 20
10.0082569974
 30
0.0
 10
10.4828855059
 20
10.0074350577
 30
0.0
 10
10.4838019769
 20
10.006407633
 30
0.0
 10
10.4847184475
 20
10.0053802084
 30
0.0
 10
10.4854516245
 20
10.0045582687
 30
0.0
 10
10.4860015059
 20
10.0039418139
 30
0.0
 10
10.4865513923
 20
10.0033253593
 30
0.0
 10
10.4870096157
 20
10.0028116463
 30
0.0
 10
10.4873762285
 20
10.002400678
 30
0.0
 10
10.4876052839
 20
10.0021438179
 30
0.0
 10
10.487788706
 20
10.001938341
 30
0.0
 10
10.4879257856
 20
10.0017842029
 30
0.0
 10
10.4880415679
 20
10.0016558511
 30
0.0
 10
10.4881195751
 20
10.0015658152
 30
0.0
 10
10.4881688979
 20
10.0015146623
 30
0.0
 10
10.4881925168
 20
10.0014754632
 30
0.0
 10
10.4882672551
 20
10.0014394539
 30
0.0
 10
10.488349075
 20
10.0013903288
 30
0.0
 10
10.4885005678
 20
10.0013048783
 30
0.0
 10
10.4887126427
 20
10.0011825352
 30
0.0
 10
10.4889689916
 20
10.0010358394
 30
0.0
 10
10.4893101408
 20
10.0008402046
 30
0.0
 10
10.4897367997
 20
10.0005956749
 30
0.0
 10
10.4904193296
 20
10.0002044196
 30
0.0
 10
10.4912725346
 20
9.9997153532
 30
0.0
 10
10.4922963624
 20
9.9991284724
 30
0.0
 10
10.4933201951
 20
9.9985415918
 30
0.0
 10
10.4946853036
 20
9.9977590844
 30
0.0
 10
10.4963916898
 20
9.9967809501
 30
0.0
 10
10.4980980757
 20
9.9958028157
 30
0.0
 10
10.4994631848
 20
9.9950203083
 30
0.0
 10
10.5004870156
 20
9.9944334275
 30
0.0
 10
10.5015108505
 20
9.9938465475
 30
0.0
 10
10.5023640334
 20
9.9933574785
 30
0.0
 10
10.5030466084
 20
9.9929662285
 30
0.0
 10
10.5034731524
 20
9.9927216854
 30
0.0
 10
10.5038145374
 20
9.9925260781
 30
0.0
 10
10.504070166
 20
9.9923792982
 30
0.0
 10
10.5042844946
 20
9.9922572184
 30
0.0
 10
10.5044319641
 20
9.9921712978
 30
0.0
 10
10.5045202304
 20
9.992122926
 30
0.0
 10
10.5045751677
 20
9.9920846028
 30
0.0
 10
10.5046731556
 20
9.9920540945
 30
0.0
 10
10.5047887896
 20
9.9920106908
 30
0.0
 10
10.5049981456
 20
9.9919360045
 30
0.0
 10
10.5052935678
 20
9.9918286457
 30
0.0
 10
10.5056496401
 20
9.9917000993
 30
0.0
 10
10.5061238562
 20
9.9915286049
 30
0.0
 10
10.5067168137
 20
9.991314271
 30
0.0
 10
10.5076654409
 20
9.9909713176
 30
0.0
 10
10.5088512609
 20
9.9905426324
 30
0.0
 10
10.5102742295
 20
9.9900282073
 30
0.0
 10
10.5116972023
 20
9.989513783
 30
0.0
 10
10.5135944978
 20
9.9888278837
 30
0.0
 10
10.5159661176
 20
9.9879705096
 30
0.0
 10
10.5183377377
 20
9.9871131355
 30
0.0
 10
10.5202350328
 20
9.9864272361
 30
0.0
 10
10.5216580068
 20
9.9859128121
 30
0.0
 10
10.5230809704
 20
9.9853983858
 30
0.0
 10
10.524266806
 20
9.9849697046
 30
0.0
 10
10.5252154015
 20
9.9846267431
 30
0.0
 10
10.5258084397
 20
9.9844124297
 30
0.0
 10
10.5262824902
 20
9.9842408929
 30
0.0
 10
10.5266390688
 20
9.9841124762
 30
0.0
 10
10.5269329067
 20
9.984004712
 30
0.0
 10
10.5271754028
 20
9.9839201832
 30
0.0
 10
10.5273369842
 20
9.9838521892
 30
0.0
 10
10.5275760154
 20
9.9838017436
 30
0.0
 10
10.5278676694
 20
9.9837283529
 30
0.0
 10
10.5282415191
 20
9.9836387177
 30
0.0
 10
10.5286861657
 20
9.9835302553
 30
0.0
 10
10.5292804155
 20
9.9833859532
 30
0.0
 10
10.5300227526
 20
9.9832054678
 30
0.0
 10
10.5312107576
 20
9.9829167514
 30
0.0
 10
10.5326956727
 20
9.9825558353
 30
0.0
 10
10.5344776098
 20
9.9821227448
 30
0.0
 10
10.5362595365
 20
9.9816896519
 30
0.0
 10
10.5386354425
 20
9.9811121956
 30
0.0
 10
10.5416053225
 20
9.9803903744
 30
0.0
 10
10.5451691851
 20
9.9795241913
 30
0.0
 10
10.5481390518
 20
9.9788023657
 30
0.0
 10
10.5505149871
 20
9.9782249193
 30
0.0
 10
10.5519998513
 20
9.9778639832
 30
0.0
 10
10.5531879611
 20
9.9775753078
 30
0.0
 10
10.5540784452
 20
9.9773586002
 30
0.0
 10
10.5548224183
 20
9.9771786501
 30
0.0
 10
10.5553394649
 20
9.9770514299
 30
0.0
 10
10.5556407514
 20
9.9769806924
 30
0.0
 10
10.5558502894
 20
9.9769221185
 30
0.0
 10
10.5561226191
 20
9.9768846479
 30
0.0
 10
10.5564638229
 20
9.9768273259
 30
0.0
 10
10.5570711343
 20
9.9767304422
 30
0.0
 10
10.5579333869
 20
9.9765902439
 30
0.0
 10
10.5589703736
 20
9.9764227733
 30
0.0
 10
10.5603522249
 20
9.9761992112
 30
0.0
 10
10.5620798122
 20
9.9759198503
 30
0.0
 10
10.5648437991
 20
9.9754728215
 30
0.0
 10
10.5682988355
 20
9.9749140533
 30
0.0
 10
10.5724448552
 20
9.9742435234
 30
0.0
 10
10.5765908862
 20
9.9735729976
 30
0.0
 10
10.5800458943
 20
9.9730142188
 30
0.0
 10
10.5828099377
 20
9.9725672113
 30
0.0
 10
10.5845373815
 20
9.9722877964
 30
0.0
 10
10.5859195274
 20
9.9720643452
 30
0.0
 10
10.5869556141
 20
9.9718965356
 30
0.0
 10
10.5878206825
 20
9.9717573981
 30
0.0
 10
10.5884229672
 20
9.9716586206
 30
0.0
 10
10.588772225
 20
9.9716043329
 30
0.0
 10
10.5890198154
 20
9.9715575421
 30
0.0
 10
10.5893222702
 20
9.9715339733
 30
0.0
 10
10.5897064059
 20
9.9714944481
 30
0.0
 10
10.5903875598
 20
9.971429053
 30
0.0
 10
10.5913559752
 20
9.9713336584
 30
0.0
 10
10.592520069
 20
9.9712200294
 30
0.0
 10
10.5940714972
 20
9.971068229
 30
0.0
 10
10.596011021
 20
9.9708785796
 30
0.0
 10
10.5991141257
 20
9.9705750841
 30
0.0
 10
10.6029930524
 20
9.9701957341
 30
0.0
 10
10.6076477448
 20
9.9697405058
 30
0.0
 10
10.6123024425
 20
9.9692852797
 30
0.0
 10
10.6185087042
 20
9.9686783108
 30
0.0
 10
10.6231634009
 20
9.9682230842
 30
0.0
 10
10.6262665319
 20
9.9679195999
 30
0.0
  0
ENDSEC
  0
SECTION
  2
OBJECTS
  0
DICTIONARY
  5
C
100
AcDbDictionary
280
0
281
1
  3
ACAD_GROUP
350
D
  3
ACAD_MLINESTYLE
350
17
  3
ACAD_LAYOUT
350
1A
  3
ACAD_PLOTSETTINGS
350
19
  3
ACAD_PLOTSTYLENAME
350
E
  3
ACAD_IMAGE_DICT
350
       409
  3
ACAD_IMAGE_VARS
350
       40A
  3
ACAD_TABLESTYLE
350
       40B
  0
IMAGEDEF_REACTOR
  5
408
100
AcDbRasterImageDefReactor
 90
2
330
28F
  0
DICTIONARY
  5
D
102
{ACAD_REACTORS
330
C
102
}
100
AcDbDictionary
280
0
281
1
  0
ACDBDICTIONARYWDFLT
  5
E
102
{ACAD_REACTORS
330
C
102
}
100
AcDbDictionary
281
1
  3
Normal
350
F
100
AcDbDictionaryWithDefault
340
F
  0
DICTIONARY
  5
409
330
C
100
AcDbDictionary
281
1
  3
XOL_assy_2_img_1
350
       40E
  0
RASTERVARIABLES
  5
40A
330
C
100
AcDbRasterVariables
 90
0
 70
0
 71
1
 72
5
  0
DICTIONARY
  5
17
102
{ACAD_REACTORS
330
C
102
}
100
AcDbDictionary
280
0
281
1
  3
Standard
350
18
  0
DICTIONARY
  5
40B
330
C
100
AcDbDictionary
281
1
  3
Standard
350
       40F
  3
Standard1
350
       410
  0
DICTIONARY
  5
19
102
{ACAD_REACTORS
330
C
102
}
100
AcDbDictionary
281
1
  0
DICTIONARY
  5
1A
102
{ACAD_REACTORS
330
C
102
}
100
AcDbDictionary
281
1
  3
Model
350
40C
  3
Layout1
350
40D
  0
ACDBPLACEHOLDER
  5
F
102
{ACAD_REACTORS
330
E
102
}
  0
MLINESTYLE
  5
18
102
{ACAD_REACTORS
330
17
102
}
100
AcDbMlineStyle
  2
STANDARD
 70
0
  3

 62
256
 51
90.0
 52
90.0
 71
2
 49
0.5
 62
256
  6
BYLAYER
 49
-0.5
 62
256
  6
BYLAYER
  0
LAYOUT
  5
40C
102
{ACAD_REACTORS
330
1A
102
}
100
AcDbPlotSettings
  1

  2
none_device
  4
ANSI_C_(22.00_x_17.00_Inches)
  6

 40
0.0
 41
0.0
 42
0.0
 43
0.0
 44
558.8
 45
431.8
 46
0.0
 47
0.0
 48
0.0
 49
0.0
140
0.0
141
0.0
142
1.0
143
1.0
 70
1024
 72
0
 73
0
 74
0
  7

 75
0
147
1.0
148
0.0
149
0.0
100
AcDbLayout
  1
Model
 70
0
 71
0
 10
0.0
 20
0.0
 11
22.0
 21
17.0
 12
0.0
 22
0.0
 32
0.0
 14
0.0
 24
0.0
 34
0.0
 15
0.0
 25
0.0
 35
0.0
146
0.0
 13
0.0
 23
0.0
 33
0.0
 16
1.0
 26
0.0
 36
0.0
 17
0.0
 27
1.0
 37
0.0
 76
0
330
20C
345
0
346
0
  0
LAYOUT
  5
40D
102
{ACAD_REACTORS
330
1A
102
}
100
AcDbPlotSettings
  1

  2
none_device
  4
ANSI_C_(22.00_x_17.00_Inches)
  6

 40
0.0
 41
0.0
 42
0.0
 43
0.0
 44
558.8
 45
431.8
 46
0.0
 47
0.0
 48
0.0
 49
0.0
140
0.0
141
0.0
142
1.0
143
1.0
 70
0
 72
0
 73
0
 74
0
  7

 75
0
147
1.0
148
0.0
149
0.0
100
AcDbLayout
  1
Layout1
 70
0
 71
1
 10
0.0
 20
0.0
 11
22.0
 21
17.0
 12
0.0
 22
0.0
 32
0.0
 14
0.0
 24
0.0
 34
0.0
 15
0.0
 25
0.0
 35
0.0
146
0.0
 13
0.0
 23
0.0
 33
0.0
 16
1.0
 26
0.0
 36
0.0
 17
0.0
 27
1.0
 37
0.0
 76
0
330
20D
345
0
346
0
  0
IMAGEDEF
  5
40E
102
{ACAD_REACTORS
330
409
330
408
102
}
100
AcDbRasterImageDef
 90
0
  1
XOL_assy_2_img_1.png
 10
369.0
 20
92.0
 11
0.0066666667
 21
0.0066666667
280
1
281
0
  0
TABLESTYLE
  5
40F
102
{ACAD_REACTORS
330
40B
330
292
330
293
102
}
330
40B
100
AcDbTableStyle
  3
Standard
 70
0
 71
0
 40
0.06
 41
0.06
280
1
281
1
  7
Standard
140
0.18
170
1
 62
0
 63
7
283
0
  7
Standard
140
0.18
170
1
 62
0
 63
7
283
0
  7
Standard
140
0.18
170
1
 62
0
 63
7
283
0
  0
TABLESTYLE
  5
410
102
{ACAD_REACTORS
330
40B
330
291
102
}
330
40B
100
AcDbTableStyle
  3
Standard1
 70
1
 71
0
 40
0.06
 41
0.06
280
1
281
1
  7
Standard
140
0.18
170
1
 62
0
 63
7
283
0
  7
Standard
140
0.18
170
1
 62
0
 63
7
283
0
  7
Standard
140
0.18
170
1
 62
0
 63
7
283
0
  0
ENDSEC
  0
EOF
