999
DXF file: XOC_assy_2.dxf
999
Pro/ENGINEER 2014200 by Parametric Technology Corporation
  0
SECTION
  2
HEADER
  9
$ACADVER
  1
AC1021
  9
$DWGCODEPAGE
  3
ANSI_1252
  9
$EXTMAX
 10
22.0
 20
17.0
 30
0.0
  9
$EXTMIN
 10
0.0
 20
0.0
 30
0.0
  9
$LIMMIN
 10
0.0
 20
0.0
  9
$LIMMAX
 10
22.0
 20
17.0
  9
$VIEWCTR
 10
11.0
 20
8.5
  9
$VIEWSIZE
 40
17.0
  9
$CLAYER
  8
0
  9
$LTSCALE
 40
1.21
  9
$CELTYPE
  6
BYLAYER
  9
$DIMSCALE
 40
1.0
  9
$DIMASZ
 40
0.1875
  9
$DIMEXO
 40
0.0625
  9
$DIMDLI
 40
0.836
  9
$DIMEXE
 40
0.125
  9
$DIMCEN
 40
0.198
  9
$DIMLFAC
 40
1.0
  9
$DIMBLK
  1
_FILLED
  9
$DIMTXT
 40
0.1
  9
$DIMTOL
 70
0
  9
$DIMLIM
 70
0
  9
$DIMTFAC
 40
1.0
  9
$DIMGAP
 40
0.09
  9
$DIMDSEP
 70
46
  9
$AUNITS
 70
0
  9
$PDMODE
 70
3
  9
$PDSIZE
 40
0.3125
  9
$HANDSEED
  5
3E1
  9
$TILEMODE
 70
1
  9
$MEASUREMENT
 70
0
  9
$INSUNITS
 70
1
  0
ENDSEC
  0
SECTION
  2
CLASSES
  0
CLASS
  1
ACDBDICTIONARYWDFLT
  2
AcDbDictionaryWithDefault
  3
AutoCAD 2000
 90
0
 91
1
280
0
281
0
  0
CLASS
  1
ACDBPLACEHOLDER
  2
AcDbPlaceHolder
  3
AutoCAD 2000
 90
0
 91
1
280
0
281
0
  0
CLASS
  1
LAYOUT
  2
AcDbLayout
  3
AutoCAD 2000
 90
0
 91
0
280
0
281
0
  0
CLASS
  1
RASTERVARIABLES
  2
AcDbRasterVariables
  3
ISM
 90
0
 91
1
280
0
281
0
  0
CLASS
  1
IMAGEDEF
  2
AcDbRasterImageDef
  3
ISM
 90
0
 91
1
280
0
281
0
  0
CLASS
  1
IMAGEDEF_REACTOR
  2
AcDbRasterImageDefReactor
  3
ISM
 90
0
 91
1
280
0
281
0
  0
CLASS
  1
IMAGE
  2
AcDbRasterImage
  3
ISM
 90
127
 91
1
280
0
281
1
  0
CLASS
  1
TABLESTYLE
  2
AcDbTableStyle
  3
ObjectDBX Classes
 90
2047
 91
1
280
0
281
0
  0
CLASS
  1
ACAD_TABLE
  2
AcDbTable
  3
ObjectDBX Classes
 90
1025
 91
3
280
0
281
1
  0
ENDSEC
  0
SECTION
  2
TABLES
  0
TABLE
  2
VPORT
  5
8
100
AcDbSymbolTable
 70
2
  0
VPORT
  5
1F4
100
AcDbSymbolTableRecord
100
AcDbViewportTableRecord
  2
*ACTIVE
 70
0
 10
0.0
 20
0.0
 11
1.0
 21
1.0
 12
11.0
 22
8.5
 13
0.0
 23
0.0
 14
1.0
 24
1.0
 15
0.0
 25
0.0
 16
0.0
 26
0.0
 36
1.0
 17
0.0
 27
0.0
 37
0.0
 40
17.0
 41
1.2941176471
 42
50.0
 43
0.0
 44
0.0
 50
0.0
 51
0.0
 71
0
 72
100
 73
1
 74
1
 75
0
 76
0
 77
0
 78
0
  0
ENDTAB
  0
TABLE
  2
LTYPE
  5
5
100
AcDbSymbolTable
 70
6
  0
LTYPE
  5
14
100
AcDbSymbolTableRecord
100
AcDbLinetypeTableRecord
  2
BYBLOCK
 70
0
  3

 72
65
 73
0
 40
0.0
  0
LTYPE
  5
15
100
AcDbSymbolTableRecord
100
AcDbLinetypeTableRecord
  2
BYLAYER
 70
0
  3

 72
65
 73
0
 40
0.0
  0
LTYPE
  5
16
100
AcDbSymbolTableRecord
100
AcDbLinetypeTableRecord
  2
CONTINUOUS
 70
64
  3
Solid line
 72
65
 73
0
 40
0.0
  0
LTYPE
  5
1F5
100
AcDbSymbolTableRecord
100
AcDbLinetypeTableRecord
  2
CENTER
 70
64
  3
____ _ ____ _ ____ _ ____ _ ____ _ ____ _ ____
 72
65
 73
4
 40
0.6
 49
0.375
 74
0
 49
-0.075
 74
0
 49
0.075
 74
0
 49
-0.075
 74
0
  0
LTYPE
  5
1F6
100
AcDbSymbolTableRecord
100
AcDbLinetypeTableRecord
  2
HIDDEN
 70
64
  3
- - - - - - - - - - - - - - - - - - - -
 72
65
 73
2
 40
0.2
 49
0.1
 74
0
 49
-0.1
 74
0
  0
LTYPE
  5
1F7
100
AcDbSymbolTableRecord
100
AcDbLinetypeTableRecord
  2
PHANTOM
 70
64
  3
_____ _ _ _____ _ _ _____ _ _ _____
 72
65
 73
6
 40
0.8
 49
0.45
 74
0
 49
-0.05
 74
0
 49
0.1
 74
0
 49
-0.05
 74
0
 49
0.1
 74
0
 49
-0.05
 74
0
  0
LTYPE
  5
1F8
100
AcDbSymbolTableRecord
100
AcDbLinetypeTableRecord
  2
DOT
 70
64
  3
. . . . . . . . . . . . . . . . . . . .
 72
65
 73
2
 40
0.2
 49
0.1
 74
0
 49
-0.1
 74
0
  0
LTYPE
  5
1F9
100
AcDbSymbolTableRecord
100
AcDbLinetypeTableRecord
  2
DASHED
 70
64
  3
- - - - - - - - - - - - - - - - - - - -
 72
65
 73
2
 40
0.2
 49
0.1
 74
0
 49
-0.1
 74
0
  0
ENDTAB
  0
TABLE
  2
LAYER
  5
2
100
AcDbSymbolTable
 70
36
  0
LAYER
  5
10
100
AcDbSymbolTableRecord
100
AcDbLayerTableRecord
  2
0
 70
0
 62
7
  6
CONTINUOUS
370
-3
390
F
  0
LAYER
  5
1FA
100
AcDbSymbolTableRecord
100
AcDbLayerTableRecord
  2
DEFAULT_1
 70
0
 62
7
  6
CENTER
370
-3
390
F
  0
LAYER
  5
1FB
100
AcDbSymbolTableRecord
100
AcDbLayerTableRecord
  2
DEFAULT_2
 70
0
 62
8
  6
HIDDEN
370
-3
390
F
  0
LAYER
  5
1FC
100
AcDbSymbolTableRecord
100
AcDbLayerTableRecord
  2
DEFAULT_3
 70
0
 62
7
  6
PHANTOM
370
-3
390
F
  0
LAYER
  5
1FD
100
AcDbSymbolTableRecord
100
AcDbLayerTableRecord
  2
01___PRT_ALL_DTM_PLN
 70
0
 62
7
  6
CONTINUOUS
370
-3
390
F
  0
LAYER
  5
1FE
100
AcDbSymbolTableRecord
100
AcDbLayerTableRecord
  2
01___PRT_DEF_DTM_PLN
 70
0
 62
7
  6
CONTINUOUS
370
-3
390
F
  0
LAYER
  5
1FF
100
AcDbSymbolTableRecord
100
AcDbLayerTableRecord
  2
02___PRT_ALL_AXES
 70
0
 62
7
  6
CONTINUOUS
370
-3
390
F
  0
LAYER
  5
200
100
AcDbSymbolTableRecord
100
AcDbLayerTableRecord
  2
03___PRT_ALL_CURVES
 70
0
 62
7
  6
CONTINUOUS
370
-3
390
F
  0
LAYER
  5
201
100
AcDbSymbolTableRecord
100
AcDbLayerTableRecord
  2
04___PRT_ALL_DTM_PNT
 70
0
 62
7
  6
CONTINUOUS
370
-3
390
F
  0
LAYER
  5
202
100
AcDbSymbolTableRecord
100
AcDbLayerTableRecord
  2
05___PRT_ALL_DTM_CSYS
 70
0
 62
7
  6
CONTINUOUS
370
-3
390
F
  0
LAYER
  5
203
100
AcDbSymbolTableRecord
100
AcDbLayerTableRecord
  2
05___PRT_DEF_DTM_CSYS
 70
0
 62
7
  6
CONTINUOUS
370
-3
390
F
  0
LAYER
  5
204
100
AcDbSymbolTableRecord
100
AcDbLayerTableRecord
  2
06___PRT_ALL_SURFS
 70
0
 62
7
  6
CONTINUOUS
370
-3
390
F
  0
LAYER
  5
205
100
AcDbSymbolTableRecord
100
AcDbLayerTableRecord
  2
DATUM_PLANES
 70
0
 62
7
  6
CONTINUOUS
370
-3
390
F
  0
LAYER
  5
206
100
AcDbSymbolTableRecord
100
AcDbLayerTableRecord
  2
PORT_AREAS
 70
0
 62
7
  6
CONTINUOUS
370
-3
390
F
  0
LAYER
  5
207
100
AcDbSymbolTableRecord
100
AcDbLayerTableRecord
  2
SUNNBOMCOSMETIC
 70
0
 62
7
  6
CONTINUOUS
370
-3
390
F
  0
LAYER
  5
208
100
AcDbSymbolTableRecord
100
AcDbLayerTableRecord
  2
SUNNBOMSTAMPING
 70
0
 62
7
  6
CONTINUOUS
370
-3
390
F
  0
LAYER
  5
209
100
AcDbSymbolTableRecord
100
AcDbLayerTableRecord
  2
THREADS
 70
0
 62
7
  6
CONTINUOUS
370
-3
390
F
  0
ENDTAB
  0
TABLE
  2
STYLE
  5
3
100
AcDbSymbolTable
 70
1
  0
STYLE
  5
11
100
AcDbSymbolTableRecord
100
AcDbTextStyleTableRecord
  2
STANDARD
 70
0
 40
0.0
 41
0.8
 50
0.0
 71
0
 42
0.2
  3
txt
  4

  0
STYLE
  5
20A
100
AcDbSymbolTableRecord
100
AcDbTextStyleTableRecord
  2
TEXTSTYLE_1
 70
0
 40
0.0
 41
0.8
 50
0.0
 71
0
 42
0.2
  3
gdt
  4

  0
ENDTAB
  0
TABLE
  2
VIEW
  5
6
100
AcDbSymbolTable
 70
0
  0
ENDTAB
  0
TABLE
  2
UCS
  5
7
100
AcDbSymbolTable
 70
0
  0
ENDTAB
  0
TABLE
  2
APPID
  5
9
100
AcDbSymbolTable
 70
1
  0
APPID
  5
20B
100
AcDbSymbolTableRecord
100
AcDbRegAppTableRecord
  2
ACAD
 70
0
  0
ENDTAB
  0
TABLE
  2
BLOCK_RECORD
  5
1
100
AcDbSymbolTable
 70
0
  0
BLOCK_RECORD
  5
20C
100
AcDbSymbolTableRecord
100
AcDbBlockTableRecord
  2
*Model_Space
  0
BLOCK_RECORD
  5
20D
100
AcDbSymbolTableRecord
100
AcDbBlockTableRecord
  2
*Paper_Space
  0
BLOCK_RECORD
  5
20E
100
AcDbSymbolTableRecord
100
AcDbBlockTableRecord
  2
SUN_FIRST_THIRD_ANGLE_BL0
  0
BLOCK_RECORD
  5
20F
100
AcDbSymbolTableRecord
100
AcDbBlockTableRecord
  2
*T1
  0
BLOCK_RECORD
  5
210
100
AcDbSymbolTableRecord
100
AcDbBlockTableRecord
  2
*T2
  0
BLOCK_RECORD
  5
211
100
AcDbSymbolTableRecord
100
AcDbBlockTableRecord
  2
*T3
  0
ENDTAB
  0
TABLE
  2
DIMSTYLE
  5
A
100
AcDbSymbolTable
 70
1
100
AcDbDimStyleTable
 71
0
  0
DIMSTYLE
105
212
100
AcDbSymbolTableRecord
100
AcDbDimStyleTableRecord
  2
STANDARD
 70
0
  3

  4

 40
1.0
 41
0.1875
 42
0.0625
 43
0.38
 44
0.125
 45
0.0
 46
0.0
 47
0.001
 48
0.001
140
0.1
141
0.09
142
0.0
143
25.4
144
1.0
145
0.0
146
1.0
147
0.09
 71
0.0
 72
0.0
 73
1
 74
1
 75
0
 76
0
 77
0
 78
4
170
0
171
2
172
0
173
0
174
0
175
0
176
0
177
0
178
0
270
2
271
3
272
3
273
2
274
2
275
0
280
0
281
0
282
0
283
1
284
4
285
0
286
0
287
3
288
0
340
11
278
46
  0
ENDTAB
  0
ENDSEC
  0
SECTION
  2
BLOCKS
  0
BLOCK
  5
20
100
AcDbEntity
  8
0
100
AcDbBlockBegin
  2
*Model_Space
 70
0
 10
0.0
 20
0.0
 30
0.0
  3
*Model_Space
  1

  0
ENDBLK
  5
21
100
AcDbEntity
  8
0
100
AcDbBlockEnd
  0
BLOCK
  5
1C
100
AcDbEntity
  8
0
100
AcDbBlockBegin
  2
*Paper_Space
 70
0
 10
0.0
 20
0.0
 30
0.0
  3
*Paper_Space
  1

  0
ENDBLK
  5
1D
100
AcDbEntity
  8
0
100
AcDbBlockEnd
  0
BLOCK
  5
213
100
AcDbEntity
  8
0
100
AcDbBlockBegin
 62
2
  6
CONTINUOUS
  2
SUN_FIRST_THIRD_ANGLE_BL0
 70
64
 10
20.4816717061
 20
1.2289683772
  3
SUN_FIRST_THIRD_ANGLE_BL0
  1

  0
TEXT
  5
214
100
AcDbEntity
  8
0
100
AcDbText
 62
2
  6
CONTINUOUS
 10
19.4750896608
 20
1.4136269581
  7
STANDARD
 40
0.08
  1
FIRST ANGLE
 41
0.8
 72
0
100
AcDbText
  0
TEXT
  5
215
100
AcDbEntity
  8
0
100
AcDbText
 62
2
  6
CONTINUOUS
 10
20.7842537513
 20
1.4047600029
  7
STANDARD
 40
0.08
  1
THIRD ANGLE
 41
0.8
 72
0
100
AcDbText
  0
LINE
  5
216
100
AcDbEntity
  8
0
100
AcDbLine
 62
7
  6
CONTINUOUS
 10
19.4767170086
 20
1.1727031207
 11
19.6334271527
 21
1.1717972817
  0
LINE
  5
217
100
AcDbEntity
  8
0
100
AcDbLine
 62
7
  6
CONTINUOUS
 10
19.6596964832
 20
1.1717972817
 11
19.6950230232
 21
1.171593082
  0
LINE
  5
218
100
AcDbEntity
  8
0
100
AcDbLine
 62
7
  6
CONTINUOUS
 10
19.7194818561
 20
1.1708914427
 11
19.8852396156
 21
1.1699333054
  0
LINE
  5
219
100
AcDbEntity
  8
0
100
AcDbLine
 62
7
  6
CONTINUOUS
 10
19.4758111696
 20
1.2723454088
 11
19.88525039
 21
1.3511534004
  0
LINE
  5
21A
100
AcDbEntity
  8
0
100
AcDbLine
 62
7
  6
CONTINUOUS
 10
19.88525039
 20
1.3511534004
 11
19.8831348489
 21
0.9851647912
  0
LINE
  5
21B
100
AcDbEntity
  8
0
100
AcDbLine
 62
7
  6
CONTINUOUS
 10
19.8831348489
 20
0.9851647912
 11
19.4767170086
 21
1.0658141206
  0
LINE
  5
21C
100
AcDbEntity
  8
0
100
AcDbLine
 62
7
  6
CONTINUOUS
 10
19.4767170086
 20
1.0658141206
 11
19.4779056764
 21
1.2714536432
  0
CIRCLE
  5
21D
100
AcDbEntity
  8
0
100
AcDbCircle
 62
7
  6
CONTINUOUS
 10
20.2068232291
 20
1.1717972817
 40
0.175742101
  0
CIRCLE
  5
21E
100
AcDbEntity
  8
0
100
AcDbCircle
 62
7
  6
CONTINUOUS
 10
20.2068232291
 20
1.1717972817
 40
0.1005522074
  0
LINE
  5
21F
100
AcDbEntity
  8
0
100
AcDbLine
 62
7
  6
CONTINUOUS
 10
20.2077290681
 20
1.3756110529
 11
20.2071171714
 21
1.2379342989
  0
LINE
  5
220
100
AcDbEntity
  8
0
100
AcDbLine
 62
7
  6
CONTINUOUS
 10
20.2077290681
 20
1.2016899681
 11
20.2074674401
 21
1.1428236749
  0
LINE
  5
221
100
AcDbEntity
  8
0
100
AcDbLine
 62
7
  6
CONTINUOUS
 10
20.208634907
 20
1.101141841
 11
20.2080230104
 21
0.963465087
  0
LINE
  5
222
100
AcDbEntity
  8
0
100
AcDbLine
 62
7
  6
CONTINUOUS
 10
20.0066328138
 20
1.1745147986
 11
20.1443095678
 21
1.1739029019
  0
LINE
  5
223
100
AcDbEntity
  8
0
100
AcDbLine
 62
7
  6
CONTINUOUS
 10
20.1832714155
 20
1.1727031207
 11
20.238153505
 21
1.172335442
  0
LINE
  5
224
100
AcDbEntity
  8
0
100
AcDbLine
 62
7
  6
CONTINUOUS
 10
20.2756669918
 20
1.1717972817
 11
20.407916871
 21
1.1712095044
  0
CIRCLE
  5
225
100
AcDbEntity
  8
0
100
AcDbCircle
 62
7
  6
CONTINUOUS
 10
20.7509457401
 20
1.1693297793
 40
0.1722024983
  0
CIRCLE
  5
226
100
AcDbEntity
  8
0
100
AcDbCircle
 62
7
  6
CONTINUOUS
 10
20.7509457401
 20
1.1693297793
 40
0.0985164967
  0
LINE
  5
227
100
AcDbEntity
  8
0
100
AcDbLine
 62
7
  6
CONTINUOUS
 10
20.7169767782
 20
1.170462078
 11
20.7825395137
 21
1.1682766535
  0
LINE
  5
228
100
AcDbEntity
  8
0
100
AcDbLine
 62
7
  6
CONTINUOUS
 10
20.8177513651
 20
1.1693297793
 11
20.947965719
 21
1.1693297793
  0
LINE
  5
229
100
AcDbEntity
  8
0
100
AcDbLine
 62
7
  6
CONTINUOUS
 10
20.6875370113
 20
1.170462078
 11
20.5573226574
 21
1.170462078
  0
LINE
  5
22A
100
AcDbEntity
  8
0
100
AcDbLine
 62
7
  6
CONTINUOUS
 10
20.7486811426
 20
1.1987695462
 11
20.7486811426
 21
1.1432869085
  0
LINE
  5
22B
100
AcDbEntity
  8
0
100
AcDbLine
 62
7
  6
CONTINUOUS
 10
20.7498134414
 20
1.1059210505
 11
20.7498134414
 21
0.9757066966
  0
LINE
  5
22C
100
AcDbEntity
  8
0
100
AcDbLine
 62
7
  6
CONTINUOUS
 10
20.7486811426
 20
1.2338708068
 11
20.7486811426
 21
1.3640851607
  0
LINE
  5
22D
100
AcDbEntity
  8
0
100
AcDbLine
 62
7
  6
CONTINUOUS
 10
21.0702539817
 20
1.2701043662
 11
21.4790138229
 21
1.3448360823
  0
LINE
  5
22E
100
AcDbEntity
  8
0
100
AcDbLine
 62
7
  6
CONTINUOUS
 10
21.4790138229
 20
1.3448360823
 11
21.4790138229
 21
0.9779712941
  0
LINE
  5
22F
100
AcDbEntity
  8
0
100
AcDbLine
 62
7
  6
CONTINUOUS
 10
21.4790138229
 20
0.9779712941
 11
21.069121683
 21
1.0617614
  0
LINE
  5
230
100
AcDbEntity
  8
0
100
AcDbLine
 62
7
  6
CONTINUOUS
 10
21.0702539817
 20
1.2701043662
 11
21.069121683
 21
1.0617614
  0
LINE
  5
231
100
AcDbEntity
  8
0
100
AcDbLine
 62
7
  6
CONTINUOUS
 10
21.4790138229
 20
1.1693297793
 11
21.3159628059
 21
1.1693297793
  0
LINE
  5
232
100
AcDbEntity
  8
0
100
AcDbLine
 62
7
  6
CONTINUOUS
 10
21.2876553377
 20
1.1693297793
 11
21.2502894796
 21
1.1693297793
  0
LINE
  5
233
100
AcDbEntity
  8
0
100
AcDbLine
 62
7
  6
CONTINUOUS
 10
21.2208497126
 20
1.1659328831
 11
21.0713862804
 21
1.1659328831
  0
LINE
  5
234
100
AcDbEntity
  8
0
100
AcDbLine
 62
7
  6
CONTINUOUS
 10
20.4796138713
 20
1.5284908897
 11
20.4766766948
 21
0.9294458646
  0
ENDBLK
  5
235
100
AcDbEntity
  8
0
  6
BYBLOCK
 62
0
100
AcDbBlockEnd
  0
BLOCK
  5
236
100
AcDbEntity
  8
0
100
AcDbBlockBegin
  2
*T1
 70
1
 10
0.0
 20
0.0
  3
*T1
  1

  0
LINE
  5
237
100
AcDbEntity
  8
0
100
AcDbLine
 62
2
  6
CONTINUOUS
 10
9.275
 20
0.0
 11
-0.0
 21
0.0
  0
LINE
  5
238
100
AcDbEntity
  8
0
100
AcDbLine
 62
2
  6
CONTINUOUS
 10
9.275
 20
0.0
 11
9.275
 21
1.25
  0
LINE
  5
239
100
AcDbEntity
  8
0
100
AcDbLine
 62
2
  6
CONTINUOUS
 10
9.275
 20
0.625
 11
-0.0
 21
0.625
  0
LINE
  5
23A
100
AcDbEntity
  8
0
100
AcDbLine
 62
2
  6
CONTINUOUS
 10
9.275
 20
1.25
 11
-0.0
 21
1.25
  0
LINE
  5
23B
100
AcDbEntity
  8
0
100
AcDbLine
 62
2
  6
CONTINUOUS
 10
6.8
 20
0.0
 11
6.8
 21
1.25
  0
LINE
  5
23C
100
AcDbEntity
  8
0
100
AcDbLine
 62
2
  6
CONTINUOUS
 10
6.4
 20
0.0
 11
6.4
 21
0.625
  0
LINE
  5
23D
100
AcDbEntity
  8
0
100
AcDbLine
 62
2
  6
CONTINUOUS
 10
5.9
 20
0.0
 11
5.9
 21
0.625
  0
LINE
  5
23E
100
AcDbEntity
  8
0
100
AcDbLine
 62
2
  6
CONTINUOUS
 10
5.2
 20
0.0
 11
5.2
 21
0.625
  0
LINE
  5
23F
100
AcDbEntity
  8
0
100
AcDbLine
 62
2
  6
CONTINUOUS
 10
4.1
 20
0.0
 11
4.1
 21
1.25
  0
LINE
  5
240
100
AcDbEntity
  8
0
100
AcDbLine
 62
2
  6
CONTINUOUS
 10
-0.0
 20
0.0
 11
-0.0
 21
1.25
  0
MTEXT
  5
241
100
AcDbEntity
  8
0
100
AcDbMText
 62
2
  6
CONTINUOUS
  7
STANDARD
 71
2
 72
1
 10
6.6
 20
0.325
 30
0.0
 11
1.0
 21
0.0
 31
0.0
 44
0.9
  1
2
 40
0.125
 41
0.2
  0
MTEXT
  5
242
100
AcDbEntity
  8
0
100
AcDbMText
 62
2
  6
CONTINUOUS
  7
STANDARD
 71
2
 72
1
 10
6.15
 20
0.325
 30
0.0
 11
1.0
 21
0.0
 31
0.0
 44
0.9
  1
C
 40
0.125
 41
0.2
  0
MTEXT
  5
243
100
AcDbEntity
  8
0
100
AcDbMText
 62
2
  6
CONTINUOUS
  7
STANDARD
 71
2
 72
1
 10
5.55
 20
0.325
 30
0.0
 11
1.0
 21
0.0
 31
0.0
 44
0.9
  1
1.000
 40
0.125
 41
1.0
  0
MTEXT
  5
244
100
AcDbEntity
  8
0
100
AcDbMText
 62
2
  6
CONTINUOUS
  7
STANDARD
 71
2
 72
1
 10
4.65
 20
0.325
 30
0.0
 11
1.0
 21
0.0
 31
0.0
 44
0.9
  1
Jun-30-23
 40
0.125
 41
1.8
  0
MTEXT
  5
245
100
AcDbEntity
  8
0
100
AcDbMText
 62
2
  6
CONTINUOUS
  7
STANDARD
 71
2
 72
1
 10
2.05
 20
0.4625
 30
0.0
 11
1.0
 21
0.0
 31
0.0
 44
0.9
  1
T-11A Line mount\PCross port with shuttle on port 3s
 40
0.125
 41
6.8
  0
MTEXT
  5
246
100
AcDbEntity
  8
0
100
AcDbMText
 62
2
  6
CONTINUOUS
  7
STANDARD
 71
1
 72
1
 10
6.45
 20
0.5625
 30
0.0
 11
1.0
 21
0.0
 31
0.0
 44
0.9
  1
SHEET
 40
0.06
 41
0.48
  0
MTEXT
  5
247
100
AcDbEntity
  8
0
100
AcDbMText
 62
2
  6
CONTINUOUS
  7
STANDARD
 71
1
 72
1
 10
5.95
 20
0.5625
 30
0.0
 11
1.0
 21
0.0
 31
0.0
 44
0.9
  1
DWG SIZE
 40
0.06
 41
0.768
  0
MTEXT
  5
248
100
AcDbEntity
  8
0
100
AcDbMText
 62
2
  6
CONTINUOUS
  7
STANDARD
 71
1
 72
1
 10
5.25
 20
0.5625
 30
0.0
 11
1.0
 21
0.0
 31
0.0
 44
0.9
  1
SCALE
 40
0.06
 41
0.48
  0
MTEXT
  5
249
100
AcDbEntity
  8
0
100
AcDbMText
 62
2
  6
CONTINUOUS
  7
STANDARD
 71
1
 72
1
 10
4.15
 20
0.5625
 30
0.0
 11
1.0
 21
0.0
 31
0.0
 44
0.9
  1
DATE
 40
0.06
 41
0.384
  0
MTEXT
  5
24A
100
AcDbEntity
  8
0
100
AcDbMText
 62
2
  6
CONTINUOUS
  7
STANDARD
 71
1
 72
1
 10
0.05
 20
0.5625
 30
0.0
 11
1.0
 21
0.0
 31
0.0
 44
0.9
  1
DESCRIPTION
 40
0.06
 41
1.056
  0
MTEXT
  5
24B
100
AcDbEntity
  8
0
100
AcDbMText
 62
2
  6
CONTINUOUS
  7
STANDARD
 71
2
 72
1
 10
5.45
 20
1.0375
 30
0.0
 11
1.0
 21
0.0
 31
0.0
 44
0.9
  1
ALL DIMENSIONS IN INCH\PVIEWS ARE THIRD ANGLE
 40
0.12
 41
4.224
  0
MTEXT
  5
24C
100
AcDbEntity
  8
0
100
AcDbMText
 62
2
  6
CONTINUOUS
  7
STANDARD
 71
2
 72
1
 10
2.05
 20
0.95
 30
0.0
 11
1.0
 21
0.0
 31
0.0
 44
0.9
  1
XOC
 40
0.125
 41
0.6
  0
MTEXT
  5
24D
100
AcDbEntity
  8
0
100
AcDbMText
 62
2
  6
CONTINUOUS
  7
STANDARD
 71
1
 72
1
 10
0.05
 20
1.1875
 30
0.0
 11
1.0
 21
0.0
 31
0.0
 44
0.9
  1
MODEL
 40
0.06
 41
0.48
  0
ENDBLK
  5
24E
100
AcDbEntity
  8
0
  6
BYBLOCK
 62
0
100
AcDbBlockEnd
  0
BLOCK
  5
24F
100
AcDbEntity
  8
0
100
AcDbBlockBegin
  2
*T2
 70
1
 10
0.0
 20
0.0
  3
*T2
  1

  0
LINE
  5
250
100
AcDbEntity
  8
0
100
AcDbLine
 62
2
  6
CONTINUOUS
 10
0.0
 20
0.0
 11
9.055
 21
0.0
  0
LINE
  5
251
100
AcDbEntity
  8
0
100
AcDbLine
 62
2
  6
CONTINUOUS
 10
0.0
 20
0.0
 11
0.0
 21
-2.844
  0
LINE
  5
252
100
AcDbEntity
  8
0
100
AcDbLine
 62
2
  6
CONTINUOUS
 10
0.0
 20
-0.344
 11
9.055
 21
-0.344
  0
LINE
  5
253
100
AcDbEntity
  8
0
100
AcDbLine
 62
2
  6
CONTINUOUS
 10
0.0
 20
-0.594
 11
9.055
 21
-0.594
  0
LINE
  5
254
100
AcDbEntity
  8
0
100
AcDbLine
 62
2
  6
CONTINUOUS
 10
0.0
 20
-0.844
 11
9.055
 21
-0.844
  0
LINE
  5
255
100
AcDbEntity
  8
0
100
AcDbLine
 62
2
  6
CONTINUOUS
 10
0.0
 20
-1.094
 11
9.055
 21
-1.094
  0
LINE
  5
256
100
AcDbEntity
  8
0
100
AcDbLine
 62
2
  6
CONTINUOUS
 10
0.0
 20
-1.344
 11
9.055
 21
-1.344
  0
LINE
  5
257
100
AcDbEntity
  8
0
100
AcDbLine
 62
2
  6
CONTINUOUS
 10
0.0
 20
-1.594
 11
9.055
 21
-1.594
  0
LINE
  5
258
100
AcDbEntity
  8
0
100
AcDbLine
 62
2
  6
CONTINUOUS
 10
0.0
 20
-1.844
 11
9.055
 21
-1.844
  0
LINE
  5
259
100
AcDbEntity
  8
0
100
AcDbLine
 62
2
  6
CONTINUOUS
 10
0.0
 20
-2.094
 11
9.055
 21
-2.094
  0
LINE
  5
25A
100
AcDbEntity
  8
0
100
AcDbLine
 62
2
  6
CONTINUOUS
 10
0.0
 20
-2.344
 11
9.055
 21
-2.344
  0
LINE
  5
25B
100
AcDbEntity
  8
0
100
AcDbLine
 62
2
  6
CONTINUOUS
 10
0.0
 20
-2.594
 11
9.055
 21
-2.594
  0
LINE
  5
25C
100
AcDbEntity
  8
0
100
AcDbLine
 62
2
  6
CONTINUOUS
 10
0.0
 20
-2.844
 11
9.055
 21
-2.844
  0
LINE
  5
25D
100
AcDbEntity
  8
0
100
AcDbLine
 62
2
  6
CONTINUOUS
 10
3.055
 20
0.0
 11
3.055
 21
-2.844
  0
LINE
  5
25E
100
AcDbEntity
  8
0
100
AcDbLine
 62
2
  6
CONTINUOUS
 10
9.055
 20
0.0
 11
9.055
 21
-2.844
  0
MTEXT
  5
25F
100
AcDbEntity
  8
0
100
AcDbMText
 62
2
  6
CONTINUOUS
  7
STANDARD
 71
2
 72
1
 10
1.5275
 20
-0.0995
 30
0.0
 11
1.0
 21
0.0
 31
0.0
 44
0.9
  1
Technical Data
 40
0.145
 41
3.248
  0
MTEXT
  5
260
100
AcDbEntity
  8
0
100
AcDbMText
 62
2
  6
CONTINUOUS
  7
STANDARD
 71
2
 72
1
 10
4.555
 20
-0.0995
 30
0.0
 11
1.0
 21
0.0
 31
0.0
 44
0.9
  1
U.S. Units
 40
0.145
 41
2.32
  0
MTEXT
  5
261
100
AcDbEntity
  8
0
100
AcDbMText
 62
2
  6
CONTINUOUS
  7
STANDARD
 71
2
 72
1
 10
7.555
 20
-0.0995
 30
0.0
 11
1.0
 21
0.0
 31
0.0
 44
0.9
  1
Metric Units
 40
0.145
 41
2.784
  0
MTEXT
  5
262
100
AcDbEntity
  8
0
100
AcDbMText
 62
2
  6
CONTINUOUS
  7
STANDARD
 71
2
 72
1
 10
1.5275
 20
-0.4065
 30
0.0
 11
1.0
 21
0.0
 31
0.0
 44
0.9
  1
Cavity
 40
0.125
 41
1.2
  0
MTEXT
  5
263
100
AcDbEntity
  8
0
100
AcDbMText
 62
2
  6
CONTINUOUS
  7
STANDARD
 71
2
 72
1
 10
6.055
 20
-0.4065
 30
0.0
 11
1.0
 21
0.0
 31
0.0
 44
0.9
  1
T-11A
 40
0.125
 41
1.0
  0
MTEXT
  5
264
100
AcDbEntity
  8
0
100
AcDbMText
 62
2
  6
CONTINUOUS
  7
STANDARD
 71
2
 72
1
 10
1.5275
 20
-0.6565
 30
0.0
 11
1.0
 21
0.0
 31
0.0
 44
0.9
  1
Body Features
 40
0.125
 41
2.6
  0
MTEXT
  5
265
100
AcDbEntity
  8
0
100
AcDbMText
 62
2
  6
CONTINUOUS
  7
STANDARD
 71
2
 72
1
 10
6.055
 20
-0.6565
 30
0.0
 11
1.0
 21
0.0
 31
0.0
 44
0.9
  1
Cross port with shuttle on port 3s
 40
0.125
 41
6.8
  0
MTEXT
  5
266
100
AcDbEntity
  8
0
100
AcDbMText
 62
2
  6
CONTINUOUS
  7
STANDARD
 71
2
 72
1
 10
1.5275
 20
-0.9065
 30
0.0
 11
1.0
 21
0.0
 31
0.0
 44
0.9
  1
Body Type
 40
0.125
 41
1.8
  0
MTEXT
  5
267
100
AcDbEntity
  8
0
100
AcDbMText
 62
2
  6
CONTINUOUS
  7
STANDARD
 71
2
 72
1
 10
6.055
 20
-0.9065
 30
0.0
 11
1.0
 21
0.0
 31
0.0
 44
0.9
  1
Line mount
 40
0.125
 41
2.0
  0
MTEXT
  5
268
100
AcDbEntity
  8
0
100
AcDbMText
 62
2
  6
CONTINUOUS
  7
STANDARD
 71
2
 72
1
 10
1.5275
 20
-1.1565
 30
0.0
 11
1.0
 21
0.0
 31
0.0
 44
0.9
  1
Interface
 40
0.125
 41
1.8
  0
MTEXT
  5
269
100
AcDbEntity
  8
0
100
AcDbMText
 62
2
  6
CONTINUOUS
  7
STANDARD
 71
2
 72
1
 10
6.055
 20
-1.1565
 30
0.0
 11
1.0
 21
0.0
 31
0.0
 44
0.9
  1
None
 40
0.125
 41
0.8
  0
MTEXT
  5
26A
100
AcDbEntity
  8
0
100
AcDbMText
 62
2
  6
CONTINUOUS
  7
STANDARD
 71
2
 72
1
 10
1.5275
 20
-1.4065
 30
0.0
 11
1.0
 21
0.0
 31
0.0
 44
0.9
  1
Open Cavity Quantity
 40
0.125
 41
4.0
  0
MTEXT
  5
26B
100
AcDbEntity
  8
0
100
AcDbMText
 62
2
  6
CONTINUOUS
  7
STANDARD
 71
2
 72
1
 10
6.055
 20
-1.4065
 30
0.0
 11
1.0
 21
0.0
 31
0.0
 44
0.9
  1
2
 40
0.125
 41
0.2
  0
MTEXT
  5
26C
100
AcDbEntity
  8
0
100
AcDbMText
 62
2
  6
CONTINUOUS
  7
STANDARD
 71
2
 72
1
 10
1.5275
 20
-1.6565
 30
0.0
 11
1.0
 21
0.0
 31
0.0
 44
0.9
  1
Weight
 40
0.125
 41
1.2
  0
MTEXT
  5
26D
100
AcDbEntity
  8
0
100
AcDbMText
 62
2
  6
CONTINUOUS
  7
STANDARD
 71
2
 72
1
 10
4.555
 20
-1.6565
 30
0.0
 11
1.0
 21
0.0
 31
0.0
 44
0.9
  1
5.686 lb.
 40
0.125
 41
1.8
  0
MTEXT
  5
26E
100
AcDbEntity
  8
0
100
AcDbMText
 62
2
  6
CONTINUOUS
  7
STANDARD
 71
2
 72
1
 10
7.555
 20
-1.6565
 30
0.0
 11
1.0
 21
0.0
 31
0.0
 44
0.9
  1
2,579 kg.
 40
0.125
 41
1.8
  0
MTEXT
  5
26F
100
AcDbEntity
  8
0
100
AcDbMText
 62
2
  6
CONTINUOUS
  7
STANDARD
 71
2
 72
1
 10
1.5275
 20
-1.9065
 30
0.0
 11
1.0
 21
0.0
 31
0.0
 44
0.9
  1
Mounting Hole Diameter
 40
0.125
 41
4.4
  0
MTEXT
  5
270
100
AcDbEntity
  8
0
100
AcDbMText
 62
2
  6
CONTINUOUS
  7
STANDARD
 71
2
 72
1
 10
4.555
 20
-1.9065
 30
0.0
 11
1.0
 21
0.0
 31
0.0
 44
0.9
  1
.42 in.
 40
0.125
 41
1.4
  0
MTEXT
  5
271
100
AcDbEntity
  8
0
100
AcDbMText
 62
2
  6
CONTINUOUS
  7
STANDARD
 71
2
 72
1
 10
7.555
 20
-1.9065
 30
0.0
 11
1.0
 21
0.0
 31
0.0
 44
0.9
  1
10,7 mm
 40
0.125
 41
1.4
  0
MTEXT
  5
272
100
AcDbEntity
  8
0
100
AcDbMText
 62
2
  6
CONTINUOUS
  7
STANDARD
 71
2
 72
1
 10
1.5275
 20
-2.1565
 30
0.0
 11
1.0
 21
0.0
 31
0.0
 44
0.9
  1
Mounting Hole Depth
 40
0.125
 41
3.8
  0
MTEXT
  5
273
100
AcDbEntity
  8
0
100
AcDbMText
 62
2
  6
CONTINUOUS
  7
STANDARD
 71
2
 72
1
 10
6.055
 20
-2.1565
 30
0.0
 11
1.0
 21
0.0
 31
0.0
 44
0.9
  1
Through
 40
0.125
 41
1.4
  0
MTEXT
  5
274
100
AcDbEntity
  8
0
100
AcDbMText
 62
2
  6
CONTINUOUS
  7
STANDARD
 71
2
 72
1
 10
1.5275
 20
-2.4065
 30
0.0
 11
1.0
 21
0.0
 31
0.0
 44
0.9
  1
Mounting Hole Quantity
 40
0.125
 41
4.4
  0
MTEXT
  5
275
100
AcDbEntity
  8
0
100
AcDbMText
 62
2
  6
CONTINUOUS
  7
STANDARD
 71
2
 72
1
 10
6.055
 20
-2.4065
 30
0.0
 11
1.0
 21
0.0
 31
0.0
 44
0.9
  1
2
 40
0.125
 41
0.2
  0
MTEXT
  5
276
100
AcDbEntity
  8
0
100
AcDbMText
 62
2
  6
CONTINUOUS
  7
STANDARD
 71
2
 72
1
 10
1.5275
 20
-2.6565
 30
0.0
 11
1.0
 21
0.0
 31
0.0
 44
0.9
  1
Includes integral cartridge(s)
 40
0.125
 41
6.0
  0
MTEXT
  5
277
100
AcDbEntity
  8
0
100
AcDbMText
 62
2
  6
CONTINUOUS
  7
STANDARD
 71
2
 72
1
 10
6.055
 20
-2.6565
 30
0.0
 11
1.0
 21
0.0
 31
0.0
 44
0.9
  1
Yes (see Included Components)
 40
0.125
 41
5.8
  0
ENDBLK
  5
278
100
AcDbEntity
  8
0
  6
BYBLOCK
 62
0
100
AcDbBlockEnd
  0
BLOCK
  5
279
100
AcDbEntity
  8
0
100
AcDbBlockBegin
  2
*T3
 70
1
 10
0.0
 20
0.0
  3
*T3
  1

  0
LINE
  5
27A
100
AcDbEntity
  8
0
100
AcDbLine
 62
2
  6
CONTINUOUS
 10
0.0
 20
0.0
 11
4.6
 21
0.0
  0
LINE
  5
27B
100
AcDbEntity
  8
0
100
AcDbLine
 62
2
  6
CONTINUOUS
 10
0.0
 20
0.0
 11
0.0
 21
-1.43775
  0
LINE
  5
27C
100
AcDbEntity
  8
0
100
AcDbLine
 62
2
  6
CONTINUOUS
 10
0.0
 20
-0.34375
 11
4.6
 21
-0.34375
  0
LINE
  5
27D
100
AcDbEntity
  8
0
100
AcDbLine
 62
2
  6
CONTINUOUS
 10
0.0
 20
-0.68775
 11
4.6
 21
-0.68775
  0
LINE
  5
27E
100
AcDbEntity
  8
0
100
AcDbLine
 62
2
  6
CONTINUOUS
 10
0.0
 20
-0.93775
 11
4.6
 21
-0.93775
  0
LINE
  5
27F
100
AcDbEntity
  8
0
100
AcDbLine
 62
2
  6
CONTINUOUS
 10
0.0
 20
-1.18775
 11
4.6
 21
-1.18775
  0
LINE
  5
280
100
AcDbEntity
  8
0
100
AcDbLine
 62
2
  6
CONTINUOUS
 10
0.0
 20
-1.43775
 11
4.6
 21
-1.43775
  0
LINE
  5
281
100
AcDbEntity
  8
0
100
AcDbLine
 62
2
  6
CONTINUOUS
 10
1.3
 20
-0.34375
 11
1.3
 21
-1.43775
  0
LINE
  5
282
100
AcDbEntity
  8
0
100
AcDbLine
 62
2
  6
CONTINUOUS
 10
3.3
 20
-0.34375
 11
3.3
 21
-1.43775
  0
LINE
  5
283
100
AcDbEntity
  8
0
100
AcDbLine
 62
2
  6
CONTINUOUS
 10
4.6
 20
0.0
 11
4.6
 21
-1.43775
  0
MTEXT
  5
284
100
AcDbEntity
  8
0
100
AcDbMText
 62
2
  6
CONTINUOUS
  7
STANDARD
 71
2
 72
1
 10
2.3
 20
-0.099375
 30
0.0
 11
1.0
 21
0.0
 31
0.0
 44
0.9
  1
Port Headings
 40
0.145
 41
3.016
  0
MTEXT
  5
285
100
AcDbEntity
  8
0
100
AcDbMText
 62
2
  6
CONTINUOUS
  7
STANDARD
 71
2
 72
1
 10
0.65
 20
-0.44325
 30
0.0
 11
1.0
 21
0.0
 31
0.0
 44
0.9
  1
Product
 40
0.145
 41
1.624
  0
MTEXT
  5
286
100
AcDbEntity
  8
0
100
AcDbMText
 62
2
  6
CONTINUOUS
  7
STANDARD
 71
2
 72
1
 10
2.3
 20
-0.44325
 30
0.0
 11
1.0
 21
0.0
 31
0.0
 44
0.9
  1
Port
 40
0.145
 41
0.928
  0
MTEXT
  5
287
100
AcDbEntity
  8
0
100
AcDbMText
 62
2
  6
CONTINUOUS
  7
STANDARD
 71
2
 72
1
 10
3.95
 20
-0.44325
 30
0.0
 11
1.0
 21
0.0
 31
0.0
 44
0.9
  1
Size
 40
0.145
 41
0.928
  0
MTEXT
  5
288
100
AcDbEntity
  8
0
100
AcDbMText
 62
2
  6
CONTINUOUS
  7
STANDARD
 71
2
 72
1
 10
0.65
 20
-0.75025
 30
0.0
 11
1.0
 21
0.0
 31
0.0
 44
0.9
  1
XOC
 40
0.125
 41
0.6
  0
MTEXT
  5
289
100
AcDbEntity
  8
0
100
AcDbMText
 62
2
  6
CONTINUOUS
  7
STANDARD
 71
2
 72
1
 10
2.3
 20
-0.75025
 30
0.0
 11
1.0
 21
0.0
 31
0.0
 44
0.9
  1
Ports 1 &  2
 40
0.125
 41
2.4
  0
MTEXT
  5
28A
100
AcDbEntity
  8
0
100
AcDbMText
 62
2
  6
CONTINUOUS
  7
STANDARD
 71
2
 72
1
 10
3.95
 20
-0.75025
 30
0.0
 11
1.0
 21
0.0
 31
0.0
 44
0.9
  1
1/2" NPTF
 40
0.125
 41
1.8
  0
MTEXT
  5
28B
100
AcDbEntity
  8
0
100
AcDbMText
 62
2
  6
CONTINUOUS
  7
STANDARD
 71
2
 72
1
 10
0.65
 20
-1.00025
 30
0.0
 11
1.0
 21
0.0
 31
0.0
 44
0.9
  1
XOC
 40
0.125
 41
0.6
  0
MTEXT
  5
28C
100
AcDbEntity
  8
0
100
AcDbMText
 62
2
  6
CONTINUOUS
  7
STANDARD
 71
2
 72
1
 10
2.3
 20
-1.00025
 30
0.0
 11
1.0
 21
0.0
 31
0.0
 44
0.9
  1
Port V
 40
0.125
 41
1.2
  0
MTEXT
  5
28D
100
AcDbEntity
  8
0
100
AcDbMText
 62
2
  6
CONTINUOUS
  7
STANDARD
 71
2
 72
1
 10
3.95
 20
-1.00025
 30
0.0
 11
1.0
 21
0.0
 31
0.0
 44
0.9
  1
1/4" NPTF
 40
0.125
 41
1.8
  0
MTEXT
  5
28E
100
AcDbEntity
  8
0
100
AcDbMText
 62
2
  6
CONTINUOUS
  7
STANDARD
 71
2
 72
1
 10
0.65
 20
-1.25025
 30
0.0
 11
1.0
 21
0.0
 31
0.0
 44
0.9
  1
XOC
 40
0.125
 41
0.6
  0
MTEXT
  5
28F
100
AcDbEntity
  8
0
100
AcDbMText
 62
2
  6
CONTINUOUS
  7
STANDARD
 71
2
 72
1
 10
2.3
 20
-1.25025
 30
0.0
 11
1.0
 21
0.0
 31
0.0
 44
0.9
  1
Gage Ports
 40
0.125
 41
2.0
  0
MTEXT
  5
290
100
AcDbEntity
  8
0
100
AcDbMText
 62
2
  6
CONTINUOUS
  7
STANDARD
 71
2
 72
1
 10
3.95
 20
-1.25025
 30
0.0
 11
1.0
 21
0.0
 31
0.0
 44
0.9
  1
1/4" NPTF
 40
0.125
 41
1.8
  0
ENDBLK
  5
291
100
AcDbEntity
  8
0
  6
BYBLOCK
 62
0
100
AcDbBlockEnd
  0
ENDSEC
  0
SECTION
  2
ENTITIES
  0
IMAGE
  5
292
100
AcDbEntity
  8
0
100
AcDbRasterImage
 62
7
  6
CONTINUOUS
 10
19.2297077316
 20
0.3094318264
 30
0.0
 11
0.0066666667
 21
0.0
 31
0.0
 12
0.0
 22
0.0066666667
 32
0.0
 13
369.0
 23
92.0
340
       3DE
 70
9
280
0
281
50
282
50
283
0
360
       3D8
 71
1
 91
2
 14
-0.5
 24
-0.5
 14
368.5
 24
91.5
  0
INSERT
  5
293
100
AcDbEntity
  8
0
100
AcDbBlockReference
 62
2
  6
CONTINUOUS
  2
SUN_FIRST_THIRD_ANGLE_BL0
 10
20.4816717061
 20
1.2289683772
  0
ACAD_TABLE
  5
294
100
AcDbEntity
  8
0
 62
2
  6
CONTINUOUS
100
AcDbBlockReference
  2
*T1
 10
12.42375
 20
0.30125
 30
0.0
100
AcDbTable
342
       3E0
343
20F
 11
1.0
 21
0.0
 31
0.0
 90
6
 91
4
 92
6
 93
20
 94
0
 95
0
 96
0
 70
1
 41
0.0
141
0.525
141
0.1
141
0.525
141
0.1
142
4.1
142
1.1
142
0.7
142
0.5
142
0.4
142
2.475
171
1
172
0
173
0
174
0
175
1
176
1
 91
33
178
0
145
0.0
301
CELL_VALUE
 90
4
  1
T-11A Line mount\PCross port with shuttle on port 3s
304
ACVALUE_END
170
2
140
0.125
171
1
172
0
173
0
174
0
175
1
176
1
 91
33
178
0
145
0.0
301
CELL_VALUE
 90
4
  1
Jun-30-23
304
ACVALUE_END
170
5
140
0.125
171
1
172
0
173
0
174
0
175
1
176
1
 91
33
178
0
145
0.0
301
CELL_VALUE
 90
4
  1
1.000
304
ACVALUE_END
170
5
140
0.125
171
1
172
0
173
0
174
0
175
1
176
1
 91
33
178
0
145
0.0
301
CELL_VALUE
 90
4
  1
C
304
ACVALUE_END
170
5
140
0.125
171
1
172
0
173
0
174
0
175
1
176
1
 91
33
178
0
145
0.0
301
CELL_VALUE
 90
4
  1
2
304
ACVALUE_END
170
5
140
0.125
171
1
172
0
173
0
174
0
175
1
176
1
 91
33
178
0
145
0.0
301
CELL_VALUE
 90
4
  1
 
304
ACVALUE_END
170
1
140
0.125
171
1
172
0
173
0
174
0
175
1
176
1
 91
33
178
0
145
0.0
301
CELL_VALUE
 90
4
  1
DESCRIPTION
304
ACVALUE_END
170
1
140
0.06
171
1
172
0
173
0
174
0
175
1
176
1
 91
33
178
0
145
0.0
301
CELL_VALUE
 90
4
  1
DATE
304
ACVALUE_END
170
1
140
0.06
171
1
172
0
173
0
174
0
175
1
176
1
 91
33
178
0
145
0.0
301
CELL_VALUE
 90
4
  1
SCALE
304
ACVALUE_END
170
1
140
0.06
171
1
172
0
173
0
174
0
175
1
176
1
 91
33
178
0
145
0.0
301
CELL_VALUE
 90
4
  1
DWG SIZE
304
ACVALUE_END
170
1
140
0.06
171
1
172
0
173
0
174
0
175
1
176
1
 91
33
178
0
145
0.0
301
CELL_VALUE
 90
4
  1
SHEET
304
ACVALUE_END
170
1
140
0.06
171
1
172
0
173
0
174
0
175
1
176
1
 91
33
178
0
145
0.0
301
CELL_VALUE
 90
4
  1
 
304
ACVALUE_END
170
1
140
0.125
171
1
172
0
173
0
174
0
175
1
176
1
 91
33
178
0
145
0.0
301
CELL_VALUE
 90
4
  1
XOC
304
ACVALUE_END
170
5
140
0.125
171
1
172
0
173
0
174
0
175
4
176
1
 91
33
178
0
145
0.0
301
CELL_VALUE
 90
4
  1
ALL DIMENSIONS IN INCH\PVIEWS ARE THIRD ANGLE
304
ACVALUE_END
170
5
140
0.12
171
1
172
0
173
1
174
0
175
1
176
1
 91
1
178
0
145
0.0
170
1
171
1
172
0
173
1
174
0
175
1
176
1
 91
1
178
0
145
0.0
170
1
171
1
172
0
173
1
174
0
175
1
176
1
 91
1
178
0
145
0.0
170
5
171
1
172
0
173
0
174
0
175
1
176
1
 91
33
178
0
145
0.0
301
CELL_VALUE
 90
4
  1
 
304
ACVALUE_END
170
1
140
0.125
171
1
172
0
173
0
174
0
175
1
176
1
 91
33
178
0
145
0.0
301
CELL_VALUE
 90
4
  1
MODEL
304
ACVALUE_END
170
1
140
0.06
171
1
172
0
173
0
174
0
175
1
176
1
 91
33
178
0
145
0.0
301
CELL_VALUE
 90
4
  1
 
304
ACVALUE_END
170
1
140
0.125
171
1
172
0
173
0
174
0
175
1
176
1
 91
33
178
0
145
0.0
301
CELL_VALUE
 90
4
  1
 
304
ACVALUE_END
170
1
140
0.125
171
1
172
0
173
0
174
0
175
1
176
1
 91
33
178
0
145
0.0
301
CELL_VALUE
 90
4
  1
 
304
ACVALUE_END
170
1
140
0.125
171
1
172
0
173
0
174
0
175
1
176
1
 91
33
178
0
145
0.0
301
CELL_VALUE
 90
4
  1
 
304
ACVALUE_END
170
1
140
0.125
171
1
172
0
173
0
174
0
175
1
176
1
 91
33
178
0
145
0.0
301
CELL_VALUE
 90
4
  1
 
304
ACVALUE_END
170
1
140
0.125
  0
ACAD_TABLE
  5
295
100
AcDbEntity
  8
0
 62
2
  6
CONTINUOUS
100
AcDbBlockReference
  2
*T2
 10
12.4237499994
 20
16.47875
 30
0.0
100
AcDbTable
342
       3DF
343
210
 11
1.0
 21
0.0
 31
0.0
 90
22
 91
11
 92
3
 93
16
 94
0
 95
0
 96
0
 41
0.028
141
0.344
141
0.25
141
0.25
141
0.25
141
0.25
141
0.25
141
0.25
141
0.25
141
0.25
141
0.25
141
0.25
142
3.055
142
3.0
142
3.0
171
1
172
0
173
0
174
0
175
1
176
1
 91
33
178
0
145
0.0
301
CELL_VALUE
 90
4
  1
Technical Data
304
ACVALUE_END
170
5
140
0.145
171
1
172
0
173
0
174
0
175
1
176
1
 91
33
178
0
145
0.0
301
CELL_VALUE
 90
4
  1
U.S. Units
304
ACVALUE_END
170
5
140
0.145
171
1
172
0
173
0
174
0
175
1
176
1
 91
33
178
0
145
0.0
301
CELL_VALUE
 90
4
  1
Metric Units
304
ACVALUE_END
170
5
140
0.145
171
1
172
0
173
0
174
0
175
1
176
1
 91
33
178
0
145
0.0
301
CELL_VALUE
 90
4
  1
Cavity
304
ACVALUE_END
170
5
140
0.125
171
1
172
0
173
0
174
0
175
2
176
1
 91
33
178
0
145
0.0
301
CELL_VALUE
 90
4
  1
T-11A
304
ACVALUE_END
170
5
140
0.125
171
1
172
0
173
1
174
0
175
1
176
1
 91
1
178
0
145
0.0
170
1
171
1
172
0
173
0
174
0
175
1
176
1
 91
33
178
0
145
0.0
301
CELL_VALUE
 90
4
  1
Body Features
304
ACVALUE_END
170
5
140
0.125
171
1
172
0
173
0
174
0
175
2
176
1
 91
33
178
0
145
0.0
301
CELL_VALUE
 90
4
  1
Cross port with shuttle on port 3s
304
ACVALUE_END
170
5
140
0.125
171
1
172
0
173
1
174
0
175
1
176
1
 91
1
178
0
145
0.0
170
1
171
1
172
0
173
0
174
0
175
1
176
1
 91
33
178
0
145
0.0
301
CELL_VALUE
 90
4
  1
Body Type
304
ACVALUE_END
170
5
140
0.125
171
1
172
0
173
0
174
0
175
2
176
1
 91
33
178
0
145
0.0
301
CELL_VALUE
 90
4
  1
Line mount
304
ACVALUE_END
170
5
140
0.125
171
1
172
0
173
1
174
0
175
1
176
1
 91
1
178
0
145
0.0
170
1
171
1
172
0
173
0
174
0
175
1
176
1
 91
33
178
0
145
0.0
301
CELL_VALUE
 90
4
  1
Interface
304
ACVALUE_END
170
5
140
0.125
171
1
172
0
173
0
174
0
175
2
176
1
 91
33
178
0
145
0.0
301
CELL_VALUE
 90
4
  1
None
304
ACVALUE_END
170
5
140
0.125
171
1
172
0
173
1
174
0
175
1
176
1
 91
1
178
0
145
0.0
170
1
171
1
172
0
173
0
174
0
175
1
176
1
 91
33
178
0
145
0.0
301
CELL_VALUE
 90
4
  1
Open Cavity Quantity
304
ACVALUE_END
170
5
140
0.125
171
1
172
0
173
0
174
0
175
2
176
1
 91
33
178
0
145
0.0
301
CELL_VALUE
 90
4
  1
2
304
ACVALUE_END
170
5
140
0.125
171
1
172
0
173
1
174
0
175
1
176
1
 91
1
178
0
145
0.0
170
1
171
1
172
0
173
0
174
0
175
1
176
1
 91
33
178
0
145
0.0
301
CELL_VALUE
 90
4
  1
Weight
304
ACVALUE_END
170
5
140
0.125
171
1
172
0
173
0
174
0
175
1
176
1
 91
33
178
0
145
0.0
301
CELL_VALUE
 90
4
  1
5.686 lb.
304
ACVALUE_END
170
5
140
0.125
171
1
172
0
173
0
174
0
175
1
176
1
 91
33
178
0
145
0.0
301
CELL_VALUE
 90
4
  1
2,579 kg.
304
ACVALUE_END
170
5
140
0.125
171
1
172
0
173
0
174
0
175
1
176
1
 91
33
178
0
145
0.0
301
CELL_VALUE
 90
4
  1
Mounting Hole Diameter
304
ACVALUE_END
170
5
140
0.125
171
1
172
0
173
0
174
0
175
1
176
1
 91
33
178
0
145
0.0
301
CELL_VALUE
 90
4
  1
.42 in.
304
ACVALUE_END
170
5
140
0.125
171
1
172
0
173
0
174
0
175
1
176
1
 91
33
178
0
145
0.0
301
CELL_VALUE
 90
4
  1
10,7 mm
304
ACVALUE_END
170
5
140
0.125
171
1
172
0
173
0
174
0
175
1
176
1
 91
33
178
0
145
0.0
301
CELL_VALUE
 90
4
  1
Mounting Hole Depth
304
ACVALUE_END
170
5
140
0.125
171
1
172
0
173
0
174
0
175
2
176
1
 91
33
178
0
145
0.0
301
CELL_VALUE
 90
4
  1
Through
304
ACVALUE_END
170
5
140
0.125
171
1
172
0
173
1
174
0
175
1
176
1
 91
1
178
0
145
0.0
170
1
171
1
172
0
173
0
174
0
175
1
176
1
 91
33
178
0
145
0.0
301
CELL_VALUE
 90
4
  1
Mounting Hole Quantity
304
ACVALUE_END
170
5
140
0.125
171
1
172
0
173
0
174
0
175
2
176
1
 91
33
178
0
145
0.0
301
CELL_VALUE
 90
4
  1
2
304
ACVALUE_END
170
5
140
0.125
171
1
172
0
173
1
174
0
175
1
176
1
 91
1
178
0
145
0.0
170
1
171
1
172
0
173
0
174
0
175
1
176
1
 91
33
178
0
145
0.0
301
CELL_VALUE
 90
4
  1
Includes integral cartridge(s)
304
ACVALUE_END
170
5
140
0.125
171
1
172
0
173
0
174
0
175
2
176
1
 91
33
178
0
145
0.0
301
CELL_VALUE
 90
4
  1
Yes (see Included Components)
304
ACVALUE_END
170
5
140
0.125
171
1
172
0
173
1
174
0
175
1
176
1
 91
1
178
0
145
0.0
170
1
  0
ACAD_TABLE
  5
296
100
AcDbEntity
  8
0
 62
2
  6
CONTINUOUS
100
AcDbBlockReference
  2
*T3
 10
0.52125
 20
1.959
 30
0.0
100
AcDbTable
342
       3DF
343
211
 11
1.0
 21
0.0
 31
0.0
 90
22
 91
5
 92
3
 93
16
 94
0
 95
0
 96
0
 41
0.05
141
0.34375
141
0.344
141
0.25
141
0.25
141
0.25
142
1.3
142
2.0
142
1.3
171
1
172
0
173
0
174
0
175
3
176
1
 91
33
178
0
145
0.0
301
CELL_VALUE
 90
4
  1
Port Headings
304
ACVALUE_END
170
5
140
0.145
171
1
172
0
173
1
174
0
175
1
176
1
 91
1
178
0
145
0.0
170
1
171
1
172
0
173
1
174
0
175
1
176
1
 91
1
178
0
145
0.0
170
1
171
1
172
0
173
0
174
0
175
1
176
1
 91
33
178
0
145
0.0
301
CELL_VALUE
 90
4
  1
Product
304
ACVALUE_END
170
5
140
0.145
171
1
172
0
173
0
174
0
175
1
176
1
 91
33
178
0
145
0.0
301
CELL_VALUE
 90
4
  1
Port
304
ACVALUE_END
170
5
140
0.145
171
1
172
0
173
0
174
0
175
1
176
1
 91
33
178
0
145
0.0
301
CELL_VALUE
 90
4
  1
Size
304
ACVALUE_END
170
5
140
0.145
171
1
172
0
173
0
174
0
175
1
176
1
 91
33
178
0
145
0.0
301
CELL_VALUE
 90
4
  1
XOC
304
ACVALUE_END
170
5
140
0.125
171
1
172
0
173
0
174
0
175
1
176
1
 91
33
178
0
145
0.0
301
CELL_VALUE
 90
4
  1
Ports 1 &  2
304
ACVALUE_END
170
5
140
0.125
171
1
172
0
173
0
174
0
175
1
176
1
 91
33
178
0
145
0.0
301
CELL_VALUE
 90
4
  1
1/2" NPTF
304
ACVALUE_END
170
5
140
0.125
171
1
172
0
173
0
174
0
175
1
176
1
 91
33
178
0
145
0.0
301
CELL_VALUE
 90
4
  1
XOC
304
ACVALUE_END
170
5
140
0.125
171
1
172
0
173
0
174
0
175
1
176
1
 91
33
178
0
145
0.0
301
CELL_VALUE
 90
4
  1
Port V
304
ACVALUE_END
170
5
140
0.125
171
1
172
0
173
0
174
0
175
1
176
1
 91
33
178
0
145
0.0
301
CELL_VALUE
 90
4
  1
1/4" NPTF
304
ACVALUE_END
170
5
140
0.125
171
1
172
0
173
0
174
0
175
1
176
1
 91
33
178
0
145
0.0
301
CELL_VALUE
 90
4
  1
XOC
304
ACVALUE_END
170
5
140
0.125
171
1
172
0
173
0
174
0
175
1
176
1
 91
33
178
0
145
0.0
301
CELL_VALUE
 90
4
  1
Gage Ports
304
ACVALUE_END
170
5
140
0.125
171
1
172
0
173
0
174
0
175
1
176
1
 91
33
178
0
145
0.0
301
CELL_VALUE
 90
4
  1
1/4" NPTF
304
ACVALUE_END
170
5
140
0.125
  0
MTEXT
  5
297
100
AcDbEntity
  8
0
100
AcDbMText
 62
2
  6
CONTINUOUS
  7
STANDARD
 71
1
 72
1
 10
0.52125
 20
5.75995
 30
0.0
 11
1.0
 21
0.0
 31
0.0
 44
0.6
  3
Notes\P \P1. Important: Carefully consider\P   the maximum system pressure. The\P   pressure rating of the manifold is\P   dependent on the manifold material,\P   with the port type/size a secondary\P   consideration. Manifolds\P   constructed of alu
  3
minum are not\P   rated for pressures higher than\P   3000 psi (210 bar), regardless of\P   the port type/size specified.\P2. This drawing is for reference\P   only. It is generated by an\P   automated process and does not fall\P   under Sun's docume
  1
nt control\P   process.
 40
0.1
 41
3.04
  0
LINE
  5
298
100
AcDbEntity
  8
0
100
AcDbLine
 62
7
  6
CONTINUOUS
 10
0.30125
 20
0.30125
 11
0.30125
 21
16.69875
  0
LINE
  5
299
100
AcDbEntity
  8
0
100
AcDbLine
 62
7
  6
CONTINUOUS
 10
0.30125
 20
0.30125
 11
21.69875
 21
0.30125
  0
LINE
  5
29A
100
AcDbEntity
  8
0
100
AcDbLine
 62
7
  6
CONTINUOUS
 10
0.30125
 20
16.69875
 11
21.69875
 21
16.69875
  0
LINE
  5
29B
100
AcDbEntity
  8
0
100
AcDbLine
 62
7
  6
CONTINUOUS
 10
21.69875
 20
0.30125
 11
21.69875
 21
16.69875
  0
LINE
  5
29C
100
AcDbEntity
  8
0
100
AcDbLine
 62
7
  6
CONTINUOUS
 10
8.0028429203
 20
6.7164499422
 11
8.0028429203
 21
9.4934868573
  0
LINE
  5
29D
100
AcDbEntity
  8
0
100
AcDbLine
 62
7
  6
CONTINUOUS
 10
8.0028429203
 20
9.4934868573
 11
9.1675276621
 21
10.6184859955
  0
LINE
  5
29E
100
AcDbEntity
  8
0
100
AcDbLine
 62
4
  6
CONTINUOUS
 10
8.3626502193
 20
7.8699268196
 11
8.3988724391
 21
7.7515036967
  0
LINE
  5
29F
100
AcDbEntity
  8
0
100
AcDbLine
 62
4
  6
CONTINUOUS
 10
9.0461737729
 20
10.2852669969
 11
9.0409973976
 21
10.2802670021
  0
LINE
  5
2A0
100
AcDbEntity
  8
0
100
AcDbLine
 62
4
  6
CONTINUOUS
 10
8.5997112878
 20
9.8540173266
 11
8.5686530287
 21
9.8240173502
  0
LINE
  5
2A1
100
AcDbEntity
  8
0
100
AcDbLine
 62
4
  6
CONTINUOUS
 10
8.977345348
 20
10.2712838386
 11
8.9623363392
 21
10.2642862484
  0
LINE
  5
2A2
100
AcDbEntity
  8
0
100
AcDbLine
 62
4
  6
CONTINUOUS
 10
8.3988724391
 20
7.7515036967
 11
8.435094659
 21
7.8649027806
  0
LINE
  5
2A3
100
AcDbEntity
  8
0
100
AcDbLine
 62
7
  6
CONTINUOUS
 10
12.8324723379
 20
6.3815140045
 11
8.0028429203
 21
6.7164499422
  0
LINE
  5
2A4
100
AcDbEntity
  8
0
100
AcDbLine
 62
7
  6
CONTINUOUS
 10
9.8365854154
 20
9.734746197
 11
9.8358864145
 21
9.7340837311
  0
LINE
  5
2A5
100
AcDbEntity
  8
0
100
AcDbLine
 62
4
  6
CONTINUOUS
 10
10.0340243946
 20
9.8054576767
 11
10.0236716417
 21
9.7954576847
  0
LINE
  5
2A6
100
AcDbEntity
  8
0
100
AcDbLine
 62
4
  6
CONTINUOUS
 10
10.1364868517
 20
9.8144288181
 11
10.1054285926
 21
9.7844288417
  0
LINE
  5
2A7
100
AcDbEntity
  8
0
100
AcDbLine
 62
4
  6
CONTINUOUS
 10
9.9615799549
 20
9.8104817156
 11
9.9765889637
 21
9.8174793058
  0
LINE
  5
2A8
100
AcDbEntity
  8
0
100
AcDbLine
 62
4
  6
CONTINUOUS
 10
10.5694448595
 20
10.041634103
 11
10.5539157296
 21
10.0266341145
  0
LINE
  5
2A9
100
AcDbEntity
  8
0
100
AcDbLine
 62
4
  6
CONTINUOUS
 10
10.6118712826
 20
10.0226148833
 11
10.5963421527
 21
10.0076148948
  0
LINE
  5
2AA
100
AcDbEntity
  8
0
100
AcDbLine
 62
4
  6
CONTINUOUS
 10
10.6253199292
 20
10.0056052791
 11
10.656378189
 21
10.0356052561
  0
LINE
  5
2AB
100
AcDbEntity
  8
0
100
AcDbLine
 62
4
  6
CONTINUOUS
 10
10.5142531784
 20
9.8493230237
 11
10.5453114381
 21
9.8793230008
  0
LINE
  5
2AC
100
AcDbEntity
  8
0
100
AcDbLine
 62
4
  6
CONTINUOUS
 10
10.714333742
 20
10.0315860249
 11
10.6832754822
 21
10.0015860479
  0
LINE
  5
2AD
100
AcDbEntity
  8
0
100
AcDbLine
 62
4
  6
CONTINUOUS
 10
10.7433115185
 20
10.0295764093
 11
10.7122532587
 21
9.9995764322
  0
LINE
  5
2AE
100
AcDbEntity
  8
0
100
AcDbLine
 62
4
  6
CONTINUOUS
 10
10.5988300902
 20
9.8710180592
 11
10.5766456189
 21
9.8495895042
  0
LINE
  5
2AF
100
AcDbEntity
  8
0
100
AcDbLine
 62
4
  6
CONTINUOUS
 10
10.8012670715
 20
10.025557178
 11
10.7702088117
 21
9.995557201
  0
LINE
  5
2B0
100
AcDbEntity
  8
0
100
AcDbLine
 62
4
  6
CONTINUOUS
 10
10.6191251252
 20
9.8420501295
 11
10.6833008418
 21
9.8697534031
  0
LINE
  5
2B1
100
AcDbEntity
  8
0
100
AcDbLine
 62
4
  6
CONTINUOUS
 10
9.9177910477
 20
7.762077444
 11
9.9033021598
 21
7.7727415107
  0
LINE
  5
2B2
100
AcDbEntity
  8
0
100
AcDbLine
 62
4
  6
CONTINUOUS
 10
9.9033021598
 20
7.7727415107
 11
9.8888132719
 21
7.7930648355
  0
LINE
  5
2B3
100
AcDbEntity
  8
0
100
AcDbLine
 62
4
  6
CONTINUOUS
 10
9.9467688236
 20
7.8663196756
 11
9.9540132676
 21
7.8561580084
  0
LINE
  5
2B4
100
AcDbEntity
  8
0
100
AcDbLine
 62
4
  6
CONTINUOUS
 10
10.0192132632
 20
7.7647030484
 11
10.0047243753
 21
7.7850263731
  0
LINE
  5
2B5
100
AcDbEntity
  8
0
100
AcDbLine
 62
4
  6
CONTINUOUS
 10
9.8888132719
 20
7.7930648355
 11
9.8815688279
 21
7.8225450152
  0
LINE
  5
2B6
100
AcDbEntity
  8
0
100
AcDbLine
 62
4
  6
CONTINUOUS
 10
10.0119688193
 20
7.8521387773
 11
10.0119688193
 21
7.842479521
  0
LINE
  5
2B7
100
AcDbEntity
  8
0
100
AcDbLine
 62
4
  6
CONTINUOUS
 10
9.9610598341
 20
9.8024793176
 11
9.9615799549
 21
9.8104817156
  0
LINE
  5
2B8
100
AcDbEntity
  8
0
100
AcDbLine
 62
4
  6
CONTINUOUS
 10
10.8861199177
 20
9.9875187385
 11
10.9171781775
 21
10.0175187155
  0
LINE
  5
2B9
100
AcDbEntity
  8
0
100
AcDbLine
 62
4
  6
CONTINUOUS
 10
10.7515949665
 20
9.8328633148
 11
10.7826532263
 21
9.8628632918
  0
LINE
  5
2BA
100
AcDbEntity
  8
0
100
AcDbLine
 62
4
  6
CONTINUOUS
 10
10.9440754707
 20
9.9834995072
 11
10.9596046006
 21
9.9984994957
  0
LINE
  5
2BB
100
AcDbEntity
  8
0
100
AcDbLine
 62
4
  6
CONTINUOUS
 10
10.8178298803
 20
9.828269908
 11
10.8488881401
 21
9.858269885
  0
LINE
  5
2BC
100
AcDbEntity
  8
0
100
AcDbLine
 62
4
  6
CONTINUOUS
 10
10.991405839
 20
9.980217135
 11
11.0069349689
 21
9.9952171236
  0
LINE
  5
2BD
100
AcDbEntity
  8
0
100
AcDbLine
 62
4
  6
CONTINUOUS
 10
11.0648905219
 20
9.9911978923
 11
11.0338322622
 21
9.9611979153
  0
LINE
  5
2BE
100
AcDbEntity
  8
0
100
AcDbLine
 62
4
  6
CONTINUOUS
 10
10.9816679591
 20
9.8922396337
 11
11.0038524304
 21
9.9136681888
  0
LINE
  5
2BF
100
AcDbEntity
  8
0
100
AcDbLine
 62
4
  6
CONTINUOUS
 10
11.0879984274
 20
9.9735184163
 11
11.1035275573
 21
9.9885184048
  0
LINE
  5
2C0
100
AcDbEntity
  8
0
100
AcDbLine
 62
4
  6
CONTINUOUS
 10
11.0618079765
 20
9.909648958
 11
11.0396235052
 21
9.8882204029
  0
LINE
  5
2C1
100
AcDbEntity
  8
0
100
AcDbLine
 62
4
  6
CONTINUOUS
 10
11.1770122402
 20
9.9994991621
 11
11.1459539804
 21
9.969499185
  0
LINE
  5
2C2
100
AcDbEntity
  8
0
100
AcDbLine
 62
4
  6
CONTINUOUS
 10
10.9961334615
 20
9.8204979235
 11
11.0183179328
 21
9.8419264785
  0
LINE
  5
2C3
100
AcDbEntity
  8
0
100
AcDbLine
 62
4
  6
CONTINUOUS
 10
11.0727409759
 20
9.8859236985
 11
11.0949254472
 21
9.9073522536
  0
LINE
  5
2C4
100
AcDbEntity
  8
0
100
AcDbLine
 62
4
  6
CONTINUOUS
 10
11.9649850135
 20
10.105622412
 11
11.9799940222
 21
10.1126200022
  0
LINE
  5
2C5
100
AcDbEntity
  8
0
100
AcDbLine
 62
4
  6
CONTINUOUS
 10
12.0948648841
 20
10.0885767439
 11
12.0798558753
 21
10.0815791537
  0
LINE
  5
2C6
100
AcDbEntity
  8
0
100
AcDbLine
 62
4
  6
CONTINUOUS
 10
10.0337021512
 20
7.7540389817
 11
10.0192132632
 21
7.7647030484
  0
LINE
  5
2C7
100
AcDbEntity
  8
0
100
AcDbLine
 62
4
  6
CONTINUOUS
 10
9.9322799357
 20
7.8769837397
 11
9.9467688236
 21
7.8663196756
  0
LINE
  5
2C8
100
AcDbEntity
  8
0
100
AcDbLine
 62
4
  6
CONTINUOUS
 10
10.0192132632
 20
7.8323178607
 11
10.062679927
 21
7.8003256581
  0
LINE
  5
2C9
100
AcDbEntity
  8
0
100
AcDbLine
 62
4
  6
CONTINUOUS
 10
10.062679927
 20
7.8582812132
 11
10.0481910391
 21
7.8689452773
  0
LINE
  5
2CA
100
AcDbEntity
  8
0
100
AcDbLine
 62
4
  6
CONTINUOUS
 10
10.0119688193
 20
7.842479521
 11
10.0192132632
 21
7.8323178607
  0
LINE
  5
2CB
100
AcDbEntity
  8
0
100
AcDbLine
 62
4
  6
CONTINUOUS
 10
10.062679927
 20
7.8003256581
 11
10.069924371
 21
7.7901639978
  0
LINE
  5
2CC
100
AcDbEntity
  8
0
100
AcDbLine
 62
4
  6
CONTINUOUS
 10
10.069924371
 20
7.8481195461
 11
10.062679927
 21
7.8582812132
  0
LINE
  5
2CD
100
AcDbEntity
  8
0
100
AcDbLine
 62
4
  6
CONTINUOUS
 10
10.3017465779
 20
7.7837463295
 11
10.2872576899
 21
7.8040696534
  0
LINE
  5
2CE
100
AcDbEntity
  8
0
100
AcDbLine
 62
4
  6
CONTINUOUS
 10
10.2945021339
 20
7.8422042886
 11
10.2872576899
 21
7.8523659488
  0
LINE
  5
2CF
100
AcDbEntity
  8
0
100
AcDbLine
 62
4
  6
CONTINUOUS
 10
10.1568576986
 20
7.8614092189
 11
10.1930799184
 21
7.742986096
  0
LINE
  5
2D0
100
AcDbEntity
  8
0
100
AcDbLine
 62
4
  6
CONTINUOUS
 10
10.069924371
 20
7.7901639978
 11
10.069924371
 21
7.77084548
  0
LINE
  5
2D1
100
AcDbEntity
  8
0
100
AcDbLine
 62
4
  6
CONTINUOUS
 10
10.2365465822
 20
7.8558827761
 11
10.2365465822
 21
7.7399716726
  0
LINE
  5
2D2
100
AcDbEntity
  8
0
100
AcDbLine
 62
4
  6
CONTINUOUS
 10
10.2945021339
 20
7.8132265127
 11
10.2945021339
 21
7.8422042886
  0
LINE
  5
2D3
100
AcDbEntity
  8
0
100
AcDbLine
 62
4
  6
CONTINUOUS
 10
9.8815688279
 20
7.8225450152
 11
9.8888132719
 21
7.8510203872
  0
LINE
  5
2D4
100
AcDbEntity
  8
0
100
AcDbLine
 62
4
  6
CONTINUOUS
 10
11.2001201456
 20
9.981819686
 11
11.1845910157
 21
9.9668196975
  0
LINE
  5
2D5
100
AcDbEntity
  8
0
100
AcDbLine
 62
4
  6
CONTINUOUS
 10
11.092726013
 20
9.8137992073
 11
11.1149104843
 21
9.8352277623
  0
LINE
  5
2D6
100
AcDbEntity
  8
0
100
AcDbLine
 62
4
  6
CONTINUOUS
 10
11.2811836041
 20
9.9601209788
 11
11.2915363574
 21
9.9701209711
  0
LINE
  5
2D7
100
AcDbEntity
  8
0
100
AcDbLine
 62
4
  6
CONTINUOUS
 10
11.1728660373
 20
9.8312085311
 11
11.150681566
 21
9.809779976
  0
LINE
  5
2D8
100
AcDbEntity
  8
0
100
AcDbLine
 62
4
  6
CONTINUOUS
 10
11.1793621146
 20
9.8031975623
 11
11.2104203744
 21
9.8331975394
  0
LINE
  5
2D9
100
AcDbEntity
  8
0
100
AcDbLine
 62
4
  6
CONTINUOUS
 10
11.354668287
 20
9.971101736
 11
11.3391391571
 21
9.9561017475
  0
LINE
  5
2DA
100
AcDbEntity
  8
0
100
AcDbLine
 62
4
  6
CONTINUOUS
 10
11.3933053223
 20
9.9684222485
 11
11.3777761925
 21
9.95342226
  0
LINE
  5
2DB
100
AcDbEntity
  8
0
100
AcDbLine
 62
4
  6
CONTINUOUS
 10
11.2639390334
 20
9.8248925974
 11
11.2417545621
 21
9.8034640423
  0
LINE
  5
2DC
100
AcDbEntity
  8
0
100
AcDbLine
 62
4
  6
CONTINUOUS
 10
11.4357317455
 20
9.9494030288
 11
11.4512608754
 21
9.9644030173
  0
LINE
  5
2DD
100
AcDbEntity
  8
0
100
AcDbLine
 62
4
  6
CONTINUOUS
 10
11.2842341098
 20
9.7959246648
 11
11.3152923695
 21
9.8259246418
  0
LINE
  5
2DE
100
AcDbEntity
  8
0
100
AcDbLine
 62
4
  6
CONTINUOUS
 10
11.4743687808
 20
9.9467235413
 11
11.5054270406
 21
9.9767235183
  0
LINE
  5
2DF
100
AcDbEntity
  8
0
100
AcDbLine
 62
4
  6
CONTINUOUS
 10
10.0481910391
 20
7.7530341739
 11
10.0337021512
 21
7.7540389817
  0
LINE
  5
2E0
100
AcDbEntity
  8
0
100
AcDbLine
 62
4
  6
CONTINUOUS
 10
9.9322799357
 20
7.7610726362
 11
9.9177910477
 21
7.762077444
  0
LINE
  5
2E1
100
AcDbEntity
  8
0
100
AcDbLine
 62
4
  6
CONTINUOUS
 10
10.2365465822
 20
7.7399716726
 11
10.2872576899
 21
7.7364548454
  0
LINE
  5
2E2
100
AcDbEntity
  8
0
100
AcDbLine
 62
4
  6
CONTINUOUS
 10
10.1351243667
 20
7.7856423628
 11
10.1785910305
 21
7.7826279394
  0
LINE
  5
2E3
100
AcDbEntity
  8
0
100
AcDbLine
 62
4
  6
CONTINUOUS
 10
10.2365465822
 20
7.8075864807
 11
10.2872576899
 21
7.8040696534
  0
LINE
  5
2E4
100
AcDbEntity
  8
0
100
AcDbLine
 62
4
  6
CONTINUOUS
 10
10.3017465779
 20
7.7547685554
 11
10.3017465779
 21
7.7837463295
  0
LINE
  5
2E5
100
AcDbEntity
  8
0
100
AcDbLine
 62
4
  6
CONTINUOUS
 10
10.1206354787
 20
7.7480101349
 11
10.1568576986
 21
7.8614092189
  0
LINE
  5
2E6
100
AcDbEntity
  8
0
100
AcDbLine
 62
4
  6
CONTINUOUS
 10
9.8888132719
 20
7.8510203872
 11
9.9033021598
 21
7.8693340989
  0
LINE
  5
2E7
100
AcDbEntity
  8
0
100
AcDbLine
 62
4
  6
CONTINUOUS
 10
11.5130058161
 20
9.9440440538
 11
11.528534946
 21
9.9590440423
  0
LINE
  5
2E8
100
AcDbEntity
  8
0
100
AcDbLine
 62
4
  6
CONTINUOUS
 10
11.5671719814
 20
9.9563645548
 11
11.5516428515
 21
9.9413645663
  0
LINE
  5
2E9
100
AcDbEntity
  8
0
100
AcDbLine
 62
4
  6
CONTINUOUS
 10
11.6637645697
 20
9.949665836
 11
11.6560000048
 21
9.9421658418
  0
LINE
  5
2EA
100
AcDbEntity
  8
0
100
AcDbLine
 62
4
  6
CONTINUOUS
 10
11.7139555578
 20
9.9381466105
 11
11.7061909928
 21
9.9306466163
  0
LINE
  5
2EB
100
AcDbEntity
  8
0
100
AcDbLine
 62
4
  6
CONTINUOUS
 10
10.2872576899
 20
7.8523659488
 11
10.2365465822
 21
7.8558827761
  0
LINE
  5
2EC
100
AcDbEntity
  8
0
100
AcDbLine
 62
4
  6
CONTINUOUS
 10
10.0481910391
 20
7.8689452773
 11
10.0337021512
 21
7.8699500851
  0
LINE
  5
2ED
100
AcDbEntity
  8
0
100
AcDbLine
 62
4
  6
CONTINUOUS
 10
9.9177910477
 20
7.8779885474
 11
9.9322799357
 21
7.8769837397
  0
LINE
  5
2EE
100
AcDbEntity
  8
0
100
AcDbLine
 62
4
  6
CONTINUOUS
 10
10.6833008418
 20
9.8697534031
 11
10.6853600528
 21
9.8374567217
  0
LINE
  5
2EF
100
AcDbEntity
  8
0
100
AcDbLine
 62
4
  6
CONTINUOUS
 10
10.0192132632
 20
7.8612956366
 11
10.0119688193
 21
7.8521387773
  0
LINE
  5
2F0
100
AcDbEntity
  8
0
100
AcDbLine
 62
4
  6
CONTINUOUS
 10
9.9540132676
 20
7.7788839424
 11
9.9467688236
 21
7.7697270873
  0
LINE
  5
2F1
100
AcDbEntity
  8
0
100
AcDbLine
 62
4
  6
CONTINUOUS
 10
10.069924371
 20
7.77084548
 11
10.062679927
 21
7.761688625
  0
LINE
  5
2F2
100
AcDbEntity
  8
0
100
AcDbLine
 62
4
  6
CONTINUOUS
 10
12.0374294531
 20
10.100598373
 11
12.0270767003
 21
10.090598381
  0
LINE
  5
2F3
100
AcDbEntity
  8
0
100
AcDbLine
 62
4
  6
CONTINUOUS
 10
12.163693309
 20
10.1025599022
 11
12.1585169337
 21
10.0975599073
  0
LINE
  5
2F4
100
AcDbEntity
  8
0
100
AcDbLine
 62
4
  6
CONTINUOUS
 10
13.4746961352
 20
9.9593915022
 11
13.4596871265
 21
9.952393912
  0
LINE
  5
2F5
100
AcDbEntity
  8
0
100
AcDbLine
 62
4
  6
CONTINUOUS
 10
10.2872576899
 20
7.8040696534
 11
10.2945021339
 21
7.8132265127
  0
LINE
  5
2F6
100
AcDbEntity
  8
0
100
AcDbLine
 62
4
  6
CONTINUOUS
 10
10.2872576899
 20
7.7364548454
 11
10.3017465779
 21
7.7547685554
  0
LINE
  5
2F7
100
AcDbEntity
  8
0
100
AcDbLine
 62
7
  6
CONTINUOUS
 10
9.6676937655
 20
7.4406863142
 11
9.5710414098
 21
7.3473273022
  0
LINE
  5
2F8
100
AcDbEntity
  8
0
100
AcDbLine
 62
7
  6
CONTINUOUS
 10
10.0330923817
 20
7.6263088236
 11
9.9364400261
 21
7.5329498116
  0
LINE
  5
2F9
100
AcDbEntity
  8
0
100
AcDbLine
 62
7
  6
CONTINUOUS
 10
10.0903018272
 20
7.6223413351
 11
9.9936494715
 21
7.5289823231
  0
LINE
  5
2FA
100
AcDbEntity
  8
0
100
AcDbLine
 62
4
  6
CONTINUOUS
 10
9.9033021598
 20
7.8693340989
 11
9.9177910477
 21
7.8779885474
  0
LINE
  5
2FB
100
AcDbEntity
  8
0
100
AcDbLine
 62
7
  6
CONTINUOUS
 10
12.7043330794
 20
10.0047778931
 11
12.7036340784
 21
10.0041154271
  0
LINE
  5
2FC
100
AcDbEntity
  8
0
100
AcDbLine
 62
4
  6
CONTINUOUS
 10
10.0337021512
 20
7.8699500851
 11
10.0192132632
 21
7.8612956366
  0
LINE
  5
2FD
100
AcDbEntity
  8
0
100
AcDbLine
 62
4
  6
CONTINUOUS
 10
9.9467688236
 20
7.7697270873
 11
9.9322799357
 21
7.7610726362
  0
LINE
  5
2FE
100
AcDbEntity
  8
0
100
AcDbLine
 62
4
  6
CONTINUOUS
 10
10.062679927
 20
7.761688625
 11
10.0481910391
 21
7.7530341739
  0
LINE
  5
2FF
100
AcDbEntity
  8
0
100
AcDbLine
 62
7
  6
CONTINUOUS
 10
10.4557004434
 20
7.3860378655
 11
10.3590480878
 21
7.2926788535
  0
LINE
  5
300
100
AcDbEntity
  8
0
100
AcDbLine
 62
7
  6
CONTINUOUS
 10
10.4843051661
 20
7.3345092882
 11
10.3876528105
 21
7.2411502762
  0
LINE
  5
301
100
AcDbEntity
  8
0
100
AcDbLine
 62
4
  6
CONTINUOUS
 10
9.0415175184
 20
10.2882694
 11
9.0461737729
 21
10.2852669969
  0
LINE
  5
302
100
AcDbEntity
  8
0
100
AcDbLine
 62
4
  6
CONTINUOUS
 10
13.5435245602
 20
9.9733746605
 11
13.5383481849
 21
9.9683746656
  0
LINE
  5
303
100
AcDbEntity
  8
0
100
AcDbLine
 62
4
  6
CONTINUOUS
 10
13.0970620751
 20
9.5421249901
 11
13.066003816
 21
9.5121250138
  0
LINE
  5
304
100
AcDbEntity
  8
0
100
AcDbLine
 62
4
  6
CONTINUOUS
 10
9.9703723456
 20
9.7964745139
 11
9.9610598341
 21
9.8024793176
  0
LINE
  5
305
100
AcDbEntity
  8
0
100
AcDbLine
 62
4
  6
CONTINUOUS
 10
10.0397208925
 20
9.8184600713
 11
10.044377147
 21
9.8154576682
  0
LINE
  5
306
100
AcDbEntity
  8
0
100
AcDbLine
 62
4
  6
CONTINUOUS
 10
11.9644648927
 20
10.097620014
 11
11.9649850135
 21
10.105622412
  0
LINE
  5
307
100
AcDbEntity
  8
0
100
AcDbLine
 62
7
  6
CONTINUOUS
 10
10.4843051661
 20
6.9125833093
 11
10.3876528105
 21
6.8192242972
  0
LINE
  5
308
100
AcDbEntity
  8
0
100
AcDbLine
 62
7
  6
CONTINUOUS
 10
10.4557004434
 20
6.8650222204
 11
10.3590480878
 21
6.7716632084
  0
LINE
  5
309
100
AcDbEntity
  8
0
100
AcDbLine
 62
7
  6
CONTINUOUS
 10
12.8324723379
 20
9.1585509196
 11
13.9971570797
 21
10.2835500578
  0
LINE
  5
30A
100
AcDbEntity
  8
0
100
AcDbLine
 62
4
  6
CONTINUOUS
 10
13.5383481849
 20
9.9683746656
 11
13.5285155514
 21
9.9663770703
  0
LINE
  5
30B
100
AcDbEntity
  8
0
100
AcDbLine
 62
4
  6
CONTINUOUS
 10
13.4943613994
 20
9.9633866901
 11
13.4746961352
 21
9.9593915022
  0
LINE
  5
30C
100
AcDbEntity
  8
0
100
AcDbLine
 62
4
  6
CONTINUOUS
 10
13.4855690084
 20
9.9773938917
 11
13.4954016419
 21
9.979391487
  0
LINE
  5
30D
100
AcDbEntity
  8
0
100
AcDbLine
 62
7
  6
CONTINUOUS
 10
8.0028429203
 20
9.4934868573
 11
12.8324723379
 21
9.1585509196
  0
LINE
  5
30E
100
AcDbEntity
  8
0
100
AcDbLine
 62
4
  6
CONTINUOUS
 10
9.9822730452
 20
9.792969708
 11
9.9703723456
 21
9.7964745139
  0
LINE
  5
30F
100
AcDbEntity
  8
0
100
AcDbLine
 62
4
  6
CONTINUOUS
 10
10.0278201922
 20
9.8219648765
 11
10.0397208925
 21
9.8184600713
  0
LINE
  5
310
100
AcDbEntity
  8
0
100
AcDbLine
 62
4
  6
CONTINUOUS
 10
10.9089369468
 20
9.9248440103
 11
10.9441136077
 21
9.8902506259
  0
LINE
  5
311
100
AcDbEntity
  8
0
100
AcDbLine
 62
4
  6
CONTINUOUS
 10
11.2417545621
 20
9.8034640423
 11
11.2207589461
 21
9.8003266823
  0
LINE
  5
312
100
AcDbEntity
  8
0
100
AcDbLine
 62
4
  6
CONTINUOUS
 10
13.5285155514
 20
9.9663770703
 11
13.4943613994
 21
9.9633866901
  0
LINE
  5
313
100
AcDbEntity
  8
0
100
AcDbLine
 62
4
  6
CONTINUOUS
 10
13.4954016419
 20
9.979391487
 11
13.5124787175
 21
9.9808866766
  0
LINE
  5
314
100
AcDbEntity
  8
0
100
AcDbLine
 62
4
  6
CONTINUOUS
 10
9.9967619331
 20
9.7919649002
 11
9.9822730452
 21
9.792969708
  0
LINE
  5
315
100
AcDbEntity
  8
0
100
AcDbLine
 62
4
  6
CONTINUOUS
 10
10.0050466187
 20
9.8074672922
 11
10.0340243946
 21
9.8054576767
  0
LINE
  5
316
100
AcDbEntity
  8
0
100
AcDbLine
 62
4
  6
CONTINUOUS
 10
10.0133313043
 20
9.8229696843
 11
10.0278201922
 21
9.8219648765
  0
LINE
  5
317
100
AcDbEntity
  8
0
100
AcDbLine
 62
4
  6
CONTINUOUS
 10
10.4613289406
 20
9.8667735642
 11
10.4995696941
 21
9.8579970113
  0
LINE
  5
318
100
AcDbEntity
  8
0
100
AcDbLine
 62
4
  6
CONTINUOUS
 10
9.0296168181
 20
10.2917742053
 11
9.0415175184
 21
10.2882694
  0
LINE
  5
319
100
AcDbEntity
  8
0
100
AcDbLine
 62
4
  6
CONTINUOUS
 10
10.5867082558
 20
9.8764521217
 11
10.5988300902
 21
9.8710180592
  0
LINE
  5
31A
100
AcDbEntity
  8
0
100
AcDbLine
 62
4
  6
CONTINUOUS
 10
11.0082552885
 20
9.815063861
 11
10.9961334615
 21
9.8204979235
  0
LINE
  5
31B
100
AcDbEntity
  8
0
100
AcDbLine
 62
4
  6
CONTINUOUS
 10
11.10484784
 20
9.8083651448
 11
11.092726013
 21
9.8137992073
  0
LINE
  5
31C
100
AcDbEntity
  8
0
100
AcDbLine
 62
7
  6
CONTINUOUS
 10
13.6412811864
 20
9.1776848165
 11
13.6423328034
 21
9.1786819061
  0
LINE
  5
31D
100
AcDbEntity
  8
0
100
AcDbLine
 62
7
  6
CONTINUOUS
 10
13.1883482312
 20
8.7401851517
 11
13.1893998483
 21
8.7411822412
  0
LINE
  5
31E
100
AcDbEntity
  8
0
100
AcDbLine
 62
4
  6
CONTINUOUS
 10
10.877878687
 20
9.8948440333
 11
10.9751718675
 21
9.920250603
  0
LINE
  5
31F
100
AcDbEntity
  8
0
100
AcDbLine
 62
4
  6
CONTINUOUS
 10
12.1585169337
 20
10.0975599073
 11
12.1486843003
 21
10.095562312
  0
LINE
  5
320
100
AcDbEntity
  8
0
100
AcDbLine
 62
4
  6
CONTINUOUS
 10
12.1145301482
 20
10.0925719318
 11
12.0948648841
 21
10.0885767439
  0
LINE
  5
321
100
AcDbEntity
  8
0
100
AcDbLine
 62
4
  6
CONTINUOUS
 10
12.1057377573
 20
10.1065791334
 11
12.1155703907
 21
10.1085767287
  0
LINE
  5
322
100
AcDbEntity
  8
0
100
AcDbLine
 62
4
  6
CONTINUOUS
 10
12.0270767003
 20
10.090598381
 11
12.017244068
 21
10.0886007868
  0
LINE
  5
323
100
AcDbEntity
  8
0
100
AcDbLine
 62
4
  6
CONTINUOUS
 10
11.9799940222
 20
10.1126200022
 11
11.9996592873
 21
10.116615191
  0
LINE
  5
324
100
AcDbEntity
  8
0
100
AcDbLine
 62
4
  6
CONTINUOUS
 10
10.0236716417
 20
9.7954576847
 11
10.0138390094
 21
9.7934600905
  0
LINE
  5
325
100
AcDbEntity
  8
0
100
AcDbLine
 62
4
  6
CONTINUOUS
 10
9.9765889637
 20
9.8174793058
 11
9.9962542287
 21
9.8214744947
  0
LINE
  5
326
100
AcDbEntity
  8
0
100
AcDbLine
 62
4
  6
CONTINUOUS
 10
11.150681566
 20
9.809779976
 11
11.12968595
 21
9.8066426161
  0
LINE
  5
327
100
AcDbEntity
  8
0
100
AcDbLine
 62
4
  6
CONTINUOUS
 10
11.1149104843
 20
9.8352277623
 11
11.1359060998
 21
9.8383651219
  0
LINE
  5
328
100
AcDbEntity
  8
0
100
AcDbLine
 62
4
  6
CONTINUOUS
 10
11.0183179328
 20
9.8419264785
 11
11.0393135483
 21
9.8450638381
  0
LINE
  5
329
100
AcDbEntity
  8
0
100
AcDbLine
 62
4
  6
CONTINUOUS
 10
11.0396235052
 20
9.8882204029
 11
11.0186278892
 21
9.885083043
  0
LINE
  5
32A
100
AcDbEntity
  8
0
100
AcDbLine
 62
4
  6
CONTINUOUS
 10
11.0949254472
 20
9.9073522536
 11
11.1159210628
 21
9.9104896131
  0
LINE
  5
32B
100
AcDbEntity
  8
0
100
AcDbLine
 62
4
  6
CONTINUOUS
 10
10.5766456189
 20
9.8495895042
 11
10.555649996
 21
9.8464521447
  0
LINE
  5
32C
100
AcDbEntity
  8
0
100
AcDbLine
 62
4
  6
CONTINUOUS
 10
11.0038524304
 20
9.9136681888
 11
11.0248480529
 21
9.9168055478
  0
LINE
  5
32D
100
AcDbEntity
  8
0
100
AcDbLine
 62
4
  6
CONTINUOUS
 10
10.0138390094
 20
9.7934600905
 11
9.9967619331
 21
9.7919649002
  0
LINE
  5
32E
100
AcDbEntity
  8
0
100
AcDbLine
 62
4
  6
CONTINUOUS
 10
9.9962542287
 20
9.8214744947
 11
10.0133313043
 21
9.8229696843
  0
LINE
  5
32F
100
AcDbEntity
  8
0
100
AcDbLine
 62
4
  6
CONTINUOUS
 10
12.1486843003
 20
10.095562312
 11
12.1145301482
 21
10.0925719318
  0
LINE
  5
330
100
AcDbEntity
  8
0
100
AcDbLine
 62
4
  6
CONTINUOUS
 10
12.017244068
 20
10.0886007868
 11
12.0001669917
 21
10.0871055965
  0
LINE
  5
331
100
AcDbEntity
  8
0
100
AcDbLine
 62
4
  6
CONTINUOUS
 10
11.4244950095
 20
9.7999777705
 11
11.3744225412
 21
9.7973257603
  0
LINE
  5
332
100
AcDbEntity
  8
0
100
AcDbLine
 62
4
  6
CONTINUOUS
 10
10.5114014128
 20
9.8694255746
 11
10.4613289406
 21
9.8667735642
  0
LINE
  5
333
100
AcDbEntity
  8
0
100
AcDbLine
 62
4
  6
CONTINUOUS
 10
11.2207589461
 20
9.8003266823
 11
11.1793621146
 21
9.8031975623
  0
LINE
  5
334
100
AcDbEntity
  8
0
100
AcDbLine
 62
4
  6
CONTINUOUS
 10
11.12968595
 20
9.8066426161
 11
11.10484784
 21
9.8083651448
  0
LINE
  5
335
100
AcDbEntity
  8
0
100
AcDbLine
 62
4
  6
CONTINUOUS
 10
11.0413727316
 20
9.8127671586
 11
11.0082552885
 21
9.815063861
  0
LINE
  5
336
100
AcDbEntity
  8
0
100
AcDbLine
 62
4
  6
CONTINUOUS
 10
10.555649996
 20
9.8464521447
 11
10.5142531784
 21
9.8493230237
  0
LINE
  5
337
100
AcDbEntity
  8
0
100
AcDbLine
 62
4
  6
CONTINUOUS
 10
10.8178298803
 20
9.828269908
 11
10.8675060726
 21
9.8248248523
  0
LINE
  5
338
100
AcDbEntity
  8
0
100
AcDbLine
 62
4
  6
CONTINUOUS
 10
11.2842341098
 20
9.7959246648
 11
11.3339102744
 21
9.7924796111
  0
LINE
  5
339
100
AcDbEntity
  8
0
100
AcDbLine
 62
4
  6
CONTINUOUS
 10
10.6390380664
 20
9.8498559841
 11
10.6831946756
 21
9.8467937129
  0
LINE
  5
33A
100
AcDbEntity
  8
0
100
AcDbLine
 62
4
  6
CONTINUOUS
 10
11.3350991306
 20
9.8107708071
 11
11.3019816876
 21
9.8130675096
  0
LINE
  5
33B
100
AcDbEntity
  8
0
100
AcDbLine
 62
4
  6
CONTINUOUS
 10
10.8686949288
 20
9.8431160483
 11
10.8355774581
 21
9.8454127527
  0
LINE
  5
33C
100
AcDbEntity
  8
0
100
AcDbLine
 62
4
  6
CONTINUOUS
 10
10.5453114381
 20
9.8793230008
 11
10.5867082558
 21
9.8764521217
  0
LINE
  5
33D
100
AcDbEntity
  8
0
100
AcDbLine
 62
4
  6
CONTINUOUS
 10
10.7495357556
 20
9.8651599962
 11
10.8157706694
 21
9.8605665894
  0
LINE
  5
33E
100
AcDbEntity
  8
0
100
AcDbLine
 62
4
  6
CONTINUOUS
 10
10.8488881401
 20
9.858269885
 11
10.8985643324
 21
9.8548248293
  0
LINE
  5
33F
100
AcDbEntity
  8
0
100
AcDbLine
 62
4
  6
CONTINUOUS
 10
11.0393135483
 20
9.8450638381
 11
11.0724309914
 21
9.8427671356
  0
LINE
  5
340
100
AcDbEntity
  8
0
100
AcDbLine
 62
4
  6
CONTINUOUS
 10
11.1359060998
 20
9.8383651219
 11
11.1607442098
 21
9.8366425931
  0
LINE
  5
341
100
AcDbEntity
  8
0
100
AcDbLine
 62
4
  6
CONTINUOUS
 10
11.2104203744
 20
9.8331975394
 11
11.2518172058
 21
9.8303266594
  0
LINE
  5
342
100
AcDbEntity
  8
0
100
AcDbLine
 62
4
  6
CONTINUOUS
 10
11.3152923695
 20
9.8259246418
 11
11.3649685342
 21
9.8224795881
  0
LINE
  5
343
100
AcDbEntity
  8
0
100
AcDbLine
 62
4
  6
CONTINUOUS
 10
11.1179802599
 20
9.8781929327
 11
11.084862803
 21
9.8804896361
  0
LINE
  5
344
100
AcDbEntity
  8
0
100
AcDbLine
 62
4
  6
CONTINUOUS
 10
11.0186278892
 20
9.885083043
 11
10.9937897931
 21
9.8868055708
  0
LINE
  5
345
100
AcDbEntity
  8
0
100
AcDbLine
 62
4
  6
CONTINUOUS
 10
11.0248480529
 20
9.9168055478
 11
11.049686149
 21
9.91508302
  0
LINE
  5
346
100
AcDbEntity
  8
0
100
AcDbLine
 62
4
  6
CONTINUOUS
 10
11.1159210628
 20
9.9104896131
 11
11.1490385196
 21
9.9081929097
  0
LINE
  5
347
100
AcDbEntity
  8
0
100
AcDbLine
 62
4
  6
CONTINUOUS
 10
11.0338322622
 20
9.9611979153
 11
10.9951952268
 21
9.9638774028
  0
LINE
  5
348
100
AcDbEntity
  8
0
100
AcDbLine
 62
4
  6
CONTINUOUS
 10
11.7061909928
 20
9.9306466163
 11
11.6482354398
 21
9.9346658475
  0
LINE
  5
349
100
AcDbEntity
  8
0
100
AcDbLine
 62
4
  6
CONTINUOUS
 10
11.3391391571
 20
9.9561017475
 11
11.2811836041
 21
9.9601209788
  0
LINE
  5
34A
100
AcDbEntity
  8
0
100
AcDbLine
 62
4
  6
CONTINUOUS
 10
11.1459539804
 20
9.969499185
 11
11.0879984274
 21
9.9735184163
  0
LINE
  5
34B
100
AcDbEntity
  8
0
100
AcDbLine
 62
4
  6
CONTINUOUS
 10
11.0493613921
 20
9.9761979038
 11
10.991405839
 21
9.980217135
  0
LINE
  5
34C
100
AcDbEntity
  8
0
100
AcDbLine
 62
4
  6
CONTINUOUS
 10
10.6832754822
 20
10.0015860479
 11
10.6253199292
 21
10.0056052791
  0
LINE
  5
34D
100
AcDbEntity
  8
0
100
AcDbLine
 62
4
  6
CONTINUOUS
 10
10.5963421527
 20
10.0076148948
 11
10.5383865997
 21
10.011634126
  0
LINE
  5
34E
100
AcDbEntity
  8
0
100
AcDbLine
 62
4
  6
CONTINUOUS
 10
11.3777761925
 20
9.95342226
 11
11.4357317455
 21
9.9494030288
  0
LINE
  5
34F
100
AcDbEntity
  8
0
100
AcDbLine
 62
4
  6
CONTINUOUS
 10
11.5516428515
 20
9.9413645663
 11
11.6095984045
 21
9.937345335
  0
LINE
  5
350
100
AcDbEntity
  8
0
100
AcDbLine
 62
4
  6
CONTINUOUS
 10
11.6560000048
 20
9.9421658418
 11
11.7139555578
 21
9.9381466105
  0
LINE
  5
351
100
AcDbEntity
  8
0
100
AcDbLine
 62
4
  6
CONTINUOUS
 10
11.2915363574
 20
9.9701209711
 11
11.3494919104
 21
9.9661017399
  0
LINE
  5
352
100
AcDbEntity
  8
0
100
AcDbLine
 62
4
  6
CONTINUOUS
 10
11.354668287
 20
9.971101736
 11
11.3160312517
 21
9.9737812235
  0
LINE
  5
353
100
AcDbEntity
  8
0
100
AcDbLine
 62
4
  6
CONTINUOUS
 10
10.9596046006
 20
9.9984994957
 11
10.9016490476
 21
10.002518727
  0
LINE
  5
354
100
AcDbEntity
  8
0
100
AcDbLine
 62
4
  6
CONTINUOUS
 10
10.5539157296
 20
10.0266341145
 11
10.6118712826
 21
10.0226148833
  0
LINE
  5
355
100
AcDbEntity
  8
0
100
AcDbLine
 62
4
  6
CONTINUOUS
 10
11.1035275573
 20
9.9885184048
 11
11.1614831103
 21
9.9844991736
  0
LINE
  5
356
100
AcDbEntity
  8
0
100
AcDbLine
 62
4
  6
CONTINUOUS
 10
11.2001201456
 20
9.981819686
 11
11.2580756986
 21
9.9778004548
  0
LINE
  5
357
100
AcDbEntity
  8
0
100
AcDbLine
 62
4
  6
CONTINUOUS
 10
11.5671719814
 20
9.9563645548
 11
11.6251275344
 21
9.9523453235
  0
LINE
  5
358
100
AcDbEntity
  8
0
100
AcDbLine
 62
4
  6
CONTINUOUS
 10
11.6637645697
 20
9.949665836
 11
11.7217201227
 21
9.9456466048
  0
LINE
  5
359
100
AcDbEntity
  8
0
100
AcDbLine
 62
4
  6
CONTINUOUS
 10
11.5290550669
 20
9.9670464404
 11
11.5435439551
 21
9.9660416326
  0
LINE
  5
35A
100
AcDbEntity
  8
0
100
AcDbLine
 62
4
  6
CONTINUOUS
 10
11.3862542599
 20
9.8087543236
 11
11.4244950095
 21
9.7999777705
  0
LINE
  5
35B
100
AcDbEntity
  8
0
100
AcDbLine
 62
4
  6
CONTINUOUS
 10
10.9937897931
 20
9.8868055708
 11
10.9816679591
 21
9.8922396337
  0
LINE
  5
35C
100
AcDbEntity
  8
0
100
AcDbLine
 62
4
  6
CONTINUOUS
 10
11.1607442098
 20
9.8366425931
 11
11.1728660373
 21
9.8312085311
  0
LINE
  5
35D
100
AcDbEntity
  8
0
100
AcDbLine
 62
4
  6
CONTINUOUS
 10
11.084862803
 20
9.8804896361
 11
11.0727409759
 21
9.8859236985
  0
LINE
  5
35E
100
AcDbEntity
  8
0
100
AcDbLine
 62
4
  6
CONTINUOUS
 10
11.049686149
 20
9.91508302
 11
11.0618079765
 21
9.909648958
  0
LINE
  5
35F
100
AcDbEntity
  8
0
100
AcDbLine
 62
4
  6
CONTINUOUS
 10
11.2518172058
 20
9.8303266594
 11
11.2639390334
 21
9.8248925974
  0
LINE
  5
360
100
AcDbEntity
  8
0
100
AcDbLine
 62
4
  6
CONTINUOUS
 10
12.1155703907
 20
10.1085767287
 11
12.1326474663
 21
10.1100719183
  0
LINE
  5
361
100
AcDbEntity
  8
0
100
AcDbLine
 62
4
  6
CONTINUOUS
 10
11.9996592873
 20
10.116615191
 11
12.0167363629
 21
10.1181103807
  0
LINE
  5
362
100
AcDbEntity
  8
0
100
AcDbLine
 62
4
  6
CONTINUOUS
 10
10.6274004125
 20
10.0376148718
 11
10.5694448595
 21
10.041634103
  0
LINE
  5
363
100
AcDbEntity
  8
0
100
AcDbLine
 62
4
  6
CONTINUOUS
 10
10.7433115185
 20
10.0295764093
 11
10.8012670715
 21
10.025557178
  0
LINE
  5
364
100
AcDbEntity
  8
0
100
AcDbLine
 62
4
  6
CONTINUOUS
 10
8.9623363392
 20
10.2642862484
 11
9.020291891
 21
10.2602670172
  0
LINE
  5
365
100
AcDbEntity
  8
0
100
AcDbLine
 62
4
  6
CONTINUOUS
 10
13.4596871265
 20
9.952393912
 11
13.5176426782
 21
9.9483746808
  0
LINE
  5
366
100
AcDbEntity
  8
0
100
AcDbLine
 62
4
  6
CONTINUOUS
 10
9.0151279302
 20
10.2927790131
 11
9.0296168181
 21
10.2917742053
  0
LINE
  5
367
100
AcDbEntity
  8
0
100
AcDbLine
 62
4
  6
CONTINUOUS
 10
13.5124787175
 20
9.9808866766
 11
13.5269676054
 21
9.9798818688
  0
LINE
  5
368
100
AcDbEntity
  8
0
100
AcDbLine
 62
4
  6
CONTINUOUS
 10
12.0001669917
 20
10.0871055965
 11
11.9856781038
 21
10.0881104043
  0
LINE
  5
369
100
AcDbEntity
  8
0
100
AcDbLine
 62
4
  6
CONTINUOUS
 10
12.0798558753
 20
10.0815791537
 11
12.137811427
 21
10.0775599225
  0
LINE
  5
36A
100
AcDbEntity
  8
0
100
AcDbLine
 62
4
  6
CONTINUOUS
 10
12.0084516773
 20
10.1026079886
 11
12.0374294531
 21
10.100598373
  0
LINE
  5
36B
100
AcDbEntity
  8
0
100
AcDbLine
 62
4
  6
CONTINUOUS
 10
12.0167363629
 20
10.1181103807
 11
12.0312252508
 21
10.1171055729
  0
LINE
  5
36C
100
AcDbEntity
  8
0
100
AcDbLine
 62
4
  6
CONTINUOUS
 10
12.1326474663
 20
10.1100719183
 11
12.1471363542
 21
10.1090671105
  0
LINE
  5
36D
100
AcDbEntity
  8
0
100
AcDbLine
 62
7
  6
CONTINUOUS
 10
12.8324723379
 20
9.1585509196
 11
12.8324723379
 21
6.3815140045
  0
LINE
  5
36E
100
AcDbEntity
  8
0
100
AcDbLine
 62
4
  6
CONTINUOUS
 10
9.0311647642
 20
10.2782694067
 11
8.9970106121
 21
10.2752790266
  0
LINE
  5
36F
100
AcDbEntity
  8
0
100
AcDbLine
 62
4
  6
CONTINUOUS
 10
8.9980508547
 20
10.2912838234
 11
9.0151279302
 21
10.2927790131
  0
LINE
  5
370
100
AcDbEntity
  8
0
100
AcDbLine
 62
7
  6
CONTINUOUS
 10
9.1675276621
 20
10.6184859955
 11
13.9971570797
 21
10.2835500578
  0
LINE
  5
371
100
AcDbEntity
  8
0
100
AcDbLine
 62
4
  6
CONTINUOUS
 10
11.9856781038
 20
10.0881104043
 11
11.9737774042
 21
10.0916152102
  0
LINE
  5
372
100
AcDbEntity
  8
0
100
AcDbLine
 62
4
  6
CONTINUOUS
 10
12.0312252508
 20
10.1171055729
 11
12.0431259511
 21
10.1136007677
  0
LINE
  5
373
100
AcDbEntity
  8
0
100
AcDbLine
 62
4
  6
CONTINUOUS
 10
12.1471363542
 20
10.1090671105
 11
12.1590370545
 21
10.1055623053
  0
LINE
  5
374
100
AcDbEntity
  8
0
100
AcDbLine
 62
4
  6
CONTINUOUS
 10
11.9737774042
 20
10.0916152102
 11
11.9644648927
 21
10.097620014
  0
LINE
  5
375
100
AcDbEntity
  8
0
100
AcDbLine
 62
4
  6
CONTINUOUS
 10
12.0431259511
 20
10.1136007677
 11
12.0477822056
 21
10.1105983645
  0
LINE
  5
376
100
AcDbEntity
  8
0
100
AcDbLine
 62
4
  6
CONTINUOUS
 10
12.1590370545
 20
10.1055623053
 11
12.163693309
 21
10.1025599022
  0
LINE
  5
377
100
AcDbEntity
  8
0
100
AcDbLine
 62
4
  6
CONTINUOUS
 10
9.0409973976
 20
10.2802670021
 11
9.0311647642
 21
10.2782694067
  0
LINE
  5
378
100
AcDbEntity
  8
0
100
AcDbLine
 62
4
  6
CONTINUOUS
 10
8.9970106121
 20
10.2752790266
 11
8.977345348
 21
10.2712838386
  0
LINE
  5
379
100
AcDbEntity
  8
0
100
AcDbLine
 62
4
  6
CONTINUOUS
 10
8.9882182212
 20
10.2892862281
 11
8.9980508547
 21
10.2912838234
  0
LINE
  5
37A
100
AcDbEntity
  8
0
100
AcDbLine
 62
4
  6
CONTINUOUS
 10
13.5269676054
 20
9.9798818688
 11
13.5388683057
 21
9.9763770636
  0
LINE
  5
37B
100
AcDbEntity
  8
0
100
AcDbLine
 62
4
  6
CONTINUOUS
 10
13.5388683057
 20
9.9763770636
 11
13.5435245602
 21
9.9733746605
  0
LINE
  5
37C
100
AcDbEntity
  8
0
100
AcDbLine
 62
7
  6
CONTINUOUS
 10
12.8324723379
 20
6.3815140045
 11
13.9971570797
 21
7.5065131427
  0
LINE
  5
37D
100
AcDbEntity
  8
0
100
AcDbLine
 62
7
  6
CONTINUOUS
 10
13.9971570797
 20
10.2835500578
 11
13.9971570797
 21
7.5065131427
  0
ARC
  5
37E
100
AcDbEntity
  8
0
100
AcDbCircle
 62
7
  6
CONTINUOUS
 10
10.0192896316
 20
7.1100721156
 40
0.5163443539
100
AcDbArc
 50
25.7640228377
 51
32.3073428428
  0
ARC
  5
37F
100
AcDbEntity
  8
0
100
AcDbCircle
 62
7
  6
CONTINUOUS
 10
10.0074522217
 20
7.102277407
 40
0.5163443539
100
AcDbArc
 50
205.7640228377
 51
212.3073428428
  0
ARC
  5
380
100
AcDbEntity
  8
0
100
AcDbCircle
 62
7
  6
CONTINUOUS
 10
9.922637276
 20
7.0167131036
 40
0.5163443539
100
AcDbArc
 50
25.7640228377
 51
32.3073428428
  0
ARC
  5
381
100
AcDbEntity
  8
0
100
AcDbCircle
 62
7
  6
CONTINUOUS
 10
10.0284974837
 20
7.14711669
 40
0.4792267106
100
AcDbArc
 50
82.590107291
 51
86.0275106487
  0
ARC
  5
382
100
AcDbEntity
  8
0
100
AcDbCircle
 62
7
  6
CONTINUOUS
 10
9.9982443696
 20
7.0652328327
 40
0.4792267106
100
AcDbArc
 50
262.590107291
 51
266.0275106487
  0
ARC
  5
383
100
AcDbEntity
  8
0
100
AcDbCircle
 62
7
  6
CONTINUOUS
 10
9.9318451281
 20
7.053757678
 40
0.4792267106
100
AcDbArc
 50
82.590107291
 51
86.0275106487
  0
ARC
  5
384
100
AcDbEntity
  8
0
100
AcDbCircle
 62
7
  6
CONTINUOUS
 10
9.9978019754
 20
7.0592859494
 40
0.4732634681
100
AcDbArc
 50
266.0310634489
 51
269.4972694561
  0
ARC
  5
385
100
AcDbEntity
  8
0
100
AcDbCircle
 62
7
  6
CONTINUOUS
 10
9.9322875222
 20
7.0597045612
 40
0.4732634681
100
AcDbArc
 50
86.0310634489
 51
89.4972694561
  0
ARC
  5
386
100
AcDbEntity
  8
0
100
AcDbCircle
 62
7
  6
CONTINUOUS
 10
10.0289786177
 20
7.1540558232
 40
0.4722709174
100
AcDbArc
 50
86.0274199487
 51
89.5009129563
  0
ARC
  5
387
100
AcDbEntity
  8
0
100
AcDbCircle
 62
7
  6
CONTINUOUS
 10
10.1011602777
 20
7.1106361685
 40
0.4313060869
100
AcDbArc
 50
325.2870362755
 51
332.6649360488
  0
ARC
  5
388
100
AcDbEntity
  8
0
100
AcDbCircle
 62
7
  6
CONTINUOUS
 10
9.9255815756
 20
7.1017133542
 40
0.4313060869
100
AcDbArc
 50
145.2870362755
 51
152.6649360488
  0
ARC
  5
389
100
AcDbEntity
  8
0
100
AcDbCircle
 62
7
  6
CONTINUOUS
 10
10.004507922
 20
7.0172771565
 40
0.4313060869
100
AcDbArc
 50
325.2870362755
 51
332.6649360488
  0
ARC
  5
38A
100
AcDbEntity
  8
0
100
AcDbCircle
 62
7
  6
CONTINUOUS
 10
10.0598133216
 20
7.2191305262
 40
0.3816725525
100
AcDbArc
 50
111.6464410246
 51
120.9132869054
  0
SPLINE
  5
38B
100
AcDbEntity
  8
0
100
AcDbSpline
 62
7
  6
CONTINUOUS
 70
0
 71
3
 72
20
 73
16
 74
0
 42
0.0000001
 43
0.0000001
 44
0.0000000001
 40
0.0
 40
0.0
 40
0.0
 40
0.0
 40
0.1307130444
 40
0.2609290879
 40
0.3256870374
 40
0.3901050986
 40
0.4540966361
 40
0.517574691
 40
0.5804573165
 40
0.6426728974
 40
0.7041645318
 40
0.7648928072
 40
0.8248367025
 40
0.8839927538
 40
1.0
 40
1.0
 40
1.0
 40
1.0
 10
9.5424366871
 20
7.2997662134
 30
0.0
 10
9.541247402
 20
7.2814050718
 30
0.0
 10
9.5390900762
 20
7.24473808
 30
0.0
 10
9.5370436509
 20
7.1989370042
 30
0.0
 10
9.5358635022
 20
7.1624427709
 30
0.0
 10
9.5352216095
 20
7.1352590482
 30
0.0
 10
9.5348315994
 20
7.1082507056
 30
0.0
 10
9.5347000133
 20
7.0814559778
 30
0.0
 10
9.534829153
 20
7.0549112192
 30
0.0
 10
9.5352168565
 20
7.0286486236
 30
0.0
 10
9.535856697
 20
7.0026943152
 30
0.0
 10
9.5367385101
 20
6.9770670878
 30
0.0
 10
9.5378492139
 20
6.9517778375
 30
0.0
 10
9.5396036061
 20
6.9187295475
 30
0.0
 10
9.5412310113
 20
6.8941252425
 30
0.0
 10
9.5424366871
 20
6.8778402345
 30
0.0
  0
SPLINE
  5
38C
100
AcDbEntity
  8
0
100
AcDbSpline
 62
7
  6
CONTINUOUS
 70
0
 71
3
 72
21
 73
17
 74
0
 42
0.0000001
 43
0.0000001
 44
0.0000000001
 40
0.0
 40
0.0
 40
0.0
 40
0.0
 40
0.1211316245
 40
0.1823736293
 40
0.2440533566
 40
0.3061457671
 40
0.3686121396
 40
0.431400593
 40
0.4944480865
 40
0.5576838397
 40
0.6210337674
 40
0.6844252162
 40
0.7477912094
 40
0.811073636
 40
0.8742251276
 40
1.0
 40
1.0
 40
1.0
 40
1.0
 10
9.5710414098
 20
6.8263116572
 30
0.0
 10
9.5848722661
 20
6.8154334542
 30
0.0
 10
9.6058487264
 20
6.7992480286
 30
0.0
 10
9.6342574161
 20
6.7780379708
 30
0.0
 10
9.6559735
 20
6.762202114
 30
0.0
 10
9.6780203939
 20
6.7465212275
 30
0.0
 10
9.700391007
 20
6.7310210491
 30
0.0
 10
9.7230708757
 20
6.7157273827
 30
0.0
 10
9.7460385092
 20
6.7006645687
 30
0.0
 10
9.7692663742
 20
6.6858539785
 30
0.0
 10
9.792722515
 20
6.6713126395
 30
0.0
 10
9.8163725709
 20
6.6570522673
 30
0.0
 10
9.8401818308
 20
6.64307882
 30
0.0
 10
9.8641171417
 20
6.629392549
 30
0.0
 10
9.8961140788
 20
6.6115454295
 30
0.0
 10
9.9202801058
 20
6.5985332848
 30
0.0
 10
9.9364400261
 20
6.5900081876
 30
0.0
  0
SPLINE
  5
38D
100
AcDbEntity
  8
0
100
AcDbSpline
 62
7
  6
CONTINUOUS
 70
0
 71
3
 72
15
 73
11
 74
0
 42
0.0000001
 43
0.0000001
 44
0.0000000001
 40
0.0
 40
0.0
 40
0.0
 40
0.0
 40
0.1128138383
 40
0.2295637229
 40
0.3503753066
 40
0.4750618339
 40
0.60311002
 40
0.73378544
 40
0.8663079068
 40
1.0
 40
1.0
 40
1.0
 40
1.0
 10
9.9936494715
 20
6.5860406991
 30
0.0
 10
10.0076089633
 20
6.5925778923
 30
0.0
 10
10.0359680723
 20
6.6059808598
 30
0.0
 10
10.0790923143
 20
6.6267710663
 30
0.0
 10
10.1234985597
 20
6.6486339339
 30
0.0
 10
10.1690972759
 20
6.6715655899
 30
0.0
 10
10.2157047103
 20
6.6954871487
 30
0.0
 10
10.2630777929
 20
6.7202581238
 30
0.0
 10
10.3109647518
 20
6.7457076871
 30
0.0
 10
10.3429871441
 20
6.7629608182
 30
0.0
 10
10.3590480878
 20
6.7716632084
 30
0.0
  0
SPLINE
  5
38E
100
AcDbEntity
  8
0
100
AcDbSpline
 62
7
  6
CONTINUOUS
 70
0
 71
3
 72
22
 73
18
 74
0
 42
0.0000001
 43
0.0000001
 44
0.0000000001
 40
0.0
 40
0.0
 40
0.0
 40
0.0
 40
0.0662652743
 40
0.1328051367
 40
0.1995364916
 40
0.2663370505
 40
0.3994351903
 40
0.4652808744
 40
0.5303098216
 40
0.594262539
 40
0.6569110682
 40
0.7180810003
 40
0.777662912
 40
0.8356126734
 40
0.8919431812
 40
0.9467104377
 40
1.0
 40
1.0
 40
1.0
 40
1.0
 10
10.4843051661
 20
6.9125833093
 30
0.0
 10
10.4853018199
 20
6.9218739633
 30
0.0
 10
10.4872154295
 20
6.9405029047
 30
0.0
 10
10.4898106089
 20
6.9685197623
 30
0.0
 10
10.4921009895
 20
6.9966391643
 30
0.0
 10
10.494694141
 20
7.034147313
 30
0.0
 10
10.4965264504
 20
7.0715810817
 30
0.0
 10
10.4974691211
 20
7.1087928851
 30
0.0
 10
10.4977088797
 20
7.1362655016
 30
0.0
 10
10.4974769515
 20
7.1632873498
 30
0.0
 10
10.4967796455
 20
7.1897568918
 30
0.0
 10
10.4956358286
 20
7.2155939532
 30
0.0
 10
10.4940742368
 20
7.2407452496
 30
0.0
 10
10.4921300817
 20
7.265185261
 30
0.0
 10
10.4898416255
 20
7.2889133592
 30
0.0
 10
10.4872472506
 20
7.3119486125
 30
0.0
 10
10.4853127999
 20
7.3270628795
 30
0.0
 10
10.4843051661
 20
7.3345092882
 30
0.0
  0
SPLINE
  5
38F
100
AcDbEntity
  8
0
100
AcDbSpline
 62
7
  6
CONTINUOUS
 70
0
 71
3
 72
22
 73
18
 74
0
 42
0.0000001
 43
0.0000001
 44
0.0000000001
 40
0.0
 40
0.0
 40
0.0
 40
0.0
 40
0.0578996962
 40
0.1168101933
 40
0.1767600489
 40
0.2377470615
 40
0.2997283629
 40
0.3626113545
 40
0.4262509392
 40
0.4904549087
 40
0.5549987336
 40
0.6196477114
 40
0.6841805087
 40
0.7484081384
 40
0.8121847207
 40
0.8754100196
 40
1.0
 40
1.0
 40
1.0
 40
1.0
 10
10.4557004434
 20
7.3860378655
 30
0.0
 10
10.4494466493
 20
7.3916993112
 30
0.0
 10
10.4367397794
 20
7.4030220271
 30
0.0
 10
10.4172240668
 20
7.4198277222
 30
0.0
 10
10.3970580881
 20
7.4365613734
 30
0.0
 10
10.3762184998
 20
7.4531762356
 30
0.0
 10
10.3546988954
 20
7.4696147198
 30
0.0
 10
10.3325149219
 20
7.4858097721
 30
0.0
 10
10.3097074489
 20
7.5016883531
 30
0.0
 10
10.2863424596
 20
7.5171770048
 30
0.0
 10
10.2625070267
 20
7.5322088982
 30
0.0
 10
10.2383013358
 20
7.5467300998
 30
0.0
 10
10.2138291777
 20
7.5607045363
 30
0.0
 10
10.1891886708
 20
7.5741155084
 30
0.0
 10
10.1644652725
 20
7.5869646984
 30
0.0
 10
10.1316439326
 20
7.6032900613
 30
0.0
 10
10.1068496278
 20
7.6148797857
 30
0.0
 10
10.0903018272
 20
7.6223413351
 30
0.0
  0
SPLINE
  5
390
100
AcDbEntity
  8
0
100
AcDbSpline
 62
7
  6
CONTINUOUS
 70
0
 71
3
 72
15
 73
11
 74
0
 42
0.0000001
 43
0.0000001
 44
0.0000000001
 40
0.0
 40
0.0
 40
0.0
 40
0.0
 40
0.1024613676
 40
0.2125928618
 40
0.3308785969
 40
0.4568383157
 40
0.5888655796
 40
0.7247022368
 40
0.8622377903
 40
1.0
 40
1.0
 40
1.0
 40
1.0
 10
10.0330923817
 20
7.6263088236
 30
0.0
 10
10.0202486005
 20
7.6207272683
 30
0.0
 10
9.9936807148
 20
7.6089585402
 30
0.0
 10
9.95260711
 20
7.5900299695
 30
0.0
 10
9.9089375017
 20
7.569074242
 30
0.0
 10
9.862920656
 20
7.5461070487
 30
0.0
 10
9.8151120904
 20
7.5213714423
 30
0.0
 10
9.7662286851
 20
7.4952810358
 30
0.0
 10
9.7169411192
 20
7.4682909758
 30
0.0
 10
9.6840969526
 20
7.4499311108
 30
0.0
 10
9.6676937655
 20
7.4406863142
 30
0.0
  0
SPLINE
  5
391
100
AcDbEntity
  8
0
100
AcDbSpline
 62
7
  6
CONTINUOUS
 70
0
 71
3
 72
71
 73
67
 74
0
 42
0.0000001
 43
0.0000001
 44
0.0000000001
 40
0.0
 40
0.0
 40
0.0
 40
0.0
 40
0.0156216706
 40
0.0311907745
 40
0.0467067129
 40
0.0621710762
 40
0.0775850548
 40
0.0929506339
 40
0.1082702304
 40
0.1235467312
 40
0.1387834665
 40
0.1539841688
 40
0.1691529583
 40
0.18429428
 40
0.1994128679
 40
0.2145137035
 40
0.2296019564
 40
0.2446829193
 40
0.2597619759
 40
0.2748445272
 40
0.2899359312
 40
0.3050414546
 40
0.3201662202
 40
0.3353151335
 40
0.3504928522
 40
0.365703735
 40
0.3809517875
 40
0.3962406261
 40
0.4115734583
 40
0.4269530346
 40
0.4423816308
 40
0.4578610394
 40
0.4733925444
 40
0.4889769098
 40
0.5046143965
 40
0.520304754
 40
0.5360472182
 40
0.5518405387
 40
0.5676829933
 40
0.5835723969
 40
0.5995061365
 40
0.615481204
 40
0.6314942052
 40
0.6475414082
 40
0.6636187847
 40
0.6797220354
 40
0.695846625
 40
0.7119878439
 40
0.7281408301
 40
0.744300616
 40
0.7604621807
 40
0.7766204909
 40
0.7927705277
 40
0.8089073567
 40
0.8250261591
 40
0.8411222663
 40
0.8571912088
 40
0.8732287682
 40
0.8892309912
 40
0.9051942477
 40
0.9211152546
 40
0.9369911073
 40
0.9528193701
 40
0.9685977523
 40
0.9843253342
 40
1.0
 40
1.0
 40
1.0
 40
1.0
 10
9.9562284306
 20
6.6356312155
 30
0.0
 10
9.9630122487
 20
6.6351607561
 30
0.0
 10
9.9765823535
 20
6.6345516703
 30
0.0
 10
9.9969214517
 20
6.6346397084
 30
0.0
 10
10.0171634598
 20
6.6357308777
 30
0.0
 10
10.0372587308
 20
6.6378224071
 30
0.0
 10
10.0571592059
 20
6.640909458
 30
0.0
 10
10.0768167926
 20
6.6449845968
 30
0.0
 10
10.0961841397
 20
6.6500380446
 30
0.0
 10
10.1152145508
 20
6.6560576614
 30
0.0
 10
10.1338621386
 20
6.6630289749
 30
0.0
 10
10.1520819266
 20
6.6709352345
 30
0.0
 10
10.1698299608
 20
6.6797574246
 30
0.0
 10
10.187063438
 20
6.6894742825
 30
0.0
 10
10.203740788
 20
6.700062394
 30
0.0
 10
10.2198217774
 20
6.711496247
 30
0.0
 10
10.235267602
 20
6.7237482905
 30
0.0
 10
10.2500409893
 20
6.7367889916
 30
0.0
 10
10.2641063155
 20
6.7505868816
 30
0.0
 10
10.2774296615
 20
6.7651086753
 30
0.0
 10
10.2899788953
 20
6.7803193421
 30
0.0
 10
10.3017237468
 20
6.7961821974
 30
0.0
 10
10.3126358961
 20
6.8126589743
 30
0.0
 10
10.3226890675
 20
6.8297099076
 30
0.0
 10
10.3318590477
 20
6.8472938618
 30
0.0
 10
10.3401237573
 20
6.8653684229
 30
0.0
 10
10.347463288
 20
6.8838900027
 30
0.0
 10
10.3538599808
 20
6.9028139327
 30
0.0
 10
10.359298479
 20
6.9220945738
 30
0.0
 10
10.3637657275
 20
6.941685441
 30
0.0
 10
10.3672510044
 20
6.9615393114
 30
0.0
 10
10.3697459432
 20
6.9816083376
 30
0.0
 10
10.3712445796
 20
7.0018441559
 30
0.0
 10
10.3717433759
 20
7.0221980074
 30
0.0
 10
10.3712411814
 20
7.0426208608
 30
0.0
 10
10.3697392526
 20
7.0630635267
 30
0.0
 10
10.3672412314
 20
7.0834767698
 30
0.0
 10
10.3637531815
 20
7.1038114323
 30
0.0
 10
10.3592835616
 20
7.1240185558
 30
0.0
 10
10.3538431771
 20
7.1440494923
 30
0.0
 10
10.3474451564
 20
7.1638560211
 30
0.0
 10
10.3401049171
 20
7.1833904585
 30
0.0
 10
10.3318401649
 20
7.2026057844
 30
0.0
 10
10.3226708393
 20
7.2214557552
 30
0.0
 10
10.3126190354
 20
7.2398950048
 30
0.0
 10
10.3017089655
 20
7.257879153
 30
0.0
 10
10.2899668882
 20
7.2753649043
 30
0.0
 10
10.2774210893
 20
7.2923101777
 30
0.0
 10
10.2641017889
 20
7.3086741992
 30
0.0
 10
10.2500410549
 20
7.3244175833
 30
0.0
 10
10.2352727292
 20
7.3395024331
 30
0.0
 10
10.2198323467
 20
7.3538924212
 30
0.0
 10
10.2037570811
 20
7.3675529141
 30
0.0
 10
10.1870856318
 20
7.3804510332
 30
0.0
 10
10.1698581224
 20
7.392555725
 30
0.0
 10
10.1521160109
 20
7.4038378326
 30
0.0
 10
10.1339019872
 20
7.4142701637
 30
0.0
 10
10.1152598964
 20
7.4238275962
 30
0.0
 10
10.0962346116
 20
7.4324871148
 30
0.0
 10
10.0768719223
 20
7.4402278424
 30
0.0
 10
10.057218437
 20
7.4470311071
 30
0.0
 10
10.0373214287
 20
7.4528804953
 30
0.0
 10
10.0172289186
 20
7.4577618251
 30
0.0
 10
9.9969889313
 20
7.4616635008
 30
0.0
 10
9.9766510525
 20
7.4645757761
 30
0.0
 10
9.9630352623
 20
7.4658554199
 30
0.0
 10
9.9562284306
 20
7.4663274753
 30
0.0
  0
SPLINE
  5
392
100
AcDbEntity
  8
0
100
AcDbSpline
 62
7
  6
CONTINUOUS
 70
0
 71
3
 72
71
 73
67
 74
0
 42
0.0000001
 43
0.0000001
 44
0.0000000001
 40
0.0
 40
0.0
 40
0.0
 40
0.0
 40
0.0156216706
 40
0.0311907745
 40
0.0467067129
 40
0.0621710762
 40
0.0775850548
 40
0.0929506339
 40
0.1082702304
 40
0.1235467312
 40
0.1387834665
 40
0.1539841688
 40
0.1691529583
 40
0.18429428
 40
0.1994128679
 40
0.2145137035
 40
0.2296019564
 40
0.2446829193
 40
0.2597619759
 40
0.2748445272
 40
0.2899359312
 40
0.3050414546
 40
0.3201662202
 40
0.3353151335
 40
0.3504928522
 40
0.365703735
 40
0.3809517875
 40
0.3962406261
 40
0.4115734583
 40
0.4269530346
 40
0.4423816308
 40
0.4578610394
 40
0.4733925444
 40
0.4889769098
 40
0.5046143965
 40
0.520304754
 40
0.5360472182
 40
0.5518405387
 40
0.5676829933
 40
0.5835723969
 40
0.5995061365
 40
0.615481204
 40
0.6314942052
 40
0.6475414082
 40
0.6636187847
 40
0.6797220354
 40
0.695846625
 40
0.7119878439
 40
0.7281408301
 40
0.744300616
 40
0.7604621807
 40
0.7766204909
 40
0.7927705277
 40
0.8089073567
 40
0.8250261591
 40
0.8411222663
 40
0.8571912088
 40
0.8732287682
 40
0.8892309912
 40
0.9051942477
 40
0.9211152546
 40
0.9369911073
 40
0.9528193701
 40
0.9685977523
 40
0.9843253342
 40
1.0
 40
1.0
 40
1.0
 40
1.0
 10
9.9562284306
 20
7.4663274753
 30
0.0
 10
9.9494446125
 20
7.4667979347
 30
0.0
 10
9.9358745077
 20
7.4674070204
 30
0.0
 10
9.9155354095
 20
7.4673189823
 30
0.0
 10
9.8952934015
 20
7.4662278131
 30
0.0
 10
9.8751981305
 20
7.4641362837
 30
0.0
 10
9.8552976554
 20
7.4610492328
 30
0.0
 10
9.8356400687
 20
7.456974094
 30
0.0
 10
9.8162727215
 20
7.4519206461
 30
0.0
 10
9.7972423104
 20
7.4459010294
 30
0.0
 10
9.7785947226
 20
7.4389297159
 30
0.0
 10
9.7603749346
 20
7.4310234563
 30
0.0
 10
9.7426269004
 20
7.4222012662
 30
0.0
 10
9.7253934232
 20
7.4124844083
 30
0.0
 10
9.7087160733
 20
7.4018962967
 30
0.0
 10
9.6926350838
 20
7.3904624438
 30
0.0
 10
9.6771892593
 20
7.3782104003
 30
0.0
 10
9.662415872
 20
7.3651696992
 30
0.0
 10
9.6483505457
 20
7.3513718092
 30
0.0
 10
9.6350271997
 20
7.3368500154
 30
0.0
 10
9.6224779659
 20
7.3216393486
 30
0.0
 10
9.6107331144
 20
7.3057764933
 30
0.0
 10
9.5998209651
 20
7.2892997165
 30
0.0
 10
9.5897677938
 20
7.2722487832
 30
0.0
 10
9.5805978136
 20
7.254664829
 30
0.0
 10
9.5723331039
 20
7.2365902679
 30
0.0
 10
9.5649935732
 20
7.2180686881
 30
0.0
 10
9.5585968804
 20
7.199144758
 30
0.0
 10
9.5531583822
 20
7.1798641169
 30
0.0
 10
9.5486911337
 20
7.1602732497
 30
0.0
 10
9.5452058568
 20
7.1404193794
 30
0.0
 10
9.5427109181
 20
7.1203503531
 30
0.0
 10
9.5412122816
 20
7.1001145348
 30
0.0
 10
9.5407134853
 20
7.0797606834
 30
0.0
 10
9.5412156799
 20
7.0593378299
 30
0.0
 10
9.5427176086
 20
7.0388951641
 30
0.0
 10
9.5452156298
 20
7.0184819209
 30
0.0
 10
9.5487036797
 20
6.9981472584
 30
0.0
 10
9.5531732997
 20
6.977940135
 30
0.0
 10
9.5586136841
 20
6.9579091985
 30
0.0
 10
9.5650117049
 20
6.9381026697
 30
0.0
 10
9.5723519441
 20
6.9185682323
 30
0.0
 10
9.5806166963
 20
6.8993529064
 30
0.0
 10
9.5897860219
 20
6.8805029356
 30
0.0
 10
9.5998378259
 20
6.862063686
 30
0.0
 10
9.6107478958
 20
6.8440795378
 30
0.0
 10
9.622489973
 20
6.8265937865
 30
0.0
 10
9.6350357719
 20
6.8096485131
 30
0.0
 10
9.6483550724
 20
6.7932844915
 30
0.0
 10
9.6624158064
 20
6.7775411074
 30
0.0
 10
9.677184132
 20
6.7624562576
 30
0.0
 10
9.6926245146
 20
6.7480662696
 30
0.0
 10
9.7086997802
 20
6.7344057766
 30
0.0
 10
9.7253712294
 20
6.7215076575
 30
0.0
 10
9.7425987388
 20
6.7094029657
 30
0.0
 10
9.7603408503
 20
6.6981208582
 30
0.0
 10
9.778554874
 20
6.687688527
 30
0.0
 10
9.7971969649
 20
6.6781310946
 30
0.0
 10
9.8162222497
 20
6.6694715759
 30
0.0
 10
9.8355849389
 20
6.6617308483
 30
0.0
 10
9.8552384242
 20
6.6549275837
 30
0.0
 10
9.8751354325
 20
6.6490781955
 30
0.0
 10
9.8952279426
 20
6.6441968656
 30
0.0
 10
9.9154679299
 20
6.6402951899
 30
0.0
 10
9.9358058088
 20
6.6373829147
 30
0.0
 10
9.9494215989
 20
6.6361032708
 30
0.0
 10
9.9562284306
 20
6.6356312155
 30
0.0
  0
SPLINE
  5
393
100
AcDbEntity
  8
0
100
AcDbSpline
 62
7
  6
CONTINUOUS
 70
0
 71
3
 72
20
 73
16
 74
0
 42
0.0000001
 43
0.0000001
 44
0.0000000001
 40
0.0
 40
0.0
 40
0.0
 40
0.0
 40
0.1160072463
 40
0.1751632975
 40
0.2351071928
 40
0.2958354683
 40
0.3573271027
 40
0.4195426835
 40
0.482425309
 40
0.5459033639
 40
0.6098949014
 40
0.6743129626
 40
0.7390709121
 40
0.8692869556
 40
1.0
 40
1.0
 40
1.0
 40
1.0
 10
10.3876528105
 20
6.8192242972
 30
0.0
 10
10.3864471347
 20
6.8355093053
 30
0.0
 10
10.3848197295
 20
6.8601136103
 30
0.0
 10
10.3830653373
 20
6.8931619003
 30
0.0
 10
10.3819546334
 20
6.9184511506
 30
0.0
 10
10.3810728204
 20
6.9440783779
 30
0.0
 10
10.3804329799
 20
6.9700326864
 30
0.0
 10
10.3800452764
 20
6.996295282
 30
0.0
 10
10.3799161367
 20
7.0228400406
 30
0.0
 10
10.3800477228
 20
7.0496347684
 30
0.0
 10
10.3804377328
 20
7.076643111
 30
0.0
 10
10.3810796255
 20
7.1038268337
 30
0.0
 10
10.3822597743
 20
7.1403210669
 30
0.0
 10
10.3843061996
 20
7.1861221428
 30
0.0
 10
10.3864635254
 20
7.2227891345
 30
0.0
 10
10.3876528105
 20
7.2411502762
 30
0.0
  0
SPLINE
  5
394
100
AcDbEntity
  8
0
100
AcDbSpline
 62
7
  6
CONTINUOUS
 70
0
 71
3
 72
21
 73
17
 74
0
 42
0.0000001
 43
0.0000001
 44
0.0000000001
 40
0.0
 40
0.0
 40
0.0
 40
0.0
 40
0.1257748724
 40
0.188926364
 40
0.2522087907
 40
0.3155747839
 40
0.3789662327
 40
0.4423161603
 40
0.5055519135
 40
0.5685994071
 40
0.6313878604
 40
0.6938542329
 40
0.7559466435
 40
0.8176263707
 40
0.8788683755
 40
1.0
 40
1.0
 40
1.0
 40
1.0
 10
10.3590480878
 20
7.2926788535
 30
0.0
 10
10.3428881675
 20
7.3012039507
 30
0.0
 10
10.3187221405
 20
7.3142160954
 30
0.0
 10
10.2867252034
 20
7.3320632149
 30
0.0
 10
10.2627898925
 20
7.345749486
 30
0.0
 10
10.2389806326
 20
7.3597229332
 30
0.0
 10
10.2153305767
 20
7.3739833054
 30
0.0
 10
10.1918744359
 20
7.3885246445
 30
0.0
 10
10.1686465709
 20
7.4033352346
 30
0.0
 10
10.1456789374
 20
7.4183980486
 30
0.0
 10
10.1229990687
 20
7.433691715
 30
0.0
 10
10.1006284556
 20
7.4491918934
 30
0.0
 10
10.0785815617
 20
7.4648727799
 30
0.0
 10
10.0568654778
 20
7.4807086367
 30
0.0
 10
10.0284567881
 20
7.5019186945
 30
0.0
 10
10.0074803278
 20
7.5181041201
 30
0.0
 10
9.9936494715
 20
7.5289823231
 30
0.0
  0
SPLINE
  5
395
100
AcDbEntity
  8
0
100
AcDbSpline
 62
7
  6
CONTINUOUS
 70
0
 71
3
 72
15
 73
11
 74
0
 42
0.0000001
 43
0.0000001
 44
0.0000000001
 40
0.0
 40
0.0
 40
0.0
 40
0.0
 40
0.1336920932
 40
0.2662145601
 40
0.39688998
 40
0.5249381662
 40
0.6496246935
 40
0.7704362771
 40
0.8871861617
 40
1.0
 40
1.0
 40
1.0
 40
1.0
 10
9.9364400261
 20
7.5329498116
 30
0.0
 10
9.9203790824
 20
7.5242474213
 30
0.0
 10
9.8883566901
 20
7.5069942902
 30
0.0
 10
9.8404697312
 20
7.4815447269
 30
0.0
 10
9.7930966486
 20
7.4567737519
 30
0.0
 10
9.7464892142
 20
7.432852193
 30
0.0
 10
9.700890498
 20
7.409920537
 30
0.0
 10
9.6564842526
 20
7.3880576695
 30
0.0
 10
9.6133600106
 20
7.367267463
 30
0.0
 10
9.5850009016
 20
7.3538644955
 30
0.0
 10
9.5710414098
 20
7.3473273022
 30
0.0
  0
SPLINE
  5
396
100
AcDbEntity
  8
0
100
AcDbSpline
 62
7
  6
CONTINUOUS
 70
0
 71
3
 72
60
 73
56
 74
0
 42
0.0000001
 43
0.0000001
 44
0.0000000001
 40
0.0
 40
0.0
 40
0.0
 40
0.0
 40
0.0081223406
 40
0.0169168431
 40
0.0264086323
 40
0.0366142687
 40
0.0475414355
 40
0.0591910158
 40
0.0715584107
 40
0.0846344949
 40
0.0984062802
 40
0.1128573064
 40
0.1279683357
 40
0.1437174554
 40
0.1600804353
 40
0.1770310661
 40
0.1945411268
 40
0.2125807894
 40
0.2501207279
 40
0.2893847263
 40
0.3300867172
 40
0.371925751
 40
0.4145894152
 40
0.4577571198
 40
0.5011033266
 40
0.5443007676
 40
0.587023623
 40
0.6289507091
 40
0.6697687274
 40
0.7091755587
 40
0.746883655
 40
0.7650162944
 40
0.7826249702
 40
0.7996794705
 40
0.816151351
 40
0.8320139955
 40
0.8472427493
 40
0.8618153589
 40
0.8757119742
 40
0.8889156572
 40
0.9014127819
 40
0.9131933641
 40
0.9242520195
 40
0.9345885809
 40
0.9442093339
 40
0.9531286836
 40
0.9613709339
 40
0.9689732146
 40
0.9759886454
 40
0.9824900322
 40
0.9885734237
 40
0.9914974427
 40
0.9943641479
 40
0.9971919194
 40
1.0
 40
1.0
 40
1.0
 40
1.0
 10
9.7572439035
 20
10.477108177
 30
0.0
 10
9.7563911275
 20
10.4762844587
 30
0.0
 10
9.7545345621
 20
10.474651086
 30
0.0
 10
9.7514528253
 20
10.4723303791
 30
0.0
 10
9.747972568
 20
10.4700484931
 30
0.0
 10
9.7441008406
 20
10.4678098284
 30
0.0
 10
9.7398449163
 20
10.4656184061
 30
0.0
 10
9.7352130545
 20
10.4634785977
 30
0.0
 10
9.7302143729
 20
10.4613945899
 30
0.0
 10
9.7248587607
 20
10.4593705629
 30
0.0
 10
9.7191568712
 20
10.4574106373
 30
0.0
 10
9.713120118
 20
10.4555187397
 30
0.0
 10
9.706760603
 20
10.4536987537
 30
0.0
 10
9.7000911139
 20
10.4519543716
 30
0.0
 10
9.6931250821
 20
10.4502891256
 30
0.0
 10
9.6858765509
 20
10.4487064544
 30
0.0
 10
9.6783601383
 20
10.4472095142
 30
0.0
 10
9.6678616391
 20
10.4453068193
 30
0.0
 10
9.6541796253
 20
10.4431754424
 30
0.0
 10
9.6371588467
 20
10.4410351356
 30
0.0
 10
9.6194617121
 20
10.4392972326
 30
0.0
 10
9.6012312
 20
10.4379760116
 30
0.0
 10
9.582614479
 20
10.437082377
 30
0.0
 10
9.5637619593
 20
10.4366236875
 30
0.0
 10
9.5448259742
 20
10.4366037105
 30
0.0
 10
9.5259595477
 20
10.4370226083
 30
0.0
 10
9.5073151274
 20
10.437876934
 30
0.0
 10
9.4890433532
 20
10.439159668
 30
0.0
 10
9.4712917362
 20
10.4408602224
 30
0.0
 10
9.4542036985
 20
10.4429646263
 30
0.0
 10
9.4404575304
 20
10.4450667042
 30
0.0
 10
9.4299016111
 20
10.4469467276
 30
0.0
 10
9.4223380936
 20
10.448427719
 30
0.0
 10
9.41503974
 20
10.4499950427
 30
0.0
 10
9.4080212647
 20
10.4516455139
 30
0.0
 10
9.4012968228
 20
10.4533757547
 30
0.0
 10
9.3948799629
 20
10.455182278
 30
0.0
 10
9.3887835834
 20
10.4570613618
 30
0.0
 10
9.3830199231
 20
10.4590092162
 30
0.0
 10
9.3776005159
 20
10.4610218892
 30
0.0
 10
9.372536153
 20
10.4630952799
 30
0.0
 10
9.3678368858
 20
10.4652252774
 30
0.0
 10
9.3635119409
 20
10.4674076052
 30
0.0
 10
9.3595697362
 20
10.4696380169
 30
0.0
 10
9.3560178613
 20
10.4719123177
 30
0.0
 10
9.352863013
 20
10.4742263371
 30
0.0
 10
9.3501111577
 20
10.4765762787
 30
0.0
 10
9.3477675755
 20
10.4789585595
 30
0.0
 10
9.3458371647
 20
10.4813702986
 30
0.0
 10
9.3443252349
 20
10.4838082532
 30
0.0
 10
9.3434067933
 20
10.4858875468
 30
0.0
 10
9.342899413
 20
10.4875466437
 30
0.0
 10
9.3426307477
 20
10.4887772369
 30
0.0
 10
9.3424694488
 20
10.4900093023
 30
0.0
 10
9.342433557
 20
10.4908324271
 30
0.0
 10
9.3424335545
 20
10.4912423297
 30
0.0
  0
SPLINE
  5
397
100
AcDbEntity
  8
0
100
AcDbSpline
 62
7
  6
CONTINUOUS
 70
0
 71
3
 72
60
 73
56
 74
0
 42
0.0000001
 43
0.0000001
 44
0.0000000001
 40
0.0
 40
0.0
 40
0.0
 40
0.0
 40
0.0081223406
 40
0.0169168431
 40
0.0264086323
 40
0.0366142687
 40
0.0475414355
 40
0.0591910158
 40
0.0715584107
 40
0.0846344949
 40
0.0984062802
 40
0.1128573064
 40
0.1279683357
 40
0.1437174554
 40
0.1600804353
 40
0.1770310661
 40
0.1945411268
 40
0.2125807894
 40
0.2501207279
 40
0.2893847263
 40
0.3300867172
 40
0.371925751
 40
0.4145894152
 40
0.4577571198
 40
0.5011033266
 40
0.5443007676
 40
0.587023623
 40
0.6289507091
 40
0.6697687274
 40
0.7091755587
 40
0.746883655
 40
0.7650162944
 40
0.7826249702
 40
0.7996794705
 40
0.816151351
 40
0.8320139955
 40
0.8472427493
 40
0.8618153589
 40
0.8757119742
 40
0.8889156572
 40
0.9014127819
 40
0.9131933641
 40
0.9242520195
 40
0.9345885809
 40
0.9442093339
 40
0.9531286836
 40
0.9613709339
 40
0.9689732146
 40
0.9759886454
 40
0.9824900322
 40
0.9885734237
 40
0.9914974427
 40
0.9943641479
 40
0.9971919194
 40
1.0
 40
1.0
 40
1.0
 40
1.0
 10
12.6503768194
 20
9.271660145
 30
0.0
 10
12.6495240435
 20
9.2708364266
 30
0.0
 10
12.647667478
 20
9.269203054
 30
0.0
 10
12.6445857412
 20
9.2668823471
 30
0.0
 10
12.641105484
 20
9.2646004611
 30
0.0
 10
12.6372337566
 20
9.2623617963
 30
0.0
 10
12.6329778323
 20
9.2601703741
 30
0.0
 10
12.6283459704
 20
9.2580305656
 30
0.0
 10
12.6233472889
 20
9.2559465579
 30
0.0
 10
12.6179916767
 20
9.2539225309
 30
0.0
 10
12.6122897871
 20
9.2519626053
 30
0.0
 10
12.606253034
 20
9.2500707077
 30
0.0
 10
12.5998935189
 20
9.2482507217
 30
0.0
 10
12.5932240298
 20
9.2465063395
 30
0.0
 10
12.5862579981
 20
9.2448410936
 30
0.0
 10
12.5790094669
 20
9.2432584224
 30
0.0
 10
12.5714930542
 20
9.2417614822
 30
0.0
 10
12.5609945551
 20
9.2398587873
 30
0.0
 10
12.5473125412
 20
9.2377274104
 30
0.0
 10
12.5302917626
 20
9.2355871035
 30
0.0
 10
12.5125946281
 20
9.2338492006
 30
0.0
 10
12.494364116
 20
9.2325279796
 30
0.0
 10
12.475747395
 20
9.231634345
 30
0.0
 10
12.4568948753
 20
9.2311756554
 30
0.0
 10
12.4379588901
 20
9.2311556785
 30
0.0
 10
12.4190924636
 20
9.2315745763
 30
0.0
 10
12.4004480434
 20
9.232428902
 30
0.0
 10
12.3821762692
 20
9.2337116359
 30
0.0
 10
12.3644246522
 20
9.2354121903
 30
0.0
 10
12.3473366145
 20
9.2375165942
 30
0.0
 10
12.3335904464
 20
9.2396186722
 30
0.0
 10
12.323034527
 20
9.2414986955
 30
0.0
 10
12.3154710096
 20
9.242979687
 30
0.0
 10
12.3081726559
 20
9.2445470106
 30
0.0
 10
12.3011541806
 20
9.2461974819
 30
0.0
 10
12.2944297387
 20
9.2479277227
 30
0.0
 10
12.2880128789
 20
9.2497342459
 30
0.0
 10
12.2819164994
 20
9.2516133298
 30
0.0
 10
12.2761528391
 20
9.2535611842
 30
0.0
 10
12.2707334319
 20
9.2555738572
 30
0.0
 10
12.2656690689
 20
9.2576472479
 30
0.0
 10
12.2609698017
 20
9.2597772454
 30
0.0
 10
12.2566448569
 20
9.2619595731
 30
0.0
 10
12.2527026522
 20
9.2641899849
 30
0.0
 10
12.2491507772
 20
9.2664642857
 30
0.0
 10
12.2459959289
 20
9.2687783051
 30
0.0
 10
12.2432440737
 20
9.2711282467
 30
0.0
 10
12.2409004915
 20
9.2735105275
 30
0.0
 10
12.2389700807
 20
9.2759222666
 30
0.0
 10
12.2374581508
 20
9.2783602212
 30
0.0
 10
12.2365397092
 20
9.2804395148
 30
0.0
 10
12.2360323289
 20
9.2820986116
 30
0.0
 10
12.2357636637
 20
9.2833292049
 30
0.0
 10
12.2356023647
 20
9.2845612703
 30
0.0
 10
12.2355664729
 20
9.2853843951
 30
0.0
 10
12.2355664704
 20
9.2857942977
 30
0.0
  0
SPLINE
  5
398
100
AcDbEntity
  8
0
100
AcDbSpline
 62
7
  6
CONTINUOUS
 70
0
 71
3
 72
15
 73
11
 74
0
 42
0.0000001
 43
0.0000001
 44
0.0000000001
 40
0.0
 40
0.0
 40
0.0
 40
0.0
 40
0.1273482888
 40
0.2538606703
 40
0.3795878487
 40
0.5046051206
 40
0.6290174369
 40
0.7529533749
 40
0.8765605786
 40
1.0
 40
1.0
 40
1.0
 40
1.0
 10
8.8890689843
 20
7.277182111
 30
0.0
 10
8.8890689843
 20
7.2706837325
 30
0.0
 10
8.8884485134
 20
7.2577206468
 30
0.0
 10
8.8856425357
 20
7.2385253466
 30
0.0
 10
8.8809897379
 20
7.2198123496
 30
0.0
 10
8.8745321502
 20
7.20175667
 30
0.0
 10
8.866328999
 20
7.1845248191
 30
0.0
 10
8.856455118
 20
7.168275898
 30
0.0
 10
8.8450033186
 20
7.1531621629
 30
0.0
 10
8.8363806891
 20
7.1439298343
 30
0.0
 10
8.8318501506
 20
7.1395536997
 30
0.0
  0
SPLINE
  5
399
100
AcDbEntity
  8
0
100
AcDbSpline
 62
7
  6
CONTINUOUS
 70
0
 71
3
 72
42
 73
38
 74
0
 42
0.0000001
 43
0.0000001
 44
0.0000000001
 40
0.0
 40
0.0
 40
0.0
 40
0.0
 40
0.0310746617
 40
0.0466742702
 40
0.062312125
 40
0.0936967446
 40
0.1252253881
 40
0.1568866066
 40
0.188666232
 40
0.2205476543
 40
0.2525121998
 40
0.2845395188
 40
0.316608006
 40
0.3486952358
 40
0.3807784103
 40
0.4128348121
 40
0.4448422562
 40
0.4767795339
 40
0.508626844
 40
0.5403662024
 40
0.5719818257
 40
0.6034604794
 40
0.6347917851
 40
0.6659684779
 40
0.6969866061
 40
0.7278456675
 40
0.7585486731
 40
0.7891021336
 40
0.8195159643
 40
0.8498033043
 40
0.864907343
 40
0.8799860277
 40
0.9100712982
 40
0.9400857971
 40
0.9550764662
 40
0.9700580353
 40
1.0
 40
1.0
 40
1.0
 40
1.0
 10
8.8890689843
 20
7.277182111
 30
0.0
 10
8.8890689843
 20
7.2822329508
 30
0.0
 10
8.8887866476
 20
7.2898231456
 30
0.0
 10
8.8878542168
 20
7.2999098661
 30
0.0
 10
8.8865476952
 20
7.3100062523
 30
0.0
 10
8.8842186417
 20
7.322571925
 30
0.0
 10
8.8803338163
 20
7.3374582589
 30
0.0
 10
8.8753768473
 20
7.3520907474
 30
0.0
 10
8.8693751388
 20
7.3663885821
 30
0.0
 10
8.8623617253
 20
7.3802734318
 30
0.0
 10
8.8543751944
 20
7.3936690717
 30
0.0
 10
8.8454594453
 20
7.4065020098
 30
0.0
 10
8.8356634575
 20
7.4187018282
 30
0.0
 10
8.8250410219
 20
7.4302015801
 30
0.0
 10
8.8136504485
 20
7.4409381493
 30
0.0
 10
8.8015542494
 20
7.4508525939
 30
0.0
 10
8.7888187991
 20
7.4598904667
 30
0.0
 10
8.7755139749
 20
7.4680021116
 30
0.0
 10
8.7617127775
 20
7.4751429338
 30
0.0
 10
8.7474909359
 20
7.4812736443
 30
0.0
 10
8.7329264973
 20
7.4863604747
 30
0.0
 10
8.7180994045
 20
7.4903753635
 30
0.0
 10
8.7030910641
 20
7.4932961127
 30
0.0
 10
8.6879839041
 20
7.4951065124
 30
0.0
 10
8.6728609319
 20
7.4957964375
 30
0.0
 10
8.6578052674
 20
7.4953619025
 30
0.0
 10
8.6428997512
 20
7.4938051196
 30
0.0
 10
8.6282262636
 20
7.4911343951
 30
0.0
 10
8.6138661203
 20
7.4873644701
 30
0.0
 10
8.6022134675
 20
7.4833193761
 30
0.0
 10
8.5931307863
 20
7.4795575319
 30
0.0
 10
8.5842319541
 20
7.4754571491
 30
0.0
 10
8.5734420848
 20
7.4696933928
 30
0.0
 10
8.5631525209
 20
7.463104047
 30
0.0
 10
8.5552667955
 20
7.4573658423
 30
0.0
 10
8.5476244559
 20
7.4513271261
 30
0.0
 10
8.5421675263
 20
7.4464602495
 30
0.0
 10
8.5386670951
 20
7.4430791155
 30
0.0
  0
SPLINE
  5
39A
100
AcDbEntity
  8
0
100
AcDbSpline
 62
7
  6
CONTINUOUS
 70
0
 71
3
 72
11
 73
7
 74
0
 42
0.0000001
 43
0.0000001
 44
0.0000000001
 40
0.0
 40
0.0
 40
0.0
 40
0.0
 40
0.2517312916
 40
0.5022812818
 40
0.7516865276
 40
1.0
 40
1.0
 40
1.0
 40
1.0
 10
10.5106570138
 20
7.1560162644
 30
0.0
 10
10.5106570138
 20
7.1466023159
 30
0.0
 10
10.5100186988
 20
7.1278121882
 30
0.0
 10
10.507134392
 20
7.0998281534
 30
0.0
 10
10.5023392225
 20
7.0722370609
 30
0.0
 10
10.4978725638
 20
7.0541492023
 30
0.0
 10
10.4953288523
 20
7.0452182563
 30
0.0
  0
SPLINE
  5
39B
100
AcDbEntity
  8
0
100
AcDbSpline
 62
7
  6
CONTINUOUS
 70
0
 71
3
 72
11
 73
7
 74
0
 42
0.0000001
 43
0.0000001
 44
0.0000000001
 40
0.0
 40
0.0
 40
0.0
 40
0.0
 40
0.2480493634
 40
0.4974354392
 40
0.7481135223
 40
1.0
 40
1.0
 40
1.0
 40
1.0
 10
10.5106570138
 20
7.1560162644
 30
0.0
 10
10.5106570138
 20
7.167016121
 30
0.0
 10
10.5097809154
 20
7.1890846423
 30
0.0
 10
10.5058716988
 20
7.2220614371
 30
0.0
 10
10.4993897868
 20
7.2548034944
 30
0.0
 10
10.4933922283
 20
7.2762942217
 30
0.0
 10
10.4899841098
 20
7.286931607
 30
0.0
  0
SPLINE
  5
39C
100
AcDbEntity
  8
0
100
AcDbSpline
 62
7
  6
CONTINUOUS
 70
0
 71
3
 72
21
 73
17
 74
0
 42
0.0000001
 43
0.0000001
 44
0.0000000001
 40
0.0
 40
0.0
 40
0.0
 40
0.0
 40
0.0628293531
 40
0.1257029808
 40
0.188601489
 40
0.251505272
 40
0.3772170743
 40
0.5027166172
 40
0.5653570331
 40
0.6278900671
 40
0.6902993217
 40
0.7525695018
 40
0.8146865629
 40
0.8766378401
 40
0.9384121688
 40
1.0
 40
1.0
 40
1.0
 40
1.0
 10
10.4278378457
 20
7.4107950299
 30
0.0
 10
10.4237567626
 20
7.4165352887
 30
0.0
 10
10.4153261702
 20
7.4278337058
 30
0.0
 10
10.4019134063
 20
7.4441855345
 30
0.0
 10
10.3877587888
 20
7.459911982
 30
0.0
 10
10.3679507329
 20
7.4799878195
 30
0.0
 10
10.3415169686
 20
7.5033301113
 30
0.0
 10
10.3130759048
 20
7.5241306003
 30
0.0
 10
10.289293496
 20
7.5391138001
 30
0.0
 10
10.270995448
 20
7.5494909971
 30
0.0
 10
10.2522722838
 20
7.5589877382
 30
0.0
 10
10.2331687526
 20
7.5675814218
 30
0.0
 10
10.2137311036
 20
7.5752512062
 30
0.0
 10
10.1940060342
 20
7.5819786073
 30
0.0
 10
10.1740417582
 20
7.5877472185
 30
0.0
 10
10.160582431
 20
7.5909497127
 30
0.0
 10
10.1538295251
 20
7.5923860269
 30
0.0
  0
SPLINE
  5
39D
100
AcDbEntity
  8
0
100
AcDbSpline
 62
7
  6
CONTINUOUS
 70
0
 71
3
 72
23
 73
19
 74
0
 42
0.0000001
 43
0.0000001
 44
0.0000000001
 40
0.0
 40
0.0
 40
0.0
 40
0.0
 40
0.0637769127
 40
0.127344953
 40
0.1907019652
 40
0.2538561227
 40
0.3168132057
 40
0.3795820872
 40
0.4421733866
 40
0.5045993385
 40
0.5668738691
 40
0.6290123824
 40
0.6910316505
 40
0.7529496453
 40
0.8147853569
 40
0.8765586065
 40
0.9382898561
 40
1.0
 40
1.0
 40
1.0
 40
1.0
 10
11.6272674678
 20
7.7421701834
 30
0.0
 10
11.6272674678
 20
7.7355281239
 30
0.0
 10
11.6269495403
 20
7.7222635076
 30
0.0
 10
11.6255146386
 20
7.7024472849
 30
0.0
 10
11.6231254864
 20
7.6827881305
 30
0.0
 10
11.6197878255
 20
7.6633322228
 30
0.0
 10
11.6155090969
 20
7.6441240296
 30
0.0
 10
11.6102991965
 20
7.6252079544
 30
0.0
 10
11.6041701087
 20
7.6066275745
 30
0.0
 10
11.5971359108
 20
7.5884257372
 30
0.0
 10
11.5892127606
 20
7.5706444341
 30
0.0
 10
11.5804188933
 20
7.5533246798
 30
0.0
 10
11.5707745881
 20
7.536506416
 30
0.0
 10
11.5603020519
 20
7.5202284302
 30
0.0
 10
11.5490254304
 20
7.5045283242
 30
0.0
 10
11.5369705786
 20
7.4894422052
 30
0.0
 10
11.5241657905
 20
7.475005335
 30
0.0
 10
11.5151473114
 20
7.4658340771
 30
0.0
 10
11.5105247855
 20
7.4613690787
 30
0.0
  0
SPLINE
  5
39E
100
AcDbEntity
  8
0
100
AcDbSpline
 62
7
  6
CONTINUOUS
 70
0
 71
3
 72
37
 73
33
 74
0
 42
0.0000001
 43
0.0000001
 44
0.0000000001
 40
0.0
 40
0.0
 40
0.0
 40
0.0
 40
0.0592062032
 40
0.1183572367
 40
0.176063495
 40
0.2313794357
 40
0.2838043778
 40
0.3331656352
 40
0.3794923924
 40
0.4229199082
 40
0.4636309178
 40
0.501822507
 40
0.537688712
 40
0.5714129644
 40
0.6031647922
 40
0.633099381
 40
0.6880571201
 40
0.7133496945
 40
0.7373322223
 40
0.7817742325
 40
0.802461392
 40
0.8222568823
 40
0.8412683857
 40
0.8596086593
 40
0.8774001837
 40
0.8947762684
 40
0.9118853068
 40
0.9288929962
 40
0.9459851337
 40
0.9633714715
 40
0.9812872609
 40
1.0
 40
1.0
 40
1.0
 40
1.0
 10
10.8820908939
 20
7.7152603093
 30
0.0
 10
10.8808930677
 20
7.7186348387
 30
0.0
 10
10.8787888059
 20
7.7254871767
 30
0.0
 10
10.8764869376
 20
7.7358941435
 30
0.0
 10
10.8750037775
 20
7.7462104254
 30
0.0
 10
10.8742713348
 20
7.7561973769
 30
0.0
 10
10.8741898075
 20
7.7657048015
 30
0.0
 10
10.8746533809
 20
7.7746558253
 30
0.0
 10
10.8755645456
 20
7.7830243944
 30
0.0
 10
10.8768398048
 20
7.7908149342
 30
0.0
 10
10.8784103563
 20
7.7980481273
 30
0.0
 10
10.8802206129
 20
7.804752086
 30
0.0
 10
10.8822260485
 20
7.8109573427
 30
0.0
 10
10.8843908561
 20
7.8166939957
 30
0.0
 10
10.8866870418
 20
7.8219906437
 30
0.0
 10
10.8898051561
 20
7.8283208536
 30
0.0
 10
10.8931785473
 20
7.8340837974
 30
0.0
 10
10.8967933402
 20
7.8392520119
 30
0.0
 10
10.9002931574
 20
7.8437128538
 30
0.0
 10
10.9039746283
 20
7.8476709264
 30
0.0
 10
10.9078297622
 20
7.8510699118
 30
0.0
 10
10.9106892012
 20
7.8532593041
 30
0.0
 10
10.9135832515
 20
7.8551549415
 30
0.0
 10
10.9165121994
 20
7.8567576911
 30
0.0
 10
10.9194754816
 20
7.858068549
 30
0.0
 10
10.922474709
 20
7.859083286
 30
0.0
 10
10.925511053
 20
7.8597977548
 30
0.0
 10
10.928587136
 20
7.8602020156
 30
0.0
 10
10.9317056885
 20
7.8602855022
 30
0.0
 10
10.9348704758
 20
7.8600309266
 30
0.0
 10
10.9380856605
 20
7.8594190572
 30
0.0
 10
10.9402095028
 20
7.8587718695
 30
0.0
 10
10.9412738081
 20
7.8583870041
 30
0.0
  0
SPLINE
  5
39F
100
AcDbEntity
  8
0
100
AcDbSpline
 62
7
  6
CONTINUOUS
 70
0
 71
3
 72
39
 73
35
 74
0
 42
0.0000001
 43
0.0000001
 44
0.0000000001
 40
0.0
 40
0.0
 40
0.0
 40
0.0
 40
0.0310753511
 40
0.0623079071
 40
0.0936931323
 40
0.1252222879
 40
0.1568840438
 40
0.1886642044
 40
0.2205461649
 40
0.2525112495
 40
0.2845391085
 40
0.3166081364
 40
0.3486959075
 40
0.3807796234
 40
0.4128365659
 40
0.4448445499
 40
0.4767823666
 40
0.5086302146
 40
0.540370109
 40
0.5719862657
 40
0.6034654504
 40
0.6347972851
 40
0.6659745049
 40
0.6969931576
 40
0.7278527402
 40
0.7585562639
 40
0.7891102404
 40
0.8195245852
 40
0.8498124376
 40
0.8799898966
 40
0.9100756756
 40
0.9400906817
 40
0.970057529
 40
1.0
 40
1.0
 40
1.0
 40
1.0
 10
11.6272674678
 20
7.7421701834
 30
0.0
 10
11.6272674678
 20
7.7524753875
 30
0.0
 10
11.6264987244
 20
7.7731458582
 30
0.0
 10
11.6230664388
 20
7.8040526142
 30
0.0
 10
11.617371447
 20
7.8347778843
 30
0.0
 10
11.6094452086
 20
7.8651507763
 30
0.0
 10
11.5993316216
 20
7.8950050728
 30
0.0
 10
11.5870864227
 20
7.9241767598
 30
0.0
 10
11.5727770578
 20
7.9525057863
 30
0.0
 10
11.556482258
 20
7.9798366997
 30
0.0
 10
11.5382915969
 20
8.0060195425
 30
0.0
 10
11.5183050042
 20
8.0309106469
 30
0.0
 10
11.4966322223
 20
8.0543734172
 30
0.0
 10
11.4733922092
 20
8.0762790666
 30
0.0
 10
11.4487125177
 20
8.0965073454
 30
0.0
 10
11.4227285767
 20
8.1149471736
 30
0.0
 10
11.3955829555
 20
8.1314972409
 30
0.0
 10
11.3674245936
 20
8.1460665594
 30
0.0
 10
11.3384079935
 20
8.1585749552
 30
0.0
 10
11.3086923939
 20
8.1689535261
 30
0.0
 10
11.2784409073
 20
8.1771450344
 30
0.0
 10
11.2478196253
 20
8.1831041949
 30
0.0
 10
11.2169967246
 20
8.1867979353
 30
0.0
 10
11.1861415573
 20
8.1882055882
 30
0.0
 10
11.155423733
 20
8.1873190137
 30
0.0
 10
11.1250121939
 20
8.1841427025
 30
0.0
 10
11.095074287
 20
8.178693742
 30
0.0
 10
11.0657748429
 20
8.1710017328
 30
0.0
 10
11.0372752803
 20
8.1611086668
 30
0.0
 10
11.0097326538
 20
8.1490686603
 30
0.0
 10
10.9832989728
 20
8.1349478921
 30
0.0
 10
10.9581195631
 20
8.1188235205
 30
0.0
 10
10.9343351001
 20
8.1007860156
 30
0.0
 10
10.9194898307
 20
8.0875457408
 30
0.0
 10
10.9123479644
 20
8.0806472566
 30
0.0
  0
SPLINE
  5
3A0
100
AcDbEntity
  8
0
100
AcDbSpline
 62
7
  6
CONTINUOUS
 70
0
 71
3
 72
15
 73
11
 74
0
 42
0.0000001
 43
0.0000001
 44
0.0000000001
 40
0.0
 40
0.0
 40
0.0
 40
0.0
 40
0.1098906522
 40
0.2214015324
 40
0.3360758406
 40
0.455320507
 40
0.5803741139
 40
0.712293262
 40
0.8519441752
 40
1.0
 40
1.0
 40
1.0
 40
1.0
 10
9.7644335296
 20
10.4912426174
 30
0.0
 10
9.7644335332
 20
10.4906458183
 30
0.0
 10
9.7643569231
 20
10.4894420682
 30
0.0
 10
9.7640132713
 20
10.4876450855
 30
0.0
 10
9.7634418853
 20
10.485853761
 30
0.0
 10
9.7626443459
 20
10.4840707692
 30
0.0
 10
9.7616223675
 20
10.4822978369
 30
0.0
 10
9.7603776767
 20
10.4805364975
 30
0.0
 10
9.7589121437
 20
10.4787884126
 30
0.0
 10
9.7578222332
 20
10.4776668007
 30
0.0
 10
9.7572439035
 20
10.477108177
 30
0.0
  0
SPLINE
  5
3A1
100
AcDbEntity
  8
0
100
AcDbSpline
 62
7
  6
CONTINUOUS
 70
0
 71
3
 72
15
 73
11
 74
0
 42
0.0000001
 43
0.0000001
 44
0.0000000001
 40
0.0
 40
0.0
 40
0.0
 40
0.0
 40
0.1098906522
 40
0.2214015324
 40
0.3360758406
 40
0.455320507
 40
0.5803741139
 40
0.712293262
 40
0.8519441752
 40
1.0
 40
1.0
 40
1.0
 40
1.0
 10
12.6575664455
 20
9.2857945854
 30
0.0
 10
12.6575664492
 20
9.2851977863
 30
0.0
 10
12.657489839
 20
9.2839940362
 30
0.0
 10
12.6571461873
 20
9.2821970535
 30
0.0
 10
12.6565748012
 20
9.280405729
 30
0.0
 10
12.6557772619
 20
9.2786227372
 30
0.0
 10
12.6547552834
 20
9.2768498049
 30
0.0
 10
12.6535105926
 20
9.2750884655
 30
0.0
 10
12.6520450597
 20
9.2733403806
 30
0.0
 10
12.6509551492
 20
9.2722187687
 30
0.0
 10
12.6503768194
 20
9.271660145
 30
0.0
  0
SPLINE
  5
3A2
100
AcDbEntity
  8
0
100
AcDbSpline
 62
7
  6
CONTINUOUS
 70
0
 71
3
 72
55
 73
51
 74
0
 42
0.0000001
 43
0.0000001
 44
0.0000000001
 40
0.0
 40
0.0
 40
0.0
 40
0.0
 40
0.0077405295
 40
0.0160544111
 40
0.0249606134
 40
0.0344721118
 40
0.0445954544
 40
0.0553323919
 40
0.066680682
 40
0.0786347351
 40
0.0911860812
 40
0.1043236422
 40
0.1180342652
 40
0.1323027184
 40
0.147112073
 40
0.1624438228
 40
0.1782779442
 40
0.194593203
 40
0.2285749289
 40
0.2641973525
 40
0.3012527132
 40
0.3395207521
 40
0.3787709958
 40
0.4187648962
 40
0.4592578909
 40
0.5000014231
 40
0.5407449417
 40
0.5812378994
 40
0.6212317419
 40
0.6604819037
 40
0.6987498278
 40
0.7358050444
 40
0.7714273135
 40
0.8054088768
 40
0.8217240293
 40
0.8375580764
 40
0.8528896961
 40
0.8676989683
 40
0.8819673007
 40
0.8956778013
 40
0.9088152713
 40
0.9213664664
 40
0.9333204285
 40
0.9446685856
 40
0.9554053962
 40
0.9655286074
 40
0.9750399926
 40
0.9839461994
 40
0.992259621
 40
1.0
 40
1.0
 40
1.0
 40
1.0
 10
9.8358865477
 20
9.7340837215
 30
0.0
 10
9.8348333411
 20
9.733103665
 30
0.0
 10
9.8325660847
 20
9.7311588928
 30
0.0
 10
9.8288467676
 20
9.7283813159
 30
0.0
 10
9.8246963415
 20
9.725645633
 30
0.0
 10
9.8201216394
 20
9.7229562044
 30
0.0
 10
9.8151297398
 20
9.7203170023
 30
0.0
 10
9.8097285806
 20
9.7177323324
 30
0.0
 10
9.8039268494
 20
9.7152063138
 30
0.0
 10
9.7977339099
 20
9.7127430655
 30
0.0
 10
9.7911598045
 20
9.7103466644
 30
0.0
 10
9.7842152561
 20
9.7080210073
 30
0.0
 10
9.7769116015
 20
9.7057699912
 30
0.0
 10
9.7692608057
 20
9.7035973029
 30
0.0
 10
9.761275413
 20
9.7015065498
 30
0.0
 10
9.7529685358
 20
9.6995012234
 30
0.0
 10
9.7443538149
 20
9.697584576
 30
0.0
 10
9.7323121123
 20
9.6951181734
 30
0.0
 10
9.7165922819
 20
9.6922923594
 30
0.0
 10
9.6969863248
 20
9.6893451078
 30
0.0
 10
9.6765190912
 20
9.6868171173
 30
0.0
 10
9.6553252782
 20
9.6847252768
 30
0.0
 10
9.6335442357
 20
9.6830836068
 30
0.0
 10
9.6113193145
 20
9.6819030867
 30
0.0
 10
9.5887968154
 20
9.6811916125
 30
0.0
 10
9.5661250333
 20
9.6809539436
 30
0.0
 10
9.5434532587
 20
9.6811916645
 30
0.0
 10
9.5209307813
 20
9.681903184
 30
0.0
 10
9.4987058953
 20
9.6830837468
 30
0.0
 10
9.4769249034
 20
9.6847254592
 30
0.0
 10
9.4557311586
 20
9.6868173468
 30
0.0
 10
9.4352640082
 20
9.689345385
 30
0.0
 10
9.4156581447
 20
9.6922926805
 30
0.0
 10
9.3999383977
 20
9.6951185154
 30
0.0
 10
9.3878967685
 20
9.6975849585
 30
0.0
 10
9.3792821065
 20
9.6995016045
 30
0.0
 10
9.3709752938
 20
9.7015069711
 30
0.0
 10
9.3629899646
 20
9.7035977218
 30
0.0
 10
9.3553392383
 20
9.7057704342
 30
0.0
 10
9.3480356558
 20
9.7080214726
 30
0.0
 10
9.3410911768
 20
9.7103471243
 30
0.0
 10
9.3345171522
 20
9.7127435662
 30
0.0
 10
9.3283242825
 20
9.7152068011
 30
0.0
 10
9.3225226341
 20
9.717732848
 30
0.0
 10
9.3171215635
 20
9.7203175326
 30
0.0
 10
9.3121297319
 20
9.7229567172
 30
0.0
 10
9.3075551147
 20
9.7256462022
 30
0.0
 10
9.3034047966
 20
9.7283818568
 30
0.0
 10
9.2996856031
 20
9.7311594095
 30
0.0
 10
9.2974184443
 20
9.7331041231
 30
0.0
 10
9.2963652847
 20
9.7340841891
 30
0.0
  0
SPLINE
  5
3A3
100
AcDbEntity
  8
0
100
AcDbSpline
 62
7
  6
CONTINUOUS
 70
0
 71
3
 72
55
 73
51
 74
0
 42
0.0000001
 43
0.0000001
 44
0.0000000001
 40
0.0
 40
0.0
 40
0.0
 40
0.0
 40
0.0077405295
 40
0.0160544111
 40
0.0249606134
 40
0.0344721118
 40
0.0445954544
 40
0.0553323919
 40
0.066680682
 40
0.0786347351
 40
0.0911860812
 40
0.1043236422
 40
0.1180342652
 40
0.1323027184
 40
0.147112073
 40
0.1624438228
 40
0.1782779442
 40
0.194593203
 40
0.2285749289
 40
0.2641973525
 40
0.3012527132
 40
0.3395207521
 40
0.3787709958
 40
0.4187648962
 40
0.4592578909
 40
0.5000014231
 40
0.5407449417
 40
0.5812378994
 40
0.6212317419
 40
0.6604819037
 40
0.6987498278
 40
0.7358050444
 40
0.7714273135
 40
0.8054088768
 40
0.8217240293
 40
0.8375580764
 40
0.8528896961
 40
0.8676989683
 40
0.8819673007
 40
0.8956778013
 40
0.9088152713
 40
0.9213664664
 40
0.9333204285
 40
0.9446685856
 40
0.9554053962
 40
0.9655286074
 40
0.9750399926
 40
0.9839461994
 40
0.992259621
 40
1.0
 40
1.0
 40
1.0
 40
1.0
 10
12.7036342116
 20
10.0041154175
 30
0.0
 10
12.702581005
 20
10.003135361
 30
0.0
 10
12.7003137486
 20
10.0011905888
 30
0.0
 10
12.6965944316
 20
9.998413012
 30
0.0
 10
12.6924440054
 20
9.995677329
 30
0.0
 10
12.6878693033
 20
9.9929879004
 30
0.0
 10
12.6828774037
 20
9.9903486983
 30
0.0
 10
12.6774762446
 20
9.9877640284
 30
0.0
 10
12.6716745133
 20
9.9852380098
 30
0.0
 10
12.6654815739
 20
9.9827747615
 30
0.0
 10
12.6589074684
 20
9.9803783604
 30
0.0
 10
12.65196292
 20
9.9780527033
 30
0.0
 10
12.6446592654
 20
9.9758016872
 30
0.0
 10
12.6370084696
 20
9.9736289989
 30
0.0
 10
12.6290230769
 20
9.9715382458
 30
0.0
 10
12.6207161997
 20
9.9695329194
 30
0.0
 10
12.6121014789
 20
9.967616272
 30
0.0
 10
12.6000597763
 20
9.9651498694
 30
0.0
 10
12.5843399458
 20
9.9623240554
 30
0.0
 10
12.5647339888
 20
9.9593768038
 30
0.0
 10
12.5442667552
 20
9.9568488133
 30
0.0
 10
12.5230729421
 20
9.9547569728
 30
0.0
 10
12.5012918996
 20
9.9531153028
 30
0.0
 10
12.4790669784
 20
9.9519347827
 30
0.0
 10
12.4565444794
 20
9.9512233085
 30
0.0
 10
12.4338726973
 20
9.9509856396
 30
0.0
 10
12.4112009226
 20
9.9512233606
 30
0.0
 10
12.3886784452
 20
9.95193488
 30
0.0
 10
12.3664535592
 20
9.9531154428
 30
0.0
 10
12.3446725673
 20
9.9547571552
 30
0.0
 10
12.3234788225
 20
9.9568490428
 30
0.0
 10
12.3030116722
 20
9.9593770811
 30
0.0
 10
12.2834058086
 20
9.9623243765
 30
0.0
 10
12.2676860616
 20
9.9651502115
 30
0.0
 10
12.2556444325
 20
9.9676166545
 30
0.0
 10
12.2470297704
 20
9.9695333005
 30
0.0
 10
12.2387229577
 20
9.9715386671
 30
0.0
 10
12.2307376285
 20
9.9736294178
 30
0.0
 10
12.2230869022
 20
9.9758021302
 30
0.0
 10
12.2157833198
 20
9.9780531687
 30
0.0
 10
12.2088388407
 20
9.9803788203
 30
0.0
 10
12.2022648161
 20
9.9827752622
 30
0.0
 10
12.1960719465
 20
9.9852384971
 30
0.0
 10
12.1902702981
 20
9.987764544
 30
0.0
 10
12.1848692274
 20
9.9903492286
 30
0.0
 10
12.1798773958
 20
9.9929884132
 30
0.0
 10
12.1753027787
 20
9.9956778982
 30
0.0
 10
12.1711524606
 20
9.9984135529
 30
0.0
 10
12.167433267
 20
10.0011911055
 30
0.0
 10
12.1651661083
 20
10.0031358191
 30
0.0
 10
12.1641129486
 20
10.0041158851
 30
0.0
  0
SPLINE
  5
3A4
100
AcDbEntity
  8
0
100
AcDbSpline
 62
7
  6
CONTINUOUS
 70
0
 71
3
 72
59
 73
55
 74
0
 42
0.0000001
 43
0.0000001
 44
0.0000000001
 40
0.0
 40
0.0
 40
0.0
 40
0.0
 40
0.0075208079
 40
0.0156241398
 40
0.0243310606
 40
0.0336548722
 40
0.0436027282
 40
0.0541767519
 40
0.0653748386
 40
0.0771914416
 40
0.0896180444
 40
0.1026434986
 40
0.1162544536
 40
0.1304355591
 40
0.1451696243
 40
0.1604378928
 40
0.1762201332
 40
0.1924947318
 40
0.2092388927
 40
0.2264286809
 40
0.2440390934
 40
0.2620442168
 40
0.2991298639
 40
0.3374628535
 40
0.3768091312
 40
0.4169263555
 40
0.4575659562
 40
0.4984751951
 40
0.5393992035
 40
0.5800829926
 40
0.620273482
 40
0.659721512
 40
0.6981838999
 40
0.7354255455
 40
0.7535182257
 40
0.7712223393
 40
0.7885117232
 40
0.8053611821
 40
0.8217465396
 40
0.8376446832
 40
0.8530337507
 40
0.8678931903
 40
0.8822038429
 40
0.8959481837
 40
0.9091104254
 40
0.9216766811
 40
0.9336353194
 40
0.9449771786
 40
0.9556959294
 40
0.9657887016
 40
0.9752565037
 40
0.9841051608
 40
0.9923469048
 40
1.0
 40
1.0
 40
1.0
 40
1.0
 10
13.5848507184
 20
8.3498331699
 30
0.0
 10
13.583496409
 20
8.3514983723
 30
0.0
 10
13.5808279857
 20
8.3550772364
 30
0.0
 10
13.5770728237
 20
8.3609235202
 30
0.0
 10
13.5734248959
 20
8.367433692
 30
0.0
 10
13.5698899477
 20
8.3745970623
 30
0.0
 10
13.5664733428
 20
8.3824025019
 30
0.0
 10
13.5631805988
 20
8.3908375042
 30
0.0
 10
13.5600170271
 20
8.3998884564
 30
0.0
 10
13.5569878635
 20
8.409540643
 30
0.0
 10
13.5540981574
 20
8.4197782841
 30
0.0
 10
13.5513526966
 20
8.4305845571
 30
0.0
 10
13.5487560918
 20
8.4419416655
 30
0.0
 10
13.5463127099
 20
8.4538308621
 30
0.0
 10
13.5440266192
 20
8.4662324804
 30
0.0
 10
13.5419016732
 20
8.4791259903
 30
0.0
 10
13.53994145
 20
8.4924900264
 30
0.0
 10
13.538149214
 20
8.506302423
 30
0.0
 10
13.5365279887
 20
8.5205402658
 30
0.0
 10
13.5350805116
 20
8.5351799172
 30
0.0
 10
13.5338091597
 20
8.5501970903
 30
0.0
 10
13.5323373732
 20
8.5708939355
 30
0.0
 10
13.5309651486
 20
8.5975243621
 30
0.0
 10
13.5300619813
 20
8.6302681241
 30
0.0
 10
13.5298931357
 20
8.6638890336
 30
0.0
 10
13.5304599674
 20
8.6981637871
 30
0.0
 10
13.531758925
 20
8.7328649004
 30
0.0
 10
13.5337814774
 20
8.7677619569
 30
0.0
 10
13.5365142506
 20
8.8026232373
 30
0.0
 10
13.5399390688
 20
8.8372172661
 30
0.0
 10
13.5440330746
 20
8.8713143506
 30
0.0
 10
13.5487689056
 20
8.9046882036
 30
0.0
 10
13.5541149113
 20
8.9371171848
 30
0.0
 10
13.559095105
 20
8.9634220526
 30
0.0
 10
13.5633678822
 20
8.9838248004
 30
0.0
 10
13.5666708491
 20
8.9986114303
 30
0.0
 10
13.5700974751
 20
9.0130054257
 30
0.0
 10
13.5736420618
 20
9.0269829109
 30
0.0
 10
13.5772986758
 20
9.0405206852
 30
0.0
 10
13.5810612441
 20
9.0535962839
 30
0.0
 10
13.5849234719
 20
9.0661880297
 30
0.0
 10
13.5888789024
 20
9.0782750615
 30
0.0
 10
13.5929209643
 20
9.0898373605
 30
0.0
 10
13.5970428965
 20
9.1008558142
 30
0.0
 10
13.601237817
 20
9.1113122368
 30
0.0
 10
13.6054987742
 20
9.1211893918
 30
0.0
 10
13.6098186683
 20
9.1304710628
 30
0.0
 10
13.6141903387
 20
9.1391420704
 30
0.0
 10
13.6186066252
 20
9.1471882902
 30
0.0
 10
13.6230603252
 20
9.1545967285
 30
0.0
 10
13.6275442186
 20
9.1613554856
 30
0.0
 10
13.6320514969
 20
9.1674540586
 30
0.0
 10
13.6365748884
 20
9.1728822928
 30
0.0
 10
13.6397102201
 20
9.1761673796
 30
0.0
 10
13.6412811864
 20
9.1776848165
 30
0.0
  0
SPLINE
  5
3A5
100
AcDbEntity
  8
0
100
AcDbSpline
 62
7
  6
CONTINUOUS
 70
0
 71
3
 72
59
 73
55
 74
0
 42
0.0000001
 43
0.0000001
 44
0.0000000001
 40
0.0
 40
0.0
 40
0.0
 40
0.0
 40
0.0075208079
 40
0.0156241398
 40
0.0243310606
 40
0.0336548722
 40
0.0436027282
 40
0.0541767519
 40
0.0653748386
 40
0.0771914416
 40
0.0896180444
 40
0.1026434986
 40
0.1162544536
 40
0.1304355591
 40
0.1451696243
 40
0.1604378928
 40
0.1762201332
 40
0.1924947318
 40
0.2092388927
 40
0.2264286809
 40
0.2440390934
 40
0.2620442168
 40
0.2991298639
 40
0.3374628535
 40
0.3768091312
 40
0.4169263555
 40
0.4575659562
 40
0.4984751951
 40
0.5393992035
 40
0.5800829926
 40
0.620273482
 40
0.659721512
 40
0.6981838999
 40
0.7354255455
 40
0.7535182257
 40
0.7712223393
 40
0.7885117232
 40
0.8053611821
 40
0.8217465396
 40
0.8376446832
 40
0.8530337507
 40
0.8678931903
 40
0.8822038429
 40
0.8959481837
 40
0.9091104254
 40
0.9216766811
 40
0.9336353194
 40
0.9449771786
 40
0.9556959294
 40
0.9657887016
 40
0.9752565037
 40
0.9841051608
 40
0.9923469048
 40
1.0
 40
1.0
 40
1.0
 40
1.0
 10
13.1319177633
 20
7.9123335051
 30
0.0
 10
13.1305634538
 20
7.9139987075
 30
0.0
 10
13.1278950306
 20
7.9175775716
 30
0.0
 10
13.1241398686
 20
7.9234238553
 30
0.0
 10
13.1204919408
 20
7.9299340272
 30
0.0
 10
13.1169569926
 20
7.9370973974
 30
0.0
 10
13.1135403877
 20
7.9449028371
 30
0.0
 10
13.1102476436
 20
7.9533378394
 30
0.0
 10
13.107084072
 20
7.9623887915
 30
0.0
 10
13.1040549083
 20
7.9720409781
 30
0.0
 10
13.1011652022
 20
7.9822786192
 30
0.0
 10
13.0984197414
 20
7.9930848922
 30
0.0
 10
13.0958231367
 20
8.0044420007
 30
0.0
 10
13.0933797548
 20
8.0163311972
 30
0.0
 10
13.091093664
 20
8.0287328156
 30
0.0
 10
13.0889687181
 20
8.0416263254
 30
0.0
 10
13.0870084949
 20
8.0549903615
 30
0.0
 10
13.0852162589
 20
8.0688027581
 30
0.0
 10
13.0835950335
 20
8.0830406009
 30
0.0
 10
13.0821475564
 20
8.0976802523
 30
0.0
 10
13.0808762046
 20
8.1126974254
 30
0.0
 10
13.0794044181
 20
8.1333942707
 30
0.0
 10
13.0780321934
 20
8.1600246973
 30
0.0
 10
13.0771290261
 20
8.1927684592
 30
0.0
 10
13.0769601805
 20
8.2263893688
 30
0.0
 10
13.0775270123
 20
8.2606641222
 30
0.0
 10
13.0788259698
 20
8.2953652355
 30
0.0
 10
13.0808485223
 20
8.330262292
 30
0.0
 10
13.0835812954
 20
8.3651235724
 30
0.0
 10
13.0870061136
 20
8.3997176013
 30
0.0
 10
13.0911001195
 20
8.4338146858
 30
0.0
 10
13.0958359504
 20
8.4671885388
 30
0.0
 10
13.1011819562
 20
8.4996175199
 30
0.0
 10
13.1061621498
 20
8.5259223877
 30
0.0
 10
13.110434927
 20
8.5463251356
 30
0.0
 10
13.113737894
 20
8.5611117655
 30
0.0
 10
13.1171645199
 20
8.5755057608
 30
0.0
 10
13.1207091066
 20
8.589483246
 30
0.0
 10
13.1243657207
 20
8.6030210203
 30
0.0
 10
13.1281282889
 20
8.616096619
 30
0.0
 10
13.1319905167
 20
8.6286883648
 30
0.0
 10
13.1359459473
 20
8.6407753967
 30
0.0
 10
13.1399880092
 20
8.6523376956
 30
0.0
 10
13.1441099413
 20
8.6633561493
 30
0.0
 10
13.1483048619
 20
8.673812572
 30
0.0
 10
13.1525658191
 20
8.683689727
 30
0.0
 10
13.1568857131
 20
8.692971398
 30
0.0
 10
13.1612573836
 20
8.7016424056
 30
0.0
 10
13.1656736701
 20
8.7096886253
 30
0.0
 10
13.17012737
 20
8.7170970636
 30
0.0
 10
13.1746112635
 20
8.7238558207
 30
0.0
 10
13.1791185418
 20
8.7299543937
 30
0.0
 10
13.1836419333
 20
8.7353826279
 30
0.0
 10
13.186777265
 20
8.7386677147
 30
0.0
 10
13.1883482312
 20
8.7401851517
 30
0.0
  0
SPLINE
  5
3A6
100
AcDbEntity
  8
0
100
AcDbSpline
 62
7
  6
CONTINUOUS
 70
0
 71
3
 72
15
 73
11
 74
0
 42
0.0000001
 43
0.0000001
 44
0.0000000001
 40
0.0
 40
0.0
 40
0.0
 40
0.0
 40
0.0853526784
 40
0.1793628571
 40
0.2837485101
 40
0.4002333869
 40
0.530275177
 40
0.6745461468
 40
0.8321587989
 40
1.0
 40
1.0
 40
1.0
 40
1.0
 10
10.9257628606
 20
7.6641369523
 30
0.0
 10
10.9239078856
 20
7.6648070291
 30
0.0
 10
10.9200969166
 20
7.666466737
 30
0.0
 10
10.914430392
 20
7.6697941822
 30
0.0
 10
10.9086151603
 20
7.6741944827
 30
0.0
 10
10.9027329333
 20
7.6798002618
 30
0.0
 10
10.8969104213
 20
7.686726205
 30
0.0
 10
10.8913326433
 20
7.695025612
 30
0.0
 10
10.8862373656
 20
7.7046301438
 30
0.0
 10
10.8833882659
 20
7.7116053383
 30
0.0
 10
10.8820908939
 20
7.7152603093
 30
0.0
  0
SPLINE
  5
3A7
100
AcDbEntity
  8
0
100
AcDbSpline
 62
7
  6
CONTINUOUS
 70
0
 71
3
 72
26
 73
22
 74
0
 42
0.0000001
 43
0.0000001
 44
0.0000000001
 40
0.0
 40
0.0
 40
0.0
 40
0.0
 40
0.0952584845
 40
0.1854914797
 40
0.2707019269
 40
0.3509300463
 40
0.4262503554
 40
0.4967726497
 40
0.5626473626
 40
0.6240667763
 40
0.681272306
 40
0.7345677454
 40
0.7843286696
 40
0.831018018
 40
0.8752016379
 40
0.8965753669
 40
0.9175836583
 40
0.9383250134
 40
0.9589027669
 40
0.9794249661
 40
1.0
 40
1.0
 40
1.0
 40
1.0
 10
11.1563854724
 20
8.186854413
 30
0.0
 10
11.1558363081
 20
8.1843530813
 30
0.0
 10
11.154908165
 20
8.1794498104
 30
0.0
 10
11.1540014048
 20
8.1722242912
 30
0.0
 10
11.15359143
 20
8.1653579352
 30
0.0
 10
11.1536498093
 20
8.1588803338
 30
0.0
 10
11.1541463416
 20
8.1528173038
 30
0.0
 10
11.1550496547
 20
8.1471915098
 30
0.0
 10
11.1563276579
 20
8.1420224941
 30
0.0
 10
11.1579483643
 20
8.137327019
 30
0.0
 10
11.1598802425
 20
8.1331193501
 30
0.0
 10
11.1620925985
 20
8.1294117014
 30
0.0
 10
11.1645563368
 20
8.1262146622
 30
0.0
 10
11.1672428504
 20
8.1235382107
 30
0.0
 10
11.1696733814
 20
8.121728864
 30
0.0
 10
11.1716920398
 20
8.1205666767
 30
0.0
 10
11.1732272254
 20
8.1198390292
 30
0.0
 10
11.1747966718
 20
8.1192467767
 30
0.0
 10
11.176397375
 20
8.1187904143
 30
0.0
 10
11.1780261309
 20
8.1184703709
 30
0.0
 10
11.1791257437
 20
8.1183484433
 30
0.0
 10
11.1796775524
 20
8.1183101709
 30
0.0
  0
SPLINE
  5
3A8
100
AcDbEntity
  8
0
100
AcDbSpline
 62
7
  6
CONTINUOUS
 70
0
 71
3
 72
59
 73
55
 74
0
 42
0.0000001
 43
0.0000001
 44
0.0000000001
 40
0.0
 40
0.0
 40
0.0
 40
0.0
 40
0.0078592064
 40
0.0163497038
 40
0.0254911953
 40
0.0352965772
 40
0.0457715046
 40
0.0569161667
 40
0.0687263539
 40
0.0811940347
 40
0.0943080494
 40
0.1080543842
 40
0.1224166059
 40
0.1373761759
 40
0.1529125192
 40
0.1690033698
 40
0.185624879
 40
0.2027516765
 40
0.2203571375
 40
0.238413388
 40
0.2757604154
 40
0.31455019
 40
0.3545257908
 40
0.3954195796
 40
0.436955817
 40
0.4788531685
 40
0.5208271682
 40
0.562592692
 40
0.6038664167
 40
0.6443692747
 40
0.6838289694
 40
0.7219825085
 40
0.7404908881
 40
0.7585796962
 40
0.7762198311
 40
0.7933833651
 40
0.8100435475
 40
0.8261749131
 40
0.8417535206
 40
0.8567569401
 40
0.8711644937
 40
0.8849574875
 40
0.8981192822
 40
0.9106357192
 40
0.9224953985
 40
0.9336900073
 40
0.9442150497
 40
0.9540704042
 40
0.9632612635
 40
0.9717995159
 40
0.9797052019
 40
0.9870087611
 40
0.9937537758
 40
1.0
 40
1.0
 40
1.0
 40
1.0
 10
13.5654560045
 20
8.4280722328
 30
0.0
 10
13.5667990256
 20
8.4293694917
 30
0.0
 10
13.5694788708
 20
8.432187722
 30
0.0
 10
13.5733383181
 20
8.4368600606
 30
0.0
 10
13.5771827867
 20
8.4421287813
 30
0.0
 10
13.5810055293
 20
8.4479843383
 30
0.0
 10
13.5848002606
 20
8.4544168318
 30
0.0
 10
13.5885602268
 20
8.4614150395
 30
0.0
 10
13.5922787638
 20
8.4689666256
 30
0.0
 10
13.595949228
 20
8.4770581859
 30
0.0
 10
13.5995649405
 20
8.4856753066
 30
0.0
 10
13.6031193757
 20
8.4948025423
 30
0.0
 10
13.6066060883
 20
8.5044234971
 30
0.0
 10
13.6100186988
 20
8.5145208632
 30
0.0
 10
13.6133510379
 20
8.5250764255
 30
0.0
 10
13.6165970287
 20
8.5360711328
 30
0.0
 10
13.6197507451
 20
8.5474851273
 30
0.0
 10
13.622806477
 20
8.5592977628
 30
0.0
 10
13.6257586705
 20
8.5714876932
 30
0.0
 10
13.6295927388
 20
8.5884050682
 30
0.0
 10
13.6340749943
 20
8.6103336389
 30
0.0
 10
13.6389030678
 20
8.6374973529
 30
0.0
 10
13.6432037101
 20
8.665602222
 30
0.0
 10
13.6469455553
 20
8.6944448382
 30
0.0
 10
13.6501012959
 20
8.7238166041
 30
0.0
 10
13.6526479515
 20
8.7535049688
 30
0.0
 10
13.6545670282
 20
8.7832950727
 30
0.0
 10
13.6558446679
 20
8.8129713064
 30
0.0
 10
13.6564717128
 20
8.8423188802
 30
0.0
 10
13.656443808
 20
8.8711254759
 30
0.0
 10
13.6557613647
 20
8.8991825452
 30
0.0
 10
13.6546408159
 20
8.9219950234
 30
0.0
 10
13.6534104554
 20
8.9397125887
 30
0.0
 10
13.6523379264
 20
8.9525543815
 30
0.0
 10
13.6511083224
 20
8.9650610846
 30
0.0
 10
13.6497238991
 20
8.9772100842
 30
0.0
 10
13.6481871975
 20
8.9889793948
 30
0.0
 10
13.6465010021
 20
9.0003477329
 30
0.0
 10
13.6446684409
 20
9.0112945548
 30
0.0
 10
13.6426928481
 20
9.0218000914
 30
0.0
 10
13.6405778296
 20
9.0318453907
 30
0.0
 10
13.6383272942
 20
9.0414123637
 30
0.0
 10
13.6359453144
 20
9.0504838076
 30
0.0
 10
13.6334362478
 20
9.0590434628
 30
0.0
 10
13.6308046801
 20
9.0670760508
 30
0.0
 10
13.6280553096
 20
9.0745672912
 30
0.0
 10
13.6251930895
 20
9.0815039863
 30
0.0
 10
13.6222230447
 20
9.0878740349
 30
0.0
 10
13.6191502022
 20
9.0936664366
 30
0.0
 10
13.6159796012
 20
9.0988714094
 30
0.0
 10
13.6127160936
 20
9.1034801752
 30
0.0
 10
13.6093637455
 20
9.1074851482
 30
0.0
 10
13.6059274267
 20
9.1108786735
 30
0.0
 10
13.6034970253
 20
9.112795756
 30
0.0
 10
13.60227312
 20
9.1136350204
 30
0.0
  0
SPLINE
  5
3A9
100
AcDbEntity
  8
0
100
AcDbSpline
 62
7
  6
CONTINUOUS
 70
0
 71
3
 72
69
 73
65
 74
0
 42
0.0000001
 43
0.0000001
 44
0.0000000001
 40
0.0
 40
0.0
 40
0.0
 40
0.0
 40
0.0155844514
 40
0.0311164958
 40
0.046596033
 40
0.0620249362
 40
0.0774047641
 40
0.0927378569
 40
0.1080269576
 40
0.123275266
 40
0.1384864062
 40
0.153664385
 40
0.1688135563
 40
0.1839385764
 40
0.1990443578
 40
0.2141360176
 40
0.2292188235
 40
0.2442981374
 40
0.2593793583
 40
0.2744678645
 40
0.289568957
 40
0.3046878029
 40
0.3198293806
 40
0.3349984272
 40
0.3501993899
 40
0.3654363818
 40
0.3807131419
 40
0.3960329989
 40
0.4113988402
 40
0.4268130857
 40
0.4422776684
 40
0.4577940208
 40
0.4733630656
 40
0.4889852114
 40
0.5046603533
 40
0.5203878786
 40
0.5361666795
 40
0.5519951681
 40
0.5678712954
 40
0.5837925735
 40
0.5997561014
 40
0.6157585964
 40
0.6317964263
 40
0.647865644
 40
0.6639620234
 40
0.6800810983
 40
0.7123600122
 40
0.7446719581
 40
0.7608320198
 40
0.7769852785
 40
0.7931267708
 40
0.8092516359
 40
0.8253551583
 40
0.8414328088
 40
0.8574802861
 40
0.8734935573
 40
0.8894688931
 40
0.9054029073
 40
0.9212925817
 40
0.9371352945
 40
0.9529289268
 40
0.968671524
 40
0.9843624254
 40
1.0
 40
1.0
 40
1.0
 40
1.0
 10
11.6530768917
 20
7.7306001507
 30
0.0
 10
11.6530768917
 20
7.7232326333
 30
0.0
 10
11.6527163242
 20
7.7085197619
 30
0.0
 10
11.6510887815
 20
7.6865431678
 30
0.0
 10
11.6483790924
 20
7.6647470752
 30
0.0
 10
11.6445939802
 20
7.6431849159
 30
0.0
 10
11.6397423399
 20
7.6219082954
 30
0.0
 10
11.6338358714
 20
7.6009686284
 30
0.0
 10
11.6268887419
 20
7.5804163665
 30
0.0
 10
11.6189176678
 20
7.5603010705
 30
0.0
 10
11.6099418257
 20
7.5406712483
 30
0.0
 10
11.5999828127
 20
7.5215742472
 30
0.0
 10
11.5890645968
 20
7.5030561407
 30
0.0
 10
11.5772134733
 20
7.4851616079
 30
0.0
 10
11.5644580162
 20
7.4679338108
 30
0.0
 10
11.5508289756
 20
7.451414309
 30
0.0
 10
11.5363592111
 20
7.4356429561
 30
0.0
 10
11.521083611
 20
7.420657804
 30
0.0
 10
11.5050390096
 20
7.4064950118
 30
0.0
 10
11.4882641236
 20
7.3931887248
 30
0.0
 10
11.4707994269
 20
7.3807710196
 30
0.0
 10
11.4526870533
 20
7.3692718287
 30
0.0
 10
11.4339706953
 20
7.3587188668
 30
0.0
 10
11.4146954962
 20
7.3491375717
 30
0.0
 10
11.394907957
 20
7.3405510089
 30
0.0
 10
11.3746558112
 20
7.3329798299
 30
0.0
 10
11.3539879005
 20
7.3264422417
 30
0.0
 10
11.3329540601
 20
7.3209539594
 30
0.0
 10
11.3116049983
 20
7.3165281751
 30
0.0
 10
11.2899921797
 20
7.3131755095
 30
0.0
 10
11.2681676993
 20
7.3109039698
 30
0.0
 10
11.2461841494
 20
7.3097189692
 30
0.0
 10
11.2240944959
 20
7.3096233088
 30
0.0
 10
11.2019519527
 20
7.3106171734
 30
0.0
 10
11.1798098559
 20
7.3126981321
 30
0.0
 10
11.1577215319
 20
7.3158611056
 30
0.0
 10
11.1357401691
 20
7.3200984191
 30
0.0
 10
11.1139186922
 20
7.3253998221
 30
0.0
 10
11.0923096369
 20
7.3317525117
 30
0.0
 10
11.0709650293
 20
7.3391411686
 30
0.0
 10
11.0499362466
 20
7.3475479629
 30
0.0
 10
11.0292739085
 20
7.3569526027
 30
0.0
 10
11.0090277138
 20
7.3673324431
 30
0.0
 10
10.9892465069
 20
7.3786623762
 30
0.0
 10
10.9699774696
 20
7.3909154867
 30
0.0
 10
10.9450229151
 20
7.4084492952
 30
0.0
 10
10.9153451902
 20
7.4325207756
 30
0.0
 10
10.8879817844
 20
7.4592210953
 30
0.0
 10
10.8676248737
 20
7.4820143574
 30
0.0
 10
10.8531592423
 20
7.4997866983
 30
0.0
 10
10.8395340017
 20
7.518189997
 30
0.0
 10
10.8267815388
 20
7.5371803527
 30
0.0
 10
10.8149326791
 20
7.5567119584
 30
0.0
 10
10.804015947
 20
7.5767378425
 30
0.0
 10
10.7940576451
 20
7.597209795
 30
0.0
 10
10.7850817562
 20
7.6180785395
 30
0.0
 10
10.7771099127
 20
7.6392938464
 30
0.0
 10
10.7701613415
 20
7.6608046534
 30
0.0
 10
10.7642528245
 20
7.6825591766
 30
0.0
 10
10.7593986086
 20
7.7045050794
 30
0.0
 10
10.7556104839
 20
7.7265893988
 30
0.0
 10
10.7528974484
 20
7.7487593301
 30
0.0
 10
10.7512663288
 20
7.7709605661
 30
0.0
 10
10.7509020714
 20
7.7857735557
 30
0.0
 10
10.7509020714
 20
7.7931661869
 30
0.0
  0
SPLINE
  5
3AA
100
AcDbEntity
  8
0
100
AcDbSpline
 62
7
  6
CONTINUOUS
 70
0
 71
3
 72
10
 73
6
 74
0
 42
0.0000001
 43
0.0000001
 44
0.0000000001
 40
0.0
 40
0.0
 40
0.0
 40
0.0
 40
0.2719985918
 40
0.5286742372
 40
1.0
 40
1.0
 40
1.0
 40
1.0
 10
13.1125230494
 20
7.9905725679
 30
0.0
 10
13.11160909
 20
7.9896897509
 30
0.0
 10
13.1097818275
 20
7.988024522
 30
0.0
 10
13.1061249372
 20
7.9851153638
 30
0.0
 10
13.1032296339
 20
7.983290797
 30
0.0
 10
13.1012604409
 20
7.9823055716
 30
0.0
  0
SPLINE
  5
3AB
100
AcDbEntity
  8
0
100
AcDbSpline
 62
7
  6
CONTINUOUS
 70
0
 71
3
 72
59
 73
55
 74
0
 42
0.0000001
 43
0.0000001
 44
0.0000000001
 40
0.0
 40
0.0
 40
0.0
 40
0.0
 40
0.0078592064
 40
0.0163497038
 40
0.0254911953
 40
0.0352965772
 40
0.0457715046
 40
0.0569161667
 40
0.0687263539
 40
0.0811940347
 40
0.0943080494
 40
0.1080543842
 40
0.1224166059
 40
0.1373761759
 40
0.1529125192
 40
0.1690033698
 40
0.185624879
 40
0.2027516765
 40
0.2203571375
 40
0.238413388
 40
0.2757604154
 40
0.31455019
 40
0.3545257908
 40
0.3954195796
 40
0.436955817
 40
0.4788531685
 40
0.5208271682
 40
0.562592692
 40
0.6038664167
 40
0.6443692747
 40
0.6838289694
 40
0.7219825085
 40
0.7404908881
 40
0.7585796962
 40
0.7762198311
 40
0.7933833651
 40
0.8100435475
 40
0.8261749131
 40
0.8417535206
 40
0.8567569401
 40
0.8711644937
 40
0.8849574875
 40
0.8981192822
 40
0.9106357192
 40
0.9224953985
 40
0.9336900073
 40
0.9442150497
 40
0.9540704042
 40
0.9632612635
 40
0.9717995159
 40
0.9797052019
 40
0.9870087611
 40
0.9937537758
 40
1.0
 40
1.0
 40
1.0
 40
1.0
 10
13.1125230494
 20
7.9905725679
 30
0.0
 10
13.1138660705
 20
7.9918698268
 30
0.0
 10
13.1165459157
 20
7.9946880572
 30
0.0
 10
13.1204053629
 20
7.9993603958
 30
0.0
 10
13.1242498315
 20
8.0046291164
 30
0.0
 10
13.1280725742
 20
8.0104846734
 30
0.0
 10
13.1318673054
 20
8.0169171669
 30
0.0
 10
13.1356272717
 20
8.0239153746
 30
0.0
 10
13.1393458087
 20
8.0314669607
 30
0.0
 10
13.1430162729
 20
8.0395585211
 30
0.0
 10
13.1466319854
 20
8.0481756417
 30
0.0
 10
13.1501864206
 20
8.0573028774
 30
0.0
 10
13.1536731331
 20
8.0669238322
 30
0.0
 10
13.1570857437
 20
8.0770211983
 30
0.0
 10
13.1604180827
 20
8.0875767606
 30
0.0
 10
13.1636640735
 20
8.098571468
 30
0.0
 10
13.16681779
 20
8.1099854624
 30
0.0
 10
13.1698735219
 20
8.121798098
 30
0.0
 10
13.1728257153
 20
8.1339880284
 30
0.0
 10
13.1766597837
 20
8.1509054033
 30
0.0
 10
13.1811420392
 20
8.1728339741
 30
0.0
 10
13.1859701126
 20
8.1999976881
 30
0.0
 10
13.1902707549
 20
8.2281025572
 30
0.0
 10
13.1940126002
 20
8.2569451733
 30
0.0
 10
13.1971683408
 20
8.2863169393
 30
0.0
 10
13.1997149964
 20
8.316005304
 30
0.0
 10
13.201634073
 20
8.3457954079
 30
0.0
 10
13.2029117128
 20
8.3754716415
 30
0.0
 10
13.2035387576
 20
8.4048192154
 30
0.0
 10
13.2035108529
 20
8.4336258111
 30
0.0
 10
13.2028284096
 20
8.4616828803
 30
0.0
 10
13.2017078608
 20
8.4844953585
 30
0.0
 10
13.2004775003
 20
8.5022129238
 30
0.0
 10
13.1994049713
 20
8.5150547167
 30
0.0
 10
13.1981753673
 20
8.5275614197
 30
0.0
 10
13.196790944
 20
8.5397104194
 30
0.0
 10
13.1952542424
 20
8.55147973
 30
0.0
 10
13.193568047
 20
8.5628480681
 30
0.0
 10
13.1917354857
 20
8.57379489
 30
0.0
 10
13.1897598929
 20
8.5843004266
 30
0.0
 10
13.1876448745
 20
8.5943457258
 30
0.0
 10
13.185394339
 20
8.6039126988
 30
0.0
 10
13.1830123593
 20
8.6129841428
 30
0.0
 10
13.1805032927
 20
8.621543798
 30
0.0
 10
13.177871725
 20
8.629576386
 30
0.0
 10
13.1751223544
 20
8.6370676263
 30
0.0
 10
13.1722601343
 20
8.6440043215
 30
0.0
 10
13.1692900896
 20
8.6503743701
 30
0.0
 10
13.166217247
 20
8.6561667718
 30
0.0
 10
13.1630466461
 20
8.6613717445
 30
0.0
 10
13.1597831385
 20
8.6659805103
 30
0.0
 10
13.1564307903
 20
8.6699854833
 30
0.0
 10
13.1529944715
 20
8.6733790086
 30
0.0
 10
13.1505640701
 20
8.6752960912
 30
0.0
 10
13.1493401649
 20
8.6761353555
 30
0.0
  0
SPLINE
  5
3AC
100
AcDbEntity
  8
0
100
AcDbSpline
 62
7
  6
CONTINUOUS
 70
0
 71
3
 72
9
 73
5
 74
0
 42
0.0000001
 43
0.0000001
 44
0.0000000001
 40
0.0
 40
0.0
 40
0.0
 40
0.0
 40
0.4822175038
 40
1.0
 40
1.0
 40
1.0
 40
1.0
 10
11.1965768279
 20
8.1236549466
 30
0.0
 10
11.1977473282
 20
8.1244522329
 30
0.0
 10
11.2000924664
 20
8.126228073
 30
0.0
 10
11.2022781268
 20
8.1281946729
 30
0.0
 10
11.2033718916
 20
8.1292511687
 30
0.0
  0
SPLINE
  5
3AD
100
AcDbEntity
  8
0
100
AcDbSpline
 62
7
  6
CONTINUOUS
 70
0
 71
3
 72
15
 73
11
 74
0
 42
0.0000001
 43
0.0000001
 44
0.0000000001
 40
0.0
 40
0.0
 40
0.0
 40
0.0
 40
0.1012855584
 40
0.2092172746
 40
0.3238967269
 40
0.4454032381
 40
0.573776881
 40
0.7090215125
 40
0.8511127014
 40
1.0
 40
1.0
 40
1.0
 40
1.0
 10
11.2101643233
 20
8.13677946
 30
0.0
 10
11.2113133808
 20
8.1382165881
 30
0.0
 10
11.2136039302
 20
8.1412520724
 30
0.0
 10
11.2169249403
 20
8.1461114833
 30
0.0
 10
11.2202405358
 20
8.151413053
 30
0.0
 10
11.2235544215
 20
8.1571484744
 30
0.0
 10
11.2268721094
 20
8.1633092697
 30
0.0
 10
11.2302004166
 20
8.1698861063
 30
0.0
 10
11.2335481773
 20
8.1768685586
 30
0.0
 10
11.2357484265
 20
8.1816752786
 30
0.0
 10
11.2368568806
 20
8.1841425
 30
0.0
  0
SPLINE
  5
3AE
100
AcDbEntity
  8
0
100
AcDbSpline
 62
7
  6
CONTINUOUS
 70
0
 71
3
 72
9
 73
5
 74
0
 42
0.0000001
 43
0.0000001
 44
0.0000000001
 40
0.0
 40
0.0
 40
0.0
 40
0.0
 40
0.4826837424
 40
1.0
 40
1.0
 40
1.0
 40
1.0
 10
11.2033718916
 20
8.1292511687
 30
0.0
 10
11.2045458927
 20
8.1303851666
 30
0.0
 10
11.2068892637
 20
8.1328274734
 30
0.0
 10
11.2090718804
 20
8.1354131399
 30
0.0
 10
11.2101643233
 20
8.13677946
 30
0.0
  0
SPLINE
  5
3AF
100
AcDbEntity
  8
0
100
AcDbSpline
 62
7
  6
CONTINUOUS
 70
0
 71
3
 72
69
 73
65
 74
0
 42
0.0000001
 43
0.0000001
 44
0.0000000001
 40
0.0
 40
0.0
 40
0.0
 40
0.0
 40
0.0155844514
 40
0.0311164958
 40
0.046596033
 40
0.0620249362
 40
0.0774047641
 40
0.0927378569
 40
0.1080269576
 40
0.123275266
 40
0.1384864062
 40
0.153664385
 40
0.1688135563
 40
0.1839385764
 40
0.1990443578
 40
0.2141360176
 40
0.2292188235
 40
0.2442981374
 40
0.2593793583
 40
0.2744678645
 40
0.289568957
 40
0.3046878029
 40
0.3198293806
 40
0.3349984272
 40
0.3501993899
 40
0.3654363818
 40
0.3807131419
 40
0.3960329989
 40
0.4113988402
 40
0.4268130857
 40
0.4422776684
 40
0.4577940208
 40
0.4733630656
 40
0.4889852114
 40
0.5046603533
 40
0.5203878786
 40
0.5361666795
 40
0.5519951681
 40
0.5678712954
 40
0.5837925735
 40
0.5997561014
 40
0.6157585964
 40
0.6317964263
 40
0.647865644
 40
0.6639620234
 40
0.6800810983
 40
0.7123600122
 40
0.7446719581
 40
0.7608320198
 40
0.7769852785
 40
0.7931267708
 40
0.8092516359
 40
0.8253551583
 40
0.8414328088
 40
0.8574802861
 40
0.8734935573
 40
0.8894688931
 40
0.9054029073
 40
0.9212925817
 40
0.9371352945
 40
0.9529289268
 40
0.968671524
 40
0.9843624254
 40
1.0
 40
1.0
 40
1.0
 40
1.0
 10
10.7509020714
 20
7.7931661869
 30
0.0
 10
10.7509020714
 20
7.8005337043
 30
0.0
 10
10.7512626389
 20
7.8152465757
 30
0.0
 10
10.7528901815
 20
7.8372231698
 30
0.0
 10
10.7555998707
 20
7.8590192624
 30
0.0
 10
10.7593849828
 20
7.8805814217
 30
0.0
 10
10.7642366232
 20
7.9018580422
 30
0.0
 10
10.7701430917
 20
7.9227977092
 30
0.0
 10
10.7770902211
 20
7.9433499711
 30
0.0
 10
10.7850612953
 20
7.9634652671
 30
0.0
 10
10.7940371374
 20
7.9830950893
 30
0.0
 10
10.8039961504
 20
8.0021920904
 30
0.0
 10
10.8149143663
 20
8.0207101969
 30
0.0
 10
10.8267654898
 20
8.0386047297
 30
0.0
 10
10.8395209469
 20
8.0558325268
 30
0.0
 10
10.8531499874
 20
8.0723520286
 30
0.0
 10
10.8676197519
 20
8.0881233815
 30
0.0
 10
10.8828953521
 20
8.1031085336
 30
0.0
 10
10.8989399534
 20
8.1172713258
 30
0.0
 10
10.9157148395
 20
8.1305776128
 30
0.0
 10
10.9331795362
 20
8.142995318
 30
0.0
 10
10.9512919098
 20
8.1544945089
 30
0.0
 10
10.9700082677
 20
8.1650474708
 30
0.0
 10
10.9892834669
 20
8.1746287659
 30
0.0
 10
11.009071006
 20
8.1832153287
 30
0.0
 10
11.0293231519
 20
8.1907865077
 30
0.0
 10
11.0499910626
 20
8.1973240959
 30
0.0
 10
11.071024903
 20
8.2028123782
 30
0.0
 10
11.0923739647
 20
8.2072381625
 30
0.0
 10
11.1139867834
 20
8.2105908281
 30
0.0
 10
11.1358112638
 20
8.2128623678
 30
0.0
 10
11.1577948137
 20
8.2140473684
 30
0.0
 10
11.1798844671
 20
8.2141430288
 30
0.0
 10
11.2020270104
 20
8.2131491642
 30
0.0
 10
11.2241691072
 20
8.2110682055
 30
0.0
 10
11.2462574311
 20
8.207905232
 30
0.0
 10
11.268238794
 20
8.2036679185
 30
0.0
 10
11.2900602709
 20
8.1983665155
 30
0.0
 10
11.3116693262
 20
8.1920138259
 30
0.0
 10
11.3330139337
 20
8.184625169
 30
0.0
 10
11.3540427165
 20
8.1762183747
 30
0.0
 10
11.3747050546
 20
8.1668137349
 30
0.0
 10
11.3949512492
 20
8.1564338945
 30
0.0
 10
11.4147324561
 20
8.1451039614
 30
0.0
 10
11.4340014935
 20
8.1328508509
 30
0.0
 10
11.4589560479
 20
8.1153170424
 30
0.0
 10
11.4886337729
 20
8.091245562
 30
0.0
 10
11.5159971787
 20
8.0645452423
 30
0.0
 10
11.5363540894
 20
8.0417519802
 30
0.0
 10
11.5508197207
 20
8.0239796393
 30
0.0
 10
11.5644449614
 20
8.0055763406
 30
0.0
 10
11.5771974243
 20
7.9865859849
 30
0.0
 10
11.589046284
 20
7.9670543792
 30
0.0
 10
11.5999630161
 20
7.9470284951
 30
0.0
 10
11.609921318
 20
7.9265565426
 30
0.0
 10
11.6188972068
 20
7.9056877981
 30
0.0
 10
11.6268690504
 20
7.8844724912
 30
0.0
 10
11.6338176216
 20
7.8629616842
 30
0.0
 10
11.6397261386
 20
7.841207161
 30
0.0
 10
11.6445803545
 20
7.8192612582
 30
0.0
 10
11.6483684792
 20
7.7971769388
 30
0.0
 10
11.6510815147
 20
7.7750070075
 30
0.0
 10
11.6527126342
 20
7.7528057715
 30
0.0
 10
11.6530768917
 20
7.7379927819
 30
0.0
 10
11.6530768917
 20
7.7306001507
 30
0.0
  0
SPLINE
  5
3B0
100
AcDbEntity
  8
0
100
AcDbSpline
 62
7
  6
CONTINUOUS
 70
0
 71
3
 72
39
 73
35
 74
0
 42
0.0000001
 43
0.0000001
 44
0.0000000001
 40
0.0
 40
0.0
 40
0.0
 40
0.0
 40
0.0311159281
 40
0.0620233527
 40
0.0927351369
 40
0.1232711779
 40
0.1536587327
 40
0.183931211
 40
0.2141268396
 40
0.2442870991
 40
0.2744549758
 40
0.3046731313
 40
0.3349820901
 40
0.365418544
 40
0.3960138648
 40
0.4267928817
 40
0.4577729978
 40
0.4889636202
 40
0.5203659698
 40
0.5519731786
 40
0.5837707184
 40
0.6157370646
 40
0.6478445903
 40
0.6800606407
 40
0.712348731
 40
0.7446698627
 40
0.7769838849
 40
0.8092508934
 40
0.8414326252
 40
0.8734938006
 40
0.9054034144
 40
0.9371358797
 40
0.9686718386
 40
1.0
 40
1.0
 40
1.0
 40
1.0
 10
8.9378593708
 20
7.2553100083
 30
0.0
 10
8.9378593708
 20
7.2464928206
 30
0.0
 10
8.9369985596
 20
7.2289047742
 30
0.0
 10
8.9331056682
 20
7.2028743425
 30
0.0
 10
8.9266519673
 20
7.1775239057
 30
0.0
 10
8.9176987212
 20
7.1531014708
 30
0.0
 10
8.9063315041
 20
7.1298423617
 30
0.0
 10
8.8926594357
 20
7.107971954
 30
0.0
 10
8.8768143054
 20
7.0877019453
 30
0.0
 10
8.8589490403
 20
7.0692287776
 30
0.0
 10
8.839236585
 20
7.0527311716
 30
0.0
 10
8.8178677131
 20
7.0383687598
 30
0.0
 10
8.7950494731
 20
7.0262800093
 30
0.0
 10
8.771002746
 20
7.0165812884
 30
0.0
 10
8.7459601908
 20
7.0093654898
 30
0.0
 10
8.72016381
 20
7.0047013039
 30
0.0
 10
8.6938625666
 20
7.0026327776
 30
0.0
 10
8.667309977
 20
7.0031786588
 30
0.0
 10
8.640761666
 20
7.0063328213
 30
0.0
 10
8.6144729158
 20
7.0120638134
 30
0.0
 10
8.5886963243
 20
7.0203158175
 30
0.0
 10
8.5636793524
 20
7.0310087374
 30
0.0
 10
8.5396620751
 20
7.0440393202
 30
0.0
 10
8.5168749257
 20
7.0592820312
 30
0.0
 10
8.4955364464
 20
7.0765901769
 30
0.0
 10
8.4758514462
 20
7.0957975475
 30
0.0
 10
8.4580087491
 20
7.1167196238
 30
0.0
 10
8.4421798231
 20
7.139155733
 30
0.0
 10
8.428516728
 20
7.1628905285
 30
0.0
 10
8.4171510588
 20
7.1876964245
 30
0.0
 10
8.4081924271
 20
7.2133351379
 30
0.0
 10
8.4017275294
 20
7.2395614339
 30
0.0
 10
8.3978192463
 20
7.2661201311
 30
0.0
 10
8.3969408761
 20
7.2839455059
 30
0.0
 10
8.3969408761
 20
7.2928228333
 30
0.0
  0
SPLINE
  5
3B1
100
AcDbEntity
  8
0
100
AcDbSpline
 62
7
  6
CONTINUOUS
 70
0
 71
3
 72
39
 73
35
 74
0
 42
0.0000001
 43
0.0000001
 44
0.0000000001
 40
0.0
 40
0.0
 40
0.0
 40
0.0
 40
0.0311159281
 40
0.0620233527
 40
0.0927351369
 40
0.1232711779
 40
0.1536587327
 40
0.183931211
 40
0.2141268396
 40
0.2442870991
 40
0.2744549758
 40
0.3046731313
 40
0.3349820901
 40
0.365418544
 40
0.3960138648
 40
0.4267928817
 40
0.4577729978
 40
0.4889636202
 40
0.5203659698
 40
0.5519731786
 40
0.5837707184
 40
0.6157370646
 40
0.6478445903
 40
0.6800606407
 40
0.712348731
 40
0.7446698627
 40
0.7769838849
 40
0.8092508934
 40
0.8414326252
 40
0.8734938006
 40
0.9054034144
 40
0.9371358797
 40
0.9686718386
 40
1.0
 40
1.0
 40
1.0
 40
1.0
 10
8.3969408761
 20
7.2928228333
 30
0.0
 10
8.3969408761
 20
7.301640021
 30
0.0
 10
8.3978016873
 20
7.3192280674
 30
0.0
 10
8.4016945787
 20
7.3452584991
 30
0.0
 10
8.4081482797
 20
7.3706089359
 30
0.0
 10
8.4171015257
 20
7.3950313709
 30
0.0
 10
8.4284687428
 20
7.4182904799
 30
0.0
 10
8.4421408112
 20
7.4401608876
 30
0.0
 10
8.4579859415
 20
7.4604308963
 30
0.0
 10
8.4758512066
 20
7.478904064
 30
0.0
 10
8.4955636619
 20
7.49540167
 30
0.0
 10
8.5169325338
 20
7.5097640818
 30
0.0
 10
8.5397507738
 20
7.5218528323
 30
0.0
 10
8.563797501
 20
7.5315515533
 30
0.0
 10
8.5888400561
 20
7.5387673519
 30
0.0
 10
8.6146364369
 20
7.5434315378
 30
0.0
 10
8.6409376804
 20
7.545500064
 30
0.0
 10
8.66749027
 20
7.5449541828
 30
0.0
 10
8.6940385809
 20
7.5418000203
 30
0.0
 10
8.7203273311
 20
7.5360690283
 30
0.0
 10
8.7461039226
 20
7.5278170241
 30
0.0
 10
8.7711208945
 20
7.5171241042
 30
0.0
 10
8.7951381718
 20
7.5040935214
 30
0.0
 10
8.8179253213
 20
7.4888508105
 30
0.0
 10
8.8392638006
 20
7.4715426647
 30
0.0
 10
8.8589488007
 20
7.4523352942
 30
0.0
 10
8.8767914979
 20
7.4314132178
 30
0.0
 10
8.8926204238
 20
7.4089771086
 30
0.0
 10
8.906283519
 20
7.3852423131
 30
0.0
 10
8.9176491881
 20
7.3604364171
 30
0.0
 10
8.9266078198
 20
7.3347977037
 30
0.0
 10
8.9330727175
 20
7.3085714077
 30
0.0
 10
8.9369810007
 20
7.2820127105
 30
0.0
 10
8.9378593708
 20
7.2641873357
 30
0.0
 10
8.9378593708
 20
7.2553100083
 30
0.0
  0
SPLINE
  5
3B2
100
AcDbEntity
  8
0
100
AcDbSpline
 62
7
  6
CONTINUOUS
 70
0
 71
3
 72
60
 73
56
 74
0
 42
0.0000001
 43
0.0000001
 44
0.0000000001
 40
0.0
 40
0.0
 40
0.0
 40
0.0
 40
0.0081223406
 40
0.0169168431
 40
0.0264086323
 40
0.0366142687
 40
0.0475414355
 40
0.0591910158
 40
0.0715584107
 40
0.0846344949
 40
0.0984062802
 40
0.1128573064
 40
0.1279683357
 40
0.1437174554
 40
0.1600804353
 40
0.1770310661
 40
0.1945411268
 40
0.2125807894
 40
0.2501207279
 40
0.2893847263
 40
0.3300867172
 40
0.371925751
 40
0.4145894152
 40
0.4577571198
 40
0.5011033266
 40
0.5443007676
 40
0.587023623
 40
0.6289507091
 40
0.6697687274
 40
0.7091755587
 40
0.746883655
 40
0.7650162944
 40
0.7826249702
 40
0.7996794705
 40
0.816151351
 40
0.8320139955
 40
0.8472427493
 40
0.8618153589
 40
0.8757119742
 40
0.8889156572
 40
0.9014127819
 40
0.9131933641
 40
0.9242520195
 40
0.9345885809
 40
0.9442093339
 40
0.9531286836
 40
0.9613709339
 40
0.9689732146
 40
0.9759886454
 40
0.9824900322
 40
0.9885734237
 40
0.9914974427
 40
0.9943641479
 40
0.9971919194
 40
1.0
 40
1.0
 40
1.0
 40
1.0
 10
9.3496231806
 20
10.5053767701
 30
0.0
 10
9.3504759565
 20
10.5062004885
 30
0.0
 10
9.352332522
 20
10.5078338611
 30
0.0
 10
9.3554142588
 20
10.510154568
 30
0.0
 10
9.358894516
 20
10.512436454
 30
0.0
 10
9.3627662434
 20
10.5146751188
 30
0.0
 10
9.3670221677
 20
10.516866541
 30
0.0
 10
9.3716540296
 20
10.5190063495
 30
0.0
 10
9.3766527111
 20
10.5210903573
 30
0.0
 10
9.3820083233
 20
10.5231143843
 30
0.0
 10
9.3877102129
 20
10.5250743098
 30
0.0
 10
9.393746966
 20
10.5269662074
 30
0.0
 10
9.4001064811
 20
10.5287861934
 30
0.0
 10
9.4067759702
 20
10.5305305756
 30
0.0
 10
9.4137420019
 20
10.5321958215
 30
0.0
 10
9.4209905331
 20
10.5337784927
 30
0.0
 10
9.4285069458
 20
10.535275433
 30
0.0
 10
9.4390054449
 20
10.5371781278
 30
0.0
 10
9.4526874588
 20
10.5393095047
 30
0.0
 10
9.4697082374
 20
10.5414498116
 30
0.0
 10
9.4874053719
 20
10.5431877146
 30
0.0
 10
9.505635884
 20
10.5445089355
 30
0.0
 10
9.524252605
 20
10.5454025702
 30
0.0
 10
9.5431051247
 20
10.5458612597
 30
0.0
 10
9.5620411099
 20
10.5458812366
 30
0.0
 10
9.5809075364
 20
10.5454623388
 30
0.0
 10
9.5995519566
 20
10.5446080131
 30
0.0
 10
9.6178237308
 20
10.5433252792
 30
0.0
 10
9.6355753478
 20
10.5416247248
 30
0.0
 10
9.6526633855
 20
10.5395203209
 30
0.0
 10
9.6664095536
 20
10.5374182429
 30
0.0
 10
9.676965473
 20
10.5355382196
 30
0.0
 10
9.6845289904
 20
10.5340572282
 30
0.0
 10
9.6918273441
 20
10.5324899045
 30
0.0
 10
9.6988458194
 20
10.5308394332
 30
0.0
 10
9.7055702613
 20
10.5291091924
 30
0.0
 10
9.7119871211
 20
10.5273026692
 30
0.0
 10
9.7180835006
 20
10.5254235853
 30
0.0
 10
9.7238471609
 20
10.523475731
 30
0.0
 10
9.7292665681
 20
10.5214630579
 30
0.0
 10
9.7343309311
 20
10.5193896673
 30
0.0
 10
9.7390301983
 20
10.5172596698
 30
0.0
 10
9.7433551431
 20
10.515077342
 30
0.0
 10
9.7472973478
 20
10.5128469302
 30
0.0
 10
9.7508492228
 20
10.5105726294
 30
0.0
 10
9.7540040711
 20
10.5082586101
 30
0.0
 10
9.7567559263
 20
10.5059086684
 30
0.0
 10
9.7590995085
 20
10.5035263876
 30
0.0
 10
9.7610299193
 20
10.5011146485
 30
0.0
 10
9.7625418492
 20
10.4986766939
 30
0.0
 10
9.7634602908
 20
10.4965974004
 30
0.0
 10
9.7639676711
 20
10.4949383035
 30
0.0
 10
9.7642363363
 20
10.4937077102
 30
0.0
 10
9.7643976353
 20
10.4924756449
 30
0.0
 10
9.7644335271
 20
10.49165252
 30
0.0
 10
9.7644335296
 20
10.4912426174
 30
0.0
  0
SPLINE
  5
3B3
100
AcDbEntity
  8
0
100
AcDbSpline
 62
7
  6
CONTINUOUS
 70
0
 71
3
 72
15
 73
11
 74
0
 42
0.0000001
 43
0.0000001
 44
0.0000000001
 40
0.0
 40
0.0
 40
0.0
 40
0.0
 40
0.1098906522
 40
0.2214015324
 40
0.3360758406
 40
0.455320507
 40
0.5803741139
 40
0.712293262
 40
0.8519441752
 40
1.0
 40
1.0
 40
1.0
 40
1.0
 10
9.3424335545
 20
10.4912423297
 30
0.0
 10
9.3424335508
 20
10.4918391288
 30
0.0
 10
9.342510161
 20
10.493042879
 30
0.0
 10
9.3428538127
 20
10.4948398617
 30
0.0
 10
9.3434251988
 20
10.4966311861
 30
0.0
 10
9.3442227381
 20
10.4984141779
 30
0.0
 10
9.3452447166
 20
10.5001871103
 30
0.0
 10
9.3464894074
 20
10.5019484496
 30
0.0
 10
9.3479549403
 20
10.5036965345
 30
0.0
 10
9.3490448508
 20
10.5048181464
 30
0.0
 10
9.3496231806
 20
10.5053767701
 30
0.0
  0
SPLINE
  5
3B4
100
AcDbEntity
  8
0
100
AcDbSpline
 62
7
  6
CONTINUOUS
 70
0
 71
3
 72
15
 73
11
 74
0
 42
0.0000001
 43
0.0000001
 44
0.0000000001
 40
0.0
 40
0.0
 40
0.0
 40
0.0
 40
0.1098906522
 40
0.2214015324
 40
0.3360758406
 40
0.455320507
 40
0.5803741139
 40
0.712293262
 40
0.8519441752
 40
1.0
 40
1.0
 40
1.0
 40
1.0
 10
12.2355664704
 20
9.2857942977
 30
0.0
 10
12.2355664668
 20
9.2863910968
 30
0.0
 10
12.2356430769
 20
9.2875948469
 30
0.0
 10
12.2359867287
 20
9.2893918296
 30
0.0
 10
12.2365581147
 20
9.2911831541
 30
0.0
 10
12.2373556541
 20
9.2929661459
 30
0.0
 10
12.2383776325
 20
9.2947390783
 30
0.0
 10
12.2396223233
 20
9.2965004176
 30
0.0
 10
12.2410878563
 20
9.2982485025
 30
0.0
 10
12.2421777668
 20
9.2993701144
 30
0.0
 10
12.2427560965
 20
9.2999287381
 30
0.0
  0
SPLINE
  5
3B5
100
AcDbEntity
  8
0
100
AcDbSpline
 62
7
  6
CONTINUOUS
 70
0
 71
3
 72
23
 73
19
 74
0
 42
0.0000001
 43
0.0000001
 44
0.0000000001
 40
0.0
 40
0.0
 40
0.0
 40
0.0
 40
0.0749628051
 40
0.1455694763
 40
0.2121612381
 40
0.2751647772
 40
0.3350999254
 40
0.3925851505
 40
0.4483313412
 40
0.5031255342
 40
0.5577999583
 40
0.6131929736
 40
0.6701081672
 40
0.729279347
 40
0.7913525608
 40
0.8568785119
 40
0.9263106069
 40
1.0
 40
1.0
 40
1.0
 40
1.0
 10
9.2963652847
 20
9.7340841891
 30
0.0
 10
9.2955567308
 20
9.734836626
 30
0.0
 10
9.294031436
 20
9.7363472598
 30
0.0
 10
9.2919733046
 20
9.7387040288
 30
0.0
 10
9.2902183026
 20
9.7410795074
 30
0.0
 10
9.2887689432
 20
9.7434715502
 30
0.0
 10
9.2876277618
 20
9.7458781196
 30
0.0
 10
9.2867971909
 20
9.7482966869
 30
0.0
 10
9.2862797091
 20
9.7507241911
 30
0.0
 10
9.2860770019
 20
9.7531567523
 30
0.0
 10
9.2861900179
 20
9.7555899645
 30
0.0
 10
9.2866181621
 20
9.7580193374
 30
0.0
 10
9.2873600093
 20
9.7604407806
 30
0.0
 10
9.2884131176
 20
9.7628510319
 30
0.0
 10
9.2897751441
 20
9.7652474232
 30
0.0
 10
9.2914435671
 20
9.7676278893
 30
0.0
 10
9.2934158234
 20
9.7699901165
 30
0.0
 10
9.2948859988
 20
9.7715047094
 30
0.0
 10
9.2956669206
 20
9.7722590221
 30
0.0
  0
SPLINE
  5
3B6
100
AcDbEntity
  8
0
100
AcDbSpline
 62
7
  6
CONTINUOUS
 70
0
 71
3
 72
71
 73
67
 74
0
 42
0.0000001
 43
0.0000001
 44
0.0000000001
 40
0.0
 40
0.0
 40
0.0
 40
0.0
 40
0.0085742214
 40
0.0179224732
 40
0.0280750114
 40
0.039049891
 40
0.0508537258
 40
0.0634846799
 40
0.0769341021
 40
0.0911876129
 40
0.1062259615
 40
0.1220257693
 40
0.138560087
 40
0.155798762
 40
0.1737087663
 40
0.1922545648
 40
0.211398354
 40
0.2311002227
 40
0.2513184054
 40
0.2720094948
 40
0.3146282737
 40
0.3585834848
 40
0.403484734
 40
0.4489304537
 40
0.4945127297
 40
0.5398220674
 40
0.5844521475
 40
0.6280045662
 40
0.6492560999
 40
0.6700949201
 40
0.6904756422
 40
0.7103543453
 40
0.7296886983
 40
0.7484381401
 40
0.7665641462
 40
0.7840304031
 40
0.8008030142
 40
0.8168508231
 40
0.832145782
 40
0.84666327
 40
0.8603825802
 40
0.8732876341
 40
0.8853677472
 40
0.8966186564
 40
0.9070440257
 40
0.9166574944
 40
0.9211683078
 40
0.9254872882
 40
0.9296202838
 40
0.9335745256
 40
0.9373586399
 40
0.9409829451
 40
0.9477984723
 40
0.9510243605
 40
0.9541513511
 40
0.9571998183
 40
0.9601919778
 40
0.9631514278
 40
0.9661026354
 40
0.9690702981
 40
0.9720786722
 40
0.9751509507
 40
0.9783087204
 40
0.9849529735
 40
0.9921503506
 40
1.0
 40
1.0
 40
1.0
 40
1.0
 10
12.1634145846
 20
10.0422907181
 30
0.0
 10
12.1646536359
 20
10.0434875499
 30
0.0
 10
12.1673718721
 20
10.0458581273
 30
0.0
 10
12.1719153376
 20
10.0492089721
 30
0.0
 10
12.1770855372
 20
10.0524971868
 30
0.0
 10
12.182870219
 20
10.0557153202
 30
0.0
 10
12.1892565454
 20
10.0588563304
 30
0.0
 10
12.1962296992
 20
10.0619128959
 30
0.0
 10
12.2037734198
 20
10.0648778003
 30
0.0
 10
12.2118699469
 20
10.0677439167
 30
0.0
 10
12.2205000768
 20
10.0705043555
 30
0.0
 10
12.2296432553
 20
10.0731524429
 30
0.0
 10
12.239277651
 20
10.0756817482
 30
0.0
 10
12.2493802028
 20
10.0780861294
 30
0.0
 10
12.2599266819
 20
10.0803597668
 30
0.0
 10
12.2708917749
 20
10.0824971395
 30
0.0
 10
12.282249148
 20
10.0844930479
 30
0.0
 10
12.2939714925
 20
10.0863426512
 30
0.0
 10
12.306030638
 20
10.0880415039
 30
0.0
 10
12.3226839717
 20
10.090120463
 30
0.0
 10
12.3441277578
 20
10.0923023126
 30
0.0
 10
12.3704750419
 20
10.0942403325
 30
0.0
 10
12.3974318345
 20
10.0955039645
 30
0.0
 10
12.4247388895
 20
10.0960808696
 30
0.0
 10
12.4521337612
 20
10.0959653676
 30
0.0
 10
12.4793531348
 20
10.095158589
 30
0.0
 10
12.5061352106
 20
10.0936684371
 30
0.0
 10
12.5280503603
 20
10.091855016
 30
0.0
 10
12.5451644302
 20
10.0900650001
 30
0.0
 10
12.5576273701
 20
10.0885735453
 30
0.0
 10
12.5697923532
 20
10.0869259133
 30
0.0
 10
12.5816301406
 20
10.0851260831
 30
0.0
 10
12.5931122539
 20
10.0831784255
 30
0.0
 10
12.6042110856
 20
10.0810876479
 30
0.0
 10
12.6148999705
 20
10.0788588354
 30
0.0
 10
12.6251532493
 20
10.0764974042
 30
0.0
 10
12.6349463231
 20
10.074009076
 30
0.0
 10
12.6442557325
 20
10.0713998815
 30
0.0
 10
12.6530592311
 20
10.0686761641
 30
0.0
 10
12.6613358333
 20
10.0658445196
 30
0.0
 10
12.6690658725
 20
10.0629117657
 30
0.0
 10
12.6762311091
 20
10.05988495
 30
0.0
 10
12.6828147377
 20
10.0567712933
 30
0.0
 10
12.6888016075
 20
10.0535780232
 30
0.0
 10
12.6941776994
 20
10.0503125142
 30
0.0
 10
12.6982211231
 20
10.0474795338
 30
0.0
 10
12.7011254342
 20
10.0451767606
 30
0.0
 10
12.7030965626
 20
10.0434732022
 30
0.0
 10
12.7049058948
 20
10.0417573339
 30
0.0
 10
12.7065523465
 20
10.0400301797
 30
0.0
 10
12.7080350375
 20
10.0382923703
 30
0.0
 10
12.7097565296
 20
10.0360099686
 30
0.0
 10
12.7111974058
 20
10.0336596987
 30
0.0
 10
12.7123082693
 20
10.031255808
 30
0.0
 10
12.7129582545
 20
10.0294798273
 30
0.0
 10
12.7134392862
 20
10.0276993337
 30
0.0
 10
12.7137509007
 20
10.025915517
 30
0.0
 10
12.7138926602
 20
10.0241297588
 30
0.0
 10
12.7138642827
 20
10.0223435072
 30
0.0
 10
12.7136659042
 20
10.0205582324
 30
0.0
 10
12.7132977657
 20
10.0187753785
 30
0.0
 10
12.7127602803
 20
10.0169962303
 30
0.0
 10
12.7118029417
 20
10.0145903867
 30
0.0
 10
12.7101546282
 20
10.0115825953
 30
0.0
 10
12.7075463396
 20
10.0080777961
 30
0.0
 10
12.7054674236
 20
10.0058735855
 30
0.0
 10
12.7043330794
 20
10.0047778931
 30
0.0
  0
SPLINE
  5
3B7
100
AcDbEntity
  8
0
100
AcDbSpline
 62
7
  6
CONTINUOUS
 70
0
 71
3
 72
53
 73
49
 74
0
 42
0.0000001
 43
0.0000001
 44
0.0000000001
 40
0.0
 40
0.0
 40
0.0
 40
0.0
 40
0.0080832531
 40
0.0167337175
 40
0.025964511
 40
0.0357832706
 40
0.0461928334
 40
0.0571922729
 40
0.0687773213
 40
0.0809409436
 40
0.093673692
 40
0.106963939
 40
0.1207982587
 40
0.1351614131
 40
0.1500367865
 40
0.1654062078
 40
0.1975477843
 40
0.2314191708
 40
0.2668364142
 40
0.3036022769
 40
0.3415084079
 40
0.3803373466
 40
0.4198644247
 40
0.4598596079
 40
0.5000893023
 40
0.5403181412
 40
0.5803107646
 40
0.6198335979
 40
0.6586566392
 40
0.6965552658
 40
0.7333120763
 40
0.768718793
 40
0.8025782664
 40
0.8347066487
 40
0.8500690317
 40
0.864937094
 40
0.8792926862
 40
0.8931192098
 40
0.9064014546
 40
0.9191260181
 40
0.9312813045
 40
0.9428578849
 40
0.9538487817
 40
0.9642497955
 40
0.9740599875
 40
0.9832821528
 40
0.991924326
 40
1.0
 40
1.0
 40
1.0
 40
1.0
 10
9.7674790993
 20
9.7031777661
 30
0.0
 10
9.7666169069
 20
9.7038901723
 30
0.0
 10
9.7647798607
 20
9.7053025479
 30
0.0
 10
9.761805967
 20
9.7073210998
 30
0.0
 10
9.7585263865
 20
9.7093074936
 30
0.0
 10
9.754946188
 20
9.7112585998
 30
0.0
 10
9.7510707499
 20
9.7131715826
 30
0.0
 10
9.7469059839
 20
9.7150434649
 30
0.0
 10
9.7424582835
 20
9.7168713729
 30
0.0
 10
9.7377345112
 20
9.7186524538
 30
0.0
 10
9.7327419814
 20
9.7203839059
 30
0.0
 10
9.7274884544
 20
9.7220630366
 30
0.0
 10
9.7219821044
 20
9.7236871666
 30
0.0
 10
9.7162315263
 20
9.7252537806
 30
0.0
 10
9.7102456867
 20
9.7267603803
 30
0.0
 10
9.7018374802
 20
9.7287152097
 30
0.0
 10
9.6908051963
 20
9.7309812356
 30
0.0
 10
9.6769768478
 20
9.7333878048
 30
0.0
 10
9.6624544926
 20
9.7355052177
 30
0.0
 10
9.6473290141
 20
9.737320018
 30
0.0
 10
9.6316949683
 20
9.7388206286
 30
0.0
 10
9.6156502181
 20
9.7399975018
 30
0.0
 10
9.5992952272
 20
9.7408431513
 30
0.0
 10
9.5827324367
 20
9.741352202
 30
0.0
 10
9.5660656057
 20
9.7415214194
 30
0.0
 10
9.5493991542
 20
9.7413497284
 30
0.0
 10
9.5328374995
 20
9.7408382198
 30
0.0
 10
9.5164843938
 20
9.7399901437
 30
0.0
 10
9.5004422659
 20
9.7388108907
 30
0.0
 10
9.4848115631
 20
9.7373079623
 30
0.0
 10
9.4696901269
 20
9.7354909209
 30
0.0
 10
9.4551724874
 20
9.733371358
 30
0.0
 10
9.4413494977
 20
9.7309627438
 30
0.0
 10
9.4303220936
 20
9.7286950548
 30
0.0
 10
9.4219180971
 20
9.7267389456
 30
0.0
 10
9.4159356073
 20
9.725231457
 30
0.0
 10
9.410188512
 20
9.7236639903
 30
0.0
 10
9.4046857726
 20
9.7220390428
 30
0.0
 10
9.3994359775
 20
9.7203591341
 30
0.0
 10
9.3944472954
 20
9.7186269405
 30
0.0
 10
9.389727481
 20
9.7168451601
 30
0.0
 10
9.3852838416
 20
9.7150165939
 30
0.0
 10
9.3811232281
 20
9.7131440956
 30
0.0
 10
9.3772520349
 20
9.7112305297
 30
0.0
 10
9.3736761782
 20
9.709278896
 30
0.0
 10
9.3704010005
 20
9.707292034
 30
0.0
 10
9.3674315257
 20
9.7052729995
 30
0.0
 10
9.3655975308
 20
9.70386025
 30
0.0
 10
9.3647368553
 20
9.7031476552
 30
0.0
  0
SPLINE
  5
3B8
100
AcDbEntity
  8
0
100
AcDbSpline
 62
7
  6
CONTINUOUS
 70
0
 71
3
 72
17
 73
13
 74
0
 42
0.0000001
 43
0.0000001
 44
0.0000000001
 40
0.0
 40
0.0
 40
0.0
 40
0.0
 40
0.126656299
 40
0.252799928
 40
0.378440867
 40
0.4410855281
 40
0.5036117417
 40
0.6283085394
 40
0.7525770114
 40
0.814569483
 40
0.8764694961
 40
1.0
 40
1.0
 40
1.0
 40
1.0
 10
10.5364664377
 20
7.1444462317
 30
0.0
 10
10.5364664377
 20
7.1356342805
 30
0.0
 10
10.5359507494
 20
7.1180414696
 30
0.0
 10
10.5336218381
 20
7.0918006805
 30
0.0
 10
10.5303892042
 20
7.070150225
 30
0.0
 10
10.52703519
 20
7.0530233711
 30
0.0
 10
10.5231802983
 20
7.0360695597
 30
0.0
 10
10.5174168904
 20
7.0151636367
 30
0.0
 10
10.5104002837
 20
6.9946834025
 30
0.0
 10
10.5040561223
 20
6.9786230396
 30
0.0
 10
10.4972407312
 20
6.9628134477
 30
0.0
 10
10.4915853175
 20
6.9512058884
 30
0.0
 10
10.4875824154
 20
6.943600507
 30
0.0
  0
SPLINE
  5
3B9
100
AcDbEntity
  8
0
100
AcDbSpline
 62
7
  6
CONTINUOUS
 70
0
 71
3
 72
23
 73
19
 74
0
 42
0.0000001
 43
0.0000001
 44
0.0000000001
 40
0.0
 40
0.0
 40
0.0
 40
0.0
 40
0.0749628051
 40
0.1455694763
 40
0.2121612381
 40
0.2751647772
 40
0.3350999254
 40
0.3925851505
 40
0.4483313412
 40
0.5031255342
 40
0.5577999583
 40
0.6131929736
 40
0.6701081672
 40
0.729279347
 40
0.7913525608
 40
0.8568785119
 40
0.9263106069
 40
1.0
 40
1.0
 40
1.0
 40
1.0
 10
12.1641129486
 20
10.0041158851
 30
0.0
 10
12.1633043947
 20
10.004868322
 30
0.0
 10
12.1617791
 20
10.0063789559
 30
0.0
 10
12.1597209685
 20
10.0087357248
 30
0.0
 10
12.1579659666
 20
10.0111112034
 30
0.0
 10
12.1565166071
 20
10.0135032463
 30
0.0
 10
12.1553754258
 20
10.0159098156
 30
0.0
 10
12.1545448549
 20
10.0183283829
 30
0.0
 10
12.1540273731
 20
10.0207558871
 30
0.0
 10
12.1538246658
 20
10.0231884483
 30
0.0
 10
12.1539376819
 20
10.0256216605
 30
0.0
 10
12.1543658261
 20
10.0280510334
 30
0.0
 10
12.1551076732
 20
10.0304724766
 30
0.0
 10
12.1561607816
 20
10.0328827279
 30
0.0
 10
12.157522808
 20
10.0352791192
 30
0.0
 10
12.1591912311
 20
10.0376595853
 30
0.0
 10
12.1611634873
 20
10.0400218125
 30
0.0
 10
12.1626336627
 20
10.0415364054
 30
0.0
 10
12.1634145846
 20
10.0422907181
 30
0.0
  0
SPLINE
  5
3BA
100
AcDbEntity
  8
0
100
AcDbSpline
 62
7
  6
CONTINUOUS
 70
0
 71
3
 72
60
 73
56
 74
0
 42
0.0000001
 43
0.0000001
 44
0.0000000001
 40
0.0
 40
0.0
 40
0.0
 40
0.0
 40
0.0081223406
 40
0.0169168431
 40
0.0264086323
 40
0.0366142687
 40
0.0475414355
 40
0.0591910158
 40
0.0715584107
 40
0.0846344949
 40
0.0984062802
 40
0.1128573064
 40
0.1279683357
 40
0.1437174554
 40
0.1600804353
 40
0.1770310661
 40
0.1945411268
 40
0.2125807894
 40
0.2501207279
 40
0.2893847263
 40
0.3300867172
 40
0.371925751
 40
0.4145894152
 40
0.4577571198
 40
0.5011033266
 40
0.5443007676
 40
0.587023623
 40
0.6289507091
 40
0.6697687274
 40
0.7091755587
 40
0.746883655
 40
0.7650162944
 40
0.7826249702
 40
0.7996794705
 40
0.816151351
 40
0.8320139955
 40
0.8472427493
 40
0.8618153589
 40
0.8757119742
 40
0.8889156572
 40
0.9014127819
 40
0.9131933641
 40
0.9242520195
 40
0.9345885809
 40
0.9442093339
 40
0.9531286836
 40
0.9613709339
 40
0.9689732146
 40
0.9759886454
 40
0.9824900322
 40
0.9885734237
 40
0.9914974427
 40
0.9943641479
 40
0.9971919194
 40
1.0
 40
1.0
 40
1.0
 40
1.0
 10
12.2427560965
 20
9.2999287381
 30
0.0
 10
12.2436088725
 20
9.3007524565
 30
0.0
 10
12.2454654379
 20
9.3023858291
 30
0.0
 10
12.2485471747
 20
9.304706536
 30
0.0
 10
12.252027432
 20
9.306988422
 30
0.0
 10
12.2558991594
 20
9.3092270868
 30
0.0
 10
12.2601550837
 20
9.311418509
 30
0.0
 10
12.2647869455
 20
9.3135583175
 30
0.0
 10
12.2697856271
 20
9.3156423253
 30
0.0
 10
12.2751412393
 20
9.3176663522
 30
0.0
 10
12.2808431288
 20
9.3196262778
 30
0.0
 10
12.286879882
 20
9.3215181754
 30
0.0
 10
12.293239397
 20
9.3233381614
 30
0.0
 10
12.2999088861
 20
9.3250825436
 30
0.0
 10
12.3068749179
 20
9.3267477895
 30
0.0
 10
12.3141234491
 20
9.3283304607
 30
0.0
 10
12.3216398617
 20
9.3298274009
 30
0.0
 10
12.3321383609
 20
9.3317300958
 30
0.0
 10
12.3458203747
 20
9.3338614727
 30
0.0
 10
12.3628411533
 20
9.3360017796
 30
0.0
 10
12.3805382879
 20
9.3377396825
 30
0.0
 10
12.3987688
 20
9.3390609035
 30
0.0
 10
12.417385521
 20
9.3399545382
 30
0.0
 10
12.4362380407
 20
9.3404132277
 30
0.0
 10
12.4551740258
 20
9.3404332046
 30
0.0
 10
12.4740404523
 20
9.3400143068
 30
0.0
 10
12.4926848726
 20
9.3391599811
 30
0.0
 10
12.5109566468
 20
9.3378772472
 30
0.0
 10
12.5287082638
 20
9.3361766928
 30
0.0
 10
12.5457963015
 20
9.3340722889
 30
0.0
 10
12.5595424696
 20
9.3319702109
 30
0.0
 10
12.5700983889
 20
9.3300901876
 30
0.0
 10
12.5776619064
 20
9.3286091961
 30
0.0
 10
12.58496026
 20
9.3270418725
 30
0.0
 10
12.5919787353
 20
9.3253914012
 30
0.0
 10
12.5987031772
 20
9.3236611604
 30
0.0
 10
12.6051200371
 20
9.3218546372
 30
0.0
 10
12.6112164166
 20
9.3199755533
 30
0.0
 10
12.6169800769
 20
9.3180276989
 30
0.0
 10
12.6223994841
 20
9.3160150259
 30
0.0
 10
12.627463847
 20
9.3139416352
 30
0.0
 10
12.6321631142
 20
9.3118116378
 30
0.0
 10
12.6364880591
 20
9.30962931
 30
0.0
 10
12.6404302638
 20
9.3073988982
 30
0.0
 10
12.6439821387
 20
9.3051245974
 30
0.0
 10
12.647136987
 20
9.3028105781
 30
0.0
 10
12.6498888423
 20
9.3004606364
 30
0.0
 10
12.6522324245
 20
9.2980783556
 30
0.0
 10
12.6541628353
 20
9.2956666165
 30
0.0
 10
12.6556747651
 20
9.2932286619
 30
0.0
 10
12.6565932067
 20
9.2911493684
 30
0.0
 10
12.657100587
 20
9.2894902715
 30
0.0
 10
12.6573692523
 20
9.2882596782
 30
0.0
 10
12.6575305512
 20
9.2870276128
 30
0.0
 10
12.657566443
 20
9.286204488
 30
0.0
 10
12.6575664455
 20
9.2857945854
 30
0.0
  0
SPLINE
  5
3BB
100
AcDbEntity
  8
0
100
AcDbSpline
 62
7
  6
CONTINUOUS
 70
0
 71
3
 72
53
 73
49
 74
0
 42
0.0000001
 43
0.0000001
 44
0.0000000001
 40
0.0
 40
0.0
 40
0.0
 40
0.0
 40
0.0080832531
 40
0.0167337175
 40
0.025964511
 40
0.0357832706
 40
0.0461928334
 40
0.0571922729
 40
0.0687773213
 40
0.0809409436
 40
0.093673692
 40
0.106963939
 40
0.1207982587
 40
0.1351614131
 40
0.1500367865
 40
0.1654062078
 40
0.1975477843
 40
0.2314191708
 40
0.2668364142
 40
0.3036022769
 40
0.3415084079
 40
0.3803373466
 40
0.4198644247
 40
0.4598596079
 40
0.5000893023
 40
0.5403181412
 40
0.5803107646
 40
0.6198335979
 40
0.6586566392
 40
0.6965552658
 40
0.7333120763
 40
0.768718793
 40
0.8025782664
 40
0.8347066487
 40
0.8500690317
 40
0.864937094
 40
0.8792926862
 40
0.8931192098
 40
0.9064014546
 40
0.9191260181
 40
0.9312813045
 40
0.9428578849
 40
0.9538487817
 40
0.9642497955
 40
0.9740599875
 40
0.9832821528
 40
0.991924326
 40
1.0
 40
1.0
 40
1.0
 40
1.0
 10
12.6352267632
 20
9.9732094621
 30
0.0
 10
12.6343645709
 20
9.9739218683
 30
0.0
 10
12.6325275246
 20
9.9753342439
 30
0.0
 10
12.6295536309
 20
9.9773527958
 30
0.0
 10
12.6262740504
 20
9.9793391896
 30
0.0
 10
12.622693852
 20
9.9812902958
 30
0.0
 10
12.6188184138
 20
9.9832032786
 30
0.0
 10
12.6146536478
 20
9.9850751609
 30
0.0
 10
12.6102059474
 20
9.9869030689
 30
0.0
 10
12.6054821751
 20
9.9886841499
 30
0.0
 10
12.6004896453
 20
9.9904156019
 30
0.0
 10
12.5952361183
 20
9.9920947326
 30
0.0
 10
12.5897297683
 20
9.9937188626
 30
0.0
 10
12.5839791902
 20
9.9952854766
 30
0.0
 10
12.5779933506
 20
9.9967920763
 30
0.0
 10
12.5695851442
 20
9.9987469057
 30
0.0
 10
12.5585528603
 20
10.0010129316
 30
0.0
 10
12.5447245117
 20
10.0034195008
 30
0.0
 10
12.5302021565
 20
10.0055369137
 30
0.0
 10
12.5150766781
 20
10.0073517141
 30
0.0
 10
12.4994426323
 20
10.0088523246
 30
0.0
 10
12.483397882
 20
10.0100291978
 30
0.0
 10
12.4670428912
 20
10.0108748473
 30
0.0
 10
12.4504801006
 20
10.0113838981
 30
0.0
 10
12.4338132697
 20
10.0115531154
 30
0.0
 10
12.4171468181
 20
10.0113814244
 30
0.0
 10
12.4005851635
 20
10.0108699158
 30
0.0
 10
12.3842320577
 20
10.0100218397
 30
0.0
 10
12.3681899299
 20
10.0088425867
 30
0.0
 10
12.352559227
 20
10.0073396583
 30
0.0
 10
12.3374377909
 20
10.0055226169
 30
0.0
 10
12.3229201513
 20
10.003403054
 30
0.0
 10
12.3090971617
 20
10.0009944398
 30
0.0
 10
12.2980697575
 20
9.9987267508
 30
0.0
 10
12.289665761
 20
9.9967706417
 30
0.0
 10
12.2836832712
 20
9.995263153
 30
0.0
 10
12.277936176
 20
9.9936956863
 30
0.0
 10
12.2724334365
 20
9.9920707388
 30
0.0
 10
12.2671836414
 20
9.9903908301
 30
0.0
 10
12.2621949593
 20
9.9886586366
 30
0.0
 10
12.2574751449
 20
9.9868768561
 30
0.0
 10
12.2530315055
 20
9.9850482899
 30
0.0
 10
12.248870892
 20
9.9831757916
 30
0.0
 10
12.2449996988
 20
9.9812622257
 30
0.0
 10
12.2414238421
 20
9.979310592
 30
0.0
 10
12.2381486645
 20
9.97732373
 30
0.0
 10
12.2351791896
 20
9.9753046955
 30
0.0
 10
12.2333451947
 20
9.973891946
 30
0.0
 10
12.2324845192
 20
9.9731793512
 30
0.0
  0
SPLINE
  5
3BC
100
AcDbEntity
  8
0
100
AcDbSpline
 62
7
  6
CONTINUOUS
 70
0
 71
3
 72
23
 73
19
 74
0
 42
0.0000001
 43
0.0000001
 44
0.0000000001
 40
0.0
 40
0.0
 40
0.0
 40
0.0
 40
0.0755961246
 40
0.1466389607
 40
0.2134646537
 40
0.2765132518
 40
0.3363252536
 40
0.3935454084
 40
0.448921428
 40
0.5032863451
 40
0.557524168
 40
0.6125254889
 40
0.6691415402
 40
0.7281473128
 40
0.7902179894
 40
0.8559226124
 40
0.9257258744
 40
1.0
 40
1.0
 40
1.0
 40
1.0
 10
13.6412811864
 20
8.3469885567
 30
0.0
 10
13.6400860966
 20
8.3458341886
 30
0.0
 10
13.6376974965
 20
8.3436659279
 30
0.0
 10
13.6340009031
 20
8.3407692607
 30
0.0
 10
13.6303086359
 20
8.3383364738
 30
0.0
 10
13.6266241039
 20
8.3363712336
 30
0.0
 10
13.6229503803
 20
8.3348770834
 30
0.0
 10
13.6192912438
 20
8.3338577145
 30
0.0
 10
13.6156514977
 20
8.3333166956
 30
0.0
 10
13.6120372099
 20
8.3332566286
 30
0.0
 10
13.6084553154
 20
8.3336783353
 30
0.0
 10
13.60491278
 20
8.3345806552
 30
0.0
 10
13.6014155777
 20
8.3359604235
 30
0.0
 10
13.5979684112
 20
8.3378137523
 30
0.0
 10
13.5945746836
 20
8.3401362598
 30
0.0
 10
13.5912372311
 20
8.3429240447
 30
0.0
 10
13.587958649
 20
8.3461728792
 30
0.0
 10
13.5858807777
 20
8.3485666521
 30
0.0
 10
13.5848507184
 20
8.3498331699
 30
0.0
  0
SPLINE
  5
3BD
100
AcDbEntity
  8
0
100
AcDbSpline
 62
7
  6
CONTINUOUS
 70
0
 71
3
 72
86
 73
82
 74
0
 42
0.0000001
 43
0.0000001
 44
0.0000000001
 40
0.0
 40
0.0
 40
0.0
 40
0.0
 40
0.0039487674
 40
0.0077209355
 40
0.0113257336
 40
0.0147746617
 40
0.0212567992
 40
0.0243283615
 40
0.0273114634
 40
0.0302283474
 40
0.0331029463
 40
0.0359603569
 40
0.0388261651
 40
0.0417257185
 40
0.0446834111
 40
0.0477221074
 40
0.0508627303
 40
0.0541239774
 40
0.0575223294
 40
0.0610720098
 40
0.0647851791
 40
0.0686721212
 40
0.0727413593
 40
0.0769999812
 40
0.0814536943
 40
0.0861070657
 40
0.0909636836
 40
0.0960261794
 40
0.1012964876
 40
0.1067757995
 40
0.1124647125
 40
0.1183633248
 40
0.1244711751
 40
0.1373102774
 40
0.1509713791
 40
0.1654378435
 40
0.1806885687
 40
0.1966985913
 40
0.2134395426
 40
0.2308800489
 40
0.2489860598
 40
0.2677211165
 40
0.2870465817
 40
0.3069218359
 40
0.3273044875
 40
0.3481505568
 40
0.3694146428
 40
0.3910500793
 40
0.4130090872
 40
0.4577012019
 40
0.5030934579
 40
0.5487792776
 40
0.5943487452
 40
0.6393932599
 40
0.6615929578
 40
0.6835111963
 40
0.7050993657
 40
0.72630983
 40
0.7470960865
 40
0.7674129149
 40
0.7872165371
 40
0.8064647867
 40
0.8251173052
 40
0.8431357374
 40
0.8604839326
 40
0.8771281811
 40
0.8930374915
 40
0.908183938
 40
0.9225430468
 40
0.9360942774
 40
0.9488216435
 40
0.954873172
 40
0.9607153084
 40
0.9663477363
 40
0.9717706546
 40
0.9769848137
 40
0.9819915562
 40
0.9867931175
 40
0.9913924783
 40
0.9957932892
 40
1.0
 40
1.0
 40
1.0
 40
1.0
 10
13.6423328038
 20
9.1786820494
 30
0.0
 10
13.6432199322
 20
9.1795076519
 30
0.0
 10
13.6449934662
 20
9.1810808893
 30
0.0
 10
13.6477146629
 20
9.1832460822
 30
0.0
 10
13.6504334267
 20
9.1851599506
 30
0.0
 10
13.6539780918
 20
9.1873293231
 30
0.0
 10
13.6575945743
 20
9.1890593598
 30
0.0
 10
13.6612493133
 20
9.190274743
 30
0.0
 10
13.6639316142
 20
9.1909128779
 30
0.0
 10
13.6666015711
 20
9.1912927491
 30
0.0
 10
13.6692573072
 20
9.1914137712
 30
0.0
 10
13.6718965746
 20
9.1912755468
 30
0.0
 10
13.6745171412
 20
9.1908782832
 30
0.0
 10
13.6771167982
 20
9.1902223366
 30
0.0
 10
13.6796935458
 20
9.1893086359
 30
0.0
 10
13.6822455971
 20
9.1881382415
 30
0.0
 10
13.6847713425
 20
9.1867123291
 30
0.0
 10
13.6872694396
 20
9.1850322934
 30
0.0
 10
13.6897385309
 20
9.1830993834
 30
0.0
 10
13.6921774283
 20
9.1809150449
 30
0.0
 10
13.6945849176
 20
9.1784807039
 30
0.0
 10
13.6969597367
 20
9.1757978415
 30
0.0
 10
13.6993007304
 20
9.1728681256
 30
0.0
 10
13.7016065799
 20
9.1696932312
 30
0.0
 10
13.703876074
 20
9.1662750474
 30
0.0
 10
13.7061079517
 20
9.1626155641
 30
0.0
 10
13.7083009026
 20
9.1587168967
 30
0.0
 10
13.7104537382
 20
9.1545813558
 30
0.0
 10
13.7125651429
 20
9.15021134
 30
0.0
 10
13.7146339183
 20
9.1456094346
 30
0.0
 10
13.7166588451
 20
9.1407783554
 30
0.0
 10
13.718638709
 20
9.1357209387
 30
0.0
 10
13.7212606223
 20
9.1285603121
 30
0.0
 10
13.7244051952
 20
9.1190569404
 30
0.0
 10
13.7279210082
 20
9.1069835808
 30
0.0
 10
13.7312307893
 20
9.0940867665
 30
0.0
 10
13.7343265592
 20
9.0803971601
 30
0.0
 10
13.7372008058
 20
9.0659471527
 30
0.0
 10
13.7398465634
 20
9.050771117
 30
0.0
 10
13.7422574135
 20
9.034905199
 30
0.0
 10
13.7444275028
 20
9.01838724
 30
0.0
 10
13.7463515601
 20
9.0012566671
 30
0.0
 10
13.7480249071
 20
8.9835544013
 30
0.0
 10
13.749443486
 20
8.9653227559
 30
0.0
 10
13.7506038527
 20
8.9466053274
 30
0.0
 10
13.7515031876
 20
8.9274468797
 30
0.0
 10
13.752139289
 20
8.9078932509
 30
0.0
 10
13.752510628
 20
8.887991187
 30
0.0
 10
13.7526521855
 20
8.8608960092
 30
0.0
 10
13.7521550812
 20
8.8265097075
 30
0.0
 10
13.7505104031
 20
8.7848706152
 30
0.0
 10
13.7478293097
 20
8.7430154494
 30
0.0
 10
13.7441374227
 20
8.701344619
 30
0.0
 10
13.7402295345
 20
8.6669396549
 30
0.0
 10
13.7366176555
 20
8.6398147422
 30
0.0
 10
13.7336940206
 20
8.6198621809
 30
0.0
 10
13.730549751
 20
8.6002506107
 30
0.0
 10
13.7271923642
 20
8.581026923
 30
0.0
 10
13.7236299407
 20
8.562237113
 30
0.0
 10
13.7198710401
 20
8.5439261189
 30
0.0
 10
13.7159246996
 20
8.52613773
 30
0.0
 10
13.7118004038
 20
8.5089144737
 30
0.0
 10
13.707508076
 20
8.4922975042
 30
0.0
 10
13.7030580504
 20
8.4763264992
 30
0.0
 10
13.6984610387
 20
8.4610395653
 30
0.0
 10
13.6937281072
 20
8.446473146
 30
0.0
 10
13.6888706408
 20
8.4326619115
 30
0.0
 10
13.6839003285
 20
8.4196386822
 30
0.0
 10
13.6788291106
 20
8.4074342286
 30
0.0
 10
13.6736691483
 20
8.3960775453
 30
0.0
 10
13.669234024
 20
8.3871987378
 30
0.0
 10
13.6656424662
 20
8.3805501471
 30
0.0
 10
13.6629796776
 20
8.3758762397
 30
0.0
 10
13.6603039377
 20
8.371433445
 30
0.0
 10
13.6576168107
 20
8.367224392
 30
0.0
 10
13.654919936
 20
8.3632515521
 30
0.0
 10
13.6522148157
 20
8.3595172769
 30
0.0
 10
13.6495030393
 20
8.3560236899
 30
0.0
 10
13.6467860784
 20
8.3527728384
 30
0.0
 10
13.6440656919
 20
8.3497668136
 30
0.0
 10
13.6422097633
 20
8.3478854932
 30
0.0
 10
13.6412811864
 20
8.3469885567
 30
0.0
  0
SPLINE
  5
3BE
100
AcDbEntity
  8
0
100
AcDbSpline
 62
7
  6
CONTINUOUS
 70
0
 71
3
 72
39
 73
35
 74
0
 42
0.0000001
 43
0.0000001
 44
0.0000000001
 40
0.0
 40
0.0
 40
0.0
 40
0.0
 40
0.0599638552
 40
0.1184521587
 40
0.1731936771
 40
0.2237134202
 40
0.2703318815
 40
0.3135598832
 40
0.3538820771
 40
0.3917061192
 40
0.4273630334
 40
0.4611207369
 40
0.4931966512
 40
0.523769329
 40
0.5529899666
 40
0.5809858754
 40
0.6078689584
 40
0.6337395015
 40
0.6586889373
 40
0.6828054508
 40
0.706174782
 40
0.7288854587
 40
0.7510305153
 40
0.7727116298
 40
0.7940425247
 40
0.8151528505
 40
0.8361917392
 40
0.8573330744
 40
0.8787773657
 40
0.9007582849
 40
0.9235435572
 40
0.9474395647
 40
0.9727943579
 40
1.0
 40
1.0
 40
1.0
 40
1.0
 10
10.9794067746
 20
7.8092602373
 30
0.0
 10
10.9806579562
 20
7.8057353945
 30
0.0
 10
10.9828871109
 20
7.798684341
 30
0.0
 10
10.9855038559
 20
7.7881969854
 30
0.0
 10
10.9874277727
 20
7.7781609089
 30
0.0
 10
10.9887472168
 20
7.7687759949
 30
0.0
 10
10.9895683126
 20
7.7600561961
 30
0.0
 10
10.9899798471
 20
7.7519447933
 30
0.0
 10
10.9900485517
 20
7.7443721122
 30
0.0
 10
10.9898229543
 20
7.7372751333
 30
0.0
 10
10.9893383003
 20
7.7306017132
 30
0.0
 10
10.9886205225
 20
7.7243101218
 30
0.0
 10
10.9876886357
 20
7.7183674723
 30
0.0
 10
10.9865563847
 20
7.7127481054
 30
0.0
 10
10.9852345249
 20
7.7074321079
 30
0.0
 10
10.9837301069
 20
7.7024045228
 30
0.0
 10
10.9820484291
 20
7.6976543998
 30
0.0
 10
10.9801928984
 20
7.6931742736
 30
0.0
 10
10.9781650997
 20
7.6889599147
 30
0.0
 10
10.9759657947
 20
7.6850098061
 30
0.0
 10
10.9735941735
 20
7.681325318
 30
0.0
 10
10.9710487335
 20
7.677910414
 30
0.0
 10
10.9683269778
 20
7.6747718104
 30
0.0
 10
10.9654255496
 20
7.6719192305
 30
0.0
 10
10.9623405637
 20
7.6693653687
 30
0.0
 10
10.959067468
 20
7.6671265129
 30
0.0
 10
10.9556012832
 20
7.6652229892
 30
0.0
 10
10.9519371964
 20
7.6636790008
 30
0.0
 10
10.9480700743
 20
7.6625248932
 30
0.0
 10
10.9439959079
 20
7.6617952475
 30
0.0
 10
10.9397113148
 20
7.6615327165
 30
0.0
 10
10.9352146349
 20
7.6617869364
 30
0.0
 10
10.9305075678
 20
7.6626161062
 30
0.0
 10
10.9273589042
 20
7.6635604099
 30
0.0
 10
10.9257628606
 20
7.6641369523
 30
0.0
  0
SPLINE
  5
3BF
100
AcDbEntity
  8
0
100
AcDbSpline
 62
7
  6
CONTINUOUS
 70
0
 71
3
 72
39
 73
35
 74
0
 42
0.0000001
 43
0.0000001
 44
0.0000000001
 40
0.0
 40
0.0
 40
0.0
 40
0.0
 40
0.030013002
 40
0.0600118704
 40
0.0900236097
 40
0.1200748779
 40
0.1501912747
 40
0.180396663
 40
0.2107125511
 40
0.2411575554
 40
0.2717469527
 40
0.3024923316
 40
0.3334013598
 40
0.3644776558
 40
0.3957207599
 40
0.4271262125
 40
0.4586857237
 40
0.4903874202
 40
0.5222161643
 40
0.5541539413
 40
0.5861802933
 40
0.6182727931
 40
0.6504075544
 40
0.6825597635
 40
0.7147042248
 40
0.746815912
 40
0.7788705175
 40
0.8108449893
 40
0.8427180527
 40
0.8744706955
 40
0.9060866213
 40
0.9375526998
 40
0.9688589506
 40
1.0
 40
1.0
 40
1.0
 40
1.0
 10
9.7261179627
 20
7.473428493
 30
0.0
 10
9.7331936379
 20
7.4822565947
 30
0.0
 10
9.7480844326
 20
7.4993279228
 30
0.0
 10
9.7724735719
 20
7.5229781032
 30
0.0
 10
9.7987626916
 20
7.5445230309
 30
0.0
 10
9.8267899245
 20
7.5638293947
 30
0.0
 10
9.8563853004
 20
7.5807805934
 30
0.0
 10
9.887368623
 20
7.5952737122
 30
0.0
 10
9.9195514918
 20
7.6072211307
 30
0.0
 10
9.9527382827
 20
7.6165506817
 30
0.0
 10
9.9867273891
 20
7.6232061889
 30
0.0
 10
10.0213124408
 20
7.6271478508
 30
0.0
 10
10.0562836068
 20
7.6283523113
 30
0.0
 10
10.0914288435
 20
7.6268127635
 30
0.0
 10
10.1265351756
 20
7.6225391003
 30
0.0
 10
10.1613899865
 20
7.61555774
 30
0.0
 10
10.19578227
 20
7.605911385
 30
0.0
 10
10.2295038915
 20
7.5936588206
 30
0.0
 10
10.2623508624
 20
7.5788746087
 30
0.0
 10
10.2941245139
 20
7.5616485039
 30
0.0
 10
10.3246326638
 20
7.5420849244
 30
0.0
 10
10.3536908364
 20
7.5203024404
 30
0.0
 10
10.3811233181
 20
7.4964329652
 30
0.0
 10
10.4067641669
 20
7.4706209342
 30
0.0
 10
10.4304582537
 20
7.4430225081
 30
0.0
 10
10.4520622307
 20
7.4138046555
 30
0.0
 10
10.4714452986
 20
7.3831440761
 30
0.0
 10
10.4884899909
 20
7.3512261628
 30
0.0
 10
10.5030930025
 20
7.3182439858
 30
0.0
 10
10.5151657113
 20
7.2843969825
 30
0.0
 10
10.5246346936
 20
7.2498900885
 30
0.0
 10
10.531442171
 20
7.2149314274
 30
0.0
 10
10.5355466697
 20
7.179735338
 30
0.0
 10
10.5364664377
 20
7.1561851948
 30
0.0
 10
10.5364664377
 20
7.1444462317
 30
0.0
  0
SPLINE
  5
3C0
100
AcDbEntity
  8
0
100
AcDbSpline
 62
7
  6
CONTINUOUS
 70
0
 71
3
 72
42
 73
38
 74
0
 42
0.0000001
 43
0.0000001
 44
0.0000000001
 40
0.0
 40
0.0
 40
0.0
 40
0.0
 40
0.0299702543
 40
0.0449891776
 40
0.0600316074
 40
0.0901893361
 40
0.1204605605
 40
0.1356442982
 40
0.1508601275
 40
0.1813872954
 40
0.2120522127
 40
0.2428581148
 40
0.2738057334
 40
0.3048933176
 40
0.3361166976
 40
0.3674693873
 40
0.3989427223
 40
0.4305260298
 40
0.4622068252
 40
0.4939710338
 40
0.525803231
 40
0.5576868999
 40
0.5896047012
 40
0.6215387519
 40
0.6534709112
 40
0.6853830683
 40
0.7172574301
 40
0.7490768057
 40
0.7808248837
 40
0.8124865005
 40
0.8440478911
 40
0.8754969379
 40
0.9068233461
 40
0.938018967
 40
0.9535675796
 40
0.9690817465
 40
1.0
 40
1.0
 40
1.0
 40
1.0
 10
11.5913279754
 20
7.575728113
 30
0.0
 10
11.583726299
 20
7.5715799125
 30
0.0
 10
11.5720901742
 20
7.5657528104
 30
0.0
 10
11.5561915726
 20
7.5588097979
 30
0.0
 10
11.5400092036
 20
7.5524058177
 30
0.0
 10
11.5193228046
 20
7.5454457268
 30
0.0
 10
11.4981656204
 20
7.5399215372
 30
0.0
 10
11.4809955393
 20
7.5363692126
 30
0.0
 10
11.4636413161
 20
7.5333927131
 30
0.0
 10
11.4417007335
 20
7.5307739235
 30
0.0
 10
11.4151336877
 20
7.5294079699
 30
0.0
 10
11.388412907
 20
7.5298203004
 30
0.0
 10
11.3616566234
 20
7.5320090452
 30
0.0
 10
11.3349822075
 20
7.535964335
 30
0.0
 10
11.3085068974
 20
7.5416686074
 30
0.0
 10
11.2823469539
 20
7.549096621
 30
0.0
 10
11.2566172458
 20
7.5582155891
 30
0.0
 10
11.2314307272
 20
7.5689853216
 30
0.0
 10
11.2068979535
 20
7.5813584046
 30
0.0
 10
11.1831265994
 20
7.5952804084
 30
0.0
 10
11.1602209922
 20
7.610690127
 30
0.0
 10
11.1382816582
 20
7.6275198465
 30
0.0
 10
11.1174048865
 20
7.6456956407
 30
0.0
 10
11.0976823096
 20
7.6651376934
 30
0.0
 10
11.079200505
 20
7.6857606466
 30
0.0
 10
11.0620406187
 20
7.7074739724
 30
0.0
 10
11.0462780108
 20
7.7301823663
 30
0.0
 10
11.0319819279
 20
7.7537861637
 30
0.0
 10
11.0192152003
 20
7.7781817673
 30
0.0
 10
11.0080339673
 20
7.8032621195
 30
0.0
 10
10.9984874332
 20
7.8289170857
 30
0.0
 10
10.9906176383
 20
7.8550342325
 30
0.0
 10
10.9844593429
 20
7.8814982089
 30
0.0
 10
10.9807720752
 20
7.903770585
 30
0.0
 10
10.9787045028
 20
7.9216437527
 30
0.0
 10
10.9772290239
 20
7.93949444
 30
0.0
 10
10.9767827873
 20
7.9529164181
 30
0.0
 10
10.9767827873
 20
7.9618501937
 30
0.0
  0
SPLINE
  5
3C1
100
AcDbEntity
  8
0
100
AcDbSpline
 62
7
  6
CONTINUOUS
 70
0
 71
3
 72
23
 73
19
 74
0
 42
0.0000001
 43
0.0000001
 44
0.0000000001
 40
0.0
 40
0.0
 40
0.0
 40
0.0
 40
0.0755961246
 40
0.1466389607
 40
0.2134646537
 40
0.2765132518
 40
0.3363252536
 40
0.3935454084
 40
0.448921428
 40
0.5032863451
 40
0.557524168
 40
0.6125254889
 40
0.6691415402
 40
0.7281473128
 40
0.7902179894
 40
0.8559226124
 40
0.9257258744
 40
1.0
 40
1.0
 40
1.0
 40
1.0
 10
13.1883482312
 20
7.9094888919
 30
0.0
 10
13.1871531415
 20
7.9083345237
 30
0.0
 10
13.1847645414
 20
7.9061662631
 30
0.0
 10
13.181067948
 20
7.9032695959
 30
0.0
 10
13.1773756808
 20
7.9008368089
 30
0.0
 10
13.1736911488
 20
7.8988715687
 30
0.0
 10
13.1700174252
 20
7.8973774186
 30
0.0
 10
13.1663582887
 20
7.8963580496
 30
0.0
 10
13.1627185426
 20
7.8958170307
 30
0.0
 10
13.1591042547
 20
7.8957569637
 30
0.0
 10
13.1555223603
 20
7.8961786705
 30
0.0
 10
13.1519798249
 20
7.8970809903
 30
0.0
 10
13.1484826226
 20
7.8984607586
 30
0.0
 10
13.145035456
 20
7.9003140874
 30
0.0
 10
13.1416417285
 20
7.9026365949
 30
0.0
 10
13.1383042759
 20
7.9054243798
 30
0.0
 10
13.1350256939
 20
7.9086732143
 30
0.0
 10
13.1329478225
 20
7.9110669872
 30
0.0
 10
13.1319177633
 20
7.9123335051
 30
0.0
  0
SPLINE
  5
3C2
100
AcDbEntity
  8
0
100
AcDbSpline
 62
7
  6
CONTINUOUS
 70
0
 71
3
 72
10
 73
6
 74
0
 42
0.0000001
 43
0.0000001
 44
0.0000000001
 40
0.0
 40
0.0
 40
0.0
 40
0.0
 40
0.2719985918
 40
0.5286742372
 40
1.0
 40
1.0
 40
1.0
 40
1.0
 10
13.5654560045
 20
8.4280722328
 30
0.0
 10
13.5645420451
 20
8.4271894158
 30
0.0
 10
13.5627147826
 20
8.4255241869
 30
0.0
 10
13.5590578923
 20
8.4226150287
 30
0.0
 10
13.5561625891
 20
8.4207904619
 30
0.0
 10
13.554193396
 20
8.4198052365
 30
0.0
  0
SPLINE
  5
3C3
100
AcDbEntity
  8
0
100
AcDbSpline
 62
7
  6
CONTINUOUS
 70
0
 71
3
 72
71
 73
67
 74
0
 42
0.0000001
 43
0.0000001
 44
0.0000000001
 40
0.0
 40
0.0
 40
0.0
 40
0.0
 40
0.0085742214
 40
0.0179224732
 40
0.0280750114
 40
0.039049891
 40
0.0508537258
 40
0.0634846799
 40
0.0769341021
 40
0.0911876129
 40
0.1062259615
 40
0.1220257693
 40
0.138560087
 40
0.155798762
 40
0.1737087663
 40
0.1922545648
 40
0.211398354
 40
0.2311002227
 40
0.2513184054
 40
0.2720094948
 40
0.3146282737
 40
0.3585834848
 40
0.403484734
 40
0.4489304537
 40
0.4945127297
 40
0.5398220674
 40
0.5844521475
 40
0.6280045662
 40
0.6492560999
 40
0.6700949201
 40
0.6904756422
 40
0.7103543453
 40
0.7296886983
 40
0.7484381401
 40
0.7665641462
 40
0.7840304031
 40
0.8008030142
 40
0.8168508231
 40
0.832145782
 40
0.84666327
 40
0.8603825802
 40
0.8732876341
 40
0.8853677472
 40
0.8966186564
 40
0.9070440257
 40
0.9166574944
 40
0.9211683078
 40
0.9254872882
 40
0.9296202838
 40
0.9335745256
 40
0.9373586399
 40
0.9409829451
 40
0.9477984723
 40
0.9510243605
 40
0.9541513511
 40
0.9571998183
 40
0.9601919778
 40
0.9631514278
 40
0.9661026354
 40
0.9690702981
 40
0.9720786722
 40
0.9751509507
 40
0.9783087204
 40
0.9849529735
 40
0.9921503506
 40
1.0
 40
1.0
 40
1.0
 40
1.0
 10
9.2956669206
 20
9.7722590221
 30
0.0
 10
9.296905972
 20
9.7734558538
 30
0.0
 10
9.2996242081
 20
9.7758264313
 30
0.0
 10
9.3041676736
 20
9.7791772761
 30
0.0
 10
9.3093378733
 20
9.7824654908
 30
0.0
 10
9.315122555
 20
9.7856836242
 30
0.0
 10
9.3215088814
 20
9.7888246344
 30
0.0
 10
9.3284820352
 20
9.7918811999
 30
0.0
 10
9.3360257558
 20
9.7948461043
 30
0.0
 10
9.344122283
 20
9.7977122207
 30
0.0
 10
9.3527524129
 20
9.8004726595
 30
0.0
 10
9.3618955913
 20
9.8031207469
 30
0.0
 10
9.3715299871
 20
9.8056500522
 30
0.0
 10
9.3816325388
 20
9.8080544334
 30
0.0
 10
9.3921790179
 20
9.8103280708
 30
0.0
 10
9.4031441109
 20
9.8124654435
 30
0.0
 10
9.414501484
 20
9.8144613519
 30
0.0
 10
9.4262238285
 20
9.8163109551
 30
0.0
 10
9.438282974
 20
9.8180098079
 30
0.0
 10
9.4549363078
 20
9.820088767
 30
0.0
 10
9.4763800938
 20
9.8222706166
 30
0.0
 10
9.5027273779
 20
9.8242086365
 30
0.0
 10
9.5296841706
 20
9.8254722684
 30
0.0
 10
9.5569912256
 20
9.8260491736
 30
0.0
 10
9.5843860973
 20
9.8259336715
 30
0.0
 10
9.6116054709
 20
9.825126893
 30
0.0
 10
9.6383875467
 20
9.8236367411
 30
0.0
 10
9.6603026963
 20
9.82182332
 30
0.0
 10
9.6774167662
 20
9.8200333041
 30
0.0
 10
9.6898797061
 20
9.8185418493
 30
0.0
 10
9.7020446892
 20
9.8168942173
 30
0.0
 10
9.7138824767
 20
9.8150943871
 30
0.0
 10
9.72536459
 20
9.8131467295
 30
0.0
 10
9.7364634216
 20
9.8110559519
 30
0.0
 10
9.7471523066
 20
9.8088271394
 30
0.0
 10
9.7574055854
 20
9.8064657082
 30
0.0
 10
9.7671986592
 20
9.80397738
 30
0.0
 10
9.7765080686
 20
9.8013681855
 30
0.0
 10
9.7853115672
 20
9.7986444681
 30
0.0
 10
9.7935881694
 20
9.7958128236
 30
0.0
 10
9.8013182085
 20
9.7928800696
 30
0.0
 10
9.8084834452
 20
9.789853254
 30
0.0
 10
9.8150670738
 20
9.7867395973
 30
0.0
 10
9.8210539436
 20
9.7835463272
 30
0.0
 10
9.8264300354
 20
9.7802808182
 30
0.0
 10
9.8304734592
 20
9.7774478378
 30
0.0
 10
9.8333777703
 20
9.7751450646
 30
0.0
 10
9.8353488987
 20
9.7734415062
 30
0.0
 10
9.8371582308
 20
9.7717256379
 30
0.0
 10
9.8388046825
 20
9.7699984837
 30
0.0
 10
9.8402873736
 20
9.7682606743
 30
0.0
 10
9.8420088656
 20
9.7659782726
 30
0.0
 10
9.8434497419
 20
9.7636280027
 30
0.0
 10
9.8445606053
 20
9.761224112
 30
0.0
 10
9.8452105906
 20
9.7594481313
 30
0.0
 10
9.8456916222
 20
9.7576676376
 30
0.0
 10
9.8460032367
 20
9.755883821
 30
0.0
 10
9.8461449962
 20
9.7540980628
 30
0.0
 10
9.8461166187
 20
9.7523118112
 30
0.0
 10
9.8459182403
 20
9.7505265364
 30
0.0
 10
9.8455501018
 20
9.7487436825
 30
0.0
 10
9.8450126164
 20
9.7469645343
 30
0.0
 10
9.8440552778
 20
9.7445586907
 30
0.0
 10
9.8424069642
 20
9.7415508993
 30
0.0
 10
9.8397986756
 20
9.7380461001
 30
0.0
 10
9.8377197597
 20
9.7358418895
 30
0.0
 10
9.8365854154
 20
9.734746197
 30
0.0
  0
SPLINE
  5
3C4
100
AcDbEntity
  8
0
100
AcDbSpline
 62
7
  6
CONTINUOUS
 70
0
 71
3
 72
86
 73
82
 74
0
 42
0.0000001
 43
0.0000001
 44
0.0000000001
 40
0.0
 40
0.0
 40
0.0
 40
0.0
 40
0.0039487674
 40
0.0077209355
 40
0.0113257336
 40
0.0147746617
 40
0.0212567992
 40
0.0243283615
 40
0.0273114634
 40
0.0302283474
 40
0.0331029463
 40
0.0359603569
 40
0.0388261651
 40
0.0417257185
 40
0.0446834111
 40
0.0477221074
 40
0.0508627303
 40
0.0541239774
 40
0.0575223294
 40
0.0610720098
 40
0.0647851791
 40
0.0686721212
 40
0.0727413593
 40
0.0769999812
 40
0.0814536943
 40
0.0861070657
 40
0.0909636836
 40
0.0960261794
 40
0.1012964876
 40
0.1067757995
 40
0.1124647125
 40
0.1183633248
 40
0.1244711751
 40
0.1373102774
 40
0.1509713791
 40
0.1654378435
 40
0.1806885687
 40
0.1966985913
 40
0.2134395426
 40
0.2308800489
 40
0.2489860598
 40
0.2677211165
 40
0.2870465817
 40
0.3069218359
 40
0.3273044875
 40
0.3481505568
 40
0.3694146428
 40
0.3910500793
 40
0.4130090872
 40
0.4577012019
 40
0.5030934579
 40
0.5487792776
 40
0.5943487452
 40
0.6393932599
 40
0.6615929578
 40
0.6835111963
 40
0.7050993657
 40
0.72630983
 40
0.7470960865
 40
0.7674129149
 40
0.7872165371
 40
0.8064647867
 40
0.8251173052
 40
0.8431357374
 40
0.8604839326
 40
0.8771281811
 40
0.8930374915
 40
0.908183938
 40
0.9225430468
 40
0.9360942774
 40
0.9488216435
 40
0.954873172
 40
0.9607153084
 40
0.9663477363
 40
0.9717706546
 40
0.9769848137
 40
0.9819915562
 40
0.9867931175
 40
0.9913924783
 40
0.9957932892
 40
1.0
 40
1.0
 40
1.0
 40
1.0
 10
13.1893998486
 20
8.7411823846
 30
0.0
 10
13.1902869771
 20
8.742007987
 30
0.0
 10
13.192060511
 20
8.7435812244
 30
0.0
 10
13.1947817077
 20
8.7457464173
 30
0.0
 10
13.1975004716
 20
8.7476602857
 30
0.0
 10
13.2010451366
 20
8.7498296582
 30
0.0
 10
13.2046616192
 20
8.751559695
 30
0.0
 10
13.2083163582
 20
8.7527750782
 30
0.0
 10
13.2109986591
 20
8.753413213
 30
0.0
 10
13.213668616
 20
8.7537930842
 30
0.0
 10
13.2163243521
 20
8.7539141064
 30
0.0
 10
13.2189636194
 20
8.753775882
 30
0.0
 10
13.2215841861
 20
8.7533786183
 30
0.0
 10
13.2241838431
 20
8.7527226717
 30
0.0
 10
13.2267605906
 20
8.751808971
 30
0.0
 10
13.229312642
 20
8.7506385766
 30
0.0
 10
13.2318383874
 20
8.7492126642
 30
0.0
 10
13.2343364844
 20
8.7475326285
 30
0.0
 10
13.2368055757
 20
8.7455997185
 30
0.0
 10
13.2392444732
 20
8.74341538
 30
0.0
 10
13.2416519625
 20
8.740981039
 30
0.0
 10
13.2440267816
 20
8.7382981766
 30
0.0
 10
13.2463677753
 20
8.7353684607
 30
0.0
 10
13.2486736248
 20
8.7321935663
 30
0.0
 10
13.2509431188
 20
8.7287753826
 30
0.0
 10
13.2531749966
 20
8.7251158993
 30
0.0
 10
13.2553679475
 20
8.7212172318
 30
0.0
 10
13.2575207831
 20
8.7170816909
 30
0.0
 10
13.2596321877
 20
8.7127116751
 30
0.0
 10
13.2617009631
 20
8.7081097698
 30
0.0
 10
13.26372589
 20
8.7032786906
 30
0.0
 10
13.2657057539
 20
8.6982212738
 30
0.0
 10
13.2683276671
 20
8.6910606473
 30
0.0
 10
13.27147224
 20
8.6815572755
 30
0.0
 10
13.274988053
 20
8.6694839159
 30
0.0
 10
13.2782978341
 20
8.6565871017
 30
0.0
 10
13.281393604
 20
8.6428974952
 30
0.0
 10
13.2842678507
 20
8.6284474879
 30
0.0
 10
13.2869136083
 20
8.6132714522
 30
0.0
 10
13.2893244584
 20
8.5974055342
 30
0.0
 10
13.2914945477
 20
8.5808875751
 30
0.0
 10
13.293418605
 20
8.5637570022
 30
0.0
 10
13.2950919519
 20
8.5460547365
 30
0.0
 10
13.2965105308
 20
8.527823091
 30
0.0
 10
13.2976708975
 20
8.5091056626
 30
0.0
 10
13.2985702324
 20
8.4899472149
 30
0.0
 10
13.2992063339
 20
8.470393586
 30
0.0
 10
13.2995776729
 20
8.4504915222
 30
0.0
 10
13.2997192304
 20
8.4233963443
 30
0.0
 10
13.2992221261
 20
8.3890100426
 30
0.0
 10
13.2975774479
 20
8.3473709503
 30
0.0
 10
13.2948963546
 20
8.3055157845
 30
0.0
 10
13.2912044676
 20
8.2638449542
 30
0.0
 10
13.2872965794
 20
8.2294399901
 30
0.0
 10
13.2836847004
 20
8.2023150773
 30
0.0
 10
13.2807610655
 20
8.182362516
 30
0.0
 10
13.2776167959
 20
8.1627509459
 30
0.0
 10
13.2742594091
 20
8.1435272581
 30
0.0
 10
13.2706969855
 20
8.1247374481
 30
0.0
 10
13.266938085
 20
8.106426454
 30
0.0
 10
13.2629917445
 20
8.0886380651
 30
0.0
 10
13.2588674487
 20
8.0714148088
 30
0.0
 10
13.2545751209
 20
8.0547978394
 30
0.0
 10
13.2501250953
 20
8.0388268343
 30
0.0
 10
13.2455280836
 20
8.0235399004
 30
0.0
 10
13.240795152
 20
8.0089734812
 30
0.0
 10
13.2359376857
 20
7.9951622466
 30
0.0
 10
13.2309673734
 20
7.9821390173
 30
0.0
 10
13.2258961555
 20
7.9699345638
 30
0.0
 10
13.2207361932
 20
7.9585778804
 30
0.0
 10
13.2163010689
 20
7.9496990729
 30
0.0
 10
13.2127095111
 20
7.9430504822
 30
0.0
 10
13.2100467224
 20
7.9383765748
 30
0.0
 10
13.2073709825
 20
7.9339337801
 30
0.0
 10
13.2046838555
 20
7.9297247271
 30
0.0
 10
13.2019869809
 20
7.9257518873
 30
0.0
 10
13.1992818606
 20
7.922017612
 30
0.0
 10
13.1965700841
 20
7.918524025
 30
0.0
 10
13.1938531233
 20
7.9152731735
 30
0.0
 10
13.1911327368
 20
7.9122671487
 30
0.0
 10
13.1892768082
 20
7.9103858284
 30
0.0
 10
13.1883482312
 20
7.9094888919
 30
0.0
  0
SPLINE
  5
3C5
100
AcDbEntity
  8
0
100
AcDbSpline
 62
7
  6
CONTINUOUS
 70
0
 71
3
 72
15
 73
11
 74
0
 42
0.0000001
 43
0.0000001
 44
0.0000000001
 40
0.0
 40
0.0
 40
0.0
 40
0.0
 40
0.1234613758
 40
0.2472682719
 40
0.3714774789
 40
0.4961385893
 40
0.6212930777
 40
0.7469740042
 40
0.8732046424
 40
1.0
 40
1.0
 40
1.0
 40
1.0
 10
11.0294844953
 20
8.1575166327
 30
0.0
 10
11.0251864704
 20
8.1502552405
 30
0.0
 10
11.0170755973
 20
8.1354112713
 30
0.0
 10
11.0064428754
 20
8.1123355421
 30
0.0
 10
10.9973701917
 20
8.0885141932
 30
0.0
 10
10.9898961025
 20
8.0640481853
 30
0.0
 10
10.9840514379
 20
8.0390395308
 30
0.0
 10
10.9798605113
 20
8.0135924868
 30
0.0
 10
10.9773405817
 20
7.9878147246
 30
0.0
 10
10.9767827873
 20
7.9705161158
 30
0.0
 10
10.9767827873
 20
7.9618501937
 30
0.0
  0
SPLINE
  5
3C6
100
AcDbEntity
  8
0
100
AcDbSpline
 62
7
  6
CONTINUOUS
 70
0
 71
3
 72
14
 73
10
 74
0
 42
0.0000001
 43
0.0000001
 44
0.0000000001
 40
0.0
 40
0.0
 40
0.0
 40
0.0
 40
0.1129665756
 40
0.2278659538
 40
0.3455207168
 40
0.4667076535
 40
0.7223106779
 40
0.8581569013
 40
1.0
 40
1.0
 40
1.0
 40
1.0
 10
11.1796775524
 20
8.1183101709
 30
0.0
 10
11.1803556923
 20
8.1182631364
 30
0.0
 10
11.1817293132
 20
8.1182375752
 30
0.0
 10
11.1838048989
 20
8.1184031236
 30
0.0
 10
11.1859044697
 20
8.1187722325
 30
0.0
 10
11.1887799803
 20
8.1195488253
 30
0.0
 10
11.1916441237
 20
8.1207353359
 30
0.0
 10
11.19446111
 20
8.1222752775
 30
0.0
 10
11.1958713974
 20
8.1231744425
 30
0.0
 10
11.1965768279
 20
8.1236549466
 30
0.0
  0
SPLINE
  5
3C7
100
AcDbEntity
  8
0
100
AcDbSpline
 62
7
  6
CONTINUOUS
 70
0
 71
3
 72
42
 73
38
 74
0
 42
0.0000001
 43
0.0000001
 44
0.0000000001
 40
0.0
 40
0.0
 40
0.0
 40
0.0
 40
0.0299419647
 40
0.0449235338
 40
0.0599142029
 40
0.0899287018
 40
0.1200139723
 40
0.135092657
 40
0.1501966957
 40
0.1804840357
 40
0.2108978664
 40
0.2414513269
 40
0.2721543325
 40
0.3030133939
 40
0.3340315221
 40
0.3652082149
 40
0.3965395206
 40
0.4280181743
 40
0.4596337976
 40
0.491373156
 40
0.5232204661
 40
0.5551577438
 40
0.5871651879
 40
0.6192215897
 40
0.6513047642
 40
0.683391994
 40
0.7154604812
 40
0.7474878002
 40
0.7794523457
 40
0.811333768
 40
0.8431133934
 40
0.8747746119
 40
0.9063032554
 40
0.937687875
 40
0.9533257298
 40
0.9689253383
 40
1.0
 40
1.0
 40
1.0
 40
1.0
 10
8.8318501506
 20
7.1395536997
 30
0.0
 10
8.8283497194
 20
7.1361725657
 30
0.0
 10
8.8228927898
 20
7.1313056891
 30
0.0
 10
8.8152504501
 20
7.1252669729
 30
0.0
 10
8.8073647248
 20
7.1195287682
 30
0.0
 10
8.7970751609
 20
7.1129394224
 30
0.0
 10
8.7862852916
 20
7.1071756661
 30
0.0
 10
8.7773864593
 20
7.1030752833
 30
0.0
 10
8.7683037782
 20
7.0993134391
 30
0.0
 10
8.7566511254
 20
7.0952683451
 30
0.0
 10
8.7422909821
 20
7.0914984201
 30
0.0
 10
8.7276174945
 20
7.0888276956
 30
0.0
 10
8.7127119783
 20
7.0872709127
 30
0.0
 10
8.6976563137
 20
7.0868363777
 30
0.0
 10
8.6825333416
 20
7.0875263028
 30
0.0
 10
8.6674261815
 20
7.0893367025
 30
0.0
 10
8.6524178411
 20
7.0922574517
 30
0.0
 10
8.6375907484
 20
7.0962723405
 30
0.0
 10
8.6230263098
 20
7.1013591709
 30
0.0
 10
8.6088044682
 20
7.1074898814
 30
0.0
 10
8.5950032708
 20
7.1146307036
 30
0.0
 10
8.5816984466
 20
7.1227423485
 30
0.0
 10
8.5689629963
 20
7.1317802213
 30
0.0
 10
8.5568667971
 20
7.1416946659
 30
0.0
 10
8.5454762237
 20
7.1524312351
 30
0.0
 10
8.5348537882
 20
7.163930987
 30
0.0
 10
8.5250578004
 20
7.1761308054
 30
0.0
 10
8.5161420512
 20
7.1889637435
 30
0.0
 10
8.5081555203
 20
7.2023593834
 30
0.0
 10
8.5011421069
 20
7.2162442331
 30
0.0
 10
8.4951403984
 20
7.2305420678
 30
0.0
 10
8.4901834294
 20
7.2451745563
 30
0.0
 10
8.4862986039
 20
7.2600608902
 30
0.0
 10
8.4839695505
 20
7.2726265629
 30
0.0
 10
8.4826630289
 20
7.2827229491
 30
0.0
 10
8.4817305981
 20
7.2928096696
 30
0.0
 10
8.4814482614
 20
7.3003998644
 30
0.0
 10
8.4814482614
 20
7.3054507042
 30
0.0
  0
SPLINE
  5
3C8
100
AcDbEntity
  8
0
100
AcDbSpline
 62
7
  6
CONTINUOUS
 70
0
 71
3
 72
15
 73
11
 74
0
 42
0.0000001
 43
0.0000001
 44
0.0000000001
 40
0.0
 40
0.0
 40
0.0
 40
0.0
 40
0.1234394214
 40
0.2470466251
 40
0.3709825631
 40
0.4953948794
 40
0.6204121513
 40
0.7461393297
 40
0.8726517112
 40
1.0
 40
1.0
 40
1.0
 40
1.0
 10
8.5386670951
 20
7.4430791155
 30
0.0
 10
8.5341365566
 20
7.4387029809
 30
0.0
 10
8.525513927
 20
7.4294706523
 30
0.0
 10
8.5140621276
 20
7.4143569172
 30
0.0
 10
8.5041882467
 20
7.3981079961
 30
0.0
 10
8.4959850955
 20
7.3808761452
 30
0.0
 10
8.4895275078
 20
7.3628204656
 30
0.0
 10
8.48487471
 20
7.3441074686
 30
0.0
 10
8.4820687323
 20
7.3249121683
 30
0.0
 10
8.4814482614
 20
7.3119490827
 30
0.0
 10
8.4814482614
 20
7.3054507042
 30
0.0
  0
SPLINE
  5
3C9
100
AcDbEntity
  8
0
100
AcDbSpline
 62
7
  6
CONTINUOUS
 70
0
 71
3
 72
20
 73
16
 74
0
 42
0.0000001
 43
0.0000001
 44
0.0000000001
 40
0.0
 40
0.0
 40
0.0
 40
0.0
 40
0.0731088236
 40
0.1536181218
 40
0.244265303
 40
0.2944763941
 40
0.3486272464
 40
0.4073418895
 40
0.4713302443
 40
0.5413764165
 40
0.6182852538
 40
0.7027439631
 40
0.7950475654
 40
0.8946899058
 40
1.0
 40
1.0
 40
1.0
 40
1.0
 10
10.9412738081
 20
7.8583870041
 30
0.0
 10
10.9427416593
 20
7.8578562115
 30
0.0
 10
10.9457498382
 20
7.8565205609
 30
0.0
 10
10.9502098529
 20
7.8537926328
 30
0.0
 10
10.9539160645
 20
7.8508401879
 30
0.0
 10
10.9569445126
 20
7.847980813
 30
0.0
 10
10.9593396173
 20
7.8454511987
 30
0.0
 10
10.9617840347
 20
7.8425710999
 30
0.0
 10
10.9642790021
 20
7.8392961465
 30
0.0
 10
10.9668221215
 20
7.8355769263
 30
0.0
 10
10.9694046056
 20
7.8313625442
 30
0.0
 10
10.9720065584
 20
7.8266102456
 30
0.0
 10
10.9745916401
 20
7.8213028849
 30
0.0
 10
10.9771039516
 20
7.8154725992
 30
0.0
 10
10.9786546669
 20
7.8113790834
 30
0.0
 10
10.9794067746
 20
7.8092602373
 30
0.0
  0
SPLINE
  5
3CA
100
AcDbEntity
  8
0
100
AcDbSpline
 62
7
  6
CONTINUOUS
 70
0
 71
3
 72
39
 73
35
 74
0
 42
0.0000001
 43
0.0000001
 44
0.0000000001
 40
0.0
 40
0.0
 40
0.0
 40
0.0
 40
0.029942471
 40
0.0599093183
 40
0.0899243244
 40
0.1200101034
 40
0.1501875624
 40
0.1804754148
 40
0.2108897596
 40
0.2414437361
 40
0.2721472598
 40
0.3030068424
 40
0.3340254951
 40
0.3652027149
 40
0.3965345496
 40
0.4280137343
 40
0.459629891
 40
0.4913697854
 40
0.5232176334
 40
0.5551554501
 40
0.5871634341
 40
0.6192203766
 40
0.6513040925
 40
0.6833918636
 40
0.7154608915
 40
0.7474887505
 40
0.7794538351
 40
0.8113357956
 40
0.8431159562
 40
0.8747777121
 40
0.9063068677
 40
0.9376920929
 40
0.9689246489
 40
1.0
 40
1.0
 40
1.0
 40
1.0
 10
11.5105247855
 20
7.4613690787
 30
0.0
 10
11.5033829191
 20
7.4544705945
 30
0.0
 10
11.4885376498
 20
7.4412303197
 30
0.0
 10
11.4647531868
 20
7.4231928148
 30
0.0
 10
11.4395737771
 20
7.4070684432
 30
0.0
 10
11.413140096
 20
7.392947675
 30
0.0
 10
11.3855974696
 20
7.3809076685
 30
0.0
 10
11.357097907
 20
7.3710146025
 30
0.0
 10
11.3277984629
 20
7.3633225933
 30
0.0
 10
11.2978605559
 20
7.3578736328
 30
0.0
 10
11.2674490169
 20
7.3546973216
 30
0.0
 10
11.2367311926
 20
7.3538107471
 30
0.0
 10
11.2058760252
 20
7.3552184
 30
0.0
 10
11.1750531246
 20
7.3589121404
 30
0.0
 10
11.1444318426
 20
7.3648713009
 30
0.0
 10
11.114180356
 20
7.3730628092
 30
0.0
 10
11.0844647564
 20
7.3834413801
 30
0.0
 10
11.0554481563
 20
7.3959497759
 30
0.0
 10
11.0272897944
 20
7.4105190944
 30
0.0
 10
11.0001441731
 20
7.4270691617
 30
0.0
 10
10.9741602322
 20
7.4455089899
 30
0.0
 10
10.9494805407
 20
7.4657372687
 30
0.0
 10
10.9262405276
 20
7.4876429181
 30
0.0
 10
10.9045677456
 20
7.5111056884
 30
0.0
 10
10.884581153
 20
7.5359967928
 30
0.0
 10
10.8663904919
 20
7.5621796356
 30
0.0
 10
10.8500956921
 20
7.589510549
 30
0.0
 10
10.8357863271
 20
7.6178395756
 30
0.0
 10
10.8235411283
 20
7.6470112625
 30
0.0
 10
10.8134275413
 20
7.676865559
 30
0.0
 10
10.8055013029
 20
7.707238451
 30
0.0
 10
10.7998063111
 20
7.7379637211
 30
0.0
 10
10.7963740255
 20
7.7688704771
 30
0.0
 10
10.7956052821
 20
7.7895409478
 30
0.0
 10
10.7956052821
 20
7.7998461519
 30
0.0
  0
SPLINE
  5
3CB
100
AcDbEntity
  8
0
100
AcDbSpline
 62
7
  6
CONTINUOUS
 70
0
 71
3
 72
43
 73
39
 74
0
 42
0.0000001
 43
0.0000001
 44
0.0000000001
 40
0.0
 40
0.0
 40
0.0
 40
0.0
 40
0.0299998116
 40
0.0450363858
 40
0.0600981587
 40
0.0902989779
 40
0.1206173536
 40
0.135825522
 40
0.1510661319
 40
0.1816433201
 40
0.212357249
 40
0.2432097023
 40
0.2742001252
 40
0.3053256646
 40
0.3365812461
 40
0.367959684
 40
0.3994518216
 40
0.4310466979
 40
0.4627317384
 40
0.4944929646
 40
0.5263152208
 40
0.5581824142
 40
0.5900777654
 40
0.621984066
 40
0.6538839413
 40
0.6857601141
 40
0.7175956681
 40
0.7334949359
 40
0.7493780072
 40
0.7810843073
 40
0.8127039613
 40
0.8442240059
 40
0.875633046
 40
0.9069214197
 40
0.9380814642
 40
0.9536132545
 40
0.9691113916
 40
1.0
 40
1.0
 40
1.0
 40
1.0
 10
11.5815458183
 20
7.5561547483
 30
0.0
 10
11.5736676
 20
7.5523372401
 30
0.0
 10
11.5616381941
 20
7.5470109162
 30
0.0
 10
11.5452577286
 20
7.540739517
 30
0.0
 10
11.5286173013
 20
7.5350094757
 30
0.0
 10
11.5074077329
 20
7.5288943689
 30
0.0
 10
11.4857932341
 20
7.524211355
 30
0.0
 10
11.4682936019
 20
7.5213275439
 30
0.0
 10
11.450632935
 20
7.5190171072
 30
0.0
 10
11.4283543014
 20
7.5172228288
 30
0.0
 10
11.4014496199
 20
7.5168266685
 30
0.0
 10
11.3744553166
 20
7.5181861661
 30
0.0
 10
11.3474857436
 20
7.521295506
 30
0.0
 10
11.3206541668
 20
7.5261413902
 30
0.0
 10
11.2940734962
 20
7.5327032657
 30
0.0
 10
11.2678554915
 20
7.5409533705
 30
0.0
 10
11.2421103842
 20
7.5508568658
 30
0.0
 10
11.2169463961
 20
7.5623719811
 30
0.0
 10
11.1924692952
 20
7.5754501927
 30
0.0
 10
11.1687819546
 20
7.5900364269
 30
0.0
 10
11.1459839243
 20
7.6060692928
 30
0.0
 10
11.124171019
 20
7.6234813348
 30
0.0
 10
11.1034349095
 20
7.6421993318
 30
0.0
 10
11.0838627787
 20
7.6621445388
 30
0.0
 10
11.0655368146
 20
7.6832332565
 30
0.0
 10
11.0485344037
 20
7.705376281
 30
0.0
 10
11.0355214087
 20
7.724640207
 30
0.0
 10
11.0258419367
 20
7.7404846991
 30
0.0
 10
11.0166690178
 20
7.7565843214
 30
0.0
 10
11.0061515355
 20
7.7771849586
 30
0.0
 10
10.9950975498
 20
7.8025779594
 30
0.0
 10
10.9856630662
 20
7.8285245057
 30
0.0
 10
10.9778881902
 20
7.8549151534
 30
0.0
 10
10.971805725
 20
7.8816384302
 30
0.0
 10
10.9681646614
 20
7.9041178805
 30
0.0
 10
10.9661231456
 20
7.9221535079
 30
0.0
 10
10.9646662707
 20
7.9401656503
 30
0.0
 10
10.9642257508
 20
7.9537072525
 30
0.0
 10
10.9642257508
 20
7.9627210271
 30
0.0
  0
SPLINE
  5
3CC
100
AcDbEntity
  8
0
100
AcDbSpline
 62
7
  6
CONTINUOUS
 70
0
 71
3
 72
44
 73
40
 74
0
 42
0.0000001
 43
0.0000001
 44
0.0000000001
 40
0.0
 40
0.0
 40
0.0
 40
0.0
 40
0.0149713347
 40
0.029960997
 40
0.0449710739
 40
0.0600035601
 40
0.0901384861
 40
0.1203840777
 40
0.1355543302
 40
0.1507563562
 40
0.181255331
 40
0.2118922373
 40
0.2426711917
 40
0.2735937149
 40
0.3046587405
 40
0.3358626689
 40
0.3671994643
 40
0.3986607905
 40
0.4302361809
 40
0.4619132392
 40
0.4936778664
 40
0.5255145091
 40
0.5574064268
 40
0.5893359734
 40
0.6212848881
 40
0.6532345954
 40
0.6851665064
 40
0.7170623222
 40
0.7329931055
 40
0.7489082916
 40
0.7806796683
 40
0.8123647466
 40
0.843949292
 40
0.8754207611
 40
0.9067684918
 40
0.9379840299
 40
0.9535420448
 40
0.9690652179
 40
1.0
 40
1.0
 40
1.0
 40
1.0
 10
11.5993630435
 20
7.5941540654
 30
0.0
 10
11.5956756895
 20
7.5920074783
 30
0.0
 10
11.5882190423
 20
7.587843109
 30
0.0
 10
11.5768117056
 20
7.5819955313
 30
0.0
 10
11.5651877799
 20
7.5765493595
 30
0.0
 10
11.5494071284
 20
7.5698267879
 30
0.0
 10
11.5291981157
 20
7.5624570308
 30
0.0
 10
11.5084846597
 20
7.5565121125
 30
0.0
 10
11.4916507541
 20
7.5526179549
 30
0.0
 10
11.4746211628
 20
7.5492957141
 30
0.0
 10
11.4530625933
 20
7.5462395005
 30
0.0
 10
11.4269167403
 20
7.5443438442
 30
0.0
 10
11.400581486
 20
7.5442235829
 30
0.0
 10
11.3741762453
 20
7.5458792048
 30
0.0
 10
11.3478197157
 20
7.5493029895
 30
0.0
 10
11.3216306024
 20
7.5544793284
 30
0.0
 10
11.2957267506
 20
7.5613847265
 30
0.0
 10
11.2702247121
 20
7.5699879328
 30
0.0
 10
11.2452392025
 20
7.5802500796
 30
0.0
 10
11.2208825975
 20
7.5921248613
 30
0.0
 10
11.1972644323
 20
7.6055587427
 30
0.0
 10
11.1744909134
 20
7.6204912019
 30
0.0
 10
11.1526644495
 20
7.6368549965
 30
0.0
 10
11.1318831844
 20
7.654576483
 30
0.0
 10
11.1122406009
 20
7.6735758785
 30
0.0
 10
11.0938249518
 20
7.6937678679
 30
0.0
 10
11.0767194337
 20
7.7150610496
 30
0.0
 10
11.0636141148
 20
7.7336528942
 30
0.0
 10
11.0538591998
 20
7.74898028
 30
0.0
 10
11.0446104166
 20
7.7645770473
 30
0.0
 10
11.03399929
 20
7.7845723775
 30
0.0
 10
11.0228391611
 20
7.8092716277
 30
0.0
 10
11.0133082676
 20
7.8345535069
 30
0.0
 10
11.0054499677
 20
7.8603039217
 30
0.0
 10
10.9992997344
 20
7.8864064914
 30
0.0
 10
10.995616825
 20
7.9083810368
 30
0.0
 10
10.9935516124
 20
7.9260173364
 30
0.0
 10
10.9920778096
 20
7.9436319222
 30
0.0
 10
10.9916320264
 20
7.9568773904
 30
0.0
 10
10.9916320264
 20
7.9656934581
 30
0.0
  0
SPLINE
  5
3CD
100
AcDbEntity
  8
0
100
AcDbSpline
 62
7
  6
CONTINUOUS
 70
0
 71
3
 72
42
 73
38
 74
0
 42
0.0000001
 43
0.0000001
 44
0.0000000001
 40
0.0
 40
0.0
 40
0.0
 40
0.0
 40
0.0300095244
 40
0.0450516821
 40
0.0601194639
 40
0.0903333788
 40
0.1206657909
 40
0.135881145
 40
0.1511289982
 40
0.1817206698
 40
0.212448646
 40
0.2433143228
 40
0.2743168053
 40
0.305452952
 40
0.3367174549
 40
0.3681029513
 40
0.3996001639
 40
0.4311980671
 40
0.4628840747
 40
0.4946442469
 40
0.5264635129
 40
0.5583259063
 40
0.5902148099
 40
0.6221132077
 40
0.6540039413
 40
0.6858699673
 40
0.7176946139
 40
0.7494618331
 40
0.7811564472
 40
0.8127643849
 40
0.8442729048
 40
0.8756708066
 40
0.906948614
 40
0.9380987641
 40
0.9536258808
 40
0.9691196229
 40
1.0
 40
1.0
 40
1.0
 40
1.0
 10
11.6064920337
 20
7.6136641178
 30
0.0
 10
11.5990375921
 20
7.6101761365
 30
0.0
 10
11.5876628569
 20
7.60532003
 30
0.0
 10
11.5721879097
 20
7.5996239803
 30
0.0
 10
11.5564756182
 20
7.5944357898
 30
0.0
 10
11.5364649429
 20
7.5889323643
 30
0.0
 10
11.5160919802
 20
7.5847695389
 30
0.0
 10
11.4996081566
 20
7.5822461952
 30
0.0
 10
11.4829795008
 20
7.5802594542
 30
0.0
 10
11.4620153874
 20
7.5787985552
 30
0.0
 10
11.436716522
 20
7.5786864349
 30
0.0
 10
11.4113503471
 20
7.5802132698
 30
0.0
 10
11.3860229881
 20
7.583372624
 30
0.0
 10
11.3608394998
 20
7.5881511741
 30
0.0
 10
11.3359045489
 20
7.5945289136
 30
0.0
 10
11.311321682
 20
7.6024792016
 30
0.0
 10
11.2871929819
 20
7.6119688859
 30
0.0
 10
11.263618626
 20
7.6229584407
 30
0.0
 10
11.2406964812
 20
7.6354021317
 30
0.0
 10
11.2185216994
 20
7.6492482066
 30
0.0
 10
11.1971863279
 20
7.6644391096
 30
0.0
 10
11.1767789298
 20
7.6809117193
 30
0.0
 10
11.1573842204
 20
7.6985976094
 30
0.0
 10
11.1390827184
 20
7.7174233315
 30
0.0
 10
11.121950414
 20
7.7373107172
 30
0.0
 10
11.106058456
 20
7.7581772009
 30
0.0
 10
11.0914728587
 20
7.7799361592
 30
0.0
 10
11.0782542289
 20
7.802497269
 30
0.0
 10
11.0664575164
 20
7.8257668735
 30
0.0
 10
11.0561317848
 20
7.8496483878
 30
0.0
 10
11.0473200146
 20
7.8740426219
 30
0.0
 10
11.0400588992
 20
7.8988484601
 30
0.0
 10
11.0343787882
 20
7.9239622706
 30
0.0
 10
11.0309787778
 20
7.9450849484
 30
0.0
 10
11.0290724618
 20
7.9620310607
 30
0.0
 10
11.0277120714
 20
7.9789549025
 30
0.0
 10
11.0273007468
 20
7.9916778568
 30
0.0
 10
11.0273007468
 20
8.0001467983
 30
0.0
  0
SPLINE
  5
3CE
100
AcDbEntity
  8
0
100
AcDbSpline
 62
7
  6
CONTINUOUS
 70
0
 71
3
 72
42
 73
38
 74
0
 42
0.0000001
 43
0.0000001
 44
0.0000000001
 40
0.0
 40
0.0
 40
0.0
 40
0.0
 40
0.0299621581
 40
0.0449760066
 40
0.06001275
 40
0.0901574873
 40
0.1204141599
 40
0.1355902589
 40
0.1507982792
 40
0.1813095263
 40
0.2119586624
 40
0.2427494188
 40
0.2736829701
 40
0.3047579491
 40
0.3359705046
 40
0.3673144018
 40
0.3987811581
 40
0.4303602142
 40
0.4620391321
 40
0.4938038206
 40
0.5256387797
 40
0.5575273638
 40
0.5894520581
 40
0.6213947644
 40
0.6533370947
 40
0.6852606668
 40
0.7171474008
 40
0.7489798117
 40
0.7807412952
 40
0.8124164044
 40
0.8439911092
 40
0.8754530485
 40
0.9067917307
 40
0.9379987993
 40
0.9535528115
 40
0.9690722368
 40
1.0
 40
1.0
 40
1.0
 40
1.0
 10
11.6209406021
 20
7.670517607
 30
0.0
 10
11.6142741278
 20
7.6667427843
 30
0.0
 10
11.6040608465
 20
7.6614297798
 30
0.0
 10
11.5900901883
 20
7.655077817
 30
0.0
 10
11.5758608086
 20
7.6492034936
 30
0.0
 10
11.5576528809
 20
7.6427869137
 30
0.0
 10
11.53900791
 20
7.6376454375
 30
0.0
 10
11.5238645021
 20
7.6343029109
 30
0.0
 10
11.5085509859
 20
7.6314720307
 30
0.0
 10
11.4891760312
 20
7.6289135028
 30
0.0
 10
11.4656946462
 20
7.6274254473
 30
0.0
 10
11.4420580763
 20
7.6275220156
 30
0.0
 10
11.4183723736
 20
7.6292027323
 30
0.0
 10
11.3947428951
 20
7.6324598759
 30
0.0
 10
11.3712749495
 20
7.6372787662
 30
0.0
 10
11.3480730325
 20
7.6436377693
 30
0.0
 10
11.3252404478
 20
7.6515084152
 30
0.0
 10
11.3028788303
 20
7.6608555236
 30
0.0
 10
11.281087705
 20
7.671637363
 30
0.0
 10
11.2599640473
 20
7.6838058373
 30
0.0
 10
11.2396018567
 20
7.6973066998
 30
0.0
 10
11.2200917428
 20
7.7120797943
 30
0.0
 10
11.2015205261
 20
7.7280593214
 30
0.0
 10
11.183970855
 20
7.7451741295
 30
0.0
 10
11.1675208417
 20
7.7633480292
 30
0.0
 10
11.1522437171
 20
7.7825001303
 30
0.0
 10
11.1382075075
 20
7.8025451978
 30
0.0
 10
11.1254747339
 20
7.8233940298
 30
0.0
 10
11.1141021356
 20
7.8449538452
 30
0.0
 10
11.1041404178
 20
7.8671287122
 30
0.0
 10
11.0956340304
 20
7.8898198981
 30
0.0
 10
11.088620951
 20
7.9129265736
 30
0.0
 10
11.0831325991
 20
7.9363452561
 30
0.0
 10
11.0798462124
 20
7.9560578914
 30
0.0
 10
11.0780033913
 20
7.971878012
 30
0.0
 10
11.0766882957
 20
7.9876784675
 30
0.0
 10
11.0762905354
 20
7.9995593919
 30
0.0
 10
11.0762905354
 20
8.0074673032
 30
0.0
  0
SPLINE
  5
3CF
100
AcDbEntity
  8
0
100
AcDbSpline
 62
7
  6
CONTINUOUS
 70
0
 71
3
 72
23
 73
19
 74
0
 42
0.0000001
 43
0.0000001
 44
0.0000000001
 40
0.0
 40
0.0
 40
0.0
 40
0.0
 40
0.061713824
 40
0.1237221498
 40
0.1859969692
 40
0.2485039937
 40
0.3112035247
 40
0.3740514198
 40
0.43700014
 40
0.4999998531
 40
0.5629995704
 40
0.6259483016
 40
0.6887962134
 40
0.7514957681
 40
0.8140028253
 40
0.8762776817
 40
0.9382860345
 40
1.0
 40
1.0
 40
1.0
 40
1.0
 10
11.6116627762
 20
7.8553586486
 30
0.0
 10
11.6023620627
 20
7.8572585652
 30
0.0
 10
11.5838564135
 20
7.8617934083
 30
0.0
 10
11.5566469288
 20
7.8707199799
 30
0.0
 10
11.5300794186
 20
7.8817331933
 30
0.0
 10
11.5043224624
 20
7.8947633379
 30
0.0
 10
11.4795367307
 20
7.9097287112
 30
0.0
 10
11.4558775526
 20
7.9265353779
 30
0.0
 10
11.4334929848
 20
7.9450779509
 30
0.0
 10
11.4125231827
 20
7.9652402316
 30
0.0
 10
11.3930994604
 20
7.9868959306
 30
0.0
 10
11.3753435077
 20
8.0099094563
 30
0.0
 10
11.3593665886
 20
8.0341366983
 30
0.0
 10
11.3452688625
 20
8.0594260164
 30
0.0
 10
11.3331388254
 20
8.0856189252
 30
0.0
 10
11.3230525927
 20
8.1125520329
 30
0.0
 10
11.3150740215
 20
8.140054468
 30
0.0
 10
11.3111829932
 20
8.1587061373
 30
0.0
 10
11.3096064427
 20
8.1680671125
 30
0.0
  0
SPLINE
  5
3D0
100
AcDbEntity
  8
0
100
AcDbSpline
 62
7
  6
CONTINUOUS
 70
0
 71
3
 72
23
 73
19
 74
0
 42
0.0000001
 43
0.0000001
 44
0.0000000001
 40
0.0
 40
0.0
 40
0.0
 40
0.0
 40
0.06183483
 40
0.1239222227
 40
0.186235848
 40
0.2487449804
 40
0.3114151336
 40
0.3742087491
 40
0.437085928
 40
0.5000051952
 40
0.5629242834
 40
0.6258009287
 40
0.6885936658
 40
0.7512626126
 40
0.813770234
 40
0.8760820691
 40
0.9381674432
 40
1.0
 40
1.0
 40
1.0
 40
1.0
 10
11.6016951426
 20
7.8866839447
 30
0.0
 10
11.5938209154
 20
7.8887530777
 30
0.0
 10
11.5781804435
 20
7.8934552016
 30
0.0
 10
11.5552267656
 20
7.902133667
 30
0.0
 10
11.5328431715
 20
7.9124087616
 30
0.0
 10
11.5111474809
 20
7.9242265474
 30
0.0
 10
11.4902519794
 20
7.9375255981
 30
0.0
 10
11.4702653167
 20
7.9522366897
 30
0.0
 10
11.4512912833
 20
7.9682833266
 30
0.0
 10
11.4334284562
 20
7.9855820919
 30
0.0
 10
11.4167696442
 20
8.0040430879
 30
0.0
 10
11.4014014204
 20
8.0235703973
 30
0.0
 10
11.3874036775
 20
8.0440625671
 30
0.0
 10
11.3748492063
 20
8.0654131781
 30
0.0
 10
11.3638033609
 20
8.0875112117
 30
0.0
 10
11.354323568
 20
8.110242291
 30
0.0
 10
11.3464595924
 20
8.1334867691
 30
0.0
 10
11.3423117367
 20
8.1492826932
 30
0.0
 10
11.3405214857
 20
8.1572246636
 30
0.0
  0
SPLINE
  5
3D1
100
AcDbEntity
  8
0
100
AcDbSpline
 62
7
  6
CONTINUOUS
 70
0
 71
3
 72
23
 73
19
 74
0
 42
0.0000001
 43
0.0000001
 44
0.0000000001
 40
0.0
 40
0.0
 40
0.0
 40
0.0
 40
0.0617101439
 40
0.1234413935
 40
0.1852146431
 40
0.2470503547
 40
0.3089683495
 40
0.3709876176
 40
0.4331261309
 40
0.4954006615
 40
0.5578266134
 40
0.6204179128
 40
0.6831867943
 40
0.7461438773
 40
0.8092980348
 40
0.872655047
 40
0.9362230873
 40
1.0
 40
1.0
 40
1.0
 40
1.0
 10
10.9123479644
 20
8.0806472566
 30
0.0
 10
10.9077254385
 20
8.0761822582
 30
0.0
 10
10.8987069594
 20
8.0670110003
 30
0.0
 10
10.8859021713
 20
8.0525741301
 30
0.0
 10
10.8738473195
 20
8.0374880111
 30
0.0
 10
10.862570698
 20
8.0217879052
 30
0.0
 10
10.8520981617
 20
8.0055099193
 30
0.0
 10
10.8424538565
 20
7.9886916555
 30
0.0
 10
10.8336599893
 20
7.9713719012
 30
0.0
 10
10.8257368391
 20
7.9535905981
 30
0.0
 10
10.8187026412
 20
7.9353887608
 30
0.0
 10
10.8125735534
 20
7.9168083809
 30
0.0
 10
10.807363653
 20
7.8978923057
 30
0.0
 10
10.8030849243
 20
7.8786841125
 30
0.0
 10
10.7997472635
 20
7.8592282048
 30
0.0
 10
10.7973581113
 20
7.8395690504
 30
0.0
 10
10.7959232096
 20
7.8197528277
 30
0.0
 10
10.7956052821
 20
7.8064882114
 30
0.0
 10
10.7956052821
 20
7.7998461519
 30
0.0
  0
SPLINE
  5
3D2
100
AcDbEntity
  8
0
100
AcDbSpline
 62
7
  6
CONTINUOUS
 70
0
 71
3
 72
17
 73
13
 74
0
 42
0.0000001
 43
0.0000001
 44
0.0000000001
 40
0.0
 40
0.0
 40
0.0
 40
0.0
 40
0.1235259055
 40
0.1854237095
 40
0.2474141071
 40
0.3716789688
 40
0.4963735658
 40
0.5588994994
 40
0.6215444743
 40
0.7471873879
 40
0.8733362334
 40
1.0
 40
1.0
 40
1.0
 40
1.0
 10
11.0097841581
 20
8.1488064143
 30
0.0
 10
11.0060543661
 20
8.1417674372
 30
0.0
 10
11.0007845246
 20
8.1310220863
 30
0.0
 10
10.9944333074
 20
8.1163831406
 30
0.0
 10
10.9885210515
 20
8.1015095797
 30
0.0
 10
10.9819816351
 20
8.0825386708
 30
0.0
 10
10.9766099108
 20
8.0631689863
 30
0.0
 10
10.9730168453
 20
8.0474588331
 30
0.0
 10
10.9698905844
 20
8.0315868821
 30
0.0
 10
10.9668773169
 20
8.0115205497
 30
0.0
 10
10.9647064487
 20
7.9871974468
 30
0.0
 10
10.9642257508
 20
7.9708894725
 30
0.0
 10
10.9642257508
 20
7.9627210271
 30
0.0
  0
SPLINE
  5
3D3
100
AcDbEntity
  8
0
100
AcDbSpline
 62
7
  6
CONTINUOUS
 70
0
 71
3
 72
15
 73
11
 74
0
 42
0.0000001
 43
0.0000001
 44
0.0000000001
 40
0.0
 40
0.0
 40
0.0
 40
0.0
 40
0.1234305753
 40
0.2472017954
 40
0.3713784993
 40
0.4960175318
 40
0.6211665356
 40
0.7468637073
 40
0.8731355821
 40
1.0
 40
1.0
 40
1.0
 40
1.0
 10
11.0480380509
 20
8.1646815508
 30
0.0
 10
11.0434488451
 20
8.1573837291
 30
0.0
 10
11.0347824551
 20
8.1424304622
 30
0.0
 10
11.0234099008
 20
8.1190946348
 30
0.0
 10
11.0136976348
 20
8.0949281789
 30
0.0
 10
11.0056910955
 20
8.070043808
 30
0.0
 10
10.9994266096
 20
8.044555717
 30
0.0
 10
10.9949328664
 20
8.0185808546
 30
0.0
 10
10.9922301905
 20
7.992240151
 30
0.0
 10
10.9916320264
 20
7.9745541378
 30
0.0
 10
10.9916320264
 20
7.9656934581
 30
0.0
  0
SPLINE
  5
3D4
100
AcDbEntity
  8
0
100
AcDbSpline
 62
7
  6
CONTINUOUS
 70
0
 71
3
 72
15
 73
11
 74
0
 42
0.0000001
 43
0.0000001
 44
0.0000000001
 40
0.0
 40
0.0
 40
0.0
 40
0.0
 40
0.1235559626
 40
0.2474581565
 40
0.3717469323
 40
0.4964570555
 40
0.6216180455
 40
0.7472515535
 40
0.8733769021
 40
1.0
 40
1.0
 40
1.0
 40
1.0
 10
11.0677666919
 20
8.1710626867
 30
0.0
 10
11.0644498468
 20
8.1645593602
 30
0.0
 10
11.0581997949
 20
8.1513298195
 30
0.0
 10
11.0500240459
 20
8.1309298985
 30
0.0
 10
11.0430606266
 20
8.1100123584
 30
0.0
 10
11.0373326856
 20
8.0886466548
 30
0.0
 10
11.0328588308
 20
8.0669026296
 30
0.0
 10
11.0296535125
 20
8.0448512061
 30
0.0
 10
11.0277272928
 20
8.0225656399
 30
0.0
 10
11.0273007468
 20
8.0076283435
 30
0.0
 10
11.0273007468
 20
8.0001467983
 30
0.0
  0
SPLINE
  5
3D5
100
AcDbEntity
  8
0
100
AcDbSpline
 62
7
  6
CONTINUOUS
 70
0
 71
3
 72
15
 73
11
 74
0
 42
0.0000001
 43
0.0000001
 44
0.0000000001
 40
0.0
 40
0.0
 40
0.0
 40
0.0
 40
0.1234434203
 40
0.2472299795
 40
0.3714208982
 40
0.4960697372
 40
0.6212214018
 40
0.7469116137
 40
0.8731658376
 40
1.0
 40
1.0
 40
1.0
 40
1.0
 10
11.1251295535
 20
8.1836383859
 30
0.0
 10
11.1211517656
 20
8.1771430181
 30
0.0
 10
11.113642348
 20
8.1638478989
 30
0.0
 10
11.103792536
 20
8.1431357944
 30
0.0
 10
11.0953839241
 20
8.1217169274
 30
0.0
 10
11.0884542322
 20
8.0996871239
 30
0.0
 10
11.0830336365
 20
8.0771433552
 30
0.0
 10
11.0791459241
 20
8.0541848204
 30
0.0
 10
11.0768080065
 20
8.0309140722
 30
0.0
 10
11.0762905354
 20
8.0152931161
 30
0.0
 10
11.0762905354
 20
8.0074673032
 30
0.0
  0
SPLINE
  5
3D6
100
AcDbEntity
  8
0
100
AcDbSpline
 62
4
  6
CONTINUOUS
 70
0
 71
3
 72
334
 73
330
 74
0
 42
0.0000001
 43
0.0000001
 44
0.0000000001
 40
0.0
 40
0.0
 40
0.0
 40
0.0
 40
0.015625
 40
0.03125
 40
0.0390625
 40
0.046875
 40
0.05078125
 40
0.0546875
 40
0.05859375
 40
0.060546875
 40
0.0615234375
 40
0.0625
 40
0.0634765625
 40
0.064453125
 40
0.06640625
 40
0.0703125
 40
0.07421875
 40
0.078125
 40
0.0859375
 40
0.09375
 40
0.1015625
 40
0.109375
 40
0.11328125
 40
0.1171875
 40
0.12109375
 40
0.123046875
 40
0.1240234375
 40
0.125
 40
0.1259765625
 40
0.126953125
 40
0.12890625
 40
0.1328125
 40
0.13671875
 40
0.140625
 40
0.1484375
 40
0.15625
 40
0.1640625
 40
0.171875
 40
0.17578125
 40
0.1796875
 40
0.18359375
 40
0.185546875
 40
0.1865234375
 40
0.1875
 40
0.1884765625
 40
0.189453125
 40
0.19140625
 40
0.1953125
 40
0.19921875
 40
0.203125
 40
0.2109375
 40
0.21875
 40
0.2265625
 40
0.234375
 40
0.23828125
 40
0.2421875
 40
0.244140625
 40
0.24609375
 40
0.248046875
 40
0.2490234375
 40
0.2495117188
 40
0.25
 40
0.2504882812
 40
0.2509765625
 40
0.251953125
 40
0.25390625
 40
0.255859375
 40
0.2578125
 40
0.26171875
 40
0.265625
 40
0.2734375
 40
0.28125
 40
0.2890625
 40
0.296875
 40
0.30078125
 40
0.3046875
 40
0.306640625
 40
0.30859375
 40
0.310546875
 40
0.3115234375
 40
0.3120117188
 40
0.3125
 40
0.3129882812
 40
0.3134765625
 40
0.314453125
 40
0.31640625
 40
0.318359375
 40
0.3203125
 40
0.32421875
 40
0.328125
 40
0.3359375
 40
0.34375
 40
0.3515625
 40
0.35546875
 40
0.359375
 40
0.36328125
 40
0.3671875
 40
0.369140625
 40
0.37109375
 40
0.373046875
 40
0.3740234375
 40
0.3745117188
 40
0.375
 40
0.3754882812
 40
0.3759765625
 40
0.376953125
 40
0.37890625
 40
0.380859375
 40
0.3828125
 40
0.38671875
 40
0.390625
 40
0.39453125
 40
0.3984375
 40
0.40625
 40
0.4140625
 40
0.41796875
 40
0.421875
 40
0.42578125
 40
0.4296875
 40
0.431640625
 40
0.43359375
 40
0.4345703125
 40
0.435546875
 40
0.4365234375
 40
0.4370117188
 40
0.4375
 40
0.4379882812
 40
0.4384765625
 40
0.439453125
 40
0.4404296875
 40
0.44140625
 40
0.443359375
 40
0.4453125
 40
0.44921875
 40
0.453125
 40
0.45703125
 40
0.4609375
 40
0.46875
 40
0.4765625
 40
0.48046875
 40
0.484375
 40
0.48828125
 40
0.4921875
 40
0.494140625
 40
0.49609375
 40
0.4970703125
 40
0.498046875
 40
0.4990234375
 40
0.4995117188
 40
0.4997558594
 40
0.5
 40
0.5002441406
 40
0.5004882812
 40
0.5009765625
 40
0.501953125
 40
0.5029296875
 40
0.50390625
 40
0.505859375
 40
0.5078125
 40
0.51171875
 40
0.515625
 40
0.51953125
 40
0.5234375
 40
0.53125
 40
0.5390625
 40
0.54296875
 40
0.546875
 40
0.55078125
 40
0.5546875
 40
0.556640625
 40
0.55859375
 40
0.5595703125
 40
0.560546875
 40
0.5615234375
 40
0.5620117188
 40
0.5622558594
 40
0.5625
 40
0.5627441406
 40
0.5629882812
 40
0.5634765625
 40
0.564453125
 40
0.5654296875
 40
0.56640625
 40
0.568359375
 40
0.5703125
 40
0.57421875
 40
0.578125
 40
0.58203125
 40
0.5859375
 40
0.59375
 40
0.6015625
 40
0.60546875
 40
0.609375
 40
0.61328125
 40
0.6171875
 40
0.619140625
 40
0.62109375
 40
0.6220703125
 40
0.623046875
 40
0.6240234375
 40
0.6245117188
 40
0.6247558594
 40
0.625
 40
0.6252441406
 40
0.6254882812
 40
0.6259765625
 40
0.626953125
 40
0.6279296875
 40
0.62890625
 40
0.630859375
 40
0.6328125
 40
0.63671875
 40
0.640625
 40
0.64453125
 40
0.6484375
 40
0.65625
 40
0.6640625
 40
0.66796875
 40
0.671875
 40
0.67578125
 40
0.6796875
 40
0.681640625
 40
0.68359375
 40
0.6845703125
 40
0.685546875
 40
0.6865234375
 40
0.6870117188
 40
0.6872558594
 40
0.6875
 40
0.6877441406
 40
0.6879882812
 40
0.6884765625
 40
0.689453125
 40
0.6904296875
 40
0.69140625
 40
0.693359375
 40
0.6953125
 40
0.69921875
 40
0.703125
 40
0.70703125
 40
0.7109375
 40
0.71875
 40
0.7265625
 40
0.73046875
 40
0.734375
 40
0.73828125
 40
0.7421875
 40
0.744140625
 40
0.74609375
 40
0.7470703125
 40
0.748046875
 40
0.7490234375
 40
0.7495117188
 40
0.75
 40
0.7504882812
 40
0.7509765625
 40
0.751953125
 40
0.7529296875
 40
0.75390625
 40
0.755859375
 40
0.7578125
 40
0.76171875
 40
0.765625
 40
0.76953125
 40
0.7734375
 40
0.78125
 40
0.7890625
 40
0.796875
 40
0.80078125
 40
0.8046875
 40
0.806640625
 40
0.80859375
 40
0.810546875
 40
0.8115234375
 40
0.8120117188
 40
0.8125
 40
0.8129882812
 40
0.8134765625
 40
0.814453125
 40
0.81640625
 40
0.818359375
 40
0.8203125
 40
0.82421875
 40
0.828125
 40
0.8359375
 40
0.84375
 40
0.8515625
 40
0.859375
 40
0.86328125
 40
0.8671875
 40
0.869140625
 40
0.87109375
 40
0.873046875
 40
0.8740234375
 40
0.8745117188
 40
0.875
 40
0.8754882812
 40
0.8759765625
 40
0.876953125
 40
0.87890625
 40
0.880859375
 40
0.8828125
 40
0.88671875
 40
0.890625
 40
0.8984375
 40
0.90625
 40
0.9140625
 40
0.921875
 40
0.92578125
 40
0.9296875
 40
0.931640625
 40
0.93359375
 40
0.935546875
 40
0.9365234375
 40
0.9370117188
 40
0.9375
 40
0.9379882812
 40
0.9384765625
 40
0.939453125
 40
0.94140625
 40
0.943359375
 40
0.9453125
 40
0.94921875
 40
0.953125
 40
0.9609375
 40
0.96875
 40
0.9765625
 40
0.984375
 40
1.0
 40
1.0
 40
1.0
 40
1.0
 10
10.6232394459
 20
9.9735956865
 30
0.0
 10
10.6261276232
 20
9.9734719364
 30
0.0
 10
10.6319039785
 20
9.9732244393
 30
0.0
 10
10.6391244188
 20
9.9729150526
 30
0.0
 10
10.6449007792
 20
9.9726675754
 30
0.0
 10
10.6485109859
 20
9.9725128295
 30
0.0
 10
10.6513991938
 20
9.972389199
 30
0.0
 10
10.653565233
 20
9.9722960212
 30
0.0
 10
10.6553706371
 20
9.9722198201
 30
0.0
 10
10.6566336912
 20
9.9721636396
 30
0.0
 10
10.6573565742
 20
9.9721359703
 30
0.0
 10
10.6578955312
 20
9.9721027283
 30
0.0
 10
10.6584467404
 20
9.9721172296
 30
0.0
 10
10.6591774123
 20
9.9721199114
 30
0.0
 10
10.6604580793
 20
9.9721323635
 30
0.0
 10
10.6622865626
 20
9.9721460957
 30
0.0
 10
10.6644811881
 20
9.9721643108
 30
0.0
 10
10.6674072
 20
9.9721879908
 30
0.0
 10
10.6710647675
 20
9.9722178003
 30
0.0
 10
10.6754538288
 20
9.972253476
 30
0.0
 10
10.6798428843
 20
9.9722891995
 30
0.0
 10
10.6835004663
 20
9.9723188897
 30
0.0
 10
10.6864264492
 20
9.9723428084
 30
0.0
 10
10.6886211631
 20
9.9723602952
 30
0.0
 10
10.6904493698
 20
9.9723763057
 30
0.0
 10
10.6917305306
 20
9.9723846908
 30
0.0
 10
10.6924604113
 20
9.9723938889
 30
0.0
 10
10.6930140509
 20
9.9723883741
 30
0.0
 10
10.6935438797
 20
9.9724303094
 30
0.0
 10
10.6942586235
 20
9.9724696721
 30
0.0
 10
10.6955055555
 20
9.9725462681
 30
0.0
 10
10.6972889101
 20
9.9726516594
 30
0.0
 10
10.6994280696
 20
9.9727798547
 30
0.0
 10
10.7022805849
 20
9.9729501787
 30
0.0
 10
10.705846124
 20
9.9731632921
 30
0.0
 10
10.7101248214
 20
9.9734189328
 30
0.0
 10
10.7144034847
 20
9.9736746212
 30
0.0
 10
10.7179691091
 20
9.9738876154
 30
0.0
 10
10.7208214537
 20
9.9740581777
 30
0.0
 10
10.7229611341
 20
9.9741856463
 30
0.0
 10
10.7247428591
 20
9.9742933109
 30
0.0
 10
10.7259927001
 20
9.9743658489
 30
0.0
 10
10.7267027829
 20
9.9744117136
 30
0.0
 10
10.7272469289
 20
9.9744336765
 30
0.0
 10
10.7277467952
 20
9.9745031747
 30
0.0
 10
10.7284287289
 20
9.9745792581
 30
0.0
 10
10.7296149165
 20
9.9747201295
 30
0.0
 10
10.7313132325
 20
9.9749173353
 30
0.0
 10
10.7333496014
 20
9.9751557111
 30
0.0
 10
10.7360653224
 20
9.9754729417
 30
0.0
 10
10.7394597804
 20
9.9758696871
 30
0.0
 10
10.7435332141
 20
9.9763456923
 30
0.0
 10
10.7476066204
 20
9.9768217233
 30
0.0
 10
10.7510011469
 20
9.9772184044
 30
0.0
 10
10.7537167308
 20
9.9775357637
 30
0.0
 10
10.7554140533
 20
9.9777340828
 30
0.0
 10
10.7567717226
 20
9.9778928077
 30
0.0
 10
10.7577904913
 20
9.9780116607
 30
0.0
 10
10.7586378213
 20
9.9781113115
 30
0.0
 10
10.7592341784
 20
9.9781798765
 30
0.0
 10
10.7595699166
 20
9.9782209154
 30
0.0
 10
10.7598359104
 20
9.9782464582
 30
0.0
 10
10.760047662
 20
9.9782920171
 30
0.0
 10
10.7603489178
 20
9.9783457804
 30
0.0
 10
10.7608673001
 20
9.9784431192
 30
0.0
 10
10.761612455
 20
9.978580474
 30
0.0
 10
10.7625046681
 20
9.9787460277
 30
0.0
 10
10.7636949747
 20
9.9789665117
 30
0.0
 10
10.765182622
 20
9.9792422037
 30
0.0
 10
10.7675629896
 20
9.9796832622
 30
0.0
 10
10.7705384034
 20
9.9802346022
 30
0.0
 10
10.774108921
 20
9.9808962026
 30
0.0
 10
10.7776794276
 20
9.9815578066
 30
0.0
 10
10.7806548691
 20
9.9821091375
 30
0.0
 10
10.7830351814
 20
9.9825502143
 30
0.0
 10
10.7845229691
 20
9.98282586
 30
0.0
 10
10.7857129875
 20
9.9830464391
 30
0.0
 10
10.7866060813
 20
9.983211702
 30
0.0
 10
10.7873484808
 20
9.9833499666
 30
0.0
 10
10.7878717818
 20
9.9834456812
 30
0.0
 10
10.7881651566
 20
9.983502047
 30
0.0
 10
10.7884011162
 20
9.9835396121
 30
0.0
 10
10.7885761888
 20
9.9835951782
 30
0.0
 10
10.788830857
 20
9.9836629874
 30
0.0
 10
10.7892666312
 20
9.9837845789
 30
0.0
 10
10.7898943391
 20
9.9839567517
 30
0.0
 10
10.7906453742
 20
9.9841640137
 30
0.0
 10
10.7916475278
 20
9.9844401344
 30
0.0
 10
10.792899955
 20
9.9847853635
 30
0.0
 10
10.7949039864
 20
9.9853376863
 30
0.0
 10
10.797408975
 20
9.9860281048
 30
0.0
 10
10.8004149827
 20
9.9868566007
 30
0.0
 10
10.8029199857
 20
9.9875470151
 30
0.0
 10
10.8049239856
 20
9.988099347
 30
0.0
 10
10.8064269949
 20
9.9885135941
 30
0.0
 10
10.8079299677
 20
9.9889278484
 30
0.0
 10
10.8091825591
 20
9.9892730377
 30
0.0
 10
10.8101843768
 20
9.98954924
 30
0.0
 10
10.8109364379
 20
9.9897562526
 30
0.0
 10
10.8115609359
 20
9.9899292055
 30
0.0
 10
10.8120024403
 20
9.9900494044
 30
0.0
 10
10.8122479272
 20
9.9901194451
 30
0.0
 10
10.8124512018
 20
9.9901681568
 30
0.0
 10
10.8125812398
 20
9.9902314658
 30
0.0
 10
10.8127801695
 20
9.9903107861
 30
0.0
 10
10.8131163943
 20
9.990451969
 30
0.0
 10
10.813602938
 20
9.9906524186
 30
0.0
 10
10.814184127
 20
9.990893489
 30
0.0
 10
10.814959976
 20
9.9912147308
 30
0.0
 10
10.8159294681
 20
9.9916163466
 30
0.0
 10
10.8170929954
 20
9.9920982583
 30
0.0
 10
10.8182564861
 20
9.9925801772
 30
0.0
 10
10.8198078198
 20
9.9932227333
 30
0.0
 10
10.8217469827
 20
9.9940259293
 30
0.0
 10
10.8236861467
 20
9.9948291251
 30
0.0
 10
10.8252374786
 20
9.9954716816
 30
0.0
 10
10.8264009747
 20
9.9959535994
 30
0.0
 10
10.8275644817
 20
9.9964355155
 30
0.0
 10
10.828534037
 20
9.9968371176
 30
0.0
 10
10.8293097571
 20
9.9971583872
 30
0.0
 10
10.8297944094
 20
9.9973592081
 30
0.0
 10
10.8301825269
 20
9.9975198022
 30
0.0
 10
10.8304725318
 20
9.9976404192
 30
0.0
 10
10.8307176484
 20
9.997740388
 30
0.0
 10
10.8309060132
 20
9.9978215862
 30
0.0
 10
10.8310684047
 20
9.9978791427
 30
0.0
 10
10.831150189
 20
9.9979494563
 30
0.0
 10
10.8312873918
 20
9.9980387515
 30
0.0
 10
10.8314492348
 20
9.9981518995
 30
0.0
 10
10.8316475815
 20
9.9982870226
 30
0.0
 10
10.8319105994
 20
9.9984674154
 30
0.0
 10
10.8322398663
 20
9.998692828
 30
0.0
 10
10.832766417
 20
9.9990535321
 30
0.0
 10
10.8334247002
 20
9.9995043971
 30
0.0
 10
10.8342145994
 20
10.0000454415
 30
0.0
 10
10.8350045095
 20
10.0005864842
 30
0.0
 10
10.8360577191
 20
10.0013078751
 30
0.0
 10
10.8373742324
 20
10.0022096136
 30
0.0
 10
10.8386907454
 20
10.003111352
 30
0.0
 10
10.8397439555
 20
10.0038327428
 30
0.0
 10
10.8405338642
 20
10.0043737859
 30
0.0
 10
10.8413237685
 20
10.0049148291
 30
0.0
 10
10.8419820359
 20
10.0053656979
 30
0.0
 10
10.8425086188
 20
10.0057263943
 30
0.0
 10
10.8428378038
 20
10.0059518263
 30
0.0
 10
10.8431009899
 20
10.0061321793
 30
0.0
 10
10.8432988227
 20
10.0062674239
 30
0.0
 10
10.8434622735
 20
10.0063801918
 30
0.0
 10
10.8435794559
 20
10.0064590036
 30
0.0
 10
10.843642097
 20
10.0065042352
 30
0.0
 10
10.843701248
 20
10.006537606
 30
0.0
 10
10.8437138788
 20
10.0065730901
 30
0.0
 10
10.8437469467
 20
10.0066196651
 30
0.0
 10
10.8437972551
 20
10.0067015149
 30
0.0
 10
10.8438730768
 20
10.0068182634
 30
0.0
 10
10.8439623711
 20
10.0069584386
 30
0.0
 10
10.8440820211
 20
10.007145312
 30
0.0
 10
10.8442313812
 20
10.0073789129
 30
0.0
 10
10.8444704705
 20
10.0077526692
 30
0.0
 10
10.8447692933
 20
10.0082198664
 30
0.0
 10
10.8451278973
 20
10.0087805022
 30
0.0
 10
10.8454864969
 20
10.0093411383
 30
0.0
 10
10.8459646312
 20
10.0100886529
 30
0.0
 10
10.8465622985
 20
10.0110230463
 30
0.0
 10
10.8471599662
 20
10.0119574396
 30
0.0
 10
10.8476380999
 20
10.0127049543
 30
0.0
 10
10.8479967013
 20
10.0132655902
 30
0.0
 10
10.8483552983
 20
10.0138262263
 30
0.0
 10
10.8486541429
 20
10.0142934228
 30
0.0
 10
10.8488931878
 20
10.0146671805
 30
0.0
 10
10.8490426609
 20
10.0149007779
 30
0.0
 10
10.8491620789
 20
10.0150876585
 30
0.0
 10
10.8492520818
 20
10.0152278115
 30
0.0
 10
10.8493256865
 20
10.0153446296
 30
0.0
 10
10.8493799527
 20
10.0154263551
 30
0.0
 10
10.8494066792
 20
10.0154731291
 30
0.0
 10
10.8494387886
 20
10.0155080021
 30
0.0
 10
10.8494247814
 20
10.015543668
 30
0.0
 10
10.849422191
 20
10.0155909459
 30
0.0
 10
10.8494101632
 20
10.0156738111
 30
0.0
 10
10.8493968988
 20
10.0157921225
 30
0.0
 10
10.8493793045
 20
10.0159341251
 30
0.0
 10
10.8493564311
 20
10.0161234519
 30
0.0
 10
10.8493276389
 20
10.0163601138
 30
0.0
 10
10.8492816833
 20
10.0167387708
 30
0.0
 10
10.8492242005
 20
10.0172120928
 30
0.0
 10
10.8491552375
 20
10.0177800789
 30
0.0
 10
10.8490862702
 20
10.0183480651
 30
0.0
 10
10.8489943153
 20
10.01910538
 30
0.0
 10
10.848879371
 20
10.0200520236
 30
0.0
 10
10.8487644272
 20
10.0209986672
 30
0.0
 10
10.8486724716
 20
10.0217559821
 30
0.0
 10
10.8486035061
 20
10.0223239682
 30
0.0
 10
10.8485345362
 20
10.0228919543
 30
0.0
 10
10.848477075
 20
10.0233652765
 30
0.0
 10
10.8484310754
 20
10.0237439332
 30
0.0
 10
10.8484023953
 20
10.0239805959
 30
0.0
 10
10.8483792917
 20
10.0241699208
 30
0.0
 10
10.8483624007
 20
10.0243119291
 30
0.0
 10
10.8483469358
 20
10.0244302227
 30
0.0
 10
10.8483388364
 20
10.0245131198
 30
0.0
 10
10.8483299517
 20
10.0245603466
 30
0.0
 10
10.8483352786
 20
10.0245961696
 30
0.0
 10
10.8482947721
 20
10.0246304521
 30
0.0
 10
10.8482567507
 20
10.0246766994
 30
0.0
 10
10.8481827645
 20
10.0247573817
 30
0.0
 10
10.8480809643
 20
10.0248727732
 30
0.0
 10
10.8479571371
 20
10.0250111869
 30
0.0
 10
10.8477926164
 20
10.025195758
 30
0.0
 10
10.8475867661
 20
10.0254264653
 30
0.0
 10
10.8472575171
 20
10.0257956006
 30
0.0
 10
10.8468459176
 20
10.0262570185
 30
0.0
 10
10.8463520147
 20
10.0268107205
 30
0.0
 10
10.8458581073
 20
10.0273644224
 30
0.0
 10
10.8451995657
 20
10.0281026916
 30
0.0
 10
10.8443763881
 20
10.0290255281
 30
0.0
 10
10.8435532109
 20
10.0299483647
 30
0.0
 10
10.8428946687
 20
10.0306866339
 30
0.0
 10
10.8424007632
 20
10.0312403358
 30
0.0
 10
10.8419068533
 20
10.0317940375
 30
0.0
 10
10.8414952754
 20
10.0322554564
 30
0.0
 10
10.8411659824
 20
10.0326245897
 30
0.0
 10
10.840960244
 20
10.0328553023
 30
0.0
 10
10.8407954936
 20
10.0330398624
 30
0.0
 10
10.8406723682
 20
10.0331783098
 30
0.0
 10
10.8405683722
 20
10.0332935958
 30
0.0
 10
10.8404983058
 20
10.0333744664
 30
0.0
 10
10.8404540039
 20
10.0334204121
 30
0.0
 10
10.8404327893
 20
10.0334556209
 30
0.0
 10
10.8403656591
 20
10.0334879646
 30
0.0
 10
10.8402921681
 20
10.0335320889
 30
0.0
 10
10.8401560968
 20
10.0336088409
 30
0.0
 10
10.8399656104
 20
10.0337187299
 30
0.0
 10
10.8397353568
 20
10.0338504926
 30
0.0
 10
10.8394289354
 20
10.0340262125
 30
0.0
 10
10.8390457088
 20
10.0342458499
 30
0.0
 10
10.838432658
 20
10.0345972768
 30
0.0
 10
10.8376663061
 20
10.0350365581
 30
0.0
 10
10.8367467003
 20
10.0355636965
 30
0.0
 10
10.8358270901
 20
10.0360908348
 30
0.0
 10
10.8346009447
 20
10.0367936858
 30
0.0
 10
10.8330682626
 20
10.0376722496
 30
0.0
 10
10.8315355801
 20
10.0385508133
 30
0.0
 10
10.8303094352
 20
10.0392536645
 30
0.0
 10
10.8293898237
 20
10.0397808024
 30
0.0
 10
10.8284702227
 20
10.0403079421
 30
0.0
 10
10.827703856
 20
10.0407472194
 30
0.0
 10
10.8270908354
 20
10.0410986544
 30
0.0
 10
10.8267075318
 20
10.0413182712
 30
0.0
 10
10.8264012686
 20
10.0414940335
 30
0.0
 10
10.8261705316
 20
10.0416256666
 30
0.0
 10
10.8259815576
 20
10.0417359611
 30
0.0
 10
10.825822962
 20
10.0418228504
 30
0.0
 10
10.8257242806
 20
10.0418916961
 30
0.0
 10
10.825548246
 20
10.0419464999
 30
0.0
 10
10.8253405537
 20
10.0420244766
 30
0.0
 10
10.8250716678
 20
10.0421202647
 30
0.0
 10
10.8247529728
 20
10.0422359306
 30
0.0
 10
10.8243266601
 20
10.0423899004
 30
0.0
 10
10.8237942438
 20
10.0425824486
 30
0.0
 10
10.8229421126
 20
10.0428904778
 30
0.0
 10
10.8218770395
 20
10.0432755307
 30
0.0
 10
10.8205989128
 20
10.0437375871
 30
0.0
 10
10.8193207965
 20
10.0441996454
 30
0.0
 10
10.8176166377
 20
10.0448157224
 30
0.0
 10
10.8154864419
 20
10.0455858193
 30
0.0
 10
10.8129301996
 20
10.0465099339
 30
0.0
 10
10.8108000185
 20
10.0472800341
 30
0.0
 10
10.8090958272
 20
10.0478961038
 30
0.0
 10
10.8080308133
 20
10.0482811713
 30
0.0
 10
10.8071785602
 20
10.0485891704
 30
0.0
 10
10.806540033
 20
10.0488203199
 30
0.0
 10
10.8060058191
 20
10.0490124669
 30
0.0
 10
10.805636006
 20
10.0491479071
 30
0.0
 10
10.8054182253
 20
10.049223838
 30
0.0
 10
10.8052730847
 20
10.0492849088
 30
0.0
 10
10.8050583936
 20
10.0493302209
 30
0.0
 10
10.8047963988
 20
10.0493961338
 30
0.0
 10
10.8043266046
 20
10.0495089204
 30
0.0
 10
10.8036613796
 20
10.049671383
 30
0.0
 10
10.8028605801
 20
10.049865765
 30
0.0
 10
10.8017937309
 20
10.0501251412
 30
0.0
 10
10.8004598669
 20
10.050449293
 30
0.0
 10
10.7983258537
 20
10.0509679741
 30
0.0
 10
10.7956582788
 20
10.0516163122
 30
0.0
 10
10.7924572153
 20
10.052394324
 30
0.0
 10
10.7892561397
 20
10.0531723326
 30
0.0
 10
10.786588595
 20
10.053820679
 30
0.0
 10
10.7844545213
 20
10.0543393434
 30
0.0
 10
10.783120811
 20
10.0546635375
 30
0.0
 10
10.7820536464
 20
10.0549228268
 30
0.0
 10
10.7812538104
 20
10.0551174744
 30
0.0
 10
10.780585571
 20
10.0552791062
 30
0.0
 10
10.7801211579
 20
10.0553933759
 30
0.0
 10
10.7798505413
 20
10.0554569125
 30
0.0
 10
10.7796623335
 20
10.0555095238
 30
0.0
 10
10.779417726
 20
10.0555431801
 30
0.0
 10
10.7791112555
 20
10.0555946668
 30
0.0
 10
10.7785657662
 20
10.0556816882
 30
0.0
 10
10.7777912878
 20
10.0558076148
 30
0.0
 10
10.7768598626
 20
10.0559580375
 30
0.0
 10
10.7756186788
 20
10.0561588418
 30
0.0
 10
10.7740669537
 20
10.0564097648
 30
0.0
 10
10.7715843306
 20
10.0568112876
 30
0.0
 10
10.7684810045
 20
10.0573131752
 30
0.0
 10
10.7647570346
 20
10.0579154477
 30
0.0
 10
10.7610330545
 20
10.0585177163
 30
0.0
 10
10.7579297537
 20
10.0590196134
 30
0.0
 10
10.75544708
 20
10.0594211172
 30
0.0
 10
10.7538954838
 20
10.0596720887
 30
0.0
 10
10.7526540353
 20
10.0598727933
 30
0.0
 10
10.7517234185
 20
10.0600235205
 30
0.0
 10
10.7509464109
 20
10.0601484944
 30
0.0
 10
10.7504054366
 20
10.0602372166
 30
0.0
 10
10.750091732
 20
10.060285978
 30
0.0
 10
10.7498693454
 20
10.0603280058
 30
0.0
 10
10.7495976795
 20
10.0603491753
 30
0.0
 10
10.7492526474
 20
10.060384677
 30
0.0
 10
10.7486408325
 20
10.0604434151
 30
0.0
 10
10.7477709983
 20
10.0605290989
 30
0.0
 10
10.746725405
 20
10.0606311609
 30
0.0
 10
10.7453319066
 20
10.0607675085
 30
0.0
 10
10.7435898193
 20
10.0609378523
 30
0.0
 10
10.7408025994
 20
10.061210453
 30
0.0
 10
10.7373185334
 20
10.0615511866
 30
0.0
 10
10.7331376719
 20
10.0619600743
 30
0.0
 10
10.7289568056
 20
10.0623689601
 30
0.0
 10
10.723382319
 20
10.0629141417
 30
0.0
 10
10.7192014536
 20
10.0633230278
 30
0.0
 10
10.7164142101
 20
10.0635956186
 30
0.0
  0
SPLINE
  5
3D7
100
AcDbEntity
  8
0
100
AcDbSpline
 62
4
  6
CONTINUOUS
 70
0
 71
3
 72
334
 73
330
 74
0
 42
0.0000001
 43
0.0000001
 44
0.0000000001
 40
0.0
 40
0.0
 40
0.0
 40
0.0
 40
0.015625
 40
0.03125
 40
0.0390625
 40
0.046875
 40
0.05078125
 40
0.0546875
 40
0.05859375
 40
0.060546875
 40
0.0615234375
 40
0.0625
 40
0.0634765625
 40
0.064453125
 40
0.06640625
 40
0.0703125
 40
0.07421875
 40
0.078125
 40
0.0859375
 40
0.09375
 40
0.1015625
 40
0.109375
 40
0.11328125
 40
0.1171875
 40
0.12109375
 40
0.123046875
 40
0.1240234375
 40
0.125
 40
0.1259765625
 40
0.126953125
 40
0.12890625
 40
0.1328125
 40
0.13671875
 40
0.140625
 40
0.1484375
 40
0.15625
 40
0.1640625
 40
0.171875
 40
0.17578125
 40
0.1796875
 40
0.18359375
 40
0.185546875
 40
0.1865234375
 40
0.1875
 40
0.1884765625
 40
0.189453125
 40
0.19140625
 40
0.1953125
 40
0.19921875
 40
0.203125
 40
0.2109375
 40
0.21875
 40
0.2265625
 40
0.234375
 40
0.23828125
 40
0.2421875
 40
0.244140625
 40
0.24609375
 40
0.248046875
 40
0.2490234375
 40
0.2495117188
 40
0.25
 40
0.2504882812
 40
0.2509765625
 40
0.251953125
 40
0.25390625
 40
0.255859375
 40
0.2578125
 40
0.26171875
 40
0.265625
 40
0.2734375
 40
0.28125
 40
0.2890625
 40
0.296875
 40
0.30078125
 40
0.3046875
 40
0.306640625
 40
0.30859375
 40
0.310546875
 40
0.3115234375
 40
0.3120117188
 40
0.3125
 40
0.3129882812
 40
0.3134765625
 40
0.314453125
 40
0.31640625
 40
0.318359375
 40
0.3203125
 40
0.32421875
 40
0.328125
 40
0.3359375
 40
0.34375
 40
0.3515625
 40
0.35546875
 40
0.359375
 40
0.36328125
 40
0.3671875
 40
0.369140625
 40
0.37109375
 40
0.373046875
 40
0.3740234375
 40
0.3745117188
 40
0.375
 40
0.3754882812
 40
0.3759765625
 40
0.376953125
 40
0.37890625
 40
0.380859375
 40
0.3828125
 40
0.38671875
 40
0.390625
 40
0.39453125
 40
0.3984375
 40
0.40625
 40
0.4140625
 40
0.41796875
 40
0.421875
 40
0.42578125
 40
0.4296875
 40
0.431640625
 40
0.43359375
 40
0.4345703125
 40
0.435546875
 40
0.4365234375
 40
0.4370117188
 40
0.4375
 40
0.4379882812
 40
0.4384765625
 40
0.439453125
 40
0.4404296875
 40
0.44140625
 40
0.443359375
 40
0.4453125
 40
0.44921875
 40
0.453125
 40
0.45703125
 40
0.4609375
 40
0.46875
 40
0.4765625
 40
0.48046875
 40
0.484375
 40
0.48828125
 40
0.4921875
 40
0.494140625
 40
0.49609375
 40
0.4970703125
 40
0.498046875
 40
0.4990234375
 40
0.4995117188
 40
0.4997558594
 40
0.5
 40
0.5002441406
 40
0.5004882812
 40
0.5009765625
 40
0.501953125
 40
0.5029296875
 40
0.50390625
 40
0.505859375
 40
0.5078125
 40
0.51171875
 40
0.515625
 40
0.51953125
 40
0.5234375
 40
0.53125
 40
0.5390625
 40
0.54296875
 40
0.546875
 40
0.55078125
 40
0.5546875
 40
0.556640625
 40
0.55859375
 40
0.5595703125
 40
0.560546875
 40
0.5615234375
 40
0.5620117188
 40
0.5622558594
 40
0.5625
 40
0.5627441406
 40
0.5629882812
 40
0.5634765625
 40
0.564453125
 40
0.5654296875
 40
0.56640625
 40
0.568359375
 40
0.5703125
 40
0.57421875
 40
0.578125
 40
0.58203125
 40
0.5859375
 40
0.59375
 40
0.6015625
 40
0.60546875
 40
0.609375
 40
0.61328125
 40
0.6171875
 40
0.619140625
 40
0.62109375
 40
0.6220703125
 40
0.623046875
 40
0.6240234375
 40
0.6245117188
 40
0.6247558594
 40
0.625
 40
0.6252441406
 40
0.6254882812
 40
0.6259765625
 40
0.626953125
 40
0.6279296875
 40
0.62890625
 40
0.630859375
 40
0.6328125
 40
0.63671875
 40
0.640625
 40
0.64453125
 40
0.6484375
 40
0.65625
 40
0.6640625
 40
0.66796875
 40
0.671875
 40
0.67578125
 40
0.6796875
 40
0.681640625
 40
0.68359375
 40
0.6845703125
 40
0.685546875
 40
0.6865234375
 40
0.6870117188
 40
0.6872558594
 40
0.6875
 40
0.6877441406
 40
0.6879882812
 40
0.6884765625
 40
0.689453125
 40
0.6904296875
 40
0.69140625
 40
0.693359375
 40
0.6953125
 40
0.69921875
 40
0.703125
 40
0.70703125
 40
0.7109375
 40
0.71875
 40
0.7265625
 40
0.73046875
 40
0.734375
 40
0.73828125
 40
0.7421875
 40
0.744140625
 40
0.74609375
 40
0.7470703125
 40
0.748046875
 40
0.7490234375
 40
0.7495117188
 40
0.75
 40
0.7504882812
 40
0.7509765625
 40
0.751953125
 40
0.7529296875
 40
0.75390625
 40
0.755859375
 40
0.7578125
 40
0.76171875
 40
0.765625
 40
0.76953125
 40
0.7734375
 40
0.78125
 40
0.7890625
 40
0.796875
 40
0.80078125
 40
0.8046875
 40
0.806640625
 40
0.80859375
 40
0.810546875
 40
0.8115234375
 40
0.8120117188
 40
0.8125
 40
0.8129882812
 40
0.8134765625
 40
0.814453125
 40
0.81640625
 40
0.818359375
 40
0.8203125
 40
0.82421875
 40
0.828125
 40
0.8359375
 40
0.84375
 40
0.8515625
 40
0.859375
 40
0.86328125
 40
0.8671875
 40
0.869140625
 40
0.87109375
 40
0.873046875
 40
0.8740234375
 40
0.8745117188
 40
0.875
 40
0.8754882812
 40
0.8759765625
 40
0.876953125
 40
0.87890625
 40
0.880859375
 40
0.8828125
 40
0.88671875
 40
0.890625
 40
0.8984375
 40
0.90625
 40
0.9140625
 40
0.921875
 40
0.92578125
 40
0.9296875
 40
0.931640625
 40
0.93359375
 40
0.935546875
 40
0.9365234375
 40
0.9370117188
 40
0.9375
 40
0.9379882812
 40
0.9384765625
 40
0.939453125
 40
0.94140625
 40
0.943359375
 40
0.9453125
 40
0.94921875
 40
0.953125
 40
0.9609375
 40
0.96875
 40
0.9765625
 40
0.984375
 40
1.0
 40
1.0
 40
1.0
 40
1.0
 10
10.7164142253
 20
10.0635956175
 30
0.0
 10
10.713526048
 20
10.0637193676
 30
0.0
 10
10.7077496926
 20
10.0639668647
 30
0.0
 10
10.7005292524
 20
10.0642762514
 30
0.0
 10
10.694752892
 20
10.0645237286
 30
0.0
 10
10.6911426853
 20
10.0646784745
 30
0.0
 10
10.6882544774
 20
10.064802105
 30
0.0
 10
10.6860884381
 20
10.0648952828
 30
0.0
 10
10.6842830341
 20
10.064971484
 30
0.0
 10
10.68301998
 20
10.0650276644
 30
0.0
 10
10.682297097
 20
10.0650553337
 30
0.0
 10
10.68175814
 20
10.0650885757
 30
0.0
 10
10.6812069308
 20
10.0650740744
 30
0.0
 10
10.6804762589
 20
10.0650713927
 30
0.0
 10
10.6791955918
 20
10.0650589405
 30
0.0
 10
10.6773671085
 20
10.0650452083
 30
0.0
 10
10.675172483
 20
10.0650269932
 30
0.0
 10
10.6722464712
 20
10.0650033132
 30
0.0
 10
10.6685889037
 20
10.0649735037
 30
0.0
 10
10.6641998424
 20
10.064937828
 30
0.0
 10
10.6598107868
 20
10.0649021045
 30
0.0
 10
10.6561532048
 20
10.0648724144
 30
0.0
 10
10.653227222
 20
10.0648484956
 30
0.0
 10
10.6510325081
 20
10.0648310088
 30
0.0
 10
10.6492043014
 20
10.0648149983
 30
0.0
 10
10.6479231405
 20
10.0648066132
 30
0.0
 10
10.6471932599
 20
10.0647974151
 30
0.0
 10
10.6466396202
 20
10.0648029299
 30
0.0
 10
10.6461097915
 20
10.0647609946
 30
0.0
 10
10.6453950477
 20
10.064721632
 30
0.0
 10
10.6441481157
 20
10.0646450359
 30
0.0
 10
10.6423647611
 20
10.0645396446
 30
0.0
 10
10.6402256016
 20
10.0644114493
 30
0.0
 10
10.6373730862
 20
10.0642411253
 30
0.0
 10
10.6338075472
 20
10.064028012
 30
0.0
 10
10.6295288498
 20
10.0637723712
 30
0.0
 10
10.6252501865
 20
10.0635166828
 30
0.0
 10
10.621684562
 20
10.0633036886
 30
0.0
 10
10.6188322175
 20
10.0631331263
 30
0.0
 10
10.6166925371
 20
10.0630056577
 30
0.0
 10
10.6149108121
 20
10.0628979931
 30
0.0
 10
10.613660971
 20
10.0628254552
 30
0.0
 10
10.6129508883
 20
10.0627795904
 30
0.0
 10
10.6124067422
 20
10.0627576275
 30
0.0
 10
10.611906876
 20
10.0626881293
 30
0.0
 10
10.6112249423
 20
10.0626120459
 30
0.0
 10
10.6100387547
 20
10.0624711746
 30
0.0
 10
10.6083404387
 20
10.0622739687
 30
0.0
 10
10.6063040698
 20
10.0620355929
 30
0.0
 10
10.6035883488
 20
10.0617183624
 30
0.0
 10
10.6001938908
 20
10.0613216169
 30
0.0
 10
10.5961204571
 20
10.0608456117
 30
0.0
 10
10.5920470508
 20
10.0603695807
 30
0.0
 10
10.5886525243
 20
10.0599728996
 30
0.0
 10
10.5859369403
 20
10.0596555403
 30
0.0
 10
10.5842396178
 20
10.0594572212
 30
0.0
 10
10.5828819486
 20
10.0592984963
 30
0.0
 10
10.5818631799
 20
10.0591796433
 30
0.0
 10
10.5810158499
 20
10.0590799925
 30
0.0
 10
10.5804194928
 20
10.0590114275
 30
0.0
 10
10.5800837546
 20
10.0589703886
 30
0.0
 10
10.5798177607
 20
10.0589448458
 30
0.0
 10
10.5796060091
 20
10.0588992869
 30
0.0
 10
10.5793047534
 20
10.0588455236
 30
0.0
 10
10.5787863711
 20
10.0587481848
 30
0.0
 10
10.5780412162
 20
10.05861083
 30
0.0
 10
10.577149003
 20
10.0584452763
 30
0.0
 10
10.5759586965
 20
10.0582247924
 30
0.0
 10
10.5744710492
 20
10.0579491003
 30
0.0
 10
10.5720906816
 20
10.0575080418
 30
0.0
 10
10.5691152678
 20
10.0569567018
 30
0.0
 10
10.5655447501
 20
10.0562951014
 30
0.0
 10
10.5619742435
 20
10.0556334974
 30
0.0
 10
10.5589988021
 20
10.0550821665
 30
0.0
 10
10.5566184898
 20
10.0546410897
 30
0.0
 10
10.555130702
 20
10.054365444
 30
0.0
 10
10.5539406837
 20
10.0541448649
 30
0.0
 10
10.5530475899
 20
10.053979602
 30
0.0
 10
10.5523051903
 20
10.0538413374
 30
0.0
 10
10.5517818893
 20
10.0537456228
 30
0.0
 10
10.5514885146
 20
10.053689257
 30
0.0
 10
10.551252555
 20
10.0536516919
 30
0.0
 10
10.5510774824
 20
10.0535961258
 30
0.0
 10
10.5508228141
 20
10.0535283166
 30
0.0
 10
10.5503870399
 20
10.0534067251
 30
0.0
 10
10.549759332
 20
10.0532345523
 30
0.0
 10
10.5490082969
 20
10.0530272903
 30
0.0
 10
10.5480061433
 20
10.0527511697
 30
0.0
 10
10.5467537162
 20
10.0524059405
 30
0.0
 10
10.5447496847
 20
10.0518536177
 30
0.0
 10
10.5422446961
 20
10.0511631992
 30
0.0
 10
10.5392386885
 20
10.0503347033
 30
0.0
 10
10.5367336855
 20
10.0496442889
 30
0.0
 10
10.5347296856
 20
10.049091957
 30
0.0
 10
10.5332266762
 20
10.0486777099
 30
0.0
 10
10.5317237034
 20
10.0482634556
 30
0.0
 10
10.530471112
 20
10.0479182663
 30
0.0
 10
10.5294692944
 20
10.0476420641
 30
0.0
 10
10.5287172333
 20
10.0474350514
 30
0.0
 10
10.5280927353
 20
10.0472620985
 30
0.0
 10
10.5276512309
 20
10.0471418996
 30
0.0
 10
10.5274057439
 20
10.047071859
 30
0.0
 10
10.5272024694
 20
10.0470231472
 30
0.0
 10
10.5270724314
 20
10.0469598382
 30
0.0
 10
10.5268735017
 20
10.0468805179
 30
0.0
 10
10.5265372769
 20
10.046739335
 30
0.0
 10
10.5260507332
 20
10.0465388854
 30
0.0
 10
10.5254695442
 20
10.046297815
 30
0.0
 10
10.5246936951
 20
10.0459765733
 30
0.0
 10
10.5237242031
 20
10.0455749575
 30
0.0
 10
10.5225606758
 20
10.0450930458
 30
0.0
 10
10.5213971851
 20
10.0446111268
 30
0.0
 10
10.5198458514
 20
10.0439685707
 30
0.0
 10
10.5179066885
 20
10.0431653747
 30
0.0
 10
10.5159675245
 20
10.042362179
 30
0.0
 10
10.5144161926
 20
10.0417196225
 30
0.0
 10
10.5132526965
 20
10.0412377047
 30
0.0
 10
10.5120891895
 20
10.0407557886
 30
0.0
 10
10.5111196342
 20
10.0403541865
 30
0.0
 10
10.5103439141
 20
10.0400329168
 30
0.0
 10
10.5098592618
 20
10.0398320959
 30
0.0
 10
10.5094711443
 20
10.0396715018
 30
0.0
 10
10.5091811394
 20
10.0395508848
 30
0.0
 10
10.5089360228
 20
10.039450916
 30
0.0
 10
10.508747658
 20
10.0393697178
 30
0.0
 10
10.5085852665
 20
10.0393121613
 30
0.0
 10
10.5085034822
 20
10.0392418477
 30
0.0
 10
10.5083662793
 20
10.0391525525
 30
0.0
 10
10.5082044363
 20
10.0390394045
 30
0.0
 10
10.5080060897
 20
10.0389042814
 30
0.0
 10
10.5077430717
 20
10.0387238886
 30
0.0
 10
10.5074138048
 20
10.038498476
 30
0.0
 10
10.5068872541
 20
10.038137772
 30
0.0
 10
10.5062289709
 20
10.037686907
 30
0.0
 10
10.5054390717
 20
10.0371458625
 30
0.0
 10
10.5046491617
 20
10.0366048198
 30
0.0
 10
10.503595952
 20
10.0358834289
 30
0.0
 10
10.5022794387
 20
10.0349816905
 30
0.0
 10
10.5009629257
 20
10.034079952
 30
0.0
 10
10.4999097156
 20
10.0333585612
 30
0.0
 10
10.4991198069
 20
10.0328175181
 30
0.0
 10
10.4983299027
 20
10.0322764749
 30
0.0
 10
10.4976716352
 20
10.0318256062
 30
0.0
 10
10.4971450524
 20
10.0314649098
 30
0.0
 10
10.4968158674
 20
10.0312394777
 30
0.0
 10
10.4965526813
 20
10.0310591247
 30
0.0
 10
10.4963548485
 20
10.0309238801
 30
0.0
 10
10.4961913977
 20
10.0308111122
 30
0.0
 10
10.4960742153
 20
10.0307323004
 30
0.0
 10
10.4960115741
 20
10.0306870688
 30
0.0
 10
10.4959524232
 20
10.030653698
 30
0.0
 10
10.4959397924
 20
10.0306182139
 30
0.0
 10
10.4959067245
 20
10.0305716389
 30
0.0
 10
10.4958564161
 20
10.0304897892
 30
0.0
 10
10.4957805943
 20
10.0303730406
 30
0.0
 10
10.4956913
 20
10.0302328654
 30
0.0
 10
10.4955716501
 20
10.030045992
 30
0.0
 10
10.4954222899
 20
10.0298123911
 30
0.0
 10
10.4951832007
 20
10.0294386348
 30
0.0
 10
10.4948843778
 20
10.0289714376
 30
0.0
 10
10.4945257738
 20
10.0284108018
 30
0.0
 10
10.4941671743
 20
10.0278501658
 30
0.0
 10
10.49368904
 20
10.0271026511
 30
0.0
 10
10.4930913727
 20
10.0261682578
 30
0.0
 10
10.492493705
 20
10.0252338644
 30
0.0
 10
10.4920155713
 20
10.0244863498
 30
0.0
 10
10.4916569699
 20
10.0239257138
 30
0.0
 10
10.4912983729
 20
10.0233650777
 30
0.0
 10
10.4909995283
 20
10.0228978812
 30
0.0
 10
10.4907604834
 20
10.0225241235
 30
0.0
 10
10.4906110103
 20
10.0222905261
 30
0.0
 10
10.4904915922
 20
10.0221036455
 30
0.0
 10
10.4904015894
 20
10.0219634926
 30
0.0
 10
10.4903279846
 20
10.0218466744
 30
0.0
 10
10.4902737184
 20
10.0217649489
 30
0.0
 10
10.4902469919
 20
10.0217181749
 30
0.0
 10
10.4902148825
 20
10.0216833019
 30
0.0
 10
10.4902288898
 20
10.0216476361
 30
0.0
 10
10.4902314801
 20
10.0216003581
 30
0.0
 10
10.490243508
 20
10.021517493
 30
0.0
 10
10.4902567723
 20
10.0213991815
 30
0.0
 10
10.4902743667
 20
10.0212571789
 30
0.0
 10
10.49029724
 20
10.0210678521
 30
0.0
 10
10.4903260323
 20
10.0208311903
 30
0.0
 10
10.4903719878
 20
10.0204525332
 30
0.0
 10
10.4904294707
 20
10.0199792112
 30
0.0
 10
10.4904984336
 20
10.0194112251
 30
0.0
 10
10.490567401
 20
10.0188432389
 30
0.0
 10
10.4906593559
 20
10.0180859241
 30
0.0
 10
10.4907743001
 20
10.0171392805
 30
0.0
 10
10.490889244
 20
10.0161926368
 30
0.0
 10
10.4909811995
 20
10.015435322
 30
0.0
 10
10.491050165
 20
10.0148673358
 30
0.0
 10
10.4911191349
 20
10.0142993497
 30
0.0
 10
10.4911765962
 20
10.0138260276
 30
0.0
 10
10.4912225958
 20
10.0134473709
 30
0.0
 10
10.4912512759
 20
10.0132107081
 30
0.0
 10
10.4912743794
 20
10.0130213832
 30
0.0
 10
10.4912912705
 20
10.0128793749
 30
0.0
 10
10.4913067354
 20
10.0127610813
 30
0.0
 10
10.4913148348
 20
10.0126781842
 30
0.0
 10
10.4913237195
 20
10.0126309575
 30
0.0
 10
10.4913183926
 20
10.0125951344
 30
0.0
 10
10.491358899
 20
10.012560852
 30
0.0
 10
10.4913969204
 20
10.0125146047
 30
0.0
 10
10.4914709066
 20
10.0124339223
 30
0.0
 10
10.4915727069
 20
10.0123185309
 30
0.0
 10
10.4916965341
 20
10.0121801172
 30
0.0
 10
10.4918610548
 20
10.011995546
 30
0.0
 10
10.4920669051
 20
10.0117648388
 30
0.0
 10
10.4923961541
 20
10.0113957034
 30
0.0
 10
10.4928077535
 20
10.0109342855
 30
0.0
 10
10.4933016565
 20
10.0103805835
 30
0.0
 10
10.4937955639
 20
10.0098268816
 30
0.0
 10
10.4944541055
 20
10.0090886124
 30
0.0
 10
10.4952772831
 20
10.0081657759
 30
0.0
 10
10.4961004603
 20
10.0072429394
 30
0.0
 10
10.4967590025
 20
10.0065046702
 30
0.0
 10
10.497252908
 20
10.0059509682
 30
0.0
 10
10.4977468179
 20
10.0053972665
 30
0.0
 10
10.4981583958
 20
10.0049358476
 30
0.0
 10
10.4984876888
 20
10.0045667143
 30
0.0
 10
10.4986934271
 20
10.0043360017
 30
0.0
 10
10.4988581776
 20
10.0041514416
 30
0.0
 10
10.4989813029
 20
10.0040129942
 30
0.0
 10
10.499085299
 20
10.0038977082
 30
0.0
 10
10.4991553653
 20
10.0038168376
 30
0.0
 10
10.4991996673
 20
10.0037708919
 30
0.0
 10
10.4992208819
 20
10.0037356831
 30
0.0
 10
10.499288012
 20
10.0037033394
 30
0.0
 10
10.4993615031
 20
10.0036592151
 30
0.0
 10
10.4994975744
 20
10.0035824632
 30
0.0
 10
10.4996880608
 20
10.0034725741
 30
0.0
 10
10.4999183143
 20
10.0033408115
 30
0.0
 10
10.5002247358
 20
10.0031650915
 30
0.0
 10
10.5006079623
 20
10.0029454541
 30
0.0
 10
10.5012210132
 20
10.0025940272
 30
0.0
 10
10.501987365
 20
10.002154746
 30
0.0
 10
10.5029069708
 20
10.0016276075
 30
0.0
 10
10.503826581
 20
10.0011004693
 30
0.0
 10
10.5050527264
 20
10.0003976182
 30
0.0
 10
10.5065854086
 20
9.9995190544
 30
0.0
 10
10.508118091
 20
9.9986404907
 30
0.0
 10
10.509344236
 20
9.9979376395
 30
0.0
 10
10.5102638475
 20
9.9974105017
 30
0.0
 10
10.5111834485
 20
9.9968833619
 30
0.0
 10
10.5119498152
 20
9.9964440847
 30
0.0
 10
10.5125628357
 20
9.9960926496
 30
0.0
 10
10.5129461394
 20
9.9958730329
 30
0.0
 10
10.5132524026
 20
9.9956972705
 30
0.0
 10
10.5134831395
 20
9.9955656374
 30
0.0
 10
10.5136721135
 20
9.9954553429
 30
0.0
 10
10.5138307092
 20
9.9953684537
 30
0.0
 10
10.5139293906
 20
9.9952996079
 30
0.0
 10
10.5141054252
 20
9.9952448041
 30
0.0
 10
10.5143131175
 20
9.9951668274
 30
0.0
 10
10.5145820034
 20
9.9950710394
 30
0.0
 10
10.5149006984
 20
9.9949553734
 30
0.0
 10
10.5153270111
 20
9.9948014037
 30
0.0
 10
10.5158594273
 20
9.9946088554
 30
0.0
 10
10.5167115586
 20
9.9943008263
 30
0.0
 10
10.5177766317
 20
9.9939157733
 30
0.0
 10
10.5190547584
 20
9.9934537169
 30
0.0
 10
10.5203328746
 20
9.9929916586
 30
0.0
 10
10.5220370335
 20
9.9923755816
 30
0.0
 10
10.5241672293
 20
9.9916054847
 30
0.0
 10
10.5267234716
 20
9.9906813701
 30
0.0
 10
10.5288536527
 20
9.9899112699
 30
0.0
 10
10.5305578439
 20
9.9892952002
 30
0.0
 10
10.5316228578
 20
9.9889101327
 30
0.0
 10
10.5324751109
 20
9.9886021336
 30
0.0
 10
10.5331136382
 20
9.9883709841
 30
0.0
 10
10.533647852
 20
9.9881788371
 30
0.0
 10
10.5340176652
 20
9.988043397
 30
0.0
 10
10.5342354459
 20
9.987967466
 30
0.0
 10
10.5343805864
 20
9.9879063953
 30
0.0
 10
10.5345952776
 20
9.9878610832
 30
0.0
 10
10.5348572724
 20
9.9877951702
 30
0.0
 10
10.5353270665
 20
9.9876823837
 30
0.0
 10
10.5359922916
 20
9.987519921
 30
0.0
 10
10.5367930911
 20
9.987325539
 30
0.0
 10
10.5378599403
 20
9.9870661628
 30
0.0
 10
10.5391938042
 20
9.9867420111
 30
0.0
 10
10.5413278175
 20
9.98622333
 30
0.0
 10
10.5439953924
 20
9.9855749919
 30
0.0
 10
10.5471964559
 20
9.98479698
 30
0.0
 10
10.5503975315
 20
9.9840189714
 30
0.0
 10
10.5530650762
 20
9.983370625
 30
0.0
 10
10.5551991499
 20
9.9828519606
 30
0.0
 10
10.5565328602
 20
9.9825277665
 30
0.0
 10
10.5576000247
 20
9.9822684772
 30
0.0
 10
10.5583998608
 20
9.9820738296
 30
0.0
 10
10.5590681001
 20
9.9819121978
 30
0.0
 10
10.5595325133
 20
9.9817979281
 30
0.0
 10
10.5598031299
 20
9.9817343915
 30
0.0
 10
10.5599913377
 20
9.9816817802
 30
0.0
 10
10.5602359452
 20
9.9816481239
 30
0.0
 10
10.5605424157
 20
9.9815966372
 30
0.0
 10
10.561087905
 20
9.9815096159
 30
0.0
 10
10.5618623833
 20
9.9813836892
 30
0.0
 10
10.5627938085
 20
9.9812332665
 30
0.0
 10
10.5640349924
 20
9.9810324622
 30
0.0
 10
10.5655867175
 20
9.9807815392
 30
0.0
 10
10.5680693406
 20
9.9803800164
 30
0.0
 10
10.5711726667
 20
9.9798781288
 30
0.0
 10
10.5748966366
 20
9.9792758564
 30
0.0
 10
10.5786206167
 20
9.9786735877
 30
0.0
 10
10.5817239174
 20
9.9781716906
 30
0.0
 10
10.5842065912
 20
9.9777701869
 30
0.0
 10
10.5857581874
 20
9.9775192153
 30
0.0
 10
10.5869996359
 20
9.9773185107
 30
0.0
 10
10.5879302527
 20
9.9771677835
 30
0.0
 10
10.5887072602
 20
9.9770428096
 30
0.0
 10
10.5892482346
 20
9.9769540874
 30
0.0
 10
10.5895619392
 20
9.976905326
 30
0.0
 10
10.5897843257
 20
9.9768632983
 30
0.0
 10
10.5900559917
 20
9.9768421287
 30
0.0
 10
10.5904010238
 20
9.976806627
 30
0.0
 10
10.5910128387
 20
9.9767478889
 30
0.0
 10
10.5918826729
 20
9.9766622051
 30
0.0
 10
10.5929282662
 20
9.9765601431
 30
0.0
 10
10.5943217646
 20
9.9764237955
 30
0.0
 10
10.5960638519
 20
9.9762534517
 30
0.0
 10
10.5988510717
 20
9.975980851
 30
0.0
 10
10.6023351377
 20
9.9756401174
 30
0.0
 10
10.6065159993
 20
9.9752312297
 30
0.0
 10
10.6106968655
 20
9.974822344
 30
0.0
 10
10.6162713522
 20
9.9742771623
 30
0.0
 10
10.6204522176
 20
9.9738682762
 30
0.0
 10
10.6232394611
 20
9.9735956854
 30
0.0
  0
ENDSEC
  0
SECTION
  2
OBJECTS
  0
DICTIONARY
  5
C
100
AcDbDictionary
280
0
281
1
  3
ACAD_GROUP
350
D
  3
ACAD_MLINESTYLE
350
17
  3
ACAD_LAYOUT
350
1A
  3
ACAD_PLOTSETTINGS
350
19
  3
ACAD_PLOTSTYLENAME
350
E
  3
ACAD_IMAGE_DICT
350
       3D9
  3
ACAD_IMAGE_VARS
350
       3DA
  3
ACAD_TABLESTYLE
350
       3DB
  0
IMAGEDEF_REACTOR
  5
3D8
100
AcDbRasterImageDefReactor
 90
2
330
292
  0
DICTIONARY
  5
D
102
{ACAD_REACTORS
330
C
102
}
100
AcDbDictionary
280
0
281
1
  0
ACDBDICTIONARYWDFLT
  5
E
102
{ACAD_REACTORS
330
C
102
}
100
AcDbDictionary
281
1
  3
Normal
350
F
100
AcDbDictionaryWithDefault
340
F
  0
DICTIONARY
  5
3D9
330
C
100
AcDbDictionary
281
1
  3
XOC_assy_2_img_1
350
       3DE
  0
RASTERVARIABLES
  5
3DA
330
C
100
AcDbRasterVariables
 90
0
 70
0
 71
1
 72
5
  0
DICTIONARY
  5
17
102
{ACAD_REACTORS
330
C
102
}
100
AcDbDictionary
280
0
281
1
  3
Standard
350
18
  0
DICTIONARY
  5
3DB
330
C
100
AcDbDictionary
281
1
  3
Standard
350
       3DF
  3
Standard1
350
       3E0
  0
DICTIONARY
  5
19
102
{ACAD_REACTORS
330
C
102
}
100
AcDbDictionary
281
1
  0
DICTIONARY
  5
1A
102
{ACAD_REACTORS
330
C
102
}
100
AcDbDictionary
281
1
  3
Model
350
3DC
  3
Layout1
350
3DD
  0
ACDBPLACEHOLDER
  5
F
102
{ACAD_REACTORS
330
E
102
}
  0
MLINESTYLE
  5
18
102
{ACAD_REACTORS
330
17
102
}
100
AcDbMlineStyle
  2
STANDARD
 70
0
  3

 62
256
 51
90.0
 52
90.0
 71
2
 49
0.5
 62
256
  6
BYLAYER
 49
-0.5
 62
256
  6
BYLAYER
  0
LAYOUT
  5
3DC
102
{ACAD_REACTORS
330
1A
102
}
100
AcDbPlotSettings
  1

  2
none_device
  4
ANSI_C_(22.00_x_17.00_Inches)
  6

 40
0.0
 41
0.0
 42
0.0
 43
0.0
 44
558.8
 45
431.8
 46
0.0
 47
0.0
 48
0.0
 49
0.0
140
0.0
141
0.0
142
1.0
143
1.0
 70
1024
 72
0
 73
0
 74
0
  7

 75
0
147
1.0
148
0.0
149
0.0
100
AcDbLayout
  1
Model
 70
0
 71
0
 10
0.0
 20
0.0
 11
22.0
 21
17.0
 12
0.0
 22
0.0
 32
0.0
 14
0.0
 24
0.0
 34
0.0
 15
0.0
 25
0.0
 35
0.0
146
0.0
 13
0.0
 23
0.0
 33
0.0
 16
1.0
 26
0.0
 36
0.0
 17
0.0
 27
1.0
 37
0.0
 76
0
330
20C
345
0
346
0
  0
LAYOUT
  5
3DD
102
{ACAD_REACTORS
330
1A
102
}
100
AcDbPlotSettings
  1

  2
none_device
  4
ANSI_C_(22.00_x_17.00_Inches)
  6

 40
0.0
 41
0.0
 42
0.0
 43
0.0
 44
558.8
 45
431.8
 46
0.0
 47
0.0
 48
0.0
 49
0.0
140
0.0
141
0.0
142
1.0
143
1.0
 70
0
 72
0
 73
0
 74
0
  7

 75
0
147
1.0
148
0.0
149
0.0
100
AcDbLayout
  1
Layout1
 70
0
 71
1
 10
0.0
 20
0.0
 11
22.0
 21
17.0
 12
0.0
 22
0.0
 32
0.0
 14
0.0
 24
0.0
 34
0.0
 15
0.0
 25
0.0
 35
0.0
146
0.0
 13
0.0
 23
0.0
 33
0.0
 16
1.0
 26
0.0
 36
0.0
 17
0.0
 27
1.0
 37
0.0
 76
0
330
20D
345
0
346
0
  0
IMAGEDEF
  5
3DE
102
{ACAD_REACTORS
330
3D9
330
3D8
102
}
100
AcDbRasterImageDef
 90
0
  1
XOC_assy_2_img_1.png
 10
369.0
 20
92.0
 11
0.0066666667
 21
0.0066666667
280
1
281
0
  0
TABLESTYLE
  5
3DF
102
{ACAD_REACTORS
330
3DB
330
295
330
296
102
}
330
3DB
100
AcDbTableStyle
  3
Standard
 70
0
 71
0
 40
0.06
 41
0.06
280
1
281
1
  7
Standard
140
0.18
170
1
 62
0
 63
7
283
0
  7
Standard
140
0.18
170
1
 62
0
 63
7
283
0
  7
Standard
140
0.18
170
1
 62
0
 63
7
283
0
  0
TABLESTYLE
  5
3E0
102
{ACAD_REACTORS
330
3DB
330
294
102
}
330
3DB
100
AcDbTableStyle
  3
Standard1
 70
1
 71
0
 40
0.06
 41
0.06
280
1
281
1
  7
Standard
140
0.18
170
1
 62
0
 63
7
283
0
  7
Standard
140
0.18
170
1
 62
0
 63
7
283
0
  7
Standard
140
0.18
170
1
 62
0
 63
7
283
0
  0
ENDSEC
  0
EOF
