999
DXF file: XNA_assy_2.dxf
999
Pro/ENGINEER 2014200 by Parametric Technology Corporation
  0
SECTION
  2
HEADER
  9
$ACADVER
  1
AC1021
  9
$DWGCODEPAGE
  3
ANSI_1252
  9
$EXTMAX
 10
22.0
 20
17.0
 30
0.0
  9
$EXTMIN
 10
0.0
 20
0.0
 30
0.0
  9
$LIMMIN
 10
0.0
 20
0.0
  9
$LIMMAX
 10
22.0
 20
17.0
  9
$VIEWCTR
 10
11.0
 20
8.5
  9
$VIEWSIZE
 40
17.0
  9
$CLAYER
  8
0
  9
$LTSCALE
 40
1.21
  9
$CELTYPE
  6
BYLAYER
  9
$DIMSCALE
 40
1.0
  9
$DIMASZ
 40
0.1875
  9
$DIMEXO
 40
0.0625
  9
$DIMDLI
 40
0.836
  9
$DIMEXE
 40
0.125
  9
$DIMCEN
 40
0.198
  9
$DIMLFAC
 40
1.0
  9
$DIMBLK
  1
_FILLED
  9
$DIMTXT
 40
0.1
  9
$DIMTOL
 70
0
  9
$DIMLIM
 70
0
  9
$DIMTFAC
 40
1.0
  9
$DIMGAP
 40
0.09
  9
$DIMDSEP
 70
46
  9
$AUNITS
 70
0
  9
$PDMODE
 70
3
  9
$PDSIZE
 40
0.3125
  9
$HANDSEED
  5
416
  9
$TILEMODE
 70
1
  9
$MEASUREMENT
 70
0
  9
$INSUNITS
 70
1
  0
ENDSEC
  0
SECTION
  2
CLASSES
  0
CLASS
  1
ACDBDICTIONARYWDFLT
  2
AcDbDictionaryWithDefault
  3
AutoCAD 2000
 90
0
 91
1
280
0
281
0
  0
CLASS
  1
ACDBPLACEHOLDER
  2
AcDbPlaceHolder
  3
AutoCAD 2000
 90
0
 91
1
280
0
281
0
  0
CLASS
  1
LAYOUT
  2
AcDbLayout
  3
AutoCAD 2000
 90
0
 91
0
280
0
281
0
  0
CLASS
  1
RASTERVARIABLES
  2
AcDbRasterVariables
  3
ISM
 90
0
 91
1
280
0
281
0
  0
CLASS
  1
IMAGEDEF
  2
AcDbRasterImageDef
  3
ISM
 90
0
 91
1
280
0
281
0
  0
CLASS
  1
IMAGEDEF_REACTOR
  2
AcDbRasterImageDefReactor
  3
ISM
 90
0
 91
1
280
0
281
0
  0
CLASS
  1
IMAGE
  2
AcDbRasterImage
  3
ISM
 90
127
 91
1
280
0
281
1
  0
CLASS
  1
TABLESTYLE
  2
AcDbTableStyle
  3
ObjectDBX Classes
 90
2047
 91
1
280
0
281
0
  0
CLASS
  1
ACAD_TABLE
  2
AcDbTable
  3
ObjectDBX Classes
 90
1025
 91
3
280
0
281
1
  0
ENDSEC
  0
SECTION
  2
TABLES
  0
TABLE
  2
VPORT
  5
8
100
AcDbSymbolTable
 70
2
  0
VPORT
  5
1F4
100
AcDbSymbolTableRecord
100
AcDbViewportTableRecord
  2
*ACTIVE
 70
0
 10
0.0
 20
0.0
 11
1.0
 21
1.0
 12
11.0
 22
8.5
 13
0.0
 23
0.0
 14
1.0
 24
1.0
 15
0.0
 25
0.0
 16
0.0
 26
0.0
 36
1.0
 17
0.0
 27
0.0
 37
0.0
 40
17.0
 41
1.2941176471
 42
50.0
 43
0.0
 44
0.0
 50
0.0
 51
0.0
 71
0
 72
100
 73
1
 74
1
 75
0
 76
0
 77
0
 78
0
  0
ENDTAB
  0
TABLE
  2
LTYPE
  5
5
100
AcDbSymbolTable
 70
6
  0
LTYPE
  5
14
100
AcDbSymbolTableRecord
100
AcDbLinetypeTableRecord
  2
BYBLOCK
 70
0
  3

 72
65
 73
0
 40
0.0
  0
LTYPE
  5
15
100
AcDbSymbolTableRecord
100
AcDbLinetypeTableRecord
  2
BYLAYER
 70
0
  3

 72
65
 73
0
 40
0.0
  0
LTYPE
  5
16
100
AcDbSymbolTableRecord
100
AcDbLinetypeTableRecord
  2
CONTINUOUS
 70
64
  3
Solid line
 72
65
 73
0
 40
0.0
  0
LTYPE
  5
1F5
100
AcDbSymbolTableRecord
100
AcDbLinetypeTableRecord
  2
CENTER
 70
64
  3
____ _ ____ _ ____ _ ____ _ ____ _ ____ _ ____
 72
65
 73
4
 40
0.6
 49
0.375
 74
0
 49
-0.075
 74
0
 49
0.075
 74
0
 49
-0.075
 74
0
  0
LTYPE
  5
1F6
100
AcDbSymbolTableRecord
100
AcDbLinetypeTableRecord
  2
HIDDEN
 70
64
  3
- - - - - - - - - - - - - - - - - - - -
 72
65
 73
2
 40
0.2
 49
0.1
 74
0
 49
-0.1
 74
0
  0
LTYPE
  5
1F7
100
AcDbSymbolTableRecord
100
AcDbLinetypeTableRecord
  2
PHANTOM
 70
64
  3
_____ _ _ _____ _ _ _____ _ _ _____
 72
65
 73
6
 40
0.8
 49
0.45
 74
0
 49
-0.05
 74
0
 49
0.1
 74
0
 49
-0.05
 74
0
 49
0.1
 74
0
 49
-0.05
 74
0
  0
LTYPE
  5
1F8
100
AcDbSymbolTableRecord
100
AcDbLinetypeTableRecord
  2
DOT
 70
64
  3
. . . . . . . . . . . . . . . . . . . .
 72
65
 73
2
 40
0.2
 49
0.1
 74
0
 49
-0.1
 74
0
  0
LTYPE
  5
1F9
100
AcDbSymbolTableRecord
100
AcDbLinetypeTableRecord
  2
DASHED
 70
64
  3
- - - - - - - - - - - - - - - - - - - -
 72
65
 73
2
 40
0.2
 49
0.1
 74
0
 49
-0.1
 74
0
  0
ENDTAB
  0
TABLE
  2
LAYER
  5
2
100
AcDbSymbolTable
 70
36
  0
LAYER
  5
10
100
AcDbSymbolTableRecord
100
AcDbLayerTableRecord
  2
0
 70
0
 62
7
  6
CONTINUOUS
370
-3
390
F
  0
LAYER
  5
1FA
100
AcDbSymbolTableRecord
100
AcDbLayerTableRecord
  2
DEFAULT_1
 70
0
 62
7
  6
CENTER
370
-3
390
F
  0
LAYER
  5
1FB
100
AcDbSymbolTableRecord
100
AcDbLayerTableRecord
  2
DEFAULT_2
 70
0
 62
8
  6
HIDDEN
370
-3
390
F
  0
LAYER
  5
1FC
100
AcDbSymbolTableRecord
100
AcDbLayerTableRecord
  2
DEFAULT_3
 70
0
 62
7
  6
PHANTOM
370
-3
390
F
  0
LAYER
  5
1FD
100
AcDbSymbolTableRecord
100
AcDbLayerTableRecord
  2
01___PRT_ALL_DTM_PLN
 70
0
 62
7
  6
CONTINUOUS
370
-3
390
F
  0
LAYER
  5
1FE
100
AcDbSymbolTableRecord
100
AcDbLayerTableRecord
  2
01___PRT_DEF_DTM_PLN
 70
0
 62
7
  6
CONTINUOUS
370
-3
390
F
  0
LAYER
  5
1FF
100
AcDbSymbolTableRecord
100
AcDbLayerTableRecord
  2
02___PRT_ALL_AXES
 70
0
 62
7
  6
CONTINUOUS
370
-3
390
F
  0
LAYER
  5
200
100
AcDbSymbolTableRecord
100
AcDbLayerTableRecord
  2
03___PRT_ALL_CURVES
 70
0
 62
7
  6
CONTINUOUS
370
-3
390
F
  0
LAYER
  5
201
100
AcDbSymbolTableRecord
100
AcDbLayerTableRecord
  2
04___PRT_ALL_DTM_PNT
 70
0
 62
7
  6
CONTINUOUS
370
-3
390
F
  0
LAYER
  5
202
100
AcDbSymbolTableRecord
100
AcDbLayerTableRecord
  2
05___PRT_ALL_DTM_CSYS
 70
0
 62
7
  6
CONTINUOUS
370
-3
390
F
  0
LAYER
  5
203
100
AcDbSymbolTableRecord
100
AcDbLayerTableRecord
  2
05___PRT_DEF_DTM_CSYS
 70
0
 62
7
  6
CONTINUOUS
370
-3
390
F
  0
LAYER
  5
204
100
AcDbSymbolTableRecord
100
AcDbLayerTableRecord
  2
06___PRT_ALL_SURFS
 70
0
 62
7
  6
CONTINUOUS
370
-3
390
F
  0
LAYER
  5
205
100
AcDbSymbolTableRecord
100
AcDbLayerTableRecord
  2
DATUM_PLANES
 70
0
 62
7
  6
CONTINUOUS
370
-3
390
F
  0
LAYER
  5
206
100
AcDbSymbolTableRecord
100
AcDbLayerTableRecord
  2
PORT_AREAS
 70
0
 62
7
  6
CONTINUOUS
370
-3
390
F
  0
LAYER
  5
207
100
AcDbSymbolTableRecord
100
AcDbLayerTableRecord
  2
SUNNBOMCOSMETIC
 70
0
 62
7
  6
CONTINUOUS
370
-3
390
F
  0
LAYER
  5
208
100
AcDbSymbolTableRecord
100
AcDbLayerTableRecord
  2
SUNNBOMSTAMPING
 70
0
 62
7
  6
CONTINUOUS
370
-3
390
F
  0
LAYER
  5
209
100
AcDbSymbolTableRecord
100
AcDbLayerTableRecord
  2
THREADS
 70
0
 62
7
  6
CONTINUOUS
370
-3
390
F
  0
ENDTAB
  0
TABLE
  2
STYLE
  5
3
100
AcDbSymbolTable
 70
1
  0
STYLE
  5
11
100
AcDbSymbolTableRecord
100
AcDbTextStyleTableRecord
  2
STANDARD
 70
0
 40
0.0
 41
0.8
 50
0.0
 71
0
 42
0.2
  3
txt
  4

  0
STYLE
  5
20A
100
AcDbSymbolTableRecord
100
AcDbTextStyleTableRecord
  2
TEXTSTYLE_1
 70
0
 40
0.0
 41
0.8
 50
0.0
 71
0
 42
0.2
  3
gdt
  4

  0
ENDTAB
  0
TABLE
  2
VIEW
  5
6
100
AcDbSymbolTable
 70
0
  0
ENDTAB
  0
TABLE
  2
UCS
  5
7
100
AcDbSymbolTable
 70
0
  0
ENDTAB
  0
TABLE
  2
APPID
  5
9
100
AcDbSymbolTable
 70
1
  0
APPID
  5
20B
100
AcDbSymbolTableRecord
100
AcDbRegAppTableRecord
  2
ACAD
 70
0
  0
ENDTAB
  0
TABLE
  2
BLOCK_RECORD
  5
1
100
AcDbSymbolTable
 70
0
  0
BLOCK_RECORD
  5
20C
100
AcDbSymbolTableRecord
100
AcDbBlockTableRecord
  2
*Model_Space
  0
BLOCK_RECORD
  5
20D
100
AcDbSymbolTableRecord
100
AcDbBlockTableRecord
  2
*Paper_Space
  0
BLOCK_RECORD
  5
20E
100
AcDbSymbolTableRecord
100
AcDbBlockTableRecord
  2
SUN_FIRST_THIRD_ANGLE_BL0
  0
BLOCK_RECORD
  5
20F
100
AcDbSymbolTableRecord
100
AcDbBlockTableRecord
  2
*T1
  0
BLOCK_RECORD
  5
210
100
AcDbSymbolTableRecord
100
AcDbBlockTableRecord
  2
*T2
  0
BLOCK_RECORD
  5
211
100
AcDbSymbolTableRecord
100
AcDbBlockTableRecord
  2
*T3
  0
ENDTAB
  0
TABLE
  2
DIMSTYLE
  5
A
100
AcDbSymbolTable
 70
1
100
AcDbDimStyleTable
 71
0
  0
DIMSTYLE
105
212
100
AcDbSymbolTableRecord
100
AcDbDimStyleTableRecord
  2
STANDARD
 70
0
  3

  4

 40
1.0
 41
0.1875
 42
0.0625
 43
0.38
 44
0.125
 45
0.0
 46
0.0
 47
0.001
 48
0.001
140
0.1
141
0.09
142
0.0
143
25.4
144
1.0
145
0.0
146
1.0
147
0.09
 71
0.0
 72
0.0
 73
1
 74
1
 75
0
 76
0
 77
0
 78
4
170
0
171
2
172
0
173
0
174
0
175
0
176
0
177
0
178
0
270
2
271
3
272
3
273
2
274
2
275
0
280
0
281
0
282
0
283
1
284
4
285
0
286
0
287
3
288
0
340
11
278
46
  0
ENDTAB
  0
ENDSEC
  0
SECTION
  2
BLOCKS
  0
BLOCK
  5
20
100
AcDbEntity
  8
0
100
AcDbBlockBegin
  2
*Model_Space
 70
0
 10
0.0
 20
0.0
 30
0.0
  3
*Model_Space
  1

  0
ENDBLK
  5
21
100
AcDbEntity
  8
0
100
AcDbBlockEnd
  0
BLOCK
  5
1C
100
AcDbEntity
  8
0
100
AcDbBlockBegin
  2
*Paper_Space
 70
0
 10
0.0
 20
0.0
 30
0.0
  3
*Paper_Space
  1

  0
ENDBLK
  5
1D
100
AcDbEntity
  8
0
100
AcDbBlockEnd
  0
BLOCK
  5
213
100
AcDbEntity
  8
0
100
AcDbBlockBegin
 62
2
  6
CONTINUOUS
  2
SUN_FIRST_THIRD_ANGLE_BL0
 70
64
 10
20.4816717061
 20
1.2289683772
  3
SUN_FIRST_THIRD_ANGLE_BL0
  1

  0
TEXT
  5
214
100
AcDbEntity
  8
0
100
AcDbText
 62
2
  6
CONTINUOUS
 10
19.4750896608
 20
1.4136269581
  7
STANDARD
 40
0.08
  1
FIRST ANGLE
 41
0.8
 72
0
100
AcDbText
  0
TEXT
  5
215
100
AcDbEntity
  8
0
100
AcDbText
 62
2
  6
CONTINUOUS
 10
20.7842537513
 20
1.4047600029
  7
STANDARD
 40
0.08
  1
THIRD ANGLE
 41
0.8
 72
0
100
AcDbText
  0
LINE
  5
216
100
AcDbEntity
  8
0
100
AcDbLine
 62
7
  6
CONTINUOUS
 10
19.4767170086
 20
1.1727031207
 11
19.6334271527
 21
1.1717972817
  0
LINE
  5
217
100
AcDbEntity
  8
0
100
AcDbLine
 62
7
  6
CONTINUOUS
 10
19.6596964832
 20
1.1717972817
 11
19.6950230232
 21
1.171593082
  0
LINE
  5
218
100
AcDbEntity
  8
0
100
AcDbLine
 62
7
  6
CONTINUOUS
 10
19.7194818561
 20
1.1708914427
 11
19.8852396156
 21
1.1699333054
  0
LINE
  5
219
100
AcDbEntity
  8
0
100
AcDbLine
 62
7
  6
CONTINUOUS
 10
19.4758111696
 20
1.2723454088
 11
19.88525039
 21
1.3511534004
  0
LINE
  5
21A
100
AcDbEntity
  8
0
100
AcDbLine
 62
7
  6
CONTINUOUS
 10
19.88525039
 20
1.3511534004
 11
19.8831348489
 21
0.9851647912
  0
LINE
  5
21B
100
AcDbEntity
  8
0
100
AcDbLine
 62
7
  6
CONTINUOUS
 10
19.8831348489
 20
0.9851647912
 11
19.4767170086
 21
1.0658141206
  0
LINE
  5
21C
100
AcDbEntity
  8
0
100
AcDbLine
 62
7
  6
CONTINUOUS
 10
19.4767170086
 20
1.0658141206
 11
19.4779056764
 21
1.2714536432
  0
CIRCLE
  5
21D
100
AcDbEntity
  8
0
100
AcDbCircle
 62
7
  6
CONTINUOUS
 10
20.2068232291
 20
1.1717972817
 40
0.175742101
  0
CIRCLE
  5
21E
100
AcDbEntity
  8
0
100
AcDbCircle
 62
7
  6
CONTINUOUS
 10
20.2068232291
 20
1.1717972817
 40
0.1005522074
  0
LINE
  5
21F
100
AcDbEntity
  8
0
100
AcDbLine
 62
7
  6
CONTINUOUS
 10
20.2077290681
 20
1.3756110529
 11
20.2071171714
 21
1.2379342989
  0
LINE
  5
220
100
AcDbEntity
  8
0
100
AcDbLine
 62
7
  6
CONTINUOUS
 10
20.2077290681
 20
1.2016899681
 11
20.2074674401
 21
1.1428236749
  0
LINE
  5
221
100
AcDbEntity
  8
0
100
AcDbLine
 62
7
  6
CONTINUOUS
 10
20.208634907
 20
1.101141841
 11
20.2080230104
 21
0.963465087
  0
LINE
  5
222
100
AcDbEntity
  8
0
100
AcDbLine
 62
7
  6
CONTINUOUS
 10
20.0066328138
 20
1.1745147986
 11
20.1443095678
 21
1.1739029019
  0
LINE
  5
223
100
AcDbEntity
  8
0
100
AcDbLine
 62
7
  6
CONTINUOUS
 10
20.1832714155
 20
1.1727031207
 11
20.238153505
 21
1.172335442
  0
LINE
  5
224
100
AcDbEntity
  8
0
100
AcDbLine
 62
7
  6
CONTINUOUS
 10
20.2756669918
 20
1.1717972817
 11
20.407916871
 21
1.1712095044
  0
CIRCLE
  5
225
100
AcDbEntity
  8
0
100
AcDbCircle
 62
7
  6
CONTINUOUS
 10
20.7509457401
 20
1.1693297793
 40
0.1722024983
  0
CIRCLE
  5
226
100
AcDbEntity
  8
0
100
AcDbCircle
 62
7
  6
CONTINUOUS
 10
20.7509457401
 20
1.1693297793
 40
0.0985164967
  0
LINE
  5
227
100
AcDbEntity
  8
0
100
AcDbLine
 62
7
  6
CONTINUOUS
 10
20.7169767782
 20
1.170462078
 11
20.7825395137
 21
1.1682766535
  0
LINE
  5
228
100
AcDbEntity
  8
0
100
AcDbLine
 62
7
  6
CONTINUOUS
 10
20.8177513651
 20
1.1693297793
 11
20.947965719
 21
1.1693297793
  0
LINE
  5
229
100
AcDbEntity
  8
0
100
AcDbLine
 62
7
  6
CONTINUOUS
 10
20.6875370113
 20
1.170462078
 11
20.5573226574
 21
1.170462078
  0
LINE
  5
22A
100
AcDbEntity
  8
0
100
AcDbLine
 62
7
  6
CONTINUOUS
 10
20.7486811426
 20
1.1987695462
 11
20.7486811426
 21
1.1432869085
  0
LINE
  5
22B
100
AcDbEntity
  8
0
100
AcDbLine
 62
7
  6
CONTINUOUS
 10
20.7498134414
 20
1.1059210505
 11
20.7498134414
 21
0.9757066966
  0
LINE
  5
22C
100
AcDbEntity
  8
0
100
AcDbLine
 62
7
  6
CONTINUOUS
 10
20.7486811426
 20
1.2338708068
 11
20.7486811426
 21
1.3640851607
  0
LINE
  5
22D
100
AcDbEntity
  8
0
100
AcDbLine
 62
7
  6
CONTINUOUS
 10
21.0702539817
 20
1.2701043662
 11
21.4790138229
 21
1.3448360823
  0
LINE
  5
22E
100
AcDbEntity
  8
0
100
AcDbLine
 62
7
  6
CONTINUOUS
 10
21.4790138229
 20
1.3448360823
 11
21.4790138229
 21
0.9779712941
  0
LINE
  5
22F
100
AcDbEntity
  8
0
100
AcDbLine
 62
7
  6
CONTINUOUS
 10
21.4790138229
 20
0.9779712941
 11
21.069121683
 21
1.0617614
  0
LINE
  5
230
100
AcDbEntity
  8
0
100
AcDbLine
 62
7
  6
CONTINUOUS
 10
21.0702539817
 20
1.2701043662
 11
21.069121683
 21
1.0617614
  0
LINE
  5
231
100
AcDbEntity
  8
0
100
AcDbLine
 62
7
  6
CONTINUOUS
 10
21.4790138229
 20
1.1693297793
 11
21.3159628059
 21
1.1693297793
  0
LINE
  5
232
100
AcDbEntity
  8
0
100
AcDbLine
 62
7
  6
CONTINUOUS
 10
21.2876553377
 20
1.1693297793
 11
21.2502894796
 21
1.1693297793
  0
LINE
  5
233
100
AcDbEntity
  8
0
100
AcDbLine
 62
7
  6
CONTINUOUS
 10
21.2208497126
 20
1.1659328831
 11
21.0713862804
 21
1.1659328831
  0
LINE
  5
234
100
AcDbEntity
  8
0
100
AcDbLine
 62
7
  6
CONTINUOUS
 10
20.4796138713
 20
1.5284908897
 11
20.4766766948
 21
0.9294458646
  0
ENDBLK
  5
235
100
AcDbEntity
  8
0
  6
BYBLOCK
 62
0
100
AcDbBlockEnd
  0
BLOCK
  5
236
100
AcDbEntity
  8
0
100
AcDbBlockBegin
  2
*T1
 70
1
 10
0.0
 20
0.0
  3
*T1
  1

  0
LINE
  5
237
100
AcDbEntity
  8
0
100
AcDbLine
 62
2
  6
CONTINUOUS
 10
9.275
 20
0.0
 11
-0.0
 21
0.0
  0
LINE
  5
238
100
AcDbEntity
  8
0
100
AcDbLine
 62
2
  6
CONTINUOUS
 10
9.275
 20
0.0
 11
9.275
 21
1.25
  0
LINE
  5
239
100
AcDbEntity
  8
0
100
AcDbLine
 62
2
  6
CONTINUOUS
 10
9.275
 20
0.625
 11
-0.0
 21
0.625
  0
LINE
  5
23A
100
AcDbEntity
  8
0
100
AcDbLine
 62
2
  6
CONTINUOUS
 10
9.275
 20
1.25
 11
-0.0
 21
1.25
  0
LINE
  5
23B
100
AcDbEntity
  8
0
100
AcDbLine
 62
2
  6
CONTINUOUS
 10
6.8
 20
0.0
 11
6.8
 21
1.25
  0
LINE
  5
23C
100
AcDbEntity
  8
0
100
AcDbLine
 62
2
  6
CONTINUOUS
 10
6.4
 20
0.0
 11
6.4
 21
0.625
  0
LINE
  5
23D
100
AcDbEntity
  8
0
100
AcDbLine
 62
2
  6
CONTINUOUS
 10
5.9
 20
0.0
 11
5.9
 21
0.625
  0
LINE
  5
23E
100
AcDbEntity
  8
0
100
AcDbLine
 62
2
  6
CONTINUOUS
 10
5.2
 20
0.0
 11
5.2
 21
0.625
  0
LINE
  5
23F
100
AcDbEntity
  8
0
100
AcDbLine
 62
2
  6
CONTINUOUS
 10
4.1
 20
0.0
 11
4.1
 21
1.25
  0
LINE
  5
240
100
AcDbEntity
  8
0
100
AcDbLine
 62
2
  6
CONTINUOUS
 10
-0.0
 20
0.0
 11
-0.0
 21
1.25
  0
MTEXT
  5
241
100
AcDbEntity
  8
0
100
AcDbMText
 62
2
  6
CONTINUOUS
  7
STANDARD
 71
2
 72
1
 10
6.6
 20
0.325
 30
0.0
 11
1.0
 21
0.0
 31
0.0
 44
0.9
  1
2
 40
0.125
 41
0.2
  0
MTEXT
  5
242
100
AcDbEntity
  8
0
100
AcDbMText
 62
2
  6
CONTINUOUS
  7
STANDARD
 71
2
 72
1
 10
6.15
 20
0.325
 30
0.0
 11
1.0
 21
0.0
 31
0.0
 44
0.9
  1
C
 40
0.125
 41
0.2
  0
MTEXT
  5
243
100
AcDbEntity
  8
0
100
AcDbMText
 62
2
  6
CONTINUOUS
  7
STANDARD
 71
2
 72
1
 10
5.55
 20
0.325
 30
0.0
 11
1.0
 21
0.0
 31
0.0
 44
0.9
  1
0.800
 40
0.125
 41
1.0
  0
MTEXT
  5
244
100
AcDbEntity
  8
0
100
AcDbMText
 62
2
  6
CONTINUOUS
  7
STANDARD
 71
2
 72
1
 10
4.65
 20
0.325
 30
0.0
 11
1.0
 21
0.0
 31
0.0
 44
0.9
  1
Feb-20-23
 40
0.125
 41
1.8
  0
MTEXT
  5
245
100
AcDbEntity
  8
0
100
AcDbMText
 62
2
  6
CONTINUOUS
  7
STANDARD
 71
2
 72
1
 10
2.05
 20
0.4625
 30
0.0
 11
1.0
 21
0.0
 31
0.0
 44
0.9
  1
T-19A Line mount\PCross port with shuttle on port 3s
 40
0.125
 41
6.8
  0
MTEXT
  5
246
100
AcDbEntity
  8
0
100
AcDbMText
 62
2
  6
CONTINUOUS
  7
STANDARD
 71
1
 72
1
 10
6.45
 20
0.5625
 30
0.0
 11
1.0
 21
0.0
 31
0.0
 44
0.9
  1
SHEET
 40
0.06
 41
0.48
  0
MTEXT
  5
247
100
AcDbEntity
  8
0
100
AcDbMText
 62
2
  6
CONTINUOUS
  7
STANDARD
 71
1
 72
1
 10
5.95
 20
0.5625
 30
0.0
 11
1.0
 21
0.0
 31
0.0
 44
0.9
  1
DWG SIZE
 40
0.06
 41
0.768
  0
MTEXT
  5
248
100
AcDbEntity
  8
0
100
AcDbMText
 62
2
  6
CONTINUOUS
  7
STANDARD
 71
1
 72
1
 10
5.25
 20
0.5625
 30
0.0
 11
1.0
 21
0.0
 31
0.0
 44
0.9
  1
SCALE
 40
0.06
 41
0.48
  0
MTEXT
  5
249
100
AcDbEntity
  8
0
100
AcDbMText
 62
2
  6
CONTINUOUS
  7
STANDARD
 71
1
 72
1
 10
4.15
 20
0.5625
 30
0.0
 11
1.0
 21
0.0
 31
0.0
 44
0.9
  1
DATE
 40
0.06
 41
0.384
  0
MTEXT
  5
24A
100
AcDbEntity
  8
0
100
AcDbMText
 62
2
  6
CONTINUOUS
  7
STANDARD
 71
1
 72
1
 10
0.05
 20
0.5625
 30
0.0
 11
1.0
 21
0.0
 31
0.0
 44
0.9
  1
DESCRIPTION
 40
0.06
 41
1.056
  0
MTEXT
  5
24B
100
AcDbEntity
  8
0
100
AcDbMText
 62
2
  6
CONTINUOUS
  7
STANDARD
 71
2
 72
1
 10
5.45
 20
1.0375
 30
0.0
 11
1.0
 21
0.0
 31
0.0
 44
0.9
  1
ALL DIMENSIONS IN INCH\PVIEWS ARE THIRD ANGLE
 40
0.12
 41
4.224
  0
MTEXT
  5
24C
100
AcDbEntity
  8
0
100
AcDbMText
 62
2
  6
CONTINUOUS
  7
STANDARD
 71
2
 72
1
 10
2.05
 20
0.95
 30
0.0
 11
1.0
 21
0.0
 31
0.0
 44
0.9
  1
XNA
 40
0.125
 41
0.6
  0
MTEXT
  5
24D
100
AcDbEntity
  8
0
100
AcDbMText
 62
2
  6
CONTINUOUS
  7
STANDARD
 71
1
 72
1
 10
0.05
 20
1.1875
 30
0.0
 11
1.0
 21
0.0
 31
0.0
 44
0.9
  1
MODEL
 40
0.06
 41
0.48
  0
ENDBLK
  5
24E
100
AcDbEntity
  8
0
  6
BYBLOCK
 62
0
100
AcDbBlockEnd
  0
BLOCK
  5
24F
100
AcDbEntity
  8
0
100
AcDbBlockBegin
  2
*T2
 70
1
 10
0.0
 20
0.0
  3
*T2
  1

  0
LINE
  5
250
100
AcDbEntity
  8
0
100
AcDbLine
 62
2
  6
CONTINUOUS
 10
0.0
 20
0.0
 11
9.055
 21
0.0
  0
LINE
  5
251
100
AcDbEntity
  8
0
100
AcDbLine
 62
2
  6
CONTINUOUS
 10
0.0
 20
0.0
 11
0.0
 21
-3.094
  0
LINE
  5
252
100
AcDbEntity
  8
0
100
AcDbLine
 62
2
  6
CONTINUOUS
 10
0.0
 20
-0.344
 11
9.055
 21
-0.344
  0
LINE
  5
253
100
AcDbEntity
  8
0
100
AcDbLine
 62
2
  6
CONTINUOUS
 10
0.0
 20
-0.594
 11
9.055
 21
-0.594
  0
LINE
  5
254
100
AcDbEntity
  8
0
100
AcDbLine
 62
2
  6
CONTINUOUS
 10
0.0
 20
-0.844
 11
9.055
 21
-0.844
  0
LINE
  5
255
100
AcDbEntity
  8
0
100
AcDbLine
 62
2
  6
CONTINUOUS
 10
0.0
 20
-1.094
 11
9.055
 21
-1.094
  0
LINE
  5
256
100
AcDbEntity
  8
0
100
AcDbLine
 62
2
  6
CONTINUOUS
 10
0.0
 20
-1.344
 11
9.055
 21
-1.344
  0
LINE
  5
257
100
AcDbEntity
  8
0
100
AcDbLine
 62
2
  6
CONTINUOUS
 10
0.0
 20
-1.594
 11
9.055
 21
-1.594
  0
LINE
  5
258
100
AcDbEntity
  8
0
100
AcDbLine
 62
2
  6
CONTINUOUS
 10
0.0
 20
-1.844
 11
9.055
 21
-1.844
  0
LINE
  5
259
100
AcDbEntity
  8
0
100
AcDbLine
 62
2
  6
CONTINUOUS
 10
0.0
 20
-2.094
 11
9.055
 21
-2.094
  0
LINE
  5
25A
100
AcDbEntity
  8
0
100
AcDbLine
 62
2
  6
CONTINUOUS
 10
0.0
 20
-2.344
 11
9.055
 21
-2.344
  0
LINE
  5
25B
100
AcDbEntity
  8
0
100
AcDbLine
 62
2
  6
CONTINUOUS
 10
0.0
 20
-2.594
 11
9.055
 21
-2.594
  0
LINE
  5
25C
100
AcDbEntity
  8
0
100
AcDbLine
 62
2
  6
CONTINUOUS
 10
0.0
 20
-2.844
 11
9.055
 21
-2.844
  0
LINE
  5
25D
100
AcDbEntity
  8
0
100
AcDbLine
 62
2
  6
CONTINUOUS
 10
0.0
 20
-3.094
 11
9.055
 21
-3.094
  0
LINE
  5
25E
100
AcDbEntity
  8
0
100
AcDbLine
 62
2
  6
CONTINUOUS
 10
3.055
 20
0.0
 11
3.055
 21
-3.094
  0
LINE
  5
25F
100
AcDbEntity
  8
0
100
AcDbLine
 62
2
  6
CONTINUOUS
 10
9.055
 20
0.0
 11
9.055
 21
-3.094
  0
MTEXT
  5
260
100
AcDbEntity
  8
0
100
AcDbMText
 62
2
  6
CONTINUOUS
  7
STANDARD
 71
2
 72
1
 10
1.5275
 20
-0.0995
 30
0.0
 11
1.0
 21
0.0
 31
0.0
 44
0.9
  1
Technical Data
 40
0.145
 41
3.248
  0
MTEXT
  5
261
100
AcDbEntity
  8
0
100
AcDbMText
 62
2
  6
CONTINUOUS
  7
STANDARD
 71
2
 72
1
 10
4.555
 20
-0.0995
 30
0.0
 11
1.0
 21
0.0
 31
0.0
 44
0.9
  1
U.S. Units
 40
0.145
 41
2.32
  0
MTEXT
  5
262
100
AcDbEntity
  8
0
100
AcDbMText
 62
2
  6
CONTINUOUS
  7
STANDARD
 71
2
 72
1
 10
7.555
 20
-0.0995
 30
0.0
 11
1.0
 21
0.0
 31
0.0
 44
0.9
  1
Metric Units
 40
0.145
 41
2.784
  0
MTEXT
  5
263
100
AcDbEntity
  8
0
100
AcDbMText
 62
2
  6
CONTINUOUS
  7
STANDARD
 71
2
 72
1
 10
1.5275
 20
-0.4065
 30
0.0
 11
1.0
 21
0.0
 31
0.0
 44
0.9
  1
Cavity
 40
0.125
 41
1.2
  0
MTEXT
  5
264
100
AcDbEntity
  8
0
100
AcDbMText
 62
2
  6
CONTINUOUS
  7
STANDARD
 71
2
 72
1
 10
6.055
 20
-0.4065
 30
0.0
 11
1.0
 21
0.0
 31
0.0
 44
0.9
  1
T-19A
 40
0.125
 41
1.0
  0
MTEXT
  5
265
100
AcDbEntity
  8
0
100
AcDbMText
 62
2
  6
CONTINUOUS
  7
STANDARD
 71
2
 72
1
 10
1.5275
 20
-0.6565
 30
0.0
 11
1.0
 21
0.0
 31
0.0
 44
0.9
  1
Body Features
 40
0.125
 41
2.6
  0
MTEXT
  5
266
100
AcDbEntity
  8
0
100
AcDbMText
 62
2
  6
CONTINUOUS
  7
STANDARD
 71
2
 72
1
 10
6.055
 20
-0.6565
 30
0.0
 11
1.0
 21
0.0
 31
0.0
 44
0.9
  1
Cross port with shuttle on port 3s
 40
0.125
 41
6.8
  0
MTEXT
  5
267
100
AcDbEntity
  8
0
100
AcDbMText
 62
2
  6
CONTINUOUS
  7
STANDARD
 71
2
 72
1
 10
1.5275
 20
-0.9065
 30
0.0
 11
1.0
 21
0.0
 31
0.0
 44
0.9
  1
Body Type
 40
0.125
 41
1.8
  0
MTEXT
  5
268
100
AcDbEntity
  8
0
100
AcDbMText
 62
2
  6
CONTINUOUS
  7
STANDARD
 71
2
 72
1
 10
6.055
 20
-0.9065
 30
0.0
 11
1.0
 21
0.0
 31
0.0
 44
0.9
  1
Line mount
 40
0.125
 41
2.0
  0
MTEXT
  5
269
100
AcDbEntity
  8
0
100
AcDbMText
 62
2
  6
CONTINUOUS
  7
STANDARD
 71
2
 72
1
 10
1.5275
 20
-1.1565
 30
0.0
 11
1.0
 21
0.0
 31
0.0
 44
0.9
  1
Open Cavity Quantity
 40
0.125
 41
4.0
  0
MTEXT
  5
26A
100
AcDbEntity
  8
0
100
AcDbMText
 62
2
  6
CONTINUOUS
  7
STANDARD
 71
2
 72
1
 10
6.055
 20
-1.1565
 30
0.0
 11
1.0
 21
0.0
 31
0.0
 44
0.9
  1
2
 40
0.125
 41
0.2
  0
MTEXT
  5
26B
100
AcDbEntity
  8
0
100
AcDbMText
 62
2
  6
CONTINUOUS
  7
STANDARD
 71
2
 72
1
 10
1.5275
 20
-1.4065
 30
0.0
 11
1.0
 21
0.0
 31
0.0
 44
0.9
  1
Weight
 40
0.125
 41
1.2
  0
MTEXT
  5
26C
100
AcDbEntity
  8
0
100
AcDbMText
 62
2
  6
CONTINUOUS
  7
STANDARD
 71
2
 72
1
 10
4.555
 20
-1.4065
 30
0.0
 11
1.0
 21
0.0
 31
0.0
 44
0.9
  1
24.034 lb.
 40
0.125
 41
2.0
  0
MTEXT
  5
26D
100
AcDbEntity
  8
0
100
AcDbMText
 62
2
  6
CONTINUOUS
  7
STANDARD
 71
2
 72
1
 10
7.555
 20
-1.4065
 30
0.0
 11
1.0
 21
0.0
 31
0.0
 44
0.9
  1
10,902 kg.
 40
0.125
 41
2.0
  0
MTEXT
  5
26E
100
AcDbEntity
  8
0
100
AcDbMText
 62
2
  6
CONTINUOUS
  7
STANDARD
 71
2
 72
1
 10
1.5275
 20
-1.6565
 30
0.0
 11
1.0
 21
0.0
 31
0.0
 44
0.9
  1
Maximum Operating Pressure - 6061-T651 Aluminum
 40
0.125
 41
9.4
  0
MTEXT
  5
26F
100
AcDbEntity
  8
0
100
AcDbMText
 62
2
  6
CONTINUOUS
  7
STANDARD
 71
2
 72
1
 10
4.555
 20
-1.6565
 30
0.0
 11
1.0
 21
0.0
 31
0.0
 44
0.9
  1
3000 psi
 40
0.125
 41
1.6
  0
MTEXT
  5
270
100
AcDbEntity
  8
0
100
AcDbMText
 62
2
  6
CONTINUOUS
  7
STANDARD
 71
2
 72
1
 10
7.555
 20
-1.6565
 30
0.0
 11
1.0
 21
0.0
 31
0.0
 44
0.9
  1
210 bar
 40
0.125
 41
1.4
  0
MTEXT
  5
271
100
AcDbEntity
  8
0
100
AcDbMText
 62
2
  6
CONTINUOUS
  7
STANDARD
 71
2
 72
1
 10
1.5275
 20
-1.9065
 30
0.0
 11
1.0
 21
0.0
 31
0.0
 44
0.9
  1
Maximum Operating Pressure - 65-45-12 Ductile Iron
 40
0.125
 41
10.0
  0
MTEXT
  5
272
100
AcDbEntity
  8
0
100
AcDbMText
 62
2
  6
CONTINUOUS
  7
STANDARD
 71
2
 72
1
 10
4.555
 20
-1.9065
 30
0.0
 11
1.0
 21
0.0
 31
0.0
 44
0.9
  1
5000 psi
 40
0.125
 41
1.6
  0
MTEXT
  5
273
100
AcDbEntity
  8
0
100
AcDbMText
 62
2
  6
CONTINUOUS
  7
STANDARD
 71
2
 72
1
 10
7.555
 20
-1.9065
 30
0.0
 11
1.0
 21
0.0
 31
0.0
 44
0.9
  1
350 bar
 40
0.125
 41
1.4
  0
MTEXT
  5
274
100
AcDbEntity
  8
0
100
AcDbMText
 62
2
  6
CONTINUOUS
  7
STANDARD
 71
2
 72
1
 10
1.5275
 20
-2.1565
 30
0.0
 11
1.0
 21
0.0
 31
0.0
 44
0.9
  1
Mounting Hole Diameter
 40
0.125
 41
4.4
  0
MTEXT
  5
275
100
AcDbEntity
  8
0
100
AcDbMText
 62
2
  6
CONTINUOUS
  7
STANDARD
 71
2
 72
1
 10
4.555
 20
-2.1565
 30
0.0
 11
1.0
 21
0.0
 31
0.0
 44
0.9
  1
.53 in.
 40
0.125
 41
1.4
  0
MTEXT
  5
276
100
AcDbEntity
  8
0
100
AcDbMText
 62
2
  6
CONTINUOUS
  7
STANDARD
 71
2
 72
1
 10
7.555
 20
-2.1565
 30
0.0
 11
1.0
 21
0.0
 31
0.0
 44
0.9
  1
13,5 mm
 40
0.125
 41
1.4
  0
MTEXT
  5
277
100
AcDbEntity
  8
0
100
AcDbMText
 62
2
  6
CONTINUOUS
  7
STANDARD
 71
2
 72
1
 10
1.5275
 20
-2.4065
 30
0.0
 11
1.0
 21
0.0
 31
0.0
 44
0.9
  1
Mounting Hole Depth
 40
0.125
 41
3.8
  0
MTEXT
  5
278
100
AcDbEntity
  8
0
100
AcDbMText
 62
2
  6
CONTINUOUS
  7
STANDARD
 71
2
 72
1
 10
6.055
 20
-2.4065
 30
0.0
 11
1.0
 21
0.0
 31
0.0
 44
0.9
  1
Through
 40
0.125
 41
1.4
  0
MTEXT
  5
279
100
AcDbEntity
  8
0
100
AcDbMText
 62
2
  6
CONTINUOUS
  7
STANDARD
 71
2
 72
1
 10
1.5275
 20
-2.6565
 30
0.0
 11
1.0
 21
0.0
 31
0.0
 44
0.9
  1
Mounting Hole C'bore Diameter
 40
0.125
 41
5.8
  0
MTEXT
  5
27A
100
AcDbEntity
  8
0
100
AcDbMText
 62
2
  6
CONTINUOUS
  7
STANDARD
 71
2
 72
1
 10
4.555
 20
-2.6565
 30
0.0
 11
1.0
 21
0.0
 31
0.0
 44
0.9
  1
.78 in.
 40
0.125
 41
1.4
  0
MTEXT
  5
27B
100
AcDbEntity
  8
0
100
AcDbMText
 62
2
  6
CONTINUOUS
  7
STANDARD
 71
2
 72
1
 10
7.555
 20
-2.6565
 30
0.0
 11
1.0
 21
0.0
 31
0.0
 44
0.9
  1
19,8 mm
 40
0.125
 41
1.4
  0
MTEXT
  5
27C
100
AcDbEntity
  8
0
100
AcDbMText
 62
2
  6
CONTINUOUS
  7
STANDARD
 71
2
 72
1
 10
1.5275
 20
-2.9065
 30
0.0
 11
1.0
 21
0.0
 31
0.0
 44
0.9
  1
Mounting Hole C'bore Depth
 40
0.125
 41
5.2
  0
MTEXT
  5
27D
100
AcDbEntity
  8
0
100
AcDbMText
 62
2
  6
CONTINUOUS
  7
STANDARD
 71
2
 72
1
 10
4.555
 20
-2.9065
 30
0.0
 11
1.0
 21
0.0
 31
0.0
 44
0.9
  1
.50 in.
 40
0.125
 41
1.4
  0
MTEXT
  5
27E
100
AcDbEntity
  8
0
100
AcDbMText
 62
2
  6
CONTINUOUS
  7
STANDARD
 71
2
 72
1
 10
7.555
 20
-2.9065
 30
0.0
 11
1.0
 21
0.0
 31
0.0
 44
0.9
  1
12,7 mm
 40
0.125
 41
1.4
  0
ENDBLK
  5
27F
100
AcDbEntity
  8
0
  6
BYBLOCK
 62
0
100
AcDbBlockEnd
  0
BLOCK
  5
280
100
AcDbEntity
  8
0
100
AcDbBlockBegin
  2
*T3
 70
1
 10
0.0
 20
0.0
  3
*T3
  1

  0
LINE
  5
281
100
AcDbEntity
  8
0
100
AcDbLine
 62
2
  6
CONTINUOUS
 10
0.0
 20
0.0
 11
4.6
 21
0.0
  0
LINE
  5
282
100
AcDbEntity
  8
0
100
AcDbLine
 62
2
  6
CONTINUOUS
 10
0.0
 20
0.0
 11
0.0
 21
-1.43775
  0
LINE
  5
283
100
AcDbEntity
  8
0
100
AcDbLine
 62
2
  6
CONTINUOUS
 10
0.0
 20
-0.34375
 11
4.6
 21
-0.34375
  0
LINE
  5
284
100
AcDbEntity
  8
0
100
AcDbLine
 62
2
  6
CONTINUOUS
 10
0.0
 20
-0.68775
 11
4.6
 21
-0.68775
  0
LINE
  5
285
100
AcDbEntity
  8
0
100
AcDbLine
 62
2
  6
CONTINUOUS
 10
0.0
 20
-0.93775
 11
4.6
 21
-0.93775
  0
LINE
  5
286
100
AcDbEntity
  8
0
100
AcDbLine
 62
2
  6
CONTINUOUS
 10
0.0
 20
-1.18775
 11
4.6
 21
-1.18775
  0
LINE
  5
287
100
AcDbEntity
  8
0
100
AcDbLine
 62
2
  6
CONTINUOUS
 10
0.0
 20
-1.43775
 11
4.6
 21
-1.43775
  0
LINE
  5
288
100
AcDbEntity
  8
0
100
AcDbLine
 62
2
  6
CONTINUOUS
 10
1.3
 20
-0.34375
 11
1.3
 21
-1.43775
  0
LINE
  5
289
100
AcDbEntity
  8
0
100
AcDbLine
 62
2
  6
CONTINUOUS
 10
3.3
 20
-0.34375
 11
3.3
 21
-1.43775
  0
LINE
  5
28A
100
AcDbEntity
  8
0
100
AcDbLine
 62
2
  6
CONTINUOUS
 10
4.6
 20
0.0
 11
4.6
 21
-1.43775
  0
MTEXT
  5
28B
100
AcDbEntity
  8
0
100
AcDbMText
 62
2
  6
CONTINUOUS
  7
STANDARD
 71
2
 72
1
 10
2.3
 20
-0.099375
 30
0.0
 11
1.0
 21
0.0
 31
0.0
 44
0.9
  1
Port Headings
 40
0.145
 41
3.016
  0
MTEXT
  5
28C
100
AcDbEntity
  8
0
100
AcDbMText
 62
2
  6
CONTINUOUS
  7
STANDARD
 71
2
 72
1
 10
0.65
 20
-0.44325
 30
0.0
 11
1.0
 21
0.0
 31
0.0
 44
0.9
  1
Product
 40
0.145
 41
1.624
  0
MTEXT
  5
28D
100
AcDbEntity
  8
0
100
AcDbMText
 62
2
  6
CONTINUOUS
  7
STANDARD
 71
2
 72
1
 10
2.3
 20
-0.44325
 30
0.0
 11
1.0
 21
0.0
 31
0.0
 44
0.9
  1
Port
 40
0.145
 41
0.928
  0
MTEXT
  5
28E
100
AcDbEntity
  8
0
100
AcDbMText
 62
2
  6
CONTINUOUS
  7
STANDARD
 71
2
 72
1
 10
3.95
 20
-0.44325
 30
0.0
 11
1.0
 21
0.0
 31
0.0
 44
0.9
  1
Size
 40
0.145
 41
0.928
  0
MTEXT
  5
28F
100
AcDbEntity
  8
0
100
AcDbMText
 62
2
  6
CONTINUOUS
  7
STANDARD
 71
2
 72
1
 10
0.65
 20
-0.75025
 30
0.0
 11
1.0
 21
0.0
 31
0.0
 44
0.9
  1
XNA
 40
0.125
 41
0.6
  0
MTEXT
  5
290
100
AcDbEntity
  8
0
100
AcDbMText
 62
2
  6
CONTINUOUS
  7
STANDARD
 71
2
 72
1
 10
2.3
 20
-0.75025
 30
0.0
 11
1.0
 21
0.0
 31
0.0
 44
0.9
  1
Ports 1 &  2
 40
0.125
 41
2.4
  0
MTEXT
  5
291
100
AcDbEntity
  8
0
100
AcDbMText
 62
2
  6
CONTINUOUS
  7
STANDARD
 71
2
 72
1
 10
3.95
 20
-0.75025
 30
0.0
 11
1.0
 21
0.0
 31
0.0
 44
0.9
  1
1 1/4" NPTF
 40
0.125
 41
2.2
  0
MTEXT
  5
292
100
AcDbEntity
  8
0
100
AcDbMText
 62
2
  6
CONTINUOUS
  7
STANDARD
 71
2
 72
1
 10
0.65
 20
-1.00025
 30
0.0
 11
1.0
 21
0.0
 31
0.0
 44
0.9
  1
XNA
 40
0.125
 41
0.6
  0
MTEXT
  5
293
100
AcDbEntity
  8
0
100
AcDbMText
 62
2
  6
CONTINUOUS
  7
STANDARD
 71
2
 72
1
 10
2.3
 20
-1.00025
 30
0.0
 11
1.0
 21
0.0
 31
0.0
 44
0.9
  1
Ports G1 & G2
 40
0.125
 41
2.6
  0
MTEXT
  5
294
100
AcDbEntity
  8
0
100
AcDbMText
 62
2
  6
CONTINUOUS
  7
STANDARD
 71
2
 72
1
 10
3.95
 20
-1.00025
 30
0.0
 11
1.0
 21
0.0
 31
0.0
 44
0.9
  1
1/4" NPTF
 40
0.125
 41
1.8
  0
MTEXT
  5
295
100
AcDbEntity
  8
0
100
AcDbMText
 62
2
  6
CONTINUOUS
  7
STANDARD
 71
2
 72
1
 10
0.65
 20
-1.25025
 30
0.0
 11
1.0
 21
0.0
 31
0.0
 44
0.9
  1
XNA
 40
0.125
 41
0.6
  0
MTEXT
  5
296
100
AcDbEntity
  8
0
100
AcDbMText
 62
2
  6
CONTINUOUS
  7
STANDARD
 71
2
 72
1
 10
2.3
 20
-1.25025
 30
0.0
 11
1.0
 21
0.0
 31
0.0
 44
0.9
  1
Port V
 40
0.125
 41
1.2
  0
MTEXT
  5
297
100
AcDbEntity
  8
0
100
AcDbMText
 62
2
  6
CONTINUOUS
  7
STANDARD
 71
2
 72
1
 10
3.95
 20
-1.25025
 30
0.0
 11
1.0
 21
0.0
 31
0.0
 44
0.9
  1
1/4" NPTF
 40
0.125
 41
1.8
  0
ENDBLK
  5
298
100
AcDbEntity
  8
0
  6
BYBLOCK
 62
0
100
AcDbBlockEnd
  0
ENDSEC
  0
SECTION
  2
ENTITIES
  0
IMAGE
  5
299
100
AcDbEntity
  8
0
100
AcDbRasterImage
 62
7
  6
CONTINUOUS
 10
19.2297077316
 20
0.3094318264
 30
0.0
 11
0.0066666667
 21
0.0
 31
0.0
 12
0.0
 22
0.0066666667
 32
0.0
 13
369.0
 23
92.0
340
       413
 70
9
280
0
281
50
282
50
283
0
360
       40D
 71
1
 91
2
 14
-0.5
 24
-0.5
 14
368.5
 24
91.5
  0
INSERT
  5
29A
100
AcDbEntity
  8
0
100
AcDbBlockReference
 62
2
  6
CONTINUOUS
  2
SUN_FIRST_THIRD_ANGLE_BL0
 10
20.4816717061
 20
1.2289683772
  0
ACAD_TABLE
  5
29B
100
AcDbEntity
  8
0
 62
2
  6
CONTINUOUS
100
AcDbBlockReference
  2
*T1
 10
12.42375
 20
0.30125
 30
0.0
100
AcDbTable
342
       415
343
20F
 11
1.0
 21
0.0
 31
0.0
 90
6
 91
4
 92
6
 93
20
 94
0
 95
0
 96
0
 70
1
 41
0.0
141
0.525
141
0.1
141
0.525
141
0.1
142
4.1
142
1.1
142
0.7
142
0.5
142
0.4
142
2.475
171
1
172
0
173
0
174
0
175
1
176
1
 91
33
178
0
145
0.0
301
CELL_VALUE
 90
4
  1
T-19A Line mount\PCross port with shuttle on port 3s
304
ACVALUE_END
170
2
140
0.125
171
1
172
0
173
0
174
0
175
1
176
1
 91
33
178
0
145
0.0
301
CELL_VALUE
 90
4
  1
Feb-20-23
304
ACVALUE_END
170
5
140
0.125
171
1
172
0
173
0
174
0
175
1
176
1
 91
33
178
0
145
0.0
301
CELL_VALUE
 90
4
  1
0.800
304
ACVALUE_END
170
5
140
0.125
171
1
172
0
173
0
174
0
175
1
176
1
 91
33
178
0
145
0.0
301
CELL_VALUE
 90
4
  1
C
304
ACVALUE_END
170
5
140
0.125
171
1
172
0
173
0
174
0
175
1
176
1
 91
33
178
0
145
0.0
301
CELL_VALUE
 90
4
  1
2
304
ACVALUE_END
170
5
140
0.125
171
1
172
0
173
0
174
0
175
1
176
1
 91
33
178
0
145
0.0
301
CELL_VALUE
 90
4
  1
 
304
ACVALUE_END
170
1
140
0.125
171
1
172
0
173
0
174
0
175
1
176
1
 91
33
178
0
145
0.0
301
CELL_VALUE
 90
4
  1
DESCRIPTION
304
ACVALUE_END
170
1
140
0.06
171
1
172
0
173
0
174
0
175
1
176
1
 91
33
178
0
145
0.0
301
CELL_VALUE
 90
4
  1
DATE
304
ACVALUE_END
170
1
140
0.06
171
1
172
0
173
0
174
0
175
1
176
1
 91
33
178
0
145
0.0
301
CELL_VALUE
 90
4
  1
SCALE
304
ACVALUE_END
170
1
140
0.06
171
1
172
0
173
0
174
0
175
1
176
1
 91
33
178
0
145
0.0
301
CELL_VALUE
 90
4
  1
DWG SIZE
304
ACVALUE_END
170
1
140
0.06
171
1
172
0
173
0
174
0
175
1
176
1
 91
33
178
0
145
0.0
301
CELL_VALUE
 90
4
  1
SHEET
304
ACVALUE_END
170
1
140
0.06
171
1
172
0
173
0
174
0
175
1
176
1
 91
33
178
0
145
0.0
301
CELL_VALUE
 90
4
  1
 
304
ACVALUE_END
170
1
140
0.125
171
1
172
0
173
0
174
0
175
1
176
1
 91
33
178
0
145
0.0
301
CELL_VALUE
 90
4
  1
XNA
304
ACVALUE_END
170
5
140
0.125
171
1
172
0
173
0
174
0
175
4
176
1
 91
33
178
0
145
0.0
301
CELL_VALUE
 90
4
  1
ALL DIMENSIONS IN INCH\PVIEWS ARE THIRD ANGLE
304
ACVALUE_END
170
5
140
0.12
171
1
172
0
173
1
174
0
175
1
176
1
 91
1
178
0
145
0.0
170
1
171
1
172
0
173
1
174
0
175
1
176
1
 91
1
178
0
145
0.0
170
1
171
1
172
0
173
1
174
0
175
1
176
1
 91
1
178
0
145
0.0
170
5
171
1
172
0
173
0
174
0
175
1
176
1
 91
33
178
0
145
0.0
301
CELL_VALUE
 90
4
  1
 
304
ACVALUE_END
170
1
140
0.125
171
1
172
0
173
0
174
0
175
1
176
1
 91
33
178
0
145
0.0
301
CELL_VALUE
 90
4
  1
MODEL
304
ACVALUE_END
170
1
140
0.06
171
1
172
0
173
0
174
0
175
1
176
1
 91
33
178
0
145
0.0
301
CELL_VALUE
 90
4
  1
 
304
ACVALUE_END
170
1
140
0.125
171
1
172
0
173
0
174
0
175
1
176
1
 91
33
178
0
145
0.0
301
CELL_VALUE
 90
4
  1
 
304
ACVALUE_END
170
1
140
0.125
171
1
172
0
173
0
174
0
175
1
176
1
 91
33
178
0
145
0.0
301
CELL_VALUE
 90
4
  1
 
304
ACVALUE_END
170
1
140
0.125
171
1
172
0
173
0
174
0
175
1
176
1
 91
33
178
0
145
0.0
301
CELL_VALUE
 90
4
  1
 
304
ACVALUE_END
170
1
140
0.125
171
1
172
0
173
0
174
0
175
1
176
1
 91
33
178
0
145
0.0
301
CELL_VALUE
 90
4
  1
 
304
ACVALUE_END
170
1
140
0.125
  0
ACAD_TABLE
  5
29C
100
AcDbEntity
  8
0
 62
2
  6
CONTINUOUS
100
AcDbBlockReference
  2
*T2
 10
12.4237499994
 20
16.47875
 30
0.0
100
AcDbTable
342
       414
343
210
 11
1.0
 21
0.0
 31
0.0
 90
22
 91
12
 92
3
 93
16
 94
0
 95
0
 96
0
 41
0.028
141
0.344
141
0.25
141
0.25
141
0.25
141
0.25
141
0.25
141
0.25
141
0.25
141
0.25
141
0.25
141
0.25
141
0.25
142
3.055
142
3.0
142
3.0
171
1
172
0
173
0
174
0
175
1
176
1
 91
33
178
0
145
0.0
301
CELL_VALUE
 90
4
  1
Technical Data
304
ACVALUE_END
170
5
140
0.145
171
1
172
0
173
0
174
0
175
1
176
1
 91
33
178
0
145
0.0
301
CELL_VALUE
 90
4
  1
U.S. Units
304
ACVALUE_END
170
5
140
0.145
171
1
172
0
173
0
174
0
175
1
176
1
 91
33
178
0
145
0.0
301
CELL_VALUE
 90
4
  1
Metric Units
304
ACVALUE_END
170
5
140
0.145
171
1
172
0
173
0
174
0
175
1
176
1
 91
33
178
0
145
0.0
301
CELL_VALUE
 90
4
  1
Cavity
304
ACVALUE_END
170
5
140
0.125
171
1
172
0
173
0
174
0
175
2
176
1
 91
33
178
0
145
0.0
301
CELL_VALUE
 90
4
  1
T-19A
304
ACVALUE_END
170
5
140
0.125
171
1
172
0
173
1
174
0
175
1
176
1
 91
1
178
0
145
0.0
170
1
171
1
172
0
173
0
174
0
175
1
176
1
 91
33
178
0
145
0.0
301
CELL_VALUE
 90
4
  1
Body Features
304
ACVALUE_END
170
5
140
0.125
171
1
172
0
173
0
174
0
175
2
176
1
 91
33
178
0
145
0.0
301
CELL_VALUE
 90
4
  1
Cross port with shuttle on port 3s
304
ACVALUE_END
170
5
140
0.125
171
1
172
0
173
1
174
0
175
1
176
1
 91
1
178
0
145
0.0
170
1
171
1
172
0
173
0
174
0
175
1
176
1
 91
33
178
0
145
0.0
301
CELL_VALUE
 90
4
  1
Body Type
304
ACVALUE_END
170
5
140
0.125
171
1
172
0
173
0
174
0
175
2
176
1
 91
33
178
0
145
0.0
301
CELL_VALUE
 90
4
  1
Line mount
304
ACVALUE_END
170
5
140
0.125
171
1
172
0
173
1
174
0
175
1
176
1
 91
1
178
0
145
0.0
170
1
171
1
172
0
173
0
174
0
175
1
176
1
 91
33
178
0
145
0.0
301
CELL_VALUE
 90
4
  1
Open Cavity Quantity
304
ACVALUE_END
170
5
140
0.125
171
1
172
0
173
0
174
0
175
2
176
1
 91
33
178
0
145
0.0
301
CELL_VALUE
 90
4
  1
2
304
ACVALUE_END
170
5
140
0.125
171
1
172
0
173
1
174
0
175
1
176
1
 91
1
178
0
145
0.0
170
1
171
1
172
0
173
0
174
0
175
1
176
1
 91
33
178
0
145
0.0
301
CELL_VALUE
 90
4
  1
Weight
304
ACVALUE_END
170
5
140
0.125
171
1
172
0
173
0
174
0
175
1
176
1
 91
33
178
0
145
0.0
301
CELL_VALUE
 90
4
  1
24.034 lb.
304
ACVALUE_END
170
5
140
0.125
171
1
172
0
173
0
174
0
175
1
176
1
 91
33
178
0
145
0.0
301
CELL_VALUE
 90
4
  1
10,902 kg.
304
ACVALUE_END
170
5
140
0.125
171
1
172
0
173
0
174
0
175
1
176
1
 91
33
178
0
145
0.0
301
CELL_VALUE
 90
4
  1
Maximum Operating Pressure - 6061-T651 Aluminum
304
ACVALUE_END
170
5
140
0.125
171
1
172
0
173
0
174
0
175
1
176
1
 91
33
178
0
145
0.0
301
CELL_VALUE
 90
4
  1
3000 psi
304
ACVALUE_END
170
5
140
0.125
171
1
172
0
173
0
174
0
175
1
176
1
 91
33
178
0
145
0.0
301
CELL_VALUE
 90
4
  1
210 bar
304
ACVALUE_END
170
5
140
0.125
171
1
172
0
173
0
174
0
175
1
176
1
 91
33
178
0
145
0.0
301
CELL_VALUE
 90
4
  1
Maximum Operating Pressure - 65-45-12 Ductile Iron
304
ACVALUE_END
170
5
140
0.125
171
1
172
0
173
0
174
0
175
1
176
1
 91
33
178
0
145
0.0
301
CELL_VALUE
 90
4
  1
5000 psi
304
ACVALUE_END
170
5
140
0.125
171
1
172
0
173
0
174
0
175
1
176
1
 91
33
178
0
145
0.0
301
CELL_VALUE
 90
4
  1
350 bar
304
ACVALUE_END
170
5
140
0.125
171
1
172
0
173
0
174
0
175
1
176
1
 91
33
178
0
145
0.0
301
CELL_VALUE
 90
4
  1
Mounting Hole Diameter
304
ACVALUE_END
170
5
140
0.125
171
1
172
0
173
0
174
0
175
1
176
1
 91
33
178
0
145
0.0
301
CELL_VALUE
 90
4
  1
.53 in.
304
ACVALUE_END
170
5
140
0.125
171
1
172
0
173
0
174
0
175
1
176
1
 91
33
178
0
145
0.0
301
CELL_VALUE
 90
4
  1
13,5 mm
304
ACVALUE_END
170
5
140
0.125
171
1
172
0
173
0
174
0
175
1
176
1
 91
33
178
0
145
0.0
301
CELL_VALUE
 90
4
  1
Mounting Hole Depth
304
ACVALUE_END
170
5
140
0.125
171
1
172
0
173
0
174
0
175
2
176
1
 91
33
178
0
145
0.0
301
CELL_VALUE
 90
4
  1
Through
304
ACVALUE_END
170
5
140
0.125
171
1
172
0
173
1
174
0
175
1
176
1
 91
1
178
0
145
0.0
170
1
171
1
172
0
173
0
174
0
175
1
176
1
 91
33
178
0
145
0.0
301
CELL_VALUE
 90
4
  1
Mounting Hole C'bore Diameter
304
ACVALUE_END
170
5
140
0.125
171
1
172
0
173
0
174
0
175
1
176
1
 91
33
178
0
145
0.0
301
CELL_VALUE
 90
4
  1
.78 in.
304
ACVALUE_END
170
5
140
0.125
171
1
172
0
173
0
174
0
175
1
176
1
 91
33
178
0
145
0.0
301
CELL_VALUE
 90
4
  1
19,8 mm
304
ACVALUE_END
170
5
140
0.125
171
1
172
0
173
0
174
0
175
1
176
1
 91
33
178
0
145
0.0
301
CELL_VALUE
 90
4
  1
Mounting Hole C'bore Depth
304
ACVALUE_END
170
5
140
0.125
171
1
172
0
173
0
174
0
175
1
176
1
 91
33
178
0
145
0.0
301
CELL_VALUE
 90
4
  1
.50 in.
304
ACVALUE_END
170
5
140
0.125
171
1
172
0
173
0
174
0
175
1
176
1
 91
33
178
0
145
0.0
301
CELL_VALUE
 90
4
  1
12,7 mm
304
ACVALUE_END
170
5
140
0.125
  0
ACAD_TABLE
  5
29D
100
AcDbEntity
  8
0
 62
2
  6
CONTINUOUS
100
AcDbBlockReference
  2
*T3
 10
0.52125
 20
1.959
 30
0.0
100
AcDbTable
342
       414
343
211
 11
1.0
 21
0.0
 31
0.0
 90
22
 91
5
 92
3
 93
16
 94
0
 95
0
 96
0
 41
0.05
141
0.34375
141
0.344
141
0.25
141
0.25
141
0.25
142
1.3
142
2.0
142
1.3
171
1
172
0
173
0
174
0
175
3
176
1
 91
33
178
0
145
0.0
301
CELL_VALUE
 90
4
  1
Port Headings
304
ACVALUE_END
170
5
140
0.145
171
1
172
0
173
1
174
0
175
1
176
1
 91
1
178
0
145
0.0
170
1
171
1
172
0
173
1
174
0
175
1
176
1
 91
1
178
0
145
0.0
170
1
171
1
172
0
173
0
174
0
175
1
176
1
 91
33
178
0
145
0.0
301
CELL_VALUE
 90
4
  1
Product
304
ACVALUE_END
170
5
140
0.145
171
1
172
0
173
0
174
0
175
1
176
1
 91
33
178
0
145
0.0
301
CELL_VALUE
 90
4
  1
Port
304
ACVALUE_END
170
5
140
0.145
171
1
172
0
173
0
174
0
175
1
176
1
 91
33
178
0
145
0.0
301
CELL_VALUE
 90
4
  1
Size
304
ACVALUE_END
170
5
140
0.145
171
1
172
0
173
0
174
0
175
1
176
1
 91
33
178
0
145
0.0
301
CELL_VALUE
 90
4
  1
XNA
304
ACVALUE_END
170
5
140
0.125
171
1
172
0
173
0
174
0
175
1
176
1
 91
33
178
0
145
0.0
301
CELL_VALUE
 90
4
  1
Ports 1 &  2
304
ACVALUE_END
170
5
140
0.125
171
1
172
0
173
0
174
0
175
1
176
1
 91
33
178
0
145
0.0
301
CELL_VALUE
 90
4
  1
1 1/4" NPTF
304
ACVALUE_END
170
5
140
0.125
171
1
172
0
173
0
174
0
175
1
176
1
 91
33
178
0
145
0.0
301
CELL_VALUE
 90
4
  1
XNA
304
ACVALUE_END
170
5
140
0.125
171
1
172
0
173
0
174
0
175
1
176
1
 91
33
178
0
145
0.0
301
CELL_VALUE
 90
4
  1
Ports G1 & G2
304
ACVALUE_END
170
5
140
0.125
171
1
172
0
173
0
174
0
175
1
176
1
 91
33
178
0
145
0.0
301
CELL_VALUE
 90
4
  1
1/4" NPTF
304
ACVALUE_END
170
5
140
0.125
171
1
172
0
173
0
174
0
175
1
176
1
 91
33
178
0
145
0.0
301
CELL_VALUE
 90
4
  1
XNA
304
ACVALUE_END
170
5
140
0.125
171
1
172
0
173
0
174
0
175
1
176
1
 91
33
178
0
145
0.0
301
CELL_VALUE
 90
4
  1
Port V
304
ACVALUE_END
170
5
140
0.125
171
1
172
0
173
0
174
0
175
1
176
1
 91
33
178
0
145
0.0
301
CELL_VALUE
 90
4
  1
1/4" NPTF
304
ACVALUE_END
170
5
140
0.125
  0
MTEXT
  5
29E
100
AcDbEntity
  8
0
100
AcDbMText
 62
2
  6
CONTINUOUS
  7
STANDARD
 71
1
 72
1
 10
0.52125
 20
5.75995
 30
0.0
 11
1.0
 21
0.0
 31
0.0
 44
0.6
  3
Notes\P \P1. Important: Carefully consider\P   the maximum system pressure. The\P   pressure rating of the manifold is\P   dependent on the manifold material,\P   with the port type/size a secondary\P   consideration. Manifolds\P   constructed of alu
  1
minum are not\P   rated for pressures higher than\P   3000 psi (210 bar), regardless of\P   the port type/size specified.
 40
0.1
 41
3.04
  0
LINE
  5
29F
100
AcDbEntity
  8
0
100
AcDbLine
 62
7
  6
CONTINUOUS
 10
0.30125
 20
0.30125
 11
0.30125
 21
16.69875
  0
LINE
  5
2A0
100
AcDbEntity
  8
0
100
AcDbLine
 62
7
  6
CONTINUOUS
 10
0.30125
 20
0.30125
 11
21.69875
 21
0.30125
  0
LINE
  5
2A1
100
AcDbEntity
  8
0
100
AcDbLine
 62
7
  6
CONTINUOUS
 10
0.30125
 20
16.69875
 11
21.69875
 21
16.69875
  0
LINE
  5
2A2
100
AcDbEntity
  8
0
100
AcDbLine
 62
7
  6
CONTINUOUS
 10
21.69875
 20
0.30125
 11
21.69875
 21
16.69875
  0
LINE
  5
2A3
100
AcDbEntity
  8
0
100
AcDbLine
 62
7
  6
CONTINUOUS
 10
8.8648089554
 20
12.2075925323
 11
7.7260060968
 21
11.107593375
  0
LINE
  5
2A4
100
AcDbEntity
  8
0
100
AcDbLine
 62
4
  6
CONTINUOUS
 10
9.3922281739
 20
5.206530968
 11
9.3748415073
 21
5.2193278489
  0
LINE
  5
2A5
100
AcDbEntity
  8
0
100
AcDbLine
 62
7
  6
CONTINUOUS
 10
7.7260060968
 20
5.1675357179
 11
7.7260060968
 21
11.107593375
  0
LINE
  5
2A6
100
AcDbEntity
  8
0
100
AcDbLine
 62
7
  6
CONTINUOUS
 10
7.7260060968
 20
5.1675357179
 11
13.1351910446
 21
4.7924074677
  0
LINE
  5
2A7
100
AcDbEntity
  8
0
100
AcDbLine
 62
4
  6
CONTINUOUS
 10
9.5487081733
 20
5.1956790432
 11
9.5313215067
 21
5.1968848127
  0
LINE
  5
2A8
100
AcDbEntity
  8
0
100
AcDbLine
 62
4
  6
CONTINUOUS
 10
9.4096148405
 20
5.2053251986
 11
9.3922281739
 21
5.206530968
  0
LINE
  5
2A9
100
AcDbEntity
  8
0
100
AcDbLine
 62
4
  6
CONTINUOUS
 10
9.774734839
 20
5.1800040407
 11
9.8355881721
 21
5.1757838477
  0
LINE
  5
2AA
100
AcDbEntity
  8
0
100
AcDbLine
 62
4
  6
CONTINUOUS
 10
11.7065866521
 20
5.0460296624
 11
11.7761333185
 21
5.0412065847
  0
LINE
  5
2AB
100
AcDbEntity
  8
0
100
AcDbLine
 62
4
  6
CONTINUOUS
 10
9.6530281728
 20
5.2348088723
 11
9.7051881726
 21
5.231191564
  0
LINE
  5
2AC
100
AcDbEntity
  8
0
100
AcDbLine
 62
4
  6
CONTINUOUS
 10
11.4370933199
 20
5.1110835341
 11
11.4892533197
 21
5.1074662259
  0
LINE
  5
2AD
100
AcDbEntity
  8
0
100
AcDbLine
 62
4
  6
CONTINUOUS
 10
11.0198133216
 20
5.1632042211
 11
11.0719733214
 21
5.1595869128
  0
LINE
  5
2AE
100
AcDbEntity
  8
0
100
AcDbLine
 62
4
  6
CONTINUOUS
 10
11.5761866527
 20
5.1246195995
 11
11.6283466524
 21
5.1210022912
  0
LINE
  5
2AF
100
AcDbEntity
  8
0
100
AcDbLine
 62
4
  6
CONTINUOUS
 10
9.774734839
 20
5.2611418154
 11
9.8355881721
 21
5.2569216224
  0
LINE
  5
2B0
100
AcDbEntity
  8
0
100
AcDbLine
 62
4
  6
CONTINUOUS
 10
9.8355881721
 20
5.3148771805
 11
9.774734839
 21
5.3190973735
  0
LINE
  5
2B1
100
AcDbEntity
  8
0
100
AcDbLine
 62
4
  6
CONTINUOUS
 10
9.5487081733
 20
5.334772376
 11
9.5313215067
 21
5.3359781454
  0
LINE
  5
2B2
100
AcDbEntity
  8
0
100
AcDbLine
 62
4
  6
CONTINUOUS
 10
9.3922281739
 20
5.3456243008
 11
9.4096148405
 21
5.3444185314
  0
LINE
  5
2B3
100
AcDbEntity
  8
0
100
AcDbLine
 62
4
  6
CONTINUOUS
 10
10.8633333223
 20
5.2436028122
 11
10.9502666553
 21
5.2375739651
  0
LINE
  5
2B4
100
AcDbEntity
  8
0
100
AcDbLine
 62
4
  6
CONTINUOUS
 10
11.732666652
 20
5.1833143411
 11
11.7500533186
 21
5.1821085716
  0
LINE
  5
2B5
100
AcDbEntity
  8
0
100
AcDbLine
 62
4
  6
CONTINUOUS
 10
9.5313215067
 20
5.1968848127
 11
9.5139348401
 21
5.2096816935
  0
LINE
  5
2B6
100
AcDbEntity
  8
0
100
AcDbLine
 62
4
  6
CONTINUOUS
 10
9.4096148405
 20
5.3444185314
 11
9.4270015071
 21
5.3316216536
  0
LINE
  5
2B7
100
AcDbEntity
  8
0
100
AcDbLine
 62
4
  6
CONTINUOUS
 10
9.5139348401
 20
5.2908194733
 11
9.5660948399
 21
5.2524288277
  0
LINE
  5
2B8
100
AcDbEntity
  8
0
100
AcDbLine
 62
4
  6
CONTINUOUS
 10
9.5660948399
 20
5.3219754983
 11
9.5487081733
 21
5.334772376
  0
LINE
  5
2B9
100
AcDbEntity
  8
0
100
AcDbLine
 62
4
  6
CONTINUOUS
 10
8.4446548215
 20
5.411338736
 11
8.488121488
 21
5.2692309797
  0
LINE
  5
2BA
100
AcDbEntity
  8
0
100
AcDbLine
 62
4
  6
CONTINUOUS
 10
7.9501007572
 20
9.1903378012
 11
7.9501007572
 21
9.1671555846
  0
LINE
  5
2BB
100
AcDbEntity
  8
0
100
AcDbLine
 62
4
  6
CONTINUOUS
 10
7.9501007572
 20
7.0846192903
 11
7.9501007572
 21
6.9455259576
  0
LINE
  5
2BC
100
AcDbEntity
  8
0
100
AcDbLine
 62
4
  6
CONTINUOUS
 10
7.8892474241
 20
9.1134202195
 11
7.8805540908
 21
9.079249771
  0
LINE
  5
2BD
100
AcDbEntity
  8
0
100
AcDbLine
 62
4
  6
CONTINUOUS
 10
9.3748415073
 20
5.2193278489
 11
9.3574548407
 21
5.2437158401
  0
LINE
  5
2BE
100
AcDbEntity
  8
0
100
AcDbLine
 62
4
  6
CONTINUOUS
 10
9.5139348401
 20
5.2096816935
 11
9.4965481735
 21
5.2340696847
  0
LINE
  5
2BF
100
AcDbEntity
  8
0
100
AcDbLine
 62
4
  6
CONTINUOUS
 10
9.4270015071
 20
5.3316216536
 11
9.4356948404
 21
5.3194276523
  0
LINE
  5
2C0
100
AcDbEntity
  8
0
100
AcDbLine
 62
4
  6
CONTINUOUS
 10
9.5052415068
 20
5.3030134664
 11
9.5139348401
 21
5.2908194733
  0
LINE
  5
2C1
100
AcDbEntity
  8
0
100
AcDbLine
 62
4
  6
CONTINUOUS
 10
9.5660948399
 20
5.2524288277
 11
9.5747881732
 21
5.2402348347
  0
LINE
  5
2C2
100
AcDbEntity
  8
0
100
AcDbLine
 62
4
  6
CONTINUOUS
 10
9.5747881732
 20
5.309781497
 11
9.5660948399
 21
5.3219754983
  0
LINE
  5
2C3
100
AcDbEntity
  8
0
100
AcDbLine
 62
4
  6
CONTINUOUS
 10
7.8805540908
 20
9.1951608789
 11
7.8892474241
 21
9.2061491107
  0
LINE
  5
2C4
100
AcDbEntity
  8
0
100
AcDbLine
 62
4
  6
CONTINUOUS
 10
7.9066340907
 20
9.1353966708
 11
7.8892474241
 21
9.1134202195
  0
LINE
  5
2C5
100
AcDbEntity
  8
0
100
AcDbLine
 62
4
  6
CONTINUOUS
 10
7.9501007572
 20
9.1671555846
 11
7.9414074239
 21
9.1561673527
  0
LINE
  5
2C6
100
AcDbEntity
  8
0
100
AcDbLine
 62
4
  6
CONTINUOUS
 10
11.324079987
 20
5.1305121437
 11
11.2979999871
 21
5.1439119103
  0
LINE
  5
2C7
100
AcDbEntity
  8
0
100
AcDbLine
 62
4
  6
CONTINUOUS
 10
9.193247649
 20
6.4180784076
 11
9.1758609824
 21
6.4308752884
  0
LINE
  5
2C8
100
AcDbEntity
  8
0
100
AcDbLine
 62
4
  6
CONTINUOUS
 10
9.2106343156
 20
6.5559659709
 11
9.2280209822
 21
6.5431690932
  0
LINE
  5
2C9
100
AcDbEntity
  8
0
100
AcDbLine
 62
4
  6
CONTINUOUS
 10
9.8529748387
 20
5.2325336322
 11
9.8355881721
 21
5.2569216224
  0
LINE
  5
2CA
100
AcDbEntity
  8
0
100
AcDbLine
 62
4
  6
CONTINUOUS
 10
9.8442815054
 20
5.3026831875
 11
9.8355881721
 21
5.3148771805
  0
LINE
  5
2CB
100
AcDbEntity
  8
0
100
AcDbLine
 62
4
  6
CONTINUOUS
 10
9.1758609824
 20
6.4308752884
 11
9.1584743158
 21
6.4552632796
  0
LINE
  5
2CC
100
AcDbEntity
  8
0
100
AcDbLine
 62
4
  6
CONTINUOUS
 10
11.324079987
 20
5.0725565898
 11
11.3066933204
 21
5.0853534706
  0
LINE
  5
2CD
100
AcDbEntity
  8
0
100
AcDbLine
 62
4
  6
CONTINUOUS
 10
11.324079987
 20
5.2116499225
 11
11.3414666536
 21
5.1988530448
  0
LINE
  5
2CE
100
AcDbEntity
  8
0
100
AcDbLine
 62
4
  6
CONTINUOUS
 10
9.2280209822
 20
6.5431690932
 11
9.2367143155
 21
6.5309750919
  0
LINE
  5
2CF
100
AcDbEntity
  8
0
100
AcDbLine
 62
4
  6
CONTINUOUS
 10
9.3574548407
 20
5.2437158401
 11
9.3487615074
 21
5.279092058
  0
LINE
  5
2D0
100
AcDbEntity
  8
0
100
AcDbLine
 62
4
  6
CONTINUOUS
 10
9.1584743158
 20
6.4552632796
 11
9.1497809825
 21
6.4906394975
  0
LINE
  5
2D1
100
AcDbEntity
  8
0
100
AcDbLine
 62
4
  6
CONTINUOUS
 10
7.8892474241
 20
9.2061491107
 11
7.9066340907
 21
9.2165344496
  0
LINE
  5
2D2
100
AcDbEntity
  8
0
100
AcDbLine
 62
4
  6
CONTINUOUS
 10
7.9414074239
 20
9.1561673527
 11
7.9066340907
 21
9.1353966708
  0
LINE
  5
2D3
100
AcDbEntity
  8
0
100
AcDbLine
 62
4
  6
CONTINUOUS
 10
9.2106343156
 20
6.4168726382
 11
9.193247649
 21
6.4180784076
  0
LINE
  5
2D4
100
AcDbEntity
  8
0
100
AcDbLine
 62
4
  6
CONTINUOUS
 10
9.2019409823
 20
6.4870221892
 11
9.2367143155
 21
6.4846106504
  0
LINE
  5
2D5
100
AcDbEntity
  8
0
100
AcDbLine
 62
4
  6
CONTINUOUS
 10
9.193247649
 20
6.5571717403
 11
9.2106343156
 21
6.5559659709
  0
LINE
  5
2D6
100
AcDbEntity
  8
0
100
AcDbLine
 62
4
  6
CONTINUOUS
 10
11.7500533186
 20
5.1821085716
 11
11.7674399852
 21
5.1693116939
  0
LINE
  5
2D7
100
AcDbEntity
  8
0
100
AcDbLine
 62
4
  6
CONTINUOUS
 10
7.9414074239
 20
9.2025318025
 11
7.9501007572
 21
9.1903378012
  0
LINE
  5
2D8
100
AcDbEntity
  8
0
100
AcDbLine
 62
4
  6
CONTINUOUS
 10
9.6791081727
 20
5.3257291053
 11
9.7225748392
 21
5.183621349
  0
LINE
  5
2D9
100
AcDbEntity
  8
0
100
AcDbLine
 62
4
  6
CONTINUOUS
 10
9.2367143155
 20
8.5130550058
 11
9.2367143155
 21
8.4666905622
  0
LINE
  5
2DA
100
AcDbEntity
  8
0
100
AcDbLine
 62
4
  6
CONTINUOUS
 10
9.2367143155
 20
6.4846106504
 11
9.2367143155
 21
6.4382462068
  0
LINE
  5
2DB
100
AcDbEntity
  8
0
100
AcDbLine
 62
4
  6
CONTINUOUS
 10
9.341034315
 20
6.5469227002
 11
9.341034315
 21
6.4078293675
  0
LINE
  5
2DC
100
AcDbEntity
  8
0
100
AcDbLine
 62
4
  6
CONTINUOUS
 10
9.3758076482
 20
8.5497732919
 11
9.3758076482
 21
8.5265910753
  0
LINE
  5
2DD
100
AcDbEntity
  8
0
100
AcDbLine
 62
4
  6
CONTINUOUS
 10
9.1497809825
 20
8.5190838529
 11
9.1584743158
 21
8.5532543014
  0
LINE
  5
2DE
100
AcDbEntity
  8
0
100
AcDbLine
 62
4
  6
CONTINUOUS
 10
9.3149543151
 20
8.4728557102
 11
9.3062609818
 21
8.4386852617
  0
LINE
  5
2DF
100
AcDbEntity
  8
0
100
AcDbLine
 62
4
  6
CONTINUOUS
 10
11.3066933204
 20
10.6877237471
 11
11.324079987
 21
10.698109086
  0
LINE
  5
2E0
100
AcDbEntity
  8
0
100
AcDbLine
 62
4
  6
CONTINUOUS
 10
11.3501599869
 20
10.6267537655
 11
11.324079987
 21
10.6169713072
  0
LINE
  5
2E1
100
AcDbEntity
  8
0
100
AcDbLine
 62
4
  6
CONTINUOUS
 10
11.3066933204
 20
5.0853534706
 11
11.2979999871
 21
5.0975474667
  0
LINE
  5
2E2
100
AcDbEntity
  8
0
100
AcDbLine
 62
4
  6
CONTINUOUS
 10
11.3414666536
 20
5.1988530448
 11
11.3501599869
 21
5.1866590435
  0
LINE
  5
2E3
100
AcDbEntity
  8
0
100
AcDbLine
 62
4
  6
CONTINUOUS
 10
9.1584743158
 20
8.483707635
 11
9.1497809825
 21
8.5190838529
  0
LINE
  5
2E4
100
AcDbEntity
  8
0
100
AcDbLine
 62
4
  6
CONTINUOUS
 10
9.5052415068
 20
5.3146045747
 11
9.5052415068
 21
5.3030134664
  0
LINE
  5
2E5
100
AcDbEntity
  8
0
100
AcDbLine
 62
4
  6
CONTINUOUS
 10
9.5747881732
 20
5.2402348347
 11
9.5747881732
 21
5.2170526119
  0
LINE
  5
2E6
100
AcDbEntity
  8
0
100
AcDbLine
 62
4
  6
CONTINUOUS
 10
9.1497809825
 20
6.4906394975
 11
9.1584743158
 21
6.524809946
  0
LINE
  5
2E7
100
AcDbEntity
  8
0
100
AcDbLine
 62
4
  6
CONTINUOUS
 10
8.488121488
 20
5.2692309797
 11
8.5315881545
 21
5.4053098889
  0
LINE
  5
2E8
100
AcDbEntity
  8
0
100
AcDbLine
 62
4
  6
CONTINUOUS
 10
9.1584743158
 20
8.5532543014
 11
9.1758609824
 21
8.5752307569
  0
LINE
  5
2E9
100
AcDbEntity
  8
0
100
AcDbLine
 62
4
  6
CONTINUOUS
 10
9.3062609818
 20
8.5545963696
 11
9.3149543151
 21
8.5655846015
  0
LINE
  5
2EA
100
AcDbEntity
  8
0
100
AcDbLine
 62
4
  6
CONTINUOUS
 10
9.2367143155
 20
8.4666905622
 11
9.2280209822
 21
8.4557023355
  0
LINE
  5
2EB
100
AcDbEntity
  8
0
100
AcDbLine
 62
4
  6
CONTINUOUS
 10
9.3323409817
 20
8.4948321615
 11
9.3149543151
 21
8.4728557102
  0
LINE
  5
2EC
100
AcDbEntity
  8
0
100
AcDbLine
 62
4
  6
CONTINUOUS
 10
9.3758076482
 20
8.5265910753
 11
9.3671143149
 21
8.5156028434
  0
LINE
  5
2ED
100
AcDbEntity
  8
0
100
AcDbLine
 62
4
  6
CONTINUOUS
 10
11.3414666536
 20
10.5694010952
 11
11.324079987
 21
10.5590157533
  0
LINE
  5
2EE
100
AcDbEntity
  8
0
100
AcDbLine
 62
4
  6
CONTINUOUS
 10
9.1758609824
 20
8.4593196438
 11
9.1584743158
 21
8.483707635
  0
LINE
  5
2EF
100
AcDbEntity
  8
0
100
AcDbLine
 62
4
  6
CONTINUOUS
 10
9.2280209822
 20
8.5716134486
 11
9.2367143155
 21
8.5594194473
  0
LINE
  5
2F0
100
AcDbEntity
  8
0
100
AcDbLine
 62
4
  6
CONTINUOUS
 10
11.7674399852
 20
5.1693116939
 11
11.7761333185
 21
5.1571176926
  0
LINE
  5
2F1
100
AcDbEntity
  8
0
100
AcDbLine
 62
4
  6
CONTINUOUS
 10
9.3671143149
 20
8.5619672932
 11
9.3758076482
 21
8.5497732919
  0
LINE
  5
2F2
100
AcDbEntity
  8
0
100
AcDbLine
 62
4
  6
CONTINUOUS
 10
9.774734839
 20
5.3190973735
 11
9.774734839
 21
5.1800040407
  0
LINE
  5
2F3
100
AcDbEntity
  8
0
100
AcDbLine
 62
4
  6
CONTINUOUS
 10
9.8442815054
 20
5.2679098543
 11
9.8442815054
 21
5.3026831875
  0
LINE
  5
2F4
100
AcDbEntity
  8
0
100
AcDbLine
 62
4
  6
CONTINUOUS
 10
9.8529748387
 20
5.1977603011
 11
9.8529748387
 21
5.2325336322
  0
LINE
  5
2F5
100
AcDbEntity
  8
0
100
AcDbLine
 62
4
  6
CONTINUOUS
 10
11.2979999871
 20
10.6767355153
 11
11.3066933204
 21
10.6877237471
  0
LINE
  5
2F6
100
AcDbEntity
  8
0
100
AcDbLine
 62
4
  6
CONTINUOUS
 10
11.3501599869
 20
10.5803893219
 11
11.3414666536
 21
10.5694010952
  0
LINE
  5
2F7
100
AcDbEntity
  8
0
100
AcDbLine
 62
4
  6
CONTINUOUS
 10
9.1758609824
 20
8.5752307569
 11
9.193247649
 21
8.5856160957
  0
LINE
  5
2F8
100
AcDbEntity
  8
0
100
AcDbLine
 62
4
  6
CONTINUOUS
 10
11.552728429
 20
7.4073769633
 11
11.5030522293
 21
7.4108220195
  0
LINE
  5
2F9
100
AcDbEntity
  8
0
100
AcDbLine
 62
4
  6
CONTINUOUS
 10
11.4434408294
 20
7.4149560841
 11
11.4136350963
 21
7.4170231187
  0
LINE
  5
2FA
100
AcDbEntity
  8
0
100
AcDbLine
 62
4
  6
CONTINUOUS
 10
11.3374649631
 20
7.4223055354
 11
11.2977240299
 21
7.4250615785
  0
LINE
  5
2FB
100
AcDbEntity
  8
0
100
AcDbLine
 62
4
  6
CONTINUOUS
 10
10.7545976573
 20
7.4627275204
 11
10.7049214741
 21
7.4661725754
  0
LINE
  5
2FC
100
AcDbEntity
  8
0
100
AcDbLine
 62
4
  6
CONTINUOUS
 10
11.0692135309
 20
7.4409088354
 11
11.128824964
 21
7.4367747685
  0
LINE
  5
2FD
100
AcDbEntity
  8
0
100
AcDbLine
 62
4
  6
CONTINUOUS
 10
11.6288986285
 20
7.4020945421
 11
11.6885100284
 21
7.3979604774
  0
LINE
  5
2FE
100
AcDbEntity
  8
0
100
AcDbLine
 62
4
  6
CONTINUOUS
 10
10.8440147986
 20
7.4962673745
 11
10.8970027317
 21
7.4925926489
  0
LINE
  5
2FF
100
AcDbEntity
  8
0
100
AcDbLine
 62
4
  6
CONTINUOUS
 10
11.6686395618
 20
7.478820407
 11
11.6288986285
 21
7.48157645
  0
LINE
  5
300
100
AcDbEntity
  8
0
100
AcDbLine
 62
4
  6
CONTINUOUS
 10
11.1089544974
 20
7.517634698
 11
11.0692135309
 21
7.5203907434
  0
LINE
  5
301
100
AcDbEntity
  8
0
100
AcDbLine
 62
4
  6
CONTINUOUS
 10
10.6254395661
 20
7.5312960933
 11
10.6784275034
 21
7.5011273987
  0
LINE
  5
302
100
AcDbEntity
  8
0
100
AcDbLine
 62
4
  6
CONTINUOUS
 10
7.9240207573
 20
9.2153286802
 11
7.9414074239
 21
9.2025318025
  0
LINE
  5
303
100
AcDbEntity
  8
0
100
AcDbLine
 62
4
  6
CONTINUOUS
 10
9.193247649
 20
8.446522763
 11
9.1758609824
 21
8.4593196438
  0
LINE
  5
304
100
AcDbEntity
  8
0
100
AcDbLine
 62
4
  6
CONTINUOUS
 10
9.2106343156
 20
8.5844103263
 11
9.2280209822
 21
8.5716134486
  0
LINE
  5
305
100
AcDbEntity
  8
0
100
AcDbLine
 62
4
  6
CONTINUOUS
 10
9.3487615074
 20
5.279092058
 11
9.3574548407
 21
5.3132625065
  0
LINE
  5
306
100
AcDbEntity
  8
0
100
AcDbLine
 62
4
  6
CONTINUOUS
 10
9.3149543151
 20
8.5655846015
 11
9.3323409817
 21
8.5759699403
  0
LINE
  5
307
100
AcDbEntity
  8
0
100
AcDbLine
 62
4
  6
CONTINUOUS
 10
9.2280209822
 20
8.4557023355
 11
9.2106343156
 21
8.4453169936
  0
LINE
  5
308
100
AcDbEntity
  8
0
100
AcDbLine
 62
4
  6
CONTINUOUS
 10
9.3671143149
 20
8.5156028434
 11
9.3323409817
 21
8.4948321615
  0
LINE
  5
309
100
AcDbEntity
  8
0
100
AcDbLine
 62
4
  6
CONTINUOUS
 10
10.7049214741
 20
7.6052659081
 11
10.7545976573
 21
7.6018208531
  0
LINE
  5
30A
100
AcDbEntity
  8
0
100
AcDbLine
 62
4
  6
CONTINUOUS
 10
10.9499906648
 20
7.588270302
 11
11.0294725645
 21
7.5827582135
  0
LINE
  5
30B
100
AcDbEntity
  8
0
100
AcDbLine
 62
4
  6
CONTINUOUS
 10
11.0692135309
 20
7.5800021682
 11
11.128824964
 21
7.5758681012
  0
LINE
  5
30C
100
AcDbEntity
  8
0
100
AcDbLine
 62
4
  6
CONTINUOUS
 10
11.2977240299
 20
7.5641549112
 11
11.3374649631
 21
7.5613988682
  0
LINE
  5
30D
100
AcDbEntity
  8
0
100
AcDbLine
 62
4
  6
CONTINUOUS
 10
11.4136350963
 20
7.5561164515
 11
11.4434408294
 21
7.5540494169
  0
LINE
  5
30E
100
AcDbEntity
  8
0
100
AcDbLine
 62
4
  6
CONTINUOUS
 10
11.5030522293
 20
7.5499153522
 11
11.552728429
 21
7.5464702961
  0
LINE
  5
30F
100
AcDbEntity
  8
0
100
AcDbLine
 62
4
  6
CONTINUOUS
 10
11.6288986285
 20
7.5411878748
 11
11.6885100284
 21
7.5370538102
  0
LINE
  5
310
100
AcDbEntity
  8
0
100
AcDbLine
 62
4
  6
CONTINUOUS
 10
11.2911005352
 20
7.7712672055
 11
11.3440884683
 21
7.7675924798
  0
LINE
  5
311
100
AcDbEntity
  8
0
100
AcDbLine
 62
4
  6
CONTINUOUS
 10
9.3497276483
 20
8.5747641709
 11
9.3671143149
 21
8.5619672932
  0
LINE
  5
312
100
AcDbEntity
  8
0
100
AcDbLine
 62
4
  6
CONTINUOUS
 10
10.7545976573
 20
7.6018208531
 11
10.7744681322
 21
7.5805723561
  0
LINE
  5
313
100
AcDbEntity
  8
0
100
AcDbLine
 62
4
  6
CONTINUOUS
 10
11.2979999871
 20
5.1439119103
 11
11.2893066539
 21
5.1676970199
  0
LINE
  5
314
100
AcDbEntity
  8
0
100
AcDbLine
 62
4
  6
CONTINUOUS
 10
11.3501599869
 20
5.1866590435
 11
11.3588533202
 21
5.1628739422
  0
LINE
  5
315
100
AcDbEntity
  8
0
100
AcDbLine
 62
4
  6
CONTINUOUS
 10
10.5525812393
 20
8.2854657865
 11
10.5525812393
 21
8.3053362614
  0
LINE
  5
316
100
AcDbEntity
  8
0
100
AcDbLine
 62
4
  6
CONTINUOUS
 10
10.6221279056
 20
8.2011608029
 11
10.6221279056
 21
8.2210312799
  0
LINE
  5
317
100
AcDbEntity
  8
0
100
AcDbLine
 62
4
  6
CONTINUOUS
 10
10.6618688555
 20
8.3176276144
 11
10.6618688555
 21
8.1984047586
  0
LINE
  5
318
100
AcDbEntity
  8
0
100
AcDbLine
 62
4
  6
CONTINUOUS
 10
10.7049214741
 20
7.4661725754
 11
10.7049214741
 21
7.6052659081
  0
LINE
  5
319
100
AcDbEntity
  8
0
100
AcDbLine
 62
4
  6
CONTINUOUS
 10
9.6356415063
 20
5.1896501961
 11
9.6791081727
 21
5.3257291053
  0
LINE
  5
31A
100
AcDbEntity
  8
0
100
AcDbLine
 62
4
  6
CONTINUOUS
 10
11.2893066539
 20
10.6541561834
 11
11.2979999871
 21
10.6767355153
  0
LINE
  5
31B
100
AcDbEntity
  8
0
100
AcDbLine
 62
4
  6
CONTINUOUS
 10
11.3588533202
 20
10.6493331057
 11
11.3501599869
 21
10.6267537655
  0
LINE
  5
31C
100
AcDbEntity
  8
0
100
AcDbLine
 62
4
  6
CONTINUOUS
 10
11.3588533202
 20
10.60296866
 11
11.3501599869
 21
10.5803893219
  0
LINE
  5
31D
100
AcDbEntity
  8
0
100
AcDbLine
 62
4
  6
CONTINUOUS
 10
11.0890841036
 20
8.1157893433
 11
11.1089545703
 21
8.1144113217
  0
LINE
  5
31E
100
AcDbEntity
  8
0
100
AcDbLine
 62
4
  6
CONTINUOUS
 10
11.7547451006
 20
8.1027430566
 11
11.7150040347
 21
8.1054991089
  0
LINE
  5
31F
100
AcDbEntity
  8
0
100
AcDbLine
 62
4
  6
CONTINUOUS
 10
11.5924695015
 20
8.1139969076
 11
11.5725990349
 21
8.1153749292
  0
LINE
  5
320
100
AcDbEntity
  8
0
100
AcDbLine
 62
4
  6
CONTINUOUS
 10
11.4235704357
 20
8.1257100976
 11
11.3838295024
 21
8.1284661407
  0
LINE
  5
321
100
AcDbEntity
  8
0
100
AcDbLine
 62
4
  6
CONTINUOUS
 10
11.2348009032
 20
8.1388013092
 11
11.1950599699
 21
8.1415573523
  0
LINE
  5
322
100
AcDbEntity
  8
0
100
AcDbLine
 62
4
  6
CONTINUOUS
 10
10.5625164778
 20
8.1854243924
 11
10.6022574307
 21
8.182668348
  0
LINE
  5
323
100
AcDbEntity
  8
0
100
AcDbLine
 62
4
  6
CONTINUOUS
 10
10.6817393304
 20
8.1771562595
 11
10.7115450552
 21
8.1750892255
  0
LINE
  5
324
100
AcDbEntity
  8
0
100
AcDbLine
 62
4
  6
CONTINUOUS
 10
11.4732466354
 20
8.1222650415
 11
11.5229228352
 21
8.1188199853
  0
LINE
  5
325
100
AcDbEntity
  8
0
100
AcDbLine
 62
4
  6
CONTINUOUS
 10
11.8044212341
 20
8.0992980051
 11
11.8441621673
 21
8.096541962
  0
LINE
  5
326
100
AcDbEntity
  8
0
100
AcDbLine
 62
4
  6
CONTINUOUS
 10
11.3838295024
 20
8.1781423322
 11
11.4235704357
 21
8.1753862891
  0
LINE
  5
327
100
AcDbEntity
  8
0
100
AcDbLine
 62
4
  6
CONTINUOUS
 10
11.7282509617
 20
7.481309834
 11
11.7812388948
 21
7.4511411376
  0
LINE
  5
328
100
AcDbEntity
  8
0
100
AcDbLine
 62
4
  6
CONTINUOUS
 10
10.6221279056
 20
8.2210312799
 11
10.5525812393
 21
8.2854657865
  0
LINE
  5
329
100
AcDbEntity
  8
0
100
AcDbLine
 62
4
  6
CONTINUOUS
 10
10.5525812393
 20
8.1960486421
 11
10.5625164778
 21
8.1854243924
  0
LINE
  5
32A
100
AcDbEntity
  8
0
100
AcDbLine
 62
4
  6
CONTINUOUS
 10
11.2977240299
 20
7.4250615785
 11
11.2778535632
 21
7.446310077
  0
LINE
  5
32B
100
AcDbEntity
  8
0
100
AcDbLine
 62
4
  6
CONTINUOUS
 10
10.6618688555
 20
8.1984047586
 11
10.6817393304
 21
8.1771562595
  0
LINE
  5
32C
100
AcDbEntity
  8
0
100
AcDbLine
 62
4
  6
CONTINUOUS
 10
11.4136350963
 20
7.4170231187
 11
11.3937646297
 21
7.4382716173
  0
LINE
  5
32D
100
AcDbEntity
  8
0
100
AcDbLine
 62
4
  6
CONTINUOUS
 10
10.6121926682
 20
8.3210726697
 11
10.6221279056
 21
8.310448417
  0
LINE
  5
32E
100
AcDbEntity
  8
0
100
AcDbLine
 62
4
  6
CONTINUOUS
 10
11.4434408294
 20
7.5540494169
 11
11.463311296
 21
7.5328009204
  0
LINE
  5
32F
100
AcDbEntity
  8
0
100
AcDbLine
 62
4
  6
CONTINUOUS
 10
10.7711564717
 20
8.3100484925
 11
10.8407031381
 21
8.166132082
  0
LINE
  5
330
100
AcDbEntity
  8
0
100
AcDbLine
 62
4
  6
CONTINUOUS
 10
11.4631733198
 20
5.2020037671
 11
11.5066399863
 21
5.0598960108
  0
LINE
  5
331
100
AcDbEntity
  8
0
100
AcDbLine
 62
4
  6
CONTINUOUS
 10
10.8705087651
 20
7.5937823905
 11
10.9102497316
 21
7.4519330123
  0
LINE
  5
332
100
AcDbEntity
  8
0
100
AcDbLine
 62
4
  6
CONTINUOUS
 10
10.7314155219
 20
8.193581681
 11
10.7314155219
 21
8.3128045367
  0
LINE
  5
333
100
AcDbEntity
  8
0
100
AcDbLine
 62
4
  6
CONTINUOUS
 10
10.7711564717
 20
8.1709551597
 11
10.7711564717
 21
8.3100484925
  0
LINE
  5
334
100
AcDbEntity
  8
0
100
AcDbLine
 62
4
  6
CONTINUOUS
 10
10.7744681322
 20
7.5805723561
 11
10.7744681322
 21
7.4812199752
  0
LINE
  5
335
100
AcDbEntity
  8
0
100
AcDbLine
 62
4
  6
CONTINUOUS
 10
10.8407031381
 20
8.166132082
 11
10.8407031381
 21
8.3052254148
  0
LINE
  5
336
100
AcDbEntity
  8
0
100
AcDbLine
 62
4
  6
CONTINUOUS
 10
10.9067999888
 20
10.7270475522
 11
10.9067999888
 21
10.5879542194
  0
LINE
  5
337
100
AcDbEntity
  8
0
100
AcDbLine
 62
4
  6
CONTINUOUS
 10
10.9067999888
 20
5.2405883887
 11
10.9067999888
 21
5.1014950559
  0
LINE
  5
338
100
AcDbEntity
  8
0
100
AcDbLine
 62
4
  6
CONTINUOUS
 10
10.9897316313
 20
7.4464209239
 11
10.9897316313
 21
7.5855142566
  0
LINE
  5
339
100
AcDbEntity
  8
0
100
AcDbLine
 62
4
  6
CONTINUOUS
 10
10.9897317042
 20
8.1557969159
 11
10.9897317042
 21
8.2948902486
  0
LINE
  5
33A
100
AcDbEntity
  8
0
100
AcDbLine
 62
4
  6
CONTINUOUS
 10
11.4197066533
 20
10.5523840214
 11
11.4631733198
 21
10.6884629306
  0
LINE
  5
33B
100
AcDbEntity
  8
0
100
AcDbLine
 62
4
  6
CONTINUOUS
 10
9.1584743158
 20
6.524809946
 11
9.1758609824
 21
6.5467864015
  0
LINE
  5
33C
100
AcDbEntity
  8
0
100
AcDbLine
 62
4
  6
CONTINUOUS
 10
9.2367143155
 20
6.4382462068
 11
9.2280209822
 21
6.4272579801
  0
LINE
  5
33D
100
AcDbEntity
  8
0
100
AcDbLine
 62
7
  6
CONTINUOUS
 10
13.1351910446
 20
10.7324651247
 11
14.2739939032
 21
11.8324642821
  0
LINE
  5
33E
100
AcDbEntity
  8
0
100
AcDbLine
 62
4
  6
CONTINUOUS
 10
10.5525812393
 20
8.3053362614
 11
10.5724517163
 21
8.3238287141
  0
LINE
  5
33F
100
AcDbEntity
  8
0
100
AcDbLine
 62
4
  6
CONTINUOUS
 10
10.6022574307
 20
8.182668348
 11
10.6221279056
 21
8.2011608029
  0
LINE
  5
340
100
AcDbEntity
  8
0
100
AcDbLine
 62
4
  6
CONTINUOUS
 10
10.7115450552
 20
8.1750892255
 11
10.7314155219
 21
8.193581681
  0
LINE
  5
341
100
AcDbEntity
  8
0
100
AcDbLine
 62
4
  6
CONTINUOUS
 10
11.4136352355
 20
8.225751489
 11
11.3639590358
 21
8.2291965452
  0
LINE
  5
342
100
AcDbEntity
  8
0
100
AcDbLine
 62
4
  6
CONTINUOUS
 10
10.9897317042
 20
8.2551492988
 11
11.0394079039
 21
8.2517042426
  0
LINE
  5
343
100
AcDbEntity
  8
0
100
AcDbLine
 62
4
  6
CONTINUOUS
 10
11.1950599699
 20
8.2409097352
 11
11.2348009032
 21
8.2381536921
  0
LINE
  5
344
100
AcDbEntity
  8
0
100
AcDbLine
 62
4
  6
CONTINUOUS
 10
11.2745419028
 20
8.2353976444
 11
11.314282836
 21
8.2326416013
  0
LINE
  5
345
100
AcDbEntity
  8
0
100
AcDbLine
 62
4
  6
CONTINUOUS
 10
11.7150040347
 20
8.2048514918
 11
11.7547451006
 21
8.2020954395
  0
LINE
  5
346
100
AcDbEntity
  8
0
100
AcDbLine
 62
4
  6
CONTINUOUS
 10
11.8044212341
 20
8.198650388
 11
11.8441621673
 21
8.1958943449
  0
LINE
  5
347
100
AcDbEntity
  8
0
100
AcDbLine
 62
4
  6
CONTINUOUS
 10
10.5724517163
 20
8.3238287141
 11
10.6121926682
 21
8.3210726697
  0
LINE
  5
348
100
AcDbEntity
  8
0
100
AcDbLine
 62
4
  6
CONTINUOUS
 10
11.6520809014
 20
8.2489561758
 11
11.6553926348
 21
8.2487265063
  0
LINE
  5
349
100
AcDbEntity
  8
0
100
AcDbLine
 62
4
  6
CONTINUOUS
 10
9.2106343156
 20
8.4453169936
 11
9.193247649
 21
8.446522763
  0
LINE
  5
34A
100
AcDbEntity
  8
0
100
AcDbLine
 62
4
  6
CONTINUOUS
 10
9.3062609818
 20
8.4386852617
 11
9.3758076482
 21
8.433862184
  0
LINE
  5
34B
100
AcDbEntity
  8
0
100
AcDbLine
 62
4
  6
CONTINUOUS
 10
9.2019409823
 20
8.5154665446
 11
9.2367143155
 21
8.5130550058
  0
LINE
  5
34C
100
AcDbEntity
  8
0
100
AcDbLine
 62
4
  6
CONTINUOUS
 10
9.193247649
 20
8.5856160957
 11
9.2106343156
 21
8.5844103263
  0
LINE
  5
34D
100
AcDbEntity
  8
0
100
AcDbLine
 62
4
  6
CONTINUOUS
 10
9.3323409817
 20
8.5759699403
 11
9.3497276483
 21
8.5747641709
  0
LINE
  5
34E
100
AcDbEntity
  8
0
100
AcDbLine
 62
4
  6
CONTINUOUS
 10
11.8441621673
 20
8.1429064076
 11
11.8044212341
 21
8.1522859423
  0
LINE
  5
34F
100
AcDbEntity
  8
0
100
AcDbLine
 62
4
  6
CONTINUOUS
 10
11.1950599699
 20
8.1415573523
 11
11.1751895033
 21
8.1528706123
  0
LINE
  5
350
100
AcDbEntity
  8
0
100
AcDbLine
 62
4
  6
CONTINUOUS
 10
11.3838295024
 20
8.1284661407
 11
11.3639590358
 21
8.1397794008
  0
LINE
  5
351
100
AcDbEntity
  8
0
100
AcDbLine
 62
4
  6
CONTINUOUS
 10
11.552728429
 20
7.5464702961
 11
11.5725988957
 21
7.5252217996
  0
LINE
  5
352
100
AcDbEntity
  8
0
100
AcDbLine
 62
4
  6
CONTINUOUS
 10
11.0394079039
 20
8.2517042426
 11
11.0493431372
 21
8.2410799902
  0
LINE
  5
353
100
AcDbEntity
  8
0
100
AcDbLine
 62
4
  6
CONTINUOUS
 10
11.0493430696
 20
7.8873855214
 11
11.1288249776
 21
7.7427800996
  0
LINE
  5
354
100
AcDbEntity
  8
0
100
AcDbLine
 62
4
  6
CONTINUOUS
 10
11.1685659274
 20
7.8791173881
 11
11.2381125855
 21
7.7352009783
  0
LINE
  5
355
100
AcDbEntity
  8
0
100
AcDbLine
 62
4
  6
CONTINUOUS
 10
11.0890841036
 20
8.2482591865
 11
11.1188898368
 21
8.1468397689
  0
LINE
  5
356
100
AcDbEntity
  8
0
100
AcDbLine
 62
4
  6
CONTINUOUS
 10
11.0493431372
 20
8.2410799902
 11
11.0493431372
 21
8.1516628489
  0
LINE
  5
357
100
AcDbEntity
  8
0
100
AcDbLine
 62
4
  6
CONTINUOUS
 10
11.0692135309
 20
7.4409088354
 11
11.0692135309
 21
7.5800021682
  0
LINE
  5
358
100
AcDbEntity
  8
0
100
AcDbLine
 62
4
  6
CONTINUOUS
 10
11.1685659274
 20
7.7400240554
 11
11.1685659274
 21
7.8791173881
  0
LINE
  5
359
100
AcDbEntity
  8
0
100
AcDbLine
 62
4
  6
CONTINUOUS
 10
11.1751895033
 20
8.1528706123
 11
11.1751895033
 21
8.2323525151
  0
LINE
  5
35A
100
AcDbEntity
  8
0
100
AcDbLine
 62
4
  6
CONTINUOUS
 10
11.1849866543
 20
10.7077552414
 11
11.1849866543
 21
10.5686619086
  0
LINE
  5
35B
100
AcDbEntity
  8
0
100
AcDbLine
 62
4
  6
CONTINUOUS
 10
11.1849866543
 20
5.2212960779
 11
11.1849866543
 21
5.0822027452
  0
LINE
  5
35C
100
AcDbEntity
  8
0
100
AcDbLine
 62
4
  6
CONTINUOUS
 10
11.2348009032
 20
8.2778946419
 11
11.2348009032
 21
8.1388013092
  0
LINE
  5
35D
100
AcDbEntity
  8
0
100
AcDbLine
 62
4
  6
CONTINUOUS
 10
11.2381125855
 20
7.7352009783
 11
11.2381125855
 21
7.874294311
  0
LINE
  5
35E
100
AcDbEntity
  8
0
100
AcDbLine
 62
4
  6
CONTINUOUS
 10
11.2745419028
 20
8.1360452615
 11
11.2745419028
 21
8.2353976444
  0
LINE
  5
35F
100
AcDbEntity
  8
0
100
AcDbLine
 62
4
  6
CONTINUOUS
 10
11.2778535632
 20
7.446310077
 11
11.2778535632
 21
7.5456624579
  0
LINE
  5
360
100
AcDbEntity
  8
0
100
AcDbLine
 62
4
  6
CONTINUOUS
 10
11.3209063028
 20
8.2222470207
 11
11.3209063028
 21
8.2023765458
  0
LINE
  5
361
100
AcDbEntity
  8
0
100
AcDbLine
 62
4
  6
CONTINUOUS
 10
11.3588533202
 20
10.6493331057
 11
11.3588533202
 21
10.60296866
  0
LINE
  5
362
100
AcDbEntity
  8
0
100
AcDbLine
 62
4
  6
CONTINUOUS
 10
11.3588533202
 20
5.1628739422
 11
11.3588533202
 21
5.1165094965
  0
LINE
  5
363
100
AcDbEntity
  8
0
100
AcDbLine
 62
4
  6
CONTINUOUS
 10
11.3639590358
 20
8.1397794008
 11
11.3639590358
 21
8.1695851163
  0
LINE
  5
364
100
AcDbEntity
  8
0
100
AcDbLine
 62
4
  6
CONTINUOUS
 10
10.8307678153
 20
7.457445102
 11
10.8705087651
 21
7.5937823905
  0
LINE
  5
365
100
AcDbEntity
  8
0
100
AcDbLine
 62
4
  6
CONTINUOUS
 10
11.1089545703
 20
8.1144113217
 11
11.1486955035
 21
8.2441251218
  0
LINE
  5
366
100
AcDbEntity
  8
0
100
AcDbLine
 62
4
  6
CONTINUOUS
 10
11.1751895033
 20
8.2323525151
 11
11.1950599699
 21
8.2409097352
  0
LINE
  5
367
100
AcDbEntity
  8
0
100
AcDbLine
 62
4
  6
CONTINUOUS
 10
7.8805540908
 20
9.079249771
 11
7.9501007572
 21
9.0744266933
  0
LINE
  5
368
100
AcDbEntity
  8
0
100
AcDbLine
 62
4
  6
CONTINUOUS
 10
12.9265510454
 20
8.7293086936
 11
12.9960977118
 21
8.7244856159
  0
LINE
  5
369
100
AcDbEntity
  8
0
100
AcDbLine
 62
4
  6
CONTINUOUS
 10
11.8044212341
 20
8.1522859423
 11
11.7944860339
 21
8.1595984425
  0
LINE
  5
36A
100
AcDbEntity
  8
0
100
AcDbLine
 62
4
  6
CONTINUOUS
 10
11.8540973675
 20
8.1355939075
 11
11.8441621673
 21
8.1429064076
  0
LINE
  5
36B
100
AcDbEntity
  8
0
100
AcDbLine
 62
4
  6
CONTINUOUS
 10
11.4633113689
 20
8.1328892931
 11
11.4732466354
 21
8.1222650415
  0
LINE
  5
36C
100
AcDbEntity
  8
0
100
AcDbLine
 62
4
  6
CONTINUOUS
 10
11.5725990349
 20
8.1153749292
 11
11.5626637684
 21
8.1259991808
  0
LINE
  5
36D
100
AcDbEntity
  8
0
100
AcDbLine
 62
4
  6
CONTINUOUS
 10
11.7150040347
 20
8.1054991089
 11
11.7050688346
 21
8.1161233559
  0
LINE
  5
36E
100
AcDbEntity
  8
0
100
AcDbLine
 62
4
  6
CONTINUOUS
 10
11.7944860339
 20
8.109922252
 11
11.8044212341
 21
8.0992980051
  0
LINE
  5
36F
100
AcDbEntity
  8
0
100
AcDbLine
 62
4
  6
CONTINUOUS
 10
11.314282836
 20
8.2326416013
 11
11.3209063028
 21
8.2222470207
  0
LINE
  5
370
100
AcDbEntity
  8
0
100
AcDbLine
 62
4
  6
CONTINUOUS
 10
11.4235704357
 20
8.2051920056
 11
11.4136352355
 21
8.225751489
  0
LINE
  5
371
100
AcDbEntity
  8
0
100
AcDbLine
 62
4
  6
CONTINUOUS
 10
11.3175945018
 20
7.8687822214
 11
11.357335435
 21
7.7269328456
  0
LINE
  5
372
100
AcDbEntity
  8
0
100
AcDbLine
 62
4
  6
CONTINUOUS
 10
11.3937646297
 20
7.4382716173
 11
11.3937646297
 21
7.5376239981
  0
LINE
  5
373
100
AcDbEntity
  8
0
100
AcDbLine
 62
4
  6
CONTINUOUS
 10
11.4235704357
 20
8.1257100976
 11
11.4235704357
 21
8.2051920056
  0
LINE
  5
374
100
AcDbEntity
  8
0
100
AcDbLine
 62
4
  6
CONTINUOUS
 10
11.463311296
 20
7.5328009204
 11
11.463311296
 21
7.4334485396
  0
LINE
  5
375
100
AcDbEntity
  8
0
100
AcDbLine
 62
4
  6
CONTINUOUS
 10
11.4633113689
 20
8.2223064375
 11
11.4633113689
 21
8.1328892931
  0
LINE
  5
376
100
AcDbEntity
  8
0
100
AcDbLine
 62
4
  6
CONTINUOUS
 10
11.5030522293
 20
7.4108220195
 11
11.5030522293
 21
7.5499153522
  0
LINE
  5
377
100
AcDbEntity
  8
0
100
AcDbLine
 62
4
  6
CONTINUOUS
 10
11.5229228352
 20
8.1188199853
 11
11.5229228352
 21
8.2181723682
  0
LINE
  5
378
100
AcDbEntity
  8
0
100
AcDbLine
 62
4
  6
CONTINUOUS
 10
11.5626637684
 20
8.1259991808
 11
11.5626637684
 21
8.255157275
  0
LINE
  5
379
100
AcDbEntity
  8
0
100
AcDbLine
 62
4
  6
CONTINUOUS
 10
11.5725988957
 20
7.5252217996
 11
11.5725988957
 21
7.4258694188
  0
LINE
  5
37A
100
AcDbEntity
  8
0
100
AcDbLine
 62
4
  6
CONTINUOUS
 10
11.6288986285
 20
7.4020945421
 11
11.6288986285
 21
7.5411878748
  0
LINE
  5
37B
100
AcDbEntity
  8
0
100
AcDbLine
 62
4
  6
CONTINUOUS
 10
11.6520809014
 20
8.109862843
 11
11.6520809014
 21
8.2092152259
  0
LINE
  5
37C
100
AcDbEntity
  8
0
100
AcDbLine
 62
4
  6
CONTINUOUS
 10
11.6520809014
 20
8.2390209342
 11
11.6520809014
 21
8.2489561758
  0
LINE
  5
37D
100
AcDbEntity
  8
0
100
AcDbLine
 62
4
  6
CONTINUOUS
 10
11.2778535519
 20
7.7324449329
 11
11.3175945018
 21
7.8687822214
  0
LINE
  5
37E
100
AcDbEntity
  8
0
100
AcDbLine
 62
4
  6
CONTINUOUS
 10
11.6553926348
 20
8.2487265063
 11
11.6520809014
 21
8.2390209342
  0
LINE
  5
37F
100
AcDbEntity
  8
0
100
AcDbLine
 62
4
  6
CONTINUOUS
 10
11.0493430696
 20
7.7482921886
 11
11.1288249776
 21
7.8818734324
  0
LINE
  5
380
100
AcDbEntity
  8
0
100
AcDbLine
 62
4
  6
CONTINUOUS
 10
9.3574548407
 20
5.3132625065
 11
9.3748415073
 21
5.3352389619
  0
LINE
  5
381
100
AcDbEntity
  8
0
100
AcDbLine
 62
4
  6
CONTINUOUS
 10
10.7744681322
 20
7.4812199752
 11
10.7545976573
 21
7.4627275204
  0
LINE
  5
382
100
AcDbEntity
  8
0
100
AcDbLine
 62
4
  6
CONTINUOUS
 10
11.7050688346
 20
8.1956052587
 11
11.7150040347
 21
8.2048514918
  0
LINE
  5
383
100
AcDbEntity
  8
0
100
AcDbLine
 62
4
  6
CONTINUOUS
 10
12.9352443787
 20
8.8562080334
 11
12.9526310453
 21
8.8665933722
  0
LINE
  5
384
100
AcDbEntity
  8
0
100
AcDbLine
 62
4
  6
CONTINUOUS
 10
11.3639590358
 20
8.1695851163
 11
11.3838295024
 21
8.1781423322
  0
LINE
  5
385
100
AcDbEntity
  8
0
100
AcDbLine
 62
4
  6
CONTINUOUS
 10
7.9066340907
 20
9.2165344496
 11
7.9240207573
 21
9.2153286802
  0
LINE
  5
386
100
AcDbEntity
  8
0
100
AcDbLine
 62
4
  6
CONTINUOUS
 10
12.9526310453
 20
8.8665933722
 11
12.9700177119
 21
8.8653876028
  0
LINE
  5
387
100
AcDbEntity
  8
0
100
AcDbLine
 62
4
  6
CONTINUOUS
 10
11.8441621673
 20
8.1958943449
 11
11.8540973675
 21
8.1852700948
  0
LINE
  5
388
100
AcDbEntity
  8
0
100
AcDbLine
 62
4
  6
CONTINUOUS
 10
11.7050688346
 20
8.1161233559
 11
11.7050688346
 21
8.1956052587
  0
LINE
  5
389
100
AcDbEntity
  8
0
100
AcDbLine
 62
4
  6
CONTINUOUS
 10
11.7413599853
 20
10.6691706198
 11
11.7413599853
 21
10.5300772871
  0
LINE
  5
38A
100
AcDbEntity
  8
0
100
AcDbLine
 62
4
  6
CONTINUOUS
 10
11.7761333185
 20
5.1571176926
 11
11.7761333185
 21
5.133935476
  0
LINE
  5
38B
100
AcDbEntity
  8
0
100
AcDbLine
 62
4
  6
CONTINUOUS
 10
11.7944860339
 20
8.1595984425
 11
11.7944860339
 21
8.1894041548
  0
LINE
  5
38C
100
AcDbEntity
  8
0
100
AcDbLine
 62
4
  6
CONTINUOUS
 10
11.8540973675
 20
8.105788192
 11
11.8540973675
 21
8.1355939075
  0
LINE
  5
38D
100
AcDbEntity
  8
0
100
AcDbLine
 62
4
  6
CONTINUOUS
 10
9.5139348401
 20
5.3255928065
 11
9.5052415068
 21
5.3146045747
  0
LINE
  5
38E
100
AcDbEntity
  8
0
100
AcDbLine
 62
4
  6
CONTINUOUS
 10
9.4356948404
 20
5.2266987673
 11
9.4270015071
 21
5.2157105406
  0
LINE
  5
38F
100
AcDbEntity
  8
0
100
AcDbLine
 62
4
  6
CONTINUOUS
 10
9.5747881732
 20
5.2170526119
 11
9.5660948399
 21
5.2060643852
  0
LINE
  5
390
100
AcDbEntity
  8
0
100
AcDbLine
 62
4
  6
CONTINUOUS
 10
11.7944860339
 20
8.1894041548
 11
11.8044212341
 21
8.198650388
  0
LINE
  5
391
100
AcDbEntity
  8
0
100
AcDbLine
 62
4
  6
CONTINUOUS
 10
11.8441621673
 20
8.096541962
 11
11.8540973675
 21
8.105788192
  0
LINE
  5
392
100
AcDbEntity
  8
0
100
AcDbLine
 62
4
  6
CONTINUOUS
 10
11.2778535632
 20
7.5456624579
 11
11.2977240299
 21
7.5641549112
  0
LINE
  5
393
100
AcDbEntity
  8
0
100
AcDbLine
 62
4
  6
CONTINUOUS
 10
11.3937646297
 20
7.5376239981
 11
11.4136350963
 21
7.5561164515
  0
LINE
  5
394
100
AcDbEntity
  8
0
100
AcDbLine
 62
4
  6
CONTINUOUS
 10
9.1758609824
 20
6.5467864015
 11
9.193247649
 21
6.5571717403
  0
LINE
  5
395
100
AcDbEntity
  8
0
100
AcDbLine
 62
4
  6
CONTINUOUS
 10
12.9874043785
 20
8.8062262753
 11
12.9526310453
 21
8.7854555934
  0
LINE
  5
396
100
AcDbEntity
  8
0
100
AcDbLine
 62
4
  6
CONTINUOUS
 10
9.2280209822
 20
6.4272579801
 11
9.2106343156
 21
6.4168726382
  0
LINE
  5
397
100
AcDbEntity
  8
0
100
AcDbLine
 62
4
  6
CONTINUOUS
 10
10.6784275034
 20
7.5541153381
 11
10.6254395661
 21
7.5312960933
  0
LINE
  5
398
100
AcDbEntity
  8
0
100
AcDbLine
 62
4
  6
CONTINUOUS
 10
11.2979999871
 20
10.6303710738
 11
11.2893066539
 21
10.6541561834
  0
LINE
  5
399
100
AcDbEntity
  8
0
100
AcDbLine
 62
4
  6
CONTINUOUS
 10
9.8355881721
 20
5.2569216224
 11
9.8442815054
 21
5.2679098543
  0
LINE
  5
39A
100
AcDbEntity
  8
0
100
AcDbLine
 62
4
  6
CONTINUOUS
 10
9.8355881721
 20
5.1757838477
 11
9.8529748387
 21
5.1977603011
  0
LINE
  5
39B
100
AcDbEntity
  8
0
100
AcDbLine
 62
4
  6
CONTINUOUS
 10
12.9265510454
 20
8.8452198015
 11
12.9352443787
 21
8.8562080334
  0
LINE
  5
39C
100
AcDbEntity
  8
0
100
AcDbLine
 62
4
  6
CONTINUOUS
 10
12.9526310453
 20
8.7854555934
 11
12.9352443787
 21
8.7634791421
  0
LINE
  5
39D
100
AcDbEntity
  8
0
100
AcDbLine
 62
4
  6
CONTINUOUS
 10
11.463311296
 20
7.4334485396
 11
11.4434408294
 21
7.4149560841
  0
LINE
  5
39E
100
AcDbEntity
  8
0
100
AcDbLine
 62
4
  6
CONTINUOUS
 10
11.5725988957
 20
7.4258694188
 11
11.552728429
 21
7.4073769633
  0
LINE
  5
39F
100
AcDbEntity
  8
0
100
AcDbLine
 62
4
  6
CONTINUOUS
 10
11.7812388948
 20
7.4511411376
 11
11.7282509617
 21
7.4283218946
  0
LINE
  5
3A0
100
AcDbEntity
  8
0
100
AcDbLine
 62
4
  6
CONTINUOUS
 10
11.3501599869
 20
10.673118207
 11
11.3588533202
 21
10.6493331057
  0
LINE
  5
3A1
100
AcDbEntity
  8
0
100
AcDbLine
 62
4
  6
CONTINUOUS
 10
11.4631733198
 20
10.6884629306
 11
11.5066399863
 21
10.5463551743
  0
LINE
  5
3A2
100
AcDbEntity
  8
0
100
AcDbLine
 62
4
  6
CONTINUOUS
 10
11.7152799854
 20
5.0802001109
 11
11.7065866521
 21
5.0460296624
  0
LINE
  5
3A3
100
AcDbEntity
  8
0
100
AcDbLine
 62
4
  6
CONTINUOUS
 10
11.4197066533
 20
5.0659248579
 11
11.4631733198
 21
5.2020037671
  0
LINE
  5
3A4
100
AcDbEntity
  8
0
100
AcDbLine
 62
4
  6
CONTINUOUS
 10
11.2893066539
 20
5.1676970199
 11
11.2979999871
 21
5.1902763518
  0
LINE
  5
3A5
100
AcDbEntity
  8
0
100
AcDbLine
 62
4
  6
CONTINUOUS
 10
11.3588533202
 20
5.1628739422
 11
11.3501599869
 21
5.140294602
  0
LINE
  5
3A6
100
AcDbEntity
  8
0
100
AcDbLine
 62
4
  6
CONTINUOUS
 10
11.3588533202
 20
5.1165094965
 11
11.3501599869
 21
5.0939301584
  0
LINE
  5
3A7
100
AcDbEntity
  8
0
100
AcDbLine
 62
4
  6
CONTINUOUS
 10
12.9960977118
 20
8.8172145072
 11
12.9874043785
 21
8.8062262753
  0
LINE
  5
3A8
100
AcDbEntity
  8
0
100
AcDbLine
 62
4
  6
CONTINUOUS
 10
12.9700177119
 20
8.8653876028
 11
12.9874043785
 21
8.8525907251
  0
LINE
  5
3A9
100
AcDbEntity
  8
0
100
AcDbLine
 62
4
  6
CONTINUOUS
 10
11.3066933204
 20
10.5718126341
 11
11.2979999871
 21
10.5840066302
  0
LINE
  5
3AA
100
AcDbEntity
  8
0
100
AcDbLine
 62
4
  6
CONTINUOUS
 10
11.3414666536
 20
10.6853122083
 11
11.3501599869
 21
10.673118207
  0
LINE
  5
3AB
100
AcDbEntity
  8
0
100
AcDbLine
 62
4
  6
CONTINUOUS
 10
12.9960977118
 20
8.8403967238
 11
12.9960977118
 21
8.8172145072
  0
LINE
  5
3AC
100
AcDbEntity
  8
0
100
AcDbLine
 62
4
  6
CONTINUOUS
 10
12.9960977118
 20
6.734678213
 11
12.9960977118
 21
6.5955848802
  0
LINE
  5
3AD
100
AcDbEntity
  8
0
100
AcDbLine
 62
4
  6
CONTINUOUS
 10
12.9352443787
 20
8.7634791421
 11
12.9265510454
 21
8.7293086936
  0
LINE
  5
3AE
100
AcDbEntity
  8
0
100
AcDbLine
 62
4
  6
CONTINUOUS
 10
9.3748415073
 20
5.3352389619
 11
9.3922281739
 21
5.3456243008
  0
LINE
  5
3AF
100
AcDbEntity
  8
0
100
AcDbLine
 62
4
  6
CONTINUOUS
 10
9.5313215067
 20
5.3359781454
 11
9.5139348401
 21
5.3255928065
  0
LINE
  5
3B0
100
AcDbEntity
  8
0
100
AcDbLine
 62
4
  6
CONTINUOUS
 10
9.4270015071
 20
5.2157105406
 11
9.4096148405
 21
5.2053251986
  0
LINE
  5
3B1
100
AcDbEntity
  8
0
100
AcDbLine
 62
4
  6
CONTINUOUS
 10
11.324079987
 20
10.5590157533
 11
11.3066933204
 21
10.5718126341
  0
LINE
  5
3B2
100
AcDbEntity
  8
0
100
AcDbLine
 62
4
  6
CONTINUOUS
 10
11.324079987
 20
10.698109086
 11
11.3414666536
 21
10.6853122083
  0
LINE
  5
3B3
100
AcDbEntity
  8
0
100
AcDbLine
 62
4
  6
CONTINUOUS
 10
12.9874043785
 20
8.8525907251
 11
12.9960977118
 21
8.8403967238
  0
LINE
  5
3B4
100
AcDbEntity
  8
0
100
AcDbLine
 62
7
  6
CONTINUOUS
 10
13.1351910446
 20
4.7924074677
 11
13.1351910446
 21
10.7324651247
  0
LINE
  5
3B5
100
AcDbEntity
  8
0
100
AcDbLine
 62
4
  6
CONTINUOUS
 10
11.2979999871
 20
5.1902763518
 11
11.3066933204
 21
5.2012645836
  0
LINE
  5
3B6
100
AcDbEntity
  8
0
100
AcDbLine
 62
4
  6
CONTINUOUS
 10
9.5660948399
 20
5.2060643852
 11
9.5487081733
 21
5.1956790432
  0
LINE
  5
3B7
100
AcDbEntity
  8
0
100
AcDbLine
 62
4
  6
CONTINUOUS
 10
11.4370933199
 20
10.5975426976
 11
11.4892533197
 21
10.5939253894
  0
LINE
  5
3B8
100
AcDbEntity
  8
0
100
AcDbLine
 62
4
  6
CONTINUOUS
 10
11.0198133216
 20
10.6496633845
 11
11.0719733214
 21
10.6460460763
  0
LINE
  5
3B9
100
AcDbEntity
  8
0
100
AcDbLine
 62
4
  6
CONTINUOUS
 10
11.5761866527
 20
10.611078763
 11
11.6283466524
 21
10.6074614547
  0
LINE
  5
3BA
100
AcDbEntity
  8
0
100
AcDbLine
 62
4
  6
CONTINUOUS
 10
10.8633333223
 20
10.7300619757
 11
10.9502666553
 21
10.7240331286
  0
LINE
  5
3BB
100
AcDbEntity
  8
0
100
AcDbLine
 62
4
  6
CONTINUOUS
 10
11.324079987
 20
10.6169713072
 11
11.2979999871
 21
10.6303710738
  0
LINE
  5
3BC
100
AcDbEntity
  8
0
100
AcDbLine
 62
4
  6
CONTINUOUS
 10
11.3501599869
 20
5.0939301584
 11
11.3414666536
 21
5.0829419317
  0
LINE
  5
3BD
100
AcDbEntity
  8
0
100
AcDbLine
 62
4
  6
CONTINUOUS
 10
11.7065866521
 20
5.1619407703
 11
11.7152799854
 21
5.1729290022
  0
LINE
  5
3BE
100
AcDbEntity
  8
0
100
AcDbLine
 62
7
  6
CONTINUOUS
 10
7.7260060968
 20
11.107593375
 11
13.1351910446
 21
10.7324651247
  0
LINE
  5
3BF
100
AcDbEntity
  8
0
100
AcDbLine
 62
4
  6
CONTINUOUS
 10
11.732666652
 20
5.1021765622
 11
11.7152799854
 21
5.0802001109
  0
LINE
  5
3C0
100
AcDbEntity
  8
0
100
AcDbLine
 62
4
  6
CONTINUOUS
 10
11.7761333185
 20
5.133935476
 11
11.7674399852
 21
5.1229472441
  0
LINE
  5
3C1
100
AcDbEntity
  8
0
100
AcDbLine
 62
4
  6
CONTINUOUS
 10
11.3066933204
 20
5.2012645836
 11
11.324079987
 21
5.2116499225
  0
LINE
  5
3C2
100
AcDbEntity
  8
0
100
AcDbLine
 62
7
  6
CONTINUOUS
 10
14.2739939032
 20
5.892406625
 11
14.2739939032
 21
11.8324642821
  0
LINE
  5
3C3
100
AcDbEntity
  8
0
100
AcDbLine
 62
4
  6
CONTINUOUS
 10
11.3414666536
 20
5.0829419317
 11
11.324079987
 21
5.0725565898
  0
LINE
  5
3C4
100
AcDbEntity
  8
0
100
AcDbLine
 62
4
  6
CONTINUOUS
 10
11.7152799854
 20
5.1729290022
 11
11.732666652
 21
5.1833143411
  0
LINE
  5
3C5
100
AcDbEntity
  8
0
100
AcDbLine
 62
4
  6
CONTINUOUS
 10
11.7674399852
 20
5.1229472441
 11
11.732666652
 21
5.1021765622
  0
LINE
  5
3C6
100
AcDbEntity
  8
0
100
AcDbLine
 62
4
  6
CONTINUOUS
 10
11.3501599869
 20
5.140294602
 11
11.324079987
 21
5.1305121437
  0
LINE
  5
3C7
100
AcDbEntity
  8
0
100
AcDbLine
 62
7
  6
CONTINUOUS
 10
14.2739939032
 20
11.8324642821
 11
8.8648089554
 21
12.2075925323
  0
LINE
  5
3C8
100
AcDbEntity
  8
0
100
AcDbLine
 62
7
  6
CONTINUOUS
 10
13.1351910446
 20
4.7924074677
 11
14.2739939032
 21
5.892406625
  0
ARC
  5
3C9
100
AcDbEntity
  8
0
100
AcDbCircle
 62
7
  6
CONTINUOUS
 10
11.1271670627
 20
10.8530820622
 40
0.1273836261
100
AcDbArc
 50
95.3238916429
 51
105.9426840284
  0
SPLINE
  5
3CA
100
AcDbEntity
  8
0
100
AcDbSpline
 62
7
  6
CONTINUOUS
 70
0
 71
3
 72
15
 73
11
 74
0
 42
0.0000001
 43
0.0000001
 44
0.0000000001
 40
0.0
 40
0.0
 40
0.0
 40
0.0
 40
0.1529061391
 40
0.2978852105
 40
0.434838617
 40
0.5637295824
 40
0.684568521
 40
0.797435234
 40
0.9024913679
 40
1.0
 40
1.0
 40
1.0
 40
1.0
 10
10.8179703944
 20
11.0403140834
 30
0.0
 10
10.8112479058
 20
11.0427989264
 30
0.0
 10
10.7982194644
 20
11.0478271591
 30
0.0
 10
10.7794491983
 20
11.0557801836
 30
0.0
 10
10.7619982053
 20
11.0639315316
 30
0.0
 10
10.7458974094
 20
11.0722665325
 30
0.0
 10
10.7311746628
 20
11.0807708277
 30
0.0
 10
10.7178549763
 20
11.0894302765
 30
0.0
 10
10.7059619984
 20
11.0982298808
 30
0.0
 10
10.6987354757
 20
11.104405168
 30
0.0
 10
10.6953896796
 20
11.1075187672
 30
0.0
  0
SPLINE
  5
3CB
100
AcDbEntity
  8
0
100
AcDbSpline
 62
7
  6
CONTINUOUS
 70
0
 71
3
 72
17
 73
13
 74
0
 42
0.0000001
 43
0.0000001
 44
0.0000000001
 40
0.0
 40
0.0
 40
0.0
 40
0.0
 40
0.1273378329
 40
0.2538400829
 40
0.3795569053
 40
0.5045640055
 40
0.6289661823
 40
0.7528920146
 40
0.8147421474
 40
0.8765298007
 40
0.9382754536
 40
1.0
 40
1.0
 40
1.0
 40
1.0
 10
8.5107242846
 20
10.570210042
 30
0.0
 10
8.5107242846
 20
10.5605886811
 30
0.0
 10
8.5098056148
 20
10.5413957975
 30
0.0
 10
8.5056511261
 20
10.5129756109
 30
0.0
 10
8.4987622701
 20
10.4852695966
 30
0.0
 10
8.489201028
 20
10.4585365428
 30
0.0
 10
8.4770561904
 20
10.4330242769
 30
0.0
 10
8.4648621503
 20
10.4129579849
 30
0.0
 10
8.4539458267
 20
10.3977601209
 30
0.0
 10
8.4451977508
 20
10.3868123159
 30
0.0
 10
8.4359056793
 20
10.3763359493
 30
0.0
 10
8.4293611156
 20
10.3696806827
 30
0.0
 10
8.426006669
 20
10.3664405559
 30
0.0
  0
SPLINE
  5
3CC
100
AcDbEntity
  8
0
100
AcDbSpline
 62
7
  6
CONTINUOUS
 70
0
 71
3
 72
17
 73
13
 74
0
 42
0.0000001
 43
0.0000001
 44
0.0000000001
 40
0.0
 40
0.0
 40
0.0
 40
0.0
 40
0.1273378329
 40
0.2538400829
 40
0.3795569053
 40
0.5045640055
 40
0.6289661823
 40
0.7528920146
 40
0.8147421474
 40
0.8765298007
 40
0.9382754536
 40
1.0
 40
1.0
 40
1.0
 40
1.0
 10
12.9539833488
 20
5.2879372058
 30
0.0
 10
12.9539833488
 20
5.2783158448
 30
0.0
 10
12.953064679
 20
5.2591229613
 30
0.0
 10
12.9489101903
 20
5.2307027746
 30
0.0
 10
12.9420213343
 20
5.2029967603
 30
0.0
 10
12.9324600922
 20
5.1762637066
 30
0.0
 10
12.9203152546
 20
5.1507514407
 30
0.0
 10
12.9081212145
 20
5.1306851486
 30
0.0
 10
12.8972048909
 20
5.1154872846
 30
0.0
 10
12.888456815
 20
5.1045394797
 30
0.0
 10
12.8791647435
 20
5.0940631131
 30
0.0
 10
12.8726201798
 20
5.0874078465
 30
0.0
 10
12.8692657332
 20
5.0841677196
 30
0.0
  0
SPLINE
  5
3CD
100
AcDbEntity
  8
0
100
AcDbSpline
 62
7
  6
CONTINUOUS
 70
0
 71
3
 72
39
 73
35
 74
0
 42
0.0000001
 43
0.0000001
 44
0.0000000001
 40
0.0
 40
0.0
 40
0.0
 40
0.0
 40
0.0762759979
 40
0.1537857201
 40
0.2318228615
 40
0.3096744149
 40
0.3866296163
 40
0.4245524202
 40
0.4619898317
 40
0.4988573244
 40
0.5350720769
 40
0.570553254
 40
0.6052222854
 40
0.6390031522
 40
0.671822689
 40
0.7036109051
 40
0.7343013306
 40
0.7638314029
 40
0.7921429055
 40
0.8191824544
 40
0.8449020826
 40
0.8692599546
 40
0.8922212623
 40
0.9137593773
 40
0.9239896553
 40
0.9338587463
 40
0.943366376
 40
0.9525131897
 40
0.9613008878
 40
0.9697322251
 40
0.9778113725
 40
0.9855438607
 40
0.9929370031
 40
1.0
 40
1.0
 40
1.0
 40
1.0
 10
13.5291133061
 20
9.1648855821
 30
0.0
 10
13.5291133061
 20
9.1866880345
 30
0.0
 10
13.52969985
 20
9.2306474853
 30
0.0
 10
13.5322588527
 20
9.2968679294
 30
0.0
 10
13.5364823436
 20
9.3634547698
 30
0.0
 10
13.5423293991
 20
9.4297592623
 30
0.0
 10
13.5485368375
 20
9.4845040748
 30
0.0
 10
13.5542826035
 20
9.527661598
 30
0.0
 10
13.5589366523
 20
9.5594019623
 30
0.0
 10
13.5639447454
 20
9.5905940096
 30
0.0
 10
13.5692946929
 20
9.6211618054
 30
0.0
 10
13.5749733911
 20
9.6510308803
 30
0.0
 10
13.580966945
 20
9.6801285015
 30
0.0
 10
13.5872606805
 20
9.7083838286
 30
0.0
 10
13.5938391857
 20
9.7357280951
 30
0.0
 10
13.6006863458
 20
9.7620947791
 30
0.0
 10
13.6077853835
 20
9.7874197737
 30
0.0
 10
13.6151189015
 20
9.8116415578
 30
0.0
 10
13.6226689193
 20
9.8347013585
 30
0.0
 10
13.6304169329
 20
9.8565433238
 30
0.0
 10
13.638343963
 20
9.877114628
 30
0.0
 10
13.6464306342
 20
9.896365806
 30
0.0
 10
13.654657203
 20
9.9142503145
 30
0.0
 10
13.6617288279
 20
9.9282098557
 30
0.0
 10
13.6674547064
 20
9.9386444863
 30
0.0
 10
13.6716978032
 20
9.9459676388
 30
0.0
 10
13.675960868
 20
9.9529184348
 30
0.0
 10
13.6802414081
 20
9.959492692
 30
0.0
 10
13.6845367921
 20
9.9656864973
 30
0.0
 10
13.6888445648
 20
9.9714961018
 30
0.0
 10
13.6931620763
 20
9.976918085
 30
0.0
 10
13.6974869477
 20
9.9819492055
 30
0.0
 10
13.7018164831
 20
9.9865863526
 30
0.0
 10
13.7047706013
 20
9.9894781505
 30
0.0
 10
13.7062484402
 20
9.9908535751
 30
0.0
  0
SPLINE
  5
3CE
100
AcDbEntity
  8
0
100
AcDbSpline
 62
7
  6
CONTINUOUS
 70
0
 71
3
 72
39
 73
35
 74
0
 42
0.0000001
 43
0.0000001
 44
0.0000000001
 40
0.0
 40
0.0
 40
0.0
 40
0.0
 40
0.0762759979
 40
0.1537857201
 40
0.2318228615
 40
0.3096744149
 40
0.3866296163
 40
0.4245524202
 40
0.4619898317
 40
0.4988573244
 40
0.5350720769
 40
0.570553254
 40
0.6052222854
 40
0.6390031522
 40
0.671822689
 40
0.7036109051
 40
0.7343013306
 40
0.7638314029
 40
0.7921429055
 40
0.8191824544
 40
0.8449020826
 40
0.8692599546
 40
0.8922212623
 40
0.9137593773
 40
0.9239896553
 40
0.9338587463
 40
0.943366376
 40
0.9525131897
 40
0.9613008878
 40
0.9697322251
 40
0.9778113725
 40
0.9855438607
 40
0.9929370031
 40
1.0
 40
1.0
 40
1.0
 40
1.0
 10
13.5291133061
 20
7.128713827
 30
0.0
 10
13.5291133061
 20
7.1505162794
 30
0.0
 10
13.52969985
 20
7.1944757302
 30
0.0
 10
13.5322588527
 20
7.2606961743
 30
0.0
 10
13.5364823436
 20
7.3272830147
 30
0.0
 10
13.5423293991
 20
7.3935875072
 30
0.0
 10
13.5485368375
 20
7.4483323197
 30
0.0
 10
13.5542826035
 20
7.4914898429
 30
0.0
 10
13.5589366523
 20
7.5232302072
 30
0.0
 10
13.5639447454
 20
7.5544222545
 30
0.0
 10
13.5692946929
 20
7.5849900503
 30
0.0
 10
13.5749733911
 20
7.6148591252
 30
0.0
 10
13.580966945
 20
7.6439567464
 30
0.0
 10
13.5872606805
 20
7.6722120735
 30
0.0
 10
13.5938391857
 20
7.69955634
 30
0.0
 10
13.6006863458
 20
7.725923024
 30
0.0
 10
13.6077853835
 20
7.7512480186
 30
0.0
 10
13.6151189015
 20
7.7754698027
 30
0.0
 10
13.6226689193
 20
7.7985296034
 30
0.0
 10
13.6304169329
 20
7.8203715687
 30
0.0
 10
13.638343963
 20
7.8409428729
 30
0.0
 10
13.6464306342
 20
7.8601940509
 30
0.0
 10
13.654657203
 20
7.8780785594
 30
0.0
 10
13.6617288279
 20
7.8920381006
 30
0.0
 10
13.6674547064
 20
7.9024727312
 30
0.0
 10
13.6716978032
 20
7.9097958837
 30
0.0
 10
13.675960868
 20
7.9167466797
 30
0.0
 10
13.6802414081
 20
7.923320937
 30
0.0
 10
13.6845367921
 20
7.9295147423
 30
0.0
 10
13.6888445648
 20
7.9353243467
 30
0.0
 10
13.6931620763
 20
7.9407463299
 30
0.0
 10
13.6974869477
 20
7.9457774504
 30
0.0
 10
13.7018164831
 20
7.9504145975
 30
0.0
 10
13.7047706013
 20
7.9533063954
 30
0.0
 10
13.7062484402
 20
7.95468182
 30
0.0
  0
SPLINE
  5
3CF
100
AcDbEntity
  8
0
100
AcDbSpline
 62
7
  6
CONTINUOUS
 70
0
 71
3
 72
15
 73
11
 74
0
 42
0.0000001
 43
0.0000001
 44
0.0000000001
 40
0.0
 40
0.0
 40
0.0
 40
0.0
 40
0.1259715566
 40
0.2515693834
 40
0.3768363449
 40
0.5018200899
 40
0.6265722
 40
0.7511476157
 40
0.8756038264
 40
1.0
 40
1.0
 40
1.0
 40
1.0
 10
8.5074093382
 20
10.6148314519
 30
0.0
 10
8.5062172908
 20
10.6112136429
 30
0.0
 10
8.5036216163
 20
10.6040575552
 30
0.0
 10
8.4991001759
 20
10.593591111
 30
0.0
 10
8.493971039
 20
10.5834416159
 30
0.0
 10
8.4882510058
 20
10.5736426706
 30
0.0
 10
8.4819586673
 20
10.5642261248
 30
0.0
 10
8.4751144571
 20
10.5552225885
 30
0.0
 10
8.4677410685
 20
10.5466617805
 30
0.0
 10
8.4624872287
 20
10.5412670114
 30
0.0
 10
8.459781742
 20
10.5386537334
 30
0.0
  0
SPLINE
  5
3D0
100
AcDbEntity
  8
0
100
AcDbSpline
 62
7
  6
CONTINUOUS
 70
0
 71
3
 72
15
 73
11
 74
0
 42
0.0000001
 43
0.0000001
 44
0.0000000001
 40
0.0
 40
0.0
 40
0.0
 40
0.0
 40
0.1259715566
 40
0.2515693834
 40
0.3768363449
 40
0.5018200899
 40
0.6265722
 40
0.7511476157
 40
0.8756038264
 40
1.0
 40
1.0
 40
1.0
 40
1.0
 10
12.9506684024
 20
5.3325586156
 30
0.0
 10
12.949476355
 20
5.3289408066
 30
0.0
 10
12.9468806805
 20
5.321784719
 30
0.0
 10
12.9423592401
 20
5.3113182747
 30
0.0
 10
12.9372301032
 20
5.3011687796
 30
0.0
 10
12.93151007
 20
5.2913698343
 30
0.0
 10
12.9252177315
 20
5.2819532886
 30
0.0
 10
12.9183735213
 20
5.2729497523
 30
0.0
 10
12.9110001327
 20
5.2643889443
 30
0.0
 10
12.9057462929
 20
5.2589941751
 30
0.0
 10
12.9030408062
 20
5.2563808972
 30
0.0
  0
SPLINE
  5
3D1
100
AcDbEntity
  8
0
100
AcDbSpline
 62
7
  6
CONTINUOUS
 70
0
 71
3
 72
15
 73
11
 74
0
 42
0.0000001
 43
0.0000001
 44
0.0000000001
 40
0.0
 40
0.0
 40
0.0
 40
0.0
 40
0.1273482292
 40
0.2538605354
 40
0.3795879276
 40
0.5046050833
 40
0.6290174349
 40
0.7529533662
 40
0.8765605734
 40
1.0
 40
1.0
 40
1.0
 40
1.0
 10
9.4488225991
 20
7.0186554208
 30
0.0
 10
9.4488225991
 20
7.0134567206
 30
0.0
 10
9.44832623
 20
7.0030862574
 30
0.0
 10
9.4460814376
 20
6.9877300157
 30
0.0
 10
9.4423591914
 20
6.9727596193
 30
0.0
 10
9.437193105
 20
6.9583150772
 30
0.0
 10
9.4306306106
 20
6.9445295887
 30
0.0
 10
9.4227315057
 20
6.9315304498
 30
0.0
 10
9.4135700631
 20
6.919439465
 30
0.0
 10
9.4066719641
 20
6.9120535983
 30
0.0
 10
9.4030475376
 20
6.9085526862
 30
0.0
  0
SPLINE
  5
3D2
100
AcDbEntity
  8
0
100
AcDbSpline
 62
7
  6
CONTINUOUS
 70
0
 71
3
 72
37
 73
33
 74
0
 42
0.0000001
 43
0.0000001
 44
0.0000000001
 40
0.0
 40
0.0
 40
0.0
 40
0.0
 40
0.0310771759
 40
0.062313004
 40
0.0937002459
 40
0.1252319692
 40
0.1568961193
 40
0.1886787366
 40
0.2205631508
 40
0.2525307008
 40
0.2845610305
 40
0.31663253
 40
0.3807705343
 40
0.4448017795
 40
0.4767420587
 40
0.5085923632
 40
0.5403347044
 40
0.5719532962
 40
0.6034349037
 40
0.634769149
 40
0.6659487681
 40
0.6969698103
 40
0.7278317732
 40
0.7585376663
 40
0.7890939983
 40
0.8195106849
 40
0.8498008675
 40
0.879980648
 40
0.9100687428
 40
0.9400860613
 40
0.9700552192
 40
1.0
 40
1.0
 40
1.0
 40
1.0
 10
9.4488225991
 20
7.0186554208
 30
0.0
 10
9.4488225991
 20
7.0226960399
 30
0.0
 10
9.4485211356
 20
7.0308010122
 30
0.0
 10
9.4471754111
 20
7.0429196156
 30
0.0
 10
9.4449422992
 20
7.0549671246
 30
0.0
 10
9.4418344522
 20
7.0668763714
 30
0.0
 10
9.4378688654
 20
7.0785823143
 30
0.0
 10
9.4330675192
 20
7.0900205915
 30
0.0
 10
9.4274567714
 20
7.1011284926
 30
0.0
 10
9.4210676375
 20
7.1118449264
 30
0.0
 10
9.4139347108
 20
7.1221115799
 30
0.0
 10
9.4034885792
 20
7.1351215342
 30
0.0
 10
9.3887822989
 20
7.1499792418
 30
0.0
 10
9.3721786498
 20
7.1626542603
 30
0.0
 10
9.3579788599
 20
7.1713112017
 30
0.0
 10
9.3469375643
 20
7.1770241416
 30
0.0
 10
9.3355601787
 20
7.1819286299
 30
0.0
 10
9.3239086016
 20
7.1859981055
 30
0.0
 10
9.3120469337
 20
7.1892100047
 30
0.0
 10
9.300040261
 20
7.1915466038
 30
0.0
 10
9.2879545355
 20
7.1929949277
 30
0.0
 10
9.2758561571
 20
7.1935468759
 30
0.0
 10
9.2638116298
 20
7.1931992596
 30
0.0
 10
9.2518871966
 20
7.1919538279
 30
0.0
 10
9.240148478
 20
7.1898172725
 30
0.0
 10
9.228660105
 20
7.1868012079
 30
0.0
 10
9.2174853689
 20
7.182922105
 30
0.0
 10
9.2066858472
 20
7.1782011901
 30
0.0
 10
9.1963211393
 20
7.1726644146
 30
0.0
 10
9.1864482313
 20
7.1663420232
 30
0.0
 10
9.1771222841
 20
7.1592694858
 30
0.0
 10
9.1713014242
 20
7.1540779409
 30
0.0
 10
9.1685010824
 20
7.15137303
 30
0.0
  0
SPLINE
  5
3D3
100
AcDbEntity
  8
0
100
AcDbSpline
 62
7
  6
CONTINUOUS
 70
0
 71
3
 72
15
 73
11
 74
0
 42
0.0000001
 43
0.0000001
 44
0.0000000001
 40
0.0
 40
0.0
 40
0.0
 40
0.0
 40
0.1273482292
 40
0.2538605354
 40
0.3795879276
 40
0.5046050833
 40
0.6290174349
 40
0.7529533662
 40
0.8765605734
 40
1.0
 40
1.0
 40
1.0
 40
1.0
 10
9.4488225991
 20
9.0548271759
 30
0.0
 10
9.4488225991
 20
9.0496284757
 30
0.0
 10
9.44832623
 20
9.0392580125
 30
0.0
 10
9.4460814376
 20
9.0239017708
 30
0.0
 10
9.4423591914
 20
9.0089313744
 30
0.0
 10
9.437193105
 20
8.9944868323
 30
0.0
 10
9.4306306106
 20
8.9807013438
 30
0.0
 10
9.4227315057
 20
8.9677022049
 30
0.0
 10
9.4135700631
 20
8.9556112201
 30
0.0
 10
9.4066719641
 20
8.9482253534
 30
0.0
 10
9.4030475376
 20
8.9447244412
 30
0.0
  0
SPLINE
  5
3D4
100
AcDbEntity
  8
0
100
AcDbSpline
 62
7
  6
CONTINUOUS
 70
0
 71
3
 72
37
 73
33
 74
0
 42
0.0000001
 43
0.0000001
 44
0.0000000001
 40
0.0
 40
0.0
 40
0.0
 40
0.0
 40
0.0310771759
 40
0.062313004
 40
0.0937002459
 40
0.1252319692
 40
0.1568961193
 40
0.1886787366
 40
0.2205631508
 40
0.2525307008
 40
0.2845610305
 40
0.31663253
 40
0.3807705343
 40
0.4448017795
 40
0.4767420587
 40
0.5085923632
 40
0.5403347044
 40
0.5719532962
 40
0.6034349037
 40
0.634769149
 40
0.6659487681
 40
0.6969698103
 40
0.7278317732
 40
0.7585376663
 40
0.7890939983
 40
0.8195106849
 40
0.8498008675
 40
0.879980648
 40
0.9100687428
 40
0.9400860613
 40
0.9700552192
 40
1.0
 40
1.0
 40
1.0
 40
1.0
 10
9.4488225991
 20
9.0548271759
 30
0.0
 10
9.4488225991
 20
9.058867795
 30
0.0
 10
9.4485211356
 20
9.0669727673
 30
0.0
 10
9.4471754111
 20
9.0790913707
 30
0.0
 10
9.4449422992
 20
9.0911388797
 30
0.0
 10
9.4418344522
 20
9.1030481265
 30
0.0
 10
9.4378688654
 20
9.1147540694
 30
0.0
 10
9.4330675192
 20
9.1261923466
 30
0.0
 10
9.4274567714
 20
9.1373002477
 30
0.0
 10
9.4210676375
 20
9.1480166815
 30
0.0
 10
9.4139347108
 20
9.158283335
 30
0.0
 10
9.4034885792
 20
9.1712932892
 30
0.0
 10
9.3887822989
 20
9.1861509969
 30
0.0
 10
9.3721786498
 20
9.1988260154
 30
0.0
 10
9.3579788599
 20
9.2074829568
 30
0.0
 10
9.3469375643
 20
9.2131958967
 30
0.0
 10
9.3355601787
 20
9.218100385
 30
0.0
 10
9.3239086016
 20
9.2221698606
 30
0.0
 10
9.3120469337
 20
9.2253817598
 30
0.0
 10
9.300040261
 20
9.2277183589
 30
0.0
 10
9.2879545355
 20
9.2291666828
 30
0.0
 10
9.2758561571
 20
9.229718631
 30
0.0
 10
9.2638116298
 20
9.2293710147
 30
0.0
 10
9.2518871966
 20
9.228125583
 30
0.0
 10
9.240148478
 20
9.2259890276
 30
0.0
 10
9.228660105
 20
9.222972963
 30
0.0
 10
9.2174853689
 20
9.2190938601
 30
0.0
 10
9.2066858472
 20
9.2143729452
 30
0.0
 10
9.1963211393
 20
9.2088361697
 30
0.0
 10
9.1864482313
 20
9.2025137783
 30
0.0
 10
9.1771222841
 20
9.1954412409
 30
0.0
 10
9.1713014242
 20
9.190249696
 30
0.0
 10
9.1685010824
 20
9.1875447851
 30
0.0
  0
SPLINE
  5
3D5
100
AcDbEntity
  8
0
100
AcDbSpline
 62
7
  6
CONTINUOUS
 70
0
 71
3
 72
54
 73
50
 74
0
 42
0.0000001
 43
0.0000001
 44
0.0000000001
 40
0.0
 40
0.0
 40
0.0
 40
0.0
 40
0.0073043351
 40
0.0150784711
 40
0.0233376363
 40
0.0320923287
 40
0.0413490493
 40
0.05111103
 40
0.0613786831
 40
0.0721499932
 40
0.0834209186
 40
0.0951855674
 40
0.107436443
 40
0.1201646605
 40
0.1333600025
 40
0.147011109
 40
0.1611055798
 40
0.1756299964
 40
0.19057008
 40
0.2059107225
 40
0.2216360195
 40
0.2377293925
 40
0.2709500769
 40
0.3054283498
 40
0.3410106209
 40
0.3775361596
 40
0.4148382834
 40
0.452745487
 40
0.4910825719
 40
0.5296717446
 40
0.5683336935
 40
0.606888671
 40
0.6451575722
 40
0.6829630083
 40
0.7201304023
 40
0.7564890878
 40
0.7918734162
 40
0.8261239145
 40
0.8590885159
 40
0.8750437774
 40
0.8906245712
 40
0.9058145591
 40
0.9205981547
 40
0.9349605367
 40
0.9488877841
 40
0.9623667774
 40
0.9753854856
 40
0.9879335125
 40
1.0
 40
1.0
 40
1.0
 40
1.0
 10
12.3324546911
 20
11.1075193383
 30
0.0
 10
12.3296897404
 20
11.1049462608
 30
0.0
 10
12.3237945155
 20
11.0998337374
 30
0.0
 10
12.3142160507
 20
11.0924837217
 30
0.0
 10
12.303644015
 20
11.085226829
 30
0.0
 10
12.2920915907
 20
11.07807192
 30
0.0
 10
12.2795724987
 20
11.0710271716
 30
0.0
 10
12.2661018832
 20
11.0641011195
 30
0.0
 10
12.2516960988
 20
11.0573021781
 30
0.0
 10
12.2363727657
 20
11.0506386512
 30
0.0
 10
12.2201506629
 20
11.0441188268
 30
0.0
 10
12.2030497693
 20
11.0377507766
 30
0.0
 10
12.1850911968
 20
11.0315424048
 30
0.0
 10
12.1662971423
 20
11.0255015072
 30
0.0
 10
12.1466908966
 20
11.0196355889
 30
0.0
 10
12.1262967748
 20
11.0139519822
 30
0.0
 10
12.105140086
 20
11.008457833
 30
0.0
 10
12.0832471222
 20
11.0031599689
 30
0.0
 10
12.0606450921
 20
10.9980650349
 30
0.0
 10
12.0373621084
 20
10.9931794357
 30
0.0
 10
12.0134271113
 20
10.9885091946
 30
0.0
 10
11.9803337835
 20
10.9825139367
 30
0.0
 10
11.9375522796
 20
10.9756223874
 30
0.0
 10
11.8846352776
 20
10.9683814884
 30
0.0
 10
11.8298731124
 20
10.9621213096
 30
0.0
 10
11.7735383998
 20
10.9568733648
 30
0.0
 10
11.7159113184
 20
10.9526641493
 30
0.0
 10
11.6572786792
 20
10.9495148556
 30
0.0
 10
11.5979323309
 20
10.9474413388
 30
0.0
 10
11.5381677196
 20
10.9464540484
 30
0.0
 10
11.4782823928
 20
10.9465579649
 30
0.0
 10
11.4185745064
 20
10.9477525481
 30
0.0
 10
11.3593413246
 20
10.9500317829
 30
0.0
 10
11.3008777262
 20
10.9533842093
 30
0.0
 10
11.2434747047
 20
10.9577929329
 30
0.0
 10
11.1874179391
 20
10.9632357313
 30
0.0
 10
11.1329862078
 20
10.9696851455
 30
0.0
 10
11.0804504671
 20
10.9771087251
 30
0.0
 10
11.0380191638
 20
10.984149726
 30
0.0
 10
11.0052303919
 20
10.9902612198
 30
0.0
 10
10.9815401168
 20
10.9950141524
 30
0.0
 10
10.9585129872
 20
10.999980188
 30
0.0
 10
10.9361776095
 20
11.0051531194
 30
0.0
 10
10.9145617532
 20
11.0105265004
 30
0.0
 10
10.8936923107
 20
11.0160936138
 30
0.0
 10
10.8735952256
 20
11.0218474293
 30
0.0
 10
10.8542951858
 20
11.0277808764
 30
0.0
 10
10.835816585
 20
11.0338864432
 30
0.0
 10
10.8238228397
 20
11.0381508357
 30
0.0
 10
10.8179703944
 20
11.0403140834
 30
0.0
  0
SPLINE
  5
3D6
100
AcDbEntity
  8
0
100
AcDbSpline
 62
7
  6
CONTINUOUS
 70
0
 71
3
 72
15
 73
11
 74
0
 42
0.0000001
 43
0.0000001
 44
0.0000000001
 40
0.0
 40
0.0
 40
0.0
 40
0.0
 40
0.1033768663
 40
0.2099796624
 40
0.3212231573
 40
0.4385773028
 40
0.5636592296
 40
0.6981505721
 40
0.8433510491
 40
1.0
 40
1.0
 40
1.0
 40
1.0
 10
12.3395218753
 20
11.1333345647
 30
0.0
 10
12.3395218753
 20
11.132431632
 30
0.0
 10
12.33944476
 20
11.1305966679
 30
0.0
 10
12.3390900091
 20
11.1278103044
 30
0.0
 10
12.3384796012
 20
11.1249435458
 30
0.0
 10
12.3375976942
 20
11.1219796587
 30
0.0
 10
12.3364167995
 20
11.1189031716
 30
0.0
 10
12.3349118478
 20
11.1157008141
 30
0.0
 10
12.3330605749
 20
11.1123665035
 30
0.0
 10
12.331635965
 20
11.1101457394
 30
0.0
 10
12.3308644449
 20
11.1090157777
 30
0.0
  0
LINE
  5
3D7
100
AcDbEntity
  8
0
100
AcDbLine
 62
7
  6
CONTINUOUS
 10
12.3308644449
 20
11.1090157777
 11
12.3307601091
 21
11.1088633916
  0
SPLINE
  5
3D8
100
AcDbEntity
  8
0
100
AcDbSpline
 62
7
  6
CONTINUOUS
 70
0
 71
3
 72
9
 73
5
 74
0
 42
0.0000001
 43
0.0000001
 44
0.0000000001
 40
0.0
 40
0.0
 40
0.0
 40
0.0
 40
0.4801625115
 40
1.0
 40
1.0
 40
1.0
 40
1.0
 10
12.3307601091
 20
11.1088633916
 30
0.0
 10
12.3298113109
 20
11.1074814628
 30
0.0
 10
12.3277346672
 20
11.1046717653
 30
0.0
 10
12.325491316
 20
11.1019940538
 30
0.0
 10
12.3242887683
 20
11.1006348738
 30
0.0
  0
SPLINE
  5
3D9
100
AcDbEntity
  8
0
100
AcDbSpline
 62
7
  6
CONTINUOUS
 70
0
 71
3
 72
9
 73
5
 74
0
 42
0.0000001
 43
0.0000001
 44
0.0000000001
 40
0.0
 40
0.0
 40
0.0
 40
0.0
 40
0.5197479241
 40
1.0
 40
1.0
 40
1.0
 40
1.0
 10
10.7035197444
 20
11.1006747227
 30
0.0
 10
10.7023243083
 20
11.1020273067
 30
0.0
 10
10.7000936507
 20
11.104692173
 30
0.0
 10
10.698028163
 20
11.1074877225
 30
0.0
 10
10.6970840581
 20
11.1088627848
 30
0.0
  0
LINE
  5
3DA
100
AcDbEntity
  8
0
100
AcDbLine
 62
7
  6
CONTINUOUS
 10
10.6970840581
 20
11.1088627848
 11
10.696978752
 21
11.1090165887
  0
SPLINE
  5
3DB
100
AcDbEntity
  8
0
100
AcDbSpline
 62
7
  6
CONTINUOUS
 70
0
 71
3
 72
15
 73
11
 74
0
 42
0.0000001
 43
0.0000001
 44
0.0000000001
 40
0.0
 40
0.0
 40
0.0
 40
0.0
 40
0.1566477611
 40
0.3018474311
 40
0.436338359
 40
0.5614202072
 40
0.678774603
 40
0.7900186651
 40
0.8966222479
 40
1.0
 40
1.0
 40
1.0
 40
1.0
 10
10.696978752
 20
11.1090165887
 30
0.0
 10
10.6962072821
 20
11.11014651
 30
0.0
 10
10.6947827646
 20
11.1123671953
 30
0.0
 10
10.692931613
 20
11.1157013856
 30
0.0
 10
10.6914267587
 20
11.1189036297
 30
0.0
 10
10.6902459387
 20
11.1219800109
 30
0.0
 10
10.6893640868
 20
11.1249438001
 30
0.0
 10
10.6887537164
 20
11.1278104686
 30
0.0
 10
10.6883989863
 20
11.1305967481
 30
0.0
 10
10.6883218753
 20
11.1324316581
 30
0.0
 10
10.6883218753
 20
11.1333345647
 30
0.0
  0
SPLINE
  5
3DC
100
AcDbEntity
  8
0
100
AcDbSpline
 62
7
  6
CONTINUOUS
 70
0
 71
3
 72
15
 73
11
 74
0
 42
0.0000001
 43
0.0000001
 44
0.0000000001
 40
0.0
 40
0.0
 40
0.0
 40
0.0
 40
0.1243966465
 40
0.2488532911
 40
0.3734290807
 40
0.4981814118
 40
0.6231651444
 40
0.7484318784
 40
0.8740292008
 40
1.0
 40
1.0
 40
1.0
 40
1.0
 10
8.1652114004
 20
10.8436197922
 30
0.0
 10
8.1679156044
 20
10.8462318311
 30
0.0
 10
8.1734866214
 20
10.8512930852
 30
0.0
 10
8.1822933874
 20
10.8583623026
 30
0.0
 10
8.1915239326
 20
10.8648878133
 30
0.0
 10
8.2011478087
 20
10.8708479759
 30
0.0
 10
8.2111337042
 20
10.8762235487
 30
0.0
 10
8.2214491994
 20
10.8809970804
 30
0.0
 10
8.2320602226
 20
10.885152887
 30
0.0
 10
8.2392980177
 20
10.8874992448
 30
0.0
 10
8.2429529677
 20
10.888565462
 30
0.0
  0
SPLINE
  5
3DD
100
AcDbEntity
  8
0
100
AcDbSpline
 62
7
  6
CONTINUOUS
 70
0
 71
3
 72
41
 73
37
 74
0
 42
0.0000001
 43
0.0000001
 44
0.0000000001
 40
0.0
 40
0.0
 40
0.0
 40
0.0
 40
0.0299421194
 40
0.0449237639
 40
0.0599145138
 40
0.0899291713
 40
0.1200146024
 40
0.1350933663
 40
0.150197487
 40
0.1804849907
 40
0.2108989863
 40
0.2414526128
 40
0.2721557852
 40
0.3030150139
 40
0.3340333096
 40
0.3652101699
 40
0.3965416431
 40
0.4280204639
 40
0.4596362538
 40
0.4913757784
 40
0.523223254
 40
0.5551606966
 40
0.5871683049
 40
0.6192248703
 40
0.6513082078
 40
0.6833956
 40
0.7154642491
 40
0.7474917297
 40
0.7794564361
 40
0.8113380197
 40
0.8431178035
 40
0.8747791886
 40
0.9063079722
 40
0.9376928053
 40
0.9689251015
 40
1.0
 40
1.0
 40
1.0
 40
1.0
 10
7.9919314082
 20
10.815833123
 30
0.0
 10
7.9971140232
 20
10.8208391142
 30
0.0
 10
8.0051934396
 20
10.8280447601
 30
0.0
 10
8.0165084803
 20
10.8369853976
 30
0.0
 10
8.0281838482
 20
10.8454811353
 30
0.0
 10
8.0434182835
 20
10.8552369945
 30
0.0
 10
8.0593934263
 20
10.8637705479
 30
0.0
 10
8.072568779
 20
10.8698413263
 30
0.0
 10
8.0860162958
 20
10.8754109526
 30
0.0
 10
8.1032688502
 20
10.881399875
 30
0.0
 10
8.1245300082
 20
10.8869814004
 30
0.0
 10
8.1462550881
 20
10.8909354815
 30
0.0
 10
8.1683236925
 20
10.8932403041
 30
0.0
 10
8.1906145938
 20
10.8938835681
 30
0.0
 10
8.2130051413
 20
10.8928619997
 30
0.0
 10
8.2353722714
 20
10.8901815
 30
0.0
 10
8.2575930865
 20
10.8858570608
 30
0.0
 10
8.2795455474
 20
10.879912682
 30
0.0
 10
8.3011091272
 20
10.8723812298
 30
0.0
 10
8.3221654659
 20
10.8633042511
 30
0.0
 10
8.3425990106
 20
10.8527317425
 30
0.0
 10
8.3622976404
 20
10.8407218741
 30
0.0
 10
8.3811532735
 20
10.8273406711
 30
0.0
 10
8.3990624531
 20
10.8126616525
 30
0.0
 10
8.4159269078
 20
10.7967654307
 30
0.0
 10
8.4316540853
 20
10.7797392728
 30
0.0
 10
8.4461576544
 20
10.7616766257
 30
0.0
 10
8.4593579747
 20
10.7426766089
 30
0.0
 10
8.4711825301
 20
10.7228434771
 30
0.0
 10
8.4815663218
 20
10.702286051
 30
0.0
 10
8.4904522303
 20
10.6811171416
 30
0.0
 10
8.4977913095
 20
10.6594528894
 30
0.0
 10
8.5035431019
 20
10.6374123154
 30
0.0
 10
8.5076757668
 20
10.6151160088
 30
0.0
 10
8.5101664304
 20
10.5926880217
 30
0.0
 10
8.5107242846
 20
10.5776881581
 30
0.0
 10
8.5107242846
 20
10.570210042
 30
0.0
  0
SPLINE
  5
3DE
100
AcDbEntity
  8
0
100
AcDbSpline
 62
7
  6
CONTINUOUS
 70
0
 71
3
 72
15
 73
11
 74
0
 42
0.0000001
 43
0.0000001
 44
0.0000000001
 40
0.0
 40
0.0
 40
0.0
 40
0.0
 40
0.1243966465
 40
0.2488532911
 40
0.3734290807
 40
0.4981814118
 40
0.6231651444
 40
0.7484318784
 40
0.8740292008
 40
1.0
 40
1.0
 40
1.0
 40
1.0
 10
12.6084704646
 20
5.561346956
 30
0.0
 10
12.6111746686
 20
5.5639589949
 30
0.0
 10
12.6167456857
 20
5.569020249
 30
0.0
 10
12.6255524516
 20
5.5760894664
 30
0.0
 10
12.6347829968
 20
5.5826149771
 30
0.0
 10
12.6444068729
 20
5.5885751397
 30
0.0
 10
12.6543927684
 20
5.5939507125
 30
0.0
 10
12.6647082636
 20
5.5987242441
 30
0.0
 10
12.6753192868
 20
5.6028800508
 30
0.0
 10
12.6825570819
 20
5.6052264086
 30
0.0
 10
12.6862120319
 20
5.6062926257
 30
0.0
  0
SPLINE
  5
3DF
100
AcDbEntity
  8
0
100
AcDbSpline
 62
7
  6
CONTINUOUS
 70
0
 71
3
 72
41
 73
37
 74
0
 42
0.0000001
 43
0.0000001
 44
0.0000000001
 40
0.0
 40
0.0
 40
0.0
 40
0.0
 40
0.0299421194
 40
0.0449237639
 40
0.0599145138
 40
0.0899291713
 40
0.1200146024
 40
0.1350933663
 40
0.150197487
 40
0.1804849907
 40
0.2108989863
 40
0.2414526128
 40
0.2721557852
 40
0.3030150139
 40
0.3340333096
 40
0.3652101699
 40
0.3965416431
 40
0.4280204639
 40
0.4596362538
 40
0.4913757784
 40
0.523223254
 40
0.5551606966
 40
0.5871683049
 40
0.6192248703
 40
0.6513082078
 40
0.6833956
 40
0.7154642491
 40
0.7474917297
 40
0.7794564361
 40
0.8113380197
 40
0.8431178035
 40
0.8747791886
 40
0.9063079722
 40
0.9376928053
 40
0.9689251015
 40
1.0
 40
1.0
 40
1.0
 40
1.0
 10
12.4351904724
 20
5.5335602868
 30
0.0
 10
12.4403730874
 20
5.5385662779
 30
0.0
 10
12.4484525038
 20
5.5457719239
 30
0.0
 10
12.4597675445
 20
5.5547125613
 30
0.0
 10
12.4714429124
 20
5.563208299
 30
0.0
 10
12.4866773477
 20
5.5729641582
 30
0.0
 10
12.5026524905
 20
5.5814977117
 30
0.0
 10
12.5158278432
 20
5.5875684901
 30
0.0
 10
12.52927536
 20
5.5931381164
 30
0.0
 10
12.5465279144
 20
5.5991270387
 30
0.0
 10
12.5677890724
 20
5.6047085642
 30
0.0
 10
12.5895141523
 20
5.6086626453
 30
0.0
 10
12.6115827567
 20
5.6109674679
 30
0.0
 10
12.633873658
 20
5.6116107318
 30
0.0
 10
12.6562642055
 20
5.6105891634
 30
0.0
 10
12.6786313356
 20
5.6079086638
 30
0.0
 10
12.7008521507
 20
5.6035842245
 30
0.0
 10
12.7228046116
 20
5.5976398458
 30
0.0
 10
12.7443681914
 20
5.5901083935
 30
0.0
 10
12.7654245301
 20
5.5810314149
 30
0.0
 10
12.7858580748
 20
5.5704589062
 30
0.0
 10
12.8055567046
 20
5.5584490379
 30
0.0
 10
12.8244123377
 20
5.5450678348
 30
0.0
 10
12.8423215173
 20
5.5303888162
 30
0.0
 10
12.859185972
 20
5.5144925945
 30
0.0
 10
12.8749131495
 20
5.4974664365
 30
0.0
 10
12.8894167186
 20
5.4794037895
 30
0.0
 10
12.9026170389
 20
5.4604037726
 30
0.0
 10
12.9144415943
 20
5.4405706408
 30
0.0
 10
12.924825386
 20
5.4200132148
 30
0.0
 10
12.9337112945
 20
5.3988443054
 30
0.0
 10
12.9410503737
 20
5.3771800532
 30
0.0
 10
12.9468021661
 20
5.3551394791
 30
0.0
 10
12.950934831
 20
5.3328431725
 30
0.0
 10
12.9534254946
 20
5.3104151855
 30
0.0
 10
12.9539833488
 20
5.2954153219
 30
0.0
 10
12.9539833488
 20
5.2879372058
 30
0.0
  0
SPLINE
  5
3E0
100
AcDbEntity
  8
0
100
AcDbSpline
 62
7
  6
CONTINUOUS
 70
0
 71
3
 72
31
 73
27
 74
0
 42
0.0000001
 43
0.0000001
 44
0.0000000001
 40
0.0
 40
0.0
 40
0.0
 40
0.0
 40
0.016214396
 40
0.0334274648
 40
0.0516718599
 40
0.070971016
 40
0.091340553
 40
0.1127897227
 40
0.135322035
 40
0.1589364755
 40
0.183627697
 40
0.2093869344
 40
0.2362021238
 40
0.2640584144
 40
0.2929384385
 40
0.3228224175
 40
0.3536886273
 40
0.385513217
 40
0.4519322161
 40
0.5218580714
 40
0.5950444373
 40
0.6712250335
 40
0.7501160696
 40
0.8314189109
 40
0.9148208524
 40
1.0
 40
1.0
 40
1.0
 40
1.0
 10
13.6156168527
 20
8.6839719385
 30
0.0
 10
13.6139295638
 20
8.6860465363
 30
0.0
 10
13.6105930815
 20
8.6904403678
 30
0.0
 10
13.6058348651
 20
8.6975147228
 30
0.0
 10
13.6011812472
 20
8.7052580915
 30
0.0
 10
13.5966370359
 20
8.7136622834
 30
0.0
 10
13.5922065648
 20
8.7227188736
 30
0.0
 10
13.5878944256
 20
8.7324186138
 30
0.0
 10
13.5837049304
 20
8.7427515226
 30
0.0
 10
13.579642531
 20
8.7537069533
 30
0.0
 10
13.5757113799
 20
8.7652735256
 30
0.0
 10
13.5719156728
 20
8.7774392145
 30
0.0
 10
13.5682593733
 20
8.7901913195
 30
0.0
 10
13.5647463479
 20
8.8035165067
 30
0.0
 10
13.5613803377
 20
8.8174008221
 30
0.0
 10
13.5581648675
 20
8.8318296966
 30
0.0
 10
13.5551033644
 20
8.8467880062
 30
0.0
 10
13.5511749944
 20
8.8677163933
 30
0.0
 10
13.5466956327
 20
8.8950916123
 30
0.0
 10
13.5420543714
 20
8.9293386957
 30
0.0
 10
13.5380936898
 20
8.9652909706
 30
0.0
 10
13.5348306006
 20
9.0027971839
 30
0.0
 10
13.5322792218
 20
9.041699799
 30
0.0
 10
13.5304506147
 20
9.0818351075
 30
0.0
 10
13.5293526843
 20
9.1230341638
 30
0.0
 10
13.5291133061
 20
9.1508376348
 30
0.0
 10
13.5291133061
 20
9.1648855821
 30
0.0
  0
SPLINE
  5
3E1
100
AcDbEntity
  8
0
100
AcDbSpline
 62
7
  6
CONTINUOUS
 70
0
 71
3
 72
8
 73
4
 74
0
 42
0.0000001
 43
0.0000001
 44
0.0000000001
 40
0.0
 40
0.0
 40
0.0
 40
0.0
 40
1.0
 40
1.0
 40
1.0
 40
1.0
 10
13.5820006678
 20
8.7478614921
 30
0.0
 10
13.5819826601
 20
8.747862754
 30
0.0
 10
13.5819646523
 20
8.747864016
 30
0.0
 10
13.5819466446
 20
8.7478652779
 30
0.0
  0
LINE
  5
3E2
100
AcDbEntity
  8
0
100
AcDbLine
 62
7
  6
CONTINUOUS
 10
13.6641359908
 20
9.9322168497
 11
13.6639569427
 21
9.9322288306
  0
SPLINE
  5
3E3
100
AcDbEntity
  8
0
100
AcDbSpline
 62
7
  6
CONTINUOUS
 70
0
 71
3
 72
31
 73
27
 74
0
 42
0.0000001
 43
0.0000001
 44
0.0000000001
 40
0.0
 40
0.0
 40
0.0
 40
0.0
 40
0.016214396
 40
0.0334274648
 40
0.0516718599
 40
0.070971016
 40
0.091340553
 40
0.1127897227
 40
0.135322035
 40
0.1589364755
 40
0.183627697
 40
0.2093869344
 40
0.2362021238
 40
0.2640584144
 40
0.2929384385
 40
0.3228224175
 40
0.3536886273
 40
0.385513217
 40
0.4519322161
 40
0.5218580714
 40
0.5950444373
 40
0.6712250335
 40
0.7501160696
 40
0.8314189109
 40
0.9148208524
 40
1.0
 40
1.0
 40
1.0
 40
1.0
 10
13.6156168527
 20
6.6478001834
 30
0.0
 10
13.6139295638
 20
6.6498747812
 30
0.0
 10
13.6105930815
 20
6.6542686127
 30
0.0
 10
13.6058348651
 20
6.6613429677
 30
0.0
 10
13.6011812472
 20
6.6690863364
 30
0.0
 10
13.5966370359
 20
6.6774905283
 30
0.0
 10
13.5922065648
 20
6.6865471185
 30
0.0
 10
13.5878944256
 20
6.6962468587
 30
0.0
 10
13.5837049304
 20
6.7065797675
 30
0.0
 10
13.579642531
 20
6.7175351982
 30
0.0
 10
13.5757113799
 20
6.7291017705
 30
0.0
 10
13.5719156728
 20
6.7412674594
 30
0.0
 10
13.5682593733
 20
6.7540195644
 30
0.0
 10
13.5647463479
 20
6.7673447516
 30
0.0
 10
13.5613803377
 20
6.781229067
 30
0.0
 10
13.5581648675
 20
6.7956579416
 30
0.0
 10
13.5551033644
 20
6.8106162511
 30
0.0
 10
13.5511749944
 20
6.8315446382
 30
0.0
 10
13.5466956327
 20
6.8589198572
 30
0.0
 10
13.5420543714
 20
6.8931669406
 30
0.0
 10
13.5380936898
 20
6.9291192155
 30
0.0
 10
13.5348306006
 20
6.9666254288
 30
0.0
 10
13.5322792218
 20
7.0055280439
 30
0.0
 10
13.5304506147
 20
7.0456633524
 30
0.0
 10
13.5293526843
 20
7.0868624087
 30
0.0
 10
13.5291133061
 20
7.1146658797
 30
0.0
 10
13.5291133061
 20
7.128713827
 30
0.0
  0
SPLINE
  5
3E4
100
AcDbEntity
  8
0
100
AcDbSpline
 62
7
  6
CONTINUOUS
 70
0
 71
3
 72
8
 73
4
 74
0
 42
0.0000001
 43
0.0000001
 44
0.0000000001
 40
0.0
 40
0.0
 40
0.0
 40
0.0
 40
1.0
 40
1.0
 40
1.0
 40
1.0
 10
13.5820006678
 20
6.711689737
 30
0.0
 10
13.5819826601
 20
6.7116909989
 30
0.0
 10
13.5819646523
 20
6.7116922609
 30
0.0
 10
13.5819466446
 20
6.7116935228
 30
0.0
  0
LINE
  5
3E5
100
AcDbEntity
  8
0
100
AcDbLine
 62
7
  6
CONTINUOUS
 10
13.6641359908
 20
7.8960450946
 11
13.6639569427
 21
7.8960570755
  0
SPLINE
  5
3E6
100
AcDbEntity
  8
0
100
AcDbSpline
 62
7
  6
CONTINUOUS
 70
0
 71
3
 72
55
 73
51
 74
0
 42
0.0000001
 43
0.0000001
 44
0.0000000001
 40
0.0
 40
0.0
 40
0.0
 40
0.0
 40
0.0452111236
 40
0.0910029251
 40
0.1371915241
 40
0.1835899311
 40
0.2300106105
 40
0.2762657459
 40
0.3221684127
 40
0.3675334921
 40
0.4121786548
 40
0.4559253436
 40
0.4985997691
 40
0.5400339324
 40
0.5800666862
 40
0.6185448571
 40
0.6553244593
 40
0.6902720492
 40
0.7070209147
 40
0.7232673905
 40
0.7389984988
 40
0.7542023098
 40
0.7688680207
 40
0.7829859934
 40
0.7965480232
 40
0.8095472918
 40
0.8219787693
 40
0.8338392278
 40
0.8451276697
 40
0.8558455801
 40
0.8659973384
 40
0.8755908271
 40
0.8846379148
 40
0.8931554551
 40
0.9011660382
 40
0.9086993071
 40
0.9157930978
 40
0.922494778
 40
0.9288623309
 40
0.9349647734
 40
0.9408816638
 40
0.9467009654
 40
0.9525155172
 40
0.9584183993
 40
0.964498266
 40
0.9708356232
 40
0.9775006416
 40
0.9845523693
 40
0.9920392515
 40
1.0
 40
1.0
 40
1.0
 40
1.0
 10
13.8800716416
 20
9.5038853224
 30
0.0
 10
13.8800716416
 20
9.489429857
 30
0.0
 10
13.8798138376
 20
9.4603326793
 30
0.0
 10
13.878677052
 20
9.4164808571
 30
0.0
 10
13.8767920511
 20
9.3722747702
 30
0.0
 10
13.8741668774
 20
9.3279050979
 30
0.0
 10
13.8708128558
 20
9.2835632199
 30
0.0
 10
13.8667444502
 20
9.2394403285
 30
0.0
 10
13.8619792505
 20
9.1957266893
 30
0.0
 10
13.8565378766
 20
9.152610782
 30
0.0
 10
13.8504438993
 20
9.1102784856
 30
0.0
 10
13.8437237409
 20
9.0689122641
 30
0.0
 10
13.8364065603
 20
9.0286903698
 30
0.0
 10
13.8285241331
 20
8.9897860474
 30
0.0
 10
13.8201107104
 20
8.9523668064
 30
0.0
 10
13.8112029011
 20
8.9165935203
 30
0.0
 10
13.8018394223
 20
8.8826202069
 30
0.0
 10
13.7935781312
 20
8.8555600932
 30
0.0
 10
13.7867537777
 20
8.8349354479
 30
0.0
 10
13.7816198075
 20
8.8202254422
 30
0.0
 10
13.7764030975
 20
8.8060698771
 30
0.0
 10
13.7711092387
 20
8.7924839479
 30
0.0
 10
13.7657439909
 20
8.7794822356
 30
0.0
 10
13.7603130877
 20
8.7670786901
 30
0.0
 10
13.7548224626
 20
8.7552865668
 30
0.0
 10
13.7492779354
 20
8.7441184841
 30
0.0
 10
13.7436855384
 20
8.733586312
 30
0.0
 10
13.7380511807
 20
8.7237012513
 30
0.0
 10
13.7323808771
 20
8.7144737406
 30
0.0
 10
13.7266805956
 20
8.7059134798
 30
0.0
 10
13.7209562089
 20
8.6980294456
 30
0.0
 10
13.7152136271
 20
8.6908297878
 30
0.0
 10
13.7094584434
 20
8.6843220298
 30
0.0
 10
13.7036962739
 20
8.6785128464
 30
0.0
 10
13.697932282
 20
8.6734084452
 30
0.0
 10
13.6921715195
 20
8.6690144097
 30
0.0
 10
13.6864186936
 20
8.6653361198
 30
0.0
 10
13.6806784639
 20
8.6623789252
 30
0.0
 10
13.6749558546
 20
8.6601482198
 30
0.0
 10
13.6692567365
 20
8.6586497448
 30
0.0
 10
13.6635886686
 20
8.6578884833
 30
0.0
 10
13.6579609556
 20
8.6578683009
 30
0.0
 10
13.6523841544
 20
8.6585900333
 30
0.0
 10
13.6468686705
 20
8.6600516472
 30
0.0
 10
13.6414234435
 20
8.6622483703
 30
0.0
 10
13.6360553652
 20
8.6651740946
 30
0.0
 10
13.6307697399
 20
8.6688225162
 30
0.0
 10
13.6255706528
 20
8.6731874463
 30
0.0
 10
13.6204623722
 20
8.6782627816
 30
0.0
 10
13.6172228684
 20
8.6819972697
 30
0.0
 10
13.6156168527
 20
8.6839719385
 30
0.0
  0
SPLINE
  5
3E7
100
AcDbEntity
  8
0
100
AcDbSpline
 62
7
  6
CONTINUOUS
 70
0
 71
3
 72
78
 73
74
 74
0
 42
0.0000001
 43
0.0000001
 44
0.0000000001
 40
0.0
 40
0.0
 40
0.0
 40
0.0
 40
0.0039533102
 40
0.0077537586
 40
0.0114081181
 40
0.0149243523
 40
0.018311648
 40
0.0215805437
 40
0.0247430214
 40
0.0278124907
 40
0.0308038281
 40
0.0337332391
 40
0.0366180962
 40
0.0394766782
 40
0.0423278128
 40
0.0451904924
 40
0.0480834586
 40
0.0510248224
 40
0.0540317175
 40
0.0571200863
 40
0.0635945225
 40
0.0670088494
 40
0.0705542021
 40
0.0742395173
 40
0.0780724675
 40
0.0820596167
 40
0.086206537
 40
0.0905178504
 40
0.0949974214
 40
0.0996483538
 40
0.1044731184
 40
0.109473638
 40
0.1146512711
 40
0.1255405075
 40
0.1371443649
 40
0.1494600296
 40
0.1624801466
 40
0.1761935121
 40
0.1905855975
 40
0.205638982
 40
0.2213336994
 40
0.2376475126
 40
0.2545561387
 40
0.2720334316
 40
0.2900515636
 40
0.3085811793
 40
0.3275915297
 40
0.3470505908
 40
0.3669251718
 40
0.3871810356
 40
0.4077830044
 40
0.4498796197
 40
0.4929193095
 40
0.5365965813
 40
0.5806000063
 40
0.6246151377
 40
0.6683274219
 40
0.7114251041
 40
0.7536021515
 40
0.774252517
 40
0.7945620811
 40
0.814495535
 40
0.8340184955
 40
0.8530976091
 40
0.8717006703
 40
0.8897967328
 40
0.907356229
 40
0.9243510912
 40
0.9407549103
 40
0.9565431545
 40
0.9716930971
 40
0.9861848861
 40
1.0
 40
1.0
 40
1.0
 40
1.0
 10
10.6953896796
 20
11.1075187672
 30
0.0
 10
10.6937609842
 20
11.1090344317
 30
0.0
 10
10.6906276018
 20
11.1120737774
 30
0.0
 10
10.6862265905
 20
11.1167514166
 30
0.0
 10
10.6822214452
 20
11.1214539814
 30
0.0
 10
10.6786142122
 20
11.1261792742
 30
0.0
 10
10.6754067771
 20
11.1309253278
 30
0.0
 10
10.67260098
 20
11.1356901199
 30
0.0
 10
10.6701983981
 20
11.1404714979
 30
0.0
 10
10.6682007555
 20
11.1452673569
 30
0.0
 10
10.6666094128
 20
11.1500753299
 30
0.0
 10
10.6654256966
 20
11.1548929584
 30
0.0
 10
10.6646507453
 20
11.159717579
 30
0.0
 10
10.6642851676
 20
11.1645463301
 30
0.0
 10
10.6643295059
 20
11.1693762642
 30
0.0
 10
10.6647835885
 20
11.1742043681
 30
0.0
 10
10.6656469913
 20
11.1790277248
 30
0.0
 10
10.6669189255
 20
11.1838434398
 30
0.0
 10
10.66859826
 20
11.1886491573
 30
0.0
 10
10.6714225192
 20
11.1951405955
 30
0.0
 10
10.6750449893
 20
11.2015111348
 30
0.0
 10
10.6793600556
 20
11.2077222978
 30
0.0
 10
10.6830536356
 20
11.2124432219
 30
0.0
 10
10.6871445073
 20
11.2171404457
 30
0.0
 10
10.6916308844
 20
11.221812574
 30
0.0
 10
10.6965105039
 20
11.226457409
 30
0.0
 10
10.7017811
 20
11.2310728874
 30
0.0
 10
10.7074401007
 20
11.2356570205
 30
0.0
 10
10.7134848991
 20
11.2402076465
 30
0.0
 10
10.7199126111
 20
11.2447227328
 30
0.0
 10
10.7267202062
 20
11.249200185
 30
0.0
 10
10.7339045139
 20
11.2536379151
 30
0.0
 10
10.7441542362
 20
11.2595995853
 30
0.0
 10
10.7579060624
 20
11.2669196541
 30
0.0
 10
10.7755847474
 20
11.2753704757
 30
0.0
 10
10.7946742751
 20
11.2836139278
 30
0.0
 10
10.8151384821
 20
11.2916343227
 30
0.0
 10
10.8369389712
 20
11.2994163723
 30
0.0
 10
10.8600344626
 20
11.3069451591
 30
0.0
 10
10.884381129
 20
11.3142062176
 30
0.0
 10
10.9099326521
 20
11.321185567
 30
0.0
 10
10.9366403482
 20
11.3278697561
 30
0.0
 10
10.9644532616
 20
11.3342458908
 30
0.0
 10
10.9933182677
 20
11.3403016858
 30
0.0
 10
11.0231801911
 20
11.3460254701
 30
0.0
 10
11.0539819267
 20
11.3514062108
 30
0.0
 10
11.0856645515
 20
11.3564335335
 30
0.0
 10
11.1181674395
 20
11.3610977481
 30
0.0
 10
11.1514283551
 20
11.3653898633
 30
0.0
 10
11.1853836673
 20
11.3693016696
 30
0.0
 10
11.2318292231
 20
11.3740339306
 30
0.0
 10
11.2911415679
 20
11.3789272399
 30
0.0
 10
11.3635188279
 20
11.3831430166
 30
0.0
 10
11.4370470462
 20
11.3857107179
 30
0.0
 10
11.5111633676
 20
11.3866104225
 30
0.0
 10
11.5853007954
 20
11.3858351414
 30
0.0
 10
11.6588921669
 20
11.3833908992
 30
0.0
 10
11.7313741404
 20
11.3792966461
 30
0.0
 10
11.7908001108
 20
11.3745035916
 30
0.0
 10
11.8373568682
 20
11.3698502594
 30
0.0
 10
11.8714098841
 20
11.3659956586
 30
0.0
 10
11.9047780879
 20
11.3617595817
 30
0.0
 10
11.9373976426
 20
11.3571501322
 30
0.0
 10
11.9692060868
 20
11.352176195
 30
0.0
 10
12.0001425491
 20
11.3468473537
 30
0.0
 10
12.0301478466
 20
11.3411738849
 30
0.0
 10
12.0591645968
 20
11.3351667233
 30
0.0
 10
12.0871373265
 20
11.3288374491
 30
0.0
 10
12.1140126256
 20
11.3221982559
 30
0.0
 10
12.1397391036
 20
11.3152619483
 30
0.0
 10
12.1642680186
 20
11.3080418852
 30
0.0
 10
12.1875521434
 20
11.300552023
 30
0.0
 10
12.2025807597
 20
11.2952600295
 30
0.0
 10
12.2098733563
 20
11.2925644566
 30
0.0
  0
SPLINE
  5
3E8
100
AcDbEntity
  8
0
100
AcDbSpline
 62
7
  6
CONTINUOUS
 70
0
 71
3
 72
15
 73
11
 74
0
 42
0.0000001
 43
0.0000001
 44
0.0000000001
 40
0.0
 40
0.0
 40
0.0
 40
0.0
 40
0.1273483438
 40
0.2538606048
 40
0.3795878922
 40
0.5046051199
 40
0.6290174392
 40
0.7529533668
 40
0.8765605676
 40
1.0
 40
1.0
 40
1.0
 40
1.0
 10
12.5509793481
 20
5.4230652103
 30
0.0
 10
12.5509793481
 20
5.4295944546
 30
0.0
 10
12.5516027667
 20
5.4426191036
 30
0.0
 10
12.5544221122
 20
5.4619055659
 30
0.0
 10
12.5590970591
 20
5.4807074217
 30
0.0
 10
12.5655853715
 20
5.4988488372
 30
0.0
 10
12.5738275393
 20
5.5161625001
 30
0.0
 10
12.5837484341
 20
5.5324885202
 30
0.0
 10
12.5952547281
 20
5.5476739581
 30
0.0
 10
12.6039184053
 20
5.5569500406
 30
0.0
 10
12.6084704646
 20
5.561346956
 30
0.0
  0
SPLINE
  5
3E9
100
AcDbEntity
  8
0
100
AcDbSpline
 62
7
  6
CONTINUOUS
 70
0
 71
3
 72
38
 73
34
 74
0
 42
0.0000001
 43
0.0000001
 44
0.0000000001
 40
0.0
 40
0.0
 40
0.0
 40
0.0
 40
0.0993404991
 40
0.1467137236
 40
0.1925368007
 40
0.2368038583
 40
0.279511533
 40
0.3206593041
 40
0.3602505939
 40
0.3982942486
 40
0.4348038993
 40
0.4697995174
 40
0.5033074042
 40
0.5353618683
 40
0.5660059256
 40
0.5952925667
 40
0.6232863807
 40
0.6500644769
 40
0.6757186129
 40
0.7003557485
 40
0.724099638
 40
0.7470906256
 40
0.7694853126
 40
0.7914545951
 40
0.8131804785
 40
0.8348517603
 40
0.856658788
 40
0.8787880246
 40
0.9014172666
 40
0.9247115457
 40
0.9488207169
 40
0.9738780597
 40
1.0
 40
1.0
 40
1.0
 40
1.0
 10
12.1961638146
 20
11.2739139285
 30
0.0
 10
12.2039359137
 20
11.2710411164
 30
0.0
 10
12.2153449801
 20
11.2666048135
 30
0.0
 10
12.2301330457
 20
11.2603397242
 30
0.0
 10
12.2405952078
 20
11.2556459378
 30
0.0
 10
12.2505980231
 20
11.2508857217
 30
0.0
 10
12.2601354183
 20
11.2460619354
 30
0.0
 10
12.2692014363
 20
11.2411776601
 30
0.0
 10
12.2777903397
 20
11.2362358495
 30
0.0
 10
12.2858968273
 20
11.2312396917
 30
0.0
 10
12.2935158242
 20
11.2261921281
 30
0.0
 10
12.3006426737
 20
11.2210963457
 30
0.0
 10
12.3072729173
 20
11.2159553191
 30
0.0
 10
12.3134024737
 20
11.2107721441
 30
0.0
 10
12.3190275397
 20
11.2055498373
 30
0.0
 10
12.324144536
 20
11.2002913291
 30
0.0
 10
12.3287502626
 20
11.1949996459
 30
0.0
 10
12.3328415223
 20
11.1896775708
 30
0.0
 10
12.3364155655
 20
11.184328124
 30
0.0
 10
12.3394694725
 20
11.1789541186
 30
0.0
 10
12.3420007265
 20
11.1735586992
 30
0.0
 10
12.3440067144
 20
11.1681450879
 30
0.0
 10
12.3454851478
 20
11.1627169249
 30
0.0
 10
12.3464341246
 20
11.1572782426
 30
0.0
 10
12.3468521142
 20
11.1518334621
 30
0.0
 10
12.3467386523
 20
11.1463873078
 30
0.0
 10
12.3460936869
 20
11.140944574
 30
0.0
 10
12.3449184494
 20
11.1355098517
 30
0.0
 10
12.3432143951
 20
11.1300874464
 30
0.0
 10
12.3409838118
 20
11.1246811857
 30
0.0
 10
12.338228995
 20
11.1192944829
 30
0.0
 10
12.3349527217
 20
11.1139307852
 30
0.0
 10
12.3324769723
 20
11.1104485686
 30
0.0
 10
12.3311595022
 20
11.1087131604
 30
0.0
  0
SPLINE
  5
3EA
100
AcDbEntity
  8
0
100
AcDbSpline
 62
7
  6
CONTINUOUS
 70
0
 71
3
 72
9
 73
5
 74
0
 42
0.0000001
 43
0.0000001
 44
0.0000000001
 40
0.0
 40
0.0
 40
0.0
 40
0.0
 40
0.2434360884
 40
1.0
 40
1.0
 40
1.0
 40
1.0
 10
12.3311595022
 20
11.1087131604
 30
0.0
 10
12.3306191774
 20
11.1080014295
 30
0.0
 10
12.3283620668
 20
11.1051063271
 30
0.0
 10
12.3259605295
 20
11.1023246614
 30
0.0
 10
12.3240789618
 20
11.1002820314
 30
0.0
  0
SPLINE
  5
3EB
100
AcDbEntity
  8
0
100
AcDbSpline
 62
7
  6
CONTINUOUS
 70
0
 71
3
 72
39
 73
35
 74
0
 42
0.0000001
 43
0.0000001
 44
0.0000000001
 40
0.0
 40
0.0
 40
0.0
 40
0.0
 40
0.0507367798
 40
0.0997923998
 40
0.1471455693
 40
0.1927852242
 40
0.2367051082
 40
0.2789024025
 40
0.3193787582
 40
0.3581425734
 40
0.3952085832
 40
0.4305995009
 40
0.4643464147
 40
0.4964910386
 40
0.5270864546
 40
0.5561997072
 40
0.5839130496
 40
0.6103267784
 40
0.6355605782
 40
0.6597557977
 40
0.6830757482
 40
0.7057057254
 40
0.7278503484
 40
0.7497294936
 40
0.7715718017
 40
0.7936071807
 40
0.8160590826
 40
0.8391375431
 40
0.8630344211
 40
0.887920113
 40
0.9139430181
 40
0.9412294985
 40
0.9698859332
 40
1.0
 40
1.0
 40
1.0
 40
1.0
 10
12.2098733563
 20
11.2925644566
 30
0.0
 10
12.2142782839
 20
11.2909362569
 30
0.0
 10
12.2229124326
 20
11.2876524757
 30
0.0
 10
12.2355424332
 20
11.2825525228
 30
0.0
 10
12.2476248456
 20
11.2773644356
 30
0.0
 10
12.2591502149
 20
11.2720923947
 30
0.0
 10
12.2701100364
 20
11.2667402329
 30
0.0
 10
12.280496208
 20
11.2613120502
 30
0.0
 10
12.2903008719
 20
11.2558117843
 30
0.0
 10
12.2995167451
 20
11.2502436592
 30
0.0
 10
12.3081369362
 20
11.2446116444
 30
0.0
 10
12.3161551265
 20
11.2389199626
 30
0.0
 10
12.3235653072
 20
11.2331725529
 30
0.0
 10
12.3303620763
 20
11.2273735877
 30
0.0
 10
12.3365402768
 20
11.2215269027
 30
0.0
 10
12.3420953425
 20
11.2156365332
 30
0.0
 10
12.3470228025
 20
11.2097061603
 30
0.0
 10
12.3513187096
 20
11.2037396797
 30
0.0
 10
12.3549789955
 20
11.1977407365
 30
0.0
 10
12.3580000389
 20
11.1917133577
 30
0.0
 10
12.3603779611
 20
11.1856616724
 30
0.0
 10
12.3621095072
 20
11.179590546
 30
0.0
 10
12.3631914733
 20
11.1735053991
 30
0.0
 10
12.3636219643
 20
11.1674124812
 30
0.0
 10
12.3633998272
 20
11.1613184725
 30
0.0
 10
12.3625257782
 20
11.1552301361
 30
0.0
 10
12.3610013565
 20
11.1491539066
 30
0.0
 10
12.3588295398
 20
11.1430954505
 30
0.0
 10
12.3560134602
 20
11.137059842
 30
0.0
 10
12.3525569465
 20
11.1310513624
 30
0.0
 10
12.3484635961
 20
11.1250741279
 30
0.0
 10
12.3437373894
 20
11.1191317641
 30
0.0
 10
12.3383824128
 20
11.1132283549
 30
0.0
 10
12.3344951859
 20
11.1094182334
 30
0.0
 10
12.3324546911
 20
11.1075193383
 30
0.0
  0
SPLINE
  5
3EC
100
AcDbEntity
  8
0
100
AcDbSpline
 62
7
  6
CONTINUOUS
 70
0
 71
3
 72
50
 73
46
 74
0
 42
0.0000001
 43
0.0000001
 44
0.0000000001
 40
0.0
 40
0.0
 40
0.0
 40
0.0
 40
0.041773949
 40
0.084037315
 40
0.1266588444
 40
0.1695070228
 40
0.2124487428
 40
0.2553508289
 40
0.2980801504
 40
0.3405042954
 40
0.3824920464
 40
0.4239139259
 40
0.464642724
 40
0.5045540414
 40
0.5435268401
 40
0.5814440104
 40
0.6181929618
 40
0.6536662468
 40
0.6877622342
 40
0.7203858517
 40
0.7514494287
 40
0.7808736887
 40
0.8085889566
 40
0.8217875522
 40
0.8345379482
 40
0.8468349763
 40
0.8586743044
 40
0.8700528542
 40
0.8809686069
 40
0.8914210771
 40
0.9014111982
 40
0.9109418144
 40
0.9200177306
 40
0.9286462118
 40
0.9368372704
 40
0.9446041895
 40
0.9519640937
 40
0.9589385173
 40
0.9655542181
 40
0.9718437264
 40
0.97784614
 40
0.9836073212
 40
0.9891800232
 40
0.9946230627
 40
1.0
 40
1.0
 40
1.0
 40
1.0
 10
13.7767031877
 20
9.4884390572
 30
0.0
 10
13.7767031877
 20
9.4773649779
 30
0.0
 10
13.776530414
 20
9.4550867292
 30
0.0
 10
13.7757666491
 20
9.4215175814
 30
0.0
 10
13.7744989524
 20
9.3876786572
 30
0.0
 10
13.7727315281
 20
9.3536821204
 30
0.0
 10
13.7704701816
 20
9.3196403254
 30
0.0
 10
13.7677224076
 20
9.2856659469
 30
0.0
 10
13.764497299
 20
9.2518713661
 30
0.0
 10
13.7608055512
 20
9.2183683902
 30
0.0
 10
13.7566594109
 20
9.1852678469
 30
0.0
 10
13.7520726432
 20
9.1526792254
 30
0.0
 10
13.7470604838
 20
9.120710308
 30
0.0
 10
13.7416395906
 20
9.0894668095
 30
0.0
 10
13.7358279895
 20
9.0590520225
 30
0.0
 10
13.7296450159
 20
9.0295664686
 30
0.0
 10
13.7231112522
 20
9.0011075564
 30
0.0
 10
13.7162484602
 20
8.9737692495
 30
0.0
 10
13.7090795105
 20
8.9476417272
 30
0.0
 10
13.7016283024
 20
8.9228111061
 30
0.0
 10
13.693919686
 20
8.8993589754
 30
0.0
 10
13.6859793458
 20
8.8773625966
 30
0.0
 10
13.6790836423
 20
8.8600337617
 30
0.0
 10
13.6734560683
 20
8.846967185
 30
0.0
 10
13.6692627408
 20
8.8377353562
 30
0.0
 10
13.6650314508
 20
8.8289188636
 30
0.0
 10
13.6607655342
 20
8.8205249627
 30
0.0
 10
13.6564686285
 20
8.8125604933
 30
0.0
 10
13.6521441424
 20
8.8050319993
 30
0.0
 10
13.6477957183
 20
8.7979455719
 30
0.0
 10
13.6434267875
 20
8.7913070033
 30
0.0
 10
13.6390409502
 20
8.7851216241
 30
0.0
 10
13.6346416319
 20
8.779394447
 30
0.0
 10
13.6302323193
 20
8.7741300492
 30
0.0
 10
13.6258163797
 20
8.7693326586
 30
0.0
 10
13.6213971012
 20
8.7650061537
 30
0.0
 10
13.6169777181
 20
8.7611540369
 30
0.0
 10
13.6125612551
 20
8.7577796421
 30
0.0
 10
13.6081507814
 20
8.7548859355
 30
0.0
 10
13.6037491571
 20
8.7524760027
 30
0.0
 10
13.599359497
 20
8.7505525862
 30
0.0
 10
13.5949850782
 20
8.7491187689
 30
0.0
 10
13.5906295979
 20
8.7481770965
 30
0.0
 10
13.586298277
 20
8.7477300749
 30
0.0
 10
13.583422654
 20
8.7477628854
 30
0.0
 10
13.5820006678
 20
8.7478614921
 30
0.0
  0
SPLINE
  5
3ED
100
AcDbEntity
  8
0
100
AcDbSpline
 62
7
  6
CONTINUOUS
 70
0
 71
3
 72
55
 73
51
 74
0
 42
0.0000001
 43
0.0000001
 44
0.0000000001
 40
0.0
 40
0.0
 40
0.0
 40
0.0
 40
0.0452111236
 40
0.0910029251
 40
0.1371915241
 40
0.1835899311
 40
0.2300106105
 40
0.2762657459
 40
0.3221684127
 40
0.3675334921
 40
0.4121786548
 40
0.4559253436
 40
0.4985997691
 40
0.5400339324
 40
0.5800666862
 40
0.6185448571
 40
0.6553244593
 40
0.6902720492
 40
0.7070209147
 40
0.7232673905
 40
0.7389984988
 40
0.7542023098
 40
0.7688680207
 40
0.7829859934
 40
0.7965480232
 40
0.8095472918
 40
0.8219787693
 40
0.8338392278
 40
0.8451276697
 40
0.8558455801
 40
0.8659973384
 40
0.8755908271
 40
0.8846379148
 40
0.8931554551
 40
0.9011660382
 40
0.9086993071
 40
0.9157930978
 40
0.922494778
 40
0.9288623309
 40
0.9349647734
 40
0.9408816638
 40
0.9467009654
 40
0.9525155172
 40
0.9584183993
 40
0.964498266
 40
0.9708356232
 40
0.9775006416
 40
0.9845523693
 40
0.9920392515
 40
1.0
 40
1.0
 40
1.0
 40
1.0
 10
13.8800716416
 20
7.4677135673
 30
0.0
 10
13.8800716416
 20
7.4532581019
 30
0.0
 10
13.8798138376
 20
7.4241609242
 30
0.0
 10
13.878677052
 20
7.380309102
 30
0.0
 10
13.8767920511
 20
7.3361030151
 30
0.0
 10
13.8741668774
 20
7.2917333428
 30
0.0
 10
13.8708128558
 20
7.2473914648
 30
0.0
 10
13.8667444502
 20
7.2032685735
 30
0.0
 10
13.8619792505
 20
7.1595549342
 30
0.0
 10
13.8565378766
 20
7.1164390269
 30
0.0
 10
13.8504438993
 20
7.0741067305
 30
0.0
 10
13.8437237409
 20
7.032740509
 30
0.0
 10
13.8364065603
 20
6.9925186147
 30
0.0
 10
13.8285241331
 20
6.9536142923
 30
0.0
 10
13.8201107104
 20
6.9161950513
 30
0.0
 10
13.8112029011
 20
6.8804217652
 30
0.0
 10
13.8018394223
 20
6.8464484518
 30
0.0
 10
13.7935781312
 20
6.8193883381
 30
0.0
 10
13.7867537777
 20
6.7987636928
 30
0.0
 10
13.7816198075
 20
6.7840536871
 30
0.0
 10
13.7764030975
 20
6.769898122
 30
0.0
 10
13.7711092387
 20
6.7563121928
 30
0.0
 10
13.7657439909
 20
6.7433104805
 30
0.0
 10
13.7603130877
 20
6.730906935
 30
0.0
 10
13.7548224626
 20
6.7191148117
 30
0.0
 10
13.7492779354
 20
6.707946729
 30
0.0
 10
13.7436855384
 20
6.6974145569
 30
0.0
 10
13.7380511807
 20
6.6875294962
 30
0.0
 10
13.7323808771
 20
6.6783019855
 30
0.0
 10
13.7266805956
 20
6.6697417247
 30
0.0
 10
13.7209562089
 20
6.6618576905
 30
0.0
 10
13.7152136271
 20
6.6546580327
 30
0.0
 10
13.7094584434
 20
6.6481502747
 30
0.0
 10
13.7036962739
 20
6.6423410913
 30
0.0
 10
13.697932282
 20
6.6372366901
 30
0.0
 10
13.6921715195
 20
6.6328426546
 30
0.0
 10
13.6864186936
 20
6.6291643648
 30
0.0
 10
13.6806784639
 20
6.6262071701
 30
0.0
 10
13.6749558546
 20
6.6239764647
 30
0.0
 10
13.6692567365
 20
6.6224779897
 30
0.0
 10
13.6635886686
 20
6.6217167282
 30
0.0
 10
13.6579609556
 20
6.6216965458
 30
0.0
 10
13.6523841544
 20
6.6224182782
 30
0.0
 10
13.6468686705
 20
6.6238798921
 30
0.0
 10
13.6414234435
 20
6.6260766152
 30
0.0
 10
13.6360553652
 20
6.6290023395
 30
0.0
 10
13.6307697399
 20
6.6326507611
 30
0.0
 10
13.6255706528
 20
6.6370156912
 30
0.0
 10
13.6204623722
 20
6.6420910265
 30
0.0
 10
13.6172228684
 20
6.6458255146
 30
0.0
 10
13.6156168527
 20
6.6478001834
 30
0.0
  0
SPLINE
  5
3EE
100
AcDbEntity
  8
0
100
AcDbSpline
 62
7
  6
CONTINUOUS
 70
0
 71
3
 72
39
 73
35
 74
0
 42
0.0000001
 43
0.0000001
 44
0.0000000001
 40
0.0
 40
0.0
 40
0.0
 40
0.0
 40
0.0299424683
 40
0.0599093148
 40
0.0899243219
 40
0.1200101034
 40
0.1501875656
 40
0.1804754221
 40
0.2108897722
 40
0.2414437551
 40
0.2721472861
 40
0.3030068757
 40
0.334025535
 40
0.3652027614
 40
0.3965346031
 40
0.4280137946
 40
0.459629957
 40
0.4913698552
 40
0.5232177051
 40
0.5551555222
 40
0.5871635048
 40
0.6192204442
 40
0.6513041551
 40
0.68339192
 40
0.7154609412
 40
0.7474887928
 40
0.7794538702
 40
0.8113358216
 40
0.8431159806
 40
0.8747777136
 40
0.9063069224
 40
0.9376919709
 40
0.9689249367
 40
1.0
 40
1.0
 40
1.0
 40
1.0
 10
8.459781742
 20
10.5386537334
 30
0.0
 10
8.4562647299
 20
10.5352565887
 30
0.0
 10
8.4489541072
 20
10.5287365194
 30
0.0
 10
8.4372414109
 20
10.5198540491
 30
0.0
 10
8.424841766
 20
10.5119137206
 30
0.0
 10
8.4118244698
 20
10.5049600617
 30
0.0
 10
8.3982610863
 20
10.4990310654
 30
0.0
 10
8.3842264704
 20
10.4941593221
 30
0.0
 10
8.3697979603
 20
10.4903714873
 30
0.0
 10
8.3550550462
 20
10.4876882409
 30
0.0
 10
8.3400788992
 20
10.4861241582
 30
0.0
 10
8.3249519294
 20
10.4856876481
 30
0.0
 10
8.3097573308
 20
10.4863809161
 30
0.0
 10
8.2945786265
 20
10.4881999626
 30
0.0
 10
8.2794992141
 20
10.4911346132
 30
0.0
 10
8.2646019124
 20
10.4951685822
 30
0.0
 10
8.2499685133
 20
10.5002795663
 30
0.0
 10
8.2356793377
 20
10.5064393705
 30
0.0
 10
8.221812802
 20
10.5136140657
 30
0.0
 10
8.208444993
 20
10.521764176
 30
0.0
 10
8.1956492564
 20
10.5308448953
 30
0.0
 10
8.1834957995
 20
10.5408063321
 30
0.0
 10
8.1720513103
 20
10.5515937812
 30
0.0
 10
8.1613785961
 20
10.5631480218
 30
0.0
 10
8.1515362424
 20
10.5754056393
 30
0.0
 10
8.1425782936
 20
10.5882993697
 30
0.0
 10
8.1345539618
 20
10.6017584645
 30
0.0
 10
8.1275073513
 20
10.615709076
 30
0.0
 10
8.1214772363
 20
10.630074649
 30
0.0
 10
8.1164968045
 20
10.6447763735
 30
0.0
 10
8.1125935703
 20
10.6597334598
 30
0.0
 10
8.1097890354
 20
10.6748641312
 30
0.0
 10
8.1080988691
 20
10.690084133
 30
0.0
 10
8.1077202839
 20
10.7002633053
 30
0.0
 10
8.1077202839
 20
10.7053380466
 30
0.0
  0
SPLINE
  5
3EF
100
AcDbEntity
  8
0
100
AcDbSpline
 62
7
  6
CONTINUOUS
 70
0
 71
3
 72
41
 73
37
 74
0
 42
0.0000001
 43
0.0000001
 44
0.0000000001
 40
0.0
 40
0.0
 40
0.0
 40
0.0
 40
0.0299421194
 40
0.0449237639
 40
0.0599145138
 40
0.0899291713
 40
0.1200146024
 40
0.1350933663
 40
0.150197487
 40
0.1804849907
 40
0.2108989863
 40
0.2414526128
 40
0.2721557852
 40
0.3030150139
 40
0.3340333096
 40
0.3652101699
 40
0.3965416431
 40
0.4280204639
 40
0.4596362538
 40
0.4913757784
 40
0.523223254
 40
0.5551606966
 40
0.5871683049
 40
0.6192248703
 40
0.6513082078
 40
0.6833956
 40
0.7154642491
 40
0.7474917297
 40
0.7794564361
 40
0.8113380197
 40
0.8431178035
 40
0.8747791886
 40
0.9063079722
 40
0.9376928053
 40
0.9689251015
 40
1.0
 40
1.0
 40
1.0
 40
1.0
 10
8.426006669
 20
10.3664405559
 30
0.0
 10
8.420824054
 20
10.3614345647
 30
0.0
 10
8.4127446376
 20
10.3542289187
 30
0.0
 10
8.4014295969
 20
10.3452882813
 30
0.0
 10
8.389754229
 20
10.3367925436
 30
0.0
 10
8.3745197937
 20
10.3270366844
 30
0.0
 10
8.3585446509
 20
10.3185031309
 30
0.0
 10
8.3453692981
 20
10.3124323526
 30
0.0
 10
8.3319217813
 20
10.3068627262
 30
0.0
 10
8.314669227
 20
10.3008738039
 30
0.0
 10
8.2934080689
 20
10.2952922785
 30
0.0
 10
8.2716829891
 20
10.2913381974
 30
0.0
 10
8.2496143847
 20
10.2890333748
 30
0.0
 10
8.2273234833
 20
10.2883901108
 30
0.0
 10
8.2049329359
 20
10.2894116792
 30
0.0
 10
8.1825658058
 20
10.2920921789
 30
0.0
 10
8.1603449907
 20
10.2964166181
 30
0.0
 10
8.1383925298
 20
10.3023609969
 30
0.0
 10
8.11682895
 20
10.3098924491
 30
0.0
 10
8.0957726112
 20
10.3189694278
 30
0.0
 10
8.0753390665
 20
10.3295419364
 30
0.0
 10
8.0556404368
 20
10.3415518048
 30
0.0
 10
8.0367848037
 20
10.3549330078
 30
0.0
 10
8.0188756241
 20
10.3696120264
 30
0.0
 10
8.0020111694
 20
10.3855082481
 30
0.0
 10
7.9862839919
 20
10.4025344061
 30
0.0
 10
7.9717804228
 20
10.4205970532
 30
0.0
 10
7.9585801025
 20
10.43959707
 30
0.0
 10
7.9467555471
 20
10.4594302018
 30
0.0
 10
7.9363717554
 20
10.4799876279
 30
0.0
 10
7.9274858468
 20
10.5011565373
 30
0.0
 10
7.9201467677
 20
10.5228207894
 30
0.0
 10
7.9143949753
 20
10.5448613635
 30
0.0
 10
7.9102623104
 20
10.5671576701
 30
0.0
 10
7.9077716468
 20
10.5895856572
 30
0.0
 10
7.9072137926
 20
10.6045855208
 30
0.0
 10
7.9072137926
 20
10.6120636368
 30
0.0
  0
SPLINE
  5
3F0
100
AcDbEntity
  8
0
100
AcDbSpline
 62
7
  6
CONTINUOUS
 70
0
 71
3
 72
39
 73
35
 74
0
 42
0.0000001
 43
0.0000001
 44
0.0000000001
 40
0.0
 40
0.0
 40
0.0
 40
0.0
 40
0.0299700476
 40
0.0600264192
 40
0.0901836011
 40
0.1204541721
 40
0.1508485884
 40
0.1813750151
 40
0.2120392062
 40
0.2428444327
 40
0.2737914576
 40
0.3048785571
 40
0.3361015832
 40
0.3674540666
 40
0.3989273546
 40
0.4305107819
 40
0.4621918671
 40
0.4939565343
 40
0.5257893536
 40
0.5576737992
 40
0.5895925193
 40
0.6215276153
 40
0.6534609282
 40
0.6853743269
 40
0.7172499968
 40
0.7490707253
 40
0.780820181
 40
0.8124831765
 40
0.8440459418
 40
0.8754962963
 40
0.9068240751
 40
0.9380207147
 40
0.969080931
 40
1.0
 40
1.0
 40
1.0
 40
1.0
 10
8.4708540455
 20
10.4232905887
 30
0.0
 10
8.4651668905
 20
10.4201788327
 30
0.0
 10
8.4535521107
 20
10.4143463768
 30
0.0
 10
8.4355345949
 20
10.4068294697
 30
0.0
 10
8.4169750927
 20
10.4005640986
 30
0.0
 10
8.3979565554
 20
10.395578334
 30
0.0
 10
8.3785625008
 20
10.3918938248
 30
0.0
 10
8.3588784513
 20
10.3895266805
 30
0.0
 10
8.338991068
 20
10.3884871462
 30
0.0
 10
8.3189879006
 20
10.388779636
 30
0.0
 10
8.298956968
 20
10.3904027014
 30
0.0
 10
8.2789863829
 20
10.3933490487
 30
0.0
 10
8.2591639657
 20
10.397605576
 30
0.0
 10
8.239576861
 20
10.4031534287
 30
0.0
 10
8.2203111583
 20
10.4099680902
 30
0.0
 10
8.2014515189
 20
10.4180194939
 30
0.0
 10
8.1830808073
 20
10.4272721565
 30
0.0
 10
8.1652797321
 20
10.4376853342
 30
0.0
 10
8.1481264953
 20
10.4492132023
 30
0.0
 10
8.1316964524
 20
10.461805055
 30
0.0
 10
8.1160617846
 20
10.4754055278
 30
0.0
 10
8.101291185
 20
10.4899548384
 30
0.0
 10
8.0874495596
 20
10.5053890478
 30
0.0
 10
8.0745977442
 20
10.5216403391
 30
0.0
 10
8.0627922348
 20
10.5386373089
 30
0.0
 10
8.0520849428
 20
10.5563052828
 30
0.0
 10
8.0425229731
 20
10.5745666405
 30
0.0
 10
8.0341484073
 20
10.5933411552
 30
0.0
 10
8.0269981489
 20
10.6125463314
 30
0.0
 10
8.0211036858
 20
10.6320978128
 30
0.0
 10
8.0164911225
 20
10.6519095556
 30
0.0
 10
8.0131807235
 20
10.6718948793
 30
0.0
 10
8.0111873788
 20
10.6919646371
 30
0.0
 10
8.0107413252
 20
10.7053754731
 30
0.0
 10
8.0107413252
 20
10.7120635602
 30
0.0
  0
SPLINE
  5
3F1
100
AcDbEntity
  8
0
100
AcDbSpline
 62
7
  6
CONTINUOUS
 70
0
 71
3
 72
15
 73
11
 74
0
 42
0.0000001
 43
0.0000001
 44
0.0000000001
 40
0.0
 40
0.0
 40
0.0
 40
0.0
 40
0.1234600493
 40
0.2472654628
 40
0.371473396
 40
0.4961335112
 40
0.6212881956
 40
0.746968796
 40
0.8732031242
 40
1.0
 40
1.0
 40
1.0
 40
1.0
 10
8.0503262741
 20
10.8587270438
 30
0.0
 10
8.0470982656
 20
10.8532866879
 30
0.0
 10
8.0410064884
 20
10.8421643339
 30
0.0
 10
8.0330203174
 20
10.8248714809
 30
0.0
 10
8.0262056706
 20
10.8070176764
 30
0.0
 10
8.0205915667
 20
10.7886788726
 30
0.0
 10
8.0162013627
 20
10.769931881
 30
0.0
 10
8.013053196
 20
10.7508550323
 30
0.0
 10
8.0111603557
 20
10.7315295117
 30
0.0
 10
8.0107413252
 20
10.7185604746
 30
0.0
 10
8.0107413252
 20
10.7120635602
 30
0.0
  0
SPLINE
  5
3F2
100
AcDbEntity
  8
0
100
AcDbSpline
 62
7
  6
CONTINUOUS
 70
0
 71
3
 72
39
 73
35
 74
0
 42
0.0000001
 43
0.0000001
 44
0.0000000001
 40
0.0
 40
0.0
 40
0.0
 40
0.0
 40
0.0299424683
 40
0.0599093148
 40
0.0899243219
 40
0.1200101034
 40
0.1501875656
 40
0.1804754221
 40
0.2108897722
 40
0.2414437551
 40
0.2721472861
 40
0.3030068757
 40
0.334025535
 40
0.3652027614
 40
0.3965346031
 40
0.4280137946
 40
0.459629957
 40
0.4913698552
 40
0.5232177051
 40
0.5551555222
 40
0.5871635048
 40
0.6192204442
 40
0.6513041551
 40
0.68339192
 40
0.7154609412
 40
0.7474887928
 40
0.7794538702
 40
0.8113358216
 40
0.8431159806
 40
0.8747777136
 40
0.9063069224
 40
0.9376919709
 40
0.9689249367
 40
1.0
 40
1.0
 40
1.0
 40
1.0
 10
12.9030408062
 20
5.2563808972
 30
0.0
 10
12.8995237941
 20
5.2529837524
 30
0.0
 10
12.8922131714
 20
5.2464636831
 30
0.0
 10
12.8805004751
 20
5.2375812129
 30
0.0
 10
12.8681008302
 20
5.2296408844
 30
0.0
 10
12.855083534
 20
5.2226872254
 30
0.0
 10
12.8415201505
 20
5.2167582291
 30
0.0
 10
12.8274855346
 20
5.2118864859
 30
0.0
 10
12.8130570245
 20
5.2080986511
 30
0.0
 10
12.7983141104
 20
5.2054154046
 30
0.0
 10
12.7833379634
 20
5.2038513219
 30
0.0
 10
12.7682109936
 20
5.2034148119
 30
0.0
 10
12.753016395
 20
5.2041080799
 30
0.0
 10
12.7378376907
 20
5.2059271263
 30
0.0
 10
12.7227582783
 20
5.208861777
 30
0.0
 10
12.7078609766
 20
5.2128957459
 30
0.0
 10
12.6932275775
 20
5.21800673
 30
0.0
 10
12.6789384019
 20
5.2241665342
 30
0.0
 10
12.6650718662
 20
5.2313412294
 30
0.0
 10
12.6517040572
 20
5.2394913397
 30
0.0
 10
12.6389083206
 20
5.2485720591
 30
0.0
 10
12.6267548637
 20
5.2585334958
 30
0.0
 10
12.6153103745
 20
5.2693209449
 30
0.0
 10
12.6046376603
 20
5.2808751856
 30
0.0
 10
12.5947953066
 20
5.2931328031
 30
0.0
 10
12.5858373578
 20
5.3060265335
 30
0.0
 10
12.577813026
 20
5.3194856283
 30
0.0
 10
12.5707664155
 20
5.3334362398
 30
0.0
 10
12.5647363005
 20
5.3478018128
 30
0.0
 10
12.5597558687
 20
5.3625035373
 30
0.0
 10
12.5558526345
 20
5.3774606236
 30
0.0
 10
12.5530480996
 20
5.3925912949
 30
0.0
 10
12.5513579333
 20
5.4078112967
 30
0.0
 10
12.5509793481
 20
5.4179904691
 30
0.0
 10
12.5509793481
 20
5.4230652103
 30
0.0
  0
SPLINE
  5
3F3
100
AcDbEntity
  8
0
100
AcDbSpline
 62
7
  6
CONTINUOUS
 70
0
 71
3
 72
37
 73
33
 74
0
 42
0.0000001
 43
0.0000001
 44
0.0000000001
 40
0.0
 40
0.0
 40
0.0
 40
0.0
 40
0.0964145324
 40
0.190189259
 40
0.2807592375
 40
0.3675836705
 40
0.40943254
 40
0.4501577399
 40
0.4897020511
 40
0.5280110263
 40
0.5650333226
 40
0.6007211375
 40
0.6350302977
 40
0.6679207588
 40
0.6993571944
 40
0.7293092907
 40
0.7577525888
 40
0.7846694409
 40
0.8100498394
 40
0.8338930232
 40
0.8562093669
 40
0.8770225375
 40
0.8963728667
 40
0.9143214324
 40
0.9309549906
 40
0.9463923225
 40
0.9607906891
 40
0.9743510041
 40
0.9808967945
 40
0.9873288587
 40
0.9936838849
 40
1.0
 40
1.0
 40
1.0
 40
1.0
 10
13.7767031877
 20
9.4884390572
 30
0.0
 10
13.7767031877
 20
9.5037909892
 30
0.0
 10
13.7763779794
 20
9.534075696
 30
0.0
 10
13.7748795962
 20
9.5787594026
 30
0.0
 10
13.7723868312
 20
9.6218696243
 30
0.0
 10
13.7694606943
 20
9.6566614092
 30
0.0
 10
13.7666147053
 20
9.6834847635
 30
0.0
 10
13.7642699403
 20
9.7027884033
 30
0.0
 10
13.7616928083
 20
9.7214936201
 30
0.0
 10
13.7588875373
 20
9.7395696377
 30
0.0
 10
13.7558587918
 20
9.7569866937
 30
0.0
 10
13.7526116555
 20
9.7737161519
 30
0.0
 10
13.7491515191
 20
9.789730524
 30
0.0
 10
13.7454841209
 20
9.8050035315
 30
0.0
 10
13.7416156031
 20
9.8195101731
 30
0.0
 10
13.737552359
 20
9.833226748
 30
0.0
 10
13.733301089
 20
9.8461309225
 30
0.0
 10
13.7288688314
 20
9.8582018063
 30
0.0
 10
13.724262772
 20
9.8694199599
 30
0.0
 10
13.7194902886
 20
9.8797674742
 30
0.0
 10
13.7145589135
 20
9.8892280457
 30
0.0
 10
13.7094760388
 20
9.8977869236
 30
0.0
 10
13.7042488935
 20
9.9054309302
 30
0.0
 10
13.6988842854
 20
9.9121483744
 30
0.0
 10
13.6933883731
 20
9.9179285448
 30
0.0
 10
13.6877661399
 20
9.9227612735
 30
0.0
 10
13.6820238066
 20
9.9266355965
 30
0.0
 10
13.6770828509
 20
9.9290841473
 30
0.0
 10
13.6731064731
 20
9.9305244428
 30
0.0
 10
13.6701368368
 20
9.9313476568
 30
0.0
 10
13.6671473193
 20
9.9319255468
 30
0.0
 10
13.6651392864
 20
9.9321472769
 30
0.0
 10
13.6641359908
 20
9.9322168497
 30
0.0
  0
SPLINE
  5
3F4
100
AcDbEntity
  8
0
100
AcDbSpline
 62
7
  6
CONTINUOUS
 70
0
 71
3
 72
41
 73
37
 74
0
 42
0.0000001
 43
0.0000001
 44
0.0000000001
 40
0.0
 40
0.0
 40
0.0
 40
0.0
 40
0.0299421194
 40
0.0449237639
 40
0.0599145138
 40
0.0899291713
 40
0.1200146024
 40
0.1350933663
 40
0.150197487
 40
0.1804849907
 40
0.2108989863
 40
0.2414526128
 40
0.2721557852
 40
0.3030150139
 40
0.3340333096
 40
0.3652101699
 40
0.3965416431
 40
0.4280204639
 40
0.4596362538
 40
0.4913757784
 40
0.523223254
 40
0.5551606966
 40
0.5871683049
 40
0.6192248703
 40
0.6513082078
 40
0.6833956
 40
0.7154642491
 40
0.7474917297
 40
0.7794564361
 40
0.8113380197
 40
0.8431178035
 40
0.8747791886
 40
0.9063079722
 40
0.9376928053
 40
0.9689251015
 40
1.0
 40
1.0
 40
1.0
 40
1.0
 10
12.8692657332
 20
5.0841677196
 30
0.0
 10
12.8640831182
 20
5.0791617285
 30
0.0
 10
12.8560037018
 20
5.0719560825
 30
0.0
 10
12.8446886611
 20
5.0630154451
 30
0.0
 10
12.8330132932
 20
5.0545197074
 30
0.0
 10
12.8177788579
 20
5.0447638481
 30
0.0
 10
12.8018037151
 20
5.0362302947
 30
0.0
 10
12.7886283623
 20
5.0301595163
 30
0.0
 10
12.7751808455
 20
5.02458989
 30
0.0
 10
12.7579282912
 20
5.0186009677
 30
0.0
 10
12.7366671331
 20
5.0130194422
 30
0.0
 10
12.7149420533
 20
5.0090653611
 30
0.0
 10
12.6928734489
 20
5.0067605385
 30
0.0
 10
12.6705825475
 20
5.0061172745
 30
0.0
 10
12.6481920001
 20
5.007138843
 30
0.0
 10
12.62582487
 20
5.0098193426
 30
0.0
 10
12.6036040549
 20
5.0141437819
 30
0.0
 10
12.581651594
 20
5.0200881606
 30
0.0
 10
12.5600880142
 20
5.0276196128
 30
0.0
 10
12.5390316754
 20
5.0366965915
 30
0.0
 10
12.5185981307
 20
5.0472691001
 30
0.0
 10
12.498899501
 20
5.0592789685
 30
0.0
 10
12.4800438679
 20
5.0726601715
 30
0.0
 10
12.4621346883
 20
5.0873391901
 30
0.0
 10
12.4452702336
 20
5.1032354119
 30
0.0
 10
12.4295430561
 20
5.1202615698
 30
0.0
 10
12.415039487
 20
5.1383242169
 30
0.0
 10
12.4018391667
 20
5.1573242337
 30
0.0
 10
12.3900146113
 20
5.1771573655
 30
0.0
 10
12.3796308196
 20
5.1977147916
 30
0.0
 10
12.370744911
 20
5.218883701
 30
0.0
 10
12.3634058319
 20
5.2405479532
 30
0.0
 10
12.3576540395
 20
5.2625885273
 30
0.0
 10
12.3535213746
 20
5.2848848338
 30
0.0
 10
12.351030711
 20
5.3073128209
 30
0.0
 10
12.3504728568
 20
5.3223126845
 30
0.0
 10
12.3504728568
 20
5.3297908006
 30
0.0
  0
SPLINE
  5
3F5
100
AcDbEntity
  8
0
100
AcDbSpline
 62
7
  6
CONTINUOUS
 70
0
 71
3
 72
39
 73
35
 74
0
 42
0.0000001
 43
0.0000001
 44
0.0000000001
 40
0.0
 40
0.0
 40
0.0
 40
0.0
 40
0.0299700476
 40
0.0600264192
 40
0.0901836011
 40
0.1204541721
 40
0.1508485884
 40
0.1813750151
 40
0.2120392062
 40
0.2428444327
 40
0.2737914576
 40
0.3048785571
 40
0.3361015832
 40
0.3674540666
 40
0.3989273546
 40
0.4305107819
 40
0.4621918671
 40
0.4939565343
 40
0.5257893536
 40
0.5576737992
 40
0.5895925193
 40
0.6215276153
 40
0.6534609282
 40
0.6853743269
 40
0.7172499968
 40
0.7490707253
 40
0.780820181
 40
0.8124831765
 40
0.8440459418
 40
0.8754962963
 40
0.9068240751
 40
0.9380207147
 40
0.969080931
 40
1.0
 40
1.0
 40
1.0
 40
1.0
 10
12.9141131097
 20
5.1410177525
 30
0.0
 10
12.9084259547
 20
5.1379059965
 30
0.0
 10
12.8968111749
 20
5.1320735406
 30
0.0
 10
12.8787936591
 20
5.1245566335
 30
0.0
 10
12.8602341569
 20
5.1182912624
 30
0.0
 10
12.8412156196
 20
5.1133054978
 30
0.0
 10
12.821821565
 20
5.1096209886
 30
0.0
 10
12.8021375155
 20
5.1072538442
 30
0.0
 10
12.7822501322
 20
5.1062143099
 30
0.0
 10
12.7622469648
 20
5.1065067997
 30
0.0
 10
12.7422160322
 20
5.1081298651
 30
0.0
 10
12.7222454471
 20
5.1110762125
 30
0.0
 10
12.7024230299
 20
5.1153327398
 30
0.0
 10
12.6828359252
 20
5.1208805925
 30
0.0
 10
12.6635702226
 20
5.1276952539
 30
0.0
 10
12.6447105831
 20
5.1357466577
 30
0.0
 10
12.6263398715
 20
5.1449993202
 30
0.0
 10
12.6085387963
 20
5.155412498
 30
0.0
 10
12.5913855595
 20
5.166940366
 30
0.0
 10
12.5749555166
 20
5.1795322188
 30
0.0
 10
12.5593208488
 20
5.1931326915
 30
0.0
 10
12.5445502492
 20
5.2076820021
 30
0.0
 10
12.5307086238
 20
5.2231162116
 30
0.0
 10
12.5178568084
 20
5.2393675029
 30
0.0
 10
12.506051299
 20
5.2563644727
 30
0.0
 10
12.495344007
 20
5.2740324466
 30
0.0
 10
12.4857820373
 20
5.2922938042
 30
0.0
 10
12.4774074715
 20
5.311068319
 30
0.0
 10
12.4702572131
 20
5.3302734951
 30
0.0
 10
12.46436275
 20
5.3498249766
 30
0.0
 10
12.4597501867
 20
5.3696367194
 30
0.0
 10
12.4564397877
 20
5.3896220431
 30
0.0
 10
12.454446443
 20
5.4096918009
 30
0.0
 10
12.4540003894
 20
5.4231026369
 30
0.0
 10
12.4540003894
 20
5.429790724
 30
0.0
  0
SPLINE
  5
3F6
100
AcDbEntity
  8
0
100
AcDbSpline
 62
7
  6
CONTINUOUS
 70
0
 71
3
 72
15
 73
11
 74
0
 42
0.0000001
 43
0.0000001
 44
0.0000000001
 40
0.0
 40
0.0
 40
0.0
 40
0.0
 40
0.1234600493
 40
0.2472654628
 40
0.371473396
 40
0.4961335112
 40
0.6212881956
 40
0.746968796
 40
0.8732031242
 40
1.0
 40
1.0
 40
1.0
 40
1.0
 10
12.4935853383
 20
5.5764542076
 30
0.0
 10
12.4903573298
 20
5.5710138517
 30
0.0
 10
12.4842655527
 20
5.5598914977
 30
0.0
 10
12.4762793816
 20
5.5425986446
 30
0.0
 10
12.4694647348
 20
5.5247448401
 30
0.0
 10
12.4638506309
 20
5.5064060364
 30
0.0
 10
12.4594604269
 20
5.4876590448
 30
0.0
 10
12.4563122602
 20
5.468582196
 30
0.0
 10
12.4544194199
 20
5.4492566754
 30
0.0
 10
12.4540003894
 20
5.4362876384
 30
0.0
 10
12.4540003894
 20
5.429790724
 30
0.0
  0
SPLINE
  5
3F7
100
AcDbEntity
  8
0
100
AcDbSpline
 62
7
  6
CONTINUOUS
 70
0
 71
3
 72
37
 73
33
 74
0
 42
0.0000001
 43
0.0000001
 44
0.0000000001
 40
0.0
 40
0.0
 40
0.0
 40
0.0
 40
0.0299447808
 40
0.0599139387
 40
0.0899312572
 40
0.120019352
 40
0.1501991325
 40
0.1804893151
 40
0.2109060017
 40
0.2414623337
 40
0.2721682268
 40
0.3030301897
 40
0.3340512319
 40
0.365230851
 40
0.3965650963
 40
0.4280467038
 40
0.4596652956
 40
0.4914076368
 40
0.5232579413
 40
0.5551982205
 40
0.6192294657
 40
0.68336747
 40
0.7154389695
 40
0.7474692992
 40
0.7794368492
 40
0.8113212634
 40
0.8431038807
 40
0.8747680308
 40
0.9062997541
 40
0.937686996
 40
0.9689228241
 40
1.0
 40
1.0
 40
1.0
 40
1.0
 10
9.4030475376
 20
6.9085526862
 30
0.0
 10
9.4002471957
 20
6.9058477753
 30
0.0
 10
9.3944263358
 20
6.9006562304
 30
0.0
 10
9.3851003886
 20
6.893583693
 30
0.0
 10
9.3752274806
 20
6.8872613016
 30
0.0
 10
9.3648627728
 20
6.881724526
 30
0.0
 10
9.3540632511
 20
6.8770036112
 30
0.0
 10
9.3428885149
 20
6.8731245083
 30
0.0
 10
9.3314001419
 20
6.8701084437
 30
0.0
 10
9.3196614233
 20
6.8679718883
 30
0.0
 10
9.3077369901
 20
6.8667264566
 30
0.0
 10
9.2956924629
 20
6.8663788403
 30
0.0
 10
9.2835940844
 20
6.8669307885
 30
0.0
 10
9.2715083589
 20
6.8683791124
 30
0.0
 10
9.2595016862
 20
6.8707157115
 30
0.0
 10
9.2476400183
 20
6.8739276107
 30
0.0
 10
9.2359884412
 20
6.8779970863
 30
0.0
 10
9.2246110557
 20
6.8829015746
 30
0.0
 10
9.21356976
 20
6.8886145145
 30
0.0
 10
9.1993699701
 20
6.8972714559
 30
0.0
 10
9.182766321
 20
6.9099464744
 30
0.0
 10
9.1680600407
 20
6.924804182
 30
0.0
 10
9.1576139092
 20
6.9378141363
 30
0.0
 10
9.1504809825
 20
6.9480807898
 30
0.0
 10
9.1440918485
 20
6.9587972236
 30
0.0
 10
9.1384811007
 20
6.9699051247
 30
0.0
 10
9.1336797545
 20
6.9813434018
 30
0.0
 10
9.1297141677
 20
6.9930493448
 30
0.0
 10
9.1266063207
 20
7.0049585916
 30
0.0
 10
9.1243732088
 20
7.0170061006
 30
0.0
 10
9.1230274843
 20
7.029124704
 30
0.0
 10
9.1227260208
 20
7.0372296763
 30
0.0
 10
9.1227260208
 20
7.0412702954
 30
0.0
  0
SPLINE
  5
3F8
100
AcDbEntity
  8
0
100
AcDbSpline
 62
7
  6
CONTINUOUS
 70
0
 71
3
 72
15
 73
11
 74
0
 42
0.0000001
 43
0.0000001
 44
0.0000000001
 40
0.0
 40
0.0
 40
0.0
 40
0.0
 40
0.1234394266
 40
0.2470466338
 40
0.3709825651
 40
0.4953949167
 40
0.6204120724
 40
0.7461394646
 40
0.8726517708
 40
1.0
 40
1.0
 40
1.0
 40
1.0
 10
9.1685010824
 20
7.15137303
 30
0.0
 10
9.1648766558
 20
7.1478721178
 30
0.0
 10
9.1579785568
 20
7.1404862512
 30
0.0
 10
9.1488171142
 20
7.1283952663
 30
0.0
 10
9.1409180093
 20
7.1153961275
 30
0.0
 10
9.134355515
 20
7.101610639
 30
0.0
 10
9.1291894286
 20
7.0871660969
 30
0.0
 10
9.1254671823
 20
7.0721957005
 30
0.0
 10
9.1232223899
 20
7.0568394587
 30
0.0
 10
9.1227260208
 20
7.0464689956
 30
0.0
 10
9.1227260208
 20
7.0412702954
 30
0.0
  0
SPLINE
  5
3F9
100
AcDbEntity
  8
0
100
AcDbSpline
 62
7
  6
CONTINUOUS
 70
0
 71
3
 72
37
 73
33
 74
0
 42
0.0000001
 43
0.0000001
 44
0.0000000001
 40
0.0
 40
0.0
 40
0.0
 40
0.0
 40
0.0299447808
 40
0.0599139387
 40
0.0899312572
 40
0.120019352
 40
0.1501991325
 40
0.1804893151
 40
0.2109060017
 40
0.2414623337
 40
0.2721682268
 40
0.3030301897
 40
0.3340512319
 40
0.365230851
 40
0.3965650963
 40
0.4280467038
 40
0.4596652956
 40
0.4914076368
 40
0.5232579413
 40
0.5551982205
 40
0.6192294657
 40
0.68336747
 40
0.7154389695
 40
0.7474692992
 40
0.7794368492
 40
0.8113212634
 40
0.8431038807
 40
0.8747680308
 40
0.9062997541
 40
0.937686996
 40
0.9689228241
 40
1.0
 40
1.0
 40
1.0
 40
1.0
 10
9.4030475376
 20
8.9447244412
 30
0.0
 10
9.4002471957
 20
8.9420195304
 30
0.0
 10
9.3944263358
 20
8.9368279855
 30
0.0
 10
9.3851003886
 20
8.9297554481
 30
0.0
 10
9.3752274806
 20
8.9234330567
 30
0.0
 10
9.3648627728
 20
8.9178962811
 30
0.0
 10
9.3540632511
 20
8.9131753663
 30
0.0
 10
9.3428885149
 20
8.9092962634
 30
0.0
 10
9.3314001419
 20
8.9062801988
 30
0.0
 10
9.3196614233
 20
8.9041436434
 30
0.0
 10
9.3077369901
 20
8.9028982117
 30
0.0
 10
9.2956924629
 20
8.9025505954
 30
0.0
 10
9.2835940844
 20
8.9031025436
 30
0.0
 10
9.2715083589
 20
8.9045508675
 30
0.0
 10
9.2595016862
 20
8.9068874666
 30
0.0
 10
9.2476400183
 20
8.9100993658
 30
0.0
 10
9.2359884412
 20
8.9141688414
 30
0.0
 10
9.2246110557
 20
8.9190733297
 30
0.0
 10
9.21356976
 20
8.9247862696
 30
0.0
 10
9.1993699701
 20
8.933443211
 30
0.0
 10
9.182766321
 20
8.9461182295
 30
0.0
 10
9.1680600407
 20
8.9609759371
 30
0.0
 10
9.1576139092
 20
8.9739858914
 30
0.0
 10
9.1504809825
 20
8.9842525449
 30
0.0
 10
9.1440918485
 20
8.9949689787
 30
0.0
 10
9.1384811007
 20
9.0060768798
 30
0.0
 10
9.1336797545
 20
9.0175151569
 30
0.0
 10
9.1297141677
 20
9.0292210999
 30
0.0
 10
9.1266063207
 20
9.0411303467
 30
0.0
 10
9.1243732088
 20
9.0531778557
 30
0.0
 10
9.1230274843
 20
9.0652964591
 30
0.0
 10
9.1227260208
 20
9.0734014314
 30
0.0
 10
9.1227260208
 20
9.0774420504
 30
0.0
  0
SPLINE
  5
3FA
100
AcDbEntity
  8
0
100
AcDbSpline
 62
7
  6
CONTINUOUS
 70
0
 71
3
 72
15
 73
11
 74
0
 42
0.0000001
 43
0.0000001
 44
0.0000000001
 40
0.0
 40
0.0
 40
0.0
 40
0.0
 40
0.1234394266
 40
0.2470466338
 40
0.3709825651
 40
0.4953949167
 40
0.6204120724
 40
0.7461394646
 40
0.8726517708
 40
1.0
 40
1.0
 40
1.0
 40
1.0
 10
9.1685010824
 20
9.1875447851
 30
0.0
 10
9.1648766558
 20
9.1840438729
 30
0.0
 10
9.1579785568
 20
9.1766580063
 30
0.0
 10
9.1488171142
 20
9.1645670214
 30
0.0
 10
9.1409180093
 20
9.1515678825
 30
0.0
 10
9.134355515
 20
9.1377823941
 30
0.0
 10
9.1291894286
 20
9.123337852
 30
0.0
 10
9.1254671823
 20
9.1083674556
 30
0.0
 10
9.1232223899
 20
9.0930112138
 30
0.0
 10
9.1227260208
 20
9.0826407507
 30
0.0
 10
9.1227260208
 20
9.0774420504
 30
0.0
  0
SPLINE
  5
3FB
100
AcDbEntity
  8
0
100
AcDbSpline
 62
7
  6
CONTINUOUS
 70
0
 71
3
 72
53
 73
49
 74
0
 42
0.0000001
 43
0.0000001
 44
0.0000000001
 40
0.0
 40
0.0
 40
0.0
 40
0.0
 40
0.0095826921
 40
0.0187374195
 40
0.0274873701
 40
0.0358602776
 40
0.0515988675
 40
0.0590567854
 40
0.0662996147
 40
0.0733808961
 40
0.0803582294
 40
0.0872920939
 40
0.0942441896
 40
0.1012757025
 40
0.1084455831
 40
0.1158091839
 40
0.1234171248
 40
0.1313148515
 40
0.1395423009
 40
0.1481340961
 40
0.1571198757
 40
0.1665245853
 40
0.1763691871
 40
0.186670841
 40
0.1974436138
 40
0.2086987102
 40
0.2204448491
 40
0.2326887053
 40
0.245434905
 40
0.2586865833
 40
0.2724452606
 40
0.3014817909
 40
0.3325353698
 40
0.3655792768
 40
0.400574015
 40
0.4374692445
 40
0.4762052458
 40
0.5167140773
 40
0.5589205278
 40
0.6027428897
 40
0.6480936083
 40
0.6948798582
 40
0.7430040434
 40
0.7923641994
 40
0.8428547525
 40
0.8943658058
 40
0.9467866548
 40
1.0
 40
1.0
 40
1.0
 40
1.0
 10
13.7062484402
 20
9.9908535751
 30
0.0
 10
13.7076431199
 20
9.9921516034
 30
0.0
 10
13.7104312443
 20
9.9946253587
 30
0.0
 10
13.7147089093
 20
9.9980308642
 30
0.0
 10
13.7189827382
 20
10.0010424959
 30
0.0
 10
13.7245552601
 20
10.0044585978
 30
0.0
 10
13.7302403589
 20
10.0071863004
 30
0.0
 10
13.7359858837
 20
10.0091077685
 30
0.0
 10
13.7402027712
 20
10.0101202154
 30
0.0
 10
13.7444003787
 20
10.0107279984
 30
0.0
 10
13.7485757912
 20
10.010930029
 30
0.0
 10
13.7527254973
 20
10.0107259121
 30
0.0
 10
13.7568460063
 20
10.0101156919
 30
0.0
 10
13.760933879
 20
10.0091000949
 30
0.0
 10
13.7649859981
 20
10.0076805021
 30
0.0
 10
13.7689994878
 20
10.0058584319
 30
0.0
 10
13.772971953
 20
10.0036359525
 30
0.0
 10
13.7769011163
 20
10.0010149563
 30
0.0
 10
13.7807849972
 20
9.9979976156
 30
0.0
 10
13.7846216653
 20
9.9945860723
 30
0.0
 10
13.7884091693
 20
9.9907825239
 30
0.0
 10
13.7921457014
 20
9.9865894043
 30
0.0
 10
13.7958292261
 20
9.9820091356
 30
0.0
 10
13.7994579025
 20
9.97704448
 30
0.0
 10
13.8030297
 20
9.971698279
 30
0.0
 10
13.8065426608
 20
9.9659736469
 30
0.0
 10
13.8099948465
 20
9.9598739178
 30
0.0
 10
13.813384211
 20
9.9534026051
 30
0.0
 10
13.8167088873
 20
9.9465635221
 30
0.0
 10
13.8199669012
 20
9.9393606212
 30
0.0
 10
13.8242974723
 20
9.92909201
 30
0.0
 10
13.8295100963
 20
9.9153598113
 30
0.0
 10
13.8353628092
 20
9.8977873021
 30
0.0
 10
13.8409065579
 20
9.8788774837
 30
0.0
 10
13.846128109
 20
9.8586748982
 30
0.0
 10
13.8510149238
 20
9.8372268371
 30
0.0
 10
13.855555237
 20
9.8145838757
 30
0.0
 10
13.8597381066
 20
9.7907995088
 30
0.0
 10
13.8635534425
 20
9.7659300477
 30
0.0
 10
13.8669920383
 20
9.7400344448
 30
0.0
 10
13.8700455953
 20
9.7131741423
 30
0.0
 10
13.8727067418
 20
9.6854129146
 30
0.0
 10
13.8749690489
 20
9.6568167225
 30
0.0
 10
13.8768270695
 20
9.6274534981
 30
0.0
 10
13.8782762869
 20
9.5973931533
 30
0.0
 10
13.8793132491
 20
9.5667069235
 30
0.0
 10
13.8799353595
 20
9.5354681255
 30
0.0
 10
13.8800716416
 20
9.5144653519
 30
0.0
 10
13.8800716416
 20
9.5038853224
 30
0.0
  0
SPLINE
  5
3FC
100
AcDbEntity
  8
0
100
AcDbSpline
 62
7
  6
CONTINUOUS
 70
0
 71
3
 72
26
 73
22
 74
0
 42
0.0000001
 43
0.0000001
 44
0.0000000001
 40
0.0
 40
0.0
 40
0.0
 40
0.0
 40
0.0927012894
 40
0.1810998581
 40
0.2651397025
 40
0.3447981958
 40
0.4200711274
 40
0.4909810223
 40
0.5575836163
 40
0.6199738617
 40
0.6782942397
 40
0.7327453742
 40
0.7835990881
 40
0.8312118928
 40
0.8760383333
 40
0.8975890523
 40
0.9186629969
 40
0.9393468277
 40
0.9597326486
 40
0.9799170768
 40
1.0
 40
1.0
 40
1.0
 40
1.0
 10
12.1902136984
 20
11.2558968908
 30
0.0
 10
12.1961042838
 20
11.2537195453
 30
0.0
 10
12.207557996
 20
11.2493173841
 30
0.0
 10
12.2241336636
 20
11.2423907448
 30
0.0
 10
12.2396767678
 20
11.2353058043
 30
0.0
 10
12.2541646984
 20
11.2280729902
 30
0.0
 10
12.2675771879
 20
11.2207025003
 30
0.0
 10
12.2798953015
 20
11.2132046513
 30
0.0
 10
12.2911018101
 20
11.2055896573
 30
0.0
 10
12.3011812272
 20
11.197867593
 30
0.0
 10
12.3101196162
 20
11.1900480922
 30
0.0
 10
12.3179042797
 20
11.1821403151
 30
0.0
 10
12.3245236833
 20
11.1741524187
 30
0.0
 10
12.3299660842
 20
11.1660935735
 30
0.0
 10
12.3335574966
 20
11.1592344761
 30
0.0
 10
12.3357971471
 20
11.1537458039
 30
0.0
 10
12.3371550171
 20
11.1496740798
 30
0.0
 10
12.3382119951
 20
11.1455954956
 30
0.0
 10
12.3389675119
 20
11.1415114881
 30
0.0
 10
12.3394209649
 20
11.1374240971
 30
0.0
 10
12.3395218521
 20
11.1346950964
 30
0.0
 10
12.3395218588
 20
11.1333345647
 30
0.0
  0
SPLINE
  5
3FD
100
AcDbEntity
  8
0
100
AcDbSpline
 62
7
  6
CONTINUOUS
 70
0
 71
3
 72
50
 73
46
 74
0
 42
0.0000001
 43
0.0000001
 44
0.0000000001
 40
0.0
 40
0.0
 40
0.0
 40
0.0
 40
0.041773949
 40
0.084037315
 40
0.1266588444
 40
0.1695070228
 40
0.2124487428
 40
0.2553508289
 40
0.2980801504
 40
0.3405042954
 40
0.3824920464
 40
0.4239139259
 40
0.464642724
 40
0.5045540414
 40
0.5435268401
 40
0.5814440104
 40
0.6181929618
 40
0.6536662468
 40
0.6877622342
 40
0.7203858517
 40
0.7514494287
 40
0.7808736887
 40
0.8085889566
 40
0.8217875522
 40
0.8345379482
 40
0.8468349763
 40
0.8586743044
 40
0.8700528542
 40
0.8809686069
 40
0.8914210771
 40
0.9014111982
 40
0.9109418144
 40
0.9200177306
 40
0.9286462118
 40
0.9368372704
 40
0.9446041895
 40
0.9519640937
 40
0.9589385173
 40
0.9655542181
 40
0.9718437264
 40
0.97784614
 40
0.9836073212
 40
0.9891800232
 40
0.9946230627
 40
1.0
 40
1.0
 40
1.0
 40
1.0
 10
13.7767031877
 20
7.4522673021
 30
0.0
 10
13.7767031877
 20
7.4411932228
 30
0.0
 10
13.776530414
 20
7.4189149741
 30
0.0
 10
13.7757666491
 20
7.3853458264
 30
0.0
 10
13.7744989524
 20
7.3515069021
 30
0.0
 10
13.7727315281
 20
7.3175103653
 30
0.0
 10
13.7704701816
 20
7.2834685703
 30
0.0
 10
13.7677224076
 20
7.2494941918
 30
0.0
 10
13.764497299
 20
7.215699611
 30
0.0
 10
13.7608055512
 20
7.1821966351
 30
0.0
 10
13.7566594109
 20
7.1490960918
 30
0.0
 10
13.7520726432
 20
7.1165074704
 30
0.0
 10
13.7470604838
 20
7.0845385529
 30
0.0
 10
13.7416395906
 20
7.0532950544
 30
0.0
 10
13.7358279895
 20
7.0228802674
 30
0.0
 10
13.7296450159
 20
6.9933947135
 30
0.0
 10
13.7231112522
 20
6.9649358013
 30
0.0
 10
13.7162484602
 20
6.9375974944
 30
0.0
 10
13.7090795105
 20
6.9114699721
 30
0.0
 10
13.7016283024
 20
6.886639351
 30
0.0
 10
13.693919686
 20
6.8631872203
 30
0.0
 10
13.6859793458
 20
6.8411908415
 30
0.0
 10
13.6790836423
 20
6.8238620066
 30
0.0
 10
13.6734560683
 20
6.8107954299
 30
0.0
 10
13.6692627408
 20
6.8015636011
 30
0.0
 10
13.6650314508
 20
6.7927471085
 30
0.0
 10
13.6607655342
 20
6.7843532076
 30
0.0
 10
13.6564686285
 20
6.7763887382
 30
0.0
 10
13.6521441424
 20
6.7688602442
 30
0.0
 10
13.6477957183
 20
6.7617738168
 30
0.0
 10
13.6434267875
 20
6.7551352482
 30
0.0
 10
13.6390409502
 20
6.748949869
 30
0.0
 10
13.6346416319
 20
6.7432226919
 30
0.0
 10
13.6302323193
 20
6.7379582941
 30
0.0
 10
13.6258163797
 20
6.7331609036
 30
0.0
 10
13.6213971012
 20
6.7288343986
 30
0.0
 10
13.6169777181
 20
6.7249822818
 30
0.0
 10
13.6125612551
 20
6.721607887
 30
0.0
 10
13.6081507814
 20
6.7187141804
 30
0.0
 10
13.6037491571
 20
6.7163042476
 30
0.0
 10
13.599359497
 20
6.7143808311
 30
0.0
 10
13.5949850782
 20
6.7129470138
 30
0.0
 10
13.5906295979
 20
6.7120053414
 30
0.0
 10
13.586298277
 20
6.7115583198
 30
0.0
 10
13.583422654
 20
6.7115911303
 30
0.0
 10
13.5820006678
 20
6.711689737
 30
0.0
  0
SPLINE
  5
3FE
100
AcDbEntity
  8
0
100
AcDbSpline
 62
7
  6
CONTINUOUS
 70
0
 71
3
 72
62
 73
58
 74
0
 42
0.0000001
 43
0.0000001
 44
0.0000000001
 40
0.0
 40
0.0
 40
0.0
 40
0.0
 40
0.0129745362
 40
0.0265261118
 40
0.0406402031
 40
0.0553022919
 40
0.0704954999
 40
0.0862015416
 40
0.1024009282
 40
0.1190728849
 40
0.1361955151
 40
0.153745926
 40
0.1717002726
 40
0.1900338192
 40
0.2277350217
 40
0.2666378392
 40
0.3065201753
 40
0.3471522662
 40
0.3882986137
 40
0.4297198086
 40
0.471174371
 40
0.5124205695
 40
0.5532182468
 40
0.593330634
 40
0.6325262024
 40
0.6705805561
 40
0.6891124405
 40
0.7072791067
 40
0.7250553861
 40
0.7424169235
 40
0.7593402956
 40
0.7758030511
 40
0.7917837801
 40
0.8072622606
 40
0.8222195378
 40
0.8366380087
 40
0.8505016048
 40
0.8637959563
 40
0.87650853
 40
0.8886288903
 40
0.9001490214
 40
0.9110636177
 40
0.921370541
 40
0.9310714549
 40
0.9401724994
 40
0.9486852263
 40
0.9566278757
 40
0.9640268684
 40
0.9709186347
 40
0.9773517785
 40
0.9833891737
 40
0.9862849577
 40
0.9891126701
 40
0.9918845788
 40
0.9946138134
 40
0.9973141871
 40
1.0
 40
1.0
 40
1.0
 40
1.0
 10
12.1902136984
 20
11.2558968908
 30
0.0
 10
12.1838284924
 20
11.2582570636
 30
0.0
 10
12.170706211
 20
11.2629002625
 30
0.0
 10
12.150431567
 20
11.2695100443
 30
0.0
 10
12.1291627775
 20
11.2759079611
 30
0.0
 10
12.1069334299
 20
11.2820838894
 30
0.0
 10
12.0837778078
 20
11.2880282033
 30
0.0
 10
12.0597320529
 20
11.2937315512
 30
0.0
 10
12.0348336442
 20
11.2991849599
 30
0.0
 10
12.009121398
 20
11.3043798595
 30
0.0
 10
11.9826354422
 20
11.3093081158
 30
0.0
 10
11.9554171224
 20
11.3139619594
 30
0.0
 10
11.9275088907
 20
11.3183341176
 30
0.0
 10
11.8890785224
 20
11.3238298759
 30
0.0
 10
11.8396355688
 20
11.3299247464
 30
0.0
 10
11.7788105444
 20
11.335952836
 30
0.0
 10
11.7163317385
 20
11.3407229481
 30
0.0
 10
11.6525893529
 20
11.3442049843
 30
0.0
 10
11.5879811777
 20
11.3463768219
 30
0.0
 10
11.522910597
 20
11.3472247266
 30
0.0
 10
11.4577838923
 20
11.3467433487
 30
0.0
 10
11.3930076985
 20
11.3449356946
 30
0.0
 10
11.328986462
 20
11.3418132468
 30
0.0
 10
11.2661197434
 20
11.3373957876
 30
0.0
 10
11.2048001882
 20
11.3317112139
 30
0.0
 10
11.1548774732
 20
11.3258983848
 30
0.0
 10
11.1160117753
 20
11.3206231942
 30
0.0
 10
11.0877415175
 20
11.3164094208
 30
0.0
 10
11.0601372509
 20
11.3119101401
 30
0.0
 10
11.033242046
 20
11.3071323428
 30
0.0
 10
11.0070978926
 20
11.3020835707
 30
0.0
 10
10.9817455868
 20
11.2967717578
 30
0.0
 10
10.9572246868
 20
11.2912052202
 30
0.0
 10
10.9335734203
 20
11.285392718
 30
0.0
 10
10.9108286316
 20
11.2793434003
 30
0.0
 10
10.8890257384
 20
11.2730667426
 30
0.0
 10
10.8681986442
 20
11.2665725963
 30
0.0
 10
10.8483796724
 20
11.2598711756
 30
0.0
 10
10.8295995394
 20
11.2529729598
 30
0.0
 10
10.8118872761
 20
11.2458887031
 30
0.0
 10
10.7952701377
 20
11.238629465
 30
0.0
 10
10.7797735897
 20
11.2312064683
 30
0.0
 10
10.7654212556
 20
11.2236310409
 30
0.0
 10
10.7522348032
 20
11.2159146469
 30
0.0
 10
10.7402339623
 20
11.2080686688
 30
0.0
 10
10.7294365769
 20
11.2001042376
 30
0.0
 10
10.7198585793
 20
11.1920321015
 30
0.0
 10
10.7115143149
 20
11.1838625359
 30
0.0
 10
10.704416866
 20
11.1756044472
 30
0.0
 10
10.6985794874
 20
11.1672677906
 30
0.0
 10
10.6947228326
 20
11.160162736
 30
0.0
 10
10.6923183843
 20
11.1544755016
 30
0.0
 10
10.6908614977
 20
11.1502591431
 30
0.0
 10
10.6897274369
 20
11.1460350571
 30
0.0
 10
10.6889167995
 20
11.1418048941
 30
0.0
 10
10.688430129
 20
11.1375709391
 30
0.0
 10
10.6883218848
 20
11.1347437492
 30
0.0
 10
10.6883218918
 20
11.1333345647
 30
0.0
  0
SPLINE
  5
3FF
100
AcDbEntity
  8
0
100
AcDbSpline
 62
7
  6
CONTINUOUS
 70
0
 71
3
 72
53
 73
49
 74
0
 42
0.0000001
 43
0.0000001
 44
0.0000000001
 40
0.0
 40
0.0
 40
0.0
 40
0.0
 40
0.0095826921
 40
0.0187374195
 40
0.0274873701
 40
0.0358602776
 40
0.0515988675
 40
0.0590567854
 40
0.0662996147
 40
0.0733808961
 40
0.0803582294
 40
0.0872920939
 40
0.0942441896
 40
0.1012757025
 40
0.1084455831
 40
0.1158091839
 40
0.1234171248
 40
0.1313148515
 40
0.1395423009
 40
0.1481340961
 40
0.1571198757
 40
0.1665245853
 40
0.1763691871
 40
0.186670841
 40
0.1974436138
 40
0.2086987102
 40
0.2204448491
 40
0.2326887053
 40
0.245434905
 40
0.2586865833
 40
0.2724452606
 40
0.3014817909
 40
0.3325353698
 40
0.3655792768
 40
0.400574015
 40
0.4374692445
 40
0.4762052458
 40
0.5167140773
 40
0.5589205278
 40
0.6027428897
 40
0.6480936083
 40
0.6948798582
 40
0.7430040434
 40
0.7923641994
 40
0.8428547525
 40
0.8943658058
 40
0.9467866548
 40
1.0
 40
1.0
 40
1.0
 40
1.0
 10
13.7062484402
 20
7.95468182
 30
0.0
 10
13.7076431199
 20
7.9559798483
 30
0.0
 10
13.7104312443
 20
7.9584536036
 30
0.0
 10
13.7147089093
 20
7.9618591091
 30
0.0
 10
13.7189827382
 20
7.9648707408
 30
0.0
 10
13.7245552601
 20
7.9682868427
 30
0.0
 10
13.7302403589
 20
7.9710145453
 30
0.0
 10
13.7359858837
 20
7.9729360134
 30
0.0
 10
13.7402027712
 20
7.9739484603
 30
0.0
 10
13.7444003787
 20
7.9745562433
 30
0.0
 10
13.7485757912
 20
7.9747582739
 30
0.0
 10
13.7527254973
 20
7.974554157
 30
0.0
 10
13.7568460063
 20
7.9739439368
 30
0.0
 10
13.760933879
 20
7.9729283398
 30
0.0
 10
13.7649859981
 20
7.9715087471
 30
0.0
 10
13.7689994878
 20
7.9696866768
 30
0.0
 10
13.772971953
 20
7.9674641974
 30
0.0
 10
13.7769011163
 20
7.9648432012
 30
0.0
 10
13.7807849972
 20
7.9618258605
 30
0.0
 10
13.7846216653
 20
7.9584143172
 30
0.0
 10
13.7884091693
 20
7.9546107688
 30
0.0
 10
13.7921457014
 20
7.9504176492
 30
0.0
 10
13.7958292261
 20
7.9458373805
 30
0.0
 10
13.7994579025
 20
7.9408727249
 30
0.0
 10
13.8030297
 20
7.935526524
 30
0.0
 10
13.8065426608
 20
7.9298018918
 30
0.0
 10
13.8099948465
 20
7.9237021627
 30
0.0
 10
13.813384211
 20
7.91723085
 30
0.0
 10
13.8167088873
 20
7.910391767
 30
0.0
 10
13.8199669012
 20
7.9031888661
 30
0.0
 10
13.8242974723
 20
7.8929202549
 30
0.0
 10
13.8295100963
 20
7.8791880562
 30
0.0
 10
13.8353628092
 20
7.861615547
 30
0.0
 10
13.8409065579
 20
7.8427057286
 30
0.0
 10
13.846128109
 20
7.8225031431
 30
0.0
 10
13.8510149238
 20
7.801055082
 30
0.0
 10
13.855555237
 20
7.7784121206
 30
0.0
 10
13.8597381066
 20
7.7546277537
 30
0.0
 10
13.8635534425
 20
7.7297582926
 30
0.0
 10
13.8669920383
 20
7.7038626897
 30
0.0
 10
13.8700455953
 20
7.6770023872
 30
0.0
 10
13.8727067418
 20
7.6492411595
 30
0.0
 10
13.8749690489
 20
7.6206449674
 30
0.0
 10
13.8768270695
 20
7.591281743
 30
0.0
 10
13.8782762869
 20
7.5612213982
 30
0.0
 10
13.8793132491
 20
7.5305351684
 30
0.0
 10
13.8799353595
 20
7.4992963704
 30
0.0
 10
13.8800716416
 20
7.4782935968
 30
0.0
 10
13.8800716416
 20
7.4677135673
 30
0.0
  0
SPLINE
  5
400
100
AcDbEntity
  8
0
100
AcDbSpline
 62
7
  6
CONTINUOUS
 70
0
 71
3
 72
73
 73
69
 74
0
 42
0.0000001
 43
0.0000001
 44
0.0000000001
 40
0.0
 40
0.0
 40
0.0
 40
0.0
 40
0.013606659
 40
0.0278625174
 40
0.0427501019
 40
0.0582512266
 40
0.0743448873
 40
0.0910083916
 40
0.1082173912
 40
0.1259459913
 40
0.1441669148
 40
0.1628515877
 40
0.1819702795
 40
0.2014922078
 40
0.2213856197
 40
0.2416178766
 40
0.2829638166
 40
0.3252556901
 40
0.3682098332
 40
0.4115367523
 40
0.4549436848
 40
0.4981371701
 40
0.5408256177
 40
0.5827218577
 40
0.6235457698
 40
0.643471054
 40
0.6630277697
 40
0.6821840786
 40
0.7009090896
 40
0.7191729763
 40
0.7369470767
 40
0.7542039833
 40
0.7709176605
 40
0.7870636049
 40
0.8026189824
 40
0.8175627763
 40
0.8318759867
 40
0.8455419001
 40
0.8585463564
 40
0.8708780836
 40
0.8825291486
 40
0.8934955644
 40
0.903778004
 40
0.9086648896
 40
0.9133837018
 40
0.9179362925
 40
0.9223251043
 40
0.9265531295
 40
0.9306240298
 40
0.9345422448
 40
0.9383129921
 40
0.9419424504
 40
0.9454378132
 40
0.9520577037
 40
0.9552054361
 40
0.9582597385
 40
0.96123404
 40
0.9641429996
 40
0.967002422
 40
0.9698290311
 40
0.9726401909
 40
0.9754535855
 40
0.9782868497
 40
0.9811572225
 40
0.9840812082
 40
0.9870743469
 40
0.9933207857
 40
1.0
 40
1.0
 40
1.0
 40
1.0
 10
12.1961638146
 20
11.2739139285
 30
0.0
 10
12.1892160108
 20
11.2764820551
 30
0.0
 10
12.1749091152
 20
11.2815268661
 30
0.0
 10
12.1527603412
 20
11.2886786629
 30
0.0
 10
12.1294549456
 20
11.2955809656
 30
0.0
 10
12.1050354641
 20
11.3022211551
 30
0.0
 10
12.0795455984
 20
11.3085871423
 30
0.0
 10
12.053031475
 20
11.3146673314
 30
0.0
 10
12.0255409887
 20
11.3204506488
 30
0.0
 10
11.9971238277
 20
11.3259265405
 30
0.0
 10
11.9678313956
 20
11.3310850159
 30
0.0
 10
11.9377167059
 20
11.3359166912
 30
0.0
 10
11.9068342705
 20
11.3404127687
 30
0.0
 10
11.8752400105
 20
11.3445650372
 30
0.0
 10
11.8429910884
 20
11.3483659742
 30
0.0
 10
11.7988798858
 20
11.3529893081
 30
0.0
 10
11.7425356321
 20
11.3578240568
 30
0.0
 10
11.6737473696
 20
11.3620922329
 30
0.0
 10
11.6038022276
 20
11.364836228
 30
0.0
 10
11.5332066751
 20
11.3660358835
 30
0.0
 10
11.4624715255
 20
11.3656824118
 30
0.0
 10
11.3921087664
 20
11.3637783557
 30
0.0
 10
11.3226274959
 20
11.3603378002
 30
0.0
 10
11.2545307942
 20
11.3553859119
 30
0.0
 10
11.1989072163
 20
11.3499879769
 30
0.0
 10
11.1554834252
 20
11.3449220346
 30
0.0
 10
11.1238277796
 20
11.3408010852
 30
0.0
 10
11.0928788999
 20
11.3363356807
 30
0.0
 10
11.0626927802
 20
11.3315338848
 30
0.0
 10
11.0333240741
 20
11.3264044651
 30
0.0
 10
11.0048259175
 20
11.3209567764
 30
0.0
 10
10.9772498647
 20
11.3152007479
 30
0.0
 10
10.9506457835
 20
11.3091468536
 30
0.0
 10
10.9250617417
 20
11.3028061373
 30
0.0
 10
10.900543917
 20
11.2961901673
 30
0.0
 10
10.8771365253
 20
11.2893109983
 30
0.0
 10
10.8548817228
 20
11.2821811359
 30
0.0
 10
10.8338194948
 20
11.2748135583
 30
0.0
 10
10.8139875564
 20
11.2672216401
 30
0.0
 10
10.7954213478
 20
11.2594191111
 30
0.0
 10
10.7781537199
 20
11.2514199286
 30
0.0
 10
10.7622155581
 20
11.2432384385
 30
0.0
 10
10.7498629769
 20
11.2361653673
 30
0.0
 10
10.7406886935
 20
11.230414063
 30
0.0
 10
10.734275077
 20
11.2261375109
 30
0.0
 10
10.7282143284
 20
11.2218264469
 30
0.0
 10
10.7225090899
 20
11.217482785
 30
0.0
 10
10.7171619259
 20
11.2131083843
 30
0.0
 10
10.7121752614
 20
11.2087050978
 30
0.0
 10
10.7075512439
 20
11.2042748407
 30
0.0
 10
10.7032921248
 20
11.1998195115
 30
0.0
 10
10.699399518
 20
11.1953405589
 30
0.0
 10
10.694785128
 20
11.1894478737
 30
0.0
 10
10.6907978877
 20
11.183404118
 30
0.0
 10
10.6875326176
 20
11.1772300457
 30
0.0
 10
10.6854993753
 20
11.1726625414
 30
0.0
 10
10.6838423775
 20
11.1680833058
 30
0.0
 10
10.6825628582
 20
11.163494274
 30
0.0
 10
10.6816618308
 20
11.1588978449
 30
0.0
 10
10.6811399934
 20
11.1542964883
 30
0.0
 10
10.6809979905
 20
11.1496927948
 30
0.0
 10
10.6812358099
 20
11.1450894456
 30
0.0
 10
10.6818532733
 20
11.1404890755
 30
0.0
 10
10.6828498777
 20
11.1358943195
 30
0.0
 10
10.684224708
 20
11.1313074501
 30
0.0
 10
10.6865938793
 20
11.1251184713
 30
0.0
 10
10.6905554399
 20
11.1173797596
 30
0.0
 10
10.6945273729
 20
11.1115501919
 30
0.0
 10
10.6967279509
 20
11.1086556532
 30
0.0
  0
SPLINE
  5
401
100
AcDbEntity
  8
0
100
AcDbSpline
 62
7
  6
CONTINUOUS
 70
0
 71
3
 72
9
 73
5
 74
0
 42
0.0000001
 43
0.0000001
 44
0.0000000001
 40
0.0
 40
0.0
 40
0.0
 40
0.0
 40
0.2431496985
 40
1.0
 40
1.0
 40
1.0
 40
1.0
 10
10.6967279509
 20
11.1086556532
 30
0.0
 10
10.6972925077
 20
11.1079130611
 30
0.0
 10
10.6996552189
 20
11.1048901712
 30
0.0
 10
10.7021749497
 20
11.1019909977
 30
0.0
 10
10.7041515474
 20
11.0998640308
 30
0.0
  0
SPLINE
  5
402
100
AcDbEntity
  8
0
100
AcDbSpline
 62
7
  6
CONTINUOUS
 70
0
 71
3
 72
37
 73
33
 74
0
 42
0.0000001
 43
0.0000001
 44
0.0000000001
 40
0.0
 40
0.0
 40
0.0
 40
0.0
 40
0.0964145324
 40
0.190189259
 40
0.2807592375
 40
0.3675836705
 40
0.40943254
 40
0.4501577399
 40
0.4897020511
 40
0.5280110263
 40
0.5650333226
 40
0.6007211375
 40
0.6350302977
 40
0.6679207588
 40
0.6993571944
 40
0.7293092907
 40
0.7577525888
 40
0.7846694409
 40
0.8100498394
 40
0.8338930232
 40
0.8562093669
 40
0.8770225375
 40
0.8963728667
 40
0.9143214324
 40
0.9309549906
 40
0.9463923225
 40
0.9607906891
 40
0.9743510041
 40
0.9808967945
 40
0.9873288587
 40
0.9936838849
 40
1.0
 40
1.0
 40
1.0
 40
1.0
 10
13.7767031877
 20
7.4522673021
 30
0.0
 10
13.7767031877
 20
7.4676192341
 30
0.0
 10
13.7763779794
 20
7.4979039409
 30
0.0
 10
13.7748795962
 20
7.5425876475
 30
0.0
 10
13.7723868312
 20
7.5856978692
 30
0.0
 10
13.7694606943
 20
7.6204896541
 30
0.0
 10
13.7666147053
 20
7.6473130084
 30
0.0
 10
13.7642699403
 20
7.6666166482
 30
0.0
 10
13.7616928083
 20
7.685321865
 30
0.0
 10
13.7588875373
 20
7.7033978826
 30
0.0
 10
13.7558587918
 20
7.7208149386
 30
0.0
 10
13.7526116555
 20
7.7375443968
 30
0.0
 10
13.7491515191
 20
7.7535587689
 30
0.0
 10
13.7454841209
 20
7.7688317764
 30
0.0
 10
13.7416156031
 20
7.783338418
 30
0.0
 10
13.737552359
 20
7.7970549929
 30
0.0
 10
13.733301089
 20
7.8099591674
 30
0.0
 10
13.7288688314
 20
7.8220300512
 30
0.0
 10
13.724262772
 20
7.8332482048
 30
0.0
 10
13.7194902886
 20
7.8435957191
 30
0.0
 10
13.7145589135
 20
7.8530562906
 30
0.0
 10
13.7094760388
 20
7.8616151685
 30
0.0
 10
13.7042488935
 20
7.8692591751
 30
0.0
 10
13.6988842854
 20
7.8759766193
 30
0.0
 10
13.6933883731
 20
7.8817567897
 30
0.0
 10
13.6877661399
 20
7.8865895184
 30
0.0
 10
13.6820238066
 20
7.8904638414
 30
0.0
 10
13.6770828509
 20
7.8929123922
 30
0.0
 10
13.6731064731
 20
7.8943526877
 30
0.0
 10
13.6701368368
 20
7.8951759017
 30
0.0
 10
13.6671473193
 20
7.8957537917
 30
0.0
 10
13.6651392864
 20
7.8959755218
 30
0.0
 10
13.6641359908
 20
7.8960450946
 30
0.0
  0
SPLINE
  5
403
100
AcDbEntity
  8
0
100
AcDbSpline
 62
7
  6
CONTINUOUS
 70
0
 71
3
 72
15
 73
11
 74
0
 42
0.0000001
 43
0.0000001
 44
0.0000000001
 40
0.0
 40
0.0
 40
0.0
 40
0.0
 40
0.1247072066
 40
0.2492343426
 40
0.3737226488
 40
0.4983197185
 40
0.6231462482
 40
0.7483105644
 40
0.8739035593
 40
1.0
 40
1.0
 40
1.0
 40
1.0
 10
11.115347673
 20
10.9799161673
 30
0.0
 10
11.1186189253
 20
10.9802201541
 30
0.0
 10
11.1251832954
 20
10.9805727921
 30
0.0
 10
11.1350353744
 20
10.9803331616
 30
0.0
 10
11.144836772
 20
10.9793300948
 30
0.0
 10
11.1545391946
 20
10.977573353
 30
0.0
 10
11.1640961152
 20
10.9750760017
 30
0.0
 10
11.1734616397
 20
10.9718547805
 30
0.0
 10
11.1825904905
 20
10.9679301769
 30
0.0
 10
11.1884786592
 20
10.9648662741
 30
0.0
 10
11.1913680024
 20
10.9632270631
 30
0.0
  0
SPLINE
  5
404
100
AcDbEntity
  8
0
100
AcDbSpline
 62
7
  6
CONTINUOUS
 70
0
 71
3
 72
39
 73
35
 74
0
 42
0.0000001
 43
0.0000001
 44
0.0000000001
 40
0.0
 40
0.0
 40
0.0
 40
0.0
 40
0.0311159951
 40
0.062023302
 40
0.0927351462
 40
0.1232711779
 40
0.1536587317
 40
0.1839312106
 40
0.2141268394
 40
0.2442870987
 40
0.2744549756
 40
0.3046731307
 40
0.3349820889
 40
0.3654185443
 40
0.3960138644
 40
0.4267928812
 40
0.4577729965
 40
0.4889636213
 40
0.5203659689
 40
0.5519731774
 40
0.5837707183
 40
0.6157370645
 40
0.6478445901
 40
0.6800606397
 40
0.712348731
 40
0.7446698625
 40
0.7769838844
 40
0.809250893
 40
0.8414326244
 40
0.8734938009
 40
0.9054034054
 40
0.9371359272
 40
0.9686717714
 40
1.0
 40
1.0
 40
1.0
 40
1.0
 10
9.0551201126
 20
9.0673397538
 30
0.0
 10
9.0551201126
 20
9.074393519
 30
0.0
 10
9.0558087435
 20
9.088463947
 30
0.0
 10
9.05892312
 20
9.1092882832
 30
0.0
 10
9.0640860149
 20
9.1295686318
 30
0.0
 10
9.0712486276
 20
9.1491065888
 30
0.0
 10
9.0803424257
 20
9.1677138594
 30
0.0
 10
9.0912800599
 20
9.1852101976
 30
0.0
 10
9.1039561666
 20
9.2014262024
 30
0.0
 10
9.1182483695
 20
9.2162047469
 30
0.0
 10
9.1340183624
 20
9.2294027952
 30
0.0
 10
9.1511134315
 20
9.2408927637
 30
0.0
 10
9.1693680297
 20
9.2505637568
 30
0.0
 10
9.1886054173
 20
9.2583227155
 30
0.0
 10
9.2086394586
 20
9.2640953622
 30
0.0
 10
9.2292765609
 20
9.2678267177
 30
0.0
 10
9.2503175563
 20
9.2694815512
 30
0.0
 10
9.2715596255
 20
9.2690447978
 30
0.0
 10
9.2927982786
 20
9.2665215162
 30
0.0
 10
9.313829277
 20
9.2619367098
 30
0.0
 10
9.3344505475
 20
9.2553351004
 30
0.0
 10
9.3544641216
 20
9.2467807574
 30
0.0
 10
9.3736779509
 20
9.2363563077
 30
0.0
 10
9.3919076764
 20
9.2241621451
 30
0.0
 10
9.4089784303
 20
9.2103155945
 30
0.0
 10
9.42472646
 20
9.1949497298
 30
0.0
 10
9.4390006083
 20
9.1782120599
 30
0.0
 10
9.4516637513
 20
9.1602631747
 30
0.0
 10
9.4625942078
 20
9.1412753275
 30
0.0
 10
9.4716867664
 20
9.1214306255
 30
0.0
 10
9.4788536875
 20
9.1009196462
 30
0.0
 10
9.4840255414
 20
9.0799386112
 30
0.0
 10
9.4871522295
 20
9.0586916621
 30
0.0
 10
9.4878549084
 20
9.0444313707
 30
0.0
 10
9.4878549084
 20
9.0373294938
 30
0.0
  0
SPLINE
  5
405
100
AcDbEntity
  8
0
100
AcDbSpline
 62
7
  6
CONTINUOUS
 70
0
 71
3
 72
17
 73
13
 74
0
 42
0.0000001
 43
0.0000001
 44
0.0000000001
 40
0.0
 40
0.0
 40
0.0
 40
0.0
 40
0.1273378329
 40
0.2538400829
 40
0.3795569053
 40
0.5045640055
 40
0.6289661823
 40
0.7528920146
 40
0.8147421474
 40
0.8765298007
 40
0.9382754536
 40
1.0
 40
1.0
 40
1.0
 40
1.0
 10
7.9072137926
 20
10.6120636368
 30
0.0
 10
7.9072137926
 20
10.6216849978
 30
0.0
 10
7.9081324624
 20
10.6408778813
 30
0.0
 10
7.9122869511
 20
10.669298068
 30
0.0
 10
7.9191758071
 20
10.6970040823
 30
0.0
 10
7.9287370491
 20
10.7237371361
 30
0.0
 10
7.9408818867
 20
10.749249402
 30
0.0
 10
7.9530759269
 20
10.769315694
 30
0.0
 10
7.9639922505
 20
10.784513558
 30
0.0
 10
7.9727403264
 20
10.795461363
 30
0.0
 10
7.9820323979
 20
10.8059377295
 30
0.0
 10
7.9885769616
 20
10.8125929961
 30
0.0
 10
7.9919314082
 20
10.815833123
 30
0.0
  0
SPLINE
  5
406
100
AcDbEntity
  8
0
100
AcDbSpline
 62
7
  6
CONTINUOUS
 70
0
 71
3
 72
15
 73
11
 74
0
 42
0.0000001
 43
0.0000001
 44
0.0000000001
 40
0.0
 40
0.0
 40
0.0
 40
0.0
 40
0.1273483438
 40
0.2538606048
 40
0.3795878922
 40
0.5046051199
 40
0.6290174392
 40
0.7529533668
 40
0.8765605676
 40
1.0
 40
1.0
 40
1.0
 40
1.0
 10
8.1077202839
 20
10.7053380466
 30
0.0
 10
8.1077202839
 20
10.7118672909
 30
0.0
 10
8.1083437025
 20
10.7248919399
 30
0.0
 10
8.111163048
 20
10.7441784021
 30
0.0
 10
8.1158379949
 20
10.762980258
 30
0.0
 10
8.1223263073
 20
10.7811216735
 30
0.0
 10
8.1305684751
 20
10.7984353364
 30
0.0
 10
8.1404893698
 20
10.8147613564
 30
0.0
 10
8.1519956639
 20
10.8299467944
 30
0.0
 10
8.1606593411
 20
10.8392228769
 30
0.0
 10
8.1652114004
 20
10.8436197922
 30
0.0
  0
SPLINE
  5
407
100
AcDbEntity
  8
0
100
AcDbSpline
 62
7
  6
CONTINUOUS
 70
0
 71
3
 72
17
 73
13
 74
0
 42
0.0000001
 43
0.0000001
 44
0.0000000001
 40
0.0
 40
0.0
 40
0.0
 40
0.0
 40
0.1273378329
 40
0.2538400829
 40
0.3795569053
 40
0.5045640055
 40
0.6289661823
 40
0.7528920146
 40
0.8147421474
 40
0.8765298007
 40
0.9382754536
 40
1.0
 40
1.0
 40
1.0
 40
1.0
 10
12.3504728568
 20
5.3297908006
 30
0.0
 10
12.3504728568
 20
5.3394121615
 30
0.0
 10
12.3513915266
 20
5.3586050451
 30
0.0
 10
12.3555460153
 20
5.3870252318
 30
0.0
 10
12.3624348713
 20
5.4147312461
 30
0.0
 10
12.3719961133
 20
5.4414642998
 30
0.0
 10
12.3841409509
 20
5.4669765657
 30
0.0
 10
12.3963349911
 20
5.4870428578
 30
0.0
 10
12.4072513147
 20
5.5022407217
 30
0.0
 10
12.4159993906
 20
5.5131885267
 30
0.0
 10
12.4252914621
 20
5.5236648933
 30
0.0
 10
12.4318360258
 20
5.5303201599
 30
0.0
 10
12.4351904724
 20
5.5335602868
 30
0.0
  0
SPLINE
  5
408
100
AcDbEntity
  8
0
100
AcDbSpline
 62
7
  6
CONTINUOUS
 70
0
 71
3
 72
39
 73
35
 74
0
 42
0.0000001
 43
0.0000001
 44
0.0000000001
 40
0.0
 40
0.0
 40
0.0
 40
0.0
 40
0.0311159951
 40
0.062023302
 40
0.0927351462
 40
0.1232711779
 40
0.1536587317
 40
0.1839312106
 40
0.2141268394
 40
0.2442870987
 40
0.2744549756
 40
0.3046731307
 40
0.3349820889
 40
0.3654185443
 40
0.3960138644
 40
0.4267928812
 40
0.4577729965
 40
0.4889636213
 40
0.5203659689
 40
0.5519731774
 40
0.5837707183
 40
0.6157370645
 40
0.6478445901
 40
0.6800606397
 40
0.712348731
 40
0.7446698625
 40
0.7769838844
 40
0.809250893
 40
0.8414326244
 40
0.8734938009
 40
0.9054034054
 40
0.9371359272
 40
0.9686717714
 40
1.0
 40
1.0
 40
1.0
 40
1.0
 10
9.4878549084
 20
7.0011577387
 30
0.0
 10
9.4878549084
 20
6.9941039734
 30
0.0
 10
9.4871662774
 20
6.9800335454
 30
0.0
 10
9.4840519009
 20
6.9592092092
 30
0.0
 10
9.478889006
 20
6.9389288607
 30
0.0
 10
9.4717263933
 20
6.9193909036
 30
0.0
 10
9.4626325952
 20
6.900783633
 30
0.0
 10
9.451694961
 20
6.8832872948
 30
0.0
 10
9.4390188543
 20
6.86707129
 30
0.0
 10
9.4247266515
 20
6.8522927456
 30
0.0
 10
9.4089566585
 20
6.8390946972
 30
0.0
 10
9.3918615895
 20
6.8276047287
 30
0.0
 10
9.3736069912
 20
6.8179337356
 30
0.0
 10
9.3543696036
 20
6.8101747769
 30
0.0
 10
9.3343355623
 20
6.8044021302
 30
0.0
 10
9.3136984601
 20
6.8006707747
 30
0.0
 10
9.2926574646
 20
6.7990159412
 30
0.0
 10
9.2714153954
 20
6.7994526946
 30
0.0
 10
9.2501767424
 20
6.8019759762
 30
0.0
 10
9.2291457439
 20
6.8065607826
 30
0.0
 10
9.2085244734
 20
6.8131623921
 30
0.0
 10
9.1885108993
 20
6.821716735
 30
0.0
 10
9.1692970701
 20
6.8321411847
 30
0.0
 10
9.1510673445
 20
6.8443353473
 30
0.0
 10
9.1339965906
 20
6.8581818979
 30
0.0
 10
9.1182485609
 20
6.8735477626
 30
0.0
 10
9.1039744127
 20
6.8902854326
 30
0.0
 10
9.0913112697
 20
6.9082343177
 30
0.0
 10
9.0803808132
 20
6.9272221649
 30
0.0
 10
9.0712882545
 20
6.9470668669
 30
0.0
 10
9.0641213334
 20
6.9675778463
 30
0.0
 10
9.0589494795
 20
6.9885588812
 30
0.0
 10
9.0558227914
 20
7.0098058303
 30
0.0
 10
9.0551201126
 20
7.0240661217
 30
0.0
 10
9.0551201126
 20
7.0311679987
 30
0.0
  0
SPLINE
  5
409
100
AcDbEntity
  8
0
100
AcDbSpline
 62
7
  6
CONTINUOUS
 70
0
 71
3
 72
39
 73
35
 74
0
 42
0.0000001
 43
0.0000001
 44
0.0000000001
 40
0.0
 40
0.0
 40
0.0
 40
0.0
 40
0.0311159951
 40
0.062023302
 40
0.0927351462
 40
0.1232711779
 40
0.1536587317
 40
0.1839312106
 40
0.2141268394
 40
0.2442870987
 40
0.2744549756
 40
0.3046731307
 40
0.3349820889
 40
0.3654185443
 40
0.3960138644
 40
0.4267928812
 40
0.4577729965
 40
0.4889636213
 40
0.5203659689
 40
0.5519731774
 40
0.5837707183
 40
0.6157370645
 40
0.6478445901
 40
0.6800606397
 40
0.712348731
 40
0.7446698625
 40
0.7769838844
 40
0.809250893
 40
0.8414326244
 40
0.8734938009
 40
0.9054034054
 40
0.9371359272
 40
0.9686717714
 40
1.0
 40
1.0
 40
1.0
 40
1.0
 10
9.0551201126
 20
7.0311679987
 30
0.0
 10
9.0551201126
 20
7.0382217639
 30
0.0
 10
9.0558087435
 20
7.0522921919
 30
0.0
 10
9.05892312
 20
7.0731165281
 30
0.0
 10
9.0640860149
 20
7.0933968767
 30
0.0
 10
9.0712486276
 20
7.1129348337
 30
0.0
 10
9.0803424257
 20
7.1315421043
 30
0.0
 10
9.0912800599
 20
7.1490384425
 30
0.0
 10
9.1039561666
 20
7.1652544473
 30
0.0
 10
9.1182483695
 20
7.1800329918
 30
0.0
 10
9.1340183624
 20
7.1932310401
 30
0.0
 10
9.1511134315
 20
7.2047210086
 30
0.0
 10
9.1693680297
 20
7.2143920017
 30
0.0
 10
9.1886054173
 20
7.2221509605
 30
0.0
 10
9.2086394586
 20
7.2279236071
 30
0.0
 10
9.2292765609
 20
7.2316549626
 30
0.0
 10
9.2503175563
 20
7.2333097961
 30
0.0
 10
9.2715596255
 20
7.2328730427
 30
0.0
 10
9.2927982786
 20
7.2303497611
 30
0.0
 10
9.313829277
 20
7.2257649547
 30
0.0
 10
9.3344505475
 20
7.2191633453
 30
0.0
 10
9.3544641216
 20
7.2106090023
 30
0.0
 10
9.3736779509
 20
7.2001845526
 30
0.0
 10
9.3919076764
 20
7.18799039
 30
0.0
 10
9.4089784303
 20
7.1741438394
 30
0.0
 10
9.42472646
 20
7.1587779747
 30
0.0
 10
9.4390006083
 20
7.1420403048
 30
0.0
 10
9.4516637513
 20
7.1240914196
 30
0.0
 10
9.4625942078
 20
7.1051035724
 30
0.0
 10
9.4716867664
 20
7.0852588704
 30
0.0
 10
9.4788536875
 20
7.0647478911
 30
0.0
 10
9.4840255414
 20
7.0437668561
 30
0.0
 10
9.4871522295
 20
7.022519907
 30
0.0
 10
9.4878549084
 20
7.0082596157
 30
0.0
 10
9.4878549084
 20
7.0011577387
 30
0.0
  0
SPLINE
  5
40A
100
AcDbEntity
  8
0
100
AcDbSpline
 62
7
  6
CONTINUOUS
 70
0
 71
3
 72
39
 73
35
 74
0
 42
0.0000001
 43
0.0000001
 44
0.0000000001
 40
0.0
 40
0.0
 40
0.0
 40
0.0
 40
0.0311159951
 40
0.062023302
 40
0.0927351462
 40
0.1232711779
 40
0.1536587317
 40
0.1839312106
 40
0.2141268394
 40
0.2442870987
 40
0.2744549756
 40
0.3046731307
 40
0.3349820889
 40
0.3654185443
 40
0.3960138644
 40
0.4267928812
 40
0.4577729965
 40
0.4889636213
 40
0.5203659689
 40
0.5519731774
 40
0.5837707183
 40
0.6157370645
 40
0.6478445901
 40
0.6800606397
 40
0.712348731
 40
0.7446698625
 40
0.7769838844
 40
0.809250893
 40
0.8414326244
 40
0.8734938009
 40
0.9054034054
 40
0.9371359272
 40
0.9686717714
 40
1.0
 40
1.0
 40
1.0
 40
1.0
 10
9.4878549084
 20
9.0373294938
 30
0.0
 10
9.4878549084
 20
9.0302757285
 30
0.0
 10
9.4871662774
 20
9.0162053005
 30
0.0
 10
9.4840519009
 20
8.9953809643
 30
0.0
 10
9.478889006
 20
8.9751006158
 30
0.0
 10
9.4717263933
 20
8.9555626587
 30
0.0
 10
9.4626325952
 20
8.9369553881
 30
0.0
 10
9.451694961
 20
8.9194590499
 30
0.0
 10
9.4390188543
 20
8.9032430451
 30
0.0
 10
9.4247266515
 20
8.8884645006
 30
0.0
 10
9.4089566585
 20
8.8752664523
 30
0.0
 10
9.3918615895
 20
8.8637764838
 30
0.0
 10
9.3736069912
 20
8.8541054907
 30
0.0
 10
9.3543696036
 20
8.846346532
 30
0.0
 10
9.3343355623
 20
8.8405738853
 30
0.0
 10
9.3136984601
 20
8.8368425298
 30
0.0
 10
9.2926574646
 20
8.8351876963
 30
0.0
 10
9.2714153954
 20
8.8356244497
 30
0.0
 10
9.2501767424
 20
8.8381477313
 30
0.0
 10
9.2291457439
 20
8.8427325377
 30
0.0
 10
9.2085244734
 20
8.8493341472
 30
0.0
 10
9.1885108993
 20
8.8578884901
 30
0.0
 10
9.1692970701
 20
8.8683129398
 30
0.0
 10
9.1510673445
 20
8.8805071024
 30
0.0
 10
9.1339965906
 20
8.894353653
 30
0.0
 10
9.1182485609
 20
8.9097195177
 30
0.0
 10
9.1039744127
 20
8.9264571877
 30
0.0
 10
9.0913112697
 20
8.9444060728
 30
0.0
 10
9.0803808132
 20
8.96339392
 30
0.0
 10
9.0712882545
 20
8.983238622
 30
0.0
 10
9.0641213334
 20
9.0037496014
 30
0.0
 10
9.0589494795
 20
9.0247306363
 30
0.0
 10
9.0558227914
 20
9.0459775854
 30
0.0
 10
9.0551201126
 20
9.0602378768
 30
0.0
 10
9.0551201126
 20
9.0673397538
 30
0.0
  0
SPLINE
  5
40B
100
AcDbEntity
  8
0
100
AcDbSpline
 62
4
  6
CONTINUOUS
 70
0
 71
3
 72
441
 73
437
 74
0
 42
0.0000001
 43
0.0000001
 44
0.0000000001
 40
0.0
 40
0.0
 40
0.0
 40
0.0
 40
0.015625
 40
0.0234375
 40
0.03125
 40
0.0390625
 40
0.04296875
 40
0.046875
 40
0.05078125
 40
0.052734375
 40
0.0546875
 40
0.056640625
 40
0.05859375
 40
0.0595703125
 40
0.060546875
 40
0.0615234375
 40
0.0620117188
 40
0.0622558594
 40
0.0625
 40
0.0627441406
 40
0.0629882812
 40
0.0634765625
 40
0.064453125
 40
0.0654296875
 40
0.06640625
 40
0.068359375
 40
0.0703125
 40
0.072265625
 40
0.07421875
 40
0.078125
 40
0.08203125
 40
0.0859375
 40
0.09375
 40
0.1015625
 40
0.10546875
 40
0.109375
 40
0.11328125
 40
0.115234375
 40
0.1171875
 40
0.119140625
 40
0.12109375
 40
0.1220703125
 40
0.123046875
 40
0.1240234375
 40
0.1245117188
 40
0.1247558594
 40
0.125
 40
0.1252441406
 40
0.1254882812
 40
0.1259765625
 40
0.126953125
 40
0.1279296875
 40
0.12890625
 40
0.130859375
 40
0.1328125
 40
0.134765625
 40
0.13671875
 40
0.140625
 40
0.14453125
 40
0.1484375
 40
0.15625
 40
0.1640625
 40
0.16796875
 40
0.171875
 40
0.17578125
 40
0.177734375
 40
0.1796875
 40
0.181640625
 40
0.18359375
 40
0.1845703125
 40
0.185546875
 40
0.1860351562
 40
0.1865234375
 40
0.1870117188
 40
0.1872558594
 40
0.1875
 40
0.1877441406
 40
0.1879882812
 40
0.1884765625
 40
0.1889648438
 40
0.189453125
 40
0.1904296875
 40
0.19140625
 40
0.193359375
 40
0.1953125
 40
0.197265625
 40
0.19921875
 40
0.203125
 40
0.20703125
 40
0.2109375
 40
0.21875
 40
0.2265625
 40
0.23046875
 40
0.234375
 40
0.23828125
 40
0.240234375
 40
0.2421875
 40
0.244140625
 40
0.24609375
 40
0.2470703125
 40
0.248046875
 40
0.2485351562
 40
0.2490234375
 40
0.2495117188
 40
0.2497558594
 40
0.25
 40
0.2502441406
 40
0.2504882812
 40
0.2509765625
 40
0.2514648438
 40
0.251953125
 40
0.2529296875
 40
0.25390625
 40
0.255859375
 40
0.2578125
 40
0.259765625
 40
0.26171875
 40
0.265625
 40
0.26953125
 40
0.2734375
 40
0.28125
 40
0.2890625
 40
0.29296875
 40
0.296875
 40
0.30078125
 40
0.302734375
 40
0.3046875
 40
0.306640625
 40
0.30859375
 40
0.3095703125
 40
0.310546875
 40
0.3110351562
 40
0.3115234375
 40
0.3120117188
 40
0.3122558594
 40
0.3125
 40
0.3127441406
 40
0.3129882812
 40
0.3134765625
 40
0.3139648438
 40
0.314453125
 40
0.3154296875
 40
0.31640625
 40
0.318359375
 40
0.3203125
 40
0.322265625
 40
0.32421875
 40
0.328125
 40
0.33203125
 40
0.3359375
 40
0.34375
 40
0.3515625
 40
0.35546875
 40
0.359375
 40
0.36328125
 40
0.365234375
 40
0.3671875
 40
0.369140625
 40
0.37109375
 40
0.3720703125
 40
0.373046875
 40
0.3740234375
 40
0.3745117188
 40
0.3747558594
 40
0.375
 40
0.3752441406
 40
0.3754882812
 40
0.3759765625
 40
0.376953125
 40
0.3779296875
 40
0.37890625
 40
0.380859375
 40
0.3828125
 40
0.384765625
 40
0.38671875
 40
0.390625
 40
0.39453125
 40
0.3984375
 40
0.40625
 40
0.4140625
 40
0.41796875
 40
0.421875
 40
0.42578125
 40
0.427734375
 40
0.4296875
 40
0.431640625
 40
0.43359375
 40
0.4345703125
 40
0.435546875
 40
0.4360351562
 40
0.4365234375
 40
0.4370117188
 40
0.4372558594
 40
0.4375
 40
0.4377441406
 40
0.4379882812
 40
0.4384765625
 40
0.4389648438
 40
0.439453125
 40
0.4404296875
 40
0.44140625
 40
0.443359375
 40
0.4453125
 40
0.447265625
 40
0.44921875
 40
0.453125
 40
0.45703125
 40
0.4609375
 40
0.46875
 40
0.4765625
 40
0.48046875
 40
0.484375
 40
0.48828125
 40
0.490234375
 40
0.4921875
 40
0.494140625
 40
0.49609375
 40
0.4970703125
 40
0.498046875
 40
0.4990234375
 40
0.4995117188
 40
0.4997558594
 40
0.5
 40
0.5002441406
 40
0.5004882812
 40
0.5009765625
 40
0.501953125
 40
0.5029296875
 40
0.50390625
 40
0.505859375
 40
0.5078125
 40
0.509765625
 40
0.51171875
 40
0.515625
 40
0.51953125
 40
0.5234375
 40
0.53125
 40
0.5390625
 40
0.54296875
 40
0.546875
 40
0.55078125
 40
0.552734375
 40
0.5546875
 40
0.556640625
 40
0.55859375
 40
0.5595703125
 40
0.560546875
 40
0.5615234375
 40
0.5620117188
 40
0.5622558594
 40
0.5625
 40
0.5627441406
 40
0.5629882812
 40
0.5634765625
 40
0.564453125
 40
0.5654296875
 40
0.56640625
 40
0.568359375
 40
0.5703125
 40
0.572265625
 40
0.57421875
 40
0.578125
 40
0.58203125
 40
0.5859375
 40
0.59375
 40
0.6015625
 40
0.60546875
 40
0.609375
 40
0.61328125
 40
0.615234375
 40
0.6171875
 40
0.619140625
 40
0.62109375
 40
0.6220703125
 40
0.623046875
 40
0.6240234375
 40
0.6245117188
 40
0.6247558594
 40
0.625
 40
0.6252441406
 40
0.6254882812
 40
0.6259765625
 40
0.626953125
 40
0.6279296875
 40
0.62890625
 40
0.630859375
 40
0.6328125
 40
0.634765625
 40
0.63671875
 40
0.640625
 40
0.64453125
 40
0.6484375
 40
0.65625
 40
0.6640625
 40
0.66796875
 40
0.671875
 40
0.67578125
 40
0.677734375
 40
0.6796875
 40
0.681640625
 40
0.68359375
 40
0.6845703125
 40
0.685546875
 40
0.6865234375
 40
0.6870117188
 40
0.6872558594
 40
0.6875
 40
0.6877441406
 40
0.6879882812
 40
0.6884765625
 40
0.689453125
 40
0.6904296875
 40
0.69140625
 40
0.693359375
 40
0.6953125
 40
0.697265625
 40
0.69921875
 40
0.703125
 40
0.70703125
 40
0.7109375
 40
0.71875
 40
0.7265625
 40
0.73046875
 40
0.734375
 40
0.73828125
 40
0.740234375
 40
0.7421875
 40
0.744140625
 40
0.74609375
 40
0.7470703125
 40
0.748046875
 40
0.7490234375
 40
0.7495117188
 40
0.7497558594
 40
0.75
 40
0.7502441406
 40
0.7504882812
 40
0.7509765625
 40
0.751953125
 40
0.7529296875
 40
0.75390625
 40
0.755859375
 40
0.7578125
 40
0.759765625
 40
0.76171875
 40
0.765625
 40
0.76953125
 40
0.7734375
 40
0.78125
 40
0.7890625
 40
0.79296875
 40
0.796875
 40
0.80078125
 40
0.802734375
 40
0.8046875
 40
0.806640625
 40
0.80859375
 40
0.8095703125
 40
0.810546875
 40
0.8115234375
 40
0.8120117188
 40
0.8122558594
 40
0.8125
 40
0.8127441406
 40
0.8129882812
 40
0.8134765625
 40
0.814453125
 40
0.8154296875
 40
0.81640625
 40
0.818359375
 40
0.8203125
 40
0.822265625
 40
0.82421875
 40
0.828125
 40
0.83203125
 40
0.8359375
 40
0.84375
 40
0.8515625
 40
0.85546875
 40
0.859375
 40
0.86328125
 40
0.865234375
 40
0.8671875
 40
0.869140625
 40
0.87109375
 40
0.8720703125
 40
0.873046875
 40
0.8740234375
 40
0.8745117188
 40
0.8747558594
 40
0.875
 40
0.8752441406
 40
0.8754882812
 40
0.8759765625
 40
0.876953125
 40
0.8779296875
 40
0.87890625
 40
0.880859375
 40
0.8828125
 40
0.884765625
 40
0.88671875
 40
0.890625
 40
0.89453125
 40
0.8984375
 40
0.90625
 40
0.9140625
 40
0.91796875
 40
0.921875
 40
0.92578125
 40
0.927734375
 40
0.9296875
 40
0.931640625
 40
0.93359375
 40
0.9345703125
 40
0.935546875
 40
0.9365234375
 40
0.9370117188
 40
0.9372558594
 40
0.9375
 40
0.9377441406
 40
0.9379882812
 40
0.9384765625
 40
0.939453125
 40
0.9404296875
 40
0.94140625
 40
0.943359375
 40
0.9453125
 40
0.947265625
 40
0.94921875
 40
0.953125
 40
0.95703125
 40
0.9609375
 40
0.96875
 40
0.9765625
 40
0.984375
 40
1.0
 40
1.0
 40
1.0
 40
1.0
 10
10.6928667463
 20
8.0136453713
 30
0.0
 10
10.6966265708
 20
8.0137532806
 30
0.0
 10
10.7022663076
 20
8.0139151445
 30
0.0
 10
10.7097859567
 20
8.0141309632
 30
0.0
 10
10.7154256935
 20
8.0142928271
 30
0.0
 10
10.7201254742
 20
8.0144277138
 30
0.0
 10
10.7238852987
 20
8.014535623
 30
0.0
 10
10.7267051671
 20
8.0146165553
 30
0.0
 10
10.7290550576
 20
8.0146839976
 30
0.0
 10
10.7309349695
 20
8.0147379543
 30
0.0
 10
10.7323449049
 20
8.014778414
 30
0.0
 10
10.7337548345
 20
8.0148189034
 30
0.0
 10
10.7349297939
 20
8.0148525522
 30
0.0
 10
10.735869721
 20
8.0148796781
 30
0.0
 10
10.7365747767
 20
8.0148994574
 30
0.0
 10
10.7371619721
 20
8.0149177377
 30
0.0
 10
10.7375736978
 20
8.0149270063
 30
0.0
 10
10.7378078938
 20
8.0149378107
 30
0.0
 10
10.7379865715
 20
8.0149303977
 30
0.0
 10
10.7381536644
 20
8.0149822959
 30
0.0
 10
10.7383804958
 20
8.015030805
 30
0.0
 10
10.738775568
 20
8.0151253351
 30
0.0
 10
10.7393409412
 20
8.0152553386
 30
0.0
 10
10.7400189677
 20
8.0154134999
 30
0.0
 10
10.7409231502
 20
8.0156236281
 30
0.0
 10
10.7420533278
 20
8.0158865469
 30
0.0
 10
10.7434095627
 20
8.0162019386
 30
0.0
 10
10.7447657917
 20
8.01651736
 30
0.0
 10
10.7465740991
 20
8.0169379116
 30
0.0
 10
10.7488344826
 20
8.0174636045
 30
0.0
 10
10.7515469432
 20
8.0180944345
 30
0.0
 10
10.7551635571
 20
8.0189355417
 30
0.0
 10
10.7596843246
 20
8.0199869255
 30
0.0
 10
10.7642050921
 20
8.0210383095
 30
0.0
 10
10.7678217061
 20
8.0218794165
 30
0.0
 10
10.7705341665
 20
8.0225102471
 30
0.0
 10
10.7727945506
 20
8.0230359381
 30
0.0
 10
10.7746028568
 20
8.0234564936
 30
0.0
 10
10.7759590895
 20
8.0237719028
 30
0.0
 10
10.7773153107
 20
8.0240873404
 30
0.0
 10
10.7784455305
 20
8.0243501167
 30
0.0
 10
10.7793496271
 20
8.0245605355
 30
0.0
 10
10.7800279161
 20
8.0247178092
 30
0.0
 10
10.7805924681
 20
8.0248505897
 30
0.0
 10
10.7809890063
 20
8.0249401625
 30
0.0
 10
10.7812134888
 20
8.0249966144
 30
0.0
 10
10.7813877966
 20
8.025024115
 30
0.0
 10
10.7815393761
 20
8.025108335
 30
0.0
 10
10.7817494099
 20
8.0252008441
 30
0.0
 10
10.7821132753
 20
8.0253719528
 30
0.0
 10
10.7826350142
 20
8.0256115747
 30
0.0
 10
10.7832602743
 20
8.0259011837
 30
0.0
 10
10.7840942432
 20
8.0262866085
 30
0.0
 10
10.7851366052
 20
8.0267686367
 30
0.0
 10
10.7863874821
 20
8.0273469646
 30
0.0
 10
10.7876383476
 20
8.0279253208
 30
0.0
 10
10.7893061722
 20
8.0286964526
 30
0.0
 10
10.7913909517
 20
8.0296603707
 30
0.0
 10
10.7938926876
 20
8.0308170709
 30
0.0
 10
10.7972283353
 20
8.0323593384
 30
0.0
 10
10.801397895
 20
8.0342871726
 30
0.0
 10
10.8055674546
 20
8.0362150069
 30
0.0
 10
10.8089031024
 20
8.0377572743
 30
0.0
 10
10.8114048382
 20
8.0389139748
 30
0.0
 10
10.8134896179
 20
8.0398778922
 30
0.0
 10
10.8151574421
 20
8.0406490254
 30
0.0
 10
10.8164083091
 20
8.0412273772
 30
0.0
 10
10.8176591801
 20
8.0418057216
 30
0.0
 10
10.8187015604
 20
8.0422876986
 30
0.0
 10
10.819535492
 20
8.0426732278
 30
0.0
 10
10.8200566368
 20
8.0429143027
 30
0.0
 10
10.8204736957
 20
8.0431068899
 30
0.0
 10
10.8207860983
 20
8.043252077
 30
0.0
 10
10.8210476795
 20
8.0433706908
 30
0.0
 10
10.8212541505
 20
8.0434709097
 30
0.0
 10
10.8214166382
 20
8.0435315155
 30
0.0
 10
10.8215499851
 20
8.0436476906
 30
0.0
 10
10.8217379601
 20
8.0437831796
 30
0.0
 10
10.8219694365
 20
8.0439592008
 30
0.0
 10
10.8222487031
 20
8.0441675755
 30
0.0
 10
10.8226205364
 20
8.0444464041
 30
0.0
 10
10.8230855068
 20
8.044794599
 30
0.0
 10
10.8238293595
 20
8.0453519014
 30
0.0
 10
10.8247592097
 20
8.0460484639
 30
0.0
 10
10.8258750152
 20
8.046884367
 30
0.0
 10
10.8269908246
 20
8.0477202626
 30
0.0
 10
10.8284785692
 20
8.0488347927
 30
0.0
 10
10.8303382504
 20
8.0502279545
 30
0.0
 10
10.8325698675
 20
8.0518997489
 30
0.0
 10
10.8355453572
 20
8.054128808
 30
0.0
 10
10.8392647192
 20
8.056915132
 30
0.0
 10
10.8429840813
 20
8.0597014559
 30
0.0
 10
10.8459595709
 20
8.061930515
 30
0.0
 10
10.8481911882
 20
8.0636023093
 30
0.0
 10
10.850050869
 20
8.0649954715
 30
0.0
 10
10.8515386143
 20
8.0661100007
 30
0.0
 10
10.8526544216
 20
8.0669458991
 30
0.0
 10
10.8537702352
 20
8.0677817917
 30
0.0
 10
10.8547000602
 20
8.0684783868
 30
0.0
 10
10.8554439642
 20
8.0690356229
 30
0.0
 10
10.8559088041
 20
8.0693839863
 30
0.0
 10
10.8562809053
 20
8.069662469
 30
0.0
 10
10.8565593533
 20
8.0698719007
 30
0.0
 10
10.8567933909
 20
8.0700446149
 30
0.0
 10
10.8569761405
 20
8.0701868507
 30
0.0
 10
10.8571254458
 20
8.0702824217
 30
0.0
 10
10.8572280191
 20
8.0704203837
 30
0.0
 10
10.8573811076
 20
8.0705895253
 30
0.0
 10
10.8575668675
 20
8.0708060328
 30
0.0
 10
10.8577921767
 20
8.0710636672
 30
0.0
 10
10.8580917516
 20
8.0714079393
 30
0.0
 10
10.858466507
 20
8.0718380193
 30
0.0
 10
10.8590659553
 20
8.0725262927
 30
0.0
 10
10.8598153207
 20
8.0733865845
 30
0.0
 10
10.8607145356
 20
8.0744189561
 30
0.0
 10
10.8616137568
 20
8.075451322
 30
0.0
 10
10.8628127162
 20
8.0768278118
 30
0.0
 10
10.8643114162
 20
8.0785484234
 30
0.0
 10
10.8661098559
 20
8.0806131577
 30
0.0
 10
10.8685077755
 20
8.0833661365
 30
0.0
 10
10.8715051751
 20
8.0868073602
 30
0.0
 10
10.8745025747
 20
8.0902485838
 30
0.0
 10
10.8769004944
 20
8.0930015627
 30
0.0
 10
10.8786989342
 20
8.0950662968
 30
0.0
 10
10.8801976337
 20
8.0967869088
 30
0.0
 10
10.881396594
 20
8.0981633979
 30
0.0
 10
10.8822958125
 20
8.099195766
 30
0.0
 10
10.8831950377
 20
8.1002281292
 30
0.0
 10
10.8839443711
 20
8.1010884472
 30
0.0
 10
10.8845438846
 20
8.1017766672
 30
0.0
 10
10.8849184742
 20
8.1022068831
 30
0.0
 10
10.8852183892
 20
8.1025508761
 30
0.0
 10
10.8854426593
 20
8.1028093631
 30
0.0
 10
10.8856316703
 20
8.1030232032
 30
0.0
 10
10.8857781261
 20
8.1031977868
 30
0.0
 10
10.8859009554
 20
8.1033191294
 30
0.0
 10
10.8859742111
 20
8.1034770966
 30
0.0
 10
10.8860892021
 20
8.1036749261
 30
0.0
 10
10.8862269996
 20
8.1039266023
 30
0.0
 10
10.8863948996
 20
8.104226735
 30
0.0
 10
10.886617878
 20
8.1046275682
 30
0.0
 10
10.8868969052
 20
8.1051283849
 30
0.0
 10
10.8873431787
 20
8.1059298173
 30
0.0
 10
10.887901079
 20
8.1069315646
 30
0.0
 10
10.8885705342
 20
8.1081336799
 30
0.0
 10
10.8892399962
 20
8.1093357903
 30
0.0
 10
10.8901326098
 20
8.1109386059
 30
0.0
 10
10.8912483776
 20
8.1129421247
 30
0.0
 10
10.8925872986
 20
8.1153463476
 30
0.0
 10
10.8943725268
 20
8.118551978
 30
0.0
 10
10.896604062
 20
8.122559016
 30
0.0
 10
10.8988355971
 20
8.126566054
 30
0.0
 10
10.9006208253
 20
8.1297716844
 30
0.0
 10
10.9019597461
 20
8.1321759074
 30
0.0
 10
10.9030755147
 20
8.1341794259
 30
0.0
 10
10.9039681268
 20
8.1357822421
 30
0.0
 10
10.9046375932
 20
8.1369843507
 30
0.0
 10
10.905307032
 20
8.1381864726
 30
0.0
 10
10.9058649834
 20
8.1391881993
 30
0.0
 10
10.9063111525
 20
8.1399896739
 30
0.0
 10
10.906646304
 20
8.140590525
 30
0.0
 10
10.9069239281
 20
8.1410920447
 30
0.0
 10
10.9071215399
 20
8.1414415181
 30
0.0
 10
10.9072293474
 20
8.1416437005
 30
0.0
 10
10.9073246081
 20
8.1417883419
 30
0.0
 10
10.9073648052
 20
8.1419597228
 30
0.0
 10
10.9074376081
 20
8.1421789037
 30
0.0
 10
10.9075560644
 20
8.1425668158
 30
0.0
 10
10.9077299663
 20
8.1431187041
 30
0.0
 10
10.9079366459
 20
8.1437819425
 30
0.0
 10
10.9082129183
 20
8.1446659206
 30
0.0
 10
10.9085580187
 20
8.1457710099
 30
0.0
 10
10.9089722421
 20
8.147097067
 30
0.0
 10
10.909386438
 20
8.1484231375
 30
0.0
 10
10.9099387088
 20
8.1501912268
 30
0.0
 10
10.910629044
 20
8.1524013401
 30
0.0
 10
10.9114574477
 20
8.1550534753
 30
0.0
 10
10.9125619854
 20
8.1585896558
 30
0.0
 10
10.9139426578
 20
8.1630098814
 30
0.0
 10
10.9153233301
 20
8.167430107
 30
0.0
 10
10.9164278679
 20
8.1709662875
 30
0.0
 10
10.9172562713
 20
8.1736184228
 30
0.0
 10
10.9179466072
 20
8.1758285357
 30
0.0
 10
10.9184988766
 20
8.1775966258
 30
0.0
 10
10.9189130767
 20
8.178922694
 30
0.0
 10
10.9193272846
 20
8.1802487595
 30
0.0
 10
10.9196724333
 20
8.1813538229
 30
0.0
 10
10.9199486072
 20
8.1822378536
 30
0.0
 10
10.9201210907
 20
8.1827904185
 30
0.0
 10
10.9202593644
 20
8.1832323658
 30
0.0
 10
10.920362284
 20
8.1835641127
 30
0.0
 10
10.9204505498
 20
8.1838396573
 30
0.0
 10
10.9205155565
 20
8.1840621365
 30
0.0
 10
10.9205796297
 20
8.184223412
 30
0.0
 10
10.920585233
 20
8.1844060012
 30
0.0
 10
10.9206131283
 20
8.1846420082
 30
0.0
 10
10.9206409899
 20
8.1849395714
 30
0.0
 10
10.9206774233
 20
8.1852955539
 30
0.0
 10
10.9207249536
 20
8.1857705791
 30
0.0
 10
10.9207847251
 20
8.1863642298
 30
0.0
 10
10.9208801591
 20
8.1873141441
 30
0.0
 10
10.9209995203
 20
8.1885015119
 30
0.0
 10
10.9211427243
 20
8.1899263639
 30
0.0
 10
10.9212859362
 20
8.1913512131
 30
0.0
 10
10.9214768826
 20
8.193251013
 30
0.0
 10
10.9217155666
 20
8.1956257626
 30
0.0
 10
10.922001987
 20
8.1984754622
 30
0.0
 10
10.9223838809
 20
8.2022750616
 30
0.0
 10
10.9228612484
 20
8.2070245609
 30
0.0
 10
10.9233386157
 20
8.2117740602
 30
0.0
 10
10.9237205098
 20
8.2155736596
 30
0.0
 10
10.9240069299
 20
8.2184233592
 30
0.0
 10
10.9242456147
 20
8.2207981089
 30
0.0
 10
10.9244365595
 20
8.2226979085
 30
0.0
 10
10.9245797761
 20
8.2241227584
 30
0.0
 10
10.9247229624
 20
8.2255476078
 30
0.0
 10
10.9248423788
 20
8.226734984
 30
0.0
 10
10.9249377002
 20
8.227684881
 30
0.0
 10
10.9250097698
 20
8.2283973147
 30
0.0
 10
10.9250679877
 20
8.2289909746
 30
0.0
 10
10.9251123513
 20
8.2294066049
 30
0.0
 10
10.9251320635
 20
8.2296440012
 30
0.0
 10
10.9251627311
 20
8.2298223491
 30
0.0
 10
10.9251326841
 20
8.2299995476
 30
0.0
 10
10.9251137994
 20
8.2302362132
 30
0.0
 10
10.9250708839
 20
8.2306501912
 30
0.0
 10
10.9250147348
 20
8.231241686
 30
0.0
 10
10.9249451477
 20
8.231951438
 30
0.0
 10
10.9248531363
 20
8.2328977886
 30
0.0
 10
10.9247378573
 20
8.2340807218
 30
0.0
 10
10.924599636
 20
8.2355002438
 30
0.0
 10
10.9244613844
 20
8.2369197652
 30
0.0
 10
10.9242770595
 20
8.2388124606
 30
0.0
 10
10.9240466497
 20
8.2411783298
 30
0.0
 10
10.9237701595
 20
8.2440173729
 30
0.0
 10
10.9234015054
 20
8.2478027637
 30
0.0
 10
10.9229406879
 20
8.2525345022
 30
0.0
 10
10.9224798703
 20
8.2572662406
 30
0.0
 10
10.9221112164
 20
8.2610516314
 30
0.0
 10
10.9218347256
 20
8.2638906745
 30
0.0
 10
10.9216043178
 20
8.2662565438
 30
0.0
 10
10.9214199888
 20
8.268149239
 30
0.0
 10
10.9212817497
 20
8.2695687613
 30
0.0
 10
10.9211434813
 20
8.2709882799
 30
0.0
 10
10.9210283488
 20
8.2721712237
 30
0.0
 10
10.9209360387
 20
8.2731175526
 30
0.0
 10
10.9208673637
 20
8.2738273709
 30
0.0
 10
10.9208083612
 20
8.2744186581
 30
0.0
 10
10.9207705394
 20
8.2748330068
 30
0.0
 10
10.9207434934
 20
8.2750690784
 30
0.0
 10
10.9207385151
 20
8.2752481014
 30
0.0
 10
10.920675029
 20
8.275419597
 30
0.0
 10
10.9206107891
 20
8.2756508835
 30
0.0
 10
10.9204888606
 20
8.2760544114
 30
0.0
 10
10.9203196484
 20
8.2766315196
 30
0.0
 10
10.9201144658
 20
8.2773237755
 30
0.0
 10
10.9198416323
 20
8.2782468791
 30
0.0
 10
10.9195003354
 20
8.2794007258
 30
0.0
 10
10.9190908884
 20
8.2807853558
 30
0.0
 10
10.9186814122
 20
8.2821699821
 30
0.0
 10
10.9181354542
 20
8.2840161518
 30
0.0
 10
10.9174530031
 20
8.2863238635
 30
0.0
 10
10.9166340633
 20
8.2890931177
 30
0.0
 10
10.9155421431
 20
8.2927854566
 30
0.0
 10
10.914177243
 20
8.2974008803
 30
0.0
 10
10.9128123427
 20
8.3020163039
 30
0.0
 10
10.9117204227
 20
8.3057086428
 30
0.0
 10
10.9109014823
 20
8.3084778969
 30
0.0
 10
10.9102190331
 20
8.310785609
 30
0.0
 10
10.9096730712
 20
8.3126317778
 30
0.0
 10
10.9092636069
 20
8.3140164069
 30
0.0
 10
10.9088541151
 20
8.3154010265
 30
0.0
 10
10.9085129578
 20
8.3165549057
 30
0.0
 10
10.9082398396
 20
8.317477943
 30
0.0
 10
10.9080355264
 20
8.3181704012
 30
0.0
 10
10.9078635942
 20
8.3187468767
 30
0.0
 10
10.9077465213
 20
8.3191515339
 30
0.0
 10
10.9076745015
 20
8.3193810111
 30
0.0
 10
10.9076349126
 20
8.3195580644
 30
0.0
 10
10.9075401805
 20
8.3197162135
 30
0.0
 10
10.9074331055
 20
8.319933673
 30
0.0
 10
10.9072367626
 20
8.3203111549
 30
0.0
 10
10.9069609581
 20
8.3208520209
 30
0.0
 10
10.9066279871
 20
8.3215003726
 30
0.0
 10
10.9061847264
 20
8.3223650817
 30
0.0
 10
10.9056304101
 20
8.3234458857
 30
0.0
 10
10.9049653336
 20
8.3247428858
 30
0.0
 10
10.9043002296
 20
8.3260398764
 30
0.0
 10
10.9034134338
 20
8.3277692005
 30
0.0
 10
10.9023049358
 20
8.3299308546
 30
0.0
 10
10.9009747396
 20
8.3325248399
 30
0.0
 10
10.8992011441
 20
8.3359834869
 30
0.0
 10
10.89698415
 20
8.3403067957
 30
0.0
 10
10.8947671557
 20
8.3446301044
 30
0.0
 10
10.8929935604
 20
8.3480887514
 30
0.0
 10
10.8916633636
 20
8.3506827365
 30
0.0
 10
10.8905548674
 20
8.3528443913
 30
0.0
 10
10.8896680679
 20
8.3545737139
 30
0.0
 10
10.8890029753
 20
8.3558707092
 30
0.0
 10
10.8883378559
 20
8.3571676918
 30
0.0
 10
10.8877836731
 20
8.3582485502
 30
0.0
 10
10.8873401401
 20
8.3591131483
 30
0.0
 10
10.8870080005
 20
8.3597618391
 30
0.0
 10
10.886729595
 20
8.3603016443
 30
0.0
 10
10.8865378953
 20
8.3606810199
 30
0.0
 10
10.8864233808
 20
8.3608954451
 30
0.0
 10
10.8863515005
 20
8.3610629146
 30
0.0
 10
10.8862260836
 20
8.3612049623
 30
0.0
 10
10.8860775353
 20
8.3614032266
 30
0.0
 10
10.885808875
 20
8.3617460577
 30
0.0
 10
10.8854296235
 20
8.3622379764
 30
0.0
 10
10.8849725746
 20
8.3628273543
 30
0.0
 10
10.8843638562
 20
8.3636135145
 30
0.0
 10
10.8836027248
 20
8.3645961038
 30
0.0
 10
10.8826894671
 20
8.3657752586
 30
0.0
 10
10.8817761827
 20
8.3669544006
 30
0.0
 10
10.8805584796
 20
8.3685265944
 30
0.0
 10
10.8790363474
 20
8.3704918352
 30
0.0
 10
10.8772097901
 20
8.3728501248
 30
0.0
 10
10.87477438
 20
8.3759945106
 30
0.0
 10
10.8717301175
 20
8.379924993
 30
0.0
 10
10.8686858548
 20
8.3838554754
 30
0.0
 10
10.8662504449
 20
8.3869998614
 30
0.0
 10
10.8644238871
 20
8.3893581506
 30
0.0
 10
10.8629017565
 20
8.3913233925
 30
0.0
 10
10.8616840501
 20
8.3928955839
 30
0.0
 10
10.8607707755
 20
8.3940747333
 30
0.0
 10
10.8598574812
 20
8.3952538606
 30
0.0
 10
10.8590964637
 20
8.3962365353
 30
0.0
 10
10.8584875131
 20
8.3970225215
 30
0.0
 10
10.8580311731
 20
8.3976124305
 30
0.0
 10
10.8576497036
 20
8.3981026876
 30
0.0
 10
10.8573850028
 20
8.3984484849
 30
0.0
 10
10.8572301103
 20
8.3986419966
 30
0.0
 10
10.8571241807
 20
8.398798643
 30
0.0
 10
10.8569791095
 20
8.3989112821
 30
0.0
 10
10.8567993341
 20
8.3990768178
 30
0.0
 10
10.8564783662
 20
8.3993593534
 30
0.0
 10
10.8560231662
 20
8.3997667147
 30
0.0
 10
10.8554755027
 20
8.4002539479
 30
0.0
 10
10.8547457819
 20
8.4009041511
 30
0.0
 10
10.8538334603
 20
8.4017167133
 30
0.0
 10
10.8527387476
 20
8.4026918703
 30
0.0
 10
10.8516440153
 20
8.4036670052
 30
0.0
 10
10.850184379
 20
8.4049671927
 30
0.0
 10
10.8483598314
 20
8.4065924245
 30
0.0
 10
10.8461703752
 20
8.4085427038
 30
0.0
 10
10.8432511
 20
8.4111430758
 30
0.0
 10
10.839602006
 20
8.414393541
 30
0.0
 10
10.835952912
 20
8.4176440061
 30
0.0
 10
10.8330336369
 20
8.4202443782
 30
0.0
 10
10.8308441803
 20
8.4221946571
 30
0.0
 10
10.8290196339
 20
8.4238198904
 30
0.0
 10
10.8275599952
 20
8.4251200748
 30
0.0
 10
10.8264652705
 20
8.4260952193
 30
0.0
 10
10.8253705292
 20
8.4270703402
 30
0.0
 10
10.8244582964
 20
8.4278830145
 30
0.0
 10
10.8237283945
 20
8.4285329892
 30
0.0
 10
10.8231812842
 20
8.4290209205
 30
0.0
 10
10.8227243534
 20
8.4294260975
 30
0.0
 10
10.8224064752
 20
8.4297125324
 30
0.0
 10
10.8222217493
 20
8.4298718204
 30
0.0
 10
10.8220918848
 20
8.4300036505
 30
0.0
 10
10.8219288409
 20
8.4300882187
 30
0.0
 10
10.8217230224
 20
8.4302174618
 30
0.0
 10
10.8213574478
 20
8.4304359563
 30
0.0
 10
10.8208380174
 20
8.430752107
 30
0.0
 10
10.8202134943
 20
8.431129769
 30
0.0
 10
10.8193812183
 20
8.4316339187
 30
0.0
 10
10.8183407286
 20
8.4322638998
 30
0.0
 10
10.8170922031
 20
8.4330199655
 30
0.0
 10
10.8158436609
 20
8.4337760075
 30
0.0
 10
10.8141789439
 20
8.4347840718
 30
0.0
 10
10.8120980456
 20
8.4360441493
 30
0.0
 10
10.8096009684
 20
8.4375562436
 30
0.0
 10
10.806271532
 20
8.4395723689
 30
0.0
 10
10.8021097365
 20
8.4420925256
 30
0.0
 10
10.7979479409
 20
8.4446126822
 30
0.0
 10
10.7946185046
 20
8.4466288076
 30
0.0
 10
10.7921214271
 20
8.4481409014
 30
0.0
 10
10.7900405298
 20
8.4494009806
 30
0.0
 10
10.7883758108
 20
8.4504090414
 30
0.0
 10
10.7871272745
 20
8.451165094
 30
0.0
 10
10.7858787268
 20
8.4519211199
 30
0.0
 10
10.7848383061
 20
8.4525512248
 30
0.0
 10
10.7840058896
 20
8.4530551222
 30
0.0
 10
10.7833817956
 20
8.4534335547
 30
0.0
 10
10.7828610226
 20
8.4537472945
 30
0.0
 10
10.7824978447
 20
8.4539700928
 30
0.0
 10
10.782288186
 20
8.4540924402
 30
0.0
 10
10.7821369381
 20
8.4541981899
 30
0.0
 10
10.7819627695
 20
8.4542504657
 30
0.0
 10
10.7817385398
 20
8.454338819
 30
0.0
 10
10.7813424127
 20
8.4544847468
 30
0.0
 10
10.7807784643
 20
8.4546977586
 30
0.0
 10
10.7801008926
 20
8.454951428
 30
0.0
 10
10.7791977549
 20
8.4552903332
 30
0.0
 10
10.7780687329
 20
8.4557137316
 30
0.0
 10
10.7767139493
 20
8.4562219096
 30
0.0
 10
10.7753591542
 20
8.4567300608
 30
0.0
 10
10.7735527647
 20
8.4574076051
 30
0.0
 10
10.7712947766
 20
8.4582545324
 30
0.0
 10
10.7685851914
 20
8.4592708464
 30
0.0
 10
10.7649724109
 20
8.4606259313
 30
0.0
 10
10.7604564354
 20
8.4623197876
 30
0.0
 10
10.7559404598
 20
8.4640136438
 30
0.0
 10
10.7523276794
 20
8.4653687289
 30
0.0
 10
10.749618094
 20
8.4663850424
 30
0.0
 10
10.7473601065
 20
8.4672319714
 30
0.0
 10
10.7455537157
 20
8.467909512
 30
0.0
 10
10.7441989248
 20
8.4684176749
 30
0.0
 10
10.7428441253
 20
8.4689258091
 30
0.0
 10
10.7417151526
 20
8.4693493435
 30
0.0
 10
10.7408119143
 20
8.4696879714
 30
0.0
 10
10.74013465
 20
8.4699424878
 30
0.0
 10
10.7395697401
 20
8.4701528494
 30
0.0
 10
10.7391753294
 20
8.4703035082
 30
0.0
 10
10.7389483495
 20
8.4703842813
 30
0.0
 10
10.7387826286
 20
8.4704598411
 30
0.0
 10
10.7385996526
 20
8.47047814
 30
0.0
 10
10.7383617034
 20
8.4705225119
 30
0.0
 10
10.7379424881
 20
8.4705908567
 30
0.0
 10
10.7373450752
 20
8.4706933574
 30
0.0
 10
10.7366275522
 20
8.4708142757
 30
0.0
 10
10.735671074
 20
8.4709762276
 30
0.0
 10
10.7344754011
 20
8.4711784179
 30
0.0
 10
10.7330406258
 20
8.4714211532
 30
0.0
 10
10.7316058419
 20
8.4716638599
 30
0.0
 10
10.7296927997
 20
8.4719874788
 30
0.0
 10
10.727301496
 20
8.472391999
 30
0.0
 10
10.7244319319
 20
8.4728774247
 30
0.0
 10
10.7206058463
 20
8.4735246585
 30
0.0
 10
10.7158232394
 20
8.4743337009
 30
0.0
 10
10.710084111
 20
8.4753045517
 30
0.0
 10
10.7024319399
 20
8.4765990194
 30
0.0
 10
10.6966928116
 20
8.4775698702
 30
0.0
 10
10.692866726
 20
8.4782171041
 30
0.0
  0
SPLINE
  5
40C
100
AcDbEntity
  8
0
100
AcDbSpline
 62
4
  6
CONTINUOUS
 70
0
 71
3
 72
441
 73
437
 74
0
 42
0.0000001
 43
0.0000001
 44
0.0000000001
 40
0.0
 40
0.0
 40
0.0
 40
0.0
 40
0.015625
 40
0.0234375
 40
0.03125
 40
0.0390625
 40
0.04296875
 40
0.046875
 40
0.05078125
 40
0.052734375
 40
0.0546875
 40
0.056640625
 40
0.05859375
 40
0.0595703125
 40
0.060546875
 40
0.0615234375
 40
0.0620117188
 40
0.0622558594
 40
0.0625
 40
0.0627441406
 40
0.0629882812
 40
0.0634765625
 40
0.064453125
 40
0.0654296875
 40
0.06640625
 40
0.068359375
 40
0.0703125
 40
0.072265625
 40
0.07421875
 40
0.078125
 40
0.08203125
 40
0.0859375
 40
0.09375
 40
0.1015625
 40
0.10546875
 40
0.109375
 40
0.11328125
 40
0.115234375
 40
0.1171875
 40
0.119140625
 40
0.12109375
 40
0.1220703125
 40
0.123046875
 40
0.1240234375
 40
0.1245117188
 40
0.1247558594
 40
0.125
 40
0.1252441406
 40
0.1254882812
 40
0.1259765625
 40
0.126953125
 40
0.1279296875
 40
0.12890625
 40
0.130859375
 40
0.1328125
 40
0.134765625
 40
0.13671875
 40
0.140625
 40
0.14453125
 40
0.1484375
 40
0.15625
 40
0.1640625
 40
0.16796875
 40
0.171875
 40
0.17578125
 40
0.177734375
 40
0.1796875
 40
0.181640625
 40
0.18359375
 40
0.1845703125
 40
0.185546875
 40
0.1860351562
 40
0.1865234375
 40
0.1870117188
 40
0.1872558594
 40
0.1875
 40
0.1877441406
 40
0.1879882812
 40
0.1884765625
 40
0.1889648438
 40
0.189453125
 40
0.1904296875
 40
0.19140625
 40
0.193359375
 40
0.1953125
 40
0.197265625
 40
0.19921875
 40
0.203125
 40
0.20703125
 40
0.2109375
 40
0.21875
 40
0.2265625
 40
0.23046875
 40
0.234375
 40
0.23828125
 40
0.240234375
 40
0.2421875
 40
0.244140625
 40
0.24609375
 40
0.2470703125
 40
0.248046875
 40
0.2485351562
 40
0.2490234375
 40
0.2495117188
 40
0.2497558594
 40
0.25
 40
0.2502441406
 40
0.2504882812
 40
0.2509765625
 40
0.2514648438
 40
0.251953125
 40
0.2529296875
 40
0.25390625
 40
0.255859375
 40
0.2578125
 40
0.259765625
 40
0.26171875
 40
0.265625
 40
0.26953125
 40
0.2734375
 40
0.28125
 40
0.2890625
 40
0.29296875
 40
0.296875
 40
0.30078125
 40
0.302734375
 40
0.3046875
 40
0.306640625
 40
0.30859375
 40
0.3095703125
 40
0.310546875
 40
0.3110351562
 40
0.3115234375
 40
0.3120117188
 40
0.3122558594
 40
0.3125
 40
0.3127441406
 40
0.3129882812
 40
0.3134765625
 40
0.3139648438
 40
0.314453125
 40
0.3154296875
 40
0.31640625
 40
0.318359375
 40
0.3203125
 40
0.322265625
 40
0.32421875
 40
0.328125
 40
0.33203125
 40
0.3359375
 40
0.34375
 40
0.3515625
 40
0.35546875
 40
0.359375
 40
0.36328125
 40
0.365234375
 40
0.3671875
 40
0.369140625
 40
0.37109375
 40
0.3720703125
 40
0.373046875
 40
0.3740234375
 40
0.3745117188
 40
0.3747558594
 40
0.375
 40
0.3752441406
 40
0.3754882812
 40
0.3759765625
 40
0.376953125
 40
0.3779296875
 40
0.37890625
 40
0.380859375
 40
0.3828125
 40
0.384765625
 40
0.38671875
 40
0.390625
 40
0.39453125
 40
0.3984375
 40
0.40625
 40
0.4140625
 40
0.41796875
 40
0.421875
 40
0.42578125
 40
0.427734375
 40
0.4296875
 40
0.431640625
 40
0.43359375
 40
0.4345703125
 40
0.435546875
 40
0.4360351562
 40
0.4365234375
 40
0.4370117188
 40
0.4372558594
 40
0.4375
 40
0.4377441406
 40
0.4379882812
 40
0.4384765625
 40
0.4389648438
 40
0.439453125
 40
0.4404296875
 40
0.44140625
 40
0.443359375
 40
0.4453125
 40
0.447265625
 40
0.44921875
 40
0.453125
 40
0.45703125
 40
0.4609375
 40
0.46875
 40
0.4765625
 40
0.48046875
 40
0.484375
 40
0.48828125
 40
0.490234375
 40
0.4921875
 40
0.494140625
 40
0.49609375
 40
0.4970703125
 40
0.498046875
 40
0.4990234375
 40
0.4995117188
 40
0.4997558594
 40
0.5
 40
0.5002441406
 40
0.5004882812
 40
0.5009765625
 40
0.501953125
 40
0.5029296875
 40
0.50390625
 40
0.505859375
 40
0.5078125
 40
0.509765625
 40
0.51171875
 40
0.515625
 40
0.51953125
 40
0.5234375
 40
0.53125
 40
0.5390625
 40
0.54296875
 40
0.546875
 40
0.55078125
 40
0.552734375
 40
0.5546875
 40
0.556640625
 40
0.55859375
 40
0.5595703125
 40
0.560546875
 40
0.5615234375
 40
0.5620117188
 40
0.5622558594
 40
0.5625
 40
0.5627441406
 40
0.5629882812
 40
0.5634765625
 40
0.564453125
 40
0.5654296875
 40
0.56640625
 40
0.568359375
 40
0.5703125
 40
0.572265625
 40
0.57421875
 40
0.578125
 40
0.58203125
 40
0.5859375
 40
0.59375
 40
0.6015625
 40
0.60546875
 40
0.609375
 40
0.61328125
 40
0.615234375
 40
0.6171875
 40
0.619140625
 40
0.62109375
 40
0.6220703125
 40
0.623046875
 40
0.6240234375
 40
0.6245117188
 40
0.6247558594
 40
0.625
 40
0.6252441406
 40
0.6254882812
 40
0.6259765625
 40
0.626953125
 40
0.6279296875
 40
0.62890625
 40
0.630859375
 40
0.6328125
 40
0.634765625
 40
0.63671875
 40
0.640625
 40
0.64453125
 40
0.6484375
 40
0.65625
 40
0.6640625
 40
0.66796875
 40
0.671875
 40
0.67578125
 40
0.677734375
 40
0.6796875
 40
0.681640625
 40
0.68359375
 40
0.6845703125
 40
0.685546875
 40
0.6865234375
 40
0.6870117188
 40
0.6872558594
 40
0.6875
 40
0.6877441406
 40
0.6879882812
 40
0.6884765625
 40
0.689453125
 40
0.6904296875
 40
0.69140625
 40
0.693359375
 40
0.6953125
 40
0.697265625
 40
0.69921875
 40
0.703125
 40
0.70703125
 40
0.7109375
 40
0.71875
 40
0.7265625
 40
0.73046875
 40
0.734375
 40
0.73828125
 40
0.740234375
 40
0.7421875
 40
0.744140625
 40
0.74609375
 40
0.7470703125
 40
0.748046875
 40
0.7490234375
 40
0.7495117188
 40
0.7497558594
 40
0.75
 40
0.7502441406
 40
0.7504882812
 40
0.7509765625
 40
0.751953125
 40
0.7529296875
 40
0.75390625
 40
0.755859375
 40
0.7578125
 40
0.759765625
 40
0.76171875
 40
0.765625
 40
0.76953125
 40
0.7734375
 40
0.78125
 40
0.7890625
 40
0.79296875
 40
0.796875
 40
0.80078125
 40
0.802734375
 40
0.8046875
 40
0.806640625
 40
0.80859375
 40
0.8095703125
 40
0.810546875
 40
0.8115234375
 40
0.8120117188
 40
0.8122558594
 40
0.8125
 40
0.8127441406
 40
0.8129882812
 40
0.8134765625
 40
0.814453125
 40
0.8154296875
 40
0.81640625
 40
0.818359375
 40
0.8203125
 40
0.822265625
 40
0.82421875
 40
0.828125
 40
0.83203125
 40
0.8359375
 40
0.84375
 40
0.8515625
 40
0.85546875
 40
0.859375
 40
0.86328125
 40
0.865234375
 40
0.8671875
 40
0.869140625
 40
0.87109375
 40
0.8720703125
 40
0.873046875
 40
0.8740234375
 40
0.8745117188
 40
0.8747558594
 40
0.875
 40
0.8752441406
 40
0.8754882812
 40
0.8759765625
 40
0.876953125
 40
0.8779296875
 40
0.87890625
 40
0.880859375
 40
0.8828125
 40
0.884765625
 40
0.88671875
 40
0.890625
 40
0.89453125
 40
0.8984375
 40
0.90625
 40
0.9140625
 40
0.91796875
 40
0.921875
 40
0.92578125
 40
0.927734375
 40
0.9296875
 40
0.931640625
 40
0.93359375
 40
0.9345703125
 40
0.935546875
 40
0.9365234375
 40
0.9370117188
 40
0.9372558594
 40
0.9375
 40
0.9377441406
 40
0.9379882812
 40
0.9384765625
 40
0.939453125
 40
0.9404296875
 40
0.94140625
 40
0.943359375
 40
0.9453125
 40
0.947265625
 40
0.94921875
 40
0.953125
 40
0.95703125
 40
0.9609375
 40
0.96875
 40
0.9765625
 40
0.984375
 40
1.0
 40
1.0
 40
1.0
 40
1.0
 10
10.6928667463
 20
8.4782171027
 30
0.0
 10
10.6891069218
 20
8.4781091934
 30
0.0
 10
10.683467185
 20
8.4779473294
 30
0.0
 10
10.6759475359
 20
8.4777315108
 30
0.0
 10
10.6703077991
 20
8.4775696469
 30
0.0
 10
10.6656080184
 20
8.4774347602
 30
0.0
 10
10.6618481939
 20
8.477326851
 30
0.0
 10
10.6590283255
 20
8.4772459187
 30
0.0
 10
10.656678435
 20
8.4771784764
 30
0.0
 10
10.6547985231
 20
8.4771245197
 30
0.0
 10
10.6533885877
 20
8.47708406
 30
0.0
 10
10.6519786581
 20
8.4770435706
 30
0.0
 10
10.6508036987
 20
8.4770099218
 30
0.0
 10
10.6498637716
 20
8.4769827959
 30
0.0
 10
10.6491587159
 20
8.4769630166
 30
0.0
 10
10.6485715205
 20
8.4769447363
 30
0.0
 10
10.6481597948
 20
8.4769354677
 30
0.0
 10
10.6479255988
 20
8.4769246633
 30
0.0
 10
10.6477469211
 20
8.4769320763
 30
0.0
 10
10.6475798282
 20
8.4768801781
 30
0.0
 10
10.6473529968
 20
8.476831669
 30
0.0
 10
10.6469579246
 20
8.4767371389
 30
0.0
 10
10.6463925514
 20
8.4766071354
 30
0.0
 10
10.6457145249
 20
8.4764489741
 30
0.0
 10
10.6448103424
 20
8.4762388459
 30
0.0
 10
10.6436801648
 20
8.4759759271
 30
0.0
 10
10.6423239299
 20
8.4756605354
 30
0.0
 10
10.6409677009
 20
8.475345114
 30
0.0
 10
10.6391593935
 20
8.4749245624
 30
0.0
 10
10.63689901
 20
8.4743988695
 30
0.0
 10
10.6341865494
 20
8.4737680395
 30
0.0
 10
10.6305699354
 20
8.4729269323
 30
0.0
 10
10.6260491679
 20
8.4718755485
 30
0.0
 10
10.6215284005
 20
8.4708241645
 30
0.0
 10
10.6179117865
 20
8.4699830575
 30
0.0
 10
10.6151993261
 20
8.4693522269
 30
0.0
 10
10.612938942
 20
8.4688265359
 30
0.0
 10
10.6111306358
 20
8.4684059804
 30
0.0
 10
10.6097744031
 20
8.4680905712
 30
0.0
 10
10.6084181818
 20
8.4677751336
 30
0.0
 10
10.6072879621
 20
8.4675123573
 30
0.0
 10
10.6063838655
 20
8.4673019385
 30
0.0
 10
10.6057055765
 20
8.4671446647
 30
0.0
 10
10.6051410245
 20
8.4670118843
 30
0.0
 10
10.6047444863
 20
8.4669223115
 30
0.0
 10
10.6045200038
 20
8.4668658596
 30
0.0
 10
10.604345696
 20
8.466838359
 30
0.0
 10
10.6041941165
 20
8.4667541389
 30
0.0
 10
10.6039840827
 20
8.4666616299
 30
0.0
 10
10.6036202173
 20
8.4664905211
 30
0.0
 10
10.6030984784
 20
8.4662508993
 30
0.0
 10
10.6024732183
 20
8.4659612903
 30
0.0
 10
10.6016392494
 20
8.4655758655
 30
0.0
 10
10.6005968874
 20
8.4650938373
 30
0.0
 10
10.5993460105
 20
8.4645155094
 30
0.0
 10
10.598095145
 20
8.4639371532
 30
0.0
 10
10.5964273204
 20
8.4631660214
 30
0.0
 10
10.5943425409
 20
8.4622021033
 30
0.0
 10
10.591840805
 20
8.4610454031
 30
0.0
 10
10.5885051573
 20
8.4595031356
 30
0.0
 10
10.5843355976
 20
8.4575753014
 30
0.0
 10
10.580166038
 20
8.4556474671
 30
0.0
 10
10.5768303902
 20
8.4541051997
 30
0.0
 10
10.5743286544
 20
8.4529484992
 30
0.0
 10
10.5722438747
 20
8.4519845818
 30
0.0
 10
10.5705760505
 20
8.4512134486
 30
0.0
 10
10.5693251835
 20
8.4506350968
 30
0.0
 10
10.5680743125
 20
8.4500567524
 30
0.0
 10
10.5670319322
 20
8.4495747754
 30
0.0
 10
10.5661980006
 20
8.4491892461
 30
0.0
 10
10.5656768558
 20
8.4489481713
 30
0.0
 10
10.5652597969
 20
8.4487555841
 30
0.0
 10
10.5649473943
 20
8.448610397
 30
0.0
 10
10.5646858131
 20
8.4484917832
 30
0.0
 10
10.5644793421
 20
8.4483915643
 30
0.0
 10
10.5643168544
 20
8.4483309584
 30
0.0
 10
10.5641835075
 20
8.4482147834
 30
0.0
 10
10.5639955325
 20
8.4480792944
 30
0.0
 10
10.5637640561
 20
8.4479032732
 30
0.0
 10
10.5634847895
 20
8.4476948985
 30
0.0
 10
10.5631129562
 20
8.4474160698
 30
0.0
 10
10.5626479858
 20
8.447067875
 30
0.0
 10
10.5619041331
 20
8.4465105726
 30
0.0
 10
10.5609742829
 20
8.44581401
 30
0.0
 10
10.5598584774
 20
8.4449781069
 30
0.0
 10
10.558742668
 20
8.4441422113
 30
0.0
 10
10.5572549234
 20
8.4430276813
 30
0.0
 10
10.5553952422
 20
8.4416345195
 30
0.0
 10
10.5531636251
 20
8.4399627251
 30
0.0
 10
10.5501881354
 20
8.437733666
 30
0.0
 10
10.5464687734
 20
8.434947342
 30
0.0
 10
10.5427494113
 20
8.4321610181
 30
0.0
 10
10.5397739217
 20
8.4299319589
 30
0.0
 10
10.5375423044
 20
8.4282601646
 30
0.0
 10
10.5356826236
 20
8.4268670025
 30
0.0
 10
10.5341948783
 20
8.4257524733
 30
0.0
 10
10.533079071
 20
8.4249165749
 30
0.0
 10
10.5319632574
 20
8.4240806823
 30
0.0
 10
10.5310334324
 20
8.4233840872
 30
0.0
 10
10.5302895284
 20
8.4228268511
 30
0.0
 10
10.5298246885
 20
8.4224784877
 30
0.0
 10
10.5294525873
 20
8.422200005
 30
0.0
 10
10.5291741393
 20
8.4219905733
 30
0.0
 10
10.5289401017
 20
8.4218178591
 30
0.0
 10
10.5287573521
 20
8.4216756233
 30
0.0
 10
10.5286080468
 20
8.4215800523
 30
0.0
 10
10.5285054735
 20
8.4214420903
 30
0.0
 10
10.528352385
 20
8.4212729487
 30
0.0
 10
10.5281666251
 20
8.4210564412
 30
0.0
 10
10.5279413159
 20
8.4207988068
 30
0.0
 10
10.527641741
 20
8.4204545347
 30
0.0
 10
10.5272669856
 20
8.4200244547
 30
0.0
 10
10.5266675373
 20
8.4193361813
 30
0.0
 10
10.5259181719
 20
8.4184758895
 30
0.0
 10
10.525018957
 20
8.4174435179
 30
0.0
 10
10.5241197358
 20
8.416411152
 30
0.0
 10
10.5229207764
 20
8.4150346622
 30
0.0
 10
10.5214220764
 20
8.4133140505
 30
0.0
 10
10.5196236367
 20
8.4112493163
 30
0.0
 10
10.5172257171
 20
8.4084963375
 30
0.0
 10
10.5142283175
 20
8.4050551138
 30
0.0
 10
10.5112309179
 20
8.4016138902
 30
0.0
 10
10.5088329982
 20
8.3988609113
 30
0.0
 10
10.5070345584
 20
8.3967961772
 30
0.0
 10
10.5055358589
 20
8.3950755652
 30
0.0
 10
10.5043368986
 20
8.3936990761
 30
0.0
 10
10.5034376801
 20
8.392666708
 30
0.0
 10
10.5025384549
 20
8.3916343448
 30
0.0
 10
10.5017891215
 20
8.3907740268
 30
0.0
 10
10.501189608
 20
8.3900858068
 30
0.0
 10
10.5008150184
 20
8.3896555909
 30
0.0
 10
10.5005151033
 20
8.3893115978
 30
0.0
 10
10.5002908333
 20
8.3890531109
 30
0.0
 10
10.5001018223
 20
8.3888392708
 30
0.0
 10
10.4999553665
 20
8.3886646872
 30
0.0
 10
10.4998325372
 20
8.3885433446
 30
0.0
 10
10.4997592815
 20
8.3883853774
 30
0.0
 10
10.4996442905
 20
8.3881875479
 30
0.0
 10
10.499506493
 20
8.3879358717
 30
0.0
 10
10.499338593
 20
8.387635739
 30
0.0
 10
10.4991156146
 20
8.3872349058
 30
0.0
 10
10.4988365874
 20
8.3867340891
 30
0.0
 10
10.4983903139
 20
8.3859326567
 30
0.0
 10
10.4978324136
 20
8.3849309094
 30
0.0
 10
10.4971629584
 20
8.3837287941
 30
0.0
 10
10.4964934964
 20
8.3825266837
 30
0.0
 10
10.4956008828
 20
8.3809238681
 30
0.0
 10
10.494485115
 20
8.3789203493
 30
0.0
 10
10.493146194
 20
8.3765161264
 30
0.0
 10
10.4913609658
 20
8.373310496
 30
0.0
 10
10.4891294306
 20
8.369303458
 30
0.0
 10
10.4868978955
 20
8.36529642
 30
0.0
 10
10.4851126673
 20
8.3620907896
 30
0.0
 10
10.4837737464
 20
8.3596865666
 30
0.0
 10
10.4826579779
 20
8.3576830481
 30
0.0
 10
10.4817653658
 20
8.3560802319
 30
0.0
 10
10.4810958994
 20
8.3548781233
 30
0.0
 10
10.4804264606
 20
8.3536760014
 30
0.0
 10
10.4798685092
 20
8.3526742747
 30
0.0
 10
10.4794223401
 20
8.3518728001
 30
0.0
 10
10.4790871886
 20
8.351271949
 30
0.0
 10
10.4788095645
 20
8.3507704293
 30
0.0
 10
10.4786119527
 20
8.3504209559
 30
0.0
 10
10.4785041452
 20
8.3502187735
 30
0.0
 10
10.4784088845
 20
8.3500741321
 30
0.0
 10
10.4783686874
 20
8.3499027512
 30
0.0
 10
10.4782958845
 20
8.3496835703
 30
0.0
 10
10.4781774282
 20
8.3492956581
 30
0.0
 10
10.4780035263
 20
8.3487437699
 30
0.0
 10
10.4777968467
 20
8.3480805315
 30
0.0
 10
10.4775205743
 20
8.3471965534
 30
0.0
 10
10.4771754739
 20
8.3460914641
 30
0.0
 10
10.4767612505
 20
8.344765407
 30
0.0
 10
10.4763470546
 20
8.3434393365
 30
0.0
 10
10.4757947838
 20
8.3416712472
 30
0.0
 10
10.4751044486
 20
8.3394611339
 30
0.0
 10
10.4742760449
 20
8.3368089987
 30
0.0
 10
10.4731715072
 20
8.3332728182
 30
0.0
 10
10.4717908348
 20
8.3288525926
 30
0.0
 10
10.4704101625
 20
8.324432367
 30
0.0
 10
10.4693056247
 20
8.3208961865
 30
0.0
 10
10.4684772213
 20
8.3182440512
 30
0.0
 10
10.4677868854
 20
8.3160339383
 30
0.0
 10
10.467234616
 20
8.3142658482
 30
0.0
 10
10.4668204159
 20
8.3129397799
 30
0.0
 10
10.466406208
 20
8.3116137145
 30
0.0
 10
10.4660610593
 20
8.3105086511
 30
0.0
 10
10.4657848853
 20
8.3096246204
 30
0.0
 10
10.4656124019
 20
8.3090720555
 30
0.0
 10
10.4654741282
 20
8.3086301082
 30
0.0
 10
10.4653712086
 20
8.3082983613
 30
0.0
 10
10.4652829428
 20
8.3080228167
 30
0.0
 10
10.4652179361
 20
8.3078003375
 30
0.0
 10
10.4651538629
 20
8.307639062
 30
0.0
 10
10.4651482596
 20
8.3074564728
 30
0.0
 10
10.4651203643
 20
8.3072204658
 30
0.0
 10
10.4650925027
 20
8.3069229026
 30
0.0
 10
10.4650560693
 20
8.3065669201
 30
0.0
 10
10.465008539
 20
8.3060918949
 30
0.0
 10
10.4649487675
 20
8.3054982442
 30
0.0
 10
10.4648533335
 20
8.3045483299
 30
0.0
 10
10.4647339723
 20
8.3033609621
 30
0.0
 10
10.4645907683
 20
8.3019361101
 30
0.0
 10
10.4644475564
 20
8.3005112609
 30
0.0
 10
10.46425661
 20
8.298611461
 30
0.0
 10
10.464017926
 20
8.2962367114
 30
0.0
 10
10.4637315056
 20
8.2933870118
 30
0.0
 10
10.4633496117
 20
8.2895874124
 30
0.0
 10
10.4628722442
 20
8.2848379131
 30
0.0
 10
10.4623948769
 20
8.2800884138
 30
0.0
 10
10.4620129828
 20
8.2762888144
 30
0.0
 10
10.4617265627
 20
8.2734391148
 30
0.0
 10
10.4614878779
 20
8.2710643651
 30
0.0
 10
10.4612969331
 20
8.2691645655
 30
0.0
 10
10.4611537165
 20
8.2677397156
 30
0.0
 10
10.4610105302
 20
8.2663148662
 30
0.0
 10
10.4608911138
 20
8.26512749
 30
0.0
 10
10.4607957924
 20
8.264177593
 30
0.0
 10
10.4607237228
 20
8.2634651593
 30
0.0
 10
10.4606655049
 20
8.2628714994
 30
0.0
 10
10.4606211413
 20
8.2624558691
 30
0.0
 10
10.4606014291
 20
8.2622184728
 30
0.0
 10
10.4605707615
 20
8.2620401249
 30
0.0
 10
10.4606008085
 20
8.2618629264
 30
0.0
 10
10.4606196932
 20
8.2616262608
 30
0.0
 10
10.4606626087
 20
8.2612122828
 30
0.0
 10
10.4607187578
 20
8.260620788
 30
0.0
 10
10.4607883449
 20
8.259911036
 30
0.0
 10
10.4608803563
 20
8.2589646854
 30
0.0
 10
10.4609956353
 20
8.2577817522
 30
0.0
 10
10.4611338566
 20
8.2563622302
 30
0.0
 10
10.4612721082
 20
8.2549427088
 30
0.0
 10
10.4614564331
 20
8.2530500134
 30
0.0
 10
10.4616868429
 20
8.2506841442
 30
0.0
 10
10.4619633331
 20
8.2478451011
 30
0.0
 10
10.4623319872
 20
8.2440597103
 30
0.0
 10
10.4627928047
 20
8.2393279718
 30
0.0
 10
10.4632536223
 20
8.2345962334
 30
0.0
 10
10.4636222762
 20
8.2308108426
 30
0.0
 10
10.463898767
 20
8.2279717995
 30
0.0
 10
10.4641291748
 20
8.2256059302
 30
0.0
 10
10.4643135038
 20
8.223713235
 30
0.0
 10
10.4644517429
 20
8.2222937127
 30
0.0
 10
10.4645900113
 20
8.2208741941
 30
0.0
 10
10.4647051438
 20
8.2196912503
 30
0.0
 10
10.4647974539
 20
8.2187449214
 30
0.0
 10
10.4648661289
 20
8.2180351031
 30
0.0
 10
10.4649251314
 20
8.2174438159
 30
0.0
 10
10.4649629532
 20
8.2170294672
 30
0.0
 10
10.4649899992
 20
8.2167933956
 30
0.0
 10
10.4649949775
 20
8.2166143726
 30
0.0
 10
10.4650584636
 20
8.216442877
 30
0.0
 10
10.4651227035
 20
8.2162115905
 30
0.0
 10
10.465244632
 20
8.2158080625
 30
0.0
 10
10.4654138442
 20
8.2152309544
 30
0.0
 10
10.4656190268
 20
8.2145386985
 30
0.0
 10
10.4658918603
 20
8.2136155949
 30
0.0
 10
10.4662331572
 20
8.2124617482
 30
0.0
 10
10.4666426042
 20
8.2110771182
 30
0.0
 10
10.4670520804
 20
8.2096924919
 30
0.0
 10
10.4675980384
 20
8.2078463222
 30
0.0
 10
10.4682804895
 20
8.2055386105
 30
0.0
 10
10.4690994293
 20
8.2027693563
 30
0.0
 10
10.4701913495
 20
8.1990770174
 30
0.0
 10
10.4715562496
 20
8.1944615937
 30
0.0
 10
10.4729211499
 20
8.1898461701
 30
0.0
 10
10.4740130699
 20
8.1861538312
 30
0.0
 10
10.4748320103
 20
8.1833845771
 30
0.0
 10
10.4755144595
 20
8.181076865
 30
0.0
 10
10.4760604214
 20
8.1792306962
 30
0.0
 10
10.4764698857
 20
8.1778460671
 30
0.0
 10
10.4768793775
 20
8.1764614474
 30
0.0
 10
10.4772205348
 20
8.1753075683
 30
0.0
 10
10.477493653
 20
8.1743845309
 30
0.0
 10
10.4776979662
 20
8.1736920728
 30
0.0
 10
10.4778698984
 20
8.1731155973
 30
0.0
 10
10.4779869713
 20
8.17271094
 30
0.0
 10
10.4780589911
 20
8.1724814629
 30
0.0
 10
10.47809858
 20
8.1723044096
 30
0.0
 10
10.4781933121
 20
8.1721462605
 30
0.0
 10
10.4783003871
 20
8.171928801
 30
0.0
 10
10.47849673
 20
8.1715513191
 30
0.0
 10
10.4787725345
 20
8.1710104531
 30
0.0
 10
10.4791055055
 20
8.1703621014
 30
0.0
 10
10.4795487662
 20
8.1694973923
 30
0.0
 10
10.4801030825
 20
8.1684165883
 30
0.0
 10
10.4807681589
 20
8.1671195882
 30
0.0
 10
10.481433263
 20
8.1658225976
 30
0.0
 10
10.4823200588
 20
8.1640932734
 30
0.0
 10
10.4834285568
 20
8.1619316194
 30
0.0
 10
10.484758753
 20
8.1593376341
 30
0.0
 10
10.4865323485
 20
8.1558789871
 30
0.0
 10
10.4887493426
 20
8.1515556783
 30
0.0
 10
10.4909663369
 20
8.1472323696
 30
0.0
 10
10.4927399322
 20
8.1437737226
 30
0.0
 10
10.494070129
 20
8.1411797375
 30
0.0
 10
10.4951786252
 20
8.1390180827
 30
0.0
 10
10.4960654247
 20
8.1372887601
 30
0.0
 10
10.4967305173
 20
8.1359917648
 30
0.0
 10
10.4973956367
 20
8.1346947822
 30
0.0
 10
10.4979498195
 20
8.1336139238
 30
0.0
 10
10.4983933525
 20
8.1327493257
 30
0.0
 10
10.4987254921
 20
8.1321006349
 30
0.0
 10
10.4990038976
 20
8.1315608297
 30
0.0
 10
10.4991955973
 20
8.1311814541
 30
0.0
 10
10.4993101118
 20
8.1309670289
 30
0.0
 10
10.4993819921
 20
8.1307995594
 30
0.0
 10
10.499507409
 20
8.1306575117
 30
0.0
 10
10.4996559573
 20
8.1304592474
 30
0.0
 10
10.4999246176
 20
8.1301164163
 30
0.0
 10
10.5003038691
 20
8.1296244976
 30
0.0
 10
10.500760918
 20
8.1290351197
 30
0.0
 10
10.5013696364
 20
8.1282489595
 30
0.0
 10
10.5021307678
 20
8.1272663702
 30
0.0
 10
10.5030440255
 20
8.1260872154
 30
0.0
 10
10.5039573099
 20
8.1249080734
 30
0.0
 10
10.505175013
 20
8.1233358796
 30
0.0
 10
10.5066971452
 20
8.1213706388
 30
0.0
 10
10.5085237025
 20
8.1190123492
 30
0.0
 10
10.5109591126
 20
8.1158679634
 30
0.0
 10
10.5140033751
 20
8.111937481
 30
0.0
 10
10.5170476378
 20
8.1080069986
 30
0.0
 10
10.5194830477
 20
8.1048626126
 30
0.0
 10
10.5213096055
 20
8.1025043234
 30
0.0
 10
10.5228317361
 20
8.1005390815
 30
0.0
 10
10.5240494425
 20
8.0989668901
 30
0.0
 10
10.5249627171
 20
8.0977877407
 30
0.0
 10
10.5258760114
 20
8.0966086134
 30
0.0
 10
10.5266370289
 20
8.0956259387
 30
0.0
 10
10.5272459795
 20
8.0948399525
 30
0.0
 10
10.5277023195
 20
8.0942500435
 30
0.0
 10
10.528083789
 20
8.0937597864
 30
0.0
 10
10.5283484898
 20
8.0934139891
 30
0.0
 10
10.5285033823
 20
8.0932204774
 30
0.0
 10
10.5286093119
 20
8.093063831
 30
0.0
 10
10.5287543831
 20
8.0929511919
 30
0.0
 10
10.5289341584
 20
8.0927856562
 30
0.0
 10
10.5292551264
 20
8.0925031206
 30
0.0
 10
10.5297103264
 20
8.0920957593
 30
0.0
 10
10.5302579899
 20
8.0916085261
 30
0.0
 10
10.5309877107
 20
8.0909583229
 30
0.0
 10
10.5319000323
 20
8.0901457606
 30
0.0
 10
10.532994745
 20
8.0891706037
 30
0.0
 10
10.5340894773
 20
8.0881954688
 30
0.0
 10
10.5355491136
 20
8.0868952813
 30
0.0
 10
10.5373736612
 20
8.0852700495
 30
0.0
 10
10.5395631174
 20
8.0833197702
 30
0.0
 10
10.5424823926
 20
8.0807193981
 30
0.0
 10
10.5461314866
 20
8.077468933
 30
0.0
 10
10.5497805806
 20
8.0742184679
 30
0.0
 10
10.5526998557
 20
8.0716180957
 30
0.0
 10
10.5548893123
 20
8.0696678169
 30
0.0
 10
10.5567138587
 20
8.0680425836
 30
0.0
 10
10.5581734974
 20
8.0667423992
 30
0.0
 10
10.5592682221
 20
8.0657672547
 30
0.0
 10
10.5603629634
 20
8.0647921338
 30
0.0
 10
10.5612751962
 20
8.0639794595
 30
0.0
 10
10.5620050981
 20
8.0633294848
 30
0.0
 10
10.5625522084
 20
8.0628415535
 30
0.0
 10
10.5630091392
 20
8.0624363765
 30
0.0
 10
10.5633270174
 20
8.0621499416
 30
0.0
 10
10.5635117433
 20
8.0619906536
 30
0.0
 10
10.5636416078
 20
8.0618588235
 30
0.0
 10
10.5638046517
 20
8.0617742553
 30
0.0
 10
10.5640104702
 20
8.0616450122
 30
0.0
 10
10.5643760448
 20
8.0614265177
 30
0.0
 10
10.5648954752
 20
8.061110367
 30
0.0
 10
10.5655199983
 20
8.060732705
 30
0.0
 10
10.5663522743
 20
8.0602285553
 30
0.0
 10
10.567392764
 20
8.0595985742
 30
0.0
 10
10.5686412895
 20
8.0588425085
 30
0.0
 10
10.5698898317
 20
8.0580864665
 30
0.0
 10
10.5715545487
 20
8.0570784022
 30
0.0
 10
10.573635447
 20
8.0558183246
 30
0.0
 10
10.5761325242
 20
8.0543062304
 30
0.0
 10
10.5794619606
 20
8.0522901051
 30
0.0
 10
10.5836237561
 20
8.0497699484
 30
0.0
 10
10.5877855517
 20
8.0472497918
 30
0.0
 10
10.591114988
 20
8.0452336664
 30
0.0
 10
10.5936120655
 20
8.0437215726
 30
0.0
 10
10.5956929628
 20
8.0424614934
 30
0.0
 10
10.5973576818
 20
8.0414534326
 30
0.0
 10
10.5986062181
 20
8.0406973799
 30
0.0
 10
10.5998547658
 20
8.0399413541
 30
0.0
 10
10.6008951865
 20
8.0393112492
 30
0.0
 10
10.601727603
 20
8.0388073518
 30
0.0
 10
10.602351697
 20
8.0384289193
 30
0.0
 10
10.60287247
 20
8.0381151795
 30
0.0
 10
10.6032356478
 20
8.0378923811
 30
0.0
 10
10.6034453066
 20
8.0377700338
 30
0.0
 10
10.6035965545
 20
8.0376642841
 30
0.0
 10
10.6037707231
 20
8.0376120083
 30
0.0
 10
10.6039949528
 20
8.037523655
 30
0.0
 10
10.6043910799
 20
8.0373777272
 30
0.0
 10
10.6049550283
 20
8.0371647154
 30
0.0
 10
10.6056326
 20
8.036911046
 30
0.0
 10
10.6065357377
 20
8.0365721408
 30
0.0
 10
10.6076647597
 20
8.0361487424
 30
0.0
 10
10.6090195433
 20
8.0356405644
 30
0.0
 10
10.6103743384
 20
8.0351324132
 30
0.0
 10
10.6121807278
 20
8.0344548688
 30
0.0
 10
10.614438716
 20
8.0336079416
 30
0.0
 10
10.6171483012
 20
8.0325916276
 30
0.0
 10
10.6207610817
 20
8.0312365427
 30
0.0
 10
10.6252770572
 20
8.0295426864
 30
0.0
 10
10.6297930328
 20
8.0278488302
 30
0.0
 10
10.6334058132
 20
8.0264937451
 30
0.0
 10
10.6361153986
 20
8.0254774316
 30
0.0
 10
10.6383733861
 20
8.0246305025
 30
0.0
 10
10.6401797769
 20
8.023952962
 30
0.0
 10
10.6415345678
 20
8.0234447991
 30
0.0
 10
10.6428893673
 20
8.0229366648
 30
0.0
 10
10.6440183399
 20
8.0225131305
 30
0.0
 10
10.6449215783
 20
8.0221745026
 30
0.0
 10
10.6455988426
 20
8.0219199862
 30
0.0
 10
10.6461637525
 20
8.0217096245
 30
0.0
 10
10.6465581632
 20
8.0215589657
 30
0.0
 10
10.6467851431
 20
8.0214781926
 30
0.0
 10
10.646950864
 20
8.0214026329
 30
0.0
 10
10.64713384
 20
8.0213843339
 30
0.0
 10
10.6473717892
 20
8.0213399621
 30
0.0
 10
10.6477910045
 20
8.0212716173
 30
0.0
 10
10.6483884174
 20
8.0211691166
 30
0.0
 10
10.6491059404
 20
8.0210481983
 30
0.0
 10
10.6500624186
 20
8.0208862464
 30
0.0
 10
10.6512580915
 20
8.0206840561
 30
0.0
 10
10.6526928668
 20
8.0204413208
 30
0.0
 10
10.6541276507
 20
8.0201986141
 30
0.0
 10
10.6560406929
 20
8.0198749952
 30
0.0
 10
10.6584319966
 20
8.019470475
 30
0.0
 10
10.6613015607
 20
8.0189850493
 30
0.0
 10
10.6651276463
 20
8.0183378155
 30
0.0
 10
10.6699102532
 20
8.0175287731
 30
0.0
 10
10.6756493816
 20
8.0165579223
 30
0.0
 10
10.6833015527
 20
8.0152634546
 30
0.0
 10
10.689040681
 20
8.0142926038
 30
0.0
 10
10.6928667666
 20
8.0136453699
 30
0.0
  0
ENDSEC
  0
SECTION
  2
OBJECTS
  0
DICTIONARY
  5
C
100
AcDbDictionary
280
0
281
1
  3
ACAD_GROUP
350
D
  3
ACAD_MLINESTYLE
350
17
  3
ACAD_LAYOUT
350
1A
  3
ACAD_PLOTSETTINGS
350
19
  3
ACAD_PLOTSTYLENAME
350
E
  3
ACAD_IMAGE_DICT
350
       40E
  3
ACAD_IMAGE_VARS
350
       40F
  3
ACAD_TABLESTYLE
350
       410
  0
IMAGEDEF_REACTOR
  5
40D
100
AcDbRasterImageDefReactor
 90
2
330
299
  0
DICTIONARY
  5
D
102
{ACAD_REACTORS
330
C
102
}
100
AcDbDictionary
280
0
281
1
  0
ACDBDICTIONARYWDFLT
  5
E
102
{ACAD_REACTORS
330
C
102
}
100
AcDbDictionary
281
1
  3
Normal
350
F
100
AcDbDictionaryWithDefault
340
F
  0
DICTIONARY
  5
40E
330
C
100
AcDbDictionary
281
1
  3
XNA_assy_2_img_1
350
       413
  0
RASTERVARIABLES
  5
40F
330
C
100
AcDbRasterVariables
 90
0
 70
0
 71
1
 72
5
  0
DICTIONARY
  5
17
102
{ACAD_REACTORS
330
C
102
}
100
AcDbDictionary
280
0
281
1
  3
Standard
350
18
  0
DICTIONARY
  5
410
330
C
100
AcDbDictionary
281
1
  3
Standard
350
       414
  3
Standard1
350
       415
  0
DICTIONARY
  5
19
102
{ACAD_REACTORS
330
C
102
}
100
AcDbDictionary
281
1
  0
DICTIONARY
  5
1A
102
{ACAD_REACTORS
330
C
102
}
100
AcDbDictionary
281
1
  3
Model
350
411
  3
Layout1
350
412
  0
ACDBPLACEHOLDER
  5
F
102
{ACAD_REACTORS
330
E
102
}
  0
MLINESTYLE
  5
18
102
{ACAD_REACTORS
330
17
102
}
100
AcDbMlineStyle
  2
STANDARD
 70
0
  3

 62
256
 51
90.0
 52
90.0
 71
2
 49
0.5
 62
256
  6
BYLAYER
 49
-0.5
 62
256
  6
BYLAYER
  0
LAYOUT
  5
411
102
{ACAD_REACTORS
330
1A
102
}
100
AcDbPlotSettings
  1

  2
none_device
  4
ANSI_C_(22.00_x_17.00_Inches)
  6

 40
0.0
 41
0.0
 42
0.0
 43
0.0
 44
558.8
 45
431.8
 46
0.0
 47
0.0
 48
0.0
 49
0.0
140
0.0
141
0.0
142
1.0
143
1.0
 70
1024
 72
0
 73
0
 74
0
  7

 75
0
147
1.0
148
0.0
149
0.0
100
AcDbLayout
  1
Model
 70
0
 71
0
 10
0.0
 20
0.0
 11
22.0
 21
17.0
 12
0.0
 22
0.0
 32
0.0
 14
0.0
 24
0.0
 34
0.0
 15
0.0
 25
0.0
 35
0.0
146
0.0
 13
0.0
 23
0.0
 33
0.0
 16
1.0
 26
0.0
 36
0.0
 17
0.0
 27
1.0
 37
0.0
 76
0
330
20C
345
0
346
0
  0
LAYOUT
  5
412
102
{ACAD_REACTORS
330
1A
102
}
100
AcDbPlotSettings
  1

  2
none_device
  4
ANSI_C_(22.00_x_17.00_Inches)
  6

 40
0.0
 41
0.0
 42
0.0
 43
0.0
 44
558.8
 45
431.8
 46
0.0
 47
0.0
 48
0.0
 49
0.0
140
0.0
141
0.0
142
1.0
143
1.0
 70
0
 72
0
 73
0
 74
0
  7

 75
0
147
1.0
148
0.0
149
0.0
100
AcDbLayout
  1
Layout1
 70
0
 71
1
 10
0.0
 20
0.0
 11
22.0
 21
17.0
 12
0.0
 22
0.0
 32
0.0
 14
0.0
 24
0.0
 34
0.0
 15
0.0
 25
0.0
 35
0.0
146
0.0
 13
0.0
 23
0.0
 33
0.0
 16
1.0
 26
0.0
 36
0.0
 17
0.0
 27
1.0
 37
0.0
 76
0
330
20D
345
0
346
0
  0
IMAGEDEF
  5
413
102
{ACAD_REACTORS
330
40E
330
40D
102
}
100
AcDbRasterImageDef
 90
0
  1
XNA_assy_2_img_1.png
 10
369.0
 20
92.0
 11
0.0066666667
 21
0.0066666667
280
1
281
0
  0
TABLESTYLE
  5
414
102
{ACAD_REACTORS
330
410
330
29C
330
29D
102
}
330
410
100
AcDbTableStyle
  3
Standard
 70
0
 71
0
 40
0.06
 41
0.06
280
1
281
1
  7
Standard
140
0.18
170
1
 62
0
 63
7
283
0
  7
Standard
140
0.18
170
1
 62
0
 63
7
283
0
  7
Standard
140
0.18
170
1
 62
0
 63
7
283
0
  0
TABLESTYLE
  5
415
102
{ACAD_REACTORS
330
410
330
29B
102
}
330
410
100
AcDbTableStyle
  3
Standard1
 70
1
 71
0
 40
0.06
 41
0.06
280
1
281
1
  7
Standard
140
0.18
170
1
 62
0
 63
7
283
0
  7
Standard
140
0.18
170
1
 62
0
 63
7
283
0
  7
Standard
140
0.18
170
1
 62
0
 63
7
283
0
  0
ENDSEC
  0
EOF
