999
DXF file: XCM_assy_2.dxf
999
Pro/ENGINEER 2014200 by Parametric Technology Corporation
  0
SECTION
  2
HEADER
  9
$ACADVER
  1
AC1021
  9
$DWGCODEPAGE
  3
ANSI_1252
  9
$EXTMAX
 10
22.0
 20
17.0
 30
0.0
  9
$EXTMIN
 10
0.0
 20
0.0
 30
0.0
  9
$LIMMIN
 10
0.0
 20
0.0
  9
$LIMMAX
 10
22.0
 20
17.0
  9
$VIEWCTR
 10
11.0
 20
8.5
  9
$VIEWSIZE
 40
17.0
  9
$CLAYER
  8
0
  9
$LTSCALE
 40
1.21
  9
$CELTYPE
  6
BYLAYER
  9
$DIMSCALE
 40
1.0
  9
$DIMASZ
 40
0.1875
  9
$DIMEXO
 40
0.0625
  9
$DIMDLI
 40
0.836
  9
$DIMEXE
 40
0.125
  9
$DIMCEN
 40
0.198
  9
$DIMLFAC
 40
1.0
  9
$DIMBLK
  1
_FILLED
  9
$DIMTXT
 40
0.1
  9
$DIMTOL
 70
0
  9
$DIMLIM
 70
0
  9
$DIMTFAC
 40
1.0
  9
$DIMGAP
 40
0.09
  9
$DIMDSEP
 70
46
  9
$AUNITS
 70
0
  9
$PDMODE
 70
3
  9
$PDSIZE
 40
0.3125
  9
$HANDSEED
  5
419
  9
$TILEMODE
 70
1
  9
$MEASUREMENT
 70
0
  9
$INSUNITS
 70
1
  0
ENDSEC
  0
SECTION
  2
CLASSES
  0
CLASS
  1
ACDBDICTIONARYWDFLT
  2
AcDbDictionaryWithDefault
  3
AutoCAD 2000
 90
0
 91
1
280
0
281
0
  0
CLASS
  1
ACDBPLACEHOLDER
  2
AcDbPlaceHolder
  3
AutoCAD 2000
 90
0
 91
1
280
0
281
0
  0
CLASS
  1
LAYOUT
  2
AcDbLayout
  3
AutoCAD 2000
 90
0
 91
0
280
0
281
0
  0
CLASS
  1
RASTERVARIABLES
  2
AcDbRasterVariables
  3
ISM
 90
0
 91
1
280
0
281
0
  0
CLASS
  1
IMAGEDEF
  2
AcDbRasterImageDef
  3
ISM
 90
0
 91
1
280
0
281
0
  0
CLASS
  1
IMAGEDEF_REACTOR
  2
AcDbRasterImageDefReactor
  3
ISM
 90
0
 91
1
280
0
281
0
  0
CLASS
  1
IMAGE
  2
AcDbRasterImage
  3
ISM
 90
127
 91
1
280
0
281
1
  0
CLASS
  1
TABLESTYLE
  2
AcDbTableStyle
  3
ObjectDBX Classes
 90
2047
 91
1
280
0
281
0
  0
CLASS
  1
ACAD_TABLE
  2
AcDbTable
  3
ObjectDBX Classes
 90
1025
 91
3
280
0
281
1
  0
ENDSEC
  0
SECTION
  2
TABLES
  0
TABLE
  2
VPORT
  5
8
100
AcDbSymbolTable
 70
2
  0
VPORT
  5
1F4
100
AcDbSymbolTableRecord
100
AcDbViewportTableRecord
  2
*ACTIVE
 70
0
 10
0.0
 20
0.0
 11
1.0
 21
1.0
 12
11.0
 22
8.5
 13
0.0
 23
0.0
 14
1.0
 24
1.0
 15
0.0
 25
0.0
 16
0.0
 26
0.0
 36
1.0
 17
0.0
 27
0.0
 37
0.0
 40
17.0
 41
1.2941176471
 42
50.0
 43
0.0
 44
0.0
 50
0.0
 51
0.0
 71
0
 72
100
 73
1
 74
1
 75
0
 76
0
 77
0
 78
0
  0
ENDTAB
  0
TABLE
  2
LTYPE
  5
5
100
AcDbSymbolTable
 70
6
  0
LTYPE
  5
14
100
AcDbSymbolTableRecord
100
AcDbLinetypeTableRecord
  2
BYBLOCK
 70
0
  3

 72
65
 73
0
 40
0.0
  0
LTYPE
  5
15
100
AcDbSymbolTableRecord
100
AcDbLinetypeTableRecord
  2
BYLAYER
 70
0
  3

 72
65
 73
0
 40
0.0
  0
LTYPE
  5
16
100
AcDbSymbolTableRecord
100
AcDbLinetypeTableRecord
  2
CONTINUOUS
 70
64
  3
Solid line
 72
65
 73
0
 40
0.0
  0
LTYPE
  5
1F5
100
AcDbSymbolTableRecord
100
AcDbLinetypeTableRecord
  2
CENTER
 70
64
  3
____ _ ____ _ ____ _ ____ _ ____ _ ____ _ ____
 72
65
 73
4
 40
0.6
 49
0.375
 74
0
 49
-0.075
 74
0
 49
0.075
 74
0
 49
-0.075
 74
0
  0
LTYPE
  5
1F6
100
AcDbSymbolTableRecord
100
AcDbLinetypeTableRecord
  2
HIDDEN
 70
64
  3
- - - - - - - - - - - - - - - - - - - -
 72
65
 73
2
 40
0.2
 49
0.1
 74
0
 49
-0.1
 74
0
  0
LTYPE
  5
1F7
100
AcDbSymbolTableRecord
100
AcDbLinetypeTableRecord
  2
PHANTOM
 70
64
  3
_____ _ _ _____ _ _ _____ _ _ _____
 72
65
 73
6
 40
0.8
 49
0.45
 74
0
 49
-0.05
 74
0
 49
0.1
 74
0
 49
-0.05
 74
0
 49
0.1
 74
0
 49
-0.05
 74
0
  0
LTYPE
  5
1F8
100
AcDbSymbolTableRecord
100
AcDbLinetypeTableRecord
  2
DOT
 70
64
  3
. . . . . . . . . . . . . . . . . . . .
 72
65
 73
2
 40
0.2
 49
0.1
 74
0
 49
-0.1
 74
0
  0
LTYPE
  5
1F9
100
AcDbSymbolTableRecord
100
AcDbLinetypeTableRecord
  2
DASHED
 70
64
  3
- - - - - - - - - - - - - - - - - - - -
 72
65
 73
2
 40
0.2
 49
0.1
 74
0
 49
-0.1
 74
0
  0
ENDTAB
  0
TABLE
  2
LAYER
  5
2
100
AcDbSymbolTable
 70
36
  0
LAYER
  5
10
100
AcDbSymbolTableRecord
100
AcDbLayerTableRecord
  2
0
 70
0
 62
7
  6
CONTINUOUS
370
-3
390
F
  0
LAYER
  5
1FA
100
AcDbSymbolTableRecord
100
AcDbLayerTableRecord
  2
DEFAULT_1
 70
0
 62
7
  6
CENTER
370
-3
390
F
  0
LAYER
  5
1FB
100
AcDbSymbolTableRecord
100
AcDbLayerTableRecord
  2
DEFAULT_2
 70
0
 62
8
  6
HIDDEN
370
-3
390
F
  0
LAYER
  5
1FC
100
AcDbSymbolTableRecord
100
AcDbLayerTableRecord
  2
DEFAULT_3
 70
0
 62
7
  6
PHANTOM
370
-3
390
F
  0
LAYER
  5
1FD
100
AcDbSymbolTableRecord
100
AcDbLayerTableRecord
  2
01___PRT_ALL_DTM_PLN
 70
0
 62
7
  6
CONTINUOUS
370
-3
390
F
  0
LAYER
  5
1FE
100
AcDbSymbolTableRecord
100
AcDbLayerTableRecord
  2
01___PRT_DEF_DTM_PLN
 70
0
 62
7
  6
CONTINUOUS
370
-3
390
F
  0
LAYER
  5
1FF
100
AcDbSymbolTableRecord
100
AcDbLayerTableRecord
  2
02___PRT_ALL_AXES
 70
0
 62
7
  6
CONTINUOUS
370
-3
390
F
  0
LAYER
  5
200
100
AcDbSymbolTableRecord
100
AcDbLayerTableRecord
  2
03___PRT_ALL_CURVES
 70
0
 62
7
  6
CONTINUOUS
370
-3
390
F
  0
LAYER
  5
201
100
AcDbSymbolTableRecord
100
AcDbLayerTableRecord
  2
04___PRT_ALL_DTM_PNT
 70
0
 62
7
  6
CONTINUOUS
370
-3
390
F
  0
LAYER
  5
202
100
AcDbSymbolTableRecord
100
AcDbLayerTableRecord
  2
05___PRT_ALL_DTM_CSYS
 70
0
 62
7
  6
CONTINUOUS
370
-3
390
F
  0
LAYER
  5
203
100
AcDbSymbolTableRecord
100
AcDbLayerTableRecord
  2
05___PRT_DEF_DTM_CSYS
 70
0
 62
7
  6
CONTINUOUS
370
-3
390
F
  0
LAYER
  5
204
100
AcDbSymbolTableRecord
100
AcDbLayerTableRecord
  2
06___PRT_ALL_SURFS
 70
0
 62
7
  6
CONTINUOUS
370
-3
390
F
  0
LAYER
  5
205
100
AcDbSymbolTableRecord
100
AcDbLayerTableRecord
  2
DATUM_PLANES
 70
0
 62
7
  6
CONTINUOUS
370
-3
390
F
  0
LAYER
  5
206
100
AcDbSymbolTableRecord
100
AcDbLayerTableRecord
  2
PORT_AREAS
 70
0
 62
7
  6
CONTINUOUS
370
-3
390
F
  0
LAYER
  5
207
100
AcDbSymbolTableRecord
100
AcDbLayerTableRecord
  2
SUNNBOMCOSMETIC
 70
0
 62
7
  6
CONTINUOUS
370
-3
390
F
  0
LAYER
  5
208
100
AcDbSymbolTableRecord
100
AcDbLayerTableRecord
  2
SUNNBOMSTAMPING
 70
0
 62
7
  6
CONTINUOUS
370
-3
390
F
  0
LAYER
  5
209
100
AcDbSymbolTableRecord
100
AcDbLayerTableRecord
  2
THREADS
 70
0
 62
7
  6
CONTINUOUS
370
-3
390
F
  0
ENDTAB
  0
TABLE
  2
STYLE
  5
3
100
AcDbSymbolTable
 70
1
  0
STYLE
  5
11
100
AcDbSymbolTableRecord
100
AcDbTextStyleTableRecord
  2
STANDARD
 70
0
 40
0.0
 41
0.8
 50
0.0
 71
0
 42
0.2
  3
txt
  4

  0
STYLE
  5
20A
100
AcDbSymbolTableRecord
100
AcDbTextStyleTableRecord
  2
TEXTSTYLE_1
 70
0
 40
0.0
 41
0.8
 50
0.0
 71
0
 42
0.2
  3
gdt
  4

  0
ENDTAB
  0
TABLE
  2
VIEW
  5
6
100
AcDbSymbolTable
 70
0
  0
ENDTAB
  0
TABLE
  2
UCS
  5
7
100
AcDbSymbolTable
 70
0
  0
ENDTAB
  0
TABLE
  2
APPID
  5
9
100
AcDbSymbolTable
 70
1
  0
APPID
  5
20B
100
AcDbSymbolTableRecord
100
AcDbRegAppTableRecord
  2
ACAD
 70
0
  0
ENDTAB
  0
TABLE
  2
BLOCK_RECORD
  5
1
100
AcDbSymbolTable
 70
0
  0
BLOCK_RECORD
  5
20C
100
AcDbSymbolTableRecord
100
AcDbBlockTableRecord
  2
*Model_Space
  0
BLOCK_RECORD
  5
20D
100
AcDbSymbolTableRecord
100
AcDbBlockTableRecord
  2
*Paper_Space
  0
BLOCK_RECORD
  5
20E
100
AcDbSymbolTableRecord
100
AcDbBlockTableRecord
  2
SUN_FIRST_THIRD_ANGLE_BL0
  0
BLOCK_RECORD
  5
20F
100
AcDbSymbolTableRecord
100
AcDbBlockTableRecord
  2
*T1
  0
BLOCK_RECORD
  5
210
100
AcDbSymbolTableRecord
100
AcDbBlockTableRecord
  2
*T2
  0
BLOCK_RECORD
  5
211
100
AcDbSymbolTableRecord
100
AcDbBlockTableRecord
  2
*T3
  0
ENDTAB
  0
TABLE
  2
DIMSTYLE
  5
A
100
AcDbSymbolTable
 70
1
100
AcDbDimStyleTable
 71
0
  0
DIMSTYLE
105
212
100
AcDbSymbolTableRecord
100
AcDbDimStyleTableRecord
  2
STANDARD
 70
0
  3

  4

 40
1.0
 41
0.1875
 42
0.0625
 43
0.38
 44
0.125
 45
0.0
 46
0.0
 47
0.001
 48
0.001
140
0.1
141
0.09
142
0.0
143
25.4
144
1.0
145
0.0
146
1.0
147
0.09
 71
0.0
 72
0.0
 73
1
 74
1
 75
0
 76
0
 77
0
 78
4
170
0
171
2
172
0
173
0
174
0
175
0
176
0
177
0
178
0
270
2
271
3
272
3
273
2
274
2
275
0
280
0
281
0
282
0
283
1
284
4
285
0
286
0
287
3
288
0
340
11
278
46
  0
ENDTAB
  0
ENDSEC
  0
SECTION
  2
BLOCKS
  0
BLOCK
  5
20
100
AcDbEntity
  8
0
100
AcDbBlockBegin
  2
*Model_Space
 70
0
 10
0.0
 20
0.0
 30
0.0
  3
*Model_Space
  1

  0
ENDBLK
  5
21
100
AcDbEntity
  8
0
100
AcDbBlockEnd
  0
BLOCK
  5
1C
100
AcDbEntity
  8
0
100
AcDbBlockBegin
  2
*Paper_Space
 70
0
 10
0.0
 20
0.0
 30
0.0
  3
*Paper_Space
  1

  0
ENDBLK
  5
1D
100
AcDbEntity
  8
0
100
AcDbBlockEnd
  0
BLOCK
  5
213
100
AcDbEntity
  8
0
100
AcDbBlockBegin
 62
2
  6
CONTINUOUS
  2
SUN_FIRST_THIRD_ANGLE_BL0
 70
64
 10
20.4816717061
 20
1.2289683772
  3
SUN_FIRST_THIRD_ANGLE_BL0
  1

  0
TEXT
  5
214
100
AcDbEntity
  8
0
100
AcDbText
 62
2
  6
CONTINUOUS
 10
19.4750896608
 20
1.4136269581
  7
STANDARD
 40
0.08
  1
FIRST ANGLE
 41
0.8
 72
0
100
AcDbText
  0
TEXT
  5
215
100
AcDbEntity
  8
0
100
AcDbText
 62
2
  6
CONTINUOUS
 10
20.7842537513
 20
1.4047600029
  7
STANDARD
 40
0.08
  1
THIRD ANGLE
 41
0.8
 72
0
100
AcDbText
  0
LINE
  5
216
100
AcDbEntity
  8
0
100
AcDbLine
 62
7
  6
CONTINUOUS
 10
19.4767170086
 20
1.1727031207
 11
19.6334271527
 21
1.1717972817
  0
LINE
  5
217
100
AcDbEntity
  8
0
100
AcDbLine
 62
7
  6
CONTINUOUS
 10
19.6596964832
 20
1.1717972817
 11
19.6950230232
 21
1.171593082
  0
LINE
  5
218
100
AcDbEntity
  8
0
100
AcDbLine
 62
7
  6
CONTINUOUS
 10
19.7194818561
 20
1.1708914427
 11
19.8852396156
 21
1.1699333054
  0
LINE
  5
219
100
AcDbEntity
  8
0
100
AcDbLine
 62
7
  6
CONTINUOUS
 10
19.4758111696
 20
1.2723454088
 11
19.88525039
 21
1.3511534004
  0
LINE
  5
21A
100
AcDbEntity
  8
0
100
AcDbLine
 62
7
  6
CONTINUOUS
 10
19.88525039
 20
1.3511534004
 11
19.8831348489
 21
0.9851647912
  0
LINE
  5
21B
100
AcDbEntity
  8
0
100
AcDbLine
 62
7
  6
CONTINUOUS
 10
19.8831348489
 20
0.9851647912
 11
19.4767170086
 21
1.0658141206
  0
LINE
  5
21C
100
AcDbEntity
  8
0
100
AcDbLine
 62
7
  6
CONTINUOUS
 10
19.4767170086
 20
1.0658141206
 11
19.4779056764
 21
1.2714536432
  0
CIRCLE
  5
21D
100
AcDbEntity
  8
0
100
AcDbCircle
 62
7
  6
CONTINUOUS
 10
20.2068232291
 20
1.1717972817
 40
0.175742101
  0
CIRCLE
  5
21E
100
AcDbEntity
  8
0
100
AcDbCircle
 62
7
  6
CONTINUOUS
 10
20.2068232291
 20
1.1717972817
 40
0.1005522074
  0
LINE
  5
21F
100
AcDbEntity
  8
0
100
AcDbLine
 62
7
  6
CONTINUOUS
 10
20.2077290681
 20
1.3756110529
 11
20.2071171714
 21
1.2379342989
  0
LINE
  5
220
100
AcDbEntity
  8
0
100
AcDbLine
 62
7
  6
CONTINUOUS
 10
20.2077290681
 20
1.2016899681
 11
20.2074674401
 21
1.1428236749
  0
LINE
  5
221
100
AcDbEntity
  8
0
100
AcDbLine
 62
7
  6
CONTINUOUS
 10
20.208634907
 20
1.101141841
 11
20.2080230104
 21
0.963465087
  0
LINE
  5
222
100
AcDbEntity
  8
0
100
AcDbLine
 62
7
  6
CONTINUOUS
 10
20.0066328138
 20
1.1745147986
 11
20.1443095678
 21
1.1739029019
  0
LINE
  5
223
100
AcDbEntity
  8
0
100
AcDbLine
 62
7
  6
CONTINUOUS
 10
20.1832714155
 20
1.1727031207
 11
20.238153505
 21
1.172335442
  0
LINE
  5
224
100
AcDbEntity
  8
0
100
AcDbLine
 62
7
  6
CONTINUOUS
 10
20.2756669918
 20
1.1717972817
 11
20.407916871
 21
1.1712095044
  0
CIRCLE
  5
225
100
AcDbEntity
  8
0
100
AcDbCircle
 62
7
  6
CONTINUOUS
 10
20.7509457401
 20
1.1693297793
 40
0.1722024983
  0
CIRCLE
  5
226
100
AcDbEntity
  8
0
100
AcDbCircle
 62
7
  6
CONTINUOUS
 10
20.7509457401
 20
1.1693297793
 40
0.0985164967
  0
LINE
  5
227
100
AcDbEntity
  8
0
100
AcDbLine
 62
7
  6
CONTINUOUS
 10
20.7169767782
 20
1.170462078
 11
20.7825395137
 21
1.1682766535
  0
LINE
  5
228
100
AcDbEntity
  8
0
100
AcDbLine
 62
7
  6
CONTINUOUS
 10
20.8177513651
 20
1.1693297793
 11
20.947965719
 21
1.1693297793
  0
LINE
  5
229
100
AcDbEntity
  8
0
100
AcDbLine
 62
7
  6
CONTINUOUS
 10
20.6875370113
 20
1.170462078
 11
20.5573226574
 21
1.170462078
  0
LINE
  5
22A
100
AcDbEntity
  8
0
100
AcDbLine
 62
7
  6
CONTINUOUS
 10
20.7486811426
 20
1.1987695462
 11
20.7486811426
 21
1.1432869085
  0
LINE
  5
22B
100
AcDbEntity
  8
0
100
AcDbLine
 62
7
  6
CONTINUOUS
 10
20.7498134414
 20
1.1059210505
 11
20.7498134414
 21
0.9757066966
  0
LINE
  5
22C
100
AcDbEntity
  8
0
100
AcDbLine
 62
7
  6
CONTINUOUS
 10
20.7486811426
 20
1.2338708068
 11
20.7486811426
 21
1.3640851607
  0
LINE
  5
22D
100
AcDbEntity
  8
0
100
AcDbLine
 62
7
  6
CONTINUOUS
 10
21.0702539817
 20
1.2701043662
 11
21.4790138229
 21
1.3448360823
  0
LINE
  5
22E
100
AcDbEntity
  8
0
100
AcDbLine
 62
7
  6
CONTINUOUS
 10
21.4790138229
 20
1.3448360823
 11
21.4790138229
 21
0.9779712941
  0
LINE
  5
22F
100
AcDbEntity
  8
0
100
AcDbLine
 62
7
  6
CONTINUOUS
 10
21.4790138229
 20
0.9779712941
 11
21.069121683
 21
1.0617614
  0
LINE
  5
230
100
AcDbEntity
  8
0
100
AcDbLine
 62
7
  6
CONTINUOUS
 10
21.0702539817
 20
1.2701043662
 11
21.069121683
 21
1.0617614
  0
LINE
  5
231
100
AcDbEntity
  8
0
100
AcDbLine
 62
7
  6
CONTINUOUS
 10
21.4790138229
 20
1.1693297793
 11
21.3159628059
 21
1.1693297793
  0
LINE
  5
232
100
AcDbEntity
  8
0
100
AcDbLine
 62
7
  6
CONTINUOUS
 10
21.2876553377
 20
1.1693297793
 11
21.2502894796
 21
1.1693297793
  0
LINE
  5
233
100
AcDbEntity
  8
0
100
AcDbLine
 62
7
  6
CONTINUOUS
 10
21.2208497126
 20
1.1659328831
 11
21.0713862804
 21
1.1659328831
  0
LINE
  5
234
100
AcDbEntity
  8
0
100
AcDbLine
 62
7
  6
CONTINUOUS
 10
20.4796138713
 20
1.5284908897
 11
20.4766766948
 21
0.9294458646
  0
ENDBLK
  5
235
100
AcDbEntity
  8
0
  6
BYBLOCK
 62
0
100
AcDbBlockEnd
  0
BLOCK
  5
236
100
AcDbEntity
  8
0
100
AcDbBlockBegin
  2
*T1
 70
1
 10
0.0
 20
0.0
  3
*T1
  1

  0
LINE
  5
237
100
AcDbEntity
  8
0
100
AcDbLine
 62
2
  6
CONTINUOUS
 10
9.275
 20
0.0
 11
-0.0
 21
0.0
  0
LINE
  5
238
100
AcDbEntity
  8
0
100
AcDbLine
 62
2
  6
CONTINUOUS
 10
9.275
 20
0.0
 11
9.275
 21
1.25
  0
LINE
  5
239
100
AcDbEntity
  8
0
100
AcDbLine
 62
2
  6
CONTINUOUS
 10
9.275
 20
0.625
 11
-0.0
 21
0.625
  0
LINE
  5
23A
100
AcDbEntity
  8
0
100
AcDbLine
 62
2
  6
CONTINUOUS
 10
9.275
 20
1.25
 11
-0.0
 21
1.25
  0
LINE
  5
23B
100
AcDbEntity
  8
0
100
AcDbLine
 62
2
  6
CONTINUOUS
 10
6.8
 20
0.0
 11
6.8
 21
1.25
  0
LINE
  5
23C
100
AcDbEntity
  8
0
100
AcDbLine
 62
2
  6
CONTINUOUS
 10
6.4
 20
0.0
 11
6.4
 21
0.625
  0
LINE
  5
23D
100
AcDbEntity
  8
0
100
AcDbLine
 62
2
  6
CONTINUOUS
 10
5.9
 20
0.0
 11
5.9
 21
0.625
  0
LINE
  5
23E
100
AcDbEntity
  8
0
100
AcDbLine
 62
2
  6
CONTINUOUS
 10
5.2
 20
0.0
 11
5.2
 21
0.625
  0
LINE
  5
23F
100
AcDbEntity
  8
0
100
AcDbLine
 62
2
  6
CONTINUOUS
 10
4.1
 20
0.0
 11
4.1
 21
1.25
  0
LINE
  5
240
100
AcDbEntity
  8
0
100
AcDbLine
 62
2
  6
CONTINUOUS
 10
-0.0
 20
0.0
 11
-0.0
 21
1.25
  0
MTEXT
  5
241
100
AcDbEntity
  8
0
100
AcDbMText
 62
2
  6
CONTINUOUS
  7
STANDARD
 71
2
 72
1
 10
6.6
 20
0.325
 30
0.0
 11
1.0
 21
0.0
 31
0.0
 44
0.9
  1
2
 40
0.125
 41
0.2
  0
MTEXT
  5
242
100
AcDbEntity
  8
0
100
AcDbMText
 62
2
  6
CONTINUOUS
  7
STANDARD
 71
2
 72
1
 10
6.15
 20
0.325
 30
0.0
 11
1.0
 21
0.0
 31
0.0
 44
0.9
  1
C
 40
0.125
 41
0.2
  0
MTEXT
  5
243
100
AcDbEntity
  8
0
100
AcDbMText
 62
2
  6
CONTINUOUS
  7
STANDARD
 71
2
 72
1
 10
5.55
 20
0.325
 30
0.0
 11
1.0
 21
0.0
 31
0.0
 44
0.9
  1
1.000
 40
0.125
 41
1.0
  0
MTEXT
  5
244
100
AcDbEntity
  8
0
100
AcDbMText
 62
2
  6
CONTINUOUS
  7
STANDARD
 71
2
 72
1
 10
4.65
 20
0.325
 30
0.0
 11
1.0
 21
0.0
 31
0.0
 44
0.9
  1
Nov-19-19
 40
0.125
 41
1.8
  0
MTEXT
  5
245
100
AcDbEntity
  8
0
100
AcDbMText
 62
2
  6
CONTINUOUS
  7
STANDARD
 71
2
 72
1
 10
2.05
 20
0.4625
 30
0.0
 11
1.0
 21
0.0
 31
0.0
 44
0.9
  1
T-17A Line mount\PCross port with shuttle on port 3s
 40
0.125
 41
6.8
  0
MTEXT
  5
246
100
AcDbEntity
  8
0
100
AcDbMText
 62
2
  6
CONTINUOUS
  7
STANDARD
 71
1
 72
1
 10
6.45
 20
0.5625
 30
0.0
 11
1.0
 21
0.0
 31
0.0
 44
0.9
  1
SHEET
 40
0.06
 41
0.48
  0
MTEXT
  5
247
100
AcDbEntity
  8
0
100
AcDbMText
 62
2
  6
CONTINUOUS
  7
STANDARD
 71
1
 72
1
 10
5.95
 20
0.5625
 30
0.0
 11
1.0
 21
0.0
 31
0.0
 44
0.9
  1
DWG SIZE
 40
0.06
 41
0.768
  0
MTEXT
  5
248
100
AcDbEntity
  8
0
100
AcDbMText
 62
2
  6
CONTINUOUS
  7
STANDARD
 71
1
 72
1
 10
5.25
 20
0.5625
 30
0.0
 11
1.0
 21
0.0
 31
0.0
 44
0.9
  1
SCALE
 40
0.06
 41
0.48
  0
MTEXT
  5
249
100
AcDbEntity
  8
0
100
AcDbMText
 62
2
  6
CONTINUOUS
  7
STANDARD
 71
1
 72
1
 10
4.15
 20
0.5625
 30
0.0
 11
1.0
 21
0.0
 31
0.0
 44
0.9
  1
DATE
 40
0.06
 41
0.384
  0
MTEXT
  5
24A
100
AcDbEntity
  8
0
100
AcDbMText
 62
2
  6
CONTINUOUS
  7
STANDARD
 71
1
 72
1
 10
0.05
 20
0.5625
 30
0.0
 11
1.0
 21
0.0
 31
0.0
 44
0.9
  1
DESCRIPTION
 40
0.06
 41
1.056
  0
MTEXT
  5
24B
100
AcDbEntity
  8
0
100
AcDbMText
 62
2
  6
CONTINUOUS
  7
STANDARD
 71
2
 72
1
 10
5.45
 20
1.0375
 30
0.0
 11
1.0
 21
0.0
 31
0.0
 44
0.9
  1
ALL DIMENSIONS IN INCH\PVIEWS ARE THIRD ANGLE
 40
0.12
 41
4.224
  0
MTEXT
  5
24C
100
AcDbEntity
  8
0
100
AcDbMText
 62
2
  6
CONTINUOUS
  7
STANDARD
 71
2
 72
1
 10
2.05
 20
0.95
 30
0.0
 11
1.0
 21
0.0
 31
0.0
 44
0.9
  1
XCM
 40
0.125
 41
0.6
  0
MTEXT
  5
24D
100
AcDbEntity
  8
0
100
AcDbMText
 62
2
  6
CONTINUOUS
  7
STANDARD
 71
1
 72
1
 10
0.05
 20
1.1875
 30
0.0
 11
1.0
 21
0.0
 31
0.0
 44
0.9
  1
MODEL
 40
0.06
 41
0.48
  0
ENDBLK
  5
24E
100
AcDbEntity
  8
0
  6
BYBLOCK
 62
0
100
AcDbBlockEnd
  0
BLOCK
  5
24F
100
AcDbEntity
  8
0
100
AcDbBlockBegin
  2
*T2
 70
1
 10
0.0
 20
0.0
  3
*T2
  1

  0
LINE
  5
250
100
AcDbEntity
  8
0
100
AcDbLine
 62
2
  6
CONTINUOUS
 10
0.0
 20
0.0
 11
9.055
 21
0.0
  0
LINE
  5
251
100
AcDbEntity
  8
0
100
AcDbLine
 62
2
  6
CONTINUOUS
 10
0.0
 20
0.0
 11
0.0
 21
-2.594
  0
LINE
  5
252
100
AcDbEntity
  8
0
100
AcDbLine
 62
2
  6
CONTINUOUS
 10
0.0
 20
-0.344
 11
9.055
 21
-0.344
  0
LINE
  5
253
100
AcDbEntity
  8
0
100
AcDbLine
 62
2
  6
CONTINUOUS
 10
0.0
 20
-0.594
 11
9.055
 21
-0.594
  0
LINE
  5
254
100
AcDbEntity
  8
0
100
AcDbLine
 62
2
  6
CONTINUOUS
 10
0.0
 20
-0.844
 11
9.055
 21
-0.844
  0
LINE
  5
255
100
AcDbEntity
  8
0
100
AcDbLine
 62
2
  6
CONTINUOUS
 10
0.0
 20
-1.094
 11
9.055
 21
-1.094
  0
LINE
  5
256
100
AcDbEntity
  8
0
100
AcDbLine
 62
2
  6
CONTINUOUS
 10
0.0
 20
-1.344
 11
9.055
 21
-1.344
  0
LINE
  5
257
100
AcDbEntity
  8
0
100
AcDbLine
 62
2
  6
CONTINUOUS
 10
0.0
 20
-1.594
 11
9.055
 21
-1.594
  0
LINE
  5
258
100
AcDbEntity
  8
0
100
AcDbLine
 62
2
  6
CONTINUOUS
 10
0.0
 20
-1.844
 11
9.055
 21
-1.844
  0
LINE
  5
259
100
AcDbEntity
  8
0
100
AcDbLine
 62
2
  6
CONTINUOUS
 10
0.0
 20
-2.094
 11
9.055
 21
-2.094
  0
LINE
  5
25A
100
AcDbEntity
  8
0
100
AcDbLine
 62
2
  6
CONTINUOUS
 10
0.0
 20
-2.344
 11
9.055
 21
-2.344
  0
LINE
  5
25B
100
AcDbEntity
  8
0
100
AcDbLine
 62
2
  6
CONTINUOUS
 10
0.0
 20
-2.594
 11
9.055
 21
-2.594
  0
LINE
  5
25C
100
AcDbEntity
  8
0
100
AcDbLine
 62
2
  6
CONTINUOUS
 10
3.055
 20
0.0
 11
3.055
 21
-2.594
  0
LINE
  5
25D
100
AcDbEntity
  8
0
100
AcDbLine
 62
2
  6
CONTINUOUS
 10
9.055
 20
0.0
 11
9.055
 21
-2.594
  0
MTEXT
  5
25E
100
AcDbEntity
  8
0
100
AcDbMText
 62
2
  6
CONTINUOUS
  7
STANDARD
 71
2
 72
1
 10
1.5275
 20
-0.0995
 30
0.0
 11
1.0
 21
0.0
 31
0.0
 44
0.9
  1
Technical Data
 40
0.145
 41
3.248
  0
MTEXT
  5
25F
100
AcDbEntity
  8
0
100
AcDbMText
 62
2
  6
CONTINUOUS
  7
STANDARD
 71
2
 72
1
 10
4.555
 20
-0.0995
 30
0.0
 11
1.0
 21
0.0
 31
0.0
 44
0.9
  1
U.S. Units
 40
0.145
 41
2.32
  0
MTEXT
  5
260
100
AcDbEntity
  8
0
100
AcDbMText
 62
2
  6
CONTINUOUS
  7
STANDARD
 71
2
 72
1
 10
7.555
 20
-0.0995
 30
0.0
 11
1.0
 21
0.0
 31
0.0
 44
0.9
  1
Metric Units
 40
0.145
 41
2.784
  0
MTEXT
  5
261
100
AcDbEntity
  8
0
100
AcDbMText
 62
2
  6
CONTINUOUS
  7
STANDARD
 71
2
 72
1
 10
1.5275
 20
-0.4065
 30
0.0
 11
1.0
 21
0.0
 31
0.0
 44
0.9
  1
Cavity
 40
0.125
 41
1.2
  0
MTEXT
  5
262
100
AcDbEntity
  8
0
100
AcDbMText
 62
2
  6
CONTINUOUS
  7
STANDARD
 71
2
 72
1
 10
6.055
 20
-0.4065
 30
0.0
 11
1.0
 21
0.0
 31
0.0
 44
0.9
  1
T-17A
 40
0.125
 41
1.0
  0
MTEXT
  5
263
100
AcDbEntity
  8
0
100
AcDbMText
 62
2
  6
CONTINUOUS
  7
STANDARD
 71
2
 72
1
 10
1.5275
 20
-0.6565
 30
0.0
 11
1.0
 21
0.0
 31
0.0
 44
0.9
  1
Body Features
 40
0.125
 41
2.6
  0
MTEXT
  5
264
100
AcDbEntity
  8
0
100
AcDbMText
 62
2
  6
CONTINUOUS
  7
STANDARD
 71
2
 72
1
 10
6.055
 20
-0.6565
 30
0.0
 11
1.0
 21
0.0
 31
0.0
 44
0.9
  1
Cross port with shuttle on port 3s
 40
0.125
 41
6.8
  0
MTEXT
  5
265
100
AcDbEntity
  8
0
100
AcDbMText
 62
2
  6
CONTINUOUS
  7
STANDARD
 71
2
 72
1
 10
1.5275
 20
-0.9065
 30
0.0
 11
1.0
 21
0.0
 31
0.0
 44
0.9
  1
Body Type
 40
0.125
 41
1.8
  0
MTEXT
  5
266
100
AcDbEntity
  8
0
100
AcDbMText
 62
2
  6
CONTINUOUS
  7
STANDARD
 71
2
 72
1
 10
6.055
 20
-0.9065
 30
0.0
 11
1.0
 21
0.0
 31
0.0
 44
0.9
  1
Line mount
 40
0.125
 41
2.0
  0
MTEXT
  5
267
100
AcDbEntity
  8
0
100
AcDbMText
 62
2
  6
CONTINUOUS
  7
STANDARD
 71
2
 72
1
 10
1.5275
 20
-1.1565
 30
0.0
 11
1.0
 21
0.0
 31
0.0
 44
0.9
  1
Interface
 40
0.125
 41
1.8
  0
MTEXT
  5
268
100
AcDbEntity
  8
0
100
AcDbMText
 62
2
  6
CONTINUOUS
  7
STANDARD
 71
2
 72
1
 10
6.055
 20
-1.1565
 30
0.0
 11
1.0
 21
0.0
 31
0.0
 44
0.9
  1
None
 40
0.125
 41
0.8
  0
MTEXT
  5
269
100
AcDbEntity
  8
0
100
AcDbMText
 62
2
  6
CONTINUOUS
  7
STANDARD
 71
2
 72
1
 10
1.5275
 20
-1.4065
 30
0.0
 11
1.0
 21
0.0
 31
0.0
 44
0.9
  1
Open Cavity Quantity
 40
0.125
 41
4.0
  0
MTEXT
  5
26A
100
AcDbEntity
  8
0
100
AcDbMText
 62
2
  6
CONTINUOUS
  7
STANDARD
 71
2
 72
1
 10
6.055
 20
-1.4065
 30
0.0
 11
1.0
 21
0.0
 31
0.0
 44
0.9
  1
2
 40
0.125
 41
0.2
  0
MTEXT
  5
26B
100
AcDbEntity
  8
0
100
AcDbMText
 62
2
  6
CONTINUOUS
  7
STANDARD
 71
2
 72
1
 10
1.5275
 20
-1.6565
 30
0.0
 11
1.0
 21
0.0
 31
0.0
 44
0.9
  1
Weight
 40
0.125
 41
1.2
  0
MTEXT
  5
26C
100
AcDbEntity
  8
0
100
AcDbMText
 62
2
  6
CONTINUOUS
  7
STANDARD
 71
2
 72
1
 10
4.555
 20
-1.6565
 30
0.0
 11
1.0
 21
0.0
 31
0.0
 44
0.9
  1
14.046 lb.
 40
0.125
 41
2.0
  0
MTEXT
  5
26D
100
AcDbEntity
  8
0
100
AcDbMText
 62
2
  6
CONTINUOUS
  7
STANDARD
 71
2
 72
1
 10
7.555
 20
-1.6565
 30
0.0
 11
1.0
 21
0.0
 31
0.0
 44
0.9
  1
6,371 kg.
 40
0.125
 41
1.8
  0
MTEXT
  5
26E
100
AcDbEntity
  8
0
100
AcDbMText
 62
2
  6
CONTINUOUS
  7
STANDARD
 71
2
 72
1
 10
1.5275
 20
-1.9065
 30
0.0
 11
1.0
 21
0.0
 31
0.0
 44
0.9
  1
Mounting Hole Diameter
 40
0.125
 41
4.4
  0
MTEXT
  5
26F
100
AcDbEntity
  8
0
100
AcDbMText
 62
2
  6
CONTINUOUS
  7
STANDARD
 71
2
 72
1
 10
4.555
 20
-1.9065
 30
0.0
 11
1.0
 21
0.0
 31
0.0
 44
0.9
  1
.42 in.
 40
0.125
 41
1.4
  0
MTEXT
  5
270
100
AcDbEntity
  8
0
100
AcDbMText
 62
2
  6
CONTINUOUS
  7
STANDARD
 71
2
 72
1
 10
7.555
 20
-1.9065
 30
0.0
 11
1.0
 21
0.0
 31
0.0
 44
0.9
  1
10,7 mm
 40
0.125
 41
1.4
  0
MTEXT
  5
271
100
AcDbEntity
  8
0
100
AcDbMText
 62
2
  6
CONTINUOUS
  7
STANDARD
 71
2
 72
1
 10
1.5275
 20
-2.1565
 30
0.0
 11
1.0
 21
0.0
 31
0.0
 44
0.9
  1
Mounting Hole Depth
 40
0.125
 41
3.8
  0
MTEXT
  5
272
100
AcDbEntity
  8
0
100
AcDbMText
 62
2
  6
CONTINUOUS
  7
STANDARD
 71
2
 72
1
 10
6.055
 20
-2.1565
 30
0.0
 11
1.0
 21
0.0
 31
0.0
 44
0.9
  1
Through
 40
0.125
 41
1.4
  0
MTEXT
  5
273
100
AcDbEntity
  8
0
100
AcDbMText
 62
2
  6
CONTINUOUS
  7
STANDARD
 71
2
 72
1
 10
1.5275
 20
-2.4065
 30
0.0
 11
1.0
 21
0.0
 31
0.0
 44
0.9
  1
Mounting Hole Quantity
 40
0.125
 41
4.4
  0
MTEXT
  5
274
100
AcDbEntity
  8
0
100
AcDbMText
 62
2
  6
CONTINUOUS
  7
STANDARD
 71
2
 72
1
 10
6.055
 20
-2.4065
 30
0.0
 11
1.0
 21
0.0
 31
0.0
 44
0.9
  1
2
 40
0.125
 41
0.2
  0
ENDBLK
  5
275
100
AcDbEntity
  8
0
  6
BYBLOCK
 62
0
100
AcDbBlockEnd
  0
BLOCK
  5
276
100
AcDbEntity
  8
0
100
AcDbBlockBegin
  2
*T3
 70
1
 10
0.0
 20
0.0
  3
*T3
  1

  0
LINE
  5
277
100
AcDbEntity
  8
0
100
AcDbLine
 62
2
  6
CONTINUOUS
 10
0.0
 20
0.0
 11
4.6
 21
0.0
  0
LINE
  5
278
100
AcDbEntity
  8
0
100
AcDbLine
 62
2
  6
CONTINUOUS
 10
0.0
 20
0.0
 11
0.0
 21
-1.43775
  0
LINE
  5
279
100
AcDbEntity
  8
0
100
AcDbLine
 62
2
  6
CONTINUOUS
 10
0.0
 20
-0.34375
 11
4.6
 21
-0.34375
  0
LINE
  5
27A
100
AcDbEntity
  8
0
100
AcDbLine
 62
2
  6
CONTINUOUS
 10
0.0
 20
-0.68775
 11
4.6
 21
-0.68775
  0
LINE
  5
27B
100
AcDbEntity
  8
0
100
AcDbLine
 62
2
  6
CONTINUOUS
 10
0.0
 20
-0.93775
 11
4.6
 21
-0.93775
  0
LINE
  5
27C
100
AcDbEntity
  8
0
100
AcDbLine
 62
2
  6
CONTINUOUS
 10
0.0
 20
-1.18775
 11
4.6
 21
-1.18775
  0
LINE
  5
27D
100
AcDbEntity
  8
0
100
AcDbLine
 62
2
  6
CONTINUOUS
 10
0.0
 20
-1.43775
 11
4.6
 21
-1.43775
  0
LINE
  5
27E
100
AcDbEntity
  8
0
100
AcDbLine
 62
2
  6
CONTINUOUS
 10
1.3
 20
-0.34375
 11
1.3
 21
-1.43775
  0
LINE
  5
27F
100
AcDbEntity
  8
0
100
AcDbLine
 62
2
  6
CONTINUOUS
 10
3.3
 20
-0.34375
 11
3.3
 21
-1.43775
  0
LINE
  5
280
100
AcDbEntity
  8
0
100
AcDbLine
 62
2
  6
CONTINUOUS
 10
4.6
 20
0.0
 11
4.6
 21
-1.43775
  0
MTEXT
  5
281
100
AcDbEntity
  8
0
100
AcDbMText
 62
2
  6
CONTINUOUS
  7
STANDARD
 71
2
 72
1
 10
2.3
 20
-0.099375
 30
0.0
 11
1.0
 21
0.0
 31
0.0
 44
0.9
  1
Port Headings
 40
0.145
 41
3.016
  0
MTEXT
  5
282
100
AcDbEntity
  8
0
100
AcDbMText
 62
2
  6
CONTINUOUS
  7
STANDARD
 71
2
 72
1
 10
0.65
 20
-0.44325
 30
0.0
 11
1.0
 21
0.0
 31
0.0
 44
0.9
  1
Product
 40
0.145
 41
1.624
  0
MTEXT
  5
283
100
AcDbEntity
  8
0
100
AcDbMText
 62
2
  6
CONTINUOUS
  7
STANDARD
 71
2
 72
1
 10
2.3
 20
-0.44325
 30
0.0
 11
1.0
 21
0.0
 31
0.0
 44
0.9
  1
Port
 40
0.145
 41
0.928
  0
MTEXT
  5
284
100
AcDbEntity
  8
0
100
AcDbMText
 62
2
  6
CONTINUOUS
  7
STANDARD
 71
2
 72
1
 10
3.95
 20
-0.44325
 30
0.0
 11
1.0
 21
0.0
 31
0.0
 44
0.9
  1
Size
 40
0.145
 41
0.928
  0
MTEXT
  5
285
100
AcDbEntity
  8
0
100
AcDbMText
 62
2
  6
CONTINUOUS
  7
STANDARD
 71
2
 72
1
 10
0.65
 20
-0.75025
 30
0.0
 11
1.0
 21
0.0
 31
0.0
 44
0.9
  1
XCM
 40
0.125
 41
0.6
  0
MTEXT
  5
286
100
AcDbEntity
  8
0
100
AcDbMText
 62
2
  6
CONTINUOUS
  7
STANDARD
 71
2
 72
1
 10
2.3
 20
-0.75025
 30
0.0
 11
1.0
 21
0.0
 31
0.0
 44
0.9
  1
Ports 1 &  2
 40
0.125
 41
2.4
  0
MTEXT
  5
287
100
AcDbEntity
  8
0
100
AcDbMText
 62
2
  6
CONTINUOUS
  7
STANDARD
 71
2
 72
1
 10
3.95
 20
-0.75025
 30
0.0
 11
1.0
 21
0.0
 31
0.0
 44
0.9
  1
SAE 16
 40
0.125
 41
1.2
  0
MTEXT
  5
288
100
AcDbEntity
  8
0
100
AcDbMText
 62
2
  6
CONTINUOUS
  7
STANDARD
 71
2
 72
1
 10
0.65
 20
-1.00025
 30
0.0
 11
1.0
 21
0.0
 31
0.0
 44
0.9
  1
XCM
 40
0.125
 41
0.6
  0
MTEXT
  5
289
100
AcDbEntity
  8
0
100
AcDbMText
 62
2
  6
CONTINUOUS
  7
STANDARD
 71
2
 72
1
 10
2.3
 20
-1.00025
 30
0.0
 11
1.0
 21
0.0
 31
0.0
 44
0.9
  1
Port V
 40
0.125
 41
1.2
  0
MTEXT
  5
28A
100
AcDbEntity
  8
0
100
AcDbMText
 62
2
  6
CONTINUOUS
  7
STANDARD
 71
2
 72
1
 10
3.95
 20
-1.00025
 30
0.0
 11
1.0
 21
0.0
 31
0.0
 44
0.9
  1
SAE 6
 40
0.125
 41
1.0
  0
MTEXT
  5
28B
100
AcDbEntity
  8
0
100
AcDbMText
 62
2
  6
CONTINUOUS
  7
STANDARD
 71
2
 72
1
 10
0.65
 20
-1.25025
 30
0.0
 11
1.0
 21
0.0
 31
0.0
 44
0.9
  1
XCM
 40
0.125
 41
0.6
  0
MTEXT
  5
28C
100
AcDbEntity
  8
0
100
AcDbMText
 62
2
  6
CONTINUOUS
  7
STANDARD
 71
2
 72
1
 10
2.3
 20
-1.25025
 30
0.0
 11
1.0
 21
0.0
 31
0.0
 44
0.9
  1
Gage Ports
 40
0.125
 41
2.0
  0
MTEXT
  5
28D
100
AcDbEntity
  8
0
100
AcDbMText
 62
2
  6
CONTINUOUS
  7
STANDARD
 71
2
 72
1
 10
3.95
 20
-1.25025
 30
0.0
 11
1.0
 21
0.0
 31
0.0
 44
0.9
  1
1/4" NPTF
 40
0.125
 41
1.8
  0
ENDBLK
  5
28E
100
AcDbEntity
  8
0
  6
BYBLOCK
 62
0
100
AcDbBlockEnd
  0
ENDSEC
  0
SECTION
  2
ENTITIES
  0
IMAGE
  5
28F
100
AcDbEntity
  8
0
100
AcDbRasterImage
 62
7
  6
CONTINUOUS
 10
19.2297077316
 20
0.3094318264
 30
0.0
 11
0.0066666667
 21
0.0
 31
0.0
 12
0.0
 22
0.0066666667
 32
0.0
 13
369.0
 23
92.0
340
       416
 70
9
280
0
281
50
282
50
283
0
360
       410
 71
1
 91
2
 14
-0.5
 24
-0.5
 14
368.5
 24
91.5
  0
INSERT
  5
290
100
AcDbEntity
  8
0
100
AcDbBlockReference
 62
2
  6
CONTINUOUS
  2
SUN_FIRST_THIRD_ANGLE_BL0
 10
20.4816717061
 20
1.2289683772
  0
ACAD_TABLE
  5
291
100
AcDbEntity
  8
0
 62
2
  6
CONTINUOUS
100
AcDbBlockReference
  2
*T1
 10
12.42375
 20
0.30125
 30
0.0
100
AcDbTable
342
       418
343
20F
 11
1.0
 21
0.0
 31
0.0
 90
6
 91
4
 92
6
 93
20
 94
0
 95
0
 96
0
 70
1
 41
0.0
141
0.525
141
0.1
141
0.525
141
0.1
142
4.1
142
1.1
142
0.7
142
0.5
142
0.4
142
2.475
171
1
172
0
173
0
174
0
175
1
176
1
 91
33
178
0
145
0.0
301
CELL_VALUE
 90
4
  1
T-17A Line mount\PCross port with shuttle on port 3s
304
ACVALUE_END
170
2
140
0.125
171
1
172
0
173
0
174
0
175
1
176
1
 91
33
178
0
145
0.0
301
CELL_VALUE
 90
4
  1
Nov-19-19
304
ACVALUE_END
170
5
140
0.125
171
1
172
0
173
0
174
0
175
1
176
1
 91
33
178
0
145
0.0
301
CELL_VALUE
 90
4
  1
1.000
304
ACVALUE_END
170
5
140
0.125
171
1
172
0
173
0
174
0
175
1
176
1
 91
33
178
0
145
0.0
301
CELL_VALUE
 90
4
  1
C
304
ACVALUE_END
170
5
140
0.125
171
1
172
0
173
0
174
0
175
1
176
1
 91
33
178
0
145
0.0
301
CELL_VALUE
 90
4
  1
2
304
ACVALUE_END
170
5
140
0.125
171
1
172
0
173
0
174
0
175
1
176
1
 91
33
178
0
145
0.0
301
CELL_VALUE
 90
4
  1
 
304
ACVALUE_END
170
1
140
0.125
171
1
172
0
173
0
174
0
175
1
176
1
 91
33
178
0
145
0.0
301
CELL_VALUE
 90
4
  1
DESCRIPTION
304
ACVALUE_END
170
1
140
0.06
171
1
172
0
173
0
174
0
175
1
176
1
 91
33
178
0
145
0.0
301
CELL_VALUE
 90
4
  1
DATE
304
ACVALUE_END
170
1
140
0.06
171
1
172
0
173
0
174
0
175
1
176
1
 91
33
178
0
145
0.0
301
CELL_VALUE
 90
4
  1
SCALE
304
ACVALUE_END
170
1
140
0.06
171
1
172
0
173
0
174
0
175
1
176
1
 91
33
178
0
145
0.0
301
CELL_VALUE
 90
4
  1
DWG SIZE
304
ACVALUE_END
170
1
140
0.06
171
1
172
0
173
0
174
0
175
1
176
1
 91
33
178
0
145
0.0
301
CELL_VALUE
 90
4
  1
SHEET
304
ACVALUE_END
170
1
140
0.06
171
1
172
0
173
0
174
0
175
1
176
1
 91
33
178
0
145
0.0
301
CELL_VALUE
 90
4
  1
 
304
ACVALUE_END
170
1
140
0.125
171
1
172
0
173
0
174
0
175
1
176
1
 91
33
178
0
145
0.0
301
CELL_VALUE
 90
4
  1
XCM
304
ACVALUE_END
170
5
140
0.125
171
1
172
0
173
0
174
0
175
4
176
1
 91
33
178
0
145
0.0
301
CELL_VALUE
 90
4
  1
ALL DIMENSIONS IN INCH\PVIEWS ARE THIRD ANGLE
304
ACVALUE_END
170
5
140
0.12
171
1
172
0
173
1
174
0
175
1
176
1
 91
1
178
0
145
0.0
170
1
171
1
172
0
173
1
174
0
175
1
176
1
 91
1
178
0
145
0.0
170
1
171
1
172
0
173
1
174
0
175
1
176
1
 91
1
178
0
145
0.0
170
5
171
1
172
0
173
0
174
0
175
1
176
1
 91
33
178
0
145
0.0
301
CELL_VALUE
 90
4
  1
 
304
ACVALUE_END
170
1
140
0.125
171
1
172
0
173
0
174
0
175
1
176
1
 91
33
178
0
145
0.0
301
CELL_VALUE
 90
4
  1
MODEL
304
ACVALUE_END
170
1
140
0.06
171
1
172
0
173
0
174
0
175
1
176
1
 91
33
178
0
145
0.0
301
CELL_VALUE
 90
4
  1
 
304
ACVALUE_END
170
1
140
0.125
171
1
172
0
173
0
174
0
175
1
176
1
 91
33
178
0
145
0.0
301
CELL_VALUE
 90
4
  1
 
304
ACVALUE_END
170
1
140
0.125
171
1
172
0
173
0
174
0
175
1
176
1
 91
33
178
0
145
0.0
301
CELL_VALUE
 90
4
  1
 
304
ACVALUE_END
170
1
140
0.125
171
1
172
0
173
0
174
0
175
1
176
1
 91
33
178
0
145
0.0
301
CELL_VALUE
 90
4
  1
 
304
ACVALUE_END
170
1
140
0.125
171
1
172
0
173
0
174
0
175
1
176
1
 91
33
178
0
145
0.0
301
CELL_VALUE
 90
4
  1
 
304
ACVALUE_END
170
1
140
0.125
  0
ACAD_TABLE
  5
292
100
AcDbEntity
  8
0
 62
2
  6
CONTINUOUS
100
AcDbBlockReference
  2
*T2
 10
12.4237499994
 20
16.47875
 30
0.0
100
AcDbTable
342
       417
343
210
 11
1.0
 21
0.0
 31
0.0
 90
22
 91
10
 92
3
 93
16
 94
0
 95
0
 96
0
 41
0.028
141
0.344
141
0.25
141
0.25
141
0.25
141
0.25
141
0.25
141
0.25
141
0.25
141
0.25
141
0.25
142
3.055
142
3.0
142
3.0
171
1
172
0
173
0
174
0
175
1
176
1
 91
33
178
0
145
0.0
301
CELL_VALUE
 90
4
  1
Technical Data
304
ACVALUE_END
170
5
140
0.145
171
1
172
0
173
0
174
0
175
1
176
1
 91
33
178
0
145
0.0
301
CELL_VALUE
 90
4
  1
U.S. Units
304
ACVALUE_END
170
5
140
0.145
171
1
172
0
173
0
174
0
175
1
176
1
 91
33
178
0
145
0.0
301
CELL_VALUE
 90
4
  1
Metric Units
304
ACVALUE_END
170
5
140
0.145
171
1
172
0
173
0
174
0
175
1
176
1
 91
33
178
0
145
0.0
301
CELL_VALUE
 90
4
  1
Cavity
304
ACVALUE_END
170
5
140
0.125
171
1
172
0
173
0
174
0
175
2
176
1
 91
33
178
0
145
0.0
301
CELL_VALUE
 90
4
  1
T-17A
304
ACVALUE_END
170
5
140
0.125
171
1
172
0
173
1
174
0
175
1
176
1
 91
1
178
0
145
0.0
170
1
171
1
172
0
173
0
174
0
175
1
176
1
 91
33
178
0
145
0.0
301
CELL_VALUE
 90
4
  1
Body Features
304
ACVALUE_END
170
5
140
0.125
171
1
172
0
173
0
174
0
175
2
176
1
 91
33
178
0
145
0.0
301
CELL_VALUE
 90
4
  1
Cross port with shuttle on port 3s
304
ACVALUE_END
170
5
140
0.125
171
1
172
0
173
1
174
0
175
1
176
1
 91
1
178
0
145
0.0
170
1
171
1
172
0
173
0
174
0
175
1
176
1
 91
33
178
0
145
0.0
301
CELL_VALUE
 90
4
  1
Body Type
304
ACVALUE_END
170
5
140
0.125
171
1
172
0
173
0
174
0
175
2
176
1
 91
33
178
0
145
0.0
301
CELL_VALUE
 90
4
  1
Line mount
304
ACVALUE_END
170
5
140
0.125
171
1
172
0
173
1
174
0
175
1
176
1
 91
1
178
0
145
0.0
170
1
171
1
172
0
173
0
174
0
175
1
176
1
 91
33
178
0
145
0.0
301
CELL_VALUE
 90
4
  1
Interface
304
ACVALUE_END
170
5
140
0.125
171
1
172
0
173
0
174
0
175
2
176
1
 91
33
178
0
145
0.0
301
CELL_VALUE
 90
4
  1
None
304
ACVALUE_END
170
5
140
0.125
171
1
172
0
173
1
174
0
175
1
176
1
 91
1
178
0
145
0.0
170
1
171
1
172
0
173
0
174
0
175
1
176
1
 91
33
178
0
145
0.0
301
CELL_VALUE
 90
4
  1
Open Cavity Quantity
304
ACVALUE_END
170
5
140
0.125
171
1
172
0
173
0
174
0
175
2
176
1
 91
33
178
0
145
0.0
301
CELL_VALUE
 90
4
  1
2
304
ACVALUE_END
170
5
140
0.125
171
1
172
0
173
1
174
0
175
1
176
1
 91
1
178
0
145
0.0
170
1
171
1
172
0
173
0
174
0
175
1
176
1
 91
33
178
0
145
0.0
301
CELL_VALUE
 90
4
  1
Weight
304
ACVALUE_END
170
5
140
0.125
171
1
172
0
173
0
174
0
175
1
176
1
 91
33
178
0
145
0.0
301
CELL_VALUE
 90
4
  1
14.046 lb.
304
ACVALUE_END
170
5
140
0.125
171
1
172
0
173
0
174
0
175
1
176
1
 91
33
178
0
145
0.0
301
CELL_VALUE
 90
4
  1
6,371 kg.
304
ACVALUE_END
170
5
140
0.125
171
1
172
0
173
0
174
0
175
1
176
1
 91
33
178
0
145
0.0
301
CELL_VALUE
 90
4
  1
Mounting Hole Diameter
304
ACVALUE_END
170
5
140
0.125
171
1
172
0
173
0
174
0
175
1
176
1
 91
33
178
0
145
0.0
301
CELL_VALUE
 90
4
  1
.42 in.
304
ACVALUE_END
170
5
140
0.125
171
1
172
0
173
0
174
0
175
1
176
1
 91
33
178
0
145
0.0
301
CELL_VALUE
 90
4
  1
10,7 mm
304
ACVALUE_END
170
5
140
0.125
171
1
172
0
173
0
174
0
175
1
176
1
 91
33
178
0
145
0.0
301
CELL_VALUE
 90
4
  1
Mounting Hole Depth
304
ACVALUE_END
170
5
140
0.125
171
1
172
0
173
0
174
0
175
2
176
1
 91
33
178
0
145
0.0
301
CELL_VALUE
 90
4
  1
Through
304
ACVALUE_END
170
5
140
0.125
171
1
172
0
173
1
174
0
175
1
176
1
 91
1
178
0
145
0.0
170
1
171
1
172
0
173
0
174
0
175
1
176
1
 91
33
178
0
145
0.0
301
CELL_VALUE
 90
4
  1
Mounting Hole Quantity
304
ACVALUE_END
170
5
140
0.125
171
1
172
0
173
0
174
0
175
2
176
1
 91
33
178
0
145
0.0
301
CELL_VALUE
 90
4
  1
2
304
ACVALUE_END
170
5
140
0.125
171
1
172
0
173
1
174
0
175
1
176
1
 91
1
178
0
145
0.0
170
1
  0
ACAD_TABLE
  5
293
100
AcDbEntity
  8
0
 62
2
  6
CONTINUOUS
100
AcDbBlockReference
  2
*T3
 10
0.52125
 20
1.959
 30
0.0
100
AcDbTable
342
       417
343
211
 11
1.0
 21
0.0
 31
0.0
 90
22
 91
5
 92
3
 93
16
 94
0
 95
0
 96
0
 41
0.05
141
0.34375
141
0.344
141
0.25
141
0.25
141
0.25
142
1.3
142
2.0
142
1.3
171
1
172
0
173
0
174
0
175
3
176
1
 91
33
178
0
145
0.0
301
CELL_VALUE
 90
4
  1
Port Headings
304
ACVALUE_END
170
5
140
0.145
171
1
172
0
173
1
174
0
175
1
176
1
 91
1
178
0
145
0.0
170
1
171
1
172
0
173
1
174
0
175
1
176
1
 91
1
178
0
145
0.0
170
1
171
1
172
0
173
0
174
0
175
1
176
1
 91
33
178
0
145
0.0
301
CELL_VALUE
 90
4
  1
Product
304
ACVALUE_END
170
5
140
0.145
171
1
172
0
173
0
174
0
175
1
176
1
 91
33
178
0
145
0.0
301
CELL_VALUE
 90
4
  1
Port
304
ACVALUE_END
170
5
140
0.145
171
1
172
0
173
0
174
0
175
1
176
1
 91
33
178
0
145
0.0
301
CELL_VALUE
 90
4
  1
Size
304
ACVALUE_END
170
5
140
0.145
171
1
172
0
173
0
174
0
175
1
176
1
 91
33
178
0
145
0.0
301
CELL_VALUE
 90
4
  1
XCM
304
ACVALUE_END
170
5
140
0.125
171
1
172
0
173
0
174
0
175
1
176
1
 91
33
178
0
145
0.0
301
CELL_VALUE
 90
4
  1
Ports 1 &  2
304
ACVALUE_END
170
5
140
0.125
171
1
172
0
173
0
174
0
175
1
176
1
 91
33
178
0
145
0.0
301
CELL_VALUE
 90
4
  1
SAE 16
304
ACVALUE_END
170
5
140
0.125
171
1
172
0
173
0
174
0
175
1
176
1
 91
33
178
0
145
0.0
301
CELL_VALUE
 90
4
  1
XCM
304
ACVALUE_END
170
5
140
0.125
171
1
172
0
173
0
174
0
175
1
176
1
 91
33
178
0
145
0.0
301
CELL_VALUE
 90
4
  1
Port V
304
ACVALUE_END
170
5
140
0.125
171
1
172
0
173
0
174
0
175
1
176
1
 91
33
178
0
145
0.0
301
CELL_VALUE
 90
4
  1
SAE 6
304
ACVALUE_END
170
5
140
0.125
171
1
172
0
173
0
174
0
175
1
176
1
 91
33
178
0
145
0.0
301
CELL_VALUE
 90
4
  1
XCM
304
ACVALUE_END
170
5
140
0.125
171
1
172
0
173
0
174
0
175
1
176
1
 91
33
178
0
145
0.0
301
CELL_VALUE
 90
4
  1
Gage Ports
304
ACVALUE_END
170
5
140
0.125
171
1
172
0
173
0
174
0
175
1
176
1
 91
33
178
0
145
0.0
301
CELL_VALUE
 90
4
  1
1/4" NPTF
304
ACVALUE_END
170
5
140
0.125
  0
MTEXT
  5
294
100
AcDbEntity
  8
0
100
AcDbMText
 62
2
  6
CONTINUOUS
  7
STANDARD
 71
1
 72
1
 10
0.52125
 20
5.75995
 30
0.0
 11
1.0
 21
0.0
 31
0.0
 44
0.6
  3
Notes\P \P1. Important: Carefully consider\P   the maximum system pressure. The\P   pressure rating of the manifold is\P   dependent on the manifold material,\P   with the port type/size a secondary\P   consideration. Manifolds\P   constructed of alu
  1
minum are not\P   rated for pressures higher than\P   3000 psi (210 bar), regardless of\P   the port type/size specified.
 40
0.1
 41
3.04
  0
LINE
  5
295
100
AcDbEntity
  8
0
100
AcDbLine
 62
7
  6
CONTINUOUS
 10
0.30125
 20
0.30125
 11
0.30125
 21
16.69875
  0
LINE
  5
296
100
AcDbEntity
  8
0
100
AcDbLine
 62
7
  6
CONTINUOUS
 10
0.30125
 20
0.30125
 11
21.69875
 21
0.30125
  0
LINE
  5
297
100
AcDbEntity
  8
0
100
AcDbLine
 62
7
  6
CONTINUOUS
 10
0.30125
 20
16.69875
 11
21.69875
 21
16.69875
  0
LINE
  5
298
100
AcDbEntity
  8
0
100
AcDbLine
 62
7
  6
CONTINUOUS
 10
21.69875
 20
0.30125
 11
21.69875
 21
16.69875
  0
LINE
  5
299
100
AcDbEntity
  8
0
100
AcDbLine
 62
7
  6
CONTINUOUS
 10
7.277237324
 20
5.7307539351
 11
7.277237324
 21
10.077420411
  0
LINE
  5
29A
100
AcDbEntity
  8
0
100
AcDbLine
 62
7
  6
CONTINUOUS
 10
7.277237324
 20
10.077420411
 11
8.9272073749
 21
11.6711691901
  0
LINE
  5
29B
100
AcDbEntity
  8
0
100
AcDbLine
 62
4
  6
CONTINUOUS
 10
8.7361891842
 20
11.196659985
 11
8.7301500795
 21
11.1908266575
  0
LINE
  5
29C
100
AcDbEntity
  8
0
100
AcDbLine
 62
4
  6
CONTINUOUS
 10
8.0602406107
 20
10.543743762
 11
8.0240059742
 21
10.5087437887
  0
LINE
  5
29D
100
AcDbEntity
  8
0
100
AcDbLine
 62
4
  6
CONTINUOUS
 10
8.6558893529
 20
11.1803462999
 11
8.6383788423
 21
11.1721824444
  0
LINE
  5
29E
100
AcDbEntity
  8
0
100
AcDbLine
 62
7
  6
CONTINUOUS
 10
13.0727926251
 20
5.3288308099
 11
7.277237324
 21
5.7307539351
  0
LINE
  5
29F
100
AcDbEntity
  8
0
100
AcDbLine
 62
4
  6
CONTINUOUS
 10
8.2086315526
 20
7.4048280847
 11
8.2508908102
 21
7.2666677709
  0
LINE
  5
2A0
100
AcDbEntity
  8
0
100
AcDbLine
 62
7
  6
CONTINUOUS
 10
8.998907764
 20
10.4604264518
 11
8.9982085841
 21
10.4597638554
  0
LINE
  5
2A1
100
AcDbEntity
  8
0
100
AcDbLine
 62
4
  6
CONTINUOUS
 10
8.2508908102
 20
7.2666677709
 11
8.2931500678
 21
7.3989667057
  0
LINE
  5
2A2
100
AcDbEntity
  8
0
100
AcDbLine
 62
4
  6
CONTINUOUS
 10
9.3606125105
 20
10.4348062375
 11
9.3485342985
 21
10.4231395799
  0
LINE
  5
2A3
100
AcDbEntity
  8
0
100
AcDbLine
 62
4
  6
CONTINUOUS
 10
9.480152047
 20
10.4452725694
 11
9.4439174104
 21
10.4102725961
  0
LINE
  5
2A4
100
AcDbEntity
  8
0
100
AcDbLine
 62
4
  6
CONTINUOUS
 10
9.2760939953
 20
10.4406676164
 11
9.293604506
 21
10.4488314719
  0
LINE
  5
2A5
100
AcDbEntity
  8
0
100
AcDbLine
 62
4
  6
CONTINUOUS
 10
10.3912593165
 20
10.7403348268
 11
10.3964356928
 21
10.7453348227
  0
LINE
  5
2A6
100
AcDbEntity
  8
0
100
AcDbLine
 62
4
  6
CONTINUOUS
 10
10.4381686216
 20
10.7156457385
 11
10.4433449985
 21
10.7206457349
  0
LINE
  5
2A7
100
AcDbEntity
  8
0
100
AcDbLine
 62
4
  6
CONTINUOUS
 10
10.5078639145
 20
10.742966228
 11
10.4768056548
 21
10.7129662511
  0
LINE
  5
2A8
100
AcDbEntity
  8
0
100
AcDbLine
 62
4
  6
CONTINUOUS
 10
10.328689473
 20
10.5265636089
 11
10.3649241095
 21
10.5615635822
  0
LINE
  5
2A9
100
AcDbEntity
  8
0
100
AcDbLine
 62
4
  6
CONTINUOUS
 10
10.4510400781
 20
10.5180785656
 11
10.5259117479
 21
10.5503990516
  0
LINE
  5
2AA
100
AcDbEntity
  8
0
100
AcDbLine
 62
4
  6
CONTINUOUS
 10
10.8976686352
 20
10.669488693
 11
10.9708148306
 21
10.7001425153
  0
LINE
  5
2AB
100
AcDbEntity
  8
0
100
AcDbLine
 62
4
  6
CONTINUOUS
 10
11.0228086852
 20
10.5770314942
 11
11.0821512248
 21
10.5943519914
  0
LINE
  5
2AC
100
AcDbEntity
  8
0
100
AcDbLine
 62
4
  6
CONTINUOUS
 10
9.3662934882
 20
7.1893143325
 11
9.3493897852
 21
7.201755744
  0
LINE
  5
2AD
100
AcDbEntity
  8
0
100
AcDbLine
 62
4
  6
CONTINUOUS
 10
9.5015231125
 20
7.1799361262
 11
9.4846194095
 21
7.1923775377
  0
LINE
  5
2AE
100
AcDbEntity
  8
0
100
AcDbLine
 62
4
  6
CONTINUOUS
 10
9.3493897852
 20
7.201755744
 11
9.3324860822
 21
7.2254662901
  0
LINE
  5
2AF
100
AcDbEntity
  8
0
100
AcDbLine
 62
4
  6
CONTINUOUS
 10
9.4001008943
 20
7.3109302725
 11
9.4085527458
 21
7.2990749939
  0
LINE
  5
2B0
100
AcDbEntity
  8
0
100
AcDbLine
 62
4
  6
CONTINUOUS
 10
9.4846194095
 20
7.1923775377
 11
9.4677157064
 21
7.2160880838
  0
LINE
  5
2B1
100
AcDbEntity
  8
0
100
AcDbLine
 62
4
  6
CONTINUOUS
 10
9.476167558
 20
7.2831167581
 11
9.4846194095
 21
7.2712614875
  0
LINE
  5
2B2
100
AcDbEntity
  8
0
100
AcDbLine
 62
4
  6
CONTINUOUS
 10
9.5353305186
 20
7.23393725
 11
9.5437823701
 21
7.2220819795
  0
LINE
  5
2B3
100
AcDbEntity
  8
0
100
AcDbLine
 62
4
  6
CONTINUOUS
 10
9.3324860822
 20
7.2254662901
 11
9.3240342307
 21
7.2598598341
  0
LINE
  5
2B4
100
AcDbEntity
  8
0
100
AcDbLine
 62
4
  6
CONTINUOUS
 10
9.2754871877
 20
10.4313314852
 11
9.2760939953
 21
10.4406676164
  0
LINE
  5
2B5
100
AcDbEntity
  8
0
100
AcDbLine
 62
4
  6
CONTINUOUS
 10
10.544420467
 20
10.708277148
 11
10.5754787267
 21
10.7382771249
  0
LINE
  5
2B6
100
AcDbEntity
  8
0
100
AcDbLine
 62
4
  6
CONTINUOUS
 10
10.5778811233
 20
10.7005976642
 11
10.6141157599
 21
10.7355976375
  0
LINE
  5
2B7
100
AcDbEntity
  8
0
100
AcDbLine
 62
4
  6
CONTINUOUS
 10
10.4273625373
 20
10.5518744837
 11
10.4014806539
 21
10.5268745027
  0
LINE
  5
2B8
100
AcDbEntity
  8
0
100
AcDbLine
 62
4
  6
CONTINUOUS
 10
10.6454959354
 20
10.6959085611
 11
10.681730572
 21
10.7309085344
  0
LINE
  5
2B9
100
AcDbEntity
  8
0
100
AcDbLine
 62
4
  6
CONTINUOUS
 10
10.6055882271
 20
10.507360615
 11
10.6418228636
 21
10.5423605884
  0
LINE
  5
2BA
100
AcDbEntity
  8
0
100
AcDbLine
 62
4
  6
CONTINUOUS
 10
10.790384814
 20
10.6858604832
 11
10.8266194505
 21
10.7208604565
  0
LINE
  5
2BB
100
AcDbEntity
  8
0
100
AcDbLine
 62
4
  6
CONTINUOUS
 10
10.8716340665
 20
10.7043412342
 11
10.8483403718
 21
10.6818412516
  0
LINE
  5
2BC
100
AcDbEntity
  8
0
100
AcDbLine
 62
4
  6
CONTINUOUS
 10
10.6828622935
 20
10.5020016403
 11
10.71909693
 21
10.5370016137
  0
LINE
  5
2BD
100
AcDbEntity
  8
0
100
AcDbLine
 62
4
  6
CONTINUOUS
 10
10.8611275479
 20
10.577526161
 11
10.8870094312
 21
10.602526142
  0
LINE
  5
2BE
100
AcDbEntity
  8
0
100
AcDbLine
 62
4
  6
CONTINUOUS
 10
11.4737897768
 20
10.675979042
 11
11.4679818469
 21
10.6737023328
  0
LINE
  5
2BF
100
AcDbEntity
  8
0
100
AcDbLine
 62
4
  6
CONTINUOUS
 10
9.3831971913
 20
7.323371681
 11
9.4001008943
 21
7.3109302725
  0
LINE
  5
2C0
100
AcDbEntity
  8
0
100
AcDbLine
 62
4
  6
CONTINUOUS
 10
9.4846194095
 20
7.2712614875
 11
9.5353305186
 21
7.23393725
  0
LINE
  5
2C1
100
AcDbEntity
  8
0
100
AcDbLine
 62
4
  6
CONTINUOUS
 10
9.5353305186
 20
7.3015520662
 11
9.5184268155
 21
7.3139934747
  0
LINE
  5
2C2
100
AcDbEntity
  8
0
100
AcDbLine
 62
4
  6
CONTINUOUS
 10
9.5437823701
 20
7.2896967876
 11
9.5353305186
 21
7.3015520662
  0
LINE
  5
2C3
100
AcDbEntity
  8
0
100
AcDbLine
 62
4
  6
CONTINUOUS
 10
9.8142416186
 20
7.2145946996
 11
9.7973379156
 21
7.2383052447
  0
LINE
  5
2C4
100
AcDbEntity
  8
0
100
AcDbLine
 62
4
  6
CONTINUOUS
 10
9.8057897671
 20
7.2827956536
 11
9.7973379156
 21
7.2946509242
  0
LINE
  5
2C5
100
AcDbEntity
  8
0
100
AcDbLine
 62
4
  6
CONTINUOUS
 10
9.6452045883
 20
7.3052014063
 11
9.6874638459
 21
7.1670410925
  0
LINE
  5
2C6
100
AcDbEntity
  8
0
100
AcDbLine
 62
4
  6
CONTINUOUS
 10
9.476167558
 20
7.2943858907
 11
9.476167558
 21
7.2831167581
  0
LINE
  5
2C7
100
AcDbEntity
  8
0
100
AcDbLine
 62
4
  6
CONTINUOUS
 10
9.5437823701
 20
7.2220819795
 11
9.5437823701
 21
7.1995437081
  0
LINE
  5
2C8
100
AcDbEntity
  8
0
100
AcDbLine
 62
4
  6
CONTINUOUS
 10
9.738174955
 20
7.2987538894
 11
9.738174955
 21
7.1635242652
  0
LINE
  5
2C9
100
AcDbEntity
  8
0
100
AcDbLine
 62
4
  6
CONTINUOUS
 10
9.3240342307
 20
7.2598598341
 11
9.3324860822
 21
7.2930811023
  0
LINE
  5
2CA
100
AcDbEntity
  8
0
100
AcDbLine
 62
4
  6
CONTINUOUS
 10
10.9732791896
 20
10.6758562049
 11
10.9939846958
 21
10.6958561892
  0
LINE
  5
2CB
100
AcDbEntity
  8
0
100
AcDbLine
 62
4
  6
CONTINUOUS
 10
11.0648811633
 20
10.7043369506
 11
11.0286465268
 21
10.6693369773
  0
LINE
  5
2CC
100
AcDbEntity
  8
0
100
AcDbLine
 62
4
  6
CONTINUOUS
 10
11.0672836083
 20
10.6666574866
 11
11.0931654922
 21
10.6916574681
  0
LINE
  5
2CD
100
AcDbEntity
  8
0
100
AcDbLine
 62
4
  6
CONTINUOUS
 10
10.890883139
 20
10.4929343251
 11
10.9167650223
 21
10.5179343061
  0
LINE
  5
2CE
100
AcDbEntity
  8
0
100
AcDbLine
 62
4
  6
CONTINUOUS
 10
10.9686425219
 20
10.5647109928
 11
11.0048771584
 21
10.5997109661
  0
LINE
  5
2CF
100
AcDbEntity
  8
0
100
AcDbLine
 62
4
  6
CONTINUOUS
 10
11.1356538014
 20
10.6860314034
 11
11.1304774251
 21
10.6810314075
  0
LINE
  5
2D0
100
AcDbEntity
  8
0
100
AcDbLine
 62
4
  6
CONTINUOUS
 10
11.0821512248
 20
10.5943519914
 11
11.0459165883
 21
10.5593520181
  0
LINE
  5
2D1
100
AcDbEntity
  8
0
100
AcDbLine
 62
4
  6
CONTINUOUS
 10
11.1568051175
 20
10.6631286385
 11
11.1645696828
 21
10.6706286332
  0
LINE
  5
2D2
100
AcDbEntity
  8
0
100
AcDbLine
 62
4
  6
CONTINUOUS
 10
11.0035744496
 20
10.4851191561
 11
11.0294563329
 21
10.5101191372
  0
LINE
  5
2D3
100
AcDbEntity
  8
0
100
AcDbLine
 62
4
  6
CONTINUOUS
 10
11.2121724546
 20
10.656609411
 11
11.2328779622
 21
10.6766093966
  0
LINE
  5
2D4
100
AcDbEntity
  8
0
100
AcDbLine
 62
4
  6
CONTINUOUS
 10
11.2766913556
 20
10.6789299063
 11
11.2533976602
 21
10.6564299229
  0
LINE
  5
2D5
100
AcDbEntity
  8
0
100
AcDbLine
 62
4
  6
CONTINUOUS
 10
11.097071145
 20
10.505430034
 11
11.0711892617
 21
10.480430053
  0
LINE
  5
2D6
100
AcDbEntity
  8
0
100
AcDbLine
 62
4
  6
CONTINUOUS
 10
11.1046499019
 20
10.4727505703
 11
11.1408845385
 21
10.5077505437
  0
LINE
  5
2D7
100
AcDbEntity
  8
0
100
AcDbLine
 62
4
  6
CONTINUOUS
 10
11.3087650618
 20
10.6499106909
 11
11.3346469457
 21
10.6749106725
  0
LINE
  5
2D8
100
AcDbEntity
  8
0
100
AcDbLine
 62
4
  6
CONTINUOUS
 10
11.3499902673
 20
10.6497312029
 11
11.3836367155
 21
10.682231178
  0
LINE
  5
2D9
100
AcDbEntity
  8
0
100
AcDbLine
 62
4
  6
CONTINUOUS
 10
11.2033229742
 20
10.4980614446
 11
11.1774410909
 21
10.4730614636
  0
LINE
  5
2DA
100
AcDbEntity
  8
0
100
AcDbLine
 62
4
  6
CONTINUOUS
 10
12.5904003542
 20
10.9120421337
 11
12.6079108648
 21
10.9202059892
  0
LINE
  5
2DB
100
AcDbEntity
  8
0
100
AcDbLine
 62
4
  6
CONTINUOUS
 10
12.7419268738
 20
10.8921555204
 11
12.7244163632
 21
10.883991665
  0
LINE
  5
2DC
100
AcDbEntity
  8
0
100
AcDbLine
 62
4
  6
CONTINUOUS
 10
9.5184268155
 20
7.1787638504
 11
9.5015231125
 21
7.1799361262
  0
LINE
  5
2DD
100
AcDbEntity
  8
0
100
AcDbLine
 62
4
  6
CONTINUOUS
 10
9.3831971913
 20
7.1881420567
 11
9.3662934882
 21
7.1893143325
  0
LINE
  5
2DE
100
AcDbEntity
  8
0
100
AcDbLine
 62
4
  6
CONTINUOUS
 10
9.738174955
 20
7.1635242652
 11
9.7973379156
 21
7.1594212999
  0
LINE
  5
2DF
100
AcDbEntity
  8
0
100
AcDbLine
 62
4
  6
CONTINUOUS
 10
9.6198490338
 20
7.2168067384
 11
9.6705601429
 21
7.2132899111
  0
LINE
  5
2E0
100
AcDbEntity
  8
0
100
AcDbLine
 62
4
  6
CONTINUOUS
 10
9.738174955
 20
7.24240821
 11
9.7973379156
 21
7.2383052447
  0
LINE
  5
2E1
100
AcDbEntity
  8
0
100
AcDbLine
 62
4
  6
CONTINUOUS
 10
9.7973379156
 20
7.2946509242
 11
9.738174955
 21
7.2987538894
  0
LINE
  5
2E2
100
AcDbEntity
  8
0
100
AcDbLine
 62
4
  6
CONTINUOUS
 10
9.5184268155
 20
7.3139934747
 11
9.5015231125
 21
7.3151657504
  0
LINE
  5
2E3
100
AcDbEntity
  8
0
100
AcDbLine
 62
4
  6
CONTINUOUS
 10
9.3662934882
 20
7.3245439567
 11
9.3831971913
 21
7.323371681
  0
LINE
  5
2E4
100
AcDbEntity
  8
0
100
AcDbLine
 62
4
  6
CONTINUOUS
 10
9.8057897671
 20
7.2489882475
 11
9.8057897671
 21
7.2827956536
  0
LINE
  5
2E5
100
AcDbEntity
  8
0
100
AcDbLine
 62
4
  6
CONTINUOUS
 10
9.8142416186
 20
7.1807872955
 11
9.8142416186
 21
7.2145946996
  0
LINE
  5
2E6
100
AcDbEntity
  8
0
100
AcDbLine
 62
4
  6
CONTINUOUS
 10
11.2270005635
 20
10.4642655231
 11
11.2632352
 21
10.4992654965
  0
LINE
  5
2E7
100
AcDbEntity
  8
0
100
AcDbLine
 62
4
  6
CONTINUOUS
 10
11.4679818469
 20
10.6737023328
 11
11.4705700361
 21
10.6762023318
  0
LINE
  5
2E8
100
AcDbEntity
  8
0
100
AcDbLine
 62
4
  6
CONTINUOUS
 10
11.4343353996
 20
10.6412023584
 11
11.4602172835
 21
10.66620234
  0
LINE
  5
2E9
100
AcDbEntity
  8
0
100
AcDbLine
 62
4
  6
CONTINUOUS
 10
11.4884396323
 20
10.6401297068
 11
11.5091451385
 21
10.6601296912
  0
LINE
  5
2EA
100
AcDbEntity
  8
0
100
AcDbLine
 62
4
  6
CONTINUOUS
 10
11.5883139591
 20
10.6466008466
 11
11.5960785236
 21
10.6541008404
  0
LINE
  5
2EB
100
AcDbEntity
  8
0
100
AcDbLine
 62
4
  6
CONTINUOUS
 10
11.6333284786
 20
10.6300816312
 11
11.6410930439
 21
10.6375816258
  0
LINE
  5
2EC
100
AcDbEntity
  8
0
100
AcDbLine
 62
4
  6
CONTINUOUS
 10
9.6029453307
 20
7.1729024715
 11
9.6452045883
 21
7.3052014063
  0
LINE
  5
2ED
100
AcDbEntity
  8
0
100
AcDbLine
 62
4
  6
CONTINUOUS
 10
13.9781411634
 20
10.8112468832
 11
13.9606306528
 21
10.8030830277
  0
LINE
  5
2EE
100
AcDbEntity
  8
0
100
AcDbLine
 62
4
  6
CONTINUOUS
 10
10.5259117479
 20
10.5503990516
 11
10.5283141607
 21
10.5127195898
  0
LINE
  5
2EF
100
AcDbEntity
  8
0
100
AcDbLine
 62
4
  6
CONTINUOUS
 10
9.3324860822
 20
7.2930811023
 11
9.3493897852
 21
7.3144470999
  0
LINE
  5
2F0
100
AcDbEntity
  8
0
100
AcDbLine
 62
4
  6
CONTINUOUS
 10
9.4846194095
 20
7.3050688936
 11
9.476167558
 21
7.2943858907
  0
LINE
  5
2F1
100
AcDbEntity
  8
0
100
AcDbLine
 62
4
  6
CONTINUOUS
 10
9.4085527458
 20
7.2089219144
 11
9.4001008943
 21
7.1982389166
  0
LINE
  5
2F2
100
AcDbEntity
  8
0
100
AcDbLine
 62
4
  6
CONTINUOUS
 10
9.5437823701
 20
7.1995437081
 11
9.5353305186
 21
7.1888607103
  0
LINE
  5
2F3
100
AcDbEntity
  8
0
100
AcDbLine
 62
4
  6
CONTINUOUS
 10
12.6749188693
 20
10.9061807548
 11
12.6628406573
 21
10.8945140972
  0
LINE
  5
2F4
100
AcDbEntity
  8
0
100
AcDbLine
 62
4
  6
CONTINUOUS
 10
12.8222267051
 20
10.9084692056
 11
12.8161876004
 21
10.9026358781
  0
LINE
  5
2F5
100
AcDbEntity
  8
0
100
AcDbLine
 62
4
  6
CONTINUOUS
 10
9.7973379156
 20
7.2383052447
 11
9.8057897671
 21
7.2489882475
  0
LINE
  5
2F6
100
AcDbEntity
  8
0
100
AcDbLine
 62
4
  6
CONTINUOUS
 10
9.7973379156
 20
7.1594212999
 11
9.8142416186
 21
7.1807872955
  0
LINE
  5
2F7
100
AcDbEntity
  8
0
100
AcDbLine
 62
7
  6
CONTINUOUS
 10
9.1536260353
 20
6.8025423127
 11
9.0569736797
 21
6.7091833006
  0
LINE
  5
2F8
100
AcDbEntity
  8
0
100
AcDbLine
 62
7
  6
CONTINUOUS
 10
9.5190246516
 20
6.988164822
 11
9.4223722959
 21
6.89480581
  0
LINE
  5
2F9
100
AcDbEntity
  8
0
100
AcDbLine
 62
7
  6
CONTINUOUS
 10
9.576234097
 20
6.9841973335
 11
9.4795817414
 21
6.8908383215
  0
LINE
  5
2FA
100
AcDbEntity
  8
0
100
AcDbLine
 62
7
  6
CONTINUOUS
 10
13.5420107308
 20
10.848727199
 11
13.5413115509
 21
10.8480646025
  0
LINE
  5
2FB
100
AcDbEntity
  8
0
100
AcDbLine
 62
4
  6
CONTINUOUS
 10
9.3493897852
 20
7.3144470999
 11
9.3662934882
 21
7.3245439567
  0
LINE
  5
2FC
100
AcDbEntity
  8
0
100
AcDbLine
 62
4
  6
CONTINUOUS
 10
9.5015231125
 20
7.3151657504
 11
9.4846194095
 21
7.3050688936
  0
LINE
  5
2FD
100
AcDbEntity
  8
0
100
AcDbLine
 62
4
  6
CONTINUOUS
 10
9.4001008943
 20
7.1982389166
 11
9.3831971913
 21
7.1881420567
  0
LINE
  5
2FE
100
AcDbEntity
  8
0
100
AcDbLine
 62
4
  6
CONTINUOUS
 10
10.912859305
 20
10.7041617447
 11
10.9159552162
 21
10.6771521462
  0
LINE
  5
2FF
100
AcDbEntity
  8
0
100
AcDbLine
 62
4
  6
CONTINUOUS
 10
14.0584409947
 20
10.8275605683
 11
14.05240189
 21
10.8217272408
  0
LINE
  5
300
100
AcDbEntity
  8
0
100
AcDbLine
 62
4
  6
CONTINUOUS
 10
13.4018109493
 20
10.1733046008
 11
13.3655763127
 21
10.1383046275
  0
LINE
  5
301
100
AcDbEntity
  8
0
100
AcDbLine
 62
7
  6
CONTINUOUS
 10
9.9416327133
 20
6.7478938639
 11
9.8449803576
 21
6.6545348519
  0
LINE
  5
302
100
AcDbEntity
  8
0
100
AcDbLine
 62
7
  6
CONTINUOUS
 10
9.970237436
 20
6.6963652866
 11
9.8735850803
 21
6.6030062746
  0
LINE
  5
303
100
AcDbEntity
  8
0
100
AcDbLine
 62
7
  6
CONTINUOUS
 10
13.0727926251
 20
9.6754972857
 11
14.722762676
 21
11.2692460649
  0
LINE
  5
304
100
AcDbEntity
  8
0
100
AcDbLine
 62
4
  6
CONTINUOUS
 10
9.5353305186
 20
7.1888607103
 11
9.5184268155
 21
7.1787638504
  0
LINE
  5
305
100
AcDbEntity
  8
0
100
AcDbLine
 62
4
  6
CONTINUOUS
 10
9.2863517847
 20
10.4243258806
 11
9.2754871877
 21
10.4313314852
  0
LINE
  5
306
100
AcDbEntity
  8
0
100
AcDbLine
 62
7
  6
CONTINUOUS
 10
9.970237436
 20
6.2744393077
 11
9.8735850803
 21
6.1810802957
  0
LINE
  5
307
100
AcDbEntity
  8
0
100
AcDbLine
 62
7
  6
CONTINUOUS
 10
9.9416327133
 20
6.2268782189
 11
9.8449803576
 21
6.1335192068
  0
LINE
  5
308
100
AcDbEntity
  8
0
100
AcDbLine
 62
4
  6
CONTINUOUS
 10
9.3672584249
 20
10.4499756983
 11
9.372690722
 21
10.4464728946
  0
LINE
  5
309
100
AcDbEntity
  8
0
100
AcDbLine
 62
7
  6
CONTINUOUS
 10
7.277237324
 20
10.077420411
 11
13.0727926251
 21
9.6754972857
  0
LINE
  5
30A
100
AcDbEntity
  8
0
100
AcDbLine
 62
4
  6
CONTINUOUS
 10
8.7307568871
 20
11.2001627887
 11
8.7361891842
 21
11.196659985
  0
LINE
  5
30B
100
AcDbEntity
  8
0
100
AcDbLine
 62
4
  6
CONTINUOUS
 10
10.6141157599
 20
10.7355976375
 11
10.6454959354
 21
10.6959085611
  0
LINE
  5
30C
100
AcDbEntity
  8
0
100
AcDbLine
 62
4
  6
CONTINUOUS
 10
11.0048771584
 20
10.5997109661
 11
11.0228086852
 21
10.5770314942
  0
LINE
  5
30D
100
AcDbEntity
  8
0
100
AcDbLine
 62
4
  6
CONTINUOUS
 10
12.5897935465
 20
10.9027060025
 11
12.5904003542
 21
10.9120421337
  0
LINE
  5
30E
100
AcDbEntity
  8
0
100
AcDbLine
 62
4
  6
CONTINUOUS
 10
14.05240189
 20
10.8217272408
 11
14.040930484
 21
10.8193967129
  0
LINE
  5
30F
100
AcDbEntity
  8
0
100
AcDbLine
 62
4
  6
CONTINUOUS
 10
14.0010839722
 20
10.8159079359
 11
13.9781411634
 21
10.8112468832
  0
LINE
  5
310
100
AcDbEntity
  8
0
100
AcDbLine
 62
4
  6
CONTINUOUS
 10
9.3002359346
 20
10.4202369403
 11
9.2863517847
 21
10.4243258806
  0
LINE
  5
311
100
AcDbEntity
  8
0
100
AcDbLine
 62
4
  6
CONTINUOUS
 10
9.3533742742
 20
10.4540646378
 11
9.3672584249
 21
10.4499756983
  0
LINE
  5
312
100
AcDbEntity
  8
0
100
AcDbLine
 62
4
  6
CONTINUOUS
 10
10.413220397
 20
10.5582142233
 11
10.4273625373
 21
10.5518744837
  0
LINE
  5
313
100
AcDbEntity
  8
0
100
AcDbLine
 62
4
  6
CONTINUOUS
 10
10.7762746999
 20
10.6155646005
 11
10.8173141378
 21
10.5752056519
  0
LINE
  5
314
100
AcDbEntity
  8
0
100
AcDbLine
 62
4
  6
CONTINUOUS
 10
11.2328779622
 20
10.6766093966
 11
11.2283951165
 21
10.6822792618
  0
LINE
  5
315
100
AcDbEntity
  8
0
100
AcDbLine
 62
4
  6
CONTINUOUS
 10
13.9908261825
 20
10.8322496715
 11
14.0022975885
 21
10.8345801994
  0
LINE
  5
316
100
AcDbEntity
  8
0
100
AcDbLine
 62
4
  6
CONTINUOUS
 10
12.8161876004
 20
10.9026358781
 11
12.8047161944
 21
10.9003053501
  0
LINE
  5
317
100
AcDbEntity
  8
0
100
AcDbLine
 62
4
  6
CONTINUOUS
 10
12.7648696826
 20
10.8968165732
 11
12.7419268738
 21
10.8921555204
  0
LINE
  5
318
100
AcDbEntity
  8
0
100
AcDbLine
 62
4
  6
CONTINUOUS
 10
11.1774410909
 20
10.4730614636
 11
11.1529462055
 21
10.4694012103
  0
LINE
  5
319
100
AcDbEntity
  8
0
100
AcDbLine
 62
4
  6
CONTINUOUS
 10
11.0711892617
 20
10.480430053
 11
11.0466943763
 21
10.4767697997
  0
LINE
  5
31A
100
AcDbEntity
  8
0
100
AcDbLine
 62
4
  6
CONTINUOUS
 10
11.0294563329
 20
10.5101191372
 11
11.0539512178
 21
10.51377939
  0
LINE
  5
31B
100
AcDbEntity
  8
0
100
AcDbLine
 62
4
  6
CONTINUOUS
 10
11.3906382805
 20
10.4689941465
 11
11.3322204006
 21
10.4659001346
  0
LINE
  5
31C
100
AcDbEntity
  8
0
100
AcDbLine
 62
4
  6
CONTINUOUS
 10
9.3171396376
 20
10.4190646645
 11
9.3002359346
 21
10.4202369403
  0
LINE
  5
31D
100
AcDbEntity
  8
0
100
AcDbLine
 62
4
  6
CONTINUOUS
 10
9.3268051044
 20
10.4371507891
 11
9.3606125105
 21
10.4348062375
  0
LINE
  5
31E
100
AcDbEntity
  8
0
100
AcDbLine
 62
4
  6
CONTINUOUS
 10
9.3364705712
 20
10.4552369136
 11
9.3533742742
 21
10.4540646378
  0
LINE
  5
31F
100
AcDbEntity
  8
0
100
AcDbLine
 62
4
  6
CONTINUOUS
 10
11.1529462055
 20
10.4694012103
 11
11.1046499019
 21
10.4727505703
  0
LINE
  5
320
100
AcDbEntity
  8
0
100
AcDbLine
 62
4
  6
CONTINUOUS
 10
11.0466943763
 20
10.4767697997
 11
11.0177165812
 21
10.4787794166
  0
LINE
  5
321
100
AcDbEntity
  8
0
100
AcDbLine
 62
4
  6
CONTINUOUS
 10
10.9436622877
 20
10.4839150993
 11
10.9050252706
 21
10.4865945855
  0
LINE
  5
322
100
AcDbEntity
  8
0
100
AcDbLine
 62
4
  6
CONTINUOUS
 10
10.3769857605
 20
10.52321425
 11
10.328689473
 21
10.5265636089
  0
LINE
  5
323
100
AcDbEntity
  8
0
100
AcDbLine
 62
4
  6
CONTINUOUS
 10
10.6828622935
 20
10.5020016403
 11
10.7408178513
 21
10.4979824088
  0
LINE
  5
324
100
AcDbEntity
  8
0
100
AcDbLine
 62
4
  6
CONTINUOUS
 10
11.2270005635
 20
10.4642655231
 11
11.2849560891
 21
10.4602462938
  0
LINE
  5
325
100
AcDbEntity
  8
0
100
AcDbLine
 62
4
  6
CONTINUOUS
 10
10.474271843
 20
10.527185396
 11
10.5257878872
 21
10.5236127462
  0
LINE
  5
326
100
AcDbEntity
  8
0
100
AcDbLine
 62
4
  6
CONTINUOUS
 10
11.2863430881
 20
10.4815860226
 11
11.247706071
 21
10.4842655088
  0
LINE
  5
327
100
AcDbEntity
  8
0
100
AcDbLine
 62
4
  6
CONTINUOUS
 10
10.7422048503
 20
10.5193221375
 11
10.703567801
 21
10.522001626
  0
LINE
  5
328
100
AcDbEntity
  8
0
100
AcDbLine
 62
4
  6
CONTINUOUS
 10
10.2669445286
 20
10.5469225729
 11
10.3115587413
 21
10.5366832611
  0
LINE
  5
329
100
AcDbEntity
  8
0
100
AcDbLine
 62
4
  6
CONTINUOUS
 10
8.7168727364
 20
11.2042517283
 11
8.7307568871
 21
11.2001627887
  0
LINE
  5
32A
100
AcDbEntity
  8
0
100
AcDbLine
 62
4
  6
CONTINUOUS
 10
10.4433449985
 20
10.7206457349
 11
10.3912593165
 21
10.7403348268
  0
LINE
  5
32B
100
AcDbEntity
  8
0
100
AcDbLine
 62
4
  6
CONTINUOUS
 10
10.3679656211
 20
10.7178348434
 11
10.3750366919
 21
10.7146649733
  0
LINE
  5
32C
100
AcDbEntity
  8
0
100
AcDbLine
 62
4
  6
CONTINUOUS
 10
10.9050252706
 20
10.4865945855
 11
10.890883139
 21
10.4929343251
  0
LINE
  5
32D
100
AcDbEntity
  8
0
100
AcDbLine
 62
4
  6
CONTINUOUS
 10
10.4768056548
 20
10.7129662511
 11
10.4909477946
 21
10.706626511
  0
LINE
  5
32E
100
AcDbEntity
  8
0
100
AcDbLine
 62
4
  6
CONTINUOUS
 10
11.0177165812
 20
10.4787794166
 11
11.0035744496
 21
10.4851191561
  0
LINE
  5
32F
100
AcDbEntity
  8
0
100
AcDbLine
 62
4
  6
CONTINUOUS
 10
10.459567623
 20
10.7463155872
 11
10.4666386921
 21
10.7431457164
  0
LINE
  5
330
100
AcDbEntity
  8
0
100
AcDbLine
 62
4
  6
CONTINUOUS
 10
10.8752696876
 20
10.5711864209
 11
10.8611275479
 21
10.577526161
  0
LINE
  5
331
100
AcDbEntity
  8
0
100
AcDbLine
 62
4
  6
CONTINUOUS
 10
11.0829290128
 20
10.511769773
 11
11.097071145
 21
10.505430034
  0
LINE
  5
332
100
AcDbEntity
  8
0
100
AcDbLine
 62
4
  6
CONTINUOUS
 10
11.189180842
 20
10.5044011837
 11
11.2033229742
 21
10.4980614446
  0
LINE
  5
333
100
AcDbEntity
  8
0
100
AcDbLine
 62
4
  6
CONTINUOUS
 10
10.8645630014
 20
10.7075111047
 11
10.8716340665
 21
10.7043412342
  0
LINE
  5
334
100
AcDbEntity
  8
0
100
AcDbLine
 62
4
  6
CONTINUOUS
 10
11.1318025093
 20
10.6889779819
 11
11.1356538014
 21
10.6860314034
  0
LINE
  5
335
100
AcDbEntity
  8
0
100
AcDbLine
 62
7
  6
CONTINUOUS
 10
13.0727926251
 20
9.6754972857
 11
13.0727926251
 21
5.3288308099
  0
LINE
  5
336
100
AcDbEntity
  8
0
100
AcDbLine
 62
4
  6
CONTINUOUS
 10
10.7400400633
 20
10.5805646272
 11
10.8535487743
 21
10.6102056252
  0
LINE
  5
337
100
AcDbEntity
  8
0
100
AcDbLine
 62
4
  6
CONTINUOUS
 10
12.7546118929
 20
10.9131583087
 11
12.7660832989
 21
10.9154888367
  0
LINE
  5
338
100
AcDbEntity
  8
0
100
AcDbLine
 62
4
  6
CONTINUOUS
 10
12.6628406573
 20
10.8945140972
 11
12.6513692527
 21
10.8921835705
  0
LINE
  5
339
100
AcDbEntity
  8
0
100
AcDbLine
 62
4
  6
CONTINUOUS
 10
12.6079108648
 20
10.9202059892
 11
12.6308536747
 21
10.924867043
  0
LINE
  5
33A
100
AcDbEntity
  8
0
100
AcDbLine
 62
4
  6
CONTINUOUS
 10
9.3485342985
 20
10.4231395799
 11
9.3370628938
 21
10.4208090533
  0
LINE
  5
33B
100
AcDbEntity
  8
0
100
AcDbLine
 62
4
  6
CONTINUOUS
 10
9.293604506
 20
10.4488314719
 11
9.3165473158
 21
10.4534925257
  0
LINE
  5
33C
100
AcDbEntity
  8
0
100
AcDbLine
 62
4
  6
CONTINUOUS
 10
10.9167650223
 20
10.5179343061
 11
10.9412599072
 21
10.5215945589
  0
LINE
  5
33D
100
AcDbEntity
  8
0
100
AcDbLine
 62
4
  6
CONTINUOUS
 10
11.6210810681
 20
10.6282515023
 11
11.6333284786
 21
10.6300816312
  0
LINE
  5
33E
100
AcDbEntity
  8
0
100
AcDbLine
 62
4
  6
CONTINUOUS
 10
11.5960785236
 20
10.6541008404
 11
11.6083259349
 21
10.6559309701
  0
LINE
  5
33F
100
AcDbEntity
  8
0
100
AcDbLine
 62
4
  6
CONTINUOUS
 10
11.5091451385
 20
10.6601296912
 11
11.5213925498
 21
10.6619598208
  0
LINE
  5
340
100
AcDbEntity
  8
0
100
AcDbLine
 62
4
  6
CONTINUOUS
 10
10.4014806539
 20
10.5268745027
 11
10.3769857605
 21
10.52321425
  0
LINE
  5
341
100
AcDbEntity
  8
0
100
AcDbLine
 62
4
  6
CONTINUOUS
 10
10.8870094312
 20
10.602526142
 11
10.9115043241
 21
10.6061863942
  0
LINE
  5
342
100
AcDbEntity
  8
0
100
AcDbLine
 62
4
  6
CONTINUOUS
 10
10.5199255815
 20
10.7046168947
 11
10.544420467
 21
10.708277148
  0
LINE
  5
343
100
AcDbEntity
  8
0
100
AcDbLine
 62
4
  6
CONTINUOUS
 10
10.4136737281
 20
10.7119854857
 11
10.4381686216
 21
10.7156457385
  0
LINE
  5
344
100
AcDbEntity
  8
0
100
AcDbLine
 62
4
  6
CONTINUOUS
 10
10.3964356928
 20
10.7453348227
 11
10.4209305878
 21
10.7489950747
  0
LINE
  5
345
100
AcDbEntity
  8
0
100
AcDbLine
 62
4
  6
CONTINUOUS
 10
14.040930484
 20
10.8193967129
 11
14.0010839722
 21
10.8159079359
  0
LINE
  5
346
100
AcDbEntity
  8
0
100
AcDbLine
 62
4
  6
CONTINUOUS
 10
9.3370628938
 20
10.4208090533
 11
9.3171396376
 21
10.4190646645
  0
LINE
  5
347
100
AcDbEntity
  8
0
100
AcDbLine
 62
4
  6
CONTINUOUS
 10
14.0022975885
 20
10.8345801994
 11
14.0222208439
 21
10.8363245874
  0
LINE
  5
348
100
AcDbEntity
  8
0
100
AcDbLine
 62
4
  6
CONTINUOUS
 10
9.3165473158
 20
10.4534925257
 11
9.3364705712
 21
10.4552369136
  0
LINE
  5
349
100
AcDbEntity
  8
0
100
AcDbLine
 62
4
  6
CONTINUOUS
 10
12.8047161944
 20
10.9003053501
 11
12.7648696826
 21
10.8968165732
  0
LINE
  5
34A
100
AcDbEntity
  8
0
100
AcDbLine
 62
4
  6
CONTINUOUS
 10
12.6513692527
 20
10.8921835705
 11
12.6314459965
 21
10.8904391818
  0
LINE
  5
34B
100
AcDbEntity
  8
0
100
AcDbLine
 62
4
  6
CONTINUOUS
 10
12.7660832989
 20
10.9154888367
 11
12.7860065543
 21
10.9172332246
  0
LINE
  5
34C
100
AcDbEntity
  8
0
100
AcDbLine
 62
4
  6
CONTINUOUS
 10
12.6308536747
 20
10.924867043
 11
12.65077693
 21
10.9266114309
  0
LINE
  5
34D
100
AcDbEntity
  8
0
100
AcDbLine
 62
4
  6
CONTINUOUS
 10
10.3253624131
 20
10.550016585
 11
10.2669445286
 21
10.5469225729
  0
LINE
  5
34E
100
AcDbEntity
  8
0
100
AcDbLine
 62
4
  6
CONTINUOUS
 10
11.1645696828
 20
10.6706286332
 11
11.1864763795
 21
10.671788888
  0
LINE
  5
34F
100
AcDbEntity
  8
0
100
AcDbLine
 62
4
  6
CONTINUOUS
 10
10.9939846958
 20
10.6958561892
 11
11.0158913936
 21
10.6970164451
  0
LINE
  5
350
100
AcDbEntity
  8
0
100
AcDbLine
 62
4
  6
CONTINUOUS
 10
10.3649241095
 20
10.5615635822
 11
10.413220397
 21
10.5582142233
  0
LINE
  5
351
100
AcDbEntity
  8
0
100
AcDbLine
 62
4
  6
CONTINUOUS
 10
10.6031858143
 20
10.5450400769
 11
10.6804598807
 21
10.5396811022
  0
LINE
  5
352
100
AcDbEntity
  8
0
100
AcDbLine
 62
4
  6
CONTINUOUS
 10
10.71909693
 20
10.5370016137
 11
10.7770524879
 21
10.5329823821
  0
LINE
  5
353
100
AcDbEntity
  8
0
100
AcDbLine
 62
4
  6
CONTINUOUS
 10
10.9412599072
 20
10.5215945589
 11
10.9798969243
 21
10.5189150726
  0
LINE
  5
354
100
AcDbEntity
  8
0
100
AcDbLine
 62
4
  6
CONTINUOUS
 10
11.0539512178
 20
10.51377939
 11
11.0829290128
 21
10.511769773
  0
LINE
  5
355
100
AcDbEntity
  8
0
100
AcDbLine
 62
4
  6
CONTINUOUS
 10
11.1408845385
 20
10.5077505437
 11
11.189180842
 21
10.5044011837
  0
LINE
  5
356
100
AcDbEntity
  8
0
100
AcDbLine
 62
4
  6
CONTINUOUS
 10
11.2632352
 20
10.4992654965
 11
11.3211907256
 21
10.4952462671
  0
LINE
  5
357
100
AcDbEntity
  8
0
100
AcDbLine
 62
4
  6
CONTINUOUS
 10
10.9139067208
 20
10.5685069335
 11
10.8752696876
 21
10.5711864209
  0
LINE
  5
358
100
AcDbEntity
  8
0
100
AcDbLine
 62
4
  6
CONTINUOUS
 10
10.9115043241
 20
10.6061863942
 11
10.9501413574
 21
10.6035069068
  0
LINE
  5
359
100
AcDbEntity
  8
0
100
AcDbLine
 62
4
  6
CONTINUOUS
 10
10.8783501267
 20
10.6708284361
 11
10.8976686352
 21
10.669488693
  0
LINE
  5
35A
100
AcDbEntity
  8
0
100
AcDbLine
 62
4
  6
CONTINUOUS
 10
11.5341478119
 20
10.6342803441
 11
11.4955106659
 21
10.6369598393
  0
LINE
  5
35B
100
AcDbEntity
  8
0
100
AcDbLine
 62
4
  6
CONTINUOUS
 10
11.376379874
 20
10.6452215878
 11
11.3570613654
 21
10.6465613309
  0
LINE
  5
35C
100
AcDbEntity
  8
0
100
AcDbLine
 62
4
  6
CONTINUOUS
 10
11.2121724546
 20
10.656609411
 11
11.1735354376
 21
10.6592888972
  0
LINE
  5
35D
100
AcDbEntity
  8
0
100
AcDbLine
 62
4
  6
CONTINUOUS
 10
11.0286465268
 20
10.6693369773
 11
10.9900095097
 21
10.6720164635
  0
LINE
  5
35E
100
AcDbEntity
  8
0
100
AcDbLine
 62
4
  6
CONTINUOUS
 10
10.3750366919
 20
10.7146649733
 11
10.4136737281
 21
10.7119854857
  0
LINE
  5
35F
100
AcDbEntity
  8
0
100
AcDbLine
 62
4
  6
CONTINUOUS
 10
10.4909477946
 20
10.706626511
 11
10.5199255815
 21
10.7046168947
  0
LINE
  5
360
100
AcDbEntity
  8
0
100
AcDbLine
 62
4
  6
CONTINUOUS
 10
11.2604687582
 20
10.6532600509
 11
11.3087650618
 21
10.6499106909
  0
LINE
  5
361
100
AcDbEntity
  8
0
100
AcDbLine
 62
4
  6
CONTINUOUS
 10
11.582444051
 20
10.6309309885
 11
11.6210810681
 21
10.6282515023
  0
LINE
  5
362
100
AcDbEntity
  8
0
100
AcDbLine
 62
4
  6
CONTINUOUS
 10
11.1864763795
 20
10.671788888
 11
11.2251133966
 21
10.6691094018
  0
LINE
  5
363
100
AcDbEntity
  8
0
100
AcDbLine
 62
4
  6
CONTINUOUS
 10
11.2283951165
 20
10.6822792618
 11
11.1800988129
 21
10.6856286219
  0
LINE
  5
364
100
AcDbEntity
  8
0
100
AcDbLine
 62
4
  6
CONTINUOUS
 10
10.8162666978
 20
10.7108604648
 11
10.8645630014
 21
10.7075111047
  0
LINE
  5
365
100
AcDbEntity
  8
0
100
AcDbLine
 62
4
  6
CONTINUOUS
 10
11.0158913936
 20
10.6970164451
 11
11.0545284106
 21
10.6943369589
  0
LINE
  5
366
100
AcDbEntity
  8
0
100
AcDbLine
 62
4
  6
CONTINUOUS
 10
11.0931654922
 20
10.6916574681
 11
11.1318025093
 21
10.6889779819
  0
LINE
  5
367
100
AcDbEntity
  8
0
100
AcDbLine
 62
4
  6
CONTINUOUS
 10
11.5213925498
 20
10.6619598208
 11
11.5600296958
 21
10.6592803257
  0
LINE
  5
368
100
AcDbEntity
  8
0
100
AcDbLine
 62
4
  6
CONTINUOUS
 10
11.6083259349
 20
10.6559309701
 11
11.646962952
 21
10.6532514839
  0
LINE
  5
369
100
AcDbEntity
  8
0
100
AcDbLine
 62
4
  6
CONTINUOUS
 10
10.4209305878
 20
10.7489950747
 11
10.459567623
 21
10.7463155872
  0
LINE
  5
36A
100
AcDbEntity
  8
0
100
AcDbLine
 62
4
  6
CONTINUOUS
 10
11.4705700361
 20
10.6762023318
 11
11.4737897768
 21
10.675979042
  0
LINE
  5
36B
100
AcDbEntity
  8
0
100
AcDbLine
 62
4
  6
CONTINUOUS
 10
11.6331592807
 20
10.6399181604
 11
11.5962477224
 21
10.644264312
  0
LINE
  5
36C
100
AcDbEntity
  8
0
100
AcDbLine
 62
4
  6
CONTINUOUS
 10
11.3460240725
 20
10.4792334585
 11
11.3906382805
 21
10.4689941465
  0
LINE
  5
36D
100
AcDbEntity
  8
0
100
AcDbLine
 62
4
  6
CONTINUOUS
 10
10.9900095097
 20
10.6720164635
 11
10.9732791896
 21
10.6758562049
  0
LINE
  5
36E
100
AcDbEntity
  8
0
100
AcDbLine
 62
4
  6
CONTINUOUS
 10
11.1735354376
 20
10.6592888972
 11
11.1568051175
 21
10.6631286385
  0
LINE
  5
36F
100
AcDbEntity
  8
0
100
AcDbLine
 62
4
  6
CONTINUOUS
 10
11.5962477224
 20
10.644264312
 11
11.5883139591
 21
10.6466008466
  0
LINE
  5
370
100
AcDbEntity
  8
0
100
AcDbLine
 62
4
  6
CONTINUOUS
 10
11.6410930439
 20
10.6375816258
 11
11.6331592807
 21
10.6399181604
  0
LINE
  5
371
100
AcDbEntity
  8
0
100
AcDbLine
 62
4
  6
CONTINUOUS
 10
11.2533976602
 20
10.6564299229
 11
11.2604687582
 21
10.6532600509
  0
LINE
  5
372
100
AcDbEntity
  8
0
100
AcDbLine
 62
4
  6
CONTINUOUS
 10
11.3570613654
 20
10.6465613309
 11
11.3499902673
 21
10.6497312029
  0
LINE
  5
373
100
AcDbEntity
  8
0
100
AcDbLine
 62
4
  6
CONTINUOUS
 10
11.4955106659
 20
10.6369598393
 11
11.4884396323
 21
10.6401297068
  0
LINE
  5
374
100
AcDbEntity
  8
0
100
AcDbLine
 62
4
  6
CONTINUOUS
 10
11.5753730174
 20
10.6341008561
 11
11.582444051
 21
10.6309309885
  0
LINE
  5
375
100
AcDbEntity
  8
0
100
AcDbLine
 62
4
  6
CONTINUOUS
 10
11.646962952
 20
10.6532514839
 11
11.6540339848
 21
10.6500816156
  0
LINE
  5
376
100
AcDbEntity
  8
0
100
AcDbLine
 62
4
  6
CONTINUOUS
 10
12.6314459965
 20
10.8904391818
 11
12.6145422935
 21
10.8916114576
  0
LINE
  5
377
100
AcDbEntity
  8
0
100
AcDbLine
 62
4
  6
CONTINUOUS
 10
12.7244163632
 20
10.883991665
 11
12.7920311753
 21
10.8793025618
  0
LINE
  5
378
100
AcDbEntity
  8
0
100
AcDbLine
 62
4
  6
CONTINUOUS
 10
8.6383788423
 20
11.1721824444
 11
8.7059936544
 21
11.1674933413
  0
LINE
  5
379
100
AcDbEntity
  8
0
100
AcDbLine
 62
4
  6
CONTINUOUS
 10
13.9606306528
 20
10.8030830277
 11
14.0282454649
 21
10.7983939246
  0
LINE
  5
37A
100
AcDbEntity
  8
0
100
AcDbLine
 62
4
  6
CONTINUOUS
 10
12.6411114633
 20
10.9085253064
 11
12.6749188693
 21
10.9061807548
  0
LINE
  5
37B
100
AcDbEntity
  8
0
100
AcDbLine
 62
4
  6
CONTINUOUS
 10
12.65077693
 20
10.9266114309
 11
12.6676806331
 21
10.9254391551
  0
LINE
  5
37C
100
AcDbEntity
  8
0
100
AcDbLine
 62
4
  6
CONTINUOUS
 10
12.7860065543
 20
10.9172332246
 11
12.8029102573
 21
10.9160609488
  0
LINE
  5
37D
100
AcDbEntity
  8
0
100
AcDbLine
 62
4
  6
CONTINUOUS
 10
8.6999690334
 20
11.2054240041
 11
8.7168727364
 21
11.2042517283
  0
LINE
  5
37E
100
AcDbEntity
  8
0
100
AcDbLine
 62
4
  6
CONTINUOUS
 10
14.0222208439
 20
10.8363245874
 11
14.0391245469
 21
10.8351523116
  0
LINE
  5
37F
100
AcDbEntity
  8
0
100
AcDbLine
 62
4
  6
CONTINUOUS
 10
8.7186786735
 20
11.1884961296
 11
8.6788321617
 21
11.1850073526
  0
LINE
  5
380
100
AcDbEntity
  8
0
100
AcDbLine
 62
4
  6
CONTINUOUS
 10
8.680045778
 20
11.2036796161
 11
8.6999690334
 21
11.2054240041
  0
LINE
  5
381
100
AcDbEntity
  8
0
100
AcDbLine
 62
4
  6
CONTINUOUS
 10
12.6145422935
 20
10.8916114576
 11
12.6006581436
 21
10.8957003979
  0
LINE
  5
382
100
AcDbEntity
  8
0
100
AcDbLine
 62
4
  6
CONTINUOUS
 10
12.6676806331
 20
10.9254391551
 11
12.6815647838
 21
10.9213502156
  0
LINE
  5
383
100
AcDbEntity
  8
0
100
AcDbLine
 62
4
  6
CONTINUOUS
 10
12.8029102573
 20
10.9160609488
 11
12.816794408
 21
10.9119720093
  0
LINE
  5
384
100
AcDbEntity
  8
0
100
AcDbLine
 62
4
  6
CONTINUOUS
 10
12.6006581436
 20
10.8957003979
 11
12.5897935465
 21
10.9027060025
  0
LINE
  5
385
100
AcDbEntity
  8
0
100
AcDbLine
 62
4
  6
CONTINUOUS
 10
12.6815647838
 20
10.9213502156
 11
12.6869970808
 21
10.9178474119
  0
LINE
  5
386
100
AcDbEntity
  8
0
100
AcDbLine
 62
4
  6
CONTINUOUS
 10
8.7301500795
 20
11.1908266575
 11
8.7186786735
 21
11.1884961296
  0
LINE
  5
387
100
AcDbEntity
  8
0
100
AcDbLine
 62
4
  6
CONTINUOUS
 10
8.6788321617
 20
11.1850073526
 11
8.6558893529
 21
11.1803462999
  0
LINE
  5
388
100
AcDbEntity
  8
0
100
AcDbLine
 62
4
  6
CONTINUOUS
 10
8.668574372
 20
11.2013490882
 11
8.680045778
 21
11.2036796161
  0
LINE
  5
389
100
AcDbEntity
  8
0
100
AcDbLine
 62
7
  6
CONTINUOUS
 10
8.9272073749
 20
11.6711691901
 11
14.722762676
 21
11.2692460649
  0
LINE
  5
38A
100
AcDbEntity
  8
0
100
AcDbLine
 62
4
  6
CONTINUOUS
 10
14.0391245469
 20
10.8351523116
 11
14.0530086976
 21
10.8310633721
  0
LINE
  5
38B
100
AcDbEntity
  8
0
100
AcDbLine
 62
4
  6
CONTINUOUS
 10
12.816794408
 20
10.9119720093
 11
12.8222267051
 21
10.9084692056
  0
LINE
  5
38C
100
AcDbEntity
  8
0
100
AcDbLine
 62
4
  6
CONTINUOUS
 10
14.0530086976
 20
10.8310633721
 11
14.0584409947
 21
10.8275605683
  0
LINE
  5
38D
100
AcDbEntity
  8
0
100
AcDbLine
 62
7
  6
CONTINUOUS
 10
14.722762676
 20
11.2692460649
 11
14.722762676
 21
6.922579589
  0
LINE
  5
38E
100
AcDbEntity
  8
0
100
AcDbLine
 62
7
  6
CONTINUOUS
 10
13.0727926251
 20
5.3288308099
 11
14.722762676
 21
6.922579589
  0
ARC
  5
38F
100
AcDbEntity
  8
0
100
AcDbCircle
 62
7
  6
CONTINUOUS
 10
11.8386271936
 20
7.2692007352
 40
0.6006980834
100
AcDbArc
 50
176.7854053057
 51
180.0043366853
  0
ARC
  5
390
100
AcDbEntity
  8
0
100
AcDbCircle
 62
7
  6
CONTINUOUS
 10
11.8448352742
 20
7.2728401985
 40
0.5824112685
100
AcDbArc
 50
177.5252561962
 51
180.0024276861
  0
ARC
  5
391
100
AcDbEntity
  8
0
100
AcDbCircle
 62
7
  6
CONTINUOUS
 10
9.5052219014
 20
6.4719281141
 40
0.5163443539
100
AcDbArc
 50
25.7640228377
 51
32.3073428428
  0
ARC
  5
392
100
AcDbEntity
  8
0
100
AcDbCircle
 62
7
  6
CONTINUOUS
 10
9.4933844915
 20
6.4641334054
 40
0.5163443539
100
AcDbArc
 50
205.7640228377
 51
212.3073428428
  0
ARC
  5
393
100
AcDbEntity
  8
0
100
AcDbCircle
 62
7
  6
CONTINUOUS
 10
9.4085695458
 20
6.3785691021
 40
0.5163443539
100
AcDbArc
 50
25.7640228377
 51
32.3073428428
  0
ARC
  5
394
100
AcDbEntity
  8
0
100
AcDbCircle
 62
7
  6
CONTINUOUS
 10
11.8472489699
 20
7.2657150317
 40
0.48243682
100
AcDbArc
 50
179.7113866859
 51
180.0000181109
  0
ARC
  5
395
100
AcDbEntity
  8
0
100
AcDbCircle
 62
7
  6
CONTINUOUS
 10
9.5144297535
 20
6.5089726884
 40
0.4792267106
100
AcDbArc
 50
82.590107291
 51
86.0275106487
  0
ARC
  5
396
100
AcDbEntity
  8
0
100
AcDbCircle
 62
7
  6
CONTINUOUS
 10
9.4841766394
 20
6.4270888311
 40
0.4792267106
100
AcDbArc
 50
262.590107291
 51
266.0275106487
  0
ARC
  5
397
100
AcDbEntity
  8
0
100
AcDbCircle
 62
7
  6
CONTINUOUS
 10
9.4177773979
 20
6.4156136764
 40
0.4792267106
100
AcDbArc
 50
82.590107291
 51
86.0275106487
  0
ARC
  5
398
100
AcDbEntity
  8
0
100
AcDbCircle
 62
7
  6
CONTINUOUS
 10
9.4837342453
 20
6.4211419479
 40
0.4732634681
100
AcDbArc
 50
266.0310634489
 51
269.4972694561
  0
ARC
  5
399
100
AcDbEntity
  8
0
100
AcDbCircle
 62
7
  6
CONTINUOUS
 10
9.418219792
 20
6.4215605596
 40
0.4732634681
100
AcDbArc
 50
86.0310634489
 51
89.4972694561
  0
ARC
  5
39A
100
AcDbEntity
  8
0
100
AcDbCircle
 62
7
  6
CONTINUOUS
 10
9.5149108876
 20
6.5159118217
 40
0.4722709174
100
AcDbArc
 50
86.0274199487
 51
89.5009129563
  0
ARC
  5
39B
100
AcDbEntity
  8
0
100
AcDbCircle
 62
7
  6
CONTINUOUS
 10
9.5870925475
 20
6.4724921669
 40
0.4313060869
100
AcDbArc
 50
325.2870362755
 51
332.6649360488
  0
ARC
  5
39C
100
AcDbEntity
  8
0
100
AcDbCircle
 62
7
  6
CONTINUOUS
 10
9.4115138454
 20
6.4635693526
 40
0.4313060869
100
AcDbArc
 50
145.2870362755
 51
152.6649360488
  0
ARC
  5
39D
100
AcDbEntity
  8
0
100
AcDbCircle
 62
7
  6
CONTINUOUS
 10
9.4904401919
 20
6.3791331549
 40
0.4313060869
100
AcDbArc
 50
325.2870362755
 51
332.6649360488
  0
ARC
  5
39E
100
AcDbEntity
  8
0
100
AcDbCircle
 62
7
  6
CONTINUOUS
 10
9.5456804143
 20
6.5811058586
 40
0.3815368015
100
AcDbArc
 50
112.0748152427
 51
120.8284383526
  0
ARC
  5
39F
100
AcDbEntity
  8
0
100
AcDbCircle
 62
7
  6
CONTINUOUS
 10
8.2878063763
 20
6.6000516569
 40
0.3526648967
100
AcDbArc
 50
312.1364489418
 51
313.2786622833
  0
ARC
  5
3A0
100
AcDbEntity
  8
0
100
AcDbCircle
 62
7
  6
CONTINUOUS
 10
8.2150059169
 20
6.6754176608
 40
0.3525498844
100
AcDbArc
 50
135.1223432666
 51
135.8764711908
  0
ARC
  5
3A1
100
AcDbEntity
  8
0
100
AcDbCircle
 62
7
  6
CONTINUOUS
 10
8.2571110096
 20
6.6167526925
 40
0.2937714761
100
AcDbArc
 50
349.3352982742
 51
0.0339175013
  0
ARC
  5
3A2
100
AcDbEntity
  8
0
100
AcDbCircle
 62
7
  6
CONTINUOUS
 10
8.291428687
 20
6.6415338968
 40
0.2646469184
100
AcDbArc
 50
342.7030905752
 51
346.0662717051
  0
ARC
  5
3A3
100
AcDbEntity
  8
0
100
AcDbCircle
 62
7
  6
CONTINUOUS
 10
8.2566657065
 20
6.6775375364
 40
0.2646276762
100
AcDbArc
 50
101.8398892216
 51
105.2966339667
  0
SPLINE
  5
3A4
100
AcDbEntity
  8
0
100
AcDbSpline
 62
7
  6
CONTINUOUS
 70
0
 71
3
 72
20
 73
16
 74
0
 42
0.0000001
 43
0.0000001
 44
0.0000000001
 40
0.0
 40
0.0
 40
0.0
 40
0.0
 40
0.1307130444
 40
0.2609290879
 40
0.3256870374
 40
0.3901050986
 40
0.4540966361
 40
0.517574691
 40
0.5804573165
 40
0.6426728974
 40
0.7041645318
 40
0.7648928072
 40
0.8248367025
 40
0.8839927538
 40
1.0
 40
1.0
 40
1.0
 40
1.0
 10
9.028368957
 20
6.6616222118
 30
0.0
 10
9.0271796719
 20
6.6432610702
 30
0.0
 10
9.025022346
 20
6.6065940784
 30
0.0
 10
9.0229759207
 20
6.5607930026
 30
0.0
 10
9.021795772
 20
6.5242987693
 30
0.0
 10
9.0211538793
 20
6.4971150466
 30
0.0
 10
9.0207638693
 20
6.4701067041
 30
0.0
 10
9.0206322831
 20
6.4433119762
 30
0.0
 10
9.0207614228
 20
6.4167672177
 30
0.0
 10
9.0211491264
 20
6.3905046221
 30
0.0
 10
9.0217889668
 20
6.3645503136
 30
0.0
 10
9.0226707799
 20
6.3389230862
 30
0.0
 10
9.0237814837
 20
6.3136338359
 30
0.0
 10
9.0255358759
 20
6.2805855459
 30
0.0
 10
9.0271632811
 20
6.2559812409
 30
0.0
 10
9.028368957
 20
6.2396962329
 30
0.0
  0
SPLINE
  5
3A5
100
AcDbEntity
  8
0
100
AcDbSpline
 62
7
  6
CONTINUOUS
 70
0
 71
3
 72
21
 73
17
 74
0
 42
0.0000001
 43
0.0000001
 44
0.0000000001
 40
0.0
 40
0.0
 40
0.0
 40
0.0
 40
0.1211316245
 40
0.1823736293
 40
0.2440533566
 40
0.3061457671
 40
0.3686121396
 40
0.431400593
 40
0.4944480865
 40
0.5576838397
 40
0.6210337674
 40
0.6844252162
 40
0.7477912094
 40
0.811073636
 40
0.8742251276
 40
1.0
 40
1.0
 40
1.0
 40
1.0
 10
9.0569736797
 20
6.1881676556
 30
0.0
 10
9.0708045359
 20
6.1772894526
 30
0.0
 10
9.0917809963
 20
6.161104027
 30
0.0
 10
9.1201896859
 20
6.1398939692
 30
0.0
 10
9.1419057698
 20
6.1240581124
 30
0.0
 10
9.1639526637
 20
6.1083772259
 30
0.0
 10
9.1863232769
 20
6.0928770475
 30
0.0
 10
9.2090031456
 20
6.0775833811
 30
0.0
 10
9.231970779
 20
6.0625205671
 30
0.0
 10
9.255198644
 20
6.047709977
 30
0.0
 10
9.2786547849
 20
6.0331686379
 30
0.0
 10
9.3023048408
 20
6.0189082657
 30
0.0
 10
9.3261141007
 20
6.0049348185
 30
0.0
 10
9.3500494115
 20
5.9912485474
 30
0.0
 10
9.3820463486
 20
5.973401428
 30
0.0
 10
9.4062123756
 20
5.9603892832
 30
0.0
 10
9.4223722959
 20
5.951864186
 30
0.0
  0
SPLINE
  5
3A6
100
AcDbEntity
  8
0
100
AcDbSpline
 62
7
  6
CONTINUOUS
 70
0
 71
3
 72
15
 73
11
 74
0
 42
0.0000001
 43
0.0000001
 44
0.0000000001
 40
0.0
 40
0.0
 40
0.0
 40
0.0
 40
0.1128138383
 40
0.2295637229
 40
0.3503753066
 40
0.4750618339
 40
0.60311002
 40
0.73378544
 40
0.8663079068
 40
1.0
 40
1.0
 40
1.0
 40
1.0
 10
9.4795817414
 20
5.9478966975
 30
0.0
 10
9.4935412332
 20
5.9544338907
 30
0.0
 10
9.5219003421
 20
5.9678368583
 30
0.0
 10
9.5650245841
 20
5.9886270648
 30
0.0
 10
9.6094308295
 20
6.0104899323
 30
0.0
 10
9.6550295458
 20
6.0334215883
 30
0.0
 10
9.7016369801
 20
6.0573431471
 30
0.0
 10
9.7490100627
 20
6.0821141222
 30
0.0
 10
9.7968970216
 20
6.1075636855
 30
0.0
 10
9.8289194139
 20
6.1248168166
 30
0.0
 10
9.8449803576
 20
6.1335192068
 30
0.0
  0
SPLINE
  5
3A7
100
AcDbEntity
  8
0
100
AcDbSpline
 62
7
  6
CONTINUOUS
 70
0
 71
3
 72
22
 73
18
 74
0
 42
0.0000001
 43
0.0000001
 44
0.0000000001
 40
0.0
 40
0.0
 40
0.0
 40
0.0
 40
0.0662652743
 40
0.1328051367
 40
0.1995364916
 40
0.2663370505
 40
0.3994351903
 40
0.4652808744
 40
0.5303098216
 40
0.594262539
 40
0.6569110682
 40
0.7180810003
 40
0.777662912
 40
0.8356126734
 40
0.8919431812
 40
0.9467104377
 40
1.0
 40
1.0
 40
1.0
 40
1.0
 10
9.970237436
 20
6.2744393077
 30
0.0
 10
9.9712340898
 20
6.2837299617
 30
0.0
 10
9.9731476994
 20
6.3023589031
 30
0.0
 10
9.9757428787
 20
6.3303757607
 30
0.0
 10
9.9780332593
 20
6.3584951627
 30
0.0
 10
9.9806264109
 20
6.3960033115
 30
0.0
 10
9.9824587202
 20
6.4334370801
 30
0.0
 10
9.9834013909
 20
6.4706488836
 30
0.0
 10
9.9836411495
 20
6.4981215
 30
0.0
 10
9.9834092214
 20
6.5251433482
 30
0.0
 10
9.9827119153
 20
6.5516128902
 30
0.0
 10
9.9815680984
 20
6.5774499516
 30
0.0
 10
9.9800065067
 20
6.602601248
 30
0.0
 10
9.9780623515
 20
6.6270412595
 30
0.0
 10
9.9757738953
 20
6.6507693577
 30
0.0
 10
9.9731795204
 20
6.673804611
 30
0.0
 10
9.9712450698
 20
6.6889188779
 30
0.0
 10
9.970237436
 20
6.6963652866
 30
0.0
  0
SPLINE
  5
3A8
100
AcDbEntity
  8
0
100
AcDbSpline
 62
7
  6
CONTINUOUS
 70
0
 71
3
 72
22
 73
18
 74
0
 42
0.0000001
 43
0.0000001
 44
0.0000000001
 40
0.0
 40
0.0
 40
0.0
 40
0.0
 40
0.0578996962
 40
0.1168101933
 40
0.1767600489
 40
0.2377470615
 40
0.2997283629
 40
0.3626113545
 40
0.4262509392
 40
0.4904549087
 40
0.5549987336
 40
0.6196477114
 40
0.6841805087
 40
0.7484081384
 40
0.8121847207
 40
0.8754100196
 40
1.0
 40
1.0
 40
1.0
 40
1.0
 10
9.9416327133
 20
6.7478938639
 30
0.0
 10
9.9353789191
 20
6.7535553096
 30
0.0
 10
9.9226720492
 20
6.7648780255
 30
0.0
 10
9.9031563366
 20
6.7816837206
 30
0.0
 10
9.882990358
 20
6.7984173718
 30
0.0
 10
9.8621507697
 20
6.815032234
 30
0.0
 10
9.8406311653
 20
6.8314707182
 30
0.0
 10
9.8184471918
 20
6.8476657705
 30
0.0
 10
9.7956397187
 20
6.8635443515
 30
0.0
 10
9.7722747295
 20
6.8790330032
 30
0.0
 10
9.7484392966
 20
6.8940648966
 30
0.0
 10
9.7242336057
 20
6.9085860982
 30
0.0
 10
9.6997614476
 20
6.9225605347
 30
0.0
 10
9.6751209406
 20
6.9359715068
 30
0.0
 10
9.6503975424
 20
6.9488206968
 30
0.0
 10
9.6175762025
 20
6.9651460597
 30
0.0
 10
9.5927818977
 20
6.9767357841
 30
0.0
 10
9.576234097
 20
6.9841973335
 30
0.0
  0
SPLINE
  5
3A9
100
AcDbEntity
  8
0
100
AcDbSpline
 62
7
  6
CONTINUOUS
 70
0
 71
3
 72
15
 73
11
 74
0
 42
0.0000001
 43
0.0000001
 44
0.0000000001
 40
0.0
 40
0.0
 40
0.0
 40
0.0
 40
0.1024613676
 40
0.2125928618
 40
0.3308785969
 40
0.4568383157
 40
0.5888655796
 40
0.7247022368
 40
0.8622377903
 40
1.0
 40
1.0
 40
1.0
 40
1.0
 10
9.5190246516
 20
6.988164822
 30
0.0
 10
9.5061808703
 20
6.9825832668
 30
0.0
 10
9.4796129847
 20
6.9708145387
 30
0.0
 10
9.4385393799
 20
6.951885968
 30
0.0
 10
9.3948697715
 20
6.9309302405
 30
0.0
 10
9.3488529259
 20
6.9079630471
 30
0.0
 10
9.3010443603
 20
6.8832274408
 30
0.0
 10
9.252160955
 20
6.8571370342
 30
0.0
 10
9.202873389
 20
6.8301469742
 30
0.0
 10
9.1700292224
 20
6.8117871092
 30
0.0
 10
9.1536260353
 20
6.8025423127
 30
0.0
  0
SPLINE
  5
3AA
100
AcDbEntity
  8
0
100
AcDbSpline
 62
7
  6
CONTINUOUS
 70
0
 71
3
 72
71
 73
67
 74
0
 42
0.0000001
 43
0.0000001
 44
0.0000000001
 40
0.0
 40
0.0
 40
0.0
 40
0.0
 40
0.0156216706
 40
0.0311907745
 40
0.0467067129
 40
0.0621710762
 40
0.0775850548
 40
0.0929506339
 40
0.1082702304
 40
0.1235467312
 40
0.1387834665
 40
0.1539841688
 40
0.1691529583
 40
0.18429428
 40
0.1994128679
 40
0.2145137035
 40
0.2296019564
 40
0.2446829193
 40
0.2597619759
 40
0.2748445272
 40
0.2899359312
 40
0.3050414546
 40
0.3201662202
 40
0.3353151335
 40
0.3504928522
 40
0.365703735
 40
0.3809517875
 40
0.3962406261
 40
0.4115734583
 40
0.4269530346
 40
0.4423816308
 40
0.4578610394
 40
0.4733925444
 40
0.4889769098
 40
0.5046143965
 40
0.520304754
 40
0.5360472182
 40
0.5518405387
 40
0.5676829933
 40
0.5835723969
 40
0.5995061365
 40
0.615481204
 40
0.6314942052
 40
0.6475414082
 40
0.6636187847
 40
0.6797220354
 40
0.695846625
 40
0.7119878439
 40
0.7281408301
 40
0.744300616
 40
0.7604621807
 40
0.7766204909
 40
0.7927705277
 40
0.8089073567
 40
0.8250261591
 40
0.8411222663
 40
0.8571912088
 40
0.8732287682
 40
0.8892309912
 40
0.9051942477
 40
0.9211152546
 40
0.9369911073
 40
0.9528193701
 40
0.9685977523
 40
0.9843253342
 40
1.0
 40
1.0
 40
1.0
 40
1.0
 10
9.4421607005
 20
5.9974872139
 30
0.0
 10
9.4489445186
 20
5.9970167545
 30
0.0
 10
9.4625146234
 20
5.9964076688
 30
0.0
 10
9.4828537215
 20
5.9964957069
 30
0.0
 10
9.5030957296
 20
5.9975868761
 30
0.0
 10
9.5231910006
 20
5.9996784055
 30
0.0
 10
9.5430914757
 20
6.0027654564
 30
0.0
 10
9.5627490624
 20
6.0068405952
 30
0.0
 10
9.5821164095
 20
6.011894043
 30
0.0
 10
9.6011468206
 20
6.0179136598
 30
0.0
 10
9.6197944085
 20
6.0248849733
 30
0.0
 10
9.6380141965
 20
6.0327912329
 30
0.0
 10
9.6557622307
 20
6.041613423
 30
0.0
 10
9.6729957079
 20
6.0513302809
 30
0.0
 10
9.6896730578
 20
6.0619183924
 30
0.0
 10
9.7057540473
 20
6.0733522454
 30
0.0
 10
9.7211998718
 20
6.0856042889
 30
0.0
 10
9.7359732591
 20
6.09864499
 30
0.0
 10
9.7500385854
 20
6.11244288
 30
0.0
 10
9.7633619314
 20
6.1269646738
 30
0.0
 10
9.7759111652
 20
6.1421753406
 30
0.0
 10
9.7876560167
 20
6.1580381958
 30
0.0
 10
9.7985681659
 20
6.1745149727
 30
0.0
 10
9.8086213373
 20
6.191565906
 30
0.0
 10
9.8177913175
 20
6.2091498602
 30
0.0
 10
9.8260560272
 20
6.2272244213
 30
0.0
 10
9.8333955579
 20
6.2457460011
 30
0.0
 10
9.8397922507
 20
6.2646699312
 30
0.0
 10
9.8452307489
 20
6.2839505723
 30
0.0
 10
9.8496979974
 20
6.3035414395
 30
0.0
 10
9.8531832742
 20
6.3233953098
 30
0.0
 10
9.855678213
 20
6.343464336
 30
0.0
 10
9.8571768494
 20
6.3637001543
 30
0.0
 10
9.8576756458
 20
6.3840540058
 30
0.0
 10
9.8571734512
 20
6.4044768593
 30
0.0
 10
9.8556715225
 20
6.4249195251
 30
0.0
 10
9.8531735013
 20
6.4453327683
 30
0.0
 10
9.8496854513
 20
6.4656674307
 30
0.0
 10
9.8452158314
 20
6.4858745542
 30
0.0
 10
9.839775447
 20
6.5059054907
 30
0.0
 10
9.8333774262
 20
6.5257120195
 30
0.0
 10
9.8260371869
 20
6.5452464569
 30
0.0
 10
9.8177724347
 20
6.5644617828
 30
0.0
 10
9.8086031092
 20
6.5833117536
 30
0.0
 10
9.7985513052
 20
6.6017510032
 30
0.0
 10
9.7876412353
 20
6.6197351514
 30
0.0
 10
9.7758991581
 20
6.6372209027
 30
0.0
 10
9.7633533591
 20
6.6541661761
 30
0.0
 10
9.7500340587
 20
6.6705301976
 30
0.0
 10
9.7359733247
 20
6.6862735817
 30
0.0
 10
9.721204999
 20
6.7013584315
 30
0.0
 10
9.7057646165
 20
6.7157484196
 30
0.0
 10
9.6896893509
 20
6.7294089125
 30
0.0
 10
9.6730179017
 20
6.7423070317
 30
0.0
 10
9.6557903922
 20
6.7544117234
 30
0.0
 10
9.6380482807
 20
6.765693831
 30
0.0
 10
9.6198342571
 20
6.7761261621
 30
0.0
 10
9.6011921662
 20
6.7856835946
 30
0.0
 10
9.5821668814
 20
6.7943431133
 30
0.0
 10
9.5628041921
 20
6.8020838408
 30
0.0
 10
9.5431507068
 20
6.8088871055
 30
0.0
 10
9.5232536986
 20
6.8147364937
 30
0.0
 10
9.5031611885
 20
6.8196178236
 30
0.0
 10
9.4829212011
 20
6.8235194992
 30
0.0
 10
9.4625833223
 20
6.8264317745
 30
0.0
 10
9.4489675321
 20
6.8277114183
 30
0.0
 10
9.4421607005
 20
6.8281834737
 30
0.0
  0
SPLINE
  5
3AB
100
AcDbEntity
  8
0
100
AcDbSpline
 62
7
  6
CONTINUOUS
 70
0
 71
3
 72
71
 73
67
 74
0
 42
0.0000001
 43
0.0000001
 44
0.0000000001
 40
0.0
 40
0.0
 40
0.0
 40
0.0
 40
0.0156216706
 40
0.0311907745
 40
0.0467067129
 40
0.0621710762
 40
0.0775850548
 40
0.0929506339
 40
0.1082702304
 40
0.1235467312
 40
0.1387834665
 40
0.1539841688
 40
0.1691529583
 40
0.18429428
 40
0.1994128679
 40
0.2145137035
 40
0.2296019564
 40
0.2446829193
 40
0.2597619759
 40
0.2748445272
 40
0.2899359312
 40
0.3050414546
 40
0.3201662202
 40
0.3353151335
 40
0.3504928522
 40
0.365703735
 40
0.3809517875
 40
0.3962406261
 40
0.4115734583
 40
0.4269530346
 40
0.4423816308
 40
0.4578610394
 40
0.4733925444
 40
0.4889769098
 40
0.5046143965
 40
0.520304754
 40
0.5360472182
 40
0.5518405387
 40
0.5676829933
 40
0.5835723969
 40
0.5995061365
 40
0.615481204
 40
0.6314942052
 40
0.6475414082
 40
0.6636187847
 40
0.6797220354
 40
0.695846625
 40
0.7119878439
 40
0.7281408301
 40
0.744300616
 40
0.7604621807
 40
0.7766204909
 40
0.7927705277
 40
0.8089073567
 40
0.8250261591
 40
0.8411222663
 40
0.8571912088
 40
0.8732287682
 40
0.8892309912
 40
0.9051942477
 40
0.9211152546
 40
0.9369911073
 40
0.9528193701
 40
0.9685977523
 40
0.9843253342
 40
1.0
 40
1.0
 40
1.0
 40
1.0
 10
9.4421607005
 20
6.8281834737
 30
0.0
 10
9.4353768823
 20
6.8286539331
 30
0.0
 10
9.4218067776
 20
6.8292630188
 30
0.0
 10
9.4014676794
 20
6.8291749807
 30
0.0
 10
9.3812256713
 20
6.8280838115
 30
0.0
 10
9.3611304003
 20
6.8259922821
 30
0.0
 10
9.3412299252
 20
6.8229052312
 30
0.0
 10
9.3215723385
 20
6.8188300924
 30
0.0
 10
9.3022049914
 20
6.8137766446
 30
0.0
 10
9.2831745803
 20
6.8077570278
 30
0.0
 10
9.2645269924
 20
6.8007857143
 30
0.0
 10
9.2463072044
 20
6.7928794547
 30
0.0
 10
9.2285591703
 20
6.7840572646
 30
0.0
 10
9.2113256931
 20
6.7743404067
 30
0.0
 10
9.1946483431
 20
6.7637522952
 30
0.0
 10
9.1785673536
 20
6.7523184422
 30
0.0
 10
9.1631215291
 20
6.7400663987
 30
0.0
 10
9.1483481418
 20
6.7270256976
 30
0.0
 10
9.1342828155
 20
6.7132278076
 30
0.0
 10
9.1209594695
 20
6.6987060138
 30
0.0
 10
9.1084102358
 20
6.683495347
 30
0.0
 10
9.0966653842
 20
6.6676324918
 30
0.0
 10
9.085753235
 20
6.6511557149
 30
0.0
 10
9.0757000636
 20
6.6341047816
 30
0.0
 10
9.0665300834
 20
6.6165208274
 30
0.0
 10
9.0582653737
 20
6.5984462663
 30
0.0
 10
9.050925843
 20
6.5799246865
 30
0.0
 10
9.0445291503
 20
6.5610007564
 30
0.0
 10
9.039090652
 20
6.5417201153
 30
0.0
 10
9.0346234035
 20
6.5221292481
 30
0.0
 10
9.0311381267
 20
6.5022753778
 30
0.0
 10
9.0286431879
 20
6.4822063515
 30
0.0
 10
9.0271445515
 20
6.4619705332
 30
0.0
 10
9.0266457551
 20
6.4416166818
 30
0.0
 10
9.0271479497
 20
6.4211938283
 30
0.0
 10
9.0286498785
 20
6.4007511625
 30
0.0
 10
9.0311478997
 20
6.3803379193
 30
0.0
 10
9.0346359496
 20
6.3600032569
 30
0.0
 10
9.0391055695
 20
6.3397961334
 30
0.0
 10
9.0445459539
 20
6.3197651969
 30
0.0
 10
9.0509439747
 20
6.2999586681
 30
0.0
 10
9.058284214
 20
6.2804242307
 30
0.0
 10
9.0665489662
 20
6.2612089048
 30
0.0
 10
9.0757182917
 20
6.242358934
 30
0.0
 10
9.0857700957
 20
6.2239196844
 30
0.0
 10
9.0966801656
 20
6.2059355362
 30
0.0
 10
9.1084222429
 20
6.1884497849
 30
0.0
 10
9.1209680418
 20
6.1715045115
 30
0.0
 10
9.1342873422
 20
6.15514049
 30
0.0
 10
9.1483480762
 20
6.1393971059
 30
0.0
 10
9.1631164019
 20
6.1243122561
 30
0.0
 10
9.1785567844
 20
6.109922268
 30
0.0
 10
9.19463205
 20
6.0962617751
 30
0.0
 10
9.2113034992
 20
6.0833636559
 30
0.0
 10
9.2285310087
 20
6.0712589642
 30
0.0
 10
9.2462731202
 20
6.0599768566
 30
0.0
 10
9.2644871438
 20
6.0495445255
 30
0.0
 10
9.2831292347
 20
6.039987093
 30
0.0
 10
9.3021545195
 20
6.0313275743
 30
0.0
 10
9.3215172088
 20
6.0235868468
 30
0.0
 10
9.3411706941
 20
6.0167835821
 30
0.0
 10
9.3610677024
 20
6.0109341939
 30
0.0
 10
9.3811602125
 20
6.006052864
 30
0.0
 10
9.4014001998
 20
6.0021511884
 30
0.0
 10
9.4217380786
 20
5.9992389131
 30
0.0
 10
9.4353538688
 20
5.9979592693
 30
0.0
 10
9.4421607005
 20
5.9974872139
 30
0.0
  0
SPLINE
  5
3AC
100
AcDbEntity
  8
0
100
AcDbSpline
 62
7
  6
CONTINUOUS
 70
0
 71
3
 72
20
 73
16
 74
0
 42
0.0000001
 43
0.0000001
 44
0.0000000001
 40
0.0
 40
0.0
 40
0.0
 40
0.0
 40
0.1160072463
 40
0.1751632975
 40
0.2351071928
 40
0.2958354683
 40
0.3573271027
 40
0.4195426835
 40
0.482425309
 40
0.5459033639
 40
0.6098949014
 40
0.6743129626
 40
0.7390709121
 40
0.8692869556
 40
1.0
 40
1.0
 40
1.0
 40
1.0
 10
9.8735850803
 20
6.1810802957
 30
0.0
 10
9.8723794045
 20
6.1973653037
 30
0.0
 10
9.8707519993
 20
6.2219696087
 30
0.0
 10
9.8689976071
 20
6.2550178987
 30
0.0
 10
9.8678869033
 20
6.280307149
 30
0.0
 10
9.8670050902
 20
6.3059343763
 30
0.0
 10
9.8663652497
 20
6.3318886848
 30
0.0
 10
9.8659775462
 20
6.3581512804
 30
0.0
 10
9.8658484065
 20
6.384696039
 30
0.0
 10
9.8659799926
 20
6.4114907668
 30
0.0
 10
9.8663700027
 20
6.4384991094
 30
0.0
 10
9.8670118954
 20
6.4656828321
 30
0.0
 10
9.8681920441
 20
6.5021770654
 30
0.0
 10
9.8702384694
 20
6.5479781412
 30
0.0
 10
9.8723957952
 20
6.584645133
 30
0.0
 10
9.8735850803
 20
6.6030062746
 30
0.0
  0
SPLINE
  5
3AD
100
AcDbEntity
  8
0
100
AcDbSpline
 62
7
  6
CONTINUOUS
 70
0
 71
3
 72
21
 73
17
 74
0
 42
0.0000001
 43
0.0000001
 44
0.0000000001
 40
0.0
 40
0.0
 40
0.0
 40
0.0
 40
0.1257748724
 40
0.188926364
 40
0.2522087907
 40
0.3155747839
 40
0.3789662327
 40
0.4423161603
 40
0.5055519135
 40
0.5685994071
 40
0.6313878604
 40
0.6938542329
 40
0.7559466435
 40
0.8176263707
 40
0.8788683755
 40
1.0
 40
1.0
 40
1.0
 40
1.0
 10
9.8449803576
 20
6.6545348519
 30
0.0
 10
9.8288204373
 20
6.6630599491
 30
0.0
 10
9.8046544103
 20
6.6760720939
 30
0.0
 10
9.7726574732
 20
6.6939192133
 30
0.0
 10
9.7487221623
 20
6.7076054844
 30
0.0
 10
9.7249129024
 20
6.7215789317
 30
0.0
 10
9.7012628465
 20
6.7358393039
 30
0.0
 10
9.6778067057
 20
6.7503806429
 30
0.0
 10
9.6545788407
 20
6.765191233
 30
0.0
 10
9.6316112073
 20
6.780254047
 30
0.0
 10
9.6089313385
 20
6.7955477134
 30
0.0
 10
9.5865607254
 20
6.8110478919
 30
0.0
 10
9.5645138315
 20
6.8267287783
 30
0.0
 10
9.5427977476
 20
6.8425646351
 30
0.0
 10
9.514389058
 20
6.8637746929
 30
0.0
 10
9.4934125976
 20
6.8799601185
 30
0.0
 10
9.4795817414
 20
6.8908383215
 30
0.0
  0
SPLINE
  5
3AE
100
AcDbEntity
  8
0
100
AcDbSpline
 62
7
  6
CONTINUOUS
 70
0
 71
3
 72
15
 73
11
 74
0
 42
0.0000001
 43
0.0000001
 44
0.0000000001
 40
0.0
 40
0.0
 40
0.0
 40
0.0
 40
0.1336920932
 40
0.2662145601
 40
0.39688998
 40
0.5249381662
 40
0.6496246935
 40
0.7704362771
 40
0.8871861617
 40
1.0
 40
1.0
 40
1.0
 40
1.0
 10
9.4223722959
 20
6.89480581
 30
0.0
 10
9.4063113522
 20
6.8861034197
 30
0.0
 10
9.3742889599
 20
6.8688502887
 30
0.0
 10
9.326402001
 20
6.8434007254
 30
0.0
 10
9.2790289184
 20
6.8186297503
 30
0.0
 10
9.2324214841
 20
6.7947081915
 30
0.0
 10
9.1868227679
 20
6.7717765355
 30
0.0
 10
9.1424165224
 20
6.7499136679
 30
0.0
 10
9.0992922804
 20
6.7291234614
 30
0.0
 10
9.0709331715
 20
6.7157204939
 30
0.0
 10
9.0569736797
 20
6.7091833006
 30
0.0
  0
SPLINE
  5
3AF
100
AcDbEntity
  8
0
100
AcDbSpline
 62
7
  6
CONTINUOUS
 70
0
 71
3
 72
21
 73
17
 74
0
 42
0.0000001
 43
0.0000001
 44
0.0000000001
 40
0.0
 40
0.0
 40
0.0
 40
0.0
 40
0.1273175203
 40
0.253800042
 40
0.3167619342
 40
0.3795354977
 40
0.4421315044
 40
0.5045621463
 40
0.5668413435
 40
0.6289845249
 40
0.6910084556
 40
0.7529310973
 40
0.8147714461
 40
0.8765493353
 40
0.9382852242
 40
1.0
 40
1.0
 40
1.0
 40
1.0
 10
8.6343631904
 20
6.6025628202
 30
0.0
 10
8.6343631904
 20
6.5900896579
 30
0.0
 10
8.6331725342
 20
6.5652090841
 30
0.0
 10
8.6286758799
 20
6.5344513218
 30
0.0
 10
8.6233013242
 20
6.5103245405
 30
0.0
 10
8.618400009
 20
6.4925286376
 30
0.0
 10
8.612634004
 20
6.4750489128
 30
0.0
 10
8.6060164338
 20
6.4579252292
 30
0.0
 10
8.5985625927
 20
6.4411971902
 30
0.0
 10
8.5902896545
 20
6.4249033304
 30
0.0
 10
8.5812166279
 20
6.4090812678
 30
0.0
 10
8.5713643874
 20
6.393767508
 30
0.0
 10
8.5607557235
 20
6.3789973791
 30
0.0
 10
8.5494149609
 20
6.3648048392
 30
0.0
 10
8.5373686479
 20
6.3512231161
 30
0.0
 10
8.5288843404
 20
6.3425951331
 30
0.0
 10
8.5245356335
 20
6.3383946035
 30
0.0
  0
SPLINE
  5
3B0
100
AcDbEntity
  8
0
100
AcDbSpline
 62
7
  6
CONTINUOUS
 70
0
 71
3
 72
56
 73
52
 74
0
 42
0.0000001
 43
0.0000001
 44
0.0000000001
 40
0.0
 40
0.0
 40
0.0
 40
0.0
 40
0.0081223388
 40
0.0169170819
 40
0.0264090949
 40
0.0366148108
 40
0.0475421495
 40
0.0591919395
 40
0.0715594932
 40
0.0846358298
 40
0.0984077897
 40
0.1128590779
 40
0.1279703433
 40
0.1437196922
 40
0.1600829761
 40
0.1770338319
 40
0.2125828108
 40
0.2501233585
 40
0.2893879714
 40
0.3300905942
 40
0.3719302744
 40
0.4145945877
 40
0.4577629365
 40
0.5011097793
 40
0.5443078355
 40
0.5870312788
 40
0.6289589314
 40
0.6697774897
 40
0.709184814
 40
0.7468933401
 40
0.7826337208
 40
0.799688406
 40
0.8161604376
 40
0.8320232343
 40
0.8472521113
 40
0.8618248526
 40
0.8757215461
 40
0.8889253415
 40
0.9014225173
 40
0.913203164
 40
0.9242618885
 40
0.9345984389
 40
0.944219267
 40
0.953138585
 40
0.9613808629
 40
0.9689831546
 40
0.9759985596
 40
0.9824999922
 40
0.988583382
 40
0.9943693243
 40
1.0
 40
1.0
 40
1.0
 40
1.0
 10
9.4845712623
 20
11.4985413955
 30
0.0
 10
9.4837184965
 20
11.497717687
 30
0.0
 10
9.4818619165
 20
11.4960843222
 30
0.0
 10
9.4787801766
 20
11.4937635822
 30
0.0
 10
9.4752998858
 20
11.4914816898
 30
0.0
 10
9.4714281445
 20
11.4892430153
 30
0.0
 10
9.4671722058
 20
11.4870515951
 30
0.0
 10
9.4625403239
 20
11.4849117847
 30
0.0
 10
9.4575416236
 20
11.4828277496
 30
0.0
 10
9.4521859804
 20
11.4808037515
 30
0.0
 10
9.4464840712
 20
11.4788437903
 30
0.0
 10
9.4404472872
 20
11.4769519088
 30
0.0
 10
9.4340877434
 20
11.475131916
 30
0.0
 10
9.4274182272
 20
11.4733875223
 30
0.0
 10
9.420452155
 20
11.4717222776
 30
0.0
 10
9.4106309733
 20
11.4695779704
 30
0.0
 10
9.3977140308
 20
11.4671335697
 30
0.0
 10
9.3815066372
 20
11.4646085643
 30
0.0
 10
9.3644856487
 20
11.4624683077
 30
0.0
 10
9.3467884832
 20
11.4607303976
 30
0.0
 10
9.3285578907
 20
11.4594091918
 30
0.0
 10
9.3099411061
 20
11.4585155699
 30
0.0
 10
9.2910885233
 20
11.4580568927
 30
0.0
 10
9.2721524825
 20
11.458036935
 30
0.0
 10
9.2532860071
 20
11.458455858
 30
0.0
 10
9.2346415502
 20
11.4593102139
 30
0.0
 10
9.2163697331
 20
11.4605929677
 30
0.0
 10
9.1986181307
 20
11.4622935581
 30
0.0
 10
9.1815299479
 20
11.4643979404
 30
0.0
 10
9.1652431572
 20
11.466888809
 30
0.0
 10
9.1522522707
 20
11.469305503
 30
0.0
 10
9.1423661401
 20
11.4714284574
 30
0.0
 10
9.1353476763
 20
11.4730789734
 30
0.0
 10
9.128623258
 20
11.4748092187
 30
0.0
 10
9.1222064233
 20
11.4766157668
 30
0.0
 10
9.116110072
 20
11.4784948544
 30
0.0
 10
9.1103464476
 20
11.4804427408
 30
0.0
 10
9.104927074
 20
11.4824554119
 30
0.0
 10
9.0998627551
 20
11.4845288308
 30
0.0
 10
9.0951635317
 20
11.486658843
 30
0.0
 10
9.0908386266
 20
11.4888411662
 30
0.0
 10
9.0868964895
 20
11.4910716285
 30
0.0
 10
9.0833446476
 20
11.4933458985
 30
0.0
 10
9.080189879
 20
11.4956599713
 30
0.0
 10
9.0774380773
 20
11.4980098997
 30
0.0
 10
9.0750945424
 20
11.5003922113
 30
0.0
 10
9.073164256
 20
11.5028039053
 30
0.0
 10
9.0716522813
 20
11.5052421243
 30
0.0
 10
9.0705646863
 20
11.5077041735
 30
0.0
 10
9.0699079822
 20
11.5101841649
 30
0.0
 10
9.0697609038
 20
11.5118541046
 30
0.0
 10
9.0697609138
 20
11.5126760189
 30
0.0
  0
SPLINE
  5
3B1
100
AcDbEntity
  8
0
100
AcDbSpline
 62
7
  6
CONTINUOUS
 70
0
 71
3
 72
56
 73
52
 74
0
 42
0.0000001
 43
0.0000001
 44
0.0000000001
 40
0.0
 40
0.0
 40
0.0
 40
0.0
 40
0.0081223388
 40
0.0169170819
 40
0.0264090949
 40
0.0366148108
 40
0.0475421495
 40
0.0591919395
 40
0.0715594932
 40
0.0846358298
 40
0.0984077897
 40
0.1128590779
 40
0.1279703433
 40
0.1437196922
 40
0.1600829761
 40
0.1770338319
 40
0.2125828108
 40
0.2501233585
 40
0.2893879714
 40
0.3300905942
 40
0.3719302744
 40
0.4145945877
 40
0.4577629365
 40
0.5011097793
 40
0.5443078355
 40
0.5870312788
 40
0.6289589314
 40
0.6697774897
 40
0.709184814
 40
0.7468933401
 40
0.7826337208
 40
0.799688406
 40
0.8161604376
 40
0.8320232343
 40
0.8472521113
 40
0.8618248526
 40
0.8757215461
 40
0.8889253415
 40
0.9014225173
 40
0.913203164
 40
0.9242618885
 40
0.9345984389
 40
0.944219267
 40
0.953138585
 40
0.9613808629
 40
0.9689831546
 40
0.9759985596
 40
0.9824999922
 40
0.988583382
 40
0.9943693243
 40
1.0
 40
1.0
 40
1.0
 40
1.0
 10
12.9230494606
 20
9.8198564872
 30
0.0
 10
12.9221966948
 20
9.8190327786
 30
0.0
 10
12.9203401148
 20
9.8173994138
 30
0.0
 10
12.9172583749
 20
9.8150786739
 30
0.0
 10
12.9137780841
 20
9.8127967814
 30
0.0
 10
12.9099063428
 20
9.810558107
 30
0.0
 10
12.9056504041
 20
9.8083666867
 30
0.0
 10
12.9010185222
 20
9.8062268764
 30
0.0
 10
12.8960198218
 20
9.8041428412
 30
0.0
 10
12.8906641787
 20
9.8021188431
 30
0.0
 10
12.8849622695
 20
9.800158882
 30
0.0
 10
12.8789254855
 20
9.7982670005
 30
0.0
 10
12.8725659417
 20
9.7964470076
 30
0.0
 10
12.8658964255
 20
9.7947026139
 30
0.0
 10
12.8589303533
 20
9.7930373692
 30
0.0
 10
12.8491091716
 20
9.7908930621
 30
0.0
 10
12.836192229
 20
9.7884486614
 30
0.0
 10
12.8199848355
 20
9.7859236559
 30
0.0
 10
12.8029638469
 20
9.7837833994
 30
0.0
 10
12.7852666814
 20
9.7820454892
 30
0.0
 10
12.767036089
 20
9.7807242834
 30
0.0
 10
12.7484193044
 20
9.7798306616
 30
0.0
 10
12.7295667216
 20
9.7793719843
 30
0.0
 10
12.7106306807
 20
9.7793520266
 30
0.0
 10
12.6917642054
 20
9.7797709496
 30
0.0
 10
12.6731197485
 20
9.7806253055
 30
0.0
 10
12.6548479314
 20
9.7819080593
 30
0.0
 10
12.6370963289
 20
9.7836086497
 30
0.0
 10
12.6200081462
 20
9.785713032
 30
0.0
 10
12.6037213555
 20
9.7882039006
 30
0.0
 10
12.590730469
 20
9.7906205947
 30
0.0
 10
12.5808443384
 20
9.7927435491
 30
0.0
 10
12.5738258746
 20
9.794394065
 30
0.0
 10
12.5671014563
 20
9.7961243103
 30
0.0
 10
12.5606846216
 20
9.7979308584
 30
0.0
 10
12.5545882702
 20
9.799809946
 30
0.0
 10
12.5488246459
 20
9.8017578324
 30
0.0
 10
12.5434052722
 20
9.8037705035
 30
0.0
 10
12.5383409534
 20
9.8058439224
 30
0.0
 10
12.53364173
 20
9.8079739347
 30
0.0
 10
12.5293168249
 20
9.8101562578
 30
0.0
 10
12.5253746878
 20
9.8123867201
 30
0.0
 10
12.5218228459
 20
9.8146609901
 30
0.0
 10
12.5186680772
 20
9.816975063
 30
0.0
 10
12.5159162755
 20
9.8193249914
 30
0.0
 10
12.5135727406
 20
9.821707303
 30
0.0
 10
12.5116424543
 20
9.824118997
 30
0.0
 10
12.5101304796
 20
9.8265572159
 30
0.0
 10
12.5090428846
 20
9.8290192651
 30
0.0
 10
12.5083861805
 20
9.8314992565
 30
0.0
 10
12.5082391021
 20
9.8331691962
 30
0.0
 10
12.5082391121
 20
9.8339911106
 30
0.0
  0
SPLINE
  5
3B2
100
AcDbEntity
  8
0
100
AcDbSpline
 62
7
  6
CONTINUOUS
 70
0
 71
3
 72
18
 73
14
 74
0
 42
0.0000001
 43
0.0000001
 44
0.0000000001
 40
0.0
 40
0.0
 40
0.0
 40
0.0
 40
0.1504683897
 40
0.2917144302
 40
0.4244424337
 40
0.4879098403
 40
0.5496094316
 40
0.6682625858
 40
0.7817882724
 40
0.8371379912
 40
0.8918078094
 40
0.9460192717
 40
1.0
 40
1.0
 40
1.0
 40
1.0
 10
14.2374773669
 20
9.4723483341
 30
0.0
 10
14.2399510893
 20
9.4747377666
 30
0.0
 10
14.2448951649
 20
9.4792210318
 30
0.0
 10
14.2525505499
 20
9.4851955149
 30
0.0
 10
14.2590168149
 20
9.489420987
 30
0.0
 10
14.2641730999
 20
9.4922823391
 30
0.0
 10
14.2691776887
 20
9.4947389061
 30
0.0
 10
14.2754350122
 20
9.4972211749
 30
0.0
 10
14.2818036419
 20
9.4989150807
 30
0.0
 10
14.2868477845
 20
9.4997495221
 30
0.0
 10
14.2905861938
 20
9.5001198419
 30
0.0
 10
14.294309478
 20
9.5002394381
 30
0.0
 10
14.2967831368
 20
9.500151928
 30
0.0
 10
14.2980140283
 20
9.5000665589
 30
0.0
  0
SPLINE
  5
3B3
100
AcDbEntity
  8
0
100
AcDbSpline
 62
7
  6
CONTINUOUS
 70
0
 71
3
 72
18
 73
14
 74
0
 42
0.0000001
 43
0.0000001
 44
0.0000000001
 40
0.0
 40
0.0
 40
0.0
 40
0.0
 40
0.1504683897
 40
0.2917144302
 40
0.4244424337
 40
0.4879098403
 40
0.5496094316
 40
0.6682625858
 40
0.7817882724
 40
0.8371379912
 40
0.8918078094
 40
0.9460192717
 40
1.0
 40
1.0
 40
1.0
 40
1.0
 10
13.5580779342
 20
8.8160988368
 30
0.0
 10
13.5605516566
 20
8.8184882693
 30
0.0
 10
13.5654957322
 20
8.8229715345
 30
0.0
 10
13.5731511172
 20
8.8289460176
 30
0.0
 10
13.5796173822
 20
8.8331714897
 30
0.0
 10
13.5847736672
 20
8.8360328418
 30
0.0
 10
13.589778256
 20
8.8384894088
 30
0.0
 10
13.5960355795
 20
8.8409716776
 30
0.0
 10
13.6024042092
 20
8.8426655834
 30
0.0
 10
13.6074483518
 20
8.8435000248
 30
0.0
 10
13.6111867611
 20
8.8438703446
 30
0.0
 10
13.6149100453
 20
8.8439899408
 30
0.0
 10
13.6173837041
 20
8.8439024307
 30
0.0
 10
13.6186145956
 20
8.8438170616
 30
0.0
  0
SPLINE
  5
3B4
100
AcDbEntity
  8
0
100
AcDbSpline
 62
7
  6
CONTINUOUS
 70
0
 71
3
 72
15
 73
11
 74
0
 42
0.0000001
 43
0.0000001
 44
0.0000000001
 40
0.0
 40
0.0
 40
0.0
 40
0.0
 40
0.1273483176
 40
0.2538606274
 40
0.3795878627
 40
0.5046051194
 40
0.6290174385
 40
0.7529533738
 40
0.8765605773
 40
1.0
 40
1.0
 40
1.0
 40
1.0
 10
8.5323720654
 20
6.6540469527
 30
0.0
 10
8.5323720654
 20
6.6461934603
 30
0.0
 10
8.5316222106
 20
6.6305271745
 30
0.0
 10
8.5282310918
 20
6.607329063
 30
0.0
 10
8.5226080393
 20
6.584713833
 30
0.0
 10
8.5148038589
 20
6.5628929809
 30
0.0
 10
8.5048901017
 20
6.5420677566
 30
0.0
 10
8.4929571942
 20
6.5224304461
 30
0.0
 10
8.4791173406
 20
6.5041650333
 30
0.0
 10
8.4686966332
 20
6.493007476
 30
0.0
 10
8.463221351
 20
6.4877187687
 30
0.0
  0
SPLINE
  5
3B5
100
AcDbEntity
  8
0
100
AcDbSpline
 62
7
  6
CONTINUOUS
 70
0
 71
3
 72
39
 73
35
 74
0
 42
0.0000001
 43
0.0000001
 44
0.0000000001
 40
0.0
 40
0.0
 40
0.0
 40
0.0
 40
0.0307100579
 40
0.0615399676
 40
0.0924842438
 40
0.1235413749
 40
0.1547057047
 40
0.185971069
 40
0.2173300528
 40
0.2487740766
 40
0.2802936144
 40
0.3118782466
 40
0.3435168107
 40
0.3751975348
 40
0.4069081662
 40
0.4386361073
 40
0.4703685663
 40
0.5020927059
 40
0.5337957821
 40
0.565465283
 40
0.5970890782
 40
0.6286555637
 40
0.66015379
 40
0.6915735863
 40
0.7229056901
 40
0.7541418682
 40
0.785275017
 40
0.8162992504
 40
0.8472099866
 40
0.8780040277
 40
0.9086796077
 40
0.9392364247
 40
0.9696756615
 40
1.0
 40
1.0
 40
1.0
 40
1.0
 10
8.5508824342
 20
6.616926597
 30
0.0
 10
8.5508824342
 20
6.622519238
 30
0.0
 10
8.5505682385
 20
6.6337288095
 30
0.0
 10
8.549162599
 20
6.6505206357
 30
0.0
 10
8.5468257854
 20
6.6672726447
 30
0.0
 10
8.5435655261
 20
6.6839314859
 30
0.0
 10
8.5393918019
 20
6.7004455212
 30
0.0
 10
8.5343178086
 20
6.7167630097
 30
0.0
 10
8.5283594699
 20
6.7328330126
 30
0.0
 10
8.5215354311
 20
6.7486053238
 30
0.0
 10
8.5138670241
 20
6.7640306581
 30
0.0
 10
8.5053782343
 20
6.7790608263
 30
0.0
 10
8.4960956441
 20
6.7936488986
 30
0.0
 10
8.4860482744
 20
6.8077493115
 30
0.0
 10
8.4752675079
 20
6.8213180066
 30
0.0
 10
8.463787015
 20
6.8343125779
 30
0.0
 10
8.4516427023
 20
6.8466924585
 30
0.0
 10
8.4388725145
 20
6.858418978
 30
0.0
 10
8.4255163341
 20
6.8694554875
 30
0.0
 10
8.4116158567
 20
6.8797674615
 30
0.0
 10
8.3972145271
 20
6.8893226966
 30
0.0
 10
8.3823573364
 20
6.8980913352
 30
0.0
 10
8.3670906871
 20
6.9060459522
 30
0.0
 10
8.3514622483
 20
6.9131616222
 30
0.0
 10
8.3355208511
 20
6.9194160884
 30
0.0
 10
8.3193163075
 20
6.9247897938
 30
0.0
 10
8.3028992426
 20
6.9292658985
 30
0.0
 10
8.2863209452
 20
6.9328303261
 30
0.0
 10
8.2696332306
 20
6.9354718683
 30
0.0
 10
8.2528882517
 20
6.9371822465
 30
0.0
 10
8.2361384051
 20
6.9379560605
 30
0.0
 10
8.2194358707
 20
6.9377907714
 30
0.0
 10
8.2028336029
 20
6.9366869023
 30
0.0
 10
8.1918448525
 20
6.9353247711
 30
0.0
 10
8.1863861744
 20
6.9344882883
 30
0.0
  0
SPLINE
  5
3B6
100
AcDbEntity
  8
0
100
AcDbSpline
 62
7
  6
CONTINUOUS
 70
0
 71
3
 72
41
 73
37
 74
0
 42
0.0000001
 43
0.0000001
 44
0.0000000001
 40
0.0
 40
0.0
 40
0.0
 40
0.0
 40
0.0310747705
 40
0.0623072725
 40
0.0936920139
 40
0.1252208392
 40
0.1568822171
 40
0.1886620102
 40
0.2205435978
 40
0.2525083095
 40
0.2845357945
 40
0.3166044477
 40
0.3486918434
 40
0.3807751835
 40
0.4128317507
 40
0.4448393598
 40
0.4767768022
 40
0.5086242765
 40
0.5403637988
 40
0.5719795854
 40
0.603458402
 40
0.6347898701
 40
0.6659667248
 40
0.6969850144
 40
0.7278442368
 40
0.7585474029
 40
0.7891010235
 40
0.8195150139
 40
0.8498025133
 40
0.8649066328
 40
0.8799853948
 40
0.9100708242
 40
0.9400854817
 40
0.9550762305
 40
0.9700578769
 40
1.0
 40
1.0
 40
1.0
 40
1.0
 10
8.5323720654
 20
6.6540469527
 30
0.0
 10
8.5323720654
 20
6.6601510376
 30
0.0
 10
8.5319166958
 20
6.6723948867
 30
0.0
 10
8.529883685
 20
6.6907020252
 30
0.0
 10
8.5265103033
 20
6.7089017011
 30
0.0
 10
8.5218153358
 20
6.7268925982
 30
0.0
 10
8.5158246915
 20
6.7445763285
 30
0.0
 10
8.5085714393
 20
6.7618557233
 30
0.0
 10
8.5000955115
 20
6.7786359845
 30
0.0
 10
8.4904435419
 20
6.794825028
 30
0.0
 10
8.4796685834
 20
6.8103340268
 30
0.0
 10
8.4678298299
 20
6.8250778814
 30
0.0
 10
8.4549922892
 20
6.838975684
 30
0.0
 10
8.4412264307
 20
6.851951157
 30
0.0
 10
8.4266078021
 20
6.8639330673
 30
0.0
 10
8.4112166191
 20
6.8748556139
 30
0.0
 10
8.3951373304
 20
6.8846587858
 30
0.0
 10
8.3784581597
 20
6.8932886892
 30
0.0
 10
8.3612706276
 20
6.9006978419
 30
0.0
 10
8.3436690565
 20
6.9068454337
 30
0.0
 10
8.3257500596
 20
6.9116975517
 30
0.0
 10
8.3076120192
 20
6.9152273686
 30
0.0
 10
8.2893545519
 20
6.9174152945
 30
0.0
 10
8.2710779749
 20
6.9182490926
 30
0.0
 10
8.2528827408
 20
6.9177239463
 30
0.0
 10
8.2348689653
 20
6.9158425286
 30
0.0
 10
8.2171356023
 20
6.91261488
 30
0.0
 10
8.199780928
 20
6.9080588069
 30
0.0
 10
8.1856983299
 20
6.9031702043
 30
0.0
 10
8.1747216432
 20
6.898623868
 30
0.0
 10
8.163967114
 20
6.8936684638
 30
0.0
 10
8.1509272359
 20
6.8867027652
 30
0.0
 10
8.1384919598
 20
6.8787393671
 30
0.0
 10
8.128961853
 20
6.8718045215
 30
0.0
 10
8.1197258141
 20
6.8645065932
 30
0.0
 10
8.1131309481
 20
6.8586248178
 30
0.0
 10
8.1089005792
 20
6.8545386023
 30
0.0
  0
SPLINE
  5
3B7
100
AcDbEntity
  8
0
100
AcDbSpline
 62
7
  6
CONTINUOUS
 70
0
 71
3
 72
11
 73
7
 74
0
 42
0.0000001
 43
0.0000001
 44
0.0000000001
 40
0.0
 40
0.0
 40
0.0
 40
0.0
 40
0.2517416187
 40
0.5022957463
 40
0.7516965317
 40
1.0
 40
1.0
 40
1.0
 40
1.0
 10
9.9965892836
 20
6.5178722629
 30
0.0
 10
9.9965892836
 20
6.5083949064
 30
0.0
 10
9.9959423312
 20
6.4894783606
 30
0.0
 10
9.9930190146
 20
6.4613083517
 30
0.0
 10
9.9881591082
 20
6.4335383351
 30
0.0
 10
9.9836323762
 20
6.4153371695
 30
0.0
 10
9.9810545951
 20
6.4063517007
 30
0.0
  0
SPLINE
  5
3B8
100
AcDbEntity
  8
0
100
AcDbSpline
 62
7
  6
CONTINUOUS
 70
0
 71
3
 72
11
 73
7
 74
0
 42
0.0000001
 43
0.0000001
 44
0.0000000001
 40
0.0
 40
0.0
 40
0.0
 40
0.0
 40
0.2480618154
 40
0.4974512152
 40
0.7481247988
 40
1.0
 40
1.0
 40
1.0
 40
1.0
 10
9.9965892836
 20
6.5178722629
 30
0.0
 10
9.9965892836
 20
6.5287940467
 30
0.0
 10
9.9957256116
 20
6.5507053986
 30
0.0
 10
9.9918715083
 20
6.583449755
 30
0.0
 10
9.9854805703
 20
6.6159655939
 30
0.0
 10
9.9795665552
 20
6.6373129456
 30
0.0
 10
9.9762057172
 20
6.647881096
 30
0.0
  0
SPLINE
  5
3B9
100
AcDbEntity
  8
0
100
AcDbSpline
 62
7
  6
CONTINUOUS
 70
0
 71
3
 72
21
 73
17
 74
0
 42
0.0000001
 43
0.0000001
 44
0.0000000001
 40
0.0
 40
0.0
 40
0.0
 40
0.0
 40
0.0628317085
 40
0.1257073527
 40
0.1886075296
 40
0.2515126332
 40
0.3772260549
 40
0.5027259007
 40
0.5653660093
 40
0.62789844
 40
0.6903068239
 40
0.7525758979
 40
0.8146916287
 40
0.8766413709
 40
0.9384139996
 40
1.0
 40
1.0
 40
1.0
 40
1.0
 10
9.9135518625
 20
6.7729577239
 30
0.0
 10
9.9094662772
 20
6.7786943602
 30
0.0
 10
9.9010268843
 20
6.7899853031
 30
0.0
 10
9.8876015592
 20
6.8063253431
 30
0.0
 10
9.8734350385
 20
6.8220393746
 30
0.0
 10
9.8536121444
 20
6.8420978778
 30
0.0
 10
9.827161632
 20
6.8654171493
 30
0.0
 10
9.7987062659
 20
6.886193234
 30
0.0
 10
9.7749139976
 20
6.9011561089
 30
0.0
 10
9.7566093923
 20
6.9115176595
 30
0.0
 10
9.7378805207
 20
6.9209985028
 30
0.0
 10
9.7187721215
 20
6.9295760578
 30
0.0
 10
9.6993304159
 20
6.9372294398
 30
0.0
 10
9.6796021294
 20
6.9439402525
 30
0.0
 10
9.6596354905
 20
6.9496921799
 30
0.0
 10
9.6461751359
 20
6.9528834933
 30
0.0
 10
9.6394218548
 20
6.954314194
 30
0.0
  0
SPLINE
  5
3BA
100
AcDbEntity
  8
0
100
AcDbSpline
 62
7
  6
CONTINUOUS
 70
0
 71
3
 72
44
 73
40
 74
0
 42
0.0000001
 43
0.0000001
 44
0.0000000001
 40
0.0
 40
0.0
 40
0.0
 40
0.0
 40
0.0595099441
 40
0.119903048
 40
0.1794466159
 40
0.2369479318
 40
0.2917553458
 40
0.3436062077
 40
0.3924699312
 40
0.4384360693
 40
0.4816485276
 40
0.5222692471
 40
0.5604595277
 40
0.5963715767
 40
0.6301445336
 40
0.6619043587
 40
0.6917642446
 40
0.7198247261
 40
0.7461775384
 40
0.77090394
 40
0.7940805335
 40
0.8157770021
 40
0.8360631732
 40
0.8550071013
 40
0.8726845127
 40
0.889178462
 40
0.9045926617
 40
0.911936328
 40
0.9190617672
 40
0.9327452957
 40
0.9458747169
 40
0.9523269563
 40
0.958758381
 40
0.9652184914
 40
0.9717613227
 40
0.9784460006
 40
0.9853358013
 40
0.9924968017
 40
1.0
 40
1.0
 40
1.0
 40
1.0
 10
10.4778402596
 20
6.6909657725
 30
0.0
 10
10.4778402596
 20
6.6957354445
 30
0.0
 10
10.4781857365
 20
6.7053480541
 30
0.0
 10
10.4796122437
 20
6.7196677642
 30
0.0
 10
10.4818267709
 20
6.7337229749
 30
0.0
 10
10.4846660793
 20
6.7472064942
 30
0.0
 10
10.4879720188
 20
6.7599460815
 30
0.0
 10
10.4916115127
 20
6.771871449
 30
0.0
 10
10.4954806702
 20
6.7829757964
 30
0.0
 10
10.4995012682
 20
6.7932858766
 30
0.0
 10
10.5036152702
 20
6.8028433442
 30
0.0
 10
10.5077797909
 20
6.8116943874
 30
0.0
 10
10.5119629453
 20
6.8198844766
 30
0.0
 10
10.5161409746
 20
6.8274557935
 30
0.0
 10
10.5202963707
 20
6.8344460849
 30
0.0
 10
10.5244156198
 20
6.8408888084
 30
0.0
 10
10.5284885277
 20
6.8468129813
 30
0.0
 10
10.5325080231
 20
6.8522430177
 30
0.0
 10
10.5364676207
 20
6.8572002747
 30
0.0
 10
10.5403639469
 20
6.8617013024
 30
0.0
 10
10.5441928716
 20
6.8657606127
 30
0.0
 10
10.5479530503
 20
6.8693879169
 30
0.0
 10
10.5516418705
 20
6.8725915052
 30
0.0
 10
10.5552592795
 20
6.8753745219
 30
0.0
 10
10.5588038322
 20
6.8777392045
 30
0.0
 10
10.5622762106
 20
6.8796814957
 30
0.0
 10
10.5651550678
 20
6.8809642334
 30
0.0
 10
10.5674160877
 20
6.8817581269
 30
0.0
 10
10.5695857541
 20
6.8823814331
 30
0.0
 10
10.572266316
 20
6.8828906471
 30
0.0
 10
10.5749416603
 20
6.8830044061
 30
0.0
 10
10.5770220332
 20
6.8828374505
 30
0.0
 10
10.5785532722
 20
6.8825820463
 30
0.0
 10
10.5800631174
 20
6.8821909011
 30
0.0
 10
10.581551141
 20
6.881659428
 30
0.0
 10
10.5830162656
 20
6.8809809767
 30
0.0
 10
10.5844573915
 20
6.8801488012
 30
0.0
 10
10.5858738498
 20
6.879156268
 30
0.0
 10
10.5867768346
 20
6.8784014452
 30
0.0
 10
10.5872226443
 20
6.8779978295
 30
0.0
  0
SPLINE
  5
3BB
100
AcDbEntity
  8
0
100
AcDbSpline
 62
7
  6
CONTINUOUS
 70
0
 71
3
 72
15
 73
11
 74
0
 42
0.0000001
 43
0.0000001
 44
0.0000000001
 40
0.0
 40
0.0
 40
0.0
 40
0.0
 40
0.1098906965
 40
0.2214019099
 40
0.3360754625
 40
0.4553197512
 40
0.5803742766
 40
0.7122967005
 40
0.8519481011
 40
1.0
 40
1.0
 40
1.0
 40
1.0
 10
9.4917608879
 20
11.5126753653
 30
0.0
 10
9.4917608806
 20
11.5120785832
 30
0.0
 10
9.4916842262
 20
11.5108748671
 30
0.0
 10
9.4913405126
 20
11.5090779553
 30
0.0
 10
9.4907691508
 20
11.5072866849
 30
0.0
 10
9.4899715801
 20
11.5055037697
 30
0.0
 10
9.4889496195
 20
11.5037308727
 30
0.0
 10
9.4877049149
 20
11.5019695876
 30
0.0
 10
9.4862394227
 20
11.5002215576
 30
0.0
 10
9.48514956
 20
11.4990999882
 30
0.0
 10
9.4845712623
 20
11.4985413955
 30
0.0
  0
SPLINE
  5
3BC
100
AcDbEntity
  8
0
100
AcDbSpline
 62
7
  6
CONTINUOUS
 70
0
 71
3
 72
15
 73
11
 74
0
 42
0.0000001
 43
0.0000001
 44
0.0000000001
 40
0.0
 40
0.0
 40
0.0
 40
0.0
 40
0.1098906965
 40
0.2214019099
 40
0.3360754625
 40
0.4553197512
 40
0.5803742766
 40
0.7122967005
 40
0.8519481011
 40
1.0
 40
1.0
 40
1.0
 40
1.0
 10
12.9302390862
 20
9.8339904569
 30
0.0
 10
12.9302390789
 20
9.8333936749
 30
0.0
 10
12.9301624245
 20
9.8321899588
 30
0.0
 10
12.9298187109
 20
9.8303930469
 30
0.0
 10
12.9292473491
 20
9.8286017765
 30
0.0
 10
12.9284497784
 20
9.8268188614
 30
0.0
 10
12.9274278178
 20
9.8250459644
 30
0.0
 10
12.9261831131
 20
9.8232846793
 30
0.0
 10
12.924717621
 20
9.8215366493
 30
0.0
 10
12.9236277583
 20
9.8204150799
 30
0.0
 10
12.9230494606
 20
9.8198564872
 30
0.0
  0
SPLINE
  5
3BD
100
AcDbEntity
  8
0
100
AcDbSpline
 62
7
  6
CONTINUOUS
 70
0
 71
3
 72
53
 73
49
 74
0
 42
0.0000001
 43
0.0000001
 44
0.0000000001
 40
0.0
 40
0.0
 40
0.0
 40
0.0
 40
0.0077405415
 40
0.0160545889
 40
0.0249609011
 40
0.0344724222
 40
0.0445958437
 40
0.0553328932
 40
0.066681244
 40
0.0786354248
 40
0.091186832
 40
0.104324527
 40
0.1180352334
 40
0.1323037938
 40
0.147113273
 40
0.1624451037
 40
0.1945935609
 40
0.2285755282
 40
0.2641981904
 40
0.3012537768
 40
0.3395220343
 40
0.3787724906
 40
0.4187665936
 40
0.4592597761
 40
0.5000034789
 40
0.5407471502
 40
0.5812402375
 40
0.6212341806
 40
0.6604844129
 40
0.6987523844
 40
0.7358076264
 40
0.7714298907
 40
0.8054114126
 40
0.8375593835
 40
0.8528909453
 40
0.8677001653
 40
0.8819684229
 40
0.8956788619
 40
0.9088162332
 40
0.9213673563
 40
0.9333212102
 40
0.9446692693
 40
0.9554059878
 40
0.9655290592
 40
0.9750403692
 40
0.9839464156
 40
0.9922597561
 40
1.0
 40
1.0
 40
1.0
 40
1.0
 10
8.998208752
 20
10.4597638433
 30
0.0
 10
8.9971555393
 20
10.4587837916
 30
0.0
 10
8.9948882454
 20
10.4568390162
 30
0.0
 10
8.9911688923
 20
10.4540614041
 30
0.0
 10
8.9870184083
 20
10.4513257136
 30
0.0
 10
8.9824436663
 20
10.4486362835
 30
0.0
 10
8.9774517293
 20
10.4459970755
 30
0.0
 10
8.9720505208
 20
10.4434124109
 30
0.0
 10
8.9662487457
 20
10.4408863638
 30
0.0
 10
8.9600557489
 20
10.4384231471
 30
0.0
 10
8.9534815985
 20
10.436026709
 30
0.0
 10
8.946536992
 20
10.4337010788
 30
0.0
 10
8.939233285
 20
10.4314500446
 30
0.0
 10
8.9315824354
 20
10.4292773635
 30
0.0
 10
8.9235969781
 20
10.4271866003
 30
0.0
 10
8.9123424109
 20
10.4244697984
 30
0.0
 10
8.8975299096
 20
10.4213190911
 30
0.0
 10
8.878913683
 20
10.4179724035
 30
0.0
 10
8.8593074527
 20
10.4150252139
 30
0.0
 10
8.8388401474
 20
10.4124972272
 30
0.0
 10
8.8176462127
 20
10.4104054105
 30
0.0
 10
8.7958650692
 20
10.4087637648
 30
0.0
 10
8.7736400491
 20
10.4075832749
 30
0.0
 10
8.7511174611
 20
10.4068718339
 30
0.0
 10
8.7284455998
 20
10.4066341971
 30
0.0
 10
8.7057737575
 20
10.4068719536
 30
0.0
 10
8.6832512265
 20
10.4075835155
 30
0.0
 10
8.661026302
 20
10.4087641257
 30
0.0
 10
8.6392452922
 20
10.41040589
 30
0.0
 10
8.6180515285
 20
10.4124978222
 30
0.0
 10
8.5975844295
 20
10.4150259203
 30
0.0
 10
8.5779784381
 20
10.4179732154
 30
0.0
 10
8.5593624809
 20
10.4213200042
 30
0.0
 10
8.5445502231
 20
10.4244707856
 30
0.0
 10
8.5332958669
 20
10.4271876575
 30
0.0
 10
8.5253105771
 20
10.4292784516
 30
0.0
 10
8.5176599046
 20
10.4314511915
 30
0.0
 10
8.5103563768
 20
10.433702244
 30
0.0
 10
8.5034119621
 20
10.4360279346
 30
0.0
 10
8.4968380013
 20
10.4384243856
 30
0.0
 10
8.4906452055
 20
10.4408876541
 30
0.0
 10
8.4848436328
 20
10.4434137237
 30
0.0
 10
8.4794426372
 20
10.4459984149
 30
0.0
 10
8.4744509036
 20
10.4486376523
 30
0.0
 10
8.4698763567
 20
10.451327114
 30
0.0
 10
8.465726161
 20
10.4540628394
 30
0.0
 10
8.4620070342
 20
10.4568403607
 30
0.0
 10
8.4597399757
 20
10.4587851262
 30
0.0
 10
8.4586868452
 20
10.4597651852
 30
0.0
  0
SPLINE
  5
3BE
100
AcDbEntity
  8
0
100
AcDbSpline
 62
7
  6
CONTINUOUS
 70
0
 71
3
 72
53
 73
49
 74
0
 42
0.0000001
 43
0.0000001
 44
0.0000000001
 40
0.0
 40
0.0
 40
0.0
 40
0.0
 40
0.0077405415
 40
0.0160545889
 40
0.0249609011
 40
0.0344724222
 40
0.0445958437
 40
0.0553328932
 40
0.066681244
 40
0.0786354248
 40
0.091186832
 40
0.104324527
 40
0.1180352334
 40
0.1323037938
 40
0.147113273
 40
0.1624451037
 40
0.1945935609
 40
0.2285755282
 40
0.2641981904
 40
0.3012537768
 40
0.3395220343
 40
0.3787724906
 40
0.4187665936
 40
0.4592597761
 40
0.5000034789
 40
0.5407471502
 40
0.5812402375
 40
0.6212341806
 40
0.6604844129
 40
0.6987523844
 40
0.7358076264
 40
0.7714298907
 40
0.8054114126
 40
0.8375593835
 40
0.8528909453
 40
0.8677001653
 40
0.8819684229
 40
0.8956788619
 40
0.9088162332
 40
0.9213673563
 40
0.9333212102
 40
0.9446692693
 40
0.9554059878
 40
0.9655290592
 40
0.9750403692
 40
0.9839464156
 40
0.9922597561
 40
1.0
 40
1.0
 40
1.0
 40
1.0
 10
13.5413117188
 20
10.8480645904
 30
0.0
 10
13.5402585061
 20
10.8470845387
 30
0.0
 10
13.5379912122
 20
10.8451397634
 30
0.0
 10
13.5342718591
 20
10.8423621512
 30
0.0
 10
13.5301213751
 20
10.8396264607
 30
0.0
 10
13.5255466331
 20
10.8369370306
 30
0.0
 10
13.520554696
 20
10.8342978226
 30
0.0
 10
13.5151534876
 20
10.831713158
 30
0.0
 10
13.5093517125
 20
10.8291871109
 30
0.0
 10
13.5031587157
 20
10.8267238943
 30
0.0
 10
13.4965845653
 20
10.8243274561
 30
0.0
 10
13.4896399588
 20
10.8220018259
 30
0.0
 10
13.4823362517
 20
10.8197507918
 30
0.0
 10
13.4746854022
 20
10.8175781106
 30
0.0
 10
13.4666999448
 20
10.8154873474
 30
0.0
 10
13.4554453777
 20
10.8127705455
 30
0.0
 10
13.4406328764
 20
10.8096198382
 30
0.0
 10
13.4220166498
 20
10.8062731507
 30
0.0
 10
13.4024104195
 20
10.8033259611
 30
0.0
 10
13.3819431142
 20
10.8007979744
 30
0.0
 10
13.3607491795
 20
10.7987061577
 30
0.0
 10
13.338968036
 20
10.7970645119
 30
0.0
 10
13.3167430159
 20
10.7958840221
 30
0.0
 10
13.2942204279
 20
10.795172581
 30
0.0
 10
13.2715485666
 20
10.7949349442
 30
0.0
 10
13.2488767243
 20
10.7951727007
 30
0.0
 10
13.2263541933
 20
10.7958842627
 30
0.0
 10
13.2041292688
 20
10.7970648728
 30
0.0
 10
13.182348259
 20
10.7987066371
 30
0.0
 10
13.1611544953
 20
10.8007985693
 30
0.0
 10
13.1406873963
 20
10.8033266675
 30
0.0
 10
13.1210814049
 20
10.8062739625
 30
0.0
 10
13.1024654477
 20
10.8096207513
 30
0.0
 10
13.0876531899
 20
10.8127715327
 30
0.0
 10
13.0763988337
 20
10.8154884046
 30
0.0
 10
13.0684135439
 20
10.8175791987
 30
0.0
 10
13.0607628714
 20
10.8197519386
 30
0.0
 10
13.0534593436
 20
10.8220029911
 30
0.0
 10
13.0465149289
 20
10.8243286817
 30
0.0
 10
13.039940968
 20
10.8267251327
 30
0.0
 10
13.0337481723
 20
10.8291884012
 30
0.0
 10
13.0279465996
 20
10.8317144709
 30
0.0
 10
13.022545604
 20
10.834299162
 30
0.0
 10
13.0175538704
 20
10.8369383995
 30
0.0
 10
13.0129793235
 20
10.8396278611
 30
0.0
 10
13.0088291278
 20
10.8423635865
 30
0.0
 10
13.005110001
 20
10.8451411079
 30
0.0
 10
13.0028429425
 20
10.8470858734
 30
0.0
 10
13.001789812
 20
10.8480659323
 30
0.0
  0
SPLINE
  5
3BF
100
AcDbEntity
  8
0
100
AcDbSpline
 62
7
  6
CONTINUOUS
 70
0
 71
3
 72
83
 73
79
 74
0
 42
0.0000001
 43
0.0000001
 44
0.0000000001
 40
0.0
 40
0.0
 40
0.0
 40
0.0
 40
0.0027164276
 40
0.0054532334
 40
0.0082303009
 40
0.0110665998
 40
0.0139798088
 40
0.0169861218
 40
0.0201000928
 40
0.0233346095
 40
0.026700976
 40
0.0302089312
 40
0.0338668524
 40
0.0376818289
 40
0.0416598023
 40
0.0458057443
 40
0.0501236753
 40
0.0546168743
 40
0.0592878974
 40
0.0641386698
 40
0.0691706105
 40
0.0743845883
 40
0.0797810847
 40
0.0853601631
 40
0.0970640219
 40
0.1094907699
 40
0.1226300177
 40
0.1364676887
 40
0.150986507
 40
0.1661664045
 40
0.1819848426
 40
0.1984170703
 40
0.2154363375
 40
0.2330140708
 40
0.2511200494
 40
0.2697225561
 40
0.2887885105
 40
0.3082835895
 40
0.3281723378
 40
0.3484182894
 40
0.3689840785
 40
0.3898315425
 40
0.4109218226
 40
0.453671794
 40
0.496913762
 40
0.5403220095
 40
0.5835692233
 40
0.6263296343
 40
0.6474270493
 40
0.6682829087
 40
0.6888583326
 40
0.7091151299
 40
0.7290159025
 40
0.7485241591
 40
0.7676044182
 40
0.7862223163
 40
0.8043447241
 40
0.821939872
 40
0.8389774975
 40
0.8554289822
 40
0.8712675108
 40
0.8864682552
 40
0.9010085951
 40
0.9148683895
 40
0.9280302787
 40
0.9404800721
 40
0.9464347343
 40
0.9522077813
 40
0.9577985496
 40
0.9632067643
 40
0.968432455
 40
0.973476048
 40
0.978338406
 40
0.9830208506
 40
0.98752539
 40
0.9918546103
 40
0.9960115929
 40
1.0
 40
1.0
 40
1.0
 40
1.0
 10
14.1769407055
 20
7.7542598132
 30
0.0
 10
14.1753076273
 20
7.7543730762
 30
0.0
 10
14.1720375848
 20
7.7547482935
 30
0.0
 10
14.1671741625
 20
7.7557523068
 30
0.0
 10
14.162347478
 20
7.7571972876
 30
0.0
 10
14.1575610174
 20
7.7590819705
 30
0.0
 10
14.1528171991
 20
7.761404535
 30
0.0
 10
14.1481184931
 20
7.7641632596
 30
0.0
 10
14.1434670674
 20
7.7673561613
 30
0.0
 10
14.1388649339
 20
7.7709811586
 30
0.0
 10
14.1343141791
 20
7.7750362422
 30
0.0
 10
14.1298166579
 20
7.7795190845
 30
0.0
 10
14.1253744098
 20
7.7844274228
 30
0.0
 10
14.1209893893
 20
7.7897587446
 30
0.0
 10
14.1166635322
 20
7.7955103653
 30
0.0
 10
14.1123989353
 20
7.8016795032
 30
0.0
 10
14.1081974918
 20
7.8082630562
 30
0.0
 10
14.1040612813
 20
7.8152578279
 30
0.0
 10
14.0999922804
 20
7.8226603588
 30
0.0
 10
14.0959924269
 20
7.8304669798
 30
0.0
 10
14.0920637718
 20
7.8386738638
 30
0.0
 10
14.0882081694
 20
7.8472769025
 30
0.0
 10
14.0844275556
 20
7.8562718614
 30
0.0
 10
14.0794090158
 20
7.8689854233
 30
0.0
 10
14.0733563277
 20
7.8858405179
 30
0.0
 10
14.066532483
 20
7.9072430761
 30
0.0
 10
14.0600504585
 20
7.9300909506
 30
0.0
 10
14.0539233608
 20
7.9543385144
 30
0.0
 10
14.0481636043
 20
7.9799376179
 30
0.0
 10
14.0427828883
 20
8.0068371401
 30
0.0
 10
14.0377921576
 20
8.0349833002
 30
0.0
 10
14.0332015719
 20
8.0643197372
 30
0.0
 10
14.029020484
 20
8.0947876425
 30
0.0
 10
14.0252573968
 20
8.1263258814
 30
0.0
 10
14.0219199666
 20
8.158871132
 30
0.0
 10
14.0190149876
 20
8.1923580281
 30
0.0
 10
14.0165483785
 20
8.2267192942
 30
0.0
 10
14.0145251717
 20
8.2618858777
 30
0.0
 10
14.0129494858
 20
8.2977870868
 30
0.0
 10
14.0118245314
 20
8.3343507459
 30
0.0
 10
14.0111526236
 20
8.3715033235
 30
0.0
 10
14.0109351112
 20
8.4091701761
 30
0.0
 10
14.0112532211
 20
8.4602055647
 30
0.0
 10
14.0127966103
 20
8.5247243941
 30
0.0
 10
14.0164339091
 20
8.6026263777
 30
0.0
 10
14.021836123
 20
8.680726508
 30
0.0
 10
14.0289597729
 20
8.7583968157
 30
0.0
 10
14.0363150124
 20
8.822527436
 30
0.0
 10
14.0430275119
 20
8.8731362495
 30
0.0
 10
14.048429998
 20
8.9104296116
 30
0.0
 10
14.0542119008
 20
8.9471532895
 30
0.0
 10
14.06036161
 20
8.9832334941
 30
0.0
 10
14.0668667137
 20
9.0185976689
 30
0.0
 10
14.0737140817
 20
9.0531747301
 30
0.0
 10
14.0808898885
 20
9.0868951867
 30
0.0
 10
14.0883796464
 20
9.1196912814
 30
0.0
 10
14.0961682322
 20
9.151497126
 30
0.0
 10
14.1042399203
 20
9.1822488456
 30
0.0
 10
14.1125783947
 20
9.2118847206
 30
0.0
 10
14.1211668016
 20
9.2403453128
 30
0.0
 10
14.1299877834
 20
9.2675735817
 30
0.0
 10
14.1390235171
 20
9.2935150194
 30
0.0
 10
14.1482557581
 20
9.318117744
 30
0.0
 10
14.1576658734
 20
9.3413327739
 30
0.0
 10
14.1672348838
 20
9.3631136647
 30
0.0
 10
14.1754426918
 20
9.3802792262
 30
0.0
 10
14.1820864821
 20
9.3932472423
 30
0.0
 10
14.1870229918
 20
9.4024433756
 30
0.0
 10
14.1919848223
 20
9.4112498197
 30
0.0
 10
14.1969694607
 20
9.419662232
 30
0.0
 10
14.2019744668
 20
9.4276764029
 30
0.0
 10
14.2069973477
 20
9.4352883351
 30
0.0
 10
14.2120355374
 20
9.442494271
 30
0.0
 10
14.2170866655
 20
9.4492906192
 30
0.0
 10
14.2221482421
 20
9.455674121
 30
0.0
 10
14.2272179396
 20
9.4616416301
 30
0.0
 10
14.2322929966
 20
9.4671899071
 30
0.0
 10
14.2357486137
 20
9.4706784866
 30
0.0
 10
14.2374773669
 20
9.4723483341
 30
0.0
  0
SPLINE
  5
3C0
100
AcDbEntity
  8
0
100
AcDbSpline
 62
7
  6
CONTINUOUS
 70
0
 71
3
 72
74
 73
70
 74
0
 42
0.0000001
 43
0.0000001
 44
0.0000000001
 40
0.0
 40
0.0
 40
0.0
 40
0.0
 40
0.0027966501
 40
0.0056682107
 40
0.0116913373
 40
0.0148721799
 40
0.0181793013
 40
0.0216219312
 40
0.0252079991
 40
0.0289442326
 40
0.0328363631
 40
0.0368891393
 40
0.0411064744
 40
0.0454915921
 40
0.0500469949
 40
0.0547746359
 40
0.0596759752
 40
0.0700024125
 40
0.0810301885
 40
0.0927568637
 40
0.1051754847
 40
0.1182753379
 40
0.1320424805
 40
0.1464601091
 40
0.1615089351
 40
0.1771674767
 40
0.1934122535
 40
0.2102179518
 40
0.2275576358
 40
0.245402891
 40
0.2637239164
 40
0.2824896576
 40
0.3016679442
 40
0.3212255803
 40
0.3411284187
 40
0.3818283504
 40
0.4234804919
 40
0.465787864
 40
0.5084474641
 40
0.5511530675
 40
0.5935980284
 40
0.6354780798
 40
0.6764941524
 40
0.6965872313
 40
0.716355974
 40
0.7357657429
 40
0.7547827572
 40
0.7733741995
 40
0.7915083475
 40
0.8091546493
 40
0.8262838256
 40
0.842868027
 40
0.8588809737
 40
0.8742980696
 40
0.8890965789
 40
0.9032558789
 40
0.9167576653
 40
0.9295862229
 40
0.9417288201
 40
0.9531761955
 40
0.9639231412
 40
0.9690339648
 40
0.973970001
 40
0.9787320835
 40
0.9833215853
 40
0.9877404611
 40
0.991991146
 40
0.9960765106
 40
1.0
 40
1.0
 40
1.0
 40
1.0
 10
14.1461763622
 20
7.9334950608
 30
0.0
 10
14.1449159775
 20
7.9339406797
 30
0.0
 10
14.1423976728
 20
7.9349500029
 30
0.0
 10
14.1373840833
 20
7.9374289336
 30
0.0
 10
14.1325099505
 20
7.9405622331
 30
0.0
 10
14.1278050787
 20
7.9442576895
 30
0.0
 10
14.1242501435
 20
7.9474079217
 30
0.0
 10
14.1207360705
 20
7.9508840084
 30
0.0
 10
14.1172638378
 20
7.9546845225
 30
0.0
 10
14.1138349908
 20
7.9588074842
 30
0.0
 10
14.1104510582
 20
7.9632510247
 30
0.0
 10
14.1071135009
 20
7.9680130069
 30
0.0
 10
14.1038237769
 20
7.9730911821
 30
0.0
 10
14.1005834624
 20
7.9784832155
 30
0.0
 10
14.0973939816
 20
7.9841865295
 30
0.0
 10
14.0942567798
 20
7.9901984642
 30
0.0
 10
14.0900726867
 20
7.9987719238
 30
0.0
 10
14.0850002288
 20
8.0102573798
 30
0.0
 10
14.0792464976
 20
8.0249911135
 30
0.0
 10
14.0737352699
 20
8.0408793933
 30
0.0
 10
14.0684770359
 20
8.0578921428
 30
0.0
 10
14.0634818593
 20
8.0759974679
 30
0.0
 10
14.05875939
 20
8.0951611179
 30
0.0
 10
14.0543187268
 20
8.1153467346
 30
0.0
 10
14.0501684517
 20
8.1365159144
 30
0.0
 10
14.0463166143
 20
8.1586283306
 30
0.0
 10
14.0427706902
 20
8.1816417974
 30
0.0
 10
14.0395375253
 20
8.2055123551
 30
0.0
 10
14.0366233836
 20
8.2301943816
 30
0.0
 10
14.034033931
 20
8.2556406877
 30
0.0
 10
14.0317741811
 20
8.281802593
 30
0.0
 10
14.0298484949
 20
8.3086300312
 30
0.0
 10
14.0282606226
 20
8.3360716452
 30
0.0
 10
14.0270136231
 20
8.3640749485
 30
0.0
 10
14.0257998536
 20
8.4023744942
 30
0.0
 10
14.0251657534
 20
8.4512550239
 30
0.0
 10
14.0257892412
 20
8.5108459552
 30
0.0
 10
14.027787664
 20
8.5713438861
 30
0.0
 10
14.0311459641
 20
8.6322857463
 30
0.0
 10
14.0358385833
 20
8.6932053551
 30
0.0
 10
14.0418295281
 20
8.7536367044
 30
0.0
 10
14.049072814
 20
8.8131172496
 30
0.0
 10
14.056153294
 20
8.861840991
 30
0.0
 10
14.0624150496
 20
8.8999922525
 30
0.0
 10
14.0673549324
 20
8.9278918321
 30
0.0
 10
14.0725608069
 20
8.9552195595
 30
0.0
 10
14.0780227217
 20
8.9819231523
 30
0.0
 10
14.0837301813
 20
9.0079514839
 30
0.0
 10
14.0896721954
 20
9.0332547566
 30
0.0
 10
14.095837332
 20
9.0577845666
 30
0.0
 10
14.1022137495
 20
9.0814939955
 30
0.0
 10
14.1087891797
 20
9.1043377254
 30
0.0
 10
14.1155509527
 20
9.1262721333
 30
0.0
 10
14.1224860585
 20
9.1472553545
 30
0.0
 10
14.1295811778
 20
9.1672473775
 30
0.0
 10
14.1368226486
 20
9.1862101584
 30
0.0
 10
14.1441965507
 20
9.2041077018
 30
0.0
 10
14.1516887524
 20
9.2209060785
 30
0.0
 10
14.159284973
 20
9.2365736898
 30
0.0
 10
14.1669706875
 20
9.2510808546
 30
0.0
 10
14.1735436258
 20
9.2623625815
 30
0.0
 10
14.1788463434
 20
9.2707707224
 30
0.0
 10
14.1827698423
 20
9.276663787
 30
0.0
 10
14.1867047327
 20
9.2822470789
 30
0.0
 10
14.1906492575
 20
9.287518
 30
0.0
 10
14.1946015732
 20
9.2924741529
 30
0.0
 10
14.1985599556
 20
9.2971131495
 30
0.0
 10
14.2025222564
 20
9.3014325945
 30
0.0
 10
14.2052187844
 20
9.3041519054
 30
0.0
 10
14.2065677379
 20
9.3054548945
 30
0.0
  0
SPLINE
  5
3C1
100
AcDbEntity
  8
0
100
AcDbSpline
 62
7
  6
CONTINUOUS
 70
0
 71
3
 72
15
 73
11
 74
0
 42
0.0000001
 43
0.0000001
 44
0.0000000001
 40
0.0
 40
0.0
 40
0.0
 40
0.0
 40
0.108441253
 40
0.220320597
 40
0.3363918236
 40
0.4573219849
 40
0.5836917571
 40
0.7160000653
 40
0.8546595225
 40
1.0
 40
1.0
 40
1.0
 40
1.0
 10
14.2428018561
 20
9.326793781
 30
0.0
 10
14.2412929892
 20
9.3264857762
 30
0.0
 10
14.2382556456
 20
9.3257134302
 30
0.0
 10
14.2337436489
 20
9.324127271
 30
0.0
 10
14.2292169964
 20
9.3221000984
 30
0.0
 10
14.2246789547
 20
9.3196338867
 30
0.0
 10
14.2201317587
 20
9.316730775
 30
0.0
 10
14.2155779014
 20
9.3133928426
 30
0.0
 10
14.2110201493
 20
9.3096227117
 30
0.0
 10
14.2080522731
 20
9.3068888455
 30
0.0
 10
14.2065677379
 20
9.3054548945
 30
0.0
  0
SPLINE
  5
3C2
100
AcDbEntity
  8
0
100
AcDbSpline
 62
7
  6
CONTINUOUS
 70
0
 71
3
 72
83
 73
79
 74
0
 42
0.0000001
 43
0.0000001
 44
0.0000000001
 40
0.0
 40
0.0
 40
0.0
 40
0.0
 40
0.0027164276
 40
0.0054532334
 40
0.0082303009
 40
0.0110665998
 40
0.0139798088
 40
0.0169861218
 40
0.0201000928
 40
0.0233346095
 40
0.026700976
 40
0.0302089312
 40
0.0338668524
 40
0.0376818289
 40
0.0416598023
 40
0.0458057443
 40
0.0501236753
 40
0.0546168743
 40
0.0592878974
 40
0.0641386698
 40
0.0691706105
 40
0.0743845883
 40
0.0797810847
 40
0.0853601631
 40
0.0970640219
 40
0.1094907699
 40
0.1226300177
 40
0.1364676887
 40
0.150986507
 40
0.1661664045
 40
0.1819848426
 40
0.1984170703
 40
0.2154363375
 40
0.2330140708
 40
0.2511200494
 40
0.2697225561
 40
0.2887885105
 40
0.3082835895
 40
0.3281723378
 40
0.3484182894
 40
0.3689840785
 40
0.3898315425
 40
0.4109218226
 40
0.453671794
 40
0.496913762
 40
0.5403220095
 40
0.5835692233
 40
0.6263296343
 40
0.6474270493
 40
0.6682829087
 40
0.6888583326
 40
0.7091151299
 40
0.7290159025
 40
0.7485241591
 40
0.7676044182
 40
0.7862223163
 40
0.8043447241
 40
0.821939872
 40
0.8389774975
 40
0.8554289822
 40
0.8712675108
 40
0.8864682552
 40
0.9010085951
 40
0.9148683895
 40
0.9280302787
 40
0.9404800721
 40
0.9464347343
 40
0.9522077813
 40
0.9577985496
 40
0.9632067643
 40
0.968432455
 40
0.973476048
 40
0.978338406
 40
0.9830208506
 40
0.98752539
 40
0.9918546103
 40
0.9960115929
 40
1.0
 40
1.0
 40
1.0
 40
1.0
 10
13.4975412728
 20
7.0980103159
 30
0.0
 10
13.4959081946
 20
7.0981235789
 30
0.0
 10
13.4926381521
 20
7.0984987962
 30
0.0
 10
13.4877747298
 20
7.0995028095
 30
0.0
 10
13.4829480453
 20
7.1009477903
 30
0.0
 10
13.4781615847
 20
7.1028324732
 30
0.0
 10
13.4734177664
 20
7.1051550377
 30
0.0
 10
13.4687190604
 20
7.1079137623
 30
0.0
 10
13.4640676347
 20
7.111106664
 30
0.0
 10
13.4594655012
 20
7.1147316613
 30
0.0
 10
13.4549147464
 20
7.1187867449
 30
0.0
 10
13.4504172252
 20
7.1232695872
 30
0.0
 10
13.4459749771
 20
7.1281779255
 30
0.0
 10
13.4415899566
 20
7.1335092474
 30
0.0
 10
13.4372640995
 20
7.139260868
 30
0.0
 10
13.4329995026
 20
7.1454300059
 30
0.0
 10
13.4287980591
 20
7.1520135589
 30
0.0
 10
13.4246618486
 20
7.1590083306
 30
0.0
 10
13.4205928477
 20
7.1664108615
 30
0.0
 10
13.4165929942
 20
7.1742174825
 30
0.0
 10
13.4126643391
 20
7.1824243665
 30
0.0
 10
13.4088087367
 20
7.1910274052
 30
0.0
 10
13.4050281229
 20
7.2000223641
 30
0.0
 10
13.4000095831
 20
7.212735926
 30
0.0
 10
13.393956895
 20
7.2295910206
 30
0.0
 10
13.3871330503
 20
7.2509935788
 30
0.0
 10
13.3806510258
 20
7.2738414533
 30
0.0
 10
13.3745239281
 20
7.2980890171
 30
0.0
 10
13.3687641716
 20
7.3236881206
 30
0.0
 10
13.3633834556
 20
7.3505876428
 30
0.0
 10
13.3583927249
 20
7.3787338029
 30
0.0
 10
13.3538021392
 20
7.4080702399
 30
0.0
 10
13.3496210513
 20
7.4385381452
 30
0.0
 10
13.3458579641
 20
7.4700763841
 30
0.0
 10
13.3425205339
 20
7.5026216347
 30
0.0
 10
13.3396155549
 20
7.5361085308
 30
0.0
 10
13.3371489458
 20
7.5704697969
 30
0.0
 10
13.335125739
 20
7.6056363804
 30
0.0
 10
13.3335500531
 20
7.6415375895
 30
0.0
 10
13.3324250987
 20
7.6781012486
 30
0.0
 10
13.3317531909
 20
7.7152538262
 30
0.0
 10
13.3315356785
 20
7.7529206789
 30
0.0
 10
13.3318537884
 20
7.8039560674
 30
0.0
 10
13.3333971776
 20
7.8684748968
 30
0.0
 10
13.3370344764
 20
7.9463768804
 30
0.0
 10
13.3424366903
 20
8.0244770107
 30
0.0
 10
13.3495603402
 20
8.1021473184
 30
0.0
 10
13.3569155797
 20
8.1662779387
 30
0.0
 10
13.3636280792
 20
8.2168867522
 30
0.0
 10
13.3690305653
 20
8.2541801143
 30
0.0
 10
13.3748124681
 20
8.2909037922
 30
0.0
 10
13.3809621773
 20
8.3269839968
 30
0.0
 10
13.387467281
 20
8.3623481716
 30
0.0
 10
13.394314649
 20
8.3969252328
 30
0.0
 10
13.4014904558
 20
8.4306456895
 30
0.0
 10
13.4089802137
 20
8.4634417841
 30
0.0
 10
13.4167687995
 20
8.4952476287
 30
0.0
 10
13.4248404876
 20
8.5259993483
 30
0.0
 10
13.433178962
 20
8.5556352233
 30
0.0
 10
13.4417673689
 20
8.5840958155
 30
0.0
 10
13.4505883507
 20
8.6113240844
 30
0.0
 10
13.4596240844
 20
8.6372655221
 30
0.0
 10
13.4688563254
 20
8.6618682467
 30
0.0
 10
13.4782664407
 20
8.6850832766
 30
0.0
 10
13.4878354511
 20
8.7068641674
 30
0.0
 10
13.4960432591
 20
8.7240297289
 30
0.0
 10
13.5026870494
 20
8.736997745
 30
0.0
 10
13.5076235591
 20
8.7461938783
 30
0.0
 10
13.5125853896
 20
8.7550003224
 30
0.0
 10
13.517570028
 20
8.7634127347
 30
0.0
 10
13.5225750341
 20
8.7714269056
 30
0.0
 10
13.527597915
 20
8.7790388378
 30
0.0
 10
13.5326361047
 20
8.7862447737
 30
0.0
 10
13.5376872328
 20
8.7930411219
 30
0.0
 10
13.5427488094
 20
8.7994246237
 30
0.0
 10
13.5478185069
 20
8.8053921328
 30
0.0
 10
13.5528935639
 20
8.8109404098
 30
0.0
 10
13.556349181
 20
8.8144289893
 30
0.0
 10
13.5580779342
 20
8.8160988368
 30
0.0
  0
SPLINE
  5
3C3
100
AcDbEntity
  8
0
100
AcDbSpline
 62
7
  6
CONTINUOUS
 70
0
 71
3
 72
74
 73
70
 74
0
 42
0.0000001
 43
0.0000001
 44
0.0000000001
 40
0.0
 40
0.0
 40
0.0
 40
0.0
 40
0.0027966501
 40
0.0056682107
 40
0.0116913373
 40
0.0148721799
 40
0.0181793013
 40
0.0216219312
 40
0.0252079991
 40
0.0289442326
 40
0.0328363631
 40
0.0368891393
 40
0.0411064744
 40
0.0454915921
 40
0.0500469949
 40
0.0547746359
 40
0.0596759752
 40
0.0700024125
 40
0.0810301885
 40
0.0927568637
 40
0.1051754847
 40
0.1182753379
 40
0.1320424805
 40
0.1464601091
 40
0.1615089351
 40
0.1771674767
 40
0.1934122535
 40
0.2102179518
 40
0.2275576358
 40
0.245402891
 40
0.2637239164
 40
0.2824896576
 40
0.3016679442
 40
0.3212255803
 40
0.3411284187
 40
0.3818283504
 40
0.4234804919
 40
0.465787864
 40
0.5084474641
 40
0.5511530675
 40
0.5935980284
 40
0.6354780798
 40
0.6764941524
 40
0.6965872313
 40
0.716355974
 40
0.7357657429
 40
0.7547827572
 40
0.7733741995
 40
0.7915083475
 40
0.8091546493
 40
0.8262838256
 40
0.842868027
 40
0.8588809737
 40
0.8742980696
 40
0.8890965789
 40
0.9032558789
 40
0.9167576653
 40
0.9295862229
 40
0.9417288201
 40
0.9531761955
 40
0.9639231412
 40
0.9690339648
 40
0.973970001
 40
0.9787320835
 40
0.9833215853
 40
0.9877404611
 40
0.991991146
 40
0.9960765106
 40
1.0
 40
1.0
 40
1.0
 40
1.0
 10
13.4667769295
 20
7.2772455635
 30
0.0
 10
13.4655165448
 20
7.2776911824
 30
0.0
 10
13.4629982401
 20
7.2787005056
 30
0.0
 10
13.4579846506
 20
7.2811794363
 30
0.0
 10
13.4531105178
 20
7.2843127359
 30
0.0
 10
13.448405646
 20
7.2880081922
 30
0.0
 10
13.4448507108
 20
7.2911584244
 30
0.0
 10
13.4413366378
 20
7.2946345111
 30
0.0
 10
13.4378644051
 20
7.2984350252
 30
0.0
 10
13.4344355581
 20
7.3025579869
 30
0.0
 10
13.4310516255
 20
7.3070015274
 30
0.0
 10
13.4277140682
 20
7.3117635096
 30
0.0
 10
13.4244243442
 20
7.3168416848
 30
0.0
 10
13.4211840297
 20
7.3222337183
 30
0.0
 10
13.4179945489
 20
7.3279370322
 30
0.0
 10
13.4148573471
 20
7.3339489669
 30
0.0
 10
13.410673254
 20
7.3425224265
 30
0.0
 10
13.4056007961
 20
7.3540078825
 30
0.0
 10
13.3998470649
 20
7.3687416162
 30
0.0
 10
13.3943358372
 20
7.384629896
 30
0.0
 10
13.3890776032
 20
7.4016426455
 30
0.0
 10
13.3840824266
 20
7.4197479706
 30
0.0
 10
13.3793599573
 20
7.4389116206
 30
0.0
 10
13.3749192941
 20
7.4590972373
 30
0.0
 10
13.370769019
 20
7.4802664171
 30
0.0
 10
13.3669171816
 20
7.5023788333
 30
0.0
 10
13.3633712575
 20
7.5253923001
 30
0.0
 10
13.3601380926
 20
7.5492628578
 30
0.0
 10
13.3572239509
 20
7.5739448843
 30
0.0
 10
13.3546344983
 20
7.5993911904
 30
0.0
 10
13.3523747484
 20
7.6255530957
 30
0.0
 10
13.3504490622
 20
7.6523805339
 30
0.0
 10
13.3488611899
 20
7.6798221479
 30
0.0
 10
13.3476141904
 20
7.7078254512
 30
0.0
 10
13.3464004209
 20
7.7461249969
 30
0.0
 10
13.3457663207
 20
7.7950055266
 30
0.0
 10
13.3463898085
 20
7.8545964579
 30
0.0
 10
13.3483882313
 20
7.9150943888
 30
0.0
 10
13.3517465314
 20
7.976036249
 30
0.0
 10
13.3564391506
 20
8.0369558579
 30
0.0
 10
13.3624300954
 20
8.0973872071
 30
0.0
 10
13.3696733813
 20
8.1568677523
 30
0.0
 10
13.3767538613
 20
8.2055914937
 30
0.0
 10
13.3830156169
 20
8.2437427552
 30
0.0
 10
13.3879554997
 20
8.2716423348
 30
0.0
 10
13.3931613742
 20
8.2989700622
 30
0.0
 10
13.398623289
 20
8.325673655
 30
0.0
 10
13.4043307486
 20
8.3517019866
 30
0.0
 10
13.4102727627
 20
8.3770052593
 30
0.0
 10
13.4164378993
 20
8.4015350693
 30
0.0
 10
13.4228143168
 20
8.4252444982
 30
0.0
 10
13.429389747
 20
8.4480882282
 30
0.0
 10
13.43615152
 20
8.470022636
 30
0.0
 10
13.4430866258
 20
8.4910058572
 30
0.0
 10
13.4501817451
 20
8.5109978803
 30
0.0
 10
13.4574232159
 20
8.5299606611
 30
0.0
 10
13.464797118
 20
8.5478582045
 30
0.0
 10
13.4722893197
 20
8.5646565812
 30
0.0
 10
13.4798855403
 20
8.5803241925
 30
0.0
 10
13.4875712548
 20
8.5948313573
 30
0.0
 10
13.4941441931
 20
8.6061130842
 30
0.0
 10
13.4994469107
 20
8.6145212251
 30
0.0
 10
13.5033704096
 20
8.6204142897
 30
0.0
 10
13.5073053
 20
8.6259975816
 30
0.0
 10
13.5112498248
 20
8.6312685027
 30
0.0
 10
13.5152021405
 20
8.6362246556
 30
0.0
 10
13.5191605229
 20
8.6408636522
 30
0.0
 10
13.5231228237
 20
8.6451830972
 30
0.0
 10
13.5258193517
 20
8.6479024081
 30
0.0
 10
13.5271683052
 20
8.6492053972
 30
0.0
  0
SPLINE
  5
3C4
100
AcDbEntity
  8
0
100
AcDbSpline
 62
7
  6
CONTINUOUS
 70
0
 71
3
 72
15
 73
11
 74
0
 42
0.0000001
 43
0.0000001
 44
0.0000000001
 40
0.0
 40
0.0
 40
0.0
 40
0.0
 40
0.108441253
 40
0.220320597
 40
0.3363918236
 40
0.4573219849
 40
0.5836917571
 40
0.7160000653
 40
0.8546595225
 40
1.0
 40
1.0
 40
1.0
 40
1.0
 10
13.5634024234
 20
8.6705442837
 30
0.0
 10
13.5618935565
 20
8.6702362789
 30
0.0
 10
13.5588562129
 20
8.6694639329
 30
0.0
 10
13.5543442162
 20
8.6678777737
 30
0.0
 10
13.5498175637
 20
8.6658506011
 30
0.0
 10
13.545279522
 20
8.6633843894
 30
0.0
 10
13.540732326
 20
8.6604812777
 30
0.0
 10
13.5361784687
 20
8.6571433453
 30
0.0
 10
13.5316207166
 20
8.6533732144
 30
0.0
 10
13.5286528404
 20
8.6506393482
 30
0.0
 10
13.5271683052
 20
8.6492053972
 30
0.0
  0
SPLINE
  5
3C5
100
AcDbEntity
  8
0
100
AcDbSpline
 62
7
  6
CONTINUOUS
 70
0
 71
3
 72
21
 73
17
 74
0
 42
0.0000001
 43
0.0000001
 44
0.0000000001
 40
0.0
 40
0.0
 40
0.0
 40
0.0
 40
0.0765708514
 40
0.1185717652
 40
0.1634029251
 40
0.2113463225
 40
0.262683137
 40
0.3176891902
 40
0.3766214415
 40
0.4397088135
 40
0.507131001
 40
0.5789924055
 40
0.6552956163
 40
0.7359141913
 40
0.8205653046
 40
1.0
 40
1.0
 40
1.0
 40
1.0
 10
10.499607474
 20
6.6203027035
 30
0.0
 10
10.4981713347
 20
6.6216010945
 30
0.0
 10
10.4961025709
 20
6.6237890979
 30
0.0
 10
10.4935730003
 20
6.6270577418
 30
0.0
 10
10.4916640206
 20
6.6298836985
 30
0.0
 10
10.4898128712
 20
6.6330246596
 30
0.0
 10
10.4880309019
 20
6.6364973387
 30
0.0
 10
10.486332038
 20
6.6403175716
 30
0.0
 10
10.4847319073
 20
6.6444999323
 30
0.0
 10
10.4832480345
 20
6.6490562854
 30
0.0
 10
10.4818998628
 20
6.6539943079
 30
0.0
 10
10.4807081858
 20
6.659315369
 30
0.0
 10
10.4796944535
 20
6.6650123311
 30
0.0
 10
10.4788796553
 20
6.6710676627
 30
0.0
 10
10.4780683068
 20
6.6797472368
 30
0.0
 10
10.4778402596
 20
6.6864288538
 30
0.0
 10
10.4778402596
 20
6.6909657725
 30
0.0
  0
SPLINE
  5
3C6
100
AcDbEntity
  8
0
100
AcDbSpline
 62
7
  6
CONTINUOUS
 70
0
 71
3
 72
39
 73
35
 74
0
 42
0.0000001
 43
0.0000001
 44
0.0000000001
 40
0.0
 40
0.0
 40
0.0
 40
0.0
 40
0.0298270978
 40
0.0596806635
 40
0.0895873215
 40
0.1195716219
 40
0.1496564473
 40
0.1798621803
 40
0.2102062702
 40
0.2407028683
 40
0.2713625442
 40
0.3021921233
 40
0.333194595
 40
0.3643691279
 40
0.3957111612
 40
0.4272125798
 40
0.4588619363
 40
0.4906447545
 40
0.5225438622
 40
0.5545397715
 40
0.5866110868
 40
0.6187349442
 40
0.6508874601
 40
0.6830441985
 40
0.715180642
 40
0.7472726644
 40
0.7792969996
 40
0.8112316958
 40
0.843056563
 40
0.8747535868
 40
0.9063073246
 40
0.937705281
 40
0.9689379387
 40
1.0
 40
1.0
 40
1.0
 40
1.0
 10
10.6087369716
 20
7.1226390339
 30
0.0
 10
10.6216540293
 20
7.1351159543
 30
0.0
 10
10.6485064352
 20
7.159062142
 30
0.0
 10
10.6915348953
 20
7.1916809504
 30
0.0
 10
10.7370967137
 20
7.2208380339
 30
0.0
 10
10.7849408482
 20
7.2463702308
 30
0.0
 10
10.8348072957
 20
7.2681377618
 30
0.0
 10
10.8864237996
 20
7.2860199235
 30
0.0
 10
10.9395084495
 20
7.299917044
 30
0.0
 10
10.9937707041
 20
7.3097509416
 30
0.0
 10
11.0489130586
 20
7.3154655837
 30
0.0
 10
11.1046326446
 20
7.3170273081
 30
0.0
 10
11.1606228783
 20
7.3144252714
 30
0.0
 10
11.2165752017
 20
7.3076717386
 30
0.0
 10
11.2721808386
 20
7.2968018792
 30
0.0
 10
11.3271325387
 20
7.2818737218
 30
0.0
 10
11.381126416
 20
7.2629680853
 30
0.0
 10
11.4338636531
 20
7.2401879358
 30
0.0
 10
11.485052201
 20
7.2136578525
 30
0.0
 10
11.5344085687
 20
7.1835235636
 30
0.0
 10
11.581659383
 20
7.1499509461
 30
0.0
 10
11.6265428951
 20
7.1131250617
 30
0.0
 10
11.6688106209
 20
7.0732493054
 30
0.0
 10
11.708228694
 20
7.0305441423
 30
0.0
 10
11.7445790929
 20
6.9852457828
 30
0.0
 10
11.7776610277
 20
6.9376049892
 30
0.0
 10
11.8072920662
 20
6.8878856084
 30
0.0
 10
11.8333090062
 20
6.8363629642
 30
0.0
 10
11.8555689213
 20
6.7833224154
 30
0.0
 10
11.8739500262
 20
6.7290575907
 30
0.0
 10
11.8883521556
 20
6.6738690815
 30
0.0
 10
11.8986972773
 20
6.6180611201
 30
0.0
 10
11.9049303922
 20
6.5619460469
 30
0.0
 10
11.9063265654
 20
6.5244238968
 30
0.0
 10
11.9063265654
 20
6.5057213719
 30
0.0
  0
SPLINE
  5
3C7
100
AcDbEntity
  8
0
100
AcDbSpline
 62
7
  6
CONTINUOUS
 70
0
 71
3
 72
41
 73
37
 74
0
 42
0.0000001
 43
0.0000001
 44
0.0000000001
 40
0.0
 40
0.0
 40
0.0
 40
0.0
 40
0.0299421701
 40
0.0599087164
 40
0.0899234211
 40
0.1200088983
 40
0.1501860543
 40
0.1804736026
 40
0.2108876422
 40
0.2414413123
 40
0.2721445279
 40
0.3030038001
 40
0.33402214
 40
0.3651990456
 40
0.3965305656
 40
0.428009435
 40
0.4596252751
 40
0.4913648511
 40
0.523212379
 40
0.5551498748
 40
0.5871575372
 40
0.6192141578
 40
0.6512975514
 40
0.6833850007
 40
0.7154537075
 40
0.7314764095
 40
0.7474860758
 40
0.7794508394
 40
0.8113324795
 40
0.8431123195
 40
0.8747737607
 40
0.9063025939
 40
0.9376875098
 40
0.9533255635
 40
0.9689249841
 40
1.0
 40
1.0
 40
1.0
 40
1.0
 10
7.9617907816
 20
6.9209906587
 30
0.0
 10
7.9685095965
 20
6.9274805375
 30
0.0
 10
7.982475539
 20
6.939936538
 30
0.0
 10
8.0048511543
 20
6.9569056373
 30
0.0
 10
8.0285391015
 20
6.9720749111
 30
0.0
 10
8.0534070251
 20
6.9853592612
 30
0.0
 10
8.0793182047
 20
6.9966861074
 30
0.0
 10
8.1061296388
 20
7.0059931839
 30
0.0
 10
8.1336935778
 20
7.0132295726
 30
0.0
 10
8.1618581629
 20
7.0183557683
 30
0.0
 10
8.1904683249
 20
7.021343928
 30
0.0
 10
8.219366628
 20
7.0221779877
 30
0.0
 10
8.2483941395
 20
7.0208537339
 30
0.0
 10
8.2773912975
 20
7.0173788057
 30
0.0
 10
8.3061987802
 20
7.0117726377
 30
0.0
 10
8.3346583698
 20
7.0040663387
 30
0.0
 10
8.3626138111
 20
6.9943025142
 30
0.0
 10
8.3899116595
 20
6.9825350317
 30
0.0
 10
8.4164021105
 20
6.9688287091
 30
0.0
 10
8.4419398061
 20
6.9532589648
 30
0.0
 10
8.4663846373
 20
6.9359113813
 30
0.0
 10
8.489602442
 20
6.9168813225
 30
0.0
 10
8.5114659611
 20
6.8962730979
 30
0.0
 10
8.5318546722
 20
6.8742005747
 30
0.0
 10
8.5475296851
 20
6.8546789521
 30
0.0
 10
8.5592246478
 20
6.8384525212
 30
0.0
 10
8.5703312607
 20
6.821856876
 30
0.0
 10
8.5831006686
 20
6.8004391732
 30
0.0
 10
8.5965621197
 20
6.7737886192
 30
0.0
 10
8.6080820714
 20
6.7463447809
 30
0.0
 10
8.6175966008
 20
6.71825876
 30
0.0
 10
8.6250532937
 20
6.6896854411
 30
0.0
 10
8.6295237281
 20
6.6655664453
 30
0.0
 10
8.6320315317
 20
6.6461871655
 30
0.0
 10
8.6338212739
 20
6.6268264163
 30
0.0
 10
8.6343631904
 20
6.6122576051
 30
0.0
 10
8.6343631904
 20
6.6025628202
 30
0.0
  0
SPLINE
  5
3C8
100
AcDbEntity
  8
0
100
AcDbSpline
 62
7
  6
CONTINUOUS
 70
0
 71
3
 72
23
 73
19
 74
0
 42
0.0000001
 43
0.0000001
 44
0.0000000001
 40
0.0
 40
0.0
 40
0.0
 40
0.0
 40
0.0638960463
 40
0.1275625627
 40
0.1910007796
 40
0.2542170903
 40
0.3172182182
 40
0.3800137024
 40
0.442614847
 40
0.5050349522
 40
0.5672891169
 40
0.6293941178
 40
0.6913682762
 40
0.753231189
 40
0.8150038592
 40
0.8767074816
 40
0.9383658203
 40
1.0
 40
1.0
 40
1.0
 40
1.0
 10
11.9063265654
 20
6.5057213719
 30
0.0
 10
11.9063265654
 20
6.4936843532
 30
0.0
 10
11.9057511017
 20
6.4696494791
 30
0.0
 10
11.903153437
 20
6.4337483572
 30
0.0
 10
11.8988293594
 20
6.3981420394
 30
0.0
 10
11.8927897373
 20
6.3629135306
 30
0.0
 10
11.8850489931
 20
6.3281431568
 30
0.0
 10
11.8756256519
 20
6.2939106581
 30
0.0
 10
11.8645419239
 20
6.2602942513
 30
0.0
 10
11.8518238091
 20
6.2273706914
 30
0.0
 10
11.8375009501
 20
6.1952150442
 30
0.0
 10
11.8216065898
 20
6.1639005296
 30
0.0
 10
11.8041774585
 20
6.1334984024
 30
0.0
 10
11.7852536853
 20
6.1040777069
 30
0.0
 10
11.7648787515
 20
6.0757054493
 30
0.0
 10
11.7430990697
 20
6.0484456148
 30
0.0
 10
11.7199652225
 20
6.0223612503
 30
0.0
 10
11.7036718787
 20
6.005791523
 30
0.0
 10
11.6953206726
 20
5.9977248768
 30
0.0
  0
SPLINE
  5
3C9
100
AcDbEntity
  8
0
100
AcDbSpline
 62
7
  6
CONTINUOUS
 70
0
 71
3
 72
23
 73
19
 74
0
 42
0.0000001
 43
0.0000001
 44
0.0000000001
 40
0.0
 40
0.0
 40
0.0
 40
0.0
 40
0.0616640559
 40
0.1233765281
 40
0.1851534757
 40
0.2470104367
 40
0.3089623073
 40
0.3710232162
 40
0.4332064115
 40
0.4955241687
 40
0.5579877105
 40
0.6206071106
 40
0.6833911464
 40
0.746347551
 40
0.8094824986
 40
0.8728000794
 40
0.9363070319
 40
1.0
 40
1.0
 40
1.0
 40
1.0
 10
10.8262376189
 20
7.2639735748
 30
0.0
 10
10.8198028497
 20
7.2565651581
 30
0.0
 10
10.8072669012
 20
7.2414444267
 30
0.0
 10
10.7895160013
 20
7.2179154233
 30
0.0
 10
10.7728430752
 20
7.193572696
 30
0.0
 10
10.7572792989
 20
7.1684617282
 30
0.0
 10
10.7428531706
 20
7.1426285976
 30
0.0
 10
10.7295913307
 20
7.1161208943
 30
0.0
 10
10.7175181106
 20
7.0889874533
 30
0.0
 10
10.7066556764
 20
7.061278256
 30
0.0
 10
10.6970240241
 20
7.033044306
 30
0.0
 10
10.6886408947
 20
7.0043375838
 30
0.0
 10
10.681521585
 20
6.975210955
 30
0.0
 10
10.6756791792
 20
6.9457180094
 30
0.0
 10
10.6711244797
 20
6.9159131869
 30
0.0
 10
10.6678656194
 20
6.8858507922
 30
0.0
 10
10.6659088754
 20
6.8555873315
 30
0.0
 10
10.6654751997
 20
6.8353428773
 30
0.0
 10
10.6654751997
 20
6.8252072178
 30
0.0
  0
SPLINE
  5
3CA
100
AcDbEntity
  8
0
100
AcDbSpline
 62
7
  6
CONTINUOUS
 70
0
 71
3
 72
11
 73
7
 74
0
 42
0.0000001
 43
0.0000001
 44
0.0000000001
 40
0.0
 40
0.0
 40
0.0
 40
0.0
 40
0.2486795113
 40
0.4982223933
 40
0.7486613647
 40
1.0
 40
1.0
 40
1.0
 40
1.0
 10
11.1574240262
 20
7.3137783529
 30
0.0
 10
11.1552106024
 20
7.3034792846
 30
0.0
 10
11.1513300718
 20
7.2827219853
 30
0.0
 10
11.147169457
 20
7.2512678035
 30
0.0
 10
11.1446698433
 20
7.2195253702
 30
0.0
 10
11.1441161932
 20
7.1982655068
 30
0.0
 10
11.1441161932
 20
7.187618632
 30
0.0
  0
SPLINE
  5
3CB
100
AcDbEntity
  8
0
100
AcDbSpline
 62
7
  6
CONTINUOUS
 70
0
 71
3
 72
71
 73
67
 74
0
 42
0.0000001
 43
0.0000001
 44
0.0000000001
 40
0.0
 40
0.0
 40
0.0
 40
0.0
 40
0.0156373577
 40
0.0313279192
 40
0.0470702807
 40
0.0628636384
 40
0.078706081
 40
0.0945954868
 40
0.1105292294
 40
0.126504295
 40
0.1425172947
 40
0.1585644994
 40
0.1746418761
 40
0.1907451247
 40
0.2068697165
 40
0.2230109355
 40
0.2391639201
 40
0.2553237067
 40
0.2714852727
 40
0.2876435799
 40
0.3037936182
 40
0.3199304494
 40
0.3360492501
 40
0.3521453555
 40
0.3682143001
 40
0.3842518582
 40
0.4002540821
 40
0.4162173391
 40
0.4321383462
 40
0.4480142037
 40
0.4638424237
 40
0.4796209569
 40
0.4953482152
 40
0.5110230908
 40
0.5266449715
 40
0.5422137522
 40
0.5577298411
 40
0.5731941609
 40
0.5886081443
 40
0.6039737248
 40
0.6192933223
 40
0.6345698234
 40
0.6498065565
 40
0.6650072604
 40
0.6801760489
 40
0.6953173696
 40
0.7104359596
 40
0.7255367963
 40
0.7406250462
 40
0.7557060103
 40
0.7707850676
 40
0.7858676174
 40
0.8009590215
 40
0.8160645472
 40
0.8311893106
 40
0.8463382241
 40
0.8615159445
 40
0.8767268263
 40
0.8919748766
 40
0.9072637173
 40
0.9225965516
 40
0.9379761169
 40
0.9534047513
 40
0.968884057
 40
0.9844157643
 40
1.0
 40
1.0
 40
1.0
 40
1.0
 10
11.9104797813
 20
6.5017096785
 30
0.0
 10
11.9104797813
 20
6.5142325443
 30
0.0
 10
11.9098627597
 20
6.5393251475
 30
0.0
 10
11.9070996816
 20
6.5769331725
 30
0.0
 10
11.9025039293
 20
6.6144881287
 30
0.0
 10
11.8960869732
 20
6.6518981141
 30
0.0
 10
11.8878641165
 20
6.6890736043
 30
0.0
 10
11.8778553397
 20
6.725924916
 30
0.0
 10
11.8660847462
 20
6.7623633833
 30
0.0
 10
11.8525807528
 20
6.7983012789
 30
0.0
 10
11.8373759339
 20
6.8336521064
 30
0.0
 10
11.8205069444
 20
6.8683307815
 30
0.0
 10
11.8020144343
 20
6.90225384
 30
0.0
 10
11.7819429491
 20
6.9353396356
 30
0.0
 10
11.7603408233
 20
6.967508533
 30
0.0
 10
11.7372600714
 20
6.9986831021
 30
0.0
 10
11.712756281
 20
7.0287883194
 30
0.0
 10
11.6868884503
 20
7.0577517295
 30
0.0
 10
11.6597188522
 20
7.0855036203
 30
0.0
 10
11.6313128835
 20
7.1119771876
 30
0.0
 10
11.6017389112
 20
7.137108696
 30
0.0
 10
11.5710681065
 20
7.1608376269
 30
0.0
 10
11.5393742942
 20
7.1831068506
 30
0.0
 10
11.5067337592
 20
7.2038627475
 30
0.0
 10
11.4732250595
 20
7.2230553289
 30
0.0
 10
11.4389288406
 20
7.240638358
 30
0.0
 10
11.4039276438
 20
7.2565694607
 30
0.0
 10
11.3683057081
 20
7.270810223
 30
0.0
 10
11.3321487761
 20
7.2833263016
 30
0.0
 10
11.2955438887
 20
7.2940875154
 30
0.0
 10
11.2585791661
 20
7.3030678928
 30
0.0
 10
11.2213436013
 20
7.3102457392
 30
0.0
 10
11.1839268475
 20
7.3156036881
 30
0.0
 10
11.1464190052
 20
7.3191287448
 30
0.0
 10
11.1089104071
 20
7.3208123181
 30
0.0
 10
11.0714914017
 20
7.320650277
 30
0.0
 10
11.034252132
 20
7.3186429289
 30
0.0
 10
10.997282321
 20
7.3147950206
 30
0.0
 10
10.9606710575
 20
7.3091157286
 30
0.0
 10
10.9245065822
 20
7.3016186413
 30
0.0
 10
10.8888760775
 20
7.2923217227
 30
0.0
 10
10.8538654492
 20
7.2812473003
 30
0.0
 10
10.819559116
 20
7.2684220043
 30
0.0
 10
10.7860398113
 20
7.2538766863
 30
0.0
 10
10.7533883815
 20
7.2376463518
 30
0.0
 10
10.7216835906
 20
7.2197700768
 30
0.0
 10
10.69100193
 20
7.2002909138
 30
0.0
 10
10.6614174268
 20
7.1792557969
 30
0.0
 10
10.6330014464
 20
7.1567154473
 30
0.0
 10
10.6058225365
 20
7.13272422
 30
0.0
 10
10.5799462573
 20
7.1073399766
 30
0.0
 10
10.555435024
 20
7.0806239433
 30
0.0
 10
10.5323479531
 20
7.052640564
 30
0.0
 10
10.5107407237
 20
7.0234573402
 30
0.0
 10
10.4906654127
 20
6.993144687
 30
0.0
 10
10.4721703868
 20
6.9617757421
 30
0.0
 10
10.4553001931
 20
6.929426183
 30
0.0
 10
10.4400954528
 20
6.8961740428
 30
0.0
 10
10.4265927628
 20
6.8620995226
 30
0.0
 10
10.4148246119
 20
6.8272847916
 30
0.0
 10
10.4048193055
 20
6.7918138132
 30
0.0
 10
10.3966008114
 20
6.7557720612
 30
0.0
 10
10.3901889581
 20
6.7192465952
 30
0.0
 10
10.3855988749
 20
6.6823249072
 30
0.0
 10
10.3828418556
 20
6.6450974168
 30
0.0
 10
10.3822310847
 20
6.6201744097
 30
0.0
 10
10.3822310847
 20
6.6076940855
 30
0.0
  0
SPLINE
  5
3CC
100
AcDbEntity
  8
0
100
AcDbSpline
 62
7
  6
CONTINUOUS
 70
0
 71
3
 72
81
 73
77
 74
0
 42
0.0000001
 43
0.0000001
 44
0.0000000001
 40
0.0
 40
0.0
 40
0.0
 40
0.0
 40
0.0040522865
 40
0.0082800484
 40
0.0126871457
 40
0.0172767791
 40
0.0220516215
 40
0.0270137632
 40
0.0321645704
 40
0.0375048598
 40
0.0430350297
 40
0.0487550092
 40
0.0607619383
 40
0.0735190645
 40
0.0870145279
 40
0.1012325854
 40
0.1161540985
 40
0.1317569687
 40
0.1480164937
 40
0.1649056383
 40
0.1823952403
 40
0.2004542135
 40
0.2190497475
 40
0.238147463
 40
0.25771154
 40
0.2777048484
 40
0.2980890993
 40
0.3188249655
 40
0.33987219
 40
0.382734923
 40
0.4263418904
 40
0.4703492636
 40
0.5144091862
 40
0.5581732688
 40
0.6012961061
 40
0.6225111972
 40
0.6434396023
 40
0.6640405611
 40
0.6842741604
 40
0.7041014642
 40
0.7234846422
 40
0.7423870779
 40
0.7607734935
 40
0.7786101014
 40
0.7958647727
 40
0.8125071769
 40
0.8285089587
 40
0.843843959
 40
0.8584884905
 40
0.8724216053
 40
0.8856254483
 40
0.8980857219
 40
0.9097923109
 40
0.9153614976
 40
0.9207407701
 40
0.9259304498
 40
0.9309312886
 40
0.9357445188
 40
0.9403720135
 40
0.944816225
 40
0.9490803694
 40
0.953168509
 40
0.9570855896
 40
0.9608376901
 40
0.9644320552
 40
0.9678772734
 40
0.9711834766
 40
0.9774234799
 40
0.9803900894
 40
0.983275264
 40
0.986097755
 40
0.9888776956
 40
0.9916362485
 40
0.9943951135
 40
0.9971759837
 40
1.0
 40
1.0
 40
1.0
 40
1.0
 10
14.2065677379
 20
7.9531586576
 30
0.0
 10
14.2079847898
 20
7.9545274248
 30
0.0
 10
14.2108172736
 20
7.9573900357
 30
0.0
 10
14.2149750424
 20
7.9619484461
 30
0.0
 10
14.2191282373
 20
7.9668584808
 30
0.0
 10
14.2232744335
 20
7.9721173512
 30
0.0
 10
14.2274116477
 20
7.9777223043
 30
0.0
 10
14.2315377418
 20
7.9836705383
 30
0.0
 10
14.2356506715
 20
7.9899589657
 30
0.0
 10
14.2397482857
 20
7.9965843062
 30
0.0
 10
14.2438284078
 20
8.0035431337
 30
0.0
 10
14.2493316586
 20
8.0134217015
 30
0.0
 10
14.2561371101
 20
8.0265924438
 30
0.0
 10
14.2640736545
 20
8.0434193865
 30
0.0
 10
14.2718903186
 20
8.0614797829
 30
0.0
 10
14.2795705878
 20
8.0807358249
 30
0.0
 10
14.2870982423
 20
8.1011474283
 30
0.0
 10
14.2944573498
 20
8.1226718511
 30
0.0
 10
14.3016323142
 20
8.1452639744
 30
0.0
 10
14.308607912
 20
8.1688763673
 30
0.0
 10
14.3153693546
 20
8.1934593915
 30
0.0
 10
14.3219023211
 20
8.2189613149
 30
0.0
 10
14.3281929652
 20
8.2453284484
 30
0.0
 10
14.3342279497
 20
8.2725052645
 30
0.0
 10
14.3399944841
 20
8.3004345021
 30
0.0
 10
14.3454803742
 20
8.3290572936
 30
0.0
 10
14.350673994
 20
8.3583132871
 30
0.0
 10
14.355564394
 20
8.3881408499
 30
0.0
 10
14.36170369
 20
8.4288349414
 30
0.0
 10
14.3685336574
 20
8.4806658109
 30
0.0
 10
14.3753265788
 20
8.5437429082
 30
0.0
 10
14.3807074044
 20
8.6075403283
 30
0.0
 10
14.3846307603
 20
8.671520447
 30
0.0
 10
14.387063536
 20
8.7351441096
 30
0.0
 10
14.3878363693
 20
8.7877017175
 30
0.0
 10
14.3876816509
 20
8.8291576739
 30
0.0
 10
14.3871847612
 20
8.8596599972
 30
0.0
 10
14.38630762
 20
8.8896763646
 30
0.0
 10
14.3850520644
 20
8.9191435265
 30
0.0
 10
14.3834207934
 20
8.9479993377
 30
0.0
 10
14.3814173081
 20
8.9761829751
 30
0.0
 10
14.3790458938
 20
9.0036350377
 30
0.0
 10
14.376311609
 20
9.0302976752
 30
0.0
 10
14.3732202865
 20
9.0561147237
 30
0.0
 10
14.3697785452
 20
9.0810318366
 30
0.0
 10
14.3659937394
 20
9.1049965944
 30
0.0
 10
14.3618739483
 20
9.1279586133
 30
0.0
 10
14.3574279545
 20
9.1498696732
 30
0.0
 10
14.352665263
 20
9.170683861
 30
0.0
 10
14.347596031
 20
9.1903576297
 30
0.0
 10
14.3422310328
 20
9.2088500578
 30
0.0
 10
14.3365816159
 20
9.2261224423
 30
0.0
 10
14.331566703
 20
9.2396868256
 30
0.0
 10
14.3274076965
 20
9.2498869214
 30
0.0
 10
14.3242767098
 20
9.2570821367
 30
0.0
 10
14.3210837318
 20
9.263946524
 30
0.0
 10
14.317830386
 20
9.270476533
 30
0.0
 10
14.3145182893
 20
9.2766687404
 30
0.0
 10
14.3111492303
 20
9.2825199828
 30
0.0
 10
14.3077248487
 20
9.2880272097
 30
0.0
 10
14.3042468639
 20
9.2931875765
 30
0.0
 10
14.3007170539
 20
9.2979984674
 30
0.0
 10
14.2971370393
 20
9.3024573187
 30
0.0
 10
14.2935085594
 20
9.3065618928
 30
0.0
 10
14.289833445
 20
9.3103099107
 30
0.0
 10
14.2861127433
 20
9.3136996311
 30
0.0
 10
14.2811904074
 20
9.3176614775
 30
0.0
 10
14.2760804879
 20
9.3210087482
 30
0.0
 10
14.2708148138
 20
9.3236348887
 30
0.0
 10
14.2668949456
 20
9.3252044528
 30
0.0
 10
14.2629414149
 20
9.3264050964
 30
0.0
 10
14.2589564781
 20
9.3272356651
 30
0.0
 10
14.2549429625
 20
9.3276951928
 30
0.0
 10
14.2509036559
 20
9.3277833894
 30
0.0
 10
14.2468418576
 20
9.3275001977
 30
0.0
 10
14.2441471133
 20
9.3270683882
 30
0.0
 10
14.2428018561
 20
9.326793781
 30
0.0
  0
SPLINE
  5
3CD
100
AcDbEntity
  8
0
100
AcDbSpline
 62
7
  6
CONTINUOUS
 70
0
 71
3
 72
57
 73
53
 74
0
 42
0.0000001
 43
0.0000001
 44
0.0000000001
 40
0.0
 40
0.0
 40
0.0
 40
0.0
 40
0.0083805894
 40
0.017325451
 40
0.0268417783
 40
0.0369322986
 40
0.0475961965
 40
0.058829677
 40
0.0706263694
 40
0.0829776045
 40
0.0958728107
 40
0.1092996576
 40
0.1232442134
 40
0.1376911963
 40
0.1526239948
 40
0.1680248189
 40
0.1838748451
 40
0.2001541978
 40
0.2168421116
 40
0.2339169921
 40
0.2691366188
 40
0.3056263649
 40
0.343189064
 40
0.3816195844
 40
0.4207064969
 40
0.4602336687
 40
0.4999818331
 40
0.5397301677
 40
0.5792578483
 40
0.6183456052
 40
0.6567773003
 40
0.6943414946
 40
0.7308330441
 40
0.7660547727
 40
0.7831308097
 40
0.7998199497
 40
0.8161005903
 40
0.83195197
 40
0.8473542066
 40
0.8622884714
 40
0.8767369781
 40
0.8906831036
 40
0.9041115644
 40
0.9170084295
 40
0.9293613544
 40
0.9411597671
 40
0.9523949932
 40
0.9630606537
 40
0.9731529407
 40
0.9826710124
 40
0.991617678
 40
1.0
 40
1.0
 40
1.0
 40
1.0
 10
14.084927038
 20
8.0108591425
 30
0.0
 10
14.0871996954
 20
8.0136318568
 30
0.0
 10
14.0917275193
 20
8.0195051001
 30
0.0
 10
14.0982722012
 20
8.0289447106
 30
0.0
 10
14.1047799984
 20
8.0392849222
 30
0.0
 10
14.1112411892
 20
8.0505106256
 30
0.0
 10
14.1176465861
 20
8.0626057215
 30
0.0
 10
14.1239867946
 20
8.075552654
 30
0.0
 10
14.1302524443
 20
8.0893325896
 30
0.0
 10
14.1364343321
 20
8.1039253396
 30
0.0
 10
14.142523262
 20
8.1193095025
 30
0.0
 10
14.1485101833
 20
8.1354624534
 30
0.0
 10
14.1543862454
 20
8.1523603808
 30
0.0
 10
14.1601426639
 20
8.1699783668
 30
0.0
 10
14.1657708958
 20
8.1882903893
 30
0.0
 10
14.1712625926
 20
8.2072693798
 30
0.0
 10
14.176609542
 20
8.2268872839
 30
0.0
 10
14.1818038183
 20
8.2471150644
 30
0.0
 10
14.1868377402
 20
8.2679228086
 30
0.0
 10
14.1933933187
 20
8.2966958756
 30
0.0
 10
14.201114456
 20
8.3338877256
 30
0.0
 10
14.2095358206
 20
8.3798718846
 30
0.0
 10
14.2171556793
 20
8.4273871405
 30
0.0
 10
14.2239286013
 20
8.4761521411
 30
0.0
 10
14.2298141793
 20
8.52587836
 30
0.0
 10
14.2347773517
 20
8.5762714127
 30
0.0
 10
14.2387886257
 20
8.6270329381
 30
0.0
 10
14.241824217
 20
8.6778623598
 30
0.0
 10
14.2438661797
 20
8.7284586959
 30
0.0
 10
14.2449025347
 20
8.7785223666
 30
0.0
 10
14.2449273628
 20
8.8277569596
 30
0.0
 10
14.2439408459
 20
8.8758711228
 30
0.0
 10
14.2419491305
 20
8.9225799152
 30
0.0
 10
14.2394370266
 20
8.9604837863
 30
0.0
 10
14.2369169553
 20
8.9898883346
 30
0.0
 10
14.2348041958
 20
9.0111934059
 30
0.0
 10
14.2324525442
 20
9.031946296
 30
0.0
 10
14.2298654899
 20
9.0521163158
 30
0.0
 10
14.2270468666
 20
9.071673609
 30
0.0
 10
14.2240009316
 20
9.0905892531
 30
0.0
 10
14.2207322274
 20
9.1088352844
 30
0.0
 10
14.2172456098
 20
9.1263847459
 30
0.0
 10
14.2135463425
 20
9.1432117429
 30
0.0
 10
14.2096399119
 20
9.1592914684
 30
0.0
 10
14.2055321429
 20
9.1746002581
 30
0.0
 10
14.2012291992
 20
9.1891156436
 30
0.0
 10
14.1967374114
 20
9.2028163594
 30
0.0
 10
14.1920634409
 20
9.2156824465
 30
0.0
 10
14.1872141923
 20
9.2276952142
 30
0.0
 10
14.1821965389
 20
9.2388374796
 30
0.0
 10
14.1770179705
 20
9.2490928878
 30
0.0
 10
14.1733445328
 20
9.2555368324
 30
0.0
 10
14.1714765336
 20
9.2585976837
 30
0.0
  0
SPLINE
  5
3CE
100
AcDbEntity
  8
0
100
AcDbSpline
 62
7
  6
CONTINUOUS
 70
0
 71
3
 72
51
 73
47
 74
0
 42
0.0000001
 43
0.0000001
 44
0.0000000001
 40
0.0
 40
0.0
 40
0.0
 40
0.0
 40
0.0098883253
 40
0.0202583671
 40
0.0311063199
 40
0.0424268707
 40
0.0542131724
 40
0.0664572027
 40
0.0791497158
 40
0.0922804667
 40
0.1058382512
 40
0.1198109647
 40
0.1341857513
 40
0.1489489304
 40
0.1795819459
 40
0.2115886035
 40
0.2448377759
 40
0.2791905753
 40
0.3145014522
 40
0.3506192236
 40
0.3873880558
 40
0.4246484181
 40
0.4622380185
 40
0.4999927286
 40
0.5377475032
 40
0.5753372972
 40
0.6125979821
 40
0.6493672645
 40
0.6854856112
 40
0.7207971845
 40
0.7551507964
 40
0.7884008909
 40
0.8204085732
 40
0.8510427115
 40
0.8658065005
 40
0.8801818947
 40
0.8941552663
 40
0.9077136974
 40
0.9208451429
 40
0.933538342
 40
0.9457830899
 40
0.9575701176
 40
0.9688913986
 40
0.9797401091
 40
0.9901108919
 40
1.0
 40
1.0
 40
1.0
 40
1.0
 10
14.0596394728
 20
8.0920782711
 30
0.0
 10
14.0614571162
 20
8.0952604996
 30
0.0
 10
14.0650720896
 20
8.101842625
 30
0.0
 10
14.0703207673
 20
8.1121085461
 30
0.0
 10
14.0755192638
 20
8.1229912804
 30
0.0
 10
14.0806613458
 20
8.1344781712
 30
0.0
 10
14.0857411494
 20
8.1465559675
 30
0.0
 10
14.090752665
 20
8.159210697
 30
0.0
 10
14.0956900945
 20
8.1724276843
 30
0.0
 10
14.1005476464
 20
8.1861915931
 30
0.0
 10
14.1053196358
 20
8.2004864368
 30
0.0
 10
14.1100005099
 20
8.2152955884
 30
0.0
 10
14.1145847776
 20
8.2306018441
 30
0.0
 10
14.1206356988
 20
8.2519120239
 30
0.0
 10
14.1279013556
 20
8.279666944
 30
0.0
 10
14.1360497989
 20
8.3142611776
 30
0.0
 10
14.1436932473
 20
8.3503806558
 30
0.0
 10
14.1507958199
 20
8.3878571762
 30
0.0
 10
14.1573241436
 20
8.4265164077
 30
0.0
 10
14.1632475878
 20
8.4661783401
 30
0.0
 10
14.1685383793
 20
8.5066582558
 30
0.0
 10
14.1731717351
 20
8.5477675754
 30
0.0
 10
14.1771259731
 20
8.5893147578
 30
0.0
 10
14.180382612
 20
8.6311062007
 30
0.0
 10
14.1829264589
 20
8.6729471526
 30
0.0
 10
14.184745678
 20
8.7146426291
 30
0.0
 10
14.1858318461
 20
8.7559983302
 30
0.0
 10
14.1861799949
 20
8.7968215544
 30
0.0
 10
14.185788636
 20
8.8369221042
 30
0.0
 10
14.1846597752
 20
8.8761131927
 30
0.0
 10
14.1827988991
 20
8.9142122999
 30
0.0
 10
14.1802149923
 20
8.9510421509
 30
0.0
 10
14.1769203768
 20
8.9864311958
 30
0.0
 10
14.1735559117
 20
9.0149244288
 30
0.0
 10
14.1705048814
 20
9.0368667864
 30
0.0
 10
14.1680775595
 20
9.0526600537
 30
0.0
 10
14.1654859823
 20
9.0679743377
 30
0.0
 10
14.1627331099
 20
9.082791843
 30
0.0
 10
14.1598222523
 20
9.0970953332
 30
0.0
 10
14.1567567371
 20
9.1108681878
 30
0.0
 10
14.1535402564
 20
9.1240944192
 30
0.0
 10
14.1501764872
 20
9.1367586893
 30
0.0
 10
14.1466694509
 20
9.1488463278
 30
0.0
 10
14.1430231733
 20
9.1603434081
 30
0.0
 10
14.1392419908
 20
9.1712365208
 30
0.0
 10
14.1365703567
 20
9.1782552994
 30
0.0
 10
14.1352094465
 20
9.1816583062
 30
0.0
  0
SPLINE
  5
3CF
100
AcDbEntity
  8
0
100
AcDbSpline
 62
7
  6
CONTINUOUS
 70
0
 71
3
 72
79
 73
75
 74
0
 42
0.0000001
 43
0.0000001
 44
0.0000000001
 40
0.0
 40
0.0
 40
0.0
 40
0.0
 40
0.0039197159
 40
0.0080008746
 40
0.0122469175
 40
0.0166607385
 40
0.0212447902
 40
0.0260010228
 40
0.0309307615
 40
0.0360348638
 40
0.0413138187
 40
0.0467677131
 40
0.0581987339
 40
0.0703233743
 40
0.0831324264
 40
0.0966132666
 40
0.1107502872
 40
0.1255252645
 40
0.1409176738
 40
0.1569049285
 40
0.1734625671
 40
0.1905644152
 40
0.2081827599
 40
0.2262884856
 40
0.2448511889
 40
0.2638392773
 40
0.2832200938
 40
0.3029600221
 40
0.3230245792
 40
0.3433784983
 40
0.36398583
 40
0.4058134129
 40
0.4482102474
 40
0.4908733069
 40
0.5334971466
 40
0.57577668
 40
0.6174099484
 40
0.6378917829
 40
0.6581016811
 40
0.6780040306
 40
0.697563954
 40
0.7167474025
 40
0.7355212414
 40
0.7538533457
 40
0.7717127163
 40
0.789069598
 40
0.8058955809
 40
0.8221637239
 40
0.8378487062
 40
0.8529270079
 40
0.8673770748
 40
0.8811795315
 40
0.8943174502
 40
0.9067767043
 40
0.9185463614
 40
0.924170441
 40
0.9296197683
 40
0.9348941188
 40
0.9399936488
 40
0.9449188207
 40
0.9496705406
 40
0.9542501682
 40
0.9586595267
 40
0.9629010677
 40
0.9669778364
 40
0.970893607
 40
0.9746529964
 40
0.9782614855
 40
0.9817256282
 40
0.9882500449
 40
0.9913323679
 40
0.9943090331
 40
0.9971933183
 40
1.0
 40
1.0
 40
1.0
 40
1.0
 10
13.5271683052
 20
7.1278721307
 30
0.0
 10
13.5288520147
 20
7.1294984693
 30
0.0
 10
13.5322177044
 20
7.1328923726
 30
0.0
 10
13.5371634062
 20
7.1382829441
 30
0.0
 10
13.5421041848
 20
7.1440717912
 30
0.0
 10
13.5470374312
 20
7.150255929
 30
0.0
 10
13.5519609986
 20
7.1568324276
 30
0.0
 10
13.5568725822
 20
7.1637983054
 30
0.0
 10
13.5617699783
 20
7.1711502819
 30
0.0
 10
13.566650858
 20
7.1788848851
 30
0.0
 10
13.5715128864
 20
7.1869984888
 30
0.0
 10
13.5780703754
 20
7.1984975736
 30
0.0
 10
13.586187624
 20
7.2138085216
 30
0.0
 10
13.59567025
 20
7.2333507901
 30
0.0
 10
13.6050234868
 20
7.2543031375
 30
0.0
 10
13.6142294611
 20
7.2766258434
 30
0.0
 10
13.6232705854
 20
7.3002768577
 30
0.0
 10
13.6321295515
 20
7.325211352
 30
0.0
 10
13.6407893735
 20
7.3513820143
 30
0.0
 10
13.649233431
 20
7.37873911
 30
0.0
 10
13.6574455143
 20
7.4072305855
 30
0.0
 10
13.6654098819
 20
7.4368021667
 30
0.0
 10
13.6731112559
 20
7.4673974912
 30
0.0
 10
13.6805348615
 20
7.4989582283
 30
0.0
 10
13.687666451
 20
7.5314241823
 30
0.0
 10
13.6944923647
 20
7.5647334011
 30
0.0
 10
13.7009995228
 20
7.5988223084
 30
0.0
 10
13.7071754585
 20
7.6336258417
 30
0.0
 10
13.7130083156
 20
7.6690775503
 30
0.0
 10
13.7184869749
 20
7.7051097935
 30
0.0
 10
13.7253391656
 20
7.7540762818
 30
0.0
 10
13.7329333927
 20
7.8162269433
 30
0.0
 10
13.7404425742
 20
7.891638955
 30
0.0
 10
13.7463345221
 20
7.9676716003
 30
0.0
 10
13.750564234
 20
8.0437446624
 30
0.0
 10
13.7530995284
 20
8.1192776011
 30
0.0
 10
13.7537884082
 20
8.1816257509
 30
0.0
 10
13.753463836
 20
8.2307912922
 30
0.0
 10
13.7527900969
 20
8.2669735814
 30
0.0
 10
13.751686192
 20
8.3025944607
 30
0.0
 10
13.7501542291
 20
8.3375859734
 30
0.0
 10
13.7481971971
 20
8.3718813062
 30
0.0
 10
13.74581888
 20
8.4054149983
 30
0.0
 10
13.7430238662
 20
8.4381230433
 30
0.0
 10
13.7398175527
 20
8.4699430305
 30
0.0
 10
13.7362061477
 20
8.5008142703
 30
0.0
 10
13.7321966296
 20
8.5306779036
 30
0.0
 10
13.7277967382
 20
8.5594770111
 30
0.0
 10
13.7230149603
 20
8.5871567438
 30
0.0
 10
13.7178605474
 20
8.6136644435
 30
0.0
 10
13.712343455
 20
8.6389497566
 30
0.0
 10
13.7064743243
 20
8.66296469
 30
0.0
 10
13.7002644432
 20
8.685663879
 30
0.0
 10
13.6937257451
 20
8.7070042215
 30
0.0
 10
13.6879288085
 20
8.7238686256
 30
0.0
 10
13.6831220809
 20
8.7366367982
 30
0.0
 10
13.6794973603
 20
8.7457028875
 30
0.0
 10
13.6757999562
 20
8.7544002117
 30
0.0
 10
13.672031666
 20
8.7627247025
 30
0.0
 10
13.6681942006
 20
8.770672404
 30
0.0
 10
13.6642893819
 20
8.7782395796
 30
0.0
 10
13.6603190765
 20
8.7854226938
 30
0.0
 10
13.6562850292
 20
8.7922183317
 30
0.0
 10
13.652189183
 20
8.7986233589
 30
0.0
 10
13.6480333613
 20
8.804634751
 30
0.0
 10
13.6438193614
 20
8.8102497051
 30
0.0
 10
13.6395492453
 20
8.8154655239
 30
0.0
 10
13.6352243469
 20
8.820280092
 30
0.0
 10
13.6295027473
 20
8.8260451159
 30
0.0
 10
13.6235664485
 20
8.8311472286
 30
0.0
 10
13.6174186997
 20
8.835477367
 30
0.0
 10
13.6128494133
 20
8.8382518211
 30
0.0
 10
13.608237442
 20
8.8406123404
 30
0.0
 10
13.6050977869
 20
8.8419248324
 30
0.0
 10
13.6035261011
 20
8.8425074256
 30
0.0
  0
SPLINE
  5
3D0
100
AcDbEntity
  8
0
100
AcDbSpline
 62
7
  6
CONTINUOUS
 70
0
 71
3
 72
15
 73
11
 74
0
 42
0.0000001
 43
0.0000001
 44
0.0000000001
 40
0.0
 40
0.0
 40
0.0
 40
0.0
 40
0.1453468053
 40
0.2840087588
 40
0.4163165959
 40
0.5426855499
 40
0.663614455
 40
0.7796839753
 40
0.8915608349
 40
1.0
 40
1.0
 40
1.0
 40
1.0
 10
13.5271683052
 20
7.1278721307
 30
0.0
 10
13.5253121259
 20
7.1260791991
 30
0.0
 10
13.521601289
 20
7.1226609864
 30
0.0
 10
13.5159025633
 20
7.1179472564
 30
0.0
 10
13.5102087169
 20
7.1137741176
 30
0.0
 10
13.5045232245
 20
7.1101447489
 30
0.0
 10
13.4988491266
 20
7.1070618319
 30
0.0
 10
13.4931893051
 20
7.1045279429
 30
0.0
 10
13.487547797
 20
7.1025456871
 30
0.0
 10
13.4837501306
 20
7.1015807719
 30
0.0
 10
13.4818635705
 20
7.1011960579
 30
0.0
  0
SPLINE
  5
3D1
100
AcDbEntity
  8
0
100
AcDbSpline
 62
7
  6
CONTINUOUS
 70
0
 71
3
 72
19
 73
15
 74
0
 42
0.0000001
 43
0.0000001
 44
0.0000000001
 40
0.0
 40
0.0
 40
0.0
 40
0.0
 40
0.1532264237
 40
0.2947793451
 40
0.4259267176
 40
0.5483709416
 40
0.6070239617
 40
0.6643434169
 40
0.7206640972
 40
0.7763402773
 40
0.8317399435
 40
0.8872369341
 40
0.94320306
 40
1.0
 40
1.0
 40
1.0
 40
1.0
 10
13.5271683052
 20
7.2969091603
 30
0.0
 10
13.5247030891
 20
7.2945279442
 30
0.0
 10
13.5197774804
 20
7.2901294159
 30
0.0
 10
13.5120837602
 20
7.2844817611
 30
0.0
 10
13.5044003557
 20
7.2800708243
 30
0.0
 10
13.497919209
 20
7.2774005912
 30
0.0
 10
13.4927869921
 20
7.2759340588
 30
0.0
 10
13.4890062466
 20
7.2751653089
 30
0.0
 10
13.4852416976
 20
7.2747130056
 30
0.0
 10
13.4814952674
 20
7.2745777083
 30
0.0
 10
13.4777692175
 20
7.2747596326
 30
0.0
 10
13.4740656677
 20
7.2752586398
 30
0.0
 10
13.4703871123
 20
7.2760743834
 30
0.0
 10
13.4679747363
 20
7.2768220695
 30
0.0
 10
13.4667769295
 20
7.2772455635
 30
0.0
  0
SPLINE
  5
3D2
100
AcDbEntity
  8
0
100
AcDbSpline
 62
7
  6
CONTINUOUS
 70
0
 71
3
 72
71
 73
67
 74
0
 42
0.0000001
 43
0.0000001
 44
0.0000000001
 40
0.0
 40
0.0
 40
0.0
 40
0.0
 40
0.0155842565
 40
0.0311159319
 40
0.0465952524
 40
0.0620238826
 40
0.0774034482
 40
0.0927362827
 40
0.1080251231
 40
0.1232731738
 40
0.1384840558
 40
0.1536617763
 40
0.1688106896
 40
0.1839354527
 40
0.199040978
 40
0.2141323822
 40
0.2292149324
 40
0.2442939901
 40
0.2593749544
 40
0.2744632041
 40
0.2895640403
 40
0.3046826298
 40
0.3198239504
 40
0.3349927394
 40
0.3501934439
 40
0.3654301774
 40
0.3807066784
 40
0.3960262752
 40
0.411391855
 40
0.4268058382
 40
0.4422701586
 40
0.4577862484
 40
0.4733550295
 40
0.4889769098
 40
0.5046517845
 40
0.5203790422
 40
0.5361575755
 40
0.5519857963
 40
0.5678616545
 40
0.5837826618
 40
0.5997459181
 40
0.6157481413
 40
0.6317856992
 40
0.6478546441
 40
0.6639507502
 40
0.6800695513
 40
0.6962063821
 40
0.7123564199
 40
0.7285147268
 40
0.7446762929
 40
0.76083608
 40
0.776989065
 40
0.7931302839
 40
0.8092548753
 40
0.8253581235
 40
0.8414355003
 40
0.8574827053
 40
0.8734957053
 40
0.889470771
 40
0.9054045131
 40
0.921293919
 40
0.9371363621
 40
0.9529297157
 40
0.968672092
 40
0.9843626215
 40
1.0
 40
1.0
 40
1.0
 40
1.0
 10
11.925272693
 20
6.4950782064
 30
0.0
 10
11.925272693
 20
6.4822678194
 30
0.0
 10
11.9246457772
 20
6.4566857249
 30
0.0
 10
11.9218158361
 20
6.4184737408
 30
0.0
 10
11.9171043795
 20
6.3805756642
 30
0.0
 10
11.9105229525
 20
6.3430842644
 30
0.0
 10
11.9020871162
 20
6.3060893817
 30
0.0
 10
11.8918172145
 20
6.2696803637
 30
0.0
 10
11.8797378603
 20
6.2339449439
 30
0.0
 10
11.8658780951
 20
6.1989693099
 30
0.0
 10
11.8502712597
 20
6.1648378071
 30
0.0
 10
11.8329549229
 20
6.1316327576
 30
0.0
 10
11.8139707826
 20
6.0994342573
 30
0.0
 10
11.7933645688
 20
6.0683199819
 30
0.0
 10
11.7711859339
 20
6.0383649975
 30
0.0
 10
11.7474883345
 20
6.0096415766
 30
0.0
 10
11.7223288996
 20
5.9822190242
 30
0.0
 10
11.6957683101
 20
5.9561634905
 30
0.0
 10
11.6678706368
 20
5.9315378181
 30
0.0
 10
11.6387031793
 20
5.9084013938
 30
0.0
 10
11.6083363029
 20
5.886810003
 30
0.0
 10
11.5768432666
 20
5.8668156952
 30
0.0
 10
11.5443000446
 20
5.8484666571
 30
0.0
 10
11.5107851399
 20
5.831807101
 30
0.0
 10
11.4763794015
 20
5.816877138
 30
0.0
 10
11.4411658203
 20
5.8037126905
 30
0.0
 10
11.4052293216
 20
5.7923454172
 30
0.0
 10
11.3686565603
 20
5.782802637
 30
0.0
 10
11.331535711
 20
5.7751072657
 30
0.0
 10
11.2939562553
 20
5.7692777628
 30
0.0
 10
11.2560087658
 20
5.7653280933
 30
0.0
 10
11.2177846902
 20
5.763267677
 30
0.0
 10
11.1793761277
 20
5.763101372
 30
0.0
 10
11.1408756055
 20
5.7648294804
 30
0.0
 10
11.1023758582
 20
5.7684477454
 30
0.0
 10
11.0639696059
 20
5.7739473658
 30
0.0
 10
11.0257493324
 20
5.7813150162
 30
0.0
 10
10.987807066
 20
5.7905328848
 30
0.0
 10
10.950234156
 20
5.8015787017
 30
0.0
 10
10.9131210505
 20
5.8144257917
 30
0.0
 10
10.8765570846
 20
5.8290431567
 30
0.0
 10
10.8406302661
 20
5.8453955473
 30
0.0
 10
10.8054270662
 20
5.8634435488
 30
0.0
 10
10.7710322132
 20
5.8831436745
 30
0.0
 10
10.7375284916
 20
5.9044484725
 30
0.0
 10
10.704996539
 20
5.9273066301
 30
0.0
 10
10.6735146458
 20
5.9516630907
 30
0.0
 10
10.6431585785
 20
5.9774592039
 30
0.0
 10
10.6140013973
 20
6.0046328622
 30
0.0
 10
10.5861132821
 20
6.0331186511
 30
0.0
 10
10.5595613647
 20
6.0628480041
 30
0.0
 10
10.5344095696
 20
6.0937493678
 30
0.0
 10
10.5107184561
 20
6.1257483685
 30
0.0
 10
10.4885450597
 20
6.158767983
 30
0.0
 10
10.4679427729
 20
6.192728738
 30
0.0
 10
10.448961215
 20
6.2275488972
 30
0.0
 10
10.4316461143
 20
6.2631446575
 30
0.0
 10
10.4160391983
 20
6.2994303479
 30
0.0
 10
10.402178095
 20
6.3363186342
 30
0.0
 10
10.3900962336
 20
6.3737207298
 30
0.0
 10
10.3798227698
 20
6.4115465843
 30
0.0
 10
10.3713824556
 20
6.4497051876
 30
0.0
 10
10.3647957908
 20
6.4881044986
 30
0.0
 10
10.3600785151
 20
6.5266525904
 30
0.0
 10
10.3572423552
 20
6.5652551723
 30
0.0
 10
10.3566090232
 20
6.5910113477
 30
0.0
 10
10.3566090232
 20
6.6038654014
 30
0.0
  0
SPLINE
  5
3D3
100
AcDbEntity
  8
0
100
AcDbSpline
 62
7
  6
CONTINUOUS
 70
0
 71
3
 72
81
 73
77
 74
0
 42
0.0000001
 43
0.0000001
 44
0.0000000001
 40
0.0
 40
0.0
 40
0.0
 40
0.0
 40
0.0040522865
 40
0.0082800484
 40
0.0126871457
 40
0.0172767791
 40
0.0220516215
 40
0.0270137632
 40
0.0321645704
 40
0.0375048598
 40
0.0430350297
 40
0.0487550092
 40
0.0607619383
 40
0.0735190645
 40
0.0870145279
 40
0.1012325854
 40
0.1161540985
 40
0.1317569687
 40
0.1480164937
 40
0.1649056383
 40
0.1823952403
 40
0.2004542135
 40
0.2190497475
 40
0.238147463
 40
0.25771154
 40
0.2777048484
 40
0.2980890993
 40
0.3188249655
 40
0.33987219
 40
0.382734923
 40
0.4263418904
 40
0.4703492636
 40
0.5144091862
 40
0.5581732688
 40
0.6012961061
 40
0.6225111972
 40
0.6434396023
 40
0.6640405611
 40
0.6842741604
 40
0.7041014642
 40
0.7234846422
 40
0.7423870779
 40
0.7607734935
 40
0.7786101014
 40
0.7958647727
 40
0.8125071769
 40
0.8285089587
 40
0.843843959
 40
0.8584884905
 40
0.8724216053
 40
0.8856254483
 40
0.8980857219
 40
0.9097923109
 40
0.9153614976
 40
0.9207407701
 40
0.9259304498
 40
0.9309312886
 40
0.9357445188
 40
0.9403720135
 40
0.944816225
 40
0.9490803694
 40
0.953168509
 40
0.9570855896
 40
0.9608376901
 40
0.9644320552
 40
0.9678772734
 40
0.9711834766
 40
0.9774234799
 40
0.9803900894
 40
0.983275264
 40
0.986097755
 40
0.9888776956
 40
0.9916362485
 40
0.9943951135
 40
0.9971759837
 40
1.0
 40
1.0
 40
1.0
 40
1.0
 10
13.5271683052
 20
7.2969091603
 30
0.0
 10
13.5285853571
 20
7.2982779275
 30
0.0
 10
13.5314178409
 20
7.3011405384
 30
0.0
 10
13.5355756097
 20
7.3056989488
 30
0.0
 10
13.5397288046
 20
7.3106089836
 30
0.0
 10
13.5438750008
 20
7.315867854
 30
0.0
 10
13.548012215
 20
7.321472807
 30
0.0
 10
13.5521383091
 20
7.327421041
 30
0.0
 10
13.5562512388
 20
7.3337094684
 30
0.0
 10
13.560348853
 20
7.3403348089
 30
0.0
 10
13.5644289751
 20
7.3472936364
 30
0.0
 10
13.5699322259
 20
7.3571722042
 30
0.0
 10
13.5767376774
 20
7.3703429465
 30
0.0
 10
13.5846742218
 20
7.3871698892
 30
0.0
 10
13.5924908859
 20
7.4052302856
 30
0.0
 10
13.6001711551
 20
7.4244863276
 30
0.0
 10
13.6076988096
 20
7.444897931
 30
0.0
 10
13.6150579171
 20
7.4664223538
 30
0.0
 10
13.6222328815
 20
7.4890144771
 30
0.0
 10
13.6292084793
 20
7.51262687
 30
0.0
 10
13.6359699219
 20
7.5372098942
 30
0.0
 10
13.6425028884
 20
7.5627118176
 30
0.0
 10
13.6487935325
 20
7.5890789511
 30
0.0
 10
13.654828517
 20
7.6162557672
 30
0.0
 10
13.6605950514
 20
7.6441850049
 30
0.0
 10
13.6660809415
 20
7.6728077963
 30
0.0
 10
13.6712745613
 20
7.7020637898
 30
0.0
 10
13.6761649613
 20
7.7318913526
 30
0.0
 10
13.6823042573
 20
7.7725854441
 30
0.0
 10
13.6891342247
 20
7.8244163136
 30
0.0
 10
13.6959271461
 20
7.8874934109
 30
0.0
 10
13.7013079717
 20
7.951290831
 30
0.0
 10
13.7052313276
 20
8.0152709498
 30
0.0
 10
13.7076641033
 20
8.0788946123
 30
0.0
 10
13.7084369366
 20
8.1314522202
 30
0.0
 10
13.7082822182
 20
8.1729081766
 30
0.0
 10
13.7077853285
 20
8.2034104999
 30
0.0
 10
13.7069081873
 20
8.2334268673
 30
0.0
 10
13.7056526317
 20
8.2628940292
 30
0.0
 10
13.7040213607
 20
8.2917498405
 30
0.0
 10
13.7020178754
 20
8.3199334778
 30
0.0
 10
13.6996464611
 20
8.3473855404
 30
0.0
 10
13.6969121763
 20
8.3740481779
 30
0.0
 10
13.6938208538
 20
8.3998652264
 30
0.0
 10
13.6903791125
 20
8.4247823393
 30
0.0
 10
13.6865943067
 20
8.4487470972
 30
0.0
 10
13.6824745156
 20
8.471709116
 30
0.0
 10
13.6780285218
 20
8.4936201759
 30
0.0
 10
13.6732658303
 20
8.5144343637
 30
0.0
 10
13.6681965983
 20
8.5341081324
 30
0.0
 10
13.6628316001
 20
8.5526005605
 30
0.0
 10
13.6571821832
 20
8.569872945
 30
0.0
 10
13.6521672703
 20
8.5834373283
 30
0.0
 10
13.6480082638
 20
8.5936374241
 30
0.0
 10
13.6448772771
 20
8.6008326394
 30
0.0
 10
13.6416842991
 20
8.6076970267
 30
0.0
 10
13.6384309533
 20
8.6142270357
 30
0.0
 10
13.6351188566
 20
8.6204192431
 30
0.0
 10
13.6317497976
 20
8.6262704855
 30
0.0
 10
13.628325416
 20
8.6317777124
 30
0.0
 10
13.6248474311
 20
8.6369380792
 30
0.0
 10
13.6213176212
 20
8.6417489701
 30
0.0
 10
13.6177376066
 20
8.6462078214
 30
0.0
 10
13.6141091267
 20
8.6503123955
 30
0.0
 10
13.6104340123
 20
8.6540604134
 30
0.0
 10
13.6067133106
 20
8.6574501338
 30
0.0
 10
13.6017909747
 20
8.6614119802
 30
0.0
 10
13.5966810552
 20
8.6647592509
 30
0.0
 10
13.5914153811
 20
8.6673853914
 30
0.0
 10
13.5874955129
 20
8.6689549555
 30
0.0
 10
13.5835419822
 20
8.6701555991
 30
0.0
 10
13.5795570454
 20
8.6709861678
 30
0.0
 10
13.5755435297
 20
8.6714456955
 30
0.0
 10
13.5715042232
 20
8.6715338921
 30
0.0
 10
13.5674424249
 20
8.6712507004
 30
0.0
 10
13.5647476806
 20
8.6708188909
 30
0.0
 10
13.5634024234
 20
8.6705442837
 30
0.0
  0
SPLINE
  5
3D4
100
AcDbEntity
  8
0
100
AcDbSpline
 62
7
  6
CONTINUOUS
 70
0
 71
3
 72
57
 73
53
 74
0
 42
0.0000001
 43
0.0000001
 44
0.0000000001
 40
0.0
 40
0.0
 40
0.0
 40
0.0
 40
0.0083805894
 40
0.017325451
 40
0.0268417783
 40
0.0369322986
 40
0.0475961965
 40
0.058829677
 40
0.0706263694
 40
0.0829776045
 40
0.0958728107
 40
0.1092996576
 40
0.1232442134
 40
0.1376911963
 40
0.1526239948
 40
0.1680248189
 40
0.1838748451
 40
0.2001541978
 40
0.2168421116
 40
0.2339169921
 40
0.2691366188
 40
0.3056263649
 40
0.343189064
 40
0.3816195844
 40
0.4207064969
 40
0.4602336687
 40
0.4999818331
 40
0.5397301677
 40
0.5792578483
 40
0.6183456052
 40
0.6567773003
 40
0.6943414946
 40
0.7308330441
 40
0.7660547727
 40
0.7831308097
 40
0.7998199497
 40
0.8161005903
 40
0.83195197
 40
0.8473542066
 40
0.8622884714
 40
0.8767369781
 40
0.8906831036
 40
0.9041115644
 40
0.9170084295
 40
0.9293613544
 40
0.9411597671
 40
0.9523949932
 40
0.9630606537
 40
0.9731529407
 40
0.9826710124
 40
0.991617678
 40
1.0
 40
1.0
 40
1.0
 40
1.0
 10
13.4055276053
 20
7.3546096452
 30
0.0
 10
13.4078002627
 20
7.3573823595
 30
0.0
 10
13.4123280866
 20
7.3632556028
 30
0.0
 10
13.4188727685
 20
7.3726952133
 30
0.0
 10
13.4253805657
 20
7.3830354249
 30
0.0
 10
13.4318417565
 20
7.3942611283
 30
0.0
 10
13.4382471534
 20
7.4063562242
 30
0.0
 10
13.4445873619
 20
7.4193031567
 30
0.0
 10
13.4508530116
 20
7.4330830923
 30
0.0
 10
13.4570348994
 20
7.4476758423
 30
0.0
 10
13.4631238293
 20
7.4630600052
 30
0.0
 10
13.4691107506
 20
7.4792129561
 30
0.0
 10
13.4749868127
 20
7.4961108835
 30
0.0
 10
13.4807432312
 20
7.5137288695
 30
0.0
 10
13.4863714631
 20
7.532040892
 30
0.0
 10
13.4918631599
 20
7.5510198825
 30
0.0
 10
13.4972101093
 20
7.5706377866
 30
0.0
 10
13.5024043856
 20
7.5908655671
 30
0.0
 10
13.5074383075
 20
7.6116733113
 30
0.0
 10
13.513993886
 20
7.6404463784
 30
0.0
 10
13.5217150232
 20
7.6776382283
 30
0.0
 10
13.5301363879
 20
7.7236223873
 30
0.0
 10
13.5377562466
 20
7.7711376432
 30
0.0
 10
13.5445291686
 20
7.8199026438
 30
0.0
 10
13.5504147466
 20
7.8696288627
 30
0.0
 10
13.555377919
 20
7.9200219155
 30
0.0
 10
13.559389193
 20
7.9707834408
 30
0.0
 10
13.5624247843
 20
8.0216128625
 30
0.0
 10
13.564466747
 20
8.0722091986
 30
0.0
 10
13.565503102
 20
8.1222728693
 30
0.0
 10
13.5655279301
 20
8.1715074623
 30
0.0
 10
13.5645414132
 20
8.2196216255
 30
0.0
 10
13.5625496978
 20
8.2663304179
 30
0.0
 10
13.5600375939
 20
8.304234289
 30
0.0
 10
13.5575175226
 20
8.3336388373
 30
0.0
 10
13.5554047631
 20
8.3549439086
 30
0.0
 10
13.5530531115
 20
8.3756967987
 30
0.0
 10
13.5504660572
 20
8.3958668185
 30
0.0
 10
13.5476474339
 20
8.4154241117
 30
0.0
 10
13.5446014989
 20
8.4343397558
 30
0.0
 10
13.5413327947
 20
8.4525857871
 30
0.0
 10
13.5378461771
 20
8.4701352486
 30
0.0
 10
13.5341469098
 20
8.4869622456
 30
0.0
 10
13.5302404792
 20
8.5030419711
 30
0.0
 10
13.5261327102
 20
8.5183507608
 30
0.0
 10
13.5218297665
 20
8.5328661463
 30
0.0
 10
13.5173379787
 20
8.5465668621
 30
0.0
 10
13.5126640082
 20
8.5594329492
 30
0.0
 10
13.5078147596
 20
8.5714457169
 30
0.0
 10
13.5027971062
 20
8.5825879823
 30
0.0
 10
13.4976185378
 20
8.5928433905
 30
0.0
 10
13.4939451001
 20
8.5992873351
 30
0.0
 10
13.4920771009
 20
8.6023481864
 30
0.0
  0
SPLINE
  5
3D5
100
AcDbEntity
  8
0
100
AcDbSpline
 62
7
  6
CONTINUOUS
 70
0
 71
3
 72
51
 73
47
 74
0
 42
0.0000001
 43
0.0000001
 44
0.0000000001
 40
0.0
 40
0.0
 40
0.0
 40
0.0
 40
0.0098883253
 40
0.0202583671
 40
0.0311063199
 40
0.0424268707
 40
0.0542131724
 40
0.0664572027
 40
0.0791497158
 40
0.0922804667
 40
0.1058382512
 40
0.1198109647
 40
0.1341857513
 40
0.1489489304
 40
0.1795819459
 40
0.2115886035
 40
0.2448377759
 40
0.2791905753
 40
0.3145014522
 40
0.3506192236
 40
0.3873880558
 40
0.4246484181
 40
0.4622380185
 40
0.4999927286
 40
0.5377475032
 40
0.5753372972
 40
0.6125979821
 40
0.6493672645
 40
0.6854856112
 40
0.7207971845
 40
0.7551507964
 40
0.7884008909
 40
0.8204085732
 40
0.8510427115
 40
0.8658065005
 40
0.8801818947
 40
0.8941552663
 40
0.9077136974
 40
0.9208451429
 40
0.933538342
 40
0.9457830899
 40
0.9575701176
 40
0.9688913986
 40
0.9797401091
 40
0.9901108919
 40
1.0
 40
1.0
 40
1.0
 40
1.0
 10
13.3802400401
 20
7.4358287738
 30
0.0
 10
13.3820576835
 20
7.4390110023
 30
0.0
 10
13.3856726569
 20
7.4455931277
 30
0.0
 10
13.3909213346
 20
7.4558590488
 30
0.0
 10
13.3961198311
 20
7.4667417831
 30
0.0
 10
13.4012619131
 20
7.4782286739
 30
0.0
 10
13.4063417167
 20
7.4903064702
 30
0.0
 10
13.4113532323
 20
7.5029611997
 30
0.0
 10
13.4162906618
 20
7.516178187
 30
0.0
 10
13.4211482137
 20
7.5299420958
 30
0.0
 10
13.4259202031
 20
7.5442369395
 30
0.0
 10
13.4306010772
 20
7.5590460911
 30
0.0
 10
13.4351853448
 20
7.5743523468
 30
0.0
 10
13.4412362661
 20
7.5956625266
 30
0.0
 10
13.4485019229
 20
7.6234174467
 30
0.0
 10
13.4566503662
 20
7.6580116803
 30
0.0
 10
13.4642938146
 20
7.6941311585
 30
0.0
 10
13.4713963872
 20
7.7316076789
 30
0.0
 10
13.4779247109
 20
7.7702669104
 30
0.0
 10
13.4838481551
 20
7.8099288428
 30
0.0
 10
13.4891389466
 20
7.8504087585
 30
0.0
 10
13.4937723024
 20
7.8915180781
 30
0.0
 10
13.4977265404
 20
7.9330652605
 30
0.0
 10
13.5009831793
 20
7.9748567034
 30
0.0
 10
13.5035270262
 20
8.0166976553
 30
0.0
 10
13.5053462453
 20
8.0583931318
 30
0.0
 10
13.5064324134
 20
8.0997488329
 30
0.0
 10
13.5067805622
 20
8.1405720571
 30
0.0
 10
13.5063892033
 20
8.1806726069
 30
0.0
 10
13.5052603425
 20
8.2198636954
 30
0.0
 10
13.5033994664
 20
8.2579628026
 30
0.0
 10
13.5008155596
 20
8.2947926536
 30
0.0
 10
13.4975209441
 20
8.3301816985
 30
0.0
 10
13.494156479
 20
8.3586749315
 30
0.0
 10
13.4911054487
 20
8.3806172891
 30
0.0
 10
13.4886781268
 20
8.3964105564
 30
0.0
 10
13.4860865496
 20
8.4117248404
 30
0.0
 10
13.4833336772
 20
8.4265423457
 30
0.0
 10
13.4804228196
 20
8.4408458359
 30
0.0
 10
13.4773573044
 20
8.4546186905
 30
0.0
 10
13.4741408237
 20
8.4678449219
 30
0.0
 10
13.4707770545
 20
8.480509192
 30
0.0
 10
13.4672700182
 20
8.4925968305
 30
0.0
 10
13.4636237406
 20
8.5040939108
 30
0.0
 10
13.4598425581
 20
8.5149870235
 30
0.0
 10
13.457170924
 20
8.5220058021
 30
0.0
 10
13.4558100137
 20
8.5254088089
 30
0.0
  0
SPLINE
  5
3D6
100
AcDbEntity
  8
0
100
AcDbSpline
 62
7
  6
CONTINUOUS
 70
0
 71
3
 72
56
 73
52
 74
0
 42
0.0000001
 43
0.0000001
 44
0.0000000001
 40
0.0
 40
0.0
 40
0.0
 40
0.0
 40
0.0081223388
 40
0.0169170819
 40
0.0264090949
 40
0.0366148108
 40
0.0475421495
 40
0.0591919395
 40
0.0715594932
 40
0.0846358298
 40
0.0984077897
 40
0.1128590779
 40
0.1279703433
 40
0.1437196922
 40
0.1600829761
 40
0.1770338319
 40
0.2125828108
 40
0.2501233585
 40
0.2893879714
 40
0.3300905942
 40
0.3719302744
 40
0.4145945877
 40
0.4577629365
 40
0.5011097793
 40
0.5443078355
 40
0.5870312788
 40
0.6289589314
 40
0.6697774897
 40
0.709184814
 40
0.7468933401
 40
0.7826337208
 40
0.799688406
 40
0.8161604376
 40
0.8320232343
 40
0.8472521113
 40
0.8618248526
 40
0.8757215461
 40
0.8889253415
 40
0.9014225173
 40
0.913203164
 40
0.9242618885
 40
0.9345984389
 40
0.944219267
 40
0.953138585
 40
0.9613808629
 40
0.9689831546
 40
0.9759985596
 40
0.9824999922
 40
0.988583382
 40
0.9943693243
 40
1.0
 40
1.0
 40
1.0
 40
1.0
 10
12.5154287377
 20
9.8481250803
 30
0.0
 10
12.5162815035
 20
9.8489487889
 30
0.0
 10
12.5181380835
 20
9.8505821537
 30
0.0
 10
12.5212198234
 20
9.8529028936
 30
0.0
 10
12.5247001142
 20
9.8551847861
 30
0.0
 10
12.5285718555
 20
9.8574234605
 30
0.0
 10
12.5328277942
 20
9.8596148808
 30
0.0
 10
12.5374596761
 20
9.8617546911
 30
0.0
 10
12.5424583764
 20
9.8638387263
 30
0.0
 10
12.5478140196
 20
9.8658627244
 30
0.0
 10
12.5535159288
 20
9.8678226855
 30
0.0
 10
12.5595527128
 20
9.869714567
 30
0.0
 10
12.5659122566
 20
9.8715345598
 30
0.0
 10
12.5725817728
 20
9.8732789535
 30
0.0
 10
12.579547845
 20
9.8749441983
 30
0.0
 10
12.5893690267
 20
9.8770885054
 30
0.0
 10
12.6022859692
 20
9.8795329061
 30
0.0
 10
12.6184933628
 20
9.8820579115
 30
0.0
 10
12.6355143513
 20
9.8841981681
 30
0.0
 10
12.6532115168
 20
9.8859360783
 30
0.0
 10
12.6714421093
 20
9.8872572841
 30
0.0
 10
12.6900588939
 20
9.8881509059
 30
0.0
 10
12.7089114767
 20
9.8886095832
 30
0.0
 10
12.7278475175
 20
9.8886295409
 30
0.0
 10
12.7467139929
 20
9.8882106179
 30
0.0
 10
12.7653584498
 20
9.887356262
 30
0.0
 10
12.7836302669
 20
9.8860735082
 30
0.0
 10
12.8013818693
 20
9.8843729178
 30
0.0
 10
12.8184700521
 20
9.8822685355
 30
0.0
 10
12.8347568428
 20
9.8797776669
 30
0.0
 10
12.8477477293
 20
9.8773609728
 30
0.0
 10
12.8576338599
 20
9.8752380184
 30
0.0
 10
12.8646523237
 20
9.8735875025
 30
0.0
 10
12.871376742
 20
9.8718572571
 30
0.0
 10
12.8777935767
 20
9.8700507091
 30
0.0
 10
12.883889928
 20
9.8681716215
 30
0.0
 10
12.8896535524
 20
9.8662237351
 30
0.0
 10
12.895072926
 20
9.8642110639
 30
0.0
 10
12.9001372449
 20
9.8621376451
 30
0.0
 10
12.9048364683
 20
9.8600076328
 30
0.0
 10
12.9091613734
 20
9.8578253097
 30
0.0
 10
12.9131035105
 20
9.8555948474
 30
0.0
 10
12.9166553524
 20
9.8533205774
 30
0.0
 10
12.919810121
 20
9.8510065045
 30
0.0
 10
12.9225619227
 20
9.8486565761
 30
0.0
 10
12.9249054576
 20
9.8462742645
 30
0.0
 10
12.926835744
 20
9.8438625705
 30
0.0
 10
12.9283477187
 20
9.8414243516
 30
0.0
 10
12.9294353137
 20
9.8389623024
 30
0.0
 10
12.9300920178
 20
9.836482311
 30
0.0
 10
12.9302390962
 20
9.8348123713
 30
0.0
 10
12.9302390862
 20
9.8339904569
 30
0.0
  0
SPLINE
  5
3D7
100
AcDbEntity
  8
0
100
AcDbSpline
 62
7
  6
CONTINUOUS
 70
0
 71
3
 72
66
 73
62
 74
0
 42
0.0000001
 43
0.0000001
 44
0.0000000001
 40
0.0
 40
0.0
 40
0.0
 40
0.0
 40
0.0085742252
 40
0.0179226828
 40
0.028075312
 40
0.0390502964
 40
0.0508542578
 40
0.0634853249
 40
0.0769349151
 40
0.0911885677
 40
0.1062270448
 40
0.1220270428
 40
0.1385615398
 40
0.1558003631
 40
0.1737105673
 40
0.1922565736
 40
0.2114005395
 40
0.2311026156
 40
0.2720110412
 40
0.314630265
 40
0.3585859304
 40
0.4034876426
 40
0.4489338346
 40
0.4945165841
 40
0.5398263927
 40
0.5844569258
 40
0.6280098106
 40
0.6700994214
 40
0.6904803668
 40
0.7103592618
 40
0.729693814
 40
0.7484434627
 40
0.7665696479
 40
0.7840360862
 40
0.800808874
 40
0.8168568436
 40
0.8321519704
 40
0.8466696053
 40
0.860389044
 40
0.8732942514
 40
0.8853744927
 40
0.8966254882
 40
0.9070509876
 40
0.9166645719
 40
0.9254924408
 40
0.9335771906
 40
0.9409823501
 40
0.9477979288
 40
0.9510238654
 40
0.9541508738
 40
0.9571993763
 40
0.9601915696
 40
0.9631510449
 40
0.9661022844
 40
0.969069982
 40
0.9720784015
 40
0.9751507017
 40
0.9783084788
 40
0.984952798
 40
0.9921503667
 40
1.0
 40
1.0
 40
1.0
 40
1.0
 10
8.4579892692
 20
10.4979392769
 30
0.0
 10
8.4592283083
 20
10.4991360968
 30
0.0
 10
8.4619465573
 20
10.5015066662
 30
0.0
 10
8.4664900108
 20
10.5048575295
 30
0.0
 10
8.4716602237
 20
10.5081457571
 30
0.0
 10
8.4774449142
 20
10.5113638664
 30
0.0
 10
8.4838312286
 20
10.5145048894
 30
0.0
 10
8.4908043816
 20
10.5175614653
 30
0.0
 10
8.4983481112
 20
10.5205263495
 30
0.0
 10
8.5064446349
 20
10.5233924712
 30
0.0
 10
8.5150747587
 20
10.5261529252
 30
0.0
 10
8.5242179431
 20
10.5288009975
 30
0.0
 10
8.5338523406
 20
10.5313302982
 30
0.0
 10
8.5439548861
 20
10.5337346968
 30
0.0
 10
8.5545013679
 20
10.5360083273
 30
0.0
 10
8.5654664609
 20
10.5381456836
 30
0.0
 10
8.5768238436
 20
10.5401416325
 30
0.0
 10
8.5926524065
 20
10.5426390014
 30
0.0
 10
8.6132174721
 20
10.5453576364
 30
0.0
 10
8.6387023146
 20
10.5479509142
 30
0.0
 10
8.665049763
 20
10.549888877
 30
0.0
 10
8.6920065099
 20
10.5511525301
 30
0.0
 10
8.7193135745
 20
10.5517294232
 30
0.0
 10
8.7467084539
 20
10.5516139265
 30
0.0
 10
8.7739277876
 20
10.5508071453
 30
0.0
 10
8.8007100076
 20
10.5493170204
 30
0.0
 10
8.8267975652
 20
10.5471581525
 30
0.0
 10
8.8479710554
 20
10.5447950585
 30
0.0
 10
8.8643670274
 20
10.5425744957
 30
0.0
 10
8.8762048259
 20
10.5407746332
 30
0.0
 10
8.8876869352
 20
10.538826982
 30
0.0
 10
8.8987857697
 20
10.5367362107
 30
0.0
 10
8.9094746538
 20
10.5345073916
 30
0.0
 10
8.9197279317
 20
10.532145962
 30
0.0
 10
8.9295210056
 20
10.5296576362
 30
0.0
 10
8.9388304148
 20
10.5270484366
 30
0.0
 10
8.9476339153
 20
10.5243247252
 30
0.0
 10
8.9559105153
 20
10.5214930805
 30
0.0
 10
8.9636405527
 20
10.5185603163
 30
0.0
 10
8.9708057901
 20
10.5155335133
 30
0.0
 10
8.9773894385
 20
10.5124198549
 30
0.0
 10
8.9833762337
 20
10.5092265873
 30
0.0
 10
8.9887525402
 20
10.505961012
 30
0.0
 10
8.9935063221
 20
10.5026301366
 30
0.0
 10
8.9976270211
 20
10.4992405995
 30
0.0
 10
9.0011055516
 20
10.4957979948
 30
0.0
 10
9.0039329799
 20
10.4923080075
 30
0.0
 10
9.0057720182
 20
10.4893083257
 30
0.0
 10
9.0068829889
 20
10.4869043641
 30
0.0
 10
9.0075329122
 20
10.4851283811
 30
0.0
 10
9.0080139616
 20
10.4833478914
 30
0.0
 10
9.0083256116
 20
10.4815640799
 30
0.0
 10
9.0084673199
 20
10.4797783173
 30
0.0
 10
9.0084389673
 20
10.4779920676
 30
0.0
 10
9.0082406044
 20
10.4762067848
 30
0.0
 10
9.0078724209
 20
10.4744239389
 30
0.0
 10
9.0073349642
 20
10.472644788
 30
0.0
 10
9.00637764
 20
10.4702389457
 30
0.0
 10
9.0047293104
 20
10.4672311414
 30
0.0
 10
9.0021209998
 20
10.4637263555
 30
0.0
 10
9.0000420941
 20
10.4615221307
 30
0.0
 10
8.998907764
 20
10.4604264518
 30
0.0
  0
SPLINE
  5
3D8
100
AcDbEntity
  8
0
100
AcDbSpline
 62
7
  6
CONTINUOUS
 70
0
 71
3
 72
21
 73
17
 74
0
 42
0.0000001
 43
0.0000001
 44
0.0000000001
 40
0.0
 40
0.0
 40
0.0
 40
0.0
 40
0.1273175203
 40
0.253800042
 40
0.3167619342
 40
0.3795354977
 40
0.4421315044
 40
0.5045621463
 40
0.5668413435
 40
0.6289845249
 40
0.6910084556
 40
0.7529310973
 40
0.8147714461
 40
0.8765493353
 40
0.9382852242
 40
1.0
 40
1.0
 40
1.0
 40
1.0
 10
7.8519632247
 20
6.6568224421
 30
0.0
 10
7.8519632247
 20
6.6692956043
 30
0.0
 10
7.8531538809
 20
6.6941761781
 30
0.0
 10
7.8576505351
 20
6.7249339404
 30
0.0
 10
7.8630250908
 20
6.7490607217
 30
0.0
 10
7.8679264061
 20
6.7668566246
 30
0.0
 10
7.873692411
 20
6.7843363494
 30
0.0
 10
7.8803099813
 20
6.801460033
 30
0.0
 10
7.8877638223
 20
6.818188072
 30
0.0
 10
7.8960367606
 20
6.8344819318
 30
0.0
 10
7.9051097871
 20
6.8503039945
 30
0.0
 10
7.9149620277
 20
6.8656177542
 30
0.0
 10
7.9255706916
 20
6.8803878831
 30
0.0
 10
7.9369114542
 20
6.894580423
 30
0.0
 10
7.9489577672
 20
6.9081621461
 30
0.0
 10
7.9574420747
 20
6.9167901291
 30
0.0
 10
7.9617907816
 20
6.9209906587
 30
0.0
  0
SPLINE
  5
3D9
100
AcDbEntity
  8
0
100
AcDbSpline
 62
7
  6
CONTINUOUS
 70
0
 71
3
 72
15
 73
11
 74
0
 42
0.0000001
 43
0.0000001
 44
0.0000000001
 40
0.0
 40
0.0
 40
0.0
 40
0.0
 40
0.1266041939
 40
0.2527236062
 40
0.3783507882
 40
0.5035120483
 40
0.6282266016
 40
0.7525225645
 40
0.8764341014
 40
1.0
 40
1.0
 40
1.0
 40
1.0
 10
8.1764723876
 20
6.8072742419
 30
0.0
 10
8.1764723876
 20
6.8116711864
 30
0.0
 10
8.1767202296
 20
6.8204503119
 30
0.0
 10
8.1778391167
 20
6.8335495098
 30
0.0
 10
8.1797012532
 20
6.8465137551
 30
0.0
 10
8.1823004237
 20
6.8593007485
 30
0.0
 10
8.1856285759
 20
6.8718699143
 30
0.0
 10
8.1896750936
 20
6.8841810638
 30
0.0
 10
8.1944267721
 20
6.8961942874
 30
0.0
 10
8.1980599503
 20
6.9039901288
 30
0.0
 10
8.1999882448
 20
6.907823927
 30
0.0
  0
SPLINE
  5
3DA
100
AcDbEntity
  8
0
100
AcDbSpline
 62
7
  6
CONTINUOUS
 70
0
 71
3
 72
71
 73
67
 74
0
 42
0.0000001
 43
0.0000001
 44
0.0000000001
 40
0.0
 40
0.0
 40
0.0
 40
0.0
 40
0.0155842565
 40
0.0311159319
 40
0.0465952524
 40
0.0620238826
 40
0.0774034482
 40
0.0927362827
 40
0.1080251231
 40
0.1232731738
 40
0.1384840558
 40
0.1536617763
 40
0.1688106896
 40
0.1839354527
 40
0.199040978
 40
0.2141323822
 40
0.2292149324
 40
0.2442939901
 40
0.2593749544
 40
0.2744632041
 40
0.2895640403
 40
0.3046826298
 40
0.3198239504
 40
0.3349927394
 40
0.3501934439
 40
0.3654301774
 40
0.3807066784
 40
0.3960262752
 40
0.411391855
 40
0.4268058382
 40
0.4422701586
 40
0.4577862484
 40
0.4733550295
 40
0.4889769098
 40
0.5046517845
 40
0.5203790422
 40
0.5361575755
 40
0.5519857963
 40
0.5678616545
 40
0.5837826618
 40
0.5997459181
 40
0.6157481413
 40
0.6317856992
 40
0.6478546441
 40
0.6639507502
 40
0.6800695513
 40
0.6962063821
 40
0.7123564199
 40
0.7285147268
 40
0.7446762929
 40
0.76083608
 40
0.776989065
 40
0.7931302839
 40
0.8092548753
 40
0.8253581235
 40
0.8414355003
 40
0.8574827053
 40
0.8734957053
 40
0.889470771
 40
0.9054045131
 40
0.921293919
 40
0.9371363621
 40
0.9529297157
 40
0.968672092
 40
0.9843626215
 40
1.0
 40
1.0
 40
1.0
 40
1.0
 10
10.3566090232
 20
6.6038654014
 30
0.0
 10
10.3566090232
 20
6.6166757884
 30
0.0
 10
10.357235939
 20
6.6422578829
 30
0.0
 10
10.3600658801
 20
6.6804698671
 30
0.0
 10
10.3647773367
 20
6.7183679436
 30
0.0
 10
10.3713587637
 20
6.7558593434
 30
0.0
 10
10.3797946
 20
6.7928542262
 30
0.0
 10
10.3900645017
 20
6.8292632442
 30
0.0
 10
10.4021438559
 20
6.8649986639
 30
0.0
 10
10.4160036211
 20
6.8999742979
 30
0.0
 10
10.4316104565
 20
6.9341058007
 30
0.0
 10
10.4489267933
 20
6.9673108503
 30
0.0
 10
10.4679109336
 20
6.9995093506
 30
0.0
 10
10.4885171474
 20
7.030623626
 30
0.0
 10
10.5106957823
 20
7.0605786104
 30
0.0
 10
10.5343933817
 20
7.0893020312
 30
0.0
 10
10.5595528166
 20
7.1167245837
 30
0.0
 10
10.5861134061
 20
7.1427801174
 30
0.0
 10
10.6140110794
 20
7.1674057897
 30
0.0
 10
10.6431785369
 20
7.190542214
 30
0.0
 10
10.6735454133
 20
7.2121336048
 30
0.0
 10
10.7050384496
 20
7.2321279127
 30
0.0
 10
10.7375816716
 20
7.2504769507
 30
0.0
 10
10.7710965763
 20
7.2671365069
 30
0.0
 10
10.8055023147
 20
7.2820664698
 30
0.0
 10
10.8407158959
 20
7.2952309174
 30
0.0
 10
10.8766523946
 20
7.3065981906
 30
0.0
 10
10.9132251559
 20
7.3161409709
 30
0.0
 10
10.9503460052
 20
7.3238363422
 30
0.0
 10
10.9879254609
 20
7.329665845
 30
0.0
 10
11.0258729504
 20
7.3336155146
 30
0.0
 10
11.064097026
 20
7.3356759309
 30
0.0
 10
11.1025055885
 20
7.3358422358
 30
0.0
 10
11.1410061107
 20
7.3341141275
 30
0.0
 10
11.179505858
 20
7.3304958624
 30
0.0
 10
11.2179121103
 20
7.3249962421
 30
0.0
 10
11.2561323838
 20
7.3176285916
 30
0.0
 10
11.2940746502
 20
7.308410723
 30
0.0
 10
11.3316475602
 20
7.2973649061
 30
0.0
 10
11.3687606657
 20
7.2845178162
 30
0.0
 10
11.4053246316
 20
7.2699004512
 30
0.0
 10
11.4412514501
 20
7.2535480605
 30
0.0
 10
11.47645465
 20
7.235500059
 30
0.0
 10
11.510849503
 20
7.2157999334
 30
0.0
 10
11.5443532246
 20
7.1944951354
 30
0.0
 10
11.5768851772
 20
7.1716369778
 30
0.0
 10
11.6083670704
 20
7.1472805171
 30
0.0
 10
11.6387231377
 20
7.121484404
 30
0.0
 10
11.6678803189
 20
7.0943107456
 30
0.0
 10
11.6957684341
 20
7.0658249567
 30
0.0
 10
11.7223203515
 20
7.0360956037
 30
0.0
 10
11.7474721466
 20
7.0051942401
 30
0.0
 10
11.7711632601
 20
6.9731952394
 30
0.0
 10
11.7933366565
 20
6.9401756248
 30
0.0
 10
11.8139389433
 20
6.9062148699
 30
0.0
 10
11.8329205012
 20
6.8713947106
 30
0.0
 10
11.8502356019
 20
6.8357989504
 30
0.0
 10
11.8658425179
 20
6.7995132599
 30
0.0
 10
11.8797036212
 20
6.7626249736
 30
0.0
 10
11.8917854826
 20
6.7252228781
 30
0.0
 10
11.9020589464
 20
6.6873970235
 30
0.0
 10
11.9104992606
 20
6.6492384203
 30
0.0
 10
11.9170859254
 20
6.6108391093
 30
0.0
 10
11.9218032011
 20
6.5722910175
 30
0.0
 10
11.924639361
 20
6.5336884355
 30
0.0
 10
11.925272693
 20
6.5079322601
 30
0.0
 10
11.925272693
 20
6.4950782064
 30
0.0
  0
SPLINE
  5
3DB
100
AcDbEntity
  8
0
100
AcDbSpline
 62
7
  6
CONTINUOUS
 70
0
 71
3
 72
15
 73
11
 74
0
 42
0.0000001
 43
0.0000001
 44
0.0000000001
 40
0.0
 40
0.0
 40
0.0
 40
0.0
 40
0.1098906965
 40
0.2214019099
 40
0.3360754625
 40
0.4553197512
 40
0.5803742766
 40
0.7122967005
 40
0.8519481011
 40
1.0
 40
1.0
 40
1.0
 40
1.0
 10
9.0697609138
 20
11.5126760189
 30
0.0
 10
9.0697609211
 20
11.513272801
 30
0.0
 10
9.0698375755
 20
11.5144765171
 30
0.0
 10
9.0701812891
 20
11.5162734289
 30
0.0
 10
9.0707526509
 20
11.5180646993
 30
0.0
 10
9.0715502216
 20
11.5198476145
 30
0.0
 10
9.0725721822
 20
11.5216205115
 30
0.0
 10
9.0738168869
 20
11.5233817966
 30
0.0
 10
9.075282379
 20
11.5251298266
 30
0.0
 10
9.0763722417
 20
11.526251396
 30
0.0
 10
9.0769505394
 20
11.5268099887
 30
0.0
  0
SPLINE
  5
3DC
100
AcDbEntity
  8
0
100
AcDbSpline
 62
7
  6
CONTINUOUS
 70
0
 71
3
 72
66
 73
62
 74
0
 42
0.0000001
 43
0.0000001
 44
0.0000000001
 40
0.0
 40
0.0
 40
0.0
 40
0.0
 40
0.0085742252
 40
0.0179226828
 40
0.028075312
 40
0.0390502964
 40
0.0508542578
 40
0.0634853249
 40
0.0769349151
 40
0.0911885677
 40
0.1062270448
 40
0.1220270428
 40
0.1385615398
 40
0.1558003631
 40
0.1737105673
 40
0.1922565736
 40
0.2114005395
 40
0.2311026156
 40
0.2720110412
 40
0.314630265
 40
0.3585859304
 40
0.4034876426
 40
0.4489338346
 40
0.4945165841
 40
0.5398263927
 40
0.5844569258
 40
0.6280098106
 40
0.6700994214
 40
0.6904803668
 40
0.7103592618
 40
0.729693814
 40
0.7484434627
 40
0.7665696479
 40
0.7840360862
 40
0.800808874
 40
0.8168568436
 40
0.8321519704
 40
0.8466696053
 40
0.860389044
 40
0.8732942514
 40
0.8853744927
 40
0.8966254882
 40
0.9070509876
 40
0.9166645719
 40
0.9254924408
 40
0.9335771906
 40
0.9409823501
 40
0.9477979288
 40
0.9510238654
 40
0.9541508738
 40
0.9571993763
 40
0.9601915696
 40
0.9631510449
 40
0.9661022844
 40
0.969069982
 40
0.9720784015
 40
0.9751507017
 40
0.9783084788
 40
0.984952798
 40
0.9921503667
 40
1.0
 40
1.0
 40
1.0
 40
1.0
 10
13.001092236
 20
10.886240024
 30
0.0
 10
13.0023312751
 20
10.8874368439
 30
0.0
 10
13.0050495241
 20
10.8898074133
 30
0.0
 10
13.0095929776
 20
10.8931582766
 30
0.0
 10
13.0147631905
 20
10.8964465043
 30
0.0
 10
13.020547881
 20
10.8996646135
 30
0.0
 10
13.0269341954
 20
10.9028056366
 30
0.0
 10
13.0339073484
 20
10.9058622124
 30
0.0
 10
13.0414510779
 20
10.9088270966
 30
0.0
 10
13.0495476017
 20
10.9116932183
 30
0.0
 10
13.0581777255
 20
10.9144536723
 30
0.0
 10
13.0673209099
 20
10.9171017446
 30
0.0
 10
13.0769553074
 20
10.9196310454
 30
0.0
 10
13.0870578529
 20
10.9220354439
 30
0.0
 10
13.0976043347
 20
10.9243090744
 30
0.0
 10
13.1085694277
 20
10.9264464308
 30
0.0
 10
13.1199268104
 20
10.9284423797
 30
0.0
 10
13.1357553733
 20
10.9309397485
 30
0.0
 10
13.1563204389
 20
10.9336583836
 30
0.0
 10
13.1818052814
 20
10.9362516613
 30
0.0
 10
13.2081527298
 20
10.9381896242
 30
0.0
 10
13.2351094766
 20
10.9394532773
 30
0.0
 10
13.2624165413
 20
10.9400301703
 30
0.0
 10
13.2898114207
 20
10.9399146736
 30
0.0
 10
13.3170307544
 20
10.9391078924
 30
0.0
 10
13.3438129744
 20
10.9376177676
 30
0.0
 10
13.369900532
 20
10.9354588997
 30
0.0
 10
13.3910740222
 20
10.9330958057
 30
0.0
 10
13.4074699942
 20
10.9308752428
 30
0.0
 10
13.4193077927
 20
10.9290753803
 30
0.0
 10
13.430789902
 20
10.9271277291
 30
0.0
 10
13.4418887365
 20
10.9250369578
 30
0.0
 10
13.4525776206
 20
10.9228081388
 30
0.0
 10
13.4628308985
 20
10.9204467091
 30
0.0
 10
13.4726239723
 20
10.9179583833
 30
0.0
 10
13.4819333816
 20
10.9153491837
 30
0.0
 10
13.4907368821
 20
10.9126254723
 30
0.0
 10
13.4990134821
 20
10.9097938276
 30
0.0
 10
13.5067435195
 20
10.9068610634
 30
0.0
 10
13.5139087569
 20
10.9038342604
 30
0.0
 10
13.5204924053
 20
10.900720602
 30
0.0
 10
13.5264792005
 20
10.8975273344
 30
0.0
 10
13.531855507
 20
10.8942617591
 30
0.0
 10
13.5366092888
 20
10.8909308837
 30
0.0
 10
13.5407299879
 20
10.8875413467
 30
0.0
 10
13.5442085184
 20
10.8840987419
 30
0.0
 10
13.5470359467
 20
10.8806087546
 30
0.0
 10
13.548874985
 20
10.8776090728
 30
0.0
 10
13.5499859557
 20
10.8752051112
 30
0.0
 10
13.550635879
 20
10.8734291282
 30
0.0
 10
13.5511169284
 20
10.8716486385
 30
0.0
 10
13.5514285784
 20
10.869864827
 30
0.0
 10
13.5515702866
 20
10.8680790644
 30
0.0
 10
13.5515419341
 20
10.8662928147
 30
0.0
 10
13.5513435712
 20
10.8645075319
 30
0.0
 10
13.5509753877
 20
10.8627246861
 30
0.0
 10
13.5504379309
 20
10.8609455351
 30
0.0
 10
13.5494806068
 20
10.8585396928
 30
0.0
 10
13.5478322772
 20
10.8555318885
 30
0.0
 10
13.5452239666
 20
10.8520271027
 30
0.0
 10
13.5431450609
 20
10.8498228778
 30
0.0
 10
13.5420107308
 20
10.848727199
 30
0.0
  0
SPLINE
  5
3DD
100
AcDbEntity
  8
0
100
AcDbSpline
 62
7
  6
CONTINUOUS
 70
0
 71
3
 72
15
 73
11
 74
0
 42
0.0000001
 43
0.0000001
 44
0.0000000001
 40
0.0
 40
0.0
 40
0.0
 40
0.0
 40
0.1266593399
 40
0.2528076439
 40
0.3784517012
 40
0.5036121374
 40
0.6283124759
 40
0.7525845634
 40
0.8764659164
 40
1.0
 40
1.0
 40
1.0
 40
1.0
 10
10.0223987076
 20
6.5063022301
 30
0.0
 10
10.0223987076
 20
6.4974902662
 30
0.0
 10
10.0218830093
 20
6.4798974018
 30
0.0
 10
10.0195540297
 20
6.4536560681
 30
0.0
 10
10.0156788904
 20
6.4277024565
 30
0.0
 10
10.0102710297
 20
6.4021274187
 30
0.0
 10
10.003348863
 20
6.3770188778
 30
0.0
 10
9.9949360816
 20
6.3524633312
 30
0.0
 10
9.9850621597
 20
6.328546711
 30
0.0
 10
9.9775170429
 20
6.3130607149
 30
0.0
 10
9.9735140585
 20
6.3054553145
 30
0.0
  0
SPLINE
  5
3DE
100
AcDbEntity
  8
0
100
AcDbSpline
 62
7
  6
CONTINUOUS
 70
0
 71
3
 72
15
 73
11
 74
0
 42
0.0000001
 43
0.0000001
 44
0.0000000001
 40
0.0
 40
0.0
 40
0.0
 40
0.0
 40
0.1098906965
 40
0.2214019099
 40
0.3360754625
 40
0.4553197512
 40
0.5803742766
 40
0.7122967005
 40
0.8519481011
 40
1.0
 40
1.0
 40
1.0
 40
1.0
 10
12.5082391121
 20
9.8339911106
 30
0.0
 10
12.5082391194
 20
9.8345878926
 30
0.0
 10
12.5083157738
 20
9.8357916087
 30
0.0
 10
12.5086594874
 20
9.8375885206
 30
0.0
 10
12.5092308492
 20
9.839379791
 30
0.0
 10
12.5100284199
 20
9.8411627061
 30
0.0
 10
12.5110503805
 20
9.8429356031
 30
0.0
 10
12.5122950851
 20
9.8446968882
 30
0.0
 10
12.5137605773
 20
9.8464449182
 30
0.0
 10
12.51485044
 20
9.8475664876
 30
0.0
 10
12.5154287377
 20
9.8481250803
 30
0.0
  0
SPLINE
  5
3DF
100
AcDbEntity
  8
0
100
AcDbSpline
 62
7
  6
CONTINUOUS
 70
0
 71
3
 72
23
 73
19
 74
0
 42
0.0000001
 43
0.0000001
 44
0.0000000001
 40
0.0
 40
0.0
 40
0.0
 40
0.0
 40
0.0749619582
 40
0.1455674926
 40
0.2121588364
 40
0.275161539
 40
0.3350966021
 40
0.3925814523
 40
0.4483277544
 40
0.5031220258
 40
0.5577967814
 40
0.6131904148
 40
0.6701058916
 40
0.7292771639
 40
0.7913509475
 40
0.8568784947
 40
0.9263115463
 40
1.0
 40
1.0
 40
1.0
 40
1.0
 10
8.4586868452
 20
10.4597651852
 30
0.0
 10
8.457878328
 20
10.4605176034
 30
0.0
 10
8.4563531159
 20
10.4620282068
 30
0.0
 10
8.4542951439
 20
10.4643849631
 30
0.0
 10
8.4525402118
 20
10.466760362
 30
0.0
 10
8.4510910181
 20
10.4691523996
 30
0.0
 10
8.4499498594
 20
10.4715588881
 30
0.0
 10
8.4491194507
 20
10.4739774381
 30
0.0
 10
8.4486019583
 20
10.4764048749
 30
0.0
 10
8.448399381
 20
10.478837395
 30
0.0
 10
8.4485123793
 20
10.481270562
 30
0.0
 10
8.4489406152
 20
10.4836998772
 30
0.0
 10
8.4496824388
 20
10.4861212749
 30
0.0
 10
8.4507355617
 20
10.4885314663
 30
0.0
 10
8.4520975789
 20
10.4909278224
 30
0.0
 10
8.4537660112
 20
10.4933082517
 30
0.0
 10
8.4557382423
 20
10.4956704313
 30
0.0
 10
8.4572083765
 20
10.4971849924
 30
0.0
 10
8.4579892692
 20
10.4979392769
 30
0.0
  0
SPLINE
  5
3E0
100
AcDbEntity
  8
0
100
AcDbSpline
 62
7
  6
CONTINUOUS
 70
0
 71
3
 72
50
 73
46
 74
0
 42
0.0000001
 43
0.0000001
 44
0.0000000001
 40
0.0
 40
0.0
 40
0.0
 40
0.0
 40
0.0080802849
 40
0.0167276254
 40
0.0259554341
 40
0.0357711358
 40
0.0461778214
 40
0.0571743762
 40
0.068756734
 40
0.0809177125
 40
0.0936480089
 40
0.1069358952
 40
0.1207680365
 40
0.1351291381
 40
0.1653690708
 40
0.1975076706
 40
0.2313767245
 40
0.2667922757
 40
0.3035570735
 40
0.3414627455
 40
0.3802918024
 40
0.4198195411
 40
0.4598158871
 40
0.5000472015
 40
0.540278069
 40
0.580273078
 40
0.6197985996
 40
0.6586245763
 40
0.6965263289
 40
0.7332863991
 40
0.768696453
 40
0.802559286
 40
0.8346909963
 40
0.8649234362
 40
0.8931071172
 40
0.9063908974
 40
0.9191168537
 40
0.9312735525
 40
0.9428514082
 40
0.9538436003
 40
0.9642457697
 40
0.9740570348
 40
0.9832801685
 40
0.9919233999
 40
1.0
 40
1.0
 40
1.0
 40
1.0
 10
8.9298167762
 20
10.4288453646
 30
0.0
 10
8.9289551639
 20
10.429557894
 30
0.0
 10
8.9271192333
 20
10.4309704837
 30
0.0
 10
8.9241469697
 20
10.432989445
 30
0.0
 10
8.9208688885
 20
10.4349761494
 30
0.0
 10
8.9172901514
 20
10.43692768
 30
0.0
 10
8.9134160606
 20
10.4388410065
 30
0.0
 10
8.9092525826
 20
10.4407133217
 30
0.0
 10
8.9048060688
 20
10.4425416042
 30
0.0
 10
8.90008341
 20
10.4443231231
 30
0.0
 10
8.8950918994
 20
10.4460549764
 30
0.0
 10
8.8898393119
 20
10.4477345427
 30
0.0
 10
8.8843338066
 20
10.4493591135
 30
0.0
 10
8.8765324512
 20
10.4514851869
 30
0.0
 10
8.8662071667
 20
10.4539742319
 30
0.0
 10
8.8531599022
 20
10.4566554264
 30
0.0
 10
8.8393320206
 20
10.4590628168
 30
0.0
 10
8.8248099791
 20
10.4611810902
 30
0.0
 10
8.8096844596
 20
10.4629967139
 30
0.0
 10
8.7940500945
 20
10.4644981231
 30
0.0
 10
8.7780047476
 20
10.4656757577
 30
0.0
 10
8.7616489077
 20
10.4665221269
 30
0.0
 10
8.745085037
 20
10.4670318496
 30
0.0
 10
8.7284169191
 20
10.4672016865
 30
0.0
 10
8.7117489994
 20
10.4670305583
 30
0.0
 10
8.695185722
 20
10.4665195525
 30
0.0
 10
8.6788308667
 20
10.4656719167
 30
0.0
 10
8.6627868898
 20
10.4644930398
 30
0.0
 10
8.6471542695
 20
10.4629904211
 30
0.0
 10
8.6320308651
 20
10.4611736265
 30
0.0
 10
8.6175112721
 20
10.4590542353
 30
0.0
 10
8.6036862381
 20
10.4566457633
 30
0.0
 10
8.5906419193
 20
10.4539636128
 30
0.0
 10
8.5784597247
 20
10.451024868
 30
0.0
 10
8.5689090485
 20
10.4483272507
 30
0.0
 10
8.561766332
 20
10.4460420971
 30
0.0
 10
8.5567768343
 20
10.4443097782
 30
0.0
 10
8.5520562318
 20
10.4425279584
 30
0.0
 10
8.5476118491
 20
10.4406992729
 30
0.0
 10
8.5434505175
 20
10.4388266958
 30
0.0
 10
8.5395786666
 20
10.4369129937
 30
0.0
 10
8.5360021802
 20
10.4349612705
 30
0.0
 10
8.5327264208
 20
10.4329742622
 30
0.0
 10
8.5297563877
 20
10.4309550813
 30
0.0
 10
8.5279220389
 20
10.4295421986
 30
0.0
 10
8.5270611918
 20
10.4288295441
 30
0.0
  0
SPLINE
  5
3E1
100
AcDbEntity
  8
0
100
AcDbSpline
 62
7
  6
CONTINUOUS
 70
0
 71
3
 72
56
 73
52
 74
0
 42
0.0000001
 43
0.0000001
 44
0.0000000001
 40
0.0
 40
0.0
 40
0.0
 40
0.0
 40
0.0081223388
 40
0.0169170819
 40
0.0264090949
 40
0.0366148108
 40
0.0475421495
 40
0.0591919395
 40
0.0715594932
 40
0.0846358298
 40
0.0984077897
 40
0.1128590779
 40
0.1279703433
 40
0.1437196922
 40
0.1600829761
 40
0.1770338319
 40
0.2125828108
 40
0.2501233585
 40
0.2893879714
 40
0.3300905942
 40
0.3719302744
 40
0.4145945877
 40
0.4577629365
 40
0.5011097793
 40
0.5443078355
 40
0.5870312788
 40
0.6289589314
 40
0.6697774897
 40
0.709184814
 40
0.7468933401
 40
0.7826337208
 40
0.799688406
 40
0.8161604376
 40
0.8320232343
 40
0.8472521113
 40
0.8618248526
 40
0.8757215461
 40
0.8889253415
 40
0.9014225173
 40
0.913203164
 40
0.9242618885
 40
0.9345984389
 40
0.944219267
 40
0.953138585
 40
0.9613808629
 40
0.9689831546
 40
0.9759985596
 40
0.9824999922
 40
0.988583382
 40
0.9943693243
 40
1.0
 40
1.0
 40
1.0
 40
1.0
 10
9.0769505394
 20
11.5268099887
 30
0.0
 10
9.0778033052
 20
11.5276336972
 30
0.0
 10
9.0796598852
 20
11.529267062
 30
0.0
 10
9.0827416251
 20
11.531587802
 30
0.0
 10
9.0862219159
 20
11.5338696944
 30
0.0
 10
9.0900936572
 20
11.5361083689
 30
0.0
 10
9.0943495959
 20
11.5382997891
 30
0.0
 10
9.0989814778
 20
11.5404395995
 30
0.0
 10
9.1039801782
 20
11.5425236346
 30
0.0
 10
9.1093358213
 20
11.5445476327
 30
0.0
 10
9.1150377305
 20
11.5465075939
 30
0.0
 10
9.1210745145
 20
11.5483994754
 30
0.0
 10
9.1274340583
 20
11.5502194682
 30
0.0
 10
9.1341035745
 20
11.5519638619
 30
0.0
 10
9.1410696467
 20
11.5536291067
 30
0.0
 10
9.1508908284
 20
11.5557734138
 30
0.0
 10
9.163807771
 20
11.5582178145
 30
0.0
 10
9.1800151645
 20
11.5607428199
 30
0.0
 10
9.1970361531
 20
11.5628830765
 30
0.0
 10
9.2147333186
 20
11.5646209866
 30
0.0
 10
9.232963911
 20
11.5659421924
 30
0.0
 10
9.2515806956
 20
11.5668358143
 30
0.0
 10
9.2704332784
 20
11.5672944915
 30
0.0
 10
9.2893693193
 20
11.5673144492
 30
0.0
 10
9.3082357946
 20
11.5668955262
 30
0.0
 10
9.3268802515
 20
11.5660411704
 30
0.0
 10
9.3451520686
 20
11.5647584166
 30
0.0
 10
9.3629036711
 20
11.5630578261
 30
0.0
 10
9.3799918538
 20
11.5609534438
 30
0.0
 10
9.3962786445
 20
11.5584625752
 30
0.0
 10
9.409269531
 20
11.5560458812
 30
0.0
 10
9.4191556616
 20
11.5539229268
 30
0.0
 10
9.4261741254
 20
11.5522724108
 30
0.0
 10
9.4328985437
 20
11.5505421655
 30
0.0
 10
9.4393153784
 20
11.5487356174
 30
0.0
 10
9.4454117298
 20
11.5468565298
 30
0.0
 10
9.4511753541
 20
11.5449086434
 30
0.0
 10
9.4565947278
 20
11.5428959723
 30
0.0
 10
9.4616590466
 20
11.5408225534
 30
0.0
 10
9.46635827
 20
11.5386925412
 30
0.0
 10
9.4706831751
 20
11.536510218
 30
0.0
 10
9.4746253122
 20
11.5342797557
 30
0.0
 10
9.4781771541
 20
11.5320054857
 30
0.0
 10
9.4813319228
 20
11.5296914129
 30
0.0
 10
9.4840837245
 20
11.5273414845
 30
0.0
 10
9.4864272594
 20
11.5249591729
 30
0.0
 10
9.4883575457
 20
11.5225474789
 30
0.0
 10
9.4898695204
 20
11.5201092599
 30
0.0
 10
9.4909571154
 20
11.5176472107
 30
0.0
 10
9.4916138195
 20
11.5151672193
 30
0.0
 10
9.4917608979
 20
11.5134972796
 30
0.0
 10
9.4917608879
 20
11.5126753653
 30
0.0
  0
SPLINE
  5
3E2
100
AcDbEntity
  8
0
100
AcDbSpline
 62
7
  6
CONTINUOUS
 70
0
 71
3
 72
23
 73
19
 74
0
 42
0.0000001
 43
0.0000001
 44
0.0000000001
 40
0.0
 40
0.0
 40
0.0
 40
0.0
 40
0.0749619582
 40
0.1455674926
 40
0.2121588364
 40
0.275161539
 40
0.3350966021
 40
0.3925814523
 40
0.4483277544
 40
0.5031220258
 40
0.5577967814
 40
0.6131904148
 40
0.6701058916
 40
0.7292771639
 40
0.7913509475
 40
0.8568784947
 40
0.9263115463
 40
1.0
 40
1.0
 40
1.0
 40
1.0
 10
13.001789812
 20
10.8480659323
 30
0.0
 10
13.0009812948
 20
10.8488183505
 30
0.0
 10
12.9994560827
 20
10.850328954
 30
0.0
 10
12.9973981107
 20
10.8526857102
 30
0.0
 10
12.9956431786
 20
10.8550611091
 30
0.0
 10
12.9941939849
 20
10.8574531468
 30
0.0
 10
12.9930528262
 20
10.8598596352
 30
0.0
 10
12.9922224175
 20
10.8622781852
 30
0.0
 10
12.9917049251
 20
10.864705622
 30
0.0
 10
12.9915023478
 20
10.8671381421
 30
0.0
 10
12.9916153461
 20
10.8695713092
 30
0.0
 10
12.992043582
 20
10.8720006243
 30
0.0
 10
12.9927854056
 20
10.874422022
 30
0.0
 10
12.9938385285
 20
10.8768322134
 30
0.0
 10
12.9952005457
 20
10.8792285695
 30
0.0
 10
12.996868978
 20
10.8816089989
 30
0.0
 10
12.9988412091
 20
10.8839711784
 30
0.0
 10
13.0003113433
 20
10.8854857395
 30
0.0
 10
13.001092236
 20
10.886240024
 30
0.0
  0
SPLINE
  5
3E3
100
AcDbEntity
  8
0
100
AcDbSpline
 62
7
  6
CONTINUOUS
 70
0
 71
3
 72
50
 73
46
 74
0
 42
0.0000001
 43
0.0000001
 44
0.0000000001
 40
0.0
 40
0.0
 40
0.0
 40
0.0
 40
0.0080802849
 40
0.0167276254
 40
0.0259554341
 40
0.0357711358
 40
0.0461778214
 40
0.0571743762
 40
0.068756734
 40
0.0809177125
 40
0.0936480089
 40
0.1069358952
 40
0.1207680365
 40
0.1351291381
 40
0.1653690708
 40
0.1975076706
 40
0.2313767245
 40
0.2667922757
 40
0.3035570735
 40
0.3414627455
 40
0.3802918024
 40
0.4198195411
 40
0.4598158871
 40
0.5000472015
 40
0.540278069
 40
0.580273078
 40
0.6197985996
 40
0.6586245763
 40
0.6965263289
 40
0.7332863991
 40
0.768696453
 40
0.802559286
 40
0.8346909963
 40
0.8649234362
 40
0.8931071172
 40
0.9063908974
 40
0.9191168537
 40
0.9312735525
 40
0.9428514082
 40
0.9538436003
 40
0.9642457697
 40
0.9740570348
 40
0.9832801685
 40
0.9919233999
 40
1.0
 40
1.0
 40
1.0
 40
1.0
 10
13.472919743
 20
10.8171461117
 30
0.0
 10
13.4720581307
 20
10.8178586412
 30
0.0
 10
13.4702222001
 20
10.8192712309
 30
0.0
 10
13.4672499364
 20
10.8212901921
 30
0.0
 10
13.4639718553
 20
10.8232768966
 30
0.0
 10
13.4603931182
 20
10.8252284272
 30
0.0
 10
13.4565190274
 20
10.8271417536
 30
0.0
 10
13.4523555494
 20
10.8290140688
 30
0.0
 10
13.4479090356
 20
10.8308423513
 30
0.0
 10
13.4431863767
 20
10.8326238702
 30
0.0
 10
13.4381948662
 20
10.8343557235
 30
0.0
 10
13.4329422787
 20
10.8360352898
 30
0.0
 10
13.4274367734
 20
10.8376598606
 30
0.0
 10
13.419635418
 20
10.8397859341
 30
0.0
 10
13.4093101335
 20
10.842274979
 30
0.0
 10
13.396262869
 20
10.8449561736
 30
0.0
 10
13.3824349874
 20
10.847363564
 30
0.0
 10
13.3679129459
 20
10.8494818373
 30
0.0
 10
13.3527874264
 20
10.8512974611
 30
0.0
 10
13.3371530613
 20
10.8527988702
 30
0.0
 10
13.3211077144
 20
10.8539765048
 30
0.0
 10
13.3047518745
 20
10.854822874
 30
0.0
 10
13.2881880038
 20
10.8553325967
 30
0.0
 10
13.2715198859
 20
10.8555024336
 30
0.0
 10
13.2548519662
 20
10.8553313054
 30
0.0
 10
13.2382886888
 20
10.8548202997
 30
0.0
 10
13.2219338335
 20
10.8539726638
 30
0.0
 10
13.2058898566
 20
10.8527937869
 30
0.0
 10
13.1902572363
 20
10.8512911682
 30
0.0
 10
13.1751338319
 20
10.8494743737
 30
0.0
 10
13.1606142389
 20
10.8473549824
 30
0.0
 10
13.1467892049
 20
10.8449465105
 30
0.0
 10
13.1337448861
 20
10.8422643599
 30
0.0
 10
13.1215626915
 20
10.8393256152
 30
0.0
 10
13.1120120153
 20
10.8366279978
 30
0.0
 10
13.1048692987
 20
10.8343428442
 30
0.0
 10
13.0998798011
 20
10.8326105253
 30
0.0
 10
13.0951591986
 20
10.8308287056
 30
0.0
 10
13.0907148159
 20
10.82900002
 30
0.0
 10
13.0865534843
 20
10.8271274429
 30
0.0
 10
13.0826816334
 20
10.8252137408
 30
0.0
 10
13.079105147
 20
10.8232620176
 30
0.0
 10
13.0758293876
 20
10.8212750093
 30
0.0
 10
13.0728593545
 20
10.8192558284
 30
0.0
 10
13.0710250057
 20
10.8178429457
 30
0.0
 10
13.0701641586
 20
10.8171302913
 30
0.0
  0
SPLINE
  5
3E4
100
AcDbEntity
  8
0
100
AcDbSpline
 62
7
  6
CONTINUOUS
 70
0
 71
3
 72
18
 73
14
 74
0
 42
0.0000001
 43
0.0000001
 44
0.0000000001
 40
0.0
 40
0.0
 40
0.0
 40
0.0
 40
0.1504683897
 40
0.2917144302
 40
0.4244424337
 40
0.4879098403
 40
0.5496094316
 40
0.6682625858
 40
0.7817882724
 40
0.8371379912
 40
0.8918078094
 40
0.9460192717
 40
1.0
 40
1.0
 40
1.0
 40
1.0
 10
14.2374773669
 20
7.7819780379
 30
0.0
 10
14.2350036445
 20
7.7795886054
 30
0.0
 10
14.2300595689
 20
7.7751053402
 30
0.0
 10
14.222404184
 20
7.7691308571
 30
0.0
 10
14.2159379189
 20
7.764905385
 30
0.0
 10
14.210781634
 20
7.7620440329
 30
0.0
 10
14.2057770451
 20
7.7595874659
 30
0.0
 10
14.1995197217
 20
7.7571051972
 30
0.0
 10
14.1931510919
 20
7.7554112914
 30
0.0
 10
14.1881069493
 20
7.7545768499
 30
0.0
 10
14.18436854
 20
7.7542065301
 30
0.0
 10
14.1806452558
 20
7.754086934
 30
0.0
 10
14.1781715971
 20
7.754174444
 30
0.0
 10
14.1769407055
 20
7.7542598132
 30
0.0
  0
SPLINE
  5
3E5
100
AcDbEntity
  8
0
100
AcDbSpline
 62
7
  6
CONTINUOUS
 70
0
 71
3
 72
83
 73
79
 74
0
 42
0.0000001
 43
0.0000001
 44
0.0000000001
 40
0.0
 40
0.0
 40
0.0
 40
0.0
 40
0.0027164276
 40
0.0054532334
 40
0.0082303009
 40
0.0110665998
 40
0.0139798088
 40
0.0169861218
 40
0.0201000928
 40
0.0233346095
 40
0.026700976
 40
0.0302089312
 40
0.0338668524
 40
0.0376818289
 40
0.0416598023
 40
0.0458057443
 40
0.0501236753
 40
0.0546168743
 40
0.0592878974
 40
0.0641386698
 40
0.0691706105
 40
0.0743845883
 40
0.0797810847
 40
0.0853601631
 40
0.0970640219
 40
0.1094907699
 40
0.1226300177
 40
0.1364676887
 40
0.150986507
 40
0.1661664045
 40
0.1819848426
 40
0.1984170703
 40
0.2154363375
 40
0.2330140708
 40
0.2511200494
 40
0.2697225561
 40
0.2887885105
 40
0.3082835895
 40
0.3281723378
 40
0.3484182894
 40
0.3689840785
 40
0.3898315425
 40
0.4109218226
 40
0.453671794
 40
0.496913762
 40
0.5403220095
 40
0.5835692233
 40
0.6263296343
 40
0.6474270493
 40
0.6682829087
 40
0.6888583326
 40
0.7091151299
 40
0.7290159025
 40
0.7485241591
 40
0.7676044182
 40
0.7862223163
 40
0.8043447241
 40
0.821939872
 40
0.8389774975
 40
0.8554289822
 40
0.8712675108
 40
0.8864682552
 40
0.9010085951
 40
0.9148683895
 40
0.9280302787
 40
0.9404800721
 40
0.9464347343
 40
0.9522077813
 40
0.9577985496
 40
0.9632067643
 40
0.968432455
 40
0.973476048
 40
0.978338406
 40
0.9830208506
 40
0.98752539
 40
0.9918546103
 40
0.9960115929
 40
1.0
 40
1.0
 40
1.0
 40
1.0
 10
14.2980140283
 20
9.5000665589
 30
0.0
 10
14.2996471066
 20
9.4999532959
 30
0.0
 10
14.302917149
 20
9.4995780785
 30
0.0
 10
14.3077805714
 20
9.4985740652
 30
0.0
 10
14.3126072559
 20
9.4971290844
 30
0.0
 10
14.3173937164
 20
9.4952444016
 30
0.0
 10
14.3221375347
 20
9.492921837
 30
0.0
 10
14.3268362407
 20
9.4901631124
 30
0.0
 10
14.3314876664
 20
9.4869702108
 30
0.0
 10
14.3360897999
 20
9.4833452134
 30
0.0
 10
14.3406405548
 20
9.4792901298
 30
0.0
 10
14.345138076
 20
9.4748072876
 30
0.0
 10
14.3495803241
 20
9.4698989493
 30
0.0
 10
14.3539653445
 20
9.4645676274
 30
0.0
 10
14.3582912016
 20
9.4588160067
 30
0.0
 10
14.3625557985
 20
9.4526468689
 30
0.0
 10
14.366757242
 20
9.4460633159
 30
0.0
 10
14.3708934526
 20
9.4390685441
 30
0.0
 10
14.3749624534
 20
9.4316660133
 30
0.0
 10
14.3789623069
 20
9.4238593922
 30
0.0
 10
14.382890962
 20
9.4156525083
 30
0.0
 10
14.3867465644
 20
9.4070494696
 30
0.0
 10
14.3905271782
 20
9.3980545106
 30
0.0
 10
14.395545718
 20
9.3853409487
 30
0.0
 10
14.4015984062
 20
9.3684858542
 30
0.0
 10
14.4084222508
 20
9.347083296
 30
0.0
 10
14.4149042754
 20
9.3242354215
 30
0.0
 10
14.4210313731
 20
9.2999878576
 30
0.0
 10
14.4267911296
 20
9.2743887541
 30
0.0
 10
14.4321718455
 20
9.247489232
 30
0.0
 10
14.4371625762
 20
9.2193430719
 30
0.0
 10
14.4417531619
 20
9.1900066349
 30
0.0
 10
14.4459342498
 20
9.1595387295
 30
0.0
 10
14.4496973371
 20
9.1280004907
 30
0.0
 10
14.4530347673
 20
9.09545524
 30
0.0
 10
14.4559397462
 20
9.061968344
 30
0.0
 10
14.4584063554
 20
9.0276070778
 30
0.0
 10
14.4604295622
 20
8.9924404944
 30
0.0
 10
14.4620052481
 20
8.9565392853
 30
0.0
 10
14.4631302024
 20
8.9199756261
 30
0.0
 10
14.4638021103
 20
8.8828230485
 30
0.0
 10
14.4640196226
 20
8.8451561959
 30
0.0
 10
14.4637015127
 20
8.7941208074
 30
0.0
 10
14.4621581235
 20
8.7296019779
 30
0.0
 10
14.4585208248
 20
8.6516999943
 30
0.0
 10
14.4531186108
 20
8.573599864
 30
0.0
 10
14.4459949609
 20
8.4959295564
 30
0.0
 10
14.4386397214
 20
8.431798936
 30
0.0
 10
14.4319272219
 20
8.3811901225
 30
0.0
 10
14.4265247358
 20
8.3438967604
 30
0.0
 10
14.4207428331
 20
8.3071730825
 30
0.0
 10
14.4145931239
 20
8.2710928779
 30
0.0
 10
14.4080880201
 20
8.2357287032
 30
0.0
 10
14.4012406522
 20
8.2011516419
 30
0.0
 10
14.3940648454
 20
8.1674311853
 30
0.0
 10
14.3865750874
 20
8.1346350907
 30
0.0
 10
14.3787865017
 20
8.1028292461
 30
0.0
 10
14.3707148136
 20
8.0720775264
 30
0.0
 10
14.3623763391
 20
8.0424416515
 30
0.0
 10
14.3537879323
 20
8.0139810592
 30
0.0
 10
14.3449669505
 20
7.9867527903
 30
0.0
 10
14.3359312167
 20
7.9608113526
 30
0.0
 10
14.3266989757
 20
7.936208628
 30
0.0
 10
14.3172888604
 20
7.9129935981
 30
0.0
 10
14.3077198501
 20
7.8912127074
 30
0.0
 10
14.299512042
 20
7.8740471459
 30
0.0
 10
14.2928682518
 20
7.8610791298
 30
0.0
 10
14.287931742
 20
7.8518829964
 30
0.0
 10
14.2829699116
 20
7.8430765523
 30
0.0
 10
14.2779852732
 20
7.8346641401
 30
0.0
 10
14.272980267
 20
7.8266499692
 30
0.0
 10
14.2679573861
 20
7.819038037
 30
0.0
 10
14.2629191965
 20
7.8118321011
 30
0.0
 10
14.2578680683
 20
7.8050357528
 30
0.0
 10
14.2528064917
 20
7.798652251
 30
0.0
 10
14.2477367942
 20
7.7926847419
 30
0.0
 10
14.2426617373
 20
7.7871364649
 30
0.0
 10
14.2392061201
 20
7.7836478854
 30
0.0
 10
14.2374773669
 20
7.7819780379
 30
0.0
  0
SPLINE
  5
3E6
100
AcDbEntity
  8
0
100
AcDbSpline
 62
7
  6
CONTINUOUS
 70
0
 71
3
 72
18
 73
14
 74
0
 42
0.0000001
 43
0.0000001
 44
0.0000000001
 40
0.0
 40
0.0
 40
0.0
 40
0.0
 40
0.1504683897
 40
0.2917144302
 40
0.4244424337
 40
0.4879098403
 40
0.5496094316
 40
0.6682625858
 40
0.7817882724
 40
0.8371379912
 40
0.8918078094
 40
0.9460192717
 40
1.0
 40
1.0
 40
1.0
 40
1.0
 10
13.5580779342
 20
7.1257285406
 30
0.0
 10
13.5556042118
 20
7.1233391081
 30
0.0
 10
13.5506601362
 20
7.1188558429
 30
0.0
 10
13.5430047513
 20
7.1128813598
 30
0.0
 10
13.5365384862
 20
7.1086558877
 30
0.0
 10
13.5313822013
 20
7.1057945356
 30
0.0
 10
13.5263776124
 20
7.1033379687
 30
0.0
 10
13.520120289
 20
7.1008556999
 30
0.0
 10
13.5137516592
 20
7.0991617941
 30
0.0
 10
13.5087075166
 20
7.0983273526
 30
0.0
 10
13.5049691073
 20
7.0979570329
 30
0.0
 10
13.5012458231
 20
7.0978374367
 30
0.0
 10
13.4987721644
 20
7.0979249467
 30
0.0
 10
13.4975412728
 20
7.0980103159
 30
0.0
  0
SPLINE
  5
3E7
100
AcDbEntity
  8
0
100
AcDbSpline
 62
7
  6
CONTINUOUS
 70
0
 71
3
 72
43
 73
39
 74
0
 42
0.0000001
 43
0.0000001
 44
0.0000000001
 40
0.0
 40
0.0
 40
0.0
 40
0.0
 40
0.0291007543
 40
0.0587026933
 40
0.1176537173
 40
0.1743470201
 40
0.2277910299
 40
0.2778760358
 40
0.3248283987
 40
0.3689564972
 40
0.4105565622
 40
0.4498855826
 40
0.4871579733
 40
0.5225506216
 40
0.5562098988
 40
0.5882543598
 40
0.6187834881
 40
0.6478796525
 40
0.6756114251
 40
0.7020389031
 40
0.7272131273
 40
0.751183023
 40
0.7739943656
 40
0.7956974712
 40
0.816348061
 40
0.8360169868
 40
0.8547940155
 40
0.8728027267
 40
0.8902078684
 40
0.907235111
 40
0.9241808326
 40
0.9327457705
 40
0.9414396306
 40
0.9503229962
 40
0.9594609852
 40
0.9689236804
 40
0.9787848512
 40
1.0
 40
1.0
 40
1.0
 40
1.0
 10
10.603471181
 20
6.8123159312
 30
0.0
 10
10.603471181
 20
6.8098803279
 30
0.0
 10
10.6034071672
 20
6.8049669699
 30
0.0
 10
10.6030437148
 20
6.7951258783
 30
0.0
 10
10.6021930603
 20
6.7829953044
 30
0.0
 10
10.6006621621
 20
6.7689234711
 30
0.0
 10
10.5987562048
 20
6.755647283
 30
0.0
 10
10.5965764482
 20
6.7432407844
 30
0.0
 10
10.594189633
 20
6.7316677946
 30
0.0
 10
10.5916383264
 20
6.7208585825
 30
0.0
 10
10.5889499866
 20
6.7107415883
 30
0.0
 10
10.5861427156
 20
6.701253956
 30
0.0
 10
10.5832286664
 20
6.6923436696
 30
0.0
 10
10.5802161517
 20
6.6839688295
 30
0.0
 10
10.5771114078
 20
6.6760962522
 30
0.0
 10
10.5739181977
 20
6.6687004553
 30
0.0
 10
10.570639815
 20
6.6617620805
 30
0.0
 10
10.5672784334
 20
6.6552672578
 30
0.0
 10
10.5638355211
 20
6.6492069328
 30
0.0
 10
10.5603126961
 20
6.6435760962
 30
0.0
 10
10.5567106344
 20
6.638373925
 30
0.0
 10
10.5530306972
 20
6.6336029484
 30
0.0
 10
10.5492734299
 20
6.629269708
 30
0.0
 10
10.54544019
 20
6.6253839917
 30
0.0
 10
10.5415316762
 20
6.6219599734
 30
0.0
 10
10.5375495679
 20
6.6190154029
 30
0.0
 10
10.5334948505
 20
6.6165738994
 30
0.0
 10
10.5293701665
 20
6.6146635044
 30
0.0
 10
10.5251779322
 20
6.613321293
 30
0.0
 10
10.5209249633
 20
6.612590663
 30
0.0
 10
10.5173481454
 20
6.6125380937
 30
0.0
 10
10.5144997804
 20
6.6128522594
 30
0.0
 10
10.5123504476
 20
6.6132762033
 30
0.0
 10
10.5101993381
 20
6.6138963006
 30
0.0
 10
10.5080496958
 20
6.6147229208
 30
0.0
 10
10.505904684
 20
6.6157659394
 30
0.0
 10
10.5029862733
 20
6.6175023554
 30
0.0
 10
10.5009245986
 20
6.6191119117
 30
0.0
 10
10.499607474
 20
6.6203027035
 30
0.0
  0
SPLINE
  5
3E8
100
AcDbEntity
  8
0
100
AcDbSpline
 62
7
  6
CONTINUOUS
 70
0
 71
3
 72
41
 73
37
 74
0
 42
0.0000001
 43
0.0000001
 44
0.0000000001
 40
0.0
 40
0.0
 40
0.0
 40
0.0
 40
0.0149606463
 40
0.0299305637
 40
0.0449124857
 40
0.0599090808
 40
0.0899510983
 40
0.1200815093
 40
0.1503177731
 40
0.1806750108
 40
0.2111657024
 40
0.241799451
 40
0.2725828176
 40
0.303519225
 40
0.3346089347
 40
0.3658490889
 40
0.3972338117
 40
0.4287543668
 40
0.4603993644
 40
0.4921550147
 40
0.5240054168
 40
0.5559328786
 40
0.5879182619
 40
0.6199413485
 40
0.6519812206
 40
0.6840166499
 40
0.7160264897
 40
0.7479900676
 40
0.779887572
 40
0.8117004258
 40
0.8434116445
 40
0.8750061721
 40
0.9064711779
 40
0.9377964287
 40
0.9689740587
 40
1.0
 40
1.0
 40
1.0
 40
1.0
 10
11.8440307251
 20
6.210134767
 30
0.0
 10
11.8376637068
 20
6.2049821769
 30
0.0
 10
11.8247267012
 20
6.1949169518
 30
0.0
 10
11.8047510148
 20
6.1805689849
 30
0.0
 10
11.7842243183
 20
6.1669840354
 30
0.0
 10
11.7561439111
 20
6.1499041609
 30
0.0
 10
11.7197802472
 20
6.130541885
 30
0.0
 10
11.6744114559
 20
6.1106365942
 30
0.0
 10
11.6275098012
 20
6.0941438612
 30
0.0
 10
11.5793178489
 20
6.081148934
 30
0.0
 10
11.5300826477
 20
6.0717177051
 30
0.0
 10
11.4800570201
 20
6.0658981013
 30
0.0
 10
11.4294975718
 20
6.0637194105
 30
0.0
 10
11.3786635627
 20
6.0651922062
 30
0.0
 10
11.327815521
 20
6.070308369
 30
0.0
 10
11.2772139374
 20
6.0790411589
 30
0.0
 10
11.2271179462
 20
6.091345375
 30
0.0
 10
11.1777840171
 20
6.1071575796
 30
0.0
 10
11.1294646363
 20
6.1263963852
 30
0.0
 10
11.0824070514
 20
6.1489629568
 30
0.0
 10
11.0368520234
 20
6.1747415061
 30
0.0
 10
10.9930326207
 20
6.2035998942
 30
0.0
 10
10.9511730204
 20
6.2353902648
 30
0.0
 10
10.9114873557
 20
6.2699497876
 30
0.0
 10
10.8741786715
 20
6.3071015394
 30
0.0
 10
10.8394378892
 20
6.3466553856
 30
0.0
 10
10.8074428547
 20
6.388408952
 30
0.0
 10
10.778357385
 20
6.4321486071
 30
0.0
 10
10.7523304457
 20
6.4776505628
 30
0.0
 10
10.7294954327
 20
6.5246820376
 30
0.0
 10
10.7099694805
 20
6.5730023934
 30
0.0
 10
10.6938528922
 20
6.6223644568
 30
0.0
 10
10.6812284866
 20
6.6725153729
 30
0.0
 10
10.6721614154
 20
6.7231992413
 30
0.0
 10
10.666698373
 20
6.7741532374
 30
0.0
 10
10.6654751997
 20
6.8082209731
 30
0.0
 10
10.6654751997
 20
6.8252072178
 30
0.0
  0
SPLINE
  5
3E9
100
AcDbEntity
  8
0
100
AcDbSpline
 62
7
  6
CONTINUOUS
 70
0
 71
3
 72
39
 73
35
 74
0
 42
0.0000001
 43
0.0000001
 44
0.0000000001
 40
0.0
 40
0.0
 40
0.0
 40
0.0
 40
0.0300133814
 40
0.0600124715
 40
0.0900242845
 40
0.1200754928
 40
0.1501917126
 40
0.1803968268
 40
0.2107123661
 40
0.2411569673
 40
0.2717459274
 40
0.302490858
 40
0.3333994476
 40
0.3644753308
 40
0.3957180632
 40
0.4271231982
 40
0.4586824548
 40
0.490383966
 40
0.5222126002
 40
0.5541503425
 40
0.5861767319
 40
0.6182693376
 40
0.6504042678
 40
0.6825567008
 40
0.7147014311
 40
0.7468134219
 40
0.7788683554
 40
0.8108431698
 40
0.8427165782
 40
0.8744695607
 40
0.906085797
 40
0.9375522054
 40
0.9688587029
 40
1.0
 40
1.0
 40
1.0
 40
1.0
 10
9.2119240313
 20
6.835126966
 30
0.0
 10
9.2189966886
 20
6.8439602537
 30
0.0
 10
9.2338819688
 20
6.8610420644
 30
0.0
 10
9.2582644565
 20
6.8847081871
 30
0.0
 10
9.2845484973
 20
6.9062690352
 30
0.0
 10
9.3125721933
 20
6.9255911451
 30
0.0
 10
9.3421655065
 20
6.9425578203
 30
0.0
 10
9.3731482115
 20
6.9570659792
 30
0.0
 10
9.4053318556
 20
6.9690278313
 30
0.0
 10
9.4385207117
 20
6.9783711446
 30
0.0
 10
9.4725130798
 20
6.9850396799
 30
0.0
 10
9.5071025079
 20
6.9889934866
 30
0.0
 10
9.5420790574
 20
6.9902091126
 30
0.0
 10
9.5772305705
 20
6.9886797134
 30
0.0
 10
9.6123439555
 20
6.9844151175
 30
0.0
 10
9.6472064697
 20
6.9774416808
 30
0.0
 10
9.6816069872
 20
6.9678021074
 30
0.0
 10
9.7153372569
 20
6.955555177
 30
0.0
 10
9.7481931352
 20
6.9407753729
 30
0.0
 10
9.7799758258
 20
6.9235524771
 30
0.0
 10
9.8104930559
 20
6.9039909876
 30
0.0
 10
9.8395602122
 20
6.8822094737
 30
0.0
 10
9.8670014434
 20
6.8583398697
 30
0.0
 10
9.8926507007
 20
6.8325266781
 30
0.0
 10
9.9163527586
 20
6.8049261348
 30
0.0
 10
9.9379641475
 20
6.7757052659
 30
0.0
 10
9.9573539838
 20
6.7450408647
 30
0.0
 10
9.9744047595
 20
6.7131184382
 30
0.0
 10
9.9890130447
 20
6.680131123
 30
0.0
 10
10.001090111
 20
6.6462784585
 30
0.0
 10
10.0105625679
 20
6.6117655057
 30
0.0
 10
10.0173725655
 20
6.5768005111
 30
0.0
 10
10.0214786042
 20
6.5415979137
 30
0.0
 10
10.0223987076
 20
6.5180433801
 30
0.0
 10
10.0223987076
 20
6.5063022301
 30
0.0
  0
SPLINE
  5
3EA
100
AcDbEntity
  8
0
100
AcDbSpline
 62
7
  6
CONTINUOUS
 70
0
 71
3
 72
79
 73
75
 74
0
 42
0.0000001
 43
0.0000001
 44
0.0000000001
 40
0.0
 40
0.0
 40
0.0
 40
0.0
 40
0.0039197159
 40
0.0080008746
 40
0.0122469175
 40
0.0166607385
 40
0.0212447902
 40
0.0260010228
 40
0.0309307615
 40
0.0360348638
 40
0.0413138187
 40
0.0467677131
 40
0.0581987339
 40
0.0703233743
 40
0.0831324264
 40
0.0966132666
 40
0.1107502872
 40
0.1255252645
 40
0.1409176738
 40
0.1569049285
 40
0.1734625671
 40
0.1905644152
 40
0.2081827599
 40
0.2262884856
 40
0.2448511889
 40
0.2638392773
 40
0.2832200938
 40
0.3029600221
 40
0.3230245792
 40
0.3433784983
 40
0.36398583
 40
0.4058134129
 40
0.4482102474
 40
0.4908733069
 40
0.5334971466
 40
0.57577668
 40
0.6174099484
 40
0.6378917829
 40
0.6581016811
 40
0.6780040306
 40
0.697563954
 40
0.7167474025
 40
0.7355212414
 40
0.7538533457
 40
0.7717127163
 40
0.789069598
 40
0.8058955809
 40
0.8221637239
 40
0.8378487062
 40
0.8529270079
 40
0.8673770748
 40
0.8811795315
 40
0.8943174502
 40
0.9067767043
 40
0.9185463614
 40
0.924170441
 40
0.9296197683
 40
0.9348941188
 40
0.9399936488
 40
0.9449188207
 40
0.9496705406
 40
0.9542501682
 40
0.9586595267
 40
0.9629010677
 40
0.9669778364
 40
0.970893607
 40
0.9746529964
 40
0.9782614855
 40
0.9817256282
 40
0.9882500449
 40
0.9913323679
 40
0.9943090331
 40
0.9971933183
 40
1.0
 40
1.0
 40
1.0
 40
1.0
 10
14.2065677379
 20
7.784121628
 30
0.0
 10
14.2082514474
 20
7.7857479666
 30
0.0
 10
14.2116171371
 20
7.7891418699
 30
0.0
 10
14.2165628389
 20
7.7945324414
 30
0.0
 10
14.2215036175
 20
7.8003212885
 30
0.0
 10
14.2264368639
 20
7.8065054263
 30
0.0
 10
14.2313604313
 20
7.8130819249
 30
0.0
 10
14.2362720149
 20
7.8200478027
 30
0.0
 10
14.241169411
 20
7.8273997792
 30
0.0
 10
14.2460502907
 20
7.8351343824
 30
0.0
 10
14.2509123191
 20
7.8432479861
 30
0.0
 10
14.2574698081
 20
7.8547470709
 30
0.0
 10
14.2655870567
 20
7.8700580189
 30
0.0
 10
14.2750696827
 20
7.8896002874
 30
0.0
 10
14.2844229195
 20
7.9105526347
 30
0.0
 10
14.2936288938
 20
7.9328753407
 30
0.0
 10
14.3026700181
 20
7.956526355
 30
0.0
 10
14.3115289842
 20
7.9814608493
 30
0.0
 10
14.3201888062
 20
8.0076315115
 30
0.0
 10
14.3286328637
 20
8.0349886073
 30
0.0
 10
14.336844947
 20
8.0634800828
 30
0.0
 10
14.3448093146
 20
8.093051664
 30
0.0
 10
14.3525106886
 20
8.1236469885
 30
0.0
 10
14.3599342942
 20
8.1552077256
 30
0.0
 10
14.3670658837
 20
8.1876736796
 30
0.0
 10
14.3738917974
 20
8.2209828984
 30
0.0
 10
14.3803989555
 20
8.2550718057
 30
0.0
 10
14.3865748912
 20
8.289875339
 30
0.0
 10
14.3924077483
 20
8.3253270475
 30
0.0
 10
14.3978864076
 20
8.3613592908
 30
0.0
 10
14.4047385983
 20
8.4103257791
 30
0.0
 10
14.4123328254
 20
8.4724764406
 30
0.0
 10
14.4198420069
 20
8.5478884523
 30
0.0
 10
14.4257339548
 20
8.6239210976
 30
0.0
 10
14.4299636667
 20
8.6999941597
 30
0.0
 10
14.4324989611
 20
8.7755270984
 30
0.0
 10
14.4331878409
 20
8.8378752482
 30
0.0
 10
14.4328632687
 20
8.8870407895
 30
0.0
 10
14.4321895296
 20
8.9232230787
 30
0.0
 10
14.4310856247
 20
8.958843958
 30
0.0
 10
14.4295536618
 20
8.9938354706
 30
0.0
 10
14.4275966298
 20
9.0281308035
 30
0.0
 10
14.4252183127
 20
9.0616644956
 30
0.0
 10
14.4224232989
 20
9.0943725406
 30
0.0
 10
14.4192169854
 20
9.1261925278
 30
0.0
 10
14.4156055804
 20
9.1570637676
 30
0.0
 10
14.4115960623
 20
9.1869274009
 30
0.0
 10
14.4071961709
 20
9.2157265084
 30
0.0
 10
14.402414393
 20
9.2434062411
 30
0.0
 10
14.3972599801
 20
9.2699139408
 30
0.0
 10
14.3917428877
 20
9.2951992539
 30
0.0
 10
14.385873757
 20
9.3192141873
 30
0.0
 10
14.3796638759
 20
9.3419133763
 30
0.0
 10
14.3731251778
 20
9.3632537188
 30
0.0
 10
14.3673282412
 20
9.3801181229
 30
0.0
 10
14.3625215136
 20
9.3928862955
 30
0.0
 10
14.358896793
 20
9.4019523848
 30
0.0
 10
14.3551993889
 20
9.410649709
 30
0.0
 10
14.3514310987
 20
9.4189741998
 30
0.0
 10
14.3475936333
 20
9.4269219013
 30
0.0
 10
14.3436888146
 20
9.4344890769
 30
0.0
 10
14.3397185092
 20
9.4416721911
 30
0.0
 10
14.3356844619
 20
9.448467829
 30
0.0
 10
14.3315886157
 20
9.4548728562
 30
0.0
 10
14.327432794
 20
9.4608842483
 30
0.0
 10
14.3232187941
 20
9.4664992024
 30
0.0
 10
14.318948678
 20
9.4717150212
 30
0.0
 10
14.3146237796
 20
9.4765295893
 30
0.0
 10
14.30890218
 20
9.4822946132
 30
0.0
 10
14.3029658812
 20
9.4873967259
 30
0.0
 10
14.2968181324
 20
9.4917268643
 30
0.0
 10
14.292248846
 20
9.4945013184
 30
0.0
 10
14.2876368747
 20
9.4968618376
 30
0.0
 10
14.2844972196
 20
9.4981743297
 30
0.0
 10
14.2829255338
 20
9.4987569229
 30
0.0
  0
SPLINE
  5
3EB
100
AcDbEntity
  8
0
100
AcDbSpline
 62
7
  6
CONTINUOUS
 70
0
 71
3
 72
39
 73
35
 74
0
 42
0.0000001
 43
0.0000001
 44
0.0000000001
 40
0.0
 40
0.0
 40
0.0
 40
0.0
 40
0.0302892317
 40
0.0606933742
 40
0.0912158181
 40
0.1218584039
 40
0.1526214168
 40
0.1835036008
 40
0.2145021924
 40
0.2456129721
 40
0.2768303325
 40
0.308147361
 40
0.3395559371
 40
0.3710468397
 40
0.4026098668
 40
0.4342339625
 40
0.4659073525
 40
0.4976176857
 40
0.52935218
 40
0.5610977724
 40
0.5928412711
 40
0.6245695082
 40
0.6562694932
 40
0.6879285642
 40
0.7195345372
 40
0.7510758505
 40
0.7825417052
 40
0.8139221948
 40
0.8452084428
 40
0.876392676
 40
0.90746846
 40
0.9384304219
 40
0.9692752398
 40
1.0
 40
1.0
 40
1.0
 40
1.0
 10
11.9054354112
 20
6.5394721542
 30
0.0
 10
11.8941649661
 20
6.5374542792
 30
0.0
 10
11.871457719
 20
6.5340700237
 30
0.0
 10
11.8370987581
 20
6.5309675944
 30
0.0
 10
11.8024838607
 20
6.5298386057
 30
0.0
 10
11.7677257943
 20
6.5306868013
 30
0.0
 10
11.7329358287
 20
6.5335092351
 30
0.0
 10
11.698225833
 20
6.5382967162
 30
0.0
 10
11.6637072576
 20
6.5450337259
 30
0.0
 10
11.6294909568
 20
6.5536985014
 30
0.0
 10
11.5956867866
 20
6.5642630957
 30
0.0
 10
11.5624032683
 20
6.5766934761
 30
0.0
 10
11.5297472394
 20
6.5909496341
 30
0.0
 10
11.4978235147
 20
6.6069857145
 30
0.0
 10
11.4667345525
 20
6.6247501632
 30
0.0
 10
11.4365801283
 20
6.6441858924
 30
0.0
 10
11.4074570173
 20
6.6652304635
 30
0.0
 10
11.3794586859
 20
6.6878162869
 30
0.0
 10
11.3526749943
 20
6.7118708381
 30
0.0
 10
11.3271919096
 20
6.7373168889
 30
0.0
 10
11.3030912318
 20
6.7640727543
 30
0.0
 10
11.2804503336
 20
6.7920525532
 30
0.0
 10
11.2593419101
 20
6.8211664802
 30
0.0
 10
11.2398337469
 20
6.8513210933
 30
0.0
 10
11.2219885062
 20
6.8824196132
 30
0.0
 10
11.2058635246
 20
6.9143622317
 30
0.0
 10
11.1915106336
 20
6.9470464288
 30
0.0
 10
11.1789759823
 20
6.9803673029
 30
0.0
 10
11.1682999185
 20
7.0142178882
 30
0.0
 10
11.1595167872
 20
7.048489562
 30
0.0
 10
11.1526549781
 20
7.0830721451
 30
0.0
 10
11.1477365223
 20
7.1178550937
 30
0.0
 10
11.1447775235
 20
7.1527251004
 30
0.0
 10
11.1441161932
 20
7.1760043358
 30
0.0
 10
11.1441161932
 20
7.187618632
 30
0.0
  0
SPLINE
  5
3EC
100
AcDbEntity
  8
0
100
AcDbSpline
 62
7
  6
CONTINUOUS
 70
0
 71
3
 72
15
 73
11
 74
0
 42
0.0000001
 43
0.0000001
 44
0.0000000001
 40
0.0
 40
0.0
 40
0.0
 40
0.0
 40
0.1453468053
 40
0.2840087588
 40
0.4163165959
 40
0.5426855499
 40
0.663614455
 40
0.7796839753
 40
0.8915608349
 40
1.0
 40
1.0
 40
1.0
 40
1.0
 10
14.2065677379
 20
7.784121628
 30
0.0
 10
14.2047115586
 20
7.7823286964
 30
0.0
 10
14.2010007217
 20
7.7789104837
 30
0.0
 10
14.195301996
 20
7.7741967537
 30
0.0
 10
14.1896081496
 20
7.7700236149
 30
0.0
 10
14.1839226572
 20
7.7663942462
 30
0.0
 10
14.1782485593
 20
7.7633113292
 30
0.0
 10
14.1725887379
 20
7.7607774402
 30
0.0
 10
14.1669472297
 20
7.7587951844
 30
0.0
 10
14.1631495633
 20
7.7578302692
 30
0.0
 10
14.1612630032
 20
7.7574455552
 30
0.0
  0
SPLINE
  5
3ED
100
AcDbEntity
  8
0
100
AcDbSpline
 62
7
  6
CONTINUOUS
 70
0
 71
3
 72
19
 73
15
 74
0
 42
0.0000001
 43
0.0000001
 44
0.0000000001
 40
0.0
 40
0.0
 40
0.0
 40
0.0
 40
0.1532264237
 40
0.2947793451
 40
0.4259267176
 40
0.5483709416
 40
0.6070239617
 40
0.6643434169
 40
0.7206640972
 40
0.7763402773
 40
0.8317399435
 40
0.8872369341
 40
0.94320306
 40
1.0
 40
1.0
 40
1.0
 40
1.0
 10
14.2065677379
 20
7.9531586576
 30
0.0
 10
14.2041025218
 20
7.9507774415
 30
0.0
 10
14.1991769131
 20
7.9463789132
 30
0.0
 10
14.1914831929
 20
7.9407312584
 30
0.0
 10
14.1837997884
 20
7.9363203216
 30
0.0
 10
14.1773186417
 20
7.9336500885
 30
0.0
 10
14.1721864248
 20
7.9321835561
 30
0.0
 10
14.1684056793
 20
7.9314148062
 30
0.0
 10
14.1646411303
 20
7.9309625029
 30
0.0
 10
14.1608947001
 20
7.9308272056
 30
0.0
 10
14.1571686502
 20
7.9310091299
 30
0.0
 10
14.1534651004
 20
7.9315081371
 30
0.0
 10
14.149786545
 20
7.9323238807
 30
0.0
 10
14.147374169
 20
7.9330715668
 30
0.0
 10
14.1461763622
 20
7.9334950608
 30
0.0
  0
SPLINE
  5
3EE
100
AcDbEntity
  8
0
100
AcDbSpline
 62
7
  6
CONTINUOUS
 70
0
 71
3
 72
83
 73
79
 74
0
 42
0.0000001
 43
0.0000001
 44
0.0000000001
 40
0.0
 40
0.0
 40
0.0
 40
0.0
 40
0.0027164276
 40
0.0054532334
 40
0.0082303009
 40
0.0110665998
 40
0.0139798088
 40
0.0169861218
 40
0.0201000928
 40
0.0233346095
 40
0.026700976
 40
0.0302089312
 40
0.0338668524
 40
0.0376818289
 40
0.0416598023
 40
0.0458057443
 40
0.0501236753
 40
0.0546168743
 40
0.0592878974
 40
0.0641386698
 40
0.0691706105
 40
0.0743845883
 40
0.0797810847
 40
0.0853601631
 40
0.0970640219
 40
0.1094907699
 40
0.1226300177
 40
0.1364676887
 40
0.150986507
 40
0.1661664045
 40
0.1819848426
 40
0.1984170703
 40
0.2154363375
 40
0.2330140708
 40
0.2511200494
 40
0.2697225561
 40
0.2887885105
 40
0.3082835895
 40
0.3281723378
 40
0.3484182894
 40
0.3689840785
 40
0.3898315425
 40
0.4109218226
 40
0.453671794
 40
0.496913762
 40
0.5403220095
 40
0.5835692233
 40
0.6263296343
 40
0.6474270493
 40
0.6682829087
 40
0.6888583326
 40
0.7091151299
 40
0.7290159025
 40
0.7485241591
 40
0.7676044182
 40
0.7862223163
 40
0.8043447241
 40
0.821939872
 40
0.8389774975
 40
0.8554289822
 40
0.8712675108
 40
0.8864682552
 40
0.9010085951
 40
0.9148683895
 40
0.9280302787
 40
0.9404800721
 40
0.9464347343
 40
0.9522077813
 40
0.9577985496
 40
0.9632067643
 40
0.968432455
 40
0.973476048
 40
0.978338406
 40
0.9830208506
 40
0.98752539
 40
0.9918546103
 40
0.9960115929
 40
1.0
 40
1.0
 40
1.0
 40
1.0
 10
13.6186145956
 20
8.8438170616
 30
0.0
 10
13.6202476739
 20
8.8437037986
 30
0.0
 10
13.6235177163
 20
8.8433285812
 30
0.0
 10
13.6283811387
 20
8.8423245679
 30
0.0
 10
13.6332078232
 20
8.8408795871
 30
0.0
 10
13.6379942837
 20
8.8389949043
 30
0.0
 10
13.642738102
 20
8.8366723398
 30
0.0
 10
13.647436808
 20
8.8339136151
 30
0.0
 10
13.6520882337
 20
8.8307207135
 30
0.0
 10
13.6566903672
 20
8.8270957161
 30
0.0
 10
13.6612411221
 20
8.8230406325
 30
0.0
 10
13.6657386432
 20
8.8185577903
 30
0.0
 10
13.6701808914
 20
8.813649452
 30
0.0
 10
13.6745659118
 20
8.8083181301
 30
0.0
 10
13.6788917689
 20
8.8025665094
 30
0.0
 10
13.6831563658
 20
8.7963973716
 30
0.0
 10
13.6873578093
 20
8.7898138186
 30
0.0
 10
13.6914940199
 20
8.7828190468
 30
0.0
 10
13.6955630207
 20
8.775416516
 30
0.0
 10
13.6995628742
 20
8.7676098949
 30
0.0
 10
13.7034915293
 20
8.759403011
 30
0.0
 10
13.7073471317
 20
8.7507999723
 30
0.0
 10
13.7111277455
 20
8.7418050133
 30
0.0
 10
13.7161462853
 20
8.7290914514
 30
0.0
 10
13.7221989735
 20
8.7122363569
 30
0.0
 10
13.7290228181
 20
8.6908337987
 30
0.0
 10
13.7355048427
 20
8.6679859242
 30
0.0
 10
13.7416319404
 20
8.6437383603
 30
0.0
 10
13.7473916969
 20
8.6181392568
 30
0.0
 10
13.7527724128
 20
8.5912397347
 30
0.0
 10
13.7577631435
 20
8.5630935746
 30
0.0
 10
13.7623537292
 20
8.5337571376
 30
0.0
 10
13.7665348171
 20
8.5032892322
 30
0.0
 10
13.7702979044
 20
8.4717509934
 30
0.0
 10
13.7736353346
 20
8.4392057427
 30
0.0
 10
13.7765403135
 20
8.4057188467
 30
0.0
 10
13.7790069227
 20
8.3713575805
 30
0.0
 10
13.7810301295
 20
8.3361909971
 30
0.0
 10
13.7826058154
 20
8.300289788
 30
0.0
 10
13.7837307697
 20
8.2637261288
 30
0.0
 10
13.7844026776
 20
8.2265735512
 30
0.0
 10
13.7846201899
 20
8.1889066986
 30
0.0
 10
13.78430208
 20
8.1378713101
 30
0.0
 10
13.7827586908
 20
8.0733524806
 30
0.0
 10
13.7791213921
 20
7.995450497
 30
0.0
 10
13.7737191781
 20
7.9173503667
 30
0.0
 10
13.7665955282
 20
7.8396800591
 30
0.0
 10
13.7592402887
 20
7.7755494387
 30
0.0
 10
13.7525277892
 20
7.7249406252
 30
0.0
 10
13.7471253031
 20
7.6876472631
 30
0.0
 10
13.7413434004
 20
7.6509235852
 30
0.0
 10
13.7351936912
 20
7.6148433806
 30
0.0
 10
13.7286885874
 20
7.5794792059
 30
0.0
 10
13.7218412195
 20
7.5449021446
 30
0.0
 10
13.7146654127
 20
7.511181688
 30
0.0
 10
13.7071756547
 20
7.4783855934
 30
0.0
 10
13.699387069
 20
7.4465797488
 30
0.0
 10
13.6913153809
 20
7.4158280291
 30
0.0
 10
13.6829769064
 20
7.3861921542
 30
0.0
 10
13.6743884996
 20
7.3577315619
 30
0.0
 10
13.6655675178
 20
7.330503293
 30
0.0
 10
13.656531784
 20
7.3045618553
 30
0.0
 10
13.647299543
 20
7.2799591307
 30
0.0
 10
13.6378894277
 20
7.2567441008
 30
0.0
 10
13.6283204174
 20
7.2349632101
 30
0.0
 10
13.6201126093
 20
7.2177976486
 30
0.0
 10
13.6134688191
 20
7.2048296325
 30
0.0
 10
13.6085323093
 20
7.1956334991
 30
0.0
 10
13.6035704788
 20
7.186827055
 30
0.0
 10
13.5985858405
 20
7.1784146428
 30
0.0
 10
13.5935808343
 20
7.1704004719
 30
0.0
 10
13.5885579534
 20
7.1627885397
 30
0.0
 10
13.5835197638
 20
7.1555826038
 30
0.0
 10
13.5784686356
 20
7.1487862555
 30
0.0
 10
13.573407059
 20
7.1424027537
 30
0.0
 10
13.5683373615
 20
7.1364352446
 30
0.0
 10
13.5632623046
 20
7.1308869676
 30
0.0
 10
13.5598066874
 20
7.1273983881
 30
0.0
 10
13.5580779342
 20
7.1257285406
 30
0.0
  0
SPLINE
  5
3EF
100
AcDbEntity
  8
0
100
AcDbSpline
 62
7
  6
CONTINUOUS
 70
0
 71
3
 72
37
 73
33
 74
0
 42
0.0000001
 43
0.0000001
 44
0.0000000001
 40
0.0
 40
0.0
 40
0.0
 40
0.0
 40
0.0305457059
 40
0.0612006007
 40
0.0919639183
 40
0.1228337572
 40
0.1538071107
 40
0.1848799074
 40
0.2160470663
 40
0.2473025573
 40
0.2786394693
 40
0.3100500837
 40
0.3415259554
 40
0.3730580014
 40
0.4046365941
 40
0.4362516571
 40
0.4995309261
 40
0.5628283052
 40
0.5944658255
 40
0.6260755572
 40
0.6576471226
 40
0.68917051
 40
0.7206361751
 40
0.7520351372
 40
0.7833590659
 40
0.8146003744
 40
0.8457522878
 40
0.876808904
 40
0.9077654407
 40
0.93861753
 40
0.9693635412
 40
1.0
 40
1.0
 40
1.0
 40
1.0
 10
11.8931739083
 20
6.6454849761
 30
0.0
 10
11.8831362114
 20
6.6454002144
 30
0.0
 10
11.8630167207
 20
6.6457526387
 30
0.0
 10
11.8328544596
 20
6.6478361629
 30
0.0
 10
11.8027314872
 20
6.6514699535
 30
0.0
 10
11.7727287571
 20
6.6566442859
 30
0.0
 10
11.7429255419
 20
6.6633453875
 30
0.0
 10
11.7134009355
 20
6.6715554018
 30
0.0
 10
11.6842331822
 20
6.6812524765
 30
0.0
 10
11.6554996024
 20
6.6924108362
 30
0.0
 10
11.6272763507
 20
6.7050008508
 30
0.0
 10
11.5996382485
 20
6.7189890992
 30
0.0
 10
11.5726585091
 20
6.7343385116
 30
0.0
 10
11.5464087904
 20
6.7510081853
 30
0.0
 10
11.5209580335
 20
6.7689544842
 30
0.0
 10
11.4881751059
 20
6.7945240404
 30
0.0
 10
11.4495341954
 20
6.8294278598
 30
0.0
 10
11.414416496
 20
6.8678843255
 30
0.0
 10
11.3886519476
 20
6.900544195
 30
0.0
 10
11.3705457237
 20
6.9259189857
 30
0.0
 10
11.3537055824
 20
6.9521057997
 30
0.0
 10
11.3381756123
 20
6.979035863
 30
0.0
 10
11.3239971486
 20
7.0066376254
 30
0.0
 10
11.3112077621
 20
7.0348379754
 30
0.0
 10
11.2998414073
 20
7.0635621605
 30
0.0
 10
11.2899282703
 20
7.0927340563
 30
0.0
 10
11.2814947205
 20
7.1222763316
 30
0.0
 10
11.274563138
 20
7.1521107198
 30
0.0
 10
11.2691520683
 20
7.1821579442
 30
0.0
 10
11.2652756818
 20
7.212338872
 30
0.0
 10
11.2629447021
 20
7.2425721136
 30
0.0
 10
11.2624240062
 20
7.2627476428
 30
0.0
 10
11.2624240062
 20
7.2728155211
 30
0.0
  0
SPLINE
  5
3F0
100
AcDbEntity
  8
0
100
AcDbSpline
 62
7
  6
CONTINUOUS
 70
0
 71
3
 72
22
 73
18
 74
0
 42
0.0000001
 43
0.0000001
 44
0.0000000001
 40
0.0
 40
0.0
 40
0.0
 40
0.0
 40
0.0627812002
 40
0.0977404257
 40
0.1355871614
 40
0.1767624291
 40
0.2217357405
 40
0.2710304049
 40
0.3252154071
 40
0.3849119177
 40
0.4507819396
 40
0.5234916383
 40
0.6036425603
 40
0.6916447753
 40
0.7875315654
 40
0.8907398098
 40
1.0
 40
1.0
 40
1.0
 40
1.0
 10
10.5872226443
 20
6.8779978295
 30
0.0
 10
10.5882963506
 20
6.8770257448
 30
0.0
 10
10.5898268337
 20
6.8753511844
 30
0.0
 10
10.591662686
 20
6.8728168909
 30
0.0
 10
10.5930492148
 20
6.8705796514
 30
0.0
 10
10.5943908281
 20
6.8680510791
 30
0.0
 10
10.595684147
 20
6.8652045767
 30
0.0
 10
10.5969225704
 20
6.8620096849
 30
0.0
 10
10.5980988243
 20
6.8584320041
 30
0.0
 10
10.5992032514
 20
6.8544333334
 30
0.0
 10
10.6002233666
 20
6.8499728116
 30
0.0
 10
10.6011436537
 20
6.8450099063
 30
0.0
 10
10.60194495
 20
6.8395099176
 30
0.0
 10
10.6026048281
 20
6.8334530579
 30
0.0
 10
10.6030990704
 20
6.8268469278
 30
0.0
 10
10.6034051052
 20
6.8197386206
 30
0.0
 10
10.603471181
 20
6.814836588
 30
0.0
 10
10.603471181
 20
6.8123159312
 30
0.0
  0
SPLINE
  5
3F1
100
AcDbEntity
  8
0
100
AcDbSpline
 62
7
  6
CONTINUOUS
 70
0
 71
3
 72
71
 73
67
 74
0
 42
0.0000001
 43
0.0000001
 44
0.0000000001
 40
0.0
 40
0.0
 40
0.0
 40
0.0
 40
0.0155842357
 40
0.031115943
 40
0.0465952487
 40
0.0620238831
 40
0.0774034484
 40
0.0927362827
 40
0.1080251234
 40
0.1232731737
 40
0.1384840555
 40
0.1536617759
 40
0.1688106894
 40
0.1839354528
 40
0.1990409785
 40
0.2141323826
 40
0.2292149324
 40
0.2442939897
 40
0.2593749538
 40
0.2744632037
 40
0.2895640404
 40
0.3046826304
 40
0.3198239511
 40
0.3349927396
 40
0.3501934435
 40
0.3654301766
 40
0.3807066777
 40
0.3960262752
 40
0.4113918557
 40
0.4268058391
 40
0.4422701589
 40
0.4577862478
 40
0.4733550285
 40
0.4889769092
 40
0.5046517848
 40
0.5203790431
 40
0.5361575763
 40
0.5519857963
 40
0.5678616538
 40
0.5837826609
 40
0.5997459179
 40
0.6157481418
 40
0.6317856999
 40
0.6478546445
 40
0.6639507499
 40
0.6800695506
 40
0.6962063818
 40
0.7123564201
 40
0.7285147273
 40
0.7446762933
 40
0.7608360799
 40
0.7769890645
 40
0.7931302835
 40
0.8092548753
 40
0.8253581239
 40
0.8414355006
 40
0.8574827053
 40
0.873495705
 40
0.8894707706
 40
0.9054045132
 40
0.921293919
 40
0.9371363616
 40
0.9529297193
 40
0.9686720808
 40
0.9843626423
 40
1.0
 40
1.0
 40
1.0
 40
1.0
 10
11.9104797813
 20
6.5017096785
 30
0.0
 10
11.9104797813
 20
6.4892293543
 30
0.0
 10
11.9098690104
 20
6.4643063472
 30
0.0
 10
11.9071119912
 20
6.4270788568
 30
0.0
 10
11.9025219079
 20
6.3901571688
 30
0.0
 10
11.8961100547
 20
6.3536317028
 30
0.0
 10
11.8878915606
 20
6.3175899508
 30
0.0
 10
11.8778862542
 20
6.2821189724
 30
0.0
 10
11.8661181032
 20
6.2473042414
 30
0.0
 10
11.8526154133
 20
6.2132297212
 30
0.0
 10
11.8374106729
 20
6.179977581
 30
0.0
 10
11.8205404792
 20
6.1476280219
 30
0.0
 10
11.8020454533
 20
6.116259077
 30
0.0
 10
11.7819701424
 20
6.0859464238
 30
0.0
 10
11.760362913
 20
6.0567632
 30
0.0
 10
11.7372758421
 20
6.0287798207
 30
0.0
 10
11.7127646087
 20
6.0020637874
 30
0.0
 10
11.6868883296
 20
5.976679544
 30
0.0
 10
11.6597094196
 20
5.9526883167
 30
0.0
 10
11.6312934393
 20
5.9301479671
 30
0.0
 10
11.6017089361
 20
5.9091128502
 30
0.0
 10
11.5710272754
 20
5.8896336872
 30
0.0
 10
11.5393224846
 20
5.8717574122
 30
0.0
 10
11.5066710548
 20
5.8555270777
 30
0.0
 10
11.47315175
 20
5.8409817597
 30
0.0
 10
11.4388454169
 20
5.8281564637
 30
0.0
 10
11.4038347886
 20
5.8170820413
 30
0.0
 10
11.3682042839
 20
5.8077851227
 30
0.0
 10
11.3320398086
 20
5.8002880354
 30
0.0
 10
11.2954285451
 20
5.7946087434
 30
0.0
 10
11.2584587341
 20
5.7907608351
 30
0.0
 10
11.2212194644
 20
5.788753487
 30
0.0
 10
11.183800459
 20
5.7885914459
 30
0.0
 10
11.1462918609
 20
5.7902750192
 30
0.0
 10
11.1087840186
 20
5.7938000759
 30
0.0
 10
11.0713672648
 20
5.7991580248
 30
0.0
 10
11.0341317
 20
5.8063358712
 30
0.0
 10
10.9971669774
 20
5.8153162486
 30
0.0
 10
10.9605620899
 20
5.8260774624
 30
0.0
 10
10.924405158
 20
5.838593541
 30
0.0
 10
10.8887832223
 20
5.8528343033
 30
0.0
 10
10.8537820255
 20
5.868765406
 30
0.0
 10
10.8194858066
 20
5.8863484351
 30
0.0
 10
10.7859771069
 20
5.9055410165
 30
0.0
 10
10.7533365719
 20
5.9262969134
 30
0.0
 10
10.7216427596
 20
5.9485661371
 30
0.0
 10
10.6909719549
 20
5.972295068
 30
0.0
 10
10.6613979826
 20
5.9974265764
 30
0.0
 10
10.6329920139
 20
6.0239001437
 30
0.0
 10
10.6058224157
 20
6.0516520345
 30
0.0
 10
10.5799545851
 20
6.0806154446
 30
0.0
 10
10.5554507946
 20
6.1107206619
 30
0.0
 10
10.5323700428
 20
6.141895231
 30
0.0
 10
10.510767917
 20
6.1740641284
 30
0.0
 10
10.4906964318
 20
6.207149924
 30
0.0
 10
10.4722039217
 20
6.2410729825
 30
0.0
 10
10.4553349322
 20
6.2757516576
 30
0.0
 10
10.4401301132
 20
6.3111024851
 30
0.0
 10
10.4266261199
 20
6.3470403807
 30
0.0
 10
10.4148555263
 20
6.383478848
 30
0.0
 10
10.4048467496
 20
6.4203301597
 30
0.0
 10
10.3966238929
 20
6.4575056499
 30
0.0
 10
10.3902069367
 20
6.4949156353
 30
0.0
 10
10.3856111845
 20
6.5324705915
 30
0.0
 10
10.3828481064
 20
6.5700786165
 30
0.0
 10
10.3822310847
 20
6.5951712197
 30
0.0
 10
10.3822310847
 20
6.6076940855
 30
0.0
  0
SPLINE
  5
3F2
100
AcDbEntity
  8
0
100
AcDbSpline
 62
7
  6
CONTINUOUS
 70
0
 71
3
 72
11
 73
7
 74
0
 42
0.0000001
 43
0.0000001
 44
0.0000000001
 40
0.0
 40
0.0
 40
0.0
 40
0.0
 40
0.2487231804
 40
0.4982817314
 40
0.7487075834
 40
1.0
 40
1.0
 40
1.0
 40
1.0
 10
11.1707773598
 20
7.3125803159
 30
0.0
 10
11.1687448598
 20
7.3027644502
 30
0.0
 10
11.1651820861
 20
7.2829905089
 30
0.0
 10
11.1613625636
 20
7.2530458723
 30
0.0
 10
11.1590681504
 20
7.2228421881
 30
0.0
 10
11.1585598896
 20
7.202618113
 30
0.0
 10
11.1585598896
 20
7.1924904825
 30
0.0
  0
SPLINE
  5
3F3
100
AcDbEntity
  8
0
100
AcDbSpline
 62
7
  6
CONTINUOUS
 70
0
 71
3
 72
11
 73
7
 74
0
 42
0.0000001
 43
0.0000001
 44
0.0000000001
 40
0.0
 40
0.0
 40
0.0
 40
0.0
 40
0.2486632729
 40
0.4982006248
 40
0.748643867
 40
1.0
 40
1.0
 40
1.0
 40
1.0
 10
11.1115424581
 20
7.3160819028
 30
0.0
 10
11.1091340558
 20
7.3050260482
 30
0.0
 10
11.1049113995
 20
7.2827394099
 30
0.0
 10
11.1003838267
 20
7.2489594609
 30
0.0
 10
11.0976635987
 20
7.2148633663
 30
0.0
 10
11.0970611213
 20
7.1920249027
 30
0.0
 10
11.0970611213
 20
7.1805872304
 30
0.0
  0
SPLINE
  5
3F4
100
AcDbEntity
  8
0
100
AcDbSpline
 62
7
  6
CONTINUOUS
 70
0
 71
3
 72
23
 73
19
 74
0
 42
0.0000001
 43
0.0000001
 44
0.0000000001
 40
0.0
 40
0.0
 40
0.0
 40
0.0
 40
0.0616827718
 40
0.1234009272
 40
0.1851729724
 40
0.2470169198
 40
0.30895012
 40
0.3709891089
 40
0.4331494713
 40
0.4954456983
 40
0.5578910599
 40
0.6204975154
 40
0.6832755358
 40
0.7462342361
 40
0.8093811598
 40
0.8727211829
 40
0.9362616152
 40
1.0
 40
1.0
 40
1.0
 40
1.0
 10
10.9506356121
 20
7.3012987774
 30
0.0
 10
10.9440641852
 20
7.2943870764
 30
0.0
 10
10.931252777
 20
7.2802364888
 30
0.0
 10
10.9130874112
 20
7.2580929377
 30
0.0
 10
10.8960056198
 20
7.2350712841
 30
0.0
 10
10.8800434421
 20
7.2112199238
 30
0.0
 10
10.8652338285
 20
7.1865881415
 30
0.0
 10
10.8516074597
 20
7.1612271113
 30
0.0
 10
10.8391925367
 20
7.1351894277
 30
0.0
 10
10.8280147867
 20
7.1085290869
 30
0.0
 10
10.8180973788
 20
7.0813013643
 30
0.0
 10
10.8094607869
 20
7.0535627451
 30
0.0
 10
10.8021228364
 20
7.0253707461
 30
0.0
 10
10.7960987087
 20
6.9967837691
 30
0.0
 10
10.7914009476
 20
6.9678612379
 30
0.0
 10
10.7880389643
 20
6.9386625712
 30
0.0
 10
10.7860200408
 20
6.909249477
 30
0.0
 10
10.7855726576
 20
6.8895673351
 30
0.0
 10
10.7855726576
 20
6.8797124608
 30
0.0
  0
SPLINE
  5
3F5
100
AcDbEntity
  8
0
100
AcDbSpline
 62
7
  6
CONTINUOUS
 70
0
 71
3
 72
21
 73
17
 74
0
 42
0.0000001
 43
0.0000001
 44
0.0000000001
 40
0.0
 40
0.0
 40
0.0
 40
0.0
 40
0.0616589874
 40
0.1233772582
 40
0.1851685514
 40
0.2470460898
 40
0.3090224719
 40
0.3711096014
 40
0.4333186102
 40
0.4956597642
 40
0.5581424276
 40
0.6207749629
 40
0.6835646805
 40
0.7465180833
 40
0.8729074998
 40
1.0
 40
1.0
 40
1.0
 40
1.0
 10
10.8680322637
 20
7.2792364255
 30
0.0
 10
10.862424003
 20
7.2721594693
 30
0.0
 10
10.8515056446
 20
7.2577551254
 30
0.0
 10
10.8360645006
 20
7.2354538917
 30
0.0
 10
10.8215765275
 20
7.2124835519
 30
0.0
 10
10.8080657089
 20
7.18888184
 30
0.0
 10
10.7955538389
 20
7.1646869183
 30
0.0
 10
10.7840611438
 20
7.139938122
 30
0.0
 10
10.7736062959
 20
7.1146755614
 30
0.0
 10
10.7642062622
 20
7.088940224
 30
0.0
 10
10.7558761696
 20
7.0627738574
 30
0.0
 10
10.7486295563
 20
7.0362190231
 30
0.0
 10
10.742478145
 20
7.0093182756
 30
0.0
 10
10.7357415596
 20
6.9730050247
 30
0.0
 10
10.7301134895
 20
6.9269527906
 30
0.0
 10
10.7286220283
 20
6.8898145845
 30
0.0
 10
10.7286220283
 20
6.871202374
 30
0.0
  0
SPLINE
  5
3F6
100
AcDbEntity
  8
0
100
AcDbSpline
 62
7
  6
CONTINUOUS
 70
0
 71
3
 72
41
 73
37
 74
0
 42
0.0000001
 43
0.0000001
 44
0.0000000001
 40
0.0
 40
0.0
 40
0.0
 40
0.0
 40
0.0299421701
 40
0.0599087164
 40
0.0899234211
 40
0.1200088983
 40
0.1501860543
 40
0.1804736026
 40
0.2108876422
 40
0.2414413123
 40
0.2721445279
 40
0.3030038001
 40
0.33402214
 40
0.3651990456
 40
0.3965305656
 40
0.428009435
 40
0.4596252751
 40
0.4913648511
 40
0.523212379
 40
0.5551498748
 40
0.5871575372
 40
0.6192141578
 40
0.6512975514
 40
0.6833850007
 40
0.7154537075
 40
0.7314764095
 40
0.7474860758
 40
0.7794508394
 40
0.8113324795
 40
0.8431123195
 40
0.8747737607
 40
0.9063025939
 40
0.9376875098
 40
0.9533255635
 40
0.9689249841
 40
1.0
 40
1.0
 40
1.0
 40
1.0
 10
8.5245356335
 20
6.3383946035
 30
0.0
 10
8.5178168186
 20
6.3319047247
 30
0.0
 10
8.5038508761
 20
6.3194487242
 30
0.0
 10
8.4814752608
 20
6.302479625
 30
0.0
 10
8.4577873135
 20
6.2873103511
 30
0.0
 10
8.43291939
 20
6.274026001
 30
0.0
 10
8.4070082104
 20
6.2626991548
 30
0.0
 10
8.3801967762
 20
6.2533920783
 30
0.0
 10
8.3526328373
 20
6.2461556897
 30
0.0
 10
8.3244682522
 20
6.2410294939
 30
0.0
 10
8.2958580902
 20
6.2380413342
 30
0.0
 10
8.2669597871
 20
6.2372072745
 30
0.0
 10
8.2379322756
 20
6.2385315284
 30
0.0
 10
8.2089351176
 20
6.2420064565
 30
0.0
 10
8.1801276349
 20
6.2476126245
 30
0.0
 10
8.1516680452
 20
6.2553189235
 30
0.0
 10
8.123712604
 20
6.265082748
 30
0.0
 10
8.0964147556
 20
6.2768502305
 30
0.0
 10
8.0699243045
 20
6.2905565531
 30
0.0
 10
8.044386609
 20
6.3061262974
 30
0.0
 10
8.0199417778
 20
6.3234738809
 30
0.0
 10
7.996723973
 20
6.3425039398
 30
0.0
 10
7.9748604539
 20
6.3631121643
 30
0.0
 10
7.9544717429
 20
6.3851846875
 30
0.0
 10
7.93879673
 20
6.4047063101
 30
0.0
 10
7.9271017673
 20
6.420932741
 30
0.0
 10
7.9159951544
 20
6.4375283862
 30
0.0
 10
7.9032257465
 20
6.458946089
 30
0.0
 10
7.8897642953
 20
6.485596643
 30
0.0
 10
7.8782443437
 20
6.5130404813
 30
0.0
 10
7.8687298143
 20
6.5411265022
 30
0.0
 10
7.8612731214
 20
6.5696998211
 30
0.0
 10
7.8568026869
 20
6.5938188169
 30
0.0
 10
7.8542948834
 20
6.6131980967
 30
0.0
 10
7.8525051412
 20
6.6325588459
 30
0.0
 10
7.8519632247
 20
6.6471276571
 30
0.0
 10
7.8519632247
 20
6.6568224421
 30
0.0
  0
SPLINE
  5
3F7
100
AcDbEntity
  8
0
100
AcDbSpline
 62
7
  6
CONTINUOUS
 70
0
 71
3
 72
41
 73
37
 74
0
 42
0.0000001
 43
0.0000001
 44
0.0000000001
 40
0.0
 40
0.0
 40
0.0
 40
0.0
 40
0.0299327975
 40
0.0598990847
 40
0.0899216457
 40
0.120021936
 40
0.1502195891
 40
0.1805319766
 40
0.2109738325
 40
0.2415569509
 40
0.2722899616
 40
0.3031781839
 40
0.3342235602
 40
0.3654246649
 40
0.3967767843
 40
0.4282720628
 40
0.4598997064
 40
0.4916462394
 40
0.5234958051
 40
0.5554305039
 40
0.5874307627
 40
0.6194757288
 40
0.6515436807
 40
0.6836124521
 40
0.7156598609
 40
0.731671076
 40
0.7476688466
 40
0.7796090623
 40
0.8114655358
 40
0.8432202292
 40
0.8748571324
 40
0.9063625509
 40
0.9377255873
 40
0.9533532926
 40
0.96894296
 40
1.0
 40
1.0
 40
1.0
 40
1.0
 10
8.5244087244
 20
6.3385332862
 30
0.0
 10
8.5175689316
 20
6.3323451519
 30
0.0
 10
8.5033891406
 20
6.3204942094
 30
0.0
 10
8.4807798152
 20
6.3044288286
 30
0.0
 10
8.4569398559
 20
6.2901498761
 30
0.0
 10
8.4319990896
 20
6.2777353818
 30
0.0
 10
8.4060911083
 20
6.2672514015
 30
0.0
 10
8.3793552251
 20
6.2587540633
 30
0.0
 10
8.3519349826
 20
6.2522886375
 30
0.0
 10
8.3239775639
 20
6.2478894859
 30
0.0
 10
8.2956329424
 20
6.2455798494
 30
0.0
 10
8.2670530891
 20
6.2453717566
 30
0.0
 10
8.2383911552
 20
6.2472659746
 30
0.0
 10
8.2098006583
 20
6.2512520224
 30
0.0
 10
8.1814346673
 20
6.2573082417
 30
0.0
 10
8.1534449935
 20
6.2654019237
 30
0.0
 10
8.1259813885
 20
6.275489493
 30
0.0
 10
8.0991907547
 20
6.2875167461
 30
0.0
 10
8.0732163691
 20
6.3014191459
 30
0.0
 10
8.0481971315
 20
6.317122162
 30
0.0
 10
8.0242668166
 20
6.3345416912
 30
0.0
 10
8.0015534216
 20
6.3535844195
 30
0.0
 10
7.9801782797
 20
6.3741486308
 30
0.0
 10
7.9602562064
 20
6.3961235858
 30
0.0
 10
7.9449475015
 20
6.4155225059
 30
0.0
 10
7.9335295356
 20
6.431627711
 30
0.0
 10
7.922688681
 20
6.4480873471
 30
0.0
 10
7.9102284175
 20
6.4693091406
 30
0.0
 10
7.8970972212
 20
6.4956882843
 30
0.0
 10
7.8858631505
 20
6.5228292812
 30
0.0
 10
7.8765869758
 20
6.5505865073
 30
0.0
 10
7.8693184959
 20
6.5788107806
 30
0.0
 10
7.864961606
 20
6.6026260789
 30
0.0
 10
7.8625176424
 20
6.6217582606
 30
0.0
 10
7.8607734687
 20
6.6408713433
 30
0.0
 10
7.8602454275
 20
6.6552523531
 30
0.0
 10
7.8602454275
 20
6.6648224361
 30
0.0
  0
SPLINE
  5
3F8
100
AcDbEntity
  8
0
100
AcDbSpline
 62
7
  6
CONTINUOUS
 70
0
 71
3
 72
23
 73
19
 74
0
 42
0.0000001
 43
0.0000001
 44
0.0000000001
 40
0.0
 40
0.0
 40
0.0
 40
0.0
 40
0.0616767944
 40
0.1233926325
 40
0.1851653646
 40
0.2470123348
 40
0.3089502254
 40
0.3709949156
 40
0.4331613541
 40
0.4954634263
 40
0.5579138355
 40
0.6205240237
 40
0.6833040038
 40
0.7462624801
 40
0.8094066712
 40
0.8727412197
 40
0.9362731029
 40
1.0
 40
1.0
 40
1.0
 40
1.0
 10
10.8580315332
 20
7.2759455173
 30
0.0
 10
10.8512000964
 20
7.268586709
 30
0.0
 10
10.8378844181
 20
7.2535335577
 30
0.0
 10
10.8190109192
 20
7.2300141354
 30
0.0
 10
10.8012687479
 20
7.2055948666
 30
0.0
 10
10.7846942032
 20
7.1803255305
 30
0.0
 10
10.7693204492
 20
7.1542567656
 30
0.0
 10
10.7551783708
 20
7.1274410848
 30
0.0
 10
10.7422963521
 20
7.0999324094
 30
0.0
 10
10.730700283
 20
7.0717860542
 30
0.0
 10
10.7204134619
 20
7.0430586094
 30
0.0
 10
10.7114564826
 20
7.0138078616
 30
0.0
 10
10.7038472761
 20
6.9840926225
 30
0.0
 10
10.6976011082
 20
6.9539725822
 30
0.0
 10
10.6927305884
 20
6.9235084531
 30
0.0
 10
10.6892451809
 20
6.8927609282
 30
0.0
 10
10.6871522038
 20
6.8617930122
 30
0.0
 10
10.6866883985
 20
6.8410722966
 30
0.0
 10
10.6866883985
 20
6.8306975955
 30
0.0
  0
SPLINE
  5
3F9
100
AcDbEntity
  8
0
100
AcDbSpline
 62
7
  6
CONTINUOUS
 70
0
 71
3
 72
39
 73
35
 74
0
 42
0.0000001
 43
0.0000001
 44
0.0000000001
 40
0.0
 40
0.0
 40
0.0
 40
0.0
 40
0.0307265667
 40
0.061283732
 40
0.0916944584
 40
0.1219869794
 40
0.1521939075
 40
0.1823510588
 40
0.2124961259
 40
0.2426672571
 40
0.272901616
 40
0.3032339912
 40
0.3336955152
 40
0.3643125574
 40
0.3951058364
 40
0.4260897709
 40
0.4572720783
 40
0.4886536371
 40
0.5202285889
 40
0.5519846533
 40
0.583903635
 40
0.6159621066
 40
0.6481322233
 40
0.6803826412
 40
0.7126795213
 40
0.7449875906
 40
0.7772712311
 40
0.8094955778
 40
0.8416276017
 40
0.8736371467
 40
0.9054979036
 40
0.9371883858
 40
0.9686921077
 40
1.0
 40
1.0
 40
1.0
 40
1.0
 10
8.5458081692
 20
6.5623869845
 30
0.0
 10
8.5441228788
 20
6.5534662336
 30
0.0
 10
8.539917729
 20
6.535820941
 30
0.0
 10
8.5311289768
 20
6.5101515003
 30
0.0
 10
8.5199499589
 20
6.4855666197
 30
0.0
 10
8.5064763756
 20
6.4622800748
 30
0.0
 10
8.490822996
 20
6.4404907269
 30
0.0
 10
8.4731236455
 20
6.420385735
 30
0.0
 10
8.4535298774
 20
6.402137479
 30
0.0
 10
8.4322097049
 20
6.3859023152
 30
0.0
 10
8.409345981
 20
6.3718191765
 30
0.0
 10
8.3851347737
 20
6.3600083964
 30
0.0
 10
8.3597836659
 20
6.35057055
 30
0.0
 10
8.3335098445
 20
6.3435856753
 30
0.0
 10
8.306538159
 20
6.3391127239
 30
0.0
 10
8.279099187
 20
6.3371891307
 30
0.0
 10
8.2514272623
 20
6.3378304085
 30
0.0
 10
8.2237584513
 20
6.3410302212
 30
0.0
 10
8.1963285817
 20
6.3467605288
 30
0.0
 10
8.1693712831
 20
6.3549718442
 30
0.0
 10
8.1431159932
 20
6.3655935611
 30
0.0
 10
8.1177860798
 20
6.3785347318
 30
0.0
 10
8.0935970046
 20
6.3936848451
 30
0.0
 10
8.0707545038
 20
6.4109147008
 30
0.0
 10
8.0494528204
 20
6.430077456
 30
0.0
 10
8.0298731595
 20
6.4510099746
 30
0.0
 10
8.0121821911
 20
6.4735341773
 30
0.0
 10
7.9965305681
 20
6.4974584618
 30
0.0
 10
7.9830516616
 20
6.5225793063
 30
0.0
 10
7.9718605255
 20
6.5486831178
 30
0.0
 10
7.9630528975
 20
6.57554764
 30
0.0
 10
7.9567043875
 20
6.6029450037
 30
0.0
 10
7.9528694892
 20
6.6306389139
 30
0.0
 10
7.9520083864
 20
6.6492083472
 30
0.0
 10
7.9520083864
 20
6.6584586533
 30
0.0
  0
SPLINE
  5
3FA
100
AcDbEntity
  8
0
100
AcDbSpline
 62
7
  6
CONTINUOUS
 70
0
 71
3
 72
39
 73
35
 74
0
 42
0.0000001
 43
0.0000001
 44
0.0000000001
 40
0.0
 40
0.0
 40
0.0
 40
0.0
 40
0.030506884
 40
0.0608772006
 40
0.0911377608
 40
0.1213191414
 40
0.1514546677
 40
0.1815792649
 40
0.2117282409
 40
0.2419360505
 40
0.2722350994
 40
0.3026546394
 40
0.3332198018
 40
0.3639508022
 40
0.3948623419
 40
0.4259632232
 40
0.4572561714
 40
0.4887378589
 40
0.5203991149
 40
0.5522253025
 40
0.5841968458
 40
0.6162898785
 40
0.6484769909
 40
0.6807280549
 40
0.7130111068
 40
0.7452932699
 40
0.7775416935
 40
0.8097244907
 40
0.8418116568
 40
0.873775953
 40
0.9055937023
 40
0.9372457101
 40
0.9687171375
 40
1.0
 40
1.0
 40
1.0
 40
1.0
 10
8.5441074351
 20
6.5628481824
 30
0.0
 10
8.5417031184
 20
6.5551294884
 30
0.0
 10
8.5361909471
 20
6.5399383964
 30
0.0
 10
8.5258564482
 20
6.5180717576
 30
0.0
 10
8.5135546679
 20
6.49734561
 30
0.0
 10
8.4993836115
 20
6.4779270591
 30
0.0
 10
8.4834552444
 20
6.45996961
 30
0.0
 10
8.4658958888
 20
6.4436160202
 30
0.0
 10
8.4468448764
 20
6.4289959806
 30
0.0
 10
8.4264534786
 20
6.4162253275
 30
0.0
 10
8.4048835907
 20
6.4054050609
 30
0.0
 10
8.3823064002
 20
6.3966205603
 30
0.0
 10
8.3589009697
 20
6.389940933
 30
0.0
 10
8.3348527814
 20
6.385418495
 30
0.0
 10
8.3103522396
 20
6.3830883618
 30
0.0
 10
8.2855931327
 20
6.3829682862
 30
0.0
 10
8.2607711092
 20
6.3850585641
 30
0.0
 10
8.2360821496
 20
6.3893420797
 30
0.0
 10
8.2117210497
 20
6.3957844814
 30
0.0
 10
8.1878798958
 20
6.404334422
 30
0.0
 10
8.1647465847
 20
6.4149240329
 30
0.0
 10
8.1425033803
 20
6.4274694763
 30
0.0
 10
8.1213255063
 20
6.4418716022
 30
0.0
 10
8.1013798025
 20
6.4580167329
 30
0.0
 10
8.0828234038
 20
6.4757775107
 30
0.0
 10
8.0658025233
 20
6.4950139073
 30
0.0
 10
8.0504513417
 20
6.515574335
 30
0.0
 10
8.0368909611
 20
6.5372968191
 30
0.0
 10
8.0252284663
 20
6.5600102326
 30
0.0
 10
8.0155560864
 20
6.5835356864
 30
0.0
 10
8.007950372
 20
6.6076876251
 30
0.0
 10
8.0024718422
 20
6.6322763028
 30
0.0
 10
7.9991640257
 20
6.6571053116
 30
0.0
 10
7.9984216581
 20
6.6737446493
 30
0.0
 10
7.9984216581
 20
6.6820347775
 30
0.0
  0
SPLINE
  5
3FB
100
AcDbEntity
  8
0
100
AcDbSpline
 62
7
  6
CONTINUOUS
 70
0
 71
3
 72
15
 73
11
 74
0
 42
0.0000001
 43
0.0000001
 44
0.0000000001
 40
0.0
 40
0.0
 40
0.0
 40
0.0
 40
0.1234188196
 40
0.2471752092
 40
0.3713377874
 40
0.4959667828
 40
0.6211128169
 40
0.7468164455
 40
0.8731055834
 40
1.0
 40
1.0
 40
1.0
 40
1.0
 10
10.7328806065
 20
7.2176334296
 30
0.0
 10
10.7237129267
 20
7.203434953
 30
0.0
 10
10.7063948647
 20
7.1743105873
 30
0.0
 10
10.6836582908
 20
7.1287775494
 30
0.0
 10
10.6642334203
 20
7.0815544351
 30
0.0
 10
10.6482149548
 20
7.0328707371
 30
0.0
 10
10.6356786023
 20
6.9829592645
 30
0.0
 10
10.6266841744
 20
6.9320586848
 30
0.0
 10
10.621274001
 20
6.8804158585
 30
0.0
 10
10.6200766832
 20
6.845732543
 30
0.0
 10
10.6200766832
 20
6.8283556156
 30
0.0
  0
SPLINE
  5
3FC
100
AcDbEntity
  8
0
100
AcDbSpline
 62
7
  6
CONTINUOUS
 70
0
 71
3
 72
41
 73
37
 74
0
 42
0.0000001
 43
0.0000001
 44
0.0000000001
 40
0.0
 40
0.0
 40
0.0
 40
0.0
 40
0.0299421231
 40
0.0449237695
 40
0.0599145183
 40
0.0899291758
 40
0.1200146052
 40
0.1350933672
 40
0.1501974867
 40
0.1804849861
 40
0.2108989765
 40
0.2414525971
 40
0.2721557632
 40
0.3030149856
 40
0.3340332752
 40
0.3652101299
 40
0.396541598
 40
0.4280204146
 40
0.4596362012
 40
0.4913757235
 40
0.5232231978
 40
0.5551606402
 40
0.5871682493
 40
0.6192248165
 40
0.6513081566
 40
0.6833955523
 40
0.7154642055
 40
0.7474916905
 40
0.7794564022
 40
0.8113379898
 40
0.8431177829
 40
0.8747791608
 40
0.9063079861
 40
0.9376927275
 40
0.9689252295
 40
1.0
 40
1.0
 40
1.0
 40
1.0
 10
8.463221351
 20
6.4877187687
 30
0.0
 10
8.4589909822
 20
6.4836325533
 30
0.0
 10
8.4523961161
 20
6.4777507778
 30
0.0
 10
8.4431600773
 20
6.4704528495
 30
0.0
 10
8.4336299704
 20
6.4635180039
 30
0.0
 10
8.4211946944
 20
6.4555546058
 30
0.0
 10
8.4081548163
 20
6.4485889072
 30
0.0
 10
8.3974002871
 20
6.443633503
 30
0.0
 10
8.3864236004
 20
6.4390871667
 30
0.0
 10
8.3723410023
 20
6.4341985642
 30
0.0
 10
8.354986328
 20
6.429642491
 30
0.0
 10
8.337252965
 20
6.4264148424
 30
0.0
 10
8.3192391895
 20
6.4245334247
 30
0.0
 10
8.3010439554
 20
6.4240082785
 30
0.0
 10
8.2827673784
 20
6.4248420765
 30
0.0
 10
8.2645099111
 20
6.4270300024
 30
0.0
 10
8.2463718706
 20
6.4305598193
 30
0.0
 10
8.2284528738
 20
6.4354119373
 30
0.0
 10
8.2108513026
 20
6.4415595292
 30
0.0
 10
8.1936637706
 20
6.4489686819
 30
0.0
 10
8.1769845998
 20
6.4575985852
 30
0.0
 10
8.1609053112
 20
6.4674017571
 30
0.0
 10
8.1455141282
 20
6.4783243037
 30
0.0
 10
8.1308954995
 20
6.490306214
 30
0.0
 10
8.117129641
 20
6.503281687
 30
0.0
 10
8.1042921003
 20
6.5171794896
 30
0.0
 10
8.0924533469
 20
6.5319233442
 30
0.0
 10
8.0816783884
 20
6.547432343
 30
0.0
 10
8.0720264187
 20
6.5636213865
 30
0.0
 10
8.0635504909
 20
6.5804016477
 30
0.0
 10
8.0562972388
 20
6.5976810425
 30
0.0
 10
8.0503065944
 20
6.6153647728
 30
0.0
 10
8.0456116269
 20
6.6333556699
 30
0.0
 10
8.0422382452
 20
6.6515553458
 30
0.0
 10
8.0402052344
 20
6.6698624843
 30
0.0
 10
8.0397498648
 20
6.6821063334
 30
0.0
 10
8.0397498648
 20
6.6882104183
 30
0.0
  0
SPLINE
  5
3FD
100
AcDbEntity
  8
0
100
AcDbSpline
 62
7
  6
CONTINUOUS
 70
0
 71
3
 72
37
 73
33
 74
0
 42
0.0000001
 43
0.0000001
 44
0.0000000001
 40
0.0
 40
0.0
 40
0.0
 40
0.0
 40
0.0300623314
 40
0.0602284727
 40
0.090508308
 40
0.1209098394
 40
0.1514390756
 40
0.1820999571
 40
0.2128943223
 40
0.2438219104
 40
0.2748803902
 40
0.3060654202
 40
0.3373707362
 40
0.3687882666
 40
0.4003082788
 40
0.4319195382
 40
0.4636094829
 40
0.4953644121
 40
0.5589826459
 40
0.6226772945
 40
0.6545266071
 40
0.6863468051
 40
0.7181223218
 40
0.749838232
 40
0.7814804615
 40
0.8130360048
 40
0.8444931003
 40
0.8758413977
 40
0.9070723878
 40
0.9381784108
 40
0.9691562021
 40
1.0
 40
1.0
 40
1.0
 40
1.0
 10
8.5128986446
 20
6.5595333958
 30
0.0
 10
8.5082250954
 20
6.5576914546
 30
0.0
 10
8.4987371415
 20
6.5543092431
 30
0.0
 10
8.4841797802
 20
6.5501708784
 30
0.0
 10
8.4693284741
 20
6.5469744284
 30
0.0
 10
8.4542423645
 20
6.5447326495
 30
0.0
 10
8.4389804659
 20
6.5434541813
 30
0.0
 10
8.4236027457
 20
6.5431439657
 30
0.0
 10
8.4081695307
 20
6.5438030904
 30
0.0
 10
8.3927413631
 20
6.5454288669
 30
0.0
 10
8.3773787419
 20
6.5480148268
 30
0.0
 10
8.3621418986
 20
6.5515507525
 30
0.0
 10
8.347090562
 20
6.556022723
 30
0.0
 10
8.3322837252
 20
6.5614131076
 30
0.0
 10
8.3177793681
 20
6.5677007306
 30
0.0
 10
8.3036344463
 20
6.5748607808
 30
0.0
 10
8.2899038851
 20
6.5828655723
 30
0.0
 10
8.2722143736
 20
6.5946268435
 30
0.0
 10
8.2514102684
 20
6.6112748385
 30
0.0
 10
8.232680284
 20
6.6302478355
 30
0.0
 10
8.2191051956
 20
6.6466520249
 30
0.0
 10
8.209667513
 20
6.6595206515
 30
0.0
 10
8.2010131408
 20
6.6729015117
 30
0.0
 10
8.1931755405
 20
6.6867426301
 30
0.0
 10
8.1861855811
 20
6.7009896632
 30
0.0
 10
8.1800706714
 20
6.7155868333
 30
0.0
 10
8.1748548661
 20
6.7304769386
 30
0.0
 10
8.1705586334
 20
6.7456016686
 30
0.0
 10
8.1671989734
 20
6.7609016145
 30
0.0
 10
8.1647889014
 20
6.7763172033
 30
0.0
 10
8.1633382917
 20
6.7917869819
 30
0.0
 10
8.1630137973
 20
6.8021202317
 30
0.0
 10
8.1630137973
 20
6.8072742412
 30
0.0
  0
SPLINE
  5
3FE
100
AcDbEntity
  8
0
100
AcDbSpline
 62
7
  6
CONTINUOUS
 70
0
 71
3
 72
23
 73
19
 74
0
 42
0.0000001
 43
0.0000001
 44
0.0000000001
 40
0.0
 40
0.0
 40
0.0
 40
0.0
 40
0.0617101446
 40
0.123441395
 40
0.1852146431
 40
0.247050352
 40
0.3089683478
 40
0.3709876199
 40
0.4331261339
 40
0.495400661
 40
0.5578266111
 40
0.6204179017
 40
0.6831868168
 40
0.746143859
 40
0.8092980008
 40
0.8726552579
 40
0.9362226181
 40
1.0
 40
1.0
 40
1.0
 40
1.0
 10
10.6087369784
 20
7.1226390269
 30
0.0
 10
10.6003401983
 20
7.1145283872
 30
0.0
 10
10.5839581865
 20
7.0978688786
 30
0.0
 10
10.560698398
 20
7.0716444004
 30
0.0
 10
10.538800868
 20
7.0442405666
 30
0.0
 10
10.5183169483
 20
7.0157214596
 30
0.0
 10
10.4992936407
 20
6.9861526355
 30
0.0
 10
10.4817748476
 20
6.9556023756
 30
0.0
 10
10.4658008898
 20
6.9241411543
 30
0.0
 10
10.4514085482
 20
6.8918415528
 30
0.0
 10
10.4386309445
 20
6.8587780696
 30
0.0
 10
10.427497478
 20
6.8250269522
 30
0.0
 10
10.4180337732
 20
6.7906660356
 30
0.0
 10
10.4102615172
 20
6.7557744981
 30
0.0
 10
10.4041986435
 20
6.7204329583
 30
0.0
 10
10.3998588018
 20
6.6847223345
 30
0.0
 10
10.3972522574
 20
6.648726313
 30
0.0
 10
10.3966747812
 20
6.6246312758
 30
0.0
 10
10.3966747812
 20
6.612565936
 30
0.0
  0
SPLINE
  5
3FF
100
AcDbEntity
  8
0
100
AcDbSpline
 62
7
  6
CONTINUOUS
 70
0
 71
3
 72
21
 73
17
 74
0
 42
0.0000001
 43
0.0000001
 44
0.0000000001
 40
0.0
 40
0.0
 40
0.0
 40
0.0
 40
0.0616925892
 40
0.1234173969
 40
0.18519348
 40
0.2470394225
 40
0.3089731364
 40
0.3710117171
 40
0.4331712991
 40
0.4954668807
 40
0.5579122294
 40
0.6205197148
 40
0.6833002178
 40
0.7462634036
 40
0.8727301514
 40
1.0
 40
1.0
 40
1.0
 40
1.0
 10
7.9619313468
 20
6.9208655839
 30
0.0
 10
7.9578880935
 20
6.9166967008
 30
0.0
 10
7.9500041303
 20
6.9081554228
 30
0.0
 10
7.9388220487
 20
6.8947717464
 30
0.0
 10
7.9283041745
 20
6.8808414034
 30
0.0
 10
7.9184733216
 20
6.8663943784
 30
0.0
 10
7.9093503198
 20
6.8514612851
 30
0.0
 10
7.9009544944
 20
6.8360739794
 30
0.0
 10
7.8933037139
 20
6.8202651599
 30
0.0
 10
7.8864142843
 20
6.8040684436
 30
0.0
 10
7.8803007313
 20
6.7875182963
 30
0.0
 10
7.8749760646
 20
6.7706500155
 30
0.0
 10
7.8704515944
 20
6.7534990281
 30
0.0
 10
7.865491935
 20
6.7302727722
 30
0.0
 10
7.8613439497
 20
6.7007033264
 30
0.0
 10
7.8602454275
 20
6.6768031996
 30
0.0
 10
7.8602454275
 20
6.6648224361
 30
0.0
  0
SPLINE
  5
400
100
AcDbEntity
  8
0
100
AcDbSpline
 62
7
  6
CONTINUOUS
 70
0
 71
3
 72
23
 73
19
 74
0
 42
0.0000001
 43
0.0000001
 44
0.0000000001
 40
0.0
 40
0.0
 40
0.0
 40
0.0
 40
0.0630509608
 40
0.1257811011
 40
0.1882283924
 40
0.2504394296
 40
0.3124681041
 40
0.3743739968
 40
0.436220547
 40
0.4980730677
 40
0.5599966832
 40
0.6220542745
 40
0.684304515
 40
0.7468000891
 40
0.8095860495
 40
0.872698958
 40
0.9361643744
 40
1.0
 40
1.0
 40
1.0
 40
1.0
 10
8.1863861744
 20
6.9344882883
 30
0.0
 10
8.1781796598
 20
6.9332307296
 30
0.0
 10
8.1619077045
 20
6.9300126214
 30
0.0
 10
8.1380780745
 20
6.9230866982
 30
0.0
 10
8.1150540794
 20
6.9141226527
 30
0.0
 10
8.0930029121
 20
6.9031845153
 30
0.0
 10
8.0720818437
 20
6.8903501078
 30
0.0
 10
8.0524409058
 20
6.8757110773
 30
0.0
 10
8.0342207502
 20
6.8593720774
 30
0.0
 10
8.0175518693
 20
6.8414500505
 30
0.0
 10
8.0025535492
 20
6.822073353
 30
0.0
 10
7.9893330138
 20
6.8013807929
 30
0.0
 10
7.9779846186
 20
6.7795206191
 30
0.0
 10
7.9685891934
 20
6.7566493444
 30
0.0
 10
7.9612134309
 20
6.7329308069
 30
0.0
 10
7.9559096477
 20
6.708534086
 30
0.0
 10
7.9527150099
 20
6.6836357564
 30
0.0
 10
7.9520083864
 20
6.6668642839
 30
0.0
 10
7.9520083864
 20
6.6584586533
 30
0.0
  0
SPLINE
  5
401
100
AcDbEntity
  8
0
100
AcDbSpline
 62
7
  6
CONTINUOUS
 70
0
 71
3
 72
25
 73
21
 74
0
 42
0.0000001
 43
0.0000001
 44
0.0000000001
 40
0.0
 40
0.0
 40
0.0
 40
0.0
 40
0.0626906788
 40
0.1251309868
 40
0.1873614929
 40
0.2494282334
 40
0.3113815514
 40
0.3732747934
 40
0.4351629036
 40
0.4971009629
 40
0.5591427229
 40
0.621339188
 40
0.6837372821
 40
0.7150316645
 40
0.7463915605
 40
0.8093116013
 40
0.8725387158
 40
0.9042796372
 40
0.9361053813
 40
1.0
 40
1.0
 40
1.0
 40
1.0
 10
8.18685259
 20
6.9327902265
 30
0.0
 10
8.1800515338
 20
6.9309295374
 30
0.0
 10
8.166619533
 20
6.9266673793
 30
0.0
 10
8.1470970303
 20
6.9186744487
 30
0.0
 10
8.1283551356
 20
6.9091418988
 30
0.0
 10
8.110508536
 20
6.8981274011
 30
0.0
 10
8.0936643598
 20
6.8856970351
 30
0.0
 10
8.0779242805
 20
6.8719256447
 30
0.0
 10
8.0633831308
 20
6.8568961576
 30
0.0
 10
8.0501285426
 20
6.8406992164
 30
0.0
 10
8.0382402201
 20
6.8234322549
 30
0.0
 10
8.0277899535
 20
6.8052001805
 30
0.0
 10
8.0203378615
 20
6.7893059772
 30
0.0
 10
8.0151536109
 20
6.7762277425
 30
0.0
 10
8.0104840879
 20
6.7628946767
 30
0.0
 10
8.0056468792
 20
6.7458314606
 30
0.0
 10
8.0021809964
 20
6.7283946598
 30
0.0
 10
8.0002343998
 20
6.7142639019
 30
0.0
 10
7.998838313
 20
6.6999934386
 30
0.0
 10
7.9984216581
 20
6.6892211829
 30
0.0
 10
7.9984216581
 20
6.6820347775
 30
0.0
  0
SPLINE
  5
402
100
AcDbEntity
  8
0
100
AcDbSpline
 62
7
  6
CONTINUOUS
 70
0
 71
3
 72
15
 73
11
 74
0
 42
0.0000001
 43
0.0000001
 44
0.0000000001
 40
0.0
 40
0.0
 40
0.0
 40
0.0
 40
0.1234394227
 40
0.2470466262
 40
0.3709825615
 40
0.4953948806
 40
0.6204121373
 40
0.7461393726
 40
0.8726516824
 40
1.0
 40
1.0
 40
1.0
 40
1.0
 10
8.1089005792
 20
6.8545386023
 30
0.0
 10
8.1034252971
 20
6.849249895
 30
0.0
 10
8.0930045897
 20
6.8380923377
 30
0.0
 10
8.0791647361
 20
6.8198269249
 30
0.0
 10
8.0672318286
 20
6.8001896144
 30
0.0
 10
8.0573180713
 20
6.7793643901
 30
0.0
 10
8.0495138909
 20
6.757543538
 30
0.0
 10
8.0438908385
 20
6.734928308
 30
0.0
 10
8.0404997197
 20
6.7117301966
 30
0.0
 10
8.0397498648
 20
6.6960639107
 30
0.0
 10
8.0397498648
 20
6.6882104183
 30
0.0
  0
SPLINE
  5
403
100
AcDbEntity
  8
0
100
AcDbSpline
 62
7
  6
CONTINUOUS
 70
0
 71
3
 72
11
 73
7
 74
0
 42
0.0000001
 43
0.0000001
 44
0.0000000001
 40
0.0
 40
0.0
 40
0.0
 40
0.0
 40
0.2476844252
 40
0.4968097473
 40
0.7475441204
 40
1.0
 40
1.0
 40
1.0
 40
1.0
 10
8.1824165782
 20
6.901750196
 30
0.0
 10
8.1792190053
 20
6.8944000741
 30
0.0
 10
8.1735779466
 20
6.8793075602
 30
0.0
 10
8.167495696
 20
6.8558498918
 30
0.0
 10
8.1638252506
 20
6.8317404907
 30
0.0
 10
8.1630137973
 20
6.8154441871
 30
0.0
 10
8.1630137973
 20
6.8072742412
 30
0.0
  0
SPLINE
  5
404
100
AcDbEntity
  8
0
100
AcDbSpline
 62
7
  6
CONTINUOUS
 70
0
 71
3
 72
37
 73
33
 74
0
 42
0.0000001
 43
0.0000001
 44
0.0000000001
 40
0.0
 40
0.0
 40
0.0
 40
0.0
 40
0.030016263
 40
0.0601295246
 40
0.0903516979
 40
0.1206927808
 40
0.1511607039
 40
0.1817612181
 40
0.2124978236
 40
0.2433717396
 40
0.2743819131
 40
0.3055250705
 40
0.3367957991
 40
0.3681866584
 40
0.399688319
 40
0.4312897265
 40
0.4629782877
 40
0.4947400799
 40
0.5583935115
 40
0.6221497118
 40
0.6540383457
 40
0.6859018069
 40
0.7177235367
 40
0.7494876038
 40
0.7811789424
 40
0.8127835901
 40
0.8442889092
 40
0.8756837418
 40
0.9069588963
 40
0.9381062189
 40
0.9691217968
 40
1.0
 40
1.0
 40
1.0
 40
1.0
 10
8.5196267275
 20
6.5769030803
 30
0.0
 10
8.5151929912
 20
6.5748624935
 30
0.0
 10
8.5061691337
 20
6.5710757367
 30
0.0
 10
8.4922591053
 20
6.5663150391
 30
0.0
 10
8.4780096769
 20
6.5624836212
 30
0.0
 10
8.4634806421
 20
6.5595976211
 30
0.0
 10
8.4487319087
 20
6.5576687632
 30
0.0
 10
8.4338245443
 20
6.5567049467
 30
0.0
 10
8.4188201769
 20
6.5567100468
 30
0.0
 10
8.4037808372
 20
6.5576839516
 30
0.0
 10
8.3887686747
 20
6.5596225192
 30
0.0
 10
8.3738457081
 20
6.5625176305
 30
0.0
 10
8.3590735668
 20
6.5663572322
 30
0.0
 10
8.344513257
 20
6.5711253758
 30
0.0
 10
8.3302248548
 20
6.5768023305
 30
0.0
 10
8.3162674849
 20
6.5833644919
 30
0.0
 10
8.3026982441
 20
6.590785119
 30
0.0
 10
8.2851900875
 20
6.601787545
 30
0.0
 10
8.2645584805
 20
6.6175251916
 30
0.0
 10
8.2459470371
 20
6.6356358139
 30
0.0
 10
8.2324396643
 20
6.6513792824
 30
0.0
 10
8.2230403424
 20
6.6637676252
 30
0.0
 10
8.2144147579
 20
6.6766816909
 30
0.0
 10
8.2065980536
 20
6.6900686347
 30
0.0
 10
8.19962267
 20
6.7038730876
 30
0.0
 10
8.1935174251
 20
6.7180381128
 30
0.0
 10
8.1883076136
 20
6.7325052274
 30
0.0
 10
8.1840147566
 20
6.7472147384
 30
0.0
 10
8.1806567564
 20
6.7621057953
 30
0.0
 10
8.1782473577
 20
6.7771172787
 30
0.0
 10
8.1767969041
 20
6.7921861847
 30
0.0
 10
8.1764723876
 20
6.8022533067
 30
0.0
 10
8.1764723876
 20
6.8072742419
 30
0.0
  0
SPLINE
  5
405
100
AcDbEntity
  8
0
100
AcDbSpline
 62
7
  6
CONTINUOUS
 70
0
 71
3
 72
37
 73
33
 74
0
 42
0.0000001
 43
0.0000001
 44
0.0000000001
 40
0.0
 40
0.0
 40
0.0
 40
0.0
 40
0.0306084315
 40
0.0613230568
 40
0.0921423776
 40
0.1230638543
 40
0.1540839479
 40
0.1851981611
 40
0.2164010862
 40
0.2476864634
 40
0.2790472548
 40
0.3104757149
 40
0.3419634632
 40
0.3735015641
 40
0.4050806187
 40
0.4366908537
 40
0.4999469746
 40
0.5632051196
 40
0.5948178706
 40
0.6264004147
 40
0.6579429427
 40
0.6894360176
 40
0.7208706595
 40
0.7522384273
 40
0.783531503
 40
0.8147427878
 40
0.845865923
 40
0.8768954402
 40
0.9078268294
 40
0.9386559031
 40
0.9693816892
 40
1.0
 40
1.0
 40
1.0
 40
1.0
 10
11.8668882195
 20
6.7483112115
 30
0.0
 10
11.8587796851
 20
6.7485524052
 30
0.0
 10
11.8425437684
 20
6.7494455459
 30
0.0
 10
11.8182482288
 20
6.7520052142
 30
0.0
 10
11.7940272084
 20
6.7557806895
 30
0.0
 10
11.7699428162
 20
6.7607623001
 30
0.0
 10
11.7460557738
 20
6.7669373811
 30
0.0
 10
11.7224265809
 20
6.7742902685
 30
0.0
 10
11.6991150179
 20
6.7828023499
 30
0.0
 10
11.6761800529
 20
6.7924520051
 30
0.0
 10
11.6536796918
 20
6.8032147681
 30
0.0
 10
11.6316708583
 20
6.8150633719
 30
0.0
 10
11.6102092104
 20
6.827967882
 30
0.0
 10
11.5893491547
 20
6.8418954899
 30
0.0
 10
11.5691429676
 20
6.8568113752
 30
0.0
 10
11.543140011
 20
6.8779672888
 30
0.0
 10
11.5125285627
 20
6.9066847854
 30
0.0
 10
11.4847439428
 20
6.9381462712
 30
0.0
 10
11.4643777446
 20
6.9647749561
 30
0.0
 10
11.4500741326
 20
6.9854224524
 30
0.0
 10
11.4367774722
 20
7.0066943793
 30
0.0
 10
11.4245209607
 20
7.028537408
 30
0.0
 10
11.4133357518
 20
7.0508961628
 30
0.0
 10
11.4032501812
 20
7.07371414
 30
0.0
 10
11.3942897916
 20
7.0969336013
 30
0.0
 10
11.3864772679
 20
7.1204957997
 30
0.0
 10
11.379832409
 20
7.1443411232
 30
0.0
 10
11.3743720979
 20
7.1684092905
 30
0.0
 10
11.370110305
 20
7.1926392364
 30
0.0
 10
11.3670575941
 20
7.2169701456
 30
0.0
 10
11.3652221297
 20
7.2413392764
 30
0.0
 10
11.3648121499
 20
7.2576001401
 30
0.0
 10
11.3648121499
 20
7.2657148792
 30
0.0
  0
SPLINE
  5
406
100
AcDbEntity
  8
0
100
AcDbSpline
 62
7
  6
CONTINUOUS
 70
0
 71
3
 72
37
 73
33
 74
0
 42
0.0000001
 43
0.0000001
 44
0.0000000001
 40
0.0
 40
0.0
 40
0.0
 40
0.0
 40
0.0305246715
 40
0.0611594207
 40
0.0919037469
 40
0.1227559812
 40
0.1537133166
 40
0.1847718481
 40
0.2159266234
 40
0.2471717025
 40
0.2785002278
 40
0.3099045023
 40
0.3413760719
 40
0.3729058138
 40
0.4044840302
 40
0.4361005456
 40
0.4993874033
 40
0.5626979968
 40
0.5943439395
 40
0.6259629517
 40
0.6575444585
 40
0.689078253
 40
0.7205545976
 40
0.7519643229
 40
0.783298919
 40
0.8145506278
 40
0.8457125291
 40
0.8767785799
 40
0.9077438801
 40
0.9386040338
 40
0.9693571351
 40
1.0
 40
1.0
 40
1.0
 40
1.0
 10
11.8972740563
 20
6.6212369348
 30
0.0
 10
11.8868351355
 20
6.621013093
 30
0.0
 10
11.865903856
 20
6.6211128245
 30
0.0
 10
11.8345043345
 20
6.6228955348
 30
0.0
 10
11.8031263233
 20
6.6263066027
 30
0.0
 10
11.7718554783
 20
6.6313367764
 30
0.0
 10
11.7407757155
 20
6.637972414
 30
0.0
 10
11.7099708148
 20
6.646195571
 30
0.0
 10
11.6795237059
 20
6.6559840408
 30
0.0
 10
11.649516375
 20
6.6673113961
 30
0.0
 10
11.6200295993
 20
6.6801470625
 30
0.0
 10
11.5911427692
 20
6.6944564075
 30
0.0
 10
11.5629335967
 20
6.7102008993
 30
0.0
 10
11.5354781937
 20
6.7273379468
 30
0.0
 10
11.5088498101
 20
6.7458220021
 30
0.0
 10
11.4745388345
 20
6.7722001464
 30
0.0
 10
11.4340794935
 20
6.80827914
 30
0.0
 10
11.3972927742
 20
6.8481095654
 30
0.0
 10
11.3702953567
 20
6.881976466
 30
0.0
 10
11.3513186881
 20
6.9083074552
 30
0.0
 10
11.3336658724
 20
6.9354971866
 30
0.0
 10
11.3173838236
 20
6.9634731141
 30
0.0
 10
11.3025165748
 20
6.992159755
 30
0.0
 10
11.2891041497
 20
7.0214799359
 30
0.0
 10
11.2771827244
 20
7.0513547169
 30
0.0
 10
11.2667844593
 20
7.0817036819
 30
0.0
 10
11.2579374358
 20
7.1124451095
 30
0.0
 10
11.250665485
 20
7.1434962718
 30
0.0
 10
11.2449883734
 20
7.1747733864
 30
0.0
 10
11.2409212462
 20
7.2061927365
 30
0.0
 10
11.2384754637
 20
7.2376683238
 30
0.0
 10
11.2379291119
 20
7.2586735188
 30
0.0
 10
11.2379291119
 20
7.2691552687
 30
0.0
  0
SPLINE
  5
407
100
AcDbEntity
  8
0
100
AcDbSpline
 62
7
  6
CONTINUOUS
 70
0
 71
3
 72
39
 73
35
 74
0
 42
0.0000001
 43
0.0000001
 44
0.0000000001
 40
0.0
 40
0.0
 40
0.0
 40
0.0
 40
0.0302994142
 40
0.0607137667
 40
0.0912462364
 40
0.1218984695
 40
0.1526705755
 40
0.1835611444
 40
0.2145672808
 40
0.2456846573
 40
0.2769075822
 40
0.3082290828
 40
0.3396410016
 40
0.3711341041
 40
0.4026981963
 40
0.434322251
 40
0.4659945417
 40
0.4977027817
 40
0.5294342687
 40
0.5611760322
 40
0.5929149832
 40
0.624638065
 40
0.6563324035
 40
0.6879854565
 40
0.7195851603
 40
0.7511200715
 40
0.7825795054
 40
0.813953663
 40
0.8452337667
 40
0.87641213
 40
0.9074823969
 40
0.9384392444
 40
0.969279419
 40
1.0
 40
1.0
 40
1.0
 40
1.0
 10
11.9047848264
 20
6.5528727904
 30
0.0
 10
11.8936999476
 20
6.5509723303
 30
0.0
 10
11.8713720954
 20
6.5478094252
 30
0.0
 10
11.8376023749
 20
6.5449964955
 30
0.0
 10
11.8035952219
 20
6.5441141929
 30
0.0
 10
11.7694605482
 20
6.5451654213
 30
0.0
 10
11.7353067632
 20
6.5481466218
 30
0.0
 10
11.7012428224
 20
6.5530481724
 30
0.0
 10
11.6673772375
 20
6.559854318
 30
0.0
 10
11.633817907
 20
6.5685432515
 30
0.0
 10
11.6006717286
 20
6.5790871778
 30
0.0
 10
11.5680442721
 20
6.5914524014
 30
0.0
 10
11.5360394437
 20
6.6055994396
 30
0.0
 10
11.5047591586
 20
6.6214831488
 30
0.0
 10
11.474303019
 20
6.6390528687
 30
0.0
 10
11.4447679997
 20
6.6582525835
 30
0.0
 10
11.4162481413
 20
6.6790211
 30
0.0
 10
11.3888342537
 20
6.7012922417
 30
0.0
 10
11.3626136285
 20
6.7249950586
 30
0.0
 10
11.3376697632
 20
6.7500540519
 30
0.0
 10
11.3140820967
 20
6.7763894132
 30
0.0
 10
11.2919257583
 20
6.8039172769
 30
0.0
 10
11.2712713297
 20
6.8325499859
 30
0.0
 10
11.2521846167
 20
6.8621963659
 30
0.0
 10
11.234726445
 20
6.8927620176
 30
0.0
 10
11.2189524657
 20
6.9241496151
 30
0.0
 10
11.2049129828
 20
6.9562592126
 30
0.0
 10
11.192652782
 20
6.988988564
 30
0.0
 10
11.1822110173
 20
7.0222334293
 30
0.0
 10
11.1736210133
 20
7.0558879702
 30
0.0
 10
11.1669103207
 20
7.0898448408
 30
0.0
 10
11.1621003079
 20
7.1239963586
 30
0.0
 10
11.1592066096
 20
7.1582321419
 30
0.0
 10
11.1585598896
 20
7.1810875406
 30
0.0
 10
11.1585598896
 20
7.1924904825
 30
0.0
  0
SPLINE
  5
408
100
AcDbEntity
  8
0
100
AcDbSpline
 62
7
  6
CONTINUOUS
 70
0
 71
3
 72
40
 73
36
 74
0
 42
0.0000001
 43
0.0000001
 44
0.0000000001
 40
0.0
 40
0.0
 40
0.0
 40
0.0
 40
0.0302856134
 40
0.0454728426
 40
0.0606892917
 40
0.0912081585
 40
0.1218472933
 40
0.1526070428
 40
0.1834862056
 40
0.2144820647
 40
0.2455904394
 40
0.2768057526
 40
0.3081211137
 40
0.3395284153
 40
0.371018442
 40
0.402580989
 40
0.4342049906
 40
0.4658786561
 40
0.4975896116
 40
0.5293250475
 40
0.5610718684
 40
0.5928168467
 40
0.6245467762
 40
0.656248626
 40
0.6879096928
 40
0.7195177506
 40
0.7510611965
 40
0.7825291916
 40
0.8139117921
 40
0.8452000849
 40
0.8763862731
 40
0.9074638742
 40
0.9384275542
 40
0.9692738405
 40
1.0
 40
1.0
 40
1.0
 40
1.0
 10
11.9060132338
 20
6.4935140857
 30
0.0
 10
11.8940519934
 20
6.4913408036
 30
0.0
 10
11.8759913715
 20
6.4886026183
 30
0.0
 10
11.8517667979
 20
6.4860004725
 30
0.0
 10
11.827383169
 20
6.4840914406
 30
0.0
 10
11.7967258761
 20
6.4830202189
 30
0.0
 10
11.7598184299
 20
6.4838386951
 30
0.0
 10
11.7228719961
 20
6.4867568229
 30
0.0
 10
11.6860063281
 20
6.491765106
 30
0.0
 10
11.6493399558
 20
6.4988472499
 30
0.0
 10
11.6129909997
 20
6.5079803129
 30
0.0
 10
11.5770764719
 20
6.5191347565
 30
0.0
 10
11.5417119894
 20
6.5322745499
 30
0.0
 10
11.5070113812
 20
6.5473572853
 30
0.0
 10
11.473086332
 20
6.5643343157
 30
0.0
 10
11.4400460233
 20
6.5831509118
 30
0.0
 10
11.4079967858
 20
6.603746438
 30
0.0
 10
11.3770417592
 20
6.6260545476
 30
0.0
 10
11.3472805633
 20
6.6500033951
 30
0.0
 10
11.3188089786
 20
6.6755158661
 30
0.0
 10
11.2917186396
 20
6.7025098244
 30
0.0
 10
11.2660967431
 20
6.7308983758
 30
0.0
 10
11.2420257686
 20
6.7605901462
 30
0.0
 10
11.2195832146
 20
6.791489574
 30
0.0
 10
11.1988413505
 20
6.8234972153
 30
0.0
 10
11.1798669849
 20
6.8565100624
 30
0.0
 10
11.1627212511
 20
6.8904218723
 30
0.0
 10
11.1474594131
 20
6.9251235061
 30
0.0
 10
11.13413068
 20
6.960503281
 30
0.0
 10
11.1227780694
 20
6.9964473103
 30
0.0
 10
11.1134382143
 20
7.0328399319
 30
0.0
 10
11.1061413634
 20
7.06956384
 30
0.0
 10
11.1009110508
 20
7.1065012902
 30
0.0
 10
11.0977643906
 20
7.1435316649
 30
0.0
 10
11.0970611213
 20
7.1682533158
 30
0.0
 10
11.0970611213
 20
7.1805872304
 30
0.0
  0
SPLINE
  5
409
100
AcDbEntity
  8
0
100
AcDbSpline
 62
7
  6
CONTINUOUS
 70
0
 71
3
 72
41
 73
37
 74
0
 42
0.0000001
 43
0.0000001
 44
0.0000000001
 40
0.0
 40
0.0
 40
0.0
 40
0.0
 40
0.0149651996
 40
0.0299364931
 40
0.0449167821
 40
0.0599089182
 40
0.0899341032
 40
0.1200388663
 40
0.1502424845
 40
0.1805619571
 40
0.2110116425
 40
0.2416029682
 40
0.2723442151
 40
0.3032403796
 40
0.3342931163
 40
0.3655007534
 40
0.3968583759
 40
0.4283579735
 40
0.4599886442
 40
0.4917368524
 40
0.5235867277
 40
0.5555203998
 40
0.5875183631
 40
0.6195598661
 40
0.6516233184
 40
0.6836867077
 40
0.7157280223
 40
0.7477256751
 40
0.7796589214
 40
0.8115082642
 40
0.8432558433
 40
0.8748858002
 40
0.9063846018
 40
0.9377414415
 40
0.9689480117
 40
1.0
 40
1.0
 40
1.0
 40
1.0
 10
11.8860942598
 20
6.3335578479
 30
0.0
 10
11.8803809405
 20
6.3284822981
 30
0.0
 10
11.8687522389
 20
6.3185514056
 30
0.0
 10
11.850736903
 20
6.3043449364
 30
0.0
 10
11.8321693247
 20
6.290843649
 30
0.0
 10
11.8067007624
 20
6.2738005235
 30
0.0
 10
11.7735915274
 20
6.2543410364
 30
0.0
 10
11.732091525
 20
6.2340956859
 30
0.0
 10
11.6890165045
 20
6.2170469598
 30
0.0
 10
11.644597713
 20
6.2032863599
 30
0.0
 10
11.5990715442
 20
6.1928864068
 30
0.0
 10
11.5526806808
 20
6.1859020423
 30
0.0
 10
11.5056721471
 20
6.1823698879
 30
0.0
 10
11.4582961663
 20
6.182308138
 30
0.0
 10
11.4108047712
 20
6.1857165414
 30
0.0
 10
11.3634504908
 20
6.1925764314
 30
0.0
 10
11.3164850232
 20
6.2028508528
 30
0.0
 10
11.270157915
 20
6.216484748
 30
0.0
 10
11.2247152336
 20
6.2334052223
 30
0.0
 10
11.1803982955
 20
6.2535220152
 30
0.0
 10
11.1374424024
 20
6.2767279689
 30
0.0
 10
11.0960756202
 20
6.3028996087
 30
0.0
 10
11.0565175597
 20
6.3318977531
 30
0.0
 10
11.0189782122
 20
6.3635682468
 30
0.0
 10
10.9836568814
 20
6.3977428232
 30
0.0
 10
10.9507411313
 20
6.4342399751
 30
0.0
 10
10.9204058151
 20
6.4728659165
 30
0.0
 10
10.8928121035
 20
6.5134155575
 30
0.0
 10
10.8681066491
 20
6.5556736039
 30
0.0
 10
10.846420848
 20
6.5994157154
 30
0.0
 10
10.8278701351
 20
6.6444096431
 30
0.0
 10
10.8125533991
 20
6.6904165498
 30
0.0
 10
10.8005523204
 20
6.7371918772
 30
0.0
 10
10.7919311767
 20
6.7844879461
 30
0.0
 10
10.7867360486
 20
6.8320502406
 30
0.0
 10
10.7855726576
 20
6.8638553046
 30
0.0
 10
10.7855726576
 20
6.8797124608
 30
0.0
  0
SPLINE
  5
40A
100
AcDbEntity
  8
0
100
AcDbSpline
 62
7
  6
CONTINUOUS
 70
0
 71
3
 72
39
 73
35
 74
0
 42
0.0000001
 43
0.0000001
 44
0.0000000001
 40
0.0
 40
0.0
 40
0.0
 40
0.0
 40
0.0299266662
 40
0.0599122744
 40
0.0899762444
 40
0.1201363051
 40
0.1504081309
 40
0.1808050307
 40
0.2113376966
 40
0.2420140182
 40
0.2728389602
 40
0.3038145048
 40
0.3349396551
 40
0.3662104961
 40
0.3976203109
 40
0.4291597468
 40
0.4608170229
 40
0.4925781763
 40
0.524427339
 40
0.5563470433
 40
0.5883185489
 40
0.6203221868
 40
0.6523377131
 40
0.6843446718
 40
0.7163227595
 40
0.7482521892
 40
0.7801140462
 40
0.8118906336
 40
0.8435658017
 40
0.875125259
 40
0.906556837
 40
0.9378508556
 40
0.9689998537
 40
1.0
 40
1.0
 40
1.0
 40
1.0
 10
11.8607354719
 20
6.2513829123
 30
0.0
 10
11.8480443229
 20
6.2420257133
 30
0.0
 10
11.8219215078
 20
6.2242418662
 30
0.0
 10
11.7808094411
 20
6.2005526151
 30
0.0
 10
11.7379331692
 20
6.1799389977
 30
0.0
 10
11.6935078792
 20
6.1625048116
 30
0.0
 10
11.6477527687
 20
6.148335376
 30
0.0
 10
11.6008944925
 20
6.1375005132
 30
0.0
 10
11.5531648124
 20
6.1300532595
 30
0.0
 10
11.5047997521
 20
6.1260299206
 30
0.0
 10
11.4560383398
 20
6.125449861
 30
0.0
 10
11.4071214553
 20
6.1283154477
 30
0.0
 10
11.3582906454
 20
6.1346120652
 30
0.0
 10
11.3097869409
 20
6.1443081677
 30
0.0
 10
11.2618496708
 20
6.1573554526
 30
0.0
 10
11.2147153037
 20
6.1736891501
 30
0.0
 10
11.1686162963
 20
6.1932283411
 30
0.0
 10
11.1237799664
 20
6.2158763649
 30
0.0
 10
11.0804273851
 20
6.2415212873
 30
0.0
 10
11.0387722743
 20
6.2700364165
 30
0.0
 10
10.9990199899
 20
6.3012809752
 30
0.0
 10
10.9613665205
 20
6.3351007857
 30
0.0
 10
10.9259975325
 20
6.3713290222
 30
0.0
 10
10.8930874718
 20
6.4097870298
 30
0.0
 10
10.8627986707
 20
6.4502851622
 30
0.0
 10
10.8352805743
 20
6.4926237354
 30
0.0
 10
10.8106690247
 20
6.5365940092
 30
0.0
 10
10.7890855926
 20
6.5819792072
 30
0.0
 10
10.7706369841
 20
6.6285555472
 30
0.0
 10
10.755414507
 20
6.6760934146
 30
0.0
 10
10.7434935301
 20
6.7243581431
 30
0.0
 10
10.7349333573
 20
6.7731124005
 30
0.0
 10
10.7297764577
 20
6.8221125542
 30
0.0
 10
10.7286220283
 20
6.854869013
 30
0.0
 10
10.7286220283
 20
6.871202374
 30
0.0
  0
SPLINE
  5
40B
100
AcDbEntity
  8
0
100
AcDbSpline
 62
7
  6
CONTINUOUS
 70
0
 71
3
 72
39
 73
35
 74
0
 42
0.0000001
 43
0.0000001
 44
0.0000000001
 40
0.0
 40
0.0
 40
0.0
 40
0.0
 40
0.0299287948
 40
0.059897009
 40
0.0899267223
 40
0.1200385906
 40
0.1502513818
 40
0.180581566
 40
0.2110429683
 40
0.2416464942
 40
0.2723999312
 40
0.3033078244
 40
0.3343714267
 40
0.3655887199
 40
0.3969545069
 40
0.4284605632
 40
0.4600958419
 40
0.4918467274
 40
0.5236973326
 40
0.5556298315
 40
0.5876248182
 40
0.6196616882
 40
0.6517190381
 40
0.6837750752
 40
0.7158080317
 40
0.7477965784
 40
0.7797202346
 40
0.811559764
 40
0.8432975555
 40
0.8749179779
 40
0.9064077005
 40
0.9377560715
 40
0.968954922
 40
1.0
 40
1.0
 40
1.0
 40
1.0
 10
11.8570909955
 20
6.2414849569
 30
0.0
 10
11.8447980282
 20
6.2308455971
 30
0.0
 10
11.8193561911
 20
6.2105015103
 30
0.0
 10
11.7789143038
 20
6.1830194544
 30
0.0
 10
11.7363806049
 20
6.1586946424
 30
0.0
 10
11.6919826766
 20
6.1376576593
 30
0.0
 10
11.6459541415
 20
6.1200184362
 30
0.0
 10
11.5985381393
 20
6.105869766
 30
0.0
 10
11.5499847725
 20
6.0952856522
 30
0.0
 10
11.5005500811
 20
6.0883212959
 30
0.0
 10
11.4504945859
 20
6.0850127919
 30
0.0
 10
11.4000819455
 20
6.0853769942
 30
0.0
 10
11.3495775734
 20
6.089411417
 30
0.0
 10
11.2992472391
 20
6.0970942231
 30
0.0
 10
11.2493556857
 20
6.1083844592
 30
0.0
 10
11.2001652592
 20
6.1232222684
 30
0.0
 10
11.1519345596
 20
6.1415292325
 30
0.0
 10
11.1049170652
 20
6.1632086978
 30
0.0
 10
11.0593598345
 20
6.1881463617
 30
0.0
 10
11.0155022369
 20
6.216210889
 30
0.0
 10
10.9735747205
 20
6.2472546025
 30
0.0
 10
10.9337975925
 20
6.2811142125
 30
0.0
 10
10.8963798456
 20
6.3176116508
 30
0.0
 10
10.8615181247
 20
6.3565550649
 30
0.0
 10
10.8293956973
 20
6.3977397986
 30
0.0
 10
10.8001815119
 20
6.4409494596
 30
0.0
 10
10.7740292342
 20
6.4859569869
 30
0.0
 10
10.751076511
 20
6.5325258946
 30
0.0
 10
10.7314442567
 20
6.5804114674
 30
0.0
 10
10.715236044
 20
6.6293621365
 30
0.0
 10
10.7025374477
 20
6.6791203797
 30
0.0
 10
10.6934157555
 20
6.7294254316
 30
0.0
 10
10.6879192262
 20
6.7800093722
 30
0.0
 10
10.6866883985
 20
6.8138335096
 30
0.0
 10
10.6866883985
 20
6.8306975955
 30
0.0
  0
SPLINE
  5
40C
100
AcDbEntity
  8
0
100
AcDbSpline
 62
7
  6
CONTINUOUS
 70
0
 71
3
 72
43
 73
39
 74
0
 42
0.0000001
 43
0.0000001
 44
0.0000000001
 40
0.0
 40
0.0
 40
0.0
 40
0.0
 40
0.01496925
 40
0.0299562483
 40
0.0449631379
 40
0.0599919583
 40
0.090118291
 40
0.1203540319
 40
0.1355190495
 40
0.1507156865
 40
0.1659450591
 40
0.1812081336
 40
0.2118339455
 40
0.2426021657
 40
0.2735146469
 40
0.3045706119
 40
0.3357667045
 40
0.3670970831
 40
0.3985535554
 40
0.4301257479
 40
0.4618013078
 40
0.4935661321
 40
0.5254046204
 40
0.5572999456
 40
0.5892343393
 40
0.6211893888
 40
0.6531463419
 40
0.6850864147
 40
0.7169911016
 40
0.7488424797
 40
0.7806235077
 40
0.8123183144
 40
0.8439124724
 40
0.8753932594
 40
0.9067498653
 40
0.9379737275
 40
0.9690582281
 40
1.0
 40
1.0
 40
1.0
 40
1.0
 10
11.794429922
 20
6.1184241693
 30
0.0
 10
11.7873598635
 20
6.1142010268
 30
0.0
 10
11.7730581469
 20
6.1060032458
 30
0.0
 10
11.7511660522
 20
6.0944761432
 30
0.0
 10
11.7288458908
 20
6.0837243697
 30
0.0
 10
11.6985288723
 20
6.0704295919
 30
0.0
 10
11.6596755602
 20
6.0558083879
 30
0.0
 10
11.6198163189
 20
6.0439437245
 30
0.0
 10
11.5874037753
 20
6.0361205271
 30
0.0
 10
11.5628265083
 20
6.0310884209
 30
0.0
 10
11.5380361504
 20
6.0269038906
 30
0.0
 10
11.5047018488
 20
6.0224561786
 30
0.0
 10
11.4626310502
 20
6.0190432923
 30
0.0
 10
11.4118146887
 20
6.0183973409
 30
0.0
 10
11.3608337245
 20
6.0211977067
 30
0.0
 10
11.3099215961
 20
6.0274314629
 30
0.0
 10
11.2593093321
 20
6.0370697856
 30
0.0
 10
11.209227073
 20
6.0500685015
 30
0.0
 10
11.1599023471
 20
6.0663681884
 30
0.0
 10
11.111559239
 20
6.0858944854
 30
0.0
 10
11.0644173197
 20
6.1085583945
 30
0.0
 10
11.0186906798
 20
6.1342567144
 30
0.0
 10
10.9745869685
 20
6.1628725165
 30
0.0
 10
10.932306463
 20
6.1942756727
 30
0.0
 10
10.8920411686
 20
6.2283234421
 30
0.0
 10
10.8539739598
 20
6.2648611184
 30
0.0
 10
10.8182777403
 20
6.3037227077
 30
0.0
 10
10.7851146627
 20
6.3447316826
 30
0.0
 10
10.7546354145
 20
6.3877017921
 30
0.0
 10
10.7269785364
 20
6.4324378964
 30
0.0
 10
10.7022697979
 20
6.478736842
 30
0.0
 10
10.6806216335
 20
6.5263883813
 30
0.0
 10
10.6621326156
 20
6.5751760861
 30
0.0
 10
10.6468870111
 20
6.6248784059
 30
0.0
 10
10.6349543477
 20
6.6752693574
 30
0.0
 10
10.6263893055
 20
6.7261207042
 30
0.0
 10
10.6212310057
 20
6.7771983959
 30
0.0
 10
10.6200766832
 20
6.8113330059
 30
0.0
 10
10.6200766832
 20
6.8283556156
 30
0.0
  0
SPLINE
  5
40D
100
AcDbEntity
  8
0
100
AcDbSpline
 62
7
  6
CONTINUOUS
 70
0
 71
3
 72
42
 73
38
 74
0
 42
0.0000001
 43
0.0000001
 44
0.0000000001
 40
0.0
 40
0.0
 40
0.0
 40
0.0
 40
0.0149723977
 40
0.0299478538
 40
0.0449294096
 40
0.0599200691
 40
0.0749227785
 40
0.0899404134
 40
0.120025661
 40
0.1502025864
 40
0.1804899025
 40
0.2109037093
 40
0.2414571466
 40
0.272160128
 40
0.3030191646
 40
0.3340372687
 40
0.3652139372
 40
0.3965452178
 40
0.4280238461
 40
0.4596394447
 40
0.4913787778
 40
0.523226062
 40
0.5551633141
 40
0.5871707326
 40
0.6192271086
 40
0.651310257
 40
0.6833974607
 40
0.7154659218
 40
0.747493215
 40
0.7794577345
 40
0.8113391305
 40
0.8431187296
 40
0.8747799239
 40
0.9063085332
 40
0.9376931786
 40
0.9689252006
 40
1.0
 40
1.0
 40
1.0
 40
1.0
 10
11.6953206659
 20
5.9977248838
 30
0.0
 10
11.6888334772
 20
5.9914587616
 30
0.0
 10
11.6756071713
 20
5.9791817184
 30
0.0
 10
11.6550493384
 20
5.9615671978
 30
0.0
 10
11.6337993365
 20
5.9447757103
 30
0.0
 10
11.6118868457
 20
5.9288309374
 30
0.0
 10
11.5893414664
 20
5.9137544298
 30
0.0
 10
11.5584649381
 20
5.8948289916
 30
0.0
 10
11.5184211448
 20
5.8734373115
 30
0.0
 10
11.4683913839
 20
5.8515675363
 30
0.0
 10
11.4166218332
 20
5.8335965964
 30
0.0
 10
11.3633997035
 20
5.8196241664
 30
0.0
 10
11.3090176902
 20
5.8097261884
 30
0.0
 10
11.2537753642
 20
5.8039564617
 30
0.0
 10
11.197976667
 20
5.8023459879
 30
0.0
 10
11.1419284886
 20
5.8049029789
 30
0.0
 10
11.0859389226
 20
5.8116126309
 30
0.0
 10
11.0303155915
 20
5.8224373823
 30
0.0
 10
10.9753639915
 20
5.8373171923
 30
0.0
 10
10.9213858438
 20
5.8561698331
 30
0.0
 10
10.8686774102
 20
5.8788912392
 30
0.0
 10
10.8175279375
 20
5.9053562554
 30
0.0
 10
10.7682181166
 20
5.9354193222
 30
0.0
 10
10.7210185004
 20
5.9689151557
 30
0.0
 10
10.6761880339
 20
6.0056596793
 30
0.0
 10
10.6339727164
 20
6.0454511167
 30
0.0
 10
10.5946042748
 20
6.0880710655
 30
0.0
 10
10.5582987778
 20
6.1332855668
 30
0.0
 10
10.5252555604
 20
6.1808464906
 30
0.0
 10
10.4956561786
 20
6.2304928893
 30
0.0
 10
10.469663367
 20
6.2819523736
 30
0.0
 10
10.447420059
 20
6.3349425208
 30
0.0
 10
10.4290487518
 20
6.3891726139
 30
0.0
 10
10.4146508112
 20
6.4443447376
 30
0.0
 10
10.4043059093
 20
6.5001569631
 30
0.0
 10
10.3980712075
 20
6.5562988487
 30
0.0
 10
10.3966747812
 20
6.5938466118
 30
0.0
 10
10.3966747812
 20
6.612565936
 30
0.0
  0
SPLINE
  5
40E
100
AcDbEntity
  8
0
100
AcDbSpline
 62
4
  6
CONTINUOUS
 70
0
 71
3
 72
364
 73
360
 74
0
 42
0.0000001
 43
0.0000001
 44
0.0000000001
 40
0.0
 40
0.0
 40
0.0
 40
0.0
 40
0.015625
 40
0.03125
 40
0.0390625
 40
0.046875
 40
0.05078125
 40
0.0546875
 40
0.05859375
 40
0.060546875
 40
0.0615234375
 40
0.0625
 40
0.0634765625
 40
0.064453125
 40
0.06640625
 40
0.0703125
 40
0.07421875
 40
0.078125
 40
0.0859375
 40
0.09375
 40
0.1015625
 40
0.109375
 40
0.11328125
 40
0.1171875
 40
0.12109375
 40
0.123046875
 40
0.1240234375
 40
0.125
 40
0.1259765625
 40
0.126953125
 40
0.12890625
 40
0.1328125
 40
0.13671875
 40
0.140625
 40
0.1484375
 40
0.15625
 40
0.1640625
 40
0.171875
 40
0.17578125
 40
0.1796875
 40
0.181640625
 40
0.18359375
 40
0.185546875
 40
0.1865234375
 40
0.1870117188
 40
0.1875
 40
0.1879882812
 40
0.1884765625
 40
0.189453125
 40
0.19140625
 40
0.193359375
 40
0.1953125
 40
0.19921875
 40
0.203125
 40
0.2109375
 40
0.21875
 40
0.2265625
 40
0.23046875
 40
0.234375
 40
0.23828125
 40
0.2421875
 40
0.244140625
 40
0.24609375
 40
0.248046875
 40
0.2490234375
 40
0.2495117188
 40
0.25
 40
0.2504882812
 40
0.2509765625
 40
0.251953125
 40
0.25390625
 40
0.255859375
 40
0.2578125
 40
0.26171875
 40
0.265625
 40
0.26953125
 40
0.2734375
 40
0.28125
 40
0.2890625
 40
0.29296875
 40
0.296875
 40
0.30078125
 40
0.3046875
 40
0.306640625
 40
0.30859375
 40
0.3095703125
 40
0.310546875
 40
0.3115234375
 40
0.3120117188
 40
0.3122558594
 40
0.3125
 40
0.3127441406
 40
0.3129882812
 40
0.3134765625
 40
0.314453125
 40
0.3154296875
 40
0.31640625
 40
0.318359375
 40
0.3203125
 40
0.32421875
 40
0.328125
 40
0.33203125
 40
0.3359375
 40
0.34375
 40
0.3515625
 40
0.35546875
 40
0.359375
 40
0.36328125
 40
0.3671875
 40
0.369140625
 40
0.37109375
 40
0.3720703125
 40
0.373046875
 40
0.3740234375
 40
0.3745117188
 40
0.3747558594
 40
0.375
 40
0.3752441406
 40
0.3754882812
 40
0.3759765625
 40
0.376953125
 40
0.3779296875
 40
0.37890625
 40
0.380859375
 40
0.3828125
 40
0.38671875
 40
0.390625
 40
0.39453125
 40
0.3984375
 40
0.40625
 40
0.4140625
 40
0.41796875
 40
0.421875
 40
0.42578125
 40
0.4296875
 40
0.431640625
 40
0.43359375
 40
0.4345703125
 40
0.435546875
 40
0.4365234375
 40
0.4370117188
 40
0.4372558594
 40
0.4375
 40
0.4377441406
 40
0.4379882812
 40
0.4384765625
 40
0.439453125
 40
0.4404296875
 40
0.44140625
 40
0.443359375
 40
0.4453125
 40
0.44921875
 40
0.453125
 40
0.45703125
 40
0.4609375
 40
0.46875
 40
0.4765625
 40
0.48046875
 40
0.484375
 40
0.48828125
 40
0.4921875
 40
0.494140625
 40
0.49609375
 40
0.4970703125
 40
0.498046875
 40
0.4990234375
 40
0.4995117188
 40
0.4997558594
 40
0.5
 40
0.5002441406
 40
0.5004882812
 40
0.5009765625
 40
0.501953125
 40
0.5029296875
 40
0.50390625
 40
0.505859375
 40
0.5078125
 40
0.51171875
 40
0.515625
 40
0.51953125
 40
0.5234375
 40
0.53125
 40
0.5390625
 40
0.54296875
 40
0.546875
 40
0.55078125
 40
0.5546875
 40
0.556640625
 40
0.55859375
 40
0.5595703125
 40
0.560546875
 40
0.5615234375
 40
0.5620117188
 40
0.5622558594
 40
0.5625
 40
0.5627441406
 40
0.5629882812
 40
0.5634765625
 40
0.564453125
 40
0.5654296875
 40
0.56640625
 40
0.568359375
 40
0.5703125
 40
0.57421875
 40
0.578125
 40
0.58203125
 40
0.5859375
 40
0.59375
 40
0.6015625
 40
0.60546875
 40
0.609375
 40
0.61328125
 40
0.6171875
 40
0.619140625
 40
0.62109375
 40
0.6220703125
 40
0.623046875
 40
0.6240234375
 40
0.6245117188
 40
0.6247558594
 40
0.625
 40
0.6252441406
 40
0.6254882812
 40
0.6259765625
 40
0.626953125
 40
0.6279296875
 40
0.62890625
 40
0.630859375
 40
0.6328125
 40
0.63671875
 40
0.640625
 40
0.64453125
 40
0.6484375
 40
0.65625
 40
0.6640625
 40
0.66796875
 40
0.671875
 40
0.67578125
 40
0.6796875
 40
0.681640625
 40
0.68359375
 40
0.6845703125
 40
0.685546875
 40
0.6865234375
 40
0.6870117188
 40
0.6872558594
 40
0.6875
 40
0.6877441406
 40
0.6879882812
 40
0.6884765625
 40
0.689453125
 40
0.6904296875
 40
0.69140625
 40
0.693359375
 40
0.6953125
 40
0.69921875
 40
0.703125
 40
0.70703125
 40
0.7109375
 40
0.71875
 40
0.7265625
 40
0.73046875
 40
0.734375
 40
0.73828125
 40
0.7421875
 40
0.744140625
 40
0.74609375
 40
0.7470703125
 40
0.748046875
 40
0.7490234375
 40
0.7495117188
 40
0.7497558594
 40
0.75
 40
0.7502441406
 40
0.7504882812
 40
0.7509765625
 40
0.751953125
 40
0.7529296875
 40
0.75390625
 40
0.755859375
 40
0.7578125
 40
0.76171875
 40
0.765625
 40
0.76953125
 40
0.7734375
 40
0.78125
 40
0.7890625
 40
0.79296875
 40
0.796875
 40
0.80078125
 40
0.8046875
 40
0.806640625
 40
0.80859375
 40
0.8095703125
 40
0.810546875
 40
0.8115234375
 40
0.8120117188
 40
0.8122558594
 40
0.8125
 40
0.8127441406
 40
0.8129882812
 40
0.8134765625
 40
0.814453125
 40
0.8154296875
 40
0.81640625
 40
0.818359375
 40
0.8203125
 40
0.82421875
 40
0.828125
 40
0.83203125
 40
0.8359375
 40
0.84375
 40
0.8515625
 40
0.85546875
 40
0.859375
 40
0.86328125
 40
0.8671875
 40
0.869140625
 40
0.87109375
 40
0.8720703125
 40
0.873046875
 40
0.8740234375
 40
0.8745117188
 40
0.875
 40
0.8754882812
 40
0.8759765625
 40
0.876953125
 40
0.8779296875
 40
0.87890625
 40
0.880859375
 40
0.8828125
 40
0.88671875
 40
0.890625
 40
0.89453125
 40
0.8984375
 40
0.90625
 40
0.9140625
 40
0.921875
 40
0.92578125
 40
0.9296875
 40
0.931640625
 40
0.93359375
 40
0.935546875
 40
0.9365234375
 40
0.9370117188
 40
0.9375
 40
0.9379882812
 40
0.9384765625
 40
0.939453125
 40
0.94140625
 40
0.943359375
 40
0.9453125
 40
0.94921875
 40
0.953125
 40
0.9609375
 40
0.96875
 40
0.9765625
 40
0.984375
 40
1.0
 40
1.0
 40
1.0
 40
1.0
 10
10.4593716128
 20
10.6649262876
 30
0.0
 10
10.4631230342
 20
10.66476555
 30
0.0
 10
10.470625878
 20
10.6644440787
 30
0.0
 10
10.4800044277
 20
10.6640422198
 30
0.0
 10
10.4875072781
 20
10.6637207744
 30
0.0
 10
10.4921965354
 20
10.6635197767
 30
0.0
 10
10.4959479967
 20
10.6633591944
 30
0.0
 10
10.498761441
 20
10.6632381668
 30
0.0
 10
10.5011064602
 20
10.66313919
 30
0.0
 10
10.5027470271
 20
10.6630662178
 30
0.0
 10
10.5036859719
 20
10.6630302785
 30
0.0
 10
10.5043860171
 20
10.6629871007
 30
0.0
 10
10.5051019766
 20
10.6630059364
 30
0.0
 10
10.5060510383
 20
10.6630094197
 30
0.0
 10
10.5077144824
 20
10.6630255936
 30
0.0
 10
10.5100894791
 20
10.6630434303
 30
0.0
 10
10.5129400538
 20
10.6630670896
 30
0.0
 10
10.5167406181
 20
10.6630978473
 30
0.0
 10
10.5214913919
 20
10.6631365666
 30
0.0
 10
10.5271922949
 20
10.6631829053
 30
0.0
 10
10.5328931904
 20
10.6632293061
 30
0.0
 10
10.537643983
 20
10.6632678704
 30
0.0
 10
10.5414445096
 20
10.6632989382
 30
0.0
 10
10.5442951992
 20
10.6633216516
 30
0.0
 10
10.5466698365
 20
10.6633424474
 30
0.0
 10
10.5483339221
 20
10.6633533388
 30
0.0
 10
10.549281956
 20
10.6633652861
 30
0.0
 10
10.5500010724
 20
10.663358123
 30
0.0
 10
10.5506892611
 20
10.6634125923
 30
0.0
 10
10.5516176339
 20
10.66346372
 30
0.0
 10
10.55323726
 20
10.6635632097
 30
0.0
 10
10.5555536395
 20
10.6637001013
 30
0.0
 10
10.55833217
 20
10.6638666127
 30
0.0
 10
10.5620372703
 20
10.6640878449
 30
0.0
 10
10.5666685108
 20
10.664364654
 30
0.0
 10
10.5722260578
 20
10.6646967089
 30
0.0
 10
10.5777835866
 20
10.6650287977
 30
0.0
 10
10.5824148727
 20
10.6653055221
 30
0.0
 10
10.5861198816
 20
10.6655269236
 30
0.0
 10
10.588435556
 20
10.6656652526
 30
0.0
 10
10.5902879954
 20
10.6657760232
 30
0.0
 10
10.5916775989
 20
10.665858807
 30
0.0
 10
10.5928347303
 20
10.6659287291
 30
0.0
 10
10.5936464327
 20
10.6659758385
 30
0.0
 10
10.594107592
 20
10.6660056251
 30
0.0
 10
10.5944609846
 20
10.6660198888
 30
0.0
 10
10.59478562
 20
10.666065024
 30
0.0
 10
10.595228498
 20
10.666114436
 30
0.0
 10
10.595998861
 20
10.6662059241
 30
0.0
 10
10.5971018229
 20
10.6663339983
 30
0.0
 10
10.5984243313
 20
10.6664888102
 30
0.0
 10
10.6001880412
 20
10.6666948338
 30
0.0
 10
10.6023925535
 20
10.6669524976
 30
0.0
 10
10.6059198431
 20
10.6673646847
 30
0.0
 10
10.6103289311
 20
10.6678799443
 30
0.0
 10
10.6156198466
 20
10.6684982448
 30
0.0
 10
10.620028942
 20
10.6690134973
 30
0.0
 10
10.6235562154
 20
10.6694257
 30
0.0
 10
10.6262016797
 20
10.6697348487
 30
0.0
 10
10.6288471087
 20
10.6700440103
 30
0.0
 10
10.6310517426
 20
10.6703016046
 30
0.0
 10
10.632815204
 20
10.6705077706
 30
0.0
 10
10.6341384714
 20
10.6706621474
 30
0.0
 10
10.6352390589
 20
10.6707915827
 30
0.0
 10
10.6360136606
 20
10.6708806411
 30
0.0
 10
10.6364497471
 20
10.6709339461
 30
0.0
 10
10.6367952436
 20
10.6709671233
 30
0.0
 10
10.6370702854
 20
10.6710262992
 30
0.0
 10
10.6374615832
 20
10.6710961319
 30
0.0
 10
10.6381349042
 20
10.6712225642
 30
0.0
 10
10.6391027776
 20
10.6714009728
 30
0.0
 10
10.6402616634
 20
10.6716160086
 30
0.0
 10
10.6418077394
 20
10.6719023927
 30
0.0
 10
10.6437400274
 20
10.6722604863
 30
0.0
 10
10.6460589046
 20
10.6726901499
 30
0.0
 10
10.6483777465
 20
10.6731198265
 30
0.0
 10
10.6514695481
 20
10.6736927242
 30
0.0
 10
10.6553342959
 20
10.6744088478
 30
0.0
 10
10.6591990453
 20
10.6751249709
 30
0.0
 10
10.6622908442
 20
10.6756978695
 30
0.0
 10
10.6646096944
 20
10.6761275432
 30
0.0
 10
10.6669285407
 20
10.676557218
 30
0.0
 10
10.6688609245
 20
10.6769152768
 30
0.0
 10
10.6704068052
 20
10.6772017317
 30
0.0
 10
10.6713730406
 20
10.6773807482
 30
0.0
 10
10.6721458914
 20
10.6775240021
 30
0.0
 10
10.6727259062
 20
10.6776313312
 30
0.0
 10
10.6732080535
 20
10.6777211264
 30
0.0
 10
10.6735479084
 20
10.6777832877
 30
0.0
 10
10.673738439
 20
10.6778198941
 30
0.0
 10
10.6738916817
 20
10.6778442905
 30
0.0
 10
10.6740053816
 20
10.6778803776
 30
0.0
 10
10.6741707745
 20
10.677924416
 30
0.0
 10
10.6744537856
 20
10.6780033829
 30
0.0
 10
10.674861447
 20
10.6781151996
 30
0.0
 10
10.6753492026
 20
10.6782498047
 30
0.0
 10
10.6760000457
 20
10.6784291297
 30
0.0
 10
10.6768134276
 20
10.6786533369
 30
0.0
 10
10.6781149347
 20
10.6790120399
 30
0.0
 10
10.6797417856
 20
10.6794604284
 30
0.0
 10
10.6816940208
 20
10.6799984904
 30
0.0
 10
10.6836462522
 20
10.6805365535
 30
0.0
 10
10.6862492288
 20
10.6812539706
 30
0.0
 10
10.689502949
 20
10.6821507421
 30
0.0
 10
10.6927566695
 20
10.6830475136
 30
0.0
 10
10.6953596455
 20
10.6837649308
 30
0.0
 10
10.6973118787
 20
10.6843029935
 30
0.0
 10
10.6992641073
 20
10.6848410571
 30
0.0
 10
10.7008909787
 20
10.6852894407
 30
0.0
 10
10.7021924441
 20
10.6856481538
 30
0.0
 10
10.7030059322
 20
10.6858723351
 30
0.0
 10
10.7036565572
 20
10.6860517131
 30
0.0
 10
10.704144979
 20
10.6861861564
 30
0.0
 10
10.7045505558
 20
10.6862984797
 30
0.0
 10
10.7048372884
 20
10.6863765422
 30
0.0
 10
10.7049967185
 20
10.6864220297
 30
0.0
 10
10.705128734
 20
10.6864536652
 30
0.0
 10
10.7052131865
 20
10.6864947809
 30
0.0
 10
10.7053423803
 20
10.6865462951
 30
0.0
 10
10.7055607396
 20
10.6866379855
 30
0.0
 10
10.7058767227
 20
10.6867681664
 30
0.0
 10
10.7062541727
 20
10.6869247282
 30
0.0
 10
10.7067580435
 20
10.6871333569
 30
0.0
 10
10.7073876751
 20
10.687394184
 30
0.0
 10
10.7083952014
 20
10.6878114843
 30
0.0
 10
10.7096545695
 20
10.6883331175
 30
0.0
 10
10.7111658282
 20
10.688959074
 30
0.0
 10
10.7126770824
 20
10.6895850314
 30
0.0
 10
10.7146920896
 20
10.690419641
 30
0.0
 10
10.717210848
 20
10.6914629031
 30
0.0
 10
10.7197296068
 20
10.6925061651
 30
0.0
 10
10.7217446133
 20
10.6933407748
 30
0.0
 10
10.7232558695
 20
10.6939667318
 30
0.0
 10
10.7247671207
 20
10.6945926897
 30
0.0
 10
10.7260265123
 20
10.6951143188
 30
0.0
 10
10.7270339907
 20
10.6955316275
 30
0.0
 10
10.7276637442
 20
10.6957924329
 30
0.0
 10
10.7281673649
 20
10.6960011061
 30
0.0
 10
10.728545579
 20
10.696157532
 30
0.0
 10
10.7288591712
 20
10.696288138
 30
0.0
 10
10.7290817987
 20
10.6963790696
 30
0.0
 10
10.7292041538
 20
10.6964317997
 30
0.0
 10
10.7293096124
 20
10.6964691803
 30
0.0
 10
10.7293627324
 20
10.6965148442
 30
0.0
 10
10.7294518154
 20
10.6965728401
 30
0.0
 10
10.7295992047
 20
10.6966756791
 30
0.0
 10
10.7298142078
 20
10.6968218881
 30
0.0
 10
10.7300703081
 20
10.6969976402
 30
0.0
 10
10.7304124399
 20
10.697231871
 30
0.0
 10
10.7308398771
 20
10.6975246957
 30
0.0
 10
10.7315239038
 20
10.6979931949
 30
0.0
 10
10.7323788935
 20
10.6985788259
 30
0.0
 10
10.7334048999
 20
10.6992815802
 30
0.0
 10
10.7344309013
 20
10.6999843352
 30
0.0
 10
10.7357989049
 20
10.7009213416
 30
0.0
 10
10.7375089088
 20
10.7020925997
 30
0.0
 10
10.7392189131
 20
10.7032638578
 30
0.0
 10
10.740586916
 20
10.7042008643
 30
0.0
 10
10.7416129196
 20
10.7049036191
 30
0.0
 10
10.7426389175
 20
10.7056063741
 30
0.0
 10
10.7434939337
 20
10.7061920025
 30
0.0
 10
10.7441779064
 20
10.7066605071
 30
0.0
 10
10.7446054811
 20
10.7069533183
 30
0.0
 10
10.7449473307
 20
10.7071875768
 30
0.0
 10
10.7452042935
 20
10.7073632445
 30
0.0
 10
10.7454165979
 20
10.7075097174
 30
0.0
 10
10.7455688048
 20
10.7076120852
 30
0.0
 10
10.7456501687
 20
10.7076708361
 30
0.0
 10
10.7457269992
 20
10.7077141811
 30
0.0
 10
10.7457434052
 20
10.707760271
 30
0.0
 10
10.7457863567
 20
10.7078207667
 30
0.0
 10
10.7458517017
 20
10.7079270804
 30
0.0
 10
10.7459501858
 20
10.7080787238
 30
0.0
 10
10.7460661691
 20
10.7082607958
 30
0.0
 10
10.7462215812
 20
10.7085035236
 30
0.0
 10
10.7464155834
 20
10.7088069452
 30
0.0
 10
10.7467261338
 20
10.7092924131
 30
0.0
 10
10.7471142714
 20
10.7098992503
 30
0.0
 10
10.7475800582
 20
10.710627454
 30
0.0
 10
10.7480458392
 20
10.7113556579
 30
0.0
 10
10.7486668825
 20
10.7123265964
 30
0.0
 10
10.7494431859
 20
10.7135402696
 30
0.0
 10
10.7502194898
 20
10.7147539427
 30
0.0
 10
10.7508405324
 20
10.7157248812
 30
0.0
 10
10.7513063158
 20
10.716453085
 30
0.0
 10
10.7517720934
 20
10.717181289
 30
0.0
 10
10.7521602594
 20
10.7177881253
 30
0.0
 10
10.7524707521
 20
10.7182735951
 30
0.0
 10
10.7526649011
 20
10.7185770121
 30
0.0
 10
10.7528200118
 20
10.7188197493
 30
0.0
 10
10.7529369156
 20
10.7190017924
 30
0.0
 10
10.75303252
 20
10.7191535262
 30
0.0
 10
10.7531030057
 20
10.7192596786
 30
0.0
 10
10.7531377205
 20
10.7193204327
 30
0.0
 10
10.753179427
 20
10.7193657289
 30
0.0
 10
10.7531612331
 20
10.7194120549
 30
0.0
 10
10.7531578686
 20
10.7194734636
 30
0.0
 10
10.7531422457
 20
10.7195810963
 30
0.0
 10
10.7531250168
 20
10.7197347698
 30
0.0
 10
10.7531021637
 20
10.7199192154
 30
0.0
 10
10.7530724538
 20
10.7201651298
 30
0.0
 10
10.7530350558
 20
10.7204725272
 30
0.0
 10
10.7529753647
 20
10.7209643607
 30
0.0
 10
10.7529007009
 20
10.7215791534
 30
0.0
 10
10.7528111257
 20
10.7223169042
 30
0.0
 10
10.7527215447
 20
10.7230546552
 30
0.0
 10
10.7526021055
 20
10.724038323
 30
0.0
 10
10.7524528057
 20
10.7252679079
 30
0.0
 10
10.7523035064
 20
10.7264974928
 30
0.0
 10
10.7521840664
 20
10.7274811607
 30
0.0
 10
10.7520944878
 20
10.7282189116
 30
0.0
 10
10.7520049036
 20
10.7289566624
 30
0.0
 10
10.7519302678
 20
10.7295714553
 30
0.0
 10
10.7518705195
 20
10.7300632883
 30
0.0
 10
10.7518332672
 20
10.7303706869
 30
0.0
 10
10.7518032583
 20
10.7306165989
 30
0.0
 10
10.7517813187
 20
10.7308010519
 30
0.0
 10
10.7517612315
 20
10.7309547021
 30
0.0
 10
10.7517507112
 20
10.7310623763
 30
0.0
 10
10.751739171
 20
10.7311237186
 30
0.0
 10
10.7517460901
 20
10.7311702488
 30
0.0
 10
10.7516934767
 20
10.7312147778
 30
0.0
 10
10.7516440911
 20
10.7312748479
 30
0.0
 10
10.7515479913
 20
10.7313796454
 30
0.0
 10
10.751415764
 20
10.731529526
 30
0.0
 10
10.7512549263
 20
10.73170931
 30
0.0
 10
10.7510412321
 20
10.7319490475
 30
0.0
 10
10.7507738555
 20
10.7322487105
 30
0.0
 10
10.7503461977
 20
10.7327281763
 30
0.0
 10
10.7498115757
 20
10.7333275069
 30
0.0
 10
10.7491700506
 20
10.7340467043
 30
0.0
 10
10.7485285198
 20
10.7347659015
 30
0.0
 10
10.7476731474
 20
10.7357248312
 30
0.0
 10
10.7466039312
 20
10.7369234933
 30
0.0
 10
10.7455347155
 20
10.7381221554
 30
0.0
 10
10.7446793423
 20
10.7390810851
 30
0.0
 10
10.7440378139
 20
10.7398002824
 30
0.0
 10
10.7433962798
 20
10.7405194794
 30
0.0
 10
10.7428616858
 20
10.7411188113
 30
0.0
 10
10.7424339709
 20
10.7415982744
 30
0.0
 10
10.7421667396
 20
10.7418979445
 30
0.0
 10
10.7419527471
 20
10.7421376676
 30
0.0
 10
10.7417928209
 20
10.7423174953
 30
0.0
 10
10.7416577416
 20
10.742467239
 30
0.0
 10
10.7415667332
 20
10.742572281
 30
0.0
 10
10.7415091899
 20
10.7426319593
 30
0.0
 10
10.7414816345
 20
10.7426776917
 30
0.0
 10
10.7413944399
 20
10.7427197025
 30
0.0
 10
10.7412989832
 20
10.7427770151
 30
0.0
 10
10.7411222416
 20
10.7428767073
 30
0.0
 10
10.740874821
 20
10.743019441
 30
0.0
 10
10.7405757472
 20
10.743190586
 30
0.0
 10
10.7401777398
 20
10.7434188267
 30
0.0
 10
10.7396799711
 20
10.7437041114
 30
0.0
 10
10.7388836862
 20
10.7441605758
 30
0.0
 10
10.7378882803
 20
10.7447311533
 30
0.0
 10
10.7366938145
 20
10.7454158477
 30
0.0
 10
10.735499343
 20
10.7461005416
 30
0.0
 10
10.7339067164
 20
10.7470134671
 30
0.0
 10
10.7319159324
 20
10.7481546238
 30
0.0
 10
10.7299251488
 20
10.7492957806
 30
0.0
 10
10.7283325215
 20
10.7502087059
 30
0.0
 10
10.7271380522
 20
10.7508934001
 30
0.0
 10
10.7259435781
 20
10.7515780935
 30
0.0
 10
10.724948198
 20
10.752148674
 30
0.0
 10
10.7241518605
 20
10.7526051323
 30
0.0
 10
10.7236542258
 20
10.7528904326
 30
0.0
 10
10.7232559433
 20
10.7531186412
 30
0.0
 10
10.7229577099
 20
10.7532898844
 30
0.0
 10
10.7227076599
 20
10.7534323108
 30
0.0
 10
10.7225356121
 20
10.7535325516
 30
0.0
 10
10.7224326348
 20
10.7535889853
 30
0.0
 10
10.7223685413
 20
10.7536336958
 30
0.0
 10
10.722254222
 20
10.7536692888
 30
0.0
 10
10.7221193157
 20
10.7537199264
 30
0.0
 10
10.721875067
 20
10.7538070605
 30
0.0
 10
10.7215304078
 20
10.7539323124
 30
0.0
 10
10.7211149902
 20
10.7540822831
 30
0.0
 10
10.720561738
 20
10.7542823599
 30
0.0
 10
10.7198699542
 20
10.7545324162
 30
0.0
 10
10.7187632224
 20
10.7549325285
 30
0.0
 10
10.7173797657
 20
10.7554326613
 30
0.0
 10
10.7157196356
 20
10.7560328239
 30
0.0
 10
10.7140595007
 20
10.7566329856
 30
0.0
 10
10.7118459892
 20
10.7574332015
 30
0.0
 10
10.7090790992
 20
10.7584334713
 30
0.0
 10
10.7063122096
 20
10.7594337411
 30
0.0
 10
10.7040986975
 20
10.7602339569
 30
0.0
 10
10.7024385645
 20
10.760834119
 30
0.0
 10
10.7007784272
 20
10.7614342801
 30
0.0
 10
10.699394993
 20
10.7619344174
 30
0.0
 10
10.6982882154
 20
10.7623345204
 30
0.0
 10
10.697596548
 20
10.7625846004
 30
0.0
 10
10.697043057
 20
10.7627846287
 30
0.0
 10
10.696628369
 20
10.7629347475
 30
0.0
 10
10.6962814268
 20
10.7630595363
 30
0.0
 10
10.6960412537
 20
10.7631474971
 30
0.0
 10
10.6958998172
 20
10.76319681
 30
0.0
 10
10.6958055565
 20
10.7632364721
 30
0.0
 10
10.6956661265
 20
10.7632658998
 30
0.0
 10
10.6954959755
 20
10.7633087066
 30
0.0
 10
10.6951908703
 20
10.7633819552
 30
0.0
 10
10.6947588435
 20
10.7634874656
 30
0.0
 10
10.6942387688
 20
10.763613706
 30
0.0
 10
10.6935459095
 20
10.7637821564
 30
0.0
 10
10.6926796389
 20
10.763992675
 30
0.0
 10
10.6912937159
 20
10.7643295295
 30
0.0
 10
10.6895612743
 20
10.7647505891
 30
0.0
 10
10.6874823607
 20
10.7652558644
 30
0.0
 10
10.6854034427
 20
10.7657611386
 30
0.0
 10
10.6826315535
 20
10.766434838
 30
0.0
 10
10.6791666916
 20
10.7672769621
 30
0.0
 10
10.6757018295
 20
10.7681190861
 30
0.0
 10
10.6729299407
 20
10.7687927856
 30
0.0
 10
10.6708510216
 20
10.7692980594
 30
0.0
 10
10.6687721123
 20
10.7698033365
 30
0.0
 10
10.6670396571
 20
10.7702243904
 30
0.0
 10
10.6656537619
 20
10.7705612566
 30
0.0
 10
10.6647874204
 20
10.7707717453
 30
0.0
 10
10.6640947068
 20
10.7709402571
 30
0.0
 10
10.6635741869
 20
10.77106631
 30
0.0
 10
10.6631435527
 20
10.7711724068
 30
0.0
 10
10.6627920201
 20
10.7712549232
 30
0.0
 10
10.662547567
 20
10.7713232621
 30
0.0
 10
10.6622298411
 20
10.7713669752
 30
0.0
 10
10.6618318017
 20
10.7714338614
 30
0.0
 10
10.6613254709
 20
10.7715145179
 30
0.0
 10
10.6607216327
 20
10.7716125689
 30
0.0
 10
10.6599152023
 20
10.7717428624
 30
0.0
 10
10.6589076138
 20
10.7719058803
 30
0.0
 10
10.6572952209
 20
10.7721666245
 30
0.0
 10
10.655279816
 20
10.7724925837
 30
0.0
 10
10.6528612932
 20
10.7728837224
 30
0.0
 10
10.6504427803
 20
10.7732748644
 30
0.0
 10
10.6472180928
 20
10.7737963858
 30
0.0
 10
10.643187236
 20
10.7744482886
 30
0.0
 10
10.6383502011
 20
10.7752305691
 30
0.0
 10
10.6343193578
 20
10.7758824776
 30
0.0
 10
10.6310946405
 20
10.7764039864
 30
0.0
 10
10.6290792894
 20
10.7767299705
 30
0.0
 10
10.6274667858
 20
10.7769906635
 30
0.0
 10
10.6262580179
 20
10.7771864414
 30
0.0
 10
10.6252487714
 20
10.7773487686
 30
0.0
 10
10.6245461059
 20
10.7774640089
 30
0.0
 10
10.6241386384
 20
10.7775273445
 30
0.0
 10
10.623849783
 20
10.7775819339
 30
0.0
 10
10.6234969191
 20
10.7776094308
 30
0.0
 10
10.6230487608
 20
10.7776555435
 30
0.0
 10
10.6222540812
 20
10.7777318378
 30
0.0
 10
10.6211242632
 20
10.7778431315
 30
0.0
 10
10.6197661537
 20
10.7779756987
 30
0.0
 10
10.6179561541
 20
10.7781527991
 30
0.0
 10
10.6156933763
 20
10.7783740568
 30
0.0
 10
10.6120730873
 20
10.7787281349
 30
0.0
 10
10.6075476727
 20
10.7791707099
 30
0.0
 10
10.6021171981
 20
10.7797018096
 30
0.0
 10
10.5966867173
 20
10.7802329068
 30
0.0
 10
10.5894460785
 20
10.7809410372
 30
0.0
 10
10.5840155989
 20
10.7814721348
 30
0.0
 10
10.5803952792
 20
10.7818261999
 30
0.0
  0
SPLINE
  5
40F
100
AcDbEntity
  8
0
100
AcDbSpline
 62
4
  6
CONTINUOUS
 70
0
 71
3
 72
364
 73
360
 74
0
 42
0.0000001
 43
0.0000001
 44
0.0000000001
 40
0.0
 40
0.0
 40
0.0
 40
0.0
 40
0.015625
 40
0.03125
 40
0.0390625
 40
0.046875
 40
0.05078125
 40
0.0546875
 40
0.05859375
 40
0.060546875
 40
0.0615234375
 40
0.0625
 40
0.0634765625
 40
0.064453125
 40
0.06640625
 40
0.0703125
 40
0.07421875
 40
0.078125
 40
0.0859375
 40
0.09375
 40
0.1015625
 40
0.109375
 40
0.11328125
 40
0.1171875
 40
0.12109375
 40
0.123046875
 40
0.1240234375
 40
0.125
 40
0.1259765625
 40
0.126953125
 40
0.12890625
 40
0.1328125
 40
0.13671875
 40
0.140625
 40
0.1484375
 40
0.15625
 40
0.1640625
 40
0.171875
 40
0.17578125
 40
0.1796875
 40
0.181640625
 40
0.18359375
 40
0.185546875
 40
0.1865234375
 40
0.1870117188
 40
0.1875
 40
0.1879882812
 40
0.1884765625
 40
0.189453125
 40
0.19140625
 40
0.193359375
 40
0.1953125
 40
0.19921875
 40
0.203125
 40
0.2109375
 40
0.21875
 40
0.2265625
 40
0.23046875
 40
0.234375
 40
0.23828125
 40
0.2421875
 40
0.244140625
 40
0.24609375
 40
0.248046875
 40
0.2490234375
 40
0.2495117188
 40
0.25
 40
0.2504882812
 40
0.2509765625
 40
0.251953125
 40
0.25390625
 40
0.255859375
 40
0.2578125
 40
0.26171875
 40
0.265625
 40
0.26953125
 40
0.2734375
 40
0.28125
 40
0.2890625
 40
0.29296875
 40
0.296875
 40
0.30078125
 40
0.3046875
 40
0.306640625
 40
0.30859375
 40
0.3095703125
 40
0.310546875
 40
0.3115234375
 40
0.3120117188
 40
0.3122558594
 40
0.3125
 40
0.3127441406
 40
0.3129882812
 40
0.3134765625
 40
0.314453125
 40
0.3154296875
 40
0.31640625
 40
0.318359375
 40
0.3203125
 40
0.32421875
 40
0.328125
 40
0.33203125
 40
0.3359375
 40
0.34375
 40
0.3515625
 40
0.35546875
 40
0.359375
 40
0.36328125
 40
0.3671875
 40
0.369140625
 40
0.37109375
 40
0.3720703125
 40
0.373046875
 40
0.3740234375
 40
0.3745117188
 40
0.3747558594
 40
0.375
 40
0.3752441406
 40
0.3754882812
 40
0.3759765625
 40
0.376953125
 40
0.3779296875
 40
0.37890625
 40
0.380859375
 40
0.3828125
 40
0.38671875
 40
0.390625
 40
0.39453125
 40
0.3984375
 40
0.40625
 40
0.4140625
 40
0.41796875
 40
0.421875
 40
0.42578125
 40
0.4296875
 40
0.431640625
 40
0.43359375
 40
0.4345703125
 40
0.435546875
 40
0.4365234375
 40
0.4370117188
 40
0.4372558594
 40
0.4375
 40
0.4377441406
 40
0.4379882812
 40
0.4384765625
 40
0.439453125
 40
0.4404296875
 40
0.44140625
 40
0.443359375
 40
0.4453125
 40
0.44921875
 40
0.453125
 40
0.45703125
 40
0.4609375
 40
0.46875
 40
0.4765625
 40
0.48046875
 40
0.484375
 40
0.48828125
 40
0.4921875
 40
0.494140625
 40
0.49609375
 40
0.4970703125
 40
0.498046875
 40
0.4990234375
 40
0.4995117188
 40
0.4997558594
 40
0.5
 40
0.5002441406
 40
0.5004882812
 40
0.5009765625
 40
0.501953125
 40
0.5029296875
 40
0.50390625
 40
0.505859375
 40
0.5078125
 40
0.51171875
 40
0.515625
 40
0.51953125
 40
0.5234375
 40
0.53125
 40
0.5390625
 40
0.54296875
 40
0.546875
 40
0.55078125
 40
0.5546875
 40
0.556640625
 40
0.55859375
 40
0.5595703125
 40
0.560546875
 40
0.5615234375
 40
0.5620117188
 40
0.5622558594
 40
0.5625
 40
0.5627441406
 40
0.5629882812
 40
0.5634765625
 40
0.564453125
 40
0.5654296875
 40
0.56640625
 40
0.568359375
 40
0.5703125
 40
0.57421875
 40
0.578125
 40
0.58203125
 40
0.5859375
 40
0.59375
 40
0.6015625
 40
0.60546875
 40
0.609375
 40
0.61328125
 40
0.6171875
 40
0.619140625
 40
0.62109375
 40
0.6220703125
 40
0.623046875
 40
0.6240234375
 40
0.6245117188
 40
0.6247558594
 40
0.625
 40
0.6252441406
 40
0.6254882812
 40
0.6259765625
 40
0.626953125
 40
0.6279296875
 40
0.62890625
 40
0.630859375
 40
0.6328125
 40
0.63671875
 40
0.640625
 40
0.64453125
 40
0.6484375
 40
0.65625
 40
0.6640625
 40
0.66796875
 40
0.671875
 40
0.67578125
 40
0.6796875
 40
0.681640625
 40
0.68359375
 40
0.6845703125
 40
0.685546875
 40
0.6865234375
 40
0.6870117188
 40
0.6872558594
 40
0.6875
 40
0.6877441406
 40
0.6879882812
 40
0.6884765625
 40
0.689453125
 40
0.6904296875
 40
0.69140625
 40
0.693359375
 40
0.6953125
 40
0.69921875
 40
0.703125
 40
0.70703125
 40
0.7109375
 40
0.71875
 40
0.7265625
 40
0.73046875
 40
0.734375
 40
0.73828125
 40
0.7421875
 40
0.744140625
 40
0.74609375
 40
0.7470703125
 40
0.748046875
 40
0.7490234375
 40
0.7495117188
 40
0.7497558594
 40
0.75
 40
0.7502441406
 40
0.7504882812
 40
0.7509765625
 40
0.751953125
 40
0.7529296875
 40
0.75390625
 40
0.755859375
 40
0.7578125
 40
0.76171875
 40
0.765625
 40
0.76953125
 40
0.7734375
 40
0.78125
 40
0.7890625
 40
0.79296875
 40
0.796875
 40
0.80078125
 40
0.8046875
 40
0.806640625
 40
0.80859375
 40
0.8095703125
 40
0.810546875
 40
0.8115234375
 40
0.8120117188
 40
0.8122558594
 40
0.8125
 40
0.8127441406
 40
0.8129882812
 40
0.8134765625
 40
0.814453125
 40
0.8154296875
 40
0.81640625
 40
0.818359375
 40
0.8203125
 40
0.82421875
 40
0.828125
 40
0.83203125
 40
0.8359375
 40
0.84375
 40
0.8515625
 40
0.85546875
 40
0.859375
 40
0.86328125
 40
0.8671875
 40
0.869140625
 40
0.87109375
 40
0.8720703125
 40
0.873046875
 40
0.8740234375
 40
0.8745117188
 40
0.875
 40
0.8754882812
 40
0.8759765625
 40
0.876953125
 40
0.8779296875
 40
0.87890625
 40
0.880859375
 40
0.8828125
 40
0.88671875
 40
0.890625
 40
0.89453125
 40
0.8984375
 40
0.90625
 40
0.9140625
 40
0.921875
 40
0.92578125
 40
0.9296875
 40
0.931640625
 40
0.93359375
 40
0.935546875
 40
0.9365234375
 40
0.9370117188
 40
0.9375
 40
0.9379882812
 40
0.9384765625
 40
0.939453125
 40
0.94140625
 40
0.943359375
 40
0.9453125
 40
0.94921875
 40
0.953125
 40
0.9609375
 40
0.96875
 40
0.9765625
 40
0.984375
 40
1.0
 40
1.0
 40
1.0
 40
1.0
 10
10.580395299
 20
10.7818261985
 30
0.0
 10
10.5766438776
 20
10.7819869361
 30
0.0
 10
10.5691410338
 20
10.7823084074
 30
0.0
 10
10.5597624841
 20
10.7827102663
 30
0.0
 10
10.5522596337
 20
10.7830317117
 30
0.0
 10
10.5475703764
 20
10.7832327094
 30
0.0
 10
10.5438189152
 20
10.7833932917
 30
0.0
 10
10.5410054708
 20
10.7835143193
 30
0.0
 10
10.5386604516
 20
10.7836132962
 30
0.0
 10
10.5370198847
 20
10.7836862683
 30
0.0
 10
10.5360809399
 20
10.7837222076
 30
0.0
 10
10.5353808947
 20
10.7837653854
 30
0.0
 10
10.5346649352
 20
10.7837465497
 30
0.0
 10
10.5337158735
 20
10.7837430665
 30
0.0
 10
10.5320524294
 20
10.7837268925
 30
0.0
 10
10.5296774327
 20
10.7837090559
 30
0.0
 10
10.526826858
 20
10.7836853965
 30
0.0
 10
10.5230262937
 20
10.7836546389
 30
0.0
 10
10.5182755199
 20
10.7836159196
 30
0.0
 10
10.5125746169
 20
10.7835695808
 30
0.0
 10
10.5068737214
 20
10.78352318
 30
0.0
 10
10.5021229288
 20
10.7834846158
 30
0.0
 10
10.4983224022
 20
10.7834535479
 30
0.0
 10
10.4954717126
 20
10.7834308345
 30
0.0
 10
10.4930970753
 20
10.7834100387
 30
0.0
 10
10.4914329897
 20
10.7833991473
 30
0.0
 10
10.4904849558
 20
10.7833872001
 30
0.0
 10
10.4897658394
 20
10.7833943632
 30
0.0
 10
10.4890776507
 20
10.7833398938
 30
0.0
 10
10.4881492779
 20
10.7832887662
 30
0.0
 10
10.4865296518
 20
10.7831892764
 30
0.0
 10
10.4842132723
 20
10.7830523848
 30
0.0
 10
10.4814347418
 20
10.7828858734
 30
0.0
 10
10.4777296415
 20
10.7826646412
 30
0.0
 10
10.4730984011
 20
10.7823878321
 30
0.0
 10
10.467540854
 20
10.7820557772
 30
0.0
 10
10.4619833252
 20
10.7817236885
 30
0.0
 10
10.4573520391
 20
10.7814469641
 30
0.0
 10
10.4536470302
 20
10.7812255625
 30
0.0
 10
10.4513313558
 20
10.7810872336
 30
0.0
 10
10.4494789164
 20
10.780976463
 30
0.0
 10
10.4480893129
 20
10.7808936791
 30
0.0
 10
10.4469321815
 20
10.780823757
 30
0.0
 10
10.4461204791
 20
10.7807766476
 30
0.0
 10
10.4456593198
 20
10.780746861
 30
0.0
 10
10.4453059272
 20
10.7807325973
 30
0.0
 10
10.4449812918
 20
10.7806874621
 30
0.0
 10
10.4445384138
 20
10.7806380502
 30
0.0
 10
10.4437680508
 20
10.7805465621
 30
0.0
 10
10.4426650889
 20
10.7804184878
 30
0.0
 10
10.4413425805
 20
10.780263676
 30
0.0
 10
10.4395788706
 20
10.7800576523
 30
0.0
 10
10.4373743583
 20
10.7797999885
 30
0.0
 10
10.4338470687
 20
10.7793878014
 30
0.0
 10
10.4294379807
 20
10.7788725419
 30
0.0
 10
10.4241470652
 20
10.7782542413
 30
0.0
 10
10.4197379698
 20
10.7777389888
 30
0.0
 10
10.4162106964
 20
10.7773267861
 30
0.0
 10
10.4135652321
 20
10.7770176375
 30
0.0
 10
10.4109198031
 20
10.7767084758
 30
0.0
 10
10.4087151692
 20
10.7764508816
 30
0.0
 10
10.4069517078
 20
10.7762447155
 30
0.0
 10
10.4056284404
 20
10.7760903387
 30
0.0
 10
10.4045278529
 20
10.7759609034
 30
0.0
 10
10.4037532512
 20
10.775871845
 30
0.0
 10
10.4033171647
 20
10.77581854
 30
0.0
 10
10.4029716682
 20
10.7757853628
 30
0.0
 10
10.4026966264
 20
10.7757261869
 30
0.0
 10
10.4023053286
 20
10.7756563543
 30
0.0
 10
10.4016320076
 20
10.775529922
 30
0.0
 10
10.4006641342
 20
10.7753515134
 30
0.0
 10
10.3995052484
 20
10.7751364775
 30
0.0
 10
10.3979591724
 20
10.7748500934
 30
0.0
 10
10.3960268844
 20
10.7744919999
 30
0.0
 10
10.3937080072
 20
10.7740623362
 30
0.0
 10
10.3913891653
 20
10.7736326596
 30
0.0
 10
10.3882973637
 20
10.7730597619
 30
0.0
 10
10.3844326159
 20
10.7723436383
 30
0.0
 10
10.3805678665
 20
10.7716275153
 30
0.0
 10
10.3774760676
 20
10.7710546166
 30
0.0
 10
10.3751572175
 20
10.770624943
 30
0.0
 10
10.3728383711
 20
10.7701952682
 30
0.0
 10
10.3709059873
 20
10.7698372093
 30
0.0
 10
10.3693601067
 20
10.7695507544
 30
0.0
 10
10.3683938712
 20
10.7693717379
 30
0.0
 10
10.3676210204
 20
10.769228484
 30
0.0
 10
10.3670410056
 20
10.7691211549
 30
0.0
 10
10.3665588583
 20
10.7690313598
 30
0.0
 10
10.3662190034
 20
10.7689691985
 30
0.0
 10
10.3660284728
 20
10.768932592
 30
0.0
 10
10.3658752301
 20
10.7689081956
 30
0.0
 10
10.3657615302
 20
10.7688721085
 30
0.0
 10
10.3655961373
 20
10.7688280702
 30
0.0
 10
10.3653131262
 20
10.7687491032
 30
0.0
 10
10.3649054648
 20
10.7686372865
 30
0.0
 10
10.3644177092
 20
10.7685026814
 30
0.0
 10
10.3637668661
 20
10.7683233564
 30
0.0
 10
10.3629534842
 20
10.7680991492
 30
0.0
 10
10.3616519771
 20
10.7677404463
 30
0.0
 10
10.3600251262
 20
10.7672920578
 30
0.0
 10
10.358072891
 20
10.7667539958
 30
0.0
 10
10.3561206596
 20
10.7662159326
 30
0.0
 10
10.353517683
 20
10.7654985155
 30
0.0
 10
10.3502639628
 20
10.764601744
 30
0.0
 10
10.3470102423
 20
10.7637049725
 30
0.0
 10
10.3444072663
 20
10.7629875553
 30
0.0
 10
10.3424550331
 20
10.7624494926
 30
0.0
 10
10.3405028045
 20
10.761911429
 30
0.0
 10
10.3388759331
 20
10.7614630455
 30
0.0
 10
10.3375744677
 20
10.7611043323
 30
0.0
 10
10.3367609796
 20
10.760880151
 30
0.0
 10
10.3361103546
 20
10.760700773
 30
0.0
 10
10.3356219328
 20
10.7605663298
 30
0.0
 10
10.335216356
 20
10.7604540065
 30
0.0
 10
10.3349296234
 20
10.760375944
 30
0.0
 10
10.3347701933
 20
10.7603304564
 30
0.0
 10
10.3346381778
 20
10.7602988209
 30
0.0
 10
10.3345537253
 20
10.7602577052
 30
0.0
 10
10.3344245315
 20
10.760206191
 30
0.0
 10
10.3342061722
 20
10.7601145006
 30
0.0
 10
10.3338901891
 20
10.7599843197
 30
0.0
 10
10.3335127391
 20
10.7598277579
 30
0.0
 10
10.3330088683
 20
10.7596191292
 30
0.0
 10
10.3323792367
 20
10.7593583021
 30
0.0
 10
10.3313717104
 20
10.7589410019
 30
0.0
 10
10.3301123423
 20
10.7584193686
 30
0.0
 10
10.3286010836
 20
10.7577934121
 30
0.0
 10
10.3270898294
 20
10.7571674547
 30
0.0
 10
10.3250748222
 20
10.7563328451
 30
0.0
 10
10.3225560638
 20
10.755289583
 30
0.0
 10
10.320037305
 20
10.754246321
 30
0.0
 10
10.3180222985
 20
10.7534117114
 30
0.0
 10
10.3165110423
 20
10.7527857543
 30
0.0
 10
10.3149997911
 20
10.7521597964
 30
0.0
 10
10.3137403995
 20
10.7516381674
 30
0.0
 10
10.3127329211
 20
10.7512208586
 30
0.0
 10
10.3121031676
 20
10.7509600532
 30
0.0
 10
10.3115995469
 20
10.75075138
 30
0.0
 10
10.3112213328
 20
10.7505949541
 30
0.0
 10
10.3109077406
 20
10.7504643481
 30
0.0
 10
10.3106851131
 20
10.7503734165
 30
0.0
 10
10.310562758
 20
10.7503206864
 30
0.0
 10
10.3104572994
 20
10.7502833058
 30
0.0
 10
10.3104041794
 20
10.7502376419
 30
0.0
 10
10.3103150964
 20
10.750179646
 30
0.0
 10
10.3101677071
 20
10.7500768071
 30
0.0
 10
10.309952704
 20
10.749930598
 30
0.0
 10
10.3096966038
 20
10.749754846
 30
0.0
 10
10.3093544719
 20
10.7495206151
 30
0.0
 10
10.3089270347
 20
10.7492277905
 30
0.0
 10
10.308243008
 20
10.7487592912
 30
0.0
 10
10.3073880183
 20
10.7481736602
 30
0.0
 10
10.3063620119
 20
10.747470906
 30
0.0
 10
10.3053360105
 20
10.7467681509
 30
0.0
 10
10.3039680069
 20
10.7458311445
 30
0.0
 10
10.302258003
 20
10.7446598864
 30
0.0
 10
10.3005479987
 20
10.7434886283
 30
0.0
 10
10.2991799958
 20
10.7425516218
 30
0.0
 10
10.2981539922
 20
10.741848867
 30
0.0
 10
10.2971279943
 20
10.741146112
 30
0.0
 10
10.2962729781
 20
10.7405604836
 30
0.0
 10
10.2955890054
 20
10.740091979
 30
0.0
 10
10.2951614307
 20
10.7397991678
 30
0.0
 10
10.2948195812
 20
10.7395649094
 30
0.0
 10
10.2945626183
 20
10.7393892416
 30
0.0
 10
10.2943503139
 20
10.7392427687
 30
0.0
 10
10.294198107
 20
10.7391404009
 30
0.0
 10
10.2941167431
 20
10.7390816501
 30
0.0
 10
10.2940399126
 20
10.7390383051
 30
0.0
 10
10.2940235066
 20
10.7389922152
 30
0.0
 10
10.2939805551
 20
10.7389317194
 30
0.0
 10
10.2939152101
 20
10.7388254057
 30
0.0
 10
10.293816726
 20
10.7386737623
 30
0.0
 10
10.2937007427
 20
10.7384916903
 30
0.0
 10
10.2935453306
 20
10.7382489626
 30
0.0
 10
10.2933513284
 20
10.7379455409
 30
0.0
 10
10.293040778
 20
10.737460073
 30
0.0
 10
10.2926526404
 20
10.7368532358
 30
0.0
 10
10.2921868536
 20
10.7361250321
 30
0.0
 10
10.2917210726
 20
10.7353968282
 30
0.0
 10
10.2911000293
 20
10.7344258897
 30
0.0
 10
10.2903237259
 20
10.7332122166
 30
0.0
 10
10.289547422
 20
10.7319985434
 30
0.0
 10
10.2889263794
 20
10.7310276049
 30
0.0
 10
10.288460596
 20
10.7302994011
 30
0.0
 10
10.2879948184
 20
10.7295711971
 30
0.0
 10
10.2876066525
 20
10.7289643608
 30
0.0
 10
10.2872961597
 20
10.7284788911
 30
0.0
 10
10.2871020107
 20
10.728175474
 30
0.0
 10
10.2869469
 20
10.7279327368
 30
0.0
 10
10.2868299962
 20
10.7277506937
 30
0.0
 10
10.2867343918
 20
10.72759896
 30
0.0
 10
10.2866639061
 20
10.7274928076
 30
0.0
 10
10.2866291913
 20
10.7274320534
 30
0.0
 10
10.2865874848
 20
10.7273867572
 30
0.0
 10
10.2866056787
 20
10.7273404312
 30
0.0
 10
10.2866090432
 20
10.7272790225
 30
0.0
 10
10.2866246661
 20
10.7271713898
 30
0.0
 10
10.286641895
 20
10.7270177164
 30
0.0
 10
10.2866647481
 20
10.7268332707
 30
0.0
 10
10.286694458
 20
10.7265873564
 30
0.0
 10
10.286731856
 20
10.7262799589
 30
0.0
 10
10.2867915471
 20
10.7257881254
 30
0.0
 10
10.2868662109
 20
10.7251733328
 30
0.0
 10
10.2869557861
 20
10.7244355819
 30
0.0
 10
10.2870453671
 20
10.723697831
 30
0.0
 10
10.2871648063
 20
10.7227141631
 30
0.0
 10
10.2873141061
 20
10.7214845782
 30
0.0
 10
10.2874634054
 20
10.7202549933
 30
0.0
 10
10.2875828454
 20
10.7192713255
 30
0.0
 10
10.287672424
 20
10.7185335745
 30
0.0
 10
10.2877620082
 20
10.7177958237
 30
0.0
 10
10.287836644
 20
10.7171810308
 30
0.0
 10
10.2878963923
 20
10.7166891979
 30
0.0
 10
10.2879336446
 20
10.7163817992
 30
0.0
 10
10.2879636535
 20
10.7161358872
 30
0.0
 10
10.2879855931
 20
10.7159514342
 30
0.0
 10
10.2880056803
 20
10.715797784
 30
0.0
 10
10.2880162006
 20
10.7156901098
 30
0.0
 10
10.2880277408
 20
10.7156287676
 30
0.0
 10
10.2880208217
 20
10.7155822373
 30
0.0
 10
10.2880734351
 20
10.7155377083
 30
0.0
 10
10.2881228207
 20
10.7154776382
 30
0.0
 10
10.2882189205
 20
10.7153728408
 30
0.0
 10
10.2883511478
 20
10.7152229601
 30
0.0
 10
10.2885119855
 20
10.7150431761
 30
0.0
 10
10.2887256797
 20
10.7148034387
 30
0.0
 10
10.2889930563
 20
10.7145037756
 30
0.0
 10
10.2894207141
 20
10.7140243098
 30
0.0
 10
10.2899553361
 20
10.7134249792
 30
0.0
 10
10.2905968612
 20
10.7127057818
 30
0.0
 10
10.291238392
 20
10.7119865846
 30
0.0
 10
10.2920937644
 20
10.7110276549
 30
0.0
 10
10.2931629806
 20
10.7098289928
 30
0.0
 10
10.2942321963
 20
10.7086303307
 30
0.0
 10
10.2950875695
 20
10.707671401
 30
0.0
 10
10.2957290979
 20
10.7069522037
 30
0.0
 10
10.296370632
 20
10.7062330067
 30
0.0
 10
10.296905226
 20
10.7056336748
 30
0.0
 10
10.2973329409
 20
10.7051542117
 30
0.0
 10
10.2976001722
 20
10.7048545417
 30
0.0
 10
10.2978141647
 20
10.7046148186
 30
0.0
 10
10.2979740909
 20
10.7044349908
 30
0.0
 10
10.2981091702
 20
10.7042852471
 30
0.0
 10
10.2982001786
 20
10.7041802052
 30
0.0
 10
10.2982577219
 20
10.7041205268
 30
0.0
 10
10.2982852773
 20
10.7040747945
 30
0.0
 10
10.2983724719
 20
10.7040327836
 30
0.0
 10
10.2984679286
 20
10.703975471
 30
0.0
 10
10.2986446702
 20
10.7038757788
 30
0.0
 10
10.2988920908
 20
10.7037330451
 30
0.0
 10
10.2991911646
 20
10.7035619001
 30
0.0
 10
10.299589172
 20
10.7033336594
 30
0.0
 10
10.3000869407
 20
10.7030483748
 30
0.0
 10
10.3008832256
 20
10.7025919103
 30
0.0
 10
10.3018786315
 20
10.7020213328
 30
0.0
 10
10.3030730973
 20
10.7013366385
 30
0.0
 10
10.3042675688
 20
10.7006519445
 30
0.0
 10
10.3058601954
 20
10.6997390191
 30
0.0
 10
10.3078509794
 20
10.6985978623
 30
0.0
 10
10.309841763
 20
10.6974567056
 30
0.0
 10
10.3114343904
 20
10.6965437802
 30
0.0
 10
10.3126288596
 20
10.695859086
 30
0.0
 10
10.3138233337
 20
10.6951743926
 30
0.0
 10
10.3148187138
 20
10.6946038121
 30
0.0
 10
10.3156150513
 20
10.6941473538
 30
0.0
 10
10.316112686
 20
10.6938620535
 30
0.0
 10
10.3165109685
 20
10.693633845
 30
0.0
 10
10.3168092019
 20
10.6934626017
 30
0.0
 10
10.3170592519
 20
10.6933201753
 30
0.0
 10
10.3172312997
 20
10.6932199346
 30
0.0
 10
10.317334277
 20
10.6931635009
 30
0.0
 10
10.3173983705
 20
10.6931187904
 30
0.0
 10
10.3175126898
 20
10.6930831974
 30
0.0
 10
10.3176475961
 20
10.6930325597
 30
0.0
 10
10.3178918448
 20
10.6929454257
 30
0.0
 10
10.318236504
 20
10.6928201737
 30
0.0
 10
10.3186519216
 20
10.692670203
 30
0.0
 10
10.3192051739
 20
10.6924701262
 30
0.0
 10
10.3198969576
 20
10.6922200699
 30
0.0
 10
10.3210036894
 20
10.6918199576
 30
0.0
 10
10.3223871461
 20
10.6913198248
 30
0.0
 10
10.3240472762
 20
10.6907196622
 30
0.0
 10
10.3257074111
 20
10.6901195005
 30
0.0
 10
10.3279209226
 20
10.6893192846
 30
0.0
 10
10.3306878126
 20
10.6883190149
 30
0.0
 10
10.3334547022
 20
10.687318745
 30
0.0
 10
10.3356682143
 20
10.6865185292
 30
0.0
 10
10.3373283473
 20
10.6859183671
 30
0.0
 10
10.3389884846
 20
10.685318206
 30
0.0
 10
10.3403719189
 20
10.6848180687
 30
0.0
 10
10.3414786964
 20
10.6844179657
 30
0.0
 10
10.3421703638
 20
10.6841678858
 30
0.0
 10
10.3427238548
 20
10.6839678574
 30
0.0
 10
10.3431385428
 20
10.6838177387
 30
0.0
 10
10.343485485
 20
10.6836929499
 30
0.0
 10
10.3437256581
 20
10.683604989
 30
0.0
 10
10.3438670946
 20
10.6835556761
 30
0.0
 10
10.3439613553
 20
10.683516014
 30
0.0
 10
10.3441007853
 20
10.6834865863
 30
0.0
 10
10.3442709364
 20
10.6834437795
 30
0.0
 10
10.3445760416
 20
10.6833705309
 30
0.0
 10
10.3450080683
 20
10.6832650205
 30
0.0
 10
10.345528143
 20
10.6831387802
 30
0.0
 10
10.3462210023
 20
10.6829703297
 30
0.0
 10
10.3470872729
 20
10.6827598112
 30
0.0
 10
10.3484731959
 20
10.6824229566
 30
0.0
 10
10.3502056375
 20
10.682001897
 30
0.0
 10
10.3522845511
 20
10.6814966217
 30
0.0
 10
10.3543634691
 20
10.6809913475
 30
0.0
 10
10.3571353583
 20
10.6803176481
 30
0.0
 10
10.3606002202
 20
10.679475524
 30
0.0
 10
10.3640650823
 20
10.6786334
 30
0.0
 10
10.3668369711
 20
10.6779597005
 30
0.0
 10
10.3689158902
 20
10.6774544267
 30
0.0
 10
10.3709947995
 20
10.6769491497
 30
0.0
 10
10.3727272547
 20
10.6765280958
 30
0.0
 10
10.3741131499
 20
10.6761912295
 30
0.0
 10
10.3749794914
 20
10.6759807408
 30
0.0
 10
10.375672205
 20
10.675812229
 30
0.0
 10
10.3761927249
 20
10.6756861761
 30
0.0
 10
10.3766233591
 20
10.6755800793
 30
0.0
 10
10.3769748917
 20
10.6754975629
 30
0.0
 10
10.3772193448
 20
10.675429224
 30
0.0
 10
10.3775370707
 20
10.6753855109
 30
0.0
 10
10.3779351101
 20
10.6753186247
 30
0.0
 10
10.3784414409
 20
10.6752379682
 30
0.0
 10
10.3790452791
 20
10.6751399172
 30
0.0
 10
10.3798517095
 20
10.6750096238
 30
0.0
 10
10.380859298
 20
10.6748466058
 30
0.0
 10
10.3824716909
 20
10.6745858616
 30
0.0
 10
10.3844870958
 20
10.6742599024
 30
0.0
 10
10.3869056186
 20
10.6738687637
 30
0.0
 10
10.3893241315
 20
10.6734776217
 30
0.0
 10
10.392548819
 20
10.6729561003
 30
0.0
 10
10.3965796758
 20
10.6723041975
 30
0.0
 10
10.4014167107
 20
10.671521917
 30
0.0
 10
10.405447554
 20
10.6708700085
 30
0.0
 10
10.4086722713
 20
10.6703484998
 30
0.0
 10
10.4106876224
 20
10.6700225156
 30
0.0
 10
10.412300126
 20
10.6697618226
 30
0.0
 10
10.4135088939
 20
10.6695660447
 30
0.0
 10
10.4145181404
 20
10.6694037176
 30
0.0
 10
10.4152208059
 20
10.6692884772
 30
0.0
 10
10.4156282734
 20
10.6692251416
 30
0.0
 10
10.4159171288
 20
10.6691705522
 30
0.0
 10
10.4162699927
 20
10.6691430553
 30
0.0
 10
10.416718151
 20
10.6690969426
 30
0.0
 10
10.4175128306
 20
10.6690206483
 30
0.0
 10
10.4186426486
 20
10.6689093546
 30
0.0
 10
10.4200007581
 20
10.6687767874
 30
0.0
 10
10.4218107577
 20
10.668599687
 30
0.0
 10
10.4240735355
 20
10.6683784294
 30
0.0
 10
10.4276938245
 20
10.6680243513
 30
0.0
 10
10.4322192391
 20
10.6675817762
 30
0.0
 10
10.4376497137
 20
10.6670506765
 30
0.0
 10
10.4430801945
 20
10.6665195794
 30
0.0
 10
10.4503208333
 20
10.6658114489
 30
0.0
 10
10.4557513129
 20
10.6652803513
 30
0.0
 10
10.4593716326
 20
10.6649262862
 30
0.0
  0
ENDSEC
  0
SECTION
  2
OBJECTS
  0
DICTIONARY
  5
C
100
AcDbDictionary
280
0
281
1
  3
ACAD_GROUP
350
D
  3
ACAD_MLINESTYLE
350
17
  3
ACAD_LAYOUT
350
1A
  3
ACAD_PLOTSETTINGS
350
19
  3
ACAD_PLOTSTYLENAME
350
E
  3
ACAD_IMAGE_DICT
350
       411
  3
ACAD_IMAGE_VARS
350
       412
  3
ACAD_TABLESTYLE
350
       413
  0
IMAGEDEF_REACTOR
  5
410
100
AcDbRasterImageDefReactor
 90
2
330
28F
  0
DICTIONARY
  5
D
102
{ACAD_REACTORS
330
C
102
}
100
AcDbDictionary
280
0
281
1
  0
ACDBDICTIONARYWDFLT
  5
E
102
{ACAD_REACTORS
330
C
102
}
100
AcDbDictionary
281
1
  3
Normal
350
F
100
AcDbDictionaryWithDefault
340
F
  0
DICTIONARY
  5
411
330
C
100
AcDbDictionary
281
1
  3
XCM_assy_2_img_1
350
       416
  0
RASTERVARIABLES
  5
412
330
C
100
AcDbRasterVariables
 90
0
 70
0
 71
1
 72
5
  0
DICTIONARY
  5
17
102
{ACAD_REACTORS
330
C
102
}
100
AcDbDictionary
280
0
281
1
  3
Standard
350
18
  0
DICTIONARY
  5
413
330
C
100
AcDbDictionary
281
1
  3
Standard
350
       417
  3
Standard1
350
       418
  0
DICTIONARY
  5
19
102
{ACAD_REACTORS
330
C
102
}
100
AcDbDictionary
281
1
  0
DICTIONARY
  5
1A
102
{ACAD_REACTORS
330
C
102
}
100
AcDbDictionary
281
1
  3
Model
350
414
  3
Layout1
350
415
  0
ACDBPLACEHOLDER
  5
F
102
{ACAD_REACTORS
330
E
102
}
  0
MLINESTYLE
  5
18
102
{ACAD_REACTORS
330
17
102
}
100
AcDbMlineStyle
  2
STANDARD
 70
0
  3

 62
256
 51
90.0
 52
90.0
 71
2
 49
0.5
 62
256
  6
BYLAYER
 49
-0.5
 62
256
  6
BYLAYER
  0
LAYOUT
  5
414
102
{ACAD_REACTORS
330
1A
102
}
100
AcDbPlotSettings
  1

  2
none_device
  4
ANSI_C_(22.00_x_17.00_Inches)
  6

 40
0.0
 41
0.0
 42
0.0
 43
0.0
 44
558.8
 45
431.8
 46
0.0
 47
0.0
 48
0.0
 49
0.0
140
0.0
141
0.0
142
1.0
143
1.0
 70
1024
 72
0
 73
0
 74
0
  7

 75
0
147
1.0
148
0.0
149
0.0
100
AcDbLayout
  1
Model
 70
0
 71
0
 10
0.0
 20
0.0
 11
22.0
 21
17.0
 12
0.0
 22
0.0
 32
0.0
 14
0.0
 24
0.0
 34
0.0
 15
0.0
 25
0.0
 35
0.0
146
0.0
 13
0.0
 23
0.0
 33
0.0
 16
1.0
 26
0.0
 36
0.0
 17
0.0
 27
1.0
 37
0.0
 76
0
330
20C
345
0
346
0
  0
LAYOUT
  5
415
102
{ACAD_REACTORS
330
1A
102
}
100
AcDbPlotSettings
  1

  2
none_device
  4
ANSI_C_(22.00_x_17.00_Inches)
  6

 40
0.0
 41
0.0
 42
0.0
 43
0.0
 44
558.8
 45
431.8
 46
0.0
 47
0.0
 48
0.0
 49
0.0
140
0.0
141
0.0
142
1.0
143
1.0
 70
0
 72
0
 73
0
 74
0
  7

 75
0
147
1.0
148
0.0
149
0.0
100
AcDbLayout
  1
Layout1
 70
0
 71
1
 10
0.0
 20
0.0
 11
22.0
 21
17.0
 12
0.0
 22
0.0
 32
0.0
 14
0.0
 24
0.0
 34
0.0
 15
0.0
 25
0.0
 35
0.0
146
0.0
 13
0.0
 23
0.0
 33
0.0
 16
1.0
 26
0.0
 36
0.0
 17
0.0
 27
1.0
 37
0.0
 76
0
330
20D
345
0
346
0
  0
IMAGEDEF
  5
416
102
{ACAD_REACTORS
330
411
330
410
102
}
100
AcDbRasterImageDef
 90
0
  1
XCM_assy_2_img_1.png
 10
369.0
 20
92.0
 11
0.0066666667
 21
0.0066666667
280
1
281
0
  0
TABLESTYLE
  5
417
102
{ACAD_REACTORS
330
413
330
292
330
293
102
}
330
413
100
AcDbTableStyle
  3
Standard
 70
0
 71
0
 40
0.06
 41
0.06
280
1
281
1
  7
Standard
140
0.18
170
1
 62
0
 63
7
283
0
  7
Standard
140
0.18
170
1
 62
0
 63
7
283
0
  7
Standard
140
0.18
170
1
 62
0
 63
7
283
0
  0
TABLESTYLE
  5
418
102
{ACAD_REACTORS
330
413
330
291
102
}
330
413
100
AcDbTableStyle
  3
Standard1
 70
1
 71
0
 40
0.06
 41
0.06
280
1
281
1
  7
Standard
140
0.18
170
1
 62
0
 63
7
283
0
  7
Standard
140
0.18
170
1
 62
0
 63
7
283
0
  7
Standard
140
0.18
170
1
 62
0
 63
7
283
0
  0
ENDSEC
  0
EOF
