999
DXF file: XC4_assy_2.dxf
999
Pro/ENGINEER 2014200 by Parametric Technology Corporation
  0
SECTION
  2
HEADER
  9
$ACADVER
  1
AC1021
  9
$DWGCODEPAGE
  3
ANSI_1252
  9
$EXTMAX
 10
22.0
 20
17.0
 30
0.0
  9
$EXTMIN
 10
0.0
 20
0.0
 30
0.0
  9
$LIMMIN
 10
0.0
 20
0.0
  9
$LIMMAX
 10
22.0
 20
17.0
  9
$VIEWCTR
 10
11.0
 20
8.5
  9
$VIEWSIZE
 40
17.0
  9
$CLAYER
  8
0
  9
$LTSCALE
 40
1.21
  9
$CELTYPE
  6
BYLAYER
  9
$DIMSCALE
 40
1.0
  9
$DIMASZ
 40
0.1875
  9
$DIMEXO
 40
0.0625
  9
$DIMDLI
 40
0.836
  9
$DIMEXE
 40
0.125
  9
$DIMCEN
 40
0.198
  9
$DIMLFAC
 40
1.0
  9
$DIMBLK
  1
_FILLED
  9
$DIMTXT
 40
0.1
  9
$DIMTOL
 70
0
  9
$DIMLIM
 70
0
  9
$DIMTFAC
 40
1.0
  9
$DIMGAP
 40
0.09
  9
$DIMDSEP
 70
46
  9
$AUNITS
 70
0
  9
$PDMODE
 70
3
  9
$PDSIZE
 40
0.3125
  9
$HANDSEED
  5
316
  9
$TILEMODE
 70
1
  9
$MEASUREMENT
 70
0
  9
$INSUNITS
 70
1
  0
ENDSEC
  0
SECTION
  2
CLASSES
  0
CLASS
  1
ACDBDICTIONARYWDFLT
  2
AcDbDictionaryWithDefault
  3
AutoCAD 2000
 90
0
 91
1
280
0
281
0
  0
CLASS
  1
ACDBPLACEHOLDER
  2
AcDbPlaceHolder
  3
AutoCAD 2000
 90
0
 91
1
280
0
281
0
  0
CLASS
  1
LAYOUT
  2
AcDbLayout
  3
AutoCAD 2000
 90
0
 91
0
280
0
281
0
  0
CLASS
  1
RASTERVARIABLES
  2
AcDbRasterVariables
  3
ISM
 90
0
 91
1
280
0
281
0
  0
CLASS
  1
IMAGEDEF
  2
AcDbRasterImageDef
  3
ISM
 90
0
 91
1
280
0
281
0
  0
CLASS
  1
IMAGEDEF_REACTOR
  2
AcDbRasterImageDefReactor
  3
ISM
 90
0
 91
1
280
0
281
0
  0
CLASS
  1
IMAGE
  2
AcDbRasterImage
  3
ISM
 90
127
 91
1
280
0
281
1
  0
CLASS
  1
TABLESTYLE
  2
AcDbTableStyle
  3
ObjectDBX Classes
 90
2047
 91
1
280
0
281
0
  0
CLASS
  1
ACAD_TABLE
  2
AcDbTable
  3
ObjectDBX Classes
 90
1025
 91
3
280
0
281
1
  0
ENDSEC
  0
SECTION
  2
TABLES
  0
TABLE
  2
VPORT
  5
8
100
AcDbSymbolTable
 70
2
  0
VPORT
  5
1F4
100
AcDbSymbolTableRecord
100
AcDbViewportTableRecord
  2
*ACTIVE
 70
0
 10
0.0
 20
0.0
 11
1.0
 21
1.0
 12
11.0
 22
8.5
 13
0.0
 23
0.0
 14
1.0
 24
1.0
 15
0.0
 25
0.0
 16
0.0
 26
0.0
 36
1.0
 17
0.0
 27
0.0
 37
0.0
 40
17.0
 41
1.2941176471
 42
50.0
 43
0.0
 44
0.0
 50
0.0
 51
0.0
 71
0
 72
100
 73
1
 74
1
 75
0
 76
0
 77
0
 78
0
  0
ENDTAB
  0
TABLE
  2
LTYPE
  5
5
100
AcDbSymbolTable
 70
6
  0
LTYPE
  5
14
100
AcDbSymbolTableRecord
100
AcDbLinetypeTableRecord
  2
BYBLOCK
 70
0
  3

 72
65
 73
0
 40
0.0
  0
LTYPE
  5
15
100
AcDbSymbolTableRecord
100
AcDbLinetypeTableRecord
  2
BYLAYER
 70
0
  3

 72
65
 73
0
 40
0.0
  0
LTYPE
  5
16
100
AcDbSymbolTableRecord
100
AcDbLinetypeTableRecord
  2
CONTINUOUS
 70
64
  3
Solid line
 72
65
 73
0
 40
0.0
  0
LTYPE
  5
1F5
100
AcDbSymbolTableRecord
100
AcDbLinetypeTableRecord
  2
CENTER
 70
64
  3
____ _ ____ _ ____ _ ____ _ ____ _ ____ _ ____
 72
65
 73
4
 40
0.6
 49
0.375
 74
0
 49
-0.075
 74
0
 49
0.075
 74
0
 49
-0.075
 74
0
  0
LTYPE
  5
1F6
100
AcDbSymbolTableRecord
100
AcDbLinetypeTableRecord
  2
HIDDEN
 70
64
  3
- - - - - - - - - - - - - - - - - - - -
 72
65
 73
2
 40
0.2
 49
0.1
 74
0
 49
-0.1
 74
0
  0
LTYPE
  5
1F7
100
AcDbSymbolTableRecord
100
AcDbLinetypeTableRecord
  2
PHANTOM
 70
64
  3
_____ _ _ _____ _ _ _____ _ _ _____
 72
65
 73
6
 40
0.8
 49
0.45
 74
0
 49
-0.05
 74
0
 49
0.1
 74
0
 49
-0.05
 74
0
 49
0.1
 74
0
 49
-0.05
 74
0
  0
LTYPE
  5
1F8
100
AcDbSymbolTableRecord
100
AcDbLinetypeTableRecord
  2
DOT
 70
64
  3
. . . . . . . . . . . . . . . . . . . .
 72
65
 73
2
 40
0.2
 49
0.1
 74
0
 49
-0.1
 74
0
  0
LTYPE
  5
1F9
100
AcDbSymbolTableRecord
100
AcDbLinetypeTableRecord
  2
DASHED
 70
64
  3
- - - - - - - - - - - - - - - - - - - -
 72
65
 73
2
 40
0.2
 49
0.1
 74
0
 49
-0.1
 74
0
  0
ENDTAB
  0
TABLE
  2
LAYER
  5
2
100
AcDbSymbolTable
 70
36
  0
LAYER
  5
10
100
AcDbSymbolTableRecord
100
AcDbLayerTableRecord
  2
0
 70
0
 62
7
  6
CONTINUOUS
370
-3
390
F
  0
LAYER
  5
1FA
100
AcDbSymbolTableRecord
100
AcDbLayerTableRecord
  2
DEFAULT_1
 70
0
 62
7
  6
CENTER
370
-3
390
F
  0
LAYER
  5
1FB
100
AcDbSymbolTableRecord
100
AcDbLayerTableRecord
  2
DEFAULT_2
 70
0
 62
8
  6
HIDDEN
370
-3
390
F
  0
LAYER
  5
1FC
100
AcDbSymbolTableRecord
100
AcDbLayerTableRecord
  2
DEFAULT_3
 70
0
 62
7
  6
PHANTOM
370
-3
390
F
  0
LAYER
  5
1FD
100
AcDbSymbolTableRecord
100
AcDbLayerTableRecord
  2
01___PRT_ALL_DTM_PLN
 70
0
 62
7
  6
CONTINUOUS
370
-3
390
F
  0
LAYER
  5
1FE
100
AcDbSymbolTableRecord
100
AcDbLayerTableRecord
  2
01___PRT_DEF_DTM_PLN
 70
0
 62
7
  6
CONTINUOUS
370
-3
390
F
  0
LAYER
  5
1FF
100
AcDbSymbolTableRecord
100
AcDbLayerTableRecord
  2
02___PRT_ALL_AXES
 70
0
 62
7
  6
CONTINUOUS
370
-3
390
F
  0
LAYER
  5
200
100
AcDbSymbolTableRecord
100
AcDbLayerTableRecord
  2
03___PRT_ALL_CURVES
 70
0
 62
7
  6
CONTINUOUS
370
-3
390
F
  0
LAYER
  5
201
100
AcDbSymbolTableRecord
100
AcDbLayerTableRecord
  2
04___PRT_ALL_DTM_PNT
 70
0
 62
7
  6
CONTINUOUS
370
-3
390
F
  0
LAYER
  5
202
100
AcDbSymbolTableRecord
100
AcDbLayerTableRecord
  2
05___PRT_ALL_DTM_CSYS
 70
0
 62
7
  6
CONTINUOUS
370
-3
390
F
  0
LAYER
  5
203
100
AcDbSymbolTableRecord
100
AcDbLayerTableRecord
  2
05___PRT_DEF_DTM_CSYS
 70
0
 62
7
  6
CONTINUOUS
370
-3
390
F
  0
LAYER
  5
204
100
AcDbSymbolTableRecord
100
AcDbLayerTableRecord
  2
06___PRT_ALL_SURFS
 70
0
 62
7
  6
CONTINUOUS
370
-3
390
F
  0
LAYER
  5
205
100
AcDbSymbolTableRecord
100
AcDbLayerTableRecord
  2
DATUM_PLANES
 70
0
 62
7
  6
CONTINUOUS
370
-3
390
F
  0
LAYER
  5
206
100
AcDbSymbolTableRecord
100
AcDbLayerTableRecord
  2
PORT_AREAS
 70
0
 62
7
  6
CONTINUOUS
370
-3
390
F
  0
LAYER
  5
207
100
AcDbSymbolTableRecord
100
AcDbLayerTableRecord
  2
SUNNBOMCOSMETIC
 70
0
 62
7
  6
CONTINUOUS
370
-3
390
F
  0
LAYER
  5
208
100
AcDbSymbolTableRecord
100
AcDbLayerTableRecord
  2
SUNNBOMSTAMPING
 70
0
 62
7
  6
CONTINUOUS
370
-3
390
F
  0
LAYER
  5
209
100
AcDbSymbolTableRecord
100
AcDbLayerTableRecord
  2
THREADS
 70
0
 62
7
  6
CONTINUOUS
370
-3
390
F
  0
ENDTAB
  0
TABLE
  2
STYLE
  5
3
100
AcDbSymbolTable
 70
1
  0
STYLE
  5
11
100
AcDbSymbolTableRecord
100
AcDbTextStyleTableRecord
  2
STANDARD
 70
0
 40
0.0
 41
0.8
 50
0.0
 71
0
 42
0.2
  3
txt
  4

  0
STYLE
  5
20A
100
AcDbSymbolTableRecord
100
AcDbTextStyleTableRecord
  2
TEXTSTYLE_1
 70
0
 40
0.0
 41
0.8
 50
0.0
 71
0
 42
0.2
  3
gdt
  4

  0
ENDTAB
  0
TABLE
  2
VIEW
  5
6
100
AcDbSymbolTable
 70
0
  0
ENDTAB
  0
TABLE
  2
UCS
  5
7
100
AcDbSymbolTable
 70
0
  0
ENDTAB
  0
TABLE
  2
APPID
  5
9
100
AcDbSymbolTable
 70
1
  0
APPID
  5
20B
100
AcDbSymbolTableRecord
100
AcDbRegAppTableRecord
  2
ACAD
 70
0
  0
ENDTAB
  0
TABLE
  2
BLOCK_RECORD
  5
1
100
AcDbSymbolTable
 70
0
  0
BLOCK_RECORD
  5
20C
100
AcDbSymbolTableRecord
100
AcDbBlockTableRecord
  2
*Model_Space
  0
BLOCK_RECORD
  5
20D
100
AcDbSymbolTableRecord
100
AcDbBlockTableRecord
  2
*Paper_Space
  0
BLOCK_RECORD
  5
20E
100
AcDbSymbolTableRecord
100
AcDbBlockTableRecord
  2
SUN_FIRST_THIRD_ANGLE_BL0
  0
BLOCK_RECORD
  5
20F
100
AcDbSymbolTableRecord
100
AcDbBlockTableRecord
  2
*T1
  0
BLOCK_RECORD
  5
210
100
AcDbSymbolTableRecord
100
AcDbBlockTableRecord
  2
*T2
  0
BLOCK_RECORD
  5
211
100
AcDbSymbolTableRecord
100
AcDbBlockTableRecord
  2
*T3
  0
ENDTAB
  0
TABLE
  2
DIMSTYLE
  5
A
100
AcDbSymbolTable
 70
1
100
AcDbDimStyleTable
 71
0
  0
DIMSTYLE
105
212
100
AcDbSymbolTableRecord
100
AcDbDimStyleTableRecord
  2
STANDARD
 70
0
  3

  4

 40
1.0
 41
0.1875
 42
0.0625
 43
0.38
 44
0.125
 45
0.0
 46
0.0
 47
0.001
 48
0.001
140
0.1
141
0.09
142
0.0
143
25.4
144
1.0
145
0.0
146
1.0
147
0.09
 71
0.0
 72
0.0
 73
1
 74
1
 75
0
 76
0
 77
0
 78
4
170
0
171
2
172
0
173
0
174
0
175
0
176
0
177
0
178
0
270
2
271
3
272
3
273
2
274
2
275
0
280
0
281
0
282
0
283
1
284
4
285
0
286
0
287
3
288
0
340
11
278
46
  0
ENDTAB
  0
ENDSEC
  0
SECTION
  2
BLOCKS
  0
BLOCK
  5
20
100
AcDbEntity
  8
0
100
AcDbBlockBegin
  2
*Model_Space
 70
0
 10
0.0
 20
0.0
 30
0.0
  3
*Model_Space
  1

  0
ENDBLK
  5
21
100
AcDbEntity
  8
0
100
AcDbBlockEnd
  0
BLOCK
  5
1C
100
AcDbEntity
  8
0
100
AcDbBlockBegin
  2
*Paper_Space
 70
0
 10
0.0
 20
0.0
 30
0.0
  3
*Paper_Space
  1

  0
ENDBLK
  5
1D
100
AcDbEntity
  8
0
100
AcDbBlockEnd
  0
BLOCK
  5
213
100
AcDbEntity
  8
0
100
AcDbBlockBegin
 62
2
  6
CONTINUOUS
  2
SUN_FIRST_THIRD_ANGLE_BL0
 70
64
 10
20.4816717061
 20
1.2289683772
  3
SUN_FIRST_THIRD_ANGLE_BL0
  1

  0
TEXT
  5
214
100
AcDbEntity
  8
0
100
AcDbText
 62
2
  6
CONTINUOUS
 10
19.4750896608
 20
1.4136269581
  7
STANDARD
 40
0.08
  1
FIRST ANGLE
 41
0.8
 72
0
100
AcDbText
  0
TEXT
  5
215
100
AcDbEntity
  8
0
100
AcDbText
 62
2
  6
CONTINUOUS
 10
20.7842537513
 20
1.4047600029
  7
STANDARD
 40
0.08
  1
THIRD ANGLE
 41
0.8
 72
0
100
AcDbText
  0
LINE
  5
216
100
AcDbEntity
  8
0
100
AcDbLine
 62
7
  6
CONTINUOUS
 10
19.4767170086
 20
1.1727031207
 11
19.6334271527
 21
1.1717972817
  0
LINE
  5
217
100
AcDbEntity
  8
0
100
AcDbLine
 62
7
  6
CONTINUOUS
 10
19.6596964832
 20
1.1717972817
 11
19.6950230232
 21
1.171593082
  0
LINE
  5
218
100
AcDbEntity
  8
0
100
AcDbLine
 62
7
  6
CONTINUOUS
 10
19.7194818561
 20
1.1708914427
 11
19.8852396156
 21
1.1699333054
  0
LINE
  5
219
100
AcDbEntity
  8
0
100
AcDbLine
 62
7
  6
CONTINUOUS
 10
19.4758111696
 20
1.2723454088
 11
19.88525039
 21
1.3511534004
  0
LINE
  5
21A
100
AcDbEntity
  8
0
100
AcDbLine
 62
7
  6
CONTINUOUS
 10
19.88525039
 20
1.3511534004
 11
19.8831348489
 21
0.9851647912
  0
LINE
  5
21B
100
AcDbEntity
  8
0
100
AcDbLine
 62
7
  6
CONTINUOUS
 10
19.8831348489
 20
0.9851647912
 11
19.4767170086
 21
1.0658141206
  0
LINE
  5
21C
100
AcDbEntity
  8
0
100
AcDbLine
 62
7
  6
CONTINUOUS
 10
19.4767170086
 20
1.0658141206
 11
19.4779056764
 21
1.2714536432
  0
CIRCLE
  5
21D
100
AcDbEntity
  8
0
100
AcDbCircle
 62
7
  6
CONTINUOUS
 10
20.2068232291
 20
1.1717972817
 40
0.175742101
  0
CIRCLE
  5
21E
100
AcDbEntity
  8
0
100
AcDbCircle
 62
7
  6
CONTINUOUS
 10
20.2068232291
 20
1.1717972817
 40
0.1005522074
  0
LINE
  5
21F
100
AcDbEntity
  8
0
100
AcDbLine
 62
7
  6
CONTINUOUS
 10
20.2077290681
 20
1.3756110529
 11
20.2071171714
 21
1.2379342989
  0
LINE
  5
220
100
AcDbEntity
  8
0
100
AcDbLine
 62
7
  6
CONTINUOUS
 10
20.2077290681
 20
1.2016899681
 11
20.2074674401
 21
1.1428236749
  0
LINE
  5
221
100
AcDbEntity
  8
0
100
AcDbLine
 62
7
  6
CONTINUOUS
 10
20.208634907
 20
1.101141841
 11
20.2080230104
 21
0.963465087
  0
LINE
  5
222
100
AcDbEntity
  8
0
100
AcDbLine
 62
7
  6
CONTINUOUS
 10
20.0066328138
 20
1.1745147986
 11
20.1443095678
 21
1.1739029019
  0
LINE
  5
223
100
AcDbEntity
  8
0
100
AcDbLine
 62
7
  6
CONTINUOUS
 10
20.1832714155
 20
1.1727031207
 11
20.238153505
 21
1.172335442
  0
LINE
  5
224
100
AcDbEntity
  8
0
100
AcDbLine
 62
7
  6
CONTINUOUS
 10
20.2756669918
 20
1.1717972817
 11
20.407916871
 21
1.1712095044
  0
CIRCLE
  5
225
100
AcDbEntity
  8
0
100
AcDbCircle
 62
7
  6
CONTINUOUS
 10
20.7509457401
 20
1.1693297793
 40
0.1722024983
  0
CIRCLE
  5
226
100
AcDbEntity
  8
0
100
AcDbCircle
 62
7
  6
CONTINUOUS
 10
20.7509457401
 20
1.1693297793
 40
0.0985164967
  0
LINE
  5
227
100
AcDbEntity
  8
0
100
AcDbLine
 62
7
  6
CONTINUOUS
 10
20.7169767782
 20
1.170462078
 11
20.7825395137
 21
1.1682766535
  0
LINE
  5
228
100
AcDbEntity
  8
0
100
AcDbLine
 62
7
  6
CONTINUOUS
 10
20.8177513651
 20
1.1693297793
 11
20.947965719
 21
1.1693297793
  0
LINE
  5
229
100
AcDbEntity
  8
0
100
AcDbLine
 62
7
  6
CONTINUOUS
 10
20.6875370113
 20
1.170462078
 11
20.5573226574
 21
1.170462078
  0
LINE
  5
22A
100
AcDbEntity
  8
0
100
AcDbLine
 62
7
  6
CONTINUOUS
 10
20.7486811426
 20
1.1987695462
 11
20.7486811426
 21
1.1432869085
  0
LINE
  5
22B
100
AcDbEntity
  8
0
100
AcDbLine
 62
7
  6
CONTINUOUS
 10
20.7498134414
 20
1.1059210505
 11
20.7498134414
 21
0.9757066966
  0
LINE
  5
22C
100
AcDbEntity
  8
0
100
AcDbLine
 62
7
  6
CONTINUOUS
 10
20.7486811426
 20
1.2338708068
 11
20.7486811426
 21
1.3640851607
  0
LINE
  5
22D
100
AcDbEntity
  8
0
100
AcDbLine
 62
7
  6
CONTINUOUS
 10
21.0702539817
 20
1.2701043662
 11
21.4790138229
 21
1.3448360823
  0
LINE
  5
22E
100
AcDbEntity
  8
0
100
AcDbLine
 62
7
  6
CONTINUOUS
 10
21.4790138229
 20
1.3448360823
 11
21.4790138229
 21
0.9779712941
  0
LINE
  5
22F
100
AcDbEntity
  8
0
100
AcDbLine
 62
7
  6
CONTINUOUS
 10
21.4790138229
 20
0.9779712941
 11
21.069121683
 21
1.0617614
  0
LINE
  5
230
100
AcDbEntity
  8
0
100
AcDbLine
 62
7
  6
CONTINUOUS
 10
21.0702539817
 20
1.2701043662
 11
21.069121683
 21
1.0617614
  0
LINE
  5
231
100
AcDbEntity
  8
0
100
AcDbLine
 62
7
  6
CONTINUOUS
 10
21.4790138229
 20
1.1693297793
 11
21.3159628059
 21
1.1693297793
  0
LINE
  5
232
100
AcDbEntity
  8
0
100
AcDbLine
 62
7
  6
CONTINUOUS
 10
21.2876553377
 20
1.1693297793
 11
21.2502894796
 21
1.1693297793
  0
LINE
  5
233
100
AcDbEntity
  8
0
100
AcDbLine
 62
7
  6
CONTINUOUS
 10
21.2208497126
 20
1.1659328831
 11
21.0713862804
 21
1.1659328831
  0
LINE
  5
234
100
AcDbEntity
  8
0
100
AcDbLine
 62
7
  6
CONTINUOUS
 10
20.4796138713
 20
1.5284908897
 11
20.4766766948
 21
0.9294458646
  0
ENDBLK
  5
235
100
AcDbEntity
  8
0
  6
BYBLOCK
 62
0
100
AcDbBlockEnd
  0
BLOCK
  5
236
100
AcDbEntity
  8
0
100
AcDbBlockBegin
  2
*T1
 70
1
 10
0.0
 20
0.0
  3
*T1
  1

  0
LINE
  5
237
100
AcDbEntity
  8
0
100
AcDbLine
 62
2
  6
CONTINUOUS
 10
9.275
 20
0.0
 11
-0.0
 21
0.0
  0
LINE
  5
238
100
AcDbEntity
  8
0
100
AcDbLine
 62
2
  6
CONTINUOUS
 10
9.275
 20
0.0
 11
9.275
 21
1.25
  0
LINE
  5
239
100
AcDbEntity
  8
0
100
AcDbLine
 62
2
  6
CONTINUOUS
 10
9.275
 20
0.625
 11
-0.0
 21
0.625
  0
LINE
  5
23A
100
AcDbEntity
  8
0
100
AcDbLine
 62
2
  6
CONTINUOUS
 10
9.275
 20
1.25
 11
-0.0
 21
1.25
  0
LINE
  5
23B
100
AcDbEntity
  8
0
100
AcDbLine
 62
2
  6
CONTINUOUS
 10
6.8
 20
0.0
 11
6.8
 21
1.25
  0
LINE
  5
23C
100
AcDbEntity
  8
0
100
AcDbLine
 62
2
  6
CONTINUOUS
 10
6.4
 20
0.0
 11
6.4
 21
0.625
  0
LINE
  5
23D
100
AcDbEntity
  8
0
100
AcDbLine
 62
2
  6
CONTINUOUS
 10
5.9
 20
0.0
 11
5.9
 21
0.625
  0
LINE
  5
23E
100
AcDbEntity
  8
0
100
AcDbLine
 62
2
  6
CONTINUOUS
 10
5.2
 20
0.0
 11
5.2
 21
0.625
  0
LINE
  5
23F
100
AcDbEntity
  8
0
100
AcDbLine
 62
2
  6
CONTINUOUS
 10
4.1
 20
0.0
 11
4.1
 21
1.25
  0
LINE
  5
240
100
AcDbEntity
  8
0
100
AcDbLine
 62
2
  6
CONTINUOUS
 10
-0.0
 20
0.0
 11
-0.0
 21
1.25
  0
MTEXT
  5
241
100
AcDbEntity
  8
0
100
AcDbMText
 62
2
  6
CONTINUOUS
  7
STANDARD
 71
2
 72
1
 10
6.6
 20
0.325
 30
0.0
 11
1.0
 21
0.0
 31
0.0
 44
0.9
  1
2
 40
0.125
 41
0.2
  0
MTEXT
  5
242
100
AcDbEntity
  8
0
100
AcDbMText
 62
2
  6
CONTINUOUS
  7
STANDARD
 71
2
 72
1
 10
6.15
 20
0.325
 30
0.0
 11
1.0
 21
0.0
 31
0.0
 44
0.9
  1
C
 40
0.125
 41
0.2
  0
MTEXT
  5
243
100
AcDbEntity
  8
0
100
AcDbMText
 62
2
  6
CONTINUOUS
  7
STANDARD
 71
2
 72
1
 10
5.55
 20
0.325
 30
0.0
 11
1.0
 21
0.0
 31
0.0
 44
0.9
  1
0.900
 40
0.125
 41
1.0
  0
MTEXT
  5
244
100
AcDbEntity
  8
0
100
AcDbMText
 62
2
  6
CONTINUOUS
  7
STANDARD
 71
2
 72
1
 10
4.65
 20
0.325
 30
0.0
 11
1.0
 21
0.0
 31
0.0
 44
0.9
  1
Aug-30-21
 40
0.125
 41
1.8
  0
MTEXT
  5
245
100
AcDbEntity
  8
0
100
AcDbMText
 62
2
  6
CONTINUOUS
  7
STANDARD
 71
2
 72
1
 10
2.05
 20
0.4625
 30
0.0
 11
1.0
 21
0.0
 31
0.0
 44
0.9
  1
T-17A Line mount\PCross port with shuttle on port 3s
 40
0.125
 41
6.8
  0
MTEXT
  5
246
100
AcDbEntity
  8
0
100
AcDbMText
 62
2
  6
CONTINUOUS
  7
STANDARD
 71
1
 72
1
 10
6.45
 20
0.5625
 30
0.0
 11
1.0
 21
0.0
 31
0.0
 44
0.9
  1
SHEET
 40
0.06
 41
0.48
  0
MTEXT
  5
247
100
AcDbEntity
  8
0
100
AcDbMText
 62
2
  6
CONTINUOUS
  7
STANDARD
 71
1
 72
1
 10
5.95
 20
0.5625
 30
0.0
 11
1.0
 21
0.0
 31
0.0
 44
0.9
  1
DWG SIZE
 40
0.06
 41
0.768
  0
MTEXT
  5
248
100
AcDbEntity
  8
0
100
AcDbMText
 62
2
  6
CONTINUOUS
  7
STANDARD
 71
1
 72
1
 10
5.25
 20
0.5625
 30
0.0
 11
1.0
 21
0.0
 31
0.0
 44
0.9
  1
SCALE
 40
0.06
 41
0.48
  0
MTEXT
  5
249
100
AcDbEntity
  8
0
100
AcDbMText
 62
2
  6
CONTINUOUS
  7
STANDARD
 71
1
 72
1
 10
4.15
 20
0.5625
 30
0.0
 11
1.0
 21
0.0
 31
0.0
 44
0.9
  1
DATE
 40
0.06
 41
0.384
  0
MTEXT
  5
24A
100
AcDbEntity
  8
0
100
AcDbMText
 62
2
  6
CONTINUOUS
  7
STANDARD
 71
1
 72
1
 10
0.05
 20
0.5625
 30
0.0
 11
1.0
 21
0.0
 31
0.0
 44
0.9
  1
DESCRIPTION
 40
0.06
 41
1.056
  0
MTEXT
  5
24B
100
AcDbEntity
  8
0
100
AcDbMText
 62
2
  6
CONTINUOUS
  7
STANDARD
 71
2
 72
1
 10
5.45
 20
1.0375
 30
0.0
 11
1.0
 21
0.0
 31
0.0
 44
0.9
  1
ALL DIMENSIONS IN INCH\PVIEWS ARE THIRD ANGLE
 40
0.12
 41
4.224
  0
MTEXT
  5
24C
100
AcDbEntity
  8
0
100
AcDbMText
 62
2
  6
CONTINUOUS
  7
STANDARD
 71
2
 72
1
 10
2.05
 20
0.95
 30
0.0
 11
1.0
 21
0.0
 31
0.0
 44
0.9
  1
XC4
 40
0.125
 41
0.6
  0
MTEXT
  5
24D
100
AcDbEntity
  8
0
100
AcDbMText
 62
2
  6
CONTINUOUS
  7
STANDARD
 71
1
 72
1
 10
0.05
 20
1.1875
 30
0.0
 11
1.0
 21
0.0
 31
0.0
 44
0.9
  1
MODEL
 40
0.06
 41
0.48
  0
ENDBLK
  5
24E
100
AcDbEntity
  8
0
  6
BYBLOCK
 62
0
100
AcDbBlockEnd
  0
BLOCK
  5
24F
100
AcDbEntity
  8
0
100
AcDbBlockBegin
  2
*T2
 70
1
 10
0.0
 20
0.0
  3
*T2
  1

  0
LINE
  5
250
100
AcDbEntity
  8
0
100
AcDbLine
 62
2
  6
CONTINUOUS
 10
0.0
 20
0.0
 11
9.055
 21
0.0
  0
LINE
  5
251
100
AcDbEntity
  8
0
100
AcDbLine
 62
2
  6
CONTINUOUS
 10
0.0
 20
0.0
 11
0.0
 21
-2.844
  0
LINE
  5
252
100
AcDbEntity
  8
0
100
AcDbLine
 62
2
  6
CONTINUOUS
 10
0.0
 20
-0.344
 11
9.055
 21
-0.344
  0
LINE
  5
253
100
AcDbEntity
  8
0
100
AcDbLine
 62
2
  6
CONTINUOUS
 10
0.0
 20
-0.594
 11
9.055
 21
-0.594
  0
LINE
  5
254
100
AcDbEntity
  8
0
100
AcDbLine
 62
2
  6
CONTINUOUS
 10
0.0
 20
-0.844
 11
9.055
 21
-0.844
  0
LINE
  5
255
100
AcDbEntity
  8
0
100
AcDbLine
 62
2
  6
CONTINUOUS
 10
0.0
 20
-1.094
 11
9.055
 21
-1.094
  0
LINE
  5
256
100
AcDbEntity
  8
0
100
AcDbLine
 62
2
  6
CONTINUOUS
 10
0.0
 20
-1.344
 11
9.055
 21
-1.344
  0
LINE
  5
257
100
AcDbEntity
  8
0
100
AcDbLine
 62
2
  6
CONTINUOUS
 10
0.0
 20
-1.594
 11
9.055
 21
-1.594
  0
LINE
  5
258
100
AcDbEntity
  8
0
100
AcDbLine
 62
2
  6
CONTINUOUS
 10
0.0
 20
-1.844
 11
9.055
 21
-1.844
  0
LINE
  5
259
100
AcDbEntity
  8
0
100
AcDbLine
 62
2
  6
CONTINUOUS
 10
0.0
 20
-2.094
 11
9.055
 21
-2.094
  0
LINE
  5
25A
100
AcDbEntity
  8
0
100
AcDbLine
 62
2
  6
CONTINUOUS
 10
0.0
 20
-2.344
 11
9.055
 21
-2.344
  0
LINE
  5
25B
100
AcDbEntity
  8
0
100
AcDbLine
 62
2
  6
CONTINUOUS
 10
0.0
 20
-2.594
 11
9.055
 21
-2.594
  0
LINE
  5
25C
100
AcDbEntity
  8
0
100
AcDbLine
 62
2
  6
CONTINUOUS
 10
0.0
 20
-2.844
 11
9.055
 21
-2.844
  0
LINE
  5
25D
100
AcDbEntity
  8
0
100
AcDbLine
 62
2
  6
CONTINUOUS
 10
3.055
 20
0.0
 11
3.055
 21
-2.844
  0
LINE
  5
25E
100
AcDbEntity
  8
0
100
AcDbLine
 62
2
  6
CONTINUOUS
 10
9.055
 20
0.0
 11
9.055
 21
-2.844
  0
MTEXT
  5
25F
100
AcDbEntity
  8
0
100
AcDbMText
 62
2
  6
CONTINUOUS
  7
STANDARD
 71
2
 72
1
 10
1.5275
 20
-0.0995
 30
0.0
 11
1.0
 21
0.0
 31
0.0
 44
0.9
  1
Technical Data
 40
0.145
 41
3.248
  0
MTEXT
  5
260
100
AcDbEntity
  8
0
100
AcDbMText
 62
2
  6
CONTINUOUS
  7
STANDARD
 71
2
 72
1
 10
4.555
 20
-0.0995
 30
0.0
 11
1.0
 21
0.0
 31
0.0
 44
0.9
  1
U.S. Units
 40
0.145
 41
2.32
  0
MTEXT
  5
261
100
AcDbEntity
  8
0
100
AcDbMText
 62
2
  6
CONTINUOUS
  7
STANDARD
 71
2
 72
1
 10
7.555
 20
-0.0995
 30
0.0
 11
1.0
 21
0.0
 31
0.0
 44
0.9
  1
Metric Units
 40
0.145
 41
2.784
  0
MTEXT
  5
262
100
AcDbEntity
  8
0
100
AcDbMText
 62
2
  6
CONTINUOUS
  7
STANDARD
 71
2
 72
1
 10
1.5275
 20
-0.4065
 30
0.0
 11
1.0
 21
0.0
 31
0.0
 44
0.9
  1
Cavity
 40
0.125
 41
1.2
  0
MTEXT
  5
263
100
AcDbEntity
  8
0
100
AcDbMText
 62
2
  6
CONTINUOUS
  7
STANDARD
 71
2
 72
1
 10
6.055
 20
-0.4065
 30
0.0
 11
1.0
 21
0.0
 31
0.0
 44
0.9
  1
T-17A
 40
0.125
 41
1.0
  0
MTEXT
  5
264
100
AcDbEntity
  8
0
100
AcDbMText
 62
2
  6
CONTINUOUS
  7
STANDARD
 71
2
 72
1
 10
1.5275
 20
-0.6565
 30
0.0
 11
1.0
 21
0.0
 31
0.0
 44
0.9
  1
Body Features
 40
0.125
 41
2.6
  0
MTEXT
  5
265
100
AcDbEntity
  8
0
100
AcDbMText
 62
2
  6
CONTINUOUS
  7
STANDARD
 71
2
 72
1
 10
6.055
 20
-0.6565
 30
0.0
 11
1.0
 21
0.0
 31
0.0
 44
0.9
  1
Cross port with shuttle on port 3s
 40
0.125
 41
6.8
  0
MTEXT
  5
266
100
AcDbEntity
  8
0
100
AcDbMText
 62
2
  6
CONTINUOUS
  7
STANDARD
 71
2
 72
1
 10
1.5275
 20
-0.9065
 30
0.0
 11
1.0
 21
0.0
 31
0.0
 44
0.9
  1
Body Type
 40
0.125
 41
1.8
  0
MTEXT
  5
267
100
AcDbEntity
  8
0
100
AcDbMText
 62
2
  6
CONTINUOUS
  7
STANDARD
 71
2
 72
1
 10
6.055
 20
-0.9065
 30
0.0
 11
1.0
 21
0.0
 31
0.0
 44
0.9
  1
Line mount
 40
0.125
 41
2.0
  0
MTEXT
  5
268
100
AcDbEntity
  8
0
100
AcDbMText
 62
2
  6
CONTINUOUS
  7
STANDARD
 71
2
 72
1
 10
1.5275
 20
-1.1565
 30
0.0
 11
1.0
 21
0.0
 31
0.0
 44
0.9
  1
Interface
 40
0.125
 41
1.8
  0
MTEXT
  5
269
100
AcDbEntity
  8
0
100
AcDbMText
 62
2
  6
CONTINUOUS
  7
STANDARD
 71
2
 72
1
 10
6.055
 20
-1.1565
 30
0.0
 11
1.0
 21
0.0
 31
0.0
 44
0.9
  1
None
 40
0.125
 41
0.8
  0
MTEXT
  5
26A
100
AcDbEntity
  8
0
100
AcDbMText
 62
2
  6
CONTINUOUS
  7
STANDARD
 71
2
 72
1
 10
1.5275
 20
-1.4065
 30
0.0
 11
1.0
 21
0.0
 31
0.0
 44
0.9
  1
Open Cavity Quantity
 40
0.125
 41
4.0
  0
MTEXT
  5
26B
100
AcDbEntity
  8
0
100
AcDbMText
 62
2
  6
CONTINUOUS
  7
STANDARD
 71
2
 72
1
 10
6.055
 20
-1.4065
 30
0.0
 11
1.0
 21
0.0
 31
0.0
 44
0.9
  1
2
 40
0.125
 41
0.2
  0
MTEXT
  5
26C
100
AcDbEntity
  8
0
100
AcDbMText
 62
2
  6
CONTINUOUS
  7
STANDARD
 71
2
 72
1
 10
1.5275
 20
-1.6565
 30
0.0
 11
1.0
 21
0.0
 31
0.0
 44
0.9
  1
Weight
 40
0.125
 41
1.2
  0
MTEXT
  5
26D
100
AcDbEntity
  8
0
100
AcDbMText
 62
2
  6
CONTINUOUS
  7
STANDARD
 71
2
 72
1
 10
4.555
 20
-1.6565
 30
0.0
 11
1.0
 21
0.0
 31
0.0
 44
0.9
  1
15.013 lb.
 40
0.125
 41
2.0
  0
MTEXT
  5
26E
100
AcDbEntity
  8
0
100
AcDbMText
 62
2
  6
CONTINUOUS
  7
STANDARD
 71
2
 72
1
 10
7.555
 20
-1.6565
 30
0.0
 11
1.0
 21
0.0
 31
0.0
 44
0.9
  1
6,810 kg.
 40
0.125
 41
1.8
  0
MTEXT
  5
26F
100
AcDbEntity
  8
0
100
AcDbMText
 62
2
  6
CONTINUOUS
  7
STANDARD
 71
2
 72
1
 10
1.5275
 20
-1.9065
 30
0.0
 11
1.0
 21
0.0
 31
0.0
 44
0.9
  1
Mounting Hole Diameter
 40
0.125
 41
4.4
  0
MTEXT
  5
270
100
AcDbEntity
  8
0
100
AcDbMText
 62
2
  6
CONTINUOUS
  7
STANDARD
 71
2
 72
1
 10
4.555
 20
-1.9065
 30
0.0
 11
1.0
 21
0.0
 31
0.0
 44
0.9
  1
.42 in.
 40
0.125
 41
1.4
  0
MTEXT
  5
271
100
AcDbEntity
  8
0
100
AcDbMText
 62
2
  6
CONTINUOUS
  7
STANDARD
 71
2
 72
1
 10
7.555
 20
-1.9065
 30
0.0
 11
1.0
 21
0.0
 31
0.0
 44
0.9
  1
10,7 mm
 40
0.125
 41
1.4
  0
MTEXT
  5
272
100
AcDbEntity
  8
0
100
AcDbMText
 62
2
  6
CONTINUOUS
  7
STANDARD
 71
2
 72
1
 10
1.5275
 20
-2.1565
 30
0.0
 11
1.0
 21
0.0
 31
0.0
 44
0.9
  1
Mounting Hole Depth
 40
0.125
 41
3.8
  0
MTEXT
  5
273
100
AcDbEntity
  8
0
100
AcDbMText
 62
2
  6
CONTINUOUS
  7
STANDARD
 71
2
 72
1
 10
6.055
 20
-2.1565
 30
0.0
 11
1.0
 21
0.0
 31
0.0
 44
0.9
  1
Through
 40
0.125
 41
1.4
  0
MTEXT
  5
274
100
AcDbEntity
  8
0
100
AcDbMText
 62
2
  6
CONTINUOUS
  7
STANDARD
 71
2
 72
1
 10
1.5275
 20
-2.4065
 30
0.0
 11
1.0
 21
0.0
 31
0.0
 44
0.9
  1
Mounting Hole Quantity
 40
0.125
 41
4.4
  0
MTEXT
  5
275
100
AcDbEntity
  8
0
100
AcDbMText
 62
2
  6
CONTINUOUS
  7
STANDARD
 71
2
 72
1
 10
6.055
 20
-2.4065
 30
0.0
 11
1.0
 21
0.0
 31
0.0
 44
0.9
  1
2
 40
0.125
 41
0.2
  0
MTEXT
  5
276
100
AcDbEntity
  8
0
100
AcDbMText
 62
2
  6
CONTINUOUS
  7
STANDARD
 71
2
 72
1
 10
1.5275
 20
-2.6565
 30
0.0
 11
1.0
 21
0.0
 31
0.0
 44
0.9
  1
Includes integral cartridge(s)
 40
0.125
 41
6.0
  0
MTEXT
  5
277
100
AcDbEntity
  8
0
100
AcDbMText
 62
2
  6
CONTINUOUS
  7
STANDARD
 71
2
 72
1
 10
6.055
 20
-2.6565
 30
0.0
 11
1.0
 21
0.0
 31
0.0
 44
0.9
  1
Yes (see Included Components)
 40
0.125
 41
5.8
  0
ENDBLK
  5
278
100
AcDbEntity
  8
0
  6
BYBLOCK
 62
0
100
AcDbBlockEnd
  0
BLOCK
  5
279
100
AcDbEntity
  8
0
100
AcDbBlockBegin
  2
*T3
 70
1
 10
0.0
 20
0.0
  3
*T3
  1

  0
LINE
  5
27A
100
AcDbEntity
  8
0
100
AcDbLine
 62
2
  6
CONTINUOUS
 10
0.0
 20
0.0
 11
4.6
 21
0.0
  0
LINE
  5
27B
100
AcDbEntity
  8
0
100
AcDbLine
 62
2
  6
CONTINUOUS
 10
0.0
 20
0.0
 11
0.0
 21
-1.43775
  0
LINE
  5
27C
100
AcDbEntity
  8
0
100
AcDbLine
 62
2
  6
CONTINUOUS
 10
0.0
 20
-0.34375
 11
4.6
 21
-0.34375
  0
LINE
  5
27D
100
AcDbEntity
  8
0
100
AcDbLine
 62
2
  6
CONTINUOUS
 10
0.0
 20
-0.68775
 11
4.6
 21
-0.68775
  0
LINE
  5
27E
100
AcDbEntity
  8
0
100
AcDbLine
 62
2
  6
CONTINUOUS
 10
0.0
 20
-0.93775
 11
4.6
 21
-0.93775
  0
LINE
  5
27F
100
AcDbEntity
  8
0
100
AcDbLine
 62
2
  6
CONTINUOUS
 10
0.0
 20
-1.18775
 11
4.6
 21
-1.18775
  0
LINE
  5
280
100
AcDbEntity
  8
0
100
AcDbLine
 62
2
  6
CONTINUOUS
 10
0.0
 20
-1.43775
 11
4.6
 21
-1.43775
  0
LINE
  5
281
100
AcDbEntity
  8
0
100
AcDbLine
 62
2
  6
CONTINUOUS
 10
1.3
 20
-0.34375
 11
1.3
 21
-1.43775
  0
LINE
  5
282
100
AcDbEntity
  8
0
100
AcDbLine
 62
2
  6
CONTINUOUS
 10
3.3
 20
-0.34375
 11
3.3
 21
-1.43775
  0
LINE
  5
283
100
AcDbEntity
  8
0
100
AcDbLine
 62
2
  6
CONTINUOUS
 10
4.6
 20
0.0
 11
4.6
 21
-1.43775
  0
MTEXT
  5
284
100
AcDbEntity
  8
0
100
AcDbMText
 62
2
  6
CONTINUOUS
  7
STANDARD
 71
2
 72
1
 10
2.3
 20
-0.099375
 30
0.0
 11
1.0
 21
0.0
 31
0.0
 44
0.9
  1
Port Headings
 40
0.145
 41
3.016
  0
MTEXT
  5
285
100
AcDbEntity
  8
0
100
AcDbMText
 62
2
  6
CONTINUOUS
  7
STANDARD
 71
2
 72
1
 10
0.65
 20
-0.44325
 30
0.0
 11
1.0
 21
0.0
 31
0.0
 44
0.9
  1
Product
 40
0.145
 41
1.624
  0
MTEXT
  5
286
100
AcDbEntity
  8
0
100
AcDbMText
 62
2
  6
CONTINUOUS
  7
STANDARD
 71
2
 72
1
 10
2.3
 20
-0.44325
 30
0.0
 11
1.0
 21
0.0
 31
0.0
 44
0.9
  1
Port
 40
0.145
 41
0.928
  0
MTEXT
  5
287
100
AcDbEntity
  8
0
100
AcDbMText
 62
2
  6
CONTINUOUS
  7
STANDARD
 71
2
 72
1
 10
3.95
 20
-0.44325
 30
0.0
 11
1.0
 21
0.0
 31
0.0
 44
0.9
  1
Size
 40
0.145
 41
0.928
  0
MTEXT
  5
288
100
AcDbEntity
  8
0
100
AcDbMText
 62
2
  6
CONTINUOUS
  7
STANDARD
 71
2
 72
1
 10
0.65
 20
-0.75025
 30
0.0
 11
1.0
 21
0.0
 31
0.0
 44
0.9
  1
XC4
 40
0.125
 41
0.6
  0
MTEXT
  5
289
100
AcDbEntity
  8
0
100
AcDbMText
 62
2
  6
CONTINUOUS
  7
STANDARD
 71
2
 72
1
 10
2.3
 20
-0.75025
 30
0.0
 11
1.0
 21
0.0
 31
0.0
 44
0.9
  1
Ports 1 &  2
 40
0.125
 41
2.4
  0
MTEXT
  5
28A
100
AcDbEntity
  8
0
100
AcDbMText
 62
2
  6
CONTINUOUS
  7
STANDARD
 71
2
 72
1
 10
3.95
 20
-0.75025
 30
0.0
 11
1.0
 21
0.0
 31
0.0
 44
0.9
  1
1" Code 62
 40
0.125
 41
2.0
  0
MTEXT
  5
28B
100
AcDbEntity
  8
0
100
AcDbMText
 62
2
  6
CONTINUOUS
  7
STANDARD
 71
2
 72
1
 10
0.65
 20
-1.00025
 30
0.0
 11
1.0
 21
0.0
 31
0.0
 44
0.9
  1
XC4
 40
0.125
 41
0.6
  0
MTEXT
  5
28C
100
AcDbEntity
  8
0
100
AcDbMText
 62
2
  6
CONTINUOUS
  7
STANDARD
 71
2
 72
1
 10
2.3
 20
-1.00025
 30
0.0
 11
1.0
 21
0.0
 31
0.0
 44
0.9
  1
Port V
 40
0.125
 41
1.2
  0
MTEXT
  5
28D
100
AcDbEntity
  8
0
100
AcDbMText
 62
2
  6
CONTINUOUS
  7
STANDARD
 71
2
 72
1
 10
3.95
 20
-1.00025
 30
0.0
 11
1.0
 21
0.0
 31
0.0
 44
0.9
  1
SAE 6
 40
0.125
 41
1.0
  0
MTEXT
  5
28E
100
AcDbEntity
  8
0
100
AcDbMText
 62
2
  6
CONTINUOUS
  7
STANDARD
 71
2
 72
1
 10
0.65
 20
-1.25025
 30
0.0
 11
1.0
 21
0.0
 31
0.0
 44
0.9
  1
XC4
 40
0.125
 41
0.6
  0
MTEXT
  5
28F
100
AcDbEntity
  8
0
100
AcDbMText
 62
2
  6
CONTINUOUS
  7
STANDARD
 71
2
 72
1
 10
2.3
 20
-1.25025
 30
0.0
 11
1.0
 21
0.0
 31
0.0
 44
0.9
  1
Gage Ports
 40
0.125
 41
2.0
  0
MTEXT
  5
290
100
AcDbEntity
  8
0
100
AcDbMText
 62
2
  6
CONTINUOUS
  7
STANDARD
 71
2
 72
1
 10
3.95
 20
-1.25025
 30
0.0
 11
1.0
 21
0.0
 31
0.0
 44
0.9
  1
1/4" NPTF
 40
0.125
 41
1.8
  0
ENDBLK
  5
291
100
AcDbEntity
  8
0
  6
BYBLOCK
 62
0
100
AcDbBlockEnd
  0
ENDSEC
  0
SECTION
  2
ENTITIES
  0
IMAGE
  5
292
100
AcDbEntity
  8
0
100
AcDbRasterImage
 62
7
  6
CONTINUOUS
 10
19.2297077316
 20
0.3094318264
 30
0.0
 11
0.0066666667
 21
0.0
 31
0.0
 12
0.0
 22
0.0066666667
 32
0.0
 13
369.0
 23
92.0
340
       313
 70
9
280
0
281
50
282
50
283
0
360
       30D
 71
1
 91
2
 14
-0.5
 24
-0.5
 14
368.5
 24
91.5
  0
INSERT
  5
293
100
AcDbEntity
  8
0
100
AcDbBlockReference
 62
2
  6
CONTINUOUS
  2
SUN_FIRST_THIRD_ANGLE_BL0
 10
20.4816717061
 20
1.2289683772
  0
ACAD_TABLE
  5
294
100
AcDbEntity
  8
0
 62
2
  6
CONTINUOUS
100
AcDbBlockReference
  2
*T1
 10
12.42375
 20
0.30125
 30
0.0
100
AcDbTable
342
       315
343
20F
 11
1.0
 21
0.0
 31
0.0
 90
6
 91
4
 92
6
 93
20
 94
0
 95
0
 96
0
 70
1
 41
0.0
141
0.525
141
0.1
141
0.525
141
0.1
142
4.1
142
1.1
142
0.7
142
0.5
142
0.4
142
2.475
171
1
172
0
173
0
174
0
175
1
176
1
 91
33
178
0
145
0.0
301
CELL_VALUE
 90
4
  1
T-17A Line mount\PCross port with shuttle on port 3s
304
ACVALUE_END
170
2
140
0.125
171
1
172
0
173
0
174
0
175
1
176
1
 91
33
178
0
145
0.0
301
CELL_VALUE
 90
4
  1
Aug-30-21
304
ACVALUE_END
170
5
140
0.125
171
1
172
0
173
0
174
0
175
1
176
1
 91
33
178
0
145
0.0
301
CELL_VALUE
 90
4
  1
0.900
304
ACVALUE_END
170
5
140
0.125
171
1
172
0
173
0
174
0
175
1
176
1
 91
33
178
0
145
0.0
301
CELL_VALUE
 90
4
  1
C
304
ACVALUE_END
170
5
140
0.125
171
1
172
0
173
0
174
0
175
1
176
1
 91
33
178
0
145
0.0
301
CELL_VALUE
 90
4
  1
2
304
ACVALUE_END
170
5
140
0.125
171
1
172
0
173
0
174
0
175
1
176
1
 91
33
178
0
145
0.0
301
CELL_VALUE
 90
4
  1
 
304
ACVALUE_END
170
1
140
0.125
171
1
172
0
173
0
174
0
175
1
176
1
 91
33
178
0
145
0.0
301
CELL_VALUE
 90
4
  1
DESCRIPTION
304
ACVALUE_END
170
1
140
0.06
171
1
172
0
173
0
174
0
175
1
176
1
 91
33
178
0
145
0.0
301
CELL_VALUE
 90
4
  1
DATE
304
ACVALUE_END
170
1
140
0.06
171
1
172
0
173
0
174
0
175
1
176
1
 91
33
178
0
145
0.0
301
CELL_VALUE
 90
4
  1
SCALE
304
ACVALUE_END
170
1
140
0.06
171
1
172
0
173
0
174
0
175
1
176
1
 91
33
178
0
145
0.0
301
CELL_VALUE
 90
4
  1
DWG SIZE
304
ACVALUE_END
170
1
140
0.06
171
1
172
0
173
0
174
0
175
1
176
1
 91
33
178
0
145
0.0
301
CELL_VALUE
 90
4
  1
SHEET
304
ACVALUE_END
170
1
140
0.06
171
1
172
0
173
0
174
0
175
1
176
1
 91
33
178
0
145
0.0
301
CELL_VALUE
 90
4
  1
 
304
ACVALUE_END
170
1
140
0.125
171
1
172
0
173
0
174
0
175
1
176
1
 91
33
178
0
145
0.0
301
CELL_VALUE
 90
4
  1
XC4
304
ACVALUE_END
170
5
140
0.125
171
1
172
0
173
0
174
0
175
4
176
1
 91
33
178
0
145
0.0
301
CELL_VALUE
 90
4
  1
ALL DIMENSIONS IN INCH\PVIEWS ARE THIRD ANGLE
304
ACVALUE_END
170
5
140
0.12
171
1
172
0
173
1
174
0
175
1
176
1
 91
1
178
0
145
0.0
170
1
171
1
172
0
173
1
174
0
175
1
176
1
 91
1
178
0
145
0.0
170
1
171
1
172
0
173
1
174
0
175
1
176
1
 91
1
178
0
145
0.0
170
5
171
1
172
0
173
0
174
0
175
1
176
1
 91
33
178
0
145
0.0
301
CELL_VALUE
 90
4
  1
 
304
ACVALUE_END
170
1
140
0.125
171
1
172
0
173
0
174
0
175
1
176
1
 91
33
178
0
145
0.0
301
CELL_VALUE
 90
4
  1
MODEL
304
ACVALUE_END
170
1
140
0.06
171
1
172
0
173
0
174
0
175
1
176
1
 91
33
178
0
145
0.0
301
CELL_VALUE
 90
4
  1
 
304
ACVALUE_END
170
1
140
0.125
171
1
172
0
173
0
174
0
175
1
176
1
 91
33
178
0
145
0.0
301
CELL_VALUE
 90
4
  1
 
304
ACVALUE_END
170
1
140
0.125
171
1
172
0
173
0
174
0
175
1
176
1
 91
33
178
0
145
0.0
301
CELL_VALUE
 90
4
  1
 
304
ACVALUE_END
170
1
140
0.125
171
1
172
0
173
0
174
0
175
1
176
1
 91
33
178
0
145
0.0
301
CELL_VALUE
 90
4
  1
 
304
ACVALUE_END
170
1
140
0.125
171
1
172
0
173
0
174
0
175
1
176
1
 91
33
178
0
145
0.0
301
CELL_VALUE
 90
4
  1
 
304
ACVALUE_END
170
1
140
0.125
  0
ACAD_TABLE
  5
295
100
AcDbEntity
  8
0
 62
2
  6
CONTINUOUS
100
AcDbBlockReference
  2
*T2
 10
12.4237499994
 20
16.47875
 30
0.0
100
AcDbTable
342
       314
343
210
 11
1.0
 21
0.0
 31
0.0
 90
22
 91
11
 92
3
 93
16
 94
0
 95
0
 96
0
 41
0.028
141
0.344
141
0.25
141
0.25
141
0.25
141
0.25
141
0.25
141
0.25
141
0.25
141
0.25
141
0.25
141
0.25
142
3.055
142
3.0
142
3.0
171
1
172
0
173
0
174
0
175
1
176
1
 91
33
178
0
145
0.0
301
CELL_VALUE
 90
4
  1
Technical Data
304
ACVALUE_END
170
5
140
0.145
171
1
172
0
173
0
174
0
175
1
176
1
 91
33
178
0
145
0.0
301
CELL_VALUE
 90
4
  1
U.S. Units
304
ACVALUE_END
170
5
140
0.145
171
1
172
0
173
0
174
0
175
1
176
1
 91
33
178
0
145
0.0
301
CELL_VALUE
 90
4
  1
Metric Units
304
ACVALUE_END
170
5
140
0.145
171
1
172
0
173
0
174
0
175
1
176
1
 91
33
178
0
145
0.0
301
CELL_VALUE
 90
4
  1
Cavity
304
ACVALUE_END
170
5
140
0.125
171
1
172
0
173
0
174
0
175
2
176
1
 91
33
178
0
145
0.0
301
CELL_VALUE
 90
4
  1
T-17A
304
ACVALUE_END
170
5
140
0.125
171
1
172
0
173
1
174
0
175
1
176
1
 91
1
178
0
145
0.0
170
1
171
1
172
0
173
0
174
0
175
1
176
1
 91
33
178
0
145
0.0
301
CELL_VALUE
 90
4
  1
Body Features
304
ACVALUE_END
170
5
140
0.125
171
1
172
0
173
0
174
0
175
2
176
1
 91
33
178
0
145
0.0
301
CELL_VALUE
 90
4
  1
Cross port with shuttle on port 3s
304
ACVALUE_END
170
5
140
0.125
171
1
172
0
173
1
174
0
175
1
176
1
 91
1
178
0
145
0.0
170
1
171
1
172
0
173
0
174
0
175
1
176
1
 91
33
178
0
145
0.0
301
CELL_VALUE
 90
4
  1
Body Type
304
ACVALUE_END
170
5
140
0.125
171
1
172
0
173
0
174
0
175
2
176
1
 91
33
178
0
145
0.0
301
CELL_VALUE
 90
4
  1
Line mount
304
ACVALUE_END
170
5
140
0.125
171
1
172
0
173
1
174
0
175
1
176
1
 91
1
178
0
145
0.0
170
1
171
1
172
0
173
0
174
0
175
1
176
1
 91
33
178
0
145
0.0
301
CELL_VALUE
 90
4
  1
Interface
304
ACVALUE_END
170
5
140
0.125
171
1
172
0
173
0
174
0
175
2
176
1
 91
33
178
0
145
0.0
301
CELL_VALUE
 90
4
  1
None
304
ACVALUE_END
170
5
140
0.125
171
1
172
0
173
1
174
0
175
1
176
1
 91
1
178
0
145
0.0
170
1
171
1
172
0
173
0
174
0
175
1
176
1
 91
33
178
0
145
0.0
301
CELL_VALUE
 90
4
  1
Open Cavity Quantity
304
ACVALUE_END
170
5
140
0.125
171
1
172
0
173
0
174
0
175
2
176
1
 91
33
178
0
145
0.0
301
CELL_VALUE
 90
4
  1
2
304
ACVALUE_END
170
5
140
0.125
171
1
172
0
173
1
174
0
175
1
176
1
 91
1
178
0
145
0.0
170
1
171
1
172
0
173
0
174
0
175
1
176
1
 91
33
178
0
145
0.0
301
CELL_VALUE
 90
4
  1
Weight
304
ACVALUE_END
170
5
140
0.125
171
1
172
0
173
0
174
0
175
1
176
1
 91
33
178
0
145
0.0
301
CELL_VALUE
 90
4
  1
15.013 lb.
304
ACVALUE_END
170
5
140
0.125
171
1
172
0
173
0
174
0
175
1
176
1
 91
33
178
0
145
0.0
301
CELL_VALUE
 90
4
  1
6,810 kg.
304
ACVALUE_END
170
5
140
0.125
171
1
172
0
173
0
174
0
175
1
176
1
 91
33
178
0
145
0.0
301
CELL_VALUE
 90
4
  1
Mounting Hole Diameter
304
ACVALUE_END
170
5
140
0.125
171
1
172
0
173
0
174
0
175
1
176
1
 91
33
178
0
145
0.0
301
CELL_VALUE
 90
4
  1
.42 in.
304
ACVALUE_END
170
5
140
0.125
171
1
172
0
173
0
174
0
175
1
176
1
 91
33
178
0
145
0.0
301
CELL_VALUE
 90
4
  1
10,7 mm
304
ACVALUE_END
170
5
140
0.125
171
1
172
0
173
0
174
0
175
1
176
1
 91
33
178
0
145
0.0
301
CELL_VALUE
 90
4
  1
Mounting Hole Depth
304
ACVALUE_END
170
5
140
0.125
171
1
172
0
173
0
174
0
175
2
176
1
 91
33
178
0
145
0.0
301
CELL_VALUE
 90
4
  1
Through
304
ACVALUE_END
170
5
140
0.125
171
1
172
0
173
1
174
0
175
1
176
1
 91
1
178
0
145
0.0
170
1
171
1
172
0
173
0
174
0
175
1
176
1
 91
33
178
0
145
0.0
301
CELL_VALUE
 90
4
  1
Mounting Hole Quantity
304
ACVALUE_END
170
5
140
0.125
171
1
172
0
173
0
174
0
175
2
176
1
 91
33
178
0
145
0.0
301
CELL_VALUE
 90
4
  1
2
304
ACVALUE_END
170
5
140
0.125
171
1
172
0
173
1
174
0
175
1
176
1
 91
1
178
0
145
0.0
170
1
171
1
172
0
173
0
174
0
175
1
176
1
 91
33
178
0
145
0.0
301
CELL_VALUE
 90
4
  1
Includes integral cartridge(s)
304
ACVALUE_END
170
5
140
0.125
171
1
172
0
173
0
174
0
175
2
176
1
 91
33
178
0
145
0.0
301
CELL_VALUE
 90
4
  1
Yes (see Included Components)
304
ACVALUE_END
170
5
140
0.125
171
1
172
0
173
1
174
0
175
1
176
1
 91
1
178
0
145
0.0
170
1
  0
ACAD_TABLE
  5
296
100
AcDbEntity
  8
0
 62
2
  6
CONTINUOUS
100
AcDbBlockReference
  2
*T3
 10
0.52125
 20
1.959
 30
0.0
100
AcDbTable
342
       314
343
211
 11
1.0
 21
0.0
 31
0.0
 90
22
 91
5
 92
3
 93
16
 94
0
 95
0
 96
0
 41
0.05
141
0.34375
141
0.344
141
0.25
141
0.25
141
0.25
142
1.3
142
2.0
142
1.3
171
1
172
0
173
0
174
0
175
3
176
1
 91
33
178
0
145
0.0
301
CELL_VALUE
 90
4
  1
Port Headings
304
ACVALUE_END
170
5
140
0.145
171
1
172
0
173
1
174
0
175
1
176
1
 91
1
178
0
145
0.0
170
1
171
1
172
0
173
1
174
0
175
1
176
1
 91
1
178
0
145
0.0
170
1
171
1
172
0
173
0
174
0
175
1
176
1
 91
33
178
0
145
0.0
301
CELL_VALUE
 90
4
  1
Product
304
ACVALUE_END
170
5
140
0.145
171
1
172
0
173
0
174
0
175
1
176
1
 91
33
178
0
145
0.0
301
CELL_VALUE
 90
4
  1
Port
304
ACVALUE_END
170
5
140
0.145
171
1
172
0
173
0
174
0
175
1
176
1
 91
33
178
0
145
0.0
301
CELL_VALUE
 90
4
  1
Size
304
ACVALUE_END
170
5
140
0.145
171
1
172
0
173
0
174
0
175
1
176
1
 91
33
178
0
145
0.0
301
CELL_VALUE
 90
4
  1
XC4
304
ACVALUE_END
170
5
140
0.125
171
1
172
0
173
0
174
0
175
1
176
1
 91
33
178
0
145
0.0
301
CELL_VALUE
 90
4
  1
Ports 1 &  2
304
ACVALUE_END
170
5
140
0.125
171
1
172
0
173
0
174
0
175
1
176
1
 91
33
178
0
145
0.0
301
CELL_VALUE
 90
4
  1
1" Code 62
304
ACVALUE_END
170
5
140
0.125
171
1
172
0
173
0
174
0
175
1
176
1
 91
33
178
0
145
0.0
301
CELL_VALUE
 90
4
  1
XC4
304
ACVALUE_END
170
5
140
0.125
171
1
172
0
173
0
174
0
175
1
176
1
 91
33
178
0
145
0.0
301
CELL_VALUE
 90
4
  1
Port V
304
ACVALUE_END
170
5
140
0.125
171
1
172
0
173
0
174
0
175
1
176
1
 91
33
178
0
145
0.0
301
CELL_VALUE
 90
4
  1
SAE 6
304
ACVALUE_END
170
5
140
0.125
171
1
172
0
173
0
174
0
175
1
176
1
 91
33
178
0
145
0.0
301
CELL_VALUE
 90
4
  1
XC4
304
ACVALUE_END
170
5
140
0.125
171
1
172
0
173
0
174
0
175
1
176
1
 91
33
178
0
145
0.0
301
CELL_VALUE
 90
4
  1
Gage Ports
304
ACVALUE_END
170
5
140
0.125
171
1
172
0
173
0
174
0
175
1
176
1
 91
33
178
0
145
0.0
301
CELL_VALUE
 90
4
  1
1/4" NPTF
304
ACVALUE_END
170
5
140
0.125
  0
MTEXT
  5
297
100
AcDbEntity
  8
0
100
AcDbMText
 62
2
  6
CONTINUOUS
  7
STANDARD
 71
1
 72
1
 10
0.52125
 20
5.75995
 30
0.0
 11
1.0
 21
0.0
 31
0.0
 44
0.6
  3
Notes\P \P1. Important: Carefully consider\P   the maximum system pressure. The\P   pressure rating of the manifold is\P   dependent on the manifold material,\P   with the port type/size a secondary\P   consideration. Manifolds\P   constructed of alu
  1
minum are not\P   rated for pressures higher than\P   3000 psi (210 bar), regardless of\P   the port type/size specified.
 40
0.1
 41
3.04
  0
LINE
  5
298
100
AcDbEntity
  8
0
100
AcDbLine
 62
7
  6
CONTINUOUS
 10
0.30125
 20
0.30125
 11
0.30125
 21
16.69875
  0
LINE
  5
299
100
AcDbEntity
  8
0
100
AcDbLine
 62
7
  6
CONTINUOUS
 10
0.30125
 20
0.30125
 11
21.69875
 21
0.30125
  0
LINE
  5
29A
100
AcDbEntity
  8
0
100
AcDbLine
 62
7
  6
CONTINUOUS
 10
0.30125
 20
16.69875
 11
21.69875
 21
16.69875
  0
LINE
  5
29B
100
AcDbEntity
  8
0
100
AcDbLine
 62
7
  6
CONTINUOUS
 10
21.69875
 20
0.30125
 11
21.69875
 21
16.69875
  0
LINE
  5
29C
100
AcDbEntity
  8
0
100
AcDbLine
 62
7
  6
CONTINUOUS
 10
8.3524102627
 20
5.0470993983
 11
12.2644100909
 21
4.7758012888
  0
LINE
  5
29D
100
AcDbEntity
  8
0
100
AcDbLine
 62
7
  6
CONTINUOUS
 10
9.7355899091
 20
12.2241987112
 11
8.3524102627
 21
10.8881496892
  0
LINE
  5
29E
100
AcDbEntity
  8
0
100
AcDbLine
 62
7
  6
CONTINUOUS
 10
8.3524102627
 20
5.0470993983
 11
8.3524102627
 21
10.8881496892
  0
LINE
  5
29F
100
AcDbEntity
  8
0
100
AcDbLine
 62
7
  6
CONTINUOUS
 10
10.7529688145
 20
11.2944112804
 11
10.7511431108
 21
11.2926808166
  0
LINE
  5
2A0
100
AcDbEntity
  8
0
100
AcDbLine
 62
7
  6
CONTINUOUS
 10
12.2644100909
 20
10.6168515796
 11
13.6475897373
 21
11.9529006017
  0
LINE
  5
2A1
100
AcDbEntity
  8
0
100
AcDbLine
 62
7
  6
CONTINUOUS
 10
12.2644100909
 20
4.7758012888
 11
12.2644100909
 21
10.6168515796
  0
LINE
  5
2A2
100
AcDbEntity
  8
0
100
AcDbLine
 62
7
  6
CONTINUOUS
 10
8.3524102627
 20
10.8881496892
 11
12.2644100909
 21
10.6168515796
  0
LINE
  5
2A3
100
AcDbEntity
  8
0
100
AcDbLine
 62
7
  6
CONTINUOUS
 10
13.6475897373
 20
6.1118503108
 11
13.6475897373
 21
11.9529006017
  0
LINE
  5
2A4
100
AcDbEntity
  8
0
100
AcDbLine
 62
7
  6
CONTINUOUS
 10
12.2644100909
 20
4.7758012888
 11
13.6475897373
 21
6.1118503108
  0
LINE
  5
2A5
100
AcDbEntity
  8
0
100
AcDbLine
 62
7
  6
CONTINUOUS
 10
13.6475897373
 20
11.9529006017
 11
9.7355899091
 21
12.2241987112
  0
ARC
  5
2A6
100
AcDbEntity
  8
0
100
AcDbCircle
 62
7
  6
CONTINUOUS
 10
10.5308347474
 20
9.3577276992
 40
0.1215160807
100
AcDbArc
 50
0.033721276
 51
3.1715455768
  0
ARC
  5
2A7
100
AcDbEntity
  8
0
100
AcDbCircle
 62
7
  6
CONTINUOUS
 10
10.4500434909
 20
6.9137749232
 40
0.0656134595
100
AcDbArc
 50
301.9674504483
 51
314.0820809296
  0
SPLINE
  5
2A8
100
AcDbEntity
  8
0
100
AcDbSpline
 62
7
  6
CONTINUOUS
 70
0
 71
3
 72
32
 73
28
 74
0
 42
0.0000001
 43
0.0000001
 44
0.0000000001
 40
0.0
 40
0.0
 40
0.0
 40
0.0
 40
0.096416521
 40
0.1901941716
 40
0.2807664078
 40
0.3675931097
 40
0.4501670142
 40
0.528019555
 40
0.6007282271
 40
0.6350382732
 40
0.6679298029
 40
0.6993670694
 40
0.7293201473
 40
0.7577642678
 40
0.7846820349
 40
0.8100631674
 40
0.8339072505
 40
0.8562242531
 40
0.877038225
 40
0.8963891976
 40
0.9143384605
 40
0.9309725754
 40
0.9464105432
 40
0.9608093704
 40
0.9743701849
 40
0.9873388288
 40
1.0
 40
1.0
 40
1.0
 40
1.0
 10
13.4891925334
 20
11.4330420516
 30
0.0
 10
13.4891925334
 20
11.4281308293
 30
0.0
 10
13.4892965697
 20
11.4184424224
 30
0.0
 10
13.4897759168
 20
11.4041476469
 30
0.0
 10
13.4905733556
 20
11.3903561384
 30
0.0
 10
13.4916834098
 20
11.3771587269
 30
0.0
 10
13.4930984339
 20
11.3646420406
 30
0.0
 10
13.4948088269
 20
11.352888357
 30
0.0
 10
13.4965014543
 20
11.343622093
 30
0.0
 10
13.4980065489
 20
11.3366556219
 30
0.0
 10
13.4991797809
 20
11.3317695976
 30
0.0
 10
13.5004173736
 20
11.3271287499
 30
0.0
 10
13.5017172219
 20
11.3227406448
 30
0.0
 10
13.5030772604
 20
11.3186124374
 30
0.0
 10
13.5044951587
 20
11.3147508004
 30
0.0
 10
13.5059687061
 20
11.3111619691
 30
0.0
 10
13.5074954354
 20
11.3078516447
 30
0.0
 10
13.5090730597
 20
11.3048250832
 30
0.0
 10
13.510699091
 20
11.3020869567
 30
0.0
 10
13.5123713269
 20
11.2996415276
 30
0.0
 10
13.5140874884
 20
11.2974924891
 30
0.0
 10
13.5158457254
 20
11.2956433244
 30
0.0
 10
13.5176442428
 20
11.2940972145
 30
0.0
 10
13.5194814931
 20
11.292857724
 30
0.0
 10
13.5213556748
 20
11.2919286567
 30
0.0
 10
13.5232631284
 20
11.2913145558
 30
0.0
 10
13.5245604338
 20
11.2911166907
 30
0.0
 10
13.525203817
 20
11.2910720621
 30
0.0
  0
SPLINE
  5
2A9
100
AcDbEntity
  8
0
100
AcDbSpline
 62
7
  6
CONTINUOUS
 70
0
 71
3
 72
32
 73
28
 74
0
 42
0.0000001
 43
0.0000001
 44
0.0000000001
 40
0.0
 40
0.0
 40
0.0
 40
0.0
 40
0.096416521
 40
0.1901941716
 40
0.2807664078
 40
0.3675931097
 40
0.4501670142
 40
0.528019555
 40
0.6007282271
 40
0.6350382732
 40
0.6679298029
 40
0.6993670694
 40
0.7293201473
 40
0.7577642678
 40
0.7846820349
 40
0.8100631674
 40
0.8339072505
 40
0.8562242531
 40
0.877038225
 40
0.8963891976
 40
0.9143384605
 40
0.9309725754
 40
0.9464105432
 40
0.9608093704
 40
0.9743701849
 40
0.9873388288
 40
1.0
 40
1.0
 40
1.0
 40
1.0
 10
12.3245078263
 20
5.2007098896
 30
0.0
 10
12.3245078263
 20
5.1957986673
 30
0.0
 10
12.3246118626
 20
5.1861102604
 30
0.0
 10
12.3250912097
 20
5.1718154849
 30
0.0
 10
12.3258886486
 20
5.1580239764
 30
0.0
 10
12.3269987028
 20
5.1448265649
 30
0.0
 10
12.3284137268
 20
5.1323098786
 30
0.0
 10
12.3301241199
 20
5.120556195
 30
0.0
 10
12.3318167473
 20
5.111289931
 30
0.0
 10
12.3333218418
 20
5.1043234599
 30
0.0
 10
12.3344950738
 20
5.0994374356
 30
0.0
 10
12.3357326666
 20
5.0947965879
 30
0.0
 10
12.3370325149
 20
5.0904084828
 30
0.0
 10
12.3383925534
 20
5.0862802754
 30
0.0
 10
12.3398104516
 20
5.0824186384
 30
0.0
 10
12.341283999
 20
5.0788298071
 30
0.0
 10
12.3428107284
 20
5.0755194827
 30
0.0
 10
12.3443883526
 20
5.0724929212
 30
0.0
 10
12.3460143839
 20
5.0697547947
 30
0.0
 10
12.3476866198
 20
5.0673093656
 30
0.0
 10
12.3494027813
 20
5.0651603271
 30
0.0
 10
12.3511610183
 20
5.0633111624
 30
0.0
 10
12.3529595358
 20
5.0617650525
 30
0.0
 10
12.354796786
 20
5.060525562
 30
0.0
 10
12.3566709677
 20
5.0595964947
 30
0.0
 10
12.3585784214
 20
5.0589823938
 30
0.0
 10
12.3598757268
 20
5.0587845287
 30
0.0
 10
12.36051911
 20
5.0587399001
 30
0.0
  0
SPLINE
  5
2AA
100
AcDbEntity
  8
0
100
AcDbSpline
 62
7
  6
CONTINUOUS
 70
0
 71
3
 72
21
 73
17
 74
0
 42
0.0000001
 43
0.0000001
 44
0.0000000001
 40
0.0
 40
0.0
 40
0.0
 40
0.0
 40
0.1273174026
 40
0.2538000887
 40
0.3167619201
 40
0.3795355026
 40
0.4421315046
 40
0.504562145
 40
0.5668413477
 40
0.6289845247
 40
0.6910084504
 40
0.7529310962
 40
0.8147714484
 40
0.8765493334
 40
0.938285219
 40
1.0
 40
1.0
 40
1.0
 40
1.0
 10
10.7430768244
 20
9.0923564716
 30
0.0
 10
10.7430768244
 20
9.0784973961
 30
0.0
 10
10.7417538662
 20
9.0508522713
 30
0.0
 10
10.7367575816
 20
9.0166769336
 30
0.0
 10
10.7307858382
 20
8.9898693495
 30
0.0
 10
10.7253399059
 20
8.9700961067
 30
0.0
 10
10.7189331989
 20
8.9506741713
 30
0.0
 10
10.7115803604
 20
8.9316478197
 30
0.0
 10
10.7032982881
 20
8.9130610897
 30
0.0
 10
10.6941060797
 20
8.8949567981
 30
0.0
 10
10.6840249155
 20
8.8773767117
 30
0.0
 10
10.6730779917
 20
8.8603613826
 30
0.0
 10
10.661290537
 20
8.8439501282
 30
0.0
 10
10.6486896259
 20
8.8281806563
 30
0.0
 10
10.6353048262
 20
8.8130898238
 30
0.0
 10
10.6258778052
 20
8.8035031614
 30
0.0
 10
10.6210458989
 20
8.7988359023
 30
0.0
  0
SPLINE
  5
2AB
100
AcDbEntity
  8
0
100
AcDbSpline
 62
7
  6
CONTINUOUS
 70
0
 71
3
 72
21
 73
17
 74
0
 42
0.0000001
 43
0.0000001
 44
0.0000000001
 40
0.0
 40
0.0
 40
0.0
 40
0.0
 40
0.1273174026
 40
0.2538000887
 40
0.3167619201
 40
0.3795355026
 40
0.4421315046
 40
0.504562145
 40
0.5668413477
 40
0.6289845247
 40
0.6910084504
 40
0.7529310962
 40
0.8147714484
 40
0.8765493334
 40
0.938285219
 40
1.0
 40
1.0
 40
1.0
 40
1.0
 10
10.7430768244
 20
6.5113060376
 30
0.0
 10
10.7430768244
 20
6.4974469622
 30
0.0
 10
10.7417538662
 20
6.4698018373
 30
0.0
 10
10.7367575816
 20
6.4356264996
 30
0.0
 10
10.7307858382
 20
6.4088189155
 30
0.0
 10
10.7253399059
 20
6.3890456727
 30
0.0
 10
10.7189331989
 20
6.3696237373
 30
0.0
 10
10.7115803604
 20
6.3505973857
 30
0.0
 10
10.7032982881
 20
6.3320106558
 30
0.0
 10
10.6941060797
 20
6.3139063641
 30
0.0
 10
10.6840249155
 20
6.2963262777
 30
0.0
 10
10.6730779917
 20
6.2793109486
 30
0.0
 10
10.661290537
 20
6.2628996942
 30
0.0
 10
10.6486896259
 20
6.2471302224
 30
0.0
 10
10.6353048262
 20
6.2320393898
 30
0.0
 10
10.6258778052
 20
6.2224527275
 30
0.0
 10
10.6210458989
 20
6.2177854683
 30
0.0
  0
SPLINE
  5
2AC
100
AcDbEntity
  8
0
100
AcDbSpline
 62
7
  6
CONTINUOUS
 70
0
 71
3
 72
37
 73
33
 74
0
 42
0.0000001
 43
0.0000001
 44
0.0000000001
 40
0.0
 40
0.0
 40
0.0
 40
0.0
 40
0.0431805181
 40
0.0859903614
 40
0.1284039469
 40
0.1703890124
 40
0.2119093391
 40
0.2529233399
 40
0.2933842648
 40
0.333240433
 40
0.3724360651
 40
0.4109123485
 40
0.4486088958
 40
0.4854654596
 40
0.52142367
 40
0.5564285223
 40
0.6233474591
 40
0.6859331254
 40
0.7155430032
 40
0.7439948142
 40
0.7712781238
 40
0.7973894269
 40
0.8223325498
 40
0.8461190278
 40
0.8687690708
 40
0.890313196
 40
0.9107945741
 40
0.9302713592
 40
0.9488195712
 40
0.9665369104
 40
0.9835474119
 40
1.0
 40
1.0
 40
1.0
 40
1.0
 10
10.3081119346
 20
9.5569266504
 30
0.0
 10
10.3084139376
 20
9.549858919
 30
0.0
 10
10.3094448933
 20
9.5357984899
 30
0.0
 10
10.3122830925
 20
9.5149415088
 30
0.0
 10
10.3163865051
 20
9.4944948349
 30
0.0
 10
10.3217253066
 20
9.4745540979
 30
0.0
 10
10.3282591327
 20
9.4552140302
 30
0.0
 10
10.335936803
 20
9.4365685797
 30
0.0
 10
10.3446956768
 20
9.4187090727
 30
0.0
 10
10.3544615089
 20
9.4017224871
 30
0.0
 10
10.3651485914
 20
9.3856893312
 30
0.0
 10
10.3766604374
 20
9.3706814628
 30
0.0
 10
10.3888911763
 20
9.3567598717
 30
0.0
 10
10.4017270435
 20
9.343973051
 30
0.0
 10
10.4150501965
 20
9.3323547528
 30
0.0
 10
10.4330282517
 20
9.3186560457
 30
0.0
 10
10.4560155317
 20
9.3044314311
 30
0.0
 10
10.4798395344
 20
9.293662154
 30
0.0
 10
10.4985720428
 20
9.287319716
 30
0.0
 10
10.5120857973
 20
9.2836930865
 30
0.0
 10
10.525242691
 20
9.2810586556
 30
0.0
 10
10.5379735038
 20
9.2793634003
 30
0.0
 10
10.5502170631
 20
9.2785543653
 30
0.0
 10
10.5619203802
 20
9.2785798469
 30
0.0
 10
10.5730376465
 20
9.2793906122
 30
0.0
 10
10.5835295691
 20
9.280940783
 30
0.0
 10
10.5933625334
 20
9.2831888386
 30
0.0
 10
10.6025077777
 20
9.2860981431
 30
0.0
 10
10.6109404686
 20
9.2896369954
 30
0.0
 10
10.6186396215
 20
9.2937796011
 30
0.0
 10
10.6255848206
 20
9.2985044634
 30
0.0
 10
10.6297581284
 20
9.3020813545
 30
0.0
 10
10.6316968041
 20
9.3039539715
 30
0.0
  0
SPLINE
  5
2AD
100
AcDbEntity
  8
0
100
AcDbSpline
 62
7
  6
CONTINUOUS
 70
0
 71
3
 72
15
 73
11
 74
0
 42
0.0000001
 43
0.0000001
 44
0.0000000001
 40
0.0
 40
0.0
 40
0.0
 40
0.0
 40
0.119837033
 40
0.2383778795
 40
0.3569534335
 40
0.4769890151
 40
0.5999329821
 40
0.7272019133
 40
0.8601430628
 40
1.0
 40
1.0
 40
1.0
 40
1.0
 10
10.6316968041
 20
9.3039539715
 30
0.0
 10
10.6334013471
 20
9.3056004338
 30
0.0
 10
10.6366234573
 20
9.3090561449
 30
0.0
 10
10.6408528945
 20
9.3147250358
 30
0.0
 10
10.6444303496
 20
9.3208319657
 30
0.0
 10
10.6473499321
 20
9.3273741436
 30
0.0
 10
10.64960978
 20
9.3343524571
 30
0.0
 10
10.65121093
 20
9.3417707369
 30
0.0
 10
10.6521574641
 20
9.3496355633
 30
0.0
 10
10.6523515239
 20
9.3550334329
 30
0.0
 10
10.652350807
 20
9.3577992172
 30
0.0
  0
SPLINE
  5
2AE
100
AcDbEntity
  8
0
100
AcDbSpline
 62
7
  6
CONTINUOUS
 70
0
 71
3
 72
11
 73
7
 74
0
 42
0.0000001
 43
0.0000001
 44
0.0000000001
 40
0.0
 40
0.0
 40
0.0
 40
0.0
 40
0.2512020138
 40
0.5016325225
 40
0.7512568909
 40
1.0
 40
1.0
 40
1.0
 40
1.0
 10
10.324609279
 20
6.9745852039
 30
0.0
 10
10.3252043087
 20
6.9660489446
 30
0.0
 10
10.3269606546
 20
6.9490367007
 30
0.0
 10
10.3312930561
 20
6.9237962305
 30
0.0
 10
10.3373008586
 20
6.8989872955
 30
0.0
 10
10.3424171004
 20
6.8827836514
 30
0.0
 10
10.3452460005
 20
6.8747966211
 30
0.0
  0
SPLINE
  5
2AF
100
AcDbEntity
  8
0
100
AcDbSpline
 62
7
  6
CONTINUOUS
 70
0
 71
3
 72
24
 73
20
 74
0
 42
0.0000001
 43
0.0000001
 44
0.0000000001
 40
0.0
 40
0.0
 40
0.0
 40
0.0
 40
0.1312761311
 40
0.1972933667
 40
0.2633608504
 40
0.3293089505
 40
0.3949520984
 40
0.4600916845
 40
0.5245216772
 40
0.5880380178
 40
0.6504531638
 40
0.7116171053
 40
0.7714455907
 40
0.8299546795
 40
0.887297656
 40
0.9156368008
 40
0.9438199218
 40
0.9719149637
 40
1.0
 40
1.0
 40
1.0
 40
1.0
 10
10.3452460005
 20
6.8747966211
 30
0.0
 10
10.3509249157
 20
6.8718374863
 30
0.0
 10
10.3595959407
 20
6.8676431823
 30
0.0
 10
10.3714208723
 20
6.8626178178
 30
0.0
 10
10.3804387959
 20
6.8591486161
 30
0.0
 10
10.3895620955
 20
6.8560221873
 30
0.0
 10
10.3987608014
 20
6.8532778976
 30
0.0
 10
10.4080001304
 20
6.8509591702
 30
0.0
 10
10.4172404458
 20
6.8491134235
 30
0.0
 10
10.4264369357
 20
6.8477919265
 30
0.0
 10
10.4355396641
 20
6.847049406
 30
0.0
 10
10.4444937794
 20
6.8469433031
 30
0.0
 10
10.453240499
 20
6.8475328458
 30
0.0
 10
10.4617168559
 20
6.8488768625
 30
0.0
 10
10.4685306498
 20
6.8506810849
 30
0.0
 10
10.4737626569
 20
6.8525535933
 30
0.0
 10
10.4775629883
 20
6.8541710091
 30
0.0
 10
10.4812466975
 20
6.8560110145
 30
0.0
 10
10.4836190636
 20
6.8573871644
 30
0.0
 10
10.4847817107
 20
6.8581118101
 30
0.0
  0
SPLINE
  5
2B0
100
AcDbEntity
  8
0
100
AcDbSpline
 62
7
  6
CONTINUOUS
 70
0
 71
3
 72
29
 73
25
 74
0
 42
0.0000001
 43
0.0000001
 44
0.0000000001
 40
0.0
 40
0.0
 40
0.0
 40
0.0
 40
0.1704484385
 40
0.2522841368
 40
0.3314020864
 40
0.4075323285
 40
0.4804437081
 40
0.549937205
 40
0.6158374079
 40
0.677984716
 40
0.7076104023
 40
0.7362433636
 40
0.763867126
 40
0.7904665385
 40
0.8160283851
 40
0.840542343
 40
0.864002062
 40
0.8864069232
 40
0.907763978
 40
0.9280906801
 40
0.947417948
 40
0.9657942332
 40
0.9832894831
 40
1.0
 40
1.0
 40
1.0
 40
1.0
 10
10.0575307815
 20
9.3301698044
 30
0.0
 10
10.0575307815
 20
9.3203184337
 30
0.0
 10
10.0583419703
 20
9.3057146407
 30
0.0
 10
10.0611651768
 20
9.2867607796
 30
0.0
 10
10.0640315515
 20
9.273351153
 30
0.0
 10
10.0676176573
 20
9.2606515545
 30
0.0
 10
10.0718545297
 20
9.2487425008
 30
0.0
 10
10.0766643999
 20
9.2376948202
 30
0.0
 10
10.0819627177
 20
9.2275703343
 30
0.0
 10
10.0867860291
 20
9.2198265687
 30
0.0
 10
10.0908178025
 20
9.214152353
 30
0.0
 10
10.093858869
 20
9.2102273549
 30
0.0
 10
10.0969533707
 20
9.2065706348
 30
0.0
 10
10.1000894142
 20
9.2031876254
 30
0.0
 10
10.1032548424
 20
9.2000836417
 30
0.0
 10
10.1064375125
 20
9.1972639722
 30
0.0
 10
10.1096251798
 20
9.194733776
 30
0.0
 10
10.1128056361
 20
9.1924981817
 30
0.0
 10
10.1159666893
 20
9.1905621907
 30
0.0
 10
10.1190962826
 20
9.1889307274
 30
0.0
 10
10.1221824713
 20
9.1876085904
 30
0.0
 10
10.1252137279
 20
9.1866004417
 30
0.0
 10
10.1281781322
 20
9.1859108836
 30
0.0
 10
10.1301438675
 20
9.1856613287
 30
0.0
 10
10.1311073772
 20
9.1855946513
 30
0.0
  0
SPLINE
  5
2B1
100
AcDbEntity
  8
0
100
AcDbSpline
 62
7
  6
CONTINUOUS
 70
0
 71
3
 72
15
 73
11
 74
0
 42
0.0000001
 43
0.0000001
 44
0.0000000001
 40
0.0
 40
0.0
 40
0.0
 40
0.0
 40
0.1273483316
 40
0.2538605887
 40
0.3795878789
 40
0.5046051138
 40
0.6290174418
 40
0.7529533759
 40
0.8765605771
 40
1.0
 40
1.0
 40
1.0
 40
1.0
 10
11.468537694
 20
9.5243231558
 30
0.0
 10
11.468537694
 20
9.5187240772
 30
0.0
 10
11.4680030939
 20
9.5075549385
 30
0.0
 10
11.4655854209
 20
9.4910160498
 30
0.0
 10
11.4615765137
 20
9.4748927225
 30
0.0
 10
11.4560125902
 20
9.4593357381
 30
0.0
 10
11.4489446812
 20
9.4444885705
 30
0.0
 10
11.4404372101
 20
9.4304883294
 30
0.0
 10
11.4305702067
 20
9.417466164
 30
0.0
 10
11.4231408315
 20
9.4095115076
 30
0.0
 10
11.4192372965
 20
9.4057409507
 30
0.0
  0
SPLINE
  5
2B2
100
AcDbEntity
  8
0
100
AcDbSpline
 62
7
  6
CONTINUOUS
 70
0
 71
3
 72
23
 73
19
 74
0
 42
0.0000001
 43
0.0000001
 44
0.0000000001
 40
0.0
 40
0.0
 40
0.0
 40
0.0
 40
0.0614488802
 40
0.1232974642
 40
0.1855192966
 40
0.2480712718
 40
0.3108995321
 40
0.3739401523
 40
0.437121741
 40
0.5003679845
 40
0.5636003156
 40
0.6267406512
 40
0.6897141167
 40
0.7524516793
 40
0.8148926324
 40
0.8769871104
 40
0.9386966628
 40
1.0
 40
1.0
 40
1.0
 40
1.0
 10
11.2929323684
 20
9.7121067521
 30
0.0
 10
11.2986961445
 20
9.7117070329
 30
0.0
 10
11.3102294502
 20
9.710336986
 30
0.0
 10
11.3272969826
 20
9.7066159398
 30
0.0
 10
11.3440336911
 20
9.7012580755
 30
0.0
 10
11.3602767681
 20
9.694315316
 30
0.0
 10
11.3758708586
 20
9.6858547284
 30
0.0
 10
11.3906662244
 20
9.6759578576
 30
0.0
 10
11.4045209873
 20
9.6647199173
 30
0.0
 10
11.417302205
 20
9.6522488752
 30
0.0
 10
11.4288871825
 20
9.6386644431
 30
0.0
 10
11.439164687
 20
9.6240970062
 30
0.0
 10
11.448035936
 20
9.6086863402
 30
0.0
 10
11.4554155179
 20
9.5925802371
 30
0.0
 10
11.4612322327
 20
9.5759333747
 30
0.0
 10
11.4654297486
 20
9.5589050195
 30
0.0
 10
11.4679673975
 20
9.5416608437
 30
0.0
 10
11.468537694
 20
9.5300870912
 30
0.0
 10
11.468537694
 20
9.5243231558
 30
0.0
  0
SPLINE
  5
2B3
100
AcDbEntity
  8
0
100
AcDbSpline
 62
7
  6
CONTINUOUS
 70
0
 71
3
 72
15
 73
11
 74
0
 42
0.0000001
 43
0.0000001
 44
0.0000000001
 40
0.0
 40
0.0
 40
0.0
 40
0.0
 40
0.1273483316
 40
0.2538605887
 40
0.3795878789
 40
0.5046051138
 40
0.6290174418
 40
0.7529533759
 40
0.8765605771
 40
1.0
 40
1.0
 40
1.0
 40
1.0
 10
11.468537694
 20
8.5732726503
 30
0.0
 10
11.468537694
 20
8.5676735717
 30
0.0
 10
11.4680030939
 20
8.556504433
 30
0.0
 10
11.4655854209
 20
8.5399655442
 30
0.0
 10
11.4615765137
 20
8.5238422169
 30
0.0
 10
11.4560125902
 20
8.5082852325
 30
0.0
 10
11.4489446812
 20
8.493438065
 30
0.0
 10
11.4404372101
 20
8.4794378239
 30
0.0
 10
11.4305702067
 20
8.4664156584
 30
0.0
 10
11.4231408315
 20
8.4584610021
 30
0.0
 10
11.4192372965
 20
8.4546904452
 30
0.0
  0
SPLINE
  5
2B4
100
AcDbEntity
  8
0
100
AcDbSpline
 62
7
  6
CONTINUOUS
 70
0
 71
3
 72
23
 73
19
 74
0
 42
0.0000001
 43
0.0000001
 44
0.0000000001
 40
0.0
 40
0.0
 40
0.0
 40
0.0
 40
0.0614488802
 40
0.1232974642
 40
0.1855192966
 40
0.2480712718
 40
0.3108995321
 40
0.3739401523
 40
0.437121741
 40
0.5003679845
 40
0.5636003156
 40
0.6267406512
 40
0.6897141167
 40
0.7524516793
 40
0.8148926324
 40
0.8769871104
 40
0.9386966628
 40
1.0
 40
1.0
 40
1.0
 40
1.0
 10
11.2929323684
 20
8.7610562466
 30
0.0
 10
11.2986961445
 20
8.7606565274
 30
0.0
 10
11.3102294502
 20
8.7592864805
 30
0.0
 10
11.3272969826
 20
8.7555654343
 30
0.0
 10
11.3440336911
 20
8.7502075699
 30
0.0
 10
11.3602767681
 20
8.7432648105
 30
0.0
 10
11.3758708586
 20
8.7348042228
 30
0.0
 10
11.3906662244
 20
8.7249073521
 30
0.0
 10
11.4045209873
 20
8.7136694118
 30
0.0
 10
11.417302205
 20
8.7011983697
 30
0.0
 10
11.4288871825
 20
8.6876139376
 30
0.0
 10
11.439164687
 20
8.6730465006
 30
0.0
 10
11.448035936
 20
8.6576358347
 30
0.0
 10
11.4554155179
 20
8.6415297316
 30
0.0
 10
11.4612322327
 20
8.6248828692
 30
0.0
 10
11.4654297486
 20
8.6078545139
 30
0.0
 10
11.4679673975
 20
8.5906103382
 30
0.0
 10
11.468537694
 20
8.5790365857
 30
0.0
 10
11.468537694
 20
8.5732726503
 30
0.0
  0
SPLINE
  5
2B5
100
AcDbEntity
  8
0
100
AcDbSpline
 62
7
  6
CONTINUOUS
 70
0
 71
3
 72
15
 73
11
 74
0
 42
0.0000001
 43
0.0000001
 44
0.0000000001
 40
0.0
 40
0.0
 40
0.0
 40
0.0
 40
0.1273483316
 40
0.2538605887
 40
0.3795878789
 40
0.5046051138
 40
0.6290174418
 40
0.7529533759
 40
0.8765605771
 40
1.0
 40
1.0
 40
1.0
 40
1.0
 10
11.468537694
 20
6.9432727219
 30
0.0
 10
11.468537694
 20
6.9376736432
 30
0.0
 10
11.4680030939
 20
6.9265045045
 30
0.0
 10
11.4655854209
 20
6.9099656158
 30
0.0
 10
11.4615765137
 20
6.8938422885
 30
0.0
 10
11.4560125902
 20
6.8782853041
 30
0.0
 10
11.4489446812
 20
6.8634381366
 30
0.0
 10
11.4404372101
 20
6.8494378955
 30
0.0
 10
11.4305702067
 20
6.83641573
 30
0.0
 10
11.4231408315
 20
6.8284610736
 30
0.0
 10
11.4192372965
 20
6.8246905167
 30
0.0
  0
SPLINE
  5
2B6
100
AcDbEntity
  8
0
100
AcDbSpline
 62
7
  6
CONTINUOUS
 70
0
 71
3
 72
23
 73
19
 74
0
 42
0.0000001
 43
0.0000001
 44
0.0000000001
 40
0.0
 40
0.0
 40
0.0
 40
0.0
 40
0.0614488802
 40
0.1232974642
 40
0.1855192966
 40
0.2480712718
 40
0.3108995321
 40
0.3739401523
 40
0.437121741
 40
0.5003679845
 40
0.5636003156
 40
0.6267406512
 40
0.6897141167
 40
0.7524516793
 40
0.8148926324
 40
0.8769871104
 40
0.9386966628
 40
1.0
 40
1.0
 40
1.0
 40
1.0
 10
11.2929323684
 20
7.1310563182
 30
0.0
 10
11.2986961445
 20
7.1306565989
 30
0.0
 10
11.3102294502
 20
7.1292865521
 30
0.0
 10
11.3272969826
 20
7.1255655059
 30
0.0
 10
11.3440336911
 20
7.1202076415
 30
0.0
 10
11.3602767681
 20
7.1132648821
 30
0.0
 10
11.3758708586
 20
7.1048042944
 30
0.0
 10
11.3906662244
 20
7.0949074237
 30
0.0
 10
11.4045209873
 20
7.0836694833
 30
0.0
 10
11.417302205
 20
7.0711984412
 30
0.0
 10
11.4288871825
 20
7.0576140091
 30
0.0
 10
11.439164687
 20
7.0430465722
 30
0.0
 10
11.448035936
 20
7.0276359062
 30
0.0
 10
11.4554155179
 20
7.0115298032
 30
0.0
 10
11.4612322327
 20
6.9948829407
 30
0.0
 10
11.4654297486
 20
6.9778545855
 30
0.0
 10
11.4679673975
 20
6.9606104097
 30
0.0
 10
11.468537694
 20
6.9490366572
 30
0.0
 10
11.468537694
 20
6.9432727219
 30
0.0
  0
SPLINE
  5
2B7
100
AcDbEntity
  8
0
100
AcDbSpline
 62
7
  6
CONTINUOUS
 70
0
 71
3
 72
15
 73
11
 74
0
 42
0.0000001
 43
0.0000001
 44
0.0000000001
 40
0.0
 40
0.0
 40
0.0
 40
0.0
 40
0.1273483316
 40
0.2538605887
 40
0.3795878789
 40
0.5046051138
 40
0.6290174418
 40
0.7529533759
 40
0.8765605771
 40
1.0
 40
1.0
 40
1.0
 40
1.0
 10
11.468537694
 20
5.9922221127
 30
0.0
 10
11.468537694
 20
5.9866230341
 30
0.0
 10
11.4680030939
 20
5.9754538954
 30
0.0
 10
11.4655854209
 20
5.9589150066
 30
0.0
 10
11.4615765137
 20
5.9427916793
 30
0.0
 10
11.4560125902
 20
5.9272346949
 30
0.0
 10
11.4489446812
 20
5.9123875274
 30
0.0
 10
11.4404372101
 20
5.8983872863
 30
0.0
 10
11.4305702067
 20
5.8853651208
 30
0.0
 10
11.4231408315
 20
5.8774104645
 30
0.0
 10
11.4192372965
 20
5.8736399076
 30
0.0
  0
SPLINE
  5
2B8
100
AcDbEntity
  8
0
100
AcDbSpline
 62
7
  6
CONTINUOUS
 70
0
 71
3
 72
23
 73
19
 74
0
 42
0.0000001
 43
0.0000001
 44
0.0000000001
 40
0.0
 40
0.0
 40
0.0
 40
0.0
 40
0.0614488802
 40
0.1232974642
 40
0.1855192966
 40
0.2480712718
 40
0.3108995321
 40
0.3739401523
 40
0.437121741
 40
0.5003679845
 40
0.5636003156
 40
0.6267406512
 40
0.6897141167
 40
0.7524516793
 40
0.8148926324
 40
0.8769871104
 40
0.9386966628
 40
1.0
 40
1.0
 40
1.0
 40
1.0
 10
11.2929323684
 20
6.180005709
 30
0.0
 10
11.2986961445
 20
6.1796059898
 30
0.0
 10
11.3102294502
 20
6.1782359429
 30
0.0
 10
11.3272969826
 20
6.1745148967
 30
0.0
 10
11.3440336911
 20
6.1691570323
 30
0.0
 10
11.3602767681
 20
6.1622142729
 30
0.0
 10
11.3758708586
 20
6.1537536852
 30
0.0
 10
11.3906662244
 20
6.1438568145
 30
0.0
 10
11.4045209873
 20
6.1326188741
 30
0.0
 10
11.417302205
 20
6.1201478321
 30
0.0
 10
11.4288871825
 20
6.1065634
 30
0.0
 10
11.439164687
 20
6.091995963
 30
0.0
 10
11.448035936
 20
6.0765852971
 30
0.0
 10
11.4554155179
 20
6.060479194
 30
0.0
 10
11.4612322327
 20
6.0438323316
 30
0.0
 10
11.4654297486
 20
6.0268039763
 30
0.0
 10
11.4679673975
 20
6.0095598006
 30
0.0
 10
11.468537694
 20
5.9979860481
 30
0.0
 10
11.468537694
 20
5.9922221127
 30
0.0
  0
SPLINE
  5
2B9
100
AcDbEntity
  8
0
100
AcDbSpline
 62
7
  6
CONTINUOUS
 70
0
 71
3
 72
15
 73
11
 74
0
 42
0.0000001
 43
0.0000001
 44
0.0000000001
 40
0.0
 40
0.0
 40
0.0
 40
0.0
 40
0.1273483316
 40
0.2538605887
 40
0.3795878789
 40
0.5046051138
 40
0.6290174418
 40
0.7529533759
 40
0.8765605771
 40
1.0
 40
1.0
 40
1.0
 40
1.0
 10
9.5125377799
 20
9.6599722106
 30
0.0
 10
9.5125377799
 20
9.654373132
 30
0.0
 10
9.5120031798
 20
9.6432039933
 30
0.0
 10
9.5095855067
 20
9.6266651045
 30
0.0
 10
9.5055765996
 20
9.6105417772
 30
0.0
 10
9.5000126761
 20
9.5949847928
 30
0.0
 10
9.4929447671
 20
9.5801376253
 30
0.0
 10
9.484437296
 20
9.5661373842
 30
0.0
 10
9.4745702926
 20
9.5531152187
 30
0.0
 10
9.4671409174
 20
9.5451605624
 30
0.0
 10
9.4632373824
 20
9.5413900055
 30
0.0
  0
SPLINE
  5
2BA
100
AcDbEntity
  8
0
100
AcDbSpline
 62
7
  6
CONTINUOUS
 70
0
 71
3
 72
23
 73
19
 74
0
 42
0.0000001
 43
0.0000001
 44
0.0000000001
 40
0.0
 40
0.0
 40
0.0
 40
0.0
 40
0.0614488802
 40
0.1232974642
 40
0.1855192966
 40
0.2480712718
 40
0.3108995321
 40
0.3739401523
 40
0.437121741
 40
0.5003679845
 40
0.5636003156
 40
0.6267406512
 40
0.6897141167
 40
0.7524516793
 40
0.8148926324
 40
0.8769871104
 40
0.9386966628
 40
1.0
 40
1.0
 40
1.0
 40
1.0
 10
9.3369324543
 20
9.8477558069
 30
0.0
 10
9.3426962304
 20
9.8473560877
 30
0.0
 10
9.3542295361
 20
9.8459860408
 30
0.0
 10
9.3712970685
 20
9.8422649946
 30
0.0
 10
9.388033777
 20
9.8369071302
 30
0.0
 10
9.404276854
 20
9.8299643708
 30
0.0
 10
9.4198709445
 20
9.8215037831
 30
0.0
 10
9.4346663103
 20
9.8116069124
 30
0.0
 10
9.4485210732
 20
9.8003689721
 30
0.0
 10
9.4613022909
 20
9.78789793
 30
0.0
 10
9.4728872683
 20
9.7743134979
 30
0.0
 10
9.4831647728
 20
9.7597460609
 30
0.0
 10
9.4920360219
 20
9.744335395
 30
0.0
 10
9.4994156038
 20
9.7282292919
 30
0.0
 10
9.5052323186
 20
9.7115824295
 30
0.0
 10
9.5094298344
 20
9.6945540742
 30
0.0
 10
9.5119674833
 20
9.6773098985
 30
0.0
 10
9.5125377799
 20
9.665736146
 30
0.0
 10
9.5125377799
 20
9.6599722106
 30
0.0
  0
SPLINE
  5
2BB
100
AcDbEntity
  8
0
100
AcDbSpline
 62
7
  6
CONTINUOUS
 70
0
 71
3
 72
15
 73
11
 74
0
 42
0.0000001
 43
0.0000001
 44
0.0000000001
 40
0.0
 40
0.0
 40
0.0
 40
0.0
 40
0.1273483316
 40
0.2538605887
 40
0.3795878789
 40
0.5046051138
 40
0.6290174418
 40
0.7529533759
 40
0.8765605771
 40
1.0
 40
1.0
 40
1.0
 40
1.0
 10
9.5125377799
 20
8.7089217051
 30
0.0
 10
9.5125377799
 20
8.7033226264
 30
0.0
 10
9.5120031798
 20
8.6921534878
 30
0.0
 10
9.5095855067
 20
8.675614599
 30
0.0
 10
9.5055765996
 20
8.6594912717
 30
0.0
 10
9.5000126761
 20
8.6439342873
 30
0.0
 10
9.4929447671
 20
8.6290871198
 30
0.0
 10
9.484437296
 20
8.6150868787
 30
0.0
 10
9.4745702926
 20
8.6020647132
 30
0.0
 10
9.4671409174
 20
8.5941100569
 30
0.0
 10
9.4632373824
 20
8.5903395
 30
0.0
  0
SPLINE
  5
2BC
100
AcDbEntity
  8
0
100
AcDbSpline
 62
7
  6
CONTINUOUS
 70
0
 71
3
 72
23
 73
19
 74
0
 42
0.0000001
 43
0.0000001
 44
0.0000000001
 40
0.0
 40
0.0
 40
0.0
 40
0.0
 40
0.0614488802
 40
0.1232974642
 40
0.1855192966
 40
0.2480712718
 40
0.3108995321
 40
0.3739401523
 40
0.437121741
 40
0.5003679845
 40
0.5636003156
 40
0.6267406512
 40
0.6897141167
 40
0.7524516793
 40
0.8148926324
 40
0.8769871104
 40
0.9386966628
 40
1.0
 40
1.0
 40
1.0
 40
1.0
 10
9.3369324543
 20
8.8967053014
 30
0.0
 10
9.3426962304
 20
8.8963055822
 30
0.0
 10
9.3542295361
 20
8.8949355353
 30
0.0
 10
9.3712970685
 20
8.8912144891
 30
0.0
 10
9.388033777
 20
8.8858566247
 30
0.0
 10
9.404276854
 20
8.8789138653
 30
0.0
 10
9.4198709445
 20
8.8704532776
 30
0.0
 10
9.4346663103
 20
8.8605564069
 30
0.0
 10
9.4485210732
 20
8.8493184665
 30
0.0
 10
9.4613022909
 20
8.8368474245
 30
0.0
 10
9.4728872683
 20
8.8232629923
 30
0.0
 10
9.4831647728
 20
8.8086955554
 30
0.0
 10
9.4920360219
 20
8.7932848894
 30
0.0
 10
9.4994156038
 20
8.7771787864
 30
0.0
 10
9.5052323186
 20
8.760531924
 30
0.0
 10
9.5094298344
 20
8.7435035687
 30
0.0
 10
9.5119674833
 20
8.7262593929
 30
0.0
 10
9.5125377799
 20
8.7146856404
 30
0.0
 10
9.5125377799
 20
8.7089217051
 30
0.0
  0
SPLINE
  5
2BD
100
AcDbEntity
  8
0
100
AcDbSpline
 62
7
  6
CONTINUOUS
 70
0
 71
3
 72
15
 73
11
 74
0
 42
0.0000001
 43
0.0000001
 44
0.0000000001
 40
0.0
 40
0.0
 40
0.0
 40
0.0
 40
0.1273483316
 40
0.2538605887
 40
0.3795878789
 40
0.5046051138
 40
0.6290174418
 40
0.7529533759
 40
0.8765605771
 40
1.0
 40
1.0
 40
1.0
 40
1.0
 10
9.5125377799
 20
7.0789217766
 30
0.0
 10
9.5125377799
 20
7.073322698
 30
0.0
 10
9.5120031798
 20
7.0621535593
 30
0.0
 10
9.5095855067
 20
7.0456146706
 30
0.0
 10
9.5055765996
 20
7.0294913433
 30
0.0
 10
9.5000126761
 20
7.0139343589
 30
0.0
 10
9.4929447671
 20
6.9990871913
 30
0.0
 10
9.484437296
 20
6.9850869502
 30
0.0
 10
9.4745702926
 20
6.9720647847
 30
0.0
 10
9.4671409174
 20
6.9641101284
 30
0.0
 10
9.4632373824
 20
6.9603395715
 30
0.0
  0
SPLINE
  5
2BE
100
AcDbEntity
  8
0
100
AcDbSpline
 62
7
  6
CONTINUOUS
 70
0
 71
3
 72
23
 73
19
 74
0
 42
0.0000001
 43
0.0000001
 44
0.0000000001
 40
0.0
 40
0.0
 40
0.0
 40
0.0
 40
0.0614488802
 40
0.1232974642
 40
0.1855192966
 40
0.2480712718
 40
0.3108995321
 40
0.3739401523
 40
0.437121741
 40
0.5003679845
 40
0.5636003156
 40
0.6267406512
 40
0.6897141167
 40
0.7524516793
 40
0.8148926324
 40
0.8769871104
 40
0.9386966628
 40
1.0
 40
1.0
 40
1.0
 40
1.0
 10
9.3369324543
 20
7.2667053729
 30
0.0
 10
9.3426962304
 20
7.2663056537
 30
0.0
 10
9.3542295361
 20
7.2649356068
 30
0.0
 10
9.3712970685
 20
7.2612145606
 30
0.0
 10
9.388033777
 20
7.2558566963
 30
0.0
 10
9.404276854
 20
7.2489139368
 30
0.0
 10
9.4198709445
 20
7.2404533492
 30
0.0
 10
9.4346663103
 20
7.2305564784
 30
0.0
 10
9.4485210732
 20
7.2193185381
 30
0.0
 10
9.4613022909
 20
7.206847496
 30
0.0
 10
9.4728872683
 20
7.1932630639
 30
0.0
 10
9.4831647728
 20
7.178695627
 30
0.0
 10
9.4920360219
 20
7.163284961
 30
0.0
 10
9.4994156038
 20
7.1471788579
 30
0.0
 10
9.5052323186
 20
7.1305319955
 30
0.0
 10
9.5094298344
 20
7.1135036403
 30
0.0
 10
9.5119674833
 20
7.0962594645
 30
0.0
 10
9.5125377799
 20
7.084685712
 30
0.0
 10
9.5125377799
 20
7.0789217766
 30
0.0
  0
SPLINE
  5
2BF
100
AcDbEntity
  8
0
100
AcDbSpline
 62
7
  6
CONTINUOUS
 70
0
 71
3
 72
15
 73
11
 74
0
 42
0.0000001
 43
0.0000001
 44
0.0000000001
 40
0.0
 40
0.0
 40
0.0
 40
0.0
 40
0.1273483316
 40
0.2538605887
 40
0.3795878789
 40
0.5046051138
 40
0.6290174418
 40
0.7529533759
 40
0.8765605771
 40
1.0
 40
1.0
 40
1.0
 40
1.0
 10
9.5125377799
 20
6.1278711675
 30
0.0
 10
9.5125377799
 20
6.1222720888
 30
0.0
 10
9.5120031798
 20
6.1111029502
 30
0.0
 10
9.5095855067
 20
6.0945640614
 30
0.0
 10
9.5055765996
 20
6.0784407341
 30
0.0
 10
9.5000126761
 20
6.0628837497
 30
0.0
 10
9.4929447671
 20
6.0480365822
 30
0.0
 10
9.484437296
 20
6.0340363411
 30
0.0
 10
9.4745702926
 20
6.0210141756
 30
0.0
 10
9.4671409174
 20
6.0130595193
 30
0.0
 10
9.4632373824
 20
6.0092889624
 30
0.0
  0
SPLINE
  5
2C0
100
AcDbEntity
  8
0
100
AcDbSpline
 62
7
  6
CONTINUOUS
 70
0
 71
3
 72
23
 73
19
 74
0
 42
0.0000001
 43
0.0000001
 44
0.0000000001
 40
0.0
 40
0.0
 40
0.0
 40
0.0
 40
0.0614488802
 40
0.1232974642
 40
0.1855192966
 40
0.2480712718
 40
0.3108995321
 40
0.3739401523
 40
0.437121741
 40
0.5003679845
 40
0.5636003156
 40
0.6267406512
 40
0.6897141167
 40
0.7524516793
 40
0.8148926324
 40
0.8769871104
 40
0.9386966628
 40
1.0
 40
1.0
 40
1.0
 40
1.0
 10
9.3369324543
 20
6.3156547638
 30
0.0
 10
9.3426962304
 20
6.3152550445
 30
0.0
 10
9.3542295361
 20
6.3138849977
 30
0.0
 10
9.3712970685
 20
6.3101639515
 30
0.0
 10
9.388033777
 20
6.3048060871
 30
0.0
 10
9.404276854
 20
6.2978633277
 30
0.0
 10
9.4198709445
 20
6.28940274
 30
0.0
 10
9.4346663103
 20
6.2795058693
 30
0.0
 10
9.4485210732
 20
6.2682679289
 30
0.0
 10
9.4613022909
 20
6.2557968868
 30
0.0
 10
9.4728872683
 20
6.2422124547
 30
0.0
 10
9.4831647728
 20
6.2276450178
 30
0.0
 10
9.4920360219
 20
6.2122343518
 30
0.0
 10
9.4994156038
 20
6.1961282488
 30
0.0
 10
9.5052323186
 20
6.1794813864
 30
0.0
 10
9.5094298344
 20
6.1624530311
 30
0.0
 10
9.5119674833
 20
6.1452088553
 30
0.0
 10
9.5125377799
 20
6.1336351028
 30
0.0
 10
9.5125377799
 20
6.1278711675
 30
0.0
  0
SPLINE
  5
2C1
100
AcDbEntity
  8
0
100
AcDbSpline
 62
7
  6
CONTINUOUS
 70
0
 71
3
 72
61
 73
57
 74
0
 42
0.0000001
 43
0.0000001
 44
0.0000000001
 40
0.0
 40
0.0
 40
0.0
 40
0.0
 40
0.0077405164
 40
0.0160541044
 40
0.02496026
 40
0.0344717073
 40
0.0445949663
 40
0.0553318113
 40
0.0666800235
 40
0.07863401
 40
0.0911852701
 40
0.1043227735
 40
0.1180333063
 40
0.1323017004
 40
0.1471109966
 40
0.1624426615
 40
0.1782767373
 40
0.1945919266
 40
0.2113657169
 40
0.2285745087
 40
0.246193685
 40
0.2641976737
 40
0.2825600621
 40
0.3012536693
 40
0.3395215995
 40
0.3787717423
 40
0.4187655405
 40
0.4592584341
 40
0.5000018585
 40
0.5407452654
 40
0.5812381067
 40
0.621231822
 40
0.6604818432
 40
0.6987496268
 40
0.7174431424
 40
0.7358054381
 40
0.7538093288
 40
0.771428392
 40
0.7886370661
 40
0.8054107391
 40
0.8217258002
 40
0.8375597344
 40
0.8528912625
 40
0.8677004179
 40
0.8819686546
 40
0.8956790315
 40
0.9088163825
 40
0.9213674799
 40
0.933321294
 40
0.9446693432
 40
0.9554060288
 40
0.9655291091
 40
0.9750403734
 40
0.9839464387
 40
0.9922597593
 40
1.0
 40
1.0
 40
1.0
 40
1.0
 10
10.7511432968
 20
11.2926808032
 30
0.0
 10
10.748391055
 20
11.2901196612
 30
0.0
 10
10.7424663566
 20
11.2850375446
 30
0.0
 10
10.732747051
 20
11.2777791894
 30
0.0
 10
10.7219012096
 20
11.2706302737
 30
0.0
 10
10.7099466018
 20
11.2636020762
 30
0.0
 10
10.6969016849
 20
11.256705306
 30
0.0
 10
10.6827873427
 20
11.2499509443
 30
0.0
 10
10.6676261941
 20
11.2433498597
 30
0.0
 10
10.6514427075
 20
11.2369128484
 30
0.0
 10
10.634263154
 20
11.2306504693
 30
0.0
 10
10.6161155364
 20
11.2245730232
 30
0.0
 10
10.5970294987
 20
11.2186905616
 30
0.0
 10
10.5770362834
 20
11.2130128394
 30
0.0
 10
10.5561686882
 20
11.2075492365
 30
0.0
 10
10.5344609775
 20
11.2023088041
 30
0.0
 10
10.5119488156
 20
11.197300248
 30
0.0
 10
10.4886692255
 20
11.1925318639
 30
0.0
 10
10.4646605171
 20
11.1880115392
 30
0.0
 10
10.4399622054
 20
11.1837467747
 30
0.0
 10
10.4146149507
 20
11.1797446489
 30
0.0
 10
10.3886605145
 20
11.1760117818
 30
0.0
 10
10.3621416146
 20
11.1725543138
 30
0.0
 10
10.3258058812
 20
11.1682861806
 30
0.0
 10
10.2792970721
 20
11.1636959159
 30
0.0
 10
10.2223784517
 20
11.159405825
 30
0.0
 10
10.1642996488
 20
11.1563208754
 30
0.0
 10
10.1054432689
 20
11.1544616635
 30
0.0
 10
10.0461967679
 20
11.1538405844
 30
0.0
 10
9.9869502939
 20
11.1544618304
 30
0.0
 10
9.928093994
 20
11.1563212207
 30
0.0
 10
9.8700153239
 20
11.1594063233
 30
0.0
 10
9.8130968881
 20
11.1636965927
 30
0.0
 10
9.7665882663
 20
11.1682869765
 30
0.0
 10
9.7302527085
 20
11.1725552275
 30
0.0
 10
9.7037339563
 20
11.1760127677
 30
0.0
 10
9.677779679
 20
11.1797457037
 30
0.0
 10
9.6524325985
 20
11.1837479091
 30
0.0
 10
9.627734471
 20
11.1880127464
 30
0.0
 10
9.603725954
 20
11.1925331339
 30
0.0
 10
9.5804465691
 20
11.1973015836
 30
0.0
 10
9.557934626
 20
11.2023102138
 30
0.0
 10
9.5362271386
 20
11.2075507035
 30
0.0
 10
9.5153597756
 20
11.2130143598
 30
0.0
 10
9.4953668084
 20
11.2186921485
 30
0.0
 10
9.4762810245
 20
11.2245746655
 30
0.0
 10
9.458133663
 20
11.2306521562
 30
0.0
 10
9.4409543792
 20
11.2369145845
 30
0.0
 10
9.4247711757
 20
11.243351653
 30
0.0
 10
9.4096103049
 20
11.2499527733
 30
0.0
 10
9.3954962484
 20
11.2567071695
 30
0.0
 10
9.3824516443
 20
11.2636039895
 30
0.0
 10
9.3704973074
 20
11.2706322159
 30
0.0
 10
9.3596518072
 20
11.2777811725
 30
0.0
 10
9.3499328548
 20
11.2850394858
 30
0.0
 10
9.344008454
 20
11.2901215462
 30
0.0
 10
9.3412563697
 20
11.292682661
 30
0.0
  0
SPLINE
  5
2C2
100
AcDbEntity
  8
0
100
AcDbSpline
 62
7
  6
CONTINUOUS
 70
0
 71
3
 72
15
 73
11
 74
0
 42
0.0000001
 43
0.0000001
 44
0.0000000001
 40
0.0
 40
0.0
 40
0.0
 40
0.0
 40
0.1774620593
 40
0.336804942
 40
0.4787661708
 40
0.6046571682
 40
0.7170997775
 40
0.8187690344
 40
0.9122379675
 40
1.0
 40
1.0
 40
1.0
 40
1.0
 10
9.3521489399
 20
11.2835279852
 30
0.0
 10
9.3512331197
 20
11.2846381382
 30
0.0
 10
9.3495574236
 20
11.286798072
 30
0.0
 10
9.347393793
 20
11.2900258178
 30
0.0
 10
9.3456817835
 20
11.2930416434
 30
0.0
 10
9.3443811991
 20
11.2958422599
 30
0.0
 10
9.3434474109
 20
11.2984406782
 30
0.0
 10
9.3428241752
 20
11.3008599103
 30
0.0
 10
9.3424744355
 20
11.3031311668
 30
0.0
 10
9.3424008298
 20
11.3046019607
 30
0.0
 10
9.3424008298
 20
11.3053136798
 30
0.0
  0
SPLINE
  5
2C3
100
AcDbEntity
  8
0
100
AcDbSpline
 62
7
  6
CONTINUOUS
 70
0
 71
3
 72
17
 73
13
 74
0
 42
0.0000001
 43
0.0000001
 44
0.0000000001
 40
0.0
 40
0.0
 40
0.0
 40
0.0
 40
0.0878317249
 40
0.1812279632
 40
0.2307641019
 40
0.282605809
 40
0.3947043695
 40
0.4557907524
 40
0.5207311507
 40
0.6628756282
 40
0.8223924769
 40
1.0
 40
1.0
 40
1.0
 40
1.0
 10
10.7500008298
 20
11.3053136798
 30
0.0
 10
10.7500008298
 20
11.3045971615
 30
0.0
 10
10.7499254911
 20
11.303117708
 30
0.0
 10
10.7496366144
 20
11.301254125
 30
0.0
 10
10.7492799909
 20
11.299705202
 30
0.0
 10
10.748808787
 20
11.2980280433
 30
0.0
 10
10.7481829359
 20
11.296298969
 30
0.0
 10
10.7474043088
 20
11.2945188165
 30
0.0
 10
10.7464436504
 20
11.2925526397
 30
0.0
 10
10.7449634912
 20
11.2899499732
 30
0.0
 10
10.7427770279
 20
11.286704851
 30
0.0
 10
10.7410853644
 20
11.2845334738
 30
0.0
 10
10.7401612948
 20
11.283417501
 30
0.0
  0
SPLINE
  5
2C4
100
AcDbEntity
  8
0
100
AcDbSpline
 62
7
  6
CONTINUOUS
 70
0
 71
3
 72
39
 73
35
 74
0
 42
0.0000001
 43
0.0000001
 44
0.0000000001
 40
0.0
 40
0.0
 40
0.0
 40
0.0
 40
0.029942471
 40
0.0599093185
 40
0.089924325
 40
0.1200101043
 40
0.1501875632
 40
0.1804754155
 40
0.2108897611
 40
0.2414437393
 40
0.2721472649
 40
0.3030068482
 40
0.3340255005
 40
0.3652027199
 40
0.3965345553
 40
0.4280137416
 40
0.4596298994
 40
0.4913697937
 40
0.523217641
 40
0.5551554573
 40
0.5871634413
 40
0.619220384
 40
0.6513040994
 40
0.6833918697
 40
0.715460897
 40
0.7474887556
 40
0.7794538398
 40
0.8113357995
 40
0.8431159588
 40
0.874777715
 40
0.9063068673
 40
0.9376920959
 40
0.968924654
 40
1.0
 40
1.0
 40
1.0
 40
1.0
 10
9.9957744547
 20
9.4461655097
 30
0.0
 10
10.0032398055
 20
9.4533764788
 30
0.0
 10
10.0187575377
 20
9.4672164468
 30
0.0
 10
10.0436193507
 20
9.4860709556
 30
0.0
 10
10.0699393071
 20
9.5029256567
 30
0.0
 10
10.0975703388
 20
9.5176860064
 30
0.0
 10
10.126360535
 20
9.5302713641
 30
0.0
 10
10.1561510088
 20
9.5406125443
 30
0.0
 10
10.1867776006
 20
9.5486529537
 30
0.0
 10
10.2180715776
 20
9.5543486944
 30
0.0
 10
10.2498606376
 20
9.55766884
 30
0.0
 10
10.2819698516
 20
9.5585955455
 30
0.0
 10
10.3142226283
 20
9.5571241305
 30
0.0
 10
10.3464416777
 20
9.5532630815
 30
0.0
 10
10.3784499748
 20
9.5470339864
 30
0.0
 10
10.4100717204
 20
9.5384714061
 30
0.0
 10
10.4411333011
 20
9.5276226958
 30
0.0
 10
10.4714642251
 20
9.514547708
 30
0.0
 10
10.5008980434
 20
9.4993184626
 30
0.0
 10
10.5292732489
 20
9.4820187493
 30
0.0
 10
10.5564341508
 20
9.4627436696
 30
0.0
 10
10.5822317136
 20
9.4415991154
 30
0.0
 10
10.606524383
 20
9.4187012126
 30
0.0
 10
10.6291788462
 20
9.3941756739
 30
0.0
 10
10.6500707492
 20
9.3681571087
 30
0.0
 10
10.6690853726
 20
9.3407882944
 30
0.0
 10
10.6861182559
 20
9.3122194038
 30
0.0
 10
10.7010757615
 20
9.2826071849
 30
0.0
 10
10.7138756043
 20
9.2521141384
 30
0.0
 10
10.724447292
 20
9.2209075683
 30
0.0
 10
10.7327325588
 20
9.1891589121
 30
0.0
 10
10.738685509
 20
9.1570419149
 30
0.0
 10
10.7422732612
 20
9.1247352119
 30
0.0
 10
10.7430768244
 20
9.1031284565
 30
0.0
 10
10.7430768244
 20
9.0923564716
 30
0.0
  0
SPLINE
  5
2C5
100
AcDbEntity
  8
0
100
AcDbSpline
 62
7
  6
CONTINUOUS
 70
0
 71
3
 72
39
 73
35
 74
0
 42
0.0000001
 43
0.0000001
 44
0.0000000001
 40
0.0
 40
0.0
 40
0.0
 40
0.0
 40
0.029942471
 40
0.0599093185
 40
0.089924325
 40
0.1200101043
 40
0.1501875632
 40
0.1804754155
 40
0.2108897611
 40
0.2414437393
 40
0.2721472649
 40
0.3030068482
 40
0.3340255005
 40
0.3652027199
 40
0.3965345553
 40
0.4280137416
 40
0.4596298994
 40
0.4913697937
 40
0.523217641
 40
0.5551554573
 40
0.5871634413
 40
0.619220384
 40
0.6513040994
 40
0.6833918697
 40
0.715460897
 40
0.7474887556
 40
0.7794538398
 40
0.8113357995
 40
0.8431159588
 40
0.874777715
 40
0.9063068673
 40
0.9376920959
 40
0.968924654
 40
1.0
 40
1.0
 40
1.0
 40
1.0
 10
9.9957744547
 20
6.8651150757
 30
0.0
 10
10.0032398055
 20
6.8723260448
 30
0.0
 10
10.0187575377
 20
6.8861660128
 30
0.0
 10
10.0436193507
 20
6.9050205216
 30
0.0
 10
10.0699393071
 20
6.9218752227
 30
0.0
 10
10.0975703388
 20
6.9366355724
 30
0.0
 10
10.126360535
 20
6.9492209301
 30
0.0
 10
10.1561510088
 20
6.9595621103
 30
0.0
 10
10.1867776006
 20
6.9676025197
 30
0.0
 10
10.2180715776
 20
6.9732982605
 30
0.0
 10
10.2498606376
 20
6.976618406
 30
0.0
 10
10.2819698516
 20
6.9775451115
 30
0.0
 10
10.3142226283
 20
6.9760736965
 30
0.0
 10
10.3464416777
 20
6.9722126475
 30
0.0
 10
10.3784499748
 20
6.9659835524
 30
0.0
 10
10.4100717204
 20
6.9574209721
 30
0.0
 10
10.4411333011
 20
6.9465722618
 30
0.0
 10
10.4714642251
 20
6.933497274
 30
0.0
 10
10.5008980434
 20
6.9182680286
 30
0.0
 10
10.5292732489
 20
6.9009683153
 30
0.0
 10
10.5564341508
 20
6.8816932356
 30
0.0
 10
10.5822317136
 20
6.8605486814
 30
0.0
 10
10.606524383
 20
6.8376507786
 30
0.0
 10
10.6291788462
 20
6.8131252399
 30
0.0
 10
10.6500707492
 20
6.7871066747
 30
0.0
 10
10.6690853726
 20
6.7597378604
 30
0.0
 10
10.6861182559
 20
6.7311689699
 30
0.0
 10
10.7010757615
 20
6.7015567509
 30
0.0
 10
10.7138756043
 20
6.6710637044
 30
0.0
 10
10.724447292
 20
6.6398571344
 30
0.0
 10
10.7327325588
 20
6.6081084781
 30
0.0
 10
10.738685509
 20
6.5759914809
 30
0.0
 10
10.7422732612
 20
6.5436847779
 30
0.0
 10
10.7430768244
 20
6.5220780225
 30
0.0
 10
10.7430768244
 20
6.5113060376
 30
0.0
  0
SPLINE
  5
2C6
100
AcDbEntity
  8
0
100
AcDbSpline
 62
7
  6
CONTINUOUS
 70
0
 71
3
 72
38
 73
34
 74
0
 42
0.0000001
 43
0.0000001
 44
0.0000000001
 40
0.0
 40
0.0
 40
0.0
 40
0.0
 40
0.005377144
 40
0.0108203686
 40
0.0163932472
 40
0.022154628
 40
0.0344350041
 40
0.0410508834
 40
0.0480254643
 40
0.0553856053
 40
0.0631527351
 40
0.0713439868
 40
0.0799727637
 40
0.098576376
 40
0.119017014
 40
0.1413100766
 40
0.1654456344
 40
0.1913942003
 40
0.2191104633
 40
0.2485357714
 40
0.2796004217
 40
0.3122252291
 40
0.3463225051
 40
0.381797094
 40
0.4185474019
 40
0.4564660371
 40
0.4954403317
 40
0.5760808646
 40
0.6594913372
 40
0.7446459025
 40
0.8304909307
 40
0.9159610815
 40
1.0
 40
1.0
 40
1.0
 40
1.0
 10
13.5514806419
 20
11.6699619684
 30
0.0
 10
13.5510257303
 20
11.6699935235
 30
0.0
 10
13.5501057794
 20
11.6700040346
 30
0.0
 10
13.5487201484
 20
11.6698610909
 30
0.0
 10
13.5473267066
 20
11.6695598538
 30
0.0
 10
13.5454208651
 20
11.6689352277
 30
0.0
 10
13.5435392721
 20
11.6679935385
 30
0.0
 10
13.5417040707
 20
11.6667893621
 30
0.0
 10
13.5402909606
 20
11.6657097934
 30
0.0
 10
13.5388772134
 20
11.664477497
 30
0.0
 10
13.5374634122
 20
11.6630934162
 30
0.0
 10
13.536050658
 20
11.6615587165
 30
0.0
 10
13.534121251
 20
11.6592549429
 30
0.0
 10
13.531728231
 20
11.6559908254
 30
0.0
 10
13.5289470073
 20
11.6515913819
 30
0.0
 10
13.5261964031
 20
11.646629248
 30
0.0
 10
13.5234852445
 20
11.6411202899
 30
0.0
 10
13.5208223151
 20
11.6350819074
 30
0.0
 10
13.5182164274
 20
11.6285335866
 30
0.0
 10
13.5156762025
 20
11.6214966193
 30
0.0
 10
13.5132100966
 20
11.6139940168
 30
0.0
 10
13.5108263479
 20
11.6060503858
 30
0.0
 10
13.5085329038
 20
11.5976918583
 30
0.0
 10
13.5063373917
 20
11.5889459835
 30
0.0
 10
13.5042471445
 20
11.5798416144
 30
0.0
 10
13.5022691018
 20
11.5704087855
 30
0.0
 10
13.4997617492
 20
11.5572860778
 30
0.0
 10
13.4969659389
 20
11.5402937563
 30
0.0
 10
13.4941868108
 20
11.5193404466
 30
0.0
 10
13.4919839735
 20
11.4978750521
 30
0.0
 10
13.490386715
 20
11.4761810308
 30
0.0
 10
13.4894161801
 20
11.4545448274
 30
0.0
 10
13.4891925334
 20
11.440168911
 30
0.0
 10
13.4891925334
 20
11.4330420516
 30
0.0
  0
SPLINE
  5
2C7
100
AcDbEntity
  8
0
100
AcDbSpline
 62
7
  6
CONTINUOUS
 70
0
 71
3
 72
38
 73
34
 74
0
 42
0.0000001
 43
0.0000001
 44
0.0000000001
 40
0.0
 40
0.0
 40
0.0
 40
0.0
 40
0.005377144
 40
0.0108203686
 40
0.0163932472
 40
0.022154628
 40
0.0344350041
 40
0.0410508834
 40
0.0480254643
 40
0.0553856053
 40
0.0631527351
 40
0.0713439868
 40
0.0799727637
 40
0.098576376
 40
0.119017014
 40
0.1413100766
 40
0.1654456344
 40
0.1913942003
 40
0.2191104633
 40
0.2485357714
 40
0.2796004217
 40
0.3122252291
 40
0.3463225051
 40
0.381797094
 40
0.4185474019
 40
0.4564660371
 40
0.4954403317
 40
0.5760808646
 40
0.6594913372
 40
0.7446459025
 40
0.8304909307
 40
0.9159610815
 40
1.0
 40
1.0
 40
1.0
 40
1.0
 10
12.3867959349
 20
5.4376298064
 30
0.0
 10
12.3863410232
 20
5.4376613615
 30
0.0
 10
12.3854210723
 20
5.4376718726
 30
0.0
 10
12.3840354413
 20
5.4375289289
 30
0.0
 10
12.3826419996
 20
5.4372276918
 30
0.0
 10
12.380736158
 20
5.4366030657
 30
0.0
 10
12.378854565
 20
5.4356613765
 30
0.0
 10
12.3770193637
 20
5.4344572001
 30
0.0
 10
12.3756062535
 20
5.4333776314
 30
0.0
 10
12.3741925063
 20
5.432145335
 30
0.0
 10
12.3727787052
 20
5.4307612542
 30
0.0
 10
12.371365951
 20
5.4292265544
 30
0.0
 10
12.3694365439
 20
5.4269227809
 30
0.0
 10
12.3670435239
 20
5.4236586633
 30
0.0
 10
12.3642623002
 20
5.4192592199
 30
0.0
 10
12.361511696
 20
5.414297086
 30
0.0
 10
12.3588005375
 20
5.4087881279
 30
0.0
 10
12.3561376081
 20
5.4027497454
 30
0.0
 10
12.3535317203
 20
5.3962014246
 30
0.0
 10
12.3509914955
 20
5.3891644573
 30
0.0
 10
12.3485253896
 20
5.3816618548
 30
0.0
 10
12.3461416408
 20
5.3737182238
 30
0.0
 10
12.3438481967
 20
5.3653596963
 30
0.0
 10
12.3416526846
 20
5.3566138215
 30
0.0
 10
12.3395624375
 20
5.3475094524
 30
0.0
 10
12.3375843947
 20
5.3380766235
 30
0.0
 10
12.3350770421
 20
5.3249539158
 30
0.0
 10
12.3322812319
 20
5.3079615943
 30
0.0
 10
12.3295021037
 20
5.2870082846
 30
0.0
 10
12.3272992664
 20
5.2655428901
 30
0.0
 10
12.325702008
 20
5.2438488688
 30
0.0
 10
12.324731473
 20
5.2222126654
 30
0.0
 10
12.3245078263
 20
5.207836749
 30
0.0
 10
12.3245078263
 20
5.2007098896
 30
0.0
  0
SPLINE
  5
2C8
100
AcDbEntity
  8
0
100
AcDbSpline
 62
7
  6
CONTINUOUS
 70
0
 71
3
 72
18
 73
14
 74
0
 42
0.0000001
 43
0.0000001
 44
0.0000000001
 40
0.0
 40
0.0
 40
0.0
 40
0.0
 40
0.0484997933
 40
0.1003538122
 40
0.1552043333
 40
0.2127074984
 40
0.2725359974
 40
0.334378806
 40
0.4629086051
 40
0.5960218297
 40
0.7314547477
 40
0.8668929753
 40
1.0
 40
1.0
 40
1.0
 40
1.0
 10
10.1236733426
 20
9.5286370014
 30
0.0
 10
10.1217427705
 20
9.5258022445
 30
0.0
 10
10.1178330913
 20
9.5198784138
 30
0.0
 10
10.1120393999
 20
9.5105552182
 30
0.0
 10
10.106183851
 20
9.5005257709
 30
0.0
 10
10.1003443768
 20
9.4898394658
 30
0.0
 10
10.09459802
 20
9.478544626
 30
0.0
 10
10.0870650585
 20
9.4625325401
 30
0.0
 10
10.078351519
 20
9.441360562
 30
0.0
 10
10.0695546495
 20
9.4146665331
 30
0.0
 10
10.0628063592
 20
9.3868710275
 30
0.0
 10
10.0585395229
 20
9.35858488
 30
0.0
 10
10.0575307815
 20
9.3395826149
 30
0.0
 10
10.0575307815
 20
9.3301698044
 30
0.0
  0
SPLINE
  5
2C9
100
AcDbEntity
  8
0
100
AcDbSpline
 62
7
  6
CONTINUOUS
 70
0
 71
3
 72
15
 73
11
 74
0
 42
0.0000001
 43
0.0000001
 44
0.0000000001
 40
0.0
 40
0.0
 40
0.0
 40
0.0
 40
0.123317125
 40
0.2468171892
 40
0.3706750004
 40
0.49504957
 40
0.620077358
 40
0.7458670408
 40
0.8724927714
 40
1.0
 40
1.0
 40
1.0
 40
1.0
 10
11.1666274403
 20
9.6672619023
 30
0.0
 10
11.1707070531
 20
9.6712025388
 30
0.0
 10
11.1793041572
 20
9.6786561895
 30
0.0
 10
11.1933354301
 20
9.6883961208
 30
0.0
 10
11.2083704245
 20
9.6966067352
 30
0.0
 10
11.2242552088
 20
9.7032037151
 30
0.0
 10
11.2408295824
 20
9.7081214825
 30
0.0
 10
11.2579265822
 20
9.7113108851
 30
0.0
 10
11.2753716749
 20
9.7127409019
 30
0.0
 10
11.2870816712
 20
9.7125124994
 30
0.0
 10
11.2929323684
 20
9.7121067521
 30
0.0
  0
SPLINE
  5
2CA
100
AcDbEntity
  8
0
100
AcDbSpline
 62
7
  6
CONTINUOUS
 70
0
 71
3
 72
15
 73
11
 74
0
 42
0.0000001
 43
0.0000001
 44
0.0000000001
 40
0.0
 40
0.0
 40
0.0
 40
0.0
 40
0.123317125
 40
0.2468171892
 40
0.3706750004
 40
0.49504957
 40
0.620077358
 40
0.7458670408
 40
0.8724927714
 40
1.0
 40
1.0
 40
1.0
 40
1.0
 10
11.1666274403
 20
8.7162113968
 30
0.0
 10
11.1707070531
 20
8.7201520333
 30
0.0
 10
11.1793041572
 20
8.727605684
 30
0.0
 10
11.1933354301
 20
8.7373456153
 30
0.0
 10
11.2083704245
 20
8.7455562297
 30
0.0
 10
11.2242552088
 20
8.7521532096
 30
0.0
 10
11.2408295824
 20
8.757070977
 30
0.0
 10
11.2579265822
 20
8.7602603795
 30
0.0
 10
11.2753716749
 20
8.7616903964
 30
0.0
 10
11.2870816712
 20
8.7614619938
 30
0.0
 10
11.2929323684
 20
8.7610562466
 30
0.0
  0
SPLINE
  5
2CB
100
AcDbEntity
  8
0
100
AcDbSpline
 62
7
  6
CONTINUOUS
 70
0
 71
3
 72
15
 73
11
 74
0
 42
0.0000001
 43
0.0000001
 44
0.0000000001
 40
0.0
 40
0.0
 40
0.0
 40
0.0
 40
0.123317125
 40
0.2468171892
 40
0.3706750004
 40
0.49504957
 40
0.620077358
 40
0.7458670408
 40
0.8724927714
 40
1.0
 40
1.0
 40
1.0
 40
1.0
 10
11.1666274403
 20
7.0862114683
 30
0.0
 10
11.1707070531
 20
7.0901521048
 30
0.0
 10
11.1793041572
 20
7.0976057555
 30
0.0
 10
11.1933354301
 20
7.1073456868
 30
0.0
 10
11.2083704245
 20
7.1155563013
 30
0.0
 10
11.2242552088
 20
7.1221532811
 30
0.0
 10
11.2408295824
 20
7.1270710485
 30
0.0
 10
11.2579265822
 20
7.1302604511
 30
0.0
 10
11.2753716749
 20
7.1316904679
 30
0.0
 10
11.2870816712
 20
7.1314620654
 30
0.0
 10
11.2929323684
 20
7.1310563182
 30
0.0
  0
SPLINE
  5
2CC
100
AcDbEntity
  8
0
100
AcDbSpline
 62
7
  6
CONTINUOUS
 70
0
 71
3
 72
15
 73
11
 74
0
 42
0.0000001
 43
0.0000001
 44
0.0000000001
 40
0.0
 40
0.0
 40
0.0
 40
0.0
 40
0.123317125
 40
0.2468171892
 40
0.3706750004
 40
0.49504957
 40
0.620077358
 40
0.7458670408
 40
0.8724927714
 40
1.0
 40
1.0
 40
1.0
 40
1.0
 10
11.1666274403
 20
6.1351608592
 30
0.0
 10
11.1707070531
 20
6.1391014957
 30
0.0
 10
11.1793041572
 20
6.1465551464
 30
0.0
 10
11.1933354301
 20
6.1562950776
 30
0.0
 10
11.2083704245
 20
6.1645056921
 30
0.0
 10
11.2242552088
 20
6.171102672
 30
0.0
 10
11.2408295824
 20
6.1760204394
 30
0.0
 10
11.2579265822
 20
6.1792098419
 30
0.0
 10
11.2753716749
 20
6.1806398587
 30
0.0
 10
11.2870816712
 20
6.1804114562
 30
0.0
 10
11.2929323684
 20
6.180005709
 30
0.0
  0
SPLINE
  5
2CD
100
AcDbEntity
  8
0
100
AcDbSpline
 62
7
  6
CONTINUOUS
 70
0
 71
3
 72
15
 73
11
 74
0
 42
0.0000001
 43
0.0000001
 44
0.0000000001
 40
0.0
 40
0.0
 40
0.0
 40
0.0
 40
0.123317125
 40
0.2468171892
 40
0.3706750004
 40
0.49504957
 40
0.620077358
 40
0.7458670408
 40
0.8724927714
 40
1.0
 40
1.0
 40
1.0
 40
1.0
 10
9.2106275262
 20
9.8029109571
 30
0.0
 10
9.214707139
 20
9.8068515936
 30
0.0
 10
9.2233042431
 20
9.8143052443
 30
0.0
 10
9.237335516
 20
9.8240451756
 30
0.0
 10
9.2523705104
 20
9.83225579
 30
0.0
 10
9.2682552946
 20
9.8388527699
 30
0.0
 10
9.2848296682
 20
9.8437705373
 30
0.0
 10
9.301926668
 20
9.8469599398
 30
0.0
 10
9.3193717607
 20
9.8483899567
 30
0.0
 10
9.3310817571
 20
9.8481615541
 30
0.0
 10
9.3369324543
 20
9.8477558069
 30
0.0
  0
SPLINE
  5
2CE
100
AcDbEntity
  8
0
100
AcDbSpline
 62
7
  6
CONTINUOUS
 70
0
 71
3
 72
15
 73
11
 74
0
 42
0.0000001
 43
0.0000001
 44
0.0000000001
 40
0.0
 40
0.0
 40
0.0
 40
0.0
 40
0.123317125
 40
0.2468171892
 40
0.3706750004
 40
0.49504957
 40
0.620077358
 40
0.7458670408
 40
0.8724927714
 40
1.0
 40
1.0
 40
1.0
 40
1.0
 10
9.2106275262
 20
8.8518604516
 30
0.0
 10
9.214707139
 20
8.855801088
 30
0.0
 10
9.2233042431
 20
8.8632547387
 30
0.0
 10
9.237335516
 20
8.87299467
 30
0.0
 10
9.2523705104
 20
8.8812052845
 30
0.0
 10
9.2682552946
 20
8.8878022644
 30
0.0
 10
9.2848296682
 20
8.8927200318
 30
0.0
 10
9.301926668
 20
8.8959094343
 30
0.0
 10
9.3193717607
 20
8.8973394511
 30
0.0
 10
9.3310817571
 20
8.8971110486
 30
0.0
 10
9.3369324543
 20
8.8967053014
 30
0.0
  0
SPLINE
  5
2CF
100
AcDbEntity
  8
0
100
AcDbSpline
 62
7
  6
CONTINUOUS
 70
0
 71
3
 72
15
 73
11
 74
0
 42
0.0000001
 43
0.0000001
 44
0.0000000001
 40
0.0
 40
0.0
 40
0.0
 40
0.0
 40
0.123317125
 40
0.2468171892
 40
0.3706750004
 40
0.49504957
 40
0.620077358
 40
0.7458670408
 40
0.8724927714
 40
1.0
 40
1.0
 40
1.0
 40
1.0
 10
9.2106275262
 20
7.2218605231
 30
0.0
 10
9.214707139
 20
7.2258011596
 30
0.0
 10
9.2233042431
 20
7.2332548103
 30
0.0
 10
9.237335516
 20
7.2429947416
 30
0.0
 10
9.2523705104
 20
7.251205356
 30
0.0
 10
9.2682552946
 20
7.2578023359
 30
0.0
 10
9.2848296682
 20
7.2627201033
 30
0.0
 10
9.301926668
 20
7.2659095058
 30
0.0
 10
9.3193717607
 20
7.2673395227
 30
0.0
 10
9.3310817571
 20
7.2671111202
 30
0.0
 10
9.3369324543
 20
7.2667053729
 30
0.0
  0
SPLINE
  5
2D0
100
AcDbEntity
  8
0
100
AcDbSpline
 62
7
  6
CONTINUOUS
 70
0
 71
3
 72
15
 73
11
 74
0
 42
0.0000001
 43
0.0000001
 44
0.0000000001
 40
0.0
 40
0.0
 40
0.0
 40
0.0
 40
0.123317125
 40
0.2468171892
 40
0.3706750004
 40
0.49504957
 40
0.620077358
 40
0.7458670408
 40
0.8724927714
 40
1.0
 40
1.0
 40
1.0
 40
1.0
 10
9.2106275262
 20
6.270809914
 30
0.0
 10
9.214707139
 20
6.2747505504
 30
0.0
 10
9.2233042431
 20
6.2822042011
 30
0.0
 10
9.237335516
 20
6.2919441324
 30
0.0
 10
9.2523705104
 20
6.3001547469
 30
0.0
 10
9.2682552946
 20
6.3067517267
 30
0.0
 10
9.2848296682
 20
6.3116694942
 30
0.0
 10
9.301926668
 20
6.3148588967
 30
0.0
 10
9.3193717607
 20
6.3162889135
 30
0.0
 10
9.3310817571
 20
6.316060511
 30
0.0
 10
9.3369324543
 20
6.3156547638
 30
0.0
  0
SPLINE
  5
2D1
100
AcDbEntity
  8
0
100
AcDbSpline
 62
7
  6
CONTINUOUS
 70
0
 71
3
 72
39
 73
35
 74
0
 42
0.0000001
 43
0.0000001
 44
0.0000000001
 40
0.0
 40
0.0
 40
0.0
 40
0.0
 40
0.0314026134
 40
0.06300949
 40
0.0948071102
 40
0.1267734453
 40
0.1588809722
 40
0.1910970226
 40
0.2233851132
 40
0.2557062446
 40
0.2880202663
 40
0.3202872751
 40
0.3524690067
 40
0.384530184
 40
0.4164397927
 40
0.448172249
 40
0.4797084083
 40
0.5110363809
 40
0.5421521201
 40
0.5730597413
 40
0.6037715194
 40
0.6343075569
 40
0.6646951118
 40
0.6949675896
 40
0.7251632184
 40
0.755323478
 40
0.7854913548
 40
0.8157095105
 40
0.8460184691
 40
0.8764549222
 40
0.9070502335
 40
0.9378293335
 40
0.9688091139
 40
1.0
 40
1.0
 40
1.0
 40
1.0
 10
11.2864101339
 20
7.1490976553
 30
0.0
 10
11.2929728492
 20
7.1486425294
 30
0.0
 10
11.3061048309
 20
7.147082575
 30
0.0
 10
11.3255381599
 20
7.1428457402
 30
0.0
 10
11.3445948082
 20
7.1367452016
 30
0.0
 10
11.3630894009
 20
7.1288400795
 30
0.0
 10
11.3808450485
 20
7.1192067371
 30
0.0
 10
11.397691257
 20
7.1079380229
 30
0.0
 10
11.4134664821
 20
7.0951423482
 30
0.0
 10
11.4280193538
 20
7.080942647
 30
0.0
 10
11.4412101696
 20
7.0654752237
 30
0.0
 10
11.4529122788
 20
7.0488885403
 30
0.0
 10
11.4630132053
 20
7.0313417341
 30
0.0
 10
11.4714157035
 20
7.0130031315
 30
0.0
 10
11.4780386784
 20
6.9940486801
 30
0.0
 10
11.4828180772
 20
6.9746603356
 30
0.0
 10
11.4857074116
 20
6.9550243071
 30
0.0
 10
11.4866782239
 20
6.9353293254
 30
0.0
 10
11.4857203987
 20
6.9157648821
 30
0.0
 10
11.4828424354
 20
6.8965194305
 30
0.0
 10
11.4780713164
 20
6.8777785781
 30
0.0
 10
11.471452323
 20
6.8597233093
 30
0.0
 10
11.4630486798
 20
6.8425282233
 30
0.0
 10
11.4529411198
 20
6.826359733
 30
0.0
 10
11.4412270308
 20
6.8113744179
 30
0.0
 10
11.4280195309
 20
6.7977174331
 30
0.0
 10
11.4134463621
 20
6.7855210267
 30
0.0
 10
11.3976486683
 20
6.7749030898
 30
0.0
 10
11.3807794748
 20
6.7659660531
 30
0.0
 10
11.3630020563
 20
6.7587959099
 30
0.0
 10
11.344488542
 20
6.7534613619
 30
0.0
 10
11.325417291
 20
6.7500132966
 30
0.0
 10
11.3059746761
 20
6.7484838616
 30
0.0
 10
11.2929286011
 20
6.7487522822
 30
0.0
 10
11.2864101339
 20
6.7492043395
 30
0.0
  0
SPLINE
  5
2D2
100
AcDbEntity
  8
0
100
AcDbSpline
 62
7
  6
CONTINUOUS
 70
0
 71
3
 72
39
 73
35
 74
0
 42
0.0000001
 43
0.0000001
 44
0.0000000001
 40
0.0
 40
0.0
 40
0.0
 40
0.0
 40
0.0314026134
 40
0.06300949
 40
0.0948071102
 40
0.1267734453
 40
0.1588809722
 40
0.1910970226
 40
0.2233851132
 40
0.2557062446
 40
0.2880202663
 40
0.3202872751
 40
0.3524690067
 40
0.384530184
 40
0.4164397927
 40
0.448172249
 40
0.4797084083
 40
0.5110363809
 40
0.5421521201
 40
0.5730597413
 40
0.6037715194
 40
0.6343075569
 40
0.6646951118
 40
0.6949675896
 40
0.7251632184
 40
0.755323478
 40
0.7854913548
 40
0.8157095105
 40
0.8460184691
 40
0.8764549222
 40
0.9070502335
 40
0.9378293335
 40
0.9688091139
 40
1.0
 40
1.0
 40
1.0
 40
1.0
 10
11.2864101339
 20
5.7981537303
 30
0.0
 10
11.2798474185
 20
5.7986088562
 30
0.0
 10
11.2667154368
 20
5.8001688105
 30
0.0
 10
11.2472821078
 20
5.8044056453
 30
0.0
 10
11.2282254595
 20
5.810506184
 30
0.0
 10
11.2097308668
 20
5.8184113061
 30
0.0
 10
11.1919752193
 20
5.8280446485
 30
0.0
 10
11.1751290107
 20
5.8393133627
 30
0.0
 10
11.1593537856
 20
5.8521090374
 30
0.0
 10
11.1448009139
 20
5.8663087386
 30
0.0
 10
11.1316100981
 20
5.8817761619
 30
0.0
 10
11.1199079889
 20
5.8983628452
 30
0.0
 10
11.1098070624
 20
5.9159096515
 30
0.0
 10
11.1014045642
 20
5.9342482541
 30
0.0
 10
11.0947815893
 20
5.9532027055
 30
0.0
 10
11.0900021905
 20
5.97259105
 30
0.0
 10
11.0871128561
 20
5.9922270784
 30
0.0
 10
11.0861420438
 20
6.0119220602
 30
0.0
 10
11.087099869
 20
6.0314865034
 30
0.0
 10
11.0899778323
 20
6.0507319551
 30
0.0
 10
11.0947489513
 20
6.0694728075
 30
0.0
 10
11.1013679447
 20
6.0875280762
 30
0.0
 10
11.1097715879
 20
6.1047231623
 30
0.0
 10
11.119879148
 20
6.1208916525
 30
0.0
 10
11.1315932369
 20
6.1358769677
 30
0.0
 10
11.1448007368
 20
6.1495339525
 30
0.0
 10
11.1593739056
 20
6.1617303589
 30
0.0
 10
11.1751715994
 20
6.1723482958
 30
0.0
 10
11.1920407929
 20
6.1812853324
 30
0.0
 10
11.2098182114
 20
6.1884554757
 30
0.0
 10
11.2283317257
 20
6.1937900236
 30
0.0
 10
11.2474029767
 20
6.197238089
 30
0.0
 10
11.2668455916
 20
6.198767524
 30
0.0
 10
11.2798916666
 20
6.1984991033
 30
0.0
 10
11.2864101339
 20
6.1980470461
 30
0.0
  0
SPLINE
  5
2D3
100
AcDbEntity
  8
0
100
AcDbSpline
 62
7
  6
CONTINUOUS
 70
0
 71
3
 72
15
 73
11
 74
0
 42
0.0000001
 43
0.0000001
 44
0.0000000001
 40
0.0
 40
0.0
 40
0.0
 40
0.0
 40
0.1273483316
 40
0.2538605887
 40
0.3795878789
 40
0.5046051138
 40
0.6290174418
 40
0.7529533759
 40
0.8765605771
 40
1.0
 40
1.0
 40
1.0
 40
1.0
 10
9.1613271287
 20
6.1522277088
 30
0.0
 10
9.1613271287
 20
6.1578267875
 30
0.0
 10
9.1618617288
 20
6.1689959262
 30
0.0
 10
9.1642794018
 20
6.1855348149
 30
0.0
 10
9.168288309
 20
6.2016581422
 30
0.0
 10
9.1738522324
 20
6.2172151266
 30
0.0
 10
9.1809201415
 20
6.2320622941
 30
0.0
 10
9.1894276126
 20
6.2460625352
 30
0.0
 10
9.199294616
 20
6.2590847007
 30
0.0
 10
9.2067239912
 20
6.2670393571
 30
0.0
 10
9.2106275262
 20
6.270809914
 30
0.0
  0
SPLINE
  5
2D4
100
AcDbEntity
  8
0
100
AcDbSpline
 62
7
  6
CONTINUOUS
 70
0
 71
3
 72
23
 73
19
 74
0
 42
0.0000001
 43
0.0000001
 44
0.0000000001
 40
0.0
 40
0.0
 40
0.0
 40
0.0
 40
0.0614488802
 40
0.1232974642
 40
0.1855192966
 40
0.2480712718
 40
0.3108995321
 40
0.3739401523
 40
0.437121741
 40
0.5003679845
 40
0.5636003156
 40
0.6267406512
 40
0.6897141167
 40
0.7524516793
 40
0.8148926324
 40
0.8769871104
 40
0.9386966628
 40
1.0
 40
1.0
 40
1.0
 40
1.0
 10
9.3369324543
 20
5.9644441125
 30
0.0
 10
9.3311686782
 20
5.9648438318
 30
0.0
 10
9.3196353725
 20
5.9662138786
 30
0.0
 10
9.3025678401
 20
5.9699349248
 30
0.0
 10
9.2858311316
 20
5.9752927892
 30
0.0
 10
9.2695880545
 20
5.9822355486
 30
0.0
 10
9.2539939641
 20
5.9906961363
 30
0.0
 10
9.2391985983
 20
6.000593007
 30
0.0
 10
9.2253438354
 20
6.0118309474
 30
0.0
 10
9.2125626176
 20
6.0243019895
 30
0.0
 10
9.2009776402
 20
6.0378864216
 30
0.0
 10
9.1907001357
 20
6.0524538585
 30
0.0
 10
9.1818288867
 20
6.0678645245
 30
0.0
 10
9.1744493048
 20
6.0839706275
 30
0.0
 10
9.16863259
 20
6.10061749
 30
0.0
 10
9.1644350741
 20
6.1176458452
 30
0.0
 10
9.1618974252
 20
6.134890021
 30
0.0
 10
9.1613271287
 20
6.1464637735
 30
0.0
 10
9.1613271287
 20
6.1522277088
 30
0.0
  0
SPLINE
  5
2D5
100
AcDbEntity
  8
0
100
AcDbSpline
 62
7
  6
CONTINUOUS
 70
0
 71
3
 72
39
 73
35
 74
0
 42
0.0000001
 43
0.0000001
 44
0.0000000001
 40
0.0
 40
0.0
 40
0.0
 40
0.0
 40
0.0314026134
 40
0.06300949
 40
0.0948071102
 40
0.1267734453
 40
0.1588809722
 40
0.1910970226
 40
0.2233851132
 40
0.2557062446
 40
0.2880202663
 40
0.3202872751
 40
0.3524690067
 40
0.384530184
 40
0.4164397927
 40
0.448172249
 40
0.4797084083
 40
0.5110363809
 40
0.5421521201
 40
0.5730597413
 40
0.6037715194
 40
0.6343075569
 40
0.6646951118
 40
0.6949675896
 40
0.7251632184
 40
0.755323478
 40
0.7854913548
 40
0.8157095105
 40
0.8460184691
 40
0.8764549222
 40
0.9070502335
 40
0.9378293335
 40
0.9688091139
 40
1.0
 40
1.0
 40
1.0
 40
1.0
 10
11.2864101339
 20
6.1980470461
 30
0.0
 10
11.2929728492
 20
6.1975919202
 30
0.0
 10
11.3061048309
 20
6.1960319659
 30
0.0
 10
11.3255381599
 20
6.1917951311
 30
0.0
 10
11.3445948082
 20
6.1856945924
 30
0.0
 10
11.3630894009
 20
6.1777894703
 30
0.0
 10
11.3808450485
 20
6.1681561279
 30
0.0
 10
11.397691257
 20
6.1568874137
 30
0.0
 10
11.4134664821
 20
6.144091739
 30
0.0
 10
11.4280193538
 20
6.1298920378
 30
0.0
 10
11.4412101696
 20
6.1144246145
 30
0.0
 10
11.4529122788
 20
6.0978379312
 30
0.0
 10
11.4630132053
 20
6.0802911249
 30
0.0
 10
11.4714157035
 20
6.0619525224
 30
0.0
 10
11.4780386784
 20
6.0429980709
 30
0.0
 10
11.4828180772
 20
6.0236097264
 30
0.0
 10
11.4857074116
 20
6.003973698
 30
0.0
 10
11.4866782239
 20
5.9842787162
 30
0.0
 10
11.4857203987
 20
5.964714273
 30
0.0
 10
11.4828424354
 20
5.9454688213
 30
0.0
 10
11.4780713164
 20
5.9267279689
 30
0.0
 10
11.471452323
 20
5.9086727002
 30
0.0
 10
11.4630486798
 20
5.8914776141
 30
0.0
 10
11.4529411198
 20
5.8753091239
 30
0.0
 10
11.4412270308
 20
5.8603238088
 30
0.0
 10
11.4280195309
 20
5.8466668239
 30
0.0
 10
11.4134463621
 20
5.8344704176
 30
0.0
 10
11.3976486683
 20
5.8238524806
 30
0.0
 10
11.3807794748
 20
5.814915444
 30
0.0
 10
11.3630020563
 20
5.8077453008
 30
0.0
 10
11.344488542
 20
5.8024107528
 30
0.0
 10
11.325417291
 20
5.7989626874
 30
0.0
 10
11.3059746761
 20
5.7974332524
 30
0.0
 10
11.2929286011
 20
5.7977016731
 30
0.0
 10
11.2864101339
 20
5.7981537303
 30
0.0
  0
SPLINE
  5
2D6
100
AcDbEntity
  8
0
100
AcDbSpline
 62
7
  6
CONTINUOUS
 70
0
 71
3
 72
39
 73
35
 74
0
 42
0.0000001
 43
0.0000001
 44
0.0000000001
 40
0.0
 40
0.0
 40
0.0
 40
0.0
 40
0.0314026134
 40
0.06300949
 40
0.0948071102
 40
0.1267734453
 40
0.1588809722
 40
0.1910970226
 40
0.2233851132
 40
0.2557062446
 40
0.2880202663
 40
0.3202872751
 40
0.3524690067
 40
0.384530184
 40
0.4164397927
 40
0.448172249
 40
0.4797084083
 40
0.5110363809
 40
0.5421521201
 40
0.5730597413
 40
0.6037715194
 40
0.6343075569
 40
0.6646951118
 40
0.6949675896
 40
0.7251632184
 40
0.755323478
 40
0.7854913548
 40
0.8157095105
 40
0.8460184691
 40
0.8764549222
 40
0.9070502335
 40
0.9378293335
 40
0.9688091139
 40
1.0
 40
1.0
 40
1.0
 40
1.0
 10
9.3304102197
 20
9.4659038282
 30
0.0
 10
9.3238475044
 20
9.4663589541
 30
0.0
 10
9.3107155226
 20
9.4679189084
 30
0.0
 10
9.2912821936
 20
9.4721557432
 30
0.0
 10
9.2722255453
 20
9.4782562819
 30
0.0
 10
9.2537309527
 20
9.486161404
 30
0.0
 10
9.2359753051
 20
9.4957947464
 30
0.0
 10
9.2191290965
 20
9.5070634606
 30
0.0
 10
9.2033538715
 20
9.5198591353
 30
0.0
 10
9.1888009998
 20
9.5340588365
 30
0.0
 10
9.1756101839
 20
9.5495262598
 30
0.0
 10
9.1639080748
 20
9.5661129431
 30
0.0
 10
9.1538071482
 20
9.5836597494
 30
0.0
 10
9.1454046501
 20
9.601998352
 30
0.0
 10
9.1387816752
 20
9.6209528034
 30
0.0
 10
9.1340022764
 20
9.6403411479
 30
0.0
 10
9.131112942
 20
9.6599771763
 30
0.0
 10
9.1301421297
 20
9.6796721581
 30
0.0
 10
9.1310999549
 20
9.6992366013
 30
0.0
 10
9.1339779182
 20
9.718482053
 30
0.0
 10
9.1387490372
 20
9.7372229054
 30
0.0
 10
9.1453680306
 20
9.7552781741
 30
0.0
 10
9.1537716738
 20
9.7724732602
 30
0.0
 10
9.1638792338
 20
9.7886417504
 30
0.0
 10
9.1755933228
 20
9.8036270656
 30
0.0
 10
9.1888008227
 20
9.8172840504
 30
0.0
 10
9.2033739914
 20
9.8294804568
 30
0.0
 10
9.2191716852
 20
9.8400983937
 30
0.0
 10
9.2360408788
 20
9.8490354304
 30
0.0
 10
9.2538182973
 20
9.8562055736
 30
0.0
 10
9.2723318116
 20
9.8615401215
 30
0.0
 10
9.2914030626
 20
9.8649881869
 30
0.0
 10
9.3108456775
 20
9.8665176219
 30
0.0
 10
9.3238917525
 20
9.8662492012
 30
0.0
 10
9.3304102197
 20
9.865797144
 30
0.0
  0
SPLINE
  5
2D7
100
AcDbEntity
  8
0
100
AcDbSpline
 62
7
  6
CONTINUOUS
 70
0
 71
3
 72
39
 73
35
 74
0
 42
0.0000001
 43
0.0000001
 44
0.0000000001
 40
0.0
 40
0.0
 40
0.0
 40
0.0
 40
0.0314026134
 40
0.06300949
 40
0.0948071102
 40
0.1267734453
 40
0.1588809722
 40
0.1910970226
 40
0.2233851132
 40
0.2557062446
 40
0.2880202663
 40
0.3202872751
 40
0.3524690067
 40
0.384530184
 40
0.4164397927
 40
0.448172249
 40
0.4797084083
 40
0.5110363809
 40
0.5421521201
 40
0.5730597413
 40
0.6037715194
 40
0.6343075569
 40
0.6646951118
 40
0.6949675896
 40
0.7251632184
 40
0.755323478
 40
0.7854913548
 40
0.8157095105
 40
0.8460184691
 40
0.8764549222
 40
0.9070502335
 40
0.9378293335
 40
0.9688091139
 40
1.0
 40
1.0
 40
1.0
 40
1.0
 10
9.3304102197
 20
9.865797144
 30
0.0
 10
9.3369729351
 20
9.8653420182
 30
0.0
 10
9.3501049168
 20
9.8637820638
 30
0.0
 10
9.3695382458
 20
9.859545229
 30
0.0
 10
9.3885948941
 20
9.8534446904
 30
0.0
 10
9.4070894867
 20
9.8455395682
 30
0.0
 10
9.4248451343
 20
9.8359062258
 30
0.0
 10
9.4416913429
 20
9.8246375117
 30
0.0
 10
9.457466568
 20
9.811841837
 30
0.0
 10
9.4720194397
 20
9.7976421357
 30
0.0
 10
9.4852102555
 20
9.7821747124
 30
0.0
 10
9.4969123647
 20
9.7655880291
 30
0.0
 10
9.5070132912
 20
9.7480412229
 30
0.0
 10
9.5154157894
 20
9.7297026203
 30
0.0
 10
9.5220387643
 20
9.7107481688
 30
0.0
 10
9.526818163
 20
9.6913598244
 30
0.0
 10
9.5297074974
 20
9.6717237959
 30
0.0
 10
9.5306783098
 20
9.6520288141
 30
0.0
 10
9.5297204846
 20
9.6324643709
 30
0.0
 10
9.5268425212
 20
9.6132189192
 30
0.0
 10
9.5220714022
 20
9.5944780668
 30
0.0
 10
9.5154524089
 20
9.5764227981
 30
0.0
 10
9.5070487657
 20
9.559227712
 30
0.0
 10
9.4969412056
 20
9.5430592218
 30
0.0
 10
9.4852271166
 20
9.5280739067
 30
0.0
 10
9.4720196168
 20
9.5144169218
 30
0.0
 10
9.457446448
 20
9.5022205155
 30
0.0
 10
9.4416487542
 20
9.4916025785
 30
0.0
 10
9.4247795607
 20
9.4826655419
 30
0.0
 10
9.4070021422
 20
9.4754953987
 30
0.0
 10
9.3884886279
 20
9.4701608507
 30
0.0
 10
9.3694173769
 20
9.4667127853
 30
0.0
 10
9.349974762
 20
9.4651833503
 30
0.0
 10
9.336928687
 20
9.465451771
 30
0.0
 10
9.3304102197
 20
9.4659038282
 30
0.0
  0
SPLINE
  5
2D8
100
AcDbEntity
  8
0
100
AcDbSpline
 62
7
  6
CONTINUOUS
 70
0
 71
3
 72
39
 73
35
 74
0
 42
0.0000001
 43
0.0000001
 44
0.0000000001
 40
0.0
 40
0.0
 40
0.0
 40
0.0
 40
0.0314026134
 40
0.06300949
 40
0.0948071102
 40
0.1267734453
 40
0.1588809722
 40
0.1910970226
 40
0.2233851132
 40
0.2557062446
 40
0.2880202663
 40
0.3202872751
 40
0.3524690067
 40
0.384530184
 40
0.4164397927
 40
0.448172249
 40
0.4797084083
 40
0.5110363809
 40
0.5421521201
 40
0.5730597413
 40
0.6037715194
 40
0.6343075569
 40
0.6646951118
 40
0.6949675896
 40
0.7251632184
 40
0.755323478
 40
0.7854913548
 40
0.8157095105
 40
0.8460184691
 40
0.8764549222
 40
0.9070502335
 40
0.9378293335
 40
0.9688091139
 40
1.0
 40
1.0
 40
1.0
 40
1.0
 10
9.3304102197
 20
8.5148533227
 30
0.0
 10
9.3238475044
 20
8.5153084486
 30
0.0
 10
9.3107155226
 20
8.5168684029
 30
0.0
 10
9.2912821936
 20
8.5211052377
 30
0.0
 10
9.2722255453
 20
8.5272057763
 30
0.0
 10
9.2537309527
 20
8.5351108985
 30
0.0
 10
9.2359753051
 20
8.5447442409
 30
0.0
 10
9.2191290965
 20
8.556012955
 30
0.0
 10
9.2033538715
 20
8.5688086298
 30
0.0
 10
9.1888009998
 20
8.583008331
 30
0.0
 10
9.1756101839
 20
8.5984757543
 30
0.0
 10
9.1639080748
 20
8.6150624376
 30
0.0
 10
9.1538071482
 20
8.6326092439
 30
0.0
 10
9.1454046501
 20
8.6509478464
 30
0.0
 10
9.1387816752
 20
8.6699022979
 30
0.0
 10
9.1340022764
 20
8.6892906424
 30
0.0
 10
9.131112942
 20
8.7089266708
 30
0.0
 10
9.1301421297
 20
8.7286216526
 30
0.0
 10
9.1310999549
 20
8.7481860958
 30
0.0
 10
9.1339779182
 20
8.7674315475
 30
0.0
 10
9.1387490372
 20
8.7861723999
 30
0.0
 10
9.1453680306
 20
8.8042276686
 30
0.0
 10
9.1537716738
 20
8.8214227547
 30
0.0
 10
9.1638792338
 20
8.8375912449
 30
0.0
 10
9.1755933228
 20
8.85257656
 30
0.0
 10
9.1888008227
 20
8.8662335449
 30
0.0
 10
9.2033739914
 20
8.8784299512
 30
0.0
 10
9.2191716852
 20
8.8890478882
 30
0.0
 10
9.2360408788
 20
8.8979849248
 30
0.0
 10
9.2538182973
 20
8.905155068
 30
0.0
 10
9.2723318116
 20
8.910489616
 30
0.0
 10
9.2914030626
 20
8.9139376814
 30
0.0
 10
9.3108456775
 20
8.9154671164
 30
0.0
 10
9.3238917525
 20
8.9151986957
 30
0.0
 10
9.3304102197
 20
8.9147466385
 30
0.0
  0
SPLINE
  5
2D9
100
AcDbEntity
  8
0
100
AcDbSpline
 62
7
  6
CONTINUOUS
 70
0
 71
3
 72
39
 73
35
 74
0
 42
0.0000001
 43
0.0000001
 44
0.0000000001
 40
0.0
 40
0.0
 40
0.0
 40
0.0
 40
0.0314026134
 40
0.06300949
 40
0.0948071102
 40
0.1267734453
 40
0.1588809722
 40
0.1910970226
 40
0.2233851132
 40
0.2557062446
 40
0.2880202663
 40
0.3202872751
 40
0.3524690067
 40
0.384530184
 40
0.4164397927
 40
0.448172249
 40
0.4797084083
 40
0.5110363809
 40
0.5421521201
 40
0.5730597413
 40
0.6037715194
 40
0.6343075569
 40
0.6646951118
 40
0.6949675896
 40
0.7251632184
 40
0.755323478
 40
0.7854913548
 40
0.8157095105
 40
0.8460184691
 40
0.8764549222
 40
0.9070502335
 40
0.9378293335
 40
0.9688091139
 40
1.0
 40
1.0
 40
1.0
 40
1.0
 10
9.3304102197
 20
8.9147466385
 30
0.0
 10
9.3369729351
 20
8.9142915126
 30
0.0
 10
9.3501049168
 20
8.9127315583
 30
0.0
 10
9.3695382458
 20
8.9084947235
 30
0.0
 10
9.3885948941
 20
8.9023941848
 30
0.0
 10
9.4070894867
 20
8.8944890627
 30
0.0
 10
9.4248451343
 20
8.8848557203
 30
0.0
 10
9.4416913429
 20
8.8735870061
 30
0.0
 10
9.457466568
 20
8.8607913314
 30
0.0
 10
9.4720194397
 20
8.8465916302
 30
0.0
 10
9.4852102555
 20
8.8311242069
 30
0.0
 10
9.4969123647
 20
8.8145375236
 30
0.0
 10
9.5070132912
 20
8.7969907173
 30
0.0
 10
9.5154157894
 20
8.7786521147
 30
0.0
 10
9.5220387643
 20
8.7596976633
 30
0.0
 10
9.526818163
 20
8.7403093188
 30
0.0
 10
9.5297074974
 20
8.7206732904
 30
0.0
 10
9.5306783098
 20
8.7009783086
 30
0.0
 10
9.5297204846
 20
8.6814138654
 30
0.0
 10
9.5268425212
 20
8.6621684137
 30
0.0
 10
9.5220714022
 20
8.6434275613
 30
0.0
 10
9.5154524089
 20
8.6253722926
 30
0.0
 10
9.5070487657
 20
8.6081772065
 30
0.0
 10
9.4969412056
 20
8.5920087163
 30
0.0
 10
9.4852271166
 20
8.5770234011
 30
0.0
 10
9.4720196168
 20
8.5633664163
 30
0.0
 10
9.457446448
 20
8.5511700099
 30
0.0
 10
9.4416487542
 20
8.540552073
 30
0.0
 10
9.4247795607
 20
8.5316150363
 30
0.0
 10
9.4070021422
 20
8.5244448931
 30
0.0
 10
9.3884886279
 20
8.5191103452
 30
0.0
 10
9.3694173769
 20
8.5156622798
 30
0.0
 10
9.349974762
 20
8.5141328448
 30
0.0
 10
9.336928687
 20
8.5144012655
 30
0.0
 10
9.3304102197
 20
8.5148533227
 30
0.0
  0
SPLINE
  5
2DA
100
AcDbEntity
  8
0
100
AcDbSpline
 62
7
  6
CONTINUOUS
 70
0
 71
3
 72
39
 73
35
 74
0
 42
0.0000001
 43
0.0000001
 44
0.0000000001
 40
0.0
 40
0.0
 40
0.0
 40
0.0
 40
0.0314026134
 40
0.06300949
 40
0.0948071102
 40
0.1267734453
 40
0.1588809722
 40
0.1910970226
 40
0.2233851132
 40
0.2557062446
 40
0.2880202663
 40
0.3202872751
 40
0.3524690067
 40
0.384530184
 40
0.4164397927
 40
0.448172249
 40
0.4797084083
 40
0.5110363809
 40
0.5421521201
 40
0.5730597413
 40
0.6037715194
 40
0.6343075569
 40
0.6646951118
 40
0.6949675896
 40
0.7251632184
 40
0.755323478
 40
0.7854913548
 40
0.8157095105
 40
0.8460184691
 40
0.8764549222
 40
0.9070502335
 40
0.9378293335
 40
0.9688091139
 40
1.0
 40
1.0
 40
1.0
 40
1.0
 10
9.3304102197
 20
6.8848533943
 30
0.0
 10
9.3238475044
 20
6.8853085201
 30
0.0
 10
9.3107155226
 20
6.8868684745
 30
0.0
 10
9.2912821936
 20
6.8911053093
 30
0.0
 10
9.2722255453
 20
6.8972058479
 30
0.0
 10
9.2537309527
 20
6.90511097
 30
0.0
 10
9.2359753051
 20
6.9147443124
 30
0.0
 10
9.2191290965
 20
6.9260130266
 30
0.0
 10
9.2033538715
 20
6.9388087013
 30
0.0
 10
9.1888009998
 20
6.9530084025
 30
0.0
 10
9.1756101839
 20
6.9684758258
 30
0.0
 10
9.1639080748
 20
6.9850625092
 30
0.0
 10
9.1538071482
 20
7.0026093154
 30
0.0
 10
9.1454046501
 20
7.020947918
 30
0.0
 10
9.1387816752
 20
7.0399023694
 30
0.0
 10
9.1340022764
 20
7.0592907139
 30
0.0
 10
9.131112942
 20
7.0789267424
 30
0.0
 10
9.1301421297
 20
7.0986217241
 30
0.0
 10
9.1310999549
 20
7.1181861674
 30
0.0
 10
9.1339779182
 20
7.137431619
 30
0.0
 10
9.1387490372
 20
7.1561724715
 30
0.0
 10
9.1453680306
 20
7.1742277402
 30
0.0
 10
9.1537716738
 20
7.1914228262
 30
0.0
 10
9.1638792338
 20
7.2075913165
 30
0.0
 10
9.1755933228
 20
7.2225766316
 30
0.0
 10
9.1888008227
 20
7.2362336164
 30
0.0
 10
9.2033739914
 20
7.2484300228
 30
0.0
 10
9.2191716852
 20
7.2590479598
 30
0.0
 10
9.2360408788
 20
7.2679849964
 30
0.0
 10
9.2538182973
 20
7.2751551396
 30
0.0
 10
9.2723318116
 20
7.2804896876
 30
0.0
 10
9.2914030626
 20
7.2839377529
 30
0.0
 10
9.3108456775
 20
7.2854671879
 30
0.0
 10
9.3238917525
 20
7.2851987673
 30
0.0
 10
9.3304102197
 20
7.28474671
 30
0.0
  0
SPLINE
  5
2DB
100
AcDbEntity
  8
0
100
AcDbSpline
 62
7
  6
CONTINUOUS
 70
0
 71
3
 72
39
 73
35
 74
0
 42
0.0000001
 43
0.0000001
 44
0.0000000001
 40
0.0
 40
0.0
 40
0.0
 40
0.0
 40
0.0314026134
 40
0.06300949
 40
0.0948071102
 40
0.1267734453
 40
0.1588809722
 40
0.1910970226
 40
0.2233851132
 40
0.2557062446
 40
0.2880202663
 40
0.3202872751
 40
0.3524690067
 40
0.384530184
 40
0.4164397927
 40
0.448172249
 40
0.4797084083
 40
0.5110363809
 40
0.5421521201
 40
0.5730597413
 40
0.6037715194
 40
0.6343075569
 40
0.6646951118
 40
0.6949675896
 40
0.7251632184
 40
0.755323478
 40
0.7854913548
 40
0.8157095105
 40
0.8460184691
 40
0.8764549222
 40
0.9070502335
 40
0.9378293335
 40
0.9688091139
 40
1.0
 40
1.0
 40
1.0
 40
1.0
 10
9.3304102197
 20
7.28474671
 30
0.0
 10
9.3369729351
 20
7.2842915842
 30
0.0
 10
9.3501049168
 20
7.2827316298
 30
0.0
 10
9.3695382458
 20
7.278494795
 30
0.0
 10
9.3885948941
 20
7.2723942564
 30
0.0
 10
9.4070894867
 20
7.2644891343
 30
0.0
 10
9.4248451343
 20
7.2548557919
 30
0.0
 10
9.4416913429
 20
7.2435870777
 30
0.0
 10
9.457466568
 20
7.230791403
 30
0.0
 10
9.4720194397
 20
7.2165917018
 30
0.0
 10
9.4852102555
 20
7.2011242785
 30
0.0
 10
9.4969123647
 20
7.1845375951
 30
0.0
 10
9.5070132912
 20
7.1669907889
 30
0.0
 10
9.5154157894
 20
7.1486521863
 30
0.0
 10
9.5220387643
 20
7.1296977349
 30
0.0
 10
9.526818163
 20
7.1103093904
 30
0.0
 10
9.5297074974
 20
7.0906733619
 30
0.0
 10
9.5306783098
 20
7.0709783802
 30
0.0
 10
9.5297204846
 20
7.0514139369
 30
0.0
 10
9.5268425212
 20
7.0321684853
 30
0.0
 10
9.5220714022
 20
7.0134276328
 30
0.0
 10
9.5154524089
 20
6.9953723641
 30
0.0
 10
9.5070487657
 20
6.9781772781
 30
0.0
 10
9.4969412056
 20
6.9620087878
 30
0.0
 10
9.4852271166
 20
6.9470234727
 30
0.0
 10
9.4720196168
 20
6.9333664879
 30
0.0
 10
9.457446448
 20
6.9211700815
 30
0.0
 10
9.4416487542
 20
6.9105521445
 30
0.0
 10
9.4247795607
 20
6.9016151079
 30
0.0
 10
9.4070021422
 20
6.8944449647
 30
0.0
 10
9.3884886279
 20
6.8891104167
 30
0.0
 10
9.3694173769
 20
6.8856623514
 30
0.0
 10
9.349974762
 20
6.8841329164
 30
0.0
 10
9.336928687
 20
6.884401337
 30
0.0
 10
9.3304102197
 20
6.8848533943
 30
0.0
  0
SPLINE
  5
2DC
100
AcDbEntity
  8
0
100
AcDbSpline
 62
7
  6
CONTINUOUS
 70
0
 71
3
 72
39
 73
35
 74
0
 42
0.0000001
 43
0.0000001
 44
0.0000000001
 40
0.0
 40
0.0
 40
0.0
 40
0.0
 40
0.0314026134
 40
0.06300949
 40
0.0948071102
 40
0.1267734453
 40
0.1588809722
 40
0.1910970226
 40
0.2233851132
 40
0.2557062446
 40
0.2880202663
 40
0.3202872751
 40
0.3524690067
 40
0.384530184
 40
0.4164397927
 40
0.448172249
 40
0.4797084083
 40
0.5110363809
 40
0.5421521201
 40
0.5730597413
 40
0.6037715194
 40
0.6343075569
 40
0.6646951118
 40
0.6949675896
 40
0.7251632184
 40
0.755323478
 40
0.7854913548
 40
0.8157095105
 40
0.8460184691
 40
0.8764549222
 40
0.9070502335
 40
0.9378293335
 40
0.9688091139
 40
1.0
 40
1.0
 40
1.0
 40
1.0
 10
9.3304102197
 20
5.9338027851
 30
0.0
 10
9.3238475044
 20
5.9342579109
 30
0.0
 10
9.3107155226
 20
5.9358178653
 30
0.0
 10
9.2912821936
 20
5.9400547001
 30
0.0
 10
9.2722255453
 20
5.9461552387
 30
0.0
 10
9.2537309527
 20
5.9540603609
 30
0.0
 10
9.2359753051
 20
5.9636937033
 30
0.0
 10
9.2191290965
 20
5.9749624174
 30
0.0
 10
9.2033538715
 20
5.9877580921
 30
0.0
 10
9.1888009998
 20
6.0019577934
 30
0.0
 10
9.1756101839
 20
6.0174252167
 30
0.0
 10
9.1639080748
 20
6.0340119
 30
0.0
 10
9.1538071482
 20
6.0515587062
 30
0.0
 10
9.1454046501
 20
6.0698973088
 30
0.0
 10
9.1387816752
 20
6.0888517603
 30
0.0
 10
9.1340022764
 20
6.1082401047
 30
0.0
 10
9.131112942
 20
6.1278761332
 30
0.0
 10
9.1301421297
 20
6.147571115
 30
0.0
 10
9.1310999549
 20
6.1671355582
 30
0.0
 10
9.1339779182
 20
6.1863810099
 30
0.0
 10
9.1387490372
 20
6.2051218623
 30
0.0
 10
9.1453680306
 20
6.223177131
 30
0.0
 10
9.1537716738
 20
6.2403722171
 30
0.0
 10
9.1638792338
 20
6.2565407073
 30
0.0
 10
9.1755933228
 20
6.2715260224
 30
0.0
 10
9.1888008227
 20
6.2851830073
 30
0.0
 10
9.2033739914
 20
6.2973794136
 30
0.0
 10
9.2191716852
 20
6.3079973506
 30
0.0
 10
9.2360408788
 20
6.3169343872
 30
0.0
 10
9.2538182973
 20
6.3241045304
 30
0.0
 10
9.2723318116
 20
6.3294390784
 30
0.0
 10
9.2914030626
 20
6.3328871438
 30
0.0
 10
9.3108456775
 20
6.3344165788
 30
0.0
 10
9.3238917525
 20
6.3341481581
 30
0.0
 10
9.3304102197
 20
6.3336961009
 30
0.0
  0
SPLINE
  5
2DD
100
AcDbEntity
  8
0
100
AcDbSpline
 62
7
  6
CONTINUOUS
 70
0
 71
3
 72
18
 73
14
 74
0
 42
0.0000001
 43
0.0000001
 44
0.0000000001
 40
0.0
 40
0.0
 40
0.0
 40
0.0
 40
0.1581518065
 40
0.3096860736
 40
0.4529060525
 40
0.5863293141
 40
0.7087078924
 40
0.7654235666
 40
0.8190028857
 40
0.8693419237
 40
0.9163455514
 40
0.959925321
 40
1.0
 40
1.0
 40
1.0
 40
1.0
 10
10.1558301737
 20
9.4251197316
 30
0.0
 10
10.1558301737
 20
9.4312776251
 30
0.0
 10
10.1559239538
 20
9.4433360024
 30
0.0
 10
10.1563491645
 20
9.4609662506
 30
0.0
 10
10.1570191365
 20
9.4776252502
 30
0.0
 10
10.1578741107
 20
9.4931387583
 30
0.0
 10
10.1586952562
 20
9.5052796218
 30
0.0
 10
10.1593645592
 20
9.5143143895
 30
0.0
 10
10.1598430107
 20
9.5205506103
 30
0.0
 10
10.1602973485
 20
9.5264094069
 30
0.0
 10
10.1607132742
 20
9.53188067
 30
0.0
 10
10.1610761549
 20
9.5369551138
 30
0.0
 10
10.1612814758
 20
9.5402059367
 30
0.0
 10
10.1613688856
 20
9.5417638582
 30
0.0
  0
SPLINE
  5
2DE
100
AcDbEntity
  8
0
100
AcDbSpline
 62
7
  6
CONTINUOUS
 70
0
 71
3
 72
18
 73
14
 74
0
 42
0.0000001
 43
0.0000001
 44
0.0000000001
 40
0.0
 40
0.0
 40
0.0
 40
0.0
 40
0.0548626421
 40
0.1099292106
 40
0.1654012798
 40
0.2214755109
 40
0.3361334555
 40
0.4553634493
 40
0.5171048472
 40
0.5804364722
 40
0.7123312612
 40
0.8519581829
 40
1.0
 40
1.0
 40
1.0
 40
1.0
 10
9.342400852
 20
11.3053136798
 30
0.0
 10
9.3424008521
 20
11.3063076414
 30
0.0
 10
9.342463927
 20
11.3082998333
 30
0.0
 10
9.3427475627
 20
11.3112848652
 30
0.0
 10
9.3432202559
 20
11.3142682344
 30
0.0
 10
9.3441084393
 20
11.3182712593
 30
0.0
 10
9.3457085663
 20
11.3232884203
 30
0.0
 10
9.3479000627
 20
11.328187143
 30
0.0
 10
9.3500088004
 20
11.3320802879
 30
0.0
 10
9.3524234005
 20
11.3360626574
 30
0.0
 10
9.3559294482
 20
11.3410241487
 30
0.0
 10
9.3608175243
 20
11.346854659
 30
0.0
 10
9.3644530699
 20
11.3505958726
 30
0.0
 10
9.3663821929
 20
11.3524592624
 30
0.0
  0
SPLINE
  5
2DF
100
AcDbEntity
  8
0
100
AcDbSpline
 62
7
  6
CONTINUOUS
 70
0
 71
3
 72
39
 73
35
 74
0
 42
0.0000001
 43
0.0000001
 44
0.0000000001
 40
0.0
 40
0.0
 40
0.0
 40
0.0
 40
0.0314026134
 40
0.06300949
 40
0.0948071102
 40
0.1267734453
 40
0.1588809722
 40
0.1910970226
 40
0.2233851132
 40
0.2557062446
 40
0.2880202663
 40
0.3202872751
 40
0.3524690067
 40
0.384530184
 40
0.4164397927
 40
0.448172249
 40
0.4797084083
 40
0.5110363809
 40
0.5421521201
 40
0.5730597413
 40
0.6037715194
 40
0.6343075569
 40
0.6646951118
 40
0.6949675896
 40
0.7251632184
 40
0.755323478
 40
0.7854913548
 40
0.8157095105
 40
0.8460184691
 40
0.8764549222
 40
0.9070502335
 40
0.9378293335
 40
0.9688091139
 40
1.0
 40
1.0
 40
1.0
 40
1.0
 10
9.3304102197
 20
6.3336961009
 30
0.0
 10
9.3369729351
 20
6.333240975
 30
0.0
 10
9.3501049168
 20
6.3316810207
 30
0.0
 10
9.3695382458
 20
6.3274441859
 30
0.0
 10
9.3885948941
 20
6.3213436472
 30
0.0
 10
9.4070894867
 20
6.3134385251
 30
0.0
 10
9.4248451343
 20
6.3038051827
 30
0.0
 10
9.4416913429
 20
6.2925364685
 30
0.0
 10
9.457466568
 20
6.2797407938
 30
0.0
 10
9.4720194397
 20
6.2655410926
 30
0.0
 10
9.4852102555
 20
6.2500736693
 30
0.0
 10
9.4969123647
 20
6.2334869859
 30
0.0
 10
9.5070132912
 20
6.2159401797
 30
0.0
 10
9.5154157894
 20
6.1976015771
 30
0.0
 10
9.5220387643
 20
6.1786471257
 30
0.0
 10
9.526818163
 20
6.1592587812
 30
0.0
 10
9.5297074974
 20
6.1396227528
 30
0.0
 10
9.5306783098
 20
6.119927771
 30
0.0
 10
9.5297204846
 20
6.1003633278
 30
0.0
 10
9.5268425212
 20
6.0811178761
 30
0.0
 10
9.5220714022
 20
6.0623770237
 30
0.0
 10
9.5154524089
 20
6.044321755
 30
0.0
 10
9.5070487657
 20
6.0271266689
 30
0.0
 10
9.4969412056
 20
6.0109581787
 30
0.0
 10
9.4852271166
 20
5.9959728635
 30
0.0
 10
9.4720196168
 20
5.9823158787
 30
0.0
 10
9.457446448
 20
5.9701194723
 30
0.0
 10
9.4416487542
 20
5.9595015354
 30
0.0
 10
9.4247795607
 20
5.9505644987
 30
0.0
 10
9.4070021422
 20
5.9433943555
 30
0.0
 10
9.3884886279
 20
5.9380598075
 30
0.0
 10
9.3694173769
 20
5.9346117422
 30
0.0
 10
9.349974762
 20
5.9330823072
 30
0.0
 10
9.336928687
 20
5.9333507278
 30
0.0
 10
9.3304102197
 20
5.9338027851
 30
0.0
  0
SPLINE
  5
2E0
100
AcDbEntity
  8
0
100
AcDbSpline
 62
7
  6
CONTINUOUS
 70
0
 71
3
 72
15
 73
11
 74
0
 42
0.0000001
 43
0.0000001
 44
0.0000000001
 40
0.0
 40
0.0
 40
0.0
 40
0.0
 40
0.1273483316
 40
0.2538605887
 40
0.3795878789
 40
0.5046051138
 40
0.6290174418
 40
0.7529533759
 40
0.8765605771
 40
1.0
 40
1.0
 40
1.0
 40
1.0
 10
11.1173270428
 20
9.5486796972
 30
0.0
 10
11.1173270428
 20
9.5542787758
 30
0.0
 10
11.1178616429
 20
9.5654479145
 30
0.0
 10
11.1202793159
 20
9.5819868033
 30
0.0
 10
11.1242882231
 20
9.5981101306
 30
0.0
 10
11.1298521466
 20
9.613667115
 30
0.0
 10
11.1369200556
 20
9.6285142825
 30
0.0
 10
11.1454275267
 20
9.6425145236
 30
0.0
 10
11.1552945301
 20
9.6555366891
 30
0.0
 10
11.1627239053
 20
9.6634913454
 30
0.0
 10
11.1666274403
 20
9.6672619023
 30
0.0
  0
SPLINE
  5
2E1
100
AcDbEntity
  8
0
100
AcDbSpline
 62
7
  6
CONTINUOUS
 70
0
 71
3
 72
23
 73
19
 74
0
 42
0.0000001
 43
0.0000001
 44
0.0000000001
 40
0.0
 40
0.0
 40
0.0
 40
0.0
 40
0.0614488802
 40
0.1232974642
 40
0.1855192966
 40
0.2480712718
 40
0.3108995321
 40
0.3739401523
 40
0.437121741
 40
0.5003679845
 40
0.5636003156
 40
0.6267406512
 40
0.6897141167
 40
0.7524516793
 40
0.8148926324
 40
0.8769871104
 40
0.9386966628
 40
1.0
 40
1.0
 40
1.0
 40
1.0
 10
11.2929323684
 20
9.3608961009
 30
0.0
 10
11.2871685923
 20
9.3612958201
 30
0.0
 10
11.2756352866
 20
9.362665867
 30
0.0
 10
11.2585677542
 20
9.3663869132
 30
0.0
 10
11.2418310457
 20
9.3717447776
 30
0.0
 10
11.2255879687
 20
9.378687537
 30
0.0
 10
11.2099938782
 20
9.3871481247
 30
0.0
 10
11.1951985124
 20
9.3970449954
 30
0.0
 10
11.1813437495
 20
9.4082829358
 30
0.0
 10
11.1685625318
 20
9.4207539778
 30
0.0
 10
11.1569775544
 20
9.4343384099
 30
0.0
 10
11.1467000498
 20
9.4489058469
 30
0.0
 10
11.1378288008
 20
9.4643165128
 30
0.0
 10
11.1304492189
 20
9.4804226159
 30
0.0
 10
11.1246325041
 20
9.4970694783
 30
0.0
 10
11.1204349882
 20
9.5140978336
 30
0.0
 10
11.1178973394
 20
9.5313420093
 30
0.0
 10
11.1173270428
 20
9.5429157618
 30
0.0
 10
11.1173270428
 20
9.5486796972
 30
0.0
  0
SPLINE
  5
2E2
100
AcDbEntity
  8
0
100
AcDbSpline
 62
7
  6
CONTINUOUS
 70
0
 71
3
 72
21
 73
17
 74
0
 42
0.0000001
 43
0.0000001
 44
0.0000000001
 40
0.0
 40
0.0
 40
0.0
 40
0.0
 40
0.1273174026
 40
0.2538000887
 40
0.3167619201
 40
0.3795355026
 40
0.4421315046
 40
0.504562145
 40
0.5668413477
 40
0.6289845247
 40
0.6910084504
 40
0.7529310962
 40
0.8147714484
 40
0.8765493334
 40
0.938285219
 40
1.0
 40
1.0
 40
1.0
 40
1.0
 10
9.8737435292
 20
9.1526449404
 30
0.0
 10
9.8737435292
 20
9.1665040158
 30
0.0
 10
9.8750664874
 20
9.1941491407
 30
0.0
 10
9.880062772
 20
9.2283244783
 30
0.0
 10
9.8860345154
 20
9.2551320625
 30
0.0
 10
9.8914804476
 20
9.2749053052
 30
0.0
 10
9.8978871547
 20
9.2943272406
 30
0.0
 10
9.9052399931
 20
9.3133535922
 30
0.0
 10
9.9135220655
 20
9.3319403222
 30
0.0
 10
9.9227142739
 20
9.3500446138
 30
0.0
 10
9.9327954381
 20
9.3676247002
 30
0.0
 10
9.9437423618
 20
9.3846400293
 30
0.0
 10
9.9555298166
 20
9.4010512837
 30
0.0
 10
9.9681307277
 20
9.4168207556
 30
0.0
 10
9.9815155274
 20
9.4319115882
 30
0.0
 10
9.9909425484
 20
9.4414982505
 30
0.0
 10
9.9957744547
 20
9.4461655097
 30
0.0
  0
SPLINE
  5
2E3
100
AcDbEntity
  8
0
100
AcDbSpline
 62
7
  6
CONTINUOUS
 70
0
 71
3
 72
32
 73
28
 74
0
 42
0.0000001
 43
0.0000001
 44
0.0000000001
 40
0.0
 40
0.0
 40
0.0
 40
0.0
 40
0.096416521
 40
0.1901941716
 40
0.2807664078
 40
0.3675931097
 40
0.4501670142
 40
0.528019555
 40
0.6007282271
 40
0.6350382732
 40
0.6679298029
 40
0.6993670694
 40
0.7293201473
 40
0.7577642678
 40
0.7846820349
 40
0.8100631674
 40
0.8339072505
 40
0.8562242531
 40
0.877038225
 40
0.8963891976
 40
0.9143384605
 40
0.9309725754
 40
0.9464105432
 40
0.9608093704
 40
0.9743701849
 40
0.9873388288
 40
1.0
 40
1.0
 40
1.0
 40
1.0
 10
13.5874919256
 20
11.5279919789
 30
0.0
 10
13.5874919256
 20
11.5329032012
 30
0.0
 10
13.5873878893
 20
11.5425916081
 30
0.0
 10
13.5869085422
 20
11.5568863836
 30
0.0
 10
13.5861111033
 20
11.5706778921
 30
0.0
 10
13.5850010491
 20
11.5838753036
 30
0.0
 10
13.5835860251
 20
11.5963919899
 30
0.0
 10
13.581875632
 20
11.6081456735
 30
0.0
 10
13.5801830046
 20
11.6174119375
 30
0.0
 10
13.5786779101
 20
11.6243784086
 30
0.0
 10
13.5775046781
 20
11.6292644329
 30
0.0
 10
13.5762670853
 20
11.6339052806
 30
0.0
 10
13.574967237
 20
11.6382933857
 30
0.0
 10
13.5736071985
 20
11.6424215931
 30
0.0
 10
13.5721893003
 20
11.6462832302
 30
0.0
 10
13.5707157529
 20
11.6498720615
 30
0.0
 10
13.5691890235
 20
11.6531823858
 30
0.0
 10
13.5676113993
 20
11.6562089474
 30
0.0
 10
13.565985368
 20
11.6589470738
 30
0.0
 10
13.5643131321
 20
11.6613925029
 30
0.0
 10
13.5625969706
 20
11.6635415414
 30
0.0
 10
13.5608387336
 20
11.6653907061
 30
0.0
 10
13.5590402161
 20
11.666936816
 30
0.0
 10
13.5572029659
 20
11.6681763066
 30
0.0
 10
13.5553287842
 20
11.6691053738
 30
0.0
 10
13.5534213305
 20
11.6697194747
 30
0.0
 10
13.5521240251
 20
11.6699173398
 30
0.0
 10
13.5514806419
 20
11.6699619684
 30
0.0
  0
SPLINE
  5
2E4
100
AcDbEntity
  8
0
100
AcDbSpline
 62
7
  6
CONTINUOUS
 70
0
 71
3
 72
15
 73
11
 74
0
 42
0.0000001
 43
0.0000001
 44
0.0000000001
 40
0.0
 40
0.0
 40
0.0
 40
0.0
 40
0.1273483316
 40
0.2538605887
 40
0.3795878789
 40
0.5046051138
 40
0.6290174418
 40
0.7529533759
 40
0.8765605771
 40
1.0
 40
1.0
 40
1.0
 40
1.0
 10
11.1173270428
 20
8.5976291917
 30
0.0
 10
11.1173270428
 20
8.6032282703
 30
0.0
 10
11.1178616429
 20
8.614397409
 30
0.0
 10
11.1202793159
 20
8.6309362977
 30
0.0
 10
11.1242882231
 20
8.6470596251
 30
0.0
 10
11.1298521466
 20
8.6626166095
 30
0.0
 10
11.1369200556
 20
8.677463777
 30
0.0
 10
11.1454275267
 20
8.6914640181
 30
0.0
 10
11.1552945301
 20
8.7044861836
 30
0.0
 10
11.1627239053
 20
8.7124408399
 30
0.0
 10
11.1666274403
 20
8.7162113968
 30
0.0
  0
SPLINE
  5
2E5
100
AcDbEntity
  8
0
100
AcDbSpline
 62
7
  6
CONTINUOUS
 70
0
 71
3
 72
23
 73
19
 74
0
 42
0.0000001
 43
0.0000001
 44
0.0000000001
 40
0.0
 40
0.0
 40
0.0
 40
0.0
 40
0.0614488802
 40
0.1232974642
 40
0.1855192966
 40
0.2480712718
 40
0.3108995321
 40
0.3739401523
 40
0.437121741
 40
0.5003679845
 40
0.5636003156
 40
0.6267406512
 40
0.6897141167
 40
0.7524516793
 40
0.8148926324
 40
0.8769871104
 40
0.9386966628
 40
1.0
 40
1.0
 40
1.0
 40
1.0
 10
11.2929323684
 20
8.4098455954
 30
0.0
 10
11.2871685923
 20
8.4102453146
 30
0.0
 10
11.2756352866
 20
8.4116153615
 30
0.0
 10
11.2585677542
 20
8.4153364077
 30
0.0
 10
11.2418310457
 20
8.420694272
 30
0.0
 10
11.2255879687
 20
8.4276370315
 30
0.0
 10
11.2099938782
 20
8.4360976191
 30
0.0
 10
11.1951985124
 20
8.4459944899
 30
0.0
 10
11.1813437495
 20
8.4572324302
 30
0.0
 10
11.1685625318
 20
8.4697034723
 30
0.0
 10
11.1569775544
 20
8.4832879044
 30
0.0
 10
11.1467000498
 20
8.4978553413
 30
0.0
 10
11.1378288008
 20
8.5132660073
 30
0.0
 10
11.1304492189
 20
8.5293721104
 30
0.0
 10
11.1246325041
 20
8.5460189728
 30
0.0
 10
11.1204349882
 20
8.563047328
 30
0.0
 10
11.1178973394
 20
8.5802915038
 30
0.0
 10
11.1173270428
 20
8.5918652563
 30
0.0
 10
11.1173270428
 20
8.5976291917
 30
0.0
  0
SPLINE
  5
2E6
100
AcDbEntity
  8
0
100
AcDbSpline
 62
7
  6
CONTINUOUS
 70
0
 71
3
 72
21
 73
17
 74
0
 42
0.0000001
 43
0.0000001
 44
0.0000000001
 40
0.0
 40
0.0
 40
0.0
 40
0.0
 40
0.1273174026
 40
0.2538000887
 40
0.3167619201
 40
0.3795355026
 40
0.4421315046
 40
0.504562145
 40
0.5668413477
 40
0.6289845247
 40
0.6910084504
 40
0.7529310962
 40
0.8147714484
 40
0.8765493334
 40
0.938285219
 40
1.0
 40
1.0
 40
1.0
 40
1.0
 10
9.8737435292
 20
6.5715945064
 30
0.0
 10
9.8737435292
 20
6.5854535818
 30
0.0
 10
9.8750664874
 20
6.6130987067
 30
0.0
 10
9.880062772
 20
6.6472740444
 30
0.0
 10
9.8860345154
 20
6.6740816285
 30
0.0
 10
9.8914804476
 20
6.6938548712
 30
0.0
 10
9.8978871547
 20
6.7132768067
 30
0.0
 10
9.9052399931
 20
6.7323031582
 30
0.0
 10
9.9135220655
 20
6.7508898882
 30
0.0
 10
9.9227142739
 20
6.7689941798
 30
0.0
 10
9.9327954381
 20
6.7865742663
 30
0.0
 10
9.9437423618
 20
6.8035895954
 30
0.0
 10
9.9555298166
 20
6.8200008498
 30
0.0
 10
9.9681307277
 20
6.8357703216
 30
0.0
 10
9.9815155274
 20
6.8508611542
 30
0.0
 10
9.9909425484
 20
6.8604478165
 30
0.0
 10
9.9957744547
 20
6.8651150757
 30
0.0
  0
SPLINE
  5
2E7
100
AcDbEntity
  8
0
100
AcDbSpline
 62
7
  6
CONTINUOUS
 70
0
 71
3
 72
23
 73
19
 74
0
 42
0.0000001
 43
0.0000001
 44
0.0000000001
 40
0.0
 40
0.0
 40
0.0
 40
0.0
 40
0.0749621725
 40
0.1455681621
 40
0.2121594468
 40
0.2751625921
 40
0.3350975062
 40
0.3925825598
 40
0.4483287752
 40
0.503123089
 40
0.5577977532
 40
0.6131909547
 40
0.6701061389
 40
0.7292784461
 40
0.7913524101
 40
0.8568771783
 40
0.9263078324
 40
1.0
 40
1.0
 40
1.0
 40
1.0
 10
9.3412563697
 20
11.292682661
 30
0.0
 10
9.3391435128
 20
11.2946489049
 30
0.0
 10
9.3351577542
 20
11.298596475
 30
0.0
 10
9.3297796621
 20
11.3047551552
 30
0.0
 10
9.3251936654
 20
11.3109627009
 30
0.0
 10
9.3214063846
 20
11.3172135505
 30
0.0
 10
9.3184243829
 20
11.3235023404
 30
0.0
 10
9.3162541168
 20
11.3298225023
 30
0.0
 10
9.3149018746
 20
11.3361659917
 30
0.0
 10
9.314372375
 20
11.3425227164
 30
0.0
 10
9.3146676684
 20
11.3488811374
 30
0.0
 10
9.3157866864
 20
11.3552294799
 30
0.0
 10
9.3177251625
 20
11.3615572035
 30
0.0
 10
9.3204773568
 20
11.3678555773
 30
0.0
 10
9.324036527
 20
11.3741177986
 30
0.0
 10
9.3283964013
 20
11.3803382743
 30
0.0
 10
9.3335501875
 20
11.3865112272
 30
0.0
 10
9.3373920867
 20
11.3904691115
 30
0.0
 10
9.339432845
 20
11.3924403328
 30
0.0
  0
SPLINE
  5
2E8
100
AcDbEntity
  8
0
100
AcDbSpline
 62
7
  6
CONTINUOUS
 70
0
 71
3
 72
23
 73
19
 74
0
 42
0.0000001
 43
0.0000001
 44
0.0000000001
 40
0.0
 40
0.0
 40
0.0
 40
0.0
 40
0.0701974894
 40
0.1368111692
 40
0.2002244206
 40
0.2608937241
 40
0.3193506448
 40
0.376197375
 40
0.4320942143
 40
0.4877388565
 40
0.5438392794
 40
0.6010850081
 40
0.6601216468
 40
0.721531178
 40
0.7858234341
 40
0.8534353506
 40
0.9247317557
 40
1.0
 40
1.0
 40
1.0
 40
1.0
 10
9.3518233615
 20
11.2836572459
 30
0.0
 10
9.3502775644
 20
11.2854233231
 30
0.0
 10
9.3473799473
 20
11.2889689085
 30
0.0
 10
9.3435531828
 20
11.2944704292
 30
0.0
 10
9.3403699825
 20
11.3000048057
 30
0.0
 10
9.3378350883
 20
11.3055674336
 30
0.0
 10
9.3359527987
 20
11.3111534831
 30
0.0
 10
9.3347271182
 20
11.3167571
 30
0.0
 10
9.334161215
 20
11.3223713783
 30
0.0
 10
9.3342566226
 20
11.3279885263
 30
0.0
 10
9.3350131603
 20
11.333600491
 30
0.0
 10
9.3364286061
 20
11.3391997203
 30
0.0
 10
9.3384996763
 20
11.3447795468
 30
0.0
 10
9.3412220121
 20
11.3503344897
 30
0.0
 10
9.3445913536
 20
11.3558598081
 30
0.0
 10
9.3486032892
 20
11.3613515012
 30
0.0
 10
9.3532530878
 20
11.366805041
 30
0.0
 10
9.3566788678
 20
11.3703143459
 30
0.0
 10
9.3584889163
 20
11.3720627185
 30
0.0
  0
SPLINE
  5
2E9
100
AcDbEntity
  8
0
100
AcDbSpline
 62
7
  6
CONTINUOUS
 70
0
 71
3
 72
77
 73
73
 74
0
 42
0.0000001
 43
0.0000001
 44
0.0000000001
 40
0.0
 40
0.0
 40
0.0
 40
0.0
 40
0.0028080088
 40
0.0056357033
 40
0.0085023221
 40
0.011426257
 40
0.0144247478
 40
0.0175136155
 40
0.0207071897
 40
0.0240182288
 40
0.0274579458
 40
0.0310361368
 40
0.0347611945
 40
0.0386403099
 40
0.0426795601
 40
0.0468839865
 40
0.051257799
 40
0.0558043655
 40
0.0605263703
 40
0.0654258992
 40
0.0757621304
 40
0.0868204417
 40
0.0986006991
 40
0.1110974347
 40
0.1243007415
 40
0.1381969462
 40
0.1527691204
 40
0.1679974641
 40
0.1838596379
 40
0.2003310488
 40
0.2173850738
 40
0.2349932418
 40
0.253125391
 40
0.2717498417
 40
0.2908335362
 40
0.3103421625
 40
0.3302402605
 40
0.3504913486
 40
0.3710580414
 40
0.4129839863
 40
0.4557056758
 40
0.4989019472
 40
0.542246985
 40
0.5854135293
 40
0.6280760511
 40
0.6699139753
 40
0.6904261026
 40
0.7106157617
 40
0.7304457274
 40
0.7498796997
 40
0.7688824133
 40
0.7874197695
 40
0.805458956
 40
0.8229685647
 40
0.8399187291
 40
0.8562812889
 40
0.8720299783
 40
0.8871406037
 40
0.9015912706
 40
0.915362663
 40
0.9284384073
 40
0.9408054828
 40
0.9524547381
 40
0.9633816023
 40
0.9685746091
 40
0.973587908
 40
0.9784226583
 40
0.9830805419
 40
0.9875639569
 40
0.9918758907
 40
0.9960198556
 40
1.0
 40
1.0
 40
1.0
 40
1.0
 10
10.7500008075
 20
11.3053136798
 30
0.0
 10
10.7500008077
 20
11.3066809316
 30
0.0
 10
10.7498811039
 20
11.3094264997
 30
0.0
 10
10.7493431101
 20
11.3135361432
 30
0.0
 10
10.7484471332
 20
11.3176407514
 30
0.0
 10
10.7471940995
 20
11.3217374586
 30
0.0
 10
10.7455850354
 20
11.3258240387
 30
0.0
 10
10.7436213949
 20
11.3298984003
 30
0.0
 10
10.741304504
 20
11.333958528
 30
0.0
 10
10.7386359047
 20
11.3380025365
 30
0.0
 10
10.7356172542
 20
11.3420286462
 30
0.0
 10
10.7322501474
 20
11.3460349654
 30
0.0
 10
10.7285364757
 20
11.3500197675
 30
0.0
 10
10.7244781194
 20
11.3539812016
 30
0.0
 10
10.7200771207
 20
11.3579174084
 30
0.0
 10
10.7153357412
 20
11.3618266156
 30
0.0
 10
10.7102562797
 20
11.3657068783
 30
0.0
 10
10.7048413079
 20
11.3695563727
 30
0.0
 10
10.6990935027
 20
11.37337328
 30
0.0
 10
10.6908419266
 20
11.3785082075
 30
0.0
 10
10.6796933626
 20
11.3848156603
 30
0.0
 10
10.6652676358
 20
11.3920948761
 30
0.0
 10
10.6495929634
 20
11.3991995637
 30
0.0
 10
10.6327006253
 20
11.4061155079
 30
0.0
 10
10.6146239734
 20
11.4128288578
 30
0.0
 10
10.5953990657
 20
11.4193260344
 30
0.0
 10
10.575064349
 20
11.4255938474
 30
0.0
 10
10.5536606371
 20
11.4316195549
 30
0.0
 10
10.5312309831
 20
11.4373909013
 30
0.0
 10
10.5078205663
 20
11.4428961314
 30
0.0
 10
10.4834765858
 20
11.4481240251
 30
0.0
 10
10.4582481695
 20
11.4530639241
 30
0.0
 10
10.4321862723
 20
11.4577057788
 30
0.0
 10
10.4053435553
 20
11.4620401383
 30
0.0
 10
10.3777742696
 20
11.4660581756
 30
0.0
 10
10.3495341459
 20
11.4697517043
 30
0.0
 10
10.3206803066
 20
11.4731132017
 30
0.0
 10
10.2912710661
 20
11.4761358801
 30
0.0
 10
10.2511417698
 20
11.4797288526
 30
0.0
 10
10.2000316634
 20
11.4833167339
 30
0.0
 10
10.1378425179
 20
11.486166471
 30
0.0
 10
10.0749125969
 20
11.4875637377
 30
0.0
 10
10.0117507376
 20
11.4874971091
 30
0.0
 10
9.9488671871
 20
11.4859671588
 30
0.0
 10
9.8867704051
 20
11.4829863539
 30
0.0
 10
9.8357664689
 20
11.4792901923
 30
0.0
 10
9.7957446598
 20
11.4756117854
 30
0.0
 10
9.7664320065
 20
11.4725270128
 30
0.0
 10
9.7376854524
 20
11.4691046149
 30
0.0
 10
9.7095630906
 20
11.4653515081
 30
0.0
 10
9.6821218063
 20
11.4612753318
 30
0.0
 10
9.655417073
 20
11.4568843837
 30
0.0
 10
9.6295028576
 20
11.4521876128
 30
0.0
 10
9.604431513
 20
11.4471945842
 30
0.0
 10
9.5802536725
 20
11.4419154621
 30
0.0
 10
9.557018129
 20
11.4363609931
 30
0.0
 10
9.5347717215
 20
11.4305425042
 30
0.0
 10
9.5135592412
 20
11.4244718468
 30
0.0
 10
9.4934233418
 20
11.4181613758
 30
0.0
 10
9.4744044146
 20
11.4116239016
 30
0.0
 10
9.4565405181
 20
11.4048726956
 30
0.0
 10
9.4398671016
 20
11.3979213747
 30
0.0
 10
9.4244175436
 20
11.3907839457
 30
0.0
 10
9.4123916057
 20
11.384591984
 30
0.0
 10
9.4034239681
 20
11.3795436607
 30
0.0
 10
9.397137776
 20
11.375784228
 30
0.0
 10
9.3911796623
 20
11.3719891736
 30
0.0
 10
9.3855525939
 20
11.3681602306
 30
0.0
 10
9.3802592795
 20
11.3642993115
 30
0.0
 10
9.3753023648
 20
11.3604081681
 30
0.0
 10
9.37068457
 20
11.3564889698
 30
0.0
 10
9.3677760925
 20
11.3538056661
 30
0.0
 10
9.3663821929
 20
11.3524592624
 30
0.0
  0
SPLINE
  5
2EA
100
AcDbEntity
  8
0
100
AcDbSpline
 62
7
  6
CONTINUOUS
 70
0
 71
3
 72
31
 73
27
 74
0
 42
0.0000001
 43
0.0000001
 44
0.0000000001
 40
0.0
 40
0.0
 40
0.0
 40
0.0
 40
0.0315660912
 40
0.0485900836
 40
0.0665343458
 40
0.0854578808
 40
0.1054081446
 40
0.1264220349
 40
0.1485280025
 40
0.1717466453
 40
0.1960924426
 40
0.2215739868
 40
0.2481953688
 40
0.2759561671
 40
0.3048525509
 40
0.3348771395
 40
0.3660198778
 40
0.398267848
 40
0.4316059569
 40
0.5014784366
 40
0.5754783769
 40
0.6534165337
 40
0.7350800875
 40
0.8202355939
 40
0.9086314452
 40
1.0
 40
1.0
 40
1.0
 40
1.0
 10
10.6469413379
 20
9.3266211071
 30
0.0
 10
10.6452776443
 20
9.3298225534
 30
0.0
 10
10.6422413695
 20
9.3345128389
 30
0.0
 10
10.6374304102
 20
9.3404056634
 30
0.0
 10
10.6332171081
 20
9.3449059795
 30
0.0
 10
10.6284953917
 20
9.3493695291
 30
0.0
 10
10.6232684324
 20
9.3537940392
 30
0.0
 10
10.6175410035
 20
9.3581758749
 30
0.0
 10
10.6113177878
 20
9.3625115073
 30
0.0
 10
10.6046041293
 20
9.3667975013
 30
0.0
 10
10.5974056444
 20
9.3710301778
 30
0.0
 10
10.5897285008
 20
9.3752060889
 30
0.0
 10
10.5815792038
 20
9.3793215711
 30
0.0
 10
10.5729647625
 20
9.3833732014
 30
0.0
 10
10.5638925433
 20
9.3873573928
 30
0.0
 10
10.5543703755
 20
9.39127079
 30
0.0
 10
10.5444064553
 20
9.3951099078
 30
0.0
 10
10.5340093901
 20
9.398871529
 30
0.0
 10
10.519350725
 20
9.4038573719
 30
0.0
 10
10.4999988865
 20
9.4098521159
 30
0.0
 10
10.4755513583
 20
9.4165788094
 30
0.0
 10
10.4496124636
 20
9.4229228985
 30
0.0
 10
10.4222721278
 20
9.4288621033
 30
0.0
 10
10.3936248617
 20
9.4343755256
 30
0.0
 10
10.3637701394
 20
9.4394437583
 30
0.0
 10
10.3434455629
 20
9.4424671263
 30
0.0
 10
10.3331019037
 20
9.4439055856
 30
0.0
  0
SPLINE
  5
2EB
100
AcDbEntity
  8
0
100
AcDbSpline
 62
7
  6
CONTINUOUS
 70
0
 71
3
 72
26
 73
22
 74
0
 42
0.0000001
 43
0.0000001
 44
0.0000000001
 40
0.0
 40
0.0
 40
0.0
 40
0.0
 40
0.0368779668
 40
0.0564879085
 40
0.0769133581
 40
0.0981770936
 40
0.1202975985
 40
0.1432898958
 40
0.1671653288
 40
0.2175928565
 40
0.271623644
 40
0.3292615669
 40
0.3904825193
 40
0.4552390112
 40
0.5234639644
 40
0.5950734514
 40
0.6699686517
 40
0.7480375836
 40
0.8291566992
 40
0.9131920286
 40
1.0
 40
1.0
 40
1.0
 40
1.0
 10
10.5966015316
 20
9.2843953588
 30
0.0
 10
10.5946992762
 20
9.2866474396
 30
0.0
 10
10.5915913636
 20
9.2899366008
 30
0.0
 10
10.587078995
 20
9.2941140393
 30
0.0
 10
10.5833452551
 20
9.2972898662
 30
0.0
 10
10.5793338452
 20
9.3004423819
 30
0.0
 10
10.5750465275
 20
9.3035703132
 30
0.0
 10
10.5704855149
 20
9.3066720095
 30
0.0
 10
10.5639221795
 20
9.3108468874
 30
0.0
 10
10.5550310507
 20
9.3159752934
 30
0.0
 10
10.5434984394
 20
9.32189236
 30
0.0
 10
10.5309384787
 20
9.3276680333
 30
0.0
 10
10.5173768018
 20
9.3332904905
 30
0.0
 10
10.5028407948
 20
9.3387482322
 30
0.0
 10
10.4873601316
 20
9.3440299592
 30
0.0
 10
10.4709664951
 20
9.3491246864
 30
0.0
 10
10.4536935674
 20
9.3540218053
 30
0.0
 10
10.4355769299
 20
9.358711121
 30
0.0
 10
10.416653926
 20
9.3631828513
 30
0.0
 10
10.3969636989
 20
9.3674276386
 30
0.0
 10
10.3835618692
 20
9.3700591827
 30
0.0
 10
10.3767414667
 20
9.3713380638
 30
0.0
  0
SPLINE
  5
2EC
100
AcDbEntity
  8
0
100
AcDbSpline
 62
7
  6
CONTINUOUS
 70
0
 71
3
 72
15
 73
11
 74
0
 42
0.0000001
 43
0.0000001
 44
0.0000000001
 40
0.0
 40
0.0
 40
0.0
 40
0.0
 40
0.1273483316
 40
0.2538605887
 40
0.3795878789
 40
0.5046051138
 40
0.6290174418
 40
0.7529533759
 40
0.8765605771
 40
1.0
 40
1.0
 40
1.0
 40
1.0
 10
11.1173270428
 20
6.9676292632
 30
0.0
 10
11.1173270428
 20
6.9732283419
 30
0.0
 10
11.1178616429
 20
6.9843974805
 30
0.0
 10
11.1202793159
 20
7.0009363693
 30
0.0
 10
11.1242882231
 20
7.0170596966
 30
0.0
 10
11.1298521466
 20
7.032616681
 30
0.0
 10
11.1369200556
 20
7.0474638485
 30
0.0
 10
11.1454275267
 20
7.0614640896
 30
0.0
 10
11.1552945301
 20
7.0744862551
 30
0.0
 10
11.1627239053
 20
7.0824409114
 30
0.0
 10
11.1666274403
 20
7.0862114683
 30
0.0
  0
SPLINE
  5
2ED
100
AcDbEntity
  8
0
100
AcDbSpline
 62
7
  6
CONTINUOUS
 70
0
 71
3
 72
23
 73
19
 74
0
 42
0.0000001
 43
0.0000001
 44
0.0000000001
 40
0.0
 40
0.0
 40
0.0
 40
0.0
 40
0.0614488802
 40
0.1232974642
 40
0.1855192966
 40
0.2480712718
 40
0.3108995321
 40
0.3739401523
 40
0.437121741
 40
0.5003679845
 40
0.5636003156
 40
0.6267406512
 40
0.6897141167
 40
0.7524516793
 40
0.8148926324
 40
0.8769871104
 40
0.9386966628
 40
1.0
 40
1.0
 40
1.0
 40
1.0
 10
11.2929323684
 20
6.7798456669
 30
0.0
 10
11.2871685923
 20
6.7802453862
 30
0.0
 10
11.2756352866
 20
6.781615433
 30
0.0
 10
11.2585677542
 20
6.7853364792
 30
0.0
 10
11.2418310457
 20
6.7906943436
 30
0.0
 10
11.2255879687
 20
6.797637103
 30
0.0
 10
11.2099938782
 20
6.8060976907
 30
0.0
 10
11.1951985124
 20
6.8159945614
 30
0.0
 10
11.1813437495
 20
6.8272325018
 30
0.0
 10
11.1685625318
 20
6.8397035439
 30
0.0
 10
11.1569775544
 20
6.853287976
 30
0.0
 10
11.1467000498
 20
6.8678554129
 30
0.0
 10
11.1378288008
 20
6.8832660789
 30
0.0
 10
11.1304492189
 20
6.8993721819
 30
0.0
 10
11.1246325041
 20
6.9160190443
 30
0.0
 10
11.1204349882
 20
6.9330473996
 30
0.0
 10
11.1178973394
 20
6.9502915754
 30
0.0
 10
11.1173270428
 20
6.9618653279
 30
0.0
 10
11.1173270428
 20
6.9676292632
 30
0.0
  0
SPLINE
  5
2EE
100
AcDbEntity
  8
0
100
AcDbSpline
 62
7
  6
CONTINUOUS
 70
0
 71
3
 72
90
 73
86
 74
0
 42
0.0000001
 43
0.0000001
 44
0.0000000001
 40
0.0
 40
0.0
 40
0.0
 40
0.0
 40
0.0041939327
 40
0.0085762797
 40
0.0131521168
 40
0.0179257102
 40
0.0229005777
 40
0.0280793432
 40
0.0334637515
 40
0.039054942
 40
0.0448534201
 40
0.0508592299
 40
0.0570718897
 40
0.0634905031
 40
0.0769395442
 40
0.0911926322
 40
0.1062305414
 40
0.1220299045
 40
0.138563746
 40
0.1558019061
 40
0.1737113895
 40
0.1922566587
 40
0.2113998871
 40
0.2311011807
 40
0.2513187854
 40
0.2720092777
 40
0.2931277414
 40
0.314627936
 40
0.3364624583
 40
0.3585829007
 40
0.3809400039
 40
0.4034838116
 40
0.4489282106
 40
0.4945091646
 40
0.5172232831
 40
0.5398181265
 40
0.5622430449
 40
0.5844478854
 40
0.6063831414
 40
0.6280001043
 40
0.6492510173
 40
0.6700892313
 40
0.6904693687
 40
0.7103474912
 40
0.7296812714
 40
0.7484301765
 40
0.7665556664
 40
0.7840214104
 40
0.8007935305
 40
0.8168408844
 40
0.8321353954
 40
0.8466524456
 40
0.8603713654
 40
0.8732760587
 40
0.879419849
 40
0.8853565888
 40
0.8910859433
 40
0.8966081219
 40
0.9019238168
 40
0.9070344039
 40
0.9119418969
 40
0.9166491266
 40
0.9211598087
 40
0.9254786483
 40
0.929611547
 40
0.9335656563
 40
0.9373496652
 40
0.9409738725
 40
0.9444504387
 40
0.9477935059
 40
0.9510193001
 40
0.9541461962
 40
0.9571945763
 40
0.9601866496
 40
0.9631460142
 40
0.96609714
 40
0.9690647156
 40
0.9720729931
 40
0.9751451606
 40
0.978302867
 40
0.9849469858
 40
0.9884712718
 40
0.9921475972
 40
0.9959874066
 40
1.0
 40
1.0
 40
1.0
 40
1.0
 10
9.339432845
 20
11.3924403328
 30
0.0
 10
9.3410166574
 20
11.3939701781
 30
0.0
 10
9.3443341945
 20
11.3970178729
 30
0.0
 10
9.3496252938
 20
11.4014583145
 30
0.0
 10
9.3553352743
 20
11.4058634799
 30
0.0
 10
9.3614604216
 20
11.410230605
 30
0.0
 10
9.3679971929
 20
11.4145572766
 30
0.0
 10
9.3749417857
 20
11.4188409939
 30
0.0
 10
9.3822900755
 20
11.4230793212
 30
0.0
 10
9.3900377301
 20
11.4272696326
 30
0.0
 10
9.3981801
 20
11.4314095453
 30
0.0
 10
9.406712368
 20
11.4354965047
 30
0.0
 10
9.4156294422
 20
11.4395281681
 30
0.0
 10
9.428221573
 20
11.4449106178
 30
0.0
 10
9.4448992723
 20
11.4514652114
 30
0.0
 10
9.4660570362
 20
11.4589550018
 30
0.0
 10
9.4886094705
 20
11.4661686263
 30
0.0
 10
9.5125025524
 20
11.4730886308
 30
0.0
 10
9.5376793013
 20
11.4796982423
 30
0.0
 10
9.5640794225
 20
11.485981424
 30
0.0
 10
9.5916396301
 20
11.4919229258
 30
0.0
 10
9.6202937734
 20
11.497508326
 30
0.0
 10
9.6499730201
 20
11.5027240675
 30
0.0
 10
9.6806060284
 20
11.5075574985
 30
0.0
 10
9.7121191289
 20
11.5119968979
 30
0.0
 10
9.7444365116
 20
11.5160315028
 30
0.0
 10
9.7774804134
 20
11.5196515338
 30
0.0
 10
9.8111713073
 20
11.522848217
 30
0.0
 10
9.8454281024
 20
11.5256138096
 30
0.0
 10
9.8801683143
 20
11.5279415978
 30
0.0
 10
9.9153083651
 20
11.5298259904
 30
0.0
 10
9.9627063107
 20
11.5317460547
 30
0.0
 10
10.0223292766
 20
11.53300544
 30
0.0
 10
10.082054331
 20
11.5327538543
 30
0.0
 10
10.1297640825
 20
11.5316409796
 30
0.0
 10
10.1653054363
 20
11.5303547386
 30
0.0
 10
10.2005599402
 20
11.5286192583
 30
0.0
 10
10.2354427756
 20
11.5264386996
 30
0.0
 10
10.2698699411
 20
11.5238183549
 30
0.0
 10
10.3037585603
 20
11.5207645677
 30
0.0
 10
10.3370270543
 20
11.517284736
 30
0.0
 10
10.369595349
 20
11.5133872891
 30
0.0
 10
10.4013850705
 20
11.5090816732
 30
0.0
 10
10.4323197391
 20
11.5043783296
 30
0.0
 10
10.4623249562
 20
11.4992886653
 30
0.0
 10
10.4913285878
 20
11.4938250274
 30
0.0
 10
10.5192609439
 20
11.4880006731
 30
0.0
 10
10.5460549576
 20
11.4818297373
 30
0.0
 10
10.5716463557
 20
11.4753271958
 30
0.0
 10
10.5959738491
 20
11.4685088263
 30
0.0
 10
10.6189792544
 20
11.4613911676
 30
0.0
 10
10.6406078392
 20
11.4539914508
 30
0.0
 10
10.6608078783
 20
11.4463275523
 30
0.0
 10
10.6766610552
 20
11.4396309498
 30
0.0
 10
10.6885762297
 20
11.4341403121
 30
0.0
 10
10.6969791069
 20
11.4300354056
 30
0.0
 10
10.7049904275
 20
11.4258784103
 30
0.0
 10
10.7126054701
 20
11.4216718394
 30
0.0
 10
10.7198196701
 20
11.4174180946
 30
0.0
 10
10.7266287941
 20
11.4131197718
 30
0.0
 10
10.7330287885
 20
11.4087793167
 30
0.0
 10
10.7390158861
 20
11.404399267
 30
0.0
 10
10.7445865747
 20
11.3999821498
 30
0.0
 10
10.7497375173
 20
11.3955303876
 30
0.0
 10
10.7544657319
 20
11.391046547
 30
0.0
 10
10.7587682859
 20
11.3865329508
 30
0.0
 10
10.7626426279
 20
11.3819921112
 30
0.0
 10
10.7660862136
 20
11.3774263351
 30
0.0
 10
10.7690967359
 20
11.372838037
 30
0.0
 10
10.7716719986
 20
11.3682296444
 30
0.0
 10
10.7738097833
 20
11.3636036291
 30
0.0
 10
10.7755082225
 20
11.3589627551
 30
0.0
 10
10.7767653008
 20
11.3543099123
 30
0.0
 10
10.777579647
 20
11.349648429
 30
0.0
 10
10.7779500097
 20
11.3449818485
 30
0.0
 10
10.7778759228
 20
11.3403139916
 30
0.0
 10
10.7773575023
 20
11.3356486824
 30
0.0
 10
10.7763954383
 20
11.3309897477
 30
0.0
 10
10.7749909811
 20
11.3263403614
 30
0.0
 10
10.7724891973
 20
11.3200536733
 30
0.0
 10
10.7691117766
 20
11.3138901084
 30
0.0
 10
10.7649866255
 20
11.3079011803
 30
0.0
 10
10.7613988458
 20
11.3033428758
 30
0.0
 10
10.757381591
 20
11.2988110821
 30
0.0
 10
10.7544841452
 20
11.2958749775
 30
0.0
 10
10.7529688145
 20
11.2944112804
 30
0.0
  0
SPLINE
  5
2EF
100
AcDbEntity
  8
0
100
AcDbSpline
 62
7
  6
CONTINUOUS
 70
0
 71
3
 72
32
 73
28
 74
0
 42
0.0000001
 43
0.0000001
 44
0.0000000001
 40
0.0
 40
0.0
 40
0.0
 40
0.0
 40
0.096416521
 40
0.1901941716
 40
0.2807664078
 40
0.3675931097
 40
0.4501670142
 40
0.528019555
 40
0.6007282271
 40
0.6350382732
 40
0.6679298029
 40
0.6993670694
 40
0.7293201473
 40
0.7577642678
 40
0.7846820349
 40
0.8100631674
 40
0.8339072505
 40
0.8562242531
 40
0.877038225
 40
0.8963891976
 40
0.9143384605
 40
0.9309725754
 40
0.9464105432
 40
0.9608093704
 40
0.9743701849
 40
0.9873388288
 40
1.0
 40
1.0
 40
1.0
 40
1.0
 10
12.4228072185
 20
5.2956598169
 30
0.0
 10
12.4228072185
 20
5.3005710392
 30
0.0
 10
12.4227031822
 20
5.3102594461
 30
0.0
 10
12.4222238351
 20
5.3245542216
 30
0.0
 10
12.4214263963
 20
5.3383457301
 30
0.0
 10
12.4203163421
 20
5.3515431416
 30
0.0
 10
12.418901318
 20
5.3640598279
 30
0.0
 10
12.417190925
 20
5.3758135115
 30
0.0
 10
12.4154982976
 20
5.3850797755
 30
0.0
 10
12.413993203
 20
5.3920462466
 30
0.0
 10
12.412819971
 20
5.3969322709
 30
0.0
 10
12.4115823783
 20
5.4015731186
 30
0.0
 10
12.41028253
 20
5.4059612237
 30
0.0
 10
12.4089224915
 20
5.4100894311
 30
0.0
 10
12.4075045932
 20
5.4139510682
 30
0.0
 10
12.4060310458
 20
5.4175398995
 30
0.0
 10
12.4045043165
 20
5.4208502238
 30
0.0
 10
12.4029266922
 20
5.4238767854
 30
0.0
 10
12.4013006609
 20
5.4266149118
 30
0.0
 10
12.399628425
 20
5.4290603409
 30
0.0
 10
12.3979122635
 20
5.4312093794
 30
0.0
 10
12.3961540265
 20
5.4330585441
 30
0.0
 10
12.3943555091
 20
5.434604654
 30
0.0
 10
12.3925182588
 20
5.4358441446
 30
0.0
 10
12.3906440771
 20
5.4367732118
 30
0.0
 10
12.3887366235
 20
5.4373873127
 30
0.0
 10
12.3874393181
 20
5.4375851778
 30
0.0
 10
12.3867959349
 20
5.4376298064
 30
0.0
  0
SPLINE
  5
2F0
100
AcDbEntity
  8
0
100
AcDbSpline
 62
7
  6
CONTINUOUS
 70
0
 71
3
 72
15
 73
11
 74
0
 42
0.0000001
 43
0.0000001
 44
0.0000000001
 40
0.0
 40
0.0
 40
0.0
 40
0.0
 40
0.1273483316
 40
0.2538605887
 40
0.3795878789
 40
0.5046051138
 40
0.6290174418
 40
0.7529533759
 40
0.8765605771
 40
1.0
 40
1.0
 40
1.0
 40
1.0
 10
11.1173270428
 20
6.0165786541
 30
0.0
 10
11.1173270428
 20
6.0221777327
 30
0.0
 10
11.1178616429
 20
6.0333468714
 30
0.0
 10
11.1202793159
 20
6.0498857601
 30
0.0
 10
11.1242882231
 20
6.0660090874
 30
0.0
 10
11.1298521466
 20
6.0815660718
 30
0.0
 10
11.1369200556
 20
6.0964132394
 30
0.0
 10
11.1454275267
 20
6.1104134805
 30
0.0
 10
11.1552945301
 20
6.1234356459
 30
0.0
 10
11.1627239053
 20
6.1313903023
 30
0.0
 10
11.1666274403
 20
6.1351608592
 30
0.0
  0
SPLINE
  5
2F1
100
AcDbEntity
  8
0
100
AcDbSpline
 62
7
  6
CONTINUOUS
 70
0
 71
3
 72
23
 73
19
 74
0
 42
0.0000001
 43
0.0000001
 44
0.0000000001
 40
0.0
 40
0.0
 40
0.0
 40
0.0
 40
0.0614488802
 40
0.1232974642
 40
0.1855192966
 40
0.2480712718
 40
0.3108995321
 40
0.3739401523
 40
0.437121741
 40
0.5003679845
 40
0.5636003156
 40
0.6267406512
 40
0.6897141167
 40
0.7524516793
 40
0.8148926324
 40
0.8769871104
 40
0.9386966628
 40
1.0
 40
1.0
 40
1.0
 40
1.0
 10
11.2929323684
 20
5.8287950578
 30
0.0
 10
11.2871685923
 20
5.829194777
 30
0.0
 10
11.2756352866
 20
5.8305648239
 30
0.0
 10
11.2585677542
 20
5.8342858701
 30
0.0
 10
11.2418310457
 20
5.8396437344
 30
0.0
 10
11.2255879687
 20
5.8465864939
 30
0.0
 10
11.2099938782
 20
5.8550470815
 30
0.0
 10
11.1951985124
 20
5.8649439523
 30
0.0
 10
11.1813437495
 20
5.8761818926
 30
0.0
 10
11.1685625318
 20
5.8886529347
 30
0.0
 10
11.1569775544
 20
5.9022373668
 30
0.0
 10
11.1467000498
 20
5.9168048037
 30
0.0
 10
11.1378288008
 20
5.9322154697
 30
0.0
 10
11.1304492189
 20
5.9483215728
 30
0.0
 10
11.1246325041
 20
5.9649684352
 30
0.0
 10
11.1204349882
 20
5.9819967904
 30
0.0
 10
11.1178973394
 20
5.9992409662
 30
0.0
 10
11.1173270428
 20
6.0108147187
 30
0.0
 10
11.1173270428
 20
6.0165786541
 30
0.0
  0
SPLINE
  5
2F2
100
AcDbEntity
  8
0
100
AcDbSpline
 62
7
  6
CONTINUOUS
 70
0
 71
3
 72
39
 73
35
 74
0
 42
0.0000001
 43
0.0000001
 44
0.0000000001
 40
0.0
 40
0.0
 40
0.0
 40
0.0
 40
0.0314026134
 40
0.06300949
 40
0.0948071102
 40
0.1267734453
 40
0.1588809722
 40
0.1910970226
 40
0.2233851132
 40
0.2557062446
 40
0.2880202663
 40
0.3202872751
 40
0.3524690067
 40
0.384530184
 40
0.4164397927
 40
0.448172249
 40
0.4797084083
 40
0.5110363809
 40
0.5421521201
 40
0.5730597413
 40
0.6037715194
 40
0.6343075569
 40
0.6646951118
 40
0.6949675896
 40
0.7251632184
 40
0.755323478
 40
0.7854913548
 40
0.8157095105
 40
0.8460184691
 40
0.8764549222
 40
0.9070502335
 40
0.9378293335
 40
0.9688091139
 40
1.0
 40
1.0
 40
1.0
 40
1.0
 10
11.2864101339
 20
9.3302547735
 30
0.0
 10
11.2798474185
 20
9.3307098993
 30
0.0
 10
11.2667154368
 20
9.3322698537
 30
0.0
 10
11.2472821078
 20
9.3365066885
 30
0.0
 10
11.2282254595
 20
9.3426072271
 30
0.0
 10
11.2097308668
 20
9.3505123492
 30
0.0
 10
11.1919752193
 20
9.3601456916
 30
0.0
 10
11.1751290107
 20
9.3714144058
 30
0.0
 10
11.1593537856
 20
9.3842100805
 30
0.0
 10
11.1448009139
 20
9.3984097817
 30
0.0
 10
11.1316100981
 20
9.413877205
 30
0.0
 10
11.1199079889
 20
9.4304638884
 30
0.0
 10
11.1098070624
 20
9.4480106946
 30
0.0
 10
11.1014045642
 20
9.4663492972
 30
0.0
 10
11.0947815893
 20
9.4853037486
 30
0.0
 10
11.0900021905
 20
9.5046920931
 30
0.0
 10
11.0871128561
 20
9.5243281216
 30
0.0
 10
11.0861420438
 20
9.5440231033
 30
0.0
 10
11.087099869
 20
9.5635875466
 30
0.0
 10
11.0899778323
 20
9.5828329982
 30
0.0
 10
11.0947489513
 20
9.6015738507
 30
0.0
 10
11.1013679447
 20
9.6196291194
 30
0.0
 10
11.1097715879
 20
9.6368242054
 30
0.0
 10
11.119879148
 20
9.6529926957
 30
0.0
 10
11.1315932369
 20
9.6679780108
 30
0.0
 10
11.1448007368
 20
9.6816349956
 30
0.0
 10
11.1593739056
 20
9.693831402
 30
0.0
 10
11.1751715994
 20
9.704449339
 30
0.0
 10
11.1920407929
 20
9.7133863756
 30
0.0
 10
11.2098182114
 20
9.7205565188
 30
0.0
 10
11.2283317257
 20
9.7258910668
 30
0.0
 10
11.2474029767
 20
9.7293391321
 30
0.0
 10
11.2668455916
 20
9.7308685671
 30
0.0
 10
11.2798916666
 20
9.7306001465
 30
0.0
 10
11.2864101339
 20
9.7301480892
 30
0.0
  0
SPLINE
  5
2F3
100
AcDbEntity
  8
0
100
AcDbSpline
 62
7
  6
CONTINUOUS
 70
0
 71
3
 72
15
 73
11
 74
0
 42
0.0000001
 43
0.0000001
 44
0.0000000001
 40
0.0
 40
0.0
 40
0.0
 40
0.0
 40
0.1273483316
 40
0.2538605887
 40
0.3795878789
 40
0.5046051138
 40
0.6290174418
 40
0.7529533759
 40
0.8765605771
 40
1.0
 40
1.0
 40
1.0
 40
1.0
 10
9.1613271287
 20
9.684328752
 30
0.0
 10
9.1613271287
 20
9.6899278306
 30
0.0
 10
9.1618617288
 20
9.7010969693
 30
0.0
 10
9.1642794018
 20
9.717635858
 30
0.0
 10
9.168288309
 20
9.7337591854
 30
0.0
 10
9.1738522324
 20
9.7493161698
 30
0.0
 10
9.1809201415
 20
9.7641633373
 30
0.0
 10
9.1894276126
 20
9.7781635784
 30
0.0
 10
9.199294616
 20
9.7911857439
 30
0.0
 10
9.2067239912
 20
9.7991404002
 30
0.0
 10
9.2106275262
 20
9.8029109571
 30
0.0
  0
SPLINE
  5
2F4
100
AcDbEntity
  8
0
100
AcDbSpline
 62
7
  6
CONTINUOUS
 70
0
 71
3
 72
23
 73
19
 74
0
 42
0.0000001
 43
0.0000001
 44
0.0000000001
 40
0.0
 40
0.0
 40
0.0
 40
0.0
 40
0.0614488802
 40
0.1232974642
 40
0.1855192966
 40
0.2480712718
 40
0.3108995321
 40
0.3739401523
 40
0.437121741
 40
0.5003679845
 40
0.5636003156
 40
0.6267406512
 40
0.6897141167
 40
0.7524516793
 40
0.8148926324
 40
0.8769871104
 40
0.9386966628
 40
1.0
 40
1.0
 40
1.0
 40
1.0
 10
9.3369324543
 20
9.4965451557
 30
0.0
 10
9.3311686782
 20
9.4969448749
 30
0.0
 10
9.3196353725
 20
9.4983149218
 30
0.0
 10
9.3025678401
 20
9.502035968
 30
0.0
 10
9.2858311316
 20
9.5073938324
 30
0.0
 10
9.2695880545
 20
9.5143365918
 30
0.0
 10
9.2539939641
 20
9.5227971794
 30
0.0
 10
9.2391985983
 20
9.5326940502
 30
0.0
 10
9.2253438354
 20
9.5439319905
 30
0.0
 10
9.2125626176
 20
9.5564030326
 30
0.0
 10
9.2009776402
 20
9.5699874647
 30
0.0
 10
9.1907001357
 20
9.5845549016
 30
0.0
 10
9.1818288867
 20
9.5999655676
 30
0.0
 10
9.1744493048
 20
9.6160716707
 30
0.0
 10
9.16863259
 20
9.6327185331
 30
0.0
 10
9.1644350741
 20
9.6497468883
 30
0.0
 10
9.1618974252
 20
9.6669910641
 30
0.0
 10
9.1613271287
 20
9.6785648166
 30
0.0
 10
9.1613271287
 20
9.684328752
 30
0.0
  0
SPLINE
  5
2F5
100
AcDbEntity
  8
0
100
AcDbSpline
 62
7
  6
CONTINUOUS
 70
0
 71
3
 72
39
 73
35
 74
0
 42
0.0000001
 43
0.0000001
 44
0.0000000001
 40
0.0
 40
0.0
 40
0.0
 40
0.0
 40
0.0314026134
 40
0.06300949
 40
0.0948071102
 40
0.1267734453
 40
0.1588809722
 40
0.1910970226
 40
0.2233851132
 40
0.2557062446
 40
0.2880202663
 40
0.3202872751
 40
0.3524690067
 40
0.384530184
 40
0.4164397927
 40
0.448172249
 40
0.4797084083
 40
0.5110363809
 40
0.5421521201
 40
0.5730597413
 40
0.6037715194
 40
0.6343075569
 40
0.6646951118
 40
0.6949675896
 40
0.7251632184
 40
0.755323478
 40
0.7854913548
 40
0.8157095105
 40
0.8460184691
 40
0.8764549222
 40
0.9070502335
 40
0.9378293335
 40
0.9688091139
 40
1.0
 40
1.0
 40
1.0
 40
1.0
 10
11.2864101339
 20
9.7301480892
 30
0.0
 10
11.2929728492
 20
9.7296929634
 30
0.0
 10
11.3061048309
 20
9.728133009
 30
0.0
 10
11.3255381599
 20
9.7238961742
 30
0.0
 10
11.3445948082
 20
9.7177956356
 30
0.0
 10
11.3630894009
 20
9.7098905135
 30
0.0
 10
11.3808450485
 20
9.7002571711
 30
0.0
 10
11.397691257
 20
9.6889884569
 30
0.0
 10
11.4134664821
 20
9.6761927822
 30
0.0
 10
11.4280193538
 20
9.661993081
 30
0.0
 10
11.4412101696
 20
9.6465256577
 30
0.0
 10
11.4529122788
 20
9.6299389743
 30
0.0
 10
11.4630132053
 20
9.6123921681
 30
0.0
 10
11.4714157035
 20
9.5940535655
 30
0.0
 10
11.4780386784
 20
9.5750991141
 30
0.0
 10
11.4828180772
 20
9.5557107696
 30
0.0
 10
11.4857074116
 20
9.5360747411
 30
0.0
 10
11.4866782239
 20
9.5163797594
 30
0.0
 10
11.4857203987
 20
9.4968153161
 30
0.0
 10
11.4828424354
 20
9.4775698645
 30
0.0
 10
11.4780713164
 20
9.458829012
 30
0.0
 10
11.471452323
 20
9.4407737433
 30
0.0
 10
11.4630486798
 20
9.4235786573
 30
0.0
 10
11.4529411198
 20
9.407410167
 30
0.0
 10
11.4412270308
 20
9.3924248519
 30
0.0
 10
11.4280195309
 20
9.3787678671
 30
0.0
 10
11.4134463621
 20
9.3665714607
 30
0.0
 10
11.3976486683
 20
9.3559535237
 30
0.0
 10
11.3807794748
 20
9.3470164871
 30
0.0
 10
11.3630020563
 20
9.3398463439
 30
0.0
 10
11.344488542
 20
9.3345117959
 30
0.0
 10
11.325417291
 20
9.3310637306
 30
0.0
 10
11.3059746761
 20
9.3295342956
 30
0.0
 10
11.2929286011
 20
9.3298027162
 30
0.0
 10
11.2864101339
 20
9.3302547735
 30
0.0
  0
SPLINE
  5
2F6
100
AcDbEntity
  8
0
100
AcDbSpline
 62
7
  6
CONTINUOUS
 70
0
 71
3
 72
39
 73
35
 74
0
 42
0.0000001
 43
0.0000001
 44
0.0000000001
 40
0.0
 40
0.0
 40
0.0
 40
0.0
 40
0.0314026134
 40
0.06300949
 40
0.0948071102
 40
0.1267734453
 40
0.1588809722
 40
0.1910970226
 40
0.2233851132
 40
0.2557062446
 40
0.2880202663
 40
0.3202872751
 40
0.3524690067
 40
0.384530184
 40
0.4164397927
 40
0.448172249
 40
0.4797084083
 40
0.5110363809
 40
0.5421521201
 40
0.5730597413
 40
0.6037715194
 40
0.6343075569
 40
0.6646951118
 40
0.6949675896
 40
0.7251632184
 40
0.755323478
 40
0.7854913548
 40
0.8157095105
 40
0.8460184691
 40
0.8764549222
 40
0.9070502335
 40
0.9378293335
 40
0.9688091139
 40
1.0
 40
1.0
 40
1.0
 40
1.0
 10
11.2864101339
 20
8.3792042679
 30
0.0
 10
11.2798474185
 20
8.3796593938
 30
0.0
 10
11.2667154368
 20
8.3812193481
 30
0.0
 10
11.2472821078
 20
8.3854561829
 30
0.0
 10
11.2282254595
 20
8.3915567216
 30
0.0
 10
11.2097308668
 20
8.3994618437
 30
0.0
 10
11.1919752193
 20
8.4090951861
 30
0.0
 10
11.1751290107
 20
8.4203639003
 30
0.0
 10
11.1593537856
 20
8.433159575
 30
0.0
 10
11.1448009139
 20
8.4473592762
 30
0.0
 10
11.1316100981
 20
8.4628266995
 30
0.0
 10
11.1199079889
 20
8.4794133828
 30
0.0
 10
11.1098070624
 20
8.4969601891
 30
0.0
 10
11.1014045642
 20
8.5152987917
 30
0.0
 10
11.0947815893
 20
8.5342532431
 30
0.0
 10
11.0900021905
 20
8.5536415876
 30
0.0
 10
11.0871128561
 20
8.573277616
 30
0.0
 10
11.0861420438
 20
8.5929725978
 30
0.0
 10
11.087099869
 20
8.612537041
 30
0.0
 10
11.0899778323
 20
8.6317824927
 30
0.0
 10
11.0947489513
 20
8.6505233451
 30
0.0
 10
11.1013679447
 20
8.6685786138
 30
0.0
 10
11.1097715879
 20
8.6857736999
 30
0.0
 10
11.119879148
 20
8.7019421901
 30
0.0
 10
11.1315932369
 20
8.7169275053
 30
0.0
 10
11.1448007368
 20
8.7305844901
 30
0.0
 10
11.1593739056
 20
8.7427808965
 30
0.0
 10
11.1751715994
 20
8.7533988334
 30
0.0
 10
11.1920407929
 20
8.7623358701
 30
0.0
 10
11.2098182114
 20
8.7695060133
 30
0.0
 10
11.2283317257
 20
8.7748405612
 30
0.0
 10
11.2474029767
 20
8.7782886266
 30
0.0
 10
11.2668455916
 20
8.7798180616
 30
0.0
 10
11.2798916666
 20
8.7795496409
 30
0.0
 10
11.2864101339
 20
8.7790975837
 30
0.0
  0
SPLINE
  5
2F7
100
AcDbEntity
  8
0
100
AcDbSpline
 62
7
  6
CONTINUOUS
 70
0
 71
3
 72
15
 73
11
 74
0
 42
0.0000001
 43
0.0000001
 44
0.0000000001
 40
0.0
 40
0.0
 40
0.0
 40
0.0
 40
0.1273483316
 40
0.2538605887
 40
0.3795878789
 40
0.5046051138
 40
0.6290174418
 40
0.7529533759
 40
0.8765605771
 40
1.0
 40
1.0
 40
1.0
 40
1.0
 10
9.1613271287
 20
8.7332782465
 30
0.0
 10
9.1613271287
 20
8.7388773251
 30
0.0
 10
9.1618617288
 20
8.7500464638
 30
0.0
 10
9.1642794018
 20
8.7665853525
 30
0.0
 10
9.168288309
 20
8.7827086798
 30
0.0
 10
9.1738522324
 20
8.7982656642
 30
0.0
 10
9.1809201415
 20
8.8131128317
 30
0.0
 10
9.1894276126
 20
8.8271130728
 30
0.0
 10
9.199294616
 20
8.8401352383
 30
0.0
 10
9.2067239912
 20
8.8480898947
 30
0.0
 10
9.2106275262
 20
8.8518604516
 30
0.0
  0
SPLINE
  5
2F8
100
AcDbEntity
  8
0
100
AcDbSpline
 62
7
  6
CONTINUOUS
 70
0
 71
3
 72
39
 73
35
 74
0
 42
0.0000001
 43
0.0000001
 44
0.0000000001
 40
0.0
 40
0.0
 40
0.0
 40
0.0
 40
0.029942471
 40
0.0599093185
 40
0.089924325
 40
0.1200101043
 40
0.1501875632
 40
0.1804754155
 40
0.2108897611
 40
0.2414437393
 40
0.2721472649
 40
0.3030068482
 40
0.3340255005
 40
0.3652027199
 40
0.3965345553
 40
0.4280137416
 40
0.4596298994
 40
0.4913697937
 40
0.523217641
 40
0.5551554573
 40
0.5871634413
 40
0.619220384
 40
0.6513040994
 40
0.6833918697
 40
0.715460897
 40
0.7474887556
 40
0.7794538398
 40
0.8113357995
 40
0.8431159588
 40
0.874777715
 40
0.9063068673
 40
0.9376920959
 40
0.968924654
 40
1.0
 40
1.0
 40
1.0
 40
1.0
 10
10.6210458989
 20
8.7988359023
 30
0.0
 10
10.613580548
 20
8.7916249331
 30
0.0
 10
10.5980628159
 20
8.7777849651
 30
0.0
 10
10.5732010029
 20
8.7589304564
 30
0.0
 10
10.5468810465
 20
8.7420757552
 30
0.0
 10
10.5192500148
 20
8.7273154056
 30
0.0
 10
10.4904598186
 20
8.7147300479
 30
0.0
 10
10.4606693448
 20
8.7043888676
 30
0.0
 10
10.430042753
 20
8.6963484582
 30
0.0
 10
10.398748776
 20
8.6906527175
 30
0.0
 10
10.366959716
 20
8.6873325719
 30
0.0
 10
10.334850502
 20
8.6864058664
 30
0.0
 10
10.3025977252
 20
8.6878772814
 30
0.0
 10
10.2703786759
 20
8.6917383305
 30
0.0
 10
10.2383703788
 20
8.6979674255
 30
0.0
 10
10.2067486332
 20
8.7065300058
 30
0.0
 10
10.1756870525
 20
8.7173787161
 30
0.0
 10
10.1453561284
 20
8.730453704
 30
0.0
 10
10.1159223102
 20
8.7456829493
 30
0.0
 10
10.0875471047
 20
8.7629826627
 30
0.0
 10
10.0603862028
 20
8.7822577423
 30
0.0
 10
10.03458864
 20
8.8034022966
 30
0.0
 10
10.0102959706
 20
8.8263001993
 30
0.0
 10
9.9876415073
 20
8.8508257381
 30
0.0
 10
9.9667496044
 20
8.8768443032
 30
0.0
 10
9.947734981
 20
8.9042131175
 30
0.0
 10
9.9307020977
 20
8.9327820081
 30
0.0
 10
9.9157445921
 20
8.9623942271
 30
0.0
 10
9.9029447493
 20
8.9928872735
 30
0.0
 10
9.8923730615
 20
9.0240938436
 30
0.0
 10
9.8840877948
 20
9.0558424998
 30
0.0
 10
9.8781348446
 20
9.0879594971
 30
0.0
 10
9.8745470924
 20
9.1202662
 30
0.0
 10
9.8737435292
 20
9.1418729554
 30
0.0
 10
9.8737435292
 20
9.1526449404
 30
0.0
  0
SPLINE
  5
2F9
100
AcDbEntity
  8
0
100
AcDbSpline
 62
7
  6
CONTINUOUS
 70
0
 71
3
 72
23
 73
19
 74
0
 42
0.0000001
 43
0.0000001
 44
0.0000000001
 40
0.0
 40
0.0
 40
0.0
 40
0.0
 40
0.0614488802
 40
0.1232974642
 40
0.1855192966
 40
0.2480712718
 40
0.3108995321
 40
0.3739401523
 40
0.437121741
 40
0.5003679845
 40
0.5636003156
 40
0.6267406512
 40
0.6897141167
 40
0.7524516793
 40
0.8148926324
 40
0.8769871104
 40
0.9386966628
 40
1.0
 40
1.0
 40
1.0
 40
1.0
 10
9.3369324543
 20
8.5454946501
 30
0.0
 10
9.3311686782
 20
8.5458943694
 30
0.0
 10
9.3196353725
 20
8.5472644162
 30
0.0
 10
9.3025678401
 20
8.5509854625
 30
0.0
 10
9.2858311316
 20
8.5563433268
 30
0.0
 10
9.2695880545
 20
8.5632860863
 30
0.0
 10
9.2539939641
 20
8.5717466739
 30
0.0
 10
9.2391985983
 20
8.5816435446
 30
0.0
 10
9.2253438354
 20
8.592881485
 30
0.0
 10
9.2125626176
 20
8.6053525271
 30
0.0
 10
9.2009776402
 20
8.6189369592
 30
0.0
 10
9.1907001357
 20
8.6335043961
 30
0.0
 10
9.1818288867
 20
8.6489150621
 30
0.0
 10
9.1744493048
 20
8.6650211651
 30
0.0
 10
9.16863259
 20
8.6816680276
 30
0.0
 10
9.1644350741
 20
8.6986963828
 30
0.0
 10
9.1618974252
 20
8.7159405586
 30
0.0
 10
9.1613271287
 20
8.7275143111
 30
0.0
 10
9.1613271287
 20
8.7332782465
 30
0.0
  0
SPLINE
  5
2FA
100
AcDbEntity
  8
0
100
AcDbSpline
 62
7
  6
CONTINUOUS
 70
0
 71
3
 72
39
 73
35
 74
0
 42
0.0000001
 43
0.0000001
 44
0.0000000001
 40
0.0
 40
0.0
 40
0.0
 40
0.0
 40
0.0314026134
 40
0.06300949
 40
0.0948071102
 40
0.1267734453
 40
0.1588809722
 40
0.1910970226
 40
0.2233851132
 40
0.2557062446
 40
0.2880202663
 40
0.3202872751
 40
0.3524690067
 40
0.384530184
 40
0.4164397927
 40
0.448172249
 40
0.4797084083
 40
0.5110363809
 40
0.5421521201
 40
0.5730597413
 40
0.6037715194
 40
0.6343075569
 40
0.6646951118
 40
0.6949675896
 40
0.7251632184
 40
0.755323478
 40
0.7854913548
 40
0.8157095105
 40
0.8460184691
 40
0.8764549222
 40
0.9070502335
 40
0.9378293335
 40
0.9688091139
 40
1.0
 40
1.0
 40
1.0
 40
1.0
 10
11.2864101339
 20
8.7790975837
 30
0.0
 10
11.2929728492
 20
8.7786424578
 30
0.0
 10
11.3061048309
 20
8.7770825035
 30
0.0
 10
11.3255381599
 20
8.7728456687
 30
0.0
 10
11.3445948082
 20
8.7667451301
 30
0.0
 10
11.3630894009
 20
8.7588400079
 30
0.0
 10
11.3808450485
 20
8.7492066655
 30
0.0
 10
11.397691257
 20
8.7379379514
 30
0.0
 10
11.4134664821
 20
8.7251422767
 30
0.0
 10
11.4280193538
 20
8.7109425754
 30
0.0
 10
11.4412101696
 20
8.6954751521
 30
0.0
 10
11.4529122788
 20
8.6788884688
 30
0.0
 10
11.4630132053
 20
8.6613416626
 30
0.0
 10
11.4714157035
 20
8.64300306
 30
0.0
 10
11.4780386784
 20
8.6240486085
 30
0.0
 10
11.4828180772
 20
8.6046602641
 30
0.0
 10
11.4857074116
 20
8.5850242356
 30
0.0
 10
11.4866782239
 20
8.5653292538
 30
0.0
 10
11.4857203987
 20
8.5457648106
 30
0.0
 10
11.4828424354
 20
8.5265193589
 30
0.0
 10
11.4780713164
 20
8.5077785065
 30
0.0
 10
11.471452323
 20
8.4897232378
 30
0.0
 10
11.4630486798
 20
8.4725281517
 30
0.0
 10
11.4529411198
 20
8.4563596615
 30
0.0
 10
11.4412270308
 20
8.4413743464
 30
0.0
 10
11.4280195309
 20
8.4277173615
 30
0.0
 10
11.4134463621
 20
8.4155209552
 30
0.0
 10
11.3976486683
 20
8.4049030182
 30
0.0
 10
11.3807794748
 20
8.3959659816
 30
0.0
 10
11.3630020563
 20
8.3887958384
 30
0.0
 10
11.344488542
 20
8.3834612904
 30
0.0
 10
11.325417291
 20
8.380013225
 30
0.0
 10
11.3059746761
 20
8.37848379
 30
0.0
 10
11.2929286011
 20
8.3787522107
 30
0.0
 10
11.2864101339
 20
8.3792042679
 30
0.0
  0
SPLINE
  5
2FB
100
AcDbEntity
  8
0
100
AcDbSpline
 62
7
  6
CONTINUOUS
 70
0
 71
3
 72
39
 73
35
 74
0
 42
0.0000001
 43
0.0000001
 44
0.0000000001
 40
0.0
 40
0.0
 40
0.0
 40
0.0
 40
0.029942471
 40
0.0599093185
 40
0.089924325
 40
0.1200101043
 40
0.1501875632
 40
0.1804754155
 40
0.2108897611
 40
0.2414437393
 40
0.2721472649
 40
0.3030068482
 40
0.3340255005
 40
0.3652027199
 40
0.3965345553
 40
0.4280137416
 40
0.4596298994
 40
0.4913697937
 40
0.523217641
 40
0.5551554573
 40
0.5871634413
 40
0.619220384
 40
0.6513040994
 40
0.6833918697
 40
0.715460897
 40
0.7474887556
 40
0.7794538398
 40
0.8113357995
 40
0.8431159588
 40
0.874777715
 40
0.9063068673
 40
0.9376920959
 40
0.968924654
 40
1.0
 40
1.0
 40
1.0
 40
1.0
 10
10.6210458989
 20
6.2177854683
 30
0.0
 10
10.613580548
 20
6.2105744992
 30
0.0
 10
10.5980628159
 20
6.1967345312
 30
0.0
 10
10.5732010029
 20
6.1778800224
 30
0.0
 10
10.5468810465
 20
6.1610253212
 30
0.0
 10
10.5192500148
 20
6.1462649716
 30
0.0
 10
10.4904598186
 20
6.1336796139
 30
0.0
 10
10.4606693448
 20
6.1233384337
 30
0.0
 10
10.430042753
 20
6.1152980242
 30
0.0
 10
10.398748776
 20
6.1096022835
 30
0.0
 10
10.366959716
 20
6.106282138
 30
0.0
 10
10.334850502
 20
6.1053554325
 30
0.0
 10
10.3025977252
 20
6.1068268475
 30
0.0
 10
10.2703786759
 20
6.1106878965
 30
0.0
 10
10.2383703788
 20
6.1169169916
 30
0.0
 10
10.2067486332
 20
6.1254795719
 30
0.0
 10
10.1756870525
 20
6.1363282822
 30
0.0
 10
10.1453561284
 20
6.14940327
 30
0.0
 10
10.1159223102
 20
6.1646325154
 30
0.0
 10
10.0875471047
 20
6.1819322287
 30
0.0
 10
10.0603862028
 20
6.2012073084
 30
0.0
 10
10.03458864
 20
6.2223518626
 30
0.0
 10
10.0102959706
 20
6.2452497654
 30
0.0
 10
9.9876415073
 20
6.2697753041
 30
0.0
 10
9.9667496044
 20
6.2957938692
 30
0.0
 10
9.947734981
 20
6.3231626835
 30
0.0
 10
9.9307020977
 20
6.3517315741
 30
0.0
 10
9.9157445921
 20
6.3813437931
 30
0.0
 10
9.9029447493
 20
6.4118368396
 30
0.0
 10
9.8923730615
 20
6.4430434096
 30
0.0
 10
9.8840877948
 20
6.4747920659
 30
0.0
 10
9.8781348446
 20
6.5069090631
 30
0.0
 10
9.8745470924
 20
6.539215766
 30
0.0
 10
9.8737435292
 20
6.5608225214
 30
0.0
 10
9.8737435292
 20
6.5715945064
 30
0.0
  0
SPLINE
  5
2FC
100
AcDbEntity
  8
0
100
AcDbSpline
 62
7
  6
CONTINUOUS
 70
0
 71
3
 72
39
 73
35
 74
0
 42
0.0000001
 43
0.0000001
 44
0.0000000001
 40
0.0
 40
0.0
 40
0.0
 40
0.0
 40
0.0314026134
 40
0.06300949
 40
0.0948071102
 40
0.1267734453
 40
0.1588809722
 40
0.1910970226
 40
0.2233851132
 40
0.2557062446
 40
0.2880202663
 40
0.3202872751
 40
0.3524690067
 40
0.384530184
 40
0.4164397927
 40
0.448172249
 40
0.4797084083
 40
0.5110363809
 40
0.5421521201
 40
0.5730597413
 40
0.6037715194
 40
0.6343075569
 40
0.6646951118
 40
0.6949675896
 40
0.7251632184
 40
0.755323478
 40
0.7854913548
 40
0.8157095105
 40
0.8460184691
 40
0.8764549222
 40
0.9070502335
 40
0.9378293335
 40
0.9688091139
 40
1.0
 40
1.0
 40
1.0
 40
1.0
 10
11.2864101339
 20
6.7492043395
 30
0.0
 10
11.2798474185
 20
6.7496594653
 30
0.0
 10
11.2667154368
 20
6.7512194197
 30
0.0
 10
11.2472821078
 20
6.7554562545
 30
0.0
 10
11.2282254595
 20
6.7615567931
 30
0.0
 10
11.2097308668
 20
6.7694619153
 30
0.0
 10
11.1919752193
 20
6.7790952577
 30
0.0
 10
11.1751290107
 20
6.7903639718
 30
0.0
 10
11.1593537856
 20
6.8031596465
 30
0.0
 10
11.1448009139
 20
6.8173593477
 30
0.0
 10
11.1316100981
 20
6.832826771
 30
0.0
 10
11.1199079889
 20
6.8494134544
 30
0.0
 10
11.1098070624
 20
6.8669602606
 30
0.0
 10
11.1014045642
 20
6.8852988632
 30
0.0
 10
11.0947815893
 20
6.9042533146
 30
0.0
 10
11.0900021905
 20
6.9236416591
 30
0.0
 10
11.0871128561
 20
6.9432776876
 30
0.0
 10
11.0861420438
 20
6.9629726694
 30
0.0
 10
11.087099869
 20
6.9825371126
 30
0.0
 10
11.0899778323
 20
7.0017825643
 30
0.0
 10
11.0947489513
 20
7.0205234167
 30
0.0
 10
11.1013679447
 20
7.0385786854
 30
0.0
 10
11.1097715879
 20
7.0557737715
 30
0.0
 10
11.119879148
 20
7.0719422617
 30
0.0
 10
11.1315932369
 20
7.0869275768
 30
0.0
 10
11.1448007368
 20
7.1005845617
 30
0.0
 10
11.1593739056
 20
7.112780968
 30
0.0
 10
11.1751715994
 20
7.123398905
 30
0.0
 10
11.1920407929
 20
7.1323359416
 30
0.0
 10
11.2098182114
 20
7.1395060848
 30
0.0
 10
11.2283317257
 20
7.1448406328
 30
0.0
 10
11.2474029767
 20
7.1482886981
 30
0.0
 10
11.2668455916
 20
7.1498181331
 30
0.0
 10
11.2798916666
 20
7.1495497125
 30
0.0
 10
11.2864101339
 20
7.1490976553
 30
0.0
  0
SPLINE
  5
2FD
100
AcDbEntity
  8
0
100
AcDbSpline
 62
7
  6
CONTINUOUS
 70
0
 71
3
 72
38
 73
34
 74
0
 42
0.0000001
 43
0.0000001
 44
0.0000000001
 40
0.0
 40
0.0
 40
0.0
 40
0.0
 40
0.005377144
 40
0.0108203686
 40
0.0163932472
 40
0.022154628
 40
0.0344350041
 40
0.0410508834
 40
0.0480254643
 40
0.0553856053
 40
0.0631527351
 40
0.0713439868
 40
0.0799727637
 40
0.098576376
 40
0.119017014
 40
0.1413100766
 40
0.1654456344
 40
0.1913942003
 40
0.2191104633
 40
0.2485357714
 40
0.2796004217
 40
0.3122252291
 40
0.3463225051
 40
0.381797094
 40
0.4185474019
 40
0.4564660371
 40
0.4954403317
 40
0.5760808646
 40
0.6594913372
 40
0.7446459025
 40
0.8304909307
 40
0.9159610815
 40
1.0
 40
1.0
 40
1.0
 40
1.0
 10
13.525203817
 20
11.2910720621
 30
0.0
 10
13.5256587287
 20
11.291040507
 30
0.0
 10
13.5265786796
 20
11.2910299959
 30
0.0
 10
13.5279643106
 20
11.2911729396
 30
0.0
 10
13.5293577523
 20
11.2914741767
 30
0.0
 10
13.5312635939
 20
11.2920988028
 30
0.0
 10
13.5331451869
 20
11.293040492
 30
0.0
 10
13.5349803883
 20
11.2942446684
 30
0.0
 10
13.5363934984
 20
11.2953242371
 30
0.0
 10
13.5378072456
 20
11.2965565335
 30
0.0
 10
13.5392210468
 20
11.2979406144
 30
0.0
 10
13.5406338009
 20
11.2994753141
 30
0.0
 10
13.542563208
 20
11.3017790876
 30
0.0
 10
13.544956228
 20
11.3050432052
 30
0.0
 10
13.5477374517
 20
11.3094426486
 30
0.0
 10
13.5504880559
 20
11.3144047825
 30
0.0
 10
13.5531992144
 20
11.3199137406
 30
0.0
 10
13.5558621438
 20
11.3259521232
 30
0.0
 10
13.5584680316
 20
11.3325004439
 30
0.0
 10
13.5610082564
 20
11.3395374112
 30
0.0
 10
13.5634743624
 20
11.3470400137
 30
0.0
 10
13.5658581111
 20
11.3549836447
 30
0.0
 10
13.5681515552
 20
11.3633421723
 30
0.0
 10
13.5703470673
 20
11.372088047
 30
0.0
 10
13.5724373144
 20
11.3811924161
 30
0.0
 10
13.5744153572
 20
11.390625245
 30
0.0
 10
13.5769227098
 20
11.4037479527
 30
0.0
 10
13.57971852
 20
11.4207402742
 30
0.0
 10
13.5824976482
 20
11.4416935839
 30
0.0
 10
13.5847004855
 20
11.4631589784
 30
0.0
 10
13.586297744
 20
11.4848529997
 30
0.0
 10
13.5872682789
 20
11.5064892031
 30
0.0
 10
13.5874919256
 20
11.5208651195
 30
0.0
 10
13.5874919256
 20
11.5279919789
 30
0.0
  0
SPLINE
  5
2FE
100
AcDbEntity
  8
0
100
AcDbSpline
 62
7
  6
CONTINUOUS
 70
0
 71
3
 72
38
 73
34
 74
0
 42
0.0000001
 43
0.0000001
 44
0.0000000001
 40
0.0
 40
0.0
 40
0.0
 40
0.0
 40
0.005377144
 40
0.0108203686
 40
0.0163932472
 40
0.022154628
 40
0.0344350041
 40
0.0410508834
 40
0.0480254643
 40
0.0553856053
 40
0.0631527351
 40
0.0713439868
 40
0.0799727637
 40
0.098576376
 40
0.119017014
 40
0.1413100766
 40
0.1654456344
 40
0.1913942003
 40
0.2191104633
 40
0.2485357714
 40
0.2796004217
 40
0.3122252291
 40
0.3463225051
 40
0.381797094
 40
0.4185474019
 40
0.4564660371
 40
0.4954403317
 40
0.5760808646
 40
0.6594913372
 40
0.7446459025
 40
0.8304909307
 40
0.9159610815
 40
1.0
 40
1.0
 40
1.0
 40
1.0
 10
12.36051911
 20
5.0587399001
 30
0.0
 10
12.3609740216
 20
5.058708345
 30
0.0
 10
12.3618939725
 20
5.0586978339
 30
0.0
 10
12.3632796035
 20
5.0588407776
 30
0.0
 10
12.3646730453
 20
5.0591420147
 30
0.0
 10
12.3665788868
 20
5.0597666408
 30
0.0
 10
12.3684604798
 20
5.06070833
 30
0.0
 10
12.3702956812
 20
5.0619125064
 30
0.0
 10
12.3717087913
 20
5.0629920751
 30
0.0
 10
12.3731225385
 20
5.0642243715
 30
0.0
 10
12.3745363397
 20
5.0656084524
 30
0.0
 10
12.3759490939
 20
5.0671431521
 30
0.0
 10
12.3778785009
 20
5.0694469256
 30
0.0
 10
12.3802715209
 20
5.0727110432
 30
0.0
 10
12.3830527446
 20
5.0771104866
 30
0.0
 10
12.3858033488
 20
5.0820726205
 30
0.0
 10
12.3885145074
 20
5.0875815786
 30
0.0
 10
12.3911774368
 20
5.0936199612
 30
0.0
 10
12.3937833245
 20
5.1001682819
 30
0.0
 10
12.3963235494
 20
5.1072052492
 30
0.0
 10
12.3987896553
 20
5.1147078517
 30
0.0
 10
12.401173404
 20
5.1226514827
 30
0.0
 10
12.4034668481
 20
5.1310100102
 30
0.0
 10
12.4056623602
 20
5.139755885
 30
0.0
 10
12.4077526074
 20
5.1488602541
 30
0.0
 10
12.4097306501
 20
5.158293083
 30
0.0
 10
12.4122380027
 20
5.1714157907
 30
0.0
 10
12.415033813
 20
5.1884081122
 30
0.0
 10
12.4178129411
 20
5.2093614219
 30
0.0
 10
12.4200157784
 20
5.2308268164
 30
0.0
 10
12.4216130369
 20
5.2525208377
 30
0.0
 10
12.4225835718
 20
5.2741570411
 30
0.0
 10
12.4228072185
 20
5.2885329575
 30
0.0
 10
12.4228072185
 20
5.2956598169
 30
0.0
  0
SPLINE
  5
2FF
100
AcDbEntity
  8
0
100
AcDbSpline
 62
7
  6
CONTINUOUS
 70
0
 71
3
 72
30
 73
26
 74
0
 42
0.0000001
 43
0.0000001
 44
0.0000000001
 40
0.0
 40
0.0
 40
0.0
 40
0.0
 40
0.0326547175
 40
0.0501289345
 40
0.0684574827
 40
0.0876993383
 40
0.1079026842
 40
0.1291068625
 40
0.1513428592
 40
0.1746349585
 40
0.1990012701
 40
0.2244546506
 40
0.251003536
 40
0.2786520668
 40
0.3074012262
 40
0.3372484457
 40
0.3681887471
 40
0.4333120927
 40
0.502687599
 40
0.5761972538
 40
0.6536972472
 40
0.7350214913
 40
0.8199844237
 40
0.9083832795
 40
1.0
 40
1.0
 40
1.0
 40
1.0
 10
10.6132459631
 20
9.2908895064
 30
0.0
 10
10.6118958641
 20
9.2936494469
 30
0.0
 10
10.6094411888
 20
9.2977069836
 30
0.0
 10
10.6055413907
 20
9.3028361314
 30
0.0
 10
10.6021403607
 20
9.3067473741
 30
0.0
 10
10.5983331075
 20
9.3106311389
 30
0.0
 10
10.5941220284
 20
9.3144859957
 30
0.0
 10
10.5895102413
 20
9.3183090449
 30
0.0
 10
10.5845010851
 20
9.32209791
 30
0.0
 10
10.579098106
 20
9.3258499103
 30
0.0
 10
10.5733051819
 20
9.3295624701
 30
0.0
 10
10.5671264678
 20
9.3332329877
 30
0.0
 10
10.5605663806
 20
9.3368587891
 30
0.0
 10
10.5536296791
 20
9.3404373614
 30
0.0
 10
10.5463213416
 20
9.3439659991
 30
0.0
 10
10.538646686
 20
9.3474422966
 30
0.0
 10
10.5277458227
 20
9.3520834347
 30
0.0
 10
10.5132300894
 20
9.3577171787
 30
0.0
 10
10.4947314045
 20
9.3641191784
 30
0.0
 10
10.4749203417
 20
9.3702543547
 30
0.0
 10
10.4538546074
 20
9.3761046038
 30
0.0
 10
10.4315953354
 20
9.3816526274
 30
0.0
 10
10.4082073823
 20
9.3868820129
 30
0.0
 10
10.3837591226
 20
9.3917772626
 30
0.0
 10
10.3670844889
 20
9.3947576807
 30
0.0
 10
10.3585847232
 20
9.3961933942
 30
0.0
  0
SPLINE
  5
300
100
AcDbEntity
  8
0
100
AcDbSpline
 62
7
  6
CONTINUOUS
 70
0
 71
3
 72
42
 73
38
 74
0
 42
0.0000001
 43
0.0000001
 44
0.0000000001
 40
0.0
 40
0.0
 40
0.0
 40
0.0
 40
0.0077570699
 40
0.0153269704
 40
0.0227516456
 40
0.0300776216
 40
0.0373559365
 40
0.0446400471
 40
0.0519849155
 40
0.0594452422
 40
0.0670736005
 40
0.0749195404
 40
0.0914281655
 40
0.1001772268
 40
0.1092934991
 40
0.1287139681
 40
0.1390596621
 40
0.1498431401
 40
0.1727481135
 40
0.1974610861
 40
0.223972162
 40
0.2522439523
 40
0.2822192485
 40
0.3138269742
 40
0.3469860684
 40
0.3816082115
 40
0.4175996255
 40
0.4548617498
 40
0.4932915056
 40
0.5327811329
 40
0.5732173791
 40
0.6144810303
 40
0.6564463806
 40
0.7419422648
 40
0.8285510703
 40
0.9150121041
 40
1.0
 40
1.0
 40
1.0
 40
1.0
 10
10.1311073772
 20
9.1855946513
 30
0.0
 10
10.1317641023
 20
9.1855492043
 30
0.0
 10
10.133065912
 20
9.1855100439
 30
0.0
 10
10.134996193
 20
9.1856139835
 30
0.0
 10
10.1368739327
 20
9.1858821525
 30
0.0
 10
10.1386952717
 20
9.1863153615
 30
0.0
 10
10.1404567634
 20
9.1869136074
 30
0.0
 10
10.1421550466
 20
9.1876769154
 30
0.0
 10
10.1437870627
 20
9.1886047622
 30
0.0
 10
10.1453502673
 20
9.1896960049
 30
0.0
 10
10.1468422936
 20
9.1909497725
 30
0.0
 10
10.1487667595
 20
9.192867538
 30
0.0
 10
10.1505086149
 20
9.1950874178
 30
0.0
 10
10.1520702013
 20
9.1975527903
 30
0.0
 10
10.1535931943
 20
9.200328581
 30
0.0
 10
10.1549249305
 20
9.2033553778
 30
0.0
 10
10.1560903374
 20
9.2065938834
 30
0.0
 10
10.1572045852
 20
9.2101619652
 30
0.0
 10
10.1584018457
 20
9.2149759918
 30
0.0
 10
10.159535399
 20
9.2211670938
 30
0.0
 10
10.1604095674
 20
9.2278590127
 30
0.0
 10
10.1610430663
 20
9.2350256486
 30
0.0
 10
10.1614564393
 20
9.2426410551
 30
0.0
 10
10.1616715485
 20
9.2506791751
 30
0.0
 10
10.1617110344
 20
9.2591141655
 30
0.0
 10
10.1615979945
 20
9.2679203482
 30
0.0
 10
10.161355636
 20
9.2770721126
 30
0.0
 10
10.1610069517
 20
9.2865437061
 30
0.0
 10
10.1605745598
 20
9.2963089588
 30
0.0
 10
10.1600805342
 20
9.3063409549
 30
0.0
 10
10.1595461527
 20
9.3166116916
 30
0.0
 10
10.158991861
 20
9.3270917695
 30
0.0
 10
10.1582474003
 20
9.3413910645
 30
0.0
 10
10.1573674528
 20
9.3595367265
 30
0.0
 10
10.1565170027
 20
9.3814636705
 30
0.0
 10
10.1559627746
 20
9.4033572247
 30
0.0
 10
10.1558301737
 20
9.4179073206
 30
0.0
 10
10.1558301737
 20
9.4251197316
 30
0.0
  0
SPLINE
  5
301
100
AcDbEntity
  8
0
100
AcDbSpline
 62
7
  6
CONTINUOUS
 70
0
 71
3
 72
89
 73
85
 74
0
 42
0.0000001
 43
0.0000001
 44
0.0000000001
 40
0.0
 40
0.0
 40
0.0
 40
0.0
 40
0.003733353
 40
0.0073114594
 40
0.0107465074
 40
0.0140526104
 40
0.0172458481
 40
0.0203442725
 40
0.0233678825
 40
0.0263384055
 40
0.0292788562
 40
0.0322130332
 40
0.035164896
 40
0.0381579412
 40
0.0412146165
 40
0.044355878
 40
0.0509620855
 40
0.054463746
 40
0.0581143935
 40
0.061925271
 40
0.0659058765
 40
0.0700642237
 40
0.074406893
 40
0.0789393011
 40
0.0836657734
 40
0.0885896832
 40
0.0937136185
 40
0.0990393699
 40
0.1045681484
 40
0.1103005331
 40
0.1162366121
 40
0.1223760212
 40
0.1287179331
 40
0.1420037264
 40
0.1560812082
 40
0.1709322198
 40
0.1865345626
 40
0.2028625166
 40
0.219887254
 40
0.2375771751
 40
0.2558981891
 40
0.2748139691
 40
0.294286172
 40
0.3142746339
 40
0.3347375511
 40
0.3556316472
 40
0.3769123314
 40
0.3985338607
 40
0.420449491
 40
0.4426116235
 40
0.4649719488
 40
0.5100903338
 40
0.5554102837
 40
0.6005342203
 40
0.6228993855
 40
0.6450677173
 40
0.6669908885
 40
0.6886212785
 40
0.7099121169
 40
0.7308176303
 40
0.7512931941
 40
0.7712954935
 40
0.7907826814
 40
0.8097145453
 40
0.8280526883
 40
0.8457607238
 40
0.8628044957
 40
0.879152332
 40
0.894775323
 40
0.9096476562
 40
0.9237470273
 40
0.9370551564
 40
0.94340836
 40
0.9495591148
 40
0.955506573
 40
0.9612503444
 40
0.966790503
 40
0.9721275908
 40
0.9772627593
 40
0.9821977429
 40
0.9869351567
 40
0.9914784408
 40
0.9958317424
 40
1.0
 40
1.0
 40
1.0
 40
1.0
 10
10.7402865251
 20
11.2833253485
 30
0.0
 10
10.7415412203
 20
11.2847466489
 30
0.0
 10
10.7439237731
 20
11.2875974696
 30
0.0
 10
10.7471665254
 20
11.2919911696
 30
0.0
 10
10.7499975345
 20
11.2964058768
 30
0.0
 10
10.7524145674
 20
11.3008392792
 30
0.0
 10
10.7544158042
 20
11.3052890088
 30
0.0
 10
10.7559993513
 20
11.3097525078
 30
0.0
 10
10.7571634243
 20
11.314226978
 30
0.0
 10
10.7579067852
 20
11.3187092852
 30
0.0
 10
10.7582282621
 20
11.3231961013
 30
0.0
 10
10.7581275852
 20
11.3276838518
 30
0.0
 10
10.757604768
 20
11.3321689677
 30
0.0
 10
10.7566605948
 20
11.3366478919
 30
0.0
 10
10.7552961782
 20
11.3411176605
 30
0.0
 10
10.7528790008
 20
11.347160671
 30
0.0
 10
10.7496306048
 20
11.353086379
 30
0.0
 10
10.7456711454
 20
11.3588464748
 30
0.0
 10
10.7422324528
 20
11.3632298181
 30
0.0
 10
10.738385424
 20
11.3675882619
 30
0.0
 10
10.7341321466
 20
11.3719203551
 30
0.0
 10
10.7294751575
 20
11.3762235095
 30
0.0
 10
10.7244172335
 20
11.3804955858
 30
0.0
 10
10.718961256
 20
11.3847341719
 30
0.0
 10
10.7131103843
 20
11.3889369438
 30
0.0
 10
10.7068680062
 20
11.3931015818
 30
0.0
 10
10.7002376806
 20
11.397225642
 30
0.0
 10
10.6932232863
 20
11.4013068685
 30
0.0
 10
10.6858288423
 20
11.4053428145
 30
0.0
 10
10.6780586657
 20
11.4093312089
 30
0.0
 10
10.6699172675
 20
11.4132697045
 30
0.0
 10
10.6614093697
 20
11.4171560159
 30
0.0
 10
10.6493965934
 20
11.4223457739
 30
0.0
 10
10.6334867241
 20
11.4286693063
 30
0.0
 10
10.6133022664
 20
11.4359011954
 30
0.0
 10
10.5917865639
 20
11.4428727198
 30
0.0
 10
10.5689899409
 20
11.4495674176
 30
0.0
 10
10.5449654674
 20
11.455969447
 30
0.0
 10
10.5197693132
 20
11.4620636415
 30
0.0
 10
10.4934604513
 20
11.467835557
 30
0.0
 10
10.4661005457
 20
11.4732715213
 30
0.0
 10
10.4377537751
 20
11.4783586565
 30
0.0
 10
10.4084866714
 20
11.4830849132
 30
0.0
 10
10.378367955
 20
11.4874390986
 30
0.0
 10
10.3474683701
 20
11.4914109017
 30
0.0
 10
10.3158605166
 20
11.4949909189
 30
0.0
 10
10.2836186789
 20
11.4981706832
 30
0.0
 10
10.2508186368
 20
11.5009426776
 30
0.0
 10
10.2175375114
 20
11.5033003347
 30
0.0
 10
10.1838534753
 20
11.5052381239
 30
0.0
 10
10.1383758448
 20
11.5072616518
 30
0.0
 10
10.0811057207
 20
11.5087077288
 30
0.0
 10
10.0122574424
 20
11.5087197572
 30
0.0
 10
9.9549815398
 20
11.5072937328
 30
0.0
 10
9.9094947676
 20
11.5052862095
 30
0.0
 10
9.8758006043
 20
11.5033602285
 30
0.0
 10
9.8425071498
 20
11.5010142381
 30
0.0
 10
9.8096926061
 20
11.4982537412
 30
0.0
 10
9.7774341289
 20
11.4950852778
 30
0.0
 10
9.7458075376
 20
11.4915163376
 30
0.0
 10
9.7148871606
 20
11.4875553619
 30
0.0
 10
9.6847456466
 20
11.4832117294
 30
0.0
 10
9.655453794
 20
11.4784957255
 30
0.0
 10
9.6270803823
 20
11.4734185185
 30
0.0
 10
9.5996920077
 20
11.467992134
 30
0.0
 10
9.5733529171
 20
11.4622294267
 30
0.0
 10
9.5481248463
 20
11.4561440474
 30
0.0
 10
9.5240668446
 20
11.4497504203
 30
0.0
 10
9.501235163
 20
11.4430636915
 30
0.0
 10
9.4796829583
 20
11.4360996846
 30
0.0
 10
9.4594606432
 20
11.428874845
 30
0.0
 10
9.4435181831
 20
11.4225570634
 30
0.0
 10
9.4314786454
 20
11.4173716953
 30
0.0
 10
9.4229504054
 20
11.4134883669
 30
0.0
 10
9.4147883919
 20
11.4095527351
 30
0.0
 10
9.40699734
 20
11.4055670666
 30
0.0
 10
9.3995817672
 20
11.401533715
 30
0.0
 10
9.3925460165
 20
11.3974549454
 30
0.0
 10
9.3858941346
 20
11.393333233
 30
0.0
 10
9.3796299886
 20
11.3891708342
 30
0.0
 10
9.3737571151
 20
11.3849701233
 30
0.0
 10
9.3682788538
 20
11.3807333456
 30
0.0
 10
9.3631986882
 20
11.3764631347
 30
0.0
 10
9.3600113859
 20
11.3735333113
 30
0.0
 10
9.3584889163
 20
11.3720627185
 30
0.0
  0
SPLINE
  5
302
100
AcDbEntity
  8
0
100
AcDbSpline
 62
7
  6
CONTINUOUS
 70
0
 71
3
 72
15
 73
11
 74
0
 42
0.0000001
 43
0.0000001
 44
0.0000000001
 40
0.0
 40
0.0
 40
0.0
 40
0.0
 40
0.1135249964
 40
0.2295185806
 40
0.3484769487
 40
0.4708353943
 40
0.596944174
 40
0.7270674237
 40
0.8613854241
 40
1.0
 40
1.0
 40
1.0
 40
1.0
 10
10.4956899986
 20
6.8666418943
 30
0.0
 10
10.4969650683
 20
6.8678735172
 30
0.0
 10
10.4994470627
 20
6.8704647244
 30
0.0
 10
10.5029141681
 20
6.8746646203
 30
0.0
 10
10.5061615815
 20
6.8792070849
 30
0.0
 10
10.5091929434
 20
6.8840827607
 30
0.0
 10
10.5120153072
 20
6.8892809994
 30
0.0
 10
10.5146376621
 20
6.8947899697
 30
0.0
 10
10.5170709576
 20
6.9005967415
 30
0.0
 10
10.518552252
 20
6.9045944208
 30
0.0
 10
10.5192674262
 20
6.9066374152
 30
0.0
  0
SPLINE
  5
303
100
AcDbEntity
  8
0
100
AcDbSpline
 62
7
  6
CONTINUOUS
 70
0
 71
3
 72
15
 73
11
 74
0
 42
0.0000001
 43
0.0000001
 44
0.0000000001
 40
0.0
 40
0.0
 40
0.0
 40
0.0
 40
0.123317125
 40
0.2468171892
 40
0.3706750004
 40
0.49504957
 40
0.620077358
 40
0.7458670408
 40
0.8724927714
 40
1.0
 40
1.0
 40
1.0
 40
1.0
 10
11.4192372965
 20
9.4057409507
 30
0.0
 10
11.4151576837
 20
9.4018003142
 30
0.0
 10
11.4065605796
 20
9.3943466635
 30
0.0
 10
11.3925293067
 20
9.3846067323
 30
0.0
 10
11.3774943123
 20
9.3763961178
 30
0.0
 10
11.361609528
 20
9.3697991379
 30
0.0
 10
11.3450351545
 20
9.3648813705
 30
0.0
 10
11.3279381547
 20
9.361691968
 30
0.0
 10
11.310493062
 20
9.3602619512
 30
0.0
 10
11.2987830656
 20
9.3604903537
 30
0.0
 10
11.2929323684
 20
9.3608961009
 30
0.0
  0
SPLINE
  5
304
100
AcDbEntity
  8
0
100
AcDbSpline
 62
7
  6
CONTINUOUS
 70
0
 71
3
 72
15
 73
11
 74
0
 42
0.0000001
 43
0.0000001
 44
0.0000000001
 40
0.0
 40
0.0
 40
0.0
 40
0.0
 40
0.123317125
 40
0.2468171892
 40
0.3706750004
 40
0.49504957
 40
0.620077358
 40
0.7458670408
 40
0.8724927714
 40
1.0
 40
1.0
 40
1.0
 40
1.0
 10
11.4192372965
 20
8.4546904452
 30
0.0
 10
11.4151576837
 20
8.4507498087
 30
0.0
 10
11.4065605796
 20
8.443296158
 30
0.0
 10
11.3925293067
 20
8.4335562267
 30
0.0
 10
11.3774943123
 20
8.4253456123
 30
0.0
 10
11.361609528
 20
8.4187486324
 30
0.0
 10
11.3450351545
 20
8.413830865
 30
0.0
 10
11.3279381547
 20
8.4106414625
 30
0.0
 10
11.310493062
 20
8.4092114456
 30
0.0
 10
11.2987830656
 20
8.4094398481
 30
0.0
 10
11.2929323684
 20
8.4098455954
 30
0.0
  0
SPLINE
  5
305
100
AcDbEntity
  8
0
100
AcDbSpline
 62
7
  6
CONTINUOUS
 70
0
 71
3
 72
15
 73
11
 74
0
 42
0.0000001
 43
0.0000001
 44
0.0000000001
 40
0.0
 40
0.0
 40
0.0
 40
0.0
 40
0.123317125
 40
0.2468171892
 40
0.3706750004
 40
0.49504957
 40
0.620077358
 40
0.7458670408
 40
0.8724927714
 40
1.0
 40
1.0
 40
1.0
 40
1.0
 10
11.4192372965
 20
6.8246905167
 30
0.0
 10
11.4151576837
 20
6.8207498803
 30
0.0
 10
11.4065605796
 20
6.8132962296
 30
0.0
 10
11.3925293067
 20
6.8035562983
 30
0.0
 10
11.3774943123
 20
6.7953456838
 30
0.0
 10
11.361609528
 20
6.7887487039
 30
0.0
 10
11.3450351545
 20
6.7838309365
 30
0.0
 10
11.3279381547
 20
6.780641534
 30
0.0
 10
11.310493062
 20
6.7792115172
 30
0.0
 10
11.2987830656
 20
6.7794399197
 30
0.0
 10
11.2929323684
 20
6.7798456669
 30
0.0
  0
SPLINE
  5
306
100
AcDbEntity
  8
0
100
AcDbSpline
 62
7
  6
CONTINUOUS
 70
0
 71
3
 72
15
 73
11
 74
0
 42
0.0000001
 43
0.0000001
 44
0.0000000001
 40
0.0
 40
0.0
 40
0.0
 40
0.0
 40
0.123317125
 40
0.2468171892
 40
0.3706750004
 40
0.49504957
 40
0.620077358
 40
0.7458670408
 40
0.8724927714
 40
1.0
 40
1.0
 40
1.0
 40
1.0
 10
11.4192372965
 20
5.8736399076
 30
0.0
 10
11.4151576837
 20
5.8696992711
 30
0.0
 10
11.4065605796
 20
5.8622456204
 30
0.0
 10
11.3925293067
 20
5.8525056891
 30
0.0
 10
11.3774943123
 20
5.8442950747
 30
0.0
 10
11.361609528
 20
5.8376980948
 30
0.0
 10
11.3450351545
 20
5.8327803274
 30
0.0
 10
11.3279381547
 20
5.8295909248
 30
0.0
 10
11.310493062
 20
5.828160908
 30
0.0
 10
11.2987830656
 20
5.8283893105
 30
0.0
 10
11.2929323684
 20
5.8287950578
 30
0.0
  0
SPLINE
  5
307
100
AcDbEntity
  8
0
100
AcDbSpline
 62
7
  6
CONTINUOUS
 70
0
 71
3
 72
15
 73
11
 74
0
 42
0.0000001
 43
0.0000001
 44
0.0000000001
 40
0.0
 40
0.0
 40
0.0
 40
0.0
 40
0.123317125
 40
0.2468171892
 40
0.3706750004
 40
0.49504957
 40
0.620077358
 40
0.7458670408
 40
0.8724927714
 40
1.0
 40
1.0
 40
1.0
 40
1.0
 10
9.4632373824
 20
9.5413900055
 30
0.0
 10
9.4591577695
 20
9.537449369
 30
0.0
 10
9.4505606655
 20
9.5299957183
 30
0.0
 10
9.4365293926
 20
9.520255787
 30
0.0
 10
9.4214943982
 20
9.5120451726
 30
0.0
 10
9.4056096139
 20
9.5054481927
 30
0.0
 10
9.3890352403
 20
9.5005304253
 30
0.0
 10
9.3719382405
 20
9.4973410228
 30
0.0
 10
9.3544931478
 20
9.4959110059
 30
0.0
 10
9.3427831515
 20
9.4961394084
 30
0.0
 10
9.3369324543
 20
9.4965451557
 30
0.0
  0
SPLINE
  5
308
100
AcDbEntity
  8
0
100
AcDbSpline
 62
7
  6
CONTINUOUS
 70
0
 71
3
 72
15
 73
11
 74
0
 42
0.0000001
 43
0.0000001
 44
0.0000000001
 40
0.0
 40
0.0
 40
0.0
 40
0.0
 40
0.123317125
 40
0.2468171892
 40
0.3706750004
 40
0.49504957
 40
0.620077358
 40
0.7458670408
 40
0.8724927714
 40
1.0
 40
1.0
 40
1.0
 40
1.0
 10
9.4632373824
 20
8.5903395
 30
0.0
 10
9.4591577695
 20
8.5863988635
 30
0.0
 10
9.4505606655
 20
8.5789452128
 30
0.0
 10
9.4365293926
 20
8.5692052815
 30
0.0
 10
9.4214943982
 20
8.560994667
 30
0.0
 10
9.4056096139
 20
8.5543976872
 30
0.0
 10
9.3890352403
 20
8.5494799198
 30
0.0
 10
9.3719382405
 20
8.5462905172
 30
0.0
 10
9.3544931478
 20
8.5448605004
 30
0.0
 10
9.3427831515
 20
8.5450889029
 30
0.0
 10
9.3369324543
 20
8.5454946501
 30
0.0
  0
SPLINE
  5
309
100
AcDbEntity
  8
0
100
AcDbSpline
 62
7
  6
CONTINUOUS
 70
0
 71
3
 72
15
 73
11
 74
0
 42
0.0000001
 43
0.0000001
 44
0.0000000001
 40
0.0
 40
0.0
 40
0.0
 40
0.0
 40
0.123317125
 40
0.2468171892
 40
0.3706750004
 40
0.49504957
 40
0.620077358
 40
0.7458670408
 40
0.8724927714
 40
1.0
 40
1.0
 40
1.0
 40
1.0
 10
9.4632373824
 20
6.9603395715
 30
0.0
 10
9.4591577695
 20
6.956398935
 30
0.0
 10
9.4505606655
 20
6.9489452843
 30
0.0
 10
9.4365293926
 20
6.9392053531
 30
0.0
 10
9.4214943982
 20
6.9309947386
 30
0.0
 10
9.4056096139
 20
6.9243977587
 30
0.0
 10
9.3890352403
 20
6.9194799913
 30
0.0
 10
9.3719382405
 20
6.9162905888
 30
0.0
 10
9.3544931478
 20
6.914860572
 30
0.0
 10
9.3427831515
 20
6.9150889745
 30
0.0
 10
9.3369324543
 20
6.9154947217
 30
0.0
  0
SPLINE
  5
30A
100
AcDbEntity
  8
0
100
AcDbSpline
 62
7
  6
CONTINUOUS
 70
0
 71
3
 72
15
 73
11
 74
0
 42
0.0000001
 43
0.0000001
 44
0.0000000001
 40
0.0
 40
0.0
 40
0.0
 40
0.0
 40
0.123317125
 40
0.2468171892
 40
0.3706750004
 40
0.49504957
 40
0.620077358
 40
0.7458670408
 40
0.8724927714
 40
1.0
 40
1.0
 40
1.0
 40
1.0
 10
9.4632373824
 20
6.0092889624
 30
0.0
 10
9.4591577695
 20
6.0053483259
 30
0.0
 10
9.4505606655
 20
5.9978946752
 30
0.0
 10
9.4365293926
 20
5.9881547439
 30
0.0
 10
9.4214943982
 20
5.9799441294
 30
0.0
 10
9.4056096139
 20
5.9733471496
 30
0.0
 10
9.3890352403
 20
5.9684293821
 30
0.0
 10
9.3719382405
 20
5.9652399796
 30
0.0
 10
9.3544931478
 20
5.9638099628
 30
0.0
 10
9.3427831515
 20
5.9640383653
 30
0.0
 10
9.3369324543
 20
5.9644441125
 30
0.0
  0
SPLINE
  5
30B
100
AcDbEntity
  8
0
100
AcDbSpline
 62
7
  6
CONTINUOUS
 70
0
 71
3
 72
15
 73
11
 74
0
 42
0.0000001
 43
0.0000001
 44
0.0000000001
 40
0.0
 40
0.0
 40
0.0
 40
0.0
 40
0.1273483316
 40
0.2538605887
 40
0.3795878789
 40
0.5046051138
 40
0.6290174418
 40
0.7529533759
 40
0.8765605771
 40
1.0
 40
1.0
 40
1.0
 40
1.0
 10
9.1613271287
 20
7.103278318
 30
0.0
 10
9.1613271287
 20
7.1088773966
 30
0.0
 10
9.1618617288
 20
7.1200465353
 30
0.0
 10
9.1642794018
 20
7.1365854241
 30
0.0
 10
9.168288309
 20
7.1527087514
 30
0.0
 10
9.1738522324
 20
7.1682657358
 30
0.0
 10
9.1809201415
 20
7.1831129033
 30
0.0
 10
9.1894276126
 20
7.1971131444
 30
0.0
 10
9.199294616
 20
7.2101353099
 30
0.0
 10
9.2067239912
 20
7.2180899662
 30
0.0
 10
9.2106275262
 20
7.2218605231
 30
0.0
  0
SPLINE
  5
30C
100
AcDbEntity
  8
0
100
AcDbSpline
 62
7
  6
CONTINUOUS
 70
0
 71
3
 72
23
 73
19
 74
0
 42
0.0000001
 43
0.0000001
 44
0.0000000001
 40
0.0
 40
0.0
 40
0.0
 40
0.0
 40
0.0614488802
 40
0.1232974642
 40
0.1855192966
 40
0.2480712718
 40
0.3108995321
 40
0.3739401523
 40
0.437121741
 40
0.5003679845
 40
0.5636003156
 40
0.6267406512
 40
0.6897141167
 40
0.7524516793
 40
0.8148926324
 40
0.8769871104
 40
0.9386966628
 40
1.0
 40
1.0
 40
1.0
 40
1.0
 10
9.3369324543
 20
6.9154947217
 30
0.0
 10
9.3311686782
 20
6.9158944409
 30
0.0
 10
9.3196353725
 20
6.9172644878
 30
0.0
 10
9.3025678401
 20
6.920985534
 30
0.0
 10
9.2858311316
 20
6.9263433984
 30
0.0
 10
9.2695880545
 20
6.9332861578
 30
0.0
 10
9.2539939641
 20
6.9417467455
 30
0.0
 10
9.2391985983
 20
6.9516436162
 30
0.0
 10
9.2253438354
 20
6.9628815566
 30
0.0
 10
9.2125626176
 20
6.9753525986
 30
0.0
 10
9.2009776402
 20
6.9889370307
 30
0.0
 10
9.1907001357
 20
7.0035044677
 30
0.0
 10
9.1818288867
 20
7.0189151336
 30
0.0
 10
9.1744493048
 20
7.0350212367
 30
0.0
 10
9.16863259
 20
7.0516680991
 30
0.0
 10
9.1644350741
 20
7.0686964544
 30
0.0
 10
9.1618974252
 20
7.0859406301
 30
0.0
 10
9.1613271287
 20
7.0975143826
 30
0.0
 10
9.1613271287
 20
7.103278318
 30
0.0
  0
ENDSEC
  0
SECTION
  2
OBJECTS
  0
DICTIONARY
  5
C
100
AcDbDictionary
280
0
281
1
  3
ACAD_GROUP
350
D
  3
ACAD_MLINESTYLE
350
17
  3
ACAD_LAYOUT
350
1A
  3
ACAD_PLOTSETTINGS
350
19
  3
ACAD_PLOTSTYLENAME
350
E
  3
ACAD_IMAGE_DICT
350
       30E
  3
ACAD_IMAGE_VARS
350
       30F
  3
ACAD_TABLESTYLE
350
       310
  0
IMAGEDEF_REACTOR
  5
30D
100
AcDbRasterImageDefReactor
 90
2
330
292
  0
DICTIONARY
  5
D
102
{ACAD_REACTORS
330
C
102
}
100
AcDbDictionary
280
0
281
1
  0
ACDBDICTIONARYWDFLT
  5
E
102
{ACAD_REACTORS
330
C
102
}
100
AcDbDictionary
281
1
  3
Normal
350
F
100
AcDbDictionaryWithDefault
340
F
  0
DICTIONARY
  5
30E
330
C
100
AcDbDictionary
281
1
  3
XC4_assy_2_img_1
350
       313
  0
RASTERVARIABLES
  5
30F
330
C
100
AcDbRasterVariables
 90
0
 70
0
 71
1
 72
5
  0
DICTIONARY
  5
17
102
{ACAD_REACTORS
330
C
102
}
100
AcDbDictionary
280
0
281
1
  3
Standard
350
18
  0
DICTIONARY
  5
310
330
C
100
AcDbDictionary
281
1
  3
Standard
350
       314
  3
Standard1
350
       315
  0
DICTIONARY
  5
19
102
{ACAD_REACTORS
330
C
102
}
100
AcDbDictionary
281
1
  0
DICTIONARY
  5
1A
102
{ACAD_REACTORS
330
C
102
}
100
AcDbDictionary
281
1
  3
Model
350
311
  3
Layout1
350
312
  0
ACDBPLACEHOLDER
  5
F
102
{ACAD_REACTORS
330
E
102
}
  0
MLINESTYLE
  5
18
102
{ACAD_REACTORS
330
17
102
}
100
AcDbMlineStyle
  2
STANDARD
 70
0
  3

 62
256
 51
90.0
 52
90.0
 71
2
 49
0.5
 62
256
  6
BYLAYER
 49
-0.5
 62
256
  6
BYLAYER
  0
LAYOUT
  5
311
102
{ACAD_REACTORS
330
1A
102
}
100
AcDbPlotSettings
  1

  2
none_device
  4
ANSI_C_(22.00_x_17.00_Inches)
  6

 40
0.0
 41
0.0
 42
0.0
 43
0.0
 44
558.8
 45
431.8
 46
0.0
 47
0.0
 48
0.0
 49
0.0
140
0.0
141
0.0
142
1.0
143
1.0
 70
1024
 72
0
 73
0
 74
0
  7

 75
0
147
1.0
148
0.0
149
0.0
100
AcDbLayout
  1
Model
 70
0
 71
0
 10
0.0
 20
0.0
 11
22.0
 21
17.0
 12
0.0
 22
0.0
 32
0.0
 14
0.0
 24
0.0
 34
0.0
 15
0.0
 25
0.0
 35
0.0
146
0.0
 13
0.0
 23
0.0
 33
0.0
 16
1.0
 26
0.0
 36
0.0
 17
0.0
 27
1.0
 37
0.0
 76
0
330
20C
345
0
346
0
  0
LAYOUT
  5
312
102
{ACAD_REACTORS
330
1A
102
}
100
AcDbPlotSettings
  1

  2
none_device
  4
ANSI_C_(22.00_x_17.00_Inches)
  6

 40
0.0
 41
0.0
 42
0.0
 43
0.0
 44
558.8
 45
431.8
 46
0.0
 47
0.0
 48
0.0
 49
0.0
140
0.0
141
0.0
142
1.0
143
1.0
 70
0
 72
0
 73
0
 74
0
  7

 75
0
147
1.0
148
0.0
149
0.0
100
AcDbLayout
  1
Layout1
 70
0
 71
1
 10
0.0
 20
0.0
 11
22.0
 21
17.0
 12
0.0
 22
0.0
 32
0.0
 14
0.0
 24
0.0
 34
0.0
 15
0.0
 25
0.0
 35
0.0
146
0.0
 13
0.0
 23
0.0
 33
0.0
 16
1.0
 26
0.0
 36
0.0
 17
0.0
 27
1.0
 37
0.0
 76
0
330
20D
345
0
346
0
  0
IMAGEDEF
  5
313
102
{ACAD_REACTORS
330
30E
330
30D
102
}
100
AcDbRasterImageDef
 90
0
  1
XC4_assy_2_img_1.png
 10
369.0
 20
92.0
 11
0.0066666667
 21
0.0066666667
280
1
281
0
  0
TABLESTYLE
  5
314
102
{ACAD_REACTORS
330
310
330
295
330
296
102
}
330
310
100
AcDbTableStyle
  3
Standard
 70
0
 71
0
 40
0.06
 41
0.06
280
1
281
1
  7
Standard
140
0.18
170
1
 62
0
 63
7
283
0
  7
Standard
140
0.18
170
1
 62
0
 63
7
283
0
  7
Standard
140
0.18
170
1
 62
0
 63
7
283
0
  0
TABLESTYLE
  5
315
102
{ACAD_REACTORS
330
310
330
294
102
}
330
310
100
AcDbTableStyle
  3
Standard1
 70
1
 71
0
 40
0.06
 41
0.06
280
1
281
1
  7
Standard
140
0.18
170
1
 62
0
 63
7
283
0
  7
Standard
140
0.18
170
1
 62
0
 63
7
283
0
  7
Standard
140
0.18
170
1
 62
0
 63
7
283
0
  0
ENDSEC
  0
EOF
