999
DXF file: XBU_assy_2.dxf
999
Pro/ENGINEER 2014200 by Parametric Technology Corporation
  0
SECTION
  2
HEADER
  9
$ACADVER
  1
AC1021
  9
$DWGCODEPAGE
  3
ANSI_1252
  9
$EXTMAX
 10
22.0
 20
17.0
 30
0.0
  9
$EXTMIN
 10
0.0
 20
0.0
 30
0.0
  9
$LIMMIN
 10
0.0
 20
0.0
  9
$LIMMAX
 10
22.0
 20
17.0
  9
$VIEWCTR
 10
11.0
 20
8.5
  9
$VIEWSIZE
 40
17.0
  9
$CLAYER
  8
0
  9
$LTSCALE
 40
1.21
  9
$CELTYPE
  6
BYLAYER
  9
$DIMSCALE
 40
1.0
  9
$DIMASZ
 40
0.1875
  9
$DIMEXO
 40
0.0625
  9
$DIMDLI
 40
0.836
  9
$DIMEXE
 40
0.125
  9
$DIMCEN
 40
0.198
  9
$DIMLFAC
 40
1.0
  9
$DIMBLK
  1
_FILLED
  9
$DIMTXT
 40
0.1
  9
$DIMTOL
 70
0
  9
$DIMLIM
 70
0
  9
$DIMTFAC
 40
1.0
  9
$DIMGAP
 40
0.09
  9
$DIMDSEP
 70
46
  9
$AUNITS
 70
0
  9
$PDMODE
 70
3
  9
$PDSIZE
 40
0.3125
  9
$HANDSEED
  5
41F
  9
$TILEMODE
 70
1
  9
$MEASUREMENT
 70
0
  9
$INSUNITS
 70
1
  0
ENDSEC
  0
SECTION
  2
CLASSES
  0
CLASS
  1
ACDBDICTIONARYWDFLT
  2
AcDbDictionaryWithDefault
  3
AutoCAD 2000
 90
0
 91
1
280
0
281
0
  0
CLASS
  1
ACDBPLACEHOLDER
  2
AcDbPlaceHolder
  3
AutoCAD 2000
 90
0
 91
1
280
0
281
0
  0
CLASS
  1
LAYOUT
  2
AcDbLayout
  3
AutoCAD 2000
 90
0
 91
0
280
0
281
0
  0
CLASS
  1
RASTERVARIABLES
  2
AcDbRasterVariables
  3
ISM
 90
0
 91
1
280
0
281
0
  0
CLASS
  1
IMAGEDEF
  2
AcDbRasterImageDef
  3
ISM
 90
0
 91
1
280
0
281
0
  0
CLASS
  1
IMAGEDEF_REACTOR
  2
AcDbRasterImageDefReactor
  3
ISM
 90
0
 91
1
280
0
281
0
  0
CLASS
  1
IMAGE
  2
AcDbRasterImage
  3
ISM
 90
127
 91
1
280
0
281
1
  0
CLASS
  1
TABLESTYLE
  2
AcDbTableStyle
  3
ObjectDBX Classes
 90
2047
 91
1
280
0
281
0
  0
CLASS
  1
ACAD_TABLE
  2
AcDbTable
  3
ObjectDBX Classes
 90
1025
 91
3
280
0
281
1
  0
ENDSEC
  0
SECTION
  2
TABLES
  0
TABLE
  2
VPORT
  5
8
100
AcDbSymbolTable
 70
2
  0
VPORT
  5
1F4
100
AcDbSymbolTableRecord
100
AcDbViewportTableRecord
  2
*ACTIVE
 70
0
 10
0.0
 20
0.0
 11
1.0
 21
1.0
 12
11.0
 22
8.5
 13
0.0
 23
0.0
 14
1.0
 24
1.0
 15
0.0
 25
0.0
 16
0.0
 26
0.0
 36
1.0
 17
0.0
 27
0.0
 37
0.0
 40
17.0
 41
1.2941176471
 42
50.0
 43
0.0
 44
0.0
 50
0.0
 51
0.0
 71
0
 72
100
 73
1
 74
1
 75
0
 76
0
 77
0
 78
0
  0
ENDTAB
  0
TABLE
  2
LTYPE
  5
5
100
AcDbSymbolTable
 70
6
  0
LTYPE
  5
14
100
AcDbSymbolTableRecord
100
AcDbLinetypeTableRecord
  2
BYBLOCK
 70
0
  3

 72
65
 73
0
 40
0.0
  0
LTYPE
  5
15
100
AcDbSymbolTableRecord
100
AcDbLinetypeTableRecord
  2
BYLAYER
 70
0
  3

 72
65
 73
0
 40
0.0
  0
LTYPE
  5
16
100
AcDbSymbolTableRecord
100
AcDbLinetypeTableRecord
  2
CONTINUOUS
 70
64
  3
Solid line
 72
65
 73
0
 40
0.0
  0
LTYPE
  5
1F5
100
AcDbSymbolTableRecord
100
AcDbLinetypeTableRecord
  2
CENTER
 70
64
  3
____ _ ____ _ ____ _ ____ _ ____ _ ____ _ ____
 72
65
 73
4
 40
0.6
 49
0.375
 74
0
 49
-0.075
 74
0
 49
0.075
 74
0
 49
-0.075
 74
0
  0
LTYPE
  5
1F6
100
AcDbSymbolTableRecord
100
AcDbLinetypeTableRecord
  2
HIDDEN
 70
64
  3
- - - - - - - - - - - - - - - - - - - -
 72
65
 73
2
 40
0.2
 49
0.1
 74
0
 49
-0.1
 74
0
  0
LTYPE
  5
1F7
100
AcDbSymbolTableRecord
100
AcDbLinetypeTableRecord
  2
PHANTOM
 70
64
  3
_____ _ _ _____ _ _ _____ _ _ _____
 72
65
 73
6
 40
0.8
 49
0.45
 74
0
 49
-0.05
 74
0
 49
0.1
 74
0
 49
-0.05
 74
0
 49
0.1
 74
0
 49
-0.05
 74
0
  0
LTYPE
  5
1F8
100
AcDbSymbolTableRecord
100
AcDbLinetypeTableRecord
  2
DOT
 70
64
  3
. . . . . . . . . . . . . . . . . . . .
 72
65
 73
2
 40
0.2
 49
0.1
 74
0
 49
-0.1
 74
0
  0
LTYPE
  5
1F9
100
AcDbSymbolTableRecord
100
AcDbLinetypeTableRecord
  2
DASHED
 70
64
  3
- - - - - - - - - - - - - - - - - - - -
 72
65
 73
2
 40
0.2
 49
0.1
 74
0
 49
-0.1
 74
0
  0
ENDTAB
  0
TABLE
  2
LAYER
  5
2
100
AcDbSymbolTable
 70
36
  0
LAYER
  5
10
100
AcDbSymbolTableRecord
100
AcDbLayerTableRecord
  2
0
 70
0
 62
7
  6
CONTINUOUS
370
-3
390
F
  0
LAYER
  5
1FA
100
AcDbSymbolTableRecord
100
AcDbLayerTableRecord
  2
DEFAULT_1
 70
0
 62
7
  6
CENTER
370
-3
390
F
  0
LAYER
  5
1FB
100
AcDbSymbolTableRecord
100
AcDbLayerTableRecord
  2
DEFAULT_2
 70
0
 62
8
  6
HIDDEN
370
-3
390
F
  0
LAYER
  5
1FC
100
AcDbSymbolTableRecord
100
AcDbLayerTableRecord
  2
DEFAULT_3
 70
0
 62
7
  6
PHANTOM
370
-3
390
F
  0
LAYER
  5
1FD
100
AcDbSymbolTableRecord
100
AcDbLayerTableRecord
  2
01___PRT_ALL_DTM_PLN
 70
0
 62
7
  6
CONTINUOUS
370
-3
390
F
  0
LAYER
  5
1FE
100
AcDbSymbolTableRecord
100
AcDbLayerTableRecord
  2
01___PRT_DEF_DTM_PLN
 70
0
 62
7
  6
CONTINUOUS
370
-3
390
F
  0
LAYER
  5
1FF
100
AcDbSymbolTableRecord
100
AcDbLayerTableRecord
  2
02___PRT_ALL_AXES
 70
0
 62
7
  6
CONTINUOUS
370
-3
390
F
  0
LAYER
  5
200
100
AcDbSymbolTableRecord
100
AcDbLayerTableRecord
  2
03___PRT_ALL_CURVES
 70
0
 62
7
  6
CONTINUOUS
370
-3
390
F
  0
LAYER
  5
201
100
AcDbSymbolTableRecord
100
AcDbLayerTableRecord
  2
04___PRT_ALL_DTM_PNT
 70
0
 62
7
  6
CONTINUOUS
370
-3
390
F
  0
LAYER
  5
202
100
AcDbSymbolTableRecord
100
AcDbLayerTableRecord
  2
05___PRT_ALL_DTM_CSYS
 70
0
 62
7
  6
CONTINUOUS
370
-3
390
F
  0
LAYER
  5
203
100
AcDbSymbolTableRecord
100
AcDbLayerTableRecord
  2
05___PRT_DEF_DTM_CSYS
 70
0
 62
7
  6
CONTINUOUS
370
-3
390
F
  0
LAYER
  5
204
100
AcDbSymbolTableRecord
100
AcDbLayerTableRecord
  2
06___PRT_ALL_SURFS
 70
0
 62
7
  6
CONTINUOUS
370
-3
390
F
  0
LAYER
  5
205
100
AcDbSymbolTableRecord
100
AcDbLayerTableRecord
  2
DATUM_PLANES
 70
0
 62
7
  6
CONTINUOUS
370
-3
390
F
  0
LAYER
  5
206
100
AcDbSymbolTableRecord
100
AcDbLayerTableRecord
  2
PORT_AREAS
 70
0
 62
7
  6
CONTINUOUS
370
-3
390
F
  0
LAYER
  5
207
100
AcDbSymbolTableRecord
100
AcDbLayerTableRecord
  2
SUNNBOMCOSMETIC
 70
0
 62
7
  6
CONTINUOUS
370
-3
390
F
  0
LAYER
  5
208
100
AcDbSymbolTableRecord
100
AcDbLayerTableRecord
  2
SUNNBOMSTAMPING
 70
0
 62
7
  6
CONTINUOUS
370
-3
390
F
  0
LAYER
  5
209
100
AcDbSymbolTableRecord
100
AcDbLayerTableRecord
  2
THREADS
 70
0
 62
7
  6
CONTINUOUS
370
-3
390
F
  0
ENDTAB
  0
TABLE
  2
STYLE
  5
3
100
AcDbSymbolTable
 70
1
  0
STYLE
  5
11
100
AcDbSymbolTableRecord
100
AcDbTextStyleTableRecord
  2
STANDARD
 70
0
 40
0.0
 41
0.8
 50
0.0
 71
0
 42
0.2
  3
txt
  4

  0
STYLE
  5
20A
100
AcDbSymbolTableRecord
100
AcDbTextStyleTableRecord
  2
TEXTSTYLE_1
 70
0
 40
0.0
 41
0.8
 50
0.0
 71
0
 42
0.2
  3
gdt
  4

  0
ENDTAB
  0
TABLE
  2
VIEW
  5
6
100
AcDbSymbolTable
 70
0
  0
ENDTAB
  0
TABLE
  2
UCS
  5
7
100
AcDbSymbolTable
 70
0
  0
ENDTAB
  0
TABLE
  2
APPID
  5
9
100
AcDbSymbolTable
 70
1
  0
APPID
  5
20B
100
AcDbSymbolTableRecord
100
AcDbRegAppTableRecord
  2
ACAD
 70
0
  0
ENDTAB
  0
TABLE
  2
BLOCK_RECORD
  5
1
100
AcDbSymbolTable
 70
0
  0
BLOCK_RECORD
  5
20C
100
AcDbSymbolTableRecord
100
AcDbBlockTableRecord
  2
*Model_Space
  0
BLOCK_RECORD
  5
20D
100
AcDbSymbolTableRecord
100
AcDbBlockTableRecord
  2
*Paper_Space
  0
BLOCK_RECORD
  5
20E
100
AcDbSymbolTableRecord
100
AcDbBlockTableRecord
  2
SUN_FIRST_THIRD_ANGLE_BL0
  0
BLOCK_RECORD
  5
20F
100
AcDbSymbolTableRecord
100
AcDbBlockTableRecord
  2
*T1
  0
BLOCK_RECORD
  5
210
100
AcDbSymbolTableRecord
100
AcDbBlockTableRecord
  2
*T2
  0
BLOCK_RECORD
  5
211
100
AcDbSymbolTableRecord
100
AcDbBlockTableRecord
  2
*T3
  0
ENDTAB
  0
TABLE
  2
DIMSTYLE
  5
A
100
AcDbSymbolTable
 70
1
100
AcDbDimStyleTable
 71
0
  0
DIMSTYLE
105
212
100
AcDbSymbolTableRecord
100
AcDbDimStyleTableRecord
  2
STANDARD
 70
0
  3

  4

 40
1.0
 41
0.1875
 42
0.0625
 43
0.38
 44
0.125
 45
0.0
 46
0.0
 47
0.001
 48
0.001
140
0.1
141
0.09
142
0.0
143
25.4
144
1.0
145
0.0
146
1.0
147
0.09
 71
0.0
 72
0.0
 73
1
 74
1
 75
0
 76
0
 77
0
 78
4
170
0
171
2
172
0
173
0
174
0
175
0
176
0
177
0
178
0
270
2
271
3
272
3
273
2
274
2
275
0
280
0
281
0
282
0
283
1
284
4
285
0
286
0
287
3
288
0
340
11
278
46
  0
ENDTAB
  0
ENDSEC
  0
SECTION
  2
BLOCKS
  0
BLOCK
  5
20
100
AcDbEntity
  8
0
100
AcDbBlockBegin
  2
*Model_Space
 70
0
 10
0.0
 20
0.0
 30
0.0
  3
*Model_Space
  1

  0
ENDBLK
  5
21
100
AcDbEntity
  8
0
100
AcDbBlockEnd
  0
BLOCK
  5
1C
100
AcDbEntity
  8
0
100
AcDbBlockBegin
  2
*Paper_Space
 70
0
 10
0.0
 20
0.0
 30
0.0
  3
*Paper_Space
  1

  0
ENDBLK
  5
1D
100
AcDbEntity
  8
0
100
AcDbBlockEnd
  0
BLOCK
  5
213
100
AcDbEntity
  8
0
100
AcDbBlockBegin
 62
2
  6
CONTINUOUS
  2
SUN_FIRST_THIRD_ANGLE_BL0
 70
64
 10
20.4816717061
 20
1.2289683772
  3
SUN_FIRST_THIRD_ANGLE_BL0
  1

  0
TEXT
  5
214
100
AcDbEntity
  8
0
100
AcDbText
 62
2
  6
CONTINUOUS
 10
19.4750896608
 20
1.4136269581
  7
STANDARD
 40
0.08
  1
FIRST ANGLE
 41
0.8
 72
0
100
AcDbText
  0
TEXT
  5
215
100
AcDbEntity
  8
0
100
AcDbText
 62
2
  6
CONTINUOUS
 10
20.7842537513
 20
1.4047600029
  7
STANDARD
 40
0.08
  1
THIRD ANGLE
 41
0.8
 72
0
100
AcDbText
  0
LINE
  5
216
100
AcDbEntity
  8
0
100
AcDbLine
 62
7
  6
CONTINUOUS
 10
19.4767170086
 20
1.1727031207
 11
19.6334271527
 21
1.1717972817
  0
LINE
  5
217
100
AcDbEntity
  8
0
100
AcDbLine
 62
7
  6
CONTINUOUS
 10
19.6596964832
 20
1.1717972817
 11
19.6950230232
 21
1.171593082
  0
LINE
  5
218
100
AcDbEntity
  8
0
100
AcDbLine
 62
7
  6
CONTINUOUS
 10
19.7194818561
 20
1.1708914427
 11
19.8852396156
 21
1.1699333054
  0
LINE
  5
219
100
AcDbEntity
  8
0
100
AcDbLine
 62
7
  6
CONTINUOUS
 10
19.4758111696
 20
1.2723454088
 11
19.88525039
 21
1.3511534004
  0
LINE
  5
21A
100
AcDbEntity
  8
0
100
AcDbLine
 62
7
  6
CONTINUOUS
 10
19.88525039
 20
1.3511534004
 11
19.8831348489
 21
0.9851647912
  0
LINE
  5
21B
100
AcDbEntity
  8
0
100
AcDbLine
 62
7
  6
CONTINUOUS
 10
19.8831348489
 20
0.9851647912
 11
19.4767170086
 21
1.0658141206
  0
LINE
  5
21C
100
AcDbEntity
  8
0
100
AcDbLine
 62
7
  6
CONTINUOUS
 10
19.4767170086
 20
1.0658141206
 11
19.4779056764
 21
1.2714536432
  0
CIRCLE
  5
21D
100
AcDbEntity
  8
0
100
AcDbCircle
 62
7
  6
CONTINUOUS
 10
20.2068232291
 20
1.1717972817
 40
0.175742101
  0
CIRCLE
  5
21E
100
AcDbEntity
  8
0
100
AcDbCircle
 62
7
  6
CONTINUOUS
 10
20.2068232291
 20
1.1717972817
 40
0.1005522074
  0
LINE
  5
21F
100
AcDbEntity
  8
0
100
AcDbLine
 62
7
  6
CONTINUOUS
 10
20.2077290681
 20
1.3756110529
 11
20.2071171714
 21
1.2379342989
  0
LINE
  5
220
100
AcDbEntity
  8
0
100
AcDbLine
 62
7
  6
CONTINUOUS
 10
20.2077290681
 20
1.2016899681
 11
20.2074674401
 21
1.1428236749
  0
LINE
  5
221
100
AcDbEntity
  8
0
100
AcDbLine
 62
7
  6
CONTINUOUS
 10
20.208634907
 20
1.101141841
 11
20.2080230104
 21
0.963465087
  0
LINE
  5
222
100
AcDbEntity
  8
0
100
AcDbLine
 62
7
  6
CONTINUOUS
 10
20.0066328138
 20
1.1745147986
 11
20.1443095678
 21
1.1739029019
  0
LINE
  5
223
100
AcDbEntity
  8
0
100
AcDbLine
 62
7
  6
CONTINUOUS
 10
20.1832714155
 20
1.1727031207
 11
20.238153505
 21
1.172335442
  0
LINE
  5
224
100
AcDbEntity
  8
0
100
AcDbLine
 62
7
  6
CONTINUOUS
 10
20.2756669918
 20
1.1717972817
 11
20.407916871
 21
1.1712095044
  0
CIRCLE
  5
225
100
AcDbEntity
  8
0
100
AcDbCircle
 62
7
  6
CONTINUOUS
 10
20.7509457401
 20
1.1693297793
 40
0.1722024983
  0
CIRCLE
  5
226
100
AcDbEntity
  8
0
100
AcDbCircle
 62
7
  6
CONTINUOUS
 10
20.7509457401
 20
1.1693297793
 40
0.0985164967
  0
LINE
  5
227
100
AcDbEntity
  8
0
100
AcDbLine
 62
7
  6
CONTINUOUS
 10
20.7169767782
 20
1.170462078
 11
20.7825395137
 21
1.1682766535
  0
LINE
  5
228
100
AcDbEntity
  8
0
100
AcDbLine
 62
7
  6
CONTINUOUS
 10
20.8177513651
 20
1.1693297793
 11
20.947965719
 21
1.1693297793
  0
LINE
  5
229
100
AcDbEntity
  8
0
100
AcDbLine
 62
7
  6
CONTINUOUS
 10
20.6875370113
 20
1.170462078
 11
20.5573226574
 21
1.170462078
  0
LINE
  5
22A
100
AcDbEntity
  8
0
100
AcDbLine
 62
7
  6
CONTINUOUS
 10
20.7486811426
 20
1.1987695462
 11
20.7486811426
 21
1.1432869085
  0
LINE
  5
22B
100
AcDbEntity
  8
0
100
AcDbLine
 62
7
  6
CONTINUOUS
 10
20.7498134414
 20
1.1059210505
 11
20.7498134414
 21
0.9757066966
  0
LINE
  5
22C
100
AcDbEntity
  8
0
100
AcDbLine
 62
7
  6
CONTINUOUS
 10
20.7486811426
 20
1.2338708068
 11
20.7486811426
 21
1.3640851607
  0
LINE
  5
22D
100
AcDbEntity
  8
0
100
AcDbLine
 62
7
  6
CONTINUOUS
 10
21.0702539817
 20
1.2701043662
 11
21.4790138229
 21
1.3448360823
  0
LINE
  5
22E
100
AcDbEntity
  8
0
100
AcDbLine
 62
7
  6
CONTINUOUS
 10
21.4790138229
 20
1.3448360823
 11
21.4790138229
 21
0.9779712941
  0
LINE
  5
22F
100
AcDbEntity
  8
0
100
AcDbLine
 62
7
  6
CONTINUOUS
 10
21.4790138229
 20
0.9779712941
 11
21.069121683
 21
1.0617614
  0
LINE
  5
230
100
AcDbEntity
  8
0
100
AcDbLine
 62
7
  6
CONTINUOUS
 10
21.0702539817
 20
1.2701043662
 11
21.069121683
 21
1.0617614
  0
LINE
  5
231
100
AcDbEntity
  8
0
100
AcDbLine
 62
7
  6
CONTINUOUS
 10
21.4790138229
 20
1.1693297793
 11
21.3159628059
 21
1.1693297793
  0
LINE
  5
232
100
AcDbEntity
  8
0
100
AcDbLine
 62
7
  6
CONTINUOUS
 10
21.2876553377
 20
1.1693297793
 11
21.2502894796
 21
1.1693297793
  0
LINE
  5
233
100
AcDbEntity
  8
0
100
AcDbLine
 62
7
  6
CONTINUOUS
 10
21.2208497126
 20
1.1659328831
 11
21.0713862804
 21
1.1659328831
  0
LINE
  5
234
100
AcDbEntity
  8
0
100
AcDbLine
 62
7
  6
CONTINUOUS
 10
20.4796138713
 20
1.5284908897
 11
20.4766766948
 21
0.9294458646
  0
ENDBLK
  5
235
100
AcDbEntity
  8
0
  6
BYBLOCK
 62
0
100
AcDbBlockEnd
  0
BLOCK
  5
236
100
AcDbEntity
  8
0
100
AcDbBlockBegin
  2
*T1
 70
1
 10
0.0
 20
0.0
  3
*T1
  1

  0
LINE
  5
237
100
AcDbEntity
  8
0
100
AcDbLine
 62
2
  6
CONTINUOUS
 10
9.275
 20
0.0
 11
-0.0
 21
0.0
  0
LINE
  5
238
100
AcDbEntity
  8
0
100
AcDbLine
 62
2
  6
CONTINUOUS
 10
9.275
 20
0.0
 11
9.275
 21
1.25
  0
LINE
  5
239
100
AcDbEntity
  8
0
100
AcDbLine
 62
2
  6
CONTINUOUS
 10
9.275
 20
0.625
 11
-0.0
 21
0.625
  0
LINE
  5
23A
100
AcDbEntity
  8
0
100
AcDbLine
 62
2
  6
CONTINUOUS
 10
9.275
 20
1.25
 11
-0.0
 21
1.25
  0
LINE
  5
23B
100
AcDbEntity
  8
0
100
AcDbLine
 62
2
  6
CONTINUOUS
 10
6.8
 20
0.0
 11
6.8
 21
1.25
  0
LINE
  5
23C
100
AcDbEntity
  8
0
100
AcDbLine
 62
2
  6
CONTINUOUS
 10
6.4
 20
0.0
 11
6.4
 21
0.625
  0
LINE
  5
23D
100
AcDbEntity
  8
0
100
AcDbLine
 62
2
  6
CONTINUOUS
 10
5.9
 20
0.0
 11
5.9
 21
0.625
  0
LINE
  5
23E
100
AcDbEntity
  8
0
100
AcDbLine
 62
2
  6
CONTINUOUS
 10
5.2
 20
0.0
 11
5.2
 21
0.625
  0
LINE
  5
23F
100
AcDbEntity
  8
0
100
AcDbLine
 62
2
  6
CONTINUOUS
 10
4.1
 20
0.0
 11
4.1
 21
1.25
  0
LINE
  5
240
100
AcDbEntity
  8
0
100
AcDbLine
 62
2
  6
CONTINUOUS
 10
-0.0
 20
0.0
 11
-0.0
 21
1.25
  0
MTEXT
  5
241
100
AcDbEntity
  8
0
100
AcDbMText
 62
2
  6
CONTINUOUS
  7
STANDARD
 71
2
 72
1
 10
6.6
 20
0.325
 30
0.0
 11
1.0
 21
0.0
 31
0.0
 44
0.9
  1
2
 40
0.125
 41
0.2
  0
MTEXT
  5
242
100
AcDbEntity
  8
0
100
AcDbMText
 62
2
  6
CONTINUOUS
  7
STANDARD
 71
2
 72
1
 10
6.15
 20
0.325
 30
0.0
 11
1.0
 21
0.0
 31
0.0
 44
0.9
  1
C
 40
0.125
 41
0.2
  0
MTEXT
  5
243
100
AcDbEntity
  8
0
100
AcDbMText
 62
2
  6
CONTINUOUS
  7
STANDARD
 71
2
 72
1
 10
5.55
 20
0.325
 30
0.0
 11
1.0
 21
0.0
 31
0.0
 44
0.9
  1
1.000
 40
0.125
 41
1.0
  0
MTEXT
  5
244
100
AcDbEntity
  8
0
100
AcDbMText
 62
2
  6
CONTINUOUS
  7
STANDARD
 71
2
 72
1
 10
4.65
 20
0.325
 30
0.0
 11
1.0
 21
0.0
 31
0.0
 44
0.9
  1
Dec-17-19
 40
0.125
 41
1.8
  0
MTEXT
  5
245
100
AcDbEntity
  8
0
100
AcDbMText
 62
2
  6
CONTINUOUS
  7
STANDARD
 71
2
 72
1
 10
2.05
 20
0.4625
 30
0.0
 11
1.0
 21
0.0
 31
0.0
 44
0.9
  1
T-2A Line mount\PCross port with shuttle on port 3s
 40
0.125
 41
6.8
  0
MTEXT
  5
246
100
AcDbEntity
  8
0
100
AcDbMText
 62
2
  6
CONTINUOUS
  7
STANDARD
 71
1
 72
1
 10
6.45
 20
0.5625
 30
0.0
 11
1.0
 21
0.0
 31
0.0
 44
0.9
  1
SHEET
 40
0.06
 41
0.48
  0
MTEXT
  5
247
100
AcDbEntity
  8
0
100
AcDbMText
 62
2
  6
CONTINUOUS
  7
STANDARD
 71
1
 72
1
 10
5.95
 20
0.5625
 30
0.0
 11
1.0
 21
0.0
 31
0.0
 44
0.9
  1
DWG SIZE
 40
0.06
 41
0.768
  0
MTEXT
  5
248
100
AcDbEntity
  8
0
100
AcDbMText
 62
2
  6
CONTINUOUS
  7
STANDARD
 71
1
 72
1
 10
5.25
 20
0.5625
 30
0.0
 11
1.0
 21
0.0
 31
0.0
 44
0.9
  1
SCALE
 40
0.06
 41
0.48
  0
MTEXT
  5
249
100
AcDbEntity
  8
0
100
AcDbMText
 62
2
  6
CONTINUOUS
  7
STANDARD
 71
1
 72
1
 10
4.15
 20
0.5625
 30
0.0
 11
1.0
 21
0.0
 31
0.0
 44
0.9
  1
DATE
 40
0.06
 41
0.384
  0
MTEXT
  5
24A
100
AcDbEntity
  8
0
100
AcDbMText
 62
2
  6
CONTINUOUS
  7
STANDARD
 71
1
 72
1
 10
0.05
 20
0.5625
 30
0.0
 11
1.0
 21
0.0
 31
0.0
 44
0.9
  1
DESCRIPTION
 40
0.06
 41
1.056
  0
MTEXT
  5
24B
100
AcDbEntity
  8
0
100
AcDbMText
 62
2
  6
CONTINUOUS
  7
STANDARD
 71
2
 72
1
 10
5.45
 20
1.0375
 30
0.0
 11
1.0
 21
0.0
 31
0.0
 44
0.9
  1
ALL DIMENSIONS IN INCH\PVIEWS ARE THIRD ANGLE
 40
0.12
 41
4.224
  0
MTEXT
  5
24C
100
AcDbEntity
  8
0
100
AcDbMText
 62
2
  6
CONTINUOUS
  7
STANDARD
 71
2
 72
1
 10
2.05
 20
0.95
 30
0.0
 11
1.0
 21
0.0
 31
0.0
 44
0.9
  1
XBU
 40
0.125
 41
0.6
  0
MTEXT
  5
24D
100
AcDbEntity
  8
0
100
AcDbMText
 62
2
  6
CONTINUOUS
  7
STANDARD
 71
1
 72
1
 10
0.05
 20
1.1875
 30
0.0
 11
1.0
 21
0.0
 31
0.0
 44
0.9
  1
MODEL
 40
0.06
 41
0.48
  0
ENDBLK
  5
24E
100
AcDbEntity
  8
0
  6
BYBLOCK
 62
0
100
AcDbBlockEnd
  0
BLOCK
  5
24F
100
AcDbEntity
  8
0
100
AcDbBlockBegin
  2
*T2
 70
1
 10
0.0
 20
0.0
  3
*T2
  1

  0
LINE
  5
250
100
AcDbEntity
  8
0
100
AcDbLine
 62
2
  6
CONTINUOUS
 10
0.0
 20
0.0
 11
9.055
 21
0.0
  0
LINE
  5
251
100
AcDbEntity
  8
0
100
AcDbLine
 62
2
  6
CONTINUOUS
 10
0.0
 20
0.0
 11
0.0
 21
-1.844
  0
LINE
  5
252
100
AcDbEntity
  8
0
100
AcDbLine
 62
2
  6
CONTINUOUS
 10
0.0
 20
-0.344
 11
9.055
 21
-0.344
  0
LINE
  5
253
100
AcDbEntity
  8
0
100
AcDbLine
 62
2
  6
CONTINUOUS
 10
0.0
 20
-0.594
 11
9.055
 21
-0.594
  0
LINE
  5
254
100
AcDbEntity
  8
0
100
AcDbLine
 62
2
  6
CONTINUOUS
 10
0.0
 20
-0.844
 11
9.055
 21
-0.844
  0
LINE
  5
255
100
AcDbEntity
  8
0
100
AcDbLine
 62
2
  6
CONTINUOUS
 10
0.0
 20
-1.094
 11
9.055
 21
-1.094
  0
LINE
  5
256
100
AcDbEntity
  8
0
100
AcDbLine
 62
2
  6
CONTINUOUS
 10
0.0
 20
-1.344
 11
9.055
 21
-1.344
  0
LINE
  5
257
100
AcDbEntity
  8
0
100
AcDbLine
 62
2
  6
CONTINUOUS
 10
0.0
 20
-1.594
 11
9.055
 21
-1.594
  0
LINE
  5
258
100
AcDbEntity
  8
0
100
AcDbLine
 62
2
  6
CONTINUOUS
 10
0.0
 20
-1.844
 11
9.055
 21
-1.844
  0
LINE
  5
259
100
AcDbEntity
  8
0
100
AcDbLine
 62
2
  6
CONTINUOUS
 10
3.055
 20
0.0
 11
3.055
 21
-1.844
  0
LINE
  5
25A
100
AcDbEntity
  8
0
100
AcDbLine
 62
2
  6
CONTINUOUS
 10
9.055
 20
0.0
 11
9.055
 21
-1.844
  0
MTEXT
  5
25B
100
AcDbEntity
  8
0
100
AcDbMText
 62
2
  6
CONTINUOUS
  7
STANDARD
 71
2
 72
1
 10
1.5275
 20
-0.0995
 30
0.0
 11
1.0
 21
0.0
 31
0.0
 44
0.9
  1
Technical Data
 40
0.145
 41
3.248
  0
MTEXT
  5
25C
100
AcDbEntity
  8
0
100
AcDbMText
 62
2
  6
CONTINUOUS
  7
STANDARD
 71
2
 72
1
 10
4.555
 20
-0.0995
 30
0.0
 11
1.0
 21
0.0
 31
0.0
 44
0.9
  1
U.S. Units
 40
0.145
 41
2.32
  0
MTEXT
  5
25D
100
AcDbEntity
  8
0
100
AcDbMText
 62
2
  6
CONTINUOUS
  7
STANDARD
 71
2
 72
1
 10
7.555
 20
-0.0995
 30
0.0
 11
1.0
 21
0.0
 31
0.0
 44
0.9
  1
Metric Units
 40
0.145
 41
2.784
  0
MTEXT
  5
25E
100
AcDbEntity
  8
0
100
AcDbMText
 62
2
  6
CONTINUOUS
  7
STANDARD
 71
2
 72
1
 10
1.5275
 20
-0.4065
 30
0.0
 11
1.0
 21
0.0
 31
0.0
 44
0.9
  1
Cavity
 40
0.125
 41
1.2
  0
MTEXT
  5
25F
100
AcDbEntity
  8
0
100
AcDbMText
 62
2
  6
CONTINUOUS
  7
STANDARD
 71
2
 72
1
 10
6.055
 20
-0.4065
 30
0.0
 11
1.0
 21
0.0
 31
0.0
 44
0.9
  1
T-2A
 40
0.125
 41
0.8
  0
MTEXT
  5
260
100
AcDbEntity
  8
0
100
AcDbMText
 62
2
  6
CONTINUOUS
  7
STANDARD
 71
2
 72
1
 10
1.5275
 20
-0.6565
 30
0.0
 11
1.0
 21
0.0
 31
0.0
 44
0.9
  1
Body Features
 40
0.125
 41
2.6
  0
MTEXT
  5
261
100
AcDbEntity
  8
0
100
AcDbMText
 62
2
  6
CONTINUOUS
  7
STANDARD
 71
2
 72
1
 10
6.055
 20
-0.6565
 30
0.0
 11
1.0
 21
0.0
 31
0.0
 44
0.9
  1
Cross port with shuttle on port 3s
 40
0.125
 41
6.8
  0
MTEXT
  5
262
100
AcDbEntity
  8
0
100
AcDbMText
 62
2
  6
CONTINUOUS
  7
STANDARD
 71
2
 72
1
 10
1.5275
 20
-0.9065
 30
0.0
 11
1.0
 21
0.0
 31
0.0
 44
0.9
  1
Body Type
 40
0.125
 41
1.8
  0
MTEXT
  5
263
100
AcDbEntity
  8
0
100
AcDbMText
 62
2
  6
CONTINUOUS
  7
STANDARD
 71
2
 72
1
 10
6.055
 20
-0.9065
 30
0.0
 11
1.0
 21
0.0
 31
0.0
 44
0.9
  1
Line mount
 40
0.125
 41
2.0
  0
MTEXT
  5
264
100
AcDbEntity
  8
0
100
AcDbMText
 62
2
  6
CONTINUOUS
  7
STANDARD
 71
2
 72
1
 10
1.5275
 20
-1.1565
 30
0.0
 11
1.0
 21
0.0
 31
0.0
 44
0.9
  1
Interface
 40
0.125
 41
1.8
  0
MTEXT
  5
265
100
AcDbEntity
  8
0
100
AcDbMText
 62
2
  6
CONTINUOUS
  7
STANDARD
 71
2
 72
1
 10
6.055
 20
-1.1565
 30
0.0
 11
1.0
 21
0.0
 31
0.0
 44
0.9
  1
None
 40
0.125
 41
0.8
  0
MTEXT
  5
266
100
AcDbEntity
  8
0
100
AcDbMText
 62
2
  6
CONTINUOUS
  7
STANDARD
 71
2
 72
1
 10
1.5275
 20
-1.4065
 30
0.0
 11
1.0
 21
0.0
 31
0.0
 44
0.9
  1
Open Cavity Quantity
 40
0.125
 41
4.0
  0
MTEXT
  5
267
100
AcDbEntity
  8
0
100
AcDbMText
 62
2
  6
CONTINUOUS
  7
STANDARD
 71
2
 72
1
 10
6.055
 20
-1.4065
 30
0.0
 11
1.0
 21
0.0
 31
0.0
 44
0.9
  1
2
 40
0.125
 41
0.2
  0
MTEXT
  5
268
100
AcDbEntity
  8
0
100
AcDbMText
 62
2
  6
CONTINUOUS
  7
STANDARD
 71
2
 72
1
 10
1.5275
 20
-1.6565
 30
0.0
 11
1.0
 21
0.0
 31
0.0
 44
0.9
  1
Weight
 40
0.125
 41
1.2
  0
MTEXT
  5
269
100
AcDbEntity
  8
0
100
AcDbMText
 62
2
  6
CONTINUOUS
  7
STANDARD
 71
2
 72
1
 10
4.555
 20
-1.6565
 30
0.0
 11
1.0
 21
0.0
 31
0.0
 44
0.9
  1
6.316 lb.
 40
0.125
 41
1.8
  0
MTEXT
  5
26A
100
AcDbEntity
  8
0
100
AcDbMText
 62
2
  6
CONTINUOUS
  7
STANDARD
 71
2
 72
1
 10
7.555
 20
-1.6565
 30
0.0
 11
1.0
 21
0.0
 31
0.0
 44
0.9
  1
2,865 kg.
 40
0.125
 41
1.8
  0
ENDBLK
  5
26B
100
AcDbEntity
  8
0
  6
BYBLOCK
 62
0
100
AcDbBlockEnd
  0
BLOCK
  5
26C
100
AcDbEntity
  8
0
100
AcDbBlockBegin
  2
*T3
 70
1
 10
0.0
 20
0.0
  3
*T3
  1

  0
LINE
  5
26D
100
AcDbEntity
  8
0
100
AcDbLine
 62
2
  6
CONTINUOUS
 10
0.0
 20
0.0
 11
4.6
 21
0.0
  0
LINE
  5
26E
100
AcDbEntity
  8
0
100
AcDbLine
 62
2
  6
CONTINUOUS
 10
0.0
 20
0.0
 11
0.0
 21
-1.43775
  0
LINE
  5
26F
100
AcDbEntity
  8
0
100
AcDbLine
 62
2
  6
CONTINUOUS
 10
0.0
 20
-0.34375
 11
4.6
 21
-0.34375
  0
LINE
  5
270
100
AcDbEntity
  8
0
100
AcDbLine
 62
2
  6
CONTINUOUS
 10
0.0
 20
-0.68775
 11
4.6
 21
-0.68775
  0
LINE
  5
271
100
AcDbEntity
  8
0
100
AcDbLine
 62
2
  6
CONTINUOUS
 10
0.0
 20
-0.93775
 11
4.6
 21
-0.93775
  0
LINE
  5
272
100
AcDbEntity
  8
0
100
AcDbLine
 62
2
  6
CONTINUOUS
 10
0.0
 20
-1.18775
 11
4.6
 21
-1.18775
  0
LINE
  5
273
100
AcDbEntity
  8
0
100
AcDbLine
 62
2
  6
CONTINUOUS
 10
0.0
 20
-1.43775
 11
4.6
 21
-1.43775
  0
LINE
  5
274
100
AcDbEntity
  8
0
100
AcDbLine
 62
2
  6
CONTINUOUS
 10
1.3
 20
-0.34375
 11
1.3
 21
-1.43775
  0
LINE
  5
275
100
AcDbEntity
  8
0
100
AcDbLine
 62
2
  6
CONTINUOUS
 10
3.3
 20
-0.34375
 11
3.3
 21
-1.43775
  0
LINE
  5
276
100
AcDbEntity
  8
0
100
AcDbLine
 62
2
  6
CONTINUOUS
 10
4.6
 20
0.0
 11
4.6
 21
-1.43775
  0
MTEXT
  5
277
100
AcDbEntity
  8
0
100
AcDbMText
 62
2
  6
CONTINUOUS
  7
STANDARD
 71
2
 72
1
 10
2.3
 20
-0.099375
 30
0.0
 11
1.0
 21
0.0
 31
0.0
 44
0.9
  1
Port Headings
 40
0.145
 41
3.016
  0
MTEXT
  5
278
100
AcDbEntity
  8
0
100
AcDbMText
 62
2
  6
CONTINUOUS
  7
STANDARD
 71
2
 72
1
 10
0.65
 20
-0.44325
 30
0.0
 11
1.0
 21
0.0
 31
0.0
 44
0.9
  1
Product
 40
0.145
 41
1.624
  0
MTEXT
  5
279
100
AcDbEntity
  8
0
100
AcDbMText
 62
2
  6
CONTINUOUS
  7
STANDARD
 71
2
 72
1
 10
2.3
 20
-0.44325
 30
0.0
 11
1.0
 21
0.0
 31
0.0
 44
0.9
  1
Port
 40
0.145
 41
0.928
  0
MTEXT
  5
27A
100
AcDbEntity
  8
0
100
AcDbMText
 62
2
  6
CONTINUOUS
  7
STANDARD
 71
2
 72
1
 10
3.95
 20
-0.44325
 30
0.0
 11
1.0
 21
0.0
 31
0.0
 44
0.9
  1
Size
 40
0.145
 41
0.928
  0
MTEXT
  5
27B
100
AcDbEntity
  8
0
100
AcDbMText
 62
2
  6
CONTINUOUS
  7
STANDARD
 71
2
 72
1
 10
0.65
 20
-0.75025
 30
0.0
 11
1.0
 21
0.0
 31
0.0
 44
0.9
  1
XBU
 40
0.125
 41
0.6
  0
MTEXT
  5
27C
100
AcDbEntity
  8
0
100
AcDbMText
 62
2
  6
CONTINUOUS
  7
STANDARD
 71
2
 72
1
 10
2.3
 20
-0.75025
 30
0.0
 11
1.0
 21
0.0
 31
0.0
 44
0.9
  1
Ports 1 &  2
 40
0.125
 41
2.4
  0
MTEXT
  5
27D
100
AcDbEntity
  8
0
100
AcDbMText
 62
2
  6
CONTINUOUS
  7
STANDARD
 71
2
 72
1
 10
3.95
 20
-0.75025
 30
0.0
 11
1.0
 21
0.0
 31
0.0
 44
0.9
  1
3/8" BSPP
 40
0.125
 41
1.8
  0
MTEXT
  5
27E
100
AcDbEntity
  8
0
100
AcDbMText
 62
2
  6
CONTINUOUS
  7
STANDARD
 71
2
 72
1
 10
0.65
 20
-1.00025
 30
0.0
 11
1.0
 21
0.0
 31
0.0
 44
0.9
  1
XBU
 40
0.125
 41
0.6
  0
MTEXT
  5
27F
100
AcDbEntity
  8
0
100
AcDbMText
 62
2
  6
CONTINUOUS
  7
STANDARD
 71
2
 72
1
 10
2.3
 20
-1.00025
 30
0.0
 11
1.0
 21
0.0
 31
0.0
 44
0.9
  1
Port V
 40
0.125
 41
1.2
  0
MTEXT
  5
280
100
AcDbEntity
  8
0
100
AcDbMText
 62
2
  6
CONTINUOUS
  7
STANDARD
 71
2
 72
1
 10
3.95
 20
-1.00025
 30
0.0
 11
1.0
 21
0.0
 31
0.0
 44
0.9
  1
1/4" BSPP
 40
0.125
 41
1.8
  0
MTEXT
  5
281
100
AcDbEntity
  8
0
100
AcDbMText
 62
2
  6
CONTINUOUS
  7
STANDARD
 71
2
 72
1
 10
0.65
 20
-1.25025
 30
0.0
 11
1.0
 21
0.0
 31
0.0
 44
0.9
  1
XBU
 40
0.125
 41
0.6
  0
MTEXT
  5
282
100
AcDbEntity
  8
0
100
AcDbMText
 62
2
  6
CONTINUOUS
  7
STANDARD
 71
2
 72
1
 10
2.3
 20
-1.25025
 30
0.0
 11
1.0
 21
0.0
 31
0.0
 44
0.9
  1
Gage Ports
 40
0.125
 41
2.0
  0
MTEXT
  5
283
100
AcDbEntity
  8
0
100
AcDbMText
 62
2
  6
CONTINUOUS
  7
STANDARD
 71
2
 72
1
 10
3.95
 20
-1.25025
 30
0.0
 11
1.0
 21
0.0
 31
0.0
 44
0.9
  1
1/4" BSPP
 40
0.125
 41
1.8
  0
ENDBLK
  5
284
100
AcDbEntity
  8
0
  6
BYBLOCK
 62
0
100
AcDbBlockEnd
  0
ENDSEC
  0
SECTION
  2
ENTITIES
  0
IMAGE
  5
285
100
AcDbEntity
  8
0
100
AcDbRasterImage
 62
7
  6
CONTINUOUS
 10
19.2297077316
 20
0.3094318264
 30
0.0
 11
0.0066666667
 21
0.0
 31
0.0
 12
0.0
 22
0.0066666667
 32
0.0
 13
369.0
 23
92.0
340
       41C
 70
9
280
0
281
50
282
50
283
0
360
       416
 71
1
 91
2
 14
-0.5
 24
-0.5
 14
368.5
 24
91.5
  0
INSERT
  5
286
100
AcDbEntity
  8
0
100
AcDbBlockReference
 62
2
  6
CONTINUOUS
  2
SUN_FIRST_THIRD_ANGLE_BL0
 10
20.4816717061
 20
1.2289683772
  0
ACAD_TABLE
  5
287
100
AcDbEntity
  8
0
 62
2
  6
CONTINUOUS
100
AcDbBlockReference
  2
*T1
 10
12.42375
 20
0.30125
 30
0.0
100
AcDbTable
342
       41E
343
20F
 11
1.0
 21
0.0
 31
0.0
 90
6
 91
4
 92
6
 93
20
 94
0
 95
0
 96
0
 70
1
 41
0.0
141
0.525
141
0.1
141
0.525
141
0.1
142
4.1
142
1.1
142
0.7
142
0.5
142
0.4
142
2.475
171
1
172
0
173
0
174
0
175
1
176
1
 91
33
178
0
145
0.0
301
CELL_VALUE
 90
4
  1
T-2A Line mount\PCross port with shuttle on port 3s
304
ACVALUE_END
170
2
140
0.125
171
1
172
0
173
0
174
0
175
1
176
1
 91
33
178
0
145
0.0
301
CELL_VALUE
 90
4
  1
Dec-17-19
304
ACVALUE_END
170
5
140
0.125
171
1
172
0
173
0
174
0
175
1
176
1
 91
33
178
0
145
0.0
301
CELL_VALUE
 90
4
  1
1.000
304
ACVALUE_END
170
5
140
0.125
171
1
172
0
173
0
174
0
175
1
176
1
 91
33
178
0
145
0.0
301
CELL_VALUE
 90
4
  1
C
304
ACVALUE_END
170
5
140
0.125
171
1
172
0
173
0
174
0
175
1
176
1
 91
33
178
0
145
0.0
301
CELL_VALUE
 90
4
  1
2
304
ACVALUE_END
170
5
140
0.125
171
1
172
0
173
0
174
0
175
1
176
1
 91
33
178
0
145
0.0
301
CELL_VALUE
 90
4
  1
 
304
ACVALUE_END
170
1
140
0.125
171
1
172
0
173
0
174
0
175
1
176
1
 91
33
178
0
145
0.0
301
CELL_VALUE
 90
4
  1
DESCRIPTION
304
ACVALUE_END
170
1
140
0.06
171
1
172
0
173
0
174
0
175
1
176
1
 91
33
178
0
145
0.0
301
CELL_VALUE
 90
4
  1
DATE
304
ACVALUE_END
170
1
140
0.06
171
1
172
0
173
0
174
0
175
1
176
1
 91
33
178
0
145
0.0
301
CELL_VALUE
 90
4
  1
SCALE
304
ACVALUE_END
170
1
140
0.06
171
1
172
0
173
0
174
0
175
1
176
1
 91
33
178
0
145
0.0
301
CELL_VALUE
 90
4
  1
DWG SIZE
304
ACVALUE_END
170
1
140
0.06
171
1
172
0
173
0
174
0
175
1
176
1
 91
33
178
0
145
0.0
301
CELL_VALUE
 90
4
  1
SHEET
304
ACVALUE_END
170
1
140
0.06
171
1
172
0
173
0
174
0
175
1
176
1
 91
33
178
0
145
0.0
301
CELL_VALUE
 90
4
  1
 
304
ACVALUE_END
170
1
140
0.125
171
1
172
0
173
0
174
0
175
1
176
1
 91
33
178
0
145
0.0
301
CELL_VALUE
 90
4
  1
XBU
304
ACVALUE_END
170
5
140
0.125
171
1
172
0
173
0
174
0
175
4
176
1
 91
33
178
0
145
0.0
301
CELL_VALUE
 90
4
  1
ALL DIMENSIONS IN INCH\PVIEWS ARE THIRD ANGLE
304
ACVALUE_END
170
5
140
0.12
171
1
172
0
173
1
174
0
175
1
176
1
 91
1
178
0
145
0.0
170
1
171
1
172
0
173
1
174
0
175
1
176
1
 91
1
178
0
145
0.0
170
1
171
1
172
0
173
1
174
0
175
1
176
1
 91
1
178
0
145
0.0
170
5
171
1
172
0
173
0
174
0
175
1
176
1
 91
33
178
0
145
0.0
301
CELL_VALUE
 90
4
  1
 
304
ACVALUE_END
170
1
140
0.125
171
1
172
0
173
0
174
0
175
1
176
1
 91
33
178
0
145
0.0
301
CELL_VALUE
 90
4
  1
MODEL
304
ACVALUE_END
170
1
140
0.06
171
1
172
0
173
0
174
0
175
1
176
1
 91
33
178
0
145
0.0
301
CELL_VALUE
 90
4
  1
 
304
ACVALUE_END
170
1
140
0.125
171
1
172
0
173
0
174
0
175
1
176
1
 91
33
178
0
145
0.0
301
CELL_VALUE
 90
4
  1
 
304
ACVALUE_END
170
1
140
0.125
171
1
172
0
173
0
174
0
175
1
176
1
 91
33
178
0
145
0.0
301
CELL_VALUE
 90
4
  1
 
304
ACVALUE_END
170
1
140
0.125
171
1
172
0
173
0
174
0
175
1
176
1
 91
33
178
0
145
0.0
301
CELL_VALUE
 90
4
  1
 
304
ACVALUE_END
170
1
140
0.125
171
1
172
0
173
0
174
0
175
1
176
1
 91
33
178
0
145
0.0
301
CELL_VALUE
 90
4
  1
 
304
ACVALUE_END
170
1
140
0.125
  0
ACAD_TABLE
  5
288
100
AcDbEntity
  8
0
 62
2
  6
CONTINUOUS
100
AcDbBlockReference
  2
*T2
 10
12.4237499994
 20
16.47875
 30
0.0
100
AcDbTable
342
       41D
343
210
 11
1.0
 21
0.0
 31
0.0
 90
22
 91
7
 92
3
 93
16
 94
0
 95
0
 96
0
 41
0.028
141
0.344
141
0.25
141
0.25
141
0.25
141
0.25
141
0.25
141
0.25
142
3.055
142
3.0
142
3.0
171
1
172
0
173
0
174
0
175
1
176
1
 91
33
178
0
145
0.0
301
CELL_VALUE
 90
4
  1
Technical Data
304
ACVALUE_END
170
5
140
0.145
171
1
172
0
173
0
174
0
175
1
176
1
 91
33
178
0
145
0.0
301
CELL_VALUE
 90
4
  1
U.S. Units
304
ACVALUE_END
170
5
140
0.145
171
1
172
0
173
0
174
0
175
1
176
1
 91
33
178
0
145
0.0
301
CELL_VALUE
 90
4
  1
Metric Units
304
ACVALUE_END
170
5
140
0.145
171
1
172
0
173
0
174
0
175
1
176
1
 91
33
178
0
145
0.0
301
CELL_VALUE
 90
4
  1
Cavity
304
ACVALUE_END
170
5
140
0.125
171
1
172
0
173
0
174
0
175
2
176
1
 91
33
178
0
145
0.0
301
CELL_VALUE
 90
4
  1
T-2A
304
ACVALUE_END
170
5
140
0.125
171
1
172
0
173
1
174
0
175
1
176
1
 91
1
178
0
145
0.0
170
1
171
1
172
0
173
0
174
0
175
1
176
1
 91
33
178
0
145
0.0
301
CELL_VALUE
 90
4
  1
Body Features
304
ACVALUE_END
170
5
140
0.125
171
1
172
0
173
0
174
0
175
2
176
1
 91
33
178
0
145
0.0
301
CELL_VALUE
 90
4
  1
Cross port with shuttle on port 3s
304
ACVALUE_END
170
5
140
0.125
171
1
172
0
173
1
174
0
175
1
176
1
 91
1
178
0
145
0.0
170
1
171
1
172
0
173
0
174
0
175
1
176
1
 91
33
178
0
145
0.0
301
CELL_VALUE
 90
4
  1
Body Type
304
ACVALUE_END
170
5
140
0.125
171
1
172
0
173
0
174
0
175
2
176
1
 91
33
178
0
145
0.0
301
CELL_VALUE
 90
4
  1
Line mount
304
ACVALUE_END
170
5
140
0.125
171
1
172
0
173
1
174
0
175
1
176
1
 91
1
178
0
145
0.0
170
1
171
1
172
0
173
0
174
0
175
1
176
1
 91
33
178
0
145
0.0
301
CELL_VALUE
 90
4
  1
Interface
304
ACVALUE_END
170
5
140
0.125
171
1
172
0
173
0
174
0
175
2
176
1
 91
33
178
0
145
0.0
301
CELL_VALUE
 90
4
  1
None
304
ACVALUE_END
170
5
140
0.125
171
1
172
0
173
1
174
0
175
1
176
1
 91
1
178
0
145
0.0
170
1
171
1
172
0
173
0
174
0
175
1
176
1
 91
33
178
0
145
0.0
301
CELL_VALUE
 90
4
  1
Open Cavity Quantity
304
ACVALUE_END
170
5
140
0.125
171
1
172
0
173
0
174
0
175
2
176
1
 91
33
178
0
145
0.0
301
CELL_VALUE
 90
4
  1
2
304
ACVALUE_END
170
5
140
0.125
171
1
172
0
173
1
174
0
175
1
176
1
 91
1
178
0
145
0.0
170
1
171
1
172
0
173
0
174
0
175
1
176
1
 91
33
178
0
145
0.0
301
CELL_VALUE
 90
4
  1
Weight
304
ACVALUE_END
170
5
140
0.125
171
1
172
0
173
0
174
0
175
1
176
1
 91
33
178
0
145
0.0
301
CELL_VALUE
 90
4
  1
6.316 lb.
304
ACVALUE_END
170
5
140
0.125
171
1
172
0
173
0
174
0
175
1
176
1
 91
33
178
0
145
0.0
301
CELL_VALUE
 90
4
  1
2,865 kg.
304
ACVALUE_END
170
5
140
0.125
  0
ACAD_TABLE
  5
289
100
AcDbEntity
  8
0
 62
2
  6
CONTINUOUS
100
AcDbBlockReference
  2
*T3
 10
0.52125
 20
1.959
 30
0.0
100
AcDbTable
342
       41D
343
211
 11
1.0
 21
0.0
 31
0.0
 90
22
 91
5
 92
3
 93
16
 94
0
 95
0
 96
0
 41
0.05
141
0.34375
141
0.344
141
0.25
141
0.25
141
0.25
142
1.3
142
2.0
142
1.3
171
1
172
0
173
0
174
0
175
3
176
1
 91
33
178
0
145
0.0
301
CELL_VALUE
 90
4
  1
Port Headings
304
ACVALUE_END
170
5
140
0.145
171
1
172
0
173
1
174
0
175
1
176
1
 91
1
178
0
145
0.0
170
1
171
1
172
0
173
1
174
0
175
1
176
1
 91
1
178
0
145
0.0
170
1
171
1
172
0
173
0
174
0
175
1
176
1
 91
33
178
0
145
0.0
301
CELL_VALUE
 90
4
  1
Product
304
ACVALUE_END
170
5
140
0.145
171
1
172
0
173
0
174
0
175
1
176
1
 91
33
178
0
145
0.0
301
CELL_VALUE
 90
4
  1
Port
304
ACVALUE_END
170
5
140
0.145
171
1
172
0
173
0
174
0
175
1
176
1
 91
33
178
0
145
0.0
301
CELL_VALUE
 90
4
  1
Size
304
ACVALUE_END
170
5
140
0.145
171
1
172
0
173
0
174
0
175
1
176
1
 91
33
178
0
145
0.0
301
CELL_VALUE
 90
4
  1
XBU
304
ACVALUE_END
170
5
140
0.125
171
1
172
0
173
0
174
0
175
1
176
1
 91
33
178
0
145
0.0
301
CELL_VALUE
 90
4
  1
Ports 1 &  2
304
ACVALUE_END
170
5
140
0.125
171
1
172
0
173
0
174
0
175
1
176
1
 91
33
178
0
145
0.0
301
CELL_VALUE
 90
4
  1
3/8" BSPP
304
ACVALUE_END
170
5
140
0.125
171
1
172
0
173
0
174
0
175
1
176
1
 91
33
178
0
145
0.0
301
CELL_VALUE
 90
4
  1
XBU
304
ACVALUE_END
170
5
140
0.125
171
1
172
0
173
0
174
0
175
1
176
1
 91
33
178
0
145
0.0
301
CELL_VALUE
 90
4
  1
Port V
304
ACVALUE_END
170
5
140
0.125
171
1
172
0
173
0
174
0
175
1
176
1
 91
33
178
0
145
0.0
301
CELL_VALUE
 90
4
  1
1/4" BSPP
304
ACVALUE_END
170
5
140
0.125
171
1
172
0
173
0
174
0
175
1
176
1
 91
33
178
0
145
0.0
301
CELL_VALUE
 90
4
  1
XBU
304
ACVALUE_END
170
5
140
0.125
171
1
172
0
173
0
174
0
175
1
176
1
 91
33
178
0
145
0.0
301
CELL_VALUE
 90
4
  1
Gage Ports
304
ACVALUE_END
170
5
140
0.125
171
1
172
0
173
0
174
0
175
1
176
1
 91
33
178
0
145
0.0
301
CELL_VALUE
 90
4
  1
1/4" BSPP
304
ACVALUE_END
170
5
140
0.125
  0
MTEXT
  5
28A
100
AcDbEntity
  8
0
100
AcDbMText
 62
2
  6
CONTINUOUS
  7
STANDARD
 71
1
 72
1
 10
0.52125
 20
5.75995
 30
0.0
 11
1.0
 21
0.0
 31
0.0
 44
0.6
  3
Notes\P \P1. Important: Carefully consider\P   the maximum system pressure. The\P   pressure rating of the manifold is\P   dependent on the manifold material,\P   with the port type/size a secondary\P   consideration. Manifolds\P   constructed of alu
  1
minum are not\P   rated for pressures higher than\P   3000 psi (210 bar), regardless of\P   the port type/size specified.
 40
0.1
 41
3.04
  0
LINE
  5
28B
100
AcDbEntity
  8
0
100
AcDbLine
 62
7
  6
CONTINUOUS
 10
0.30125
 20
0.30125
 11
0.30125
 21
16.69875
  0
LINE
  5
28C
100
AcDbEntity
  8
0
100
AcDbLine
 62
7
  6
CONTINUOUS
 10
0.30125
 20
0.30125
 11
21.69875
 21
0.30125
  0
LINE
  5
28D
100
AcDbEntity
  8
0
100
AcDbLine
 62
7
  6
CONTINUOUS
 10
0.30125
 20
16.69875
 11
21.69875
 21
16.69875
  0
LINE
  5
28E
100
AcDbEntity
  8
0
100
AcDbLine
 62
7
  6
CONTINUOUS
 10
21.69875
 20
0.30125
 11
21.69875
 21
16.69875
  0
LINE
  5
28F
100
AcDbEntity
  8
0
100
AcDbLine
 62
7
  6
CONTINUOUS
 10
7.9381382124
 20
6.6539499901
 11
7.9381382124
 21
9.4309869052
  0
LINE
  5
290
100
AcDbEntity
  8
0
100
AcDbLine
 62
7
  6
CONTINUOUS
 10
7.9381382124
 20
9.4309869052
 11
9.23223237
 21
10.6809859477
  0
LINE
  5
291
100
AcDbEntity
  8
0
100
AcDbLine
 62
4
  6
CONTINUOUS
 10
9.1539424514
 20
10.3273637551
 11
9.1487660761
 21
10.3223637602
  0
LINE
  5
292
100
AcDbEntity
  8
0
100
AcDbLine
 62
4
  6
CONTINUOUS
 10
8.6123546471
 20
9.8022302217
 11
8.581296388
 21
9.7722302454
  0
LINE
  5
293
100
AcDbEntity
  8
0
100
AcDbLine
 62
4
  6
CONTINUOUS
 10
9.0851140265
 20
10.3133805968
 11
9.0701050177
 21
10.3063830066
  0
LINE
  5
294
100
AcDbEntity
  8
0
100
AcDbLine
 62
4
  6
CONTINUOUS
 10
8.8871604294
 20
7.7569054245
 11
8.9233826492
 21
7.6384823016
  0
LINE
  5
295
100
AcDbEntity
  8
0
100
AcDbLine
 62
7
  6
CONTINUOUS
 10
12.76776763
 20
6.3190140523
 11
7.9381382124
 21
6.6539499901
  0
LINE
  5
296
100
AcDbEntity
  8
0
100
AcDbLine
 62
4
  6
CONTINUOUS
 10
10.3049175742
 20
10.2785488982
 11
10.3093544681
 21
10.2828346088
  0
LINE
  5
297
100
AcDbEntity
  8
0
100
AcDbLine
 62
4
  6
CONTINUOUS
 10
8.9233826492
 20
7.6384823016
 11
8.959604869
 21
7.7518813855
  0
LINE
  5
298
100
AcDbEntity
  8
0
100
AcDbLine
 62
4
  6
CONTINUOUS
 10
10.3451255489
 20
10.2573868231
 11
10.3495624433
 21
10.2616725342
  0
LINE
  5
299
100
AcDbEntity
  8
0
100
AcDbLine
 62
4
  6
CONTINUOUS
 10
10.4048643698
 20
10.2808043849
 11
10.3782430051
 21
10.2550901197
  0
LINE
  5
29A
100
AcDbEntity
  8
0
100
AcDbLine
 62
4
  6
CONTINUOUS
 10
10.2512862499
 20
10.0953164327
 11
10.282344509
 21
10.1253164091
  0
LINE
  5
29B
100
AcDbEntity
  8
0
100
AcDbLine
 62
4
  6
CONTINUOUS
 10
10.4361985568
 20
10.2510708885
 11
10.4628199215
 21
10.2767851538
  0
LINE
  5
29C
100
AcDbEntity
  8
0
100
AcDbLine
 62
4
  6
CONTINUOUS
 10
9.9972820882
 20
9.7999673033
 11
9.9869293353
 21
9.7899673113
  0
LINE
  5
29D
100
AcDbEntity
  8
0
100
AcDbLine
 62
4
  6
CONTINUOUS
 10
10.4648791186
 20
10.244488474
 11
10.4959373777
 21
10.2744884504
  0
LINE
  5
29E
100
AcDbEntity
  8
0
100
AcDbLine
 62
4
  6
CONTINUOUS
 10
10.3358631599
 20
10.1170114678
 11
10.313678689
 21
10.0955829132
  0
LINE
  5
29F
100
AcDbEntity
  8
0
100
AcDbLine
 62
4
  6
CONTINUOUS
 10
10.5228346703
 20
10.2404692429
 11
10.5538929294
 21
10.2704692192
  0
LINE
  5
2A0
100
AcDbEntity
  8
0
100
AcDbLine
 62
4
  6
CONTINUOUS
 10
10.0997445453
 20
9.8089384447
 11
10.0686862862
 21
9.7789384683
  0
LINE
  5
2A1
100
AcDbEntity
  8
0
100
AcDbLine
 62
4
  6
CONTINUOUS
 10
10.6470251343
 20
10.231856605
 11
10.6780833934
 21
10.2618565813
  0
LINE
  5
2A2
100
AcDbEntity
  8
0
100
AcDbLine
 62
4
  6
CONTINUOUS
 10
10.4886280328
 20
10.0788567242
 11
10.5196862919
 21
10.1088567005
  0
LINE
  5
2A3
100
AcDbEntity
  8
0
100
AcDbLine
 62
7
  6
CONTINUOUS
 10
9.7736973963
 20
9.6580914026
 11
9.7730357333
 21
9.6574643464
  0
LINE
  5
2A4
100
AcDbEntity
  8
0
100
AcDbLine
 62
4
  6
CONTINUOUS
 10
9.9248376485
 20
9.8049913422
 11
9.9398466572
 21
9.8119889324
  0
LINE
  5
2A5
100
AcDbEntity
  8
0
100
AcDbLine
 62
4
  6
CONTINUOUS
 10
10.3561581944
 20
10.0880435387
 11
10.4203339096
 21
10.1157468117
  0
LINE
  5
2A6
100
AcDbEntity
  8
0
100
AcDbLine
 62
4
  6
CONTINUOUS
 10
10.738982693
 20
10.2178236423
 11
10.8016794302
 21
10.2440983465
  0
LINE
  5
2A7
100
AcDbEntity
  8
0
100
AcDbLine
 62
4
  6
CONTINUOUS
 10
11.2328008012
 20
10.2233867984
 11
11.2278225757
 21
10.2214353334
  0
LINE
  5
2A8
100
AcDbEntity
  8
0
100
AcDbLine
 62
4
  6
CONTINUOUS
 10
10.7166673489
 20
10.2476972482
 11
10.6967013255
 21
10.2284115494
  0
LINE
  5
2A9
100
AcDbEntity
  8
0
100
AcDbLine
 62
4
  6
CONTINUOUS
 10
10.5548629451
 20
10.0742633174
 11
10.5859212042
 21
10.1042632938
  0
LINE
  5
2AA
100
AcDbEntity
  8
0
100
AcDbLine
 62
4
  6
CONTINUOUS
 10
10.7101244575
 20
10.1342344176
 11
10.7411827166
 21
10.164234394
  0
LINE
  5
2AB
100
AcDbEntity
  8
0
100
AcDbLine
 62
4
  6
CONTINUOUS
 10
10.8037917378
 20
10.2232815095
 11
10.8215393141
 21
10.2404243527
  0
LINE
  5
2AC
100
AcDbEntity
  8
0
100
AcDbLine
 62
4
  6
CONTINUOUS
 10
10.786422007
 20
10.1565036282
 11
10.7797666652
 21
10.1500750614
  0
LINE
  5
2AD
100
AcDbEntity
  8
0
100
AcDbLine
 62
4
  6
CONTINUOUS
 10
10.8823077133
 20
10.2476935766
 11
10.8512494542
 21
10.2176936003
  0
LINE
  5
2AE
100
AcDbEntity
  8
0
100
AcDbLine
 62
4
  6
CONTINUOUS
 10
10.779172238
 20
10.1409294645
 11
10.7725168967
 21
10.134500898
  0
LINE
  5
2AF
100
AcDbEntity
  8
0
100
AcDbLine
 62
4
  6
CONTINUOUS
 10
10.8843669518
 20
10.215396894
 11
10.9065514231
 21
10.2368254491
  0
LINE
  5
2B0
100
AcDbEntity
  8
0
100
AcDbLine
 62
4
  6
CONTINUOUS
 10
10.7331665222
 20
10.0664913331
 11
10.7553509931
 21
10.0879198877
  0
LINE
  5
2B1
100
AcDbEntity
  8
0
100
AcDbLine
 62
4
  6
CONTINUOUS
 10
10.8322557314
 20
10.1579184589
 11
10.8056343667
 21
10.1322041937
  0
LINE
  5
2B2
100
AcDbEntity
  8
0
100
AcDbLine
 62
4
  6
CONTINUOUS
 10
10.9429699728
 20
10.2320031079
 11
10.9385330789
 21
10.2277173973
  0
LINE
  5
2B3
100
AcDbEntity
  8
0
100
AcDbLine
 62
4
  6
CONTINUOUS
 10
10.8635899046
 20
10.1281849635
 11
10.8902112693
 21
10.1538992287
  0
LINE
  5
2B4
100
AcDbEntity
  8
0
100
AcDbLine
 62
4
  6
CONTINUOUS
 10
10.9610996718
 20
10.2123721672
 11
10.9677550134
 21
10.2188007338
  0
LINE
  5
2B5
100
AcDbEntity
  8
0
100
AcDbLine
 62
4
  6
CONTINUOUS
 10
10.8297590716
 20
10.0597926171
 11
10.8519435424
 21
10.0812211717
  0
LINE
  5
2B6
100
AcDbEntity
  8
0
100
AcDbLine
 62
4
  6
CONTINUOUS
 10
11.0085573881
 20
10.206784258
 11
11.0263049656
 21
10.2239271024
  0
LINE
  5
2B7
100
AcDbEntity
  8
0
100
AcDbLine
 62
4
  6
CONTINUOUS
 10
9.824108591
 20
7.7305648545
 11
9.8096197031
 21
7.7412289212
  0
LINE
  5
2B8
100
AcDbEntity
  8
0
100
AcDbLine
 62
4
  6
CONTINUOUS
 10
9.9400196944
 20
7.7225263921
 11
9.9255308065
 21
7.7331904588
  0
LINE
  5
2B9
100
AcDbEntity
  8
0
100
AcDbLine
 62
4
  6
CONTINUOUS
 10
9.8096197031
 20
7.7412289212
 11
9.7951308151
 21
7.7615522459
  0
LINE
  5
2BA
100
AcDbEntity
  8
0
100
AcDbLine
 62
4
  6
CONTINUOUS
 10
9.8530863669
 20
7.834807086
 11
9.8603308108
 21
7.8246454189
  0
LINE
  5
2BB
100
AcDbEntity
  8
0
100
AcDbLine
 62
4
  6
CONTINUOUS
 10
9.9255308065
 20
7.7331904588
 11
9.9110419186
 21
7.7535137836
  0
LINE
  5
2BC
100
AcDbEntity
  8
0
100
AcDbLine
 62
4
  6
CONTINUOUS
 10
9.9182863625
 20
7.8109669314
 11
9.9255308065
 21
7.8008052712
  0
LINE
  5
2BD
100
AcDbEntity
  8
0
100
AcDbLine
 62
4
  6
CONTINUOUS
 10
9.9689974703
 20
7.7688130685
 11
9.9762419142
 21
7.7586514083
  0
LINE
  5
2BE
100
AcDbEntity
  8
0
100
AcDbLine
 62
4
  6
CONTINUOUS
 10
9.9762419142
 20
7.8166069566
 11
9.9689974703
 21
7.8267686237
  0
LINE
  5
2BF
100
AcDbEntity
  8
0
100
AcDbLine
 62
4
  6
CONTINUOUS
 10
9.7951308151
 20
7.7615522459
 11
9.7878863712
 21
7.7910324257
  0
LINE
  5
2C0
100
AcDbEntity
  8
0
100
AcDbLine
 62
4
  6
CONTINUOUS
 10
9.9182863625
 20
7.8206261877
 11
9.9182863625
 21
7.8109669314
  0
LINE
  5
2C1
100
AcDbEntity
  8
0
100
AcDbLine
 62
4
  6
CONTINUOUS
 10
9.9762419142
 20
7.7586514083
 11
9.9762419142
 21
7.7393328905
  0
LINE
  5
2C2
100
AcDbEntity
  8
0
100
AcDbLine
 62
4
  6
CONTINUOUS
 10
9.9243175277
 20
9.7969889442
 11
9.9248376485
 21
9.8049913422
  0
LINE
  5
2C3
100
AcDbEntity
  8
0
100
AcDbLine
 62
4
  6
CONTINUOUS
 10
9.7878863712
 20
7.7910324257
 11
9.7951308151
 21
7.8195077976
  0
LINE
  5
2C4
100
AcDbEntity
  8
0
100
AcDbLine
 62
4
  6
CONTINUOUS
 10
11.0638593018
 20
10.2259161106
 11
11.0438932777
 21
10.2066304111
  0
LINE
  5
2C5
100
AcDbEntity
  8
0
100
AcDbLine
 62
4
  6
CONTINUOUS
 10
10.9098990941
 20
10.0772019405
 11
10.8877146233
 21
10.0557733859
  0
LINE
  5
2C6
100
AcDbEntity
  8
0
100
AcDbLine
 62
4
  6
CONTINUOUS
 10
10.9163951712
 20
10.0491909724
 11
10.9474534303
 21
10.0791909487
  0
LINE
  5
2C7
100
AcDbEntity
  8
0
100
AcDbLine
 62
4
  6
CONTINUOUS
 10
11.0913510492
 20
10.2010424981
 11
11.1135355206
 21
10.2224710531
  0
LINE
  5
2C8
100
AcDbEntity
  8
0
100
AcDbLine
 62
4
  6
CONTINUOUS
 10
11.1266869388
 20
10.2008886512
 11
11.1555267507
 21
10.228745772
  0
LINE
  5
2C9
100
AcDbEntity
  8
0
100
AcDbLine
 62
4
  6
CONTINUOUS
 10
11.0009720882
 20
10.0708860069
 11
10.9787876173
 21
10.0494574523
  0
LINE
  5
2CA
100
AcDbEntity
  8
0
100
AcDbLine
 62
4
  6
CONTINUOUS
 10
11.0212671641
 20
10.041918075
 11
11.0523254232
 21
10.0719180513
  0
LINE
  5
2CB
100
AcDbEntity
  8
0
100
AcDbLine
 62
4
  6
CONTINUOUS
 10
11.2278225757
 20
10.2214353334
 11
11.2300410235
 21
10.2235781896
  0
LINE
  5
2CC
100
AcDbEntity
  8
0
100
AcDbLine
 62
4
  6
CONTINUOUS
 10
11.1989827645
 20
10.1935782133
 11
11.2211672358
 21
10.2150067683
  0
LINE
  5
2CD
100
AcDbEntity
  8
0
100
AcDbLine
 62
4
  6
CONTINUOUS
 10
11.2453578198
 20
10.1926587977
 11
11.2631053961
 21
10.2098016409
  0
LINE
  5
2CE
100
AcDbEntity
  8
0
100
AcDbLine
 62
4
  6
CONTINUOUS
 10
11.3309643834
 20
10.1982054888
 11
11.3376197242
 21
10.2046340547
  0
LINE
  5
2CF
100
AcDbEntity
  8
0
100
AcDbLine
 62
4
  6
CONTINUOUS
 10
9.8385974789
 20
7.8454711501
 11
9.8530863669
 21
7.834807086
  0
LINE
  5
2D0
100
AcDbEntity
  8
0
100
AcDbLine
 62
4
  6
CONTINUOUS
 10
9.9255308065
 20
7.8008052712
 11
9.9689974703
 21
7.7688130685
  0
LINE
  5
2D1
100
AcDbEntity
  8
0
100
AcDbLine
 62
4
  6
CONTINUOUS
 10
9.9689974703
 20
7.8267686237
 11
9.9545085824
 21
7.8374326878
  0
LINE
  5
2D2
100
AcDbEntity
  8
0
100
AcDbLine
 62
4
  6
CONTINUOUS
 10
10.2080641211
 20
7.75223374
 11
10.1935752332
 21
7.7725570638
  0
LINE
  5
2D3
100
AcDbEntity
  8
0
100
AcDbLine
 62
4
  6
CONTINUOUS
 10
10.2008196771
 20
7.810691699
 11
10.1935752332
 21
7.8208533592
  0
LINE
  5
2D4
100
AcDbEntity
  8
0
100
AcDbLine
 62
4
  6
CONTINUOUS
 10
10.0631752418
 20
7.8298966294
 11
10.0993974616
 21
7.7114735065
  0
LINE
  5
2D5
100
AcDbEntity
  8
0
100
AcDbLine
 62
4
  6
CONTINUOUS
 10
10.1428641254
 20
7.8243701865
 11
10.1428641254
 21
7.7084590831
  0
LINE
  5
2D6
100
AcDbEntity
  8
0
100
AcDbLine
 62
4
  6
CONTINUOUS
 10
10.2008196771
 20
7.7817139232
 11
10.2008196771
 21
7.810691699
  0
LINE
  5
2D7
100
AcDbEntity
  8
0
100
AcDbLine
 62
4
  6
CONTINUOUS
 10
10.2080641211
 20
7.7232559658
 11
10.2080641211
 21
7.75223374
  0
LINE
  5
2D8
100
AcDbEntity
  8
0
100
AcDbLine
 62
4
  6
CONTINUOUS
 10
11.3695482562
 20
10.1840461616
 11
11.3762035977
 21
10.1904747283
  0
LINE
  5
2D9
100
AcDbEntity
  8
0
100
AcDbLine
 62
4
  6
CONTINUOUS
 10
11.9884271073
 20
9.9512658105
 11
12.003436116
 21
9.9582634007
  0
LINE
  5
2DA
100
AcDbEntity
  8
0
100
AcDbLine
 62
4
  6
CONTINUOUS
 10
12.1183069778
 20
9.9342201424
 11
12.1032979691
 21
9.9272225522
  0
LINE
  5
2DB
100
AcDbEntity
  8
0
100
AcDbLine
 62
4
  6
CONTINUOUS
 10
9.9545085824
 20
7.7215215844
 11
9.9400196944
 21
7.7225263921
  0
LINE
  5
2DC
100
AcDbEntity
  8
0
100
AcDbLine
 62
4
  6
CONTINUOUS
 10
9.8385974789
 20
7.7295600467
 11
9.824108591
 21
7.7305648545
  0
LINE
  5
2DD
100
AcDbEntity
  8
0
100
AcDbLine
 62
4
  6
CONTINUOUS
 10
10.1428641254
 20
7.7084590831
 11
10.1935752332
 21
7.7049422558
  0
LINE
  5
2DE
100
AcDbEntity
  8
0
100
AcDbLine
 62
4
  6
CONTINUOUS
 10
10.0414419099
 20
7.7541297732
 11
10.0849085737
 21
7.7511153499
  0
LINE
  5
2DF
100
AcDbEntity
  8
0
100
AcDbLine
 62
4
  6
CONTINUOUS
 10
10.1428641254
 20
7.7760738911
 11
10.1935752332
 21
7.7725570638
  0
LINE
  5
2E0
100
AcDbEntity
  8
0
100
AcDbLine
 62
4
  6
CONTINUOUS
 10
10.1935752332
 20
7.8208533592
 11
10.1428641254
 21
7.8243701865
  0
LINE
  5
2E1
100
AcDbEntity
  8
0
100
AcDbLine
 62
4
  6
CONTINUOUS
 10
9.9545085824
 20
7.8374326878
 11
9.9400196944
 21
7.8384374956
  0
LINE
  5
2E2
100
AcDbEntity
  8
0
100
AcDbLine
 62
4
  6
CONTINUOUS
 10
9.824108591
 20
7.8464759579
 11
9.8385974789
 21
7.8454711501
  0
LINE
  5
2E3
100
AcDbEntity
  8
0
100
AcDbLine
 62
4
  6
CONTINUOUS
 10
10.4203339096
 20
10.1157468117
 11
10.4223931205
 21
10.083450131
  0
LINE
  5
2E4
100
AcDbEntity
  8
0
100
AcDbLine
 62
4
  6
CONTINUOUS
 10
10.026953022
 20
7.7164975454
 11
10.0631752418
 21
7.8298966294
  0
LINE
  5
2E5
100
AcDbEntity
  8
0
100
AcDbLine
 62
4
  6
CONTINUOUS
 10
9.7951308151
 20
7.8195077976
 11
9.8096197031
 21
7.8378215094
  0
LINE
  5
2E6
100
AcDbEntity
  8
0
100
AcDbLine
 62
4
  6
CONTINUOUS
 10
9.9255308065
 20
7.8297830471
 11
9.9182863625
 21
7.8206261877
  0
LINE
  5
2E7
100
AcDbEntity
  8
0
100
AcDbLine
 62
4
  6
CONTINUOUS
 10
9.8603308108
 20
7.7473713528
 11
9.8530863669
 21
7.7382144978
  0
LINE
  5
2E8
100
AcDbEntity
  8
0
100
AcDbLine
 62
4
  6
CONTINUOUS
 10
9.9762419142
 20
7.7393328905
 11
9.9689974703
 21
7.7301760355
  0
LINE
  5
2E9
100
AcDbEntity
  8
0
100
AcDbLine
 62
4
  6
CONTINUOUS
 10
12.0608715469
 20
9.9462417716
 11
12.050518794
 21
9.9362417796
  0
LINE
  5
2EA
100
AcDbEntity
  8
0
100
AcDbLine
 62
4
  6
CONTINUOUS
 10
13.4337124156
 20
10.0118042742
 11
13.4187034069
 21
10.004806684
  0
LINE
  5
2EB
100
AcDbEntity
  8
0
100
AcDbLine
 62
4
  6
CONTINUOUS
 10
10.1935752332
 20
7.7725570638
 11
10.2008196771
 21
7.7817139232
  0
LINE
  5
2EC
100
AcDbEntity
  8
0
100
AcDbLine
 62
4
  6
CONTINUOUS
 10
10.1935752332
 20
7.7049422558
 11
10.2080641211
 21
7.7232559658
  0
LINE
  5
2ED
100
AcDbEntity
  8
0
100
AcDbLine
 62
4
  6
CONTINUOUS
 10
12.1871354028
 20
9.9482033008
 11
12.1819590275
 21
9.9432033059
  0
LINE
  5
2EE
100
AcDbEntity
  8
0
100
AcDbLine
 62
7
  6
CONTINUOUS
 10
9.6029890576
 20
7.3781863621
 11
9.506336702
 21
7.2848273501
  0
LINE
  5
2EF
100
AcDbEntity
  8
0
100
AcDbLine
 62
7
  6
CONTINUOUS
 10
9.9683876739
 20
7.5638088715
 11
9.8717353182
 21
7.4704498595
  0
LINE
  5
2F0
100
AcDbEntity
  8
0
100
AcDbLine
 62
7
  6
CONTINUOUS
 10
10.0255971193
 20
7.559841383
 11
9.9289447637
 21
7.4664823709
  0
LINE
  5
2F1
100
AcDbEntity
  8
0
100
AcDbLine
 62
4
  6
CONTINUOUS
 10
9.8096197031
 20
7.8378215094
 11
9.824108591
 21
7.8464759579
  0
LINE
  5
2F2
100
AcDbEntity
  8
0
100
AcDbLine
 62
4
  6
CONTINUOUS
 10
9.9400196944
 20
7.8384374956
 11
9.9255308065
 21
7.8297830471
  0
LINE
  5
2F3
100
AcDbEntity
  8
0
100
AcDbLine
 62
4
  6
CONTINUOUS
 10
10.7520032667
 20
10.2475434001
 11
10.7546569048
 21
10.2243923163
  0
LINE
  5
2F4
100
AcDbEntity
  8
0
100
AcDbLine
 62
7
  6
CONTINUOUS
 10
12.738243322
 20
10.0216230451
 11
12.7375816589
 21
10.0209959889
  0
LINE
  5
2F5
100
AcDbEntity
  8
0
100
AcDbLine
 62
4
  6
CONTINUOUS
 10
9.8530863669
 20
7.7382144978
 11
9.8385974789
 21
7.7295600467
  0
LINE
  5
2F6
100
AcDbEntity
  8
0
100
AcDbLine
 62
4
  6
CONTINUOUS
 10
9.9689974703
 20
7.7301760355
 11
9.9545085824
 21
7.7215215844
  0
LINE
  5
2F7
100
AcDbEntity
  8
0
100
AcDbLine
 62
7
  6
CONTINUOUS
 10
10.3909957356
 20
7.3235379134
 11
10.2943433799
 21
7.2301789014
  0
LINE
  5
2F8
100
AcDbEntity
  8
0
100
AcDbLine
 62
7
  6
CONTINUOUS
 10
10.4196004583
 20
7.2720093361
 11
10.3229481026
 21
7.178650324
  0
LINE
  5
2F9
100
AcDbEntity
  8
0
100
AcDbLine
 62
4
  6
CONTINUOUS
 10
9.9336300392
 20
9.7909841405
 11
9.9243175277
 21
9.7969889442
  0
LINE
  5
2FA
100
AcDbEntity
  8
0
100
AcDbLine
 62
4
  6
CONTINUOUS
 10
12.9512939305
 20
9.5013237604
 11
12.9202356715
 21
9.471323784
  0
LINE
  5
2FB
100
AcDbEntity
  8
0
100
AcDbLine
 62
4
  6
CONTINUOUS
 10
13.5025408405
 20
10.0257874325
 11
13.4973644652
 21
10.0207874377
  0
LINE
  5
2FC
100
AcDbEntity
  8
0
100
AcDbLine
 62
7
  6
CONTINUOUS
 10
10.4196004583
 20
6.8500833571
 11
10.3229481026
 21
6.7567243451
  0
LINE
  5
2FD
100
AcDbEntity
  8
0
100
AcDbLine
 62
7
  6
CONTINUOUS
 10
7.9381382124
 20
9.4309869052
 11
12.76776763
 21
9.0960509675
  0
LINE
  5
2FE
100
AcDbEntity
  8
0
100
AcDbLine
 62
4
  6
CONTINUOUS
 10
9.1492861969
 20
10.3303661582
 11
9.1539424514
 21
10.3273637551
  0
LINE
  5
2FF
100
AcDbEntity
  8
0
100
AcDbLine
 62
4
  6
CONTINUOUS
 10
10.0029785861
 20
9.8129696979
 11
10.0076348406
 21
9.8099672948
  0
LINE
  5
300
100
AcDbEntity
  8
0
100
AcDbLine
 62
4
  6
CONTINUOUS
 10
10.4959373777
 20
10.2744884504
 11
10.5228346703
 21
10.2404692429
  0
LINE
  5
301
100
AcDbEntity
  8
0
100
AcDbLine
 62
4
  6
CONTINUOUS
 10
11.9879069865
 20
9.9432634126
 11
11.9884271073
 21
9.9512658105
  0
LINE
  5
302
100
AcDbEntity
  8
0
100
AcDbLine
 62
7
  6
CONTINUOUS
 10
10.3909957356
 20
6.8025222683
 11
10.2943433799
 21
6.7091632563
  0
LINE
  5
303
100
AcDbEntity
  8
0
100
AcDbLine
 62
7
  6
CONTINUOUS
 10
12.76776763
 20
9.0960509675
 11
14.0618617876
 21
10.3460500099
  0
LINE
  5
304
100
AcDbEntity
  8
0
100
AcDbLine
 62
4
  6
CONTINUOUS
 10
13.4973644652
 20
10.0207874377
 11
13.4875318318
 21
10.0187898423
  0
LINE
  5
305
100
AcDbEntity
  8
0
100
AcDbLine
 62
4
  6
CONTINUOUS
 10
13.4533776797
 20
10.0157994622
 11
13.4337124156
 21
10.0118042742
  0
LINE
  5
306
100
AcDbEntity
  8
0
100
AcDbLine
 62
4
  6
CONTINUOUS
 10
13.4445852888
 20
10.0298066637
 11
13.4544179223
 21
10.031804259
  0
LINE
  5
307
100
AcDbEntity
  8
0
100
AcDbLine
 62
4
  6
CONTINUOUS
 10
9.9455307388
 20
9.7874793346
 11
9.9336300392
 21
9.7909841405
  0
LINE
  5
308
100
AcDbEntity
  8
0
100
AcDbLine
 62
4
  6
CONTINUOUS
 10
9.9910778858
 20
9.8164745031
 11
10.0029785861
 21
9.8129696979
  0
LINE
  5
309
100
AcDbEntity
  8
0
100
AcDbLine
 62
4
  6
CONTINUOUS
 10
10.6418303413
 20
10.1711245046
 11
10.6770070014
 21
10.136531121
  0
LINE
  5
30A
100
AcDbEntity
  8
0
100
AcDbLine
 62
4
  6
CONTINUOUS
 10
12.1819590275
 20
9.9432033059
 11
12.172126394
 21
9.9412057106
  0
LINE
  5
30B
100
AcDbEntity
  8
0
100
AcDbLine
 62
4
  6
CONTINUOUS
 10
12.137972242
 20
9.9382153304
 11
12.1183069778
 21
9.9342201424
  0
LINE
  5
30C
100
AcDbEntity
  8
0
100
AcDbLine
 62
4
  6
CONTINUOUS
 10
12.129179851
 20
9.9522225319
 11
12.1390124845
 21
9.9542201273
  0
LINE
  5
30D
100
AcDbEntity
  8
0
100
AcDbLine
 62
4
  6
CONTINUOUS
 10
12.050518794
 20
9.9362417796
 11
12.0406861617
 21
9.9342441854
  0
LINE
  5
30E
100
AcDbEntity
  8
0
100
AcDbLine
 62
4
  6
CONTINUOUS
 10
12.003436116
 20
9.9582634007
 11
12.0231013811
 21
9.9622585896
  0
LINE
  5
30F
100
AcDbEntity
  8
0
100
AcDbLine
 62
4
  6
CONTINUOUS
 10
9.9600196267
 20
9.7864745268
 11
9.9455307388
 21
9.7874793346
  0
LINE
  5
310
100
AcDbEntity
  8
0
100
AcDbLine
 62
4
  6
CONTINUOUS
 10
9.9683043123
 20
9.8019769188
 11
9.9972820882
 21
9.7999673033
  0
LINE
  5
311
100
AcDbEntity
  8
0
100
AcDbLine
 62
4
  6
CONTINUOUS
 10
9.9765889979
 20
9.8174793109
 11
9.9910778858
 21
9.8164745031
  0
LINE
  5
312
100
AcDbEntity
  8
0
100
AcDbLine
 62
4
  6
CONTINUOUS
 10
9.1373854967
 20
10.3338709634
 11
9.1492861969
 21
10.3303661582
  0
LINE
  5
313
100
AcDbEntity
  8
0
100
AcDbLine
 62
4
  6
CONTINUOUS
 10
10.3237413257
 20
10.1224455301
 11
10.3358631599
 21
10.1170114678
  0
LINE
  5
314
100
AcDbEntity
  8
0
100
AcDbLine
 62
4
  6
CONTINUOUS
 10
11.0263049656
 20
10.2239271024
 11
11.0224625265
 21
10.2287869867
  0
LINE
  5
315
100
AcDbEntity
  8
0
100
AcDbLine
 62
7
  6
CONTINUOUS
 10
13.6595901821
 20
9.1964456651
 11
13.6587706882
 21
9.1956687166
  0
LINE
  5
316
100
AcDbEntity
  8
0
100
AcDbLine
 62
7
  6
CONTINUOUS
 10
13.1098589652
 20
8.6654460538
 11
13.1090394714
 21
8.6646691052
  0
LINE
  5
317
100
AcDbEntity
  8
0
100
AcDbLine
 62
4
  6
CONTINUOUS
 10
9.9869293353
 20
9.7899673113
 11
9.977096703
 21
9.7879697171
  0
LINE
  5
318
100
AcDbEntity
  8
0
100
AcDbLine
 62
4
  6
CONTINUOUS
 10
9.9398466572
 20
9.8119889324
 11
9.9595119223
 21
9.8159841213
  0
LINE
  5
319
100
AcDbEntity
  8
0
100
AcDbLine
 62
4
  6
CONTINUOUS
 10
10.9787876173
 20
10.0494574523
 11
10.9577920018
 21
10.0463200924
  0
LINE
  5
31A
100
AcDbEntity
  8
0
100
AcDbLine
 62
4
  6
CONTINUOUS
 10
13.4875318318
 20
10.0187898423
 11
13.4533776797
 21
10.0157994622
  0
LINE
  5
31B
100
AcDbEntity
  8
0
100
AcDbLine
 62
4
  6
CONTINUOUS
 10
13.4544179223
 20
10.031804259
 11
13.4714949978
 21
10.0332994487
  0
LINE
  5
31C
100
AcDbEntity
  8
0
100
AcDbLine
 62
4
  6
CONTINUOUS
 10
12.172126394
 20
9.9412057106
 11
12.137972242
 21
9.9382153304
  0
LINE
  5
31D
100
AcDbEntity
  8
0
100
AcDbLine
 62
4
  6
CONTINUOUS
 10
12.0406861617
 20
9.9342441854
 11
12.0236090855
 21
9.9327489951
  0
LINE
  5
31E
100
AcDbEntity
  8
0
100
AcDbLine
 62
4
  6
CONTINUOUS
 10
12.1390124845
 20
9.9542201273
 11
12.1560895601
 21
9.9557153169
  0
LINE
  5
31F
100
AcDbEntity
  8
0
100
AcDbLine
 62
4
  6
CONTINUOUS
 10
12.0231013811
 20
9.9622585896
 11
12.0401784566
 21
9.9637537792
  0
LINE
  5
320
100
AcDbEntity
  8
0
100
AcDbLine
 62
4
  6
CONTINUOUS
 10
9.977096703
 20
9.7879697171
 11
9.9600196267
 21
9.7864745268
  0
LINE
  5
321
100
AcDbEntity
  8
0
100
AcDbLine
 62
4
  6
CONTINUOUS
 10
9.9595119223
 20
9.8159841213
 11
9.9765889979
 21
9.8174793109
  0
LINE
  5
322
100
AcDbEntity
  8
0
100
AcDbLine
 62
4
  6
CONTINUOUS
 10
11.1615280607
 20
10.0459711806
 11
11.1114555935
 21
10.0433191705
  0
LINE
  5
323
100
AcDbEntity
  8
0
100
AcDbLine
 62
4
  6
CONTINUOUS
 10
12.0236090855
 20
9.9327489951
 11
12.0091201976
 21
9.9337538029
  0
LINE
  5
324
100
AcDbEntity
  8
0
100
AcDbLine
 62
4
  6
CONTINUOUS
 10
12.1032979691
 20
9.9272225522
 11
12.1612535208
 21
9.9232033211
  0
LINE
  5
325
100
AcDbEntity
  8
0
100
AcDbLine
 62
4
  6
CONTINUOUS
 10
12.0318937711
 20
9.9482513872
 11
12.0608715469
 21
9.9462417716
  0
LINE
  5
326
100
AcDbEntity
  8
0
100
AcDbLine
 62
4
  6
CONTINUOUS
 10
12.0401784566
 20
9.9637537792
 11
12.0546673446
 21
9.9627489714
  0
LINE
  5
327
100
AcDbEntity
  8
0
100
AcDbLine
 62
4
  6
CONTINUOUS
 10
12.1560895601
 20
9.9557153169
 11
12.170578448
 21
9.9547105091
  0
LINE
  5
328
100
AcDbEntity
  8
0
100
AcDbLine
 62
4
  6
CONTINUOUS
 10
10.1983620133
 20
10.1127669728
 11
10.2366027659
 21
10.1039904201
  0
LINE
  5
329
100
AcDbEntity
  8
0
100
AcDbLine
 62
4
  6
CONTINUOUS
 10
10.7735606964
 20
10.1612234041
 11
10.786422007
 21
10.1565036282
  0
LINE
  5
32A
100
AcDbEntity
  8
0
100
AcDbLine
 62
4
  6
CONTINUOUS
 10
10.3495624433
 20
10.2616725342
 11
10.3049175742
 21
10.2785488982
  0
LINE
  5
32B
100
AcDbEntity
  8
0
100
AcDbLine
 62
4
  6
CONTINUOUS
 10
10.28495155
 20
10.2592631987
 11
10.2910124678
 21
10.2565461672
  0
LINE
  5
32C
100
AcDbEntity
  8
0
100
AcDbLine
 62
4
  6
CONTINUOUS
 10
10.745288349
 20
10.0610572708
 11
10.7331665222
 21
10.0664913331
  0
LINE
  5
32D
100
AcDbEntity
  8
0
100
AcDbLine
 62
4
  6
CONTINUOUS
 10
10.3782430051
 20
10.2550901197
 11
10.3903648388
 21
10.2496560569
  0
LINE
  5
32E
100
AcDbEntity
  8
0
100
AcDbLine
 62
4
  6
CONTINUOUS
 10
10.8418808984
 20
10.0543585548
 11
10.8297590716
 21
10.0597926171
  0
LINE
  5
32F
100
AcDbEntity
  8
0
100
AcDbLine
 62
4
  6
CONTINUOUS
 10
10.3634675496
 20
10.2836752642
 11
10.3695284658
 21
10.2809582321
  0
LINE
  5
330
100
AcDbEntity
  8
0
100
AcDbLine
 62
4
  6
CONTINUOUS
 10
10.8977772668
 20
10.0826360024
 11
10.9098990941
 21
10.0772019405
  0
LINE
  5
331
100
AcDbEntity
  8
0
100
AcDbLine
 62
4
  6
CONTINUOUS
 10
10.7670504107
 20
10.1463635263
 11
10.779172238
 21
10.1409294645
  0
LINE
  5
332
100
AcDbEntity
  8
0
100
AcDbLine
 62
4
  6
CONTINUOUS
 10
10.8056343667
 20
10.1322041937
 11
10.8177561935
 21
10.1267701314
  0
LINE
  5
333
100
AcDbEntity
  8
0
100
AcDbLine
 62
4
  6
CONTINUOUS
 10
10.9888502609
 20
10.0763200688
 11
11.0009720882
 21
10.0708860069
  0
LINE
  5
334
100
AcDbEntity
  8
0
100
AcDbLine
 62
4
  6
CONTINUOUS
 10
10.7106064362
 20
10.25041428
 11
10.7166673489
 21
10.2476972482
  0
LINE
  5
335
100
AcDbEntity
  8
0
100
AcDbLine
 62
4
  6
CONTINUOUS
 10
10.9396688654
 20
10.2345287466
 11
10.9429699728
 21
10.2320031079
  0
LINE
  5
336
100
AcDbEntity
  8
0
100
AcDbLine
 62
7
  6
CONTINUOUS
 10
12.76776763
 20
9.0960509675
 11
12.76776763
 21
6.3190140523
  0
LINE
  5
337
100
AcDbEntity
  8
0
100
AcDbLine
 62
4
  6
CONTINUOUS
 10
10.6107720822
 20
10.1411245283
 11
10.7080652605
 21
10.1665310974
  0
LINE
  5
338
100
AcDbEntity
  8
0
100
AcDbLine
 62
4
  6
CONTINUOUS
 10
10.8877146233
 20
10.0557733859
 11
10.8667190078
 21
10.052636026
  0
LINE
  5
339
100
AcDbEntity
  8
0
100
AcDbLine
 62
4
  6
CONTINUOUS
 10
10.8519435424
 20
10.0812211717
 11
10.8729391575
 21
10.0843585311
  0
LINE
  5
33A
100
AcDbEntity
  8
0
100
AcDbLine
 62
4
  6
CONTINUOUS
 10
10.7553509931
 20
10.0879198877
 11
10.7763466081
 21
10.0910572472
  0
LINE
  5
33B
100
AcDbEntity
  8
0
100
AcDbLine
 62
4
  6
CONTINUOUS
 10
11.3590504761
 20
10.1824774798
 11
11.3695482562
 21
10.1840461616
  0
LINE
  5
33C
100
AcDbEntity
  8
0
100
AcDbLine
 62
4
  6
CONTINUOUS
 10
10.842594289
 20
10.1250476036
 11
10.8635899046
 21
10.1281849635
  0
LINE
  5
33D
100
AcDbEntity
  8
0
100
AcDbLine
 62
4
  6
CONTINUOUS
 10
11.3376197242
 20
10.2046340547
 11
11.3481175051
 21
10.2062027373
  0
LINE
  5
33E
100
AcDbEntity
  8
0
100
AcDbLine
 62
4
  6
CONTINUOUS
 10
10.7725168967
 20
10.134500898
 11
10.7515212812
 21
10.1313635382
  0
LINE
  5
33F
100
AcDbEntity
  8
0
100
AcDbLine
 62
4
  6
CONTINUOUS
 10
11.2631053961
 20
10.2098016409
 11
11.2736031769
 21
10.2113703235
  0
LINE
  5
340
100
AcDbEntity
  8
0
100
AcDbLine
 62
4
  6
CONTINUOUS
 10
10.7797666652
 20
10.1500750614
 11
10.7587710501
 21
10.1469377019
  0
LINE
  5
341
100
AcDbEntity
  8
0
100
AcDbLine
 62
4
  6
CONTINUOUS
 10
10.313678689
 20
10.0955829132
 11
10.2926830666
 21
10.0924455538
  0
LINE
  5
342
100
AcDbEntity
  8
0
100
AcDbLine
 62
4
  6
CONTINUOUS
 10
10.2484344844
 20
10.1154189832
 11
10.1983620133
 21
10.1127669728
  0
LINE
  5
343
100
AcDbEntity
  8
0
100
AcDbLine
 62
4
  6
CONTINUOUS
 10
10.9677550134
 20
10.2188007338
 11
10.9865321815
 21
10.2197952379
  0
LINE
  5
344
100
AcDbEntity
  8
0
100
AcDbLine
 62
4
  6
CONTINUOUS
 10
10.8215393141
 20
10.2404243527
 11
10.8403164831
 21
10.2414188577
  0
LINE
  5
345
100
AcDbEntity
  8
0
100
AcDbLine
 62
4
  6
CONTINUOUS
 10
10.9577920018
 20
10.0463200924
 11
10.9163951712
 21
10.0491909724
  0
LINE
  5
346
100
AcDbEntity
  8
0
100
AcDbLine
 62
4
  6
CONTINUOUS
 10
10.8667190078
 20
10.052636026
 11
10.8418808984
 21
10.0543585548
  0
LINE
  5
347
100
AcDbEntity
  8
0
100
AcDbLine
 62
4
  6
CONTINUOUS
 10
10.7784057914
 20
10.0587605684
 11
10.745288349
 21
10.0610572708
  0
LINE
  5
348
100
AcDbEntity
  8
0
100
AcDbLine
 62
4
  6
CONTINUOUS
 10
10.2926830666
 20
10.0924455538
 11
10.2512862499
 21
10.0953164327
  0
LINE
  5
349
100
AcDbEntity
  8
0
100
AcDbLine
 62
4
  6
CONTINUOUS
 10
10.5548629451
 20
10.0742633174
 11
10.6045391362
 21
10.0708182619
  0
LINE
  5
34A
100
AcDbEntity
  8
0
100
AcDbLine
 62
4
  6
CONTINUOUS
 10
11.0212671641
 20
10.041918075
 11
11.0709433276
 21
10.0384730213
  0
LINE
  5
34B
100
AcDbEntity
  8
0
100
AcDbLine
 62
4
  6
CONTINUOUS
 10
10.3760711351
 20
10.0958493931
 11
10.4202277433
 21
10.0927871219
  0
LINE
  5
34C
100
AcDbEntity
  8
0
100
AcDbLine
 62
4
  6
CONTINUOUS
 10
11.0721321838
 20
10.056764217
 11
11.0390147415
 21
10.0590609194
  0
LINE
  5
34D
100
AcDbEntity
  8
0
100
AcDbLine
 62
4
  6
CONTINUOUS
 10
10.6057279925
 20
10.0891094575
 11
10.5726105225
 21
10.0914061618
  0
LINE
  5
34E
100
AcDbEntity
  8
0
100
AcDbLine
 62
4
  6
CONTINUOUS
 10
10.282344509
 20
10.1253164091
 11
10.3237413257
 21
10.1224455301
  0
LINE
  5
34F
100
AcDbEntity
  8
0
100
AcDbLine
 62
4
  6
CONTINUOUS
 10
10.4865688219
 20
10.1111534049
 11
10.5528037342
 21
10.1065599981
  0
LINE
  5
350
100
AcDbEntity
  8
0
100
AcDbLine
 62
4
  6
CONTINUOUS
 10
10.5859212042
 20
10.1042632938
 11
10.6355973953
 21
10.1008182382
  0
LINE
  5
351
100
AcDbEntity
  8
0
100
AcDbLine
 62
4
  6
CONTINUOUS
 10
10.7763466081
 20
10.0910572472
 11
10.8094640504
 21
10.0887605447
  0
LINE
  5
352
100
AcDbEntity
  8
0
100
AcDbLine
 62
4
  6
CONTINUOUS
 10
10.8729391575
 20
10.0843585311
 11
10.8977772668
 21
10.0826360024
  0
LINE
  5
353
100
AcDbEntity
  8
0
100
AcDbLine
 62
4
  6
CONTINUOUS
 10
10.9474534303
 20
10.0791909487
 11
10.9888502609
 21
10.0763200688
  0
LINE
  5
354
100
AcDbEntity
  8
0
100
AcDbLine
 62
4
  6
CONTINUOUS
 10
11.0523254232
 20
10.0719180513
 11
11.1020015867
 21
10.0684729977
  0
LINE
  5
355
100
AcDbEntity
  8
0
100
AcDbLine
 62
4
  6
CONTINUOUS
 10
10.7515212812
 20
10.1313635382
 11
10.7101244575
 21
10.1342344176
  0
LINE
  5
356
100
AcDbEntity
  8
0
100
AcDbLine
 62
4
  6
CONTINUOUS
 10
10.8177561935
 20
10.1267701314
 11
10.842594289
 21
10.1250476036
  0
LINE
  5
357
100
AcDbEntity
  8
0
100
AcDbLine
 62
4
  6
CONTINUOUS
 10
10.7256535871
 20
10.1492344058
 11
10.7670504107
 21
10.1463635263
  0
LINE
  5
358
100
AcDbEntity
  8
0
100
AcDbLine
 62
4
  6
CONTINUOUS
 10
10.7411827166
 20
10.164234394
 11
10.7660208053
 21
10.1625118667
  0
LINE
  5
359
100
AcDbEntity
  8
0
100
AcDbLine
 62
4
  6
CONTINUOUS
 10
9.0701050177
 20
10.3063830066
 11
9.1280605695
 21
10.3023637754
  0
LINE
  5
35A
100
AcDbEntity
  8
0
100
AcDbLine
 62
4
  6
CONTINUOUS
 10
13.4187034069
 20
10.004806684
 11
13.4766589586
 21
10.0007874528
  0
LINE
  5
35B
100
AcDbEntity
  8
0
100
AcDbLine
 62
4
  6
CONTINUOUS
 10
10.7224239718
 20
10.2189719935
 11
10.738982693
 21
10.2178236423
  0
LINE
  5
35C
100
AcDbEntity
  8
0
100
AcDbLine
 62
4
  6
CONTINUOUS
 10
9.1228966087
 20
10.3348757712
 11
9.1373854967
 21
10.3338709634
  0
LINE
  5
35D
100
AcDbEntity
  8
0
100
AcDbLine
 62
4
  6
CONTINUOUS
 10
13.4714949978
 20
10.0332994487
 11
13.4859838858
 21
10.0322946409
  0
LINE
  5
35E
100
AcDbEntity
  8
0
100
AcDbLine
 62
4
  6
CONTINUOUS
 10
11.2845362585
 20
10.1876450583
 11
11.2514187056
 21
10.1899417684
  0
LINE
  5
35F
100
AcDbEntity
  8
0
100
AcDbLine
 62
4
  6
CONTINUOUS
 10
11.149306601
 20
10.1970232669
 11
11.1327478798
 21
10.1981716181
  0
LINE
  5
360
100
AcDbEntity
  8
0
100
AcDbLine
 62
4
  6
CONTINUOUS
 10
11.0085573881
 20
10.206784258
 11
10.9754399458
 21
10.2090809604
  0
LINE
  5
361
100
AcDbEntity
  8
0
100
AcDbLine
 62
4
  6
CONTINUOUS
 10
10.8512494542
 20
10.2176936003
 11
10.8181320118
 21
10.2199903027
  0
LINE
  5
362
100
AcDbEntity
  8
0
100
AcDbLine
 62
4
  6
CONTINUOUS
 10
10.2910124678
 20
10.2565461672
 11
10.3241299265
 21
10.2542494637
  0
LINE
  5
363
100
AcDbEntity
  8
0
100
AcDbLine
 62
4
  6
CONTINUOUS
 10
10.3903648388
 20
10.2496560569
 11
10.4152029413
 21
10.2479335286
  0
LINE
  5
364
100
AcDbEntity
  8
0
100
AcDbLine
 62
4
  6
CONTINUOUS
 10
11.0499542187
 20
10.203913378
 11
11.0913510492
 21
10.2010424981
  0
LINE
  5
365
100
AcDbEntity
  8
0
100
AcDbLine
 62
4
  6
CONTINUOUS
 10
11.3259330338
 20
10.1847741822
 11
11.3590504761
 21
10.1824774798
  0
LINE
  5
366
100
AcDbEntity
  8
0
100
AcDbLine
 62
4
  6
CONTINUOUS
 10
10.9865321815
 20
10.2197952379
 11
11.0196496238
 21
10.2174985355
  0
LINE
  5
367
100
AcDbEntity
  8
0
100
AcDbLine
 62
4
  6
CONTINUOUS
 10
11.0224625265
 20
10.2287869867
 11
10.981065696
 21
10.2316578667
  0
LINE
  5
368
100
AcDbEntity
  8
0
100
AcDbLine
 62
4
  6
CONTINUOUS
 10
10.6692096056
 20
10.25328516
 11
10.7106064362
 21
10.25041428
  0
LINE
  5
369
100
AcDbEntity
  8
0
100
AcDbLine
 62
4
  6
CONTINUOUS
 10
10.8403164831
 20
10.2414188577
 11
10.8734339255
 21
10.2391221553
  0
LINE
  5
36A
100
AcDbEntity
  8
0
100
AcDbLine
 62
4
  6
CONTINUOUS
 10
10.9065514231
 20
10.2368254491
 11
10.9396688654
 21
10.2345287466
  0
LINE
  5
36B
100
AcDbEntity
  8
0
100
AcDbLine
 62
4
  6
CONTINUOUS
 10
11.2736031769
 20
10.2113703235
 11
11.3067207298
 21
10.2090736134
  0
LINE
  5
36C
100
AcDbEntity
  8
0
100
AcDbLine
 62
4
  6
CONTINUOUS
 10
11.3481175051
 20
10.2062027373
 11
11.3812349474
 21
10.2039060348
  0
LINE
  5
36D
100
AcDbEntity
  8
0
100
AcDbLine
 62
4
  6
CONTINUOUS
 10
10.3303500918
 20
10.2859719677
 11
10.3634675496
 21
10.2836752642
  0
LINE
  5
36E
100
AcDbEntity
  8
0
100
AcDbLine
 62
4
  6
CONTINUOUS
 10
11.2300410235
 20
10.2235781896
 11
11.2328008012
 21
10.2233867984
  0
LINE
  5
36F
100
AcDbEntity
  8
0
100
AcDbLine
 62
4
  6
CONTINUOUS
 10
11.3694032294
 20
10.1924774722
 11
11.3377647517
 21
10.1962027448
  0
LINE
  5
370
100
AcDbEntity
  8
0
100
AcDbLine
 62
4
  6
CONTINUOUS
 10
10.7660208053
 20
10.1625118667
 11
10.7735606964
 21
10.1612234041
  0
LINE
  5
371
100
AcDbEntity
  8
0
100
AcDbLine
 62
4
  6
CONTINUOUS
 10
11.123287312
 20
10.0547477335
 11
11.1615280607
 21
10.0459711806
  0
LINE
  5
372
100
AcDbEntity
  8
0
100
AcDbLine
 62
4
  6
CONTINUOUS
 10
10.8181320118
 20
10.2199903027
 11
10.8037917378
 21
10.2232815095
  0
LINE
  5
373
100
AcDbEntity
  8
0
100
AcDbLine
 62
4
  6
CONTINUOUS
 10
10.9754399458
 20
10.2090809604
 11
10.9610996718
 21
10.2123721672
  0
LINE
  5
374
100
AcDbEntity
  8
0
100
AcDbLine
 62
4
  6
CONTINUOUS
 10
12.0091201976
 20
9.9337538029
 11
11.997219498
 21
9.9372586088
  0
LINE
  5
375
100
AcDbEntity
  8
0
100
AcDbLine
 62
4
  6
CONTINUOUS
 10
12.0546673446
 20
9.9627489714
 11
12.0665680449
 21
9.9592441662
  0
LINE
  5
376
100
AcDbEntity
  8
0
100
AcDbLine
 62
4
  6
CONTINUOUS
 10
11.3377647517
 20
10.1962027448
 11
11.3309643834
 21
10.1982054888
  0
LINE
  5
377
100
AcDbEntity
  8
0
100
AcDbLine
 62
4
  6
CONTINUOUS
 10
12.170578448
 20
9.9547105091
 11
12.1824791483
 21
9.9512057039
  0
LINE
  5
378
100
AcDbEntity
  8
0
100
AcDbLine
 62
4
  6
CONTINUOUS
 10
11.3762035977
 20
10.1904747283
 11
11.3694032294
 21
10.1924774722
  0
LINE
  5
379
100
AcDbEntity
  8
0
100
AcDbLine
 62
4
  6
CONTINUOUS
 10
11.0438932777
 20
10.2066304111
 11
11.0499542187
 21
10.203913378
  0
LINE
  5
37A
100
AcDbEntity
  8
0
100
AcDbLine
 62
4
  6
CONTINUOUS
 10
11.1327478798
 20
10.1981716181
 11
11.1266869388
 21
10.2008886512
  0
LINE
  5
37B
100
AcDbEntity
  8
0
100
AcDbLine
 62
4
  6
CONTINUOUS
 10
11.2514187056
 20
10.1899417684
 11
11.2453578198
 21
10.1926587977
  0
LINE
  5
37C
100
AcDbEntity
  8
0
100
AcDbLine
 62
4
  6
CONTINUOUS
 10
11.319872148
 20
10.1874912115
 11
11.3259330338
 21
10.1847741822
  0
LINE
  5
37D
100
AcDbEntity
  8
0
100
AcDbLine
 62
4
  6
CONTINUOUS
 10
11.3812349474
 20
10.2039060348
 11
11.3872958325
 21
10.2011890049
  0
LINE
  5
37E
100
AcDbEntity
  8
0
100
AcDbLine
 62
4
  6
CONTINUOUS
 10
11.997219498
 20
9.9372586088
 11
11.9879069865
 21
9.9432634126
  0
LINE
  5
37F
100
AcDbEntity
  8
0
100
AcDbLine
 62
4
  6
CONTINUOUS
 10
10.4152029413
 20
10.2479335286
 11
10.4361985568
 21
10.2510708885
  0
LINE
  5
380
100
AcDbEntity
  8
0
100
AcDbLine
 62
4
  6
CONTINUOUS
 10
10.3241299265
 20
10.2542494637
 11
10.3451255489
 21
10.2573868231
  0
LINE
  5
381
100
AcDbEntity
  8
0
100
AcDbLine
 62
4
  6
CONTINUOUS
 10
10.3093544681
 20
10.2828346088
 11
10.3303500918
 21
10.2859719677
  0
LINE
  5
382
100
AcDbEntity
  8
0
100
AcDbLine
 62
4
  6
CONTINUOUS
 10
9.1389334427
 20
10.3203661649
 11
9.1047792906
 21
10.3173757847
  0
LINE
  5
383
100
AcDbEntity
  8
0
100
AcDbLine
 62
4
  6
CONTINUOUS
 10
9.1058195332
 20
10.3333805816
 11
9.1228966087
 21
10.3348757712
  0
LINE
  5
384
100
AcDbEntity
  8
0
100
AcDbLine
 62
4
  6
CONTINUOUS
 10
12.0665680449
 20
9.9592441662
 11
12.0712242993
 21
9.9562417631
  0
LINE
  5
385
100
AcDbEntity
  8
0
100
AcDbLine
 62
4
  6
CONTINUOUS
 10
12.1824791483
 20
9.9512057039
 11
12.1871354028
 21
9.9482033008
  0
LINE
  5
386
100
AcDbEntity
  8
0
100
AcDbLine
 62
4
  6
CONTINUOUS
 10
9.1487660761
 20
10.3223637602
 11
9.1389334427
 21
10.3203661649
  0
LINE
  5
387
100
AcDbEntity
  8
0
100
AcDbLine
 62
4
  6
CONTINUOUS
 10
9.1047792906
 20
10.3173757847
 11
9.0851140265
 21
10.3133805968
  0
LINE
  5
388
100
AcDbEntity
  8
0
100
AcDbLine
 62
4
  6
CONTINUOUS
 10
9.0959868997
 20
10.3313829863
 11
9.1058195332
 21
10.3333805816
  0
LINE
  5
389
100
AcDbEntity
  8
0
100
AcDbLine
 62
7
  6
CONTINUOUS
 10
9.23223237
 20
10.6809859477
 11
14.0618617876
 21
10.3460500099
  0
LINE
  5
38A
100
AcDbEntity
  8
0
100
AcDbLine
 62
4
  6
CONTINUOUS
 10
13.4859838858
 20
10.0322946409
 11
13.4978845861
 21
10.0287898356
  0
LINE
  5
38B
100
AcDbEntity
  8
0
100
AcDbLine
 62
4
  6
CONTINUOUS
 10
13.4978845861
 20
10.0287898356
 11
13.5025408405
 21
10.0257874325
  0
LINE
  5
38C
100
AcDbEntity
  8
0
100
AcDbLine
 62
7
  6
CONTINUOUS
 10
12.76776763
 20
6.3190140523
 11
14.0618617876
 21
7.5690130948
  0
LINE
  5
38D
100
AcDbEntity
  8
0
100
AcDbLine
 62
7
  6
CONTINUOUS
 10
14.0618617876
 20
10.3460500099
 11
14.0618617876
 21
7.5690130948
  0
ARC
  5
38E
100
AcDbEntity
  8
0
100
AcDbCircle
 62
7
  6
CONTINUOUS
 10
9.9545849237
 20
7.0475721635
 40
0.5163443539
100
AcDbArc
 50
25.7640228377
 51
32.3073428428
  0
ARC
  5
38F
100
AcDbEntity
  8
0
100
AcDbCircle
 62
7
  6
CONTINUOUS
 10
9.9427475138
 20
7.0397774549
 40
0.5163443539
100
AcDbArc
 50
205.7640228377
 51
212.3073428428
  0
ARC
  5
390
100
AcDbEntity
  8
0
100
AcDbCircle
 62
7
  6
CONTINUOUS
 10
9.8579325681
 20
6.9542131515
 40
0.5163443539
100
AcDbArc
 50
25.7640228377
 51
32.3073428428
  0
ARC
  5
391
100
AcDbEntity
  8
0
100
AcDbCircle
 62
7
  6
CONTINUOUS
 10
9.9637927758
 20
7.0846167379
 40
0.4792267106
100
AcDbArc
 50
82.590107291
 51
86.0275106487
  0
ARC
  5
392
100
AcDbEntity
  8
0
100
AcDbCircle
 62
7
  6
CONTINUOUS
 10
9.9335396617
 20
7.0027328806
 40
0.4792267106
100
AcDbArc
 50
262.590107291
 51
266.0275106487
  0
ARC
  5
393
100
AcDbEntity
  8
0
100
AcDbCircle
 62
7
  6
CONTINUOUS
 10
9.8671404202
 20
6.9912577258
 40
0.4792267106
100
AcDbArc
 50
82.590107291
 51
86.0275106487
  0
ARC
  5
394
100
AcDbEntity
  8
0
100
AcDbCircle
 62
7
  6
CONTINUOUS
 10
9.9330972676
 20
6.9967859973
 40
0.4732634681
100
AcDbArc
 50
266.0310634489
 51
269.4972694561
  0
ARC
  5
395
100
AcDbEntity
  8
0
100
AcDbCircle
 62
7
  6
CONTINUOUS
 10
9.8675828143
 20
6.9972046091
 40
0.4732634681
100
AcDbArc
 50
86.0310634489
 51
89.4972694561
  0
ARC
  5
396
100
AcDbEntity
  8
0
100
AcDbCircle
 62
7
  6
CONTINUOUS
 10
9.9642739099
 20
7.0915558711
 40
0.4722709174
100
AcDbArc
 50
86.0274199487
 51
89.5009129563
  0
ARC
  5
397
100
AcDbEntity
  8
0
100
AcDbCircle
 62
7
  6
CONTINUOUS
 10
11.5585475122
 20
8.144522046
 40
0.4466687
100
AcDbArc
 50
172.7542887723
 51
180.0157507753
  0
ARC
  5
398
100
AcDbEntity
  8
0
100
AcDbCircle
 62
7
  6
CONTINUOUS
 10
10.0364555698
 20
7.0481362164
 40
0.4313060869
100
AcDbArc
 50
325.2870362755
 51
332.6649360488
  0
ARC
  5
399
100
AcDbEntity
  8
0
100
AcDbCircle
 62
7
  6
CONTINUOUS
 10
9.8608768677
 20
7.0392134021
 40
0.4313060869
100
AcDbArc
 50
145.2870362755
 51
152.6649360488
  0
ARC
  5
39A
100
AcDbEntity
  8
0
100
AcDbCircle
 62
7
  6
CONTINUOUS
 10
9.9398032142
 20
6.9547772043
 40
0.4313060869
100
AcDbArc
 50
325.2870362755
 51
332.6649360488
  0
ARC
  5
39B
100
AcDbEntity
  8
0
100
AcDbCircle
 62
7
  6
CONTINUOUS
 10
11.5672871428
 20
8.1499806242
 40
0.4186659821
100
AcDbArc
 50
173.5480567965
 51
180.0124522951
  0
ARC
  5
39C
100
AcDbEntity
  8
0
100
AcDbCircle
 62
7
  6
CONTINUOUS
 10
8.5896386928
 20
7.243733913
 40
0.3831254553
100
AcDbArc
 50
312.2851843463
 51
313.3663107224
  0
ARC
  5
39D
100
AcDbEntity
  8
0
100
AcDbCircle
 62
7
  6
CONTINUOUS
 10
8.5105433381
 20
7.3256175401
 40
0.3830281438
100
AcDbArc
 50
135.000681848
 51
135.7280938023
  0
ARC
  5
39E
100
AcDbEntity
  8
0
100
AcDbCircle
 62
7
  6
CONTINUOUS
 10
9.9950416776
 20
7.1567576936
 40
0.3815290645
100
AcDbArc
 50
111.990565072
 51
120.9428203508
  0
ARC
  5
39F
100
AcDbEntity
  8
0
100
AcDbCircle
 62
7
  6
CONTINUOUS
 10
13.605535798
 20
8.5941279498
 40
0.0190274049
100
AcDbArc
 50
255.2071344185
 51
265.9986395361
  0
ARC
  5
3A0
100
AcDbEntity
  8
0
100
AcDbCircle
 62
7
  6
CONTINUOUS
 10
13.0558045811
 20
8.0631283385
 40
0.0190274049
100
AcDbArc
 50
255.2071344185
 51
265.9986395361
  0
ARC
  5
3A1
100
AcDbEntity
  8
0
100
AcDbCircle
 62
7
  6
CONTINUOUS
 10
13.6444134858
 20
9.1547278937
 40
0.019026183
100
AcDbArc
 50
86.0669632717
 51
96.7778458665
  0
ARC
  5
3A2
100
AcDbEntity
  8
0
100
AcDbCircle
 62
7
  6
CONTINUOUS
 10
13.0946822689
 20
8.6237282823
 40
0.019026183
100
AcDbArc
 50
86.0669632717
 51
96.7778458665
  0
ARC
  5
3A3
100
AcDbEntity
  8
0
100
AcDbCircle
 62
7
  6
CONTINUOUS
 10
12.7013212789
 20
10.0104048855
 40
0.01595167
100
AcDbArc
 50
349.6642195184
 51
359.9712213592
  0
ARC
  5
3A4
100
AcDbEntity
  8
0
100
AcDbCircle
 62
7
  6
CONTINUOUS
 10
9.7367753532
 20
9.646873243
 40
0.01595167
100
AcDbArc
 50
349.6642195185
 51
359.9712213591
  0
ARC
  5
3A5
100
AcDbEntity
  8
0
100
AcDbCircle
 62
7
  6
CONTINUOUS
 10
12.2632151436
 20
10.010404345
 40
0.0159421666
100
AcDbArc
 50
180.0268532641
 51
190.0868992874
  0
ARC
  5
3A6
100
AcDbEntity
  8
0
100
AcDbCircle
 62
7
  6
CONTINUOUS
 10
9.298669218
 20
9.6468727025
 40
0.0159421666
100
AcDbArc
 50
180.026853264
 51
190.0868992877
  0
SPLINE
  5
3A7
100
AcDbEntity
  8
0
100
AcDbSpline
 62
7
  6
CONTINUOUS
 70
0
 71
3
 72
20
 73
16
 74
0
 42
0.0000001
 43
0.0000001
 44
0.0000000001
 40
0.0
 40
0.0
 40
0.0
 40
0.0
 40
0.1307130444
 40
0.2609290879
 40
0.3256870374
 40
0.3901050986
 40
0.4540966361
 40
0.517574691
 40
0.5804573165
 40
0.6426728974
 40
0.7041645318
 40
0.7648928072
 40
0.8248367025
 40
0.8839927538
 40
1.0
 40
1.0
 40
1.0
 40
1.0
 10
9.4777319793
 20
7.2372662613
 30
0.0
 10
9.4765426941
 20
7.2189051197
 30
0.0
 10
9.4743853683
 20
7.1822381279
 30
0.0
 10
9.472338943
 20
7.1364370521
 30
0.0
 10
9.4711587943
 20
7.0999428188
 30
0.0
 10
9.4705169016
 20
7.0727590961
 30
0.0
 10
9.4701268916
 20
7.0457507535
 30
0.0
 10
9.4699953054
 20
7.0189560257
 30
0.0
 10
9.4701244451
 20
6.9924112671
 30
0.0
 10
9.4705121486
 20
6.9661486715
 30
0.0
 10
9.4711519891
 20
6.940194363
 30
0.0
 10
9.4720338022
 20
6.9145671357
 30
0.0
 10
9.473144506
 20
6.8892778854
 30
0.0
 10
9.4748988982
 20
6.8562295954
 30
0.0
 10
9.4765263034
 20
6.8316252904
 30
0.0
 10
9.4777319793
 20
6.8153402824
 30
0.0
  0
SPLINE
  5
3A8
100
AcDbEntity
  8
0
100
AcDbSpline
 62
7
  6
CONTINUOUS
 70
0
 71
3
 72
21
 73
17
 74
0
 42
0.0000001
 43
0.0000001
 44
0.0000000001
 40
0.0
 40
0.0
 40
0.0
 40
0.0
 40
0.1211316245
 40
0.1823736293
 40
0.2440533566
 40
0.3061457671
 40
0.3686121396
 40
0.431400593
 40
0.4944480865
 40
0.5576838397
 40
0.6210337674
 40
0.6844252162
 40
0.7477912094
 40
0.811073636
 40
0.8742251276
 40
1.0
 40
1.0
 40
1.0
 40
1.0
 10
9.506336702
 20
6.763811705
 30
0.0
 10
9.5201675582
 20
6.752933502
 30
0.0
 10
9.5411440186
 20
6.7367480765
 30
0.0
 10
9.5695527082
 20
6.7155380187
 30
0.0
 10
9.5912687921
 20
6.6997021618
 30
0.0
 10
9.613315686
 20
6.6840212754
 30
0.0
 10
9.6356862991
 20
6.668521097
 30
0.0
 10
9.6583661679
 20
6.6532274305
 30
0.0
 10
9.6813338013
 20
6.6381646166
 30
0.0
 10
9.7045616663
 20
6.6233540264
 30
0.0
 10
9.7280178071
 20
6.6088126874
 30
0.0
 10
9.751667863
 20
6.5945523152
 30
0.0
 10
9.7754771229
 20
6.5805788679
 30
0.0
 10
9.7994124338
 20
6.5668925969
 30
0.0
 10
9.8314093709
 20
6.5490454774
 30
0.0
 10
9.8555753979
 20
6.5360333327
 30
0.0
 10
9.8717353182
 20
6.5275082355
 30
0.0
  0
SPLINE
  5
3A9
100
AcDbEntity
  8
0
100
AcDbSpline
 62
7
  6
CONTINUOUS
 70
0
 71
3
 72
15
 73
11
 74
0
 42
0.0000001
 43
0.0000001
 44
0.0000000001
 40
0.0
 40
0.0
 40
0.0
 40
0.0
 40
0.1128138383
 40
0.2295637229
 40
0.3503753066
 40
0.4750618339
 40
0.60311002
 40
0.73378544
 40
0.8663079068
 40
1.0
 40
1.0
 40
1.0
 40
1.0
 10
9.9289447637
 20
6.5235407469
 30
0.0
 10
9.9429042554
 20
6.5300779402
 30
0.0
 10
9.9712633644
 20
6.5434809077
 30
0.0
 10
10.0143876064
 20
6.5642711142
 30
0.0
 10
10.0587938518
 20
6.5861339818
 30
0.0
 10
10.104392568
 20
6.6090656378
 30
0.0
 10
10.1510000024
 20
6.6329871966
 30
0.0
 10
10.198373085
 20
6.6577581717
 30
0.0
 10
10.2462600439
 20
6.683207735
 30
0.0
 10
10.2782824362
 20
6.700460866
 30
0.0
 10
10.2943433799
 20
6.7091632563
 30
0.0
  0
SPLINE
  5
3AA
100
AcDbEntity
  8
0
100
AcDbSpline
 62
7
  6
CONTINUOUS
 70
0
 71
3
 72
22
 73
18
 74
0
 42
0.0000001
 43
0.0000001
 44
0.0000000001
 40
0.0
 40
0.0
 40
0.0
 40
0.0
 40
0.0662652743
 40
0.1328051367
 40
0.1995364916
 40
0.2663370505
 40
0.3994351903
 40
0.4652808744
 40
0.5303098216
 40
0.594262539
 40
0.6569110682
 40
0.7180810003
 40
0.777662912
 40
0.8356126734
 40
0.8919431812
 40
0.9467104377
 40
1.0
 40
1.0
 40
1.0
 40
1.0
 10
10.4196004583
 20
6.8500833571
 30
0.0
 10
10.4205971121
 20
6.8593740112
 30
0.0
 10
10.4225107216
 20
6.8780029526
 30
0.0
 10
10.425105901
 20
6.9060198101
 30
0.0
 10
10.4273962816
 20
6.9341392122
 30
0.0
 10
10.4299894332
 20
6.9716473609
 30
0.0
 10
10.4318217425
 20
7.0090811296
 30
0.0
 10
10.4327644132
 20
7.046292933
 30
0.0
 10
10.4330041718
 20
7.0737655495
 30
0.0
 10
10.4327722437
 20
7.1007873977
 30
0.0
 10
10.4320749376
 20
7.1272569397
 30
0.0
 10
10.4309311207
 20
7.153094001
 30
0.0
 10
10.429369529
 20
7.1782452975
 30
0.0
 10
10.4274253738
 20
7.2026853089
 30
0.0
 10
10.4251369176
 20
7.2264134071
 30
0.0
 10
10.4225425427
 20
7.2494486604
 30
0.0
 10
10.420608092
 20
7.2645629274
 30
0.0
 10
10.4196004583
 20
7.2720093361
 30
0.0
  0
SPLINE
  5
3AB
100
AcDbEntity
  8
0
100
AcDbSpline
 62
7
  6
CONTINUOUS
 70
0
 71
3
 72
22
 73
18
 74
0
 42
0.0000001
 43
0.0000001
 44
0.0000000001
 40
0.0
 40
0.0
 40
0.0
 40
0.0
 40
0.0578996962
 40
0.1168101933
 40
0.1767600489
 40
0.2377470615
 40
0.2997283629
 40
0.3626113545
 40
0.4262509392
 40
0.4904549087
 40
0.5549987336
 40
0.6196477114
 40
0.6841805087
 40
0.7484081384
 40
0.8121847207
 40
0.8754100196
 40
1.0
 40
1.0
 40
1.0
 40
1.0
 10
10.3909957356
 20
7.3235379134
 30
0.0
 10
10.3847419414
 20
7.3291993591
 30
0.0
 10
10.3720350715
 20
7.340522075
 30
0.0
 10
10.3525193589
 20
7.35732777
 30
0.0
 10
10.3323533803
 20
7.3740614212
 30
0.0
 10
10.311513792
 20
7.3906762835
 30
0.0
 10
10.2899941876
 20
7.4071147677
 30
0.0
 10
10.267810214
 20
7.42330982
 30
0.0
 10
10.245002741
 20
7.439188401
 30
0.0
 10
10.2216377518
 20
7.4546770527
 30
0.0
 10
10.1978023189
 20
7.469708946
 30
0.0
 10
10.173596628
 20
7.4842301477
 30
0.0
 10
10.1491244699
 20
7.4982045842
 30
0.0
 10
10.1244839629
 20
7.5116155563
 30
0.0
 10
10.0997605647
 20
7.5244647463
 30
0.0
 10
10.0669392247
 20
7.5407901091
 30
0.0
 10
10.04214492
 20
7.5523798336
 30
0.0
 10
10.0255971193
 20
7.559841383
 30
0.0
  0
SPLINE
  5
3AC
100
AcDbEntity
  8
0
100
AcDbSpline
 62
7
  6
CONTINUOUS
 70
0
 71
3
 72
15
 73
11
 74
0
 42
0.0000001
 43
0.0000001
 44
0.0000000001
 40
0.0
 40
0.0
 40
0.0
 40
0.0
 40
0.1024613676
 40
0.2125928618
 40
0.3308785969
 40
0.4568383157
 40
0.5888655796
 40
0.7247022368
 40
0.8622377903
 40
1.0
 40
1.0
 40
1.0
 40
1.0
 10
9.9683876739
 20
7.5638088715
 30
0.0
 10
9.9555438926
 20
7.5582273162
 30
0.0
 10
9.9289760069
 20
7.5464585881
 30
0.0
 10
9.8879024022
 20
7.5275300174
 30
0.0
 10
9.8442327938
 20
7.5065742899
 30
0.0
 10
9.7982159482
 20
7.4836070966
 30
0.0
 10
9.7504073825
 20
7.4588714902
 30
0.0
 10
9.7015239773
 20
7.4327810837
 30
0.0
 10
9.6522364113
 20
7.4057910236
 30
0.0
 10
9.6193922447
 20
7.3874311587
 30
0.0
 10
9.6029890576
 20
7.3781863621
 30
0.0
  0
SPLINE
  5
3AD
100
AcDbEntity
  8
0
100
AcDbSpline
 62
7
  6
CONTINUOUS
 70
0
 71
3
 72
71
 73
67
 74
0
 42
0.0000001
 43
0.0000001
 44
0.0000000001
 40
0.0
 40
0.0
 40
0.0
 40
0.0
 40
0.0156216706
 40
0.0311907745
 40
0.0467067129
 40
0.0621710762
 40
0.0775850548
 40
0.0929506339
 40
0.1082702304
 40
0.1235467312
 40
0.1387834665
 40
0.1539841688
 40
0.1691529583
 40
0.18429428
 40
0.1994128679
 40
0.2145137035
 40
0.2296019564
 40
0.2446829193
 40
0.2597619759
 40
0.2748445272
 40
0.2899359312
 40
0.3050414546
 40
0.3201662202
 40
0.3353151335
 40
0.3504928522
 40
0.365703735
 40
0.3809517875
 40
0.3962406261
 40
0.4115734583
 40
0.4269530346
 40
0.4423816308
 40
0.4578610394
 40
0.4733925444
 40
0.4889769098
 40
0.5046143965
 40
0.520304754
 40
0.5360472182
 40
0.5518405387
 40
0.5676829933
 40
0.5835723969
 40
0.5995061365
 40
0.615481204
 40
0.6314942052
 40
0.6475414082
 40
0.6636187847
 40
0.6797220354
 40
0.695846625
 40
0.7119878439
 40
0.7281408301
 40
0.744300616
 40
0.7604621807
 40
0.7766204909
 40
0.7927705277
 40
0.8089073567
 40
0.8250261591
 40
0.8411222663
 40
0.8571912088
 40
0.8732287682
 40
0.8892309912
 40
0.9051942477
 40
0.9211152546
 40
0.9369911073
 40
0.9528193701
 40
0.9685977523
 40
0.9843253342
 40
1.0
 40
1.0
 40
1.0
 40
1.0
 10
9.8915237227
 20
6.5731312633
 30
0.0
 10
9.8983075408
 20
6.572660804
 30
0.0
 10
9.9118776456
 20
6.5720517182
 30
0.0
 10
9.9322167438
 20
6.5721397563
 30
0.0
 10
9.9524587519
 20
6.5732309256
 30
0.0
 10
9.9725540229
 20
6.5753224549
 30
0.0
 10
9.992454498
 20
6.5784095058
 30
0.0
 10
10.0121120847
 20
6.5824846447
 30
0.0
 10
10.0314794318
 20
6.5875380925
 30
0.0
 10
10.0505098429
 20
6.5935577092
 30
0.0
 10
10.0691574308
 20
6.6005290228
 30
0.0
 10
10.0873772187
 20
6.6084352823
 30
0.0
 10
10.1051252529
 20
6.6172574724
 30
0.0
 10
10.1223587301
 20
6.6269743303
 30
0.0
 10
10.1390360801
 20
6.6375624419
 30
0.0
 10
10.1551170696
 20
6.6489962949
 30
0.0
 10
10.1705628941
 20
6.6612483384
 30
0.0
 10
10.1853362814
 20
6.6742890394
 30
0.0
 10
10.1994016076
 20
6.6880869294
 30
0.0
 10
10.2127249537
 20
6.7026087232
 30
0.0
 10
10.2252741874
 20
6.71781939
 30
0.0
 10
10.237019039
 20
6.7336822453
 30
0.0
 10
10.2479311882
 20
6.7501590221
 30
0.0
 10
10.2579843596
 20
6.7672099555
 30
0.0
 10
10.2671543398
 20
6.7847939096
 30
0.0
 10
10.2754190495
 20
6.8028684708
 30
0.0
 10
10.2827585802
 20
6.8213900506
 30
0.0
 10
10.2891552729
 20
6.8403139806
 30
0.0
 10
10.2945937712
 20
6.8595946217
 30
0.0
 10
10.2990610197
 20
6.8791854889
 30
0.0
 10
10.3025462965
 20
6.8990393593
 30
0.0
 10
10.3050412353
 20
6.9191083855
 30
0.0
 10
10.3065398717
 20
6.9393442038
 30
0.0
 10
10.3070386681
 20
6.9596980552
 30
0.0
 10
10.3065364735
 20
6.9801209087
 30
0.0
 10
10.3050345447
 20
7.0005635746
 30
0.0
 10
10.3025365235
 20
7.0209768177
 30
0.0
 10
10.2990484736
 20
7.0413114802
 30
0.0
 10
10.2945788537
 20
7.0615186037
 30
0.0
 10
10.2891384693
 20
7.0815495402
 30
0.0
 10
10.2827404485
 20
7.101356069
 30
0.0
 10
10.2754002092
 20
7.1208905063
 30
0.0
 10
10.267135457
 20
7.1401058323
 30
0.0
 10
10.2579661314
 20
7.1589558031
 30
0.0
 10
10.2479143275
 20
7.1773950527
 30
0.0
 10
10.2370042576
 20
7.1953792009
 30
0.0
 10
10.2252621803
 20
7.2128649521
 30
0.0
 10
10.2127163814
 20
7.2298102256
 30
0.0
 10
10.199397081
 20
7.2461742471
 30
0.0
 10
10.185336347
 20
7.2619176312
 30
0.0
 10
10.1705680213
 20
7.277002481
 30
0.0
 10
10.1551276388
 20
7.2913924691
 30
0.0
 10
10.1390523732
 20
7.305052962
 30
0.0
 10
10.122380924
 20
7.3179510811
 30
0.0
 10
10.1051534145
 20
7.3300557729
 30
0.0
 10
10.087411303
 20
7.3413378805
 30
0.0
 10
10.0691972794
 20
7.3517702116
 30
0.0
 10
10.0505551885
 20
7.3613276441
 30
0.0
 10
10.0315299037
 20
7.3699871627
 30
0.0
 10
10.0121672144
 20
7.3777278903
 30
0.0
 10
9.9925137291
 20
7.384531155
 30
0.0
 10
9.9726167208
 20
7.3903805431
 30
0.0
 10
9.9525242107
 20
7.395261873
 30
0.0
 10
9.9322842234
 20
7.3991635487
 30
0.0
 10
9.9119463446
 20
7.4020758239
 30
0.0
 10
9.8983305544
 20
7.4033554678
 30
0.0
 10
9.8915237227
 20
7.4038275232
 30
0.0
  0
SPLINE
  5
3AE
100
AcDbEntity
  8
0
100
AcDbSpline
 62
7
  6
CONTINUOUS
 70
0
 71
3
 72
71
 73
67
 74
0
 42
0.0000001
 43
0.0000001
 44
0.0000000001
 40
0.0
 40
0.0
 40
0.0
 40
0.0
 40
0.0156216706
 40
0.0311907745
 40
0.0467067129
 40
0.0621710762
 40
0.0775850548
 40
0.0929506339
 40
0.1082702304
 40
0.1235467312
 40
0.1387834665
 40
0.1539841688
 40
0.1691529583
 40
0.18429428
 40
0.1994128679
 40
0.2145137035
 40
0.2296019564
 40
0.2446829193
 40
0.2597619759
 40
0.2748445272
 40
0.2899359312
 40
0.3050414546
 40
0.3201662202
 40
0.3353151335
 40
0.3504928522
 40
0.365703735
 40
0.3809517875
 40
0.3962406261
 40
0.4115734583
 40
0.4269530346
 40
0.4423816308
 40
0.4578610394
 40
0.4733925444
 40
0.4889769098
 40
0.5046143965
 40
0.520304754
 40
0.5360472182
 40
0.5518405387
 40
0.5676829933
 40
0.5835723969
 40
0.5995061365
 40
0.615481204
 40
0.6314942052
 40
0.6475414082
 40
0.6636187847
 40
0.6797220354
 40
0.695846625
 40
0.7119878439
 40
0.7281408301
 40
0.744300616
 40
0.7604621807
 40
0.7766204909
 40
0.7927705277
 40
0.8089073567
 40
0.8250261591
 40
0.8411222663
 40
0.8571912088
 40
0.8732287682
 40
0.8892309912
 40
0.9051942477
 40
0.9211152546
 40
0.9369911073
 40
0.9528193701
 40
0.9685977523
 40
0.9843253342
 40
1.0
 40
1.0
 40
1.0
 40
1.0
 10
9.8915237227
 20
7.4038275232
 30
0.0
 10
9.8847399046
 20
7.4042979825
 30
0.0
 10
9.8711697998
 20
7.4049070683
 30
0.0
 10
9.8508307017
 20
7.4048190302
 30
0.0
 10
9.8305886936
 20
7.4037278609
 30
0.0
 10
9.8104934226
 20
7.4016363316
 30
0.0
 10
9.7905929475
 20
7.3985492807
 30
0.0
 10
9.7709353608
 20
7.3944741418
 30
0.0
 10
9.7515680137
 20
7.389420694
 30
0.0
 10
9.7325376026
 20
7.3834010773
 30
0.0
 10
9.7138900147
 20
7.3764297637
 30
0.0
 10
9.6956702267
 20
7.3685235042
 30
0.0
 10
9.6779221925
 20
7.3597013141
 30
0.0
 10
9.6606887153
 20
7.3499844562
 30
0.0
 10
9.6440113654
 20
7.3393963446
 30
0.0
 10
9.6279303759
 20
7.3279624916
 30
0.0
 10
9.6124845514
 20
7.3157104481
 30
0.0
 10
9.5977111641
 20
7.3026697471
 30
0.0
 10
9.5836458378
 20
7.2888718571
 30
0.0
 10
9.5703224918
 20
7.2743500633
 30
0.0
 10
9.557773258
 20
7.2591393965
 30
0.0
 10
9.5460284065
 20
7.2432765412
 30
0.0
 10
9.5351162573
 20
7.2267997644
 30
0.0
 10
9.5250630859
 20
7.209748831
 30
0.0
 10
9.5158931057
 20
7.1921648769
 30
0.0
 10
9.507628396
 20
7.1740903157
 30
0.0
 10
9.5002888653
 20
7.1555687359
 30
0.0
 10
9.4938921725
 20
7.1366448059
 30
0.0
 10
9.4884536743
 20
7.1173641648
 30
0.0
 10
9.4839864258
 20
7.0977732976
 30
0.0
 10
9.480501149
 20
7.0779194272
 30
0.0
 10
9.4780062102
 20
7.057850401
 30
0.0
 10
9.4765075738
 20
7.0376145827
 30
0.0
 10
9.4760087774
 20
7.0172607313
 30
0.0
 10
9.476510972
 20
6.9968378778
 30
0.0
 10
9.4780129007
 20
6.9763952119
 30
0.0
 10
9.4805109219
 20
6.9559819688
 30
0.0
 10
9.4839989718
 20
6.9356473063
 30
0.0
 10
9.4884685918
 20
6.9154401828
 30
0.0
 10
9.4939089762
 20
6.8954092463
 30
0.0
 10
9.500306997
 20
6.8756027176
 30
0.0
 10
9.5076472363
 20
6.8560682802
 30
0.0
 10
9.5159119884
 20
6.8368529542
 30
0.0
 10
9.525081314
 20
6.8180029834
 30
0.0
 10
9.535133118
 20
6.7995637338
 30
0.0
 10
9.5460431879
 20
6.7815795856
 30
0.0
 10
9.5577852651
 20
6.7640938344
 30
0.0
 10
9.5703310641
 20
6.7471485609
 30
0.0
 10
9.5836503645
 20
6.7307845394
 30
0.0
 10
9.5977110985
 20
6.7150411553
 30
0.0
 10
9.6124794242
 20
6.6999563055
 30
0.0
 10
9.6279198067
 20
6.6855663174
 30
0.0
 10
9.6439950723
 20
6.6719058245
 30
0.0
 10
9.6606665215
 20
6.6590077054
 30
0.0
 10
9.677894031
 20
6.6469030136
 30
0.0
 10
9.6956361425
 20
6.635620906
 30
0.0
 10
9.7138501661
 20
6.6251885749
 30
0.0
 10
9.732492257
 20
6.6156311424
 30
0.0
 10
9.7515175418
 20
6.6069716238
 30
0.0
 10
9.770880231
 20
6.5992308962
 30
0.0
 10
9.7905337164
 20
6.5924276316
 30
0.0
 10
9.8104307246
 20
6.5865782434
 30
0.0
 10
9.8305232347
 20
6.5816969135
 30
0.0
 10
9.8507632221
 20
6.5777952378
 30
0.0
 10
9.8711011009
 20
6.5748829626
 30
0.0
 10
9.8847168911
 20
6.5736033187
 30
0.0
 10
9.8915237227
 20
6.5731312633
 30
0.0
  0
SPLINE
  5
3AF
100
AcDbEntity
  8
0
100
AcDbSpline
 62
7
  6
CONTINUOUS
 70
0
 71
3
 72
20
 73
16
 74
0
 42
0.0000001
 43
0.0000001
 44
0.0000000001
 40
0.0
 40
0.0
 40
0.0
 40
0.0
 40
0.1160072463
 40
0.1751632975
 40
0.2351071928
 40
0.2958354683
 40
0.3573271027
 40
0.4195426835
 40
0.482425309
 40
0.5459033639
 40
0.6098949014
 40
0.6743129626
 40
0.7390709121
 40
0.8692869556
 40
1.0
 40
1.0
 40
1.0
 40
1.0
 10
10.3229481026
 20
6.7567243451
 30
0.0
 10
10.3217424268
 20
6.7730093532
 30
0.0
 10
10.3201150216
 20
6.7976136581
 30
0.0
 10
10.3183606294
 20
6.8306619481
 30
0.0
 10
10.3172499256
 20
6.8559511985
 30
0.0
 10
10.3163681125
 20
6.8815784258
 30
0.0
 10
10.315728272
 20
6.9075327343
 30
0.0
 10
10.3153405685
 20
6.9337953299
 30
0.0
 10
10.3152114288
 20
6.9603400885
 30
0.0
 10
10.3153430149
 20
6.9871348163
 30
0.0
 10
10.315733025
 20
7.0141431588
 30
0.0
 10
10.3163749177
 20
7.0413268816
 30
0.0
 10
10.3175550664
 20
7.0778211148
 30
0.0
 10
10.3196014917
 20
7.1236221906
 30
0.0
 10
10.3217588175
 20
7.1602891824
 30
0.0
 10
10.3229481026
 20
7.178650324
 30
0.0
  0
SPLINE
  5
3B0
100
AcDbEntity
  8
0
100
AcDbSpline
 62
7
  6
CONTINUOUS
 70
0
 71
3
 72
21
 73
17
 74
0
 42
0.0000001
 43
0.0000001
 44
0.0000000001
 40
0.0
 40
0.0
 40
0.0
 40
0.0
 40
0.1257748724
 40
0.188926364
 40
0.2522087907
 40
0.3155747839
 40
0.3789662327
 40
0.4423161603
 40
0.5055519135
 40
0.5685994071
 40
0.6313878604
 40
0.6938542329
 40
0.7559466435
 40
0.8176263707
 40
0.8788683755
 40
1.0
 40
1.0
 40
1.0
 40
1.0
 10
10.2943433799
 20
7.2301789014
 30
0.0
 10
10.2781834596
 20
7.2387039986
 30
0.0
 10
10.2540174326
 20
7.2517161433
 30
0.0
 10
10.2220204955
 20
7.2695632628
 30
0.0
 10
10.1980851846
 20
7.2832495338
 30
0.0
 10
10.1742759247
 20
7.2972229811
 30
0.0
 10
10.1506258688
 20
7.3114833533
 30
0.0
 10
10.127169728
 20
7.3260246923
 30
0.0
 10
10.103941863
 20
7.3408352825
 30
0.0
 10
10.0809742295
 20
7.3558980965
 30
0.0
 10
10.0582943608
 20
7.3711917629
 30
0.0
 10
10.0359237477
 20
7.3866919413
 30
0.0
 10
10.0138768538
 20
7.4023728278
 30
0.0
 10
9.9921607699
 20
7.4182086846
 30
0.0
 10
9.9637520802
 20
7.4394187424
 30
0.0
 10
9.9427756199
 20
7.455604168
 30
0.0
 10
9.9289447637
 20
7.4664823709
 30
0.0
  0
SPLINE
  5
3B1
100
AcDbEntity
  8
0
100
AcDbSpline
 62
7
  6
CONTINUOUS
 70
0
 71
3
 72
15
 73
11
 74
0
 42
0.0000001
 43
0.0000001
 44
0.0000000001
 40
0.0
 40
0.0
 40
0.0
 40
0.0
 40
0.1336920932
 40
0.2662145601
 40
0.39688998
 40
0.5249381662
 40
0.6496246935
 40
0.7704362771
 40
0.8871861617
 40
1.0
 40
1.0
 40
1.0
 40
1.0
 10
9.8717353182
 20
7.4704498595
 30
0.0
 10
9.8556743745
 20
7.4617474692
 30
0.0
 10
9.8236519822
 20
7.4444943381
 30
0.0
 10
9.7757650233
 20
7.4190447748
 30
0.0
 10
9.7283919407
 20
7.3942737997
 30
0.0
 10
9.6817845063
 20
7.3703522409
 30
0.0
 10
9.6361857901
 20
7.3474205849
 30
0.0
 10
9.5917795447
 20
7.3255577174
 30
0.0
 10
9.5486553027
 20
7.3047675109
 30
0.0
 10
9.5202961938
 20
7.2913645433
 30
0.0
 10
9.506336702
 20
7.2848273501
 30
0.0
  0
SPLINE
  5
3B2
100
AcDbEntity
  8
0
100
AcDbSpline
 62
7
  6
CONTINUOUS
 70
0
 71
3
 72
23
 73
19
 74
0
 42
0.0000001
 43
0.0000001
 44
0.0000000001
 40
0.0
 40
0.0
 40
0.0
 40
0.0
 40
0.0637770475
 40
0.1273448957
 40
0.1907019676
 40
0.2538561301
 40
0.3168131969
 40
0.3795820893
 40
0.4421733857
 40
0.5045993357
 40
0.5668738673
 40
0.6290123829
 40
0.6910316518
 40
0.7529496446
 40
0.8147853543
 40
0.8765586057
 40
0.9382898574
 40
1.0
 40
1.0
 40
1.0
 40
1.0
 10
8.9668492784
 20
7.2471656658
 30
0.0
 10
8.9668492784
 20
7.2403770245
 30
0.0
 10
8.9665243416
 20
7.2268197095
 30
0.0
 10
8.9650577687
 20
7.206566211
 30
0.0
 10
8.962615902
 20
7.1864732596
 30
0.0
 10
8.959204589
 20
7.1665880219
 30
0.0
 10
8.9548314542
 20
7.1469559675
 30
0.0
 10
8.9495065951
 20
7.1276224786
 30
0.0
 10
8.9432422571
 20
7.1086320935
 30
0.0
 10
8.936052837
 20
7.0900286054
 30
0.0
 10
8.9279548691
 20
7.0718549216
 30
0.0
 10
8.918966963
 20
7.0541529731
 30
0.0
 10
8.9091098404
 20
7.0369635881
 30
0.0
 10
8.8984062084
 20
7.0203264053
 30
0.0
 10
8.8868807651
 20
7.0042798422
 30
0.0
 10
8.8745599267
 20
6.9888608062
 30
0.0
 10
8.8614725884
 20
6.9741053551
 30
0.0
 10
8.852255085
 20
6.9647317372
 30
0.0
 10
8.8475305671
 20
6.9601682001
 30
0.0
  0
SPLINE
  5
3B3
100
AcDbEntity
  8
0
100
AcDbSpline
 62
7
  6
CONTINUOUS
 70
0
 71
3
 72
58
 73
54
 74
0
 42
0.0000001
 43
0.0000001
 44
0.0000000001
 40
0.0
 40
0.0
 40
0.0
 40
0.0
 40
0.0081223305
 40
0.0169168975
 40
0.0264087397
 40
0.0366143893
 40
0.0475415919
 40
0.0591912278
 40
0.0715586516
 40
0.0846347975
 40
0.0984066254
 40
0.112857697
 40
0.1279687991
 40
0.1437179559
 40
0.1600810137
 40
0.1770317001
 40
0.2125802303
 40
0.2501202969
 40
0.2893844218
 40
0.3300865608
 40
0.3719257492
 40
0.4145895607
 40
0.4577574053
 40
0.5011037527
 40
0.5443013266
 40
0.587024304
 40
0.6289515139
 40
0.6697696572
 40
0.7091765902
 40
0.7468847529
 40
0.7826248208
 40
0.7996793841
 40
0.8161512809
 40
0.8320139346
 40
0.8472427441
 40
0.8618153344
 40
0.8757119895
 40
0.8889156785
 40
0.9014127874
 40
0.9131934095
 40
0.9242520347
 40
0.9345886083
 40
0.9442093599
 40
0.953128682
 40
0.9613709503
 40
0.9689732053
 40
0.9759886321
 40
0.9824900189
 40
0.9885734021
 40
0.9914974267
 40
0.9943641369
 40
0.9971919109
 40
1.0
 40
1.0
 40
1.0
 40
1.0
 10
13.3765558853
 20
10.2930952774
 30
0.0
 10
13.375735445
 20
10.2923027929
 30
0.0
 10
13.3739492662
 20
10.2907313511
 30
0.0
 10
13.3709843716
 20
10.2884986236
 30
0.0
 10
13.3676360577
 20
10.2863032523
 30
0.0
 10
13.3639111211
 20
10.2841494652
 30
0.0
 10
13.3598165561
 20
10.2820411264
 30
0.0
 10
13.3553603022
 20
10.2799824518
 30
0.0
 10
13.3505511392
 20
10.2779774484
 30
0.0
 10
13.3453985741
 20
10.2760301694
 30
0.0
 10
13.3399128639
 20
10.2741445484
 30
0.0
 10
13.3341049851
 20
10.2723243767
 30
0.0
 10
13.3279865786
 20
10.2705734032
 30
0.0
 10
13.321569955
 20
10.2688951508
 30
0.0
 10
13.3148680209
 20
10.2672930305
 30
0.0
 10
13.3054192297
 20
10.2652300491
 30
0.0
 10
13.2929920692
 20
10.2628783128
 30
0.0
 10
13.2773992267
 20
10.2604490395
 30
0.0
 10
13.2610236351
 20
10.2583899225
 30
0.0
 10
13.2439974983
 20
10.2567179036
 30
0.0
 10
13.2264581569
 20
10.2554467877
 30
0.0
 10
13.2085472653
 20
10.2545870402
 30
0.0
 10
13.1904095143
 20
10.2541457403
 30
0.0
 10
13.1721914657
 20
10.2541265227
 30
0.0
 10
13.1540403399
 20
10.2545295488
 30
0.0
 10
13.136102809
 20
10.255351497
 30
0.0
 10
13.1185237825
 20
10.2565855982
 30
0.0
 10
13.1014452401
 20
10.2582216914
 30
0.0
 10
13.085004958
 20
10.2602462685
 30
0.0
 10
13.0693356752
 20
10.2626426787
 30
0.0
 10
13.0568373251
 20
10.2649677306
 30
0.0
 10
13.0473260079
 20
10.2670101694
 30
0.0
 10
13.0405736354
 20
10.268598096
 30
0.0
 10
13.0341041582
 20
10.2702627429
 30
0.0
 10
13.0279305956
 20
10.2720007589
 30
0.0
 10
13.0220653705
 20
10.2738086242
 30
0.0
 10
13.0165202445
 20
10.2756826156
 30
0.0
 10
13.0113063237
 20
10.2776189851
 30
0.0
 10
13.006433991
 20
10.279613782
 30
0.0
 10
13.0019129001
 20
10.2816630028
 30
0.0
 10
12.9977519554
 20
10.2837626136
 30
0.0
 10
12.9939592298
 20
10.2859084535
 30
0.0
 10
12.9905420364
 20
10.2880965254
 30
0.0
 10
12.9875068317
 20
10.2903228296
 30
0.0
 10
12.984859314
 20
10.2925836564
 30
0.0
 10
12.98260462
 20
10.2948756336
 30
0.0
 10
12.9807474175
 20
10.2971959305
 30
0.0
 10
12.9792928238
 20
10.2995414504
 30
0.0
 10
12.9784092405
 20
10.3015419178
 30
0.0
 10
12.9779211037
 20
10.3031381081
 30
0.0
 10
12.9776626276
 20
10.3043220441
 30
0.0
 10
12.9775074714
 20
10.3055073991
 30
0.0
 10
12.9774729449
 20
10.3062993149
 30
0.0
 10
12.9774729447
 20
10.3066936765
 30
0.0
  0
SPLINE
  5
3B4
100
AcDbEntity
  8
0
100
AcDbSpline
 62
7
  6
CONTINUOUS
 70
0
 71
3
 72
58
 73
54
 74
0
 42
0.0000001
 43
0.0000001
 44
0.0000000001
 40
0.0
 40
0.0
 40
0.0
 40
0.0
 40
0.0081223305
 40
0.0169168975
 40
0.0264087397
 40
0.0366143893
 40
0.0475415919
 40
0.0591912278
 40
0.0715586516
 40
0.0846347975
 40
0.0984066254
 40
0.112857697
 40
0.1279687991
 40
0.1437179559
 40
0.1600810137
 40
0.1770317001
 40
0.2125802303
 40
0.2501202969
 40
0.2893844218
 40
0.3300865608
 40
0.3719257492
 40
0.4145895607
 40
0.4577574053
 40
0.5011037527
 40
0.5443013266
 40
0.587024304
 40
0.6289515139
 40
0.6697696572
 40
0.7091765902
 40
0.7468847529
 40
0.7826248208
 40
0.7996793841
 40
0.8161512809
 40
0.8320139346
 40
0.8472427441
 40
0.8618153344
 40
0.8757119895
 40
0.8889156785
 40
0.9014127874
 40
0.9131934095
 40
0.9242520347
 40
0.9345886083
 40
0.9442093599
 40
0.953128682
 40
0.9613709503
 40
0.9689732053
 40
0.9759886321
 40
0.9824900189
 40
0.9885734021
 40
0.9914974267
 40
0.9943641369
 40
0.9971919109
 40
1.0
 40
1.0
 40
1.0
 40
1.0
 10
12.2765758514
 20
9.2305960913
 30
0.0
 10
12.2757554111
 20
9.2298036068
 30
0.0
 10
12.2739692323
 20
9.228232165
 30
0.0
 10
12.2710043377
 20
9.2259994375
 30
0.0
 10
12.2676560238
 20
9.2238040662
 30
0.0
 10
12.2639310872
 20
9.2216502791
 30
0.0
 10
12.2598365222
 20
9.2195419403
 30
0.0
 10
12.2553802683
 20
9.2174832658
 30
0.0
 10
12.2505711053
 20
9.2154782623
 30
0.0
 10
12.2454185402
 20
9.2135309833
 30
0.0
 10
12.23993283
 20
9.2116453623
 30
0.0
 10
12.2341249512
 20
9.2098251906
 30
0.0
 10
12.2280065447
 20
9.2080742171
 30
0.0
 10
12.2215899211
 20
9.2063959647
 30
0.0
 10
12.214887987
 20
9.2047938444
 30
0.0
 10
12.2054391958
 20
9.202730863
 30
0.0
 10
12.1930120353
 20
9.2003791267
 30
0.0
 10
12.1774191928
 20
9.1979498534
 30
0.0
 10
12.1610436012
 20
9.1958907364
 30
0.0
 10
12.1440174644
 20
9.1942187175
 30
0.0
 10
12.126478123
 20
9.1929476016
 30
0.0
 10
12.1085672314
 20
9.1920878541
 30
0.0
 10
12.0904294804
 20
9.1916465542
 30
0.0
 10
12.0722114318
 20
9.1916273366
 30
0.0
 10
12.054060306
 20
9.1920303627
 30
0.0
 10
12.0361227751
 20
9.1928523109
 30
0.0
 10
12.0185437486
 20
9.1940864121
 30
0.0
 10
12.0014652062
 20
9.1957225053
 30
0.0
 10
11.9850249241
 20
9.1977470825
 30
0.0
 10
11.9693556413
 20
9.2001434926
 30
0.0
 10
11.9568572912
 20
9.2024685445
 30
0.0
 10
11.947345974
 20
9.2045109833
 30
0.0
 10
11.9405936015
 20
9.2060989099
 30
0.0
 10
11.9341241243
 20
9.2077635568
 30
0.0
 10
11.9279505617
 20
9.2095015728
 30
0.0
 10
11.9220853366
 20
9.2113094381
 30
0.0
 10
11.9165402106
 20
9.2131834295
 30
0.0
 10
11.9113262898
 20
9.215119799
 30
0.0
 10
11.9064539571
 20
9.2171145959
 30
0.0
 10
11.9019328662
 20
9.2191638167
 30
0.0
 10
11.8977719215
 20
9.2212634275
 30
0.0
 10
11.8939791959
 20
9.2234092674
 30
0.0
 10
11.8905620025
 20
9.2255973393
 30
0.0
 10
11.8875267978
 20
9.2278236435
 30
0.0
 10
11.8848792801
 20
9.2300844703
 30
0.0
 10
11.8826245861
 20
9.2323764475
 30
0.0
 10
11.8807673836
 20
9.2346967444
 30
0.0
 10
11.8793127899
 20
9.2370422643
 30
0.0
 10
11.8784292066
 20
9.2390427317
 30
0.0
 10
11.8779410698
 20
9.240638922
 30
0.0
 10
11.8776825937
 20
9.241822858
 30
0.0
 10
11.8775274375
 20
9.243008213
 30
0.0
 10
11.877492911
 20
9.2438001288
 30
0.0
 10
11.8774929108
 20
9.2441944904
 30
0.0
  0
SPLINE
  5
3B5
100
AcDbEntity
  8
0
100
AcDbSpline
 62
7
  6
CONTINUOUS
 70
0
 71
3
 72
70
 73
66
 74
0
 42
0.0000001
 43
0.0000001
 44
0.0000000001
 40
0.0
 40
0.0
 40
0.0
 40
0.0
 40
0.0081224093
 40
0.0169165429
 40
0.0264081669
 40
0.0366137054
 40
0.047540711
 40
0.0591900911
 40
0.0715572998
 40
0.084633204
 40
0.098404768
 40
0.1128555938
 40
0.1279663838
 40
0.1437152667
 40
0.1600780277
 40
0.1770283812
 40
0.1945381853
 40
0.2125775897
 40
0.2311151672
 40
0.2501180963
 40
0.2695522898
 40
0.2893824887
 40
0.3300838549
 40
0.371922258
 40
0.4145852627
 40
0.4577522917
 40
0.5010978111
 40
0.5442945535
 40
0.5870167064
 40
0.6289430907
 40
0.6697604189
 40
0.6896587125
 40
0.7091675363
 40
0.7282514277
 40
0.7468760564
 40
0.7650083741
 40
0.7826167098
 40
0.7996708955
 40
0.8161424517
 40
0.832004765
 40
0.8472332415
 40
0.8618055311
 40
0.8757018459
 40
0.8889052618
 40
0.9014020921
 40
0.9131824184
 40
0.924240804
 40
0.9345771137
 40
0.9394766539
 40
0.9441987045
 40
0.9487452893
 40
0.9531191169
 40
0.957323585
 40
0.9613628382
 40
0.9652419796
 40
0.9689670642
 40
0.972545257
 40
0.9759850059
 40
0.9824862384
 40
0.985575135
 40
0.9885736377
 40
0.9914975972
 40
0.9943642426
 40
0.9971919613
 40
1.0
 40
1.0
 40
1.0
 40
1.0
 10
12.9072803516
 20
10.0408099163
 30
0.0
 10
12.9055020039
 20
10.0390921642
 30
0.0
 10
12.9016305227
 20
10.0356860418
 30
0.0
 10
12.8952041006
 20
10.0308467125
 30
0.0
 10
12.8879467243
 20
10.0260882989
 30
0.0
 10
12.8798729756
 20
10.0214199194
 30
0.0
 10
12.8709979928
 20
10.0168501745
 30
0.0
 10
12.8613391212
 20
10.0123879848
 30
0.0
 10
12.8509153026
 20
10.0080421687
 30
0.0
 10
12.8397471564
 20
10.0038214648
 30
0.0
 10
12.8278569237
 20
9.9997343875
 30
0.0
 10
12.8152683902
 20
9.9957892128
 30
0.0
 10
12.8020068029
 20
9.9919939633
 30
0.0
 10
12.7880988159
 20
9.9883563786
 30
0.0
 10
12.7735724414
 20
9.984883854
 30
0.0
 10
12.7584569716
 20
9.9815834582
 30
0.0
 10
12.7427829028
 20
9.9784619213
 30
0.0
 10
12.7265818827
 20
9.9755256119
 30
0.0
 10
12.7098866461
 20
9.9727804927
 30
0.0
 10
12.6927309443
 20
9.9702321613
 30
0.0
 10
12.6751494265
 20
9.9678857793
 30
0.0
 10
12.6509776099
 20
9.9650081388
 30
0.0
 10
12.6199610513
 20
9.9619623874
 30
0.0
 10
12.5819448332
 20
9.9592072325
 30
0.0
 10
12.5431230964
 20
9.9573437528
 30
0.0
 10
12.5038097
 20
9.9563872708
 30
0.0
 10
12.464322247
 20
9.9563456257
 30
0.0
 10
12.4249798718
 20
9.9572192044
 30
0.0
 10
12.3861004171
 20
9.9590007635
 30
0.0
 10
12.347998212
 20
9.9616757363
 30
0.0
 10
12.3168920906
 20
9.9646554935
 30
0.0
 10
12.2926349001
 20
9.9674814052
 30
0.0
 10
12.2749797866
 20
9.9697905487
 30
0.0
 10
12.2577440888
 20
9.9723025367
 30
0.0
 10
12.2409626265
 20
9.9750123006
 30
0.0
 10
12.2246693214
 20
9.9779143006
 30
0.0
 10
12.2088970895
 20
9.9810026271
 30
0.0
 10
12.1936777894
 20
9.9842710004
 30
0.0
 10
12.1790421375
 20
9.9877127642
 30
0.0
 10
12.1650196393
 20
9.9913208947
 30
0.0
 10
12.1516385401
 20
9.9950880429
 30
0.0
 10
12.1389257587
 20
9.9990065573
 30
0.0
 10
12.126906806
 20
10.0030684615
 30
0.0
 10
12.1156057161
 20
10.0072655072
 30
0.0
 10
12.1050450397
 20
10.0115892102
 30
0.0
 10
12.0952456317
 20
10.0160309239
 30
0.0
 10
12.0862270364
 20
10.0205817453
 30
0.0
 10
12.0792572256
 20
10.024525006
 30
0.0
 10
12.0740985736
 20
10.0277352907
 30
0.0
 10
12.0705051847
 20
10.0301215155
 30
0.0
 10
12.0671198956
 20
10.032528148
 30
0.0
 10
12.0639443685
 20
10.0349540228
 30
0.0
 10
12.0609801659
 20
10.0373979458
 30
0.0
 10
12.0582288138
 20
10.0398588055
 30
0.0
 10
12.0556916329
 20
10.0423354157
 30
0.0
 10
12.0533699734
 20
10.0448265625
 30
0.0
 10
12.0512648818
 20
10.0473314414
 30
0.0
 10
12.0487953531
 20
10.0506250121
 30
0.0
 10
12.0466983868
 20
10.0540074075
 30
0.0
 10
12.0450334534
 20
10.0574619891
 30
0.0
 10
12.0440275375
 20
10.0600169245
 30
0.0
 10
12.0432441992
 20
10.0625780716
 30
0.0
 10
12.0426840628
 20
10.0651441872
 30
0.0
 10
12.0423478037
 20
10.0677134525
 30
0.0
 10
12.0422729672
 20
10.069429919
 30
0.0
 10
12.042272973
 20
10.0702846948
 30
0.0
  0
SPLINE
  5
3B6
100
AcDbEntity
  8
0
100
AcDbSpline
 62
7
  6
CONTINUOUS
 70
0
 71
3
 72
70
 73
66
 74
0
 42
0.0000001
 43
0.0000001
 44
0.0000000001
 40
0.0
 40
0.0
 40
0.0
 40
0.0
 40
0.0081224093
 40
0.0169165429
 40
0.0264081669
 40
0.0366137054
 40
0.047540711
 40
0.0591900911
 40
0.0715572998
 40
0.084633204
 40
0.098404768
 40
0.1128555938
 40
0.1279663838
 40
0.1437152667
 40
0.1600780277
 40
0.1770283812
 40
0.1945381853
 40
0.2125775897
 40
0.2311151672
 40
0.2501180963
 40
0.2695522898
 40
0.2893824887
 40
0.3300838549
 40
0.371922258
 40
0.4145852627
 40
0.4577522917
 40
0.5010978111
 40
0.5442945535
 40
0.5870167064
 40
0.6289430907
 40
0.6697604189
 40
0.6896587125
 40
0.7091675363
 40
0.7282514277
 40
0.7468760564
 40
0.7650083741
 40
0.7826167098
 40
0.7996708955
 40
0.8161424517
 40
0.832004765
 40
0.8472332415
 40
0.8618055311
 40
0.8757018459
 40
0.8889052618
 40
0.9014020921
 40
0.9131824184
 40
0.924240804
 40
0.9345771137
 40
0.9394766539
 40
0.9441987045
 40
0.9487452893
 40
0.9531191169
 40
0.957323585
 40
0.9613628382
 40
0.9652419796
 40
0.9689670642
 40
0.972545257
 40
0.9759850059
 40
0.9824862384
 40
0.985575135
 40
0.9885736377
 40
0.9914975972
 40
0.9943642426
 40
0.9971919613
 40
1.0
 40
1.0
 40
1.0
 40
1.0
 10
9.9427344259
 20
9.6772782738
 30
0.0
 10
9.9409560782
 20
9.6755605217
 30
0.0
 10
9.937084597
 20
9.6721543993
 30
0.0
 10
9.9306581749
 20
9.66731507
 30
0.0
 10
9.9234007986
 20
9.6625566564
 30
0.0
 10
9.9153270499
 20
9.6578882769
 30
0.0
 10
9.9064520671
 20
9.653318532
 30
0.0
 10
9.8967931955
 20
9.6488563423
 30
0.0
 10
9.886369377
 20
9.6445105262
 30
0.0
 10
9.8752012307
 20
9.6402898223
 30
0.0
 10
9.863310998
 20
9.636202745
 30
0.0
 10
9.8507224645
 20
9.6322575702
 30
0.0
 10
9.8374608773
 20
9.6284623208
 30
0.0
 10
9.8235528902
 20
9.6248247361
 30
0.0
 10
9.8090265157
 20
9.6213522115
 30
0.0
 10
9.7939110459
 20
9.6180518157
 30
0.0
 10
9.7782369771
 20
9.6149302788
 30
0.0
 10
9.7620359571
 20
9.6119939694
 30
0.0
 10
9.7453407204
 20
9.6092488502
 30
0.0
 10
9.7281850186
 20
9.6067005188
 30
0.0
 10
9.7106035008
 20
9.6043541368
 30
0.0
 10
9.6864316842
 20
9.6014764963
 30
0.0
 10
9.6554151256
 20
9.5984307449
 30
0.0
 10
9.6173989075
 20
9.59567559
 30
0.0
 10
9.5785771708
 20
9.5938121103
 30
0.0
 10
9.5392637744
 20
9.5928556283
 30
0.0
 10
9.4997763214
 20
9.5928139832
 30
0.0
 10
9.4604339461
 20
9.5936875618
 30
0.0
 10
9.4215544914
 20
9.595469121
 30
0.0
 10
9.3834522863
 20
9.5981440938
 30
0.0
 10
9.3523461649
 20
9.601123851
 30
0.0
 10
9.3280889744
 20
9.6039497627
 30
0.0
 10
9.3104338609
 20
9.6062589062
 30
0.0
 10
9.2931981631
 20
9.6087708942
 30
0.0
 10
9.2764167008
 20
9.6114806581
 30
0.0
 10
9.2601233957
 20
9.6143826581
 30
0.0
 10
9.2443511639
 20
9.6174709846
 30
0.0
 10
9.2291318637
 20
9.6207393579
 30
0.0
 10
9.2144962118
 20
9.6241811217
 30
0.0
 10
9.2004737136
 20
9.6277892522
 30
0.0
 10
9.1870926145
 20
9.6315564004
 30
0.0
 10
9.1743798331
 20
9.6354749148
 30
0.0
 10
9.1623608804
 20
9.6395368189
 30
0.0
 10
9.1510597904
 20
9.6437338647
 30
0.0
 10
9.1404991141
 20
9.6480575677
 30
0.0
 10
9.130699706
 20
9.6524992814
 30
0.0
 10
9.1216811107
 20
9.6570501028
 30
0.0
 10
9.1147112999
 20
9.6609933635
 30
0.0
 10
9.1095526479
 20
9.6642036482
 30
0.0
 10
9.105959259
 20
9.666589873
 30
0.0
 10
9.1025739699
 20
9.6689965055
 30
0.0
 10
9.0993984428
 20
9.6714223803
 30
0.0
 10
9.0964342403
 20
9.6738663033
 30
0.0
 10
9.0936828881
 20
9.676327163
 30
0.0
 10
9.0911457072
 20
9.6788037732
 30
0.0
 10
9.0888240477
 20
9.68129492
 30
0.0
 10
9.0867189561
 20
9.6837997989
 30
0.0
 10
9.0842494274
 20
9.6870933696
 30
0.0
 10
9.0821524611
 20
9.690475765
 30
0.0
 10
9.0804875277
 20
9.6939303466
 30
0.0
 10
9.0794816118
 20
9.696485282
 30
0.0
 10
9.0786982735
 20
9.6990464291
 30
0.0
 10
9.0781381371
 20
9.7016125447
 30
0.0
 10
9.077801878
 20
9.70418181
 30
0.0
 10
9.0777270415
 20
9.7058982764
 30
0.0
 10
9.0777270473
 20
9.7067530523
 30
0.0
  0
SPLINE
  5
3B7
100
AcDbEntity
  8
0
100
AcDbSpline
 62
7
  6
CONTINUOUS
 70
0
 71
3
 72
18
 73
14
 74
0
 42
0.0000001
 43
0.0000001
 44
0.0000000001
 40
0.0
 40
0.0
 40
0.0
 40
0.0
 40
0.150466514
 40
0.2917140478
 40
0.4244427524
 40
0.4879100217
 40
0.5496093045
 40
0.6682623303
 40
0.7817883775
 40
0.8371380958
 40
0.8918079631
 40
0.946019364
 40
1.0
 40
1.0
 40
1.0
 40
1.0
 10
13.6896803172
 20
9.3287547502
 30
0.0
 10
13.6910231648
 20
9.3300518414
 30
0.0
 10
13.6937070692
 20
9.3324855762
 30
0.0
 10
13.6978627908
 20
9.3357288624
 30
0.0
 10
13.7013730366
 20
9.3380226781
 30
0.0
 10
13.7041721253
 20
9.3395759904
 30
0.0
 10
13.7068888655
 20
9.3409095457
 30
0.0
 10
13.710285661
 20
9.3422570482
 30
0.0
 10
13.7137428709
 20
9.3431766455
 30
0.0
 10
13.7164810975
 20
9.3436296205
 30
0.0
 10
13.7185104934
 20
9.3438306997
 30
0.0
 10
13.7205316835
 20
9.3438956453
 30
0.0
 10
13.7218745111
 20
9.3438481381
 30
0.0
 10
13.7225427018
 20
9.3438017995
 30
0.0
  0
SPLINE
  5
3B8
100
AcDbEntity
  8
0
100
AcDbSpline
 62
7
  6
CONTINUOUS
 70
0
 71
3
 72
18
 73
14
 74
0
 42
0.0000001
 43
0.0000001
 44
0.0000000001
 40
0.0
 40
0.0
 40
0.0
 40
0.0
 40
0.150466514
 40
0.2917140478
 40
0.4244427524
 40
0.4879100217
 40
0.5496093045
 40
0.6682623303
 40
0.7817883775
 40
0.8371380958
 40
0.8918079631
 40
0.946019364
 40
1.0
 40
1.0
 40
1.0
 40
1.0
 10
13.1399491004
 20
8.7977551388
 30
0.0
 10
13.141291948
 20
8.7990522301
 30
0.0
 10
13.1439758523
 20
8.8014859648
 30
0.0
 10
13.1481315739
 20
8.8047292511
 30
0.0
 10
13.1516418198
 20
8.8070230667
 30
0.0
 10
13.1544409084
 20
8.8085763791
 30
0.0
 10
13.1571576486
 20
8.8099099344
 30
0.0
 10
13.1605544442
 20
8.8112574368
 30
0.0
 10
13.1640116541
 20
8.8121770341
 30
0.0
 10
13.1667498806
 20
8.8126300091
 30
0.0
 10
13.1687792765
 20
8.8128310884
 30
0.0
 10
13.1708004666
 20
8.812896034
 30
0.0
 10
13.1721432942
 20
8.8128485267
 30
0.0
 10
13.1728114849
 20
8.8128021881
 30
0.0
  0
SPLINE
  5
3B9
100
AcDbEntity
  8
0
100
AcDbSpline
 62
7
  6
CONTINUOUS
 70
0
 71
3
 72
15
 73
11
 74
0
 42
0.0000001
 43
0.0000001
 44
0.0000000001
 40
0.0
 40
0.0
 40
0.0
 40
0.0
 40
0.1273482888
 40
0.2538606703
 40
0.3795878487
 40
0.5046051206
 40
0.6290174369
 40
0.7529533749
 40
0.8765605786
 40
1.0
 40
1.0
 40
1.0
 40
1.0
 10
8.78488124
 20
7.2763980275
 30
0.0
 10
8.78488124
 20
7.2691604969
 30
0.0
 10
8.7841901942
 20
7.2547229371
 30
0.0
 10
8.7810650532
 20
7.2333442852
 30
0.0
 10
8.7758830272
 20
7.2125027956
 30
0.0
 10
8.7686909272
 20
7.1923933894
 30
0.0
 10
8.7595547161
 20
7.1732015176
 30
0.0
 10
8.7485577397
 20
7.155104378
 30
0.0
 10
8.735803366
 20
7.138271545
 30
0.0
 10
8.7261999634
 20
7.1279890937
 30
0.0
 10
8.721154103
 20
7.1231151997
 30
0.0
  0
SPLINE
  5
3BA
100
AcDbEntity
  8
0
100
AcDbSpline
 62
7
  6
CONTINUOUS
 70
0
 71
3
 72
42
 73
38
 74
0
 42
0.0000001
 43
0.0000001
 44
0.0000000001
 40
0.0
 40
0.0
 40
0.0
 40
0.0
 40
0.0310746617
 40
0.0466742702
 40
0.062312125
 40
0.0936967446
 40
0.1252253881
 40
0.1568866066
 40
0.188666232
 40
0.2205476543
 40
0.2525121998
 40
0.2845395188
 40
0.316608006
 40
0.3486952358
 40
0.3807784103
 40
0.4128348121
 40
0.4448422562
 40
0.4767795339
 40
0.508626844
 40
0.5403662024
 40
0.5719818257
 40
0.6034604794
 40
0.6347917851
 40
0.6659684779
 40
0.6969866061
 40
0.7278456675
 40
0.7585486731
 40
0.7891021336
 40
0.8195159643
 40
0.8498033043
 40
0.864907343
 40
0.8799860277
 40
0.9100712982
 40
0.9400857971
 40
0.9550764662
 40
0.9700580353
 40
1.0
 40
1.0
 40
1.0
 40
1.0
 10
8.78488124
 20
7.2763980275
 30
0.0
 10
8.78488124
 20
7.2820233704
 30
0.0
 10
8.7845667892
 20
7.2904769049
 30
0.0
 10
8.7835282999
 20
7.3017109301
 30
0.0
 10
8.7820731692
 20
7.3129557204
 30
0.0
 10
8.7794791998
 20
7.3269506639
 30
0.0
 10
8.7751524984
 20
7.3435302301
 30
0.0
 10
8.7696317036
 20
7.3598270775
 30
0.0
 10
8.7629473363
 20
7.3757512062
 30
0.0
 10
8.7551361886
 20
7.3912153753
 30
0.0
 10
8.7462412371
 20
7.4061346899
 30
0.0
 10
8.7363113743
 20
7.4204272987
 30
0.0
 10
8.7254011509
 20
7.4340147741
 30
0.0
 10
8.7135704763
 20
7.4468225547
 30
0.0
 10
8.7008842927
 20
7.458780345
 30
0.0
 10
8.6874122225
 20
7.469822499
 30
0.0
 10
8.6732281902
 20
7.4798883763
 30
0.0
 10
8.658410021
 20
7.4889226727
 30
0.0
 10
8.6430390192
 20
7.4968757212
 30
0.0
 10
8.6271995274
 20
7.5037037637
 30
0.0
 10
8.6109784701
 20
7.5093691909
 30
0.0
 10
8.5944648835
 20
7.5138407495
 30
0.0
 10
8.5777494332
 20
7.5170937166
 30
0.0
 10
8.5609239232
 20
7.5191100385
 30
0.0
 10
8.5440808026
 20
7.5198784385
 30
0.0
 10
8.5273126454
 20
7.5193944777
 30
0.0
 10
8.5107117151
 20
7.51766062
 30
0.0
 10
8.4943692051
 20
7.5146861165
 30
0.0
 10
8.4783756806
 20
7.5104873848
 30
0.0
 10
8.4653976076
 20
7.5059821853
 30
0.0
 10
8.4552818253
 20
7.5017924536
 30
0.0
 10
8.4453708035
 20
7.4972256765
 30
0.0
 10
8.4333536505
 20
7.4908063271
 30
0.0
 10
8.4218937097
 20
7.4834674823
 30
0.0
 10
8.4131110298
 20
7.4770765908
 30
0.0
 10
8.4045994193
 20
7.4703510063
 30
0.0
 10
8.3985217963
 20
7.4649305515
 30
0.0
 10
8.3946232118
 20
7.4611648335
 30
0.0
  0
SPLINE
  5
3BB
100
AcDbEntity
  8
0
100
AcDbSpline
 62
7
  6
CONTINUOUS
 70
0
 71
3
 72
11
 73
7
 74
0
 42
0.0000001
 43
0.0000001
 44
0.0000000001
 40
0.0
 40
0.0
 40
0.0
 40
0.0
 40
0.2517325964
 40
0.5022831652
 40
0.7516878325
 40
1.0
 40
1.0
 40
1.0
 40
1.0
 10
10.4459523059
 20
7.0935163123
 30
0.0
 10
10.4459523059
 20
7.0840941401
 30
0.0
 10
10.4453128735
 20
7.0652876137
 30
0.0
 10
10.4424235238
 20
7.0372794519
 30
0.0
 10
10.4376199778
 20
7.0096651426
 30
0.0
 10
10.4331455577
 20
6.9915625749
 30
0.0
 10
10.4305974329
 20
6.9826245524
 30
0.0
  0
SPLINE
  5
3BC
100
AcDbEntity
  8
0
100
AcDbSpline
 62
7
  6
CONTINUOUS
 70
0
 71
3
 72
11
 73
7
 74
0
 42
0.0000001
 43
0.0000001
 44
0.0000000001
 40
0.0
 40
0.0
 40
0.0
 40
0.0
 40
0.2480506592
 40
0.4974370176
 40
0.7481146859
 40
1.0
 40
1.0
 40
1.0
 40
1.0
 10
10.4459523059
 20
7.0935163123
 30
0.0
 10
10.4459523059
 20
7.1045082021
 30
0.0
 10
10.4450774818
 20
7.1265606815
 30
0.0
 10
10.4411739015
 20
7.1595137554
 30
0.0
 10
10.4347013107
 20
7.1922327335
 30
0.0
 10
10.4287122845
 20
7.2137088325
 30
0.0
 10
10.4253090232
 20
7.2243391631
 30
0.0
  0
SPLINE
  5
3BD
100
AcDbEntity
  8
0
100
AcDbSpline
 62
7
  6
CONTINUOUS
 70
0
 71
3
 72
21
 73
17
 74
0
 42
0.0000001
 43
0.0000001
 44
0.0000000001
 40
0.0
 40
0.0
 40
0.0
 40
0.0
 40
0.0628274178
 40
0.1256996352
 40
0.1885972144
 40
0.2515004974
 40
0.3772122325
 40
0.5027126756
 40
0.565353795
 40
0.627887577
 40
0.6902975697
 40
0.7525684286
 40
0.8146860533
 40
0.876637721
 40
0.9384122277
 40
1.0
 40
1.0
 40
1.0
 40
1.0
 10
10.3634462198
 20
7.3478541734
 30
0.0
 10
10.3593659886
 20
7.3536075954
 30
0.0
 10
10.3509359925
 20
7.3649321141
 30
0.0
 10
10.3375211999
 20
7.381322279
 30
0.0
 10
10.3233616074
 20
7.3970860998
 30
0.0
 10
10.3035431059
 20
7.4172102348
 30
0.0
 10
10.2770894681
 20
7.4406093892
 30
0.0
 10
10.2486206055
 20
7.4614610199
 30
0.0
 10
10.2248117056
 20
7.4764809943
 30
0.0
 10
10.2064918317
 20
7.4868835527
 30
0.0
 10
10.1877451178
 20
7.4964033468
 30
0.0
 10
10.1686164908
 20
7.5050176425
 30
0.0
 10
10.1491523835
 20
7.5127054539
 30
0.0
 10
10.1293996903
 20
7.5194481791
 30
0.0
 10
10.1094068471
 20
7.5252293439
 30
0.0
 10
10.0959279403
 20
7.5284384265
 30
0.0
 10
10.0891651473
 20
7.5298774933
 30
0.0
  0
SPLINE
  5
3BE
100
AcDbEntity
  8
0
100
AcDbSpline
 62
7
  6
CONTINUOUS
 70
0
 71
3
 72
23
 73
19
 74
0
 42
0.0000001
 43
0.0000001
 44
0.0000000001
 40
0.0
 40
0.0
 40
0.0
 40
0.0
 40
0.0637771706
 40
0.1273448423
 40
0.190701976
 40
0.2538561364
 40
0.3168131911
 40
0.379582093
 40
0.4421733865
 40
0.504599335
 40
0.5668738647
 40
0.6290123811
 40
0.6910316516
 40
0.752949644
 40
0.8147853513
 40
0.8765586011
 40
0.9382898546
 40
1.0
 40
1.0
 40
1.0
 40
1.0
 10
11.63696441
 20
7.6430930091
 30
0.0
 10
11.63696441
 20
7.6347614721
 30
0.0
 10
11.6365656299
 20
7.6181229429
 30
0.0
 10
11.634765732
 20
7.5932663568
 30
0.0
 10
11.6317688968
 20
7.5686068212
 30
0.0
 10
11.6275822718
 20
7.5442021874
 30
0.0
 10
11.6222152407
 20
7.520108284
 30
0.0
 10
11.6156801824
 20
7.4963808019
 30
0.0
 10
11.6079921129
 20
7.4730744051
 30
0.0
 10
11.5991687125
 20
7.45024284
 30
0.0
 10
11.5892302803
 20
7.4279387609
 30
0.0
 10
11.5781996691
 20
7.4062136203
 30
0.0
 10
11.5661022713
 20
7.3851175456
 30
0.0
 10
11.5529659661
 20
7.3646991815
 30
0.0
 10
11.5388210732
 20
7.3450056715
 30
0.0
 10
11.5237000292
 20
7.3260822983
 30
0.0
 10
11.5076382967
 20
7.3079733074
 30
0.0
 10
11.4963258635
 20
7.2964693456
 30
0.0
 10
11.4905275946
 20
7.2908686283
 30
0.0
  0
SPLINE
  5
3BF
100
AcDbEntity
  8
0
100
AcDbSpline
 62
7
  6
CONTINUOUS
 70
0
 71
3
 72
32
 73
28
 74
0
 42
0.0000001
 43
0.0000001
 44
0.0000000001
 40
0.0
 40
0.0
 40
0.0
 40
0.0
 40
0.060339443
 40
0.1201626694
 40
0.1776395535
 40
0.2318539985
 40
0.2825689965
 40
0.3298991402
 40
0.374098897
 40
0.4154565425
 40
0.4907005277
 40
0.5575281304
 40
0.6173789933
 40
0.6713698219
 40
0.7204089275
 40
0.7652915975
 40
0.8067845493
 40
0.8265281475
 40
0.845743366
 40
0.8645573787
 40
0.8831129086
 40
0.9015723134
 40
0.920121155
 40
0.9389727313
 40
0.9583727299
 40
0.978604655
 40
1.0
 40
1.0
 40
1.0
 40
1.0
 10
10.7192708889
 20
7.6251569329
 30
0.0
 10
10.7184271768
 20
7.6275313314
 30
0.0
 10
10.7169559461
 20
7.6323364749
 30
0.0
 10
10.7153625337
 20
7.639588912
 30
0.0
 10
10.7143459161
 20
7.6466852057
 30
0.0
 10
10.7138392498
 20
7.6534532368
 30
0.0
 10
10.7137587576
 20
7.6598150565
 30
0.0
 10
10.7140261953
 20
7.665752386
 30
0.0
 10
10.7145765812
 20
7.6712773008
 30
0.0
 10
10.7155876583
 20
7.6779183094
 30
0.0
 10
10.7172905138
 20
7.6854004692
 30
0.0
 10
10.7199511946
 20
7.6934156418
 30
0.0
 10
10.7230187395
 20
7.7003224257
 30
0.0
 10
10.7264028775
 20
7.7062372268
 30
0.0
 10
10.7300461865
 20
7.7112423203
 30
0.0
 10
10.7339116484
 20
7.7153901599
 30
0.0
 10
10.7373598542
 20
7.7182018568
 30
0.0
 10
10.7401994845
 20
7.7200036511
 30
0.0
 10
10.7423397419
 20
7.7211238663
 30
0.0
 10
10.7445252555
 20
7.7220310501
 30
0.0
 10
10.7467565788
 20
7.7227195405
 30
0.0
 10
10.7490347489
 20
7.7231808766
 30
0.0
 10
10.7513611528
 20
7.7234045108
 30
0.0
 10
10.7537377241
 20
7.7233765125
 30
0.0
 10
10.7561669298
 20
7.7230789126
 30
0.0
 10
10.7586516733
 20
7.7224901168
 30
0.0
 10
10.7602924645
 20
7.7219034935
 30
0.0
 10
10.761116955
 20
7.7215591861
 30
0.0
  0
SPLINE
  5
3C0
100
AcDbEntity
  8
0
100
AcDbSpline
 62
7
  6
CONTINUOUS
 70
0
 71
3
 72
39
 73
35
 74
0
 42
0.0000001
 43
0.0000001
 44
0.0000000001
 40
0.0
 40
0.0
 40
0.0
 40
0.0
 40
0.0310753533
 40
0.062307914
 40
0.0936931276
 40
0.125222289
 40
0.1568840436
 40
0.1886642048
 40
0.2205461649
 40
0.252511249
 40
0.2845391082
 40
0.3166081364
 40
0.3486959074
 40
0.3807796231
 40
0.412836566
 40
0.44484455
 40
0.4767823665
 40
0.508630214
 40
0.5403701087
 40
0.5719862657
 40
0.6034654504
 40
0.634797285
 40
0.6659745047
 40
0.6969931573
 40
0.7278527396
 40
0.7585562634
 40
0.7891102405
 40
0.8195245856
 40
0.8498124374
 40
0.8799898958
 40
0.9100756749
 40
0.9400906815
 40
0.970057529
 40
1.0
 40
1.0
 40
1.0
 40
1.0
 10
11.63696441
 20
7.6430930091
 30
0.0
 10
11.63696441
 20
7.6560193985
 30
0.0
 10
11.6360001295
 20
7.6819475178
 30
0.0
 10
11.631694828
 20
7.7207155728
 30
0.0
 10
11.6245512864
 20
7.7592559811
 30
0.0
 10
11.6146089804
 20
7.7973543833
 30
0.0
 10
11.601922928
 20
7.8348022776
 30
0.0
 10
11.5865630827
 20
7.8713939338
 30
0.0
 10
11.5686140646
 20
7.9069286064
 30
0.0
 10
11.5481746136
 20
7.9412112965
 30
0.0
 10
11.5253570645
 20
7.9740538913
 30
0.0
 10
11.5002867519
 20
8.0052761656
 30
0.0
 10
11.4731013675
 20
8.0347068052
 30
0.0
 10
11.4439501435
 20
8.0621842868
 30
0.0
 10
11.4129930568
 20
8.08755776
 30
0.0
 10
11.3803999559
 20
8.1106878538
 30
0.0
 10
11.3463496888
 20
8.1314475029
 30
0.0
 10
11.3110290905
 20
8.1497225954
 30
0.0
 10
11.2746319669
 20
8.1654125811
 30
0.0
 10
11.2373580485
 20
8.1784310129
 30
0.0
 10
11.1994119304
 20
8.1887060685
 30
0.0
 10
11.161001959
 20
8.1961809683
 30
0.0
 10
11.1223390872
 20
8.2008142318
 30
0.0
 10
11.0836357413
 20
8.2025799295
 30
0.0
 10
11.0451046728
 20
8.2014678428
 30
0.0
 10
11.0069577942
 20
8.1974836228
 30
0.0
 10
10.9694050166
 20
8.1906487
 30
0.0
 10
10.9326530971
 20
8.1810001972
 30
0.0
 10
10.8969045229
 20
8.1685907579
 30
0.0
 10
10.8623562896
 20
8.1534882921
 30
0.0
 10
10.8291990545
 20
8.135775841
 30
0.0
 10
10.7976151074
 20
8.1155501742
 30
0.0
 10
10.7677809483
 20
8.092924721
 30
0.0
 10
10.7491596765
 20
8.0763167378
 30
0.0
 10
10.7402012712
 20
8.0676635524
 30
0.0
  0
SPLINE
  5
3C1
100
AcDbEntity
  8
0
100
AcDbSpline
 62
7
  6
CONTINUOUS
 70
0
 71
3
 72
15
 73
11
 74
0
 42
0.0000001
 43
0.0000001
 44
0.0000000001
 40
0.0
 40
0.0
 40
0.0
 40
0.0
 40
0.1098906373
 40
0.2214016819
 40
0.3360757822
 40
0.4553202911
 40
0.5803741285
 40
0.7122942594
 40
0.8519453747
 40
1.0
 40
1.0
 40
1.0
 40
1.0
 10
13.3834729171
 20
10.3066936765
 30
0.0
 10
13.3834729175
 20
10.30611951
 30
0.0
 10
13.3833992058
 20
10.3049614089
 30
0.0
 10
13.3830685576
 20
10.3032325799
 30
0.0
 10
13.382518845
 20
10.3015091882
 30
0.0
 10
13.3817515349
 20
10.2997938207
 30
0.0
 10
13.3807683098
 20
10.2980881197
 30
0.0
 10
13.3795708076
 20
10.2963935765
 30
0.0
 10
13.3781608513
 20
10.2947117861
 30
0.0
 10
13.3771122784
 20
10.293632712
 30
0.0
 10
13.3765558853
 20
10.2930952774
 30
0.0
  0
SPLINE
  5
3C2
100
AcDbEntity
  8
0
100
AcDbSpline
 62
7
  6
CONTINUOUS
 70
0
 71
3
 72
15
 73
11
 74
0
 42
0.0000001
 43
0.0000001
 44
0.0000000001
 40
0.0
 40
0.0
 40
0.0
 40
0.0
 40
0.1098906373
 40
0.2214016819
 40
0.3360757822
 40
0.4553202911
 40
0.5803741285
 40
0.7122942594
 40
0.8519453747
 40
1.0
 40
1.0
 40
1.0
 40
1.0
 10
12.2834928832
 20
9.2441944904
 30
0.0
 10
12.2834928836
 20
9.2436203239
 30
0.0
 10
12.2834191719
 20
9.2424622228
 30
0.0
 10
12.2830885237
 20
9.2407333938
 30
0.0
 10
12.2825388111
 20
9.2390100021
 30
0.0
 10
12.281771501
 20
9.2372946346
 30
0.0
 10
12.2807882759
 20
9.2355889336
 30
0.0
 10
12.2795907737
 20
9.2338943904
 30
0.0
 10
12.2781808175
 20
9.2322126
 30
0.0
 10
12.2771322445
 20
9.2311335259
 30
0.0
 10
12.2765758514
 20
9.2305960913
 30
0.0
  0
SPLINE
  5
3C3
100
AcDbEntity
  8
0
100
AcDbSpline
 62
7
  6
CONTINUOUS
 70
0
 71
3
 72
55
 73
51
 74
0
 42
0.0000001
 43
0.0000001
 44
0.0000000001
 40
0.0
 40
0.0
 40
0.0
 40
0.0
 40
0.0077405257
 40
0.016054501
 40
0.0249607557
 40
0.0344722549
 40
0.0445956288
 40
0.0553326245
 40
0.0666809301
 40
0.0786350477
 40
0.0911864132
 40
0.1043240303
 40
0.1180346945
 40
0.1323031752
 40
0.1471126019
 40
0.1624443638
 40
0.1782785603
 40
0.1945938437
 40
0.2285756721
 40
0.2641981866
 40
0.3012536218
 40
0.3395217294
 40
0.3787720416
 40
0.4187660082
 40
0.4592590601
 40
0.5000026359
 40
0.5407461865
 40
0.5812391642
 40
0.6212330127
 40
0.6604831655
 40
0.6987510686
 40
0.7358062484
 40
0.7714284591
 40
0.8054099417
 40
0.82172507
 40
0.8375590436
 40
0.8528906419
 40
0.8676998342
 40
0.8819681224
 40
0.8956785669
 40
0.9088159488
 40
0.9213671134
 40
0.9333209605
 40
0.9446690809
 40
0.9554057944
 40
0.9655289274
 40
0.9750402537
 40
0.9839463466
 40
0.9922597297
 40
1.0
 40
1.0
 40
1.0
 40
1.0
 10
12.7375818058
 20
10.0209959784
 30
0.0
 10
12.7365850174
 20
10.0200684279
 30
0.0
 10
12.7344391989
 20
10.0182278382
 30
0.0
 10
12.7309191101
 20
10.0155990399
 30
0.0
 10
12.7269909949
 20
10.0130099068
 30
0.0
 10
12.7226613429
 20
10.0104645568
 30
0.0
 10
12.7179368469
 20
10.0079667333
 30
0.0
 10
12.7128250058
 20
10.0055205361
 30
0.0
 10
12.7073340578
 20
10.0031298201
 30
0.0
 10
12.7014728498
 20
10.0007985525
 30
0.0
 10
12.6952509036
 20
9.99853051
 30
0.0
 10
12.6886783528
 20
9.996329452
 30
0.0
 10
12.6817659359
 20
9.9941990265
 30
0.0
 10
12.6745249749
 20
9.9921427197
 30
0.0
 10
12.6669673376
 20
9.9901639945
 30
0.0
 10
12.6591054415
 20
9.9882660717
 30
0.0
 10
12.6509521901
 20
9.9864521273
 30
0.0
 10
12.6395555356
 20
9.9841178367
 30
0.0
 10
12.6246777823
 20
9.9814434266
 30
0.0
 10
12.6061220793
 20
9.9786540699
 30
0.0
 10
12.5867512448
 20
9.9762615154
 30
0.0
 10
12.5666927586
 20
9.974281746
 30
0.0
 10
12.5460785025
 20
9.9727280351
 30
0.0
 10
12.5250441487
 20
9.9716107754
 30
0.0
 10
12.5037281633
 20
9.9709374385
 30
0.0
 10
12.4822708985
 20
9.970712522
 30
0.0
 10
12.4608136477
 20
9.970937528
 30
0.0
 10
12.4394977033
 20
9.9716109523
 30
0.0
 10
12.4184634159
 20
9.9727282949
 30
0.0
 10
12.3978492507
 20
9.9742820847
 30
0.0
 10
12.3777908815
 20
9.9762619316
 30
0.0
 10
12.3584201923
 20
9.978654566
 30
0.0
 10
12.3398646609
 20
9.9814439953
 30
0.0
 10
12.3249870657
 20
9.9841184827
 30
0.0
 10
12.3135905455
 20
9.986452796
 30
0.0
 10
12.305437405
 20
9.9882667998
 30
0.0
 10
12.2975756221
 20
9.9901647263
 30
0.0
 10
12.2900181065
 20
9.9921435064
 30
0.0
 10
12.2827772678
 20
9.9941998268
 30
0.0
 10
12.2758649791
 20
9.996330283
 30
0.0
 10
12.269292563
 20
9.9985313787
 30
0.0
 10
12.2630707486
 20
10.0007994211
 30
0.0
 10
12.2572096881
 20
10.0031307463
 30
0.0
 10
12.2517188759
 20
10.0055214495
 30
0.0
 10
12.2466071979
 20
10.0079676991
 30
0.0
 10
12.2418828347
 20
10.0104655114
 30
0.0
 10
12.2375533252
 20
10.013010907
 30
0.0
 10
12.2336254186
 20
10.0156000573
 30
0.0
 10
12.2301054907
 20
10.0182287751
 30
0.0
 10
12.2279598544
 20
10.0200693506
 30
0.0
 10
12.2269631326
 20
10.0209969067
 30
0.0
  0
SPLINE
  5
3C4
100
AcDbEntity
  8
0
100
AcDbSpline
 62
7
  6
CONTINUOUS
 70
0
 71
3
 72
17
 73
13
 74
0
 42
0.0000001
 43
0.0000001
 44
0.0000000001
 40
0.0
 40
0.0
 40
0.0
 40
0.0
 40
0.0548653995
 40
0.1099348206
 40
0.2214348222
 40
0.3360991408
 40
0.4553350478
 40
0.5170794787
 40
0.5804143716
 40
0.712316841
 40
0.8519520933
 40
1.0
 40
1.0
 40
1.0
 40
1.0
 10
12.9222729527
 20
10.0702838628
 30
0.0
 10
12.9222729485
 20
10.0696624691
 30
0.0
 10
12.9222334834
 20
10.0684169735
 30
0.0
 10
12.9219961538
 20
10.0659189874
 30
0.0
 10
12.9213964844
 20
10.0627817409
 30
0.0
 10
12.9202049293
 20
10.0590468913
 30
0.0
 10
12.9188348689
 20
10.0559840507
 30
0.0
 10
12.9175165319
 20
10.0535502322
 30
0.0
 10
12.9160069827
 20
10.0510605643
 30
0.0
 10
12.9138150885
 20
10.0479587823
 30
0.0
 10
12.9107591909
 20
10.0443137337
 30
0.0
 10
12.9084863681
 20
10.0419748388
 30
0.0
 10
12.9072803516
 20
10.0408099163
 30
0.0
  0
SPLINE
  5
3C5
100
AcDbEntity
  8
0
100
AcDbSpline
 62
7
  6
CONTINUOUS
 70
0
 71
3
 72
55
 73
51
 74
0
 42
0.0000001
 43
0.0000001
 44
0.0000000001
 40
0.0
 40
0.0
 40
0.0
 40
0.0
 40
0.0077405257
 40
0.016054501
 40
0.0249607557
 40
0.0344722549
 40
0.0445956288
 40
0.0553326245
 40
0.0666809301
 40
0.0786350477
 40
0.0911864132
 40
0.1043240303
 40
0.1180346945
 40
0.1323031752
 40
0.1471126019
 40
0.1624443638
 40
0.1782785603
 40
0.1945938437
 40
0.2285756721
 40
0.2641981866
 40
0.3012536218
 40
0.3395217294
 40
0.3787720416
 40
0.4187660082
 40
0.4592590601
 40
0.5000026359
 40
0.5407461865
 40
0.5812391642
 40
0.6212330127
 40
0.6604831655
 40
0.6987510686
 40
0.7358062484
 40
0.7714284591
 40
0.8054099417
 40
0.82172507
 40
0.8375590436
 40
0.8528906419
 40
0.8676998342
 40
0.8819681224
 40
0.8956785669
 40
0.9088159488
 40
0.9213671134
 40
0.9333209605
 40
0.9446690809
 40
0.9554057944
 40
0.9655289274
 40
0.9750402537
 40
0.9839463466
 40
0.9922597297
 40
1.0
 40
1.0
 40
1.0
 40
1.0
 10
9.7730358801
 20
9.6574643359
 30
0.0
 10
9.7720390917
 20
9.6565367854
 30
0.0
 10
9.7698932732
 20
9.6546961957
 30
0.0
 10
9.7663731844
 20
9.6520673974
 30
0.0
 10
9.7624450693
 20
9.6494782643
 30
0.0
 10
9.7581154172
 20
9.6469329143
 30
0.0
 10
9.7533909212
 20
9.6444350908
 30
0.0
 10
9.7482790801
 20
9.6419888936
 30
0.0
 10
9.7427881321
 20
9.6395981776
 30
0.0
 10
9.7369269241
 20
9.63726691
 30
0.0
 10
9.7307049779
 20
9.6349988675
 30
0.0
 10
9.7241324271
 20
9.6327978094
 30
0.0
 10
9.7172200102
 20
9.630667384
 30
0.0
 10
9.7099790492
 20
9.6286110772
 30
0.0
 10
9.702421412
 20
9.626632352
 30
0.0
 10
9.6945595158
 20
9.6247344292
 30
0.0
 10
9.6864062645
 20
9.6229204848
 30
0.0
 10
9.6750096099
 20
9.6205861942
 30
0.0
 10
9.6601318566
 20
9.6179117841
 30
0.0
 10
9.6415761537
 20
9.6151224274
 30
0.0
 10
9.6222053191
 20
9.6127298729
 30
0.0
 10
9.6021468329
 20
9.6107501035
 30
0.0
 10
9.5815325768
 20
9.6091963926
 30
0.0
 10
9.5604982231
 20
9.6080791329
 30
0.0
 10
9.5391822376
 20
9.607405796
 30
0.0
 10
9.5177249728
 20
9.6071808795
 30
0.0
 10
9.496267722
 20
9.6074058855
 30
0.0
 10
9.4749517776
 20
9.6080793098
 30
0.0
 10
9.4539174902
 20
9.6091966524
 30
0.0
 10
9.4333033251
 20
9.6107504422
 30
0.0
 10
9.4132449558
 20
9.6127302891
 30
0.0
 10
9.3938742666
 20
9.6151229235
 30
0.0
 10
9.3753187352
 20
9.6179123528
 30
0.0
 10
9.36044114
 20
9.6205868402
 30
0.0
 10
9.3490446198
 20
9.6229211535
 30
0.0
 10
9.3408914794
 20
9.6247351573
 30
0.0
 10
9.3330296964
 20
9.6266330838
 30
0.0
 10
9.3254721808
 20
9.6286118639
 30
0.0
 10
9.3182313421
 20
9.6306681843
 30
0.0
 10
9.3113190534
 20
9.6327986405
 30
0.0
 10
9.3047466373
 20
9.6349997362
 30
0.0
 10
9.298524823
 20
9.6372677786
 30
0.0
 10
9.2926637624
 20
9.6395991038
 30
0.0
 10
9.2871729502
 20
9.641989807
 30
0.0
 10
9.2820612722
 20
9.6444360566
 30
0.0
 10
9.2773369091
 20
9.6469338689
 30
0.0
 10
9.2730073995
 20
9.6494792645
 30
0.0
 10
9.2690794929
 20
9.6520684148
 30
0.0
 10
9.265559565
 20
9.6546971326
 30
0.0
 10
9.2634139287
 20
9.6565377081
 30
0.0
 10
9.262417207
 20
9.6574652642
 30
0.0
  0
SPLINE
  5
3C6
100
AcDbEntity
  8
0
100
AcDbSpline
 62
7
  6
CONTINUOUS
 70
0
 71
3
 72
17
 73
13
 74
0
 42
0.0000001
 43
0.0000001
 44
0.0000000001
 40
0.0
 40
0.0
 40
0.0
 40
0.0
 40
0.0548653995
 40
0.1099348206
 40
0.2214348222
 40
0.3360991408
 40
0.4553350478
 40
0.5170794787
 40
0.5804143716
 40
0.712316841
 40
0.8519520933
 40
1.0
 40
1.0
 40
1.0
 40
1.0
 10
9.957727027
 20
9.7067522203
 30
0.0
 10
9.9577270228
 20
9.7061308265
 30
0.0
 10
9.9576875577
 20
9.704885331
 30
0.0
 10
9.9574502282
 20
9.7023873449
 30
0.0
 10
9.9568505587
 20
9.6992500984
 30
0.0
 10
9.9556590036
 20
9.6955152488
 30
0.0
 10
9.9542889432
 20
9.6924524082
 30
0.0
 10
9.9529706063
 20
9.6900185897
 30
0.0
 10
9.951461057
 20
9.6875289218
 30
0.0
 10
9.9492691628
 20
9.6844271398
 30
0.0
 10
9.9462132652
 20
9.6807820912
 30
0.0
 10
9.9439404424
 20
9.6784431963
 30
0.0
 10
9.9427344259
 20
9.6772782738
 30
0.0
  0
SPLINE
  5
3C7
100
AcDbEntity
  8
0
100
AcDbSpline
 62
7
  6
CONTINUOUS
 70
0
 71
3
 72
75
 73
71
 74
0
 42
0.0000001
 43
0.0000001
 44
0.0000000001
 40
0.0
 40
0.0
 40
0.0
 40
0.0
 40
0.0027164437
 40
0.0054532632
 40
0.008230346
 40
0.0110666464
 40
0.0139798699
 40
0.0169861878
 40
0.0201001566
 40
0.0233346913
 40
0.0267010494
 40
0.0302090131
 40
0.0338669439
 40
0.0376819113
 40
0.0416599047
 40
0.0458058449
 40
0.0501237789
 40
0.0546169956
 40
0.0592880173
 40
0.0641388057
 40
0.0691707576
 40
0.0743847423
 40
0.0853596893
 40
0.097063583
 40
0.1094903675
 40
0.1226296663
 40
0.1364673952
 40
0.1509862671
 40
0.1661662218
 40
0.1819847375
 40
0.1984170526
 40
0.215436398
 40
0.2330142101
 40
0.2511202863
 40
0.2697229007
 40
0.2887889595
 40
0.3082841412
 40
0.3281730045
 40
0.3689841669
 40
0.4109214093
 40
0.4536716467
 40
0.4969138932
 40
0.5403224233
 40
0.5835699246
 40
0.6263306237
 40
0.6682834289
 40
0.7091151097
 40
0.7290160232
 40
0.7485244135
 40
0.7676048055
 40
0.7862228369
 40
0.8043453687
 40
0.8219406362
 40
0.8389783858
 40
0.8554299942
 40
0.8712686284
 40
0.8864694685
 40
0.9010099156
 40
0.9148698199
 40
0.9280317975
 40
0.9404816662
 40
0.9522089108
 40
0.963207332
 40
0.973475875
 40
0.97833824
 40
0.9830207122
 40
0.9875253169
 40
0.991854608
 40
0.9960116191
 40
1.0
 40
1.0
 40
1.0
 40
1.0
 10
13.6568179327
 20
8.3960781116
 30
0.0
 10
13.6559314037
 20
8.3961395918
 30
0.0
 10
13.6541562332
 20
8.3963432331
 30
0.0
 10
13.6515160797
 20
8.3968882338
 30
0.0
 10
13.6488958886
 20
8.3976726591
 30
0.0
 10
13.6462974953
 20
8.3986956859
 30
0.0
 10
13.6437222933
 20
8.3999565183
 30
0.0
 10
13.6411715582
 20
8.4014540714
 30
0.0
 10
13.6386464733
 20
8.4031873096
 30
0.0
 10
13.6361481988
 20
8.4051551745
 30
0.0
 10
13.6336777523
 20
8.4073564451
 30
0.0
 10
13.6312362471
 20
8.4097899741
 30
0.0
 10
13.6288247445
 20
8.41245448
 30
0.0
 10
13.6264442712
 20
8.4153485813
 30
0.0
 10
13.6240959714
 20
8.4184708843
 30
0.0
 10
13.6217808815
 20
8.4218198096
 30
0.0
 10
13.619500088
 20
8.4253937128
 30
0.0
 10
13.617254726
 20
8.4291908591
 30
0.0
 10
13.6150458136
 20
8.433209346
 30
0.0
 10
13.6128744743
 20
8.4374472079
 30
0.0
 10
13.6107417475
 20
8.4419023561
 30
0.0
 10
13.6079023698
 20
8.4482380222
 30
0.0
 10
13.6044687636
 20
8.456695762
 30
0.0
 10
13.6005862581
 20
8.4675068897
 30
0.0
 10
13.5968818648
 20
8.4791255462
 30
0.0
 10
13.5933630407
 20
8.4915286054
 30
0.0
 10
13.5900368913
 20
8.5046915579
 30
0.0
 10
13.5869101492
 20
8.5185881834
 30
0.0
 10
13.583989169
 20
8.5331907585
 30
0.0
 10
13.581279905
 20
8.5484700886
 30
0.0
 10
13.5787878664
 20
8.5643955737
 30
0.0
 10
13.5765181163
 20
8.5809352804
 30
0.0
 10
13.5744752766
 20
8.5980560256
 30
0.0
 10
13.5726635189
 20
8.6157234423
 30
0.0
 10
13.5710865223
 20
8.6339020459
 30
0.0
 10
13.5697475
 20
8.6525552998
 30
0.0
 10
13.5686491472
 20
8.6716457511
 30
0.0
 10
13.5674988767
 20
8.6978562784
 30
0.0
 10
13.5666906645
 20
8.7314273158
 30
0.0
 10
13.5667098982
 20
8.7724867636
 30
0.0
 10
13.5677107093
 20
8.8143295125
 30
0.0
 10
13.5696852679
 20
8.8566193017
 30
0.0
 10
13.5726178736
 20
8.8990165119
 30
0.0
 10
13.5764849786
 20
8.9411805477
 30
0.0
 10
13.5812553543
 20
8.9827728213
 30
0.0
 10
13.5868904757
 20
9.0234591124
 30
0.0
 10
13.5923140827
 20
9.0566149501
 30
0.0
 10
13.5970630087
 20
9.0824325509
 30
0.0
 10
13.600780179
 20
9.1012030015
 30
0.0
 10
13.6046756117
 20
9.1195084172
 30
0.0
 10
13.6087414803
 20
9.137312042
 30
0.0
 10
13.6129695734
 20
9.154578098
 30
0.0
 10
13.6173513523
 20
9.1712719146
 30
0.0
 10
13.6218779535
 20
9.187359991
 30
0.0
 10
13.6265402293
 20
9.2028100564
 30
0.0
 10
13.6313287691
 20
9.2175911381
 30
0.0
 10
13.6362338923
 20
9.2316736477
 30
0.0
 10
13.6412456827
 20
9.2450294463
 30
0.0
 10
13.6463540254
 20
9.2576318919
 30
0.0
 10
13.6515486464
 20
9.2694559206
 30
0.0
 10
13.6568191026
 20
9.2804780923
 30
0.0
 10
13.6621548854
 20
9.290676803
 30
0.0
 10
13.6675453665
 20
9.3000318409
 30
0.0
 10
13.6721545515
 20
9.30723542
 30
0.0
 10
13.6758689945
 20
9.3125482253
 30
0.0
 10
13.6786110647
 20
9.3162376786
 30
0.0
 10
13.6813587855
 20
9.3197030346
 30
0.0
 10
13.68411094
 20
9.3229425534
 30
0.0
 10
13.6868659683
 20
9.3259544792
 30
0.0
 10
13.6887418625
 20
9.3278482725
 30
0.0
 10
13.6896803172
 20
9.3287547502
 30
0.0
  0
SPLINE
  5
3C8
100
AcDbEntity
  8
0
100
AcDbSpline
 62
7
  6
CONTINUOUS
 70
0
 71
3
 72
56
 73
52
 74
0
 42
0.0000001
 43
0.0000001
 44
0.0000000001
 40
0.0
 40
0.0
 40
0.0
 40
0.0
 40
0.0075208709
 40
0.0156242481
 40
0.0243312328
 40
0.0336550918
 40
0.0436030183
 40
0.0541770957
 40
0.0653752284
 40
0.0771919178
 40
0.0896185534
 40
0.1026440779
 40
0.1162551023
 40
0.1304362406
 40
0.145170387
 40
0.1604387033
 40
0.1762209978
 40
0.1924956609
 40
0.2092398689
 40
0.2264297175
 40
0.2620445529
 40
0.2991302956
 40
0.3374633814
 40
0.3768097621
 40
0.4169270789
 40
0.4575667636
 40
0.4984760848
 40
0.539400172
 40
0.5800840351
 40
0.6202745905
 40
0.6597226868
 40
0.6981851471
 40
0.7354268498
 40
0.7712228914
 40
0.805360869
 40
0.821746257
 40
0.8376444166
 40
0.8530335157
 40
0.8678929718
 40
0.8822036399
 40
0.8959480235
 40
0.9091102561
 40
0.921676549
 40
0.9336352115
 40
0.9449770572
 40
0.9556958674
 40
0.9657886469
 40
0.9752564073
 40
0.9841051269
 40
0.992347004
 40
1.0
 40
1.0
 40
1.0
 40
1.0
 10
13.6148072138
 20
8.5507147736
 30
0.0
 10
13.6137521101
 20
8.5520120923
 30
0.0
 10
13.6116732439
 20
8.5548003103
 30
0.0
 10
13.6087477018
 20
8.5593549929
 30
0.0
 10
13.605905734
 20
8.5644269039
 30
0.0
 10
13.6031517575
 20
8.5700076904
 30
0.0
 10
13.6004900046
 20
8.5760887017
 30
0.0
 10
13.5979247333
 20
8.5826601767
 30
0.0
 10
13.5954600857
 20
8.5897115187
 30
0.0
 10
13.5931001895
 20
8.5972312696
 30
0.0
 10
13.5908488919
 20
8.6052071198
 30
0.0
 10
13.5887100049
 20
8.613625978
 30
0.0
 10
13.5866870861
 20
8.6224739729
 30
0.0
 10
13.5847835086
 20
8.6317364966
 30
0.0
 10
13.5830025131
 20
8.6413982345
 30
0.0
 10
13.5813470308
 20
8.6514431879
 30
0.0
 10
13.5798198863
 20
8.6618547116
 30
0.0
 10
13.5784236288
 20
8.6726155357
 30
0.0
 10
13.5771605645
 20
8.6837078237
 30
0.0
 10
13.5756390866
 20
8.6990969281
 30
0.0
 10
13.5740974535
 20
8.7190265225
 30
0.0
 10
13.572826742
 20
8.743683705
 30
0.0
 10
13.5721231646
 20
8.7691934821
 30
0.0
 10
13.5719916301
 20
8.795386471
 30
0.0
 10
13.5724332464
 20
8.8220888855
 30
0.0
 10
13.5734452276
 20
8.8491234474
 30
0.0
 10
13.5750209456
 20
8.8763106618
 30
0.0
 10
13.5771499734
 20
8.9034700013
 30
0.0
 10
13.5798181502
 20
8.9304211285
 30
0.0
 10
13.5830076738
 20
8.9569851062
 30
0.0
 10
13.5866972253
 20
8.9829856105
 30
0.0
 10
13.5908621109
 20
9.0082500927
 30
0.0
 10
13.5954743976
 20
9.0326110508
 30
0.0
 10
13.6005031714
 20
9.0559068371
 30
0.0
 10
13.6050728532
 20
9.0745504947
 30
0.0
 10
13.6089238719
 20
9.088808442
 30
0.0
 10
13.6118552046
 20
9.0989952366
 30
0.0
 10
13.6148641338
 20
9.1088050687
 30
0.0
 10
13.6179456924
 20
9.1182216937
 30
0.0
 10
13.6210947452
 20
9.1272295164
 30
0.0
 10
13.6243059957
 20
9.1358136514
 30
0.0
 10
13.6275741517
 20
9.1439599147
 30
0.0
 10
13.6308937192
 20
9.151654899
 30
0.0
 10
13.6342592085
 20
9.1588859585
 30
0.0
 10
13.6376650624
 20
9.1656412611
 30
0.0
 10
13.6411056307
 20
9.1719098316
 30
0.0
 10
13.6445753877
 20
9.1776814966
 30
0.0
 10
13.6480686354
 20
9.1829470357
 30
0.0
 10
13.6515801243
 20
9.1876982678
 30
0.0
 10
13.655104189
 20
9.1919272242
 30
0.0
 10
13.6575468154
 20
9.1944865462
 30
0.0
 10
13.6587706882
 20
9.1956687166
 30
0.0
  0
SPLINE
  5
3C9
100
AcDbEntity
  8
0
100
AcDbSpline
 62
7
  6
CONTINUOUS
 70
0
 71
3
 72
75
 73
71
 74
0
 42
0.0000001
 43
0.0000001
 44
0.0000000001
 40
0.0
 40
0.0
 40
0.0
 40
0.0
 40
0.0027164437
 40
0.0054532632
 40
0.008230346
 40
0.0110666464
 40
0.0139798699
 40
0.0169861878
 40
0.0201001566
 40
0.0233346913
 40
0.0267010494
 40
0.0302090131
 40
0.0338669439
 40
0.0376819113
 40
0.0416599047
 40
0.0458058449
 40
0.0501237789
 40
0.0546169956
 40
0.0592880173
 40
0.0641388057
 40
0.0691707576
 40
0.0743847423
 40
0.0853596893
 40
0.097063583
 40
0.1094903675
 40
0.1226296663
 40
0.1364673952
 40
0.1509862671
 40
0.1661662218
 40
0.1819847375
 40
0.1984170526
 40
0.215436398
 40
0.2330142101
 40
0.2511202863
 40
0.2697229007
 40
0.2887889595
 40
0.3082841412
 40
0.3281730045
 40
0.3689841669
 40
0.4109214093
 40
0.4536716467
 40
0.4969138932
 40
0.5403224233
 40
0.5835699246
 40
0.6263306237
 40
0.6682834289
 40
0.7091151097
 40
0.7290160232
 40
0.7485244135
 40
0.7676048055
 40
0.7862228369
 40
0.8043453687
 40
0.8219406362
 40
0.8389783858
 40
0.8554299942
 40
0.8712686284
 40
0.8864694685
 40
0.9010099156
 40
0.9148698199
 40
0.9280317975
 40
0.9404816662
 40
0.9522089108
 40
0.963207332
 40
0.973475875
 40
0.97833824
 40
0.9830207122
 40
0.9875253169
 40
0.991854608
 40
0.9960116191
 40
1.0
 40
1.0
 40
1.0
 40
1.0
 10
13.1070867158
 20
7.8650785002
 30
0.0
 10
13.1062001868
 20
7.8651399805
 30
0.0
 10
13.1044250164
 20
7.8653436218
 30
0.0
 10
13.1017848628
 20
7.8658886225
 30
0.0
 10
13.0991646717
 20
7.8666730478
 30
0.0
 10
13.0965662785
 20
7.8676960745
 30
0.0
 10
13.0939910764
 20
7.8689569069
 30
0.0
 10
13.0914403413
 20
7.8704544601
 30
0.0
 10
13.0889152564
 20
7.8721876982
 30
0.0
 10
13.0864169819
 20
7.8741555631
 30
0.0
 10
13.0839465354
 20
7.8763568337
 30
0.0
 10
13.0815050302
 20
7.8787903627
 30
0.0
 10
13.0790935276
 20
7.8814548686
 30
0.0
 10
13.0767130543
 20
7.88434897
 30
0.0
 10
13.0743647546
 20
7.8874712729
 30
0.0
 10
13.0720496647
 20
7.8908201983
 30
0.0
 10
13.0697688711
 20
7.8943941015
 30
0.0
 10
13.0675235091
 20
7.8981912478
 30
0.0
 10
13.0653145967
 20
7.9022097346
 30
0.0
 10
13.0631432574
 20
7.9064475965
 30
0.0
 10
13.0610105307
 20
7.9109027448
 30
0.0
 10
13.0581711529
 20
7.9172384108
 30
0.0
 10
13.0547375468
 20
7.9256961506
 30
0.0
 10
13.0508550412
 20
7.9365072784
 30
0.0
 10
13.0471506479
 20
7.9481259349
 30
0.0
 10
13.0436318239
 20
7.960528994
 30
0.0
 10
13.0403056744
 20
7.9736919465
 30
0.0
 10
13.0371789323
 20
7.9875885721
 30
0.0
 10
13.0342579522
 20
8.0021911471
 30
0.0
 10
13.0315486882
 20
8.0174704772
 30
0.0
 10
13.0290566495
 20
8.0333959624
 30
0.0
 10
13.0267868994
 20
8.049935669
 30
0.0
 10
13.0247440598
 20
8.0670564143
 30
0.0
 10
13.022932302
 20
8.084723831
 30
0.0
 10
13.0213553054
 20
8.1029024345
 30
0.0
 10
13.0200162831
 20
8.1215556884
 30
0.0
 10
13.0189179303
 20
8.1406461397
 30
0.0
 10
13.0177676599
 20
8.1668566671
 30
0.0
 10
13.0169594476
 20
8.2004277044
 30
0.0
 10
13.0169786813
 20
8.2414871522
 30
0.0
 10
13.0179794924
 20
8.2833299011
 30
0.0
 10
13.019954051
 20
8.3256196904
 30
0.0
 10
13.0228866568
 20
8.3680169005
 30
0.0
 10
13.0267537617
 20
8.4101809363
 30
0.0
 10
13.0315241375
 20
8.4517732099
 30
0.0
 10
13.0371592588
 20
8.492459501
 30
0.0
 10
13.0425828659
 20
8.5256153388
 30
0.0
 10
13.0473317918
 20
8.5514329395
 30
0.0
 10
13.0510489621
 20
8.5702033901
 30
0.0
 10
13.0549443948
 20
8.5885088059
 30
0.0
 10
13.0590102634
 20
8.6063124306
 30
0.0
 10
13.0632383565
 20
8.6235784866
 30
0.0
 10
13.0676201354
 20
8.6402723032
 30
0.0
 10
13.0721467367
 20
8.6563603797
 30
0.0
 10
13.0768090125
 20
8.6718104451
 30
0.0
 10
13.0815975522
 20
8.6865915268
 30
0.0
 10
13.0865026754
 20
8.7006740363
 30
0.0
 10
13.0915144658
 20
8.7140298349
 30
0.0
 10
13.0966228085
 20
8.7266322806
 30
0.0
 10
13.1018174295
 20
8.7384563092
 30
0.0
 10
13.1070878857
 20
8.7494784809
 30
0.0
 10
13.1124236685
 20
8.7596771916
 30
0.0
 10
13.1178141496
 20
8.7690322295
 30
0.0
 10
13.1224233346
 20
8.7762358086
 30
0.0
 10
13.1261377776
 20
8.781548614
 30
0.0
 10
13.1288798479
 20
8.7852380673
 30
0.0
 10
13.1316275687
 20
8.7887034233
 30
0.0
 10
13.1343797231
 20
8.791942942
 30
0.0
 10
13.1371347514
 20
8.7949548678
 30
0.0
 10
13.1390106456
 20
8.7968486611
 30
0.0
 10
13.1399491004
 20
8.7977551388
 30
0.0
  0
SPLINE
  5
3CA
100
AcDbEntity
  8
0
100
AcDbSpline
 62
7
  6
CONTINUOUS
 70
0
 71
3
 72
56
 73
52
 74
0
 42
0.0000001
 43
0.0000001
 44
0.0000000001
 40
0.0
 40
0.0
 40
0.0
 40
0.0
 40
0.0075208709
 40
0.0156242481
 40
0.0243312328
 40
0.0336550918
 40
0.0436030183
 40
0.0541770957
 40
0.0653752284
 40
0.0771919178
 40
0.0896185534
 40
0.1026440779
 40
0.1162551023
 40
0.1304362406
 40
0.145170387
 40
0.1604387033
 40
0.1762209978
 40
0.1924956609
 40
0.2092398689
 40
0.2264297175
 40
0.2620445529
 40
0.2991302956
 40
0.3374633814
 40
0.3768097621
 40
0.4169270789
 40
0.4575667636
 40
0.4984760848
 40
0.539400172
 40
0.5800840351
 40
0.6202745905
 40
0.6597226868
 40
0.6981851471
 40
0.7354268498
 40
0.7712228914
 40
0.805360869
 40
0.821746257
 40
0.8376444166
 40
0.8530335157
 40
0.8678929718
 40
0.8822036399
 40
0.8959480235
 40
0.9091102561
 40
0.921676549
 40
0.9336352115
 40
0.9449770572
 40
0.9556958674
 40
0.9657886469
 40
0.9752564073
 40
0.9841051269
 40
0.992347004
 40
1.0
 40
1.0
 40
1.0
 40
1.0
 10
13.065075997
 20
8.0197151623
 30
0.0
 10
13.0640208933
 20
8.0210124809
 30
0.0
 10
13.061942027
 20
8.0238006989
 30
0.0
 10
13.0590164849
 20
8.0283553816
 30
0.0
 10
13.0561745171
 20
8.0334272925
 30
0.0
 10
13.0534205406
 20
8.0390080791
 30
0.0
 10
13.0507587877
 20
8.0450890903
 30
0.0
 10
13.0481935165
 20
8.0516605654
 30
0.0
 10
13.0457288688
 20
8.0587119074
 30
0.0
 10
13.0433689727
 20
8.0662316583
 30
0.0
 10
13.0411176751
 20
8.0742075084
 30
0.0
 10
13.0389787881
 20
8.0826263667
 30
0.0
 10
13.0369558693
 20
8.0914743615
 30
0.0
 10
13.0350522918
 20
8.1007368852
 30
0.0
 10
13.0332712962
 20
8.1103986231
 30
0.0
 10
13.0316158139
 20
8.1204435765
 30
0.0
 10
13.0300886694
 20
8.1308551003
 30
0.0
 10
13.028692412
 20
8.1416159244
 30
0.0
 10
13.0274293476
 20
8.1527082123
 30
0.0
 10
13.0259078697
 20
8.1680973168
 30
0.0
 10
13.0243662366
 20
8.1880269112
 30
0.0
 10
13.0230955251
 20
8.2126840937
 30
0.0
 10
13.0223919478
 20
8.2381938707
 30
0.0
 10
13.0222604132
 20
8.2643868597
 30
0.0
 10
13.0227020296
 20
8.2910892741
 30
0.0
 10
13.0237140108
 20
8.3181238361
 30
0.0
 10
13.0252897287
 20
8.3453110504
 30
0.0
 10
13.0274187565
 20
8.37247039
 30
0.0
 10
13.0300869333
 20
8.3994215171
 30
0.0
 10
13.0332764569
 20
8.4259854948
 30
0.0
 10
13.0369660084
 20
8.4519859991
 30
0.0
 10
13.041130894
 20
8.4772504813
 30
0.0
 10
13.0457431807
 20
8.5016114394
 30
0.0
 10
13.0507719545
 20
8.5249072257
 30
0.0
 10
13.0553416363
 20
8.5435508833
 30
0.0
 10
13.0591926551
 20
8.5578088306
 30
0.0
 10
13.0621239877
 20
8.5679956253
 30
0.0
 10
13.0651329169
 20
8.5778054573
 30
0.0
 10
13.0682144755
 20
8.5872220824
 30
0.0
 10
13.0713635284
 20
8.596229905
 30
0.0
 10
13.0745747789
 20
8.60481404
 30
0.0
 10
13.0778429348
 20
8.6129603033
 30
0.0
 10
13.0811625023
 20
8.6206552877
 30
0.0
 10
13.0845279917
 20
8.6278863471
 30
0.0
 10
13.0879338455
 20
8.6346416497
 30
0.0
 10
13.0913744138
 20
8.6409102202
 30
0.0
 10
13.0948441708
 20
8.6466818852
 30
0.0
 10
13.0983374186
 20
8.6519474244
 30
0.0
 10
13.1018489074
 20
8.6566986565
 30
0.0
 10
13.1053729721
 20
8.6609276128
 30
0.0
 10
13.1078155986
 20
8.6634869348
 30
0.0
 10
13.1090394714
 20
8.6646691052
 30
0.0
  0
SPLINE
  5
3CB
100
AcDbEntity
  8
0
100
AcDbSpline
 62
7
  6
CONTINUOUS
 70
0
 71
3
 72
15
 73
11
 74
0
 42
0.0000001
 43
0.0000001
 44
0.0000000001
 40
0.0
 40
0.0
 40
0.0
 40
0.0
 40
0.0836370061
 40
0.1755291364
 40
0.2775893666
 40
0.3919536032
 40
0.5207813835
 40
0.6656820662
 40
0.8265288182
 40
1.0
 40
1.0
 40
1.0
 40
1.0
 10
10.7458685053
 20
7.5924999361
 30
0.0
 10
10.7447549606
 20
7.5929647795
 30
0.0
 10
10.7424748684
 20
7.5940816048
 30
0.0
 10
10.7390926627
 20
7.5962409595
 30
0.0
 10
10.7356219243
 20
7.5990373297
 30
0.0
 10
10.7320931931
 20
7.6025660466
 30
0.0
 10
10.7285621064
 20
7.6069242276
 30
0.0
 10
10.7251247929
 20
7.6121806128
 30
0.0
 10
10.7219252195
 20
7.6183214784
 30
0.0
 10
10.7201088795
 20
7.622798636
 30
0.0
 10
10.7192708889
 20
7.6251569329
 30
0.0
  0
SPLINE
  5
3CC
100
AcDbEntity
  8
0
100
AcDbSpline
 62
7
  6
CONTINUOUS
 70
0
 71
3
 72
39
 73
35
 74
0
 42
0.0000001
 43
0.0000001
 44
0.0000000001
 40
0.0
 40
0.0
 40
0.0
 40
0.0
 40
0.0299424712
 40
0.0599093185
 40
0.0899243247
 40
0.120010104
 40
0.1501875625
 40
0.1804754137
 40
0.2108897572
 40
0.2414437336
 40
0.272147258
 40
0.3030068403
 40
0.3340254914
 40
0.3652027096
 40
0.3965345442
 40
0.4280137297
 40
0.4596298866
 40
0.4913697802
 40
0.5232176274
 40
0.5551554443
 40
0.5871634289
 40
0.6192203717
 40
0.6513040877
 40
0.6833918591
 40
0.7154608877
 40
0.7474887471
 40
0.7794538319
 40
0.8113357927
 40
0.8431159543
 40
0.8747777099
 40
0.9063068688
 40
0.9376920891
 40
0.9689246464
 40
1.0
 40
1.0
 40
1.0
 40
1.0
 10
8.2361532122
 20
7.5931118565
 30
0.0
 10
8.2434526652
 20
7.6001625917
 30
0.0
 10
8.2586255355
 20
7.6136950477
 30
0.0
 10
8.2829348395
 20
7.6321306298
 30
0.0
 10
8.3086698946
 20
7.6486108368
 30
0.0
 10
8.3356869068
 20
7.6630432109
 30
0.0
 10
8.3638373264
 20
7.6753489247
 30
0.0
 10
8.3929657943
 20
7.6854603378
 30
0.0
 10
8.4229117982
 20
7.6933221241
 30
0.0
 10
8.4535103619
 20
7.6988913408
 30
0.0
 10
8.4845930124
 20
7.702137736
 30
0.0
 10
8.5159887047
 20
7.7030438773
 30
0.0
 10
8.5475247718
 20
7.7016051902
 30
0.0
 10
8.5790278636
 20
7.6978299717
 30
0.0
 10
8.6103248867
 20
7.6917393167
 30
0.0
 10
8.6412439496
 20
7.6833670324
 30
0.0
 10
8.6716152998
 20
7.672759427
 30
0.0
 10
8.7012722336
 20
7.6599750184
 30
0.0
 10
8.7300519981
 20
7.6450842189
 30
0.0
 10
8.7577966641
 20
7.628168939
 30
0.0
 10
8.784354005
 20
7.6093221817
 30
0.0
 10
8.8095783151
 20
7.5886475085
 30
0.0
 10
8.8333311845
 20
7.5662584589
 30
0.0
 10
8.8554822532
 20
7.5422779393
 30
0.0
 10
8.8759099095
 20
7.5168375521
 30
0.0
 10
8.8945019919
 20
7.4900769135
 30
0.0
 10
8.9111563755
 20
7.4621428696
 30
0.0
 10
8.9257815153
 20
7.4331886893
 30
0.0
 10
8.9382969501
 20
7.4033732582
 30
0.0
 10
8.9486337268
 20
7.3728601491
 30
0.0
 10
8.9567348744
 20
7.3418169994
 30
0.0
 10
8.9625555417
 20
7.310413696
 30
0.0
 10
8.9660635693
 20
7.2788249019
 30
0.0
 10
8.9668492784
 20
7.257698282
 30
0.0
 10
8.9668492784
 20
7.2471656658
 30
0.0
  0
SPLINE
  5
3CD
100
AcDbEntity
  8
0
100
AcDbSpline
 62
7
  6
CONTINUOUS
 70
0
 71
3
 72
24
 73
20
 74
0
 42
0.0000001
 43
0.0000001
 44
0.0000000001
 40
0.0
 40
0.0
 40
0.0
 40
0.0
 40
0.0755929441
 40
0.1466353292
 40
0.2134607542
 40
0.2454342717
 40
0.2765268668
 40
0.3363370143
 40
0.3935561274
 40
0.4489310748
 40
0.5032948935
 40
0.557531619
 40
0.612531838
 40
0.6691469901
 40
0.7281515817
 40
0.7902214221
 40
0.8559247918
 40
0.9257271707
 40
1.0
 40
1.0
 40
1.0
 40
1.0
 10
13.6587706882
 20
8.5484983746
 30
0.0
 10
13.6578396458
 20
8.5475990566
 30
0.0
 10
13.6559787176
 20
8.5459098223
 30
0.0
 10
13.6530989347
 20
8.5436531683
 30
0.0
 10
13.650666884
 20
8.5420507367
 30
0.0
 10
13.6487272615
 20
8.5409604047
 30
0.0
 10
13.6468440914
 20
8.5400202371
 30
0.0
 10
13.6444895558
 20
8.5390626624
 30
0.0
 10
13.6416389293
 20
8.5382685072
 30
0.0
 10
13.6388032659
 20
8.537847054
 30
0.0
 10
13.6359874745
 20
8.5378002236
 30
0.0
 10
13.633196923
 20
8.5381288411
 30
0.0
 10
13.6304370129
 20
8.5388317731
 30
0.0
 10
13.6277124592
 20
8.5399067906
 30
0.0
 10
13.6250268352
 20
8.5413506406
 30
0.0
 10
13.6223829067
 20
8.5431601137
 30
0.0
 10
13.6197827555
 20
8.5453319922
 30
0.0
 10
13.6172285311
 20
8.5478631276
 30
0.0
 10
13.6156097053
 20
8.5497280581
 30
0.0
 10
13.6148072138
 20
8.5507147736
 30
0.0
  0
SPLINE
  5
3CE
100
AcDbEntity
  8
0
100
AcDbSpline
 62
7
  6
CONTINUOUS
 70
0
 71
3
 72
16
 73
12
 74
0
 42
0.0000001
 43
0.0000001
 44
0.0000000001
 40
0.0
 40
0.0
 40
0.0
 40
0.0
 40
0.1504799604
 40
0.291747358
 40
0.4244949035
 40
0.4879697429
 40
0.5496758902
 40
0.6683415374
 40
0.7818817037
 40
0.8918563365
 40
1.0
 40
1.0
 40
1.0
 40
1.0
 10
13.6249632823
 20
8.5846503321
 30
0.0
 10
13.6241151928
 20
8.5838311405
 30
0.0
 10
13.6224200899
 20
8.5822940664
 30
0.0
 10
13.6197954267
 20
8.5802456478
 30
0.0
 10
13.6175783938
 20
8.5787968888
 30
0.0
 10
13.6158105188
 20
8.5778158497
 30
0.0
 10
13.6140947285
 20
8.5769735877
 30
0.0
 10
13.6119492123
 20
8.5761225927
 30
0.0
 10
13.6093516243
 20
8.5754314535
 30
0.0
 10
13.6067686942
 20
8.575086368
 30
0.0
 10
13.605053419
 20
8.5750883072
 30
0.0
 10
13.6042080626
 20
8.5751469262
 30
0.0
  0
SPLINE
  5
3CF
100
AcDbEntity
  8
0
100
AcDbSpline
 62
7
  6
CONTINUOUS
 70
0
 71
3
 72
79
 73
75
 74
0
 42
0.0000001
 43
0.0000001
 44
0.0000000001
 40
0.0
 40
0.0
 40
0.0
 40
0.0
 40
0.0042066491
 40
0.0086074952
 40
0.0132069662
 40
0.0180086344
 40
0.0230154191
 40
0.0282295671
 40
0.0392840507
 40
0.0511770846
 40
0.0639045318
 40
0.0774558505
 40
0.0918150861
 40
0.1069616631
 40
0.122871087
 40
0.1395154568
 40
0.1568637949
 40
0.1748823661
 40
0.1935350251
 40
0.212783433
 40
0.232587209
 40
0.2529041862
 40
0.273690607
 40
0.2949012487
 40
0.3164895852
 40
0.3606069164
 40
0.4056517927
 40
0.4512216289
 40
0.4969078233
 40
0.5423004522
 40
0.586992952
 40
0.6305867741
 40
0.6518510546
 40
0.6726973092
 40
0.693080136
 40
0.7129555709
 40
0.7322812162
 40
0.7510164403
 40
0.7691226246
 40
0.78656331
 40
0.8033044149
 40
0.8193145814
 40
0.8345654746
 40
0.8490321048
 40
0.8626933353
 40
0.8755325652
 40
0.8875384362
 40
0.8987058766
 40
0.9039762389
 40
0.9090387931
 40
0.9138954741
 40
0.9185489005
 40
0.923002662
 40
0.927261346
 40
0.9313306304
 40
0.9352176128
 40
0.942477218
 40
0.9458756126
 40
0.9491369094
 40
0.9522775544
 40
0.9553162942
 40
0.9582740176
 40
0.9611735955
 40
0.9640394308
 40
0.9668968616
 40
0.9697714813
 40
0.972688386
 40
0.9756715239
 40
0.9787430858
 40
0.9852252035
 40
0.9886741696
 40
0.9922790721
 40
0.9960512884
 40
1.0
 40
1.0
 40
1.0
 40
1.0
 10
13.6587706882
 20
8.5484983746
 30
0.0
 10
13.6594940973
 20
8.5491971342
 30
0.0
 10
13.660939974
 20
8.5506628
 30
0.0
 10
13.6630593339
 20
8.5530047007
 30
0.0
 10
13.665176074
 20
8.5555373499
 30
0.0
 10
13.6672887468
 20
8.5582591254
 30
0.0
 10
13.6693962456
 20
8.5611683873
 30
0.0
 10
13.672253519
 20
8.5653776702
 30
0.0
 10
13.6757941483
 20
8.5711088733
 30
0.0
 10
13.6799235885
 20
8.5785753178
 30
0.0
 10
13.6840031437
 20
8.5867420151
 30
0.0
 10
13.6880231246
 20
8.5955897289
 30
0.0
 10
13.6919739452
 20
8.6050978176
 30
0.0
 10
13.6958461575
 20
8.6152438219
 30
0.0
 10
13.6996304656
 20
8.6260037172
 30
0.0
 10
13.7033177509
 20
8.6373519558
 30
0.0
 10
13.7068991358
 20
8.6492615293
 30
0.0
 10
13.7103660156
 20
8.6617040403
 30
0.0
 10
13.7137100412
 20
8.6746498013
 30
0.0
 10
13.7169231484
 20
8.6880679043
 30
0.0
 10
13.7199976215
 20
8.7019262816
 30
0.0
 10
13.7229260742
 20
8.7161918028
 30
0.0
 10
13.7257014468
 20
8.7308303541
 30
0.0
 10
13.728317095
 20
8.745806948
 30
0.0
 10
13.731606857
 20
8.7663264557
 30
0.0
 10
13.7352667445
 20
8.7925552578
 30
0.0
 10
13.7389028593
 20
8.8245660266
 30
0.0
 10
13.7417790749
 20
8.8570306203
 30
0.0
 10
13.7438678435
 20
8.8896386136
 30
0.0
 10
13.745149208
 20
8.9220784916
 30
0.0
 10
13.7456111026
 20
8.9540400602
 30
0.0
 10
13.7453075088
 20
8.9802344518
 30
0.0
 10
13.7446413523
 20
9.0007154306
 30
0.0
 10
13.7439406955
 20
9.0156412127
 30
0.0
 10
13.7430366961
 20
9.0302233883
 30
0.0
 10
13.7419315321
 20
9.0444271132
 30
0.0
 10
13.7406278888
 20
9.058218415
 30
0.0
 10
13.7391289171
 20
9.0715643301
 30
0.0
 10
13.7374382752
 20
9.0844329807
 30
0.0
 10
13.7355600707
 20
9.0967936481
 30
0.0
 10
13.7334988446
 20
9.1086168455
 30
0.0
 10
13.731259606
 20
9.1198744149
 30
0.0
 10
13.7288478015
 20
9.1305395996
 30
0.0
 10
13.7262692663
 20
9.1405871152
 30
0.0
 10
13.7235302115
 20
9.1499932017
 30
0.0
 10
13.7206372338
 20
9.1587358556
 30
0.0
 10
13.7175972449
 20
9.1667944597
 30
0.0
 10
13.7148976319
 20
9.1730399704
 30
0.0
 10
13.7126610934
 20
9.177669211
 30
0.0
 10
13.7109838669
 20
9.1808911009
 30
0.0
 10
13.7092754177
 20
9.1839284517
 30
0.0
 10
13.7075366354
 20
9.1867794557
 30
0.0
 10
13.7057685283
 20
9.1894424812
 30
0.0
 10
13.7039721571
 20
9.1919159262
 30
0.0
 10
13.7021482516
 20
9.1941985398
 30
0.0
 10
13.6997363271
 20
9.1969232122
 30
0.0
 10
13.6972212591
 20
9.1993397703
 30
0.0
 10
13.6945989706
 20
9.2013927473
 30
0.0
 10
13.6926527481
 20
9.2027016838
 30
0.0
 10
13.690685006
 20
9.2038125351
 30
0.0
 10
13.6886968002
 20
9.2047244108
 30
0.0
 10
13.6866893338
 20
9.2054362658
 30
0.0
 10
13.684664015
 20
9.2059472698
 30
0.0
 10
13.6826224252
 20
9.2062568517
 30
0.0
 10
13.6805662506
 20
9.2063645136
 30
0.0
 10
13.6784972527
 20
9.2062702548
 30
0.0
 10
13.6764171604
 20
9.2059743626
 30
0.0
 10
13.6743274763
 20
9.2054771731
 30
0.0
 10
13.6714801775
 20
9.2045303905
 30
0.0
 10
13.6686627044
 20
9.2031825792
 30
0.0
 10
13.6659011412
 20
9.2014925235
 30
0.0
 10
13.6637830206
 20
9.2000014666
 30
0.0
 10
13.6616630104
 20
9.1983146437
 30
0.0
 10
13.6602813059
 20
9.1970890072
 30
0.0
 10
13.6595901825
 20
9.196445825
 30
0.0
  0
SPLINE
  5
3D0
100
AcDbEntity
  8
0
100
AcDbSpline
 62
7
  6
CONTINUOUS
 70
0
 71
3
 72
62
 73
58
 74
0
 42
0.0000001
 43
0.0000001
 44
0.0000000001
 40
0.0
 40
0.0
 40
0.0
 40
0.0
 40
0.0081438113
 40
0.0169768278
 40
0.0265208647
 40
0.0367896131
 40
0.0477882909
 40
0.0595157946
 40
0.0719659647
 40
0.0851282307
 40
0.0989884474
 40
0.113529232
 40
0.1287304073
 40
0.1445694158
 40
0.1610213924
 40
0.1780595147
 40
0.1956552032
 40
0.2137781425
 40
0.2323965838
 40
0.2514774225
 40
0.2908867049
 40
0.3317193113
 40
0.3736730778
 40
0.4164347485
 40
0.4596832327
 40
0.5030927524
 40
0.5463359834
 40
0.5890872005
 40
0.6310254005
 40
0.6718374884
 40
0.7112215247
 40
0.73028802
 40
0.7488910687
 40
0.7669975438
 40
0.7845757688
 40
0.8015955177
 40
0.8180281877
 40
0.8338470755
 40
0.8490273916
 40
0.8635465841
 40
0.877384641
 40
0.8905242378
 40
0.9029513084
 40
0.9146554932
 40
0.9256306718
 40
0.935876034
 40
0.9453970803
 40
0.9542071386
 40
0.9623296288
 40
0.9698006213
 40
0.9766724028
 40
0.9830176416
 40
0.9889331004
 40
0.9917694712
 40
0.9945466127
 40
0.9972834967
 40
1.0
 40
1.0
 40
1.0
 40
1.0
 10
13.6249632823
 20
8.5846503321
 30
0.0
 10
13.6261734961
 20
8.5858193089
 30
0.0
 10
13.6285876537
 20
8.5883700648
 30
0.0
 10
13.6320566568
 20
8.592616456
 30
0.0
 10
13.6355107406
 20
8.5974266553
 30
0.0
 10
13.6389432025
 20
8.6027910423
 30
0.0
 10
13.6423477765
 20
8.6086995816
 30
0.0
 10
13.6457177357
 20
8.6151408403
 30
0.0
 10
13.6490464312
 20
8.6221022282
 30
0.0
 10
13.6523272549
 20
8.629570027
 30
0.0
 10
13.6555535759
 20
8.6375294646
 30
0.0
 10
13.6587189104
 20
8.6459647048
 30
0.0
 10
13.6618168923
 20
8.6548589186
 30
0.0
 10
13.6648412233
 20
8.6641943395
 30
0.0
 10
13.6677858202
 20
8.6739522715
 30
0.0
 10
13.6706447359
 20
8.6841131571
 30
0.0
 10
13.6734121627
 20
8.6946566227
 30
0.0
 10
13.6760825353
 20
8.7055614954
 30
0.0
 10
13.6786504795
 20
8.716805894
 30
0.0
 10
13.6819664767
 20
8.7323888858
 30
0.0
 10
13.6858069171
 20
8.7525502643
 30
0.0
 10
13.6898832031
 20
8.7774685007
 30
0.0
 10
13.693442189
 20
8.8031652221
 30
0.0
 10
13.6964550713
 20
8.8294339889
 30
0.0
 10
13.6988974554
 20
8.8560639108
 30
0.0
 10
13.7007496242
 20
8.8828410872
 30
0.0
 10
13.7019967151
 20
8.9095504344
 30
0.0
 10
13.7026288002
 20
8.9359773994
 30
0.0
 10
13.7026409969
 20
8.9619097939
 30
0.0
 10
13.7020334238
 20
8.9871392587
 30
0.0
 10
13.7010044817
 20
9.0076249139
 30
0.0
 10
13.6998646418
 20
9.0235046001
 30
0.0
 10
13.6988686356
 20
9.0349858341
 30
0.0
 10
13.6977243608
 20
9.0461441987
 30
0.0
 10
13.6964341523
 20
9.0569573039
 30
0.0
 10
13.6950006352
 20
9.0674034358
 30
0.0
 10
13.6934267022
 20
9.077461635
 30
0.0
 10
13.6917155955
 20
9.0871117397
 30
0.0
 10
13.6898707734
 20
9.0963344223
 30
0.0
 10
13.687895979
 20
9.1051112394
 30
0.0
 10
13.6857952627
 20
9.1134246821
 30
0.0
 10
13.6835728444
 20
9.1212582022
 30
0.0
 10
13.6812332247
 20
9.1285962772
 30
0.0
 10
13.6787811301
 20
9.1354244569
 30
0.0
 10
13.676221375
 20
9.1417293809
 30
0.0
 10
13.6735589807
 20
9.147498874
 30
0.0
 10
13.6707989817
 20
9.1527219635
 30
0.0
 10
13.6679462638
 20
9.1573888527
 30
0.0
 10
13.6650055295
 20
9.161490984
 30
0.0
 10
13.6619810069
 20
9.1650207409
 30
0.0
 10
13.6588758557
 20
9.1679710808
 30
0.0
 10
13.6556938033
 20
9.1703345551
 30
0.0
 10
13.652940598
 20
9.1718287024
 30
0.0
 10
13.6507219337
 20
9.1727021531
 30
0.0
 10
13.6490670233
 20
9.1731975843
 30
0.0
 10
13.6473995757
 20
9.1735418015
 30
0.0
 10
13.6462784148
 20
9.1736704424
 30
0.0
 10
13.645718502
 20
9.1737092681
 30
0.0
  0
SPLINE
  5
3D1
100
AcDbEntity
  8
0
100
AcDbSpline
 62
7
  6
CONTINUOUS
 70
0
 71
3
 72
17
 73
13
 74
0
 42
0.0000001
 43
0.0000001
 44
0.0000000001
 40
0.0
 40
0.0
 40
0.0
 40
0.0
 40
0.1266551999
 40
0.2527984266
 40
0.3784389846
 40
0.4410836491
 40
0.5036099077
 40
0.6283069613
 40
0.7525758922
 40
0.8145686273
 40
0.8764689156
 40
1.0
 40
1.0
 40
1.0
 40
1.0
 10
10.4717617298
 20
7.0819462795
 30
0.0
 10
10.4717617298
 20
7.073140499
 30
0.0
 10
10.4712467577
 20
7.0555599663
 30
0.0
 10
10.4689211152
 20
7.0293373295
 30
0.0
 10
10.465692982
 20
7.007701585
 30
0.0
 10
10.4623436556
 20
6.9905861391
 30
0.0
 10
10.4584941072
 20
6.9736434259
 30
0.0
 10
10.4527386894
 20
6.9527508238
 30
0.0
 10
10.4457317346
 20
6.9322830606
 30
0.0
 10
10.4393962934
 20
6.9162320232
 30
0.0
 10
10.4325901682
 20
6.9004313214
 30
0.0
 10
10.4269424435
 20
6.8888299018
 30
0.0
 10
10.4229449345
 20
6.8812283537
 30
0.0
  0
SPLINE
  5
3D2
100
AcDbEntity
  8
0
100
AcDbSpline
 62
7
  6
CONTINUOUS
 70
0
 71
3
 72
66
 73
62
 74
0
 42
0.0000001
 43
0.0000001
 44
0.0000000001
 40
0.0
 40
0.0
 40
0.0
 40
0.0
 40
0.0078885795
 40
0.0164142095
 40
0.0255971025
 40
0.0354501819
 40
0.0459790078
 40
0.0571836503
 40
0.0690597311
 40
0.0815989985
 40
0.0947899234
 40
0.1086182033
 40
0.1230670639
 40
0.1381174903
 40
0.15374853
 40
0.1699374739
 40
0.1866599537
 40
0.2038901412
 40
0.2216008902
 40
0.2397637946
 40
0.2583493161
 40
0.2773269177
 40
0.3163308183
 40
0.3565148439
 40
0.3976067568
 40
0.4393262232
 40
0.481387362
 40
0.5235013154
 40
0.5653787628
 40
0.6067324506
 40
0.6472797121
 40
0.6867450671
 40
0.7059889223
 40
0.7248635952
 40
0.7433378342
 40
0.7613813478
 40
0.7789649252
 40
0.7960604851
 40
0.8126411922
 40
0.8286816323
 40
0.8441578834
 40
0.8590476497
 40
0.8733305024
 40
0.8869880395
 40
0.9000040836
 40
0.91236504
 40
0.9240602651
 40
0.935082466
 40
0.9454283444
 40
0.955099439
 40
0.959684426
 40
0.9641040602
 40
0.968360376
 40
0.9724560404
 40
0.9763943117
 40
0.9801791449
 40
0.9838153567
 40
0.9873086145
 40
0.9906655905
 40
0.9938941122
 40
1.0
 40
1.0
 40
1.0
 40
1.0
 10
13.1090394714
 20
7.8822691396
 30
0.0
 10
13.110865105
 20
7.8840325663
 30
0.0
 10
13.1145078125
 20
7.8878652529
 30
0.0
 10
13.1197526537
 20
7.8942223184
 30
0.0
 10
13.1249769238
 20
7.9013942672
 30
0.0
 10
13.1301713902
 20
7.9093680167
 30
0.0
 10
13.1353273051
 20
7.9181299602
 30
0.0
 10
13.1404354831
 20
7.9276645684
 30
0.0
 10
13.1454867388
 20
7.9379548845
 30
0.0
 10
13.1504718876
 20
7.9489824501
 30
0.0
 10
13.155381845
 20
7.960727356
 30
0.0
 10
13.160207597
 20
7.9731683347
 30
0.0
 10
13.1649402619
 20
7.9862827916
 30
0.0
 10
13.1695711598
 20
8.000046838
 30
0.0
 10
13.1740917661
 20
8.0144353762
 30
0.0
 10
13.1784937387
 20
8.0294221458
 30
0.0
 10
13.1827689932
 20
8.0449797553
 30
0.0
 10
13.1869096664
 20
8.0610797538
 30
0.0
 10
13.1909081226
 20
8.0776926965
 30
0.0
 10
13.1947570015
 20
8.0947881716
 30
0.0
 10
13.1984492744
 20
8.1123349008
 30
0.0
 10
13.2031975605
 20
8.1365098274
 30
0.0
 10
13.2086792766
 20
8.1676199472
 30
0.0
 10
13.2144753521
 20
8.2058881739
 30
0.0
 10
13.2195049712
 20
8.2451456588
 30
0.0
 10
13.2237310538
 20
8.2851049636
 30
0.0
 10
13.2271225076
 20
8.3254736985
 30
0.0
 10
13.2296544115
 20
8.3659563655
 30
0.0
 10
13.2313082693
 20
8.4062566214
 30
0.0
 10
13.2320721526
 20
8.4460795353
 30
0.0
 10
13.2319406201
 20
8.4851334813
 30
0.0
 10
13.2310791491
 20
8.5170621293
 30
0.0
 10
13.2299315278
 20
8.5419997216
 30
0.0
 10
13.2288568194
 20
8.5601778319
 30
0.0
 10
13.2275629876
 20
8.5779544511
 30
0.0
 10
13.2260523946
 20
8.5952970534
 30
0.0
 10
13.2243278669
 20
8.6121738835
 30
0.0
 10
13.2223925929
 20
8.6285540523
 30
0.0
 10
13.2202501399
 20
8.6444075866
 30
0.0
 10
13.2179044982
 20
8.6597055004
 30
0.0
 10
13.2153600172
 20
8.6744198385
 30
0.0
 10
13.2126213865
 20
8.6885237286
 30
0.0
 10
13.2096936913
 20
8.7019914538
 30
0.0
 10
13.2065823625
 20
8.7147985002
 30
0.0
 10
13.2032931277
 20
8.7269215928
 30
0.0
 10
13.1998320463
 20
8.738338784
 30
0.0
 10
13.1962054957
 20
8.7490294737
 30
0.0
 10
13.1924200535
 20
8.7589745778
 30
0.0
 10
13.1884825504
 20
8.7681561297
 30
0.0
 10
13.1850214374
 20
8.7752795429
 30
0.0
 10
13.1821732995
 20
8.7805716149
 30
0.0
 10
13.1800417275
 20
8.7842686469
 30
0.0
 10
13.1778775433
 20
8.7877628475
 30
0.0
 10
13.175681715
 20
8.7910526829
 30
0.0
 10
13.1734551918
 20
8.7941366735
 30
0.0
 10
13.1711988878
 20
8.7970133935
 30
0.0
 10
13.1689137829
 20
8.799681603
 30
0.0
 10
13.1666008931
 20
8.8021400006
 30
0.0
 10
13.1642607963
 20
8.8043876499
 30
0.0
 10
13.1611645396
 20
8.8070517585
 30
0.0
 10
13.1587173885
 20
8.8088113387
 30
0.0
 10
13.1570454498
 20
8.8098430345
 30
0.0
  0
SPLINE
  5
3D3
100
AcDbEntity
  8
0
100
AcDbSpline
 62
7
  6
CONTINUOUS
 70
0
 71
3
 72
10
 73
6
 74
0
 42
0.0000001
 43
0.0000001
 44
0.0000000001
 40
0.0
 40
0.0
 40
0.0
 40
0.0
 40
0.2746555127
 40
0.5319783572
 40
1.0
 40
1.0
 40
1.0
 40
1.0
 10
13.1090394714
 20
7.8822691396
 30
0.0
 10
13.1076560511
 20
7.8809328581
 30
0.0
 10
13.1048903365
 20
7.8784298912
 30
0.0
 10
13.099353107
 20
7.8741393367
 30
0.0
 10
13.0949400425
 20
7.8715374886
 30
0.0
 10
13.0919420434
 20
7.8702129792
 30
0.0
  0
SPLINE
  5
3D4
100
AcDbEntity
  8
0
100
AcDbSpline
 62
7
  6
CONTINUOUS
 70
0
 71
3
 72
24
 73
20
 74
0
 42
0.0000001
 43
0.0000001
 44
0.0000000001
 40
0.0
 40
0.0
 40
0.0
 40
0.0
 40
0.0755929441
 40
0.1466353292
 40
0.2134607542
 40
0.2454342717
 40
0.2765268668
 40
0.3363370143
 40
0.3935561274
 40
0.4489310748
 40
0.5032948935
 40
0.557531619
 40
0.612531838
 40
0.6691469901
 40
0.7281515817
 40
0.7902214221
 40
0.8559247918
 40
0.9257271707
 40
1.0
 40
1.0
 40
1.0
 40
1.0
 10
13.1090394714
 20
8.0174987632
 30
0.0
 10
13.1081084289
 20
8.0165994452
 30
0.0
 10
13.1062475007
 20
8.0149102109
 30
0.0
 10
13.1033677178
 20
8.0126535569
 30
0.0
 10
13.1009356671
 20
8.0110511253
 30
0.0
 10
13.0989960447
 20
8.0099607933
 30
0.0
 10
13.0971128746
 20
8.0090206257
 30
0.0
 10
13.0947583389
 20
8.0080630511
 30
0.0
 10
13.0919077125
 20
8.0072688958
 30
0.0
 10
13.0890720491
 20
8.0068474427
 30
0.0
 10
13.0862562576
 20
8.0068006122
 30
0.0
 10
13.0834657061
 20
8.0071292297
 30
0.0
 10
13.080705796
 20
8.0078321617
 30
0.0
 10
13.0779812423
 20
8.0089071792
 30
0.0
 10
13.0752956183
 20
8.0103510293
 30
0.0
 10
13.0726516898
 20
8.0121605024
 30
0.0
 10
13.0700515387
 20
8.0143323808
 30
0.0
 10
13.0674973142
 20
8.0168635162
 30
0.0
 10
13.0658784884
 20
8.0187284468
 30
0.0
 10
13.065075997
 20
8.0197151623
 30
0.0
  0
SPLINE
  5
3D5
100
AcDbEntity
  8
0
100
AcDbSpline
 62
7
  6
CONTINUOUS
 70
0
 71
3
 72
16
 73
12
 74
0
 42
0.0000001
 43
0.0000001
 44
0.0000000001
 40
0.0
 40
0.0
 40
0.0
 40
0.0
 40
0.1504799604
 40
0.291747358
 40
0.4244949035
 40
0.4879697429
 40
0.5496758902
 40
0.6683415374
 40
0.7818817037
 40
0.8918563365
 40
1.0
 40
1.0
 40
1.0
 40
1.0
 10
13.0752320654
 20
8.0536507207
 30
0.0
 10
13.0743839759
 20
8.0528315291
 30
0.0
 10
13.072688873
 20
8.0512944551
 30
0.0
 10
13.0700642098
 20
8.0492460365
 30
0.0
 10
13.0678471769
 20
8.0477972774
 30
0.0
 10
13.0660793019
 20
8.0468162383
 30
0.0
 10
13.0643635116
 20
8.0459739763
 30
0.0
 10
13.0622179954
 20
8.0451229813
 30
0.0
 10
13.0596204074
 20
8.0444318421
 30
0.0
 10
13.0570374774
 20
8.0440867566
 30
0.0
 10
13.0553222022
 20
8.0440886959
 30
0.0
 10
13.0544768457
 20
8.0441473149
 30
0.0
  0
SPLINE
  5
3D6
100
AcDbEntity
  8
0
100
AcDbSpline
 62
7
  6
CONTINUOUS
 70
0
 71
3
 72
58
 73
54
 74
0
 42
0.0000001
 43
0.0000001
 44
0.0000000001
 40
0.0
 40
0.0
 40
0.0
 40
0.0
 40
0.0081223305
 40
0.0169168975
 40
0.0264087397
 40
0.0366143893
 40
0.0475415919
 40
0.0591912278
 40
0.0715586516
 40
0.0846347975
 40
0.0984066254
 40
0.112857697
 40
0.1279687991
 40
0.1437179559
 40
0.1600810137
 40
0.1770317001
 40
0.2125802303
 40
0.2501202969
 40
0.2893844218
 40
0.3300865608
 40
0.3719257492
 40
0.4145895607
 40
0.4577574053
 40
0.5011037527
 40
0.5443013266
 40
0.587024304
 40
0.6289515139
 40
0.6697696572
 40
0.7091765902
 40
0.7468847529
 40
0.7826248208
 40
0.7996793841
 40
0.8161512809
 40
0.8320139346
 40
0.8472427441
 40
0.8618153344
 40
0.8757119895
 40
0.8889156785
 40
0.9014127874
 40
0.9131934095
 40
0.9242520347
 40
0.9345886083
 40
0.9442093599
 40
0.953128682
 40
0.9613709503
 40
0.9689732053
 40
0.9759886321
 40
0.9824900189
 40
0.9885734021
 40
0.9914974267
 40
0.9943641369
 40
0.9971919109
 40
1.0
 40
1.0
 40
1.0
 40
1.0
 10
11.8844099427
 20
9.2577928895
 30
0.0
 10
11.8852303829
 20
9.2585853739
 30
0.0
 10
11.8870165617
 20
9.2601568157
 30
0.0
 10
11.8899814563
 20
9.2623895432
 30
0.0
 10
11.8933297702
 20
9.2645849146
 30
0.0
 10
11.8970547068
 20
9.2667387016
 30
0.0
 10
11.9011492718
 20
9.2688470405
 30
0.0
 10
11.9056055257
 20
9.270905715
 30
0.0
 10
11.9104146887
 20
9.2729107185
 30
0.0
 10
11.9155672538
 20
9.2748579974
 30
0.0
 10
11.921052964
 20
9.2767436185
 30
0.0
 10
11.9268608428
 20
9.2785637902
 30
0.0
 10
11.9329792493
 20
9.2803147637
 30
0.0
 10
11.9393958729
 20
9.281993016
 30
0.0
 10
11.946097807
 20
9.2835951363
 30
0.0
 10
11.9555465982
 20
9.2856581177
 30
0.0
 10
11.9679737587
 20
9.288009854
 30
0.0
 10
11.9835666012
 20
9.2904391274
 30
0.0
 10
11.9999421928
 20
9.2924982444
 30
0.0
 10
12.0169683297
 20
9.2941702633
 30
0.0
 10
12.034507671
 20
9.2954413791
 30
0.0
 10
12.0524185626
 20
9.2963011267
 30
0.0
 10
12.0705563136
 20
9.2967424265
 30
0.0
 10
12.0887743622
 20
9.2967616441
 30
0.0
 10
12.106925488
 20
9.296358618
 30
0.0
 10
12.1248630189
 20
9.2955366699
 30
0.0
 10
12.1424420454
 20
9.2943025687
 30
0.0
 10
12.1595205879
 20
9.2926664755
 30
0.0
 10
12.1759608699
 20
9.2906418983
 30
0.0
 10
12.1916301527
 20
9.2882454882
 30
0.0
 10
12.2041285028
 20
9.2859204362
 30
0.0
 10
12.21363982
 20
9.2838779974
 30
0.0
 10
12.2203921925
 20
9.2822900708
 30
0.0
 10
12.2268616697
 20
9.2806254239
 30
0.0
 10
12.2330352323
 20
9.2788874079
 30
0.0
 10
12.2389004574
 20
9.2770795427
 30
0.0
 10
12.2444455834
 20
9.2752055513
 30
0.0
 10
12.2496595043
 20
9.2732691818
 30
0.0
 10
12.2545318369
 20
9.2712743849
 30
0.0
 10
12.2590529278
 20
9.269225164
 30
0.0
 10
12.2632138725
 20
9.2671255533
 30
0.0
 10
12.2670065981
 20
9.2649797134
 30
0.0
 10
12.2704237915
 20
9.2627916415
 30
0.0
 10
12.2734589962
 20
9.2605653372
 30
0.0
 10
12.2761065139
 20
9.2583045104
 30
0.0
 10
12.2783612079
 20
9.2560125333
 30
0.0
 10
12.2802184104
 20
9.2536922364
 30
0.0
 10
12.2816730041
 20
9.2513467165
 30
0.0
 10
12.2825565874
 20
9.2493462491
 30
0.0
 10
12.2830447242
 20
9.2477500587
 30
0.0
 10
12.2833032003
 20
9.2465661228
 30
0.0
 10
12.2834583565
 20
9.2453807677
 30
0.0
 10
12.283492883
 20
9.2445888519
 30
0.0
 10
12.2834928832
 20
9.2441944904
 30
0.0
  0
SPLINE
  5
3D7
100
AcDbEntity
  8
0
100
AcDbSpline
 62
7
  6
CONTINUOUS
 70
0
 71
3
 72
79
 73
75
 74
0
 42
0.0000001
 43
0.0000001
 44
0.0000000001
 40
0.0
 40
0.0
 40
0.0
 40
0.0
 40
0.0042066491
 40
0.0086074952
 40
0.0132069662
 40
0.0180086344
 40
0.0230154191
 40
0.0282295671
 40
0.0392840507
 40
0.0511770846
 40
0.0639045318
 40
0.0774558505
 40
0.0918150861
 40
0.1069616631
 40
0.122871087
 40
0.1395154568
 40
0.1568637949
 40
0.1748823661
 40
0.1935350251
 40
0.212783433
 40
0.232587209
 40
0.2529041862
 40
0.273690607
 40
0.2949012487
 40
0.3164895852
 40
0.3606069164
 40
0.4056517927
 40
0.4512216289
 40
0.4969078233
 40
0.5423004522
 40
0.586992952
 40
0.6305867741
 40
0.6518510546
 40
0.6726973092
 40
0.693080136
 40
0.7129555709
 40
0.7322812162
 40
0.7510164403
 40
0.7691226246
 40
0.78656331
 40
0.8033044149
 40
0.8193145814
 40
0.8345654746
 40
0.8490321048
 40
0.8626933353
 40
0.8755325652
 40
0.8875384362
 40
0.8987058766
 40
0.9039762389
 40
0.9090387931
 40
0.9138954741
 40
0.9185489005
 40
0.923002662
 40
0.927261346
 40
0.9313306304
 40
0.9352176128
 40
0.942477218
 40
0.9458756126
 40
0.9491369094
 40
0.9522775544
 40
0.9553162942
 40
0.9582740176
 40
0.9611735955
 40
0.9640394308
 40
0.9668968616
 40
0.9697714813
 40
0.972688386
 40
0.9756715239
 40
0.9787430858
 40
0.9852252035
 40
0.9886741696
 40
0.9922790721
 40
0.9960512884
 40
1.0
 40
1.0
 40
1.0
 40
1.0
 10
13.1090394714
 20
8.0174987632
 30
0.0
 10
13.1097628804
 20
8.0181975228
 30
0.0
 10
13.1112087571
 20
8.0196631887
 30
0.0
 10
13.113328117
 20
8.0220050894
 30
0.0
 10
13.1154448572
 20
8.0245377385
 30
0.0
 10
13.11755753
 20
8.0272595141
 30
0.0
 10
13.1196650288
 20
8.0301687759
 30
0.0
 10
13.1225223021
 20
8.0343780589
 30
0.0
 10
13.1260629314
 20
8.0401092619
 30
0.0
 10
13.1301923717
 20
8.0475757064
 30
0.0
 10
13.1342719268
 20
8.0557424037
 30
0.0
 10
13.1382919078
 20
8.0645901175
 30
0.0
 10
13.1422427283
 20
8.0740982063
 30
0.0
 10
13.1461149406
 20
8.0842442105
 30
0.0
 10
13.1498992488
 20
8.0950041058
 30
0.0
 10
13.153586534
 20
8.1063523445
 30
0.0
 10
13.1571679189
 20
8.118261918
 30
0.0
 10
13.1606347987
 20
8.1307044289
 30
0.0
 10
13.1639788243
 20
8.1436501899
 30
0.0
 10
13.1671919315
 20
8.1570682929
 30
0.0
 10
13.1702664047
 20
8.1709266703
 30
0.0
 10
13.1731948574
 20
8.1851921915
 30
0.0
 10
13.1759702299
 20
8.1998307427
 30
0.0
 10
13.1785858781
 20
8.2148073366
 30
0.0
 10
13.1818756401
 20
8.2353268444
 30
0.0
 10
13.1855355276
 20
8.2615556465
 30
0.0
 10
13.1891716424
 20
8.2935664153
 30
0.0
 10
13.192047858
 20
8.3260310089
 30
0.0
 10
13.1941366266
 20
8.3586390022
 30
0.0
 10
13.1954179912
 20
8.3910788803
 30
0.0
 10
13.1958798857
 20
8.4230404489
 30
0.0
 10
13.1955762919
 20
8.4492348404
 30
0.0
 10
13.1949101355
 20
8.4697158192
 30
0.0
 10
13.1942094786
 20
8.4846416013
 30
0.0
 10
13.1933054792
 20
8.499223777
 30
0.0
 10
13.1922003152
 20
8.5134275019
 30
0.0
 10
13.190896672
 20
8.5272188037
 30
0.0
 10
13.1893977003
 20
8.5405647187
 30
0.0
 10
13.1877070583
 20
8.5534333693
 30
0.0
 10
13.1858288538
 20
8.5657940367
 30
0.0
 10
13.1837676277
 20
8.5776172341
 30
0.0
 10
13.1815283891
 20
8.5888748035
 30
0.0
 10
13.1791165846
 20
8.5995399883
 30
0.0
 10
13.1765380494
 20
8.6095875038
 30
0.0
 10
13.1737989946
 20
8.6189935904
 30
0.0
 10
13.1709060169
 20
8.6277362442
 30
0.0
 10
13.1678660281
 20
8.6357948483
 30
0.0
 10
13.165166415
 20
8.642040359
 30
0.0
 10
13.1629298765
 20
8.6466695996
 30
0.0
 10
13.16125265
 20
8.6498914895
 30
0.0
 10
13.1595442008
 20
8.6529288403
 30
0.0
 10
13.1578054185
 20
8.6557798443
 30
0.0
 10
13.1560373114
 20
8.6584428698
 30
0.0
 10
13.1542409402
 20
8.6609163148
 30
0.0
 10
13.1524170347
 20
8.6631989284
 30
0.0
 10
13.1500051103
 20
8.6659236008
 30
0.0
 10
13.1474900423
 20
8.668340159
 30
0.0
 10
13.1448677537
 20
8.6703931359
 30
0.0
 10
13.1429215312
 20
8.6717020724
 30
0.0
 10
13.1409537891
 20
8.6728129237
 30
0.0
 10
13.1389655833
 20
8.6737247995
 30
0.0
 10
13.1369581169
 20
8.6744366545
 30
0.0
 10
13.1349327981
 20
8.6749476584
 30
0.0
 10
13.1328912083
 20
8.6752572404
 30
0.0
 10
13.1308350337
 20
8.6753649022
 30
0.0
 10
13.1287660358
 20
8.6752706434
 30
0.0
 10
13.1266859435
 20
8.6749747513
 30
0.0
 10
13.1245962594
 20
8.6744775617
 30
0.0
 10
13.1217489606
 20
8.6735307791
 30
0.0
 10
13.1189314875
 20
8.6721829678
 30
0.0
 10
13.1161699243
 20
8.6704929122
 30
0.0
 10
13.1140518037
 20
8.6690018553
 30
0.0
 10
13.1119317935
 20
8.6673150324
 30
0.0
 10
13.1105500891
 20
8.6660893958
 30
0.0
 10
13.1098589656
 20
8.6654462137
 30
0.0
  0
SPLINE
  5
3D8
100
AcDbEntity
  8
0
100
AcDbSpline
 62
7
  6
CONTINUOUS
 70
0
 71
3
 72
62
 73
58
 74
0
 42
0.0000001
 43
0.0000001
 44
0.0000000001
 40
0.0
 40
0.0
 40
0.0
 40
0.0
 40
0.0081438113
 40
0.0169768278
 40
0.0265208647
 40
0.0367896131
 40
0.0477882909
 40
0.0595157946
 40
0.0719659647
 40
0.0851282307
 40
0.0989884474
 40
0.113529232
 40
0.1287304073
 40
0.1445694158
 40
0.1610213924
 40
0.1780595147
 40
0.1956552032
 40
0.2137781425
 40
0.2323965838
 40
0.2514774225
 40
0.2908867049
 40
0.3317193113
 40
0.3736730778
 40
0.4164347485
 40
0.4596832327
 40
0.5030927524
 40
0.5463359834
 40
0.5890872005
 40
0.6310254005
 40
0.6718374884
 40
0.7112215247
 40
0.73028802
 40
0.7488910687
 40
0.7669975438
 40
0.7845757688
 40
0.8015955177
 40
0.8180281877
 40
0.8338470755
 40
0.8490273916
 40
0.8635465841
 40
0.877384641
 40
0.8905242378
 40
0.9029513084
 40
0.9146554932
 40
0.9256306718
 40
0.935876034
 40
0.9453970803
 40
0.9542071386
 40
0.9623296288
 40
0.9698006213
 40
0.9766724028
 40
0.9830176416
 40
0.9889331004
 40
0.9917694712
 40
0.9945466127
 40
0.9972834967
 40
1.0
 40
1.0
 40
1.0
 40
1.0
 10
13.0752320654
 20
8.0536507207
 30
0.0
 10
13.0764422792
 20
8.0548196976
 30
0.0
 10
13.0788564368
 20
8.0573704534
 30
0.0
 10
13.08232544
 20
8.0616168447
 30
0.0
 10
13.0857795238
 20
8.0664270439
 30
0.0
 10
13.0892119857
 20
8.0717914309
 30
0.0
 10
13.0926165597
 20
8.0776999702
 30
0.0
 10
13.0959865189
 20
8.084141229
 30
0.0
 10
13.0993152144
 20
8.0911026169
 30
0.0
 10
13.1025960381
 20
8.0985704157
 30
0.0
 10
13.1058223591
 20
8.1065298532
 30
0.0
 10
13.1089876936
 20
8.1149650934
 30
0.0
 10
13.1120856754
 20
8.1238593073
 30
0.0
 10
13.1151100064
 20
8.1331947281
 30
0.0
 10
13.1180546033
 20
8.1429526602
 30
0.0
 10
13.1209135191
 20
8.1531135457
 30
0.0
 10
13.1236809458
 20
8.1636570113
 30
0.0
 10
13.1263513185
 20
8.174561884
 30
0.0
 10
13.1289192626
 20
8.1858062827
 30
0.0
 10
13.1322352598
 20
8.2013892745
 30
0.0
 10
13.1360757002
 20
8.2215506529
 30
0.0
 10
13.1401519862
 20
8.2464688893
 30
0.0
 10
13.1437109721
 20
8.2721656107
 30
0.0
 10
13.1467238544
 20
8.2984343775
 30
0.0
 10
13.1491662385
 20
8.3250642994
 30
0.0
 10
13.1510184073
 20
8.3518414758
 30
0.0
 10
13.1522654982
 20
8.3785508231
 30
0.0
 10
13.1528975833
 20
8.404977788
 30
0.0
 10
13.15290978
 20
8.4309101826
 30
0.0
 10
13.1523022069
 20
8.4561396474
 30
0.0
 10
13.1512732648
 20
8.4766253025
 30
0.0
 10
13.1501334249
 20
8.4925049887
 30
0.0
 10
13.1491374187
 20
8.5039862227
 30
0.0
 10
13.147993144
 20
8.5151445873
 30
0.0
 10
13.1467029354
 20
8.5259576925
 30
0.0
 10
13.1452694183
 20
8.5364038245
 30
0.0
 10
13.1436954853
 20
8.5464620237
 30
0.0
 10
13.1419843786
 20
8.5561121283
 30
0.0
 10
13.1401395565
 20
8.565334811
 30
0.0
 10
13.1381647621
 20
8.574111628
 30
0.0
 10
13.1360640458
 20
8.5824250708
 30
0.0
 10
13.1338416275
 20
8.5902585909
 30
0.0
 10
13.1315020078
 20
8.5975966658
 30
0.0
 10
13.1290499133
 20
8.6044248456
 30
0.0
 10
13.1264901581
 20
8.6107297695
 30
0.0
 10
13.1238277638
 20
8.6164992627
 30
0.0
 10
13.1210677648
 20
8.6217223521
 30
0.0
 10
13.1182150469
 20
8.6263892413
 30
0.0
 10
13.1152743126
 20
8.6304913726
 30
0.0
 10
13.11224979
 20
8.6340211295
 30
0.0
 10
13.1091446388
 20
8.6369714694
 30
0.0
 10
13.1059625864
 20
8.6393349437
 30
0.0
 10
13.1032093811
 20
8.640829091
 30
0.0
 10
13.1009907168
 20
8.6417025417
 30
0.0
 10
13.0993358064
 20
8.642197973
 30
0.0
 10
13.0976683589
 20
8.6425421901
 30
0.0
 10
13.0965471979
 20
8.642670831
 30
0.0
 10
13.0959872851
 20
8.6427096567
 30
0.0
  0
SPLINE
  5
3D9
100
AcDbEntity
  8
0
100
AcDbSpline
 62
7
  6
CONTINUOUS
 70
0
 71
3
 72
18
 73
14
 74
0
 42
0.0000001
 43
0.0000001
 44
0.0000000001
 40
0.0
 40
0.0
 40
0.0
 40
0.0
 40
0.150466514
 40
0.2917140478
 40
0.4244427524
 40
0.4879100217
 40
0.5496093045
 40
0.6682623303
 40
0.7817883775
 40
0.8371380958
 40
0.8918079631
 40
0.946019364
 40
1.0
 40
1.0
 40
1.0
 40
1.0
 10
13.1399491004
 20
7.8801255495
 30
0.0
 10
13.1386062528
 20
7.8788284583
 30
0.0
 10
13.1359223484
 20
7.8763947235
 30
0.0
 10
13.1317666268
 20
7.8731514373
 30
0.0
 10
13.128256381
 20
7.8708576216
 30
0.0
 10
13.1254572923
 20
7.8693043093
 30
0.0
 10
13.1227405521
 20
7.867970754
 30
0.0
 10
13.1193437566
 20
7.8666232516
 30
0.0
 10
13.1158865467
 20
7.8657036542
 30
0.0
 10
13.1131483202
 20
7.8652506792
 30
0.0
 10
13.1111189243
 20
7.8650496
 30
0.0
 10
13.1090977342
 20
7.8649846544
 30
0.0
 10
13.1077549065
 20
7.8650321616
 30
0.0
 10
13.1070867158
 20
7.8650785002
 30
0.0
  0
SPLINE
  5
3DA
100
AcDbEntity
  8
0
100
AcDbSpline
 62
7
  6
CONTINUOUS
 70
0
 71
3
 72
70
 73
66
 74
0
 42
0.0000001
 43
0.0000001
 44
0.0000000001
 40
0.0
 40
0.0
 40
0.0
 40
0.0
 40
0.0081224093
 40
0.0169165429
 40
0.0264081669
 40
0.0366137054
 40
0.047540711
 40
0.0591900911
 40
0.0715572998
 40
0.084633204
 40
0.098404768
 40
0.1128555938
 40
0.1279663838
 40
0.1437152667
 40
0.1600780277
 40
0.1770283812
 40
0.1945381853
 40
0.2125775897
 40
0.2311151672
 40
0.2501180963
 40
0.2695522898
 40
0.2893824887
 40
0.3300838549
 40
0.371922258
 40
0.4145852627
 40
0.4577522917
 40
0.5010978111
 40
0.5442945535
 40
0.5870167064
 40
0.6289430907
 40
0.6697604189
 40
0.6896587125
 40
0.7091675363
 40
0.7282514277
 40
0.7468760564
 40
0.7650083741
 40
0.7826167098
 40
0.7996708955
 40
0.8161424517
 40
0.832004765
 40
0.8472332415
 40
0.8618055311
 40
0.8757018459
 40
0.8889052618
 40
0.9014020921
 40
0.9131824184
 40
0.924240804
 40
0.9345771137
 40
0.9394766539
 40
0.9441987045
 40
0.9487452893
 40
0.9531191169
 40
0.957323585
 40
0.9613628382
 40
0.9652419796
 40
0.9689670642
 40
0.972545257
 40
0.9759850059
 40
0.9824862384
 40
0.985575135
 40
0.9885736377
 40
0.9914975972
 40
0.9943642426
 40
0.9971919613
 40
1.0
 40
1.0
 40
1.0
 40
1.0
 10
12.0572655741
 20
10.0997586413
 30
0.0
 10
12.0590439218
 20
10.1014763934
 30
0.0
 10
12.062915403
 20
10.1048825159
 30
0.0
 10
12.0693418251
 20
10.1097218452
 30
0.0
 10
12.0765992014
 20
10.1144802588
 30
0.0
 10
12.0846729501
 20
10.1191486382
 30
0.0
 10
12.0935479329
 20
10.1237183831
 30
0.0
 10
12.1032068045
 20
10.1281805728
 30
0.0
 10
12.113630623
 20
10.1325263889
 30
0.0
 10
12.1247987693
 20
10.1367470928
 30
0.0
 10
12.136689002
 20
10.1408341701
 30
0.0
 10
12.1492775355
 20
10.1447793449
 30
0.0
 10
12.1625391227
 20
10.1485745944
 30
0.0
 10
12.1764471098
 20
10.152212179
 30
0.0
 10
12.1909734843
 20
10.1556847036
 30
0.0
 10
12.2060889541
 20
10.1589850994
 30
0.0
 10
12.2217630229
 20
10.1621066363
 30
0.0
 10
12.2379640429
 20
10.1650429458
 30
0.0
 10
12.2546592796
 20
10.1677880649
 30
0.0
 10
12.2718149814
 20
10.1703363963
 30
0.0
 10
12.2893964992
 20
10.1726827783
 30
0.0
 10
12.3135683158
 20
10.1755604188
 30
0.0
 10
12.3445848744
 20
10.1786061702
 30
0.0
 10
12.3826010925
 20
10.1813613251
 30
0.0
 10
12.4214228292
 20
10.1832248049
 30
0.0
 10
12.4607362256
 20
10.1841812868
 30
0.0
 10
12.5002236786
 20
10.1842229319
 30
0.0
 10
12.5395660539
 20
10.1833493533
 30
0.0
 10
12.5784455086
 20
10.1815677941
 30
0.0
 10
12.6165477137
 20
10.1788928214
 30
0.0
 10
12.6476538351
 20
10.1759130641
 30
0.0
 10
12.6719110256
 20
10.1730871524
 30
0.0
 10
12.6895661391
 20
10.1707780089
 30
0.0
 10
12.7068018369
 20
10.1682660209
 30
0.0
 10
12.7235832992
 20
10.165556257
 30
0.0
 10
12.7398766043
 20
10.162654257
 30
0.0
 10
12.7556488361
 20
10.1595659305
 30
0.0
 10
12.7708681363
 20
10.1562975573
 30
0.0
 10
12.7855037882
 20
10.1528557934
 30
0.0
 10
12.7995262864
 20
10.1492476629
 30
0.0
 10
12.8129073855
 20
10.1454805147
 30
0.0
 10
12.8256201669
 20
10.1415620004
 30
0.0
 10
12.8376391196
 20
10.1375000962
 30
0.0
 10
12.8489402096
 20
10.1333030505
 30
0.0
 10
12.8595008859
 20
10.1289793475
 30
0.0
 10
12.869300294
 20
10.1245376338
 30
0.0
 10
12.8783188893
 20
10.1199868123
 30
0.0
 10
12.8852887001
 20
10.1160435516
 30
0.0
 10
12.8904473521
 20
10.112833267
 30
0.0
 10
12.894040741
 20
10.1104470421
 30
0.0
 10
12.8974260301
 20
10.1080404097
 30
0.0
 10
12.9006015572
 20
10.1056145348
 30
0.0
 10
12.9035657597
 20
10.1031706119
 30
0.0
 10
12.9063171119
 20
10.1007097521
 30
0.0
 10
12.9088542928
 20
10.098233142
 30
0.0
 10
12.9111759523
 20
10.0957419951
 30
0.0
 10
12.9132810439
 20
10.0932371162
 30
0.0
 10
12.9157505726
 20
10.0899435455
 30
0.0
 10
12.9178475389
 20
10.0865611501
 30
0.0
 10
12.9195124723
 20
10.0831065685
 30
0.0
 10
12.9205183882
 20
10.0805516331
 30
0.0
 10
12.9213017265
 20
10.077990486
 30
0.0
 10
12.9218618629
 20
10.0754243704
 30
0.0
 10
12.922198122
 20
10.0728551051
 30
0.0
 10
12.9222729585
 20
10.0711386387
 30
0.0
 10
12.9222729527
 20
10.0702838628
 30
0.0
  0
SPLINE
  5
3DB
100
AcDbEntity
  8
0
100
AcDbSpline
 62
7
  6
CONTINUOUS
 70
0
 71
3
 72
23
 73
19
 74
0
 42
0.0000001
 43
0.0000001
 44
0.0000000001
 40
0.0
 40
0.0
 40
0.0
 40
0.0
 40
0.0637770475
 40
0.1273448957
 40
0.1907019676
 40
0.2538561301
 40
0.3168131969
 40
0.3795820893
 40
0.4421733857
 40
0.5045993357
 40
0.5668738673
 40
0.6290123829
 40
0.6910316518
 40
0.7529496446
 40
0.8147853543
 40
0.8765586057
 40
0.9382898574
 40
1.0
 40
1.0
 40
1.0
 40
1.0
 10
8.1168345009
 20
7.3061143908
 30
0.0
 10
8.1168345009
 20
7.3129030321
 30
0.0
 10
8.1171594377
 20
7.3264603471
 30
0.0
 10
8.1186260106
 20
7.3467138455
 30
0.0
 10
8.1210678773
 20
7.3668067969
 30
0.0
 10
8.1244791902
 20
7.3866920347
 30
0.0
 10
8.1288523251
 20
7.406324089
 30
0.0
 10
8.1341771842
 20
7.4256575779
 30
0.0
 10
8.1404415222
 20
7.4446479631
 30
0.0
 10
8.1476309422
 20
7.4632514512
 30
0.0
 10
8.1557289101
 20
7.481425135
 30
0.0
 10
8.1647168162
 20
7.4991270835
 30
0.0
 10
8.1745739389
 20
7.5163164685
 30
0.0
 10
8.1852775709
 20
7.5329536512
 30
0.0
 10
8.1968030142
 20
7.5490002144
 30
0.0
 10
8.2091238526
 20
7.5644192504
 30
0.0
 10
8.2222111908
 20
7.5791747014
 30
0.0
 10
8.2314286943
 20
7.5885483194
 30
0.0
 10
8.2361532122
 20
7.5931118565
 30
0.0
  0
SPLINE
  5
3DC
100
AcDbEntity
  8
0
100
AcDbSpline
 62
7
  6
CONTINUOUS
 70
0
 71
3
 72
39
 73
35
 74
0
 42
0.0000001
 43
0.0000001
 44
0.0000000001
 40
0.0
 40
0.0
 40
0.0
 40
0.0
 40
0.0311159584
 40
0.0620233352
 40
0.0927351385
 40
0.1232711775
 40
0.1536587332
 40
0.1839312107
 40
0.2141268395
 40
0.244287099
 40
0.2744549757
 40
0.3046731314
 40
0.3349820893
 40
0.3654185446
 40
0.396013864
 40
0.426792882
 40
0.4577729977
 40
0.4889636199
 40
0.5203659696
 40
0.5519731789
 40
0.5837707176
 40
0.6157370646
 40
0.6478445906
 40
0.68006064
 40
0.7123487314
 40
0.7446698626
 40
0.7769838842
 40
0.8092508939
 40
0.8414326248
 40
0.8734937998
 40
0.9054034138
 40
0.9371358961
 40
0.9686718081
 40
1.0
 40
1.0
 40
1.0
 40
1.0
 10
8.8060944516
 20
7.2668884176
 30
0.0
 10
8.8060944516
 20
7.2585435712
 30
0.0
 10
8.8052797632
 20
7.2418977449
 30
0.0
 10
8.8015953884
 20
7.2172618065
 30
0.0
 10
8.7954874676
 20
7.1932694251
 30
0.0
 10
8.7870138172
 20
7.1701553446
 30
0.0
 10
8.7762555828
 20
7.1481422505
 30
0.0
 10
8.7633159509
 20
7.1274434654
 30
0.0
 10
8.7483196312
 20
7.1082593819
 30
0.0
 10
8.7314114876
 20
7.0907757949
 30
0.0
 10
8.7127550073
 20
7.0751620465
 30
0.0
 10
8.6925309256
 20
7.0615690119
 30
0.0
 10
8.6709350852
 20
7.0501278777
 30
0.0
 10
8.6481765683
 20
7.0409487558
 30
0.0
 10
8.6244755892
 20
7.0341194783
 30
0.0
 10
8.6000611504
 20
7.0297051957
 30
0.0
 10
8.5751689048
 20
7.0277474646
 30
0.0
 10
8.5500387752
 20
7.028264106
 30
0.0
 10
8.5249126944
 20
7.0312492919
 30
0.0
 10
8.5000322752
 20
7.0366732841
 30
0.0
 10
8.4756365613
 20
7.0444831829
 30
0.0
 10
8.4519597994
 20
7.0546033042
 30
0.0
 10
8.4292291519
 20
7.0669357973
 30
0.0
 10
8.407662737
 20
7.0813619308
 30
0.0
 10
8.3874674205
 20
7.0977428872
 30
0.0
 10
8.368836924
 20
7.1159212415
 30
0.0
 10
8.3519501389
 20
7.1357225388
 30
0.0
 10
8.3369691563
 20
7.1569566858
 30
0.0
 10
8.3240380168
 20
7.1794199797
 30
0.0
 10
8.3132812465
 20
7.2028969967
 30
0.0
 10
8.3048025005
 20
7.2271621987
 30
0.0
 10
8.2986839813
 20
7.2519835176
 30
0.0
 10
8.2949850404
 20
7.2771194217
 30
0.0
 10
8.2941537333
 20
7.2939898626
 30
0.0
 10
8.2941537333
 20
7.302391627
 30
0.0
  0
SPLINE
  5
3DD
100
AcDbEntity
  8
0
100
AcDbSpline
 62
7
  6
CONTINUOUS
 70
0
 71
3
 72
23
 73
19
 74
0
 42
0.0000001
 43
0.0000001
 44
0.0000000001
 40
0.0
 40
0.0
 40
0.0
 40
0.0
 40
0.0619809895
 40
0.1239305841
 40
0.1858719731
 40
0.247828436
 40
0.3098230829
 40
0.3718785977
 40
0.4340169849
 40
0.4962593255
 40
0.5586255455
 40
0.6211342018
 40
0.6838022902
 40
0.7466450747
 40
0.8096759356
 40
0.8729062411
 40
0.9363452431
 40
1.0
 40
1.0
 40
1.0
 40
1.0
 10
9.661504112
 20
7.411041846
 30
0.0
 10
9.6660769974
 20
7.4167431164
 30
0.0
 10
9.6755290179
 20
7.4278992046
 30
0.0
 10
9.6905840669
 20
7.4438416976
 30
0.0
 10
9.7064746469
 20
7.4589482888
 30
0.0
 10
9.7231600045
 20
7.4731800658
 30
0.0
 10
9.7405980107
 20
7.4865011829
 30
0.0
 10
9.7587444566
 20
7.4988778845
 30
0.0
 10
9.7775533919
 20
7.5102788679
 30
0.0
 10
9.7969771799
 20
7.5206752885
 30
0.0
 10
9.816966637
 20
7.5300408453
 30
0.0
 10
9.8374711412
 20
7.5383518726
 30
0.0
 10
9.8584387639
 20
7.5455873953
 30
0.0
 10
9.8798164365
 20
7.551729157
 30
0.0
 10
9.9015499946
 20
7.5567616677
 30
0.0
 10
9.9235846402
 20
7.5606722489
 30
0.0
 10
9.9458638583
 20
7.5634510264
 30
0.0
 10
9.9608182739
 20
7.5645425643
 30
0.0
 10
9.9683157906
 20
7.5648987901
 30
0.0
  0
SPLINE
  5
3DE
100
AcDbEntity
  8
0
100
AcDbSpline
 62
7
  6
CONTINUOUS
 70
0
 71
3
 72
39
 73
35
 74
0
 42
0.0000001
 43
0.0000001
 44
0.0000000001
 40
0.0
 40
0.0
 40
0.0
 40
0.0
 40
0.0304819347
 40
0.0610755097
 40
0.091780788
 40
0.1225965973
 40
0.1535205565
 40
0.1845491126
 40
0.215677593
 40
0.2469002656
 40
0.2782104089
 40
0.3096003897
 40
0.3410617489
 40
0.3725852938
 40
0.4041611964
 40
0.4357790977
 40
0.4674282148
 40
0.4990974509
 40
0.5307755068
 40
0.5624509941
 40
0.5941125495
 40
0.6257489496
 40
0.6573492248
 40
0.6889027705
 40
0.7203994554
 40
0.7518297268
 40
0.7831847101
 40
0.8144563057
 40
0.8456372868
 40
0.8767213351
 40
0.9077033141
 40
0.9385786729
 40
0.9693452754
 40
1.0
 40
1.0
 40
1.0
 40
1.0
 10
9.9683157906
 20
7.5648987901
 30
0.0
 10
9.9762031653
 20
7.565273539
 30
0.0
 10
9.9920300319
 20
7.5656022678
 30
0.0
 10
10.0158037914
 20
7.5648371972
 30
0.0
 10
10.039591312
 20
7.5628171822
 30
0.0
 10
10.0633256183
 20
7.5595478705
 30
0.0
 10
10.086941021
 20
7.5550384145
 30
0.0
 10
10.1103718675
 20
7.5493014087
 30
0.0
 10
10.1335531093
 20
7.5423528566
 30
0.0
 10
10.1564203763
 20
7.534212115
 30
0.0
 10
10.1789101814
 20
7.5249018423
 30
0.0
 10
10.2009600873
 20
7.5144479347
 30
0.0
 10
10.2225088804
 20
7.5028794552
 30
0.0
 10
10.2434967365
 20
7.4902285513
 30
0.0
 10
10.2638653969
 20
7.4765303822
 30
0.0
 10
10.2835583235
 20
7.4618230086
 30
0.0
 10
10.3025208518
 20
7.4461472834
 30
0.0
 10
10.3207003424
 20
7.4295467398
 30
0.0
 10
10.3380463245
 20
7.4120674717
 30
0.0
 10
10.3545106359
 20
7.3937580072
 30
0.0
 10
10.3700475539
 20
7.3746691734
 30
0.0
 10
10.3846139372
 20
7.3548539686
 30
0.0
 10
10.3981693344
 20
7.3343674042
 30
0.0
 10
10.4106760927
 20
7.3132663512
 30
0.0
 10
10.4220994627
 20
7.2916093846
 30
0.0
 10
10.4324076937
 20
7.2694566223
 30
0.0
 10
10.441572121
 20
7.2468695605
 30
0.0
 10
10.4495672491
 20
7.2239109018
 30
0.0
 10
10.4563708222
 20
7.200644401
 30
0.0
 10
10.461963933
 20
7.1771346264
 30
0.0
 10
10.4663309081
 20
7.1534469854
 30
0.0
 10
10.4694597122
 20
7.1296468835
 30
0.0
 10
10.4713413622
 20
7.1058014752
 30
0.0
 10
10.4717617298
 20
7.0898873127
 30
0.0
 10
10.4717617298
 20
7.0819462795
 30
0.0
  0
SPLINE
  5
3DF
100
AcDbEntity
  8
0
100
AcDbSpline
 62
7
  6
CONTINUOUS
 70
0
 71
3
 72
39
 73
35
 74
0
 42
0.0000001
 43
0.0000001
 44
0.0000000001
 40
0.0
 40
0.0
 40
0.0
 40
0.0
 40
0.0313281919
 40
0.0628641039
 40
0.0945965862
 40
0.1265062002
 40
0.1585673752
 40
0.1907491061
 40
0.2230161158
 40
0.2553301374
 40
0.2876512686
 40
0.31993936
 40
0.3521554094
 40
0.3842629354
 40
0.4162292824
 40
0.4480268211
 40
0.4796340304
 40
0.5110363801
 40
0.5422270023
 40
0.573207118
 40
0.603986136
 40
0.6345814554
 40
0.6650179107
 40
0.6953268686
 40
0.7255450243
 40
0.755712901
 40
0.7858731605
 40
0.8160687893
 40
0.8463412668
 40
0.8767288225
 40
0.9072648615
 40
0.9379766648
 40
0.9688840416
 40
1.0
 40
1.0
 40
1.0
 40
1.0
 10
8.8060944516
 20
7.2668884176
 30
0.0
 10
8.8060944516
 20
7.275290182
 30
0.0
 10
8.8052631445
 20
7.2921606229
 30
0.0
 10
8.8015642036
 20
7.3172965271
 30
0.0
 10
8.7954456844
 20
7.342117846
 30
0.0
 10
8.7869669384
 20
7.366383048
 30
0.0
 10
8.7762101681
 20
7.389860065
 30
0.0
 10
8.7632790286
 20
7.4123233588
 30
0.0
 10
8.748298046
 20
7.4335575059
 30
0.0
 10
8.7314112608
 20
7.4533588031
 30
0.0
 10
8.7127807643
 20
7.4715371574
 30
0.0
 10
8.6925854479
 20
7.4879181139
 30
0.0
 10
8.671019033
 20
7.5023442474
 30
0.0
 10
8.6482883855
 20
7.5146767405
 30
0.0
 10
8.6246116236
 20
7.5247968618
 30
0.0
 10
8.6002159096
 20
7.5326067606
 30
0.0
 10
8.5753354905
 20
7.5380307528
 30
0.0
 10
8.5502094097
 20
7.5410159387
 30
0.0
 10
8.52507928
 20
7.5415325801
 30
0.0
 10
8.5001870344
 20
7.539574849
 30
0.0
 10
8.4757725956
 20
7.5351605664
 30
0.0
 10
8.4520716165
 20
7.5283312889
 30
0.0
 10
8.4293130997
 20
7.519152167
 30
0.0
 10
8.4077172592
 20
7.5077110328
 30
0.0
 10
8.3874931776
 20
7.4941179982
 30
0.0
 10
8.3688366973
 20
7.4785042498
 30
0.0
 10
8.3519285536
 20
7.4610206628
 30
0.0
 10
8.336932234
 20
7.4418365792
 30
0.0
 10
8.3239926021
 20
7.4211377941
 30
0.0
 10
8.3132343677
 20
7.3991247001
 30
0.0
 10
8.3047607173
 20
7.3760106195
 30
0.0
 10
8.2986527965
 20
7.3520182381
 30
0.0
 10
8.2949684217
 20
7.3273822997
 30
0.0
 10
8.2941537333
 20
7.3107364735
 30
0.0
 10
8.2941537333
 20
7.302391627
 30
0.0
  0
SPLINE
  5
3E0
100
AcDbEntity
  8
0
100
AcDbSpline
 62
7
  6
CONTINUOUS
 70
0
 71
3
 72
70
 73
66
 74
0
 42
0.0000001
 43
0.0000001
 44
0.0000000001
 40
0.0
 40
0.0
 40
0.0
 40
0.0
 40
0.0081224093
 40
0.0169165429
 40
0.0264081669
 40
0.0366137054
 40
0.047540711
 40
0.0591900911
 40
0.0715572998
 40
0.084633204
 40
0.098404768
 40
0.1128555938
 40
0.1279663838
 40
0.1437152667
 40
0.1600780277
 40
0.1770283812
 40
0.1945381853
 40
0.2125775897
 40
0.2311151672
 40
0.2501180963
 40
0.2695522898
 40
0.2893824887
 40
0.3300838549
 40
0.371922258
 40
0.4145852627
 40
0.4577522917
 40
0.5010978111
 40
0.5442945535
 40
0.5870167064
 40
0.6289430907
 40
0.6697604189
 40
0.6896587125
 40
0.7091675363
 40
0.7282514277
 40
0.7468760564
 40
0.7650083741
 40
0.7826167098
 40
0.7996708955
 40
0.8161424517
 40
0.832004765
 40
0.8472332415
 40
0.8618055311
 40
0.8757018459
 40
0.8889052618
 40
0.9014020921
 40
0.9131824184
 40
0.924240804
 40
0.9345771137
 40
0.9394766539
 40
0.9441987045
 40
0.9487452893
 40
0.9531191169
 40
0.957323585
 40
0.9613628382
 40
0.9652419796
 40
0.9689670642
 40
0.972545257
 40
0.9759850059
 40
0.9824862384
 40
0.985575135
 40
0.9885736377
 40
0.9914975972
 40
0.9943642426
 40
0.9971919613
 40
1.0
 40
1.0
 40
1.0
 40
1.0
 10
9.0927196484
 20
9.7362269988
 30
0.0
 10
9.0944979961
 20
9.7379447509
 30
0.0
 10
9.0983694773
 20
9.7413508734
 30
0.0
 10
9.1047958994
 20
9.7461902026
 30
0.0
 10
9.1120532757
 20
9.7509486163
 30
0.0
 10
9.1201270244
 20
9.7556169957
 30
0.0
 10
9.1290020072
 20
9.7601867406
 30
0.0
 10
9.1386608788
 20
9.7646489303
 30
0.0
 10
9.1490846974
 20
9.7689947464
 30
0.0
 10
9.1602528436
 20
9.7732154503
 30
0.0
 10
9.1721430763
 20
9.7773025276
 30
0.0
 10
9.1847316098
 20
9.7812477024
 30
0.0
 10
9.1979931971
 20
9.7850429519
 30
0.0
 10
9.2119011841
 20
9.7886805365
 30
0.0
 10
9.2264275586
 20
9.7921530611
 30
0.0
 10
9.2415430284
 20
9.7954534569
 30
0.0
 10
9.2572170972
 20
9.7985749938
 30
0.0
 10
9.2734181173
 20
9.8015113032
 30
0.0
 10
9.2901133539
 20
9.8042564224
 30
0.0
 10
9.3072690557
 20
9.8068047538
 30
0.0
 10
9.3248505735
 20
9.8091511358
 30
0.0
 10
9.3490223901
 20
9.8120287763
 30
0.0
 10
9.3800389487
 20
9.8150745277
 30
0.0
 10
9.4180551668
 20
9.8178296826
 30
0.0
 10
9.4568769036
 20
9.8196931624
 30
0.0
 10
9.4961903
 20
9.8206496443
 30
0.0
 10
9.535677753
 20
9.8206912894
 30
0.0
 10
9.5750201282
 20
9.8198177108
 30
0.0
 10
9.6138995829
 20
9.8180361516
 30
0.0
 10
9.652001788
 20
9.8153611789
 30
0.0
 10
9.6831079094
 20
9.8123814216
 30
0.0
 10
9.7073650999
 20
9.8095555099
 30
0.0
 10
9.7250202134
 20
9.8072463664
 30
0.0
 10
9.7422559112
 20
9.8047343784
 30
0.0
 10
9.7590373735
 20
9.8020246145
 30
0.0
 10
9.7753306786
 20
9.7991226145
 30
0.0
 10
9.7911029105
 20
9.796034288
 30
0.0
 10
9.8063222106
 20
9.7927659147
 30
0.0
 10
9.8209578625
 20
9.7893241509
 30
0.0
 10
9.8349803607
 20
9.7857160204
 30
0.0
 10
9.8483614599
 20
9.7819488722
 30
0.0
 10
9.8610742413
 20
9.7780303579
 30
0.0
 10
9.873093194
 20
9.7739684537
 30
0.0
 10
9.8843942839
 20
9.769771408
 30
0.0
 10
9.8949549603
 20
9.765447705
 30
0.0
 10
9.9047543683
 20
9.7610059912
 30
0.0
 10
9.9137729636
 20
9.7564551698
 30
0.0
 10
9.9207427744
 20
9.7525119091
 30
0.0
 10
9.9259014264
 20
9.7493016245
 30
0.0
 10
9.9294948153
 20
9.7469153996
 30
0.0
 10
9.9328801044
 20
9.7445087671
 30
0.0
 10
9.9360556315
 20
9.7420828923
 30
0.0
 10
9.9390198341
 20
9.7396389694
 30
0.0
 10
9.9417711862
 20
9.7371781096
 30
0.0
 10
9.9443083671
 20
9.7347014995
 30
0.0
 10
9.9466300266
 20
9.7322103526
 30
0.0
 10
9.9487351182
 20
9.7297054737
 30
0.0
 10
9.9512046469
 20
9.726411903
 30
0.0
 10
9.9533016132
 20
9.7230295076
 30
0.0
 10
9.9549665466
 20
9.719574926
 30
0.0
 10
9.9559724625
 20
9.7170199906
 30
0.0
 10
9.9567558008
 20
9.7144588435
 30
0.0
 10
9.9573159372
 20
9.7118927279
 30
0.0
 10
9.9576521963
 20
9.7093234626
 30
0.0
 10
9.9577270328
 20
9.7076069962
 30
0.0
 10
9.957727027
 20
9.7067522203
 30
0.0
  0
SPLINE
  5
3E1
100
AcDbEntity
  8
0
100
AcDbSpline
 62
7
  6
CONTINUOUS
 70
0
 71
3
 72
11
 73
7
 74
0
 42
0.0000001
 43
0.0000001
 44
0.0000000001
 40
0.0
 40
0.0
 40
0.0
 40
0.0
 40
0.2523622785
 40
0.5030755991
 40
0.7522391571
 40
1.0
 40
1.0
 40
1.0
 40
1.0
 10
8.4948385756
 20
7.4422383106
 30
0.0
 10
8.4948385756
 20
7.4487060213
 30
0.0
 10
8.4954531673
 20
7.461607948
 30
0.0
 10
8.4982328591
 20
7.4807152494
 30
0.0
 10
8.5028414443
 20
7.4993445782
 30
0.0
 10
8.5071188534
 20
7.5113668051
 30
0.0
 10
8.5095453006
 20
7.517234691
 30
0.0
  0
SPLINE
  5
3E2
100
AcDbEntity
  8
0
100
AcDbSpline
 62
7
  6
CONTINUOUS
 70
0
 71
3
 72
68
 73
64
 74
0
 42
0.0000001
 43
0.0000001
 44
0.0000000001
 40
0.0
 40
0.0
 40
0.0
 40
0.0
 40
0.0078496328
 40
0.0150471261
 40
0.0216914136
 40
0.0248491851
 40
0.0279214761
 40
0.0309298772
 40
0.0338975589
 40
0.036848784
 40
0.0398082473
 40
0.0428004268
 40
0.045848912
 40
0.0489759122
 40
0.0522018312
 40
0.0590173826
 40
0.0626417291
 40
0.0664258498
 40
0.0745105727
 40
0.0833384115
 40
0.0929519262
 40
0.1033773889
 40
0.11462835
 40
0.1267085056
 40
0.1396136618
 40
0.1533330601
 40
0.1678505989
 40
0.183145657
 40
0.1991935787
 40
0.215966265
 40
0.2334326172
 40
0.2515587452
 40
0.27030829
 40
0.2896427422
 40
0.3095215691
 40
0.3299024098
 40
0.3719918319
 40
0.4155444996
 40
0.4601748359
 40
0.5054844346
 40
0.5510669715
 40
0.5965129491
 40
0.6414144602
 40
0.6853699224
 40
0.7279889359
 40
0.7486801476
 40
0.7688984643
 40
0.7886004294
 40
0.8077443182
 40
0.8262902484
 40
0.8442003491
 40
0.8614391016
 40
0.8779735331
 40
0.8937734401
 40
0.9088118532
 40
0.9230654493
 40
0.9365149658
 40
0.9491459769
 40
0.9609498848
 40
0.9719248238
 40
0.9820774074
 40
0.9914257833
 40
1.0
 40
1.0
 40
1.0
 40
1.0
 10
12.738243322
 20
10.0216230451
 30
0.0
 10
12.7393168893
 20
10.0226600316
 30
0.0
 10
12.741284429
 20
10.0247461681
 30
0.0
 10
12.743753
 20
10.0280632025
 30
0.0
 10
12.7453130225
 20
10.0309098688
 30
0.0
 10
12.7462190635
 20
10.0331868281
 30
0.0
 10
12.7467277397
 20
10.0348706661
 30
0.0
 10
12.7470761859
 20
10.0365580052
 30
0.0
 10
12.7472639219
 20
10.0382476455
 30
0.0
 10
12.7472907688
 20
10.0399382035
 30
0.0
 10
12.747156635
 20
10.0416282991
 30
0.0
 10
12.7468616849
 20
10.04331655
 30
0.0
 10
12.7464064233
 20
10.0450016573
 30
0.0
 10
12.7457912868
 20
10.0466825082
 30
0.0
 10
12.7447398902
 20
10.0489575989
 30
0.0
 10
12.743376253
 20
10.0511819772
 30
0.0
 10
12.7417469409
 20
10.0533421172
 30
0.0
 10
12.73983363
 20
10.0555845434
 30
0.0
 10
12.7370310122
 20
10.0583579778
 30
0.0
 10
12.7331312908
 20
10.0615657738
 30
0.0
 10
12.7286321197
 20
10.0647182743
 30
0.0
 10
12.7235438436
 20
10.0678088854
 30
0.0
 10
12.7178777578
 20
10.0708310776
 30
0.0
 10
12.7116468167
 20
10.0737779511
 30
0.0
 10
12.7048654274
 20
10.0766425984
 30
0.0
 10
12.6975494939
 20
10.0794182367
 30
0.0
 10
12.6897162897
 20
10.0820982031
 30
0.0
 10
12.6813844047
 20
10.0846760001
 30
0.0
 10
12.6725737088
 20
10.0871454061
 30
0.0
 10
12.663305268
 20
10.0895004422
 30
0.0
 10
12.6536012738
 20
10.0917353702
 30
0.0
 10
12.6434850043
 20
10.0938447723
 30
0.0
 10
12.6329807523
 20
10.0958235476
 30
0.0
 10
12.6221137579
 20
10.0976668684
 30
0.0
 10
12.610910124
 20
10.0993702927
 30
0.0
 10
12.5953925056
 20
10.1014719098
 30
0.0
 10
12.5753533116
 20
10.1037083958
 30
0.0
 10
12.5506633034
 20
10.1057516308
 30
0.0
 10
12.5253158447
 20
10.107161909
 30
0.0
 10
12.4995546893
 20
10.1079254746
 30
0.0
 10
12.4736273903
 20
10.1080347955
 30
0.0
 10
12.447783216
 20
10.107488786
 30
0.0
 10
12.4222705363
 20
10.1062928553
 30
0.0
 10
12.3973347151
 20
10.1044586593
 30
0.0
 10
12.3770397055
 20
10.1023936867
 30
0.0
 10
12.3612785124
 20
10.1004261019
 30
0.0
 10
12.3498653899
 20
10.0988182707
 30
0.0
 10
12.3387710315
 20
10.0970677427
 30
0.0
 10
12.3280220904
 20
10.0951787528
 30
0.0
 10
12.3176444087
 20
10.0931558966
 30
0.0
 10
12.3076629208
 20
10.0910040569
 30
0.0
 10
12.2981015817
 20
10.088728471
 30
0.0
 10
12.2889833104
 20
10.0863346747
 30
0.0
 10
12.2803299428
 20
10.0838284526
 30
0.0
 10
12.2721621465
 20
10.081215884
 30
0.0
 10
12.264499362
 20
10.0785033105
 30
0.0
 10
12.257359764
 20
10.0756972508
 30
0.0
 10
12.2507601736
 20
10.0728044223
 30
0.0
 10
12.2447159782
 20
10.0698316744
 30
0.0
 10
12.2392411848
 20
10.0667859551
 30
0.0
 10
12.2343479524
 20
10.0636738867
 30
0.0
 10
12.2300478942
 20
10.0605025409
 30
0.0
 10
12.2274752699
 20
10.0582589632
 30
0.0
 10
12.2263026037
 20
10.0571262545
 30
0.0
  0
SPLINE
  5
3E3
100
AcDbEntity
  8
0
100
AcDbSpline
 62
7
  6
CONTINUOUS
 70
0
 71
3
 72
15
 73
11
 74
0
 42
0.0000001
 43
0.0000001
 44
0.0000000001
 40
0.0
 40
0.0
 40
0.0
 40
0.0
 40
0.1098906373
 40
0.2214016819
 40
0.3360757822
 40
0.4553202911
 40
0.5803741285
 40
0.7122942594
 40
0.8519453747
 40
1.0
 40
1.0
 40
1.0
 40
1.0
 10
12.9774729447
 20
10.3066936765
 30
0.0
 10
12.9774729443
 20
10.307267843
 30
0.0
 10
12.977546656
 20
10.3084259441
 30
0.0
 10
12.9778773042
 20
10.310154773
 30
0.0
 10
12.9784270168
 20
10.3118781647
 30
0.0
 10
12.9791943269
 20
10.3135935322
 30
0.0
 10
12.980177552
 20
10.3152992333
 30
0.0
 10
12.9813750542
 20
10.3169937764
 30
0.0
 10
12.9827850105
 20
10.3186755669
 30
0.0
 10
12.9838335834
 20
10.319754641
 30
0.0
 10
12.9843899765
 20
10.3202920755
 30
0.0
  0
SPLINE
  5
3E4
100
AcDbEntity
  8
0
100
AcDbSpline
 62
7
  6
CONTINUOUS
 70
0
 71
3
 72
15
 73
11
 74
0
 42
0.0000001
 43
0.0000001
 44
0.0000000001
 40
0.0
 40
0.0
 40
0.0
 40
0.0
 40
0.1098906373
 40
0.2214016819
 40
0.3360757822
 40
0.4553202911
 40
0.5803741285
 40
0.7122942594
 40
0.8519453747
 40
1.0
 40
1.0
 40
1.0
 40
1.0
 10
11.8774929108
 20
9.2441944904
 30
0.0
 10
11.8774929104
 20
9.2447686569
 30
0.0
 10
11.8775666221
 20
9.245926758
 30
0.0
 10
11.8778972703
 20
9.2476555869
 30
0.0
 10
11.8784469829
 20
9.2493789786
 30
0.0
 10
11.879214293
 20
9.2510943461
 30
0.0
 10
11.8801975181
 20
9.2528000472
 30
0.0
 10
11.8813950203
 20
9.2544945903
 30
0.0
 10
11.8828049766
 20
9.2561763808
 30
0.0
 10
11.8838535495
 20
9.2572554549
 30
0.0
 10
11.8844099427
 20
9.2577928895
 30
0.0
  0
SPLINE
  5
3E5
100
AcDbEntity
  8
0
100
AcDbSpline
 62
7
  6
CONTINUOUS
 70
0
 71
3
 72
17
 73
13
 74
0
 42
0.0000001
 43
0.0000001
 44
0.0000000001
 40
0.0
 40
0.0
 40
0.0
 40
0.0
 40
0.0548653995
 40
0.1099348206
 40
0.2214348222
 40
0.3360991408
 40
0.4553350478
 40
0.5170794787
 40
0.5804143716
 40
0.712316841
 40
0.8519520933
 40
1.0
 40
1.0
 40
1.0
 40
1.0
 10
12.042272973
 20
10.0702846948
 30
0.0
 10
12.0422729772
 20
10.0709060886
 30
0.0
 10
12.0423124423
 20
10.0721515841
 30
0.0
 10
12.0425497718
 20
10.0746495702
 30
0.0
 10
12.0431494413
 20
10.0777868167
 30
0.0
 10
12.0443409964
 20
10.0815216664
 30
0.0
 10
12.0457110568
 20
10.0845845069
 30
0.0
 10
12.0470293937
 20
10.0870183255
 30
0.0
 10
12.048538943
 20
10.0895079934
 30
0.0
 10
12.0507308372
 20
10.0926097753
 30
0.0
 10
12.0537867348
 20
10.0962548239
 30
0.0
 10
12.0560595576
 20
10.0985937188
 30
0.0
 10
12.0572655741
 20
10.0997586413
 30
0.0
  0
SPLINE
  5
3E6
100
AcDbEntity
  8
0
100
AcDbSpline
 62
7
  6
CONTINUOUS
 70
0
 71
3
 72
10
 73
6
 74
0
 42
0.0000001
 43
0.0000001
 44
0.0000000001
 40
0.0
 40
0.0
 40
0.0
 40
0.0
 40
0.4728656747
 40
0.7291208893
 40
1.0
 40
1.0
 40
1.0
 40
1.0
 10
12.0464375199
 20
10.0550058234
 30
0.0
 10
12.0477494053
 20
10.0574561391
 30
0.0
 10
12.0501518452
 20
10.0610384578
 30
0.0
 10
12.0539554444
 20
10.065521898
 30
0.0
 10
12.0561203983
 20
10.0677428574
 30
0.0
 10
12.0572655741
 20
10.0688490123
 30
0.0
  0
SPLINE
  5
3E7
100
AcDbEntity
  8
0
100
AcDbSpline
 62
7
  6
CONTINUOUS
 70
0
 71
3
 72
23
 73
19
 74
0
 42
0.0000001
 43
0.0000001
 44
0.0000000001
 40
0.0
 40
0.0
 40
0.0
 40
0.0
 40
0.0749625467
 40
0.1455683586
 40
0.2121600105
 40
0.2751629606
 40
0.3350981064
 40
0.3925830815
 40
0.4483293425
 40
0.503123567
 40
0.557798174
 40
0.6131915492
 40
0.6701069129
 40
0.7292781025
 40
0.7913516244
 40
0.8568785425
 40
0.9263112386
 40
1.0
 40
1.0
 40
1.0
 40
1.0
 10
12.2269631326
 20
10.0209969067
 30
0.0
 10
12.2261979117
 20
10.0217090266
 30
0.0
 10
12.2247543578
 20
10.0231387022
 30
0.0
 10
12.2228065921
 20
10.0253692305
 30
0.0
 10
12.2211456269
 20
10.0276173909
 30
0.0
 10
12.2197740193
 20
10.0298812979
 30
0.0
 10
12.218693972
 20
10.0321588921
 30
0.0
 10
12.2179079942
 20
10.0344478881
 30
0.0
 10
12.217418223
 20
10.0367453087
 30
0.0
 10
12.2172264485
 20
10.0390475323
 30
0.0
 10
12.2173333995
 20
10.041350369
 30
0.0
 10
12.2177386571
 20
10.0436495659
 30
0.0
 10
12.2184407512
 20
10.0459412633
 30
0.0
 10
12.2194374483
 20
10.0482223619
 30
0.0
 10
12.2207265052
 20
10.0504903554
 30
0.0
 10
12.2223055538
 20
10.0527432778
 30
0.0
 10
12.2241721409
 20
10.0549789307
 30
0.0
 10
12.2255635337
 20
10.0564123676
 30
0.0
 10
12.2263026037
 20
10.0571262545
 30
0.0
  0
SPLINE
  5
3E8
100
AcDbEntity
  8
0
100
AcDbSpline
 62
7
  6
CONTINUOUS
 70
0
 71
3
 72
15
 73
11
 74
0
 42
0.0000001
 43
0.0000001
 44
0.0000000001
 40
0.0
 40
0.0
 40
0.0
 40
0.0
 40
0.1098906373
 40
0.2214016819
 40
0.3360757822
 40
0.4553202911
 40
0.5803741285
 40
0.7122942594
 40
0.8519453747
 40
1.0
 40
1.0
 40
1.0
 40
1.0
 10
12.2472729788
 20
10.0103968733
 30
0.0
 10
12.2472729784
 20
10.0110615488
 30
0.0
 10
12.2473583097
 20
10.0124022077
 30
0.0
 10
12.2477410797
 20
10.0144035614
 30
0.0
 10
12.2483774465
 20
10.0163986208
 30
0.0
 10
12.2492657119
 20
10.018384391
 30
0.0
 10
12.2504039281
 20
10.0203589711
 30
0.0
 10
12.2517901991
 20
10.0223206343
 30
0.0
 10
12.2534224145
 20
10.0242675346
 30
0.0
 10
12.2546362798
 20
10.0255167091
 30
0.0
 10
12.2552803802
 20
10.0261388624
 30
0.0
  0
SPLINE
  5
3E9
100
AcDbEntity
  8
0
100
AcDbSpline
 62
7
  6
CONTINUOUS
 70
0
 71
3
 72
71
 73
67
 74
0
 42
0.0000001
 43
0.0000001
 44
0.0000000001
 40
0.0
 40
0.0
 40
0.0
 40
0.0
 40
0.0155842357
 40
0.031115943
 40
0.0465952487
 40
0.0620238831
 40
0.0774034484
 40
0.0927362827
 40
0.1080251234
 40
0.1232731737
 40
0.1384840555
 40
0.1536617759
 40
0.1688106894
 40
0.1839354528
 40
0.1990409785
 40
0.2141323826
 40
0.2292149324
 40
0.2442939897
 40
0.2593749538
 40
0.2744632037
 40
0.2895640404
 40
0.3046826304
 40
0.3198239511
 40
0.3349927396
 40
0.3501934435
 40
0.3654301766
 40
0.3807066777
 40
0.3960262752
 40
0.4113918557
 40
0.4268058391
 40
0.4422701589
 40
0.4577862478
 40
0.4733550285
 40
0.4889769092
 40
0.5046517848
 40
0.5203790431
 40
0.5361575763
 40
0.5519857963
 40
0.5678616538
 40
0.5837826609
 40
0.5997459179
 40
0.6157481418
 40
0.6317856999
 40
0.6478546445
 40
0.6639507499
 40
0.6800695506
 40
0.6962063818
 40
0.7123564201
 40
0.7285147273
 40
0.7446762933
 40
0.7608360799
 40
0.7769890645
 40
0.7931302835
 40
0.8092548753
 40
0.8253581239
 40
0.8414355006
 40
0.8574827053
 40
0.873495705
 40
0.8894707706
 40
0.9054045132
 40
0.921293919
 40
0.9371363616
 40
0.9529297193
 40
0.9686720808
 40
0.9843626423
 40
1.0
 40
1.0
 40
1.0
 40
1.0
 10
11.6588847158
 20
7.6332664179
 30
0.0
 10
11.6588847158
 20
7.6242581411
 30
0.0
 10
11.6584438624
 20
7.6062687567
 30
0.0
 10
11.6564538505
 20
7.5793980171
 30
0.0
 10
11.6531407362
 20
7.5527480051
 30
0.0
 10
11.6485126714
 20
7.5263839856
 30
0.0
 10
11.6425805763
 20
7.50036911
 30
0.0
 10
11.635358763
 20
7.4747662178
 30
0.0
 10
11.6268645315
 20
7.4496370038
 30
0.0
 10
11.6171183128
 20
7.4250420728
 30
0.0
 10
11.6061435569
 20
7.4010407343
 30
0.0
 10
11.5939666797
 20
7.3776908772
 30
0.0
 10
11.5806170013
 20
7.3550488259
 30
0.0
 10
11.5661266758
 20
7.333169204
 30
0.0
 10
11.5505306142
 20
7.3121048024
 30
0.0
 10
11.5338664054
 20
7.2919064466
 30
0.0
 10
11.5161742387
 20
7.272622859
 30
0.0
 10
11.4974967841
 20
7.254300555
 30
0.0
 10
11.4778790929
 20
7.2369837277
 30
0.0
 10
11.4573684864
 20
7.2207141415
 30
0.0
 10
11.436014442
 20
7.2055310298
 30
0.0
 10
11.4138684712
 20
7.1914710029
 30
0.0
 10
11.3909840068
 20
7.1785679378
 30
0.0
 10
11.36741626
 20
7.1668529098
 30
0.0
 10
11.3432220826
 20
7.1563541239
 30
0.0
 10
11.3184598293
 20
7.1470968469
 30
0.0
 10
11.293189217
 20
7.1391033476
 30
0.0
 10
11.267471179
 20
7.1323928474
 30
0.0
 10
11.2413677219
 20
7.1269814625
 30
0.0
 10
11.2149417739
 20
7.1228821592
 30
0.0
 10
11.1882570268
 20
7.1201047455
 30
0.0
 10
11.1613777849
 20
7.118655845
 30
0.0
 10
11.1343688101
 20
7.118538884
 30
0.0
 10
11.1072951675
 20
7.1197540844
 30
0.0
 10
11.0802220704
 20
7.1222984643
 30
0.0
 10
11.0532147208
 20
7.1261658228
 30
0.0
 10
11.0263381531
 20
7.1313467802
 30
0.0
 10
10.9996570789
 20
7.1378288014
 30
0.0
 10
10.973235733
 20
7.1455962273
 30
0.0
 10
10.9471377207
 20
7.1546303116
 30
0.0
 10
10.9214258678
 20
7.1649092698
 30
0.0
 10
10.8961620631
 20
7.1764083128
 30
0.0
 10
10.8714071103
 20
7.1890997134
 30
0.0
 10
10.8472205876
 20
7.2029528862
 30
0.0
 10
10.8236607046
 20
7.2179344575
 30
0.0
 10
10.8007841645
 20
7.2340083455
 30
0.0
 10
10.7786460296
 20
7.2511358477
 30
0.0
 10
10.7572995864
 20
7.2692757279
 30
0.0
 10
10.7367962063
 20
7.288384304
 30
0.0
 10
10.7171852363
 20
7.3084155718
 30
0.0
 10
10.6985138799
 20
7.3293213123
 30
0.0
 10
10.6808270854
 20
7.3510512072
 30
0.0
 10
10.6641674377
 20
7.3735529584
 30
0.0
 10
10.6485750599
 20
7.3967724141
 30
0.0
 10
10.6340874958
 20
7.4206536854
 30
0.0
 10
10.6207396333
 20
7.4451392917
 30
0.0
 10
10.6085636252
 20
7.4701703007
 30
0.0
 10
10.5975888126
 20
7.4956864682
 30
0.0
 10
10.587841653
 20
7.5216263805
 30
0.0
 10
10.5793456585
 20
7.5479276045
 30
0.0
 10
10.5721213404
 20
7.574526819
 30
0.0
 10
10.5661860964
 20
7.6013600249
 30
0.0
 10
10.5615543483
 20
7.6283624891
 30
0.0
 10
10.5582371421
 20
7.655469593
 30
0.0
 10
10.556242757
 20
7.6826150017
 30
0.0
 10
10.5557973918
 20
7.7007268003
 30
0.0
 10
10.5557973918
 20
7.7097657837
 30
0.0
  0
SPLINE
  5
3EA
100
AcDbEntity
  8
0
100
AcDbSpline
 62
7
  6
CONTINUOUS
 70
0
 71
3
 72
61
 73
57
 74
0
 42
0.0000001
 43
0.0000001
 44
0.0000000001
 40
0.0
 40
0.0
 40
0.0
 40
0.0
 40
0.0062941394
 40
0.0096147136
 40
0.0130620412
 40
0.0203644737
 40
0.0282526139
 40
0.0367613395
 40
0.0459143034
 40
0.0557262482
 40
0.0662047948
 40
0.0773516911
 40
0.0891638858
 40
0.1016343599
 40
0.114752637
 40
0.1285052709
 40
0.1428762815
 40
0.1578473789
 40
0.1733981962
 40
0.1895065693
 40
0.2061486574
 40
0.2232990594
 40
0.240931025
 40
0.2590165414
 40
0.2775263981
 40
0.3156963699
 40
0.3551890096
 40
0.3957389734
 40
0.4370711926
 40
0.4789035719
 40
0.5209495527
 40
0.5629206833
 40
0.6045291717
 40
0.6454904521
 40
0.6855257582
 40
0.7243647134
 40
0.7432544935
 40
0.7617490037
 40
0.7798180546
 40
0.7974325102
 40
0.8145643618
 40
0.8311869095
 40
0.8472748502
 40
0.8628043649
 40
0.8777533411
 40
0.8921015363
 40
0.9058307136
 40
0.9189249522
 40
0.9313709661
 40
0.9431583831
 40
0.9542802693
 40
0.9647338207
 40
0.9745209415
 40
0.9836493771
 40
0.9921346612
 40
1.0
 40
1.0
 40
1.0
 40
1.0
 10
12.9182855411
 20
10.0546713025
 30
0.0
 10
12.9174121637
 20
10.0563388984
 30
0.0
 10
12.9159022524
 20
10.0587974684
 30
0.0
 10
12.9135817561
 20
10.0619415128
 30
0.0
 10
12.9109037789
 20
10.0651901766
 30
0.0
 10
12.9070366021
 20
10.0692168885
 30
0.0
 10
12.9017064886
 20
10.0738996074
 30
0.0
 10
12.8956098921
 20
10.0785162578
 30
0.0
 10
12.8887577709
 20
10.0830594785
 30
0.0
 10
12.8811618346
 20
10.0875219658
 30
0.0
 10
12.8728353689
 20
10.0918960058
 30
0.0
 10
12.8637930951
 20
10.0961739097
 30
0.0
 10
12.8540511668
 20
10.100347998
 30
0.0
 10
12.8436270933
 20
10.1044106488
 30
0.0
 10
12.832539738
 20
10.1083544264
 30
0.0
 10
12.8208092524
 20
10.1121720954
 30
0.0
 10
12.808457003
 20
10.11585659
 30
0.0
 10
12.7955055486
 20
10.1194010997
 30
0.0
 10
12.7819785901
 20
10.1227990947
 30
0.0
 10
12.7679008979
 20
10.1260442742
 30
0.0
 10
12.7532982776
 20
10.1291306223
 30
0.0
 10
12.738197523
 20
10.132052457
 30
0.0
 10
12.7226263558
 20
10.1348043557
 30
0.0
 10
12.7066133391
 20
10.1373812483
 30
0.0
 10
12.6844861009
 20
10.1406103451
 30
0.0
 10
12.6559387172
 20
10.1441604799
 30
0.0
 10
12.6207490451
 20
10.1476146246
 30
0.0
 10
12.5845424913
 20
10.1502790763
 30
0.0
 10
12.5475850171
 20
10.1521340238
 30
0.0
 10
12.5101478975
 20
10.1531655722
 30
0.0
 10
12.4725060673
 20
10.1533660204
 30
0.0
 10
12.4349359619
 20
10.1527338971
 30
0.0
 10
12.3977135079
 20
10.1512738883
 30
0.0
 10
12.3611119616
 20
10.1489969253
 30
0.0
 10
12.3254002168
 20
10.1459199757
 30
0.0
 10
12.2963372502
 20
10.1426792611
 30
0.0
 10
12.2737362216
 20
10.1396919303
 30
0.0
 10
12.2573256895
 20
10.1372880002
 30
0.0
 10
12.2413287052
 20
10.1347044878
 30
0.0
 10
12.2257746245
 20
10.1319461433
 30
0.0
 10
12.2106920202
 20
10.1290180527
 30
0.0
 10
12.1961085713
 20
10.125925642
 30
0.0
 10
12.1820510274
 20
10.1226746465
 30
0.0
 10
12.1685451658
 20
10.1192710567
 30
0.0
 10
12.1556157214
 20
10.1157211728
 30
0.0
 10
12.1432863382
 20
10.1120315793
 30
0.0
 10
12.13157954
 20
10.1082090719
 30
0.0
 10
12.1205166593
 20
10.1042606965
 30
0.0
 10
12.1101177811
 20
10.100193744
 30
0.0
 10
12.1004017224
 20
10.0960156476
 30
0.0
 10
12.0913859625
 20
10.0917339949
 30
0.0
 10
12.0830865722
 20
10.0873564867
 30
0.0
 10
12.0755182881
 20
10.0828909055
 30
0.0
 10
12.0686940565
 20
10.0783446699
 30
0.0
 10
12.0626264259
 20
10.0737257613
 30
0.0
 10
12.0589575337
 20
10.0704833199
 30
0.0
 10
12.0572655741
 20
10.0688490123
 30
0.0
  0
SPLINE
  5
3EB
100
AcDbEntity
  8
0
100
AcDbSpline
 62
7
  6
CONTINUOUS
 70
0
 71
3
 72
60
 73
56
 74
0
 42
0.0000001
 43
0.0000001
 44
0.0000000001
 40
0.0
 40
0.0
 40
0.0
 40
0.0
 40
0.0028080817
 40
0.0056358482
 40
0.0085025508
 40
0.0114265677
 40
0.0175099348
 40
0.0240113044
 40
0.0310267126
 40
0.0386289475
 40
0.046871194
 40
0.0557904926
 40
0.0654112187
 40
0.0757477649
 40
0.0868063608
 40
0.0985869518
 40
0.1110840276
 40
0.1242876817
 40
0.1381843001
 40
0.1527568518
 40
0.1679856211
 40
0.1838482328
 40
0.2003200861
 40
0.2173746042
 40
0.2349832343
 40
0.2531158895
 40
0.2908239524
 40
0.3302307812
 40
0.3710488165
 40
0.4129759155
 40
0.4556987799
 40
0.4988962395
 40
0.5422424723
 40
0.5854102027
 40
0.6280739013
 40
0.6699129791
 40
0.7106150104
 40
0.7498790315
 40
0.7874189987
 40
0.8054587019
 40
0.8229687681
 40
0.8399194097
 40
0.8562824243
 40
0.8720315394
 40
0.8871426015
 40
0.9015936349
 40
0.9153654264
 40
0.9284415377
 40
0.9408089288
 40
0.9524585338
 40
0.9633857076
 40
0.9735913301
 40
0.9830831472
 40
0.991877691
 40
1.0
 40
1.0
 40
1.0
 40
1.0
 10
12.7172729469
 20
10.0103968733
 30
0.0
 10
12.7172729466
 20
10.0108534002
 30
0.0
 10
12.7172329775
 20
10.01177015
 30
0.0
 10
12.7170533632
 20
10.0131423591
 30
0.0
 10
12.7167541421
 20
10.0145129253
 30
0.0
 10
12.7161890577
 20
10.0163607319
 30
0.0
 10
12.7151661902
 20
10.0186765439
 30
0.0
 10
12.713482301
 20
10.0213918009
 30
0.0
 10
12.7113323375
 20
10.024077859
 30
0.0
 10
12.7087222238
 20
10.026731133
 30
0.0
 10
12.7056573634
 20
10.0293483463
 30
0.0
 10
12.7021437028
 20
10.031925595
 30
0.0
 10
12.6981878385
 20
10.0344585847
 30
0.0
 10
12.6937972448
 20
10.036942685
 30
0.0
 10
12.6889803877
 20
10.0393732689
 30
0.0
 10
12.6837466125
 20
10.0417455196
 30
0.0
 10
12.6781062274
 20
10.0440547673
 30
0.0
 10
12.6720704077
 20
10.0462963774
 30
0.0
 10
12.6656511732
 20
10.0484657762
 30
0.0
 10
12.6588613804
 20
10.0505586254
 30
0.0
 10
12.6517146459
 20
10.0525706129
 30
0.0
 10
12.6442253476
 20
10.0544976732
 30
0.0
 10
12.6364085696
 20
10.0563358896
 30
0.0
 10
12.6282800746
 20
10.0580814711
 30
0.0
 10
12.6198562569
 20
10.0597309462
 30
0.0
 10
12.6080996678
 20
10.0618247953
 30
0.0
 10
12.5927899576
 20
10.064166002
 30
0.0
 10
12.5737582538
 20
10.0665097733
 30
0.0
 10
12.553987485
 20
10.0684037589
 30
0.0
 10
12.5336373922
 20
10.0698324021
 30
0.0
 10
12.5128722669
 20
10.0707839174
 30
0.0
 10
12.4918598809
 20
10.071250475
 30
0.0
 10
12.4707700212
 20
10.071228228
 30
0.0
 10
12.4497731183
 20
10.0707173633
 30
0.0
 10
12.4290388316
 20
10.0697220902
 30
0.0
 10
12.4087346801
 20
10.0682505975
 30
0.0
 10
12.3890245769
 20
10.0663150232
 30
0.0
 10
12.3700677643
 20
10.0639312665
 30
0.0
 10
12.354829484
 20
10.0615574487
 30
0.0
 10
12.3431368235
 20
10.0594383495
 30
0.0
 10
12.3347654527
 20
10.0577711332
 30
0.0
 10
12.3266924337
 20
10.0560084391
 30
0.0
 10
12.3189340449
 20
10.0541537921
 30
0.0
 10
12.3115059318
 20
10.0522109816
 30
0.0
 10
12.304423048
 20
10.0501839941
 30
0.0
 10
12.2976996414
 20
10.0480768983
 30
0.0
 10
12.2913491887
 20
10.0458940366
 30
0.0
 10
12.2853843966
 20
10.0436397975
 30
0.0
 10
12.2798171389
 20
10.0413187343
 30
0.0
 10
12.2746584213
 20
10.0389355396
 30
0.0
 10
12.2699184077
 20
10.0364948518
 30
0.0
 10
12.265606289
 20
10.0340015515
 30
0.0
 10
12.261730162
 20
10.0314601118
 30
0.0
 10
12.2582978949
 20
10.0288754273
 30
0.0
 10
12.256230151
 20
10.0270562705
 30
0.0
 10
12.2552803802
 20
10.0261388624
 30
0.0
  0
SPLINE
  5
3EC
100
AcDbEntity
  8
0
100
AcDbSpline
 62
7
  6
CONTINUOUS
 70
0
 71
3
 72
17
 73
13
 74
0
 42
0.0000001
 43
0.0000001
 44
0.0000000001
 40
0.0
 40
0.0
 40
0.0
 40
0.0
 40
0.0548653995
 40
0.1099348206
 40
0.2214348222
 40
0.3360991408
 40
0.4553350478
 40
0.5170794787
 40
0.5804143716
 40
0.712316841
 40
0.8519520933
 40
1.0
 40
1.0
 40
1.0
 40
1.0
 10
9.0777270473
 20
9.7067530523
 30
0.0
 10
9.0777270515
 20
9.7073744461
 30
0.0
 10
9.0777665166
 20
9.7086199416
 30
0.0
 10
9.0780038462
 20
9.7111179277
 30
0.0
 10
9.0786035156
 20
9.7142551742
 30
0.0
 10
9.0797950707
 20
9.7179900239
 30
0.0
 10
9.0811651311
 20
9.7210528644
 30
0.0
 10
9.0824834681
 20
9.723486683
 30
0.0
 10
9.0839930173
 20
9.7259763509
 30
0.0
 10
9.0861849115
 20
9.7290781328
 30
0.0
 10
9.0892408091
 20
9.7327231814
 30
0.0
 10
9.0915136319
 20
9.7350620763
 30
0.0
 10
9.0927196484
 20
9.7362269988
 30
0.0
  0
SPLINE
  5
3ED
100
AcDbEntity
  8
0
100
AcDbSpline
 62
7
  6
CONTINUOUS
 70
0
 71
3
 72
10
 73
6
 74
0
 42
0.0000001
 43
0.0000001
 44
0.0000000001
 40
0.0
 40
0.0
 40
0.0
 40
0.0
 40
0.4728656747
 40
0.7291208893
 40
1.0
 40
1.0
 40
1.0
 40
1.0
 10
9.0818915942
 20
9.6914741808
 30
0.0
 10
9.0832034796
 20
9.6939244966
 30
0.0
 10
9.0856059195
 20
9.6975068153
 30
0.0
 10
9.0894095187
 20
9.7019902555
 30
0.0
 10
9.0915744726
 20
9.7042112149
 30
0.0
 10
9.0927196484
 20
9.7053173698
 30
0.0
  0
SPLINE
  5
3EE
100
AcDbEntity
  8
0
100
AcDbSpline
 62
7
  6
CONTINUOUS
 70
0
 71
3
 72
71
 73
67
 74
0
 42
0.0000001
 43
0.0000001
 44
0.0000000001
 40
0.0
 40
0.0
 40
0.0
 40
0.0
 40
0.0155842357
 40
0.031115943
 40
0.0465952487
 40
0.0620238831
 40
0.0774034484
 40
0.0927362827
 40
0.1080251234
 40
0.1232731737
 40
0.1384840555
 40
0.1536617759
 40
0.1688106894
 40
0.1839354528
 40
0.1990409785
 40
0.2141323826
 40
0.2292149324
 40
0.2442939897
 40
0.2593749538
 40
0.2744632037
 40
0.2895640404
 40
0.3046826304
 40
0.3198239511
 40
0.3349927396
 40
0.3501934435
 40
0.3654301766
 40
0.3807066777
 40
0.3960262752
 40
0.4113918557
 40
0.4268058391
 40
0.4422701589
 40
0.4577862478
 40
0.4733550285
 40
0.4889769092
 40
0.5046517848
 40
0.5203790431
 40
0.5361575763
 40
0.5519857963
 40
0.5678616538
 40
0.5837826609
 40
0.5997459179
 40
0.6157481418
 40
0.6317856999
 40
0.6478546445
 40
0.6639507499
 40
0.6800695506
 40
0.6962063818
 40
0.7123564201
 40
0.7285147273
 40
0.7446762933
 40
0.7608360799
 40
0.7769890645
 40
0.7931302835
 40
0.8092548753
 40
0.8253581239
 40
0.8414355006
 40
0.8574827053
 40
0.873495705
 40
0.8894707706
 40
0.9054045132
 40
0.921293919
 40
0.9371363616
 40
0.9529297193
 40
0.9686720808
 40
0.9843626423
 40
1.0
 40
1.0
 40
1.0
 40
1.0
 10
10.5557973918
 20
7.7097657837
 30
0.0
 10
10.5557973918
 20
7.7187740605
 30
0.0
 10
10.5562382452
 20
7.7367634449
 30
0.0
 10
10.558228257
 20
7.7636341845
 30
0.0
 10
10.5615413713
 20
7.7902841965
 30
0.0
 10
10.5661694362
 20
7.816648216
 30
0.0
 10
10.5721015313
 20
7.8426630917
 30
0.0
 10
10.5793233445
 20
7.8682659839
 30
0.0
 10
10.587817576
 20
7.8933951978
 30
0.0
 10
10.5975637948
 20
7.9179901288
 30
0.0
 10
10.6085385506
 20
7.9419914674
 30
0.0
 10
10.6207154279
 20
7.9653413244
 30
0.0
 10
10.6340651063
 20
7.9879833758
 30
0.0
 10
10.6485554318
 20
8.0098629976
 30
0.0
 10
10.6641514934
 20
8.0309273992
 30
0.0
 10
10.6808157021
 20
8.051125755
 30
0.0
 10
10.6985078689
 20
8.0704093426
 30
0.0
 10
10.7171853234
 20
8.0887316466
 30
0.0
 10
10.7368030146
 20
8.1060484739
 30
0.0
 10
10.7573136212
 20
8.1223180601
 30
0.0
 10
10.7786676655
 20
8.1375011719
 30
0.0
 10
10.8008136363
 20
8.1515611988
 30
0.0
 10
10.8236981007
 20
8.1644642638
 30
0.0
 10
10.8472658475
 20
8.1761792918
 30
0.0
 10
10.871460025
 20
8.1866780777
 30
0.0
 10
10.8962222782
 20
8.1959353547
 30
0.0
 10
10.9214928905
 20
8.203928854
 30
0.0
 10
10.9472109285
 20
8.2106393542
 30
0.0
 10
10.9733143856
 20
8.2160507391
 30
0.0
 10
10.9997403337
 20
8.2201500425
 30
0.0
 10
11.0264250807
 20
8.2229274562
 30
0.0
 10
11.0533043226
 20
8.2243763566
 30
0.0
 10
11.0803132974
 20
8.2244933176
 30
0.0
 10
11.1073869401
 20
8.2232781172
 30
0.0
 10
11.1344600372
 20
8.2207337373
 30
0.0
 10
11.1614673868
 20
8.2168663788
 30
0.0
 10
11.1883439545
 20
8.2116854215
 30
0.0
 10
11.2150250287
 20
8.2052034002
 30
0.0
 10
11.2414463745
 20
8.1974359743
 30
0.0
 10
11.2675443869
 20
8.18840189
 30
0.0
 10
11.2932562398
 20
8.1781229318
 30
0.0
 10
11.3185200444
 20
8.1666238889
 30
0.0
 10
11.3432749972
 20
8.1539324882
 30
0.0
 10
11.36746152
 20
8.1400793154
 30
0.0
 10
11.3910214029
 20
8.1250977441
 30
0.0
 10
11.413897943
 20
8.1090238561
 30
0.0
 10
11.436036078
 20
8.091896354
 30
0.0
 10
11.4573825211
 20
8.0737564737
 30
0.0
 10
11.4778859013
 20
8.0546478976
 30
0.0
 10
11.4974968713
 20
8.0346166298
 30
0.0
 10
11.5161682277
 20
8.0137108894
 30
0.0
 10
11.5338550222
 20
7.9919809944
 30
0.0
 10
11.5505146698
 20
7.9694792432
 30
0.0
 10
11.5661070477
 20
7.9462597875
 30
0.0
 10
11.5805946118
 20
7.9223785162
 30
0.0
 10
11.5939424743
 20
7.8978929099
 30
0.0
 10
11.6061184823
 20
7.8728619009
 30
0.0
 10
11.6170932949
 20
7.8473457334
 30
0.0
 10
11.6268404545
 20
7.8214058212
 30
0.0
 10
11.635336449
 20
7.7951045971
 30
0.0
 10
11.6425607672
 20
7.7685053827
 30
0.0
 10
11.6484960112
 20
7.7416721768
 30
0.0
 10
11.6531277593
 20
7.7146697125
 30
0.0
 10
11.6564449655
 20
7.6875626087
 30
0.0
 10
11.6584393506
 20
7.6604171999
 30
0.0
 10
11.6588847158
 20
7.6423054013
 30
0.0
 10
11.6588847158
 20
7.6332664179
 30
0.0
  0
SPLINE
  5
3EF
100
AcDbEntity
  8
0
100
AcDbSpline
 62
7
  6
CONTINUOUS
 70
0
 71
3
 72
23
 73
19
 74
0
 42
0.0000001
 43
0.0000001
 44
0.0000000001
 40
0.0
 40
0.0
 40
0.0
 40
0.0
 40
0.0749625467
 40
0.1455683586
 40
0.2121600105
 40
0.2751629606
 40
0.3350981064
 40
0.3925830815
 40
0.4483293425
 40
0.503123567
 40
0.557798174
 40
0.6131915492
 40
0.6701069129
 40
0.7292781025
 40
0.7913516244
 40
0.8568785425
 40
0.9263112386
 40
1.0
 40
1.0
 40
1.0
 40
1.0
 10
9.262417207
 20
9.6574652642
 30
0.0
 10
9.261651986
 20
9.658177384
 30
0.0
 10
9.2602084321
 20
9.6596070597
 30
0.0
 10
9.2582606664
 20
9.661837588
 30
0.0
 10
9.2565997012
 20
9.6640857484
 30
0.0
 10
9.2552280936
 20
9.6663496554
 30
0.0
 10
9.2541480463
 20
9.6686272496
 30
0.0
 10
9.2533620685
 20
9.6709162456
 30
0.0
 10
9.2528722974
 20
9.6732136662
 30
0.0
 10
9.2526805228
 20
9.6755158898
 30
0.0
 10
9.2527874738
 20
9.6778187265
 30
0.0
 10
9.2531927314
 20
9.6801179234
 30
0.0
 10
9.2538948255
 20
9.6824096208
 30
0.0
 10
9.2548915226
 20
9.6846907194
 30
0.0
 10
9.2561805795
 20
9.6869587129
 30
0.0
 10
9.2577596281
 20
9.6892116353
 30
0.0
 10
9.2596262152
 20
9.6914472882
 30
0.0
 10
9.261017608
 20
9.6928807251
 30
0.0
 10
9.261756678
 20
9.693594612
 30
0.0
  0
SPLINE
  5
3F0
100
AcDbEntity
  8
0
100
AcDbSpline
 62
7
  6
CONTINUOUS
 70
0
 71
3
 72
15
 73
11
 74
0
 42
0.0000001
 43
0.0000001
 44
0.0000000001
 40
0.0
 40
0.0
 40
0.0
 40
0.0
 40
0.1098906373
 40
0.2214016819
 40
0.3360757822
 40
0.4553202911
 40
0.5803741285
 40
0.7122942594
 40
0.8519453747
 40
1.0
 40
1.0
 40
1.0
 40
1.0
 10
9.2827270531
 20
9.6468652308
 30
0.0
 10
9.2827270527
 20
9.6475299063
 30
0.0
 10
9.282812384
 20
9.6488705652
 30
0.0
 10
9.2831951541
 20
9.6508719189
 30
0.0
 10
9.2838315208
 20
9.6528669783
 30
0.0
 10
9.2847197862
 20
9.6548527485
 30
0.0
 10
9.2858580025
 20
9.6568273286
 30
0.0
 10
9.2872442735
 20
9.6587889918
 30
0.0
 10
9.2888764889
 20
9.6607358921
 30
0.0
 10
9.2900903541
 20
9.6619850666
 30
0.0
 10
9.2907344545
 20
9.6626072199
 30
0.0
  0
SPLINE
  5
3F1
100
AcDbEntity
  8
0
100
AcDbSpline
 62
7
  6
CONTINUOUS
 70
0
 71
3
 72
61
 73
57
 74
0
 42
0.0000001
 43
0.0000001
 44
0.0000000001
 40
0.0
 40
0.0
 40
0.0
 40
0.0
 40
0.0062941394
 40
0.0096147136
 40
0.0130620412
 40
0.0203644737
 40
0.0282526139
 40
0.0367613395
 40
0.0459143034
 40
0.0557262482
 40
0.0662047948
 40
0.0773516911
 40
0.0891638858
 40
0.1016343599
 40
0.114752637
 40
0.1285052709
 40
0.1428762815
 40
0.1578473789
 40
0.1733981962
 40
0.1895065693
 40
0.2061486574
 40
0.2232990594
 40
0.240931025
 40
0.2590165414
 40
0.2775263981
 40
0.3156963699
 40
0.3551890096
 40
0.3957389734
 40
0.4370711926
 40
0.4789035719
 40
0.5209495527
 40
0.5629206833
 40
0.6045291717
 40
0.6454904521
 40
0.6855257582
 40
0.7243647134
 40
0.7432544935
 40
0.7617490037
 40
0.7798180546
 40
0.7974325102
 40
0.8145643618
 40
0.8311869095
 40
0.8472748502
 40
0.8628043649
 40
0.8777533411
 40
0.8921015363
 40
0.9058307136
 40
0.9189249522
 40
0.9313709661
 40
0.9431583831
 40
0.9542802693
 40
0.9647338207
 40
0.9745209415
 40
0.9836493771
 40
0.9921346612
 40
1.0
 40
1.0
 40
1.0
 40
1.0
 10
9.9537396154
 20
9.69113966
 30
0.0
 10
9.952866238
 20
9.6928072559
 30
0.0
 10
9.9513563267
 20
9.6952658259
 30
0.0
 10
9.9490358304
 20
9.6984098703
 30
0.0
 10
9.9463578532
 20
9.7016585341
 30
0.0
 10
9.9424906764
 20
9.705685246
 30
0.0
 10
9.9371605629
 20
9.7103679649
 30
0.0
 10
9.9310639665
 20
9.7149846153
 30
0.0
 10
9.9242118452
 20
9.719527836
 30
0.0
 10
9.9166159089
 20
9.7239903233
 30
0.0
 10
9.9082894433
 20
9.7283643633
 30
0.0
 10
9.8992471694
 20
9.7326422672
 30
0.0
 10
9.8895052411
 20
9.7368163555
 30
0.0
 10
9.8790811676
 20
9.7408790063
 30
0.0
 10
9.8679938124
 20
9.7448227839
 30
0.0
 10
9.8562633267
 20
9.7486404529
 30
0.0
 10
9.8439110773
 20
9.7523249475
 30
0.0
 10
9.8309596229
 20
9.7558694572
 30
0.0
 10
9.8174326644
 20
9.7592674522
 30
0.0
 10
9.8033549723
 20
9.7625126317
 30
0.0
 10
9.7887523519
 20
9.7655989798
 30
0.0
 10
9.7736515973
 20
9.7685208145
 30
0.0
 10
9.7580804302
 20
9.7712727132
 30
0.0
 10
9.7420674134
 20
9.7738496058
 30
0.0
 10
9.7199401752
 20
9.7770787026
 30
0.0
 10
9.6913927915
 20
9.7806288374
 30
0.0
 10
9.6562031194
 20
9.7840829821
 30
0.0
 10
9.6199965656
 20
9.7867474338
 30
0.0
 10
9.5830390914
 20
9.7886023813
 30
0.0
 10
9.5456019718
 20
9.7896339297
 30
0.0
 10
9.5079601416
 20
9.7898343779
 30
0.0
 10
9.4703900362
 20
9.7892022546
 30
0.0
 10
9.4331675823
 20
9.7877422458
 30
0.0
 10
9.3965660359
 20
9.7854652828
 30
0.0
 10
9.3608542911
 20
9.7823883332
 30
0.0
 10
9.3317913245
 20
9.7791476186
 30
0.0
 10
9.309190296
 20
9.7761602878
 30
0.0
 10
9.2927797638
 20
9.7737563577
 30
0.0
 10
9.2767827795
 20
9.7711728453
 30
0.0
 10
9.2612286988
 20
9.7684145008
 30
0.0
 10
9.2461460946
 20
9.7654864102
 30
0.0
 10
9.2315626457
 20
9.7623939995
 30
0.0
 10
9.2175051018
 20
9.759143004
 30
0.0
 10
9.2039992401
 20
9.7557394142
 30
0.0
 10
9.1910697957
 20
9.7521895303
 30
0.0
 10
9.1787404125
 20
9.7484999368
 30
0.0
 10
9.1670336143
 20
9.7446774294
 30
0.0
 10
9.1559707336
 20
9.740729054
 30
0.0
 10
9.1455718554
 20
9.7366621015
 30
0.0
 10
9.1358557967
 20
9.7324840051
 30
0.0
 10
9.1268400368
 20
9.7282023524
 30
0.0
 10
9.1185406465
 20
9.7238248442
 30
0.0
 10
9.1109723625
 20
9.719359263
 30
0.0
 10
9.1041481308
 20
9.7148130274
 30
0.0
 10
9.0980805002
 20
9.7101941188
 30
0.0
 10
9.094411608
 20
9.7069516774
 30
0.0
 10
9.0927196484
 20
9.7053173698
 30
0.0
  0
SPLINE
  5
3F2
100
AcDbEntity
  8
0
100
AcDbSpline
 62
7
  6
CONTINUOUS
 70
0
 71
3
 72
18
 73
14
 74
0
 42
0.0000001
 43
0.0000001
 44
0.0000000001
 40
0.0
 40
0.0
 40
0.0
 40
0.0
 40
0.150466514
 40
0.2917140478
 40
0.4244427524
 40
0.4879100217
 40
0.5496093045
 40
0.6682623303
 40
0.7817883775
 40
0.8371380958
 40
0.8918079631
 40
0.946019364
 40
1.0
 40
1.0
 40
1.0
 40
1.0
 10
13.6896803172
 20
8.4111251609
 30
0.0
 10
13.6883374697
 20
8.4098280696
 30
0.0
 10
13.6856535653
 20
8.4073943349
 30
0.0
 10
13.6814978437
 20
8.4041510486
 30
0.0
 10
13.6779875979
 20
8.401857233
 30
0.0
 10
13.6751885092
 20
8.4003039206
 30
0.0
 10
13.672471769
 20
8.3989703654
 30
0.0
 10
13.6690749735
 20
8.3976228629
 30
0.0
 10
13.6656177636
 20
8.3967032656
 30
0.0
 10
13.662879537
 20
8.3962502906
 30
0.0
 10
13.6608501411
 20
8.3960492113
 30
0.0
 10
13.658828951
 20
8.3959842658
 30
0.0
 10
13.6574861234
 20
8.396031773
 30
0.0
 10
13.6568179327
 20
8.3960781116
 30
0.0
  0
SPLINE
  5
3F3
100
AcDbEntity
  8
0
100
AcDbSpline
 62
7
  6
CONTINUOUS
 70
0
 71
3
 72
60
 73
56
 74
0
 42
0.0000001
 43
0.0000001
 44
0.0000000001
 40
0.0
 40
0.0
 40
0.0
 40
0.0
 40
0.0028080817
 40
0.0056358482
 40
0.0085025508
 40
0.0114265677
 40
0.0175099348
 40
0.0240113044
 40
0.0310267126
 40
0.0386289475
 40
0.046871194
 40
0.0557904926
 40
0.0654112187
 40
0.0757477649
 40
0.0868063608
 40
0.0985869518
 40
0.1110840276
 40
0.1242876817
 40
0.1381843001
 40
0.1527568518
 40
0.1679856211
 40
0.1838482328
 40
0.2003200861
 40
0.2173746042
 40
0.2349832343
 40
0.2531158895
 40
0.2908239524
 40
0.3302307812
 40
0.3710488165
 40
0.4129759155
 40
0.4556987799
 40
0.4988962395
 40
0.5422424723
 40
0.5854102027
 40
0.6280739013
 40
0.6699129791
 40
0.7106150104
 40
0.7498790315
 40
0.7874189987
 40
0.8054587019
 40
0.8229687681
 40
0.8399194097
 40
0.8562824243
 40
0.8720315394
 40
0.8871426015
 40
0.9015936349
 40
0.9153654264
 40
0.9284415377
 40
0.9408089288
 40
0.9524585338
 40
0.9633857076
 40
0.9735913301
 40
0.9830831472
 40
0.991877691
 40
1.0
 40
1.0
 40
1.0
 40
1.0
 10
9.7527270212
 20
9.6468652308
 30
0.0
 10
9.7527270209
 20
9.6473217577
 30
0.0
 10
9.7526870519
 20
9.6482385075
 30
0.0
 10
9.7525074375
 20
9.6496107166
 30
0.0
 10
9.7522082164
 20
9.6509812828
 30
0.0
 10
9.751643132
 20
9.6528290894
 30
0.0
 10
9.7506202646
 20
9.6551449014
 30
0.0
 10
9.7489363753
 20
9.6578601584
 30
0.0
 10
9.7467864118
 20
9.6605462165
 30
0.0
 10
9.7441762981
 20
9.6631994904
 30
0.0
 10
9.7411114377
 20
9.6658167038
 30
0.0
 10
9.7375977771
 20
9.6683939525
 30
0.0
 10
9.7336419128
 20
9.6709269421
 30
0.0
 10
9.7292513192
 20
9.6734110425
 30
0.0
 10
9.724434462
 20
9.6758416264
 30
0.0
 10
9.7192006868
 20
9.6782138771
 30
0.0
 10
9.7135603017
 20
9.6805231248
 30
0.0
 10
9.707524482
 20
9.6827647348
 30
0.0
 10
9.7011052475
 20
9.6849341337
 30
0.0
 10
9.6943154547
 20
9.6870269829
 30
0.0
 10
9.6871687202
 20
9.6890389704
 30
0.0
 10
9.6796794219
 20
9.6909660307
 30
0.0
 10
9.671862644
 20
9.6928042471
 30
0.0
 10
9.663734149
 20
9.6945498286
 30
0.0
 10
9.6553103312
 20
9.6961993037
 30
0.0
 10
9.6435537421
 20
9.6982931528
 30
0.0
 10
9.628244032
 20
9.7006343595
 30
0.0
 10
9.6092123281
 20
9.7029781308
 30
0.0
 10
9.5894415593
 20
9.7048721164
 30
0.0
 10
9.5690914665
 20
9.7063007596
 30
0.0
 10
9.5483263413
 20
9.7072522749
 30
0.0
 10
9.5273139552
 20
9.7077188325
 30
0.0
 10
9.5062240955
 20
9.7076965855
 30
0.0
 10
9.4852271926
 20
9.7071857208
 30
0.0
 10
9.4644929059
 20
9.7061904477
 30
0.0
 10
9.4441887544
 20
9.704718955
 30
0.0
 10
9.4244786512
 20
9.7027833807
 30
0.0
 10
9.4055218386
 20
9.700399624
 30
0.0
 10
9.3902835583
 20
9.6980258062
 30
0.0
 10
9.3785908978
 20
9.695906707
 30
0.0
 10
9.3702195271
 20
9.6942394907
 30
0.0
 10
9.362146508
 20
9.6924767966
 30
0.0
 10
9.3543881192
 20
9.6906221496
 30
0.0
 10
9.3469600061
 20
9.6886793391
 30
0.0
 10
9.3398771223
 20
9.6866523516
 30
0.0
 10
9.3331537157
 20
9.6845452558
 30
0.0
 10
9.326803263
 20
9.6823623941
 30
0.0
 10
9.3208384709
 20
9.680108155
 30
0.0
 10
9.3152712132
 20
9.6777870918
 30
0.0
 10
9.3101124956
 20
9.6754038971
 30
0.0
 10
9.305372482
 20
9.6729632093
 30
0.0
 10
9.3010603633
 20
9.670469909
 30
0.0
 10
9.2971842363
 20
9.6679284693
 30
0.0
 10
9.2937519692
 20
9.6653437848
 30
0.0
 10
9.2916842253
 20
9.663524628
 30
0.0
 10
9.2907344545
 20
9.6626072199
 30
0.0
  0
SPLINE
  5
3F4
100
AcDbEntity
  8
0
100
AcDbSpline
 62
7
  6
CONTINUOUS
 70
0
 71
3
 72
75
 73
71
 74
0
 42
0.0000001
 43
0.0000001
 44
0.0000000001
 40
0.0
 40
0.0
 40
0.0
 40
0.0
 40
0.0027164437
 40
0.0054532632
 40
0.008230346
 40
0.0110666464
 40
0.0139798699
 40
0.0169861878
 40
0.0201001566
 40
0.0233346913
 40
0.0267010494
 40
0.0302090131
 40
0.0338669439
 40
0.0376819113
 40
0.0416599047
 40
0.0458058449
 40
0.0501237789
 40
0.0546169956
 40
0.0592880173
 40
0.0641388057
 40
0.0691707576
 40
0.0743847423
 40
0.0853596893
 40
0.097063583
 40
0.1094903675
 40
0.1226296663
 40
0.1364673952
 40
0.1509862671
 40
0.1661662218
 40
0.1819847375
 40
0.1984170526
 40
0.215436398
 40
0.2330142101
 40
0.2511202863
 40
0.2697229007
 40
0.2887889595
 40
0.3082841412
 40
0.3281730045
 40
0.3689841669
 40
0.4109214093
 40
0.4536716467
 40
0.4969138932
 40
0.5403224233
 40
0.5835699246
 40
0.6263306237
 40
0.6682834289
 40
0.7091151097
 40
0.7290160232
 40
0.7485244135
 40
0.7676048055
 40
0.7862228369
 40
0.8043453687
 40
0.8219406362
 40
0.8389783858
 40
0.8554299942
 40
0.8712686284
 40
0.8864694685
 40
0.9010099156
 40
0.9148698199
 40
0.9280317975
 40
0.9404816662
 40
0.9522089108
 40
0.963207332
 40
0.973475875
 40
0.97833824
 40
0.9830207122
 40
0.9875253169
 40
0.991854608
 40
0.9960116191
 40
1.0
 40
1.0
 40
1.0
 40
1.0
 10
13.7225427018
 20
9.3438017995
 30
0.0
 10
13.7234292308
 20
9.3437403193
 30
0.0
 10
13.7252044013
 20
9.3435366779
 30
0.0
 10
13.7278445548
 20
9.3429916773
 30
0.0
 10
13.7304647459
 20
9.3422072519
 30
0.0
 10
13.7330631392
 20
9.3411842252
 30
0.0
 10
13.7356383412
 20
9.3399233928
 30
0.0
 10
13.7381890763
 20
9.3384258397
 30
0.0
 10
13.7407141612
 20
9.3366926015
 30
0.0
 10
13.7432124357
 20
9.3347247366
 30
0.0
 10
13.7456828822
 20
9.332523466
 30
0.0
 10
13.7481243874
 20
9.330089937
 30
0.0
 10
13.75053589
 20
9.3274254311
 30
0.0
 10
13.7529163633
 20
9.3245313297
 30
0.0
 10
13.7552646631
 20
9.3214090268
 30
0.0
 10
13.757579753
 20
9.3180601014
 30
0.0
 10
13.7598605465
 20
9.3144861983
 30
0.0
 10
13.7621059085
 20
9.310689052
 30
0.0
 10
13.7643148209
 20
9.3066705651
 30
0.0
 10
13.7664861602
 20
9.3024327032
 30
0.0
 10
13.768618887
 20
9.2979775549
 30
0.0
 10
13.7714582647
 20
9.2916418889
 30
0.0
 10
13.7748918708
 20
9.2831841491
 30
0.0
 10
13.7787743764
 20
9.2723730213
 30
0.0
 10
13.7824787697
 20
9.2607543649
 30
0.0
 10
13.7859975938
 20
9.2483513057
 30
0.0
 10
13.7893237432
 20
9.2351883532
 30
0.0
 10
13.7924504853
 20
9.2212917276
 30
0.0
 10
13.7953714654
 20
9.2066891526
 30
0.0
 10
13.7980807294
 20
9.1914098225
 30
0.0
 10
13.8005727681
 20
9.1754843373
 30
0.0
 10
13.8028425182
 20
9.1589446307
 30
0.0
 10
13.8048853579
 20
9.1418238854
 30
0.0
 10
13.8066971156
 20
9.1241564687
 30
0.0
 10
13.8082741122
 20
9.1059778652
 30
0.0
 10
13.8096131345
 20
9.0873246113
 30
0.0
 10
13.8107114873
 20
9.06823416
 30
0.0
 10
13.8118617578
 20
9.0420236327
 30
0.0
 10
13.81266997
 20
9.0084525953
 30
0.0
 10
13.8126507363
 20
8.9673931475
 30
0.0
 10
13.8116499252
 20
8.9255503986
 30
0.0
 10
13.8096753666
 20
8.8832606093
 30
0.0
 10
13.8067427608
 20
8.8408633992
 30
0.0
 10
13.8028756559
 20
8.7986993634
 30
0.0
 10
13.7981052801
 20
8.7571070898
 30
0.0
 10
13.7924701588
 20
8.7164207987
 30
0.0
 10
13.7870465518
 20
8.683264961
 30
0.0
 10
13.7822976258
 20
8.6574473602
 30
0.0
 10
13.7785804555
 20
8.6386769096
 30
0.0
 10
13.7746850228
 20
8.6203714939
 30
0.0
 10
13.7706191542
 20
8.6025678691
 30
0.0
 10
13.7663910611
 20
8.5853018131
 30
0.0
 10
13.7620092822
 20
8.5686079965
 30
0.0
 10
13.757482681
 20
8.55251992
 30
0.0
 10
13.7528204052
 20
8.5370698546
 30
0.0
 10
13.7480318654
 20
8.5222887729
 30
0.0
 10
13.7431267422
 20
8.5082062634
 30
0.0
 10
13.7381149518
 20
8.4948504648
 30
0.0
 10
13.7330066091
 20
8.4822480192
 30
0.0
 10
13.7278119881
 20
8.4704239905
 30
0.0
 10
13.7225415319
 20
8.4594018188
 30
0.0
 10
13.7172057491
 20
8.4492031081
 30
0.0
 10
13.711815268
 20
8.4398480702
 30
0.0
 10
13.707206083
 20
8.4326444911
 30
0.0
 10
13.70349164
 20
8.4273316857
 30
0.0
 10
13.7007495698
 20
8.4236422324
 30
0.0
 10
13.698001849
 20
8.4201768765
 30
0.0
 10
13.6952496945
 20
8.4169373577
 30
0.0
 10
13.6924946662
 20
8.4139254319
 30
0.0
 10
13.690618772
 20
8.4120316386
 30
0.0
 10
13.6896803172
 20
8.4111251609
 30
0.0
  0
SPLINE
  5
3F5
100
AcDbEntity
  8
0
100
AcDbSpline
 62
7
  6
CONTINUOUS
 70
0
 71
3
 72
68
 73
64
 74
0
 42
0.0000001
 43
0.0000001
 44
0.0000000001
 40
0.0
 40
0.0
 40
0.0
 40
0.0
 40
0.0078496328
 40
0.0150471261
 40
0.0216914136
 40
0.0248491851
 40
0.0279214761
 40
0.0309298772
 40
0.0338975589
 40
0.036848784
 40
0.0398082473
 40
0.0428004268
 40
0.045848912
 40
0.0489759122
 40
0.0522018312
 40
0.0590173826
 40
0.0626417291
 40
0.0664258498
 40
0.0745105727
 40
0.0833384115
 40
0.0929519262
 40
0.1033773889
 40
0.11462835
 40
0.1267085056
 40
0.1396136618
 40
0.1533330601
 40
0.1678505989
 40
0.183145657
 40
0.1991935787
 40
0.215966265
 40
0.2334326172
 40
0.2515587452
 40
0.27030829
 40
0.2896427422
 40
0.3095215691
 40
0.3299024098
 40
0.3719918319
 40
0.4155444996
 40
0.4601748359
 40
0.5054844346
 40
0.5510669715
 40
0.5965129491
 40
0.6414144602
 40
0.6853699224
 40
0.7279889359
 40
0.7486801476
 40
0.7688984643
 40
0.7886004294
 40
0.8077443182
 40
0.8262902484
 40
0.8442003491
 40
0.8614391016
 40
0.8779735331
 40
0.8937734401
 40
0.9088118532
 40
0.9230654493
 40
0.9365149658
 40
0.9491459769
 40
0.9609498848
 40
0.9719248238
 40
0.9820774074
 40
0.9914257833
 40
1.0
 40
1.0
 40
1.0
 40
1.0
 10
9.7736973963
 20
9.6580914026
 30
0.0
 10
9.7747709637
 20
9.6591283891
 30
0.0
 10
9.7767385033
 20
9.6612145255
 30
0.0
 10
9.7792070743
 20
9.6645315599
 30
0.0
 10
9.7807670968
 20
9.6673782263
 30
0.0
 10
9.7816731379
 20
9.6696551856
 30
0.0
 10
9.782181814
 20
9.6713390236
 30
0.0
 10
9.7825302602
 20
9.6730263627
 30
0.0
 10
9.7827179962
 20
9.674716003
 30
0.0
 10
9.7827448431
 20
9.676406561
 30
0.0
 10
9.7826107093
 20
9.6780966566
 30
0.0
 10
9.7823157592
 20
9.6797849075
 30
0.0
 10
9.7818604977
 20
9.6814700148
 30
0.0
 10
9.7812453611
 20
9.6831508657
 30
0.0
 10
9.7801939645
 20
9.6854259563
 30
0.0
 10
9.7788303273
 20
9.6876503347
 30
0.0
 10
9.7772010152
 20
9.6898104747
 30
0.0
 10
9.7752877043
 20
9.6920529009
 30
0.0
 10
9.7724850865
 20
9.6948263353
 30
0.0
 10
9.7685853651
 20
9.6980341313
 30
0.0
 10
9.764086194
 20
9.7011866318
 30
0.0
 10
9.7589979179
 20
9.7042772429
 30
0.0
 10
9.7533318321
 20
9.7072994351
 30
0.0
 10
9.747100891
 20
9.7102463086
 30
0.0
 10
9.7403195017
 20
9.7131109559
 30
0.0
 10
9.7330035682
 20
9.7158865942
 30
0.0
 10
9.7251703641
 20
9.7185665606
 30
0.0
 10
9.716838479
 20
9.7211443576
 30
0.0
 10
9.7080277831
 20
9.7236137636
 30
0.0
 10
9.6987593423
 20
9.7259687997
 30
0.0
 10
9.6890553481
 20
9.7282037277
 30
0.0
 10
9.6789390786
 20
9.7303131298
 30
0.0
 10
9.6684348266
 20
9.7322919051
 30
0.0
 10
9.6575678323
 20
9.7341352259
 30
0.0
 10
9.6463641983
 20
9.7358386502
 30
0.0
 10
9.6308465799
 20
9.7379402673
 30
0.0
 10
9.6108073859
 20
9.7401767533
 30
0.0
 10
9.5861173777
 20
9.7422199883
 30
0.0
 10
9.560769919
 20
9.7436302665
 30
0.0
 10
9.5350087636
 20
9.7443938321
 30
0.0
 10
9.5090814647
 20
9.744503153
 30
0.0
 10
9.4832372903
 20
9.7439571435
 30
0.0
 10
9.4577246107
 20
9.7427612128
 30
0.0
 10
9.4327887895
 20
9.7409270168
 30
0.0
 10
9.4124937799
 20
9.7388620442
 30
0.0
 10
9.3967325867
 20
9.7368944594
 30
0.0
 10
9.3853194643
 20
9.7352866282
 30
0.0
 10
9.3742251058
 20
9.7335361002
 30
0.0
 10
9.3634761648
 20
9.7316471103
 30
0.0
 10
9.353098483
 20
9.7296242541
 30
0.0
 10
9.3431169951
 20
9.7274724144
 30
0.0
 10
9.333555656
 20
9.7251968285
 30
0.0
 10
9.3244373847
 20
9.7228030322
 30
0.0
 10
9.3157840171
 20
9.7202968101
 30
0.0
 10
9.3076162208
 20
9.7176842415
 30
0.0
 10
9.2999534363
 20
9.714971668
 30
0.0
 10
9.2928138383
 20
9.7121656083
 30
0.0
 10
9.2862142479
 20
9.7092727798
 30
0.0
 10
9.2801700525
 20
9.7063000318
 30
0.0
 10
9.2746952591
 20
9.7032543126
 30
0.0
 10
9.2698020267
 20
9.7001422442
 30
0.0
 10
9.2655019685
 20
9.6969708984
 30
0.0
 10
9.2629293443
 20
9.6947273207
 30
0.0
 10
9.261756678
 20
9.693594612
 30
0.0
  0
SPLINE
  5
3F6
100
AcDbEntity
  8
0
100
AcDbSpline
 62
7
  6
CONTINUOUS
 70
0
 71
3
 72
31
 73
27
 74
0
 42
0.0000001
 43
0.0000001
 44
0.0000000001
 40
0.0
 40
0.0
 40
0.0
 40
0.0
 40
0.0605355681
 40
0.1196695499
 40
0.1751471955
 40
0.2264359356
 40
0.2738047415
 40
0.317735526
 40
0.3970785943
 40
0.4674276663
 40
0.5307570944
 40
0.5884185272
 40
0.641396718
 40
0.6904765669
 40
0.7363599972
 40
0.779764366
 40
0.8008091742
 40
0.8215648402
 40
0.8421712963
 40
0.8627933802
 40
0.8836204419
 40
0.9048749466
 40
0.9268147916
 40
0.9497401215
 40
0.9739998496
 40
1.0
 40
1.0
 40
1.0
 40
1.0
 10
10.786002968
 20
7.6896151754
 30
0.0
 10
10.7868642566
 20
7.6871913126
 30
0.0
 10
10.7883756897
 20
7.6823298977
 30
0.0
 10
10.7900778807
 20
7.6750792961
 30
0.0
 10
10.7912530607
 20
7.6681239657
 30
0.0
 10
10.7919763884
 20
7.6616112148
 30
0.0
 10
10.7923318669
 20
7.6555599803
 30
0.0
 10
10.792405015
 20
7.648307084
 30
0.0
 10
10.7919348438
 20
7.6400808111
 30
0.0
 10
10.7906163573
 20
7.631113772
 30
0.0
 10
10.7887146018
 20
7.6231970289
 30
0.0
 10
10.7863158574
 20
7.6161922152
 30
0.0
 10
10.7834700054
 20
7.6100166126
 30
0.0
 10
10.7802041925
 20
7.6046272422
 30
0.0
 10
10.7765313542
 20
7.6000137485
 30
0.0
 10
10.77309243
 20
7.5967956185
 30
0.0
 10
10.7701530441
 20
7.5946747161
 30
0.0
 10
10.7678692407
 20
7.5933192919
 30
0.0
 10
10.7654822812
 20
7.5921958845
 30
0.0
 10
10.7629909935
 20
7.5913173249
 30
0.0
 10
10.760393127
 20
7.5907021914
 30
0.0
 10
10.7576872266
 20
7.5903702608
 30
0.0
 10
10.7548714956
 20
7.5903477628
 30
0.0
 10
10.7519446207
 20
7.5906650218
 30
0.0
 10
10.7489062549
 20
7.5913588205
 30
0.0
 10
10.7468880618
 20
7.5920743275
 30
0.0
 10
10.7458685053
 20
7.5924999361
 30
0.0
  0
SPLINE
  5
3F7
100
AcDbEntity
  8
0
100
AcDbSpline
 62
7
  6
CONTINUOUS
 70
0
 71
3
 72
43
 73
39
 74
0
 42
0.0000001
 43
0.0000001
 44
0.0000000001
 40
0.0
 40
0.0
 40
0.0
 40
0.0
 40
0.0149672865
 40
0.0299517182
 40
0.04495549
 40
0.059980694
 40
0.0900984567
 40
0.120324286
 40
0.1354840101
 40
0.1506751829
 40
0.1658989737
 40
0.1811564011
 40
0.2117708691
 40
0.2425280664
 40
0.2734301901
 40
0.3044767647
 40
0.3356646878
 40
0.3669883214
 40
0.3984396246
 40
0.430008324
 40
0.4616821164
 40
0.4934468999
 40
0.5252870292
 40
0.5571855907
 40
0.5891246935
 40
0.6210857717
 40
0.6530498944
 40
0.6849980803
 40
0.7169116124
 40
0.7487723502
 40
0.7805630346
 40
0.8122675838
 40
0.8438713716
 40
0.8753614984
 40
0.9067269914
 40
0.9379591703
 40
0.9690513233
 40
1.0
 40
1.0
 40
1.0
 40
1.0
 10
11.580340607
 20
7.4108832788
 30
0.0
 10
11.5755869727
 20
7.4079694176
 30
0.0
 10
11.5659679983
 20
7.4023096965
 30
0.0
 10
11.551234692
 20
7.3943409546
 30
0.0
 10
11.5362047746
 20
7.3868971846
 30
0.0
 10
11.5157792738
 20
7.3776774652
 30
0.0
 10
11.4895826543
 20
7.3675063593
 30
0.0
 10
11.4626827135
 20
7.359205728
 30
0.0
 10
11.4407950059
 20
7.3536982891
 30
0.0
 10
11.4241919701
 20
7.3501349427
 30
0.0
 10
11.4074387554
 20
7.3471475151
 30
0.0
 10
11.3849036204
 20
7.3439333024
 30
0.0
 10
11.3564476915
 20
7.3413751304
 30
0.0
 10
11.3220552825
 20
7.3406526321
 30
0.0
 10
11.2875319939
 20
7.3422762188
 30
0.0
 10
11.2530374917
 20
7.3462383082
 30
0.0
 10
11.2187298734
 20
7.3525203684
 30
0.0
 10
11.1847667012
 20
7.3610933034
 30
0.0
 10
11.1513038146
 20
7.371917515
 30
0.0
 10
11.1184947513
 20
7.3849431115
 30
0.0
 10
11.0864900174
 20
7.4001101334
 30
0.0
 10
11.0554364152
 20
7.4173488334
 30
0.0
 10
11.0254763725
 20
7.4365799901
 30
0.0
 10
10.9967472933
 20
7.4577152686
 30
0.0
 10
10.9693809394
 20
7.4806576328
 30
0.0
 10
10.9435028315
 20
7.5053017867
 30
0.0
 10
10.919231679
 20
7.5315346536
 30
0.0
 10
10.8966788409
 20
7.5592358904
 30
0.0
 10
10.8759478193
 20
7.5882784348
 30
0.0
 10
10.8571337885
 20
7.6185290828
 30
0.0
 10
10.840323159
 20
7.6498490909
 30
0.0
 10
10.8255931759
 20
7.6820948075
 30
0.0
 10
10.813011569
 20
7.7151183144
 30
0.0
 10
10.8026362643
 20
7.7487681571
 30
0.0
 10
10.7945150492
 20
7.7828898153
 30
0.0
 10
10.7886855175
 20
7.8173272046
 30
0.0
 10
10.7851745626
 20
7.8519202336
 30
0.0
 10
10.7843888483
 20
7.8750391759
 30
0.0
 10
10.7843888483
 20
7.8865682064
 30
0.0
  0
SPLINE
  5
3F8
100
AcDbEntity
  8
0
100
AcDbSpline
 62
7
  6
CONTINUOUS
 70
0
 71
3
 72
75
 73
71
 74
0
 42
0.0000001
 43
0.0000001
 44
0.0000000001
 40
0.0
 40
0.0
 40
0.0
 40
0.0
 40
0.0027164437
 40
0.0054532632
 40
0.008230346
 40
0.0110666464
 40
0.0139798699
 40
0.0169861878
 40
0.0201001566
 40
0.0233346913
 40
0.0267010494
 40
0.0302090131
 40
0.0338669439
 40
0.0376819113
 40
0.0416599047
 40
0.0458058449
 40
0.0501237789
 40
0.0546169956
 40
0.0592880173
 40
0.0641388057
 40
0.0691707576
 40
0.0743847423
 40
0.0853596893
 40
0.097063583
 40
0.1094903675
 40
0.1226296663
 40
0.1364673952
 40
0.1509862671
 40
0.1661662218
 40
0.1819847375
 40
0.1984170526
 40
0.215436398
 40
0.2330142101
 40
0.2511202863
 40
0.2697229007
 40
0.2887889595
 40
0.3082841412
 40
0.3281730045
 40
0.3689841669
 40
0.4109214093
 40
0.4536716467
 40
0.4969138932
 40
0.5403224233
 40
0.5835699246
 40
0.6263306237
 40
0.6682834289
 40
0.7091151097
 40
0.7290160232
 40
0.7485244135
 40
0.7676048055
 40
0.7862228369
 40
0.8043453687
 40
0.8219406362
 40
0.8389783858
 40
0.8554299942
 40
0.8712686284
 40
0.8864694685
 40
0.9010099156
 40
0.9148698199
 40
0.9280317975
 40
0.9404816662
 40
0.9522089108
 40
0.963207332
 40
0.973475875
 40
0.97833824
 40
0.9830207122
 40
0.9875253169
 40
0.991854608
 40
0.9960116191
 40
1.0
 40
1.0
 40
1.0
 40
1.0
 10
13.1728114849
 20
8.8128021881
 30
0.0
 10
13.1736980139
 20
8.8127407079
 30
0.0
 10
13.1754731844
 20
8.8125370666
 30
0.0
 10
13.1781133379
 20
8.8119920659
 30
0.0
 10
13.1807335291
 20
8.8112076406
 30
0.0
 10
13.1833319223
 20
8.8101846138
 30
0.0
 10
13.1859071244
 20
8.8089237814
 30
0.0
 10
13.1884578595
 20
8.8074262283
 30
0.0
 10
13.1909829443
 20
8.8056929901
 30
0.0
 10
13.1934812188
 20
8.8037251252
 30
0.0
 10
13.1959516653
 20
8.8015238546
 30
0.0
 10
13.1983931705
 20
8.7990903256
 30
0.0
 10
13.2008046732
 20
8.7964258197
 30
0.0
 10
13.2031851464
 20
8.7935317184
 30
0.0
 10
13.2055334462
 20
8.7904094154
 30
0.0
 10
13.2078485361
 20
8.7870604901
 30
0.0
 10
13.2101293296
 20
8.7834865869
 30
0.0
 10
13.2123746916
 20
8.7796894406
 30
0.0
 10
13.214583604
 20
8.7756709537
 30
0.0
 10
13.2167549433
 20
8.7714330918
 30
0.0
 10
13.2188876701
 20
8.7669779436
 30
0.0
 10
13.2217270479
 20
8.7606422775
 30
0.0
 10
13.225160654
 20
8.7521845377
 30
0.0
 10
13.2290431595
 20
8.74137341
 30
0.0
 10
13.2327475529
 20
8.7297547535
 30
0.0
 10
13.2362663769
 20
8.7173516943
 30
0.0
 10
13.2395925263
 20
8.7041887418
 30
0.0
 10
13.2427192684
 20
8.6902921163
 30
0.0
 10
13.2456402486
 20
8.6756895412
 30
0.0
 10
13.2483495126
 20
8.6604102111
 30
0.0
 10
13.2508415512
 20
8.644484726
 30
0.0
 10
13.2531113014
 20
8.6279450193
 30
0.0
 10
13.255154141
 20
8.6108242741
 30
0.0
 10
13.2569658987
 20
8.5931568574
 30
0.0
 10
13.2585428954
 20
8.5749782538
 30
0.0
 10
13.2598819176
 20
8.556325
 30
0.0
 10
13.2609802704
 20
8.5372345486
 30
0.0
 10
13.2621305409
 20
8.5110240213
 30
0.0
 10
13.2629387531
 20
8.4774529839
 30
0.0
 10
13.2629195194
 20
8.4363935361
 30
0.0
 10
13.2619187084
 20
8.3945507872
 30
0.0
 10
13.2599441498
 20
8.352260998
 30
0.0
 10
13.257011544
 20
8.3098637878
 30
0.0
 10
13.253144439
 20
8.267699752
 30
0.0
 10
13.2483740633
 20
8.2261074784
 30
0.0
 10
13.2427389419
 20
8.1854211873
 30
0.0
 10
13.2373153349
 20
8.1522653496
 30
0.0
 10
13.232566409
 20
8.1264477488
 30
0.0
 10
13.2288492386
 20
8.1076772982
 30
0.0
 10
13.2249538059
 20
8.0893718825
 30
0.0
 10
13.2208879373
 20
8.0715682577
 30
0.0
 10
13.2166598442
 20
8.0543022017
 30
0.0
 10
13.2122780653
 20
8.0376083851
 30
0.0
 10
13.2077514641
 20
8.0215203087
 30
0.0
 10
13.2030891883
 20
8.0060702433
 30
0.0
 10
13.1983006485
 20
7.9912891616
 30
0.0
 10
13.1933955253
 20
7.977206652
 30
0.0
 10
13.1883837349
 20
7.9638508534
 30
0.0
 10
13.1832753922
 20
7.9512484078
 30
0.0
 10
13.1780807712
 20
7.9394243791
 30
0.0
 10
13.172810315
 20
7.9284022074
 30
0.0
 10
13.1674745322
 20
7.9182034967
 30
0.0
 10
13.1620840511
 20
7.9088484588
 30
0.0
 10
13.1574748661
 20
7.9016448797
 30
0.0
 10
13.1537604232
 20
7.8963320744
 30
0.0
 10
13.1510183529
 20
7.8926426211
 30
0.0
 10
13.1482706321
 20
7.8891772651
 30
0.0
 10
13.1455184776
 20
7.8859377464
 30
0.0
 10
13.1427634493
 20
7.8829258205
 30
0.0
 10
13.1408875551
 20
7.8810320272
 30
0.0
 10
13.1399491004
 20
7.8801255495
 30
0.0
  0
SPLINE
  5
3F9
100
AcDbEntity
  8
0
100
AcDbSpline
 62
7
  6
CONTINUOUS
 70
0
 71
3
 72
15
 73
11
 74
0
 42
0.0000001
 43
0.0000001
 44
0.0000000001
 40
0.0
 40
0.0
 40
0.0
 40
0.0
 40
0.1234086468
 40
0.2471513763
 40
0.3713005425
 40
0.4959197682
 40
0.6210625824
 40
0.7467719591
 40
0.8730774627
 40
1.0
 40
1.0
 40
1.0
 40
1.0
 10
10.863330827
 20
8.1533762518
 30
0.0
 10
10.856922051
 20
8.1436973528
 30
0.0
 10
10.8448118998
 20
8.1238222736
 30
0.0
 10
10.8289052226
 20
8.0926941087
 30
0.0
 10
10.8153102047
 20
8.0603637215
 30
0.0
 10
10.8040957163
 20
8.0269944617
 30
0.0
 10
10.795316862
 20
7.9927522157
 30
0.0
 10
10.789017185
 20
7.9578071995
 30
0.0
 10
10.7852274945
 20
7.9223355948
 30
0.0
 10
10.7843888483
 20
7.8985070751
 30
0.0
 10
10.7843888483
 20
7.8865682064
 30
0.0
  0
SPLINE
  5
3FA
100
AcDbEntity
  8
0
100
AcDbSpline
 62
7
  6
CONTINUOUS
 70
0
 71
3
 72
66
 73
62
 74
0
 42
0.0000001
 43
0.0000001
 44
0.0000000001
 40
0.0
 40
0.0
 40
0.0
 40
0.0
 40
0.0078885795
 40
0.0164142095
 40
0.0255971025
 40
0.0354501819
 40
0.0459790078
 40
0.0571836503
 40
0.0690597311
 40
0.0815989985
 40
0.0947899234
 40
0.1086182033
 40
0.1230670639
 40
0.1381174903
 40
0.15374853
 40
0.1699374739
 40
0.1866599537
 40
0.2038901412
 40
0.2216008902
 40
0.2397637946
 40
0.2583493161
 40
0.2773269177
 40
0.3163308183
 40
0.3565148439
 40
0.3976067568
 40
0.4393262232
 40
0.481387362
 40
0.5235013154
 40
0.5653787628
 40
0.6067324506
 40
0.6472797121
 40
0.6867450671
 40
0.7059889223
 40
0.7248635952
 40
0.7433378342
 40
0.7613813478
 40
0.7789649252
 40
0.7960604851
 40
0.8126411922
 40
0.8286816323
 40
0.8441578834
 40
0.8590476497
 40
0.8733305024
 40
0.8869880395
 40
0.9000040836
 40
0.91236504
 40
0.9240602651
 40
0.935082466
 40
0.9454283444
 40
0.955099439
 40
0.959684426
 40
0.9641040602
 40
0.968360376
 40
0.9724560404
 40
0.9763943117
 40
0.9801791449
 40
0.9838153567
 40
0.9873086145
 40
0.9906655905
 40
0.9938941122
 40
1.0
 40
1.0
 40
1.0
 40
1.0
 10
13.6587706882
 20
8.4132687509
 30
0.0
 10
13.6605963218
 20
8.4150321777
 30
0.0
 10
13.6642390294
 20
8.4188648642
 30
0.0
 10
13.6694838705
 20
8.4252219298
 30
0.0
 10
13.6747081407
 20
8.4323938786
 30
0.0
 10
13.6799026071
 20
8.4403676281
 30
0.0
 10
13.685058522
 20
8.4491295716
 30
0.0
 10
13.6901667
 20
8.4586641798
 30
0.0
 10
13.6952179556
 20
8.4689544958
 30
0.0
 10
13.7002031045
 20
8.4799820614
 30
0.0
 10
13.7051130619
 20
8.4917269674
 30
0.0
 10
13.7099388139
 20
8.5041679461
 30
0.0
 10
13.7146714788
 20
8.517282403
 30
0.0
 10
13.7193023767
 20
8.5310464494
 30
0.0
 10
13.723822983
 20
8.5454349875
 30
0.0
 10
13.7282249556
 20
8.5604217572
 30
0.0
 10
13.73250021
 20
8.5759793666
 30
0.0
 10
13.7366408833
 20
8.5920793652
 30
0.0
 10
13.7406393394
 20
8.6086923078
 30
0.0
 10
13.7444882184
 20
8.625787783
 30
0.0
 10
13.7481804912
 20
8.6433345122
 30
0.0
 10
13.7529287774
 20
8.6675094388
 30
0.0
 10
13.7584104935
 20
8.6986195585
 30
0.0
 10
13.7642065689
 20
8.7368877853
 30
0.0
 10
13.7692361881
 20
8.7761452702
 30
0.0
 10
13.7734622706
 20
8.8161045749
 30
0.0
 10
13.7768537245
 20
8.8564733098
 30
0.0
 10
13.7793856284
 20
8.8969559769
 30
0.0
 10
13.7810394862
 20
8.9372562328
 30
0.0
 10
13.7818033695
 20
8.9770791466
 30
0.0
 10
13.781671837
 20
9.0161330927
 30
0.0
 10
13.780810366
 20
9.0480617406
 30
0.0
 10
13.7796627446
 20
9.0729993329
 30
0.0
 10
13.7785880363
 20
9.0911774433
 30
0.0
 10
13.7772942045
 20
9.1089540625
 30
0.0
 10
13.7757836115
 20
9.1262966647
 30
0.0
 10
13.7740590838
 20
9.1431734949
 30
0.0
 10
13.7721238097
 20
9.1595536637
 30
0.0
 10
13.7699813568
 20
9.175407198
 30
0.0
 10
13.7676357151
 20
9.1907051118
 30
0.0
 10
13.7650912341
 20
9.2054194499
 30
0.0
 10
13.7623526034
 20
9.21952334
 30
0.0
 10
13.7594249082
 20
9.2329910652
 30
0.0
 10
13.7563135793
 20
9.2457981115
 30
0.0
 10
13.7530243445
 20
9.2579212042
 30
0.0
 10
13.7495632632
 20
9.2693383953
 30
0.0
 10
13.7459367126
 20
9.280029085
 30
0.0
 10
13.7421512703
 20
9.2899741891
 30
0.0
 10
13.7382137673
 20
9.2991557411
 30
0.0
 10
13.7347526543
 20
9.3062791543
 30
0.0
 10
13.7319045164
 20
9.3115712263
 30
0.0
 10
13.7297729444
 20
9.3152682583
 30
0.0
 10
13.7276087602
 20
9.3187624588
 30
0.0
 10
13.7254129319
 20
9.3220522943
 30
0.0
 10
13.7231864087
 20
9.3251362848
 30
0.0
 10
13.7209301047
 20
9.3280130048
 30
0.0
 10
13.7186449997
 20
9.3306812143
 30
0.0
 10
13.71633211
 20
9.333139612
 30
0.0
 10
13.7139920132
 20
9.3353872613
 30
0.0
 10
13.7108957565
 20
9.3380513699
 30
0.0
 10
13.7084486054
 20
9.3398109501
 30
0.0
 10
13.7067766667
 20
9.3408426458
 30
0.0
  0
SPLINE
  5
3FB
100
AcDbEntity
  8
0
100
AcDbSpline
 62
7
  6
CONTINUOUS
 70
0
 71
3
 72
15
 73
11
 74
0
 42
0.0000001
 43
0.0000001
 44
0.0000000001
 40
0.0
 40
0.0
 40
0.0
 40
0.0
 40
0.0770449349
 40
0.1617951275
 40
0.25667265
 40
0.3647466915
 40
0.489863244
 40
0.6363807409
 40
0.8073923462
 40
1.0
 40
1.0
 40
1.0
 40
1.0
 10
10.761116955
 20
7.7215591861
 30
0.0
 10
10.7621026014
 20
7.7211475799
 30
0.0
 10
10.7641197604
 20
7.7201522867
 30
0.0
 10
10.7671113593
 20
7.718211777
 30
0.0
 10
10.7701987004
 20
7.7156734586
 30
0.0
 10
10.7733857994
 20
7.7124168006
 30
0.0
 10
10.7766639599
 20
7.7082863294
 30
0.0
 10
10.7799857819
 20
7.7031145507
 30
0.0
 10
10.7832226247
 20
7.6968148735
 30
0.0
 10
10.7851088863
 20
7.6921313256
 30
0.0
 10
10.786002968
 20
7.6896151754
 30
0.0
  0
SPLINE
  5
3FC
100
AcDbEntity
  8
0
100
AcDbSpline
 62
7
  6
CONTINUOUS
 70
0
 71
3
 72
39
 73
35
 74
0
 42
0.0000001
 43
0.0000001
 44
0.0000000001
 40
0.0
 40
0.0
 40
0.0
 40
0.0
 40
0.0299424712
 40
0.0599093185
 40
0.0899243247
 40
0.120010104
 40
0.1501875625
 40
0.1804754137
 40
0.2108897572
 40
0.2414437336
 40
0.272147258
 40
0.3030068403
 40
0.3340254914
 40
0.3652027096
 40
0.3965345442
 40
0.4280137297
 40
0.4596298866
 40
0.4913697802
 40
0.5232176274
 40
0.5551554443
 40
0.5871634289
 40
0.6192203717
 40
0.6513040877
 40
0.6833918591
 40
0.7154608877
 40
0.7474887471
 40
0.7794538319
 40
0.8113357927
 40
0.8431159543
 40
0.8747777099
 40
0.9063068688
 40
0.9376920891
 40
0.9689246464
 40
1.0
 40
1.0
 40
1.0
 40
1.0
 10
8.8475305671
 20
6.9601682001
 30
0.0
 10
8.8402311141
 20
6.9531174648
 30
0.0
 10
8.8250582438
 20
6.9395850088
 30
0.0
 10
8.8007489398
 20
6.9211494267
 30
0.0
 10
8.7750138847
 20
6.9046692198
 30
0.0
 10
8.7479968725
 20
6.8902368457
 30
0.0
 10
8.7198464528
 20
6.8779311318
 30
0.0
 10
8.6907179849
 20
6.8678197187
 30
0.0
 10
8.6607719811
 20
6.8599579325
 30
0.0
 10
8.6301734173
 20
6.8543887158
 30
0.0
 10
8.5990907669
 20
6.8511423206
 30
0.0
 10
8.5676950745
 20
6.8502361793
 30
0.0
 10
8.5361590075
 20
6.8516748664
 30
0.0
 10
8.5046559156
 20
6.8554500849
 30
0.0
 10
8.4733588926
 20
6.8615407399
 30
0.0
 10
8.4424398297
 20
6.8699130241
 30
0.0
 10
8.4120684795
 20
6.8805206296
 30
0.0
 10
8.3824115457
 20
6.8933050381
 30
0.0
 10
8.3536317812
 20
6.9081958376
 30
0.0
 10
8.3258871152
 20
6.9251111175
 30
0.0
 10
8.2993297742
 20
6.9439578749
 30
0.0
 10
8.2741054642
 20
6.964632548
 30
0.0
 10
8.2503525948
 20
6.9870215976
 30
0.0
 10
8.2282015261
 20
7.0110021172
 30
0.0
 10
8.2077738698
 20
7.0364425044
 30
0.0
 10
8.1891817874
 20
7.0632031431
 30
0.0
 10
8.1725274037
 20
7.091137187
 30
0.0
 10
8.1579022639
 20
7.1200913673
 30
0.0
 10
8.1453868291
 20
7.1499067983
 30
0.0
 10
8.1350500525
 20
7.1804199075
 30
0.0
 10
8.1269489048
 20
7.2114630572
 30
0.0
 10
8.1211282376
 20
7.2428663605
 30
0.0
 10
8.1176202099
 20
7.2744551546
 30
0.0
 10
8.1168345009
 20
7.2955817746
 30
0.0
 10
8.1168345009
 20
7.3061143908
 30
0.0
  0
SPLINE
  5
3FD
100
AcDbEntity
  8
0
100
AcDbSpline
 62
7
  6
CONTINUOUS
 70
0
 71
3
 72
39
 73
35
 74
0
 42
0.0000001
 43
0.0000001
 44
0.0000000001
 40
0.0
 40
0.0
 40
0.0
 40
0.0
 40
0.0299337049
 40
0.0599001887
 40
0.089922317
 40
0.1200216388
 40
0.1502178895
 40
0.1805285473
 40
0.2109684548
 40
0.2415495127
 40
0.2722804519
 40
0.3031666839
 40
0.3342102338
 40
0.3654097472
 40
0.3967605694
 40
0.42825489
 40
0.4598819464
 40
0.4916282797
 40
0.523478037
 40
0.5554133111
 40
0.5874145102
 40
0.6194607529
 40
0.6515302802
 40
0.6836008812
 40
0.7156503248
 40
0.7476567904
 40
0.7795992938
 40
0.8114581008
 40
0.8432151243
 40
0.8748543018
 40
0.90636191
 40
0.9377270132
 40
0.9689411669
 40
1.0
 40
1.0
 40
1.0
 40
1.0
 10
8.8474136351
 20
6.9602957475
 30
0.0
 10
8.8399927364
 20
6.9535467565
 30
0.0
 10
8.8246051074
 20
6.9406193906
 30
0.0
 10
8.800060788
 20
6.9230877189
 30
0.0
 10
8.7741724961
 20
6.9074981276
 30
0.0
 10
8.7470815089
 20
6.8939359798
 30
0.0
 10
8.7189332437
 20
6.8824735806
 30
0.0
 10
8.689879374
 20
6.8731724242
 30
0.0
 10
8.6600762098
 20
6.8660821726
 30
0.0
 10
8.6296840555
 20
6.8612405982
 30
0.0
 10
8.5988662847
 20
6.8586733506
 30
0.0
 10
8.5677884754
 20
6.8583938229
 30
0.0
 10
8.5366175113
 20
6.8604031289
 30
0.0
 10
8.5055206946
 20
6.8646901155
 30
0.0
 10
8.4746648576
 20
6.8712314384
 30
0.0
 10
8.4442154804
 20
6.8799916997
 30
0.0
 10
8.4143358169
 20
6.8909236457
 30
0.0
 10
8.3851860204
 20
6.9039683989
 30
0.0
 10
8.3569223039
 20
6.9190558076
 30
0.0
 10
8.3296961164
 20
6.9361048215
 30
0.0
 10
8.3036533422
 20
6.9550239254
 30
0.0
 10
8.2789335308
 20
6.9757116262
 30
0.0
 10
8.2556691588
 20
6.9980569915
 30
0.0
 10
8.2339849062
 20
7.0219402192
 30
0.0
 10
8.2139970131
 20
7.047233297
 30
0.0
 10
8.1958126641
 20
7.0738006809
 30
0.0
 10
8.1795294193
 20
7.1015000109
 30
0.0
 10
8.1652346965
 20
7.1301828693
 30
0.0
 10
8.1530053015
 20
7.1596955461
 30
0.0
 10
8.1429070057
 20
7.1898799083
 30
0.0
 10
8.13499416
 20
7.2205740173
 30
0.0
 10
8.1293095642
 20
7.251613833
 30
0.0
 10
8.1258838797
 20
7.2828307604
 30
0.0
 10
8.1251167037
 20
7.3037064676
 30
0.0
 10
8.1251167037
 20
7.3141143849
 30
0.0
  0
SPLINE
  5
3FE
100
AcDbEntity
  8
0
100
AcDbSpline
 62
7
  6
CONTINUOUS
 70
0
 71
3
 72
42
 73
38
 74
0
 42
0.0000001
 43
0.0000001
 44
0.0000000001
 40
0.0
 40
0.0
 40
0.0
 40
0.0
 40
0.0299419647
 40
0.0449235338
 40
0.0599142029
 40
0.0899287018
 40
0.1200139723
 40
0.135092657
 40
0.1501966957
 40
0.1804840357
 40
0.2108978664
 40
0.2414513269
 40
0.2721543325
 40
0.3030133939
 40
0.3340315221
 40
0.3652082149
 40
0.3965395206
 40
0.4280181743
 40
0.4596337976
 40
0.491373156
 40
0.5232204661
 40
0.5551577438
 40
0.5871651879
 40
0.6192215897
 40
0.6513047642
 40
0.683391994
 40
0.7154604812
 40
0.7474878002
 40
0.7794523457
 40
0.811333768
 40
0.8431133934
 40
0.8747746119
 40
0.9063032554
 40
0.937687875
 40
0.9533257298
 40
0.9689253383
 40
1.0
 40
1.0
 40
1.0
 40
1.0
 10
8.721154103
 20
7.1231151997
 30
0.0
 10
8.7172555185
 20
7.1193494817
 30
0.0
 10
8.7111778955
 20
7.1139290268
 30
0.0
 10
8.702666285
 20
7.1072034424
 30
0.0
 10
8.693883605
 20
7.1008125509
 30
0.0
 10
8.6824236642
 20
7.0934737061
 30
0.0
 10
8.6704065112
 20
7.0870543566
 30
0.0
 10
8.6604954895
 20
7.0824875796
 30
0.0
 10
8.6503797071
 20
7.0782978479
 30
0.0
 10
8.6374016342
 20
7.0737926484
 30
0.0
 10
8.6214081096
 20
7.0695939167
 30
0.0
 10
8.6050655997
 20
7.0666194132
 30
0.0
 10
8.5884646694
 20
7.0648855555
 30
0.0
 10
8.5716965122
 20
7.0644015947
 30
0.0
 10
8.5548533916
 20
7.0651699947
 30
0.0
 10
8.5380278815
 20
7.0671863166
 30
0.0
 10
8.5213124313
 20
7.0704392837
 30
0.0
 10
8.5047988446
 20
7.0749108423
 30
0.0
 10
8.4885777874
 20
7.0805762695
 30
0.0
 10
8.4727382956
 20
7.087404312
 30
0.0
 10
8.4573672938
 20
7.0953573605
 30
0.0
 10
8.4425491246
 20
7.1043916569
 30
0.0
 10
8.4283650923
 20
7.1144575342
 30
0.0
 10
8.4148930221
 20
7.1254996882
 30
0.0
 10
8.4022068385
 20
7.1374574785
 30
0.0
 10
8.3903761638
 20
7.1502652591
 30
0.0
 10
8.3794659405
 20
7.1638527345
 30
0.0
 10
8.3695360776
 20
7.1781453433
 30
0.0
 10
8.3606411262
 20
7.1930646578
 30
0.0
 10
8.3528299784
 20
7.208528827
 30
0.0
 10
8.3461456112
 20
7.2244529557
 30
0.0
 10
8.3406248163
 20
7.2407498031
 30
0.0
 10
8.336298115
 20
7.2573293693
 30
0.0
 10
8.3337041455
 20
7.2713243128
 30
0.0
 10
8.3322490149
 20
7.2825691031
 30
0.0
 10
8.3312105256
 20
7.2938031283
 30
0.0
 10
8.3308960748
 20
7.3022566628
 30
0.0
 10
8.3308960748
 20
7.3078820057
 30
0.0
  0
SPLINE
  5
3FF
100
AcDbEntity
  8
0
100
AcDbSpline
 62
7
  6
CONTINUOUS
 70
0
 71
3
 72
37
 73
33
 74
0
 42
0.0000001
 43
0.0000001
 44
0.0000000001
 40
0.0
 40
0.0
 40
0.0
 40
0.0
 40
0.0301489243
 40
0.0604089242
 40
0.090786919
 40
0.1212880554
 40
0.1519156555
 40
0.1826711883
 40
0.2135542685
 40
0.2445626811
 40
0.2756924395
 40
0.3069378662
 40
0.3382916881
 40
0.369745149
 40
0.4012881394
 40
0.4329093484
 40
0.4645964283
 40
0.4963361613
 40
0.5598923676
 40
0.6234868049
 40
0.6552738102
 40
0.6870262066
 40
0.7187299109
 40
0.750371483
 40
0.7819383031
 40
0.8134187562
 40
0.8448023605
 40
0.8760799326
 40
0.907243931
 40
0.9382875033
 40
0.9692080309
 40
1.0
 40
1.0
 40
1.0
 40
1.0
 10
8.7734460366
 20
7.2061742688
 30
0.0
 10
8.7691711749
 20
7.2048978288
 30
0.0
 10
8.760523039
 20
7.202608434
 30
0.0
 10
8.7473392928
 20
7.199983138
 30
0.0
 10
8.7339665937
 20
7.1981692624
 30
0.0
 10
8.7204539311
 20
7.1971734794
 30
0.0
 10
8.7068499417
 20
7.1969992479
 30
0.0
 10
8.6932038027
 20
7.1976471411
 30
0.0
 10
8.6795647732
 20
7.1991147632
 30
0.0
 10
8.6659820927
 20
7.2013967493
 30
0.0
 10
8.6525047764
 20
7.204484774
 30
0.0
 10
8.6391814514
 20
7.2083676277
 30
0.0
 10
8.6260601798
 20
7.2130312487
 30
0.0
 10
8.6131883052
 20
7.2184587719
 30
0.0
 10
8.6006122309
 20
7.2246306028
 30
0.0
 10
8.5883774068
 20
7.2315243237
 30
0.0
 10
8.5765275637
 20
7.239115385
 30
0.0
 10
8.5612948779
 20
7.2501319862
 30
0.0
 10
8.543432074
 20
7.2655015852
 30
0.0
 10
8.5273970725
 20
7.2827788933
 30
0.0
 10
8.5157983973
 20
7.2976014611
 30
0.0
 10
8.5077457401
 20
7.3091777214
 30
0.0
 10
8.5003695297
 20
7.3211706174
 30
0.0
 10
8.4936960103
 20
7.3335372626
 30
0.0
 10
8.4877493729
 20
7.3462329547
 30
0.0
 10
8.482551082
 20
7.359211937
 30
0.0
 10
8.4781199543
 20
7.372427388
 30
0.0
 10
8.4744720172
 20
7.3858316733
 30
0.0
 10
8.4716205535
 20
7.3993763145
 30
0.0
 10
8.4695757101
 20
7.413012784
 30
0.0
 10
8.4683452256
 20
7.4266910153
 30
0.0
 10
8.4680700555
 20
7.4358253871
 30
0.0
 10
8.4680700555
 20
7.4403819042
 30
0.0
  0
SPLINE
  5
400
100
AcDbEntity
  8
0
100
AcDbSpline
 62
7
  6
CONTINUOUS
 70
0
 71
3
 72
10
 73
6
 74
0
 42
0.0000001
 43
0.0000001
 44
0.0000000001
 40
0.0
 40
0.0
 40
0.0
 40
0.0
 40
0.2746555127
 40
0.5319783572
 40
1.0
 40
1.0
 40
1.0
 40
1.0
 10
13.6587706882
 20
8.4132687509
 30
0.0
 10
13.657387268
 20
8.4119324695
 30
0.0
 10
13.6546215534
 20
8.4094295026
 30
0.0
 10
13.6490843238
 20
8.405138948
 30
0.0
 10
13.6446712593
 20
8.4025371
 30
0.0
 10
13.6416732602
 20
8.4012125906
 30
0.0
  0
SPLINE
  5
401
100
AcDbEntity
  8
0
100
AcDbSpline
 62
7
  6
CONTINUOUS
 70
0
 71
3
 72
23
 73
19
 74
0
 42
0.0000001
 43
0.0000001
 44
0.0000000001
 40
0.0
 40
0.0
 40
0.0
 40
0.0
 40
0.061689851
 40
0.1234110799
 40
0.1851828831
 40
0.2470239853
 40
0.3089524567
 40
0.370985538
 40
0.4331394925
 40
0.4954294624
 40
0.5578693367
 40
0.6204716314
 40
0.6832472989
 40
0.7462059445
 40
0.8093553843
 40
0.8727007701
 40
0.9362500366
 40
1.0
 40
1.0
 40
1.0
 40
1.0
 10
8.2362817424
 20
7.5929958042
 30
0.0
 10
8.231863016
 20
7.5884633262
 30
0.0
 10
8.2232465476
 20
7.5791753041
 30
0.0
 10
8.2110245111
 20
7.5646164298
 30
0.0
 10
8.1995276996
 20
7.5494582596
 30
0.0
 10
8.1887811495
 20
7.5337336869
 30
0.0
 10
8.1788077644
 20
7.5174762536
 30
0.0
 10
8.169628923
 20
7.5007208026
 30
0.0
 10
8.1612642037
 20
7.4835032304
 30
0.0
 10
8.1537314854
 20
7.4658604047
 30
0.0
 10
8.1470469009
 20
7.4478300812
 30
0.0
 10
8.1412247248
 20
7.4294508696
 30
0.0
 10
8.1362773304
 20
7.4107621217
 30
0.0
 10
8.1322152873
 20
7.3918038098
 30
0.0
 10
8.1290473311
 20
7.3726166189
 30
0.0
 10
8.1267800185
 20
7.3532412174
 30
0.0
 10
8.1254184254
 20
7.3337199139
 30
0.0
 10
8.1251167037
 20
7.3206557404
 30
0.0
 10
8.1251167037
 20
7.3141143849
 30
0.0
  0
SPLINE
  5
402
100
AcDbEntity
  8
0
100
AcDbSpline
 62
7
  6
CONTINUOUS
 70
0
 71
3
 72
15
 73
11
 74
0
 42
0.0000001
 43
0.0000001
 44
0.0000000001
 40
0.0
 40
0.0
 40
0.0
 40
0.0
 40
0.1234394214
 40
0.2470466251
 40
0.3709825631
 40
0.4953948794
 40
0.6204121513
 40
0.7461393297
 40
0.8726517112
 40
1.0
 40
1.0
 40
1.0
 40
1.0
 10
8.3946232118
 20
7.4611648335
 30
0.0
 10
8.3895773513
 20
7.4562909395
 30
0.0
 10
8.3799739488
 20
7.4460084881
 30
0.0
 10
8.3672195751
 20
7.4291756552
 30
0.0
 10
8.3562225987
 20
7.4110785156
 30
0.0
 10
8.3470863876
 20
7.3918866438
 30
0.0
 10
8.3398942875
 20
7.3717772376
 30
0.0
 10
8.3347122615
 20
7.350935748
 30
0.0
 10
8.3315871205
 20
7.3295570961
 30
0.0
 10
8.3308960748
 20
7.3151195362
 30
0.0
 10
8.3308960748
 20
7.3078820057
 30
0.0
  0
SPLINE
  5
403
100
AcDbEntity
  8
0
100
AcDbSpline
 62
7
  6
CONTINUOUS
 70
0
 71
3
 72
11
 73
7
 74
0
 42
0.0000001
 43
0.0000001
 44
0.0000000001
 40
0.0
 40
0.0
 40
0.0
 40
0.0
 40
0.2480713806
 40
0.4973766969
 40
0.7480007058
 40
1.0
 40
1.0
 40
1.0
 40
1.0
 10
8.4794373429
 20
7.5105256569
 30
0.0
 10
8.4775548926
 20
7.5049338399
 30
0.0
 10
8.4742446882
 20
7.4935602341
 30
0.0
 10
8.4706864445
 20
7.4761097107
 30
0.0
 10
8.4685439905
 20
7.458335558
 30
0.0
 10
8.4680700555
 20
7.4463754989
 30
0.0
 10
8.4680700555
 20
7.4403819042
 30
0.0
  0
SPLINE
  5
404
100
AcDbEntity
  8
0
100
AcDbSpline
 62
7
  6
CONTINUOUS
 70
0
 71
3
 72
25
 73
21
 74
0
 42
0.0000001
 43
0.0000001
 44
0.0000000001
 40
0.0
 40
0.0
 40
0.0
 40
0.0
 40
0.0618726765
 40
0.1239841394
 40
0.1863088313
 40
0.248817326
 40
0.3114768931
 40
0.3742521073
 40
0.4371054933
 40
0.4999981956
 40
0.5628906671
 40
0.6257433643
 40
0.6885174438
 40
0.7198674332
 40
0.7511838842
 40
0.8136904188
 40
0.8760127855
 40
0.9070998962
 40
0.9381302661
 40
1.0
 40
1.0
 40
1.0
 40
1.0
 10
11.5830753911
 20
7.8770348125
 30
0.0
 10
11.5754770689
 20
7.8791812868
 30
0.0
 10
11.5603919207
 20
7.883999683
 30
0.0
 10
11.5382638626
 20
7.8927408841
 30
0.0
 10
11.5166917911
 20
7.9029691525
 30
0.0
 10
11.4957819768
 20
7.914634243
 30
0.0
 10
11.4756357081
 20
7.9276794238
 30
0.0
 10
11.4563510325
 20
7.9420411465
 30
0.0
 10
11.4380216761
 20
7.9576495321
 30
0.0
 10
11.4207367928
 20
7.9744286019
 30
0.0
 10
11.4045803432
 20
7.9922968931
 30
0.0
 10
11.3896312592
 20
8.0111669612
 30
0.0
 10
11.3782340757
 20
8.0276597326
 30
0.0
 10
11.3697902054
 20
8.0412621774
 30
0.0
 10
11.3618140254
 20
8.0551046912
 30
0.0
 10
11.3527217008
 20
8.0728525426
 30
0.0
 10
11.3448336436
 20
8.0911357197
 30
0.0
 10
11.3392779168
 20
8.1060150472
 30
0.0
 10
11.3342405478
 20
8.1210161602
 30
0.0
 10
11.3310326125
 20
8.132441286
 30
0.0
 10
11.3291569101
 20
8.1401105534
 30
0.0
  0
SPLINE
  5
405
100
AcDbEntity
  8
0
100
AcDbSpline
 62
7
  6
CONTINUOUS
 70
0
 71
3
 72
37
 73
33
 74
0
 42
0.0000001
 43
0.0000001
 44
0.0000000001
 40
0.0
 40
0.0
 40
0.0
 40
0.0
 40
0.0300791945
 40
0.0602640699
 40
0.0905638613
 40
0.1209859362
 40
0.1515357005
 40
0.18221654
 40
0.2130297922
 40
0.2439747502
 40
0.2750486977
 40
0.3062469733
 40
0.3375630669
 40
0.3689887385
 40
0.400514155
 40
0.432128046
 40
0.463817875
 40
0.4955700264
 40
0.5591758371
 40
0.6228497177
 40
0.6546859566
 40
0.6864918539
 40
0.718252166
 40
0.7499522903
 40
0.7815784687
 40
0.8131179937
 40
0.8445593895
 40
0.8758925523
 40
0.9071091847
 40
0.9382018691
 40
0.9691672535
 40
1.0
 40
1.0
 40
1.0
 40
1.0
 10
8.7811372876
 20
7.2360119465
 30
0.0
 10
8.7772731983
 20
7.2345696748
 30
0.0
 10
8.7694347242
 20
7.2319320969
 30
0.0
 10
8.7574254073
 20
7.2287397566
 30
0.0
 10
8.7451892524
 20
7.2263163213
 30
0.0
 10
8.732774141
 20
7.2246713152
 30
0.0
 10
8.7202278068
 20
7.2238109235
 30
0.0
 10
8.7075986924
 20
7.2237383977
 30
0.0
 10
8.6949354833
 20
7.2244539332
 30
0.0
 10
8.6822869988
 20
7.2259547005
 30
0.0
 10
8.6697019872
 20
7.2282348554
 30
0.0
 10
8.6572289417
 20
7.2312855388
 30
0.0
 10
8.6449159077
 20
7.2350949223
 30
0.0
 10
8.6328103156
 20
7.2396482628
 30
0.0
 10
8.6209587556
 20
7.2449279948
 30
0.0
 10
8.6094069701
 20
7.2509136529
 30
0.0
 10
8.5981990523
 20
7.2575824965
 30
0.0
 10
8.5837665031
 20
7.2673537202
 30
0.0
 10
8.5668034859
 20
7.2811401508
 30
0.0
 10
8.5515413031
 20
7.2968043694
 30
0.0
 10
8.5404843988
 20
7.3103247342
 30
0.0
 10
8.5327996753
 20
7.3209207567
 30
0.0
 10
8.5257544331
 20
7.3319297161
 30
0.0
 10
8.5193754499
 20
7.3433095897
 30
0.0
 10
8.5136874227
 20
7.3550164651
 30
0.0
 10
8.5087122736
 20
7.367005296
 30
0.0
 10
8.5044692376
 20
7.3792299066
 30
0.0
 10
8.500974667
 20
7.3916432416
 30
0.0
 10
8.4982421561
 20
7.4041973883
 30
0.0
 10
8.4962821253
 20
7.4168442884
 30
0.0
 10
8.4951024405
 20
7.4295344103
 30
0.0
 10
8.4948385756
 20
7.4380105033
 30
0.0
 10
8.4948385756
 20
7.4422383106
 30
0.0
  0
SPLINE
  5
406
100
AcDbEntity
  8
0
100
AcDbSpline
 62
7
  6
CONTINUOUS
 70
0
 71
3
 72
58
 73
54
 74
0
 42
0.0000001
 43
0.0000001
 44
0.0000000001
 40
0.0
 40
0.0
 40
0.0
 40
0.0
 40
0.0081223305
 40
0.0169168975
 40
0.0264087397
 40
0.0366143893
 40
0.0475415919
 40
0.0591912278
 40
0.0715586516
 40
0.0846347975
 40
0.0984066254
 40
0.112857697
 40
0.1279687991
 40
0.1437179559
 40
0.1600810137
 40
0.1770317001
 40
0.2125802303
 40
0.2501202969
 40
0.2893844218
 40
0.3300865608
 40
0.3719257492
 40
0.4145895607
 40
0.4577574053
 40
0.5011037527
 40
0.5443013266
 40
0.587024304
 40
0.6289515139
 40
0.6697696572
 40
0.7091765902
 40
0.7468847529
 40
0.7826248208
 40
0.7996793841
 40
0.8161512809
 40
0.8320139346
 40
0.8472427441
 40
0.8618153344
 40
0.8757119895
 40
0.8889156785
 40
0.9014127874
 40
0.9131934095
 40
0.9242520347
 40
0.9345886083
 40
0.9442093599
 40
0.953128682
 40
0.9613709503
 40
0.9689732053
 40
0.9759886321
 40
0.9824900189
 40
0.9885734021
 40
0.9914974267
 40
0.9943641369
 40
0.9971919109
 40
1.0
 40
1.0
 40
1.0
 40
1.0
 10
12.9843899765
 20
10.3202920755
 30
0.0
 10
12.9852104168
 20
10.32108456
 30
0.0
 10
12.9869965956
 20
10.3226560018
 30
0.0
 10
12.9899614902
 20
10.3248887293
 30
0.0
 10
12.9933098041
 20
10.3270841007
 30
0.0
 10
12.9970347407
 20
10.3292378877
 30
0.0
 10
13.0011293057
 20
10.3313462265
 30
0.0
 10
13.0055855596
 20
10.3334049011
 30
0.0
 10
13.0103947226
 20
10.3354099046
 30
0.0
 10
13.0155472877
 20
10.3373571835
 30
0.0
 10
13.0210329979
 20
10.3392428045
 30
0.0
 10
13.0268408767
 20
10.3410629763
 30
0.0
 10
13.0329592832
 20
10.3428139498
 30
0.0
 10
13.0393759068
 20
10.3444922021
 30
0.0
 10
13.0460778409
 20
10.3460943224
 30
0.0
 10
13.0555266321
 20
10.3481573038
 30
0.0
 10
13.0679537926
 20
10.3505090401
 30
0.0
 10
13.0835466351
 20
10.3529383135
 30
0.0
 10
13.0999222267
 20
10.3549974305
 30
0.0
 10
13.1169483635
 20
10.3566694494
 30
0.0
 10
13.1344877049
 20
10.3579405652
 30
0.0
 10
13.1523985965
 20
10.3588003127
 30
0.0
 10
13.1705363475
 20
10.3592416126
 30
0.0
 10
13.1887543961
 20
10.3592608302
 30
0.0
 10
13.2069055219
 20
10.3588578041
 30
0.0
 10
13.2248430528
 20
10.358035856
 30
0.0
 10
13.2424220793
 20
10.3568017548
 30
0.0
 10
13.2595006217
 20
10.3551656616
 30
0.0
 10
13.2759409038
 20
10.3531410844
 30
0.0
 10
13.2916101866
 20
10.3507446743
 30
0.0
 10
13.3041085367
 20
10.3484196223
 30
0.0
 10
13.3136198539
 20
10.3463771835
 30
0.0
 10
13.3203722264
 20
10.3447892569
 30
0.0
 10
13.3268417036
 20
10.34312461
 30
0.0
 10
13.3330152662
 20
10.341386594
 30
0.0
 10
13.3388804913
 20
10.3395787288
 30
0.0
 10
13.3444256173
 20
10.3377047374
 30
0.0
 10
13.3496395381
 20
10.3357683679
 30
0.0
 10
13.3545118708
 20
10.333773571
 30
0.0
 10
13.3590329617
 20
10.3317243501
 30
0.0
 10
13.3631939064
 20
10.3296247394
 30
0.0
 10
13.366986632
 20
10.3274788995
 30
0.0
 10
13.3704038254
 20
10.3252908276
 30
0.0
 10
13.3734390301
 20
10.3230645233
 30
0.0
 10
13.3760865478
 20
10.3208036965
 30
0.0
 10
13.3783412418
 20
10.3185117194
 30
0.0
 10
13.3801984443
 20
10.3161914225
 30
0.0
 10
13.381653038
 20
10.3138459026
 30
0.0
 10
13.3825366213
 20
10.3118454352
 30
0.0
 10
13.3830247581
 20
10.3102492448
 30
0.0
 10
13.3832832342
 20
10.3090653089
 30
0.0
 10
13.3834383904
 20
10.3078799538
 30
0.0
 10
13.3834729169
 20
10.307088038
 30
0.0
 10
13.3834729171
 20
10.3066936765
 30
0.0
  0
SPLINE
  5
407
100
AcDbEntity
  8
0
100
AcDbSpline
 62
7
  6
CONTINUOUS
 70
0
 71
3
 72
15
 73
11
 74
0
 42
0.0000001
 43
0.0000001
 44
0.0000000001
 40
0.0
 40
0.0
 40
0.0
 40
0.0
 40
0.1233733694
 40
0.2470523798
 40
0.3711316686
 40
0.4956953092
 40
0.6208147035
 40
0.7465472312
 40
0.8729330667
 40
1.0
 40
1.0
 40
1.0
 40
1.0
 10
10.978841445
 20
8.1919680765
 30
0.0
 10
10.9719725998
 20
8.1828936305
 30
0.0
 10
10.9589692196
 20
8.1641394222
 30
0.0
 10
10.9418420035
 20
8.1344523146
 30
0.0
 10
10.9271708113
 20
8.1033540692
 30
0.0
 10
10.9150464307
 20
8.0710364842
 30
0.0
 10
10.9055416308
 20
8.0376957702
 30
0.0
 10
10.8987138591
 20
8.0035342817
 30
0.0
 10
10.8946038485
 20
7.9687622907
 30
0.0
 10
10.8936945541
 20
7.9453711172
 30
0.0
 10
10.8936945541
 20
7.9336494169
 30
0.0
  0
SPLINE
  5
408
100
AcDbEntity
  8
0
100
AcDbSpline
 62
7
  6
CONTINUOUS
 70
0
 71
3
 72
15
 73
11
 74
0
 42
0.0000001
 43
0.0000001
 44
0.0000000001
 40
0.0
 40
0.0
 40
0.0
 40
0.0
 40
0.1234511986
 40
0.2472467049
 40
0.3714457392
 40
0.4961000834
 40
0.621253035
 40
0.7469393263
 40
0.8731827972
 40
1.0
 40
1.0
 40
1.0
 40
1.0
 10
10.9020538746
 20
8.1701895424
 30
0.0
 10
10.8965817592
 20
8.161117876
 30
0.0
 10
10.886252964
 20
8.1425602462
 30
0.0
 10
10.872708599
 20
8.1136775356
 30
0.0
 10
10.8611484409
 20
8.0838328144
 30
0.0
 10
10.8516231571
 20
8.05315643
 30
0.0
 10
10.8441732177
 20
8.0217802072
 30
0.0
 10
10.8388305945
 20
7.9898389809
 30
0.0
 10
10.8356179077
 20
7.9574720025
 30
0.0
 10
10.8349068078
 20
7.9357479732
 30
0.0
 10
10.8349068078
 20
7.9248648111
 30
0.0
  0
SPLINE
  5
409
100
AcDbEntity
  8
0
100
AcDbSpline
 62
7
  6
CONTINUOUS
 70
0
 71
3
 72
15
 73
11
 74
0
 42
0.0000001
 43
0.0000001
 44
0.0000000001
 40
0.0
 40
0.0
 40
0.0
 40
0.0
 40
0.1233882443
 40
0.2470995725
 40
0.3712161218
 40
0.4958104374
 40
0.6209438343
 40
0.7466654841
 40
0.8730095791
 40
1.0
 40
1.0
 40
1.0
 40
1.0
 10
10.883958876
 20
8.1626671572
 30
0.0
 10
10.8771002134
 20
8.1529291656
 30
0.0
 10
10.8641293423
 20
8.1328763802
 30
0.0
 10
10.8470713866
 20
8.1013230086
 30
0.0
 10
10.8324778138
 20
8.068427413
 30
0.0
 10
10.8204298612
 20
8.0343720604
 30
0.0
 10
10.8109925441
 20
7.9993428843
 30
0.0
 10
10.8042171993
 20
7.9635310926
 30
0.0
 10
10.8001402034
 20
7.9271349388
 30
0.0
 10
10.7992380874
 20
7.9026701041
 30
0.0
 10
10.7992380874
 20
7.8904114708
 30
0.0
  0
SPLINE
  5
40A
100
AcDbEntity
  8
0
100
AcDbSpline
 62
7
  6
CONTINUOUS
 70
0
 71
3
 72
15
 73
11
 74
0
 42
0.0000001
 43
0.0000001
 44
0.0000000001
 40
0.0
 40
0.0
 40
0.0
 40
0.0
 40
0.1234572711
 40
0.2472596132
 40
0.371464773
 40
0.4961232102
 40
0.6212770932
 40
0.7469602255
 40
0.8731958544
 40
1.0
 40
1.0
 40
1.0
 40
1.0
 10
10.8408016927
 20
8.1418711527
 30
0.0
 10
10.8351785675
 20
8.1324422437
 30
0.0
 10
10.8245661013
 20
8.113162057
 30
0.0
 10
10.8106523546
 20
8.0831760885
 30
0.0
 10
10.7987787996
 20
8.0522094483
 30
0.0
 10
10.7889965378
 20
8.0203949537
 30
0.0
 10
10.781346387
 20
7.9878668593
 30
0.0
 10
10.775860587
 20
7.9547624334
 30
0.0
 10
10.772561954
 20
7.9212234081
 30
0.0
 10
10.7718318118
 20
7.8987149939
 30
0.0
 10
10.7718318118
 20
7.8874390399
 30
0.0
  0
SPLINE
  5
40B
100
AcDbEntity
  8
0
100
AcDbSpline
 62
7
  6
CONTINUOUS
 70
0
 71
3
 72
23
 73
19
 74
0
 42
0.0000001
 43
0.0000001
 44
0.0000000001
 40
0.0
 40
0.0
 40
0.0
 40
0.0
 40
0.0617101454
 40
0.1234413989
 40
0.1852146487
 40
0.247050356
 40
0.3089683484
 40
0.3709876189
 40
0.4331261353
 40
0.495400665
 40
0.5578266135
 40
0.620417907
 40
0.6831868089
 40
0.7461438636
 40
0.809298024
 40
0.8726551577
 40
0.9362228294
 40
1.0
 40
1.0
 40
1.0
 40
1.0
 10
10.7402012712
 20
8.0676635524
 30
0.0
 10
10.7344030022
 20
8.0620628351
 30
0.0
 10
10.723090569
 20
8.0505588733
 30
0.0
 10
10.7070288365
 20
8.0324498824
 30
0.0
 10
10.6919077925
 20
8.0135265092
 30
0.0
 10
10.6777628996
 20
7.9938329992
 30
0.0
 10
10.6646265944
 20
7.9734146351
 30
0.0
 10
10.6525291966
 20
7.9523185604
 30
0.0
 10
10.6414985854
 20
7.9305934198
 30
0.0
 10
10.6315601532
 20
7.9082893407
 30
0.0
 10
10.6227367528
 20
7.8854577756
 30
0.0
 10
10.6150486833
 20
7.8621513788
 30
0.0
 10
10.6085136251
 20
7.8384238967
 30
0.0
 10
10.603146594
 20
7.8143299933
 30
0.0
 10
10.5989599689
 20
7.7899253595
 30
0.0
 10
10.5959631337
 20
7.7652658239
 30
0.0
 10
10.5941632358
 20
7.7404092378
 30
0.0
 10
10.5937644558
 20
7.7237707085
 30
0.0
 10
10.5937644558
 20
7.7154391716
 30
0.0
  0
SPLINE
  5
40C
100
AcDbEntity
  8
0
100
AcDbSpline
 62
7
  6
CONTINUOUS
 70
0
 71
3
 72
24
 73
20
 74
0
 42
0.0000001
 43
0.0000001
 44
0.0000000001
 40
0.0
 40
0.0
 40
0.0
 40
0.0
 40
0.0307591877
 40
0.0616050388
 40
0.123531903
 40
0.1857657788
 40
0.248269529
 40
0.3109985503
 40
0.3739020782
 40
0.4369246108
 40
0.5000074449
 40
0.5630902607
 40
0.6261127367
 40
0.6890161691
 40
0.7517450645
 40
0.8142486569
 40
0.8764823518
 40
0.9384089916
 40
1.0
 40
1.0
 40
1.0
 40
1.0
 10
11.6192270813
 20
7.7782049585
 30
0.0
 10
11.6131547083
 20
7.7791052098
 30
0.0
 10
11.6010293997
 20
7.7811668657
 30
0.0
 10
11.5769147663
 20
7.786321708
 30
0.0
 10
11.5470919558
 20
7.794690516
 30
0.0
 10
11.5121435324
 20
7.8077097966
 30
0.0
 10
11.4782367171
 20
7.8236237628
 30
0.0
 10
11.4456242352
 20
7.8423138557
 30
0.0
 10
11.4145469105
 20
7.8636415115
 30
0.0
 10
11.3852347293
 20
7.8874485139
 30
0.0
 10
11.3579045959
 20
7.9135585989
 30
0.0
 10
11.3327587696
 20
7.9417784307
 30
0.0
 10
11.3099833671
 20
7.9718991296
 30
0.0
 10
11.2897472016
 20
8.0036978751
 30
0.0
 10
11.2722002136
 20
8.0369394122
 30
0.0
 10
11.257472679
 20
8.0713775536
 30
0.0
 10
11.2456740567
 20
8.1067584181
 30
0.0
 10
11.2368925449
 20
8.1428165603
 30
0.0
 10
11.2330817514
 20
8.1672062386
 30
0.0
 10
11.2317022531
 20
8.1794205662
 30
0.0
  0
SPLINE
  5
40D
100
AcDbEntity
  8
0
100
AcDbSpline
 62
7
  6
CONTINUOUS
 70
0
 71
3
 72
39
 73
35
 74
0
 42
0.0000001
 43
0.0000001
 44
0.0000000001
 40
0.0
 40
0.0
 40
0.0
 40
0.0
 40
0.0304342553
 40
0.0609816151
 40
0.0916428478
 40
0.1224174101
 40
0.1533034672
 40
0.1842979266
 40
0.2153964869
 40
0.2465936983
 40
0.2778830334
 40
0.3092569664
 40
0.3407070623
 40
0.3722240733
 40
0.4037980411
 40
0.435418408
 40
0.4670741306
 40
0.4987537964
 40
0.5304457438
 40
0.5621381826
 40
0.5938193169
 40
0.6254774679
 40
0.6571011971
 40
0.6886794262
 40
0.7202015541
 40
0.7516575704
 40
0.7830381636
 40
0.8143348255
 40
0.8455399566
 40
0.8766469084
 40
0.9076502706
 40
0.9385452477
 40
0.9693295893
 40
1.0
 40
1.0
 40
1.0
 40
1.0
 10
11.6339865485
 20
7.6972047283
 30
0.0
 10
11.6264781814
 20
7.6966179262
 30
0.0
 10
11.6113982826
 20
7.6958528046
 30
0.0
 10
11.588710038
 20
7.6959300893
 30
0.0
 10
11.5659739894
 20
7.6972297276
 30
0.0
 10
11.5432564656
 20
7.6997479618
 30
0.0
 10
11.5206226082
 20
7.7034774635
 30
0.0
 10
11.4981376113
 20
7.7084074356
 30
0.0
 10
11.4758661469
 20
7.7145236158
 30
0.0
 10
11.4538722871
 20
7.7218083427
 30
0.0
 10
11.4322192925
 20
7.7302406017
 30
0.0
 10
11.4109694407
 20
7.7397960875
 30
0.0
 10
11.390183847
 20
7.7504472729
 30
0.0
 10
11.3699222922
 20
7.7621634904
 30
0.0
 10
11.3502430446
 20
7.7749110063
 30
0.0
 10
11.3312026923
 20
7.7886531213
 30
0.0
 10
11.3128559885
 20
7.8033502872
 30
0.0
 10
11.295255694
 20
7.8189602171
 30
0.0
 10
11.2784524274
 20
7.8354380067
 30
0.0
 10
11.2624945206
 20
7.8527362615
 30
0.0
 10
11.2474278835
 20
7.8708052341
 30
0.0
 10
11.2332958573
 20
7.889592954
 30
0.0
 10
11.220139097
 20
7.909045385
 30
0.0
 10
11.2079954612
 20
7.9291065843
 30
0.0
 10
11.196899903
 20
7.9497188605
 30
0.0
 10
11.1868843707
 20
7.9708229381
 30
0.0
 10
11.1779777162
 20
7.9923581254
 30
0.0
 10
11.17020561
 20
8.0142624906
 30
0.0
 10
11.1635904663
 20
8.0364730192
 30
0.0
 10
11.1581513296
 20
8.0589258565
 30
0.0
 10
11.1539039915
 20
8.081556288
 30
0.0
 10
11.150860577
 20
8.1042995817
 30
0.0
 10
11.1490301437
 20
8.1270892536
 30
0.0
 10
11.1486211705
 20
8.1422999326
 30
0.0
 10
11.1486211705
 20
8.1498896341
 30
0.0
  0
SPLINE
  5
40E
100
AcDbEntity
  8
0
100
AcDbSpline
 62
7
  6
CONTINUOUS
 70
0
 71
3
 72
39
 73
35
 74
0
 42
0.0000001
 43
0.0000001
 44
0.0000000001
 40
0.0
 40
0.0
 40
0.0
 40
0.0
 40
0.0304133839
 40
0.0609403934
 40
0.0915821277
 40
0.1223383395
 40
0.1532074528
 40
0.1841865967
 40
0.2152716517
 40
0.2464573095
 40
0.2777371424
 40
0.3091036846
 40
0.3405485216
 40
0.3720623892
 40
0.4036352794
 40
0.4352565531
 40
0.4669150558
 40
0.4985992382
 40
0.5302972784
 40
0.561997208
 40
0.5936870375
 40
0.6253548848
 40
0.6569891009
 40
0.6885783942
 40
0.7201119507
 40
0.7515795525
 40
0.7829716895
 40
0.8142796674
 40
0.8454957186
 40
0.8766130438
 40
0.9076261021
 40
0.9385300129
 40
0.9693224006
 40
1.0
 40
1.0
 40
1.0
 40
1.0
 10
11.6364453998
 20
7.6612534967
 30
0.0
 10
11.6283774102
 20
7.6605122505
 30
0.0
 10
11.6121668886
 20
7.6594724097
 30
0.0
 10
11.5877595268
 20
7.6592421278
 30
0.0
 10
11.5632836753
 20
7.6603386993
 30
0.0
 10
11.5388118623
 20
7.6627589353
 30
0.0
 10
11.5144153615
 20
7.6664956478
 30
0.0
 10
11.4901655441
 20
7.6715378352
 30
0.0
 10
11.4661332527
 20
7.6778706824
 30
0.0
 10
11.442388709
 20
7.6854756141
 30
0.0
 10
11.4190012806
 20
7.6943303477
 30
0.0
 10
11.3960392886
 20
7.7044089587
 30
0.0
 10
11.3735698097
 20
7.7156819589
 30
0.0
 10
11.3516584754
 20
7.7281163696
 30
0.0
 10
11.3303692803
 20
7.7416758207
 30
0.0
 10
11.3097644028
 20
7.7563206682
 30
0.0
 10
11.2899040229
 20
7.7720081065
 30
0.0
 10
11.2708461498
 20
7.7886922939
 30
0.0
 10
11.2526464528
 20
7.806324484
 30
0.0
 10
11.2353581019
 20
7.8248531694
 30
0.0
 10
11.2190316069
 20
7.8442242236
 30
0.0
 10
11.203714664
 20
7.8643810565
 30
0.0
 10
11.1894520293
 20
7.8852647898
 30
0.0
 10
11.1762853869
 20
7.9068144253
 30
0.0
 10
11.1642532286
 20
7.928967022
 30
0.0
 10
11.1533907421
 20
7.9516578779
 30
0.0
 10
11.1437297103
 20
7.9748207171
 30
0.0
 10
11.1352984091
 20
7.9983878826
 30
0.0
 10
11.128121533
 20
8.0222905156
 30
0.0
 10
11.1222200707
 20
8.0464588208
 30
0.0
 10
11.1176114212
 20
8.0708220538
 30
0.0
 10
11.1143089585
 20
8.095309424
 30
0.0
 10
11.1123226489
 20
8.1198482415
 30
0.0
 10
11.1118788291
 20
8.1362269007
 30
0.0
 10
11.1118788291
 20
8.1443992554
 30
0.0
  0
SPLINE
  5
40F
100
AcDbEntity
  8
0
100
AcDbSpline
 62
7
  6
CONTINUOUS
 70
0
 71
3
 72
43
 73
39
 74
0
 42
0.0000001
 43
0.0000001
 44
0.0000000001
 40
0.0
 40
0.0
 40
0.0
 40
0.0
 40
0.0149603362
 40
0.0299341758
 40
0.0449239842
 40
0.0599321478
 40
0.0900074729
 40
0.1201822008
 40
0.1353140662
 40
0.1504761479
 40
0.1656699311
 40
0.1808967295
 40
0.2114489514
 40
0.2421448433
 40
0.272988647
 40
0.3039816967
 40
0.3351224349
 40
0.3664064826
 40
0.3978267611
 40
0.4293736583
 40
0.4610352363
 40
0.492797474
 40
0.5246445403
 40
0.5565590917
 40
0.5885225894
 40
0.6205156327
 40
0.6525183021
 40
0.6845105091
 40
0.7164723487
 40
0.7483844487
 40
0.7802283133
 40
0.8119866563
 40
0.8436437149
 40
0.8751855573
 40
0.9066003098
 40
0.937878564
 40
0.9690130545
 40
1.0
 40
1.0
 40
1.0
 40
1.0
 10
11.6232734565
 20
7.5252311374
 30
0.0
 10
11.619116782
 20
7.5223011081
 30
0.0
 10
11.6106896744
 20
7.5165926913
 30
0.0
 10
11.5977337113
 20
7.5085021521
 30
0.0
 10
11.5844722022
 20
7.5008893137
 30
0.0
 10
11.566394311
 20
7.4913829611
 30
0.0
 10
11.5431040298
 20
7.4807378376
 30
0.0
 10
11.5190566717
 20
7.4718151205
 30
0.0
 10
11.4994199226
 20
7.4657255467
 30
0.0
 10
11.4844910637
 20
7.4616832442
 30
0.0
 10
11.4693944488
 20
7.4581758335
 30
0.0
 10
11.4490460089
 20
7.4542137487
 30
0.0
 10
11.4232744372
 20
7.4506213391
 30
0.0
 10
11.3920149326
 20
7.4485083326
 30
0.0
 10
11.3605339079
 20
7.4485973394
 30
0.0
 10
11.32898517
 20
7.4508878365
 30
0.0
 10
11.2975214588
 20
7.4553683536
 30
0.0
 10
11.2662954061
 20
7.4620168978
 30
0.0
 10
11.2354583466
 20
7.4708009727
 30
0.0
 10
11.2051597174
 20
7.4816777699
 30
0.0
 10
11.1755463087
 20
7.4945943696
 30
0.0
 10
11.1467615673
 20
7.5094879992
 30
0.0
 10
11.1189449112
 20
7.5262863461
 30
0.0
 10
11.0922310623
 20
7.5449079061
 30
0.0
 10
11.0667494014
 20
7.565262377
 30
0.0
 10
11.0426233489
 20
7.5872510933
 30
0.0
 10
11.0199697727
 20
7.6107675008
 30
0.0
 10
10.9988984277
 20
7.6356976682
 30
0.0
 10
10.9795114296
 20
7.6619208338
 30
0.0
 10
10.9619027626
 20
7.6893099844
 30
0.0
 10
10.9461578203
 20
7.71773246
 30
0.0
 10
10.9323530041
 20
7.7470505998
 30
0.0
 10
10.9205553454
 20
7.777122384
 30
0.0
 10
10.9108222066
 20
7.8078021727
 30
0.0
 10
10.9032009315
 20
7.8389411924
 30
0.0
 10
10.8977287806
 20
7.8703890265
 30
0.0
 10
10.894432422
 20
7.9019912822
 30
0.0
 10
10.8936945541
 20
7.9231158129
 30
0.0
 10
10.8936945541
 20
7.9336494169
 30
0.0
  0
SPLINE
  5
410
100
AcDbEntity
  8
0
100
AcDbSpline
 62
7
  6
CONTINUOUS
 70
0
 71
3
 72
45
 73
41
 74
0
 42
0.0000001
 43
0.0000001
 44
0.0000000001
 40
0.0
 40
0.0
 40
0.0
 40
0.0
 40
0.0149755525
 40
0.0299704131
 40
0.044986582
 40
0.0600259577
 40
0.0901767877
 40
0.1204403537
 40
0.1356200884
 40
0.1508318296
 40
0.1660765573
 40
0.1813550954
 40
0.212011778
 40
0.2428097685
 40
0.2737500167
 40
0.3048309604
 40
0.3360485864
 40
0.3673965317
 40
0.3988662209
 40
0.430447036
 40
0.4621265146
 40
0.4938905727
 40
0.5257237482
 40
0.5576094601
 40
0.5895302821
 40
0.6214682246
 40
0.6534050245
 40
0.6853224366
 40
0.7172025258
 40
0.7490279557
 40
0.7807822701
 40
0.8124501655
 40
0.8440177462
 40
0.8597620338
 40
0.8754768051
 40
0.9068088837
 40
0.9380097964
 40
0.9535609286
 40
0.9690773859
 40
1.0
 40
1.0
 40
1.0
 40
1.0
 10
11.5982808446
 20
7.4488929861
 30
0.0
 10
11.5935863144
 20
7.4462835887
 30
0.0
 10
11.5840979417
 20
7.4412272151
 30
0.0
 10
11.5695975754
 20
7.4341447231
 30
0.0
 10
11.5548358137
 20
7.4275671739
 30
0.0
 10
11.5348127624
 20
7.4194741602
 30
0.0
 10
11.509203534
 20
7.410655847
 30
0.0
 10
11.482995908
 20
7.4036229946
 30
0.0
 10
11.461718929
 20
7.3990753793
 30
0.0
 10
11.4456018429
 20
7.3962045935
 30
0.0
 10
11.4293610631
 20
7.3938808501
 30
0.0
 10
11.4075434855
 20
7.3915127771
 30
0.0
 10
11.3800454568
 20
7.3899358607
 30
0.0
 10
11.3468855303
 20
7.3902612354
 30
0.0
 10
11.313668265
 20
7.3927998795
 30
0.0
 10
11.2805416478
 20
7.3975404339
 30
0.0
 10
11.2476519424
 20
7.4044616429
 30
0.0
 10
11.2151446691
 20
7.4135326754
 30
0.0
 10
11.1831635315
 20
7.4247132084
 30
0.0
 10
11.1518499043
 20
7.4379536192
 30
0.0
 10
11.1213421837
 20
7.4531952063
 30
0.0
 10
11.0917751927
 20
7.4703704539
 30
0.0
 10
11.0632795884
 20
7.4894033294
 30
0.0
 10
11.0359812925
 20
7.5102096187
 30
0.0
 10
11.0100009394
 20
7.5326972965
 30
0.0
 10
10.9854533492
 20
7.5567669298
 30
0.0
 10
10.9624470238
 20
7.5823121166
 30
0.0
 10
10.9410836734
 20
7.6092199443
 30
0.0
 10
10.9214577636
 20
7.6373715121
 30
0.0
 10
10.9036561236
 20
7.6666423491
 30
0.0
 10
10.8877574603
 20
7.6969033297
 30
0.0
 10
10.8738324152
 20
7.7280198765
 30
0.0
 10
10.8639146198
 20
7.7545751995
 30
0.0
 10
10.8570273006
 20
7.776108456
 30
0.0
 10
10.8508557115
 20
7.7977698843
 30
0.0
 10
10.8444690532
 20
7.8251183218
 30
0.0
 10
10.8398761598
 20
7.8527653242
 30
0.0
 10
10.8373006337
 20
7.8749526735
 30
0.0
 10
10.835462689
 20
7.8971122153
 30
0.0
 10
10.8349068078
 20
7.913774392
 30
0.0
 10
10.8349068078
 20
7.9248648111
 30
0.0
  0
SPLINE
  5
411
100
AcDbEntity
  8
0
100
AcDbSpline
 62
7
  6
CONTINUOUS
 70
0
 71
3
 72
41
 73
37
 74
0
 42
0.0000001
 43
0.0000001
 44
0.0000000001
 40
0.0
 40
0.0
 40
0.0
 40
0.0
 40
0.0299370913
 40
0.0599453711
 40
0.0900422682
 40
0.1051313521
 40
0.1202482713
 40
0.1505671305
 40
0.1810148595
 40
0.2116000452
 40
0.2423285872
 40
0.257749995
 40
0.2732081845
 40
0.3042300629
 40
0.3353963844
 40
0.3667020783
 40
0.3981395322
 40
0.4296987619
 40
0.4613676169
 40
0.493132017
 40
0.5249762156
 40
0.5568830858
 40
0.5888344232
 40
0.6208112628
 40
0.6527942051
 40
0.6847637469
 40
0.7167006133
 40
0.7485860866
 40
0.7804023297
 40
0.8121326976
 40
0.8437620347
 40
0.8752769593
 40
0.9066660821
 40
0.9379203815
 40
0.9690328801
 40
1.0
 40
1.0
 40
1.0
 40
1.0
 10
11.5908869723
 20
7.4315297129
 30
0.0
 10
11.5816309854
 20
7.4254641711
 30
0.0
 10
11.5626439177
 20
7.4139943325
 30
0.0
 10
11.532950512
 20
7.3988955658
 30
0.0
 10
11.5073005745
 20
7.38811718
 30
0.0
 10
11.4863096232
 20
7.3806033089
 30
0.0
 10
11.4649840655
 20
7.3738232417
 30
0.0
 10
11.4378089211
 20
7.3667664241
 30
0.0
 10
11.4045773136
 20
7.3606150359
 30
0.0
 10
11.3708451681
 20
7.3567992443
 30
0.0
 10
11.3424811719
 20
7.3555822472
 30
0.0
 10
11.3197045517
 20
7.3557844805
 30
0.0
 10
11.2968399497
 20
7.3567740326
 30
0.0
 10
11.2682420714
 20
7.3594886737
 30
0.0
 10
11.234111435
 20
7.3650821826
 30
0.0
 10
11.2002831834
 20
7.3729890275
 30
0.0
 10
11.1669176713
 20
7.3831716635
 30
0.0
 10
11.1341717279
 20
7.3955819014
 30
0.0
 10
11.1021995891
 20
7.4101610896
 30
0.0
 10
11.071151733
 20
7.4268404056
 30
0.0
 10
11.0411743008
 20
7.4455411762
 30
0.0
 10
11.0124083867
 20
7.4661752503
 30
0.0
 10
10.9849893811
 20
7.4886453997
 30
0.0
 10
10.9590463385
 20
7.5128457796
 30
0.0
 10
10.9347013822
 20
7.538662431
 30
0.0
 10
10.9120691333
 20
7.5659738101
 30
0.0
 10
10.8912561774
 20
7.594651356
 30
0.0
 10
10.8723605658
 20
7.6245600894
 30
0.0
 10
10.855471359
 20
7.6555592408
 30
0.0
 10
10.8406682053
 20
7.6875029075
 30
0.0
 10
10.8280209514
 20
7.7202407133
 30
0.0
 10
10.8175893502
 20
7.7536185784
 30
0.0
 10
10.8094227101
 20
7.7874792128
 30
0.0
 10
10.8035598267
 20
7.8216636637
 30
0.0
 10
10.8000284587
 20
7.8560088501
 30
0.0
 10
10.7992380874
 20
7.8789643677
 30
0.0
 10
10.7992380874
 20
7.8904114708
 30
0.0
  0
SPLINE
  5
412
100
AcDbEntity
  8
0
100
AcDbSpline
 62
7
  6
CONTINUOUS
 70
0
 71
3
 72
44
 73
40
 74
0
 42
0.0000001
 43
0.0000001
 44
0.0000000001
 40
0.0
 40
0.0
 40
0.0
 40
0.0
 40
0.0299684946
 40
0.0449863569
 40
0.0600276177
 40
0.0901827258
 40
0.1204510577
 40
0.1356332879
 40
0.150847578
 40
0.1660948839
 40
0.1813760098
 40
0.2120378331
 40
0.2428407598
 40
0.2737856002
 40
0.3048706714
 40
0.3360918599
 40
0.3674427239
 40
0.3989146308
 40
0.4304969272
 40
0.4621771364
 40
0.4939411801
 40
0.5257736203
 40
0.5576579169
 40
0.5895766992
 40
0.6215120457
 40
0.6534457714
 40
0.6853597167
 40
0.7172360372
 40
0.7490574893
 40
0.7808077093
 40
0.8124714831
 40
0.8440349987
 40
0.8597772903
 40
0.8754901075
 40
0.9068184517
 40
0.9380158812
 40
0.953565369
 40
0.969080263
 40
1.0
 40
1.0
 40
1.0
 40
1.0
 10
11.567868755
 20
7.3886675942
 30
0.0
 10
11.5580405646
 20
7.3832683987
 30
0.0
 10
11.5429939258
 20
7.375681331
 30
0.0
 10
11.522431275
 20
7.3666357181
 30
0.0
 10
11.501499205
 20
7.3582881896
 30
0.0
 10
11.4747363742
 20
7.3492074636
 30
0.0
 10
11.4473584566
 20
7.3419873031
 30
0.0
 10
11.4251370224
 20
7.3373349478
 30
0.0
 10
11.4083072006
 20
7.3344082213
 30
0.0
 10
11.3913508418
 20
7.3320512332
 30
0.0
 10
11.368575326
 20
7.3296691968
 30
0.0
 10
11.3398761049
 20
7.3281318932
 30
0.0
 10
11.3052765283
 20
7.328595557
 30
0.0
 10
11.2706253185
 20
7.3313626689
 30
0.0
 10
11.2360761718
 20
7.3364209101
 30
0.0
 10
11.2017809628
 20
7.3437477088
 30
0.0
 10
11.1678907647
 20
7.3533105763
 30
0.0
 10
11.1345547375
 20
7.3650671924
 30
0.0
 10
11.1019195986
 20
7.3789656078
 30
0.0
 10
11.0701289536
 20
7.3949444776
 30
0.0
 10
11.0393226798
 20
7.4129333326
 30
0.0
 10
11.0096363155
 20
7.4328528893
 30
0.0
 10
10.9812004706
 20
7.4546153979
 30
0.0
 10
10.9541402574
 20
7.4781250263
 30
0.0
 10
10.9285747456
 20
7.5032782786
 30
0.0
 10
10.9046164426
 20
7.5299644495
 30
0.0
 10
10.8823708047
 20
7.5580660998
 30
0.0
 10
10.8619357683
 20
7.5874595962
 30
0.0
 10
10.8434013464
 20
7.6180155448
 30
0.0
 10
10.8268491281
 20
7.6495997409
 30
0.0
 10
10.8123523374
 20
7.6820723369
 30
0.0
 10
10.8020277542
 20
7.7097817048
 30
0.0
 10
10.7948581153
 20
7.7322492013
 30
0.0
 10
10.7884336238
 20
7.7548495765
 30
0.0
 10
10.7817853954
 20
7.7833819932
 30
0.0
 10
10.7770045104
 20
7.8122243785
 30
0.0
 10
10.7743235863
 20
7.83537055
 30
0.0
 10
10.7724104285
 20
7.8584876028
 30
0.0
 10
10.7718318118
 20
7.8758695129
 30
0.0
 10
10.7718318118
 20
7.8874390399
 30
0.0
  0
SPLINE
  5
413
100
AcDbEntity
  8
0
100
AcDbSpline
 62
7
  6
CONTINUOUS
 70
0
 71
3
 72
39
 73
35
 74
0
 42
0.0000001
 43
0.0000001
 44
0.0000000001
 40
0.0
 40
0.0
 40
0.0
 40
0.0
 40
0.029942471
 40
0.0599093185
 40
0.0899243251
 40
0.1200101042
 40
0.1501875626
 40
0.1804754144
 40
0.2108897595
 40
0.2414437366
 40
0.2721472604
 40
0.3030068427
 40
0.3340254953
 40
0.365202715
 40
0.3965345496
 40
0.4280137343
 40
0.4596298913
 40
0.491369786
 40
0.5232176335
 40
0.55515545
 40
0.587163434
 40
0.6192203769
 40
0.6513040926
 40
0.6833918636
 40
0.7154608918
 40
0.747488751
 40
0.7794538351
 40
0.8113357952
 40
0.8431159564
 40
0.874777711
 40
0.9063068724
 40
0.937692086
 40
0.9689246467
 40
1.0
 40
1.0
 40
1.0
 40
1.0
 10
11.4905275946
 20
7.2908686283
 30
0.0
 10
11.4815691892
 20
7.2822154429
 30
0.0
 10
11.4629479174
 20
7.2656074597
 30
0.0
 10
11.4331137583
 20
7.2429820065
 30
0.0
 10
11.4015298112
 20
7.2227563397
 30
0.0
 10
11.3683725761
 20
7.2050438886
 30
0.0
 10
11.3338243428
 20
7.1899414228
 30
0.0
 10
11.2980757686
 20
7.1775319835
 30
0.0
 10
11.2613238491
 20
7.1678834807
 30
0.0
 10
11.2237710715
 20
7.1610485579
 30
0.0
 10
11.185624193
 20
7.1570643378
 30
0.0
 10
11.1470931244
 20
7.1559522512
 30
0.0
 10
11.1083897785
 20
7.1577179489
 30
0.0
 10
11.0697269067
 20
7.1623512124
 30
0.0
 10
11.0313169353
 20
7.1698261121
 30
0.0
 10
10.9933708172
 20
7.1801011678
 30
0.0
 10
10.9560968989
 20
7.1931195996
 30
0.0
 10
10.9196997752
 20
7.2088095853
 30
0.0
 10
10.8843791769
 20
7.2270846778
 30
0.0
 10
10.8503289098
 20
7.2478443269
 30
0.0
 10
10.8177358089
 20
7.2709744207
 30
0.0
 10
10.7867787222
 20
7.2963478939
 30
0.0
 10
10.7576274982
 20
7.3238253755
 30
0.0
 10
10.7304421138
 20
7.3532560151
 30
0.0
 10
10.7053718013
 20
7.3844782894
 30
0.0
 10
10.6825542521
 20
7.4173208842
 30
0.0
 10
10.6621148011
 20
7.4516035743
 30
0.0
 10
10.644165783
 20
7.4871382469
 30
0.0
 10
10.6288059377
 20
7.5237299031
 30
0.0
 10
10.6161198853
 20
7.5611777974
 30
0.0
 10
10.6061775793
 20
7.5992761996
 30
0.0
 10
10.5990340377
 20
7.6378166079
 30
0.0
 10
10.5947287362
 20
7.6765846629
 30
0.0
 10
10.5937644558
 20
7.7025127822
 30
0.0
 10
10.5937644558
 20
7.7154391716
 30
0.0
  0
SPLINE
  5
414
100
AcDbEntity
  8
0
100
AcDbSpline
 62
4
  6
CONTINUOUS
 70
0
 71
3
 72
346
 73
342
 74
0
 42
0.0000001
 43
0.0000001
 44
0.0000000001
 40
0.0
 40
0.0
 40
0.0
 40
0.0
 40
0.015625
 40
0.03125
 40
0.0390625
 40
0.046875
 40
0.05078125
 40
0.0546875
 40
0.05859375
 40
0.060546875
 40
0.0615234375
 40
0.0625
 40
0.0634765625
 40
0.064453125
 40
0.06640625
 40
0.0703125
 40
0.07421875
 40
0.078125
 40
0.0859375
 40
0.09375
 40
0.1015625
 40
0.109375
 40
0.11328125
 40
0.1171875
 40
0.12109375
 40
0.123046875
 40
0.1240234375
 40
0.125
 40
0.1259765625
 40
0.126953125
 40
0.12890625
 40
0.1328125
 40
0.13671875
 40
0.140625
 40
0.1484375
 40
0.15625
 40
0.1640625
 40
0.171875
 40
0.17578125
 40
0.1796875
 40
0.18359375
 40
0.185546875
 40
0.1865234375
 40
0.1875
 40
0.1884765625
 40
0.189453125
 40
0.19140625
 40
0.1953125
 40
0.19921875
 40
0.203125
 40
0.2109375
 40
0.21875
 40
0.2265625
 40
0.234375
 40
0.23828125
 40
0.2421875
 40
0.244140625
 40
0.24609375
 40
0.248046875
 40
0.2490234375
 40
0.2495117188
 40
0.25
 40
0.2504882812
 40
0.2509765625
 40
0.251953125
 40
0.25390625
 40
0.255859375
 40
0.2578125
 40
0.26171875
 40
0.265625
 40
0.2734375
 40
0.28125
 40
0.2890625
 40
0.296875
 40
0.30078125
 40
0.3046875
 40
0.306640625
 40
0.30859375
 40
0.310546875
 40
0.3115234375
 40
0.3120117188
 40
0.3125
 40
0.3129882812
 40
0.3134765625
 40
0.314453125
 40
0.31640625
 40
0.318359375
 40
0.3203125
 40
0.32421875
 40
0.328125
 40
0.3359375
 40
0.34375
 40
0.3515625
 40
0.35546875
 40
0.359375
 40
0.36328125
 40
0.3671875
 40
0.369140625
 40
0.37109375
 40
0.3720703125
 40
0.373046875
 40
0.3740234375
 40
0.3745117188
 40
0.3747558594
 40
0.375
 40
0.3752441406
 40
0.3754882812
 40
0.3759765625
 40
0.376953125
 40
0.3779296875
 40
0.37890625
 40
0.380859375
 40
0.3828125
 40
0.38671875
 40
0.390625
 40
0.39453125
 40
0.3984375
 40
0.40625
 40
0.4140625
 40
0.41796875
 40
0.421875
 40
0.42578125
 40
0.4296875
 40
0.431640625
 40
0.43359375
 40
0.4345703125
 40
0.435546875
 40
0.4365234375
 40
0.4370117188
 40
0.4372558594
 40
0.4375
 40
0.4377441406
 40
0.4379882812
 40
0.4384765625
 40
0.439453125
 40
0.4404296875
 40
0.44140625
 40
0.443359375
 40
0.4453125
 40
0.44921875
 40
0.453125
 40
0.45703125
 40
0.4609375
 40
0.46875
 40
0.4765625
 40
0.48046875
 40
0.484375
 40
0.48828125
 40
0.4921875
 40
0.494140625
 40
0.49609375
 40
0.4970703125
 40
0.498046875
 40
0.4990234375
 40
0.4995117188
 40
0.4997558594
 40
0.5
 40
0.5002441406
 40
0.5004882812
 40
0.5009765625
 40
0.501953125
 40
0.5029296875
 40
0.50390625
 40
0.505859375
 40
0.5078125
 40
0.51171875
 40
0.515625
 40
0.51953125
 40
0.5234375
 40
0.53125
 40
0.5390625
 40
0.54296875
 40
0.546875
 40
0.55078125
 40
0.5546875
 40
0.556640625
 40
0.55859375
 40
0.5595703125
 40
0.560546875
 40
0.5615234375
 40
0.5620117188
 40
0.5622558594
 40
0.5625
 40
0.5627441406
 40
0.5629882812
 40
0.5634765625
 40
0.564453125
 40
0.5654296875
 40
0.56640625
 40
0.568359375
 40
0.5703125
 40
0.57421875
 40
0.578125
 40
0.58203125
 40
0.5859375
 40
0.59375
 40
0.6015625
 40
0.60546875
 40
0.609375
 40
0.61328125
 40
0.6171875
 40
0.619140625
 40
0.62109375
 40
0.6220703125
 40
0.623046875
 40
0.6240234375
 40
0.6245117188
 40
0.6247558594
 40
0.625
 40
0.6252441406
 40
0.6254882812
 40
0.6259765625
 40
0.626953125
 40
0.6279296875
 40
0.62890625
 40
0.630859375
 40
0.6328125
 40
0.63671875
 40
0.640625
 40
0.64453125
 40
0.6484375
 40
0.65625
 40
0.6640625
 40
0.66796875
 40
0.671875
 40
0.67578125
 40
0.6796875
 40
0.681640625
 40
0.68359375
 40
0.6845703125
 40
0.685546875
 40
0.6865234375
 40
0.6870117188
 40
0.6872558594
 40
0.6875
 40
0.6877441406
 40
0.6879882812
 40
0.6884765625
 40
0.689453125
 40
0.6904296875
 40
0.69140625
 40
0.693359375
 40
0.6953125
 40
0.69921875
 40
0.703125
 40
0.70703125
 40
0.7109375
 40
0.71875
 40
0.7265625
 40
0.73046875
 40
0.734375
 40
0.73828125
 40
0.7421875
 40
0.744140625
 40
0.74609375
 40
0.7470703125
 40
0.748046875
 40
0.7490234375
 40
0.7495117188
 40
0.7497558594
 40
0.75
 40
0.7502441406
 40
0.7504882812
 40
0.7509765625
 40
0.751953125
 40
0.7529296875
 40
0.75390625
 40
0.755859375
 40
0.7578125
 40
0.76171875
 40
0.765625
 40
0.76953125
 40
0.7734375
 40
0.78125
 40
0.7890625
 40
0.79296875
 40
0.796875
 40
0.80078125
 40
0.8046875
 40
0.806640625
 40
0.80859375
 40
0.8095703125
 40
0.810546875
 40
0.8115234375
 40
0.8120117188
 40
0.8125
 40
0.8129882812
 40
0.8134765625
 40
0.814453125
 40
0.8154296875
 40
0.81640625
 40
0.818359375
 40
0.8203125
 40
0.82421875
 40
0.828125
 40
0.83203125
 40
0.8359375
 40
0.84375
 40
0.8515625
 40
0.859375
 40
0.86328125
 40
0.8671875
 40
0.869140625
 40
0.87109375
 40
0.873046875
 40
0.8740234375
 40
0.8745117188
 40
0.875
 40
0.8754882812
 40
0.8759765625
 40
0.876953125
 40
0.87890625
 40
0.880859375
 40
0.8828125
 40
0.88671875
 40
0.890625
 40
0.8984375
 40
0.90625
 40
0.9140625
 40
0.921875
 40
0.92578125
 40
0.9296875
 40
0.931640625
 40
0.93359375
 40
0.935546875
 40
0.9365234375
 40
0.9370117188
 40
0.9375
 40
0.9379882812
 40
0.9384765625
 40
0.939453125
 40
0.94140625
 40
0.943359375
 40
0.9453125
 40
0.94921875
 40
0.953125
 40
0.9609375
 40
0.96875
 40
0.9765625
 40
0.984375
 40
1.0
 40
1.0
 40
1.0
 40
1.0
 10
10.3632995554
 20
10.2139130082
 30
0.0
 10
10.3665150593
 20
10.2137752331
 30
0.0
 10
10.3729460681
 20
10.2134996863
 30
0.0
 10
10.3809848247
 20
10.2131552358
 30
0.0
 10
10.3874158392
 20
10.2128797112
 30
0.0
 10
10.3914352025
 20
10.2127074275
 30
0.0
 10
10.3946507406
 20
10.2125697855
 30
0.0
 10
10.3970622643
 20
10.2124660476
 30
0.0
 10
10.3990722807
 20
10.2123812103
 30
0.0
 10
10.4004784809
 20
10.2123186627
 30
0.0
 10
10.4012832907
 20
10.2122878576
 30
0.0
 10
10.4018833294
 20
10.2122508481
 30
0.0
 10
10.402497009
 20
10.2122669929
 30
0.0
 10
10.4033104904
 20
10.2122699786
 30
0.0
 10
10.4047362996
 20
10.212283842
 30
0.0
 10
10.406772011
 20
10.2122991305
 30
0.0
 10
10.4092153607
 20
10.2123194099
 30
0.0
 10
10.4124729871
 20
10.2123457737
 30
0.0
 10
10.4165450788
 20
10.2123789616
 30
0.0
 10
10.421431567
 20
10.2124186806
 30
0.0
 10
10.4263180487
 20
10.2124584527
 30
0.0
 10
10.4303901566
 20
10.2124915077
 30
0.0
 10
10.4336477507
 20
10.2125181373
 30
0.0
 10
10.4360911989
 20
10.212537606
 30
0.0
 10
10.4381266023
 20
10.2125554309
 30
0.0
 10
10.4395529613
 20
10.2125647664
 30
0.0
 10
10.4403655618
 20
10.2125750069
 30
0.0
 10
10.4409819472
 20
10.2125688671
 30
0.0
 10
10.4415718232
 20
10.2126155551
 30
0.0
 10
10.4423675713
 20
10.2126593788
 30
0.0
 10
10.4437558222
 20
10.2127446558
 30
0.0
 10
10.4457412903
 20
10.2128619914
 30
0.0
 10
10.4481228878
 20
10.2130047155
 30
0.0
 10
10.4512986881
 20
10.2131943429
 30
0.0
 10
10.4552683215
 20
10.2134316091
 30
0.0
 10
10.4600319379
 20
10.2137162224
 30
0.0
 10
10.4647955163
 20
10.2140008889
 30
0.0
 10
10.4687652447
 20
10.2142380224
 30
0.0
 10
10.4719408549
 20
10.2144279151
 30
0.0
 10
10.4743230323
 20
10.2145698302
 30
0.0
 10
10.4763066861
 20
10.2146896967
 30
0.0
 10
10.4776981758
 20
10.2147704556
 30
0.0
 10
10.4784887346
 20
10.2148215183
 30
0.0
 10
10.4790945505
 20
10.2148459704
 30
0.0
 10
10.4796510683
 20
10.2149233451
 30
0.0
 10
10.4804102877
 20
10.2150080513
 30
0.0
 10
10.4817309099
 20
10.215164888
 30
0.0
 10
10.4836217017
 20
10.2153844439
 30
0.0
 10
10.485888859
 20
10.2156498356
 30
0.0
 10
10.4889123617
 20
10.2160030189
 30
0.0
 10
10.4926915248
 20
10.2164447289
 30
0.0
 10
10.4972266143
 20
10.2169746813
 30
0.0
 10
10.5017616732
 20
10.2175046624
 30
0.0
 10
10.5055409126
 20
10.2179463007
 30
0.0
 10
10.5085642627
 20
10.2182996274
 30
0.0
 10
10.5104539483
 20
10.2185204226
 30
0.0
 10
10.5119654867
 20
10.2186971364
 30
0.0
 10
10.5130997158
 20
10.2188294594
 30
0.0
 10
10.5140430765
 20
10.2189404039
 30
0.0
 10
10.5147070208
 20
10.2190167397
 30
0.0
 10
10.5150808093
 20
10.2190624296
 30
0.0
 10
10.5153769491
 20
10.2190908672
 30
0.0
 10
10.5156126992
 20
10.2191415895
 30
0.0
 10
10.5159480973
 20
10.219201446
 30
0.0
 10
10.5165252296
 20
10.2193098165
 30
0.0
 10
10.5173548353
 20
10.2194627382
 30
0.0
 10
10.518348166
 20
10.2196470546
 30
0.0
 10
10.5196733739
 20
10.2198925267
 30
0.0
 10
10.5213296212
 20
10.2201994639
 30
0.0
 10
10.5239797637
 20
10.220690509
 30
0.0
 10
10.527292391
 20
10.2213043342
 30
0.0
 10
10.5312675672
 20
10.222040916
 30
0.0
 10
10.5352427311
 20
10.2227775018
 30
0.0
 10
10.5385553893
 20
10.2233913168
 30
0.0
 10
10.5412054702
 20
10.2238823823
 30
0.0
 10
10.5428618739
 20
10.2241892678
 30
0.0
 10
10.5441867609
 20
10.2244348459
 30
0.0
 10
10.545181072
 20
10.2246188386
 30
0.0
 10
10.5460076101
 20
10.2247727732
 30
0.0
 10
10.5465902186
 20
10.2248793354
 30
0.0
 10
10.5469168425
 20
10.2249420893
 30
0.0
 10
10.5471795441
 20
10.2249839118
 30
0.0
 10
10.5473744583
 20
10.2250457754
 30
0.0
 10
10.5476579889
 20
10.2251212696
 30
0.0
 10
10.5481431509
 20
10.2252566415
 30
0.0
 10
10.548841999
 20
10.2254483272
 30
0.0
 10
10.5496781514
 20
10.2256790789
 30
0.0
 10
10.5507938823
 20
10.2259864932
 30
0.0
 10
10.5521882512
 20
10.2263708483
 30
0.0
 10
10.5544194062
 20
10.2269857677
 30
0.0
 10
10.5572082934
 20
10.2277544337
 30
0.0
 10
10.5605549822
 20
10.2286768256
 30
0.0
 10
10.5633438842
 20
10.2294454872
 30
0.0
 10
10.5655750066
 20
10.2300604162
 30
0.0
 10
10.5672483492
 20
10.2305216128
 30
0.0
 10
10.568921688
 20
10.2309828102
 30
0.0
 10
10.5703161492
 20
10.2313671389
 30
0.0
 10
10.5714316909
 20
10.2316746073
 30
0.0
 10
10.5721289664
 20
10.2318667627
 30
0.0
 10
10.5726866449
 20
10.2320205153
 30
0.0
 10
10.5731052922
 20
10.2321357524
 30
0.0
 10
10.5734529294
 20
10.2322320295
 30
0.0
 10
10.5736987002
 20
10.2322989402
 30
0.0
 10
10.5738353546
 20
10.2323379295
 30
0.0
 10
10.5739485108
 20
10.2323650457
 30
0.0
 10
10.5740208986
 20
10.2324002877
 30
0.0
 10
10.5741316361
 20
10.2324444427
 30
0.0
 10
10.5743188012
 20
10.2325230345
 30
0.0
 10
10.5745896439
 20
10.2326346181
 30
0.0
 10
10.5749131725
 20
10.2327688139
 30
0.0
 10
10.5753450617
 20
10.2329476385
 30
0.0
 10
10.5758847459
 20
10.2331712046
 30
0.0
 10
10.5767483398
 20
10.2335288905
 30
0.0
 10
10.5778277982
 20
10.2339760047
 30
0.0
 10
10.5791231628
 20
10.2345125389
 30
0.0
 10
10.5804185235
 20
10.2350490738
 30
0.0
 10
10.5821456725
 20
10.2357644534
 30
0.0
 10
10.5843046082
 20
10.236658678
 30
0.0
 10
10.5864635442
 20
10.2375529026
 30
0.0
 10
10.5881906926
 20
10.2382682823
 30
0.0
 10
10.5894860551
 20
10.2388048169
 30
0.0
 10
10.5907814132
 20
10.2393413522
 30
0.0
 10
10.5918608917
 20
10.2397884628
 30
0.0
 10
10.5927244445
 20
10.240146156
 30
0.0
 10
10.5932642332
 20
10.2403697035
 30
0.0
 10
10.5936959081
 20
10.2405485662
 30
0.0
 10
10.5940200916
 20
10.2406826456
 30
0.0
 10
10.594288885
 20
10.2407945936
 30
0.0
 10
10.5944797085
 20
10.2408725349
 30
0.0
 10
10.5945845843
 20
10.2409177321
 30
0.0
 10
10.5946749774
 20
10.2409497727
 30
0.0
 10
10.5947205089
 20
10.2409889131
 30
0.0
 10
10.5947968657
 20
10.2410386239
 30
0.0
 10
10.5949231993
 20
10.2411267716
 30
0.0
 10
10.5951074877
 20
10.2412520936
 30
0.0
 10
10.5953270022
 20
10.2414027382
 30
0.0
 10
10.5956202581
 20
10.2416035075
 30
0.0
 10
10.5959866328
 20
10.2418545001
 30
0.0
 10
10.5965729414
 20
10.2422560709
 30
0.0
 10
10.5973057897
 20
10.2427580403
 30
0.0
 10
10.5981852238
 20
10.243360401
 30
0.0
 10
10.5990646535
 20
10.2439627625
 30
0.0
 10
10.600237228
 20
10.2447659108
 30
0.0
 10
10.6017029455
 20
10.2457698463
 30
0.0
 10
10.6031686635
 20
10.2467737818
 30
0.0
 10
10.6043412373
 20
10.2475769302
 30
0.0
 10
10.605220669
 20
10.2481792914
 30
0.0
 10
10.6061000957
 20
10.2487816529
 30
0.0
 10
10.6068329668
 20
10.2492836201
 30
0.0
 10
10.6074192291
 20
10.2496851954
 30
0.0
 10
10.6077857217
 20
10.2499361764
 30
0.0
 10
10.6080787355
 20
10.2501369694
 30
0.0
 10
10.6082989894
 20
10.2502875417
 30
0.0
 10
10.6084809646
 20
10.2504130899
 30
0.0
 10
10.6086114276
 20
10.2505008338
 30
0.0
 10
10.6086811681
 20
10.2505511916
 30
0.0
 10
10.6087470228
 20
10.2505883445
 30
0.0
 10
10.6087610852
 20
10.2506278501
 30
0.0
 10
10.6087979007
 20
10.2506797036
 30
0.0
 10
10.6088539107
 20
10.2507708296
 30
0.0
 10
10.6089383256
 20
10.2509008097
 30
0.0
 10
10.6090377399
 20
10.2510568714
 30
0.0
 10
10.6091709502
 20
10.2512649237
 30
0.0
 10
10.6093372378
 20
10.2515249994
 30
0.0
 10
10.6096034239
 20
10.2519411148
 30
0.0
 10
10.6099361133
 20
10.2524612609
 30
0.0
 10
10.6103353591
 20
10.2530854355
 30
0.0
 10
10.6107345999
 20
10.2537096103
 30
0.0
 10
10.6112669228
 20
10.2545418432
 30
0.0
 10
10.6119323257
 20
10.2555821345
 30
0.0
 10
10.612597729
 20
10.2566224257
 30
0.0
 10
10.6131300512
 20
10.2574546587
 30
0.0
 10
10.6135292941
 20
10.2580788334
 30
0.0
 10
10.6139285321
 20
10.2587030082
 30
0.0
 10
10.6142612457
 20
10.2592231536
 30
0.0
 10
10.6145273823
 20
10.2596392705
 30
0.0
 10
10.6146937957
 20
10.2598993422
 30
0.0
 10
10.6148267478
 20
10.2601074027
 30
0.0
 10
10.614926951
 20
10.2602634396
 30
0.0
 10
10.6150088976
 20
10.2603934972
 30
0.0
 10
10.615069314
 20
10.2604844849
 30
0.0
 10
10.6150990695
 20
10.2605365599
 30
0.0
 10
10.6151348179
 20
10.2605753852
 30
0.0
 10
10.6151192232
 20
10.2606150932
 30
0.0
 10
10.6151163393
 20
10.2606677293
 30
0.0
 10
10.6151029482
 20
10.2607599858
 30
0.0
 10
10.6150881806
 20
10.2608917059
 30
0.0
 10
10.6150685922
 20
10.2610498022
 30
0.0
 10
10.6150431266
 20
10.2612605859
 30
0.0
 10
10.6150110712
 20
10.2615240695
 30
0.0
 10
10.6149599074
 20
10.261945641
 30
0.0
 10
10.6148959098
 20
10.2624726061
 30
0.0
 10
10.6148191311
 20
10.263104964
 30
0.0
 10
10.6147423474
 20
10.2637373219
 30
0.0
 10
10.6146399709
 20
10.2645804658
 30
0.0
 10
10.6145119997
 20
10.2656343957
 30
0.0
 10
10.6143840289
 20
10.2666883255
 30
0.0
 10
10.6142816517
 20
10.2675314694
 30
0.0
 10
10.6142048701
 20
10.2681638273
 30
0.0
 10
10.6141280836
 20
10.2687961851
 30
0.0
 10
10.6140641101
 20
10.2693231504
 30
0.0
 10
10.6140128972
 20
10.2697447216
 30
0.0
 10
10.6139809667
 20
10.2700082061
 30
0.0
 10
10.6139552448
 20
10.2702189878
 30
0.0
 10
10.6139364394
 20
10.2703770904
 30
0.0
 10
10.6139192218
 20
10.2705087906
 30
0.0
 10
10.6139102044
 20
10.2706010827
 30
0.0
 10
10.6139003128
 20
10.2706536618
 30
0.0
 10
10.6139062434
 20
10.2706935448
 30
0.0
 10
10.6138611463
 20
10.2707317126
 30
0.0
 10
10.6138188158
 20
10.2707832012
 30
0.0
 10
10.6137364445
 20
10.2708730276
 30
0.0
 10
10.6136231069
 20
10.2710014967
 30
0.0
 10
10.6134852459
 20
10.2711555973
 30
0.0
 10
10.6133020795
 20
10.2713610865
 30
0.0
 10
10.6130728996
 20
10.2716179406
 30
0.0
 10
10.6127063357
 20
10.2720289113
 30
0.0
 10
10.6122480883
 20
10.2725426232
 30
0.0
 10
10.6116982097
 20
10.2731590781
 30
0.0
 10
10.6111483262
 20
10.2737755328
 30
0.0
 10
10.6104151499
 20
10.2745974726
 30
0.0
 10
10.6094986788
 20
10.2756248972
 30
0.0
 10
10.6085822082
 20
10.2766523218
 30
0.0
 10
10.6078490312
 20
10.2774742615
 30
0.0
 10
10.6072991498
 20
10.2780907163
 30
0.0
 10
10.6067492634
 20
10.2787071709
 30
0.0
 10
10.60629104
 20
10.2792208839
 30
0.0
 10
10.6059244272
 20
10.2796318523
 30
0.0
 10
10.6056953719
 20
10.2798887123
 30
0.0
 10
10.6055119497
 20
10.2800941893
 30
0.0
 10
10.6053748701
 20
10.2802483273
 30
0.0
 10
10.6052590878
 20
10.2803766791
 30
0.0
 10
10.6051810806
 20
10.280466715
 30
0.0
 10
10.6051317578
 20
10.2805178679
 30
0.0
 10
10.6051081389
 20
10.280557067
 30
0.0
 10
10.6050334007
 20
10.2805930764
 30
0.0
 10
10.6049515807
 20
10.2806422014
 30
0.0
 10
10.6048000879
 20
10.2807276519
 30
0.0
 10
10.604588013
 20
10.280849995
 30
0.0
 10
10.6043316641
 20
10.2809966908
 30
0.0
 10
10.6039905149
 20
10.2811923256
 30
0.0
 10
10.603563856
 20
10.2814368553
 30
0.0
 10
10.6028813261
 20
10.2818281106
 30
0.0
 10
10.6020281211
 20
10.282317177
 30
0.0
 10
10.6010042933
 20
10.2829040578
 30
0.0
 10
10.5999804606
 20
10.2834909384
 30
0.0
 10
10.5986153521
 20
10.2842734459
 30
0.0
 10
10.5969089659
 20
10.2852515802
 30
0.0
 10
10.59520258
 20
10.2862297145
 30
0.0
 10
10.5938374709
 20
10.2870122219
 30
0.0
 10
10.5928136401
 20
10.2875991027
 30
0.0
 10
10.5917898052
 20
10.2881859827
 30
0.0
 10
10.5909366223
 20
10.2886750517
 30
0.0
 10
10.5902540473
 20
10.2890663017
 30
0.0
 10
10.5898275033
 20
10.2893108448
 30
0.0
 10
10.5894861183
 20
10.2895064521
 30
0.0
 10
10.5892304897
 20
10.289653232
 30
0.0
 10
10.5890161611
 20
10.2897753118
 30
0.0
 10
10.5888686916
 20
10.2898612324
 30
0.0
 10
10.5887804253
 20
10.2899096042
 30
0.0
 10
10.588725488
 20
10.2899479275
 30
0.0
 10
10.5886275001
 20
10.2899784357
 30
0.0
 10
10.5885118661
 20
10.2900218394
 30
0.0
 10
10.5883025101
 20
10.2900965258
 30
0.0
 10
10.5880070879
 20
10.2902038846
 30
0.0
 10
10.5876510157
 20
10.2903324309
 30
0.0
 10
10.5871767995
 20
10.2905039253
 30
0.0
 10
10.586583842
 20
10.2907182593
 30
0.0
 10
10.5856352148
 20
10.2910612127
 30
0.0
 10
10.5844493948
 20
10.2914898979
 30
0.0
 10
10.5830264262
 20
10.2920043229
 30
0.0
 10
10.5816034534
 20
10.2925187472
 30
0.0
 10
10.5797061579
 20
10.2932046466
 30
0.0
 10
10.5773345381
 20
10.2940620207
 30
0.0
 10
10.574962918
 20
10.2949193947
 30
0.0
 10
10.5730656229
 20
10.2956052941
 30
0.0
 10
10.5716426489
 20
10.2961197181
 30
0.0
 10
10.5702196853
 20
10.2966341444
 30
0.0
 10
10.5690338497
 20
10.2970628257
 30
0.0
 10
10.5680852542
 20
10.2974057872
 30
0.0
 10
10.567492216
 20
10.2976201005
 30
0.0
 10
10.5670181656
 20
10.2977916373
 30
0.0
 10
10.566661587
 20
10.2979200541
 30
0.0
 10
10.566367749
 20
10.2980278182
 30
0.0
 10
10.5661252529
 20
10.298112347
 30
0.0
 10
10.5659636715
 20
10.2981803411
 30
0.0
 10
10.5657246403
 20
10.2982307866
 30
0.0
 10
10.5654329863
 20
10.2983041773
 30
0.0
 10
10.5650591366
 20
10.2983938125
 30
0.0
 10
10.56461449
 20
10.2985022749
 30
0.0
 10
10.5640202402
 20
10.2986465771
 30
0.0
 10
10.5632779031
 20
10.2988270624
 30
0.0
 10
10.5620898981
 20
10.2991157788
 30
0.0
 10
10.5606049831
 20
10.299476695
 30
0.0
 10
10.5588230459
 20
10.2999097855
 30
0.0
 10
10.5570411193
 20
10.3003428784
 30
0.0
 10
10.5546652132
 20
10.3009203347
 30
0.0
 10
10.5516953332
 20
10.3016421558
 30
0.0
 10
10.5481314706
 20
10.3025083389
 30
0.0
 10
10.5451616039
 20
10.3032301645
 30
0.0
 10
10.5427856686
 20
10.3038076109
 30
0.0
 10
10.5413008045
 20
10.304168547
 30
0.0
 10
10.5401126947
 20
10.3044572224
 30
0.0
 10
10.5392222105
 20
10.30467393
 30
0.0
 10
10.5384782374
 20
10.3048538801
 30
0.0
 10
10.5379611908
 20
10.3049811004
 30
0.0
 10
10.5376599043
 20
10.3050518378
 30
0.0
 10
10.5374503663
 20
10.3051104117
 30
0.0
 10
10.5371780366
 20
10.3051478824
 30
0.0
 10
10.5368368328
 20
10.3052052043
 30
0.0
 10
10.5362295214
 20
10.305302088
 30
0.0
 10
10.5353672688
 20
10.3054422864
 30
0.0
 10
10.5343302821
 20
10.3056097569
 30
0.0
 10
10.5329484308
 20
10.3058333191
 30
0.0
 10
10.5312208435
 20
10.30611268
 30
0.0
 10
10.5284568566
 20
10.3065597087
 30
0.0
 10
10.5250018203
 20
10.3071184769
 30
0.0
 10
10.5208558005
 20
10.3077890069
 30
0.0
 10
10.5167097695
 20
10.3084595326
 30
0.0
 10
10.5132547614
 20
10.3090183114
 30
0.0
 10
10.510490718
 20
10.3094653189
 30
0.0
 10
10.5087632742
 20
10.3097447338
 30
0.0
 10
10.5073811283
 20
10.309968185
 30
0.0
 10
10.5063450416
 20
10.3101359946
 30
0.0
 10
10.5054799732
 20
10.3102751322
 30
0.0
 10
10.5048776885
 20
10.3103739096
 30
0.0
 10
10.5045284307
 20
10.3104281973
 30
0.0
 10
10.5042808403
 20
10.3104749881
 30
0.0
 10
10.5039783855
 20
10.310498557
 30
0.0
 10
10.5035942498
 20
10.3105380821
 30
0.0
 10
10.5029130959
 20
10.3106034772
 30
0.0
 10
10.5019446805
 20
10.3106988718
 30
0.0
 10
10.5007805867
 20
10.3108125009
 30
0.0
 10
10.4992291586
 20
10.3109643012
 30
0.0
 10
10.4972896347
 20
10.3111539506
 30
0.0
 10
10.49418653
 20
10.3114574461
 30
0.0
 10
10.4903076033
 20
10.3118367961
 30
0.0
 10
10.4856529109
 20
10.3122920245
 30
0.0
 10
10.4809982132
 20
10.3127472506
 30
0.0
 10
10.4747919515
 20
10.3133542195
 30
0.0
 10
10.4701372548
 20
10.313809446
 30
0.0
 10
10.4670341238
 20
10.3141129304
 30
0.0
  0
SPLINE
  5
415
100
AcDbEntity
  8
0
100
AcDbSpline
 62
4
  6
CONTINUOUS
 70
0
 71
3
 72
346
 73
342
 74
0
 42
0.0000001
 43
0.0000001
 44
0.0000000001
 40
0.0
 40
0.0
 40
0.0
 40
0.0
 40
0.015625
 40
0.03125
 40
0.0390625
 40
0.046875
 40
0.05078125
 40
0.0546875
 40
0.05859375
 40
0.060546875
 40
0.0615234375
 40
0.0625
 40
0.0634765625
 40
0.064453125
 40
0.06640625
 40
0.0703125
 40
0.07421875
 40
0.078125
 40
0.0859375
 40
0.09375
 40
0.1015625
 40
0.109375
 40
0.11328125
 40
0.1171875
 40
0.12109375
 40
0.123046875
 40
0.1240234375
 40
0.125
 40
0.1259765625
 40
0.126953125
 40
0.12890625
 40
0.1328125
 40
0.13671875
 40
0.140625
 40
0.1484375
 40
0.15625
 40
0.1640625
 40
0.171875
 40
0.17578125
 40
0.1796875
 40
0.18359375
 40
0.185546875
 40
0.1865234375
 40
0.1875
 40
0.1884765625
 40
0.189453125
 40
0.19140625
 40
0.1953125
 40
0.19921875
 40
0.203125
 40
0.2109375
 40
0.21875
 40
0.2265625
 40
0.234375
 40
0.23828125
 40
0.2421875
 40
0.244140625
 40
0.24609375
 40
0.248046875
 40
0.2490234375
 40
0.2495117188
 40
0.25
 40
0.2504882812
 40
0.2509765625
 40
0.251953125
 40
0.25390625
 40
0.255859375
 40
0.2578125
 40
0.26171875
 40
0.265625
 40
0.2734375
 40
0.28125
 40
0.2890625
 40
0.296875
 40
0.30078125
 40
0.3046875
 40
0.306640625
 40
0.30859375
 40
0.310546875
 40
0.3115234375
 40
0.3120117188
 40
0.3125
 40
0.3129882812
 40
0.3134765625
 40
0.314453125
 40
0.31640625
 40
0.318359375
 40
0.3203125
 40
0.32421875
 40
0.328125
 40
0.3359375
 40
0.34375
 40
0.3515625
 40
0.35546875
 40
0.359375
 40
0.36328125
 40
0.3671875
 40
0.369140625
 40
0.37109375
 40
0.3720703125
 40
0.373046875
 40
0.3740234375
 40
0.3745117188
 40
0.3747558594
 40
0.375
 40
0.3752441406
 40
0.3754882812
 40
0.3759765625
 40
0.376953125
 40
0.3779296875
 40
0.37890625
 40
0.380859375
 40
0.3828125
 40
0.38671875
 40
0.390625
 40
0.39453125
 40
0.3984375
 40
0.40625
 40
0.4140625
 40
0.41796875
 40
0.421875
 40
0.42578125
 40
0.4296875
 40
0.431640625
 40
0.43359375
 40
0.4345703125
 40
0.435546875
 40
0.4365234375
 40
0.4370117188
 40
0.4372558594
 40
0.4375
 40
0.4377441406
 40
0.4379882812
 40
0.4384765625
 40
0.439453125
 40
0.4404296875
 40
0.44140625
 40
0.443359375
 40
0.4453125
 40
0.44921875
 40
0.453125
 40
0.45703125
 40
0.4609375
 40
0.46875
 40
0.4765625
 40
0.48046875
 40
0.484375
 40
0.48828125
 40
0.4921875
 40
0.494140625
 40
0.49609375
 40
0.4970703125
 40
0.498046875
 40
0.4990234375
 40
0.4995117188
 40
0.4997558594
 40
0.5
 40
0.5002441406
 40
0.5004882812
 40
0.5009765625
 40
0.501953125
 40
0.5029296875
 40
0.50390625
 40
0.505859375
 40
0.5078125
 40
0.51171875
 40
0.515625
 40
0.51953125
 40
0.5234375
 40
0.53125
 40
0.5390625
 40
0.54296875
 40
0.546875
 40
0.55078125
 40
0.5546875
 40
0.556640625
 40
0.55859375
 40
0.5595703125
 40
0.560546875
 40
0.5615234375
 40
0.5620117188
 40
0.5622558594
 40
0.5625
 40
0.5627441406
 40
0.5629882812
 40
0.5634765625
 40
0.564453125
 40
0.5654296875
 40
0.56640625
 40
0.568359375
 40
0.5703125
 40
0.57421875
 40
0.578125
 40
0.58203125
 40
0.5859375
 40
0.59375
 40
0.6015625
 40
0.60546875
 40
0.609375
 40
0.61328125
 40
0.6171875
 40
0.619140625
 40
0.62109375
 40
0.6220703125
 40
0.623046875
 40
0.6240234375
 40
0.6245117188
 40
0.6247558594
 40
0.625
 40
0.6252441406
 40
0.6254882812
 40
0.6259765625
 40
0.626953125
 40
0.6279296875
 40
0.62890625
 40
0.630859375
 40
0.6328125
 40
0.63671875
 40
0.640625
 40
0.64453125
 40
0.6484375
 40
0.65625
 40
0.6640625
 40
0.66796875
 40
0.671875
 40
0.67578125
 40
0.6796875
 40
0.681640625
 40
0.68359375
 40
0.6845703125
 40
0.685546875
 40
0.6865234375
 40
0.6870117188
 40
0.6872558594
 40
0.6875
 40
0.6877441406
 40
0.6879882812
 40
0.6884765625
 40
0.689453125
 40
0.6904296875
 40
0.69140625
 40
0.693359375
 40
0.6953125
 40
0.69921875
 40
0.703125
 40
0.70703125
 40
0.7109375
 40
0.71875
 40
0.7265625
 40
0.73046875
 40
0.734375
 40
0.73828125
 40
0.7421875
 40
0.744140625
 40
0.74609375
 40
0.7470703125
 40
0.748046875
 40
0.7490234375
 40
0.7495117188
 40
0.7497558594
 40
0.75
 40
0.7502441406
 40
0.7504882812
 40
0.7509765625
 40
0.751953125
 40
0.7529296875
 40
0.75390625
 40
0.755859375
 40
0.7578125
 40
0.76171875
 40
0.765625
 40
0.76953125
 40
0.7734375
 40
0.78125
 40
0.7890625
 40
0.79296875
 40
0.796875
 40
0.80078125
 40
0.8046875
 40
0.806640625
 40
0.80859375
 40
0.8095703125
 40
0.810546875
 40
0.8115234375
 40
0.8120117188
 40
0.8125
 40
0.8129882812
 40
0.8134765625
 40
0.814453125
 40
0.8154296875
 40
0.81640625
 40
0.818359375
 40
0.8203125
 40
0.82421875
 40
0.828125
 40
0.83203125
 40
0.8359375
 40
0.84375
 40
0.8515625
 40
0.859375
 40
0.86328125
 40
0.8671875
 40
0.869140625
 40
0.87109375
 40
0.873046875
 40
0.8740234375
 40
0.8745117188
 40
0.875
 40
0.8754882812
 40
0.8759765625
 40
0.876953125
 40
0.87890625
 40
0.880859375
 40
0.8828125
 40
0.88671875
 40
0.890625
 40
0.8984375
 40
0.90625
 40
0.9140625
 40
0.921875
 40
0.92578125
 40
0.9296875
 40
0.931640625
 40
0.93359375
 40
0.935546875
 40
0.9365234375
 40
0.9370117188
 40
0.9375
 40
0.9379882812
 40
0.9384765625
 40
0.939453125
 40
0.94140625
 40
0.943359375
 40
0.9453125
 40
0.94921875
 40
0.953125
 40
0.9609375
 40
0.96875
 40
0.9765625
 40
0.984375
 40
1.0
 40
1.0
 40
1.0
 40
1.0
 10
10.4670341407
 20
10.3141129292
 30
0.0
 10
10.4638186367
 20
10.3142507043
 30
0.0
 10
10.4573876279
 20
10.314526251
 30
0.0
 10
10.4493488713
 20
10.3148707015
 30
0.0
 10
10.4429178568
 20
10.3151462262
 30
0.0
 10
10.4388984935
 20
10.3153185099
 30
0.0
 10
10.4356829554
 20
10.3154561519
 30
0.0
 10
10.4332714318
 20
10.3155598898
 30
0.0
 10
10.4312614153
 20
10.3156447271
 30
0.0
 10
10.4298552151
 20
10.3157072746
 30
0.0
 10
10.4290504054
 20
10.3157380798
 30
0.0
 10
10.4284503666
 20
10.3157750893
 30
0.0
 10
10.427836687
 20
10.3157589444
 30
0.0
 10
10.4270232057
 20
10.3157559588
 30
0.0
 10
10.4255973964
 20
10.3157420954
 30
0.0
 10
10.4235616851
 20
10.3157268069
 30
0.0
 10
10.4211183354
 20
10.3157065274
 30
0.0
 10
10.4178607089
 20
10.3156801637
 30
0.0
 10
10.4137886172
 20
10.3156469757
 30
0.0
 10
10.4089021291
 20
10.3156072568
 30
0.0
 10
10.4040156473
 20
10.3155674847
 30
0.0
 10
10.3999435395
 20
10.3155344296
 30
0.0
 10
10.3966859453
 20
10.3155078001
 30
0.0
 10
10.3942424972
 20
10.3154883314
 30
0.0
 10
10.3922070938
 20
10.3154705065
 30
0.0
 10
10.3907807347
 20
10.315461171
 30
0.0
 10
10.3899681343
 20
10.3154509305
 30
0.0
 10
10.3893517489
 20
10.3154570703
 30
0.0
 10
10.3887618729
 20
10.3154103823
 30
0.0
 10
10.3879661248
 20
10.3153665586
 30
0.0
 10
10.3865778738
 20
10.3152812816
 30
0.0
 10
10.3845924058
 20
10.315163946
 30
0.0
 10
10.3822108082
 20
10.3150212219
 30
0.0
 10
10.3790350079
 20
10.3148315945
 30
0.0
 10
10.3750653745
 20
10.3145943283
 30
0.0
 10
10.3703017581
 20
10.3143097149
 30
0.0
 10
10.3655381798
 20
10.3140250485
 30
0.0
 10
10.3615684513
 20
10.313787915
 30
0.0
 10
10.3583928412
 20
10.3135980223
 30
0.0
 10
10.3560106637
 20
10.3134561072
 30
0.0
 10
10.3540270099
 20
10.3133362407
 30
0.0
 10
10.3526355202
 20
10.3132554818
 30
0.0
 10
10.3518449614
 20
10.313204419
 30
0.0
 10
10.3512391455
 20
10.313179967
 30
0.0
 10
10.3506826277
 20
10.3131025923
 30
0.0
 10
10.3499234083
 20
10.3130178861
 30
0.0
 10
10.3486027861
 20
10.3128610494
 30
0.0
 10
10.3467119943
 20
10.3126414935
 30
0.0
 10
10.344444837
 20
10.3123761018
 30
0.0
 10
10.3414213344
 20
10.3120229185
 30
0.0
 10
10.3376421712
 20
10.3115812085
 30
0.0
 10
10.3331070818
 20
10.3110512561
 30
0.0
 10
10.3285720229
 20
10.3105212749
 30
0.0
 10
10.3247927834
 20
10.3100796367
 30
0.0
 10
10.3217694334
 20
10.30972631
 30
0.0
 10
10.3198797477
 20
10.3095055147
 30
0.0
 10
10.3183682093
 20
10.309328801
 30
0.0
 10
10.3172339802
 20
10.309196478
 30
0.0
 10
10.3162906195
 20
10.3090855335
 30
0.0
 10
10.3156266753
 20
10.3090091977
 30
0.0
 10
10.3152528868
 20
10.3089635078
 30
0.0
 10
10.3149567469
 20
10.3089350701
 30
0.0
 10
10.3147209968
 20
10.3088843479
 30
0.0
 10
10.3143855987
 20
10.3088244914
 30
0.0
 10
10.3138084665
 20
10.3087161208
 30
0.0
 10
10.3129788607
 20
10.3085631992
 30
0.0
 10
10.3119855301
 20
10.3083788828
 30
0.0
 10
10.3106603221
 20
10.3081334106
 30
0.0
 10
10.3090040749
 20
10.3078264735
 30
0.0
 10
10.3063539324
 20
10.3073354283
 30
0.0
 10
10.303041305
 20
10.3067216031
 30
0.0
 10
10.2990661288
 20
10.3059850214
 30
0.0
 10
10.2950909649
 20
10.3052484356
 30
0.0
 10
10.2917783068
 20
10.3046346206
 30
0.0
 10
10.2891282258
 20
10.3041435551
 30
0.0
 10
10.2874718222
 20
10.3038366696
 30
0.0
 10
10.2861469352
 20
10.3035910915
 30
0.0
 10
10.2851526241
 20
10.3034070988
 30
0.0
 10
10.2843260859
 20
10.3032531642
 30
0.0
 10
10.2837434775
 20
10.303146602
 30
0.0
 10
10.2834168536
 20
10.3030838481
 30
0.0
 10
10.2831541519
 20
10.3030420256
 30
0.0
 10
10.2829592377
 20
10.302980162
 30
0.0
 10
10.2826757071
 20
10.3029046678
 30
0.0
 10
10.2821905452
 20
10.3027692958
 30
0.0
 10
10.2814916971
 20
10.3025776101
 30
0.0
 10
10.2806555447
 20
10.3023468585
 30
0.0
 10
10.2795398137
 20
10.3020394441
 30
0.0
 10
10.2781454448
 20
10.3016550891
 30
0.0
 10
10.2759142899
 20
10.3010401697
 30
0.0
 10
10.2731254027
 20
10.3002715037
 30
0.0
 10
10.2697787138
 20
10.2993491117
 30
0.0
 10
10.2669898118
 20
10.2985804501
 30
0.0
 10
10.2647586895
 20
10.2979655211
 30
0.0
 10
10.2630853468
 20
10.2975043245
 30
0.0
 10
10.261412008
 20
10.2970431272
 30
0.0
 10
10.2600175469
 20
10.2966587984
 30
0.0
 10
10.2589020052
 20
10.29635133
 30
0.0
 10
10.2582047297
 20
10.2961591746
 30
0.0
 10
10.2576470511
 20
10.296005422
 30
0.0
 10
10.2572284038
 20
10.295890185
 30
0.0
 10
10.2568807666
 20
10.2957939079
 30
0.0
 10
10.2566349958
 20
10.2957269972
 30
0.0
 10
10.2564983414
 20
10.2956880079
 30
0.0
 10
10.2563851853
 20
10.2956608917
 30
0.0
 10
10.2563127975
 20
10.2956256497
 30
0.0
 10
10.2562020599
 20
10.2955814947
 30
0.0
 10
10.2560148948
 20
10.2955029029
 30
0.0
 10
10.2557440521
 20
10.2953913193
 30
0.0
 10
10.2554205236
 20
10.2952571234
 30
0.0
 10
10.2549886343
 20
10.2950782989
 30
0.0
 10
10.2544489501
 20
10.2948547328
 30
0.0
 10
10.2535853562
 20
10.2944970469
 30
0.0
 10
10.2525058979
 20
10.2940499327
 30
0.0
 10
10.2512105333
 20
10.2935133985
 30
0.0
 10
10.2499151725
 20
10.2929768636
 30
0.0
 10
10.2481880236
 20
10.292261484
 30
0.0
 10
10.2460290879
 20
10.2913672594
 30
0.0
 10
10.2438701518
 20
10.2904730348
 30
0.0
 10
10.2421430034
 20
10.2897576551
 30
0.0
 10
10.240847641
 20
10.2892211205
 30
0.0
 10
10.2395522828
 20
10.2886845852
 30
0.0
 10
10.2384728044
 20
10.2882374746
 30
0.0
 10
10.2376092515
 20
10.2878797814
 30
0.0
 10
10.2370694628
 20
10.2876562339
 30
0.0
 10
10.236637788
 20
10.2874773712
 30
0.0
 10
10.2363136044
 20
10.2873432918
 30
0.0
 10
10.2360448111
 20
10.2872313438
 30
0.0
 10
10.2358539876
 20
10.2871534025
 30
0.0
 10
10.2357491117
 20
10.2871082052
 30
0.0
 10
10.2356587186
 20
10.2870761647
 30
0.0
 10
10.2356131872
 20
10.2870370242
 30
0.0
 10
10.2355368304
 20
10.2869873135
 30
0.0
 10
10.2354104967
 20
10.2868991658
 30
0.0
 10
10.2352262083
 20
10.2867738438
 30
0.0
 10
10.2350066938
 20
10.2866231991
 30
0.0
 10
10.234713438
 20
10.2864224298
 30
0.0
 10
10.2343470632
 20
10.2861714373
 30
0.0
 10
10.2337607547
 20
10.2857698665
 30
0.0
 10
10.2330279063
 20
10.2852678971
 30
0.0
 10
10.2321484723
 20
10.2846655363
 30
0.0
 10
10.2312690426
 20
10.2840631749
 30
0.0
 10
10.2300964681
 20
10.2832600266
 30
0.0
 10
10.2286307505
 20
10.2822560911
 30
0.0
 10
10.2271650326
 20
10.2812521556
 30
0.0
 10
10.2259924587
 20
10.2804490072
 30
0.0
 10
10.225113027
 20
10.279846646
 30
0.0
 10
10.2242336003
 20
10.2792442845
 30
0.0
 10
10.2235007293
 20
10.2787423173
 30
0.0
 10
10.222914467
 20
10.278340742
 30
0.0
 10
10.2225479744
 20
10.278089761
 30
0.0
 10
10.2222549605
 20
10.277888968
 30
0.0
 10
10.2220347067
 20
10.2777383957
 30
0.0
 10
10.2218527315
 20
10.2776128474
 30
0.0
 10
10.2217222684
 20
10.2775251036
 30
0.0
 10
10.2216525279
 20
10.2774747458
 30
0.0
 10
10.2215866732
 20
10.2774375929
 30
0.0
 10
10.2215726109
 20
10.2773980873
 30
0.0
 10
10.2215357954
 20
10.2773462338
 30
0.0
 10
10.2214797853
 20
10.2772551078
 30
0.0
 10
10.2213953704
 20
10.2771251277
 30
0.0
 10
10.2212959561
 20
10.276969066
 30
0.0
 10
10.2211627458
 20
10.2767610136
 30
0.0
 10
10.2209964582
 20
10.276500938
 30
0.0
 10
10.2207302721
 20
10.2760848226
 30
0.0
 10
10.2203975828
 20
10.2755646764
 30
0.0
 10
10.219998337
 20
10.2749405019
 30
0.0
 10
10.2195990961
 20
10.2743163271
 30
0.0
 10
10.2190667733
 20
10.2734840941
 30
0.0
 10
10.2184013704
 20
10.2724438029
 30
0.0
 10
10.2177359671
 20
10.2714035117
 30
0.0
 10
10.2172036449
 20
10.2705712787
 30
0.0
 10
10.216804402
 20
10.269947104
 30
0.0
 10
10.216405164
 20
10.2693229292
 30
0.0
 10
10.2160724504
 20
10.2688027838
 30
0.0
 10
10.2158063137
 20
10.2683866669
 30
0.0
 10
10.2156399003
 20
10.2681265951
 30
0.0
 10
10.2155069482
 20
10.2679185347
 30
0.0
 10
10.215406745
 20
10.2677624977
 30
0.0
 10
10.2153247984
 20
10.2676324402
 30
0.0
 10
10.2152643821
 20
10.2675414524
 30
0.0
 10
10.2152346266
 20
10.2674893775
 30
0.0
 10
10.2151988781
 20
10.2674505521
 30
0.0
 10
10.2152144729
 20
10.2674108442
 30
0.0
 10
10.2152173568
 20
10.2673582081
 30
0.0
 10
10.2152307478
 20
10.2672659515
 30
0.0
 10
10.2152455154
 20
10.2671342314
 30
0.0
 10
10.2152651038
 20
10.2669761352
 30
0.0
 10
10.2152905695
 20
10.2667653514
 30
0.0
 10
10.2153226248
 20
10.2665018679
 30
0.0
 10
10.2153737886
 20
10.2660802964
 30
0.0
 10
10.2154377862
 20
10.2655533312
 30
0.0
 10
10.215514565
 20
10.2649209734
 30
0.0
 10
10.2155913486
 20
10.2642886155
 30
0.0
 10
10.2156937251
 20
10.2634454716
 30
0.0
 10
10.2158216964
 20
10.2623915417
 30
0.0
 10
10.2159496672
 20
10.2613376119
 30
0.0
 10
10.2160520443
 20
10.260494468
 30
0.0
 10
10.2161288259
 20
10.25986211
 30
0.0
 10
10.2162056124
 20
10.2592297523
 30
0.0
 10
10.2162695859
 20
10.2587027869
 30
0.0
 10
10.2163207988
 20
10.2582812158
 30
0.0
 10
10.2163527293
 20
10.2580177312
 30
0.0
 10
10.2163784513
 20
10.2578069496
 30
0.0
 10
10.2163972566
 20
10.257648847
 30
0.0
 10
10.2164144742
 20
10.2575171468
 30
0.0
 10
10.2164234916
 20
10.2574248546
 30
0.0
 10
10.2164333832
 20
10.2573722756
 30
0.0
 10
10.2164274526
 20
10.2573323925
 30
0.0
 10
10.2164725498
 20
10.2572942248
 30
0.0
 10
10.2165148803
 20
10.2572427361
 30
0.0
 10
10.2165972515
 20
10.2571529098
 30
0.0
 10
10.2167105892
 20
10.2570244406
 30
0.0
 10
10.2168484501
 20
10.25687034
 30
0.0
 10
10.2170316165
 20
10.2566648508
 30
0.0
 10
10.2172607965
 20
10.2564079968
 30
0.0
 10
10.2176273603
 20
10.2559970261
 30
0.0
 10
10.2180856077
 20
10.2554833142
 30
0.0
 10
10.2186354864
 20
10.2548668593
 30
0.0
 10
10.2191853699
 20
10.2542504045
 30
0.0
 10
10.2199185462
 20
10.2534284648
 30
0.0
 10
10.2208350172
 20
10.2524010402
 30
0.0
 10
10.2217514878
 20
10.2513736156
 30
0.0
 10
10.2224846648
 20
10.2505516759
 30
0.0
 10
10.2230345463
 20
10.249935221
 30
0.0
 10
10.2235844326
 20
10.2493187665
 30
0.0
 10
10.224042656
 20
10.2488050534
 30
0.0
 10
10.2244092688
 20
10.2483940851
 30
0.0
 10
10.2246383242
 20
10.2481372251
 30
0.0
 10
10.2248217463
 20
10.2479317481
 30
0.0
 10
10.2249588259
 20
10.24777761
 30
0.0
 10
10.2250746082
 20
10.2476492583
 30
0.0
 10
10.2251526154
 20
10.2475592223
 30
0.0
 10
10.2252019383
 20
10.2475080695
 30
0.0
 10
10.2252255571
 20
10.2474688703
 30
0.0
 10
10.2253002954
 20
10.247432861
 30
0.0
 10
10.2253821154
 20
10.2473837359
 30
0.0
 10
10.2255336082
 20
10.2472982855
 30
0.0
 10
10.225745683
 20
10.2471759423
 30
0.0
 10
10.2260020319
 20
10.2470292466
 30
0.0
 10
10.2263431812
 20
10.2468336117
 30
0.0
 10
10.22676984
 20
10.246589082
 30
0.0
 10
10.2274523699
 20
10.2461978268
 30
0.0
 10
10.228305575
 20
10.2457087604
 30
0.0
 10
10.2293294027
 20
10.2451218795
 30
0.0
 10
10.2303532354
 20
10.244534999
 30
0.0
 10
10.2317183439
 20
10.2437524915
 30
0.0
 10
10.2334247302
 20
10.2427743572
 30
0.0
 10
10.235131116
 20
10.2417962228
 30
0.0
 10
10.2364962252
 20
10.2410137154
 30
0.0
 10
10.2375200559
 20
10.2404268347
 30
0.0
 10
10.2385438908
 20
10.2398399547
 30
0.0
 10
10.2393970737
 20
10.2393508857
 30
0.0
 10
10.2400796488
 20
10.2389596357
 30
0.0
 10
10.2405061928
 20
10.2387150926
 30
0.0
 10
10.2408475778
 20
10.2385194853
 30
0.0
 10
10.2411032064
 20
10.2383727053
 30
0.0
 10
10.2413175349
 20
10.2382506256
 30
0.0
 10
10.2414650045
 20
10.2381647049
 30
0.0
 10
10.2415532707
 20
10.2381163332
 30
0.0
 10
10.241608208
 20
10.2380780099
 30
0.0
 10
10.241706196
 20
10.2380475016
 30
0.0
 10
10.24182183
 20
10.238004098
 30
0.0
 10
10.242031186
 20
10.2379294116
 30
0.0
 10
10.2423266081
 20
10.2378220528
 30
0.0
 10
10.2426826804
 20
10.2376935065
 30
0.0
 10
10.2431568966
 20
10.2375220121
 30
0.0
 10
10.243749854
 20
10.2373076781
 30
0.0
 10
10.2446984813
 20
10.2369647247
 30
0.0
 10
10.2458843013
 20
10.2365360395
 30
0.0
 10
10.2473072699
 20
10.2360216144
 30
0.0
 10
10.2487302426
 20
10.2355071901
 30
0.0
 10
10.2506275381
 20
10.2348212908
 30
0.0
 10
10.2529991579
 20
10.2339639167
 30
0.0
 10
10.255370778
 20
10.2331065427
 30
0.0
 10
10.2572680731
 20
10.2324206432
 30
0.0
 10
10.2586910472
 20
10.2319062193
 30
0.0
 10
10.2601140108
 20
10.231391793
 30
0.0
 10
10.2612998463
 20
10.2309631117
 30
0.0
 10
10.2622484419
 20
10.2306201502
 30
0.0
 10
10.2628414801
 20
10.2304058369
 30
0.0
 10
10.2633155305
 20
10.2302343001
 30
0.0
 10
10.2636721091
 20
10.2301058833
 30
0.0
 10
10.263965947
 20
10.2299981192
 30
0.0
 10
10.2642084431
 20
10.2299135903
 30
0.0
 10
10.2643700245
 20
10.2298455963
 30
0.0
 10
10.2646090557
 20
10.2297951507
 30
0.0
 10
10.2649007098
 20
10.2297217601
 30
0.0
 10
10.2652745595
 20
10.2296321249
 30
0.0
 10
10.265719206
 20
10.2295236625
 30
0.0
 10
10.2663134559
 20
10.2293793603
 30
0.0
 10
10.267055793
 20
10.2291988749
 30
0.0
 10
10.2682437979
 20
10.2289101586
 30
0.0
 10
10.269728713
 20
10.2285492424
 30
0.0
 10
10.2715106501
 20
10.2281161519
 30
0.0
 10
10.2732925768
 20
10.227683059
 30
0.0
 10
10.2756684828
 20
10.2271056027
 30
0.0
 10
10.2786383628
 20
10.2263837816
 30
0.0
 10
10.2822022255
 20
10.2255175985
 30
0.0
 10
10.2851720922
 20
10.2247957728
 30
0.0
 10
10.2875480274
 20
10.2242183264
 30
0.0
 10
10.2890328916
 20
10.2238573904
 30
0.0
 10
10.2902210014
 20
10.223568715
 30
0.0
 10
10.2911114855
 20
10.2233520073
 30
0.0
 10
10.2918554587
 20
10.2231720572
 30
0.0
 10
10.2923725052
 20
10.223044837
 30
0.0
 10
10.2926737917
 20
10.2229740996
 30
0.0
 10
10.2928833297
 20
10.2229155257
 30
0.0
 10
10.2931556594
 20
10.222878055
 30
0.0
 10
10.2934968632
 20
10.2228207331
 30
0.0
 10
10.2941041746
 20
10.2227238494
 30
0.0
 10
10.2949664272
 20
10.222583651
 30
0.0
 10
10.2960034139
 20
10.2224161804
 30
0.0
 10
10.2973852652
 20
10.2221926183
 30
0.0
 10
10.2991128525
 20
10.2219132574
 30
0.0
 10
10.3018768394
 20
10.2214662287
 30
0.0
 10
10.3053318758
 20
10.2209074605
 30
0.0
 10
10.3094778955
 20
10.2202369305
 30
0.0
 10
10.3136239266
 20
10.2195664048
 30
0.0
 10
10.3170789347
 20
10.219007626
 30
0.0
 10
10.3198429781
 20
10.2185606185
 30
0.0
 10
10.3215704218
 20
10.2182812035
 30
0.0
 10
10.3229525677
 20
10.2180577524
 30
0.0
 10
10.3239886544
 20
10.2178899428
 30
0.0
 10
10.3248537228
 20
10.2177508052
 30
0.0
 10
10.3254560076
 20
10.2176520278
 30
0.0
 10
10.3258052654
 20
10.2175977401
 30
0.0
 10
10.3260528557
 20
10.2175509492
 30
0.0
 10
10.3263553105
 20
10.2175273804
 30
0.0
 10
10.3267394462
 20
10.2174878552
 30
0.0
 10
10.3274206001
 20
10.2174224602
 30
0.0
 10
10.3283890155
 20
10.2173270655
 30
0.0
 10
10.3295531093
 20
10.2172134365
 30
0.0
 10
10.3311045375
 20
10.2170616362
 30
0.0
 10
10.3330440613
 20
10.2168719868
 30
0.0
 10
10.3361471661
 20
10.2165684913
 30
0.0
 10
10.3400260927
 20
10.2161891412
 30
0.0
 10
10.3446807852
 20
10.2157339129
 30
0.0
 10
10.3493354828
 20
10.2152786868
 30
0.0
 10
10.3555417445
 20
10.2146717179
 30
0.0
 10
10.3601964412
 20
10.2142164914
 30
0.0
 10
10.3632995723
 20
10.213913007
 30
0.0
  0
ENDSEC
  0
SECTION
  2
OBJECTS
  0
DICTIONARY
  5
C
100
AcDbDictionary
280
0
281
1
  3
ACAD_GROUP
350
D
  3
ACAD_MLINESTYLE
350
17
  3
ACAD_LAYOUT
350
1A
  3
ACAD_PLOTSETTINGS
350
19
  3
ACAD_PLOTSTYLENAME
350
E
  3
ACAD_IMAGE_DICT
350
       417
  3
ACAD_IMAGE_VARS
350
       418
  3
ACAD_TABLESTYLE
350
       419
  0
IMAGEDEF_REACTOR
  5
416
100
AcDbRasterImageDefReactor
 90
2
330
285
  0
DICTIONARY
  5
D
102
{ACAD_REACTORS
330
C
102
}
100
AcDbDictionary
280
0
281
1
  0
ACDBDICTIONARYWDFLT
  5
E
102
{ACAD_REACTORS
330
C
102
}
100
AcDbDictionary
281
1
  3
Normal
350
F
100
AcDbDictionaryWithDefault
340
F
  0
DICTIONARY
  5
417
330
C
100
AcDbDictionary
281
1
  3
XBU_assy_2_img_1
350
       41C
  0
RASTERVARIABLES
  5
418
330
C
100
AcDbRasterVariables
 90
0
 70
0
 71
1
 72
5
  0
DICTIONARY
  5
17
102
{ACAD_REACTORS
330
C
102
}
100
AcDbDictionary
280
0
281
1
  3
Standard
350
18
  0
DICTIONARY
  5
419
330
C
100
AcDbDictionary
281
1
  3
Standard
350
       41D
  3
Standard1
350
       41E
  0
DICTIONARY
  5
19
102
{ACAD_REACTORS
330
C
102
}
100
AcDbDictionary
281
1
  0
DICTIONARY
  5
1A
102
{ACAD_REACTORS
330
C
102
}
100
AcDbDictionary
281
1
  3
Model
350
41A
  3
Layout1
350
41B
  0
ACDBPLACEHOLDER
  5
F
102
{ACAD_REACTORS
330
E
102
}
  0
MLINESTYLE
  5
18
102
{ACAD_REACTORS
330
17
102
}
100
AcDbMlineStyle
  2
STANDARD
 70
0
  3

 62
256
 51
90.0
 52
90.0
 71
2
 49
0.5
 62
256
  6
BYLAYER
 49
-0.5
 62
256
  6
BYLAYER
  0
LAYOUT
  5
41A
102
{ACAD_REACTORS
330
1A
102
}
100
AcDbPlotSettings
  1

  2
none_device
  4
ANSI_C_(22.00_x_17.00_Inches)
  6

 40
0.0
 41
0.0
 42
0.0
 43
0.0
 44
558.8
 45
431.8
 46
0.0
 47
0.0
 48
0.0
 49
0.0
140
0.0
141
0.0
142
1.0
143
1.0
 70
1024
 72
0
 73
0
 74
0
  7

 75
0
147
1.0
148
0.0
149
0.0
100
AcDbLayout
  1
Model
 70
0
 71
0
 10
0.0
 20
0.0
 11
22.0
 21
17.0
 12
0.0
 22
0.0
 32
0.0
 14
0.0
 24
0.0
 34
0.0
 15
0.0
 25
0.0
 35
0.0
146
0.0
 13
0.0
 23
0.0
 33
0.0
 16
1.0
 26
0.0
 36
0.0
 17
0.0
 27
1.0
 37
0.0
 76
0
330
20C
345
0
346
0
  0
LAYOUT
  5
41B
102
{ACAD_REACTORS
330
1A
102
}
100
AcDbPlotSettings
  1

  2
none_device
  4
ANSI_C_(22.00_x_17.00_Inches)
  6

 40
0.0
 41
0.0
 42
0.0
 43
0.0
 44
558.8
 45
431.8
 46
0.0
 47
0.0
 48
0.0
 49
0.0
140
0.0
141
0.0
142
1.0
143
1.0
 70
0
 72
0
 73
0
 74
0
  7

 75
0
147
1.0
148
0.0
149
0.0
100
AcDbLayout
  1
Layout1
 70
0
 71
1
 10
0.0
 20
0.0
 11
22.0
 21
17.0
 12
0.0
 22
0.0
 32
0.0
 14
0.0
 24
0.0
 34
0.0
 15
0.0
 25
0.0
 35
0.0
146
0.0
 13
0.0
 23
0.0
 33
0.0
 16
1.0
 26
0.0
 36
0.0
 17
0.0
 27
1.0
 37
0.0
 76
0
330
20D
345
0
346
0
  0
IMAGEDEF
  5
41C
102
{ACAD_REACTORS
330
417
330
416
102
}
100
AcDbRasterImageDef
 90
0
  1
XBU_assy_2_img_1.png
 10
369.0
 20
92.0
 11
0.0066666667
 21
0.0066666667
280
1
281
0
  0
TABLESTYLE
  5
41D
102
{ACAD_REACTORS
330
419
330
288
330
289
102
}
330
419
100
AcDbTableStyle
  3
Standard
 70
0
 71
0
 40
0.06
 41
0.06
280
1
281
1
  7
Standard
140
0.18
170
1
 62
0
 63
7
283
0
  7
Standard
140
0.18
170
1
 62
0
 63
7
283
0
  7
Standard
140
0.18
170
1
 62
0
 63
7
283
0
  0
TABLESTYLE
  5
41E
102
{ACAD_REACTORS
330
419
330
287
102
}
330
419
100
AcDbTableStyle
  3
Standard1
 70
1
 71
0
 40
0.06
 41
0.06
280
1
281
1
  7
Standard
140
0.18
170
1
 62
0
 63
7
283
0
  7
Standard
140
0.18
170
1
 62
0
 63
7
283
0
  7
Standard
140
0.18
170
1
 62
0
 63
7
283
0
  0
ENDSEC
  0
EOF
