999
DXF file: XBM_assy_2.dxf
999
Pro/ENGINEER 2014200 by Parametric Technology Corporation
  0
SECTION
  2
HEADER
  9
$ACADVER
  1
AC1021
  9
$DWGCODEPAGE
  3
ANSI_1252
  9
$EXTMAX
 10
22.0
 20
17.0
 30
0.0
  9
$EXTMIN
 10
0.0
 20
0.0
 30
0.0
  9
$LIMMIN
 10
0.0
 20
0.0
  9
$LIMMAX
 10
22.0
 20
17.0
  9
$VIEWCTR
 10
11.0
 20
8.5
  9
$VIEWSIZE
 40
17.0
  9
$CLAYER
  8
0
  9
$LTSCALE
 40
1.21
  9
$CELTYPE
  6
BYLAYER
  9
$DIMSCALE
 40
1.0
  9
$DIMASZ
 40
0.1875
  9
$DIMEXO
 40
0.0625
  9
$DIMDLI
 40
0.836
  9
$DIMEXE
 40
0.125
  9
$DIMCEN
 40
0.198
  9
$DIMLFAC
 40
1.0
  9
$DIMBLK
  1
_FILLED
  9
$DIMTXT
 40
0.1
  9
$DIMTOL
 70
0
  9
$DIMLIM
 70
0
  9
$DIMTFAC
 40
1.0
  9
$DIMGAP
 40
0.09
  9
$DIMDSEP
 70
46
  9
$AUNITS
 70
0
  9
$PDMODE
 70
3
  9
$PDSIZE
 40
0.3125
  9
$HANDSEED
  5
427
  9
$TILEMODE
 70
1
  9
$MEASUREMENT
 70
0
  9
$INSUNITS
 70
1
  0
ENDSEC
  0
SECTION
  2
CLASSES
  0
CLASS
  1
ACDBDICTIONARYWDFLT
  2
AcDbDictionaryWithDefault
  3
AutoCAD 2000
 90
0
 91
1
280
0
281
0
  0
CLASS
  1
ACDBPLACEHOLDER
  2
AcDbPlaceHolder
  3
AutoCAD 2000
 90
0
 91
1
280
0
281
0
  0
CLASS
  1
LAYOUT
  2
AcDbLayout
  3
AutoCAD 2000
 90
0
 91
0
280
0
281
0
  0
CLASS
  1
RASTERVARIABLES
  2
AcDbRasterVariables
  3
ISM
 90
0
 91
1
280
0
281
0
  0
CLASS
  1
IMAGEDEF
  2
AcDbRasterImageDef
  3
ISM
 90
0
 91
1
280
0
281
0
  0
CLASS
  1
IMAGEDEF_REACTOR
  2
AcDbRasterImageDefReactor
  3
ISM
 90
0
 91
1
280
0
281
0
  0
CLASS
  1
IMAGE
  2
AcDbRasterImage
  3
ISM
 90
127
 91
1
280
0
281
1
  0
CLASS
  1
TABLESTYLE
  2
AcDbTableStyle
  3
ObjectDBX Classes
 90
2047
 91
1
280
0
281
0
  0
CLASS
  1
ACAD_TABLE
  2
AcDbTable
  3
ObjectDBX Classes
 90
1025
 91
3
280
0
281
1
  0
ENDSEC
  0
SECTION
  2
TABLES
  0
TABLE
  2
VPORT
  5
8
100
AcDbSymbolTable
 70
2
  0
VPORT
  5
1F4
100
AcDbSymbolTableRecord
100
AcDbViewportTableRecord
  2
*ACTIVE
 70
0
 10
0.0
 20
0.0
 11
1.0
 21
1.0
 12
11.0
 22
8.5
 13
0.0
 23
0.0
 14
1.0
 24
1.0
 15
0.0
 25
0.0
 16
0.0
 26
0.0
 36
1.0
 17
0.0
 27
0.0
 37
0.0
 40
17.0
 41
1.2941176471
 42
50.0
 43
0.0
 44
0.0
 50
0.0
 51
0.0
 71
0
 72
100
 73
1
 74
1
 75
0
 76
0
 77
0
 78
0
  0
ENDTAB
  0
TABLE
  2
LTYPE
  5
5
100
AcDbSymbolTable
 70
6
  0
LTYPE
  5
14
100
AcDbSymbolTableRecord
100
AcDbLinetypeTableRecord
  2
BYBLOCK
 70
0
  3

 72
65
 73
0
 40
0.0
  0
LTYPE
  5
15
100
AcDbSymbolTableRecord
100
AcDbLinetypeTableRecord
  2
BYLAYER
 70
0
  3

 72
65
 73
0
 40
0.0
  0
LTYPE
  5
16
100
AcDbSymbolTableRecord
100
AcDbLinetypeTableRecord
  2
CONTINUOUS
 70
64
  3
Solid line
 72
65
 73
0
 40
0.0
  0
LTYPE
  5
1F5
100
AcDbSymbolTableRecord
100
AcDbLinetypeTableRecord
  2
CENTER
 70
64
  3
____ _ ____ _ ____ _ ____ _ ____ _ ____ _ ____
 72
65
 73
4
 40
0.6
 49
0.375
 74
0
 49
-0.075
 74
0
 49
0.075
 74
0
 49
-0.075
 74
0
  0
LTYPE
  5
1F6
100
AcDbSymbolTableRecord
100
AcDbLinetypeTableRecord
  2
HIDDEN
 70
64
  3
- - - - - - - - - - - - - - - - - - - -
 72
65
 73
2
 40
0.2
 49
0.1
 74
0
 49
-0.1
 74
0
  0
LTYPE
  5
1F7
100
AcDbSymbolTableRecord
100
AcDbLinetypeTableRecord
  2
PHANTOM
 70
64
  3
_____ _ _ _____ _ _ _____ _ _ _____
 72
65
 73
6
 40
0.8
 49
0.45
 74
0
 49
-0.05
 74
0
 49
0.1
 74
0
 49
-0.05
 74
0
 49
0.1
 74
0
 49
-0.05
 74
0
  0
LTYPE
  5
1F8
100
AcDbSymbolTableRecord
100
AcDbLinetypeTableRecord
  2
DOT
 70
64
  3
. . . . . . . . . . . . . . . . . . . .
 72
65
 73
2
 40
0.2
 49
0.1
 74
0
 49
-0.1
 74
0
  0
LTYPE
  5
1F9
100
AcDbSymbolTableRecord
100
AcDbLinetypeTableRecord
  2
DASHED
 70
64
  3
- - - - - - - - - - - - - - - - - - - -
 72
65
 73
2
 40
0.2
 49
0.1
 74
0
 49
-0.1
 74
0
  0
ENDTAB
  0
TABLE
  2
LAYER
  5
2
100
AcDbSymbolTable
 70
36
  0
LAYER
  5
10
100
AcDbSymbolTableRecord
100
AcDbLayerTableRecord
  2
0
 70
0
 62
7
  6
CONTINUOUS
370
-3
390
F
  0
LAYER
  5
1FA
100
AcDbSymbolTableRecord
100
AcDbLayerTableRecord
  2
DEFAULT_1
 70
0
 62
7
  6
CENTER
370
-3
390
F
  0
LAYER
  5
1FB
100
AcDbSymbolTableRecord
100
AcDbLayerTableRecord
  2
DEFAULT_2
 70
0
 62
8
  6
HIDDEN
370
-3
390
F
  0
LAYER
  5
1FC
100
AcDbSymbolTableRecord
100
AcDbLayerTableRecord
  2
DEFAULT_3
 70
0
 62
7
  6
PHANTOM
370
-3
390
F
  0
LAYER
  5
1FD
100
AcDbSymbolTableRecord
100
AcDbLayerTableRecord
  2
01___PRT_ALL_DTM_PLN
 70
0
 62
7
  6
CONTINUOUS
370
-3
390
F
  0
LAYER
  5
1FE
100
AcDbSymbolTableRecord
100
AcDbLayerTableRecord
  2
01___PRT_DEF_DTM_PLN
 70
0
 62
7
  6
CONTINUOUS
370
-3
390
F
  0
LAYER
  5
1FF
100
AcDbSymbolTableRecord
100
AcDbLayerTableRecord
  2
02___PRT_ALL_AXES
 70
0
 62
7
  6
CONTINUOUS
370
-3
390
F
  0
LAYER
  5
200
100
AcDbSymbolTableRecord
100
AcDbLayerTableRecord
  2
03___PRT_ALL_CURVES
 70
0
 62
7
  6
CONTINUOUS
370
-3
390
F
  0
LAYER
  5
201
100
AcDbSymbolTableRecord
100
AcDbLayerTableRecord
  2
04___PRT_ALL_DTM_PNT
 70
0
 62
7
  6
CONTINUOUS
370
-3
390
F
  0
LAYER
  5
202
100
AcDbSymbolTableRecord
100
AcDbLayerTableRecord
  2
05___PRT_ALL_DTM_CSYS
 70
0
 62
7
  6
CONTINUOUS
370
-3
390
F
  0
LAYER
  5
203
100
AcDbSymbolTableRecord
100
AcDbLayerTableRecord
  2
05___PRT_DEF_DTM_CSYS
 70
0
 62
7
  6
CONTINUOUS
370
-3
390
F
  0
LAYER
  5
204
100
AcDbSymbolTableRecord
100
AcDbLayerTableRecord
  2
06___PRT_ALL_SURFS
 70
0
 62
7
  6
CONTINUOUS
370
-3
390
F
  0
LAYER
  5
205
100
AcDbSymbolTableRecord
100
AcDbLayerTableRecord
  2
DATUM_PLANES
 70
0
 62
7
  6
CONTINUOUS
370
-3
390
F
  0
LAYER
  5
206
100
AcDbSymbolTableRecord
100
AcDbLayerTableRecord
  2
PORT_AREAS
 70
0
 62
7
  6
CONTINUOUS
370
-3
390
F
  0
LAYER
  5
207
100
AcDbSymbolTableRecord
100
AcDbLayerTableRecord
  2
SUNNBOMCOSMETIC
 70
0
 62
7
  6
CONTINUOUS
370
-3
390
F
  0
LAYER
  5
208
100
AcDbSymbolTableRecord
100
AcDbLayerTableRecord
  2
SUNNBOMSTAMPING
 70
0
 62
7
  6
CONTINUOUS
370
-3
390
F
  0
LAYER
  5
209
100
AcDbSymbolTableRecord
100
AcDbLayerTableRecord
  2
THREADS
 70
0
 62
7
  6
CONTINUOUS
370
-3
390
F
  0
ENDTAB
  0
TABLE
  2
STYLE
  5
3
100
AcDbSymbolTable
 70
1
  0
STYLE
  5
11
100
AcDbSymbolTableRecord
100
AcDbTextStyleTableRecord
  2
STANDARD
 70
0
 40
0.0
 41
0.8
 50
0.0
 71
0
 42
0.2
  3
txt
  4

  0
STYLE
  5
20A
100
AcDbSymbolTableRecord
100
AcDbTextStyleTableRecord
  2
TEXTSTYLE_1
 70
0
 40
0.0
 41
0.8
 50
0.0
 71
0
 42
0.2
  3
gdt
  4

  0
ENDTAB
  0
TABLE
  2
VIEW
  5
6
100
AcDbSymbolTable
 70
0
  0
ENDTAB
  0
TABLE
  2
UCS
  5
7
100
AcDbSymbolTable
 70
0
  0
ENDTAB
  0
TABLE
  2
APPID
  5
9
100
AcDbSymbolTable
 70
1
  0
APPID
  5
20B
100
AcDbSymbolTableRecord
100
AcDbRegAppTableRecord
  2
ACAD
 70
0
  0
ENDTAB
  0
TABLE
  2
BLOCK_RECORD
  5
1
100
AcDbSymbolTable
 70
0
  0
BLOCK_RECORD
  5
20C
100
AcDbSymbolTableRecord
100
AcDbBlockTableRecord
  2
*Model_Space
  0
BLOCK_RECORD
  5
20D
100
AcDbSymbolTableRecord
100
AcDbBlockTableRecord
  2
*Paper_Space
  0
BLOCK_RECORD
  5
20E
100
AcDbSymbolTableRecord
100
AcDbBlockTableRecord
  2
SUN_FIRST_THIRD_ANGLE_BL0
  0
BLOCK_RECORD
  5
20F
100
AcDbSymbolTableRecord
100
AcDbBlockTableRecord
  2
*T1
  0
BLOCK_RECORD
  5
210
100
AcDbSymbolTableRecord
100
AcDbBlockTableRecord
  2
*T2
  0
BLOCK_RECORD
  5
211
100
AcDbSymbolTableRecord
100
AcDbBlockTableRecord
  2
*T3
  0
ENDTAB
  0
TABLE
  2
DIMSTYLE
  5
A
100
AcDbSymbolTable
 70
1
100
AcDbDimStyleTable
 71
0
  0
DIMSTYLE
105
212
100
AcDbSymbolTableRecord
100
AcDbDimStyleTableRecord
  2
STANDARD
 70
0
  3

  4

 40
1.0
 41
0.1875
 42
0.0625
 43
0.38
 44
0.125
 45
0.0
 46
0.0
 47
0.001
 48
0.001
140
0.1
141
0.09
142
0.0
143
25.4
144
1.0
145
0.0
146
1.0
147
0.09
 71
0.0
 72
0.0
 73
1
 74
1
 75
0
 76
0
 77
0
 78
4
170
0
171
2
172
0
173
0
174
0
175
0
176
0
177
0
178
0
270
2
271
3
272
3
273
2
274
2
275
0
280
0
281
0
282
0
283
1
284
4
285
0
286
0
287
3
288
0
340
11
278
46
  0
ENDTAB
  0
ENDSEC
  0
SECTION
  2
BLOCKS
  0
BLOCK
  5
20
100
AcDbEntity
  8
0
100
AcDbBlockBegin
  2
*Model_Space
 70
0
 10
0.0
 20
0.0
 30
0.0
  3
*Model_Space
  1

  0
ENDBLK
  5
21
100
AcDbEntity
  8
0
100
AcDbBlockEnd
  0
BLOCK
  5
1C
100
AcDbEntity
  8
0
100
AcDbBlockBegin
  2
*Paper_Space
 70
0
 10
0.0
 20
0.0
 30
0.0
  3
*Paper_Space
  1

  0
ENDBLK
  5
1D
100
AcDbEntity
  8
0
100
AcDbBlockEnd
  0
BLOCK
  5
213
100
AcDbEntity
  8
0
100
AcDbBlockBegin
 62
2
  6
CONTINUOUS
  2
SUN_FIRST_THIRD_ANGLE_BL0
 70
64
 10
20.4816717061
 20
1.2289683772
  3
SUN_FIRST_THIRD_ANGLE_BL0
  1

  0
TEXT
  5
214
100
AcDbEntity
  8
0
100
AcDbText
 62
2
  6
CONTINUOUS
 10
19.4750896608
 20
1.4136269581
  7
STANDARD
 40
0.08
  1
FIRST ANGLE
 41
0.8
 72
0
100
AcDbText
  0
TEXT
  5
215
100
AcDbEntity
  8
0
100
AcDbText
 62
2
  6
CONTINUOUS
 10
20.7842537513
 20
1.4047600029
  7
STANDARD
 40
0.08
  1
THIRD ANGLE
 41
0.8
 72
0
100
AcDbText
  0
LINE
  5
216
100
AcDbEntity
  8
0
100
AcDbLine
 62
7
  6
CONTINUOUS
 10
19.4767170086
 20
1.1727031207
 11
19.6334271527
 21
1.1717972817
  0
LINE
  5
217
100
AcDbEntity
  8
0
100
AcDbLine
 62
7
  6
CONTINUOUS
 10
19.6596964832
 20
1.1717972817
 11
19.6950230232
 21
1.171593082
  0
LINE
  5
218
100
AcDbEntity
  8
0
100
AcDbLine
 62
7
  6
CONTINUOUS
 10
19.7194818561
 20
1.1708914427
 11
19.8852396156
 21
1.1699333054
  0
LINE
  5
219
100
AcDbEntity
  8
0
100
AcDbLine
 62
7
  6
CONTINUOUS
 10
19.4758111696
 20
1.2723454088
 11
19.88525039
 21
1.3511534004
  0
LINE
  5
21A
100
AcDbEntity
  8
0
100
AcDbLine
 62
7
  6
CONTINUOUS
 10
19.88525039
 20
1.3511534004
 11
19.8831348489
 21
0.9851647912
  0
LINE
  5
21B
100
AcDbEntity
  8
0
100
AcDbLine
 62
7
  6
CONTINUOUS
 10
19.8831348489
 20
0.9851647912
 11
19.4767170086
 21
1.0658141206
  0
LINE
  5
21C
100
AcDbEntity
  8
0
100
AcDbLine
 62
7
  6
CONTINUOUS
 10
19.4767170086
 20
1.0658141206
 11
19.4779056764
 21
1.2714536432
  0
CIRCLE
  5
21D
100
AcDbEntity
  8
0
100
AcDbCircle
 62
7
  6
CONTINUOUS
 10
20.2068232291
 20
1.1717972817
 40
0.175742101
  0
CIRCLE
  5
21E
100
AcDbEntity
  8
0
100
AcDbCircle
 62
7
  6
CONTINUOUS
 10
20.2068232291
 20
1.1717972817
 40
0.1005522074
  0
LINE
  5
21F
100
AcDbEntity
  8
0
100
AcDbLine
 62
7
  6
CONTINUOUS
 10
20.2077290681
 20
1.3756110529
 11
20.2071171714
 21
1.2379342989
  0
LINE
  5
220
100
AcDbEntity
  8
0
100
AcDbLine
 62
7
  6
CONTINUOUS
 10
20.2077290681
 20
1.2016899681
 11
20.2074674401
 21
1.1428236749
  0
LINE
  5
221
100
AcDbEntity
  8
0
100
AcDbLine
 62
7
  6
CONTINUOUS
 10
20.208634907
 20
1.101141841
 11
20.2080230104
 21
0.963465087
  0
LINE
  5
222
100
AcDbEntity
  8
0
100
AcDbLine
 62
7
  6
CONTINUOUS
 10
20.0066328138
 20
1.1745147986
 11
20.1443095678
 21
1.1739029019
  0
LINE
  5
223
100
AcDbEntity
  8
0
100
AcDbLine
 62
7
  6
CONTINUOUS
 10
20.1832714155
 20
1.1727031207
 11
20.238153505
 21
1.172335442
  0
LINE
  5
224
100
AcDbEntity
  8
0
100
AcDbLine
 62
7
  6
CONTINUOUS
 10
20.2756669918
 20
1.1717972817
 11
20.407916871
 21
1.1712095044
  0
CIRCLE
  5
225
100
AcDbEntity
  8
0
100
AcDbCircle
 62
7
  6
CONTINUOUS
 10
20.7509457401
 20
1.1693297793
 40
0.1722024983
  0
CIRCLE
  5
226
100
AcDbEntity
  8
0
100
AcDbCircle
 62
7
  6
CONTINUOUS
 10
20.7509457401
 20
1.1693297793
 40
0.0985164967
  0
LINE
  5
227
100
AcDbEntity
  8
0
100
AcDbLine
 62
7
  6
CONTINUOUS
 10
20.7169767782
 20
1.170462078
 11
20.7825395137
 21
1.1682766535
  0
LINE
  5
228
100
AcDbEntity
  8
0
100
AcDbLine
 62
7
  6
CONTINUOUS
 10
20.8177513651
 20
1.1693297793
 11
20.947965719
 21
1.1693297793
  0
LINE
  5
229
100
AcDbEntity
  8
0
100
AcDbLine
 62
7
  6
CONTINUOUS
 10
20.6875370113
 20
1.170462078
 11
20.5573226574
 21
1.170462078
  0
LINE
  5
22A
100
AcDbEntity
  8
0
100
AcDbLine
 62
7
  6
CONTINUOUS
 10
20.7486811426
 20
1.1987695462
 11
20.7486811426
 21
1.1432869085
  0
LINE
  5
22B
100
AcDbEntity
  8
0
100
AcDbLine
 62
7
  6
CONTINUOUS
 10
20.7498134414
 20
1.1059210505
 11
20.7498134414
 21
0.9757066966
  0
LINE
  5
22C
100
AcDbEntity
  8
0
100
AcDbLine
 62
7
  6
CONTINUOUS
 10
20.7486811426
 20
1.2338708068
 11
20.7486811426
 21
1.3640851607
  0
LINE
  5
22D
100
AcDbEntity
  8
0
100
AcDbLine
 62
7
  6
CONTINUOUS
 10
21.0702539817
 20
1.2701043662
 11
21.4790138229
 21
1.3448360823
  0
LINE
  5
22E
100
AcDbEntity
  8
0
100
AcDbLine
 62
7
  6
CONTINUOUS
 10
21.4790138229
 20
1.3448360823
 11
21.4790138229
 21
0.9779712941
  0
LINE
  5
22F
100
AcDbEntity
  8
0
100
AcDbLine
 62
7
  6
CONTINUOUS
 10
21.4790138229
 20
0.9779712941
 11
21.069121683
 21
1.0617614
  0
LINE
  5
230
100
AcDbEntity
  8
0
100
AcDbLine
 62
7
  6
CONTINUOUS
 10
21.0702539817
 20
1.2701043662
 11
21.069121683
 21
1.0617614
  0
LINE
  5
231
100
AcDbEntity
  8
0
100
AcDbLine
 62
7
  6
CONTINUOUS
 10
21.4790138229
 20
1.1693297793
 11
21.3159628059
 21
1.1693297793
  0
LINE
  5
232
100
AcDbEntity
  8
0
100
AcDbLine
 62
7
  6
CONTINUOUS
 10
21.2876553377
 20
1.1693297793
 11
21.2502894796
 21
1.1693297793
  0
LINE
  5
233
100
AcDbEntity
  8
0
100
AcDbLine
 62
7
  6
CONTINUOUS
 10
21.2208497126
 20
1.1659328831
 11
21.0713862804
 21
1.1659328831
  0
LINE
  5
234
100
AcDbEntity
  8
0
100
AcDbLine
 62
7
  6
CONTINUOUS
 10
20.4796138713
 20
1.5284908897
 11
20.4766766948
 21
0.9294458646
  0
ENDBLK
  5
235
100
AcDbEntity
  8
0
  6
BYBLOCK
 62
0
100
AcDbBlockEnd
  0
BLOCK
  5
236
100
AcDbEntity
  8
0
100
AcDbBlockBegin
  2
*T1
 70
1
 10
0.0
 20
0.0
  3
*T1
  1

  0
LINE
  5
237
100
AcDbEntity
  8
0
100
AcDbLine
 62
2
  6
CONTINUOUS
 10
9.275
 20
0.0
 11
-0.0
 21
0.0
  0
LINE
  5
238
100
AcDbEntity
  8
0
100
AcDbLine
 62
2
  6
CONTINUOUS
 10
9.275
 20
0.0
 11
9.275
 21
1.25
  0
LINE
  5
239
100
AcDbEntity
  8
0
100
AcDbLine
 62
2
  6
CONTINUOUS
 10
9.275
 20
0.625
 11
-0.0
 21
0.625
  0
LINE
  5
23A
100
AcDbEntity
  8
0
100
AcDbLine
 62
2
  6
CONTINUOUS
 10
9.275
 20
1.25
 11
-0.0
 21
1.25
  0
LINE
  5
23B
100
AcDbEntity
  8
0
100
AcDbLine
 62
2
  6
CONTINUOUS
 10
6.8
 20
0.0
 11
6.8
 21
1.25
  0
LINE
  5
23C
100
AcDbEntity
  8
0
100
AcDbLine
 62
2
  6
CONTINUOUS
 10
6.4
 20
0.0
 11
6.4
 21
0.625
  0
LINE
  5
23D
100
AcDbEntity
  8
0
100
AcDbLine
 62
2
  6
CONTINUOUS
 10
5.9
 20
0.0
 11
5.9
 21
0.625
  0
LINE
  5
23E
100
AcDbEntity
  8
0
100
AcDbLine
 62
2
  6
CONTINUOUS
 10
5.2
 20
0.0
 11
5.2
 21
0.625
  0
LINE
  5
23F
100
AcDbEntity
  8
0
100
AcDbLine
 62
2
  6
CONTINUOUS
 10
4.1
 20
0.0
 11
4.1
 21
1.25
  0
LINE
  5
240
100
AcDbEntity
  8
0
100
AcDbLine
 62
2
  6
CONTINUOUS
 10
-0.0
 20
0.0
 11
-0.0
 21
1.25
  0
MTEXT
  5
241
100
AcDbEntity
  8
0
100
AcDbMText
 62
2
  6
CONTINUOUS
  7
STANDARD
 71
2
 72
1
 10
6.6
 20
0.325
 30
0.0
 11
1.0
 21
0.0
 31
0.0
 44
0.9
  1
2
 40
0.125
 41
0.2
  0
MTEXT
  5
242
100
AcDbEntity
  8
0
100
AcDbMText
 62
2
  6
CONTINUOUS
  7
STANDARD
 71
2
 72
1
 10
6.15
 20
0.325
 30
0.0
 11
1.0
 21
0.0
 31
0.0
 44
0.9
  1
C
 40
0.125
 41
0.2
  0
MTEXT
  5
243
100
AcDbEntity
  8
0
100
AcDbMText
 62
2
  6
CONTINUOUS
  7
STANDARD
 71
2
 72
1
 10
5.55
 20
0.325
 30
0.0
 11
1.0
 21
0.0
 31
0.0
 44
0.9
  1
1.000
 40
0.125
 41
1.0
  0
MTEXT
  5
244
100
AcDbEntity
  8
0
100
AcDbMText
 62
2
  6
CONTINUOUS
  7
STANDARD
 71
2
 72
1
 10
4.65
 20
0.325
 30
0.0
 11
1.0
 21
0.0
 31
0.0
 44
0.9
  1
Feb-12-21
 40
0.125
 41
1.8
  0
MTEXT
  5
245
100
AcDbEntity
  8
0
100
AcDbMText
 62
2
  6
CONTINUOUS
  7
STANDARD
 71
2
 72
1
 10
2.05
 20
0.4625
 30
0.0
 11
1.0
 21
0.0
 31
0.0
 44
0.9
  1
T-2A Line mount\PCross port with shuttle on port 3s
 40
0.125
 41
6.8
  0
MTEXT
  5
246
100
AcDbEntity
  8
0
100
AcDbMText
 62
2
  6
CONTINUOUS
  7
STANDARD
 71
1
 72
1
 10
6.45
 20
0.5625
 30
0.0
 11
1.0
 21
0.0
 31
0.0
 44
0.9
  1
SHEET
 40
0.06
 41
0.48
  0
MTEXT
  5
247
100
AcDbEntity
  8
0
100
AcDbMText
 62
2
  6
CONTINUOUS
  7
STANDARD
 71
1
 72
1
 10
5.95
 20
0.5625
 30
0.0
 11
1.0
 21
0.0
 31
0.0
 44
0.9
  1
DWG SIZE
 40
0.06
 41
0.768
  0
MTEXT
  5
248
100
AcDbEntity
  8
0
100
AcDbMText
 62
2
  6
CONTINUOUS
  7
STANDARD
 71
1
 72
1
 10
5.25
 20
0.5625
 30
0.0
 11
1.0
 21
0.0
 31
0.0
 44
0.9
  1
SCALE
 40
0.06
 41
0.48
  0
MTEXT
  5
249
100
AcDbEntity
  8
0
100
AcDbMText
 62
2
  6
CONTINUOUS
  7
STANDARD
 71
1
 72
1
 10
4.15
 20
0.5625
 30
0.0
 11
1.0
 21
0.0
 31
0.0
 44
0.9
  1
DATE
 40
0.06
 41
0.384
  0
MTEXT
  5
24A
100
AcDbEntity
  8
0
100
AcDbMText
 62
2
  6
CONTINUOUS
  7
STANDARD
 71
1
 72
1
 10
0.05
 20
0.5625
 30
0.0
 11
1.0
 21
0.0
 31
0.0
 44
0.9
  1
DESCRIPTION
 40
0.06
 41
1.056
  0
MTEXT
  5
24B
100
AcDbEntity
  8
0
100
AcDbMText
 62
2
  6
CONTINUOUS
  7
STANDARD
 71
2
 72
1
 10
5.45
 20
1.0375
 30
0.0
 11
1.0
 21
0.0
 31
0.0
 44
0.9
  1
ALL DIMENSIONS IN INCH\PVIEWS ARE THIRD ANGLE
 40
0.12
 41
4.224
  0
MTEXT
  5
24C
100
AcDbEntity
  8
0
100
AcDbMText
 62
2
  6
CONTINUOUS
  7
STANDARD
 71
2
 72
1
 10
2.05
 20
0.95
 30
0.0
 11
1.0
 21
0.0
 31
0.0
 44
0.9
  1
XBM
 40
0.125
 41
0.6
  0
MTEXT
  5
24D
100
AcDbEntity
  8
0
100
AcDbMText
 62
2
  6
CONTINUOUS
  7
STANDARD
 71
1
 72
1
 10
0.05
 20
1.1875
 30
0.0
 11
1.0
 21
0.0
 31
0.0
 44
0.9
  1
MODEL
 40
0.06
 41
0.48
  0
ENDBLK
  5
24E
100
AcDbEntity
  8
0
  6
BYBLOCK
 62
0
100
AcDbBlockEnd
  0
BLOCK
  5
24F
100
AcDbEntity
  8
0
100
AcDbBlockBegin
  2
*T2
 70
1
 10
0.0
 20
0.0
  3
*T2
  1

  0
LINE
  5
250
100
AcDbEntity
  8
0
100
AcDbLine
 62
2
  6
CONTINUOUS
 10
0.0
 20
0.0
 11
9.055
 21
0.0
  0
LINE
  5
251
100
AcDbEntity
  8
0
100
AcDbLine
 62
2
  6
CONTINUOUS
 10
0.0
 20
0.0
 11
0.0
 21
-2.594
  0
LINE
  5
252
100
AcDbEntity
  8
0
100
AcDbLine
 62
2
  6
CONTINUOUS
 10
0.0
 20
-0.344
 11
9.055
 21
-0.344
  0
LINE
  5
253
100
AcDbEntity
  8
0
100
AcDbLine
 62
2
  6
CONTINUOUS
 10
0.0
 20
-0.594
 11
9.055
 21
-0.594
  0
LINE
  5
254
100
AcDbEntity
  8
0
100
AcDbLine
 62
2
  6
CONTINUOUS
 10
0.0
 20
-0.844
 11
9.055
 21
-0.844
  0
LINE
  5
255
100
AcDbEntity
  8
0
100
AcDbLine
 62
2
  6
CONTINUOUS
 10
0.0
 20
-1.094
 11
9.055
 21
-1.094
  0
LINE
  5
256
100
AcDbEntity
  8
0
100
AcDbLine
 62
2
  6
CONTINUOUS
 10
0.0
 20
-1.344
 11
9.055
 21
-1.344
  0
LINE
  5
257
100
AcDbEntity
  8
0
100
AcDbLine
 62
2
  6
CONTINUOUS
 10
0.0
 20
-1.594
 11
9.055
 21
-1.594
  0
LINE
  5
258
100
AcDbEntity
  8
0
100
AcDbLine
 62
2
  6
CONTINUOUS
 10
0.0
 20
-1.844
 11
9.055
 21
-1.844
  0
LINE
  5
259
100
AcDbEntity
  8
0
100
AcDbLine
 62
2
  6
CONTINUOUS
 10
0.0
 20
-2.094
 11
9.055
 21
-2.094
  0
LINE
  5
25A
100
AcDbEntity
  8
0
100
AcDbLine
 62
2
  6
CONTINUOUS
 10
0.0
 20
-2.344
 11
9.055
 21
-2.344
  0
LINE
  5
25B
100
AcDbEntity
  8
0
100
AcDbLine
 62
2
  6
CONTINUOUS
 10
0.0
 20
-2.594
 11
9.055
 21
-2.594
  0
LINE
  5
25C
100
AcDbEntity
  8
0
100
AcDbLine
 62
2
  6
CONTINUOUS
 10
3.055
 20
0.0
 11
3.055
 21
-2.594
  0
LINE
  5
25D
100
AcDbEntity
  8
0
100
AcDbLine
 62
2
  6
CONTINUOUS
 10
9.055
 20
0.0
 11
9.055
 21
-2.594
  0
MTEXT
  5
25E
100
AcDbEntity
  8
0
100
AcDbMText
 62
2
  6
CONTINUOUS
  7
STANDARD
 71
2
 72
1
 10
1.5275
 20
-0.0995
 30
0.0
 11
1.0
 21
0.0
 31
0.0
 44
0.9
  1
Technical Data
 40
0.145
 41
3.248
  0
MTEXT
  5
25F
100
AcDbEntity
  8
0
100
AcDbMText
 62
2
  6
CONTINUOUS
  7
STANDARD
 71
2
 72
1
 10
4.555
 20
-0.0995
 30
0.0
 11
1.0
 21
0.0
 31
0.0
 44
0.9
  1
U.S. Units
 40
0.145
 41
2.32
  0
MTEXT
  5
260
100
AcDbEntity
  8
0
100
AcDbMText
 62
2
  6
CONTINUOUS
  7
STANDARD
 71
2
 72
1
 10
7.555
 20
-0.0995
 30
0.0
 11
1.0
 21
0.0
 31
0.0
 44
0.9
  1
Metric Units
 40
0.145
 41
2.784
  0
MTEXT
  5
261
100
AcDbEntity
  8
0
100
AcDbMText
 62
2
  6
CONTINUOUS
  7
STANDARD
 71
2
 72
1
 10
1.5275
 20
-0.4065
 30
0.0
 11
1.0
 21
0.0
 31
0.0
 44
0.9
  1
Cavity
 40
0.125
 41
1.2
  0
MTEXT
  5
262
100
AcDbEntity
  8
0
100
AcDbMText
 62
2
  6
CONTINUOUS
  7
STANDARD
 71
2
 72
1
 10
6.055
 20
-0.4065
 30
0.0
 11
1.0
 21
0.0
 31
0.0
 44
0.9
  1
T-2A
 40
0.125
 41
0.8
  0
MTEXT
  5
263
100
AcDbEntity
  8
0
100
AcDbMText
 62
2
  6
CONTINUOUS
  7
STANDARD
 71
2
 72
1
 10
1.5275
 20
-0.6565
 30
0.0
 11
1.0
 21
0.0
 31
0.0
 44
0.9
  1
Body Features
 40
0.125
 41
2.6
  0
MTEXT
  5
264
100
AcDbEntity
  8
0
100
AcDbMText
 62
2
  6
CONTINUOUS
  7
STANDARD
 71
2
 72
1
 10
6.055
 20
-0.6565
 30
0.0
 11
1.0
 21
0.0
 31
0.0
 44
0.9
  1
Cross port with shuttle on port 3s
 40
0.125
 41
6.8
  0
MTEXT
  5
265
100
AcDbEntity
  8
0
100
AcDbMText
 62
2
  6
CONTINUOUS
  7
STANDARD
 71
2
 72
1
 10
1.5275
 20
-0.9065
 30
0.0
 11
1.0
 21
0.0
 31
0.0
 44
0.9
  1
Body Type
 40
0.125
 41
1.8
  0
MTEXT
  5
266
100
AcDbEntity
  8
0
100
AcDbMText
 62
2
  6
CONTINUOUS
  7
STANDARD
 71
2
 72
1
 10
6.055
 20
-0.9065
 30
0.0
 11
1.0
 21
0.0
 31
0.0
 44
0.9
  1
Line mount
 40
0.125
 41
2.0
  0
MTEXT
  5
267
100
AcDbEntity
  8
0
100
AcDbMText
 62
2
  6
CONTINUOUS
  7
STANDARD
 71
2
 72
1
 10
1.5275
 20
-1.1565
 30
0.0
 11
1.0
 21
0.0
 31
0.0
 44
0.9
  1
Interface
 40
0.125
 41
1.8
  0
MTEXT
  5
268
100
AcDbEntity
  8
0
100
AcDbMText
 62
2
  6
CONTINUOUS
  7
STANDARD
 71
2
 72
1
 10
6.055
 20
-1.1565
 30
0.0
 11
1.0
 21
0.0
 31
0.0
 44
0.9
  1
None
 40
0.125
 41
0.8
  0
MTEXT
  5
269
100
AcDbEntity
  8
0
100
AcDbMText
 62
2
  6
CONTINUOUS
  7
STANDARD
 71
2
 72
1
 10
1.5275
 20
-1.4065
 30
0.0
 11
1.0
 21
0.0
 31
0.0
 44
0.9
  1
Open Cavity Quantity
 40
0.125
 41
4.0
  0
MTEXT
  5
26A
100
AcDbEntity
  8
0
100
AcDbMText
 62
2
  6
CONTINUOUS
  7
STANDARD
 71
2
 72
1
 10
6.055
 20
-1.4065
 30
0.0
 11
1.0
 21
0.0
 31
0.0
 44
0.9
  1
2
 40
0.125
 41
0.2
  0
MTEXT
  5
26B
100
AcDbEntity
  8
0
100
AcDbMText
 62
2
  6
CONTINUOUS
  7
STANDARD
 71
2
 72
1
 10
1.5275
 20
-1.6565
 30
0.0
 11
1.0
 21
0.0
 31
0.0
 44
0.9
  1
Weight
 40
0.125
 41
1.2
  0
MTEXT
  5
26C
100
AcDbEntity
  8
0
100
AcDbMText
 62
2
  6
CONTINUOUS
  7
STANDARD
 71
2
 72
1
 10
4.555
 20
-1.6565
 30
0.0
 11
1.0
 21
0.0
 31
0.0
 44
0.9
  1
5.918 lb.
 40
0.125
 41
1.8
  0
MTEXT
  5
26D
100
AcDbEntity
  8
0
100
AcDbMText
 62
2
  6
CONTINUOUS
  7
STANDARD
 71
2
 72
1
 10
7.555
 20
-1.6565
 30
0.0
 11
1.0
 21
0.0
 31
0.0
 44
0.9
  1
2,685 kg.
 40
0.125
 41
1.8
  0
MTEXT
  5
26E
100
AcDbEntity
  8
0
100
AcDbMText
 62
2
  6
CONTINUOUS
  7
STANDARD
 71
2
 72
1
 10
1.5275
 20
-1.9065
 30
0.0
 11
1.0
 21
0.0
 31
0.0
 44
0.9
  1
Mounting Hole Diameter
 40
0.125
 41
4.4
  0
MTEXT
  5
26F
100
AcDbEntity
  8
0
100
AcDbMText
 62
2
  6
CONTINUOUS
  7
STANDARD
 71
2
 72
1
 10
4.555
 20
-1.9065
 30
0.0
 11
1.0
 21
0.0
 31
0.0
 44
0.9
  1
.41 in.
 40
0.125
 41
1.4
  0
MTEXT
  5
270
100
AcDbEntity
  8
0
100
AcDbMText
 62
2
  6
CONTINUOUS
  7
STANDARD
 71
2
 72
1
 10
7.555
 20
-1.9065
 30
0.0
 11
1.0
 21
0.0
 31
0.0
 44
0.9
  1
10,4 mm
 40
0.125
 41
1.4
  0
MTEXT
  5
271
100
AcDbEntity
  8
0
100
AcDbMText
 62
2
  6
CONTINUOUS
  7
STANDARD
 71
2
 72
1
 10
1.5275
 20
-2.1565
 30
0.0
 11
1.0
 21
0.0
 31
0.0
 44
0.9
  1
Mounting Hole Depth
 40
0.125
 41
3.8
  0
MTEXT
  5
272
100
AcDbEntity
  8
0
100
AcDbMText
 62
2
  6
CONTINUOUS
  7
STANDARD
 71
2
 72
1
 10
6.055
 20
-2.1565
 30
0.0
 11
1.0
 21
0.0
 31
0.0
 44
0.9
  1
Through
 40
0.125
 41
1.4
  0
MTEXT
  5
273
100
AcDbEntity
  8
0
100
AcDbMText
 62
2
  6
CONTINUOUS
  7
STANDARD
 71
2
 72
1
 10
1.5275
 20
-2.4065
 30
0.0
 11
1.0
 21
0.0
 31
0.0
 44
0.9
  1
Mounting Hole Quantity
 40
0.125
 41
4.4
  0
MTEXT
  5
274
100
AcDbEntity
  8
0
100
AcDbMText
 62
2
  6
CONTINUOUS
  7
STANDARD
 71
2
 72
1
 10
6.055
 20
-2.4065
 30
0.0
 11
1.0
 21
0.0
 31
0.0
 44
0.9
  1
2
 40
0.125
 41
0.2
  0
ENDBLK
  5
275
100
AcDbEntity
  8
0
  6
BYBLOCK
 62
0
100
AcDbBlockEnd
  0
BLOCK
  5
276
100
AcDbEntity
  8
0
100
AcDbBlockBegin
  2
*T3
 70
1
 10
0.0
 20
0.0
  3
*T3
  1

  0
LINE
  5
277
100
AcDbEntity
  8
0
100
AcDbLine
 62
2
  6
CONTINUOUS
 10
0.0
 20
0.0
 11
4.6
 21
0.0
  0
LINE
  5
278
100
AcDbEntity
  8
0
100
AcDbLine
 62
2
  6
CONTINUOUS
 10
0.0
 20
0.0
 11
0.0
 21
-1.43775
  0
LINE
  5
279
100
AcDbEntity
  8
0
100
AcDbLine
 62
2
  6
CONTINUOUS
 10
0.0
 20
-0.34375
 11
4.6
 21
-0.34375
  0
LINE
  5
27A
100
AcDbEntity
  8
0
100
AcDbLine
 62
2
  6
CONTINUOUS
 10
0.0
 20
-0.68775
 11
4.6
 21
-0.68775
  0
LINE
  5
27B
100
AcDbEntity
  8
0
100
AcDbLine
 62
2
  6
CONTINUOUS
 10
0.0
 20
-0.93775
 11
4.6
 21
-0.93775
  0
LINE
  5
27C
100
AcDbEntity
  8
0
100
AcDbLine
 62
2
  6
CONTINUOUS
 10
0.0
 20
-1.18775
 11
4.6
 21
-1.18775
  0
LINE
  5
27D
100
AcDbEntity
  8
0
100
AcDbLine
 62
2
  6
CONTINUOUS
 10
0.0
 20
-1.43775
 11
4.6
 21
-1.43775
  0
LINE
  5
27E
100
AcDbEntity
  8
0
100
AcDbLine
 62
2
  6
CONTINUOUS
 10
1.3
 20
-0.34375
 11
1.3
 21
-1.43775
  0
LINE
  5
27F
100
AcDbEntity
  8
0
100
AcDbLine
 62
2
  6
CONTINUOUS
 10
3.3
 20
-0.34375
 11
3.3
 21
-1.43775
  0
LINE
  5
280
100
AcDbEntity
  8
0
100
AcDbLine
 62
2
  6
CONTINUOUS
 10
4.6
 20
0.0
 11
4.6
 21
-1.43775
  0
MTEXT
  5
281
100
AcDbEntity
  8
0
100
AcDbMText
 62
2
  6
CONTINUOUS
  7
STANDARD
 71
2
 72
1
 10
2.3
 20
-0.099375
 30
0.0
 11
1.0
 21
0.0
 31
0.0
 44
0.9
  1
Port Headings
 40
0.145
 41
3.016
  0
MTEXT
  5
282
100
AcDbEntity
  8
0
100
AcDbMText
 62
2
  6
CONTINUOUS
  7
STANDARD
 71
2
 72
1
 10
0.65
 20
-0.44325
 30
0.0
 11
1.0
 21
0.0
 31
0.0
 44
0.9
  1
Product
 40
0.145
 41
1.624
  0
MTEXT
  5
283
100
AcDbEntity
  8
0
100
AcDbMText
 62
2
  6
CONTINUOUS
  7
STANDARD
 71
2
 72
1
 10
2.3
 20
-0.44325
 30
0.0
 11
1.0
 21
0.0
 31
0.0
 44
0.9
  1
Port
 40
0.145
 41
0.928
  0
MTEXT
  5
284
100
AcDbEntity
  8
0
100
AcDbMText
 62
2
  6
CONTINUOUS
  7
STANDARD
 71
2
 72
1
 10
3.95
 20
-0.44325
 30
0.0
 11
1.0
 21
0.0
 31
0.0
 44
0.9
  1
Size
 40
0.145
 41
0.928
  0
MTEXT
  5
285
100
AcDbEntity
  8
0
100
AcDbMText
 62
2
  6
CONTINUOUS
  7
STANDARD
 71
2
 72
1
 10
0.65
 20
-0.75025
 30
0.0
 11
1.0
 21
0.0
 31
0.0
 44
0.9
  1
XBM
 40
0.125
 41
0.6
  0
MTEXT
  5
286
100
AcDbEntity
  8
0
100
AcDbMText
 62
2
  6
CONTINUOUS
  7
STANDARD
 71
2
 72
1
 10
2.3
 20
-0.75025
 30
0.0
 11
1.0
 21
0.0
 31
0.0
 44
0.9
  1
Ports 1 &  2
 40
0.125
 41
2.4
  0
MTEXT
  5
287
100
AcDbEntity
  8
0
100
AcDbMText
 62
2
  6
CONTINUOUS
  7
STANDARD
 71
2
 72
1
 10
3.95
 20
-0.75025
 30
0.0
 11
1.0
 21
0.0
 31
0.0
 44
0.9
  1
SAE 16
 40
0.125
 41
1.2
  0
MTEXT
  5
288
100
AcDbEntity
  8
0
100
AcDbMText
 62
2
  6
CONTINUOUS
  7
STANDARD
 71
2
 72
1
 10
0.65
 20
-1.00025
 30
0.0
 11
1.0
 21
0.0
 31
0.0
 44
0.9
  1
XBM
 40
0.125
 41
0.6
  0
MTEXT
  5
289
100
AcDbEntity
  8
0
100
AcDbMText
 62
2
  6
CONTINUOUS
  7
STANDARD
 71
2
 72
1
 10
2.3
 20
-1.00025
 30
0.0
 11
1.0
 21
0.0
 31
0.0
 44
0.9
  1
Port V
 40
0.125
 41
1.2
  0
MTEXT
  5
28A
100
AcDbEntity
  8
0
100
AcDbMText
 62
2
  6
CONTINUOUS
  7
STANDARD
 71
2
 72
1
 10
3.95
 20
-1.00025
 30
0.0
 11
1.0
 21
0.0
 31
0.0
 44
0.9
  1
SAE 6
 40
0.125
 41
1.0
  0
MTEXT
  5
28B
100
AcDbEntity
  8
0
100
AcDbMText
 62
2
  6
CONTINUOUS
  7
STANDARD
 71
2
 72
1
 10
0.65
 20
-1.25025
 30
0.0
 11
1.0
 21
0.0
 31
0.0
 44
0.9
  1
XBM
 40
0.125
 41
0.6
  0
MTEXT
  5
28C
100
AcDbEntity
  8
0
100
AcDbMText
 62
2
  6
CONTINUOUS
  7
STANDARD
 71
2
 72
1
 10
2.3
 20
-1.25025
 30
0.0
 11
1.0
 21
0.0
 31
0.0
 44
0.9
  1
Gage Ports
 40
0.125
 41
2.0
  0
MTEXT
  5
28D
100
AcDbEntity
  8
0
100
AcDbMText
 62
2
  6
CONTINUOUS
  7
STANDARD
 71
2
 72
1
 10
3.95
 20
-1.25025
 30
0.0
 11
1.0
 21
0.0
 31
0.0
 44
0.9
  1
1/4" NPTF
 40
0.125
 41
1.8
  0
ENDBLK
  5
28E
100
AcDbEntity
  8
0
  6
BYBLOCK
 62
0
100
AcDbBlockEnd
  0
ENDSEC
  0
SECTION
  2
ENTITIES
  0
IMAGE
  5
28F
100
AcDbEntity
  8
0
100
AcDbRasterImage
 62
7
  6
CONTINUOUS
 10
19.2297077316
 20
0.3094318264
 30
0.0
 11
0.0066666667
 21
0.0
 31
0.0
 12
0.0
 22
0.0066666667
 32
0.0
 13
369.0
 23
92.0
340
       424
 70
9
280
0
281
50
282
50
283
0
360
       41E
 71
1
 91
2
 14
-0.5
 24
-0.5
 14
368.5
 24
91.5
  0
INSERT
  5
290
100
AcDbEntity
  8
0
100
AcDbBlockReference
 62
2
  6
CONTINUOUS
  2
SUN_FIRST_THIRD_ANGLE_BL0
 10
20.4816717061
 20
1.2289683772
  0
ACAD_TABLE
  5
291
100
AcDbEntity
  8
0
 62
2
  6
CONTINUOUS
100
AcDbBlockReference
  2
*T1
 10
12.42375
 20
0.30125
 30
0.0
100
AcDbTable
342
       426
343
20F
 11
1.0
 21
0.0
 31
0.0
 90
6
 91
4
 92
6
 93
20
 94
0
 95
0
 96
0
 70
1
 41
0.0
141
0.525
141
0.1
141
0.525
141
0.1
142
4.1
142
1.1
142
0.7
142
0.5
142
0.4
142
2.475
171
1
172
0
173
0
174
0
175
1
176
1
 91
33
178
0
145
0.0
301
CELL_VALUE
 90
4
  1
T-2A Line mount\PCross port with shuttle on port 3s
304
ACVALUE_END
170
2
140
0.125
171
1
172
0
173
0
174
0
175
1
176
1
 91
33
178
0
145
0.0
301
CELL_VALUE
 90
4
  1
Feb-12-21
304
ACVALUE_END
170
5
140
0.125
171
1
172
0
173
0
174
0
175
1
176
1
 91
33
178
0
145
0.0
301
CELL_VALUE
 90
4
  1
1.000
304
ACVALUE_END
170
5
140
0.125
171
1
172
0
173
0
174
0
175
1
176
1
 91
33
178
0
145
0.0
301
CELL_VALUE
 90
4
  1
C
304
ACVALUE_END
170
5
140
0.125
171
1
172
0
173
0
174
0
175
1
176
1
 91
33
178
0
145
0.0
301
CELL_VALUE
 90
4
  1
2
304
ACVALUE_END
170
5
140
0.125
171
1
172
0
173
0
174
0
175
1
176
1
 91
33
178
0
145
0.0
301
CELL_VALUE
 90
4
  1
 
304
ACVALUE_END
170
1
140
0.125
171
1
172
0
173
0
174
0
175
1
176
1
 91
33
178
0
145
0.0
301
CELL_VALUE
 90
4
  1
DESCRIPTION
304
ACVALUE_END
170
1
140
0.06
171
1
172
0
173
0
174
0
175
1
176
1
 91
33
178
0
145
0.0
301
CELL_VALUE
 90
4
  1
DATE
304
ACVALUE_END
170
1
140
0.06
171
1
172
0
173
0
174
0
175
1
176
1
 91
33
178
0
145
0.0
301
CELL_VALUE
 90
4
  1
SCALE
304
ACVALUE_END
170
1
140
0.06
171
1
172
0
173
0
174
0
175
1
176
1
 91
33
178
0
145
0.0
301
CELL_VALUE
 90
4
  1
DWG SIZE
304
ACVALUE_END
170
1
140
0.06
171
1
172
0
173
0
174
0
175
1
176
1
 91
33
178
0
145
0.0
301
CELL_VALUE
 90
4
  1
SHEET
304
ACVALUE_END
170
1
140
0.06
171
1
172
0
173
0
174
0
175
1
176
1
 91
33
178
0
145
0.0
301
CELL_VALUE
 90
4
  1
 
304
ACVALUE_END
170
1
140
0.125
171
1
172
0
173
0
174
0
175
1
176
1
 91
33
178
0
145
0.0
301
CELL_VALUE
 90
4
  1
XBM
304
ACVALUE_END
170
5
140
0.125
171
1
172
0
173
0
174
0
175
4
176
1
 91
33
178
0
145
0.0
301
CELL_VALUE
 90
4
  1
ALL DIMENSIONS IN INCH\PVIEWS ARE THIRD ANGLE
304
ACVALUE_END
170
5
140
0.12
171
1
172
0
173
1
174
0
175
1
176
1
 91
1
178
0
145
0.0
170
1
171
1
172
0
173
1
174
0
175
1
176
1
 91
1
178
0
145
0.0
170
1
171
1
172
0
173
1
174
0
175
1
176
1
 91
1
178
0
145
0.0
170
5
171
1
172
0
173
0
174
0
175
1
176
1
 91
33
178
0
145
0.0
301
CELL_VALUE
 90
4
  1
 
304
ACVALUE_END
170
1
140
0.125
171
1
172
0
173
0
174
0
175
1
176
1
 91
33
178
0
145
0.0
301
CELL_VALUE
 90
4
  1
MODEL
304
ACVALUE_END
170
1
140
0.06
171
1
172
0
173
0
174
0
175
1
176
1
 91
33
178
0
145
0.0
301
CELL_VALUE
 90
4
  1
 
304
ACVALUE_END
170
1
140
0.125
171
1
172
0
173
0
174
0
175
1
176
1
 91
33
178
0
145
0.0
301
CELL_VALUE
 90
4
  1
 
304
ACVALUE_END
170
1
140
0.125
171
1
172
0
173
0
174
0
175
1
176
1
 91
33
178
0
145
0.0
301
CELL_VALUE
 90
4
  1
 
304
ACVALUE_END
170
1
140
0.125
171
1
172
0
173
0
174
0
175
1
176
1
 91
33
178
0
145
0.0
301
CELL_VALUE
 90
4
  1
 
304
ACVALUE_END
170
1
140
0.125
171
1
172
0
173
0
174
0
175
1
176
1
 91
33
178
0
145
0.0
301
CELL_VALUE
 90
4
  1
 
304
ACVALUE_END
170
1
140
0.125
  0
ACAD_TABLE
  5
292
100
AcDbEntity
  8
0
 62
2
  6
CONTINUOUS
100
AcDbBlockReference
  2
*T2
 10
12.4237499994
 20
16.47875
 30
0.0
100
AcDbTable
342
       425
343
210
 11
1.0
 21
0.0
 31
0.0
 90
22
 91
10
 92
3
 93
16
 94
0
 95
0
 96
0
 41
0.028
141
0.344
141
0.25
141
0.25
141
0.25
141
0.25
141
0.25
141
0.25
141
0.25
141
0.25
141
0.25
142
3.055
142
3.0
142
3.0
171
1
172
0
173
0
174
0
175
1
176
1
 91
33
178
0
145
0.0
301
CELL_VALUE
 90
4
  1
Technical Data
304
ACVALUE_END
170
5
140
0.145
171
1
172
0
173
0
174
0
175
1
176
1
 91
33
178
0
145
0.0
301
CELL_VALUE
 90
4
  1
U.S. Units
304
ACVALUE_END
170
5
140
0.145
171
1
172
0
173
0
174
0
175
1
176
1
 91
33
178
0
145
0.0
301
CELL_VALUE
 90
4
  1
Metric Units
304
ACVALUE_END
170
5
140
0.145
171
1
172
0
173
0
174
0
175
1
176
1
 91
33
178
0
145
0.0
301
CELL_VALUE
 90
4
  1
Cavity
304
ACVALUE_END
170
5
140
0.125
171
1
172
0
173
0
174
0
175
2
176
1
 91
33
178
0
145
0.0
301
CELL_VALUE
 90
4
  1
T-2A
304
ACVALUE_END
170
5
140
0.125
171
1
172
0
173
1
174
0
175
1
176
1
 91
1
178
0
145
0.0
170
1
171
1
172
0
173
0
174
0
175
1
176
1
 91
33
178
0
145
0.0
301
CELL_VALUE
 90
4
  1
Body Features
304
ACVALUE_END
170
5
140
0.125
171
1
172
0
173
0
174
0
175
2
176
1
 91
33
178
0
145
0.0
301
CELL_VALUE
 90
4
  1
Cross port with shuttle on port 3s
304
ACVALUE_END
170
5
140
0.125
171
1
172
0
173
1
174
0
175
1
176
1
 91
1
178
0
145
0.0
170
1
171
1
172
0
173
0
174
0
175
1
176
1
 91
33
178
0
145
0.0
301
CELL_VALUE
 90
4
  1
Body Type
304
ACVALUE_END
170
5
140
0.125
171
1
172
0
173
0
174
0
175
2
176
1
 91
33
178
0
145
0.0
301
CELL_VALUE
 90
4
  1
Line mount
304
ACVALUE_END
170
5
140
0.125
171
1
172
0
173
1
174
0
175
1
176
1
 91
1
178
0
145
0.0
170
1
171
1
172
0
173
0
174
0
175
1
176
1
 91
33
178
0
145
0.0
301
CELL_VALUE
 90
4
  1
Interface
304
ACVALUE_END
170
5
140
0.125
171
1
172
0
173
0
174
0
175
2
176
1
 91
33
178
0
145
0.0
301
CELL_VALUE
 90
4
  1
None
304
ACVALUE_END
170
5
140
0.125
171
1
172
0
173
1
174
0
175
1
176
1
 91
1
178
0
145
0.0
170
1
171
1
172
0
173
0
174
0
175
1
176
1
 91
33
178
0
145
0.0
301
CELL_VALUE
 90
4
  1
Open Cavity Quantity
304
ACVALUE_END
170
5
140
0.125
171
1
172
0
173
0
174
0
175
2
176
1
 91
33
178
0
145
0.0
301
CELL_VALUE
 90
4
  1
2
304
ACVALUE_END
170
5
140
0.125
171
1
172
0
173
1
174
0
175
1
176
1
 91
1
178
0
145
0.0
170
1
171
1
172
0
173
0
174
0
175
1
176
1
 91
33
178
0
145
0.0
301
CELL_VALUE
 90
4
  1
Weight
304
ACVALUE_END
170
5
140
0.125
171
1
172
0
173
0
174
0
175
1
176
1
 91
33
178
0
145
0.0
301
CELL_VALUE
 90
4
  1
5.918 lb.
304
ACVALUE_END
170
5
140
0.125
171
1
172
0
173
0
174
0
175
1
176
1
 91
33
178
0
145
0.0
301
CELL_VALUE
 90
4
  1
2,685 kg.
304
ACVALUE_END
170
5
140
0.125
171
1
172
0
173
0
174
0
175
1
176
1
 91
33
178
0
145
0.0
301
CELL_VALUE
 90
4
  1
Mounting Hole Diameter
304
ACVALUE_END
170
5
140
0.125
171
1
172
0
173
0
174
0
175
1
176
1
 91
33
178
0
145
0.0
301
CELL_VALUE
 90
4
  1
.41 in.
304
ACVALUE_END
170
5
140
0.125
171
1
172
0
173
0
174
0
175
1
176
1
 91
33
178
0
145
0.0
301
CELL_VALUE
 90
4
  1
10,4 mm
304
ACVALUE_END
170
5
140
0.125
171
1
172
0
173
0
174
0
175
1
176
1
 91
33
178
0
145
0.0
301
CELL_VALUE
 90
4
  1
Mounting Hole Depth
304
ACVALUE_END
170
5
140
0.125
171
1
172
0
173
0
174
0
175
2
176
1
 91
33
178
0
145
0.0
301
CELL_VALUE
 90
4
  1
Through
304
ACVALUE_END
170
5
140
0.125
171
1
172
0
173
1
174
0
175
1
176
1
 91
1
178
0
145
0.0
170
1
171
1
172
0
173
0
174
0
175
1
176
1
 91
33
178
0
145
0.0
301
CELL_VALUE
 90
4
  1
Mounting Hole Quantity
304
ACVALUE_END
170
5
140
0.125
171
1
172
0
173
0
174
0
175
2
176
1
 91
33
178
0
145
0.0
301
CELL_VALUE
 90
4
  1
2
304
ACVALUE_END
170
5
140
0.125
171
1
172
0
173
1
174
0
175
1
176
1
 91
1
178
0
145
0.0
170
1
  0
ACAD_TABLE
  5
293
100
AcDbEntity
  8
0
 62
2
  6
CONTINUOUS
100
AcDbBlockReference
  2
*T3
 10
0.52125
 20
1.959
 30
0.0
100
AcDbTable
342
       425
343
211
 11
1.0
 21
0.0
 31
0.0
 90
22
 91
5
 92
3
 93
16
 94
0
 95
0
 96
0
 41
0.05
141
0.34375
141
0.344
141
0.25
141
0.25
141
0.25
142
1.3
142
2.0
142
1.3
171
1
172
0
173
0
174
0
175
3
176
1
 91
33
178
0
145
0.0
301
CELL_VALUE
 90
4
  1
Port Headings
304
ACVALUE_END
170
5
140
0.145
171
1
172
0
173
1
174
0
175
1
176
1
 91
1
178
0
145
0.0
170
1
171
1
172
0
173
1
174
0
175
1
176
1
 91
1
178
0
145
0.0
170
1
171
1
172
0
173
0
174
0
175
1
176
1
 91
33
178
0
145
0.0
301
CELL_VALUE
 90
4
  1
Product
304
ACVALUE_END
170
5
140
0.145
171
1
172
0
173
0
174
0
175
1
176
1
 91
33
178
0
145
0.0
301
CELL_VALUE
 90
4
  1
Port
304
ACVALUE_END
170
5
140
0.145
171
1
172
0
173
0
174
0
175
1
176
1
 91
33
178
0
145
0.0
301
CELL_VALUE
 90
4
  1
Size
304
ACVALUE_END
170
5
140
0.145
171
1
172
0
173
0
174
0
175
1
176
1
 91
33
178
0
145
0.0
301
CELL_VALUE
 90
4
  1
XBM
304
ACVALUE_END
170
5
140
0.125
171
1
172
0
173
0
174
0
175
1
176
1
 91
33
178
0
145
0.0
301
CELL_VALUE
 90
4
  1
Ports 1 &  2
304
ACVALUE_END
170
5
140
0.125
171
1
172
0
173
0
174
0
175
1
176
1
 91
33
178
0
145
0.0
301
CELL_VALUE
 90
4
  1
SAE 16
304
ACVALUE_END
170
5
140
0.125
171
1
172
0
173
0
174
0
175
1
176
1
 91
33
178
0
145
0.0
301
CELL_VALUE
 90
4
  1
XBM
304
ACVALUE_END
170
5
140
0.125
171
1
172
0
173
0
174
0
175
1
176
1
 91
33
178
0
145
0.0
301
CELL_VALUE
 90
4
  1
Port V
304
ACVALUE_END
170
5
140
0.125
171
1
172
0
173
0
174
0
175
1
176
1
 91
33
178
0
145
0.0
301
CELL_VALUE
 90
4
  1
SAE 6
304
ACVALUE_END
170
5
140
0.125
171
1
172
0
173
0
174
0
175
1
176
1
 91
33
178
0
145
0.0
301
CELL_VALUE
 90
4
  1
XBM
304
ACVALUE_END
170
5
140
0.125
171
1
172
0
173
0
174
0
175
1
176
1
 91
33
178
0
145
0.0
301
CELL_VALUE
 90
4
  1
Gage Ports
304
ACVALUE_END
170
5
140
0.125
171
1
172
0
173
0
174
0
175
1
176
1
 91
33
178
0
145
0.0
301
CELL_VALUE
 90
4
  1
1/4" NPTF
304
ACVALUE_END
170
5
140
0.125
  0
MTEXT
  5
294
100
AcDbEntity
  8
0
100
AcDbMText
 62
2
  6
CONTINUOUS
  7
STANDARD
 71
1
 72
1
 10
0.52125
 20
5.75995
 30
0.0
 11
1.0
 21
0.0
 31
0.0
 44
0.6
  3
Notes\P \P1. Important: Carefully consider\P   the maximum system pressure. The\P   pressure rating of the manifold is\P   dependent on the manifold material,\P   with the port type/size a secondary\P   consideration. Manifolds\P   constructed of alu
  1
minum are not\P   rated for pressures higher than\P   3000 psi (210 bar), regardless of\P   the port type/size specified.
 40
0.1
 41
3.04
  0
LINE
  5
295
100
AcDbEntity
  8
0
100
AcDbLine
 62
7
  6
CONTINUOUS
 10
0.30125
 20
0.30125
 11
0.30125
 21
16.69875
  0
LINE
  5
296
100
AcDbEntity
  8
0
100
AcDbLine
 62
7
  6
CONTINUOUS
 10
0.30125
 20
0.30125
 11
21.69875
 21
0.30125
  0
LINE
  5
297
100
AcDbEntity
  8
0
100
AcDbLine
 62
7
  6
CONTINUOUS
 10
0.30125
 20
16.69875
 11
21.69875
 21
16.69875
  0
LINE
  5
298
100
AcDbEntity
  8
0
100
AcDbLine
 62
7
  6
CONTINUOUS
 10
21.69875
 20
0.30125
 11
21.69875
 21
16.69875
  0
LINE
  5
299
100
AcDbEntity
  8
0
100
AcDbLine
 62
7
  6
CONTINUOUS
 10
7.9381382124
 20
6.6539499901
 11
7.9381382124
 21
9.4309869052
  0
LINE
  5
29A
100
AcDbEntity
  8
0
100
AcDbLine
 62
7
  6
CONTINUOUS
 10
7.9381382124
 20
9.4309869052
 11
8.2522362262
 21
9.7343823067
  0
LINE
  5
29B
100
AcDbEntity
  8
0
100
AcDbLine
 62
7
  6
CONTINUOUS
 10
8.3684031393
 20
9.8465909348
 11
8.8019674431
 21
10.265381918
  0
LINE
  5
29C
100
AcDbEntity
  8
0
100
AcDbLine
 62
7
  6
CONTINUOUS
 10
8.9181343562
 20
10.3775905462
 11
9.23223237
 21
10.6809859477
  0
LINE
  5
29D
100
AcDbEntity
  8
0
100
AcDbLine
 62
7
  6
CONTINUOUS
 10
8.9490439852
 20
10.3754469561
 11
8.8328770721
 21
10.263238328
  0
LINE
  5
29E
100
AcDbEntity
  8
0
100
AcDbLine
 62
7
  6
CONTINUOUS
 10
8.3993127683
 20
9.8444473448
 11
8.2831458552
 21
9.7322387166
  0
LINE
  5
29F
100
AcDbEntity
  8
0
100
AcDbLine
 62
4
  6
CONTINUOUS
 10
9.1539424514
 20
10.3273637551
 11
9.1487660761
 21
10.3223637602
  0
LINE
  5
2A0
100
AcDbEntity
  8
0
100
AcDbLine
 62
4
  6
CONTINUOUS
 10
8.6123546471
 20
9.8022302217
 11
8.581296388
 21
9.7722302454
  0
LINE
  5
2A1
100
AcDbEntity
  8
0
100
AcDbLine
 62
4
  6
CONTINUOUS
 10
9.0851140265
 20
10.3133805968
 11
9.0701050177
 21
10.3063830066
  0
LINE
  5
2A2
100
AcDbEntity
  8
0
100
AcDbLine
 62
4
  6
CONTINUOUS
 10
8.8871604294
 20
7.7569054245
 11
8.9233826492
 21
7.6384823016
  0
LINE
  5
2A3
100
AcDbEntity
  8
0
100
AcDbLine
 62
7
  6
CONTINUOUS
 10
12.76776763
 20
6.3190140523
 11
7.9381382124
 21
6.6539499901
  0
LINE
  5
2A4
100
AcDbEntity
  8
0
100
AcDbLine
 62
4
  6
CONTINUOUS
 10
10.1108034505
 20
10.0910490418
 11
10.1152403444
 21
10.0953347525
  0
LINE
  5
2A5
100
AcDbEntity
  8
0
100
AcDbLine
 62
4
  6
CONTINUOUS
 10
8.9233826492
 20
7.6384823016
 11
8.959604869
 21
7.7518813855
  0
LINE
  5
2A6
100
AcDbEntity
  8
0
100
AcDbLine
 62
4
  6
CONTINUOUS
 10
10.1510114253
 20
10.0698869667
 11
10.1554483197
 21
10.0741726778
  0
LINE
  5
2A7
100
AcDbEntity
  8
0
100
AcDbLine
 62
4
  6
CONTINUOUS
 10
10.2107502462
 20
10.0933045286
 11
10.1841288815
 21
10.0675902633
  0
LINE
  5
2A8
100
AcDbEntity
  8
0
100
AcDbLine
 62
4
  6
CONTINUOUS
 10
10.0571721263
 20
9.9078165764
 11
10.0882303853
 21
9.9378165527
  0
LINE
  5
2A9
100
AcDbEntity
  8
0
100
AcDbLine
 62
4
  6
CONTINUOUS
 10
10.2420844332
 20
10.0635710322
 11
10.2687057979
 21
10.0892852974
  0
LINE
  5
2AA
100
AcDbEntity
  8
0
100
AcDbLine
 62
4
  6
CONTINUOUS
 10
9.9791647564
 20
9.7824673036
 11
9.9688120035
 21
9.7724673116
  0
LINE
  5
2AB
100
AcDbEntity
  8
0
100
AcDbLine
 62
4
  6
CONTINUOUS
 10
10.270764995
 20
10.0569886177
 11
10.3018232541
 21
10.086988594
  0
LINE
  5
2AC
100
AcDbEntity
  8
0
100
AcDbLine
 62
4
  6
CONTINUOUS
 10
10.1417490363
 20
9.9295116114
 11
10.1195645654
 21
9.9080830568
  0
LINE
  5
2AD
100
AcDbEntity
  8
0
100
AcDbLine
 62
4
  6
CONTINUOUS
 10
10.3287205467
 20
10.0529693865
 11
10.3597788058
 21
10.0829693629
  0
LINE
  5
2AE
100
AcDbEntity
  8
0
100
AcDbLine
 62
4
  6
CONTINUOUS
 10
10.0816272135
 20
9.791438445
 11
10.0505689544
 21
9.7614384686
  0
LINE
  5
2AF
100
AcDbEntity
  8
0
100
AcDbLine
 62
4
  6
CONTINUOUS
 10
10.4529110107
 20
10.0443567486
 11
10.4839692698
 21
10.0743567249
  0
LINE
  5
2B0
100
AcDbEntity
  8
0
100
AcDbLine
 62
4
  6
CONTINUOUS
 10
10.2945139091
 20
9.8913568678
 11
10.3255721682
 21
9.9213568442
  0
LINE
  5
2B1
100
AcDbEntity
  8
0
100
AcDbLine
 62
7
  6
CONTINUOUS
 10
9.7881862845
 20
9.6879962238
 11
9.7874872284
 21
9.6873337173
  0
LINE
  5
2B2
100
AcDbEntity
  8
0
100
AcDbLine
 62
4
  6
CONTINUOUS
 10
9.9067203167
 20
9.7874913425
 11
9.9217293255
 21
9.7944889327
  0
LINE
  5
2B3
100
AcDbEntity
  8
0
100
AcDbLine
 62
4
  6
CONTINUOUS
 10
10.1620440707
 20
9.9005436823
 11
10.226219786
 21
9.9282469553
  0
LINE
  5
2B4
100
AcDbEntity
  8
0
100
AcDbLine
 62
4
  6
CONTINUOUS
 10
10.5448685694
 20
10.0303237859
 11
10.6075653066
 21
10.0565984901
  0
LINE
  5
2B5
100
AcDbEntity
  8
0
100
AcDbLine
 62
4
  6
CONTINUOUS
 10
10.6493718255
 20
9.9512661422
 11
10.7002368443
 21
9.9661122833
  0
LINE
  5
2B6
100
AcDbEntity
  8
0
100
AcDbLine
 62
4
  6
CONTINUOUS
 10
10.5225532253
 20
10.0601973919
 11
10.5025872018
 21
10.040911693
  0
LINE
  5
2B7
100
AcDbEntity
  8
0
100
AcDbLine
 62
4
  6
CONTINUOUS
 10
10.3607488214
 20
9.8867634611
 11
10.3918070805
 21
9.9167634374
  0
LINE
  5
2B8
100
AcDbEntity
  8
0
100
AcDbLine
 62
4
  6
CONTINUOUS
 10
10.5118706719
 20
9.9470216478
 11
10.542928931
 21
9.9770216241
  0
LINE
  5
2B9
100
AcDbEntity
  8
0
100
AcDbLine
 62
4
  6
CONTINUOUS
 10
10.6096776142
 20
10.0357816531
 11
10.6274251905
 21
10.0529244964
  0
LINE
  5
2BA
100
AcDbEntity
  8
0
100
AcDbLine
 62
4
  6
CONTINUOUS
 10
10.5881682214
 20
9.9692908584
 11
10.5815128796
 21
9.9628622915
  0
LINE
  5
2BB
100
AcDbEntity
  8
0
100
AcDbLine
 62
4
  6
CONTINUOUS
 10
10.6881935896
 20
10.0601937202
 11
10.6571353305
 21
10.0301937439
  0
LINE
  5
2BC
100
AcDbEntity
  8
0
100
AcDbLine
 62
4
  6
CONTINUOUS
 10
10.5809184524
 20
9.9537166946
 11
10.5742631111
 21
9.9472881282
  0
LINE
  5
2BD
100
AcDbEntity
  8
0
100
AcDbLine
 62
4
  6
CONTINUOUS
 10
10.6902528281
 20
10.0278970376
 11
10.7124372994
 21
10.0493255927
  0
LINE
  5
2BE
100
AcDbEntity
  8
0
100
AcDbLine
 62
4
  6
CONTINUOUS
 10
10.5390523986
 20
9.8789914768
 11
10.5612368694
 21
9.9004200314
  0
LINE
  5
2BF
100
AcDbEntity
  8
0
100
AcDbLine
 62
4
  6
CONTINUOUS
 10
10.6029436867
 20
9.9407057128
 11
10.6340019458
 21
9.9707056891
  0
LINE
  5
2C0
100
AcDbEntity
  8
0
100
AcDbLine
 62
4
  6
CONTINUOUS
 10
10.7488558492
 20
10.0445032516
 11
10.7444189553
 21
10.0402175409
  0
LINE
  5
2C1
100
AcDbEntity
  8
0
100
AcDbLine
 62
4
  6
CONTINUOUS
 10
10.7002368443
 20
9.9661122833
 11
10.6691785852
 21
9.9361123069
  0
LINE
  5
2C2
100
AcDbEntity
  8
0
100
AcDbLine
 62
4
  6
CONTINUOUS
 10
10.7669855482
 20
10.0248723108
 11
10.7736408897
 21
10.0313008775
  0
LINE
  5
2C3
100
AcDbEntity
  8
0
100
AcDbLine
 62
4
  6
CONTINUOUS
 10
10.6356449479
 20
9.8722927607
 11
10.6578294188
 21
9.8937213153
  0
LINE
  5
2C4
100
AcDbEntity
  8
0
100
AcDbLine
 62
4
  6
CONTINUOUS
 10
10.8144432645
 20
10.0192844016
 11
10.8321908419
 21
10.036427246
  0
LINE
  5
2C5
100
AcDbEntity
  8
0
100
AcDbLine
 62
4
  6
CONTINUOUS
 10
11.0386866776
 20
10.035886942
 11
11.033708452
 21
10.033935477
  0
LINE
  5
2C6
100
AcDbEntity
  8
0
100
AcDbLine
 62
4
  6
CONTINUOUS
 10
9.824108591
 20
7.7305648545
 11
9.8096197031
 21
7.7412289212
  0
LINE
  5
2C7
100
AcDbEntity
  8
0
100
AcDbLine
 62
4
  6
CONTINUOUS
 10
9.9400196944
 20
7.7225263921
 11
9.9255308065
 21
7.7331904588
  0
LINE
  5
2C8
100
AcDbEntity
  8
0
100
AcDbLine
 62
4
  6
CONTINUOUS
 10
9.8096197031
 20
7.7412289212
 11
9.7951308151
 21
7.7615522459
  0
LINE
  5
2C9
100
AcDbEntity
  8
0
100
AcDbLine
 62
4
  6
CONTINUOUS
 10
9.8530863669
 20
7.834807086
 11
9.8603308108
 21
7.8246454189
  0
LINE
  5
2CA
100
AcDbEntity
  8
0
100
AcDbLine
 62
4
  6
CONTINUOUS
 10
9.9255308065
 20
7.7331904588
 11
9.9110419186
 21
7.7535137836
  0
LINE
  5
2CB
100
AcDbEntity
  8
0
100
AcDbLine
 62
4
  6
CONTINUOUS
 10
9.9182863625
 20
7.8109669314
 11
9.9255308065
 21
7.8008052712
  0
LINE
  5
2CC
100
AcDbEntity
  8
0
100
AcDbLine
 62
4
  6
CONTINUOUS
 10
9.9689974703
 20
7.7688130685
 11
9.9762419142
 21
7.7586514083
  0
LINE
  5
2CD
100
AcDbEntity
  8
0
100
AcDbLine
 62
4
  6
CONTINUOUS
 10
9.9762419142
 20
7.8166069566
 11
9.9689974703
 21
7.8267686237
  0
LINE
  5
2CE
100
AcDbEntity
  8
0
100
AcDbLine
 62
4
  6
CONTINUOUS
 10
9.7951308151
 20
7.7615522459
 11
9.7878863712
 21
7.7910324257
  0
LINE
  5
2CF
100
AcDbEntity
  8
0
100
AcDbLine
 62
4
  6
CONTINUOUS
 10
9.9182863625
 20
7.8206261877
 11
9.9182863625
 21
7.8109669314
  0
LINE
  5
2D0
100
AcDbEntity
  8
0
100
AcDbLine
 62
4
  6
CONTINUOUS
 10
9.9762419142
 20
7.7586514083
 11
9.9762419142
 21
7.7393328905
  0
LINE
  5
2D1
100
AcDbEntity
  8
0
100
AcDbLine
 62
4
  6
CONTINUOUS
 10
9.9062001959
 20
9.7794889445
 11
9.9067203167
 21
9.7874913425
  0
LINE
  5
2D2
100
AcDbEntity
  8
0
100
AcDbLine
 62
4
  6
CONTINUOUS
 10
9.7878863712
 20
7.7910324257
 11
9.7951308151
 21
7.8195077976
  0
LINE
  5
2D3
100
AcDbEntity
  8
0
100
AcDbLine
 62
4
  6
CONTINUOUS
 10
10.8697451782
 20
10.0384162542
 11
10.849779154
 21
10.0191305547
  0
LINE
  5
2D4
100
AcDbEntity
  8
0
100
AcDbLine
 62
4
  6
CONTINUOUS
 10
10.7157849705
 20
9.8897020841
 11
10.6936004996
 21
9.8682735295
  0
LINE
  5
2D5
100
AcDbEntity
  8
0
100
AcDbLine
 62
4
  6
CONTINUOUS
 10
10.7222810476
 20
9.861691116
 11
10.7533393067
 21
9.8916910924
  0
LINE
  5
2D6
100
AcDbEntity
  8
0
100
AcDbLine
 62
4
  6
CONTINUOUS
 10
10.8972369256
 20
10.0135426417
 11
10.9194213969
 21
10.0349711968
  0
LINE
  5
2D7
100
AcDbEntity
  8
0
100
AcDbLine
 62
4
  6
CONTINUOUS
 10
10.9325728151
 20
10.0133887948
 11
10.961412627
 21
10.0412459156
  0
LINE
  5
2D8
100
AcDbEntity
  8
0
100
AcDbLine
 62
4
  6
CONTINUOUS
 10
10.8068579645
 20
9.8833861506
 11
10.7846734937
 21
9.861957596
  0
LINE
  5
2D9
100
AcDbEntity
  8
0
100
AcDbLine
 62
4
  6
CONTINUOUS
 10
10.8271530405
 20
9.8544182186
 11
10.8582112995
 21
9.884418195
  0
LINE
  5
2DA
100
AcDbEntity
  8
0
100
AcDbLine
 62
4
  6
CONTINUOUS
 10
11.0048686408
 20
10.0060783569
 11
11.0270531121
 21
10.027506912
  0
LINE
  5
2DB
100
AcDbEntity
  8
0
100
AcDbLine
 62
4
  6
CONTINUOUS
 10
11.033708452
 20
10.033935477
 11
11.0359268999
 21
10.0360783333
  0
LINE
  5
2DC
100
AcDbEntity
  8
0
100
AcDbLine
 62
4
  6
CONTINUOUS
 10
11.0512436962
 20
10.0051589413
 11
11.0689912725
 21
10.0223017846
  0
LINE
  5
2DD
100
AcDbEntity
  8
0
100
AcDbLine
 62
4
  6
CONTINUOUS
 10
11.1368502598
 20
10.0107056324
 11
11.1435056006
 21
10.0171341984
  0
LINE
  5
2DE
100
AcDbEntity
  8
0
100
AcDbLine
 62
4
  6
CONTINUOUS
 10
9.8385974789
 20
7.8454711501
 11
9.8530863669
 21
7.834807086
  0
LINE
  5
2DF
100
AcDbEntity
  8
0
100
AcDbLine
 62
4
  6
CONTINUOUS
 10
9.9255308065
 20
7.8008052712
 11
9.9689974703
 21
7.7688130685
  0
LINE
  5
2E0
100
AcDbEntity
  8
0
100
AcDbLine
 62
4
  6
CONTINUOUS
 10
9.9689974703
 20
7.8267686237
 11
9.9545085824
 21
7.8374326878
  0
LINE
  5
2E1
100
AcDbEntity
  8
0
100
AcDbLine
 62
4
  6
CONTINUOUS
 10
10.2080641211
 20
7.75223374
 11
10.1935752332
 21
7.7725570638
  0
LINE
  5
2E2
100
AcDbEntity
  8
0
100
AcDbLine
 62
4
  6
CONTINUOUS
 10
10.2008196771
 20
7.810691699
 11
10.1935752332
 21
7.8208533592
  0
LINE
  5
2E3
100
AcDbEntity
  8
0
100
AcDbLine
 62
4
  6
CONTINUOUS
 10
10.0631752418
 20
7.8298966294
 11
10.0993974616
 21
7.7114735065
  0
LINE
  5
2E4
100
AcDbEntity
  8
0
100
AcDbLine
 62
4
  6
CONTINUOUS
 10
10.1428641254
 20
7.8243701865
 11
10.1428641254
 21
7.7084590831
  0
LINE
  5
2E5
100
AcDbEntity
  8
0
100
AcDbLine
 62
4
  6
CONTINUOUS
 10
10.2008196771
 20
7.7817139232
 11
10.2008196771
 21
7.810691699
  0
LINE
  5
2E6
100
AcDbEntity
  8
0
100
AcDbLine
 62
4
  6
CONTINUOUS
 10
10.2080641211
 20
7.7232559658
 11
10.2080641211
 21
7.75223374
  0
LINE
  5
2E7
100
AcDbEntity
  8
0
100
AcDbLine
 62
4
  6
CONTINUOUS
 10
11.1754341326
 20
9.9965463053
 11
11.1820894741
 21
10.0029748719
  0
LINE
  5
2E8
100
AcDbEntity
  8
0
100
AcDbLine
 62
4
  6
CONTINUOUS
 10
12.0065444082
 20
9.9687657804
 11
12.0215534169
 21
9.9757633706
  0
LINE
  5
2E9
100
AcDbEntity
  8
0
100
AcDbLine
 62
4
  6
CONTINUOUS
 10
12.1364242788
 20
9.9517201123
 11
12.12141527
 21
9.9447225222
  0
LINE
  5
2EA
100
AcDbEntity
  8
0
100
AcDbLine
 62
4
  6
CONTINUOUS
 10
9.9545085824
 20
7.7215215844
 11
9.9400196944
 21
7.7225263921
  0
LINE
  5
2EB
100
AcDbEntity
  8
0
100
AcDbLine
 62
4
  6
CONTINUOUS
 10
9.8385974789
 20
7.7295600467
 11
9.824108591
 21
7.7305648545
  0
LINE
  5
2EC
100
AcDbEntity
  8
0
100
AcDbLine
 62
4
  6
CONTINUOUS
 10
10.1428641254
 20
7.7084590831
 11
10.1935752332
 21
7.7049422558
  0
LINE
  5
2ED
100
AcDbEntity
  8
0
100
AcDbLine
 62
4
  6
CONTINUOUS
 10
10.0414419099
 20
7.7541297732
 11
10.0849085737
 21
7.7511153499
  0
LINE
  5
2EE
100
AcDbEntity
  8
0
100
AcDbLine
 62
4
  6
CONTINUOUS
 10
10.1428641254
 20
7.7760738911
 11
10.1935752332
 21
7.7725570638
  0
LINE
  5
2EF
100
AcDbEntity
  8
0
100
AcDbLine
 62
4
  6
CONTINUOUS
 10
10.1935752332
 20
7.8208533592
 11
10.1428641254
 21
7.8243701865
  0
LINE
  5
2F0
100
AcDbEntity
  8
0
100
AcDbLine
 62
4
  6
CONTINUOUS
 10
9.9545085824
 20
7.8374326878
 11
9.9400196944
 21
7.8384374956
  0
LINE
  5
2F1
100
AcDbEntity
  8
0
100
AcDbLine
 62
4
  6
CONTINUOUS
 10
9.824108591
 20
7.8464759579
 11
9.8385974789
 21
7.8454711501
  0
LINE
  5
2F2
100
AcDbEntity
  8
0
100
AcDbLine
 62
4
  6
CONTINUOUS
 10
10.226219786
 20
9.9282469553
 11
10.2282789968
 21
9.8959502746
  0
LINE
  5
2F3
100
AcDbEntity
  8
0
100
AcDbLine
 62
4
  6
CONTINUOUS
 10
10.026953022
 20
7.7164975454
 11
10.0631752418
 21
7.8298966294
  0
LINE
  5
2F4
100
AcDbEntity
  8
0
100
AcDbLine
 62
4
  6
CONTINUOUS
 10
9.7951308151
 20
7.8195077976
 11
9.8096197031
 21
7.8378215094
  0
LINE
  5
2F5
100
AcDbEntity
  8
0
100
AcDbLine
 62
4
  6
CONTINUOUS
 10
9.9255308065
 20
7.8297830471
 11
9.9182863625
 21
7.8206261877
  0
LINE
  5
2F6
100
AcDbEntity
  8
0
100
AcDbLine
 62
4
  6
CONTINUOUS
 10
9.8603308108
 20
7.7473713528
 11
9.8530863669
 21
7.7382144978
  0
LINE
  5
2F7
100
AcDbEntity
  8
0
100
AcDbLine
 62
4
  6
CONTINUOUS
 10
9.9762419142
 20
7.7393328905
 11
9.9689974703
 21
7.7301760355
  0
LINE
  5
2F8
100
AcDbEntity
  8
0
100
AcDbLine
 62
4
  6
CONTINUOUS
 10
12.0789888478
 20
9.9637417415
 11
12.068636095
 21
9.9537417495
  0
LINE
  5
2F9
100
AcDbEntity
  8
0
100
AcDbLine
 62
4
  6
CONTINUOUS
 10
13.4337124156
 20
10.0118042742
 11
13.4187034069
 21
10.004806684
  0
LINE
  5
2FA
100
AcDbEntity
  8
0
100
AcDbLine
 62
4
  6
CONTINUOUS
 10
10.5578891431
 20
10.0600435437
 11
10.5605427812
 21
10.0368924599
  0
LINE
  5
2FB
100
AcDbEntity
  8
0
100
AcDbLine
 62
4
  6
CONTINUOUS
 10
10.1935752332
 20
7.7725570638
 11
10.2008196771
 21
7.7817139232
  0
LINE
  5
2FC
100
AcDbEntity
  8
0
100
AcDbLine
 62
4
  6
CONTINUOUS
 10
10.1935752332
 20
7.7049422558
 11
10.2080641211
 21
7.7232559658
  0
LINE
  5
2FD
100
AcDbEntity
  8
0
100
AcDbLine
 62
4
  6
CONTINUOUS
 10
12.2052527037
 20
9.9657032707
 11
12.2000763284
 21
9.9607032758
  0
LINE
  5
2FE
100
AcDbEntity
  8
0
100
AcDbLine
 62
7
  6
CONTINUOUS
 10
9.6029890576
 20
7.3781863621
 11
9.506336702
 21
7.2848273501
  0
LINE
  5
2FF
100
AcDbEntity
  8
0
100
AcDbLine
 62
7
  6
CONTINUOUS
 10
9.9683876739
 20
7.5638088715
 11
9.8717353182
 21
7.4704498595
  0
LINE
  5
300
100
AcDbEntity
  8
0
100
AcDbLine
 62
7
  6
CONTINUOUS
 10
10.0255971193
 20
7.559841383
 11
9.9289447637
 21
7.4664823709
  0
LINE
  5
301
100
AcDbEntity
  8
0
100
AcDbLine
 62
4
  6
CONTINUOUS
 10
9.8096197031
 20
7.8378215094
 11
9.824108591
 21
7.8464759579
  0
LINE
  5
302
100
AcDbEntity
  8
0
100
AcDbLine
 62
4
  6
CONTINUOUS
 10
9.9400196944
 20
7.8384374956
 11
9.9255308065
 21
7.8297830471
  0
LINE
  5
303
100
AcDbEntity
  8
0
100
AcDbLine
 62
7
  6
CONTINUOUS
 10
12.7527322102
 20
10.0515278663
 11
12.7520331541
 21
10.0508653598
  0
LINE
  5
304
100
AcDbEntity
  8
0
100
AcDbLine
 62
4
  6
CONTINUOUS
 10
9.8530863669
 20
7.7382144978
 11
9.8385974789
 21
7.7295600467
  0
LINE
  5
305
100
AcDbEntity
  8
0
100
AcDbLine
 62
4
  6
CONTINUOUS
 10
9.9689974703
 20
7.7301760355
 11
9.9545085824
 21
7.7215215844
  0
LINE
  5
306
100
AcDbEntity
  8
0
100
AcDbLine
 62
7
  6
CONTINUOUS
 10
10.3909957356
 20
7.3235379134
 11
10.2943433799
 21
7.2301789014
  0
LINE
  5
307
100
AcDbEntity
  8
0
100
AcDbLine
 62
7
  6
CONTINUOUS
 10
10.4196004583
 20
7.2720093361
 11
10.3229481026
 21
7.178650324
  0
LINE
  5
308
100
AcDbEntity
  8
0
100
AcDbLine
 62
4
  6
CONTINUOUS
 10
9.9155127074
 20
9.7734841408
 11
9.9062001959
 21
9.7794889445
  0
LINE
  5
309
100
AcDbEntity
  8
0
100
AcDbLine
 62
4
  6
CONTINUOUS
 10
10.3018232541
 20
10.086988594
 11
10.3287205467
 21
10.0529693865
  0
LINE
  5
30A
100
AcDbEntity
  8
0
100
AcDbLine
 62
4
  6
CONTINUOUS
 10
12.9512939305
 20
9.5013237604
 11
12.9202356715
 21
9.471323784
  0
LINE
  5
30B
100
AcDbEntity
  8
0
100
AcDbLine
 62
4
  6
CONTINUOUS
 10
13.5025408405
 20
10.0257874325
 11
13.4973644652
 21
10.0207874377
  0
LINE
  5
30C
100
AcDbEntity
  8
0
100
AcDbLine
 62
7
  6
CONTINUOUS
 10
10.4196004583
 20
6.8500833571
 11
10.3229481026
 21
6.7567243451
  0
LINE
  5
30D
100
AcDbEntity
  8
0
100
AcDbLine
 62
7
  6
CONTINUOUS
 10
7.9381382124
 20
9.4309869052
 11
12.76776763
 21
9.0960509675
  0
LINE
  5
30E
100
AcDbEntity
  8
0
100
AcDbLine
 62
4
  6
CONTINUOUS
 10
9.1492861969
 20
10.3303661582
 11
9.1539424514
 21
10.3273637551
  0
LINE
  5
30F
100
AcDbEntity
  8
0
100
AcDbLine
 62
4
  6
CONTINUOUS
 10
9.9848612543
 20
9.7954696982
 11
9.9895175088
 21
9.7924672951
  0
LINE
  5
310
100
AcDbEntity
  8
0
100
AcDbLine
 62
4
  6
CONTINUOUS
 10
10.4435765557
 20
9.9839117348
 11
10.4787532158
 21
9.9493183512
  0
LINE
  5
311
100
AcDbEntity
  8
0
100
AcDbLine
 62
4
  6
CONTINUOUS
 10
10.6340019458
 20
9.9707056891
 11
10.6493718255
 21
9.9512661422
  0
LINE
  5
312
100
AcDbEntity
  8
0
100
AcDbLine
 62
4
  6
CONTINUOUS
 10
12.0060242874
 20
9.9607633825
 11
12.0065444082
 21
9.9687657804
  0
LINE
  5
313
100
AcDbEntity
  8
0
100
AcDbLine
 62
7
  6
CONTINUOUS
 10
10.3909957356
 20
6.8025222683
 11
10.2943433799
 21
6.7091632563
  0
LINE
  5
314
100
AcDbEntity
  8
0
100
AcDbLine
 62
7
  6
CONTINUOUS
 10
12.76776763
 20
9.0960509675
 11
14.0618617876
 21
10.3460500099
  0
LINE
  5
315
100
AcDbEntity
  8
0
100
AcDbLine
 62
4
  6
CONTINUOUS
 10
13.4973644652
 20
10.0207874377
 11
13.4875318318
 21
10.0187898423
  0
LINE
  5
316
100
AcDbEntity
  8
0
100
AcDbLine
 62
4
  6
CONTINUOUS
 10
13.4533776797
 20
10.0157994622
 11
13.4337124156
 21
10.0118042742
  0
LINE
  5
317
100
AcDbEntity
  8
0
100
AcDbLine
 62
4
  6
CONTINUOUS
 10
13.4445852888
 20
10.0298066637
 11
13.4544179223
 21
10.031804259
  0
LINE
  5
318
100
AcDbEntity
  8
0
100
AcDbLine
 62
4
  6
CONTINUOUS
 10
9.927413407
 20
9.7699793349
 11
9.9155127074
 21
9.7734841408
  0
LINE
  5
319
100
AcDbEntity
  8
0
100
AcDbLine
 62
4
  6
CONTINUOUS
 10
9.972960554
 20
9.7989745034
 11
9.9848612543
 21
9.7954696982
  0
LINE
  5
31A
100
AcDbEntity
  8
0
100
AcDbLine
 62
4
  6
CONTINUOUS
 10
10.1296272021
 20
9.9349456737
 11
10.1417490363
 21
9.9295116114
  0
LINE
  5
31B
100
AcDbEntity
  8
0
100
AcDbLine
 62
4
  6
CONTINUOUS
 10
10.8321908419
 20
10.036427246
 11
10.8283484029
 21
10.0412871304
  0
LINE
  5
31C
100
AcDbEntity
  8
0
100
AcDbLine
 62
4
  6
CONTINUOUS
 10
12.2000763284
 20
9.9607032758
 11
12.190243695
 21
9.9587056805
  0
LINE
  5
31D
100
AcDbEntity
  8
0
100
AcDbLine
 62
4
  6
CONTINUOUS
 10
12.1560895429
 20
9.9557153003
 11
12.1364242788
 21
9.9517201123
  0
LINE
  5
31E
100
AcDbEntity
  8
0
100
AcDbLine
 62
4
  6
CONTINUOUS
 10
12.147297152
 20
9.9697225018
 11
12.1571297854
 21
9.9717200972
  0
LINE
  5
31F
100
AcDbEntity
  8
0
100
AcDbLine
 62
4
  6
CONTINUOUS
 10
12.068636095
 20
9.9537417495
 11
12.0588034627
 21
9.9517441553
  0
LINE
  5
320
100
AcDbEntity
  8
0
100
AcDbLine
 62
4
  6
CONTINUOUS
 10
12.0215534169
 20
9.9757633706
 11
12.041218682
 21
9.9797585595
  0
LINE
  5
321
100
AcDbEntity
  8
0
100
AcDbLine
 62
7
  6
CONTINUOUS
 10
8.2522362262
 20
9.7343823067
 11
8.2831458552
 21
9.7322387166
  0
LINE
  5
322
100
AcDbEntity
  8
0
100
AcDbLine
 62
7
  6
CONTINUOUS
 10
8.3684031393
 20
9.8465909348
 11
8.3993127683
 21
9.8444473448
  0
LINE
  5
323
100
AcDbEntity
  8
0
100
AcDbLine
 62
4
  6
CONTINUOUS
 10
9.9419022949
 20
9.7689745271
 11
9.927413407
 21
9.7699793349
  0
LINE
  5
324
100
AcDbEntity
  8
0
100
AcDbLine
 62
4
  6
CONTINUOUS
 10
9.9501869805
 20
9.7844769191
 11
9.9791647564
 21
9.7824673036
  0
LINE
  5
325
100
AcDbEntity
  8
0
100
AcDbLine
 62
4
  6
CONTINUOUS
 10
9.9584716661
 20
9.7999793112
 11
9.972960554
 21
9.7989745034
  0
LINE
  5
326
100
AcDbEntity
  8
0
100
AcDbLine
 62
4
  6
CONTINUOUS
 10
10.0042478896
 20
9.9252671165
 11
10.0424886423
 21
9.9164905637
  0
LINE
  5
327
100
AcDbEntity
  8
0
100
AcDbLine
 62
4
  6
CONTINUOUS
 10
9.1373854967
 20
10.3338709634
 11
9.1492861969
 21
10.3303661582
  0
LINE
  5
328
100
AcDbEntity
  8
0
100
AcDbLine
 62
4
  6
CONTINUOUS
 10
10.5753069108
 20
9.9740106343
 11
10.5881682214
 21
9.9692908584
  0
LINE
  5
329
100
AcDbEntity
  8
0
100
AcDbLine
 62
4
  6
CONTINUOUS
 10
10.1554483197
 20
10.0741726778
 11
10.1108034505
 21
10.0910490418
  0
LINE
  5
32A
100
AcDbEntity
  8
0
100
AcDbLine
 62
4
  6
CONTINUOUS
 10
10.0908374264
 20
10.0717633423
 11
10.0968983441
 21
10.0690463109
  0
LINE
  5
32B
100
AcDbEntity
  8
0
100
AcDbLine
 62
4
  6
CONTINUOUS
 10
10.5511742254
 20
9.8735574144
 11
10.5390523986
 21
9.8789914768
  0
LINE
  5
32C
100
AcDbEntity
  8
0
100
AcDbLine
 62
4
  6
CONTINUOUS
 10
10.1841288815
 20
10.0675902633
 11
10.1962507152
 21
10.0621562005
  0
LINE
  5
32D
100
AcDbEntity
  8
0
100
AcDbLine
 62
4
  6
CONTINUOUS
 10
10.6477667747
 20
9.8668586984
 11
10.6356449479
 21
9.8722927607
  0
LINE
  5
32E
100
AcDbEntity
  8
0
100
AcDbLine
 62
4
  6
CONTINUOUS
 10
10.169353426
 20
10.0961754078
 11
10.1754143422
 21
10.0934583757
  0
LINE
  5
32F
100
AcDbEntity
  8
0
100
AcDbLine
 62
4
  6
CONTINUOUS
 10
10.7036631432
 20
9.895136146
 11
10.7157849705
 21
9.8897020841
  0
LINE
  5
330
100
AcDbEntity
  8
0
100
AcDbLine
 62
4
  6
CONTINUOUS
 10
10.5687966251
 20
9.9591507565
 11
10.5809184524
 21
9.9537166946
  0
LINE
  5
331
100
AcDbEntity
  8
0
100
AcDbLine
 62
4
  6
CONTINUOUS
 10
10.7947361373
 20
9.8888202124
 11
10.8068579645
 21
9.8833861506
  0
LINE
  5
332
100
AcDbEntity
  8
0
100
AcDbLine
 62
4
  6
CONTINUOUS
 10
10.5164923126
 20
10.0629144237
 11
10.5225532253
 21
10.0601973919
  0
LINE
  5
333
100
AcDbEntity
  8
0
100
AcDbLine
 62
4
  6
CONTINUOUS
 10
10.7455547418
 20
10.0470288903
 11
10.7488558492
 21
10.0445032516
  0
LINE
  5
334
100
AcDbEntity
  8
0
100
AcDbLine
 62
4
  6
CONTINUOUS
 10
9.9688120035
 20
9.7724673116
 11
9.9589793712
 21
9.7704697174
  0
LINE
  5
335
100
AcDbEntity
  8
0
100
AcDbLine
 62
4
  6
CONTINUOUS
 10
9.9217293255
 20
9.7944889327
 11
9.9413945905
 21
9.7984841216
  0
LINE
  5
336
100
AcDbEntity
  8
0
100
AcDbLine
 62
4
  6
CONTINUOUS
 10
10.7846734937
 20
9.861957596
 11
10.7636778782
 21
9.8588202361
  0
LINE
  5
337
100
AcDbEntity
  8
0
100
AcDbLine
 62
4
  6
CONTINUOUS
 10
10.6936004996
 20
9.8682735295
 11
10.6726048841
 21
9.8651361697
  0
LINE
  5
338
100
AcDbEntity
  8
0
100
AcDbLine
 62
4
  6
CONTINUOUS
 10
10.6578294188
 20
9.8937213153
 11
10.6788250338
 21
9.8968586747
  0
LINE
  5
339
100
AcDbEntity
  8
0
100
AcDbLine
 62
4
  6
CONTINUOUS
 10
10.5612368694
 20
9.9004200314
 11
10.5822324845
 21
9.9035573908
  0
LINE
  5
33A
100
AcDbEntity
  8
0
100
AcDbLine
 62
4
  6
CONTINUOUS
 10
11.1649363525
 20
9.9949776234
 11
11.1754341326
 21
9.9965463053
  0
LINE
  5
33B
100
AcDbEntity
  8
0
100
AcDbLine
 62
4
  6
CONTINUOUS
 10
11.1435056006
 20
10.0171341984
 11
11.1540033814
 21
10.0187028809
  0
LINE
  5
33C
100
AcDbEntity
  8
0
100
AcDbLine
 62
4
  6
CONTINUOUS
 10
10.5742631111
 20
9.9472881282
 11
10.5532674956
 21
9.9441507683
  0
LINE
  5
33D
100
AcDbEntity
  8
0
100
AcDbLine
 62
4
  6
CONTINUOUS
 10
11.0689912725
 20
10.0223017846
 11
11.0794890533
 21
10.0238704671
  0
LINE
  5
33E
100
AcDbEntity
  8
0
100
AcDbLine
 62
4
  6
CONTINUOUS
 10
10.5815128796
 20
9.9628622915
 11
10.5605172645
 21
9.9597249321
  0
LINE
  5
33F
100
AcDbEntity
  8
0
100
AcDbLine
 62
4
  6
CONTINUOUS
 10
10.1195645654
 20
9.9080830568
 11
10.098568943
 21
9.9049456974
  0
LINE
  5
340
100
AcDbEntity
  8
0
100
AcDbLine
 62
4
  6
CONTINUOUS
 10
13.4875318318
 20
10.0187898423
 11
13.4533776797
 21
10.0157994622
  0
LINE
  5
341
100
AcDbEntity
  8
0
100
AcDbLine
 62
4
  6
CONTINUOUS
 10
13.4544179223
 20
10.031804259
 11
13.4714949978
 21
10.0332994487
  0
LINE
  5
342
100
AcDbEntity
  8
0
100
AcDbLine
 62
4
  6
CONTINUOUS
 10
12.190243695
 20
9.9587056805
 11
12.1560895429
 21
9.9557153003
  0
LINE
  5
343
100
AcDbEntity
  8
0
100
AcDbLine
 62
4
  6
CONTINUOUS
 10
12.0588034627
 20
9.9517441553
 11
12.0417263864
 21
9.950248965
  0
LINE
  5
344
100
AcDbEntity
  8
0
100
AcDbLine
 62
4
  6
CONTINUOUS
 10
9.9589793712
 20
9.7704697174
 11
9.9419022949
 21
9.7689745271
  0
LINE
  5
345
100
AcDbEntity
  8
0
100
AcDbLine
 62
4
  6
CONTINUOUS
 10
12.1571297854
 20
9.9717200972
 11
12.174206861
 21
9.9732152868
  0
LINE
  5
346
100
AcDbEntity
  8
0
100
AcDbLine
 62
4
  6
CONTINUOUS
 10
12.041218682
 20
9.9797585595
 11
12.0582957576
 21
9.9812537491
  0
LINE
  5
347
100
AcDbEntity
  8
0
100
AcDbLine
 62
4
  6
CONTINUOUS
 10
9.9413945905
 20
9.7984841216
 11
9.9584716661
 21
9.7999793112
  0
LINE
  5
348
100
AcDbEntity
  8
0
100
AcDbLine
 62
4
  6
CONTINUOUS
 10
10.9674139371
 20
9.8584713242
 11
10.9173414699
 21
9.8558193141
  0
LINE
  5
349
100
AcDbEntity
  8
0
100
AcDbLine
 62
4
  6
CONTINUOUS
 10
10.0543203607
 20
9.9279191268
 11
10.0042478896
 21
9.9252671165
  0
LINE
  5
34A
100
AcDbEntity
  8
0
100
AcDbLine
 62
4
  6
CONTINUOUS
 10
10.7636778782
 20
9.8588202361
 11
10.7222810476
 21
9.861691116
  0
LINE
  5
34B
100
AcDbEntity
  8
0
100
AcDbLine
 62
4
  6
CONTINUOUS
 10
10.6726048841
 20
9.8651361697
 11
10.6477667747
 21
9.8668586984
  0
LINE
  5
34C
100
AcDbEntity
  8
0
100
AcDbLine
 62
4
  6
CONTINUOUS
 10
10.5842916677
 20
9.871260712
 11
10.5511742254
 21
9.8735574144
  0
LINE
  5
34D
100
AcDbEntity
  8
0
100
AcDbLine
 62
4
  6
CONTINUOUS
 10
10.098568943
 20
9.9049456974
 11
10.0571721263
 21
9.9078165764
  0
LINE
  5
34E
100
AcDbEntity
  8
0
100
AcDbLine
 62
4
  6
CONTINUOUS
 10
10.3607488214
 20
9.8867634611
 11
10.4104250126
 21
9.8833184055
  0
LINE
  5
34F
100
AcDbEntity
  8
0
100
AcDbLine
 62
4
  6
CONTINUOUS
 10
10.8271530405
 20
9.8544182186
 11
10.876829204
 21
9.850973165
  0
LINE
  5
350
100
AcDbEntity
  8
0
100
AcDbLine
 62
4
  6
CONTINUOUS
 10
10.1819570115
 20
9.9083495367
 11
10.2261136197
 21
9.9052872655
  0
LINE
  5
351
100
AcDbEntity
  8
0
100
AcDbLine
 62
4
  6
CONTINUOUS
 10
10.8780180602
 20
9.8692643606
 11
10.8449006179
 21
9.871561063
  0
LINE
  5
352
100
AcDbEntity
  8
0
100
AcDbLine
 62
4
  6
CONTINUOUS
 10
10.4116138688
 20
9.9016096011
 11
10.3784963989
 21
9.9039063055
  0
LINE
  5
353
100
AcDbEntity
  8
0
100
AcDbLine
 62
4
  6
CONTINUOUS
 10
10.0882303853
 20
9.9378165527
 11
10.1296272021
 21
9.9349456737
  0
LINE
  5
354
100
AcDbEntity
  8
0
100
AcDbLine
 62
4
  6
CONTINUOUS
 10
10.2924546983
 20
9.9236535485
 11
10.3586896106
 21
9.9190601418
  0
LINE
  5
355
100
AcDbEntity
  8
0
100
AcDbLine
 62
4
  6
CONTINUOUS
 10
10.3918070805
 20
9.9167634374
 11
10.4414832717
 21
9.9133183819
  0
LINE
  5
356
100
AcDbEntity
  8
0
100
AcDbLine
 62
4
  6
CONTINUOUS
 10
10.5822324845
 20
9.9035573908
 11
10.6153499268
 21
9.9012606884
  0
LINE
  5
357
100
AcDbEntity
  8
0
100
AcDbLine
 62
4
  6
CONTINUOUS
 10
10.6788250338
 20
9.8968586747
 11
10.7036631432
 21
9.895136146
  0
LINE
  5
358
100
AcDbEntity
  8
0
100
AcDbLine
 62
4
  6
CONTINUOUS
 10
10.7533393067
 20
9.8916910924
 11
10.7947361373
 21
9.8888202124
  0
LINE
  5
359
100
AcDbEntity
  8
0
100
AcDbLine
 62
4
  6
CONTINUOUS
 10
10.8582112995
 20
9.884418195
 11
10.907887463
 21
9.8809731413
  0
LINE
  5
35A
100
AcDbEntity
  8
0
100
AcDbLine
 62
4
  6
CONTINUOUS
 10
10.5532674956
 20
9.9441507683
 11
10.5118706719
 21
9.9470216478
  0
LINE
  5
35B
100
AcDbEntity
  8
0
100
AcDbLine
 62
4
  6
CONTINUOUS
 10
10.5273998015
 20
9.962021636
 11
10.5687966251
 21
9.9591507565
  0
LINE
  5
35C
100
AcDbEntity
  8
0
100
AcDbLine
 62
4
  6
CONTINUOUS
 10
10.542928931
 20
9.9770216241
 11
10.5677670197
 21
9.9752990968
  0
LINE
  5
35D
100
AcDbEntity
  8
0
100
AcDbLine
 62
4
  6
CONTINUOUS
 10
10.5283098482
 20
10.0314721371
 11
10.5448685694
 21
10.0303237859
  0
LINE
  5
35E
100
AcDbEntity
  8
0
100
AcDbLine
 62
4
  6
CONTINUOUS
 10
11.0904221349
 20
10.000145202
 11
11.057304582
 21
10.0024419121
  0
LINE
  5
35F
100
AcDbEntity
  8
0
100
AcDbLine
 62
4
  6
CONTINUOUS
 10
10.9551924773
 20
10.0095234106
 11
10.9386337562
 21
10.0106717618
  0
LINE
  5
360
100
AcDbEntity
  8
0
100
AcDbLine
 62
4
  6
CONTINUOUS
 10
10.8144432645
 20
10.0192844016
 11
10.7813258222
 21
10.021581104
  0
LINE
  5
361
100
AcDbEntity
  8
0
100
AcDbLine
 62
4
  6
CONTINUOUS
 10
10.6571353305
 20
10.0301937439
 11
10.6240178882
 21
10.0324904463
  0
LINE
  5
362
100
AcDbEntity
  8
0
100
AcDbLine
 62
4
  6
CONTINUOUS
 10
10.0968983441
 20
10.0690463109
 11
10.1300158029
 21
10.0667496073
  0
LINE
  5
363
100
AcDbEntity
  8
0
100
AcDbLine
 62
4
  6
CONTINUOUS
 10
10.1962507152
 20
10.0621562005
 11
10.2210888177
 21
10.0604336723
  0
LINE
  5
364
100
AcDbEntity
  8
0
100
AcDbLine
 62
4
  6
CONTINUOUS
 10
10.8558400951
 20
10.0164135217
 11
10.8972369256
 21
10.0135426417
  0
LINE
  5
365
100
AcDbEntity
  8
0
100
AcDbLine
 62
4
  6
CONTINUOUS
 10
11.1318189101
 20
9.9972743258
 11
11.1649363525
 21
9.9949776234
  0
LINE
  5
366
100
AcDbEntity
  8
0
100
AcDbLine
 62
4
  6
CONTINUOUS
 10
10.7924180578
 20
10.0322953816
 11
10.8255355002
 21
10.0299986791
  0
LINE
  5
367
100
AcDbEntity
  8
0
100
AcDbLine
 62
4
  6
CONTINUOUS
 10
12.0417263864
 20
9.950248965
 11
12.0272374985
 21
9.9512537728
  0
LINE
  5
368
100
AcDbEntity
  8
0
100
AcDbLine
 62
4
  6
CONTINUOUS
 10
12.12141527
 20
9.9447225222
 11
12.1793708217
 21
9.940703291
  0
LINE
  5
369
100
AcDbEntity
  8
0
100
AcDbLine
 62
4
  6
CONTINUOUS
 10
10.8283484029
 20
10.0412871304
 11
10.7869515723
 21
10.0441580103
  0
LINE
  5
36A
100
AcDbEntity
  8
0
100
AcDbLine
 62
4
  6
CONTINUOUS
 10
10.475095482
 20
10.0657853036
 11
10.5164923126
 21
10.0629144237
  0
LINE
  5
36B
100
AcDbEntity
  8
0
100
AcDbLine
 62
4
  6
CONTINUOUS
 10
10.6462023595
 20
10.0539190014
 11
10.6793198018
 21
10.0516222989
  0
LINE
  5
36C
100
AcDbEntity
  8
0
100
AcDbLine
 62
4
  6
CONTINUOUS
 10
10.7124372994
 20
10.0493255927
 11
10.7455547418
 21
10.0470288903
  0
LINE
  5
36D
100
AcDbEntity
  8
0
100
AcDbLine
 62
4
  6
CONTINUOUS
 10
11.0794890533
 20
10.0238704671
 11
11.1126066062
 21
10.021573757
  0
LINE
  5
36E
100
AcDbEntity
  8
0
100
AcDbLine
 62
4
  6
CONTINUOUS
 10
11.1540033814
 20
10.0187028809
 11
11.1871208238
 21
10.0164061785
  0
LINE
  5
36F
100
AcDbEntity
  8
0
100
AcDbLine
 62
4
  6
CONTINUOUS
 10
10.1362359681
 20
10.0984721113
 11
10.169353426
 21
10.0961754078
  0
LINE
  5
370
100
AcDbEntity
  8
0
100
AcDbLine
 62
4
  6
CONTINUOUS
 10
11.0359268999
 20
10.0360783333
 11
11.0386866776
 21
10.035886942
  0
LINE
  5
371
100
AcDbEntity
  8
0
100
AcDbLine
 62
4
  6
CONTINUOUS
 10
12.050011072
 20
9.9657513571
 11
12.0789888478
 21
9.9637417415
  0
LINE
  5
372
100
AcDbEntity
  8
0
100
AcDbLine
 62
4
  6
CONTINUOUS
 10
11.1752891058
 20
10.0049776158
 11
11.1436506281
 21
10.0087028885
  0
LINE
  5
373
100
AcDbEntity
  8
0
100
AcDbLine
 62
4
  6
CONTINUOUS
 10
10.5677670197
 20
9.9752990968
 11
10.5753069108
 21
9.9740106343
  0
LINE
  5
374
100
AcDbEntity
  8
0
100
AcDbLine
 62
4
  6
CONTINUOUS
 10
10.9291731883
 20
9.8672478772
 11
10.9674139371
 21
9.8584713242
  0
LINE
  5
375
100
AcDbEntity
  8
0
100
AcDbLine
 62
4
  6
CONTINUOUS
 10
10.6240178882
 20
10.0324904463
 11
10.6096776142
 21
10.0357816531
  0
LINE
  5
376
100
AcDbEntity
  8
0
100
AcDbLine
 62
4
  6
CONTINUOUS
 10
10.7813258222
 20
10.021581104
 11
10.7669855482
 21
10.0248723108
  0
LINE
  5
377
100
AcDbEntity
  8
0
100
AcDbLine
 62
4
  6
CONTINUOUS
 10
11.1436506281
 20
10.0087028885
 11
11.1368502598
 21
10.0107056324
  0
LINE
  5
378
100
AcDbEntity
  8
0
100
AcDbLine
 62
4
  6
CONTINUOUS
 10
11.1820894741
 20
10.0029748719
 11
11.1752891058
 21
10.0049776158
  0
LINE
  5
379
100
AcDbEntity
  8
0
100
AcDbLine
 62
4
  6
CONTINUOUS
 10
10.849779154
 20
10.0191305547
 11
10.8558400951
 21
10.0164135217
  0
LINE
  5
37A
100
AcDbEntity
  8
0
100
AcDbLine
 62
4
  6
CONTINUOUS
 10
10.9386337562
 20
10.0106717618
 11
10.9325728151
 21
10.0133887948
  0
LINE
  5
37B
100
AcDbEntity
  8
0
100
AcDbLine
 62
4
  6
CONTINUOUS
 10
11.057304582
 20
10.0024419121
 11
11.0512436962
 21
10.0051589413
  0
LINE
  5
37C
100
AcDbEntity
  8
0
100
AcDbLine
 62
4
  6
CONTINUOUS
 10
11.1257580244
 20
9.9999913551
 11
11.1318189101
 21
9.9972743258
  0
LINE
  5
37D
100
AcDbEntity
  8
0
100
AcDbLine
 62
4
  6
CONTINUOUS
 10
11.1871208238
 20
10.0164061785
 11
11.1931817088
 21
10.0136891486
  0
LINE
  5
37E
100
AcDbEntity
  8
0
100
AcDbLine
 62
7
  6
CONTINUOUS
 10
12.76776763
 20
9.0960509675
 11
12.76776763
 21
6.3190140523
  0
LINE
  5
37F
100
AcDbEntity
  8
0
100
AcDbLine
 62
4
  6
CONTINUOUS
 10
10.4125182966
 20
9.9539117584
 11
10.5098114749
 21
9.9793183275
  0
LINE
  5
380
100
AcDbEntity
  8
0
100
AcDbLine
 62
4
  6
CONTINUOUS
 10
10.2210888177
 20
10.0604336723
 11
10.2420844332
 21
10.0635710322
  0
LINE
  5
381
100
AcDbEntity
  8
0
100
AcDbLine
 62
4
  6
CONTINUOUS
 10
10.1300158029
 20
10.0667496073
 11
10.1510114253
 21
10.0698869667
  0
LINE
  5
382
100
AcDbEntity
  8
0
100
AcDbLine
 62
4
  6
CONTINUOUS
 10
10.1152403444
 20
10.0953347525
 11
10.1362359681
 21
10.0984721113
  0
LINE
  5
383
100
AcDbEntity
  8
0
100
AcDbLine
 62
4
  6
CONTINUOUS
 10
10.7736408897
 20
10.0313008775
 11
10.7924180578
 21
10.0322953816
  0
LINE
  5
384
100
AcDbEntity
  8
0
100
AcDbLine
 62
4
  6
CONTINUOUS
 10
10.6274251905
 20
10.0529244964
 11
10.6462023595
 21
10.0539190014
  0
LINE
  5
385
100
AcDbEntity
  8
0
100
AcDbLine
 62
4
  6
CONTINUOUS
 10
12.0582957576
 20
9.9812537491
 11
12.0727846455
 21
9.9802489414
  0
LINE
  5
386
100
AcDbEntity
  8
0
100
AcDbLine
 62
4
  6
CONTINUOUS
 10
12.174206861
 20
9.9732152868
 11
12.1886957489
 21
9.972210479
  0
LINE
  5
387
100
AcDbEntity
  8
0
100
AcDbLine
 62
7
  6
CONTINUOUS
 10
8.8019674431
 20
10.265381918
 11
8.8328770721
 21
10.263238328
  0
LINE
  5
388
100
AcDbEntity
  8
0
100
AcDbLine
 62
4
  6
CONTINUOUS
 10
9.0701050177
 20
10.3063830066
 11
9.1280605695
 21
10.3023637754
  0
LINE
  5
389
100
AcDbEntity
  8
0
100
AcDbLine
 62
4
  6
CONTINUOUS
 10
13.4187034069
 20
10.004806684
 11
13.4766589586
 21
10.0007874528
  0
LINE
  5
38A
100
AcDbEntity
  8
0
100
AcDbLine
 62
4
  6
CONTINUOUS
 10
9.1228966087
 20
10.3348757712
 11
9.1373854967
 21
10.3338709634
  0
LINE
  5
38B
100
AcDbEntity
  8
0
100
AcDbLine
 62
4
  6
CONTINUOUS
 10
13.4714949978
 20
10.0332994487
 11
13.4859838858
 21
10.0322946409
  0
LINE
  5
38C
100
AcDbEntity
  8
0
100
AcDbLine
 62
7
  6
CONTINUOUS
 10
8.9181343562
 20
10.3775905462
 11
8.9490439852
 21
10.3754469561
  0
LINE
  5
38D
100
AcDbEntity
  8
0
100
AcDbLine
 62
4
  6
CONTINUOUS
 10
12.0272374985
 20
9.9512537728
 11
12.0153367989
 21
9.9547585787
  0
LINE
  5
38E
100
AcDbEntity
  8
0
100
AcDbLine
 62
4
  6
CONTINUOUS
 10
12.0727846455
 20
9.9802489414
 11
12.0846853458
 21
9.9767441361
  0
LINE
  5
38F
100
AcDbEntity
  8
0
100
AcDbLine
 62
4
  6
CONTINUOUS
 10
12.1886957489
 20
9.972210479
 11
12.2005964492
 21
9.9687056738
  0
LINE
  5
390
100
AcDbEntity
  8
0
100
AcDbLine
 62
4
  6
CONTINUOUS
 10
12.0153367989
 20
9.9547585787
 11
12.0060242874
 21
9.9607633825
  0
LINE
  5
391
100
AcDbEntity
  8
0
100
AcDbLine
 62
4
  6
CONTINUOUS
 10
9.1389334427
 20
10.3203661649
 11
9.1047792906
 21
10.3173757847
  0
LINE
  5
392
100
AcDbEntity
  8
0
100
AcDbLine
 62
4
  6
CONTINUOUS
 10
9.1058195332
 20
10.3333805816
 11
9.1228966087
 21
10.3348757712
  0
LINE
  5
393
100
AcDbEntity
  8
0
100
AcDbLine
 62
4
  6
CONTINUOUS
 10
12.0846853458
 20
9.9767441361
 11
12.0893416003
 21
9.973741733
  0
LINE
  5
394
100
AcDbEntity
  8
0
100
AcDbLine
 62
4
  6
CONTINUOUS
 10
12.2005964492
 20
9.9687056738
 11
12.2052527037
 21
9.9657032707
  0
LINE
  5
395
100
AcDbEntity
  8
0
100
AcDbLine
 62
4
  6
CONTINUOUS
 10
9.1487660761
 20
10.3223637602
 11
9.1389334427
 21
10.3203661649
  0
LINE
  5
396
100
AcDbEntity
  8
0
100
AcDbLine
 62
4
  6
CONTINUOUS
 10
9.1047792906
 20
10.3173757847
 11
9.0851140265
 21
10.3133805968
  0
LINE
  5
397
100
AcDbEntity
  8
0
100
AcDbLine
 62
4
  6
CONTINUOUS
 10
9.0959868997
 20
10.3313829863
 11
9.1058195332
 21
10.3333805816
  0
LINE
  5
398
100
AcDbEntity
  8
0
100
AcDbLine
 62
7
  6
CONTINUOUS
 10
9.23223237
 20
10.6809859477
 11
14.0618617876
 21
10.3460500099
  0
LINE
  5
399
100
AcDbEntity
  8
0
100
AcDbLine
 62
4
  6
CONTINUOUS
 10
13.4859838858
 20
10.0322946409
 11
13.4978845861
 21
10.0287898356
  0
LINE
  5
39A
100
AcDbEntity
  8
0
100
AcDbLine
 62
4
  6
CONTINUOUS
 10
13.4978845861
 20
10.0287898356
 11
13.5025408405
 21
10.0257874325
  0
LINE
  5
39B
100
AcDbEntity
  8
0
100
AcDbLine
 62
7
  6
CONTINUOUS
 10
12.76776763
 20
6.3190140523
 11
14.0618617876
 21
7.5690130948
  0
LINE
  5
39C
100
AcDbEntity
  8
0
100
AcDbLine
 62
7
  6
CONTINUOUS
 10
14.0618617876
 20
10.3460500099
 11
14.0618617876
 21
7.5690130948
  0
ARC
  5
39D
100
AcDbEntity
  8
0
100
AcDbCircle
 62
7
  6
CONTINUOUS
 10
9.9545849237
 20
7.0475721635
 40
0.5163443539
100
AcDbArc
 50
25.7640228377
 51
32.3073428428
  0
ARC
  5
39E
100
AcDbEntity
  8
0
100
AcDbCircle
 62
7
  6
CONTINUOUS
 10
9.9427475138
 20
7.0397774549
 40
0.5163443539
100
AcDbArc
 50
205.7640228377
 51
212.3073428428
  0
ARC
  5
39F
100
AcDbEntity
  8
0
100
AcDbCircle
 62
7
  6
CONTINUOUS
 10
9.8579325681
 20
6.9542131515
 40
0.5163443539
100
AcDbArc
 50
25.7640228377
 51
32.3073428428
  0
ARC
  5
3A0
100
AcDbEntity
  8
0
100
AcDbCircle
 62
7
  6
CONTINUOUS
 10
9.9637927758
 20
7.0846167379
 40
0.4792267106
100
AcDbArc
 50
82.590107291
 51
86.0275106487
  0
ARC
  5
3A1
100
AcDbEntity
  8
0
100
AcDbCircle
 62
7
  6
CONTINUOUS
 10
9.9335396617
 20
7.0027328806
 40
0.4792267106
100
AcDbArc
 50
262.590107291
 51
266.0275106487
  0
ARC
  5
3A2
100
AcDbEntity
  8
0
100
AcDbCircle
 62
7
  6
CONTINUOUS
 10
9.8671404202
 20
6.9912577258
 40
0.4792267106
100
AcDbArc
 50
82.590107291
 51
86.0275106487
  0
ARC
  5
3A3
100
AcDbEntity
  8
0
100
AcDbCircle
 62
7
  6
CONTINUOUS
 10
9.9330972676
 20
6.9967859973
 40
0.4732634681
100
AcDbArc
 50
266.0310634489
 51
269.4972694561
  0
ARC
  5
3A4
100
AcDbEntity
  8
0
100
AcDbCircle
 62
7
  6
CONTINUOUS
 10
9.8675828143
 20
6.9972046091
 40
0.4732634681
100
AcDbArc
 50
86.0310634489
 51
89.4972694561
  0
ARC
  5
3A5
100
AcDbEntity
  8
0
100
AcDbCircle
 62
7
  6
CONTINUOUS
 10
9.9642739099
 20
7.0915558711
 40
0.4722709174
100
AcDbArc
 50
86.0274199487
 51
89.5009129563
  0
ARC
  5
3A6
100
AcDbEntity
  8
0
100
AcDbCircle
 62
7
  6
CONTINUOUS
 10
11.5585475122
 20
8.144522046
 40
0.4466687
100
AcDbArc
 50
172.7542887723
 51
180.0157507753
  0
ARC
  5
3A7
100
AcDbEntity
  8
0
100
AcDbCircle
 62
7
  6
CONTINUOUS
 10
10.0364555698
 20
7.0481362164
 40
0.4313060869
100
AcDbArc
 50
325.2870362755
 51
332.6649360488
  0
ARC
  5
3A8
100
AcDbEntity
  8
0
100
AcDbCircle
 62
7
  6
CONTINUOUS
 10
9.8608768677
 20
7.0392134021
 40
0.4313060869
100
AcDbArc
 50
145.2870362755
 51
152.6649360488
  0
ARC
  5
3A9
100
AcDbEntity
  8
0
100
AcDbCircle
 62
7
  6
CONTINUOUS
 10
9.9398032142
 20
6.9547772043
 40
0.4313060869
100
AcDbArc
 50
325.2870362755
 51
332.6649360488
  0
ARC
  5
3AA
100
AcDbEntity
  8
0
100
AcDbCircle
 62
7
  6
CONTINUOUS
 10
8.5943569753
 20
7.2388463958
 40
0.4283320577
100
AcDbArc
 50
312.4667075194
 51
313.131538866
  0
ARC
  5
3AB
100
AcDbEntity
  8
0
100
AcDbCircle
 62
7
  6
CONTINUOUS
 10
8.5058786661
 20
7.3304454525
 40
0.4283148542
100
AcDbArc
 50
134.5842866698
 51
135.5470096427
  0
ARC
  5
3AC
100
AcDbEntity
  8
0
100
AcDbCircle
 62
7
  6
CONTINUOUS
 10
11.5672871428
 20
8.1499806242
 40
0.4186659821
100
AcDbArc
 50
173.5480567965
 51
180.0124522951
  0
ARC
  5
3AD
100
AcDbEntity
  8
0
100
AcDbCircle
 62
7
  6
CONTINUOUS
 10
9.9950416776
 20
7.1567576936
 40
0.3815290645
100
AcDbArc
 50
111.990565072
 51
120.9428203508
  0
ARC
  5
3AE
100
AcDbEntity
  8
0
100
AcDbCircle
 62
7
  6
CONTINUOUS
 10
8.5557699273
 20
7.2637677277
 40
0.2928253144
100
AcDbArc
 50
349.3351665064
 51
0.0338997592
  0
SPLINE
  5
3AF
100
AcDbEntity
  8
0
100
AcDbSpline
 62
7
  6
CONTINUOUS
 70
0
 71
3
 72
20
 73
16
 74
0
 42
0.0000001
 43
0.0000001
 44
0.0000000001
 40
0.0
 40
0.0
 40
0.0
 40
0.0
 40
0.1307130444
 40
0.2609290879
 40
0.3256870374
 40
0.3901050986
 40
0.4540966361
 40
0.517574691
 40
0.5804573165
 40
0.6426728974
 40
0.7041645318
 40
0.7648928072
 40
0.8248367025
 40
0.8839927538
 40
1.0
 40
1.0
 40
1.0
 40
1.0
 10
9.4777319793
 20
7.2372662613
 30
0.0
 10
9.4765426941
 20
7.2189051197
 30
0.0
 10
9.4743853683
 20
7.1822381279
 30
0.0
 10
9.472338943
 20
7.1364370521
 30
0.0
 10
9.4711587943
 20
7.0999428188
 30
0.0
 10
9.4705169016
 20
7.0727590961
 30
0.0
 10
9.4701268916
 20
7.0457507535
 30
0.0
 10
9.4699953054
 20
7.0189560257
 30
0.0
 10
9.4701244451
 20
6.9924112671
 30
0.0
 10
9.4705121486
 20
6.9661486715
 30
0.0
 10
9.4711519891
 20
6.940194363
 30
0.0
 10
9.4720338022
 20
6.9145671357
 30
0.0
 10
9.473144506
 20
6.8892778854
 30
0.0
 10
9.4748988982
 20
6.8562295954
 30
0.0
 10
9.4765263034
 20
6.8316252904
 30
0.0
 10
9.4777319793
 20
6.8153402824
 30
0.0
  0
SPLINE
  5
3B0
100
AcDbEntity
  8
0
100
AcDbSpline
 62
7
  6
CONTINUOUS
 70
0
 71
3
 72
21
 73
17
 74
0
 42
0.0000001
 43
0.0000001
 44
0.0000000001
 40
0.0
 40
0.0
 40
0.0
 40
0.0
 40
0.1211316245
 40
0.1823736293
 40
0.2440533566
 40
0.3061457671
 40
0.3686121396
 40
0.431400593
 40
0.4944480865
 40
0.5576838397
 40
0.6210337674
 40
0.6844252162
 40
0.7477912094
 40
0.811073636
 40
0.8742251276
 40
1.0
 40
1.0
 40
1.0
 40
1.0
 10
9.506336702
 20
6.763811705
 30
0.0
 10
9.5201675582
 20
6.752933502
 30
0.0
 10
9.5411440186
 20
6.7367480765
 30
0.0
 10
9.5695527082
 20
6.7155380187
 30
0.0
 10
9.5912687921
 20
6.6997021618
 30
0.0
 10
9.613315686
 20
6.6840212754
 30
0.0
 10
9.6356862991
 20
6.668521097
 30
0.0
 10
9.6583661679
 20
6.6532274305
 30
0.0
 10
9.6813338013
 20
6.6381646166
 30
0.0
 10
9.7045616663
 20
6.6233540264
 30
0.0
 10
9.7280178071
 20
6.6088126874
 30
0.0
 10
9.751667863
 20
6.5945523152
 30
0.0
 10
9.7754771229
 20
6.5805788679
 30
0.0
 10
9.7994124338
 20
6.5668925969
 30
0.0
 10
9.8314093709
 20
6.5490454774
 30
0.0
 10
9.8555753979
 20
6.5360333327
 30
0.0
 10
9.8717353182
 20
6.5275082355
 30
0.0
  0
SPLINE
  5
3B1
100
AcDbEntity
  8
0
100
AcDbSpline
 62
7
  6
CONTINUOUS
 70
0
 71
3
 72
15
 73
11
 74
0
 42
0.0000001
 43
0.0000001
 44
0.0000000001
 40
0.0
 40
0.0
 40
0.0
 40
0.0
 40
0.1128138383
 40
0.2295637229
 40
0.3503753066
 40
0.4750618339
 40
0.60311002
 40
0.73378544
 40
0.8663079068
 40
1.0
 40
1.0
 40
1.0
 40
1.0
 10
9.9289447637
 20
6.5235407469
 30
0.0
 10
9.9429042554
 20
6.5300779402
 30
0.0
 10
9.9712633644
 20
6.5434809077
 30
0.0
 10
10.0143876064
 20
6.5642711142
 30
0.0
 10
10.0587938518
 20
6.5861339818
 30
0.0
 10
10.104392568
 20
6.6090656378
 30
0.0
 10
10.1510000024
 20
6.6329871966
 30
0.0
 10
10.198373085
 20
6.6577581717
 30
0.0
 10
10.2462600439
 20
6.683207735
 30
0.0
 10
10.2782824362
 20
6.700460866
 30
0.0
 10
10.2943433799
 20
6.7091632563
 30
0.0
  0
SPLINE
  5
3B2
100
AcDbEntity
  8
0
100
AcDbSpline
 62
7
  6
CONTINUOUS
 70
0
 71
3
 72
22
 73
18
 74
0
 42
0.0000001
 43
0.0000001
 44
0.0000000001
 40
0.0
 40
0.0
 40
0.0
 40
0.0
 40
0.0662652743
 40
0.1328051367
 40
0.1995364916
 40
0.2663370505
 40
0.3994351903
 40
0.4652808744
 40
0.5303098216
 40
0.594262539
 40
0.6569110682
 40
0.7180810003
 40
0.777662912
 40
0.8356126734
 40
0.8919431812
 40
0.9467104377
 40
1.0
 40
1.0
 40
1.0
 40
1.0
 10
10.4196004583
 20
6.8500833571
 30
0.0
 10
10.4205971121
 20
6.8593740112
 30
0.0
 10
10.4225107216
 20
6.8780029526
 30
0.0
 10
10.425105901
 20
6.9060198101
 30
0.0
 10
10.4273962816
 20
6.9341392122
 30
0.0
 10
10.4299894332
 20
6.9716473609
 30
0.0
 10
10.4318217425
 20
7.0090811296
 30
0.0
 10
10.4327644132
 20
7.046292933
 30
0.0
 10
10.4330041718
 20
7.0737655495
 30
0.0
 10
10.4327722437
 20
7.1007873977
 30
0.0
 10
10.4320749376
 20
7.1272569397
 30
0.0
 10
10.4309311207
 20
7.153094001
 30
0.0
 10
10.429369529
 20
7.1782452975
 30
0.0
 10
10.4274253738
 20
7.2026853089
 30
0.0
 10
10.4251369176
 20
7.2264134071
 30
0.0
 10
10.4225425427
 20
7.2494486604
 30
0.0
 10
10.420608092
 20
7.2645629274
 30
0.0
 10
10.4196004583
 20
7.2720093361
 30
0.0
  0
SPLINE
  5
3B3
100
AcDbEntity
  8
0
100
AcDbSpline
 62
7
  6
CONTINUOUS
 70
0
 71
3
 72
22
 73
18
 74
0
 42
0.0000001
 43
0.0000001
 44
0.0000000001
 40
0.0
 40
0.0
 40
0.0
 40
0.0
 40
0.0578996962
 40
0.1168101933
 40
0.1767600489
 40
0.2377470615
 40
0.2997283629
 40
0.3626113545
 40
0.4262509392
 40
0.4904549087
 40
0.5549987336
 40
0.6196477114
 40
0.6841805087
 40
0.7484081384
 40
0.8121847207
 40
0.8754100196
 40
1.0
 40
1.0
 40
1.0
 40
1.0
 10
10.3909957356
 20
7.3235379134
 30
0.0
 10
10.3847419414
 20
7.3291993591
 30
0.0
 10
10.3720350715
 20
7.340522075
 30
0.0
 10
10.3525193589
 20
7.35732777
 30
0.0
 10
10.3323533803
 20
7.3740614212
 30
0.0
 10
10.311513792
 20
7.3906762835
 30
0.0
 10
10.2899941876
 20
7.4071147677
 30
0.0
 10
10.267810214
 20
7.42330982
 30
0.0
 10
10.245002741
 20
7.439188401
 30
0.0
 10
10.2216377518
 20
7.4546770527
 30
0.0
 10
10.1978023189
 20
7.469708946
 30
0.0
 10
10.173596628
 20
7.4842301477
 30
0.0
 10
10.1491244699
 20
7.4982045842
 30
0.0
 10
10.1244839629
 20
7.5116155563
 30
0.0
 10
10.0997605647
 20
7.5244647463
 30
0.0
 10
10.0669392247
 20
7.5407901091
 30
0.0
 10
10.04214492
 20
7.5523798336
 30
0.0
 10
10.0255971193
 20
7.559841383
 30
0.0
  0
SPLINE
  5
3B4
100
AcDbEntity
  8
0
100
AcDbSpline
 62
7
  6
CONTINUOUS
 70
0
 71
3
 72
15
 73
11
 74
0
 42
0.0000001
 43
0.0000001
 44
0.0000000001
 40
0.0
 40
0.0
 40
0.0
 40
0.0
 40
0.1024613676
 40
0.2125928618
 40
0.3308785969
 40
0.4568383157
 40
0.5888655796
 40
0.7247022368
 40
0.8622377903
 40
1.0
 40
1.0
 40
1.0
 40
1.0
 10
9.9683876739
 20
7.5638088715
 30
0.0
 10
9.9555438926
 20
7.5582273162
 30
0.0
 10
9.9289760069
 20
7.5464585881
 30
0.0
 10
9.8879024022
 20
7.5275300174
 30
0.0
 10
9.8442327938
 20
7.5065742899
 30
0.0
 10
9.7982159482
 20
7.4836070966
 30
0.0
 10
9.7504073825
 20
7.4588714902
 30
0.0
 10
9.7015239773
 20
7.4327810837
 30
0.0
 10
9.6522364113
 20
7.4057910236
 30
0.0
 10
9.6193922447
 20
7.3874311587
 30
0.0
 10
9.6029890576
 20
7.3781863621
 30
0.0
  0
SPLINE
  5
3B5
100
AcDbEntity
  8
0
100
AcDbSpline
 62
7
  6
CONTINUOUS
 70
0
 71
3
 72
71
 73
67
 74
0
 42
0.0000001
 43
0.0000001
 44
0.0000000001
 40
0.0
 40
0.0
 40
0.0
 40
0.0
 40
0.0156216706
 40
0.0311907745
 40
0.0467067129
 40
0.0621710762
 40
0.0775850548
 40
0.0929506339
 40
0.1082702304
 40
0.1235467312
 40
0.1387834665
 40
0.1539841688
 40
0.1691529583
 40
0.18429428
 40
0.1994128679
 40
0.2145137035
 40
0.2296019564
 40
0.2446829193
 40
0.2597619759
 40
0.2748445272
 40
0.2899359312
 40
0.3050414546
 40
0.3201662202
 40
0.3353151335
 40
0.3504928522
 40
0.365703735
 40
0.3809517875
 40
0.3962406261
 40
0.4115734583
 40
0.4269530346
 40
0.4423816308
 40
0.4578610394
 40
0.4733925444
 40
0.4889769098
 40
0.5046143965
 40
0.520304754
 40
0.5360472182
 40
0.5518405387
 40
0.5676829933
 40
0.5835723969
 40
0.5995061365
 40
0.615481204
 40
0.6314942052
 40
0.6475414082
 40
0.6636187847
 40
0.6797220354
 40
0.695846625
 40
0.7119878439
 40
0.7281408301
 40
0.744300616
 40
0.7604621807
 40
0.7766204909
 40
0.7927705277
 40
0.8089073567
 40
0.8250261591
 40
0.8411222663
 40
0.8571912088
 40
0.8732287682
 40
0.8892309912
 40
0.9051942477
 40
0.9211152546
 40
0.9369911073
 40
0.9528193701
 40
0.9685977523
 40
0.9843253342
 40
1.0
 40
1.0
 40
1.0
 40
1.0
 10
9.8915237227
 20
6.5731312633
 30
0.0
 10
9.8983075408
 20
6.572660804
 30
0.0
 10
9.9118776456
 20
6.5720517182
 30
0.0
 10
9.9322167438
 20
6.5721397563
 30
0.0
 10
9.9524587519
 20
6.5732309256
 30
0.0
 10
9.9725540229
 20
6.5753224549
 30
0.0
 10
9.992454498
 20
6.5784095058
 30
0.0
 10
10.0121120847
 20
6.5824846447
 30
0.0
 10
10.0314794318
 20
6.5875380925
 30
0.0
 10
10.0505098429
 20
6.5935577092
 30
0.0
 10
10.0691574308
 20
6.6005290228
 30
0.0
 10
10.0873772187
 20
6.6084352823
 30
0.0
 10
10.1051252529
 20
6.6172574724
 30
0.0
 10
10.1223587301
 20
6.6269743303
 30
0.0
 10
10.1390360801
 20
6.6375624419
 30
0.0
 10
10.1551170696
 20
6.6489962949
 30
0.0
 10
10.1705628941
 20
6.6612483384
 30
0.0
 10
10.1853362814
 20
6.6742890394
 30
0.0
 10
10.1994016076
 20
6.6880869294
 30
0.0
 10
10.2127249537
 20
6.7026087232
 30
0.0
 10
10.2252741874
 20
6.71781939
 30
0.0
 10
10.237019039
 20
6.7336822453
 30
0.0
 10
10.2479311882
 20
6.7501590221
 30
0.0
 10
10.2579843596
 20
6.7672099555
 30
0.0
 10
10.2671543398
 20
6.7847939096
 30
0.0
 10
10.2754190495
 20
6.8028684708
 30
0.0
 10
10.2827585802
 20
6.8213900506
 30
0.0
 10
10.2891552729
 20
6.8403139806
 30
0.0
 10
10.2945937712
 20
6.8595946217
 30
0.0
 10
10.2990610197
 20
6.8791854889
 30
0.0
 10
10.3025462965
 20
6.8990393593
 30
0.0
 10
10.3050412353
 20
6.9191083855
 30
0.0
 10
10.3065398717
 20
6.9393442038
 30
0.0
 10
10.3070386681
 20
6.9596980552
 30
0.0
 10
10.3065364735
 20
6.9801209087
 30
0.0
 10
10.3050345447
 20
7.0005635746
 30
0.0
 10
10.3025365235
 20
7.0209768177
 30
0.0
 10
10.2990484736
 20
7.0413114802
 30
0.0
 10
10.2945788537
 20
7.0615186037
 30
0.0
 10
10.2891384693
 20
7.0815495402
 30
0.0
 10
10.2827404485
 20
7.101356069
 30
0.0
 10
10.2754002092
 20
7.1208905063
 30
0.0
 10
10.267135457
 20
7.1401058323
 30
0.0
 10
10.2579661314
 20
7.1589558031
 30
0.0
 10
10.2479143275
 20
7.1773950527
 30
0.0
 10
10.2370042576
 20
7.1953792009
 30
0.0
 10
10.2252621803
 20
7.2128649521
 30
0.0
 10
10.2127163814
 20
7.2298102256
 30
0.0
 10
10.199397081
 20
7.2461742471
 30
0.0
 10
10.185336347
 20
7.2619176312
 30
0.0
 10
10.1705680213
 20
7.277002481
 30
0.0
 10
10.1551276388
 20
7.2913924691
 30
0.0
 10
10.1390523732
 20
7.305052962
 30
0.0
 10
10.122380924
 20
7.3179510811
 30
0.0
 10
10.1051534145
 20
7.3300557729
 30
0.0
 10
10.087411303
 20
7.3413378805
 30
0.0
 10
10.0691972794
 20
7.3517702116
 30
0.0
 10
10.0505551885
 20
7.3613276441
 30
0.0
 10
10.0315299037
 20
7.3699871627
 30
0.0
 10
10.0121672144
 20
7.3777278903
 30
0.0
 10
9.9925137291
 20
7.384531155
 30
0.0
 10
9.9726167208
 20
7.3903805431
 30
0.0
 10
9.9525242107
 20
7.395261873
 30
0.0
 10
9.9322842234
 20
7.3991635487
 30
0.0
 10
9.9119463446
 20
7.4020758239
 30
0.0
 10
9.8983305544
 20
7.4033554678
 30
0.0
 10
9.8915237227
 20
7.4038275232
 30
0.0
  0
SPLINE
  5
3B6
100
AcDbEntity
  8
0
100
AcDbSpline
 62
7
  6
CONTINUOUS
 70
0
 71
3
 72
71
 73
67
 74
0
 42
0.0000001
 43
0.0000001
 44
0.0000000001
 40
0.0
 40
0.0
 40
0.0
 40
0.0
 40
0.0156216706
 40
0.0311907745
 40
0.0467067129
 40
0.0621710762
 40
0.0775850548
 40
0.0929506339
 40
0.1082702304
 40
0.1235467312
 40
0.1387834665
 40
0.1539841688
 40
0.1691529583
 40
0.18429428
 40
0.1994128679
 40
0.2145137035
 40
0.2296019564
 40
0.2446829193
 40
0.2597619759
 40
0.2748445272
 40
0.2899359312
 40
0.3050414546
 40
0.3201662202
 40
0.3353151335
 40
0.3504928522
 40
0.365703735
 40
0.3809517875
 40
0.3962406261
 40
0.4115734583
 40
0.4269530346
 40
0.4423816308
 40
0.4578610394
 40
0.4733925444
 40
0.4889769098
 40
0.5046143965
 40
0.520304754
 40
0.5360472182
 40
0.5518405387
 40
0.5676829933
 40
0.5835723969
 40
0.5995061365
 40
0.615481204
 40
0.6314942052
 40
0.6475414082
 40
0.6636187847
 40
0.6797220354
 40
0.695846625
 40
0.7119878439
 40
0.7281408301
 40
0.744300616
 40
0.7604621807
 40
0.7766204909
 40
0.7927705277
 40
0.8089073567
 40
0.8250261591
 40
0.8411222663
 40
0.8571912088
 40
0.8732287682
 40
0.8892309912
 40
0.9051942477
 40
0.9211152546
 40
0.9369911073
 40
0.9528193701
 40
0.9685977523
 40
0.9843253342
 40
1.0
 40
1.0
 40
1.0
 40
1.0
 10
9.8915237227
 20
7.4038275232
 30
0.0
 10
9.8847399046
 20
7.4042979825
 30
0.0
 10
9.8711697998
 20
7.4049070683
 30
0.0
 10
9.8508307017
 20
7.4048190302
 30
0.0
 10
9.8305886936
 20
7.4037278609
 30
0.0
 10
9.8104934226
 20
7.4016363316
 30
0.0
 10
9.7905929475
 20
7.3985492807
 30
0.0
 10
9.7709353608
 20
7.3944741418
 30
0.0
 10
9.7515680137
 20
7.389420694
 30
0.0
 10
9.7325376026
 20
7.3834010773
 30
0.0
 10
9.7138900147
 20
7.3764297637
 30
0.0
 10
9.6956702267
 20
7.3685235042
 30
0.0
 10
9.6779221925
 20
7.3597013141
 30
0.0
 10
9.6606887153
 20
7.3499844562
 30
0.0
 10
9.6440113654
 20
7.3393963446
 30
0.0
 10
9.6279303759
 20
7.3279624916
 30
0.0
 10
9.6124845514
 20
7.3157104481
 30
0.0
 10
9.5977111641
 20
7.3026697471
 30
0.0
 10
9.5836458378
 20
7.2888718571
 30
0.0
 10
9.5703224918
 20
7.2743500633
 30
0.0
 10
9.557773258
 20
7.2591393965
 30
0.0
 10
9.5460284065
 20
7.2432765412
 30
0.0
 10
9.5351162573
 20
7.2267997644
 30
0.0
 10
9.5250630859
 20
7.209748831
 30
0.0
 10
9.5158931057
 20
7.1921648769
 30
0.0
 10
9.507628396
 20
7.1740903157
 30
0.0
 10
9.5002888653
 20
7.1555687359
 30
0.0
 10
9.4938921725
 20
7.1366448059
 30
0.0
 10
9.4884536743
 20
7.1173641648
 30
0.0
 10
9.4839864258
 20
7.0977732976
 30
0.0
 10
9.480501149
 20
7.0779194272
 30
0.0
 10
9.4780062102
 20
7.057850401
 30
0.0
 10
9.4765075738
 20
7.0376145827
 30
0.0
 10
9.4760087774
 20
7.0172607313
 30
0.0
 10
9.476510972
 20
6.9968378778
 30
0.0
 10
9.4780129007
 20
6.9763952119
 30
0.0
 10
9.4805109219
 20
6.9559819688
 30
0.0
 10
9.4839989718
 20
6.9356473063
 30
0.0
 10
9.4884685918
 20
6.9154401828
 30
0.0
 10
9.4939089762
 20
6.8954092463
 30
0.0
 10
9.500306997
 20
6.8756027176
 30
0.0
 10
9.5076472363
 20
6.8560682802
 30
0.0
 10
9.5159119884
 20
6.8368529542
 30
0.0
 10
9.525081314
 20
6.8180029834
 30
0.0
 10
9.535133118
 20
6.7995637338
 30
0.0
 10
9.5460431879
 20
6.7815795856
 30
0.0
 10
9.5577852651
 20
6.7640938344
 30
0.0
 10
9.5703310641
 20
6.7471485609
 30
0.0
 10
9.5836503645
 20
6.7307845394
 30
0.0
 10
9.5977110985
 20
6.7150411553
 30
0.0
 10
9.6124794242
 20
6.6999563055
 30
0.0
 10
9.6279198067
 20
6.6855663174
 30
0.0
 10
9.6439950723
 20
6.6719058245
 30
0.0
 10
9.6606665215
 20
6.6590077054
 30
0.0
 10
9.677894031
 20
6.6469030136
 30
0.0
 10
9.6956361425
 20
6.635620906
 30
0.0
 10
9.7138501661
 20
6.6251885749
 30
0.0
 10
9.732492257
 20
6.6156311424
 30
0.0
 10
9.7515175418
 20
6.6069716238
 30
0.0
 10
9.770880231
 20
6.5992308962
 30
0.0
 10
9.7905337164
 20
6.5924276316
 30
0.0
 10
9.8104307246
 20
6.5865782434
 30
0.0
 10
9.8305232347
 20
6.5816969135
 30
0.0
 10
9.8507632221
 20
6.5777952378
 30
0.0
 10
9.8711011009
 20
6.5748829626
 30
0.0
 10
9.8847168911
 20
6.5736033187
 30
0.0
 10
9.8915237227
 20
6.5731312633
 30
0.0
  0
SPLINE
  5
3B7
100
AcDbEntity
  8
0
100
AcDbSpline
 62
7
  6
CONTINUOUS
 70
0
 71
3
 72
20
 73
16
 74
0
 42
0.0000001
 43
0.0000001
 44
0.0000000001
 40
0.0
 40
0.0
 40
0.0
 40
0.0
 40
0.1160072463
 40
0.1751632975
 40
0.2351071928
 40
0.2958354683
 40
0.3573271027
 40
0.4195426835
 40
0.482425309
 40
0.5459033639
 40
0.6098949014
 40
0.6743129626
 40
0.7390709121
 40
0.8692869556
 40
1.0
 40
1.0
 40
1.0
 40
1.0
 10
10.3229481026
 20
6.7567243451
 30
0.0
 10
10.3217424268
 20
6.7730093532
 30
0.0
 10
10.3201150216
 20
6.7976136581
 30
0.0
 10
10.3183606294
 20
6.8306619481
 30
0.0
 10
10.3172499256
 20
6.8559511985
 30
0.0
 10
10.3163681125
 20
6.8815784258
 30
0.0
 10
10.315728272
 20
6.9075327343
 30
0.0
 10
10.3153405685
 20
6.9337953299
 30
0.0
 10
10.3152114288
 20
6.9603400885
 30
0.0
 10
10.3153430149
 20
6.9871348163
 30
0.0
 10
10.315733025
 20
7.0141431588
 30
0.0
 10
10.3163749177
 20
7.0413268816
 30
0.0
 10
10.3175550664
 20
7.0778211148
 30
0.0
 10
10.3196014917
 20
7.1236221906
 30
0.0
 10
10.3217588175
 20
7.1602891824
 30
0.0
 10
10.3229481026
 20
7.178650324
 30
0.0
  0
SPLINE
  5
3B8
100
AcDbEntity
  8
0
100
AcDbSpline
 62
7
  6
CONTINUOUS
 70
0
 71
3
 72
21
 73
17
 74
0
 42
0.0000001
 43
0.0000001
 44
0.0000000001
 40
0.0
 40
0.0
 40
0.0
 40
0.0
 40
0.1257748724
 40
0.188926364
 40
0.2522087907
 40
0.3155747839
 40
0.3789662327
 40
0.4423161603
 40
0.5055519135
 40
0.5685994071
 40
0.6313878604
 40
0.6938542329
 40
0.7559466435
 40
0.8176263707
 40
0.8788683755
 40
1.0
 40
1.0
 40
1.0
 40
1.0
 10
10.2943433799
 20
7.2301789014
 30
0.0
 10
10.2781834596
 20
7.2387039986
 30
0.0
 10
10.2540174326
 20
7.2517161433
 30
0.0
 10
10.2220204955
 20
7.2695632628
 30
0.0
 10
10.1980851846
 20
7.2832495338
 30
0.0
 10
10.1742759247
 20
7.2972229811
 30
0.0
 10
10.1506258688
 20
7.3114833533
 30
0.0
 10
10.127169728
 20
7.3260246923
 30
0.0
 10
10.103941863
 20
7.3408352825
 30
0.0
 10
10.0809742295
 20
7.3558980965
 30
0.0
 10
10.0582943608
 20
7.3711917629
 30
0.0
 10
10.0359237477
 20
7.3866919413
 30
0.0
 10
10.0138768538
 20
7.4023728278
 30
0.0
 10
9.9921607699
 20
7.4182086846
 30
0.0
 10
9.9637520802
 20
7.4394187424
 30
0.0
 10
9.9427756199
 20
7.455604168
 30
0.0
 10
9.9289447637
 20
7.4664823709
 30
0.0
  0
SPLINE
  5
3B9
100
AcDbEntity
  8
0
100
AcDbSpline
 62
7
  6
CONTINUOUS
 70
0
 71
3
 72
15
 73
11
 74
0
 42
0.0000001
 43
0.0000001
 44
0.0000000001
 40
0.0
 40
0.0
 40
0.0
 40
0.0
 40
0.1336920932
 40
0.2662145601
 40
0.39688998
 40
0.5249381662
 40
0.6496246935
 40
0.7704362771
 40
0.8871861617
 40
1.0
 40
1.0
 40
1.0
 40
1.0
 10
9.8717353182
 20
7.4704498595
 30
0.0
 10
9.8556743745
 20
7.4617474692
 30
0.0
 10
9.8236519822
 20
7.4444943381
 30
0.0
 10
9.7757650233
 20
7.4190447748
 30
0.0
 10
9.7283919407
 20
7.3942737997
 30
0.0
 10
9.6817845063
 20
7.3703522409
 30
0.0
 10
9.6361857901
 20
7.3474205849
 30
0.0
 10
9.5917795447
 20
7.3255577174
 30
0.0
 10
9.5486553027
 20
7.3047675109
 30
0.0
 10
9.5202961938
 20
7.2913645433
 30
0.0
 10
9.506336702
 20
7.2848273501
 30
0.0
  0
SPLINE
  5
3BA
100
AcDbEntity
  8
0
100
AcDbSpline
 62
7
  6
CONTINUOUS
 70
0
 71
3
 72
23
 73
19
 74
0
 42
0.0000001
 43
0.0000001
 44
0.0000000001
 40
0.0
 40
0.0
 40
0.0
 40
0.0
 40
0.0637771735
 40
0.1273448473
 40
0.1907019822
 40
0.253856143
 40
0.3168131975
 40
0.3795820985
 40
0.4421733906
 40
0.5045993374
 40
0.5668738654
 40
0.62901238
 40
0.6910316489
 40
0.7529496402
 40
0.814785347
 40
0.8765585971
 40
0.938289852
 40
1.0
 40
1.0
 40
1.0
 40
1.0
 10
9.0170774243
 20
7.243682332
 30
0.0
 10
9.0170774243
 20
7.2360913445
 30
0.0
 10
9.0167140884
 20
7.2209317325
 30
0.0
 10
9.0150741677
 20
7.1982845272
 30
0.0
 10
9.0123436951
 20
7.1758168586
 30
0.0
 10
9.0085291828
 20
7.1535814365
 30
0.0
 10
9.0036391806
 20
7.1316291275
 30
0.0
 10
8.9976849673
 20
7.1100106729
 30
0.0
 10
8.9906802242
 20
7.0887758781
 30
0.0
 10
8.9826410604
 20
7.0679737129
 30
0.0
 10
8.9735859709
 20
7.0476521516
 30
0.0
 10
8.9635357775
 20
7.0278580737
 30
0.0
 10
8.9525136158
 20
7.0086371515
 30
0.0
 10
8.9405448874
 20
6.990033706
 30
0.0
 10
8.9276572174
 20
6.9720906908
 30
0.0
 10
8.9138801593
 20
6.9548493639
 30
0.0
 10
8.8992460244
 20
6.9383500382
 30
0.0
 10
8.8889390631
 20
6.9278686415
 30
0.0
 10
8.8836561563
 20
6.9227657627
 30
0.0
  0
SPLINE
  5
3BB
100
AcDbEntity
  8
0
100
AcDbSpline
 62
7
  6
CONTINUOUS
 70
0
 71
3
 72
58
 73
54
 74
0
 42
0.0000001
 43
0.0000001
 44
0.0000000001
 40
0.0
 40
0.0
 40
0.0
 40
0.0
 40
0.0081223305
 40
0.0169168975
 40
0.0264087397
 40
0.0366143893
 40
0.0475415919
 40
0.0591912278
 40
0.0715586516
 40
0.0846347975
 40
0.0984066254
 40
0.112857697
 40
0.1279687991
 40
0.1437179559
 40
0.1600810137
 40
0.1770317001
 40
0.2125802303
 40
0.2501202969
 40
0.2893844218
 40
0.3300865608
 40
0.3719257492
 40
0.4145895607
 40
0.4577574053
 40
0.5011037527
 40
0.5443013266
 40
0.587024304
 40
0.6289515139
 40
0.6697696572
 40
0.7091765902
 40
0.7468847529
 40
0.7826248208
 40
0.7996793841
 40
0.8161512809
 40
0.8320139346
 40
0.8472427441
 40
0.8618153344
 40
0.8757119895
 40
0.8889156785
 40
0.9014127874
 40
0.9131934095
 40
0.9242520347
 40
0.9345886083
 40
0.9442093599
 40
0.953128682
 40
0.9613709503
 40
0.9689732053
 40
0.9759886321
 40
0.9824900189
 40
0.9885734021
 40
0.9914974267
 40
0.9943641369
 40
0.9971919109
 40
1.0
 40
1.0
 40
1.0
 40
1.0
 10
13.3765558853
 20
10.2930952774
 30
0.0
 10
13.375735445
 20
10.2923027929
 30
0.0
 10
13.3739492662
 20
10.2907313511
 30
0.0
 10
13.3709843716
 20
10.2884986236
 30
0.0
 10
13.3676360577
 20
10.2863032523
 30
0.0
 10
13.3639111211
 20
10.2841494652
 30
0.0
 10
13.3598165561
 20
10.2820411264
 30
0.0
 10
13.3553603022
 20
10.2799824518
 30
0.0
 10
13.3505511392
 20
10.2779774484
 30
0.0
 10
13.3453985741
 20
10.2760301694
 30
0.0
 10
13.3399128639
 20
10.2741445484
 30
0.0
 10
13.3341049851
 20
10.2723243767
 30
0.0
 10
13.3279865786
 20
10.2705734032
 30
0.0
 10
13.321569955
 20
10.2688951508
 30
0.0
 10
13.3148680209
 20
10.2672930305
 30
0.0
 10
13.3054192297
 20
10.2652300491
 30
0.0
 10
13.2929920692
 20
10.2628783128
 30
0.0
 10
13.2773992267
 20
10.2604490395
 30
0.0
 10
13.2610236351
 20
10.2583899225
 30
0.0
 10
13.2439974983
 20
10.2567179036
 30
0.0
 10
13.2264581569
 20
10.2554467877
 30
0.0
 10
13.2085472653
 20
10.2545870402
 30
0.0
 10
13.1904095143
 20
10.2541457403
 30
0.0
 10
13.1721914657
 20
10.2541265227
 30
0.0
 10
13.1540403399
 20
10.2545295488
 30
0.0
 10
13.136102809
 20
10.255351497
 30
0.0
 10
13.1185237825
 20
10.2565855982
 30
0.0
 10
13.1014452401
 20
10.2582216914
 30
0.0
 10
13.085004958
 20
10.2602462685
 30
0.0
 10
13.0693356752
 20
10.2626426787
 30
0.0
 10
13.0568373251
 20
10.2649677306
 30
0.0
 10
13.0473260079
 20
10.2670101694
 30
0.0
 10
13.0405736354
 20
10.268598096
 30
0.0
 10
13.0341041582
 20
10.2702627429
 30
0.0
 10
13.0279305956
 20
10.2720007589
 30
0.0
 10
13.0220653705
 20
10.2738086242
 30
0.0
 10
13.0165202445
 20
10.2756826156
 30
0.0
 10
13.0113063237
 20
10.2776189851
 30
0.0
 10
13.006433991
 20
10.279613782
 30
0.0
 10
13.0019129001
 20
10.2816630028
 30
0.0
 10
12.9977519554
 20
10.2837626136
 30
0.0
 10
12.9939592298
 20
10.2859084535
 30
0.0
 10
12.9905420364
 20
10.2880965254
 30
0.0
 10
12.9875068317
 20
10.2903228296
 30
0.0
 10
12.984859314
 20
10.2925836564
 30
0.0
 10
12.98260462
 20
10.2948756336
 30
0.0
 10
12.9807474175
 20
10.2971959305
 30
0.0
 10
12.9792928238
 20
10.2995414504
 30
0.0
 10
12.9784092405
 20
10.3015419178
 30
0.0
 10
12.9779211037
 20
10.3031381081
 30
0.0
 10
12.9776626276
 20
10.3043220441
 30
0.0
 10
12.9775074714
 20
10.3055073991
 30
0.0
 10
12.9774729449
 20
10.3062993149
 30
0.0
 10
12.9774729447
 20
10.3066936765
 30
0.0
  0
SPLINE
  5
3BC
100
AcDbEntity
  8
0
100
AcDbSpline
 62
7
  6
CONTINUOUS
 70
0
 71
3
 72
58
 73
54
 74
0
 42
0.0000001
 43
0.0000001
 44
0.0000000001
 40
0.0
 40
0.0
 40
0.0
 40
0.0
 40
0.0081223305
 40
0.0169168975
 40
0.0264087397
 40
0.0366143893
 40
0.0475415919
 40
0.0591912278
 40
0.0715586516
 40
0.0846347975
 40
0.0984066254
 40
0.112857697
 40
0.1279687991
 40
0.1437179559
 40
0.1600810137
 40
0.1770317001
 40
0.2125802303
 40
0.2501202969
 40
0.2893844218
 40
0.3300865608
 40
0.3719257492
 40
0.4145895607
 40
0.4577574053
 40
0.5011037527
 40
0.5443013266
 40
0.587024304
 40
0.6289515139
 40
0.6697696572
 40
0.7091765902
 40
0.7468847529
 40
0.7826248208
 40
0.7996793841
 40
0.8161512809
 40
0.8320139346
 40
0.8472427441
 40
0.8618153344
 40
0.8757119895
 40
0.8889156785
 40
0.9014127874
 40
0.9131934095
 40
0.9242520347
 40
0.9345886083
 40
0.9442093599
 40
0.953128682
 40
0.9613709503
 40
0.9689732053
 40
0.9759886321
 40
0.9824900189
 40
0.9885734021
 40
0.9914974267
 40
0.9943641369
 40
0.9971919109
 40
1.0
 40
1.0
 40
1.0
 40
1.0
 10
12.2765758514
 20
9.2305960913
 30
0.0
 10
12.2757554111
 20
9.2298036068
 30
0.0
 10
12.2739692323
 20
9.228232165
 30
0.0
 10
12.2710043377
 20
9.2259994375
 30
0.0
 10
12.2676560238
 20
9.2238040662
 30
0.0
 10
12.2639310872
 20
9.2216502791
 30
0.0
 10
12.2598365222
 20
9.2195419403
 30
0.0
 10
12.2553802683
 20
9.2174832658
 30
0.0
 10
12.2505711053
 20
9.2154782623
 30
0.0
 10
12.2454185402
 20
9.2135309833
 30
0.0
 10
12.23993283
 20
9.2116453623
 30
0.0
 10
12.2341249512
 20
9.2098251906
 30
0.0
 10
12.2280065447
 20
9.2080742171
 30
0.0
 10
12.2215899211
 20
9.2063959647
 30
0.0
 10
12.214887987
 20
9.2047938444
 30
0.0
 10
12.2054391958
 20
9.202730863
 30
0.0
 10
12.1930120353
 20
9.2003791267
 30
0.0
 10
12.1774191928
 20
9.1979498534
 30
0.0
 10
12.1610436012
 20
9.1958907364
 30
0.0
 10
12.1440174644
 20
9.1942187175
 30
0.0
 10
12.126478123
 20
9.1929476016
 30
0.0
 10
12.1085672314
 20
9.1920878541
 30
0.0
 10
12.0904294804
 20
9.1916465542
 30
0.0
 10
12.0722114318
 20
9.1916273366
 30
0.0
 10
12.054060306
 20
9.1920303627
 30
0.0
 10
12.0361227751
 20
9.1928523109
 30
0.0
 10
12.0185437486
 20
9.1940864121
 30
0.0
 10
12.0014652062
 20
9.1957225053
 30
0.0
 10
11.9850249241
 20
9.1977470825
 30
0.0
 10
11.9693556413
 20
9.2001434926
 30
0.0
 10
11.9568572912
 20
9.2024685445
 30
0.0
 10
11.947345974
 20
9.2045109833
 30
0.0
 10
11.9405936015
 20
9.2060989099
 30
0.0
 10
11.9341241243
 20
9.2077635568
 30
0.0
 10
11.9279505617
 20
9.2095015728
 30
0.0
 10
11.9220853366
 20
9.2113094381
 30
0.0
 10
11.9165402106
 20
9.2131834295
 30
0.0
 10
11.9113262898
 20
9.215119799
 30
0.0
 10
11.9064539571
 20
9.2171145959
 30
0.0
 10
11.9019328662
 20
9.2191638167
 30
0.0
 10
11.8977719215
 20
9.2212634275
 30
0.0
 10
11.8939791959
 20
9.2234092674
 30
0.0
 10
11.8905620025
 20
9.2255973393
 30
0.0
 10
11.8875267978
 20
9.2278236435
 30
0.0
 10
11.8848792801
 20
9.2300844703
 30
0.0
 10
11.8826245861
 20
9.2323764475
 30
0.0
 10
11.8807673836
 20
9.2346967444
 30
0.0
 10
11.8793127899
 20
9.2370422643
 30
0.0
 10
11.8784292066
 20
9.2390427317
 30
0.0
 10
11.8779410698
 20
9.240638922
 30
0.0
 10
11.8776825937
 20
9.241822858
 30
0.0
 10
11.8775274375
 20
9.243008213
 30
0.0
 10
11.877492911
 20
9.2438001288
 30
0.0
 10
11.8774929108
 20
9.2441944904
 30
0.0
  0
SPLINE
  5
3BD
100
AcDbEntity
  8
0
100
AcDbSpline
 62
7
  6
CONTINUOUS
 70
0
 71
3
 72
18
 73
14
 74
0
 42
0.0000001
 43
0.0000001
 44
0.0000000001
 40
0.0
 40
0.0
 40
0.0
 40
0.0
 40
0.150467608
 40
0.291710008
 40
0.4244359371
 40
0.549562455
 40
0.6682139939
 40
0.7255497488
 40
0.7817912909
 40
0.8371402503
 40
0.8918093826
 40
0.9460201179
 40
1.0
 40
1.0
 40
1.0
 40
1.0
 10
13.6896803172
 20
9.8006095443
 30
0.0
 10
13.692404219
 20
9.8032406316
 30
0.0
 10
13.6978481551
 20
9.8081772284
 30
0.0
 10
13.706278046
 20
9.8147560866
 30
0.0
 10
13.7146980355
 20
9.8202583118
 30
0.0
 10
13.7230994061
 20
9.8246748728
 30
0.0
 10
13.7301606656
 20
9.827475471
 30
0.0
 10
13.7357669937
 20
9.8291394188
 30
0.0
 10
13.7399120218
 20
9.8300984947
 30
0.0
 10
13.7440432983
 20
9.8307820527
 30
0.0
 10
13.7481596658
 20
9.8311898509
 30
0.0
 10
13.752259487
 20
9.831321677
 30
0.0
 10
13.7549832902
 20
9.8312253392
 30
0.0
 10
13.7563386544
 20
9.8311313502
 30
0.0
  0
SPLINE
  5
3BE
100
AcDbEntity
  8
0
100
AcDbSpline
 62
7
  6
CONTINUOUS
 70
0
 71
3
 72
18
 73
14
 74
0
 42
0.0000001
 43
0.0000001
 44
0.0000000001
 40
0.0
 40
0.0
 40
0.0
 40
0.0
 40
0.150467608
 40
0.291710008
 40
0.4244359371
 40
0.549562455
 40
0.6682139939
 40
0.7255497488
 40
0.7817912909
 40
0.8371402503
 40
0.8918093826
 40
0.9460201179
 40
1.0
 40
1.0
 40
1.0
 40
1.0
 10
13.1399491004
 20
9.2696099329
 30
0.0
 10
13.1426730022
 20
9.2722410202
 30
0.0
 10
13.1481169382
 20
9.2771776171
 30
0.0
 10
13.1565468291
 20
9.2837564753
 30
0.0
 10
13.1649668186
 20
9.2892587005
 30
0.0
 10
13.1733681892
 20
9.2936752614
 30
0.0
 10
13.1804294487
 20
9.2964758596
 30
0.0
 10
13.1860357769
 20
9.2981398075
 30
0.0
 10
13.1901808049
 20
9.2990988834
 30
0.0
 10
13.1943120814
 20
9.2997824414
 30
0.0
 10
13.198428449
 20
9.3001902395
 30
0.0
 10
13.2025282701
 20
9.3003220656
 30
0.0
 10
13.2052520734
 20
9.3002257278
 30
0.0
 10
13.2066074375
 20
9.3001317388
 30
0.0
  0
SPLINE
  5
3BF
100
AcDbEntity
  8
0
100
AcDbSpline
 62
7
  6
CONTINUOUS
 70
0
 71
3
 72
21
 73
17
 74
0
 42
0.0000001
 43
0.0000001
 44
0.0000000001
 40
0.0
 40
0.0
 40
0.0
 40
0.0
 40
0.1273177382
 40
0.253799893
 40
0.3167619527
 40
0.3795355237
 40
0.4421314869
 40
0.5045621428
 40
0.5668413495
 40
0.6289845239
 40
0.69100845
 40
0.7529310987
 40
0.8147714472
 40
0.8765493323
 40
0.9382852239
 40
1.0
 40
1.0
 40
1.0
 40
1.0
 10
8.8316612063
 20
7.3020840078
 30
0.0
 10
8.8316612063
 20
7.2942459186
 30
0.0
 10
8.83091302
 20
7.2786110912
 30
0.0
 10
8.8280872909
 20
7.2592830673
 30
0.0
 10
8.824709984
 20
7.2441219174
 30
0.0
 10
8.8216300366
 20
7.2329390427
 30
0.0
 10
8.8180066545
 20
7.2219548855
 30
0.0
 10
8.813848232
 20
7.2111944365
 30
0.0
 10
8.8091642953
 20
7.2006826043
 30
0.0
 10
8.8039655769
 20
7.1904436425
 30
0.0
 10
8.7982641408
 20
7.1805011292
 30
0.0
 10
8.7920730624
 20
7.1708780198
 30
0.0
 10
8.7854065989
 20
7.1615965618
 30
0.0
 10
8.7782801207
 20
7.1526780361
 30
0.0
 10
8.7707102863
 20
7.1441433353
 30
0.0
 10
8.765378775
 20
7.1387215641
 30
0.0
 10
8.7626460686
 20
7.136081971
 30
0.0
  0
SPLINE
  5
3C0
100
AcDbEntity
  8
0
100
AcDbSpline
 62
7
  6
CONTINUOUS
 70
0
 71
3
 72
37
 73
33
 74
0
 42
0.0000001
 43
0.0000001
 44
0.0000000001
 40
0.0
 40
0.0
 40
0.0
 40
0.0
 40
0.0307115776
 40
0.0615425493
 40
0.0924882602
 40
0.1235467373
 40
0.1547123949
 40
0.1859791285
 40
0.2173394699
 40
0.2487848566
 40
0.2803057573
 40
0.3118917577
 40
0.3435316965
 40
0.3752137945
 40
0.4386334817
 40
0.5020712226
 40
0.5337756682
 40
0.565446536
 40
0.5970717001
 40
0.6286395532
 40
0.6601391396
 40
0.6915602898
 40
0.7228937461
 40
0.7541312741
 40
0.7852657663
 40
0.8162913356
 40
0.8472034039
 40
0.8779987725
 40
0.9086756734
 40
0.9392338057
 40
0.9696743546
 40
1.0
 40
1.0
 40
1.0
 40
1.0
 10
8.8485951904
 20
7.2639409814
 30
0.0
 10
8.8485951904
 20
7.2695156275
 30
0.0
 10
8.8482820236
 20
7.2806890478
 30
0.0
 10
8.8468808875
 20
7.2974267411
 30
0.0
 10
8.8445516159
 20
7.3141247144
 30
0.0
 10
8.8413018451
 20
7.3307298611
 30
0.0
 10
8.8371415839
 20
7.3471906599
 30
0.0
 10
8.8320839504
 20
7.3634555444
 30
0.0
 10
8.826144791
 20
7.3794737362
 30
0.0
 10
8.8193427244
 20
7.3951951824
 30
0.0
 10
8.8116990165
 20
7.4105708042
 30
0.0
 10
8.8032376661
 20
7.4255524573
 30
0.0
 10
8.7939847486
 20
7.4400937494
 30
0.0
 10
8.7806294035
 20
7.4588367438
 30
0.0
 10
8.7621090265
 20
7.4809354432
 30
0.0
 10
8.7413845415
 20
7.5009874308
 30
0.0
 10
8.7236332014
 20
7.5156554199
 30
0.0
 10
8.7097772835
 20
7.5259343836
 30
0.0
 10
8.6954224401
 20
7.5354587396
 30
0.0
 10
8.6806131127
 20
7.5441991021
 30
0.0
 10
8.6653956538
 20
7.5521280091
 30
0.0
 10
8.6498175803
 20
7.5592206989
 30
0.0
 10
8.6339275679
 20
7.5654549777
 30
0.0
 10
8.6177752542
 20
7.5708113257
 30
0.0
 10
8.6014111023
 20
7.5752729484
 30
0.0
 10
8.58488624
 20
7.5788258251
 30
0.0
 10
8.5682523197
 20
7.5814588105
 30
0.0
 10
8.5515613208
 20
7.5831636249
 30
0.0
 10
8.5348654725
 20
7.5839348838
 30
0.0
 10
8.518216788
 20
7.5837700678
 30
0.0
 10
8.5016680473
 20
7.5826697195
 30
0.0
 10
8.490714732
 20
7.5813119187
 30
0.0
 10
8.485273654
 20
7.5804781225
 30
0.0
  0
SPLINE
  5
3C1
100
AcDbEntity
  8
0
100
AcDbSpline
 62
7
  6
CONTINUOUS
 70
0
 71
3
 72
43
 73
39
 74
0
 42
0.0000001
 43
0.0000001
 44
0.0000000001
 40
0.0
 40
0.0
 40
0.0
 40
0.0
 40
0.0310745218
 40
0.0466739617
 40
0.0623117346
 40
0.0936962008
 40
0.1252246462
 40
0.156885682
 40
0.1886651184
 40
0.2205463529
 40
0.2525107094
 40
0.2845378393
 40
0.316606137
 40
0.3486931771
 40
0.3807761618
 40
0.4128323741
 40
0.4448396288
 40
0.4767767175
 40
0.508623839
 40
0.5403630095
 40
0.5719784455
 40
0.6034569128
 40
0.6347880329
 40
0.6659645409
 40
0.6969824853
 40
0.7278413639
 40
0.7585441875
 40
0.7890974671
 40
0.8195111175
 40
0.8497982781
 40
0.8649022316
 40
0.8799808239
 40
0.9100659163
 40
0.9400802375
 40
0.9550708207
 40
0.9700522994
 40
0.9850276796
 40
1.0
 40
1.0
 40
1.0
 40
1.0
 10
8.8316612063
 20
7.3020840078
 30
0.0
 10
8.8316612063
 20
7.308176143
 30
0.0
 10
8.8313206661
 20
7.3173311346
 30
0.0
 10
8.8301960006
 20
7.3294973401
 30
0.0
 10
8.8286201235
 20
7.3416752016
 30
0.0
 10
8.8258109156
 20
7.3568314348
 30
0.0
 10
8.8211251834
 20
7.3747867553
 30
0.0
 10
8.8151462831
 20
7.3924358932
 30
0.0
 10
8.8079072538
 20
7.4096813857
 30
0.0
 10
8.7994479474
 20
7.4264287516
 30
0.0
 10
8.7898149037
 20
7.4425860514
 30
0.0
 10
8.7790610734
 20
7.4580646422
 30
0.0
 10
8.7672455335
 20
7.4727795886
 30
0.0
 10
8.7544331644
 20
7.486650142
 30
0.0
 10
8.7406942974
 20
7.499600174
 30
0.0
 10
8.7261043321
 20
7.5115585912
 30
0.0
 10
8.710743327
 20
7.5224597217
 30
0.0
 10
8.6946955652
 20
7.5322436719
 30
0.0
 10
8.6780490975
 20
7.5408566537
 30
0.0
 10
8.6608952651
 20
7.548251278
 30
0.0
 10
8.6433282056
 20
7.5543868147
 30
0.0
 10
8.625444343
 20
7.5592294172
 30
0.0
 10
8.6073418665
 20
7.562752311
 30
0.0
 10
8.5891201977
 20
7.5649359445
 30
0.0
 10
8.5708794569
 20
7.5657681052
 30
0.0
 10
8.5527199
 20
7.5652439858
 30
0.0
 10
8.5347414459
 20
7.5633662553
 30
0.0
 10
8.5170428567
 20
7.5601449294
 30
0.0
 10
8.4997222075
 20
7.5555977998
 30
0.0
 10
8.485667239
 20
7.5507187421
 30
0.0
 10
8.4747120439
 20
7.5461813974
 30
0.0
 10
8.4639786351
 20
7.541235627
 30
0.0
 10
8.450964328
 20
7.5342836631
 30
0.0
 10
8.4385533798
 20
7.5263357314
 30
0.0
 10
8.4290420828
 20
7.5194147609
 30
0.0
 10
8.4221262615
 20
7.5139499372
 30
0.0
 10
8.4154357626
 20
7.5082173763
 30
0.0
 10
8.4111313051
 20
7.5042218212
 30
0.0
 10
8.4090200693
 20
7.5021825231
 30
0.0
  0
SPLINE
  5
3C2
100
AcDbEntity
  8
0
100
AcDbSpline
 62
7
  6
CONTINUOUS
 70
0
 71
3
 72
11
 73
7
 74
0
 42
0.0000001
 43
0.0000001
 44
0.0000000001
 40
0.0
 40
0.0
 40
0.0
 40
0.0
 40
0.2517325964
 40
0.5022831652
 40
0.7516878325
 40
1.0
 40
1.0
 40
1.0
 40
1.0
 10
10.4459523059
 20
7.0935163123
 30
0.0
 10
10.4459523059
 20
7.0840941401
 30
0.0
 10
10.4453128735
 20
7.0652876137
 30
0.0
 10
10.4424235238
 20
7.0372794519
 30
0.0
 10
10.4376199778
 20
7.0096651426
 30
0.0
 10
10.4331455577
 20
6.9915625749
 30
0.0
 10
10.4305974329
 20
6.9826245524
 30
0.0
  0
SPLINE
  5
3C3
100
AcDbEntity
  8
0
100
AcDbSpline
 62
7
  6
CONTINUOUS
 70
0
 71
3
 72
11
 73
7
 74
0
 42
0.0000001
 43
0.0000001
 44
0.0000000001
 40
0.0
 40
0.0
 40
0.0
 40
0.0
 40
0.2480506592
 40
0.4974370176
 40
0.7481146859
 40
1.0
 40
1.0
 40
1.0
 40
1.0
 10
10.4459523059
 20
7.0935163123
 30
0.0
 10
10.4459523059
 20
7.1045082021
 30
0.0
 10
10.4450774818
 20
7.1265606815
 30
0.0
 10
10.4411739015
 20
7.1595137554
 30
0.0
 10
10.4347013107
 20
7.1922327335
 30
0.0
 10
10.4287122845
 20
7.2137088325
 30
0.0
 10
10.4253090232
 20
7.2243391631
 30
0.0
  0
SPLINE
  5
3C4
100
AcDbEntity
  8
0
100
AcDbSpline
 62
7
  6
CONTINUOUS
 70
0
 71
3
 72
21
 73
17
 74
0
 42
0.0000001
 43
0.0000001
 44
0.0000000001
 40
0.0
 40
0.0
 40
0.0
 40
0.0
 40
0.0628274178
 40
0.1256996352
 40
0.1885972144
 40
0.2515004974
 40
0.3772122325
 40
0.5027126756
 40
0.565353795
 40
0.627887577
 40
0.6902975697
 40
0.7525684286
 40
0.8146860533
 40
0.876637721
 40
0.9384122277
 40
1.0
 40
1.0
 40
1.0
 40
1.0
 10
10.3634462198
 20
7.3478541734
 30
0.0
 10
10.3593659886
 20
7.3536075954
 30
0.0
 10
10.3509359925
 20
7.3649321141
 30
0.0
 10
10.3375211999
 20
7.381322279
 30
0.0
 10
10.3233616074
 20
7.3970860998
 30
0.0
 10
10.3035431059
 20
7.4172102348
 30
0.0
 10
10.2770894681
 20
7.4406093892
 30
0.0
 10
10.2486206055
 20
7.4614610199
 30
0.0
 10
10.2248117056
 20
7.4764809943
 30
0.0
 10
10.2064918317
 20
7.4868835527
 30
0.0
 10
10.1877451178
 20
7.4964033468
 30
0.0
 10
10.1686164908
 20
7.5050176425
 30
0.0
 10
10.1491523835
 20
7.5127054539
 30
0.0
 10
10.1293996903
 20
7.5194481791
 30
0.0
 10
10.1094068471
 20
7.5252293439
 30
0.0
 10
10.0959279403
 20
7.5284384265
 30
0.0
 10
10.0891651473
 20
7.5298774933
 30
0.0
  0
SPLINE
  5
3C5
100
AcDbEntity
  8
0
100
AcDbSpline
 62
7
  6
CONTINUOUS
 70
0
 71
3
 72
23
 73
19
 74
0
 42
0.0000001
 43
0.0000001
 44
0.0000000001
 40
0.0
 40
0.0
 40
0.0
 40
0.0
 40
0.0637771706
 40
0.1273448423
 40
0.190701976
 40
0.2538561364
 40
0.3168131911
 40
0.379582093
 40
0.4421733865
 40
0.504599335
 40
0.5668738647
 40
0.6290123811
 40
0.6910316516
 40
0.752949644
 40
0.8147853513
 40
0.8765586011
 40
0.9382898546
 40
1.0
 40
1.0
 40
1.0
 40
1.0
 10
11.63696441
 20
7.6430930091
 30
0.0
 10
11.63696441
 20
7.6347614721
 30
0.0
 10
11.6365656299
 20
7.6181229429
 30
0.0
 10
11.634765732
 20
7.5932663568
 30
0.0
 10
11.6317688968
 20
7.5686068212
 30
0.0
 10
11.6275822718
 20
7.5442021874
 30
0.0
 10
11.6222152407
 20
7.520108284
 30
0.0
 10
11.6156801824
 20
7.4963808019
 30
0.0
 10
11.6079921129
 20
7.4730744051
 30
0.0
 10
11.5991687125
 20
7.45024284
 30
0.0
 10
11.5892302803
 20
7.4279387609
 30
0.0
 10
11.5781996691
 20
7.4062136203
 30
0.0
 10
11.5661022713
 20
7.3851175456
 30
0.0
 10
11.5529659661
 20
7.3646991815
 30
0.0
 10
11.5388210732
 20
7.3450056715
 30
0.0
 10
11.5237000292
 20
7.3260822983
 30
0.0
 10
11.5076382967
 20
7.3079733074
 30
0.0
 10
11.4963258635
 20
7.2964693456
 30
0.0
 10
11.4905275946
 20
7.2908686283
 30
0.0
  0
SPLINE
  5
3C6
100
AcDbEntity
  8
0
100
AcDbSpline
 62
7
  6
CONTINUOUS
 70
0
 71
3
 72
32
 73
28
 74
0
 42
0.0000001
 43
0.0000001
 44
0.0000000001
 40
0.0
 40
0.0
 40
0.0
 40
0.0
 40
0.060339443
 40
0.1201626694
 40
0.1776395535
 40
0.2318539985
 40
0.2825689965
 40
0.3298991402
 40
0.374098897
 40
0.4154565425
 40
0.4907005277
 40
0.5575281304
 40
0.6173789933
 40
0.6713698219
 40
0.7204089275
 40
0.7652915975
 40
0.8067845493
 40
0.8265281475
 40
0.845743366
 40
0.8645573787
 40
0.8831129086
 40
0.9015723134
 40
0.920121155
 40
0.9389727313
 40
0.9583727299
 40
0.978604655
 40
1.0
 40
1.0
 40
1.0
 40
1.0
 10
10.7192708889
 20
7.6251569329
 30
0.0
 10
10.7184271768
 20
7.6275313314
 30
0.0
 10
10.7169559461
 20
7.6323364749
 30
0.0
 10
10.7153625337
 20
7.639588912
 30
0.0
 10
10.7143459161
 20
7.6466852057
 30
0.0
 10
10.7138392498
 20
7.6534532368
 30
0.0
 10
10.7137587576
 20
7.6598150565
 30
0.0
 10
10.7140261953
 20
7.665752386
 30
0.0
 10
10.7145765812
 20
7.6712773008
 30
0.0
 10
10.7155876583
 20
7.6779183094
 30
0.0
 10
10.7172905138
 20
7.6854004692
 30
0.0
 10
10.7199511946
 20
7.6934156418
 30
0.0
 10
10.7230187395
 20
7.7003224257
 30
0.0
 10
10.7264028775
 20
7.7062372268
 30
0.0
 10
10.7300461865
 20
7.7112423203
 30
0.0
 10
10.7339116484
 20
7.7153901599
 30
0.0
 10
10.7373598542
 20
7.7182018568
 30
0.0
 10
10.7401994845
 20
7.7200036511
 30
0.0
 10
10.7423397419
 20
7.7211238663
 30
0.0
 10
10.7445252555
 20
7.7220310501
 30
0.0
 10
10.7467565788
 20
7.7227195405
 30
0.0
 10
10.7490347489
 20
7.7231808766
 30
0.0
 10
10.7513611528
 20
7.7234045108
 30
0.0
 10
10.7537377241
 20
7.7233765125
 30
0.0
 10
10.7561669298
 20
7.7230789126
 30
0.0
 10
10.7586516733
 20
7.7224901168
 30
0.0
 10
10.7602924645
 20
7.7219034935
 30
0.0
 10
10.761116955
 20
7.7215591861
 30
0.0
  0
SPLINE
  5
3C7
100
AcDbEntity
  8
0
100
AcDbSpline
 62
7
  6
CONTINUOUS
 70
0
 71
3
 72
39
 73
35
 74
0
 42
0.0000001
 43
0.0000001
 44
0.0000000001
 40
0.0
 40
0.0
 40
0.0
 40
0.0
 40
0.0310753533
 40
0.062307914
 40
0.0936931276
 40
0.125222289
 40
0.1568840436
 40
0.1886642048
 40
0.2205461649
 40
0.252511249
 40
0.2845391082
 40
0.3166081364
 40
0.3486959074
 40
0.3807796231
 40
0.412836566
 40
0.44484455
 40
0.4767823665
 40
0.508630214
 40
0.5403701087
 40
0.5719862657
 40
0.6034654504
 40
0.634797285
 40
0.6659745047
 40
0.6969931573
 40
0.7278527396
 40
0.7585562634
 40
0.7891102405
 40
0.8195245856
 40
0.8498124374
 40
0.8799898958
 40
0.9100756749
 40
0.9400906815
 40
0.970057529
 40
1.0
 40
1.0
 40
1.0
 40
1.0
 10
11.63696441
 20
7.6430930091
 30
0.0
 10
11.63696441
 20
7.6560193985
 30
0.0
 10
11.6360001295
 20
7.6819475178
 30
0.0
 10
11.631694828
 20
7.7207155728
 30
0.0
 10
11.6245512864
 20
7.7592559811
 30
0.0
 10
11.6146089804
 20
7.7973543833
 30
0.0
 10
11.601922928
 20
7.8348022776
 30
0.0
 10
11.5865630827
 20
7.8713939338
 30
0.0
 10
11.5686140646
 20
7.9069286064
 30
0.0
 10
11.5481746136
 20
7.9412112965
 30
0.0
 10
11.5253570645
 20
7.9740538913
 30
0.0
 10
11.5002867519
 20
8.0052761656
 30
0.0
 10
11.4731013675
 20
8.0347068052
 30
0.0
 10
11.4439501435
 20
8.0621842868
 30
0.0
 10
11.4129930568
 20
8.08755776
 30
0.0
 10
11.3803999559
 20
8.1106878538
 30
0.0
 10
11.3463496888
 20
8.1314475029
 30
0.0
 10
11.3110290905
 20
8.1497225954
 30
0.0
 10
11.2746319669
 20
8.1654125811
 30
0.0
 10
11.2373580485
 20
8.1784310129
 30
0.0
 10
11.1994119304
 20
8.1887060685
 30
0.0
 10
11.161001959
 20
8.1961809683
 30
0.0
 10
11.1223390872
 20
8.2008142318
 30
0.0
 10
11.0836357413
 20
8.2025799295
 30
0.0
 10
11.0451046728
 20
8.2014678428
 30
0.0
 10
11.0069577942
 20
8.1974836228
 30
0.0
 10
10.9694050166
 20
8.1906487
 30
0.0
 10
10.9326530971
 20
8.1810001972
 30
0.0
 10
10.8969045229
 20
8.1685907579
 30
0.0
 10
10.8623562896
 20
8.1534882921
 30
0.0
 10
10.8291990545
 20
8.135775841
 30
0.0
 10
10.7976151074
 20
8.1155501742
 30
0.0
 10
10.7677809483
 20
8.092924721
 30
0.0
 10
10.7491596765
 20
8.0763167378
 30
0.0
 10
10.7402012712
 20
8.0676635524
 30
0.0
  0
SPLINE
  5
3C8
100
AcDbEntity
  8
0
100
AcDbSpline
 62
7
  6
CONTINUOUS
 70
0
 71
3
 72
9
 73
5
 74
0
 42
0.0000001
 43
0.0000001
 44
0.0000000001
 40
0.0
 40
0.0
 40
0.0
 40
0.0
 40
0.505346052
 40
1.0
 40
1.0
 40
1.0
 40
1.0
 10
8.9462430637
 20
10.3729797143
 30
0.0
 10
8.9441553501
 20
10.3738330415
 30
0.0
 10
8.9399388284
 20
10.3753215667
 30
0.0
 10
8.9355892761
 20
10.3763632825
 30
0.0
 10
8.9334176501
 20
10.3767605026
 30
0.0
  0
SPLINE
  5
3C9
100
AcDbEntity
  8
0
100
AcDbSpline
 62
7
  6
CONTINUOUS
 70
0
 71
3
 72
9
 73
5
 74
0
 42
0.0000001
 43
0.0000001
 44
0.0000000001
 40
0.0
 40
0.0
 40
0.0
 40
0.0
 40
0.505346052
 40
1.0
 40
1.0
 40
1.0
 40
1.0
 10
8.3965118468
 20
9.8419801029
 30
0.0
 10
8.3944241332
 20
9.8428334302
 30
0.0
 10
8.3902076115
 20
9.8443219554
 30
0.0
 10
8.3858580592
 20
9.8453636712
 30
0.0
 10
8.3836864333
 20
9.8457608913
 30
0.0
  0
SPLINE
  5
3CA
100
AcDbEntity
  8
0
100
AcDbSpline
 62
7
  6
CONTINUOUS
 70
0
 71
3
 72
15
 73
11
 74
0
 42
0.0000001
 43
0.0000001
 44
0.0000000001
 40
0.0
 40
0.0
 40
0.0
 40
0.0
 40
0.1098906373
 40
0.2214016819
 40
0.3360757822
 40
0.4553202911
 40
0.5803741285
 40
0.7122942594
 40
0.8519453747
 40
1.0
 40
1.0
 40
1.0
 40
1.0
 10
13.3834729171
 20
10.3066936765
 30
0.0
 10
13.3834729175
 20
10.30611951
 30
0.0
 10
13.3833992058
 20
10.3049614089
 30
0.0
 10
13.3830685576
 20
10.3032325799
 30
0.0
 10
13.382518845
 20
10.3015091882
 30
0.0
 10
13.3817515349
 20
10.2997938207
 30
0.0
 10
13.3807683098
 20
10.2980881197
 30
0.0
 10
13.3795708076
 20
10.2963935765
 30
0.0
 10
13.3781608513
 20
10.2947117861
 30
0.0
 10
13.3771122784
 20
10.293632712
 30
0.0
 10
13.3765558853
 20
10.2930952774
 30
0.0
  0
SPLINE
  5
3CB
100
AcDbEntity
  8
0
100
AcDbSpline
 62
7
  6
CONTINUOUS
 70
0
 71
3
 72
15
 73
11
 74
0
 42
0.0000001
 43
0.0000001
 44
0.0000000001
 40
0.0
 40
0.0
 40
0.0
 40
0.0
 40
0.1098906373
 40
0.2214016819
 40
0.3360757822
 40
0.4553202911
 40
0.5803741285
 40
0.7122942594
 40
0.8519453747
 40
1.0
 40
1.0
 40
1.0
 40
1.0
 10
12.2834928832
 20
9.2441944904
 30
0.0
 10
12.2834928836
 20
9.2436203239
 30
0.0
 10
12.2834191719
 20
9.2424622228
 30
0.0
 10
12.2830885237
 20
9.2407333938
 30
0.0
 10
12.2825388111
 20
9.2390100021
 30
0.0
 10
12.281771501
 20
9.2372946346
 30
0.0
 10
12.2807882759
 20
9.2355889336
 30
0.0
 10
12.2795907737
 20
9.2338943904
 30
0.0
 10
12.2781808175
 20
9.2322126
 30
0.0
 10
12.2771322445
 20
9.2311335259
 30
0.0
 10
12.2765758514
 20
9.2305960913
 30
0.0
  0
SPLINE
  5
3CC
100
AcDbEntity
  8
0
100
AcDbSpline
 62
7
  6
CONTINUOUS
 70
0
 71
3
 72
55
 73
51
 74
0
 42
0.0000001
 43
0.0000001
 44
0.0000000001
 40
0.0
 40
0.0
 40
0.0
 40
0.0
 40
0.0077405257
 40
0.0160544501
 40
0.0249606726
 40
0.0344721687
 40
0.044595521
 40
0.0553324833
 40
0.0666807747
 40
0.0786348526
 40
0.0911862043
 40
0.1043237792
 40
0.1180344224
 40
0.1323028749
 40
0.1471122616
 40
0.162444009
 40
0.1782781527
 40
0.1945934236
 40
0.2285751811
 40
0.2641976254
 40
0.3012529971
 40
0.3395210523
 40
0.3787713176
 40
0.4187652369
 40
0.4592582441
 40
0.5000017836
 40
0.5407453086
 40
0.5812382691
 40
0.6212321052
 40
0.6604822534
 40
0.6987501673
 40
0.7358053802
 40
0.7714276421
 40
0.8054091819
 40
0.8217243075
 40
0.837558339
 40
0.8528899611
 40
0.8676991902
 40
0.8819675391
 40
0.8956779981
 40
0.9088154605
 40
0.9213666419
 40
0.9333205641
 40
0.9446687312
 40
0.9554054953
 40
0.9655287052
 40
0.975040063
 40
0.98394624
 40
0.9922596592
 40
1.0
 40
1.0
 40
1.0
 40
1.0
 10
12.7520332977
 20
10.0508653495
 30
0.0
 10
12.7509800898
 20
10.049885295
 30
0.0
 10
12.7487128234
 20
10.0479405228
 30
0.0
 10
12.7449934981
 20
10.0451629375
 30
0.0
 10
12.7408430582
 20
10.0424272532
 30
0.0
 10
12.7362683472
 20
10.0397378282
 30
0.0
 10
12.731276442
 20
10.0370986219
 30
0.0
 10
12.7258752711
 20
10.034513959
 30
0.0
 10
12.7200735325
 20
10.031987931
 30
0.0
 10
12.7138805812
 20
10.0295246936
 30
0.0
 10
12.7073064682
 20
10.0271282861
 30
0.0
 10
12.7003619104
 20
10.02480263
 30
0.0
 10
12.6930582459
 20
10.0225516211
 30
0.0
 10
12.6854074419
 20
10.0203789216
 30
0.0
 10
12.6774220381
 20
10.0182881844
 30
0.0
 10
12.6691151525
 20
10.0162828463
 30
0.0
 10
12.660500422
 20
10.0143662079
 30
0.0
 10
12.6484587052
 20
10.0118998041
 30
0.0
 10
12.6327388586
 20
10.0090739974
 30
0.0
 10
12.6131328862
 20
10.0061267482
 30
0.0
 10
12.5926656405
 20
10.0035987568
 30
0.0
 10
12.5714718146
 20
10.0015069192
 30
0.0
 10
12.5496907573
 20
9.9998652571
 30
0.0
 10
12.5274658222
 20
9.9986847465
 30
0.0
 10
12.5049433122
 20
9.9979732807
 30
0.0
 10
12.4822715216
 20
9.9977356143
 30
0.0
 10
12.4595997403
 20
9.9979733366
 30
0.0
 10
12.437077259
 20
9.998684862
 30
0.0
 10
12.4148523732
 20
9.999865436
 30
0.0
 10
12.3930713843
 20
10.0015071606
 30
0.0
 10
12.371877642
 20
10.0035990554
 30
0.0
 10
12.3514104926
 20
10.0061270963
 30
0.0
 10
12.331804633
 20
10.0090743961
 30
0.0
 10
12.3160848948
 20
10.0119002344
 30
0.0
 10
12.3040432789
 20
10.0143666908
 30
0.0
 10
12.2954286244
 20
10.0162833424
 30
0.0
 10
12.2871218184
 20
10.0182886987
 30
0.0
 10
12.2791364995
 20
10.0203794759
 30
0.0
 10
12.2714857787
 20
10.0225521656
 30
0.0
 10
12.2641822086
 20
10.0248032281
 30
0.0
 10
12.2572377389
 20
10.0271288738
 30
0.0
 10
12.2506637243
 20
10.0295253142
 30
0.0
 10
12.244470871
 20
10.0319885702
 30
0.0
 10
12.2386692267
 20
10.0345145941
 30
0.0
 10
12.2332681763
 20
10.0370993071
 30
0.0
 10
12.2282763516
 20
10.039738476
 30
0.0
 10
12.2237017503
 20
10.0424279695
 30
0.0
 10
12.2195514532
 20
10.0451636359
 30
0.0
 10
12.2158322608
 20
10.0479411704
 30
0.0
 10
12.2135651269
 20
10.0498859023
 30
0.0
 10
12.2125119737
 20
10.0508659651
 30
0.0
  0
SPLINE
  5
3CD
100
AcDbEntity
  8
0
100
AcDbSpline
 62
7
  6
CONTINUOUS
 70
0
 71
3
 72
55
 73
51
 74
0
 42
0.0000001
 43
0.0000001
 44
0.0000000001
 40
0.0
 40
0.0
 40
0.0
 40
0.0
 40
0.0077405257
 40
0.0160544501
 40
0.0249606726
 40
0.0344721687
 40
0.044595521
 40
0.0553324833
 40
0.0666807747
 40
0.0786348526
 40
0.0911862043
 40
0.1043237792
 40
0.1180344224
 40
0.1323028749
 40
0.1471122616
 40
0.162444009
 40
0.1782781527
 40
0.1945934236
 40
0.2285751811
 40
0.2641976254
 40
0.3012529971
 40
0.3395210523
 40
0.3787713176
 40
0.4187652369
 40
0.4592582441
 40
0.5000017836
 40
0.5407453086
 40
0.5812382691
 40
0.6212321052
 40
0.6604822534
 40
0.6987501673
 40
0.7358053802
 40
0.7714276421
 40
0.8054091819
 40
0.8217243075
 40
0.837558339
 40
0.8528899611
 40
0.8676991902
 40
0.8819675391
 40
0.8956779981
 40
0.9088154605
 40
0.9213666419
 40
0.9333205641
 40
0.9446687312
 40
0.9554054953
 40
0.9655287052
 40
0.975040063
 40
0.98394624
 40
0.9922596592
 40
1.0
 40
1.0
 40
1.0
 40
1.0
 10
9.787487372
 20
9.687333707
 30
0.0
 10
9.7864341642
 20
9.6863536525
 30
0.0
 10
9.7841668978
 20
9.6844088803
 30
0.0
 10
9.7804475724
 20
9.681631295
 30
0.0
 10
9.7762971325
 20
9.6788956107
 30
0.0
 10
9.7717224216
 20
9.6762061857
 30
0.0
 10
9.7667305163
 20
9.6735669794
 30
0.0
 10
9.7613293454
 20
9.6709823165
 30
0.0
 10
9.7555276068
 20
9.6684562885
 30
0.0
 10
9.7493346555
 20
9.6659930511
 30
0.0
 10
9.7427605425
 20
9.6635966436
 30
0.0
 10
9.7358159847
 20
9.6612709875
 30
0.0
 10
9.7285123202
 20
9.6590199786
 30
0.0
 10
9.7208615163
 20
9.6568472791
 30
0.0
 10
9.7128761124
 20
9.6547565419
 30
0.0
 10
9.7045692268
 20
9.6527512038
 30
0.0
 10
9.6959544963
 20
9.6508345654
 30
0.0
 10
9.6839127795
 20
9.6483681616
 30
0.0
 10
9.668192933
 20
9.6455423549
 30
0.0
 10
9.6485869606
 20
9.6425951057
 30
0.0
 10
9.6281197148
 20
9.6400671143
 30
0.0
 10
9.6069258889
 20
9.6379752767
 30
0.0
 10
9.5851448316
 20
9.6363336146
 30
0.0
 10
9.5629198965
 20
9.635153104
 30
0.0
 10
9.5403973865
 20
9.6344416382
 30
0.0
 10
9.5177255959
 20
9.6342039718
 30
0.0
 10
9.4950538146
 20
9.6344416941
 30
0.0
 10
9.4725313333
 20
9.6351532195
 30
0.0
 10
9.4503064475
 20
9.6363337935
 30
0.0
 10
9.4285254586
 20
9.637975518
 30
0.0
 10
9.4073317163
 20
9.6400674129
 30
0.0
 10
9.3868645669
 20
9.6425954538
 30
0.0
 10
9.3672587073
 20
9.6455427536
 30
0.0
 10
9.3515389691
 20
9.6483685919
 30
0.0
 10
9.3394973532
 20
9.6508350483
 30
0.0
 10
9.3308826987
 20
9.6527516999
 30
0.0
 10
9.3225758927
 20
9.6547570562
 30
0.0
 10
9.3145905739
 20
9.6568478333
 30
0.0
 10
9.306939853
 20
9.6590205231
 30
0.0
 10
9.2996362829
 20
9.6612715856
 30
0.0
 10
9.2926918133
 20
9.6635972313
 30
0.0
 10
9.2861177986
 20
9.6659936717
 30
0.0
 10
9.2799249453
 20
9.6684569277
 30
0.0
 10
9.2741233011
 20
9.6709829516
 30
0.0
 10
9.2687222506
 20
9.6735676646
 30
0.0
 10
9.2637304259
 20
9.6762068335
 30
0.0
 10
9.2591558246
 20
9.678896327
 30
0.0
 10
9.2550055275
 20
9.6816319934
 30
0.0
 10
9.2512863351
 20
9.6844095279
 30
0.0
 10
9.2490192012
 20
9.6863542598
 30
0.0
 10
9.247966048
 20
9.6873343226
 30
0.0
  0
SPLINE
  5
3CE
100
AcDbEntity
  8
0
100
AcDbSpline
 62
7
  6
CONTINUOUS
 70
0
 71
3
 72
38
 73
34
 74
0
 42
0.0000001
 43
0.0000001
 44
0.0000000001
 40
0.0
 40
0.0
 40
0.0
 40
0.0
 40
0.0167122471
 40
0.0335855745
 40
0.0507761455
 40
0.0684309059
 40
0.0866844604
 40
0.105657188
 40
0.1254546301
 40
0.146167691
 40
0.1678736093
 40
0.1906370671
 40
0.2145116713
 40
0.2395411303
 40
0.2657606801
 40
0.2931979919
 40
0.3218743746
 40
0.3518053594
 40
0.3830016855
 40
0.4154696086
 40
0.4492117228
 40
0.4842270577
 40
0.5205117905
 40
0.5580591875
 40
0.5968602448
 40
0.636903519
 40
0.6781757225
 40
0.720661474
 40
0.7643438661
 40
0.8092041593
 40
0.8552223293
 40
0.9023767239
 40
1.0
 40
1.0
 40
1.0
 40
1.0
 10
13.6230219801
 20
7.9087485609
 30
0.0
 10
13.6209811421
 20
7.9088900847
 30
0.0
 10
13.616891332
 20
7.9093845468
 30
0.0
 10
13.6108181709
 20
7.9107525472
 30
0.0
 10
13.604798994
 20
7.9127462511
 30
0.0
 10
13.5988393489
 20
7.9153628836
 30
0.0
 10
13.592943095
 20
7.9185993257
 30
0.0
 10
13.5871138575
 20
7.9224521955
 30
0.0
 10
13.5813548741
 20
7.9269180675
 30
0.0
 10
13.57566919
 20
7.9319933873
 30
0.0
 10
13.5700598407
 20
7.9376745347
 30
0.0
 10
13.5645298131
 20
7.9439576501
 30
0.0
 10
13.5590822077
 20
7.9508386811
 30
0.0
 10
13.5537200904
 20
7.958313222
 30
0.0
 10
13.5484466519
 20
7.9663765832
 30
0.0
 10
13.5432650083
 20
7.9750236652
 30
0.0
 10
13.5381783811
 20
7.9842490416
 30
0.0
 10
13.5331898739
 20
7.9940468626
 30
0.0
 10
13.528302676
 20
8.0044109367
 30
0.0
 10
13.5235198255
 20
8.0153346562
 30
0.0
 10
13.5188444328
 20
8.0268110702
 30
0.0
 10
13.5142794336
 20
8.0388328276
 30
0.0
 10
13.5098278276
 20
8.0513922379
 30
0.0
 10
13.5054924237
 20
8.0644812289
 30
0.0
 10
13.5012760892
 20
8.0780913955
 30
0.0
 10
13.4971814898
 20
8.0922139702
 30
0.0
 10
13.4932113453
 20
8.1068398601
 30
0.0
 10
13.4893681666
 20
8.1219596288
 30
0.0
 10
13.4856545125
 20
8.1375635259
 30
0.0
 10
13.4820727379
 20
8.153641464
 30
0.0
 10
13.4786252017
 20
8.1701831011
 30
0.0
 10
13.4741588463
 20
8.19310778
 30
0.0
 10
13.4710980771
 20
8.2105659163
 30
0.0
 10
13.4691653414
 20
8.2223586093
 30
0.0
  0
SPLINE
  5
3CF
100
AcDbEntity
  8
0
100
AcDbSpline
 62
7
  6
CONTINUOUS
 70
0
 71
3
 72
39
 73
35
 74
0
 42
0.0000001
 43
0.0000001
 44
0.0000000001
 40
0.0
 40
0.0
 40
0.0
 40
0.0
 40
0.0260570695
 40
0.0530792935
 40
0.0810159717
 40
0.1098134358
 40
0.1394153286
 40
0.1697628578
 40
0.2007950335
 40
0.2324488914
 40
0.2646597073
 40
0.2973612041
 40
0.3304857537
 40
0.3639645749
 40
0.3977279293
 40
0.4317053139
 40
0.4658256538
 40
0.5000174937
 40
0.5342091883
 40
0.5683290928
 40
0.6023057535
 40
0.6360680979
 40
0.6695456264
 40
0.7026686038
 40
0.7353682531
 40
0.7675769507
 40
0.7992284248
 40
0.8302579568
 40
0.86060259
 40
0.8902013429
 40
0.9189954335
 40
0.9469285155
 40
0.9739469333
 40
1.0
 40
1.0
 40
1.0
 40
1.0
 10
13.4691653414
 20
8.2223586093
 30
0.0
 10
13.4672942557
 20
8.2337751413
 30
0.0
 10
13.4637330804
 20
8.2570726817
 30
0.0
 10
13.4589947471
 20
8.2927307955
 30
0.0
 10
13.4547701511
 20
8.3296782699
 30
0.0
 10
13.4510688893
 20
8.3678324836
 30
0.0
 10
13.4478993354
 20
8.4071083657
 30
0.0
 10
13.4452686724
 20
8.4474182318
 30
0.0
 10
13.4431828633
 20
8.488672088
 30
0.0
 10
13.4416466431
 20
8.5307778074
 30
0.0
 10
13.4406635083
 20
8.5736413478
 30
0.0
 10
13.4402357095
 20
8.6171669626
 30
0.0
 10
13.4403642482
 20
8.6612574172
 30
0.0
 10
13.4410488744
 20
8.7058142079
 30
0.0
 10
13.4422880882
 20
8.7507377838
 30
0.0
 10
13.4440791435
 20
8.7959277706
 30
0.0
 10
13.4464180536
 20
8.8412831957
 30
0.0
 10
13.4492996012
 20
8.8867027156
 30
0.0
 10
13.4527173505
 20
8.9320848431
 30
0.0
 10
13.4566636614
 20
8.9773281753
 30
0.0
 10
13.461129707
 20
9.0223316209
 30
0.0
 10
13.4661054928
 20
9.066994627
 30
0.0
 10
13.4715798792
 20
9.1112174049
 30
0.0
 10
13.4775406062
 20
9.1549011543
 30
0.0
 10
13.4839743201
 20
9.1979482849
 30
0.0
 10
13.4908666036
 20
9.2402626368
 30
0.0
 10
13.4982020069
 20
9.2817496965
 30
0.0
 10
13.5059640825
 20
9.3223168119
 30
0.0
 10
13.5141354196
 20
9.3618734
 30
0.0
 10
13.5226976854
 20
9.4003311615
 30
0.0
 10
13.5316316586
 20
9.4376042542
 30
0.0
 10
13.5409172978
 20
9.4736095902
 30
0.0
 10
13.5505336949
 20
9.5082666757
 30
0.0
 10
13.5572775478
 20
9.5308457465
 30
0.0
 10
13.5607070449
 20
9.5418927188
 30
0.0
  0
SPLINE
  5
3D0
100
AcDbEntity
  8
0
100
AcDbSpline
 62
7
  6
CONTINUOUS
 70
0
 71
3
 72
23
 73
19
 74
0
 42
0.0000001
 43
0.0000001
 44
0.0000000001
 40
0.0
 40
0.0
 40
0.0
 40
0.0
 40
0.0826663073
 40
0.1628688989
 40
0.2405374849
 40
0.3156069706
 40
0.3880177248
 40
0.4577164557
 40
0.5246566636
 40
0.5887992338
 40
0.6501137179
 40
0.7085791767
 40
0.7641854677
 40
0.8169354125
 40
0.8668461698
 40
0.913952354
 40
0.958311217
 40
1.0
 40
1.0
 40
1.0
 40
1.0
 10
13.5607070449
 20
9.5418927188
 30
0.0
 10
13.5630891836
 20
9.549565978
 30
0.0
 10
13.567895761
 20
9.5646489661
 30
0.0
 10
13.5753524345
 20
9.5868073516
 30
0.0
 10
13.5829405025
 20
9.6081391443
 30
0.0
 10
13.5906511523
 20
9.6286197657
 30
0.0
 10
13.5984755083
 20
9.6482257046
 30
0.0
 10
13.6064045136
 20
9.6669344784
 30
0.0
 10
13.6144290022
 20
9.6847246742
 30
0.0
 10
13.622539769
 20
9.7015759489
 30
0.0
 10
13.630727475
 20
9.7174691056
 30
0.0
 10
13.6389827364
 20
9.7323861026
 30
0.0
 10
13.647296203
 20
9.7463100522
 30
0.0
 10
13.655658496
 20
9.7592252974
 30
0.0
 10
13.6640602173
 20
9.7711173541
 30
0.0
 10
13.6724924592
 20
9.7819732588
 30
0.0
 10
13.6809456375
 20
9.7917802714
 30
0.0
 10
13.6867660245
 20
9.7977945535
 30
0.0
 10
13.6896803172
 20
9.8006095443
 30
0.0
  0
SPLINE
  5
3D1
100
AcDbEntity
  8
0
100
AcDbSpline
 62
7
  6
CONTINUOUS
 70
0
 71
3
 72
79
 73
75
 74
0
 42
0.0000001
 43
0.0000001
 44
0.0000000001
 40
0.0
 40
0.0
 40
0.0
 40
0.0
 40
0.0027966379
 40
0.005668168
 40
0.0086296961
 40
0.0116948219
 40
0.0181798611
 40
0.021622456
 40
0.0252084811
 40
0.0289446934
 40
0.032836775
 40
0.0368895163
 40
0.0411068217
 40
0.0454918871
 40
0.0500472582
 40
0.054774859
 40
0.0596761513
 40
0.0647520862
 40
0.0700032173
 40
0.075429748
 40
0.0810314923
 40
0.0927580784
 40
0.105176616
 40
0.1182763859
 40
0.1320434317
 40
0.1464609719
 40
0.1615097204
 40
0.1771681766
 40
0.1934128536
 40
0.2102184651
 40
0.2275580744
 40
0.2454032433
 40
0.263724175
 40
0.2824898325
 40
0.3016680432
 40
0.321225595
 40
0.3411283494
 40
0.36134134
 40
0.3818288643
 40
0.4234808514
 40
0.4657880735
 40
0.5084475313
 40
0.5511529964
 40
0.5935978253
 40
0.6354777522
 40
0.6561124935
 40
0.6764944266
 40
0.6965874473
 40
0.7163561375
 40
0.7357658522
 40
0.7547828119
 40
0.7733742056
 40
0.7915083035
 40
0.8091545527
 40
0.8262836872
 40
0.8428678503
 40
0.8588807471
 40
0.8742977924
 40
0.8890962719
 40
0.9032555427
 40
0.9167572812
 40
0.929585794
 40
0.941728368
 40
0.9531757216
 40
0.9586371635
 40
0.9639232462
 40
0.9690340583
 40
0.9739700796
 40
0.9787321761
 40
0.9833216622
 40
0.9877404875
 40
0.991991119
 40
0.9960764711
 40
1.0
 40
1.0
 40
1.0
 40
1.0
 10
13.5983799206
 20
8.1762715947
 30
0.0
 10
13.5971195326
 20
8.1767172053
 30
0.0
 10
13.5946013335
 20
8.1777264744
 30
0.0
 10
13.5909001749
 20
8.1795564463
 30
0.0
 10
13.5872329663
 20
8.1817188054
 30
0.0
 10
13.5822993163
 20
8.1851062462
 30
0.0
 10
13.5775334413
 20
8.1891161442
 30
0.0
 10
13.5729397052
 20
8.193660067
 30
0.0
 10
13.569467255
 20
8.1974607118
 30
0.0
 10
13.566038491
 20
8.2015836054
 30
0.0
 10
13.5626544962
 20
8.2060270936
 30
0.0
 10
13.559316942
 20
8.2107890378
 30
0.0
 10
13.5560272238
 20
8.2158671845
 30
0.0
 10
13.5527868687
 20
8.2212591616
 30
0.0
 10
13.5495973912
 20
8.22696245
 30
0.0
 10
13.5464602037
 20
8.2329743393
 30
0.0
 10
13.5433768473
 20
8.239292027
 30
0.0
 10
13.5403487206
 20
8.24591251
 30
0.0
 10
13.5373772644
 20
8.2528326563
 30
0.0
 10
13.5344638978
 20
8.2600492098
 30
0.0
 10
13.5305996245
 20
8.2702175557
 30
0.0
 10
13.5259385851
 20
8.2836551499
 30
0.0
 10
13.5206803229
 20
8.3006677202
 30
0.0
 10
13.5156851314
 20
8.3187730361
 30
0.0
 10
13.510962626
 20
8.3379366266
 30
0.0
 10
13.5065219388
 20
8.358122209
 30
0.0
 10
13.5023716495
 20
8.3792913628
 30
0.0
 10
13.498519793
 20
8.4014037519
 30
0.0
 10
13.4949738316
 20
8.4244171885
 30
0.0
 10
13.491740644
 20
8.4482877278
 30
0.0
 10
13.4888264934
 20
8.4729697479
 30
0.0
 10
13.4862370186
 20
8.4984160461
 30
0.0
 10
13.4839772371
 20
8.5245779425
 30
0.0
 10
13.4820515317
 20
8.5514053788
 30
0.0
 10
13.4804636447
 20
8.5788470075
 30
0.0
 10
13.4792166472
 20
8.6068502946
 30
0.0
 10
13.4783129677
 20
8.6353616079
 30
0.0
 10
13.4777543342
 20
8.6643263974
 30
0.0
 10
13.4774696322
 20
8.7036920942
 30
0.0
 10
13.4779922182
 20
8.7536215787
 30
0.0
 10
13.4799905392
 20
8.8141193779
 30
0.0
 10
13.4833488469
 20
8.8750613503
 30
0.0
 10
13.4880414215
 20
8.9359810816
 30
0.0
 10
13.4940324052
 20
8.9964123242
 30
0.0
 10
13.5000977447
 20
9.0462216347
 30
0.0
 10
13.5055737206
 20
9.0854682475
 30
0.0
 10
13.5099535776
 20
9.1143502791
 30
0.0
 10
13.5146178946
 20
9.1427682859
 30
0.0
 10
13.5195577448
 20
9.1706678949
 30
0.0
 10
13.5247636275
 20
9.1979956783
 30
0.0
 10
13.530225545
 20
9.2246993183
 30
0.0
 10
13.535933003
 20
9.2507276998
 30
0.0
 10
13.5418750197
 20
9.276031019
 30
0.0
 10
13.5480401664
 20
9.3005608739
 30
0.0
 10
13.5544165839
 20
9.3242703526
 30
0.0
 10
13.5609920125
 20
9.347114131
 30
0.0
 10
13.5677537967
 20
9.3690485752
 30
0.0
 10
13.5746889188
 20
9.3900318317
 30
0.0
 10
13.5817840352
 20
9.4100239008
 30
0.0
 10
13.5890255053
 20
9.4289867318
 30
0.0
 10
13.5963994236
 20
9.4468842814
 30
0.0
 10
13.6038916513
 20
9.4636827446
 30
0.0
 10
13.6114878373
 20
9.4793501799
 30
0.0
 10
13.6179905875
 20
9.4916249178
 30
0.0
 10
13.6232439559
 20
9.5008433307
 30
0.0
 10
13.627139041
 20
9.5073474088
 30
0.0
 10
13.6310492632
 20
9.5135474456
 30
0.0
 10
13.6349727712
 20
9.5194405146
 30
0.0
 10
13.6389076712
 20
9.5250238335
 30
0.0
 10
13.6428521988
 20
9.5302947575
 30
0.0
 10
13.6468045
 20
9.5352508857
 30
0.0
 10
13.6507628471
 20
9.5398898756
 30
0.0
 10
13.6547251621
 20
9.5442093271
 30
0.0
 10
13.657421715
 20
9.5469286559
 30
0.0
 10
13.6587706882
 20
9.5482316641
 30
0.0
  0
SPLINE
  5
3D2
100
AcDbEntity
  8
0
100
AcDbSpline
 62
7
  6
CONTINUOUS
 70
0
 71
3
 72
15
 73
11
 74
0
 42
0.0000001
 43
0.0000001
 44
0.0000000001
 40
0.0
 40
0.0
 40
0.0
 40
0.0
 40
0.10844093
 40
0.2203198905
 40
0.3363916014
 40
0.4573220686
 40
0.5836913784
 40
0.7159978661
 40
0.8546571412
 40
1.0
 40
1.0
 40
1.0
 40
1.0
 10
13.6950055166
 20
9.5695706963
 30
0.0
 10
13.693496626
 20
9.5692626995
 30
0.0
 10
13.6904592287
 20
9.568490394
 30
0.0
 10
13.6859471288
 20
9.5669042853
 30
0.0
 10
13.6814203971
 20
9.5648770685
 30
0.0
 10
13.6768822428
 20
9.5624108708
 30
0.0
 10
13.6723349912
 20
9.5595077262
 30
0.0
 10
13.667781057
 20
9.5561697961
 30
0.0
 10
13.6632232191
 20
9.5523996007
 30
0.0
 10
13.660255273
 20
9.5496656629
 30
0.0
 10
13.6587706882
 20
9.5482316641
 30
0.0
  0
SPLINE
  5
3D3
100
AcDbEntity
  8
0
100
AcDbSpline
 62
7
  6
CONTINUOUS
 70
0
 71
3
 72
38
 73
34
 74
0
 42
0.0000001
 43
0.0000001
 44
0.0000000001
 40
0.0
 40
0.0
 40
0.0
 40
0.0
 40
0.0167122471
 40
0.0335855745
 40
0.0507761455
 40
0.0684309059
 40
0.0866844604
 40
0.105657188
 40
0.1254546301
 40
0.146167691
 40
0.1678736093
 40
0.1906370671
 40
0.2145116713
 40
0.2395411303
 40
0.2657606801
 40
0.2931979919
 40
0.3218743746
 40
0.3518053594
 40
0.3830016855
 40
0.4154696086
 40
0.4492117228
 40
0.4842270577
 40
0.5205117905
 40
0.5580591875
 40
0.5968602448
 40
0.636903519
 40
0.6781757225
 40
0.720661474
 40
0.7643438661
 40
0.8092041593
 40
0.8552223293
 40
0.9023767239
 40
1.0
 40
1.0
 40
1.0
 40
1.0
 10
13.0732907632
 20
7.3777489495
 30
0.0
 10
13.0712499252
 20
7.3778904733
 30
0.0
 10
13.0671601151
 20
7.3783849354
 30
0.0
 10
13.061086954
 20
7.3797529358
 30
0.0
 10
13.0550677772
 20
7.3817466398
 30
0.0
 10
13.049108132
 20
7.3843632722
 30
0.0
 10
13.0432118782
 20
7.3875997143
 30
0.0
 10
13.0373826406
 20
7.3914525842
 30
0.0
 10
13.0316236572
 20
7.3959184562
 30
0.0
 10
13.0259379732
 20
7.4009937759
 30
0.0
 10
13.0203286238
 20
7.4066749233
 30
0.0
 10
13.0147985962
 20
7.4129580387
 30
0.0
 10
13.0093509908
 20
7.4198390697
 30
0.0
 10
13.0039888736
 20
7.4273136107
 30
0.0
 10
12.998715435
 20
7.4353769718
 30
0.0
 10
12.9935337914
 20
7.4440240538
 30
0.0
 10
12.9884471642
 20
7.4532494302
 30
0.0
 10
12.983458657
 20
7.4630472513
 30
0.0
 10
12.9785714591
 20
7.4734113253
 30
0.0
 10
12.9737886086
 20
7.4843350448
 30
0.0
 10
12.9691132159
 20
7.4958114588
 30
0.0
 10
12.9645482168
 20
7.5078332163
 30
0.0
 10
12.9600966107
 20
7.5203926265
 30
0.0
 10
12.9557612068
 20
7.5334816176
 30
0.0
 10
12.9515448723
 20
7.5470917841
 30
0.0
 10
12.9474502729
 20
7.5612143588
 30
0.0
 10
12.9434801284
 20
7.5758402487
 30
0.0
 10
12.9396369497
 20
7.5909600174
 30
0.0
 10
12.9359232956
 20
7.6065639146
 30
0.0
 10
12.932341521
 20
7.6226418526
 30
0.0
 10
12.9288939848
 20
7.6391834897
 30
0.0
 10
12.9244276294
 20
7.6621081686
 30
0.0
 10
12.9213668602
 20
7.679566305
 30
0.0
 10
12.9194341245
 20
7.691358998
 30
0.0
  0
SPLINE
  5
3D4
100
AcDbEntity
  8
0
100
AcDbSpline
 62
7
  6
CONTINUOUS
 70
0
 71
3
 72
39
 73
35
 74
0
 42
0.0000001
 43
0.0000001
 44
0.0000000001
 40
0.0
 40
0.0
 40
0.0
 40
0.0
 40
0.0260570695
 40
0.0530792935
 40
0.0810159717
 40
0.1098134358
 40
0.1394153286
 40
0.1697628578
 40
0.2007950335
 40
0.2324488914
 40
0.2646597073
 40
0.2973612041
 40
0.3304857537
 40
0.3639645749
 40
0.3977279293
 40
0.4317053139
 40
0.4658256538
 40
0.5000174937
 40
0.5342091883
 40
0.5683290928
 40
0.6023057535
 40
0.6360680979
 40
0.6695456264
 40
0.7026686038
 40
0.7353682531
 40
0.7675769507
 40
0.7992284248
 40
0.8302579568
 40
0.86060259
 40
0.8902013429
 40
0.9189954335
 40
0.9469285155
 40
0.9739469333
 40
1.0
 40
1.0
 40
1.0
 40
1.0
 10
12.9194341245
 20
7.691358998
 30
0.0
 10
12.9175630389
 20
7.7027755299
 30
0.0
 10
12.9140018636
 20
7.7260730703
 30
0.0
 10
12.9092635303
 20
7.7617311841
 30
0.0
 10
12.9050389342
 20
7.7986786586
 30
0.0
 10
12.9013376724
 20
7.8368328723
 30
0.0
 10
12.8981681185
 20
7.8761087543
 30
0.0
 10
12.8955374555
 20
7.9164186205
 30
0.0
 10
12.8934516464
 20
7.9576724766
 30
0.0
 10
12.8919154263
 20
7.999778196
 30
0.0
 10
12.8909322914
 20
8.0426417365
 30
0.0
 10
12.8905044926
 20
8.0861673513
 30
0.0
 10
12.8906330313
 20
8.1302578058
 30
0.0
 10
12.8913176575
 20
8.1748145965
 30
0.0
 10
12.8925568713
 20
8.2197381725
 30
0.0
 10
12.8943479266
 20
8.2649281592
 30
0.0
 10
12.8966868367
 20
8.3102835843
 30
0.0
 10
12.8995683843
 20
8.3557031042
 30
0.0
 10
12.9029861336
 20
8.4010852317
 30
0.0
 10
12.9069324445
 20
8.4463285639
 30
0.0
 10
12.9113984901
 20
8.4913320095
 30
0.0
 10
12.9163742759
 20
8.5359950156
 30
0.0
 10
12.9218486623
 20
8.5802177936
 30
0.0
 10
12.9278093893
 20
8.6239015429
 30
0.0
 10
12.9342431033
 20
8.6669486736
 30
0.0
 10
12.9411353868
 20
8.7092630254
 30
0.0
 10
12.9484707901
 20
8.7507500852
 30
0.0
 10
12.9562328656
 20
8.7913172005
 30
0.0
 10
12.9644042027
 20
8.8308737887
 30
0.0
 10
12.9729664685
 20
8.8693315501
 30
0.0
 10
12.9819004417
 20
8.9066046428
 30
0.0
 10
12.991186081
 20
8.9426099788
 30
0.0
 10
13.000802478
 20
8.9772670643
 30
0.0
 10
13.0075463309
 20
8.9998461352
 30
0.0
 10
13.010975828
 20
9.0108931075
 30
0.0
  0
SPLINE
  5
3D5
100
AcDbEntity
  8
0
100
AcDbSpline
 62
7
  6
CONTINUOUS
 70
0
 71
3
 72
23
 73
19
 74
0
 42
0.0000001
 43
0.0000001
 44
0.0000000001
 40
0.0
 40
0.0
 40
0.0
 40
0.0
 40
0.0826663073
 40
0.1628688989
 40
0.2405374849
 40
0.3156069706
 40
0.3880177248
 40
0.4577164557
 40
0.5246566636
 40
0.5887992338
 40
0.6501137179
 40
0.7085791767
 40
0.7641854677
 40
0.8169354125
 40
0.8668461698
 40
0.913952354
 40
0.958311217
 40
1.0
 40
1.0
 40
1.0
 40
1.0
 10
13.010975828
 20
9.0108931075
 30
0.0
 10
13.0133579667
 20
9.0185663667
 30
0.0
 10
13.0181645441
 20
9.0336493547
 30
0.0
 10
13.0256212176
 20
9.0558077402
 30
0.0
 10
13.0332092856
 20
9.077139533
 30
0.0
 10
13.0409199354
 20
9.0976201543
 30
0.0
 10
13.0487442914
 20
9.1172260932
 30
0.0
 10
13.0566732967
 20
9.135934867
 30
0.0
 10
13.0646977853
 20
9.1537250629
 30
0.0
 10
13.0728085522
 20
9.1705763375
 30
0.0
 10
13.0809962581
 20
9.1864694943
 30
0.0
 10
13.0892515195
 20
9.2013864912
 30
0.0
 10
13.0975649861
 20
9.2153104409
 30
0.0
 10
13.1059272791
 20
9.2282256861
 30
0.0
 10
13.1143290005
 20
9.2401177427
 30
0.0
 10
13.1227612423
 20
9.2509736475
 30
0.0
 10
13.1312144207
 20
9.26078066
 30
0.0
 10
13.1370348076
 20
9.2667949421
 30
0.0
 10
13.1399491004
 20
9.2696099329
 30
0.0
  0
SPLINE
  5
3D6
100
AcDbEntity
  8
0
100
AcDbSpline
 62
7
  6
CONTINUOUS
 70
0
 71
3
 72
79
 73
75
 74
0
 42
0.0000001
 43
0.0000001
 44
0.0000000001
 40
0.0
 40
0.0
 40
0.0
 40
0.0
 40
0.0027966379
 40
0.005668168
 40
0.0086296961
 40
0.0116948219
 40
0.0181798611
 40
0.021622456
 40
0.0252084811
 40
0.0289446934
 40
0.032836775
 40
0.0368895163
 40
0.0411068217
 40
0.0454918871
 40
0.0500472582
 40
0.054774859
 40
0.0596761513
 40
0.0647520862
 40
0.0700032173
 40
0.075429748
 40
0.0810314923
 40
0.0927580784
 40
0.105176616
 40
0.1182763859
 40
0.1320434317
 40
0.1464609719
 40
0.1615097204
 40
0.1771681766
 40
0.1934128536
 40
0.2102184651
 40
0.2275580744
 40
0.2454032433
 40
0.263724175
 40
0.2824898325
 40
0.3016680432
 40
0.321225595
 40
0.3411283494
 40
0.36134134
 40
0.3818288643
 40
0.4234808514
 40
0.4657880735
 40
0.5084475313
 40
0.5511529964
 40
0.5935978253
 40
0.6354777522
 40
0.6561124935
 40
0.6764944266
 40
0.6965874473
 40
0.7163561375
 40
0.7357658522
 40
0.7547828119
 40
0.7733742056
 40
0.7915083035
 40
0.8091545527
 40
0.8262836872
 40
0.8428678503
 40
0.8588807471
 40
0.8742977924
 40
0.8890962719
 40
0.9032555427
 40
0.9167572812
 40
0.929585794
 40
0.941728368
 40
0.9531757216
 40
0.9586371635
 40
0.9639232462
 40
0.9690340583
 40
0.9739700796
 40
0.9787321761
 40
0.9833216622
 40
0.9877404875
 40
0.991991119
 40
0.9960764711
 40
1.0
 40
1.0
 40
1.0
 40
1.0
 10
13.0486487037
 20
7.6452719833
 30
0.0
 10
13.0473883158
 20
7.6457175939
 30
0.0
 10
13.0448701166
 20
7.6467268631
 30
0.0
 10
13.0411689581
 20
7.6485568349
 30
0.0
 10
13.0375017495
 20
7.650719194
 30
0.0
 10
13.0325680994
 20
7.6541066348
 30
0.0
 10
13.0278022244
 20
7.6581165328
 30
0.0
 10
13.0232084883
 20
7.6626604556
 30
0.0
 10
13.0197360381
 20
7.6664611004
 30
0.0
 10
13.0163072741
 20
7.6705839941
 30
0.0
 10
13.0129232794
 20
7.6750274822
 30
0.0
 10
13.0095857251
 20
7.6797894264
 30
0.0
 10
13.0062960069
 20
7.6848675732
 30
0.0
 10
13.0030556518
 20
7.6902595502
 30
0.0
 10
12.9998661743
 20
7.6959628387
 30
0.0
 10
12.9967289869
 20
7.7019747279
 30
0.0
 10
12.9936456305
 20
7.7082924156
 30
0.0
 10
12.9906175037
 20
7.7149128987
 30
0.0
 10
12.9876460475
 20
7.7218330449
 30
0.0
 10
12.984732681
 20
7.7290495984
 30
0.0
 10
12.9808684076
 20
7.7392179443
 30
0.0
 10
12.9762073682
 20
7.7526555385
 30
0.0
 10
12.970949106
 20
7.7696681088
 30
0.0
 10
12.9659539145
 20
7.7877734247
 30
0.0
 10
12.9612314092
 20
7.8069370153
 30
0.0
 10
12.9567907219
 20
7.8271225976
 30
0.0
 10
12.9526404326
 20
7.8482917515
 30
0.0
 10
12.9487885761
 20
7.8704041406
 30
0.0
 10
12.9452426147
 20
7.8934175772
 30
0.0
 10
12.9420094271
 20
7.9172881164
 30
0.0
 10
12.9390952765
 20
7.9419701365
 30
0.0
 10
12.9365058017
 20
7.9674164347
 30
0.0
 10
12.9342460203
 20
7.9935783311
 30
0.0
 10
12.9323203148
 20
8.0204057675
 30
0.0
 10
12.9307324279
 20
8.0478473961
 30
0.0
 10
12.9294854303
 20
8.0758506833
 30
0.0
 10
12.9285817509
 20
8.1043619966
 30
0.0
 10
12.9280231173
 20
8.133326786
 30
0.0
 10
12.9277384153
 20
8.1726924829
 30
0.0
 10
12.9282610013
 20
8.2226219674
 30
0.0
 10
12.9302593223
 20
8.2831197666
 30
0.0
 10
12.93361763
 20
8.3440617389
 30
0.0
 10
12.9383102046
 20
8.4049814702
 30
0.0
 10
12.9443011883
 20
8.4654127128
 30
0.0
 10
12.9503665278
 20
8.5152220233
 30
0.0
 10
12.9558425037
 20
8.5544686362
 30
0.0
 10
12.9602223607
 20
8.5833506677
 30
0.0
 10
12.9648866777
 20
8.6117686745
 30
0.0
 10
12.969826528
 20
8.6396682836
 30
0.0
 10
12.9750324106
 20
8.6669960669
 30
0.0
 10
12.9804943281
 20
8.693699707
 30
0.0
 10
12.9862017862
 20
8.7197280885
 30
0.0
 10
12.9921438029
 20
8.7450314077
 30
0.0
 10
12.9983089495
 20
8.7695612625
 30
0.0
 10
13.004685367
 20
8.7932707413
 30
0.0
 10
13.0112607957
 20
8.8161145196
 30
0.0
 10
13.0180225798
 20
8.8380489639
 30
0.0
 10
13.0249577019
 20
8.8590322203
 30
0.0
 10
13.0320528183
 20
8.8790242895
 30
0.0
 10
13.0392942884
 20
8.8979871204
 30
0.0
 10
13.0466682068
 20
8.9158846701
 30
0.0
 10
13.0541604345
 20
8.9326831332
 30
0.0
 10
13.0617566204
 20
8.9483505685
 30
0.0
 10
13.0682593707
 20
8.9606253064
 30
0.0
 10
13.073512739
 20
8.9698437193
 30
0.0
 10
13.0774078242
 20
8.9763477975
 30
0.0
 10
13.0813180463
 20
8.9825478342
 30
0.0
 10
13.0852415543
 20
8.9884409033
 30
0.0
 10
13.0891764543
 20
8.9940242221
 30
0.0
 10
13.0931209819
 20
8.9992951461
 30
0.0
 10
13.0970732831
 20
9.0042512744
 30
0.0
 10
13.1010316303
 20
9.0088902642
 30
0.0
 10
13.1049939453
 20
9.0132097157
 30
0.0
 10
13.1076904981
 20
9.0159290445
 30
0.0
 10
13.1090394714
 20
9.0172320527
 30
0.0
  0
SPLINE
  5
3D7
100
AcDbEntity
  8
0
100
AcDbSpline
 62
7
  6
CONTINUOUS
 70
0
 71
3
 72
15
 73
11
 74
0
 42
0.0000001
 43
0.0000001
 44
0.0000000001
 40
0.0
 40
0.0
 40
0.0
 40
0.0
 40
0.0836370061
 40
0.1755291364
 40
0.2775893666
 40
0.3919536032
 40
0.5207813835
 40
0.6656820662
 40
0.8265288182
 40
1.0
 40
1.0
 40
1.0
 40
1.0
 10
10.7458685053
 20
7.5924999361
 30
0.0
 10
10.7447549606
 20
7.5929647795
 30
0.0
 10
10.7424748684
 20
7.5940816048
 30
0.0
 10
10.7390926627
 20
7.5962409595
 30
0.0
 10
10.7356219243
 20
7.5990373297
 30
0.0
 10
10.7320931931
 20
7.6025660466
 30
0.0
 10
10.7285621064
 20
7.6069242276
 30
0.0
 10
10.7251247929
 20
7.6121806128
 30
0.0
 10
10.7219252195
 20
7.6183214784
 30
0.0
 10
10.7201088795
 20
7.622798636
 30
0.0
 10
10.7192708889
 20
7.6251569329
 30
0.0
  0
SPLINE
  5
3D8
100
AcDbEntity
  8
0
100
AcDbSpline
 62
7
  6
CONTINUOUS
 70
0
 71
3
 72
24
 73
20
 74
0
 42
0.0000001
 43
0.0000001
 44
0.0000000001
 40
0.0
 40
0.0
 40
0.0
 40
0.0
 40
0.0982352545
 40
0.1906313754
 40
0.2772421391
 40
0.3581487601
 40
0.4334672892
 40
0.5033638728
 40
0.5680530668
 40
0.6278259878
 40
0.6830584491
 40
0.7091293541
 40
0.7342585173
 40
0.7819982367
 40
0.8270605668
 40
0.8703545305
 40
0.9128995244
 40
0.9557656574
 40
1.0
 40
1.0
 40
1.0
 40
1.0
 10
11.0170678123
 20
8.1981254981
 30
0.0
 10
11.0168875704
 20
8.1971545494
 30
0.0
 10
11.0165756225
 20
8.1952630311
 30
0.0
 10
11.0162457727
 20
8.1924945831
 30
0.0
 10
11.01606385
 20
8.1898869182
 30
0.0
 10
11.0160252736
 20
8.1874447465
 30
0.0
 10
11.0161254653
 20
8.1851722883
 30
0.0
 10
11.0163596576
 20
8.1830734249
 30
0.0
 10
11.0167233062
 20
8.1811515234
 30
0.0
 10
11.0172118354
 20
8.1794098639
 30
0.0
 10
11.0177291756
 20
8.1780861783
 30
0.0
 10
11.0182040667
 20
8.1771267195
 30
0.0
 10
11.0186989848
 20
8.1762634208
 30
0.0
 10
11.0193866046
 20
8.1752927573
 30
0.0
 10
11.0203356374
 20
8.1742998924
 30
0.0
 10
11.0213902546
 20
8.1735027808
 30
0.0
 10
11.0225451074
 20
8.1729053429
 30
0.0
 10
11.0237933404
 20
8.1725104065
 30
0.0
 10
11.0246642234
 20
8.1723853421
 30
0.0
 10
11.0251078312
 20
8.1723545129
 30
0.0
  0
SPLINE
  5
3D9
100
AcDbEntity
  8
0
100
AcDbSpline
 62
7
  6
CONTINUOUS
 70
0
 71
3
 72
15
 73
11
 74
0
 42
0.0000001
 43
0.0000001
 44
0.0000000001
 40
0.0
 40
0.0
 40
0.0
 40
0.0
 40
0.10844093
 40
0.2203198905
 40
0.3363916014
 40
0.4573220686
 40
0.5836913784
 40
0.7159978661
 40
0.8546571412
 40
1.0
 40
1.0
 40
1.0
 40
1.0
 10
13.1452742997
 20
9.0385710849
 30
0.0
 10
13.1437654091
 20
9.0382630882
 30
0.0
 10
13.1407280118
 20
9.0374907826
 30
0.0
 10
13.1362159119
 20
9.035904674
 30
0.0
 10
13.1316891802
 20
9.0338774571
 30
0.0
 10
13.127151026
 20
9.0314112594
 30
0.0
 10
13.1226037743
 20
9.0285081148
 30
0.0
 10
13.1180498401
 20
9.0251701848
 30
0.0
 10
13.1134920022
 20
9.0213999893
 30
0.0
 10
13.1105240561
 20
9.0186660516
 30
0.0
 10
13.1090394714
 20
9.0172320527
 30
0.0
  0
SPLINE
  5
3DA
100
AcDbEntity
  8
0
100
AcDbSpline
 62
7
  6
CONTINUOUS
 70
0
 71
3
 72
39
 73
35
 74
0
 42
0.0000001
 43
0.0000001
 44
0.0000000001
 40
0.0
 40
0.0
 40
0.0
 40
0.0
 40
0.0299424698
 40
0.0599093171
 40
0.0899243244
 40
0.1200101049
 40
0.1501875654
 40
0.1804754197
 40
0.2108897678
 40
0.2414437479
 40
0.2721472748
 40
0.3030068601
 40
0.3340255156
 40
0.3652027379
 40
0.3965345747
 40
0.4280137612
 40
0.4596299196
 40
0.491369815
 40
0.5232176628
 40
0.555155479
 40
0.5871634623
 40
0.619220404
 40
0.6513041182
 40
0.6833918873
 40
0.7154609133
 40
0.74748877
 40
0.7794538516
 40
0.811335809
 40
0.8431159677
 40
0.8747777197
 40
0.9063068786
 40
0.9376920899
 40
0.9689246486
 40
1.0
 40
1.0
 40
1.0
 40
1.0
 10
8.200027623
 20
7.6305142939
 30
0.0
 10
8.2081897419
 20
7.6383982687
 30
0.0
 10
8.2251558183
 20
7.6535299094
 30
0.0
 10
8.2523380841
 20
7.6741440954
 30
0.0
 10
8.2811145907
 20
7.6925718109
 30
0.0
 10
8.3113245271
 20
7.7087097102
 30
0.0
 10
8.3428018076
 20
7.7224696261
 30
0.0
 10
8.3753727227
 20
7.7337758998
 30
0.0
 10
8.4088577879
 20
7.7425666585
 30
0.0
 10
8.4430725156
 20
7.7487939387
 30
0.0
 10
8.4778285276
 20
7.7524239182
 30
0.0
 10
8.5129345725
 20
7.7534370717
 30
0.0
 10
8.5481975751
 20
7.751828251
 30
0.0
 10
8.5834236958
 20
7.7476067668
 30
0.0
 10
8.6184193916
 20
7.7407962441
 30
0.0
 10
8.6529924617
 20
7.7314344762
 30
0.0
 10
8.6869530803
 20
7.719573196
 30
0.0
 10
8.7201148394
 20
7.7052778417
 30
0.0
 10
8.7522957631
 20
7.6886271759
 30
0.0
 10
8.7833192734
 20
7.6697128112
 30
0.0
 10
8.8130151439
 20
7.6486387158
 30
0.0
 10
8.841220425
 20
7.6255206602
 30
0.0
 10
8.8677803665
 20
7.6004856266
 30
0.0
 10
8.8925492124
 20
7.5736710558
 30
0.0
 10
8.9153909963
 20
7.5452241133
 30
0.0
 10
8.9361802665
 20
7.5153008847
 30
0.0
 10
8.9548028298
 20
7.4840655746
 30
0.0
 10
8.9711563371
 20
7.4516895741
 30
0.0
 10
8.9851508261
 20
7.4183505481
 30
0.0
 10
8.9967091988
 20
7.3842313975
 30
0.0
 10
9.00576772
 20
7.3495195645
 30
0.0
 10
9.0122762627
 20
7.3144050167
 30
0.0
 10
9.0161988601
 20
7.2790830586
 30
0.0
 10
9.0170774243
 20
7.2554596931
 30
0.0
 10
9.0170774243
 20
7.243682332
 30
0.0
  0
SPLINE
  5
3DB
100
AcDbEntity
  8
0
100
AcDbSpline
 62
7
  6
CONTINUOUS
 70
0
 71
3
 72
71
 73
67
 74
0
 42
0.0000001
 43
0.0000001
 44
0.0000000001
 40
0.0
 40
0.0
 40
0.0
 40
0.0
 40
0.0155842357
 40
0.031115943
 40
0.0465952487
 40
0.0620238831
 40
0.0774034484
 40
0.0927362827
 40
0.1080251234
 40
0.1232731737
 40
0.1384840555
 40
0.1536617759
 40
0.1688106894
 40
0.1839354528
 40
0.1990409785
 40
0.2141323826
 40
0.2292149324
 40
0.2442939897
 40
0.2593749538
 40
0.2744632037
 40
0.2895640404
 40
0.3046826304
 40
0.3198239511
 40
0.3349927396
 40
0.3501934435
 40
0.3654301766
 40
0.3807066777
 40
0.3960262752
 40
0.4113918557
 40
0.4268058391
 40
0.4422701589
 40
0.4577862478
 40
0.4733550285
 40
0.4889769092
 40
0.5046517848
 40
0.5203790431
 40
0.5361575763
 40
0.5519857963
 40
0.5678616538
 40
0.5837826609
 40
0.5997459179
 40
0.6157481418
 40
0.6317856999
 40
0.6478546445
 40
0.6639507499
 40
0.6800695506
 40
0.6962063818
 40
0.7123564201
 40
0.7285147273
 40
0.7446762933
 40
0.7608360799
 40
0.7769890645
 40
0.7931302835
 40
0.8092548753
 40
0.8253581239
 40
0.8414355006
 40
0.8574827053
 40
0.873495705
 40
0.8894707706
 40
0.9054045132
 40
0.921293919
 40
0.9371363616
 40
0.9529297193
 40
0.9686720808
 40
0.9843626423
 40
1.0
 40
1.0
 40
1.0
 40
1.0
 10
10.5557973918
 20
7.7097657837
 30
0.0
 10
10.5557973918
 20
7.7187740605
 30
0.0
 10
10.5562382452
 20
7.7367634449
 30
0.0
 10
10.558228257
 20
7.7636341845
 30
0.0
 10
10.5615413713
 20
7.7902841965
 30
0.0
 10
10.5661694362
 20
7.816648216
 30
0.0
 10
10.5721015313
 20
7.8426630917
 30
0.0
 10
10.5793233445
 20
7.8682659839
 30
0.0
 10
10.587817576
 20
7.8933951978
 30
0.0
 10
10.5975637948
 20
7.9179901288
 30
0.0
 10
10.6085385506
 20
7.9419914674
 30
0.0
 10
10.6207154279
 20
7.9653413244
 30
0.0
 10
10.6340651063
 20
7.9879833758
 30
0.0
 10
10.6485554318
 20
8.0098629976
 30
0.0
 10
10.6641514934
 20
8.0309273992
 30
0.0
 10
10.6808157021
 20
8.051125755
 30
0.0
 10
10.6985078689
 20
8.0704093426
 30
0.0
 10
10.7171853234
 20
8.0887316466
 30
0.0
 10
10.7368030146
 20
8.1060484739
 30
0.0
 10
10.7573136212
 20
8.1223180601
 30
0.0
 10
10.7786676655
 20
8.1375011719
 30
0.0
 10
10.8008136363
 20
8.1515611988
 30
0.0
 10
10.8236981007
 20
8.1644642638
 30
0.0
 10
10.8472658475
 20
8.1761792918
 30
0.0
 10
10.871460025
 20
8.1866780777
 30
0.0
 10
10.8962222782
 20
8.1959353547
 30
0.0
 10
10.9214928905
 20
8.203928854
 30
0.0
 10
10.9472109285
 20
8.2106393542
 30
0.0
 10
10.9733143856
 20
8.2160507391
 30
0.0
 10
10.9997403337
 20
8.2201500425
 30
0.0
 10
11.0264250807
 20
8.2229274562
 30
0.0
 10
11.0533043226
 20
8.2243763566
 30
0.0
 10
11.0803132974
 20
8.2244933176
 30
0.0
 10
11.1073869401
 20
8.2232781172
 30
0.0
 10
11.1344600372
 20
8.2207337373
 30
0.0
 10
11.1614673868
 20
8.2168663788
 30
0.0
 10
11.1883439545
 20
8.2116854215
 30
0.0
 10
11.2150250287
 20
8.2052034002
 30
0.0
 10
11.2414463745
 20
8.1974359743
 30
0.0
 10
11.2675443869
 20
8.18840189
 30
0.0
 10
11.2932562398
 20
8.1781229318
 30
0.0
 10
11.3185200444
 20
8.1666238889
 30
0.0
 10
11.3432749972
 20
8.1539324882
 30
0.0
 10
11.36746152
 20
8.1400793154
 30
0.0
 10
11.3910214029
 20
8.1250977441
 30
0.0
 10
11.413897943
 20
8.1090238561
 30
0.0
 10
11.436036078
 20
8.091896354
 30
0.0
 10
11.4573825211
 20
8.0737564737
 30
0.0
 10
11.4778859013
 20
8.0546478976
 30
0.0
 10
11.4974968713
 20
8.0346166298
 30
0.0
 10
11.5161682277
 20
8.0137108894
 30
0.0
 10
11.5338550222
 20
7.9919809944
 30
0.0
 10
11.5505146698
 20
7.9694792432
 30
0.0
 10
11.5661070477
 20
7.9462597875
 30
0.0
 10
11.5805946118
 20
7.9223785162
 30
0.0
 10
11.5939424743
 20
7.8978929099
 30
0.0
 10
11.6061184823
 20
7.8728619009
 30
0.0
 10
11.6170932949
 20
7.8473457334
 30
0.0
 10
11.6268404545
 20
7.8214058212
 30
0.0
 10
11.635336449
 20
7.7951045971
 30
0.0
 10
11.6425607672
 20
7.7685053827
 30
0.0
 10
11.6484960112
 20
7.7416721768
 30
0.0
 10
11.6531277593
 20
7.7146697125
 30
0.0
 10
11.6564449655
 20
7.6875626087
 30
0.0
 10
11.6584393506
 20
7.6604171999
 30
0.0
 10
11.6588847158
 20
7.6423054013
 30
0.0
 10
11.6588847158
 20
7.6332664179
 30
0.0
  0
SPLINE
  5
3DC
100
AcDbEntity
  8
0
100
AcDbSpline
 62
7
  6
CONTINUOUS
 70
0
 71
3
 72
17
 73
13
 74
0
 42
0.0000001
 43
0.0000001
 44
0.0000000001
 40
0.0
 40
0.0
 40
0.0
 40
0.0
 40
0.1266551999
 40
0.2527984266
 40
0.3784389846
 40
0.4410836491
 40
0.5036099077
 40
0.6283069613
 40
0.7525758922
 40
0.8145686273
 40
0.8764689156
 40
1.0
 40
1.0
 40
1.0
 40
1.0
 10
10.4717617298
 20
7.0819462795
 30
0.0
 10
10.4717617298
 20
7.073140499
 30
0.0
 10
10.4712467577
 20
7.0555599663
 30
0.0
 10
10.4689211152
 20
7.0293373295
 30
0.0
 10
10.465692982
 20
7.007701585
 30
0.0
 10
10.4623436556
 20
6.9905861391
 30
0.0
 10
10.4584941072
 20
6.9736434259
 30
0.0
 10
10.4527386894
 20
6.9527508238
 30
0.0
 10
10.4457317346
 20
6.9322830606
 30
0.0
 10
10.4393962934
 20
6.9162320232
 30
0.0
 10
10.4325901682
 20
6.9004313214
 30
0.0
 10
10.4269424435
 20
6.8888299018
 30
0.0
 10
10.4229449345
 20
6.8812283537
 30
0.0
  0
SPLINE
  5
3DD
100
AcDbEntity
  8
0
100
AcDbSpline
 62
7
  6
CONTINUOUS
 70
0
 71
3
 72
58
 73
54
 74
0
 42
0.0000001
 43
0.0000001
 44
0.0000000001
 40
0.0
 40
0.0
 40
0.0
 40
0.0
 40
0.0081223305
 40
0.0169168975
 40
0.0264087397
 40
0.0366143893
 40
0.0475415919
 40
0.0591912278
 40
0.0715586516
 40
0.0846347975
 40
0.0984066254
 40
0.112857697
 40
0.1279687991
 40
0.1437179559
 40
0.1600810137
 40
0.1770317001
 40
0.2125802303
 40
0.2501202969
 40
0.2893844218
 40
0.3300865608
 40
0.3719257492
 40
0.4145895607
 40
0.4577574053
 40
0.5011037527
 40
0.5443013266
 40
0.587024304
 40
0.6289515139
 40
0.6697696572
 40
0.7091765902
 40
0.7468847529
 40
0.7826248208
 40
0.7996793841
 40
0.8161512809
 40
0.8320139346
 40
0.8472427441
 40
0.8618153344
 40
0.8757119895
 40
0.8889156785
 40
0.9014127874
 40
0.9131934095
 40
0.9242520347
 40
0.9345886083
 40
0.9442093599
 40
0.953128682
 40
0.9613709503
 40
0.9689732053
 40
0.9759886321
 40
0.9824900189
 40
0.9885734021
 40
0.9914974267
 40
0.9943641369
 40
0.9971919109
 40
1.0
 40
1.0
 40
1.0
 40
1.0
 10
11.8844099427
 20
9.2577928895
 30
0.0
 10
11.8852303829
 20
9.2585853739
 30
0.0
 10
11.8870165617
 20
9.2601568157
 30
0.0
 10
11.8899814563
 20
9.2623895432
 30
0.0
 10
11.8933297702
 20
9.2645849146
 30
0.0
 10
11.8970547068
 20
9.2667387016
 30
0.0
 10
11.9011492718
 20
9.2688470405
 30
0.0
 10
11.9056055257
 20
9.270905715
 30
0.0
 10
11.9104146887
 20
9.2729107185
 30
0.0
 10
11.9155672538
 20
9.2748579974
 30
0.0
 10
11.921052964
 20
9.2767436185
 30
0.0
 10
11.9268608428
 20
9.2785637902
 30
0.0
 10
11.9329792493
 20
9.2803147637
 30
0.0
 10
11.9393958729
 20
9.281993016
 30
0.0
 10
11.946097807
 20
9.2835951363
 30
0.0
 10
11.9555465982
 20
9.2856581177
 30
0.0
 10
11.9679737587
 20
9.288009854
 30
0.0
 10
11.9835666012
 20
9.2904391274
 30
0.0
 10
11.9999421928
 20
9.2924982444
 30
0.0
 10
12.0169683297
 20
9.2941702633
 30
0.0
 10
12.034507671
 20
9.2954413791
 30
0.0
 10
12.0524185626
 20
9.2963011267
 30
0.0
 10
12.0705563136
 20
9.2967424265
 30
0.0
 10
12.0887743622
 20
9.2967616441
 30
0.0
 10
12.106925488
 20
9.296358618
 30
0.0
 10
12.1248630189
 20
9.2955366699
 30
0.0
 10
12.1424420454
 20
9.2943025687
 30
0.0
 10
12.1595205879
 20
9.2926664755
 30
0.0
 10
12.1759608699
 20
9.2906418983
 30
0.0
 10
12.1916301527
 20
9.2882454882
 30
0.0
 10
12.2041285028
 20
9.2859204362
 30
0.0
 10
12.21363982
 20
9.2838779974
 30
0.0
 10
12.2203921925
 20
9.2822900708
 30
0.0
 10
12.2268616697
 20
9.2806254239
 30
0.0
 10
12.2330352323
 20
9.2788874079
 30
0.0
 10
12.2389004574
 20
9.2770795427
 30
0.0
 10
12.2444455834
 20
9.2752055513
 30
0.0
 10
12.2496595043
 20
9.2732691818
 30
0.0
 10
12.2545318369
 20
9.2712743849
 30
0.0
 10
12.2590529278
 20
9.269225164
 30
0.0
 10
12.2632138725
 20
9.2671255533
 30
0.0
 10
12.2670065981
 20
9.2649797134
 30
0.0
 10
12.2704237915
 20
9.2627916415
 30
0.0
 10
12.2734589962
 20
9.2605653372
 30
0.0
 10
12.2761065139
 20
9.2583045104
 30
0.0
 10
12.2783612079
 20
9.2560125333
 30
0.0
 10
12.2802184104
 20
9.2536922364
 30
0.0
 10
12.2816730041
 20
9.2513467165
 30
0.0
 10
12.2825565874
 20
9.2493462491
 30
0.0
 10
12.2830447242
 20
9.2477500587
 30
0.0
 10
12.2833032003
 20
9.2465661228
 30
0.0
 10
12.2834583565
 20
9.2453807677
 30
0.0
 10
12.283492883
 20
9.2445888519
 30
0.0
 10
12.2834928832
 20
9.2441944904
 30
0.0
  0
SPLINE
  5
3DE
100
AcDbEntity
  8
0
100
AcDbSpline
 62
7
  6
CONTINUOUS
 70
0
 71
3
 72
87
 73
83
 74
0
 42
0.0000001
 43
0.0000001
 44
0.0000000001
 40
0.0
 40
0.0
 40
0.0
 40
0.0
 40
0.003930036
 40
0.0080225205
 40
0.0122809434
 40
0.0167082787
 40
0.0213070291
 40
0.0260791157
 40
0.0310258375
 40
0.0361480812
 40
0.0414462994
 40
0.0469206126
 40
0.0525707993
 40
0.0583963126
 40
0.0643963678
 40
0.0705698796
 40
0.0834315627
 40
0.0969689324
 40
0.1111661237
 40
0.1260046429
 40
0.1414636625
 40
0.1575202639
 40
0.1741496354
 40
0.19132525
 40
0.209019022
 40
0.2272014429
 40
0.2458417056
 40
0.2649078193
 40
0.2843667145
 40
0.3041843469
 40
0.3243257995
 40
0.3447553791
 40
0.3654367087
 40
0.3863328198
 40
0.4074062415
 40
0.4286190912
 40
0.449933166
 40
0.4927104627
 40
0.5354300974
 40
0.5566722203
 40
0.5777845681
 40
0.5987291703
 40
0.619468444
 40
0.6399652833
 40
0.6601831499
 40
0.6800861683
 40
0.699639218
 40
0.7188080273
 40
0.7375592711
 40
0.7558606724
 40
0.7736811091
 40
0.7909907321
 40
0.8077610858
 40
0.8239652387
 40
0.8395779308
 40
0.8545757422
 40
0.8689372885
 40
0.8826434576
 40
0.8956776912
 40
0.9080263274
 40
0.9139404171
 40
0.9196795393
 40
0.925243029
 40
0.9306305058
 40
0.9358418862
 40
0.940877476
 40
0.9457379197
 40
0.950424339
 40
0.9549383065
 40
0.9592819433
 40
0.9634579933
 40
0.9674698508
 40
0.9713217279
 40
0.9750186653
 40
0.9785667148
 40
0.9819730136
 40
0.9852459078
 40
0.9883951027
 40
0.9914317076
 40
0.9943683715
 40
0.9972192521
 40
1.0
 40
1.0
 40
1.0
 40
1.0
 10
13.1090394714
 20
7.4104143455
 30
0.0
 10
13.1109009562
 20
7.4122124019
 30
0.0
 10
13.1146219746
 20
7.4159652483
 30
0.0
 10
13.1200893283
 20
7.421927093
 30
0.0
 10
13.1255511286
 20
7.4283309116
 30
0.0
 10
13.1310045811
 20
7.4351733737
 30
0.0
 10
13.1364472556
 20
7.4424512865
 30
0.0
 10
13.1418766061
 20
7.4501612769
 30
0.0
 10
13.1472901621
 20
7.4582996664
 30
0.0
 10
13.1526852496
 20
7.4668626189
 30
0.0
 10
13.1580593681
 20
7.4758460188
 30
0.0
 10
13.163409926
 20
7.4852456046
 30
0.0
 10
13.1687343652
 20
7.4950568964
 30
0.0
 10
13.1740301693
 20
7.5052751907
 30
0.0
 10
13.1792947641
 20
7.5158956335
 30
0.0
 10
13.1863659953
 20
7.5307895538
 30
0.0
 10
13.1950935855
 20
7.5503880209
 30
0.0
 10
13.2052646736
 20
7.5751151935
 30
0.0
 10
13.2152521404
 20
7.6013149905
 30
0.0
 10
13.2250366928
 20
7.6289371568
 30
0.0
 10
13.2345994227
 20
7.6579289342
 30
0.0
 10
13.2439218352
 20
7.6882347649
 30
0.0
 10
13.252985903
 20
7.7197965269
 30
0.0
 10
13.2617741003
 20
7.7525536272
 30
0.0
 10
13.2702694349
 20
7.786443141
 30
0.0
 10
13.278455484
 20
7.8213999389
 30
0.0
 10
13.2863164252
 20
7.8573568176
 30
0.0
 10
13.2938370661
 20
7.8942446304
 30
0.0
 10
13.3010028782
 20
7.9319924209
 30
0.0
 10
13.3078000254
 20
7.9705275631
 30
0.0
 10
13.3142153843
 20
8.0097759066
 30
0.0
 10
13.3202365712
 20
8.0496619235
 30
0.0
 10
13.3258519643
 20
8.0901088515
 30
0.0
 10
13.3310507287
 20
8.1310388485
 30
0.0
 10
13.3358228243
 20
8.1723731178
 30
0.0
 10
13.3401590911
 20
8.2140321495
 30
0.0
 10
13.3453543733
 20
8.2699683713
 30
0.0
 10
13.3507017283
 20
8.3401098661
 30
0.0
 10
13.35451085
 20
8.4103042796
 30
0.0
 10
13.3566162499
 20
8.4662901492
 30
0.0
 10
13.3577164067
 20
8.5079613451
 30
0.0
 10
13.3583385984
 20
8.5493112106
 30
0.0
 10
13.3584816146
 20
8.5902602111
 30
0.0
 10
13.3581452121
 20
8.6307295108
 30
0.0
 10
13.3573300631
 20
8.6706412211
 30
0.0
 10
13.3560377762
 20
8.7099185286
 30
0.0
 10
13.3542708835
 20
8.7484858513
 30
0.0
 10
13.3520328358
 20
8.7862689811
 30
0.0
 10
13.3493279968
 20
8.8231952281
 30
0.0
 10
13.3461616356
 20
8.8591935619
 30
0.0
 10
13.3425399156
 20
8.894194754
 30
0.0
 10
13.3384698919
 20
8.9281315184
 30
0.0
 10
13.3339594931
 20
8.9609386458
 30
0.0
 10
13.3290175029
 20
8.9925531334
 30
0.0
 10
13.323653544
 20
9.0229143088
 30
0.0
 10
13.3178780583
 20
9.0519639688
 30
0.0
 10
13.3117022796
 20
9.0796464699
 30
0.0
 10
13.3051382173
 20
9.1059089955
 30
0.0
 10
13.2981986035
 20
9.1307012125
 30
0.0
 10
13.2920282874
 20
9.1503704657
 30
0.0
 10
13.2868996308
 20
9.1653221817
 30
0.0
 10
13.2830230622
 20
9.1759774516
 30
0.0
 10
13.2790628803
 20
9.1862310586
 30
0.0
 10
13.2750209618
 20
9.1960781295
 30
0.0
 10
13.2708991887
 20
9.2055139477
 30
0.0
 10
13.2666996059
 20
9.2145340472
 30
0.0
 10
13.2624241149
 20
9.2231341131
 30
0.0
 10
13.2580748051
 20
9.2313100912
 30
0.0
 10
13.2536536796
 20
9.2390581016
 30
0.0
 10
13.2491627802
 20
9.2463744755
 30
0.0
 10
13.2446042326
 20
9.2532557938
 30
0.0
 10
13.2399800141
 20
9.2596987602
 30
0.0
 10
13.2352922989
 20
9.2657003933
 30
0.0
 10
13.2305430631
 20
9.271257791
 30
0.0
 10
13.2257344078
 20
9.2763683158
 30
0.0
 10
13.2208683749
 20
9.281029476
 30
0.0
 10
13.2159469509
 20
9.2852388576
 30
0.0
 10
13.2109722552
 20
9.2889943237
 30
0.0
 10
13.2059463125
 20
9.2922936074
 30
0.0
 10
13.2008712338
 20
9.2951348125
 30
0.0
 10
13.1957497731
 20
9.2975157627
 30
0.0
 10
13.192268692
 20
9.2988088766
 30
0.0
 10
13.1905268462
 20
9.2993739981
 30
0.0
  0
SPLINE
  5
3DF
100
AcDbEntity
  8
0
100
AcDbSpline
 62
7
  6
CONTINUOUS
 70
0
 71
3
 72
15
 73
11
 74
0
 42
0.0000001
 43
0.0000001
 44
0.0000000001
 40
0.0
 40
0.0
 40
0.0
 40
0.0
 40
0.1456220392
 40
0.284441542
 40
0.4168040037
 40
0.5431449195
 40
0.6639836344
 40
0.779925626
 40
0.8916673622
 40
1.0
 40
1.0
 40
1.0
 40
1.0
 10
13.1090394714
 20
7.4104143455
 30
0.0
 10
13.1069643331
 20
7.4084099157
 30
0.0
 10
13.1028158556
 20
7.4045913134
 30
0.0
 10
13.0964426927
 20
7.399333339
 30
0.0
 10
13.090075129
 20
7.3946895062
 30
0.0
 10
13.0837171331
 20
7.39066336
 30
0.0
 10
13.0773721193
 20
7.3872580947
 30
0.0
 10
13.0710435231
 20
7.3844765763
 30
0.0
 10
13.0647359207
 20
7.3823221164
 30
0.0
 10
13.0604913175
 20
7.3812920696
 30
0.0
 10
13.0583833605
 20
7.3808880248
 30
0.0
  0
SPLINE
  5
3E0
100
AcDbEntity
  8
0
100
AcDbSpline
 62
7
  6
CONTINUOUS
 70
0
 71
3
 72
23
 73
19
 74
0
 42
0.0000001
 43
0.0000001
 44
0.0000000001
 40
0.0
 40
0.0
 40
0.0
 40
0.0
 40
0.0781368527
 40
0.1532317188
 40
0.225404452
 40
0.2947998426
 40
0.3615916891
 40
0.4259789642
 40
0.4881874855
 40
0.5484707583
 40
0.6071107438
 40
0.6644176967
 40
0.7207260077
 40
0.7763899872
 40
0.8317774567
 40
0.887262179
 40
0.9432158246
 40
1.0
 40
1.0
 40
1.0
 40
1.0
 10
13.1090394714
 20
7.6649358158
 30
0.0
 10
13.1077820855
 20
7.6637212743
 30
0.0
 10
13.1052680592
 20
7.6613886287
 30
0.0
 10
13.1014215469
 20
7.658124594
 30
0.0
 10
13.0975775835
 20
7.6551679786
 30
0.0
 10
13.0937379049
 20
7.6525204491
 30
0.0
 10
13.0899041126
 20
7.6501832145
 30
0.0
 10
13.0860776603
 20
7.6481575341
 30
0.0
 10
13.0822601293
 20
7.6464445071
 30
0.0
 10
13.078453158
 20
7.645045211
 30
0.0
 10
13.0746584348
 20
7.643960785
 30
0.0
 10
13.070877833
 20
7.6431920138
 30
0.0
 10
13.0671132918
 20
7.6427396982
 30
0.0
 10
13.063366907
 20
7.6426043822
 30
0.0
 10
13.0596408857
 20
7.6427861969
 30
0.0
 10
13.0559373801
 20
7.6432852259
 30
0.0
 10
13.0522588591
 20
7.6441008876
 30
0.0
 10
13.0498464959
 20
7.6448485035
 30
0.0
 10
13.0486487037
 20
7.6452719833
 30
0.0
  0
SPLINE
  5
3E1
100
AcDbEntity
  8
0
100
AcDbSpline
 62
7
  6
CONTINUOUS
 70
0
 71
3
 72
85
 73
81
 74
0
 42
0.0000001
 43
0.0000001
 44
0.0000000001
 40
0.0
 40
0.0
 40
0.0
 40
0.0
 40
0.0040523243
 40
0.0082800677
 40
0.0126871048
 40
0.0172766874
 40
0.0220515212
 40
0.0270136657
 40
0.0321644496
 40
0.0375047249
 40
0.0430348574
 40
0.0487548144
 40
0.054664209
 40
0.0607622539
 40
0.073519334
 40
0.0870147526
 40
0.1012327467
 40
0.1161541856
 40
0.1317569883
 40
0.1480164546
 40
0.1649055313
 40
0.1823950537
 40
0.2004539481
 40
0.2190494063
 40
0.2381470435
 40
0.2577110372
 40
0.2777042638
 40
0.2980884342
 40
0.318824216
 40
0.3398713518
 40
0.3611887728
 40
0.3827347104
 40
0.4263415096
 40
0.4703487206
 40
0.5144084858
 40
0.5581724224
 40
0.5798356861
 40
0.6012958978
 40
0.6225109263
 40
0.6434392703
 40
0.6640401693
 40
0.6842737169
 40
0.7041009772
 40
0.7234841094
 40
0.742386497
 40
0.7607728733
 40
0.7786094587
 40
0.7958641099
 40
0.8125064856
 40
0.8285082407
 40
0.843843233
 40
0.8584877643
 40
0.8724208768
 40
0.8856247162
 40
0.8980849977
 40
0.9040332524
 40
0.9097922075
 40
0.9153613987
 40
0.9207406784
 40
0.9259303725
 40
0.9309312112
 40
0.9357444596
 40
0.9403719648
 40
0.9448161804
 40
0.9490803491
 40
0.9531684867
 40
0.9570855871
 40
0.9608377024
 40
0.9644320671
 40
0.9678773102
 40
0.9711835117
 40
0.9774235374
 40
0.9803901426
 40
0.9832753266
 40
0.9860978125
 40
0.9888777483
 40
0.9916362933
 40
0.9943951484
 40
0.9971760023
 40
1.0
 40
1.0
 40
1.0
 40
1.0
 10
13.1090394714
 20
7.6649358158
 30
0.0
 10
13.1104565397
 20
7.6663045987
 30
0.0
 10
13.1132890406
 20
7.6691672185
 30
0.0
 10
13.1174468099
 20
7.6737256206
 30
0.0
 10
13.121599956
 20
7.6786356329
 30
0.0
 10
13.1257461343
 20
7.6838944624
 30
0.0
 10
13.1298833377
 20
7.6894994089
 30
0.0
 10
13.1340094349
 20
7.6954476432
 30
0.0
 10
13.1381223859
 20
7.7017360557
 30
0.0
 10
13.1422199677
 20
7.7083613992
 30
0.0
 10
13.1463000764
 20
7.7153201947
 30
0.0
 10
13.150360581
 20
7.722608809
 30
0.0
 10
13.1543993507
 20
7.7302234586
 30
0.0
 10
13.1598344865
 20
7.7409678027
 30
0.0
 10
13.1665453237
 20
7.7551965281
 30
0.0
 10
13.1743619572
 20
7.7732566988
 30
0.0
 10
13.1820422248
 20
7.7925127552
 30
0.0
 10
13.1895698783
 20
7.8129242877
 30
0.0
 10
13.1969289803
 20
7.8344486684
 30
0.0
 10
13.2041039291
 20
7.8570407521
 30
0.0
 10
13.2110795187
 20
7.8806531009
 30
0.0
 10
13.217840962
 20
7.90523607
 30
0.0
 10
13.2243739261
 20
7.9307379376
 30
0.0
 10
13.2306645646
 20
7.9571050186
 30
0.0
 10
13.2366995446
 20
7.9842817813
 30
0.0
 10
13.2424660818
 20
8.0122109634
 30
0.0
 10
13.2479519695
 20
8.0408336983
 30
0.0
 10
13.2531455938
 20
8.0700896451
 30
0.0
 10
13.2580359653
 20
8.0999171255
 30
0.0
 10
13.2626127238
 20
8.130253234
 30
0.0
 10
13.2668662246
 20
8.1610340436
 30
0.0
 10
13.2721151664
 20
8.202746663
 30
0.0
 10
13.2777981622
 20
8.2555190989
 30
0.0
 10
13.2831790808
 20
8.3193162606
 30
0.0
 10
13.2871023622
 20
8.383296153
 30
0.0
 10
13.2891367143
 20
8.4364937457
 30
0.0
 10
13.2900027261
 20
8.4787292895
 30
0.0
 10
13.2902688605
 20
8.5100095437
 30
0.0
 10
13.2901533832
 20
8.5409333908
 30
0.0
 10
13.2896565345
 20
8.5714356637
 30
0.0
 10
13.2887794027
 20
8.6014520229
 30
0.0
 10
13.2875238718
 20
8.6309191746
 30
0.0
 10
13.2858926298
 20
8.6597749844
 30
0.0
 10
13.2838891653
 20
8.6879586197
 30
0.0
 10
13.2815177666
 20
8.7154106809
 30
0.0
 10
13.2787835025
 20
8.7420733271
 30
0.0
 10
13.2756922142
 20
8.7678903984
 30
0.0
 10
13.2722505039
 20
8.7928075377
 30
0.0
 10
13.2684657176
 20
8.8167723171
 30
0.0
 10
13.264345943
 20
8.8397343594
 30
0.0
 10
13.2598999815
 20
8.8616454647
 30
0.0
 10
13.2551373219
 20
8.8824596858
 30
0.0
 10
13.2500681178
 20
8.9021335677
 30
0.0
 10
13.2447031363
 20
8.9206258339
 30
0.0
 10
13.2399242553
 20
8.9352374363
 30
0.0
 10
13.2359491049
 20
8.9462952444
 30
0.0
 10
13.2329470842
 20
8.954140711
 30
0.0
 10
13.2298798533
 20
8.9616630348
 30
0.0
 10
13.226748901
 20
8.968858279
 30
0.0
 10
13.2235559453
 20
8.9757227122
 30
0.0
 10
13.2203025919
 20
8.982252752
 30
0.0
 10
13.2169905244
 20
8.9884450086
 30
0.0
 10
13.2136214804
 20
8.9942962962
 30
0.0
 10
13.2101970881
 20
8.999803555
 30
0.0
 10
13.2067191547
 20
9.0049639892
 30
0.0
 10
13.2031893179
 20
9.0097749027
 30
0.0
 10
13.1996093359
 20
9.0142338153
 30
0.0
 10
13.195980881
 20
9.0183384524
 30
0.0
 10
13.1923057374
 20
9.0220864826
 30
0.0
 10
13.1885851003
 20
9.0254763085
 30
0.0
 10
13.1836627249
 20
9.0294381616
 30
0.0
 10
13.1785528804
 20
9.0327855911
 30
0.0
 10
13.1732871708
 20
9.0354117175
 30
0.0
 10
13.1693673494
 20
9.0369814219
 30
0.0
 10
13.1654138084
 20
9.0381820721
 30
0.0
 10
13.1614288882
 20
9.0390127036
 30
0.0
 10
13.1574153844
 20
9.0394723445
 30
0.0
 10
13.1533760858
 20
9.0395605249
 30
0.0
 10
13.1493142927
 20
9.0392774668
 30
0.0
 10
13.1466195533
 20
9.0388456798
 30
0.0
 10
13.1452742997
 20
9.0385710849
 30
0.0
  0
SPLINE
  5
3E2
100
AcDbEntity
  8
0
100
AcDbSpline
 62
7
  6
CONTINUOUS
 70
0
 71
3
 72
59
 73
55
 74
0
 42
0.0000001
 43
0.0000001
 44
0.0000000001
 40
0.0
 40
0.0
 40
0.0
 40
0.0
 40
0.0083782343
 40
0.0173208535
 40
0.0268349956
 40
0.0369234094
 40
0.0475853465
 40
0.0588169846
 40
0.07061195
 40
0.0829616314
 40
0.0958554136
 40
0.1092809732
 40
0.123224424
 40
0.1376704287
 40
0.1526023967
 40
0.168002566
 40
0.1838520576
 40
0.2001310248
 40
0.2168187108
 40
0.2338934781
 40
0.2513329291
 40
0.2691139563
 40
0.3056043621
 40
0.3431681596
 40
0.3816001581
 40
0.4206888688
 40
0.4602180961
 40
0.4999685072
 40
0.5397192135
 40
0.5792493213
 40
0.6183395005
 40
0.6567735361
 40
0.6943399195
 40
0.7308334647
 40
0.7486162418
 40
0.7660575861
 40
0.7831343628
 40
0.7998241607
 40
0.8161053738
 40
0.8319572164
 40
0.8473598203
 40
0.8622943437
 40
0.8767429948
 40
0.8906891536
 40
0.9041175228
 40
0.9170141875
 40
0.9293667855
 40
0.9411647422
 40
0.9523994171
 40
0.963064392
 40
0.9731558781
 40
0.9826730765
 40
0.9916187469
 40
1.0
 40
1.0
 40
1.0
 40
1.0
 10
12.9873651929
 20
7.7225953472
 30
0.0
 10
12.9896381777
 20
7.7253667941
 30
0.0
 10
12.9941666953
 20
7.7312376394
 30
0.0
 10
13.0007123508
 20
7.7406739659
 30
0.0
 10
13.0072211413
 20
7.7510112002
 30
0.0
 10
13.0136833857
 20
7.7622341937
 30
0.0
 10
13.020089836
 20
7.7743268892
 30
0.0
 10
13.0264311293
 20
7.7872717099
 30
0.0
 10
13.0326979149
 20
7.8010498132
 30
0.0
 10
13.0388809133
 20
7.8156410366
 30
0.0
 10
13.0449709908
 20
7.8310239499
 30
0.0
 10
13.0509590884
 20
7.847175929
 30
0.0
 10
13.0568362892
 20
7.864073176
 30
0.0
 10
13.0625938827
 20
7.8816907452
 30
0.0
 10
13.068223293
 20
7.9000026172
 30
0.0
 10
13.0737161264
 20
7.9189817282
 30
0.0
 10
13.0790642391
 20
7.938599997
 30
0.0
 10
13.084259668
 20
7.9588283937
 30
0.0
 10
13.0892946676
 20
7.9796369807
 30
0.0
 10
13.0941617661
 20
8.000994932
 30
0.0
 10
13.0988537596
 20
8.0228706398
 30
0.0
 10
13.1049190762
 20
8.0529446507
 30
0.0
 10
13.1119980825
 20
8.0915938623
 30
0.0
 10
13.1196198363
 20
8.1391132387
 30
0.0
 10
13.1263944492
 20
8.1878832014
 30
0.0
 10
13.1322815455
 20
8.2376148301
 30
0.0
 10
13.1372460299
 20
8.2880137156
 30
0.0
 10
13.1412584114
 20
8.3387813654
 30
0.0
 10
13.1442948718
 20
8.3896170986
 30
0.0
 10
13.1463374564
 20
8.4402198273
 30
0.0
 10
13.147374207
 20
8.4902898367
 30
0.0
 10
13.1473991934
 20
8.5395306798
 30
0.0
 10
13.1464124877
 20
8.5876506158
 30
0.0
 10
13.1447385288
 20
8.6269103026
 30
0.0
 10
13.1428843582
 20
8.6575366685
 30
0.0
 10
13.1412582564
 20
8.679853151
 30
0.0
 10
13.1393872324
 20
8.7016811774
 30
0.0
 10
13.1372740456
 20
8.7229884434
 30
0.0
 10
13.1349218896
 20
8.7437433885
 30
0.0
 10
13.1323342657
 20
8.7639152829
 30
0.0
 10
13.1295150322
 20
8.7834742679
 30
0.0
 10
13.1264684326
 20
8.8023914111
 30
0.0
 10
13.1231990113
 20
8.8206387382
 30
0.0
 10
13.1197116389
 20
8.8381892835
 30
0.0
 10
13.1160115589
 20
8.8550171454
 30
0.0
 10
13.11210429
 20
8.8710975115
 30
0.0
 10
13.1079956389
 20
8.8864067056
 30
0.0
 10
13.1036917587
 20
8.9009222541
 30
0.0
 10
13.099199038
 20
8.9146228977
 30
0.0
 10
13.0945240791
 20
8.9274886552
 30
0.0
 10
13.0896737989
 20
8.9395008347
 30
0.0
 10
13.0846551472
 20
8.9506422799
 30
0.0
 10
13.0794754959
 20
8.9608965803
 30
0.0
 10
13.0758013044
 20
8.9673396429
 30
0.0
 10
13.0739329071
 20
8.9703999908
 30
0.0
  0
SPLINE
  5
3E3
100
AcDbEntity
  8
0
100
AcDbSpline
 62
7
  6
CONTINUOUS
 70
0
 71
3
 72
53
 73
49
 74
0
 42
0.0000001
 43
0.0000001
 44
0.0000000001
 40
0.0
 40
0.0
 40
0.0
 40
0.0
 40
0.0098670915
 40
0.020217269
 40
0.0310468334
 40
0.042350478
 40
0.0541214738
 40
0.0663517444
 40
0.0790321285
 40
0.092152338
 40
0.1057011724
 40
0.1196665371
 40
0.134035496
 40
0.1487944149
 40
0.163928892
 40
0.1794239323
 40
0.2114320343
 40
0.244687814
 40
0.2790518805
 40
0.3143781233
 40
0.3505147552
 40
0.387305302
 40
0.4245895633
 40
0.4622045537
 40
0.4999854347
 40
0.5377664454
 40
0.5753818252
 40
0.6126667358
 40
0.6494581861
 40
0.6855959664
 40
0.7209235968
 40
0.7552892854
 40
0.788546917
 40
0.8205570898
 40
0.8360532264
 40
0.8511888726
 40
0.8659489786
 40
0.880319192
 40
0.8942858434
 40
0.9078359968
 40
0.9209575839
 40
0.9336393465
 40
0.9458710592
 40
0.957643502
 40
0.9689486234
 40
0.9797796952
 40
0.9901313655
 40
1.0
 40
1.0
 40
1.0
 40
1.0
 10
12.9623061065
 20
7.8028253236
 30
0.0
 10
12.9641295373
 20
7.8060033393
 30
0.0
 10
12.9677560682
 20
7.8125783216
 30
0.0
 10
12.9730212402
 20
7.8228361059
 30
0.0
 10
12.9782362982
 20
7.8337141437
 30
0.0
 10
12.9833950766
 20
7.8451997064
 30
0.0
 10
12.9884915399
 20
7.8572795336
 30
0.0
 10
12.9935197736
 20
7.8699395701
 30
0.0
 10
12.9984738223
 20
7.8831651071
 30
0.0
 10
13.0033479286
 20
7.8969407284
 30
0.0
 10
13.0081363489
 20
7.9112503789
 30
0.0
 10
13.0128334565
 20
7.9260773637
 30
0.0
 10
13.0174337767
 20
7.9414043699
 30
0.0
 10
13.0219318486
 20
7.9572134987
 30
0.0
 10
13.0263224808
 20
7.9734862885
 30
0.0
 10
13.0320887514
 20
7.9960201351
 30
0.0
 10
13.0389756395
 20
8.0252102779
 30
0.0
 10
13.0466465509
 20
8.0614042896
 30
0.0
 10
13.0537746011
 20
8.0989638586
 30
0.0
 10
13.0603262259
 20
8.1377133642
 30
0.0
 10
13.0662705593
 20
8.1774717928
 30
0.0
 10
13.0715796315
 20
8.218053283
 30
0.0
 10
13.0762284801
 20
8.2592681007
 30
0.0
 10
13.0801952681
 20
8.3009235126
 30
0.0
 10
13.0834613926
 20
8.3428247049
 30
0.0
 10
13.086011562
 20
8.3847757033
 30
0.0
 10
13.0878338675
 20
8.4265802994
 30
0.0
 10
13.0889198401
 20
8.4680429751
 30
0.0
 10
13.0892644904
 20
8.5089698233
 30
0.0
 10
13.088866342
 20
8.5491694737
 30
0.0
 10
13.0877274392
 20
8.5884539772
 30
0.0
 10
13.0858533648
 20
8.6266397883
 30
0.0
 10
13.0832531115
 20
8.6635483288
 30
0.0
 10
13.0804624154
 20
8.6934116417
 30
0.0
 10
13.0778625612
 20
8.7165274322
 30
0.0
 10
13.0757607618
 20
8.7332518752
 30
0.0
 10
13.0734884958
 20
8.7495319883
 30
0.0
 10
13.0710484384
 20
8.765348767
 30
0.0
 10
13.0684434733
 20
8.7806837286
 30
0.0
 10
13.065676638
 20
8.7955189677
 30
0.0
 10
13.0627512464
 20
8.8098371715
 30
0.0
 10
13.0596706829
 20
8.8236216403
 30
0.0
 10
13.0564386259
 20
8.8368563156
 30
0.0
 10
13.0530588533
 20
8.8495257991
 30
0.0
 10
13.0495353278
 20
8.8616153537
 30
0.0
 10
13.0458722138
 20
8.8731110155
 30
0.0
 10
13.0420737768
 20
8.883999309
 30
0.0
 10
13.039389863
 20
8.8910132698
 30
0.0
 10
13.0380227037
 20
8.8944132342
 30
0.0
  0
SPLINE
  5
3E4
100
AcDbEntity
  8
0
100
AcDbSpline
 62
7
  6
CONTINUOUS
 70
0
 71
3
 72
12
 73
8
 74
0
 42
0.0000001
 43
0.0000001
 44
0.0000000001
 40
0.0
 40
0.0
 40
0.0
 40
0.0
 40
0.1054700756
 40
0.2165109935
 40
0.4553322604
 40
0.716517282
 40
1.0
 40
1.0
 40
1.0
 40
1.0
 10
11.0435249267
 20
8.1824760158
 30
0.0
 10
11.0441539566
 20
8.1830836121
 30
0.0
 10
11.0454253334
 20
8.1843516358
 30
0.0
 10
11.0480231605
 20
8.1870919735
 30
0.0
 10
11.0513657307
 20
8.1909025224
 30
0.0
 10
11.0554469972
 20
8.1959589622
 30
0.0
 10
11.0581637968
 20
8.1995678885
 30
0.0
 10
11.059552433
 20
8.2014645155
 30
0.0
  0
SPLINE
  5
3E5
100
AcDbEntity
  8
0
100
AcDbSpline
 62
7
  6
CONTINUOUS
 70
0
 71
3
 72
70
 73
66
 74
0
 42
0.0000001
 43
0.0000001
 44
0.0000000001
 40
0.0
 40
0.0
 40
0.0
 40
0.0
 40
0.0085742128
 40
0.0179225174
 40
0.0280750681
 40
0.0390499684
 40
0.0508538305
 40
0.0634848013
 40
0.0769342559
 40
0.0911878009
 40
0.1062261691
 40
0.1220260053
 40
0.138560371
 40
0.1557990732
 40
0.1737091024
 40
0.1922549504
 40
0.211398781
 40
0.2311006759
 40
0.2513188999
 40
0.2720100432
 40
0.3146288917
 40
0.3585841998
 40
0.4034855347
 40
0.4489313437
 40
0.4945137112
 40
0.5398231418
 40
0.5844533008
 40
0.6280058207
 40
0.6492573827
 40
0.6700962428
 40
0.6904770235
 40
0.7103557569
 40
0.7296901326
 40
0.7484396302
 40
0.7665656785
 40
0.7840319485
 40
0.8008045956
 40
0.8168524592
 40
0.8321474327
 40
0.8466649349
 40
0.8603842961
 40
0.8732893758
 40
0.8853694933
 40
0.896620431
 40
0.9070458371
 40
0.9166593113
 40
0.9254871329
 40
0.9296201465
 40
0.9335744016
 40
0.9373585101
 40
0.940982832
 40
0.9477983657
 40
0.9510242667
 40
0.954151261
 40
0.9571997333
 40
0.9601919004
 40
0.9631513546
 40
0.9661025682
 40
0.9690702375
 40
0.9720786223
 40
0.9751509051
 40
0.9783086733
 40
0.9849529369
 40
0.9921503643
 40
1.0
 40
1.0
 40
1.0
 40
1.0
 10
12.2118137155
 20
10.0890406913
 30
0.0
 10
12.2130527631
 20
10.0902375195
 30
0.0
 10
12.2157710033
 20
10.0926080948
 30
0.0
 10
12.220314465
 20
10.0959589448
 30
0.0
 10
12.2254846685
 20
10.0992471635
 30
0.0
 10
12.2312693528
 20
10.1024652902
 30
0.0
 10
12.2376556766
 20
10.1056063028
 30
0.0
 10
12.2446288291
 20
10.1086628719
 30
0.0
 10
12.2521725518
 20
10.1116277731
 30
0.0
 10
12.2602690801
 20
10.1144938866
 30
0.0
 10
12.268899207
 20
10.11725433
 30
0.0
 10
12.2780423852
 20
10.1199024201
 30
0.0
 10
12.2876767843
 20
10.1224317166
 30
0.0
 10
12.2977793345
 20
10.1248361015
 30
0.0
 10
12.3083258113
 20
10.127109745
 30
0.0
 10
12.3192909068
 20
10.1292471108
 30
0.0
 10
12.3306482809
 20
10.1312430168
 30
0.0
 10
12.3423706225
 20
10.1330926273
 30
0.0
 10
12.3544297682
 20
10.1347914808
 30
0.0
 10
12.3710831033
 20
10.1368704267
 30
0.0
 10
12.3925268888
 20
10.1390522968
 30
0.0
 10
12.4188741727
 20
10.1409902974
 30
0.0
 10
12.4458309656
 20
10.1422539418
 30
0.0
 10
12.4731380202
 20
10.1428308436
 30
0.0
 10
12.5005328922
 20
10.1427153342
 30
0.0
 10
12.5277522654
 20
10.1419085726
 30
0.0
 10
12.5545343413
 20
10.140418397
 30
0.0
 10
12.5764494911
 20
10.1386049998
 30
0.0
 10
12.5935635593
 20
10.1368149684
 30
0.0
 10
12.6060264997
 20
10.1353235138
 30
0.0
 10
12.618191486
 20
10.1336758939
 30
0.0
 10
12.6300292711
 20
10.131876057
 30
0.0
 10
12.6415113816
 20
10.1299283907
 30
0.0
 10
12.6526102172
 20
10.1278376243
 30
0.0
 10
12.6632991034
 20
10.1256088142
 30
0.0
 10
12.673552377
 20
10.123247372
 30
0.0
 10
12.6833454518
 20
10.120759045
 30
0.0
 10
12.6926548667
 20
10.1181498628
 30
0.0
 10
12.7014583615
 20
10.115426137
 30
0.0
 10
12.7097349586
 20
10.1125944847
 30
0.0
 10
12.717465007
 20
10.1096617432
 30
0.0
 10
12.7246302371
 20
10.1066349301
 30
0.0
 10
12.7312138833
 20
10.1035212519
 30
0.0
 10
12.7372006697
 20
10.100328023
 30
0.0
 10
12.7425770535
 20
10.0970623969
 30
0.0
 10
12.7473305602
 20
10.0937316568
 30
0.0
 10
12.7508381142
 20
10.0908466468
 30
0.0
 10
12.7533050243
 20
10.0885073291
 30
0.0
 10
12.7549514849
 20
10.0867801545
 30
0.0
 10
12.7564341576
 20
10.0850423364
 30
0.0
 10
12.7581556698
 20
10.0827599502
 30
0.0
 10
12.7595965223
 20
10.0804096648
 30
0.0
 10
12.7607074069
 20
10.0780057848
 30
0.0
 10
12.7613573839
 20
10.0762297997
 30
0.0
 10
12.7618384086
 20
10.0744493054
 30
0.0
 10
12.7621500403
 20
10.0726654918
 30
0.0
 10
12.7622917858
 20
10.0708797319
 30
0.0
 10
12.7622634102
 20
10.0690934813
 30
0.0
 10
12.7620650417
 20
10.0673082037
 30
0.0
 10
12.7616968882
 20
10.065525352
 30
0.0
 10
12.7611594092
 20
10.0637462035
 30
0.0
 10
12.7602020778
 20
10.0613403593
 30
0.0
 10
12.7585537577
 20
10.058332565
 30
0.0
 10
12.7559454635
 20
10.0548277696
 30
0.0
 10
12.7538665502
 20
10.0526235547
 30
0.0
 10
12.7527322102
 20
10.0515278663
 30
0.0
  0
SPLINE
  5
3E6
100
AcDbEntity
  8
0
100
AcDbSpline
 62
7
  6
CONTINUOUS
 70
0
 71
3
 72
18
 73
14
 74
0
 42
0.0000001
 43
0.0000001
 44
0.0000000001
 40
0.0
 40
0.0
 40
0.0
 40
0.0
 40
0.150467608
 40
0.291710008
 40
0.4244359371
 40
0.549562455
 40
0.6682139939
 40
0.7255497488
 40
0.7817912909
 40
0.8371402503
 40
0.8918093826
 40
0.9460201179
 40
1.0
 40
1.0
 40
1.0
 40
1.0
 10
13.1399491004
 20
7.4082707554
 30
0.0
 10
13.1372251986
 20
7.4056396682
 30
0.0
 10
13.1317812626
 20
7.4007030713
 30
0.0
 10
13.1233513716
 20
7.3941242131
 30
0.0
 10
13.1149313821
 20
7.3886219879
 30
0.0
 10
13.1065300115
 20
7.3842054269
 30
0.0
 10
13.099468752
 20
7.3814048287
 30
0.0
 10
13.0938624239
 20
7.3797408809
 30
0.0
 10
13.0897173958
 20
7.378781805
 30
0.0
 10
13.0855861193
 20
7.378098247
 30
0.0
 10
13.0814697518
 20
7.3776904488
 30
0.0
 10
13.0773699306
 20
7.3775586227
 30
0.0
 10
13.0746461274
 20
7.3776549606
 30
0.0
 10
13.0732907632
 20
7.3777489495
 30
0.0
  0
SPLINE
  5
3E7
100
AcDbEntity
  8
0
100
AcDbSpline
 62
7
  6
CONTINUOUS
 70
0
 71
3
 72
70
 73
66
 74
0
 42
0.0000001
 43
0.0000001
 44
0.0000000001
 40
0.0
 40
0.0
 40
0.0
 40
0.0
 40
0.0085742128
 40
0.0179225174
 40
0.0280750681
 40
0.0390499684
 40
0.0508538305
 40
0.0634848013
 40
0.0769342559
 40
0.0911878009
 40
0.1062261691
 40
0.1220260053
 40
0.138560371
 40
0.1557990732
 40
0.1737091024
 40
0.1922549504
 40
0.211398781
 40
0.2311006759
 40
0.2513188999
 40
0.2720100432
 40
0.3146288917
 40
0.3585841998
 40
0.4034855347
 40
0.4489313437
 40
0.4945137112
 40
0.5398231418
 40
0.5844533008
 40
0.6280058207
 40
0.6492573827
 40
0.6700962428
 40
0.6904770235
 40
0.7103557569
 40
0.7296901326
 40
0.7484396302
 40
0.7665656785
 40
0.7840319485
 40
0.8008045956
 40
0.8168524592
 40
0.8321474327
 40
0.8466649349
 40
0.8603842961
 40
0.8732893758
 40
0.8853694933
 40
0.896620431
 40
0.9070458371
 40
0.9166593113
 40
0.9254871329
 40
0.9296201465
 40
0.9335744016
 40
0.9373585101
 40
0.940982832
 40
0.9477983657
 40
0.9510242667
 40
0.954151261
 40
0.9571997333
 40
0.9601919004
 40
0.9631513546
 40
0.9661025682
 40
0.9690702375
 40
0.9720786223
 40
0.9751509051
 40
0.9783086733
 40
0.9849529369
 40
0.9921503643
 40
1.0
 40
1.0
 40
1.0
 40
1.0
 10
9.2472677898
 20
9.7255090488
 30
0.0
 10
9.2485068374
 20
9.726705877
 30
0.0
 10
9.2512250776
 20
9.7290764523
 30
0.0
 10
9.2557685393
 20
9.7324273023
 30
0.0
 10
9.2609387428
 20
9.735715521
 30
0.0
 10
9.2667234272
 20
9.7389336477
 30
0.0
 10
9.2731097509
 20
9.7420746603
 30
0.0
 10
9.2800829035
 20
9.7451312294
 30
0.0
 10
9.2876266261
 20
9.7480961306
 30
0.0
 10
9.2957231545
 20
9.7509622441
 30
0.0
 10
9.3043532813
 20
9.7537226875
 30
0.0
 10
9.3134964595
 20
9.7563707775
 30
0.0
 10
9.3231308587
 20
9.7589000741
 30
0.0
 10
9.3332334088
 20
9.761304459
 30
0.0
 10
9.3437798857
 20
9.7635781025
 30
0.0
 10
9.3547449811
 20
9.7657154683
 30
0.0
 10
9.3661023552
 20
9.7677113743
 30
0.0
 10
9.3778246969
 20
9.7695609848
 30
0.0
 10
9.3898838425
 20
9.7712598383
 30
0.0
 10
9.4065371776
 20
9.7733387842
 30
0.0
 10
9.4279809631
 20
9.7755206543
 30
0.0
 10
9.454328247
 20
9.7774586549
 30
0.0
 10
9.4812850399
 20
9.7787222993
 30
0.0
 10
9.5085920946
 20
9.7792992011
 30
0.0
 10
9.5359869666
 20
9.7791836917
 30
0.0
 10
9.5632063397
 20
9.7783769301
 30
0.0
 10
9.5899884156
 20
9.7768867545
 30
0.0
 10
9.6119035654
 20
9.7750733573
 30
0.0
 10
9.6290176337
 20
9.7732833259
 30
0.0
 10
9.641480574
 20
9.7717918713
 30
0.0
 10
9.6536455603
 20
9.7701442514
 30
0.0
 10
9.6654833455
 20
9.7683444145
 30
0.0
 10
9.6769654559
 20
9.7663967482
 30
0.0
 10
9.6880642915
 20
9.7643059818
 30
0.0
 10
9.6987531777
 20
9.7620771717
 30
0.0
 10
9.7090064514
 20
9.7597157295
 30
0.0
 10
9.7187995261
 20
9.7572274025
 30
0.0
 10
9.728108941
 20
9.7546182203
 30
0.0
 10
9.7369124358
 20
9.7518944945
 30
0.0
 10
9.745189033
 20
9.7490628421
 30
0.0
 10
9.7529190813
 20
9.7461301007
 30
0.0
 10
9.7600843114
 20
9.7431032876
 30
0.0
 10
9.7666679576
 20
9.7399896094
 30
0.0
 10
9.772654744
 20
9.7367963805
 30
0.0
 10
9.7780311278
 20
9.7335307544
 30
0.0
 10
9.7827846345
 20
9.7302000143
 30
0.0
 10
9.7862921886
 20
9.7273150043
 30
0.0
 10
9.7887590987
 20
9.7249756865
 30
0.0
 10
9.7904055592
 20
9.723248512
 30
0.0
 10
9.7918882319
 20
9.7215106939
 30
0.0
 10
9.7936097441
 20
9.7192283077
 30
0.0
 10
9.7950505967
 20
9.7168780223
 30
0.0
 10
9.7961614812
 20
9.7144741423
 30
0.0
 10
9.7968114582
 20
9.7126981572
 30
0.0
 10
9.7972924829
 20
9.7109176629
 30
0.0
 10
9.7976041146
 20
9.7091338492
 30
0.0
 10
9.7977458601
 20
9.7073480894
 30
0.0
 10
9.7977174845
 20
9.7055618388
 30
0.0
 10
9.7975191161
 20
9.7037765612
 30
0.0
 10
9.7971509625
 20
9.7019937095
 30
0.0
 10
9.7966134835
 20
9.700214561
 30
0.0
 10
9.7956561521
 20
9.6978087168
 30
0.0
 10
9.794007832
 20
9.6948009225
 30
0.0
 10
9.7913995378
 20
9.6912961271
 30
0.0
 10
9.7893206246
 20
9.6890919122
 30
0.0
 10
9.7881862845
 20
9.6879962238
 30
0.0
  0
SPLINE
  5
3E8
100
AcDbEntity
  8
0
100
AcDbSpline
 62
7
  6
CONTINUOUS
 70
0
 71
3
 72
15
 73
11
 74
0
 42
0.0000001
 43
0.0000001
 44
0.0000000001
 40
0.0
 40
0.0
 40
0.0
 40
0.0
 40
0.1266094262
 40
0.2527292962
 40
0.3783581966
 40
0.5035195312
 40
0.6282328991
 40
0.7525272242
 40
0.8764365072
 40
1.0
 40
1.0
 40
1.0
 40
1.0
 10
8.4751163946
 20
7.4541881455
 30
0.0
 10
8.4751163946
 20
7.458597387
 30
0.0
 10
8.4753655944
 20
7.4674009126
 30
0.0
 10
8.4764907644
 20
7.480536227
 30
0.0
 10
8.4783632677
 20
7.4935355603
 30
0.0
 10
8.4809768857
 20
7.506356367
 30
0.0
 10
8.4843234314
 20
7.5189576631
 30
0.0
 10
8.4883922098
 20
7.5312989372
 30
0.0
 10
8.4931699097
 20
7.5433399462
 30
0.0
 10
8.4968227638
 20
7.5511526157
 30
0.0
 10
8.4987614812
 20
7.5549943088
 30
0.0
  0
SPLINE
  5
3E9
100
AcDbEntity
  8
0
100
AcDbSpline
 62
7
  6
CONTINUOUS
 70
0
 71
3
 72
23
 73
19
 74
0
 42
0.0000001
 43
0.0000001
 44
0.0000000001
 40
0.0
 40
0.0
 40
0.0
 40
0.0
 40
0.0619809895
 40
0.1239305841
 40
0.1858719731
 40
0.247828436
 40
0.3098230829
 40
0.3718785977
 40
0.4340169849
 40
0.4962593255
 40
0.5586255455
 40
0.6211342018
 40
0.6838022902
 40
0.7466450747
 40
0.8096759356
 40
0.8729062411
 40
0.9363452431
 40
1.0
 40
1.0
 40
1.0
 40
1.0
 10
9.661504112
 20
7.411041846
 30
0.0
 10
9.6660769974
 20
7.4167431164
 30
0.0
 10
9.6755290179
 20
7.4278992046
 30
0.0
 10
9.6905840669
 20
7.4438416976
 30
0.0
 10
9.7064746469
 20
7.4589482888
 30
0.0
 10
9.7231600045
 20
7.4731800658
 30
0.0
 10
9.7405980107
 20
7.4865011829
 30
0.0
 10
9.7587444566
 20
7.4988778845
 30
0.0
 10
9.7775533919
 20
7.5102788679
 30
0.0
 10
9.7969771799
 20
7.5206752885
 30
0.0
 10
9.816966637
 20
7.5300408453
 30
0.0
 10
9.8374711412
 20
7.5383518726
 30
0.0
 10
9.8584387639
 20
7.5455873953
 30
0.0
 10
9.8798164365
 20
7.551729157
 30
0.0
 10
9.9015499946
 20
7.5567616677
 30
0.0
 10
9.9235846402
 20
7.5606722489
 30
0.0
 10
9.9458638583
 20
7.5634510264
 30
0.0
 10
9.9608182739
 20
7.5645425643
 30
0.0
 10
9.9683157906
 20
7.5648987901
 30
0.0
  0
SPLINE
  5
3EA
100
AcDbEntity
  8
0
100
AcDbSpline
 62
7
  6
CONTINUOUS
 70
0
 71
3
 72
39
 73
35
 74
0
 42
0.0000001
 43
0.0000001
 44
0.0000000001
 40
0.0
 40
0.0
 40
0.0
 40
0.0
 40
0.0304819347
 40
0.0610755097
 40
0.091780788
 40
0.1225965973
 40
0.1535205565
 40
0.1845491126
 40
0.215677593
 40
0.2469002656
 40
0.2782104089
 40
0.3096003897
 40
0.3410617489
 40
0.3725852938
 40
0.4041611964
 40
0.4357790977
 40
0.4674282148
 40
0.4990974509
 40
0.5307755068
 40
0.5624509941
 40
0.5941125495
 40
0.6257489496
 40
0.6573492248
 40
0.6889027705
 40
0.7203994554
 40
0.7518297268
 40
0.7831847101
 40
0.8144563057
 40
0.8456372868
 40
0.8767213351
 40
0.9077033141
 40
0.9385786729
 40
0.9693452754
 40
1.0
 40
1.0
 40
1.0
 40
1.0
 10
9.9683157906
 20
7.5648987901
 30
0.0
 10
9.9762031653
 20
7.565273539
 30
0.0
 10
9.9920300319
 20
7.5656022678
 30
0.0
 10
10.0158037914
 20
7.5648371972
 30
0.0
 10
10.039591312
 20
7.5628171822
 30
0.0
 10
10.0633256183
 20
7.5595478705
 30
0.0
 10
10.086941021
 20
7.5550384145
 30
0.0
 10
10.1103718675
 20
7.5493014087
 30
0.0
 10
10.1335531093
 20
7.5423528566
 30
0.0
 10
10.1564203763
 20
7.534212115
 30
0.0
 10
10.1789101814
 20
7.5249018423
 30
0.0
 10
10.2009600873
 20
7.5144479347
 30
0.0
 10
10.2225088804
 20
7.5028794552
 30
0.0
 10
10.2434967365
 20
7.4902285513
 30
0.0
 10
10.2638653969
 20
7.4765303822
 30
0.0
 10
10.2835583235
 20
7.4618230086
 30
0.0
 10
10.3025208518
 20
7.4461472834
 30
0.0
 10
10.3207003424
 20
7.4295467398
 30
0.0
 10
10.3380463245
 20
7.4120674717
 30
0.0
 10
10.3545106359
 20
7.3937580072
 30
0.0
 10
10.3700475539
 20
7.3746691734
 30
0.0
 10
10.3846139372
 20
7.3548539686
 30
0.0
 10
10.3981693344
 20
7.3343674042
 30
0.0
 10
10.4106760927
 20
7.3132663512
 30
0.0
 10
10.4220994627
 20
7.2916093846
 30
0.0
 10
10.4324076937
 20
7.2694566223
 30
0.0
 10
10.441572121
 20
7.2468695605
 30
0.0
 10
10.4495672491
 20
7.2239109018
 30
0.0
 10
10.4563708222
 20
7.200644401
 30
0.0
 10
10.461963933
 20
7.1771346264
 30
0.0
 10
10.4663309081
 20
7.1534469854
 30
0.0
 10
10.4694597122
 20
7.1296468835
 30
0.0
 10
10.4713413622
 20
7.1058014752
 30
0.0
 10
10.4717617298
 20
7.0898873127
 30
0.0
 10
10.4717617298
 20
7.0819462795
 30
0.0
  0
SPLINE
  5
3EB
100
AcDbEntity
  8
0
100
AcDbSpline
 62
7
  6
CONTINUOUS
 70
0
 71
3
 72
15
 73
11
 74
0
 42
0.0000001
 43
0.0000001
 44
0.0000000001
 40
0.0
 40
0.0
 40
0.0
 40
0.0
 40
0.1098906373
 40
0.2214016819
 40
0.3360757822
 40
0.4553202911
 40
0.5803741285
 40
0.7122942594
 40
0.8519453747
 40
1.0
 40
1.0
 40
1.0
 40
1.0
 10
12.9774729447
 20
10.3066936765
 30
0.0
 10
12.9774729443
 20
10.307267843
 30
0.0
 10
12.977546656
 20
10.3084259441
 30
0.0
 10
12.9778773042
 20
10.310154773
 30
0.0
 10
12.9784270168
 20
10.3118781647
 30
0.0
 10
12.9791943269
 20
10.3135935322
 30
0.0
 10
12.980177552
 20
10.3152992333
 30
0.0
 10
12.9813750542
 20
10.3169937764
 30
0.0
 10
12.9827850105
 20
10.3186755669
 30
0.0
 10
12.9838335834
 20
10.319754641
 30
0.0
 10
12.9843899765
 20
10.3202920755
 30
0.0
  0
SPLINE
  5
3EC
100
AcDbEntity
  8
0
100
AcDbSpline
 62
7
  6
CONTINUOUS
 70
0
 71
3
 72
71
 73
67
 74
0
 42
0.0000001
 43
0.0000001
 44
0.0000000001
 40
0.0
 40
0.0
 40
0.0
 40
0.0
 40
0.0155842357
 40
0.031115943
 40
0.0465952487
 40
0.0620238831
 40
0.0774034484
 40
0.0927362827
 40
0.1080251234
 40
0.1232731737
 40
0.1384840555
 40
0.1536617759
 40
0.1688106894
 40
0.1839354528
 40
0.1990409785
 40
0.2141323826
 40
0.2292149324
 40
0.2442939897
 40
0.2593749538
 40
0.2744632037
 40
0.2895640404
 40
0.3046826304
 40
0.3198239511
 40
0.3349927396
 40
0.3501934435
 40
0.3654301766
 40
0.3807066777
 40
0.3960262752
 40
0.4113918557
 40
0.4268058391
 40
0.4422701589
 40
0.4577862478
 40
0.4733550285
 40
0.4889769092
 40
0.5046517848
 40
0.5203790431
 40
0.5361575763
 40
0.5519857963
 40
0.5678616538
 40
0.5837826609
 40
0.5997459179
 40
0.6157481418
 40
0.6317856999
 40
0.6478546445
 40
0.6639507499
 40
0.6800695506
 40
0.6962063818
 40
0.7123564201
 40
0.7285147273
 40
0.7446762933
 40
0.7608360799
 40
0.7769890645
 40
0.7931302835
 40
0.8092548753
 40
0.8253581239
 40
0.8414355006
 40
0.8574827053
 40
0.873495705
 40
0.8894707706
 40
0.9054045132
 40
0.921293919
 40
0.9371363616
 40
0.9529297193
 40
0.9686720808
 40
0.9843626423
 40
1.0
 40
1.0
 40
1.0
 40
1.0
 10
11.6588847158
 20
7.6332664179
 30
0.0
 10
11.6588847158
 20
7.6242581411
 30
0.0
 10
11.6584438624
 20
7.6062687567
 30
0.0
 10
11.6564538505
 20
7.5793980171
 30
0.0
 10
11.6531407362
 20
7.5527480051
 30
0.0
 10
11.6485126714
 20
7.5263839856
 30
0.0
 10
11.6425805763
 20
7.50036911
 30
0.0
 10
11.635358763
 20
7.4747662178
 30
0.0
 10
11.6268645315
 20
7.4496370038
 30
0.0
 10
11.6171183128
 20
7.4250420728
 30
0.0
 10
11.6061435569
 20
7.4010407343
 30
0.0
 10
11.5939666797
 20
7.3776908772
 30
0.0
 10
11.5806170013
 20
7.3550488259
 30
0.0
 10
11.5661266758
 20
7.333169204
 30
0.0
 10
11.5505306142
 20
7.3121048024
 30
0.0
 10
11.5338664054
 20
7.2919064466
 30
0.0
 10
11.5161742387
 20
7.272622859
 30
0.0
 10
11.4974967841
 20
7.254300555
 30
0.0
 10
11.4778790929
 20
7.2369837277
 30
0.0
 10
11.4573684864
 20
7.2207141415
 30
0.0
 10
11.436014442
 20
7.2055310298
 30
0.0
 10
11.4138684712
 20
7.1914710029
 30
0.0
 10
11.3909840068
 20
7.1785679378
 30
0.0
 10
11.36741626
 20
7.1668529098
 30
0.0
 10
11.3432220826
 20
7.1563541239
 30
0.0
 10
11.3184598293
 20
7.1470968469
 30
0.0
 10
11.293189217
 20
7.1391033476
 30
0.0
 10
11.267471179
 20
7.1323928474
 30
0.0
 10
11.2413677219
 20
7.1269814625
 30
0.0
 10
11.2149417739
 20
7.1228821592
 30
0.0
 10
11.1882570268
 20
7.1201047455
 30
0.0
 10
11.1613777849
 20
7.118655845
 30
0.0
 10
11.1343688101
 20
7.118538884
 30
0.0
 10
11.1072951675
 20
7.1197540844
 30
0.0
 10
11.0802220704
 20
7.1222984643
 30
0.0
 10
11.0532147208
 20
7.1261658228
 30
0.0
 10
11.0263381531
 20
7.1313467802
 30
0.0
 10
10.9996570789
 20
7.1378288014
 30
0.0
 10
10.973235733
 20
7.1455962273
 30
0.0
 10
10.9471377207
 20
7.1546303116
 30
0.0
 10
10.9214258678
 20
7.1649092698
 30
0.0
 10
10.8961620631
 20
7.1764083128
 30
0.0
 10
10.8714071103
 20
7.1890997134
 30
0.0
 10
10.8472205876
 20
7.2029528862
 30
0.0
 10
10.8236607046
 20
7.2179344575
 30
0.0
 10
10.8007841645
 20
7.2340083455
 30
0.0
 10
10.7786460296
 20
7.2511358477
 30
0.0
 10
10.7572995864
 20
7.2692757279
 30
0.0
 10
10.7367962063
 20
7.288384304
 30
0.0
 10
10.7171852363
 20
7.3084155718
 30
0.0
 10
10.6985138799
 20
7.3293213123
 30
0.0
 10
10.6808270854
 20
7.3510512072
 30
0.0
 10
10.6641674377
 20
7.3735529584
 30
0.0
 10
10.6485750599
 20
7.3967724141
 30
0.0
 10
10.6340874958
 20
7.4206536854
 30
0.0
 10
10.6207396333
 20
7.4451392917
 30
0.0
 10
10.6085636252
 20
7.4701703007
 30
0.0
 10
10.5975888126
 20
7.4956864682
 30
0.0
 10
10.587841653
 20
7.5216263805
 30
0.0
 10
10.5793456585
 20
7.5479276045
 30
0.0
 10
10.5721213404
 20
7.574526819
 30
0.0
 10
10.5661860964
 20
7.6013600249
 30
0.0
 10
10.5615543483
 20
7.6283624891
 30
0.0
 10
10.5582371421
 20
7.655469593
 30
0.0
 10
10.556242757
 20
7.6826150017
 30
0.0
 10
10.5557973918
 20
7.7007268003
 30
0.0
 10
10.5557973918
 20
7.7097657837
 30
0.0
  0
SPLINE
  5
3ED
100
AcDbEntity
  8
0
100
AcDbSpline
 62
7
  6
CONTINUOUS
 70
0
 71
3
 72
87
 73
83
 74
0
 42
0.0000001
 43
0.0000001
 44
0.0000000001
 40
0.0
 40
0.0
 40
0.0
 40
0.0
 40
0.003930036
 40
0.0080225205
 40
0.0122809434
 40
0.0167082787
 40
0.0213070291
 40
0.0260791157
 40
0.0310258375
 40
0.0361480812
 40
0.0414462994
 40
0.0469206126
 40
0.0525707993
 40
0.0583963126
 40
0.0643963678
 40
0.0705698796
 40
0.0834315627
 40
0.0969689324
 40
0.1111661237
 40
0.1260046429
 40
0.1414636625
 40
0.1575202639
 40
0.1741496354
 40
0.19132525
 40
0.209019022
 40
0.2272014429
 40
0.2458417056
 40
0.2649078193
 40
0.2843667145
 40
0.3041843469
 40
0.3243257995
 40
0.3447553791
 40
0.3654367087
 40
0.3863328198
 40
0.4074062415
 40
0.4286190912
 40
0.449933166
 40
0.4927104627
 40
0.5354300974
 40
0.5566722203
 40
0.5777845681
 40
0.5987291703
 40
0.619468444
 40
0.6399652833
 40
0.6601831499
 40
0.6800861683
 40
0.699639218
 40
0.7188080273
 40
0.7375592711
 40
0.7558606724
 40
0.7736811091
 40
0.7909907321
 40
0.8077610858
 40
0.8239652387
 40
0.8395779308
 40
0.8545757422
 40
0.8689372885
 40
0.8826434576
 40
0.8956776912
 40
0.9080263274
 40
0.9139404171
 40
0.9196795393
 40
0.925243029
 40
0.9306305058
 40
0.9358418862
 40
0.940877476
 40
0.9457379197
 40
0.950424339
 40
0.9549383065
 40
0.9592819433
 40
0.9634579933
 40
0.9674698508
 40
0.9713217279
 40
0.9750186653
 40
0.9785667148
 40
0.9819730136
 40
0.9852459078
 40
0.9883951027
 40
0.9914317076
 40
0.9943683715
 40
0.9972192521
 40
1.0
 40
1.0
 40
1.0
 40
1.0
 10
13.6587706882
 20
7.9414139568
 30
0.0
 10
13.6606321731
 20
7.9432120132
 30
0.0
 10
13.6643531914
 20
7.9469648597
 30
0.0
 10
13.6698205452
 20
7.9529267043
 30
0.0
 10
13.6752823454
 20
7.9593305229
 30
0.0
 10
13.680735798
 20
7.966172985
 30
0.0
 10
13.6861784725
 20
7.9734508978
 30
0.0
 10
13.691607823
 20
7.9811608883
 30
0.0
 10
13.697021379
 20
7.9892992777
 30
0.0
 10
13.7024164665
 20
7.9978622303
 30
0.0
 10
13.707790585
 20
8.0068456302
 30
0.0
 10
13.7131411429
 20
8.016245216
 30
0.0
 10
13.7184655821
 20
8.0260565078
 30
0.0
 10
13.7237613861
 20
8.0362748021
 30
0.0
 10
13.729025981
 20
8.0468952448
 30
0.0
 10
13.7360972121
 20
8.0617891652
 30
0.0
 10
13.7448248024
 20
8.0813876323
 30
0.0
 10
13.7549958905
 20
8.1061148048
 30
0.0
 10
13.7649833573
 20
8.1323146018
 30
0.0
 10
13.7747679096
 20
8.1599367681
 30
0.0
 10
13.7843306396
 20
8.1889285456
 30
0.0
 10
13.7936530521
 20
8.2192343762
 30
0.0
 10
13.8027171199
 20
8.2507961383
 30
0.0
 10
13.8115053172
 20
8.2835532386
 30
0.0
 10
13.8200006518
 20
8.3174427523
 30
0.0
 10
13.8281867008
 20
8.3523995503
 30
0.0
 10
13.8360476421
 20
8.388356429
 30
0.0
 10
13.843568283
 20
8.4252442418
 30
0.0
 10
13.8507340951
 20
8.4629920323
 30
0.0
 10
13.8575312423
 20
8.5015271744
 30
0.0
 10
13.8639466012
 20
8.540775518
 30
0.0
 10
13.8699677881
 20
8.5806615348
 30
0.0
 10
13.8755831811
 20
8.6211084629
 30
0.0
 10
13.8807819456
 20
8.6620384598
 30
0.0
 10
13.8855540412
 20
8.7033727292
 30
0.0
 10
13.889890308
 20
8.7450317609
 30
0.0
 10
13.8950855902
 20
8.8009679827
 30
0.0
 10
13.9004329451
 20
8.8711094775
 30
0.0
 10
13.9042420668
 20
8.941303891
 30
0.0
 10
13.9063474668
 20
8.9972897605
 30
0.0
 10
13.9074476236
 20
9.0389609565
 30
0.0
 10
13.9080698152
 20
9.080310822
 30
0.0
 10
13.9082128315
 20
9.1212598225
 30
0.0
 10
13.907876429
 20
9.1617291221
 30
0.0
 10
13.90706128
 20
9.2016408324
 30
0.0
 10
13.9057689931
 20
9.24091814
 30
0.0
 10
13.9040021004
 20
9.2794854626
 30
0.0
 10
13.9017640527
 20
9.3172685924
 30
0.0
 10
13.8990592136
 20
9.3541948395
 30
0.0
 10
13.8958928525
 20
9.3901931733
 30
0.0
 10
13.8922711325
 20
9.4251943654
 30
0.0
 10
13.8882011088
 20
9.4591311297
 30
0.0
 10
13.88369071
 20
9.4919382572
 30
0.0
 10
13.8787487198
 20
9.5235527447
 30
0.0
 10
13.8733847608
 20
9.5539139202
 30
0.0
 10
13.8676092752
 20
9.5829635802
 30
0.0
 10
13.8614334965
 20
9.6106460812
 30
0.0
 10
13.8548694342
 20
9.6369086069
 30
0.0
 10
13.8479298204
 20
9.6617008239
 30
0.0
 10
13.8417595043
 20
9.6813700771
 30
0.0
 10
13.8366308477
 20
9.6963217931
 30
0.0
 10
13.832754279
 20
9.7069770629
 30
0.0
 10
13.8287940972
 20
9.7172306699
 30
0.0
 10
13.8247521786
 20
9.7270777408
 30
0.0
 10
13.8206304056
 20
9.736513559
 30
0.0
 10
13.8164308228
 20
9.7455336586
 30
0.0
 10
13.8121553317
 20
9.7541337245
 30
0.0
 10
13.8078060219
 20
9.7623097025
 30
0.0
 10
13.8033848965
 20
9.770057713
 30
0.0
 10
13.798893997
 20
9.7773740869
 30
0.0
 10
13.7943354495
 20
9.7842554051
 30
0.0
 10
13.789711231
 20
9.7906983716
 30
0.0
 10
13.7850235158
 20
9.7967000046
 30
0.0
 10
13.7802742799
 20
9.8022574024
 30
0.0
 10
13.7754656246
 20
9.8073679271
 30
0.0
 10
13.7705995918
 20
9.8120290874
 30
0.0
 10
13.7656781678
 20
9.816238469
 30
0.0
 10
13.7607034721
 20
9.819993935
 30
0.0
 10
13.7556775293
 20
9.8232932187
 30
0.0
 10
13.7506024507
 20
9.8261344239
 30
0.0
 10
13.74548099
 20
9.828515374
 30
0.0
 10
13.7419999089
 20
9.829808488
 30
0.0
 10
13.7402580631
 20
9.8303736094
 30
0.0
  0
SPLINE
  5
3EE
100
AcDbEntity
  8
0
100
AcDbSpline
 62
7
  6
CONTINUOUS
 70
0
 71
3
 72
15
 73
11
 74
0
 42
0.0000001
 43
0.0000001
 44
0.0000000001
 40
0.0
 40
0.0
 40
0.0
 40
0.0
 40
0.1456220392
 40
0.284441542
 40
0.4168040037
 40
0.5431449195
 40
0.6639836344
 40
0.779925626
 40
0.8916673622
 40
1.0
 40
1.0
 40
1.0
 40
1.0
 10
13.6587706882
 20
7.9414139568
 30
0.0
 10
13.65669555
 20
7.939409527
 30
0.0
 10
13.6525470725
 20
7.9355909248
 30
0.0
 10
13.6461739096
 20
7.9303329504
 30
0.0
 10
13.6398063459
 20
7.9256891176
 30
0.0
 10
13.63344835
 20
7.9216629713
 30
0.0
 10
13.6271033362
 20
7.918257706
 30
0.0
 10
13.62077474
 20
7.9154761876
 30
0.0
 10
13.6144671376
 20
7.9133217277
 30
0.0
 10
13.6102225344
 20
7.912291681
 30
0.0
 10
13.6081145774
 20
7.9118876362
 30
0.0
  0
SPLINE
  5
3EF
100
AcDbEntity
  8
0
100
AcDbSpline
 62
7
  6
CONTINUOUS
 70
0
 71
3
 72
15
 73
11
 74
0
 42
0.0000001
 43
0.0000001
 44
0.0000000001
 40
0.0
 40
0.0
 40
0.0
 40
0.0
 40
0.1098906373
 40
0.2214016819
 40
0.3360757822
 40
0.4553202911
 40
0.5803741285
 40
0.7122942594
 40
0.8519453747
 40
1.0
 40
1.0
 40
1.0
 40
1.0
 10
11.8774929108
 20
9.2441944904
 30
0.0
 10
11.8774929104
 20
9.2447686569
 30
0.0
 10
11.8775666221
 20
9.245926758
 30
0.0
 10
11.8778972703
 20
9.2476555869
 30
0.0
 10
11.8784469829
 20
9.2493789786
 30
0.0
 10
11.879214293
 20
9.2510943461
 30
0.0
 10
11.8801975181
 20
9.2528000472
 30
0.0
 10
11.8813950203
 20
9.2544945903
 30
0.0
 10
11.8828049766
 20
9.2561763808
 30
0.0
 10
11.8838535495
 20
9.2572554549
 30
0.0
 10
11.8844099427
 20
9.2577928895
 30
0.0
  0
SPLINE
  5
3F0
100
AcDbEntity
  8
0
100
AcDbSpline
 62
7
  6
CONTINUOUS
 70
0
 71
3
 72
23
 73
19
 74
0
 42
0.0000001
 43
0.0000001
 44
0.0000000001
 40
0.0
 40
0.0
 40
0.0
 40
0.0
 40
0.0781368527
 40
0.1532317188
 40
0.225404452
 40
0.2947998426
 40
0.3615916891
 40
0.4259789642
 40
0.4881874855
 40
0.5484707583
 40
0.6071107438
 40
0.6644176967
 40
0.7207260077
 40
0.7763899872
 40
0.8317774567
 40
0.887262179
 40
0.9432158246
 40
1.0
 40
1.0
 40
1.0
 40
1.0
 10
13.6587706882
 20
8.1959354271
 30
0.0
 10
13.6575133024
 20
8.1947208856
 30
0.0
 10
13.6549992761
 20
8.19238824
 30
0.0
 10
13.6511527637
 20
8.1891242054
 30
0.0
 10
13.6473088004
 20
8.1861675899
 30
0.0
 10
13.6434691217
 20
8.1835200605
 30
0.0
 10
13.6396353295
 20
8.1811828259
 30
0.0
 10
13.6358088772
 20
8.1791571454
 30
0.0
 10
13.6319913462
 20
8.1774441184
 30
0.0
 10
13.6281843749
 20
8.1760448224
 30
0.0
 10
13.6243896517
 20
8.1749603963
 30
0.0
 10
13.6206090499
 20
8.1741916251
 30
0.0
 10
13.6168445087
 20
8.1737393096
 30
0.0
 10
13.6130981238
 20
8.1736039936
 30
0.0
 10
13.6093721025
 20
8.1737858082
 30
0.0
 10
13.605668597
 20
8.1742848373
 30
0.0
 10
13.601990076
 20
8.175100499
 30
0.0
 10
13.5995777128
 20
8.1758481149
 30
0.0
 10
13.5983799206
 20
8.1762715947
 30
0.0
  0
SPLINE
  5
3F1
100
AcDbEntity
  8
0
100
AcDbSpline
 62
7
  6
CONTINUOUS
 70
0
 71
3
 72
23
 73
19
 74
0
 42
0.0000001
 43
0.0000001
 44
0.0000000001
 40
0.0
 40
0.0
 40
0.0
 40
0.0
 40
0.0749628755
 40
0.1455692105
 40
0.2121610308
 40
0.2751643503
 40
0.3350995418
 40
0.3925846725
 40
0.4483308921
 40
0.5031250774
 40
0.5577995457
 40
0.6131926739
 40
0.670107897
 40
0.7292790073
 40
0.7913522907
 40
0.8568786303
 40
0.9263109639
 40
1.0
 40
1.0
 40
1.0
 40
1.0
 10
12.2125119737
 20
10.0508659651
 30
0.0
 10
12.2117034229
 20
10.0516184013
 30
0.0
 10
12.2101781254
 20
10.0531290176
 30
0.0
 10
12.2081200365
 20
10.0554858045
 30
0.0
 10
12.206365026
 20
10.0578612556
 30
0.0
 10
12.2049157079
 20
10.06025331
 30
0.0
 10
12.2037745142
 20
10.0626598591
 30
0.0
 10
12.2029439802
 20
10.0650784295
 30
0.0
 10
12.202426486
 20
10.0675059209
 30
0.0
 10
12.202223805
 20
10.0699384772
 30
0.0
 10
12.2023368127
 20
10.0723716833
 30
0.0
 10
12.2027649748
 20
10.0748010477
 30
0.0
 10
12.2035068164
 20
10.0772224838
 30
0.0
 10
12.2045599248
 20
10.0796327261
 30
0.0
 10
12.2059219509
 20
10.0820291132
 30
0.0
 10
12.2075903785
 20
10.0844095766
 30
0.0
 10
12.2095626329
 20
10.0867717966
 30
0.0
 10
12.2110328001
 20
10.0882863849
 30
0.0
 10
12.2118137155
 20
10.0890406913
 30
0.0
  0
SPLINE
  5
3F2
100
AcDbEntity
  8
0
100
AcDbSpline
 62
7
  6
CONTINUOUS
 70
0
 71
3
 72
51
 73
47
 74
0
 42
0.0000001
 43
0.0000001
 44
0.0000000001
 40
0.0
 40
0.0
 40
0.0
 40
0.0
 40
0.008080737
 40
0.0167285458
 40
0.0259565579
 40
0.0357724608
 40
0.0461790531
 40
0.0571755041
 40
0.0687574553
 40
0.0809180121
 40
0.0936475916
 40
0.1069347421
 40
0.1207658721
 40
0.1351259397
 40
0.1653632844
 40
0.1974988173
 40
0.2313644
 40
0.2667761596
 40
0.3035369359
 40
0.3414384526
 40
0.3802633205
 40
0.419786939
 40
0.4597793374
 40
0.5000069804
 40
0.5402345547
 40
0.5802267476
 40
0.6197500249
 40
0.6585744183
 40
0.6964753307
 40
0.7332353773
 40
0.7686462878
 40
0.8025109088
 40
0.8346453759
 40
0.8648815607
 40
0.8792409939
 40
0.8930715156
 40
0.9063579986
 40
0.9190869379
 40
0.9312468049
 40
0.942828077
 40
0.9538238292
 40
0.9642297725
 40
0.9740449679
 40
0.9832721482
 40
0.9919193669
 40
1.0
 40
1.0
 40
1.0
 40
1.0
 10
12.6836355529
 20
10.0199514525
 30
0.0
 10
12.6827738527
 20
10.0206638266
 30
0.0
 10
12.6809378131
 20
10.0220761632
 30
0.0
 10
12.6779654088
 20
10.0240946561
 30
0.0
 10
12.6746873596
 20
10.0260810229
 30
0.0
 10
12.6711087153
 20
10.0280320992
 30
0.0
 10
12.6672348689
 20
10.0299451007
 30
0.0
 10
12.6630717077
 20
10.0318169834
 30
0.0
 10
12.6586256435
 20
10.033644958
 30
0.0
 10
12.6539035133
 20
10.0354260734
 30
0.0
 10
12.6489126475
 20
10.0371576408
 30
0.0
 10
12.643660786
 20
10.0388368402
 30
0.0
 10
12.6381561071
 20
10.0404611498
 30
0.0
 10
12.6303560006
 20
10.0425867905
 30
0.0
 10
12.6200324877
 20
10.0450754274
 30
0.0
 10
12.6069875663
 20
10.0477562021
 30
0.0
 10
12.5931622762
 20
10.0501632788
 30
0.0
 10
12.5786430254
 20
10.0522813396
 30
0.0
 10
12.5635204485
 20
10.0540968616
 30
0.0
 10
12.5478891267
 20
10.0555982833
 30
0.0
 10
12.5318468715
 20
10.0567760484
 30
0.0
 10
12.5154941181
 20
10.0576226676
 30
0.0
 10
12.4989332741
 20
10.05813276
 30
0.0
 10
12.4822680691
 20
10.058303085
 30
0.0
 10
12.4656028946
 20
10.0581325608
 30
0.0
 10
12.449042142
 20
10.0576222704
 30
0.0
 10
12.4326895401
 20
10.0567754556
 30
0.0
 10
12.4166474959
 20
10.0555974986
 30
0.0
 10
12.4010164435
 20
10.0540958897
 30
0.0
 10
12.3858941923
 20
10.0522801867
 30
0.0
 10
12.3713753221
 20
10.0501619519
 30
0.0
 10
12.3575504644
 20
10.0477547106
 30
0.0
 10
12.3445060258
 20
10.0450737771
 30
0.0
 10
12.3341829477
 20
10.0425850227
 30
0.0
 10
12.3263832164
 20
10.0404592696
 30
0.0
 10
12.3208788279
 20
10.0388349093
 30
0.0
 10
12.3156272696
 20
10.037155632
 30
0.0
 10
12.3106367123
 20
10.0354240183
 30
0.0
 10
12.3059149052
 20
10.0336428336
 30
0.0
 10
12.3014691667
 20
10.0318148189
 30
0.0
 10
12.2973063393
 20
10.0299428771
 30
0.0
 10
12.2934328337
 20
10.0280298271
 30
0.0
 10
12.2898545558
 20
10.0260787112
 30
0.0
 10
12.2865768598
 20
10.0240923298
 30
0.0
 10
12.2836047621
 20
10.022073759
 30
0.0
 10
12.281768918
 20
10.0206613245
 30
0.0
 10
12.2809072924
 20
10.0199488827
 30
0.0
  0
SPLINE
  5
3F3
100
AcDbEntity
  8
0
100
AcDbSpline
 62
7
  6
CONTINUOUS
 70
0
 71
3
 72
23
 73
19
 74
0
 42
0.0000001
 43
0.0000001
 44
0.0000000001
 40
0.0
 40
0.0
 40
0.0
 40
0.0
 40
0.0749628755
 40
0.1455692105
 40
0.2121610308
 40
0.2751643503
 40
0.3350995418
 40
0.3925846725
 40
0.4483308921
 40
0.5031250774
 40
0.5577995457
 40
0.6131926739
 40
0.670107897
 40
0.7292790073
 40
0.7913522907
 40
0.8568786303
 40
0.9263109639
 40
1.0
 40
1.0
 40
1.0
 40
1.0
 10
9.247966048
 20
9.6873343226
 30
0.0
 10
9.2471574972
 20
9.6880867588
 30
0.0
 10
9.2456321997
 20
9.6895973751
 30
0.0
 10
9.2435741108
 20
9.691954162
 30
0.0
 10
9.2418191003
 20
9.6943296131
 30
0.0
 10
9.2403697822
 20
9.6967216675
 30
0.0
 10
9.2392285885
 20
9.6991282166
 30
0.0
 10
9.2383980546
 20
9.701546787
 30
0.0
 10
9.2378805603
 20
9.7039742784
 30
0.0
 10
9.2376778793
 20
9.7064068347
 30
0.0
 10
9.237790887
 20
9.7088400407
 30
0.0
 10
9.2382190491
 20
9.7112694051
 30
0.0
 10
9.2389608908
 20
9.7136908413
 30
0.0
 10
9.2400139991
 20
9.7161010836
 30
0.0
 10
9.2413760252
 20
9.7184974707
 30
0.0
 10
9.2430444528
 20
9.7208779341
 30
0.0
 10
9.2450167072
 20
9.7232401541
 30
0.0
 10
9.2464868744
 20
9.7247547424
 30
0.0
 10
9.2472677898
 20
9.7255090488
 30
0.0
  0
SPLINE
  5
3F4
100
AcDbEntity
  8
0
100
AcDbSpline
 62
7
  6
CONTINUOUS
 70
0
 71
3
 72
51
 73
47
 74
0
 42
0.0000001
 43
0.0000001
 44
0.0000000001
 40
0.0
 40
0.0
 40
0.0
 40
0.0
 40
0.008080737
 40
0.0167285458
 40
0.0259565579
 40
0.0357724608
 40
0.0461790531
 40
0.0571755041
 40
0.0687574553
 40
0.0809180121
 40
0.0936475916
 40
0.1069347421
 40
0.1207658721
 40
0.1351259397
 40
0.1653632844
 40
0.1974988173
 40
0.2313644
 40
0.2667761596
 40
0.3035369359
 40
0.3414384526
 40
0.3802633205
 40
0.419786939
 40
0.4597793374
 40
0.5000069804
 40
0.5402345547
 40
0.5802267476
 40
0.6197500249
 40
0.6585744183
 40
0.6964753307
 40
0.7332353773
 40
0.7686462878
 40
0.8025109088
 40
0.8346453759
 40
0.8648815607
 40
0.8792409939
 40
0.8930715156
 40
0.9063579986
 40
0.9190869379
 40
0.9312468049
 40
0.942828077
 40
0.9538238292
 40
0.9642297725
 40
0.9740449679
 40
0.9832721482
 40
0.9919193669
 40
1.0
 40
1.0
 40
1.0
 40
1.0
 10
9.7190896272
 20
9.65641981
 30
0.0
 10
9.718227927
 20
9.6571321841
 30
0.0
 10
9.7163918875
 20
9.6585445207
 30
0.0
 10
9.7134194831
 20
9.6605630136
 30
0.0
 10
9.710141434
 20
9.6625493804
 30
0.0
 10
9.7065627896
 20
9.6645004567
 30
0.0
 10
9.7026889432
 20
9.6664134582
 30
0.0
 10
9.698525782
 20
9.6682853408
 30
0.0
 10
9.6940797179
 20
9.6701133155
 30
0.0
 10
9.6893575876
 20
9.6718944309
 30
0.0
 10
9.6843667218
 20
9.6736259983
 30
0.0
 10
9.6791148603
 20
9.6753051977
 30
0.0
 10
9.6736101814
 20
9.6769295073
 30
0.0
 10
9.6658100749
 20
9.679055148
 30
0.0
 10
9.655486562
 20
9.6815437849
 30
0.0
 10
9.6424416406
 20
9.6842245596
 30
0.0
 10
9.6286163506
 20
9.6866316363
 30
0.0
 10
9.6140970998
 20
9.6887496971
 30
0.0
 10
9.5989745228
 20
9.6905652191
 30
0.0
 10
9.583343201
 20
9.6920666408
 30
0.0
 10
9.5673009458
 20
9.6932444059
 30
0.0
 10
9.5509481924
 20
9.6940910251
 30
0.0
 10
9.5343873484
 20
9.6946011175
 30
0.0
 10
9.5177221435
 20
9.6947714425
 30
0.0
 10
9.501056969
 20
9.6946009183
 30
0.0
 10
9.4844962163
 20
9.6940906279
 30
0.0
 10
9.4681436145
 20
9.6932438131
 30
0.0
 10
9.4521015703
 20
9.6920658561
 30
0.0
 10
9.4364705178
 20
9.6905642472
 30
0.0
 10
9.4213482666
 20
9.6887485442
 30
0.0
 10
9.4068293964
 20
9.6866303094
 30
0.0
 10
9.3930045387
 20
9.6842230681
 30
0.0
 10
9.3799601001
 20
9.6815421346
 30
0.0
 10
9.369637022
 20
9.6790533802
 30
0.0
 10
9.3618372907
 20
9.6769276271
 30
0.0
 10
9.3563329023
 20
9.6753032668
 30
0.0
 10
9.3510813439
 20
9.6736239895
 30
0.0
 10
9.3460907866
 20
9.6718923758
 30
0.0
 10
9.3413689795
 20
9.6701111911
 30
0.0
 10
9.336923241
 20
9.6682831764
 30
0.0
 10
9.3327604136
 20
9.6664112346
 30
0.0
 10
9.328886908
 20
9.6644981846
 30
0.0
 10
9.3253086301
 20
9.6625470687
 30
0.0
 10
9.3220309341
 20
9.6605606873
 30
0.0
 10
9.3190588364
 20
9.6585421165
 30
0.0
 10
9.3172229923
 20
9.657129682
 30
0.0
 10
9.3163613668
 20
9.6564172401
 30
0.0
  0
SPLINE
  5
3F5
100
AcDbEntity
  8
0
100
AcDbSpline
 62
7
  6
CONTINUOUS
 70
0
 71
3
 72
92
 73
88
 74
0
 42
0.0000001
 43
0.0000001
 44
0.0000000001
 40
0.0
 40
0.0
 40
0.0
 40
0.0
 40
0.0027164136
 40
0.0054531999
 40
0.0082302488
 40
0.0110665156
 40
0.0139797
 40
0.0169859759
 40
0.0200999097
 40
0.0233343921
 40
0.0267007085
 40
0.030208627
 40
0.0338664962
 40
0.0376814269
 40
0.0416593531
 40
0.0458052407
 40
0.0501231229
 40
0.0546162682
 40
0.0592872359
 40
0.0641379574
 40
0.0691698402
 40
0.0743837612
 40
0.0797802065
 40
0.0853592201
 40
0.0911205286
 40
0.0970635116
 40
0.1031872593
 40
0.1094906055
 40
0.1226297411
 40
0.1364672907
 40
0.1509859854
 40
0.1661657644
 40
0.1819840906
 40
0.1984162077
 40
0.2154353587
 40
0.2330129748
 40
0.2511188396
 40
0.2697212359
 40
0.2887870798
 40
0.3082820459
 40
0.3281706839
 40
0.3484165301
 40
0.3689822167
 40
0.3898295783
 40
0.4109197545
 40
0.4322132911
 40
0.4536702402
 40
0.4752502592
 40
0.4969127091
 40
0.5186167533
 40
0.5403214559
 40
0.56198588
 40
0.5835691848
 40
0.6050307242
 40
0.626330144
 40
0.6474274812
 40
0.6682832628
 40
0.6888586082
 40
0.7091153287
 40
0.729016031
 40
0.7485242218
 40
0.7676044158
 40
0.7862222477
 40
0.8043445896
 40
0.8219396778
 40
0.8389772466
 40
0.8554286739
 40
0.871267144
 40
0.8864678337
 40
0.9010081287
 40
0.9148678812
 40
0.9215371855
 40
0.928030107
 40
0.9343449535
 40
0.9404803007
 40
0.946434946
 40
0.9522079623
 40
0.9577987256
 40
0.9632069066
 40
0.9684325773
 40
0.9734761504
 40
0.9783385002
 40
0.9830209469
 40
0.987525443
 40
0.9918546017
 40
0.9960115601
 40
1.0
 40
1.0
 40
1.0
 40
1.0
 10
13.7563386544
 20
9.8311313502
 30
0.0
 10
13.7581369095
 20
9.8310066485
 30
0.0
 10
13.7617376995
 20
9.8305935652
 30
0.0
 10
13.7670930541
 20
9.8294881487
 30
0.0
 10
13.7724079126
 20
9.827897037
 30
0.0
 10
13.777678547
 20
9.8258219239
 30
0.0
 10
13.7829021516
 20
9.8232644719
 30
0.0
 10
13.7880761387
 20
9.8202268558
 30
0.0
 10
13.7931980449
 20
9.8167111047
 30
0.0
 10
13.7982656451
 20
9.8127195279
 30
0.0
 10
13.803276737
 20
9.8082544301
 30
0.0
 10
13.8082291303
 20
9.8033182313
 30
0.0
 10
13.813120731
 20
9.797913559
 30
0.0
 10
13.817949273
 20
9.7920430836
 30
0.0
 10
13.8227126766
 20
9.7857098047
 30
0.0
 10
13.8274086411
 20
9.7789167878
 30
0.0
 10
13.8320350408
 20
9.7716674249
 30
0.0
 10
13.8365896253
 20
9.7639652575
 30
0.0
 10
13.8410702033
 20
9.7558140865
 30
0.0
 10
13.8454746255
 20
9.7472179453
 30
0.0
 10
13.8498006637
 20
9.7381810649
 30
0.0
 10
13.854046267
 20
9.728707952
 30
0.0
 10
13.8582092356
 20
9.7188032859
 30
0.0
 10
13.8622875774
 20
9.7084720188
 30
0.0
 10
13.8662791958
 20
9.6977192843
 30
0.0
 10
13.8701821121
 20
9.686550462
 30
0.0
 10
13.8739944071
 20
9.6749711156
 30
0.0
 10
13.8790236387
 20
9.6587675773
 30
0.0
 10
13.8850520834
 20
9.6375181627
 30
0.0
 10
13.8917989551
 20
9.6108183565
 30
0.0
 10
13.8981413178
 20
9.5826301306
 30
0.0
 10
13.9040663021
 20
9.5530099916
 30
0.0
 10
13.9095618489
 20
9.5220170927
 30
0.0
 10
13.914616776
 20
9.4897135228
 30
0.0
 10
13.9192207959
 20
9.4561640404
 30
0.0
 10
13.9233645373
 20
9.4214359627
 30
0.0
 10
13.9270395656
 20
9.3855990099
 30
0.0
 10
13.9302383992
 20
9.3487251596
 30
0.0
 10
13.9329545239
 20
9.3108884963
 30
0.0
 10
13.9351824057
 20
9.2721650584
 30
0.0
 10
13.9369175004
 20
9.2326326831
 30
0.0
 10
13.938156266
 20
9.1923708474
 30
0.0
 10
13.9388961668
 20
9.151460505
 30
0.0
 10
13.9391356763
 20
9.1099839207
 30
0.0
 10
13.9388742804
 20
9.0680245027
 30
0.0
 10
13.9381124776
 20
9.0256666347
 30
0.0
 10
13.9368517781
 20
8.982995505
 30
0.0
 10
13.9350946999
 20
8.9400969351
 30
0.0
 10
13.9328447641
 20
8.8970572063
 30
0.0
 10
13.9301064909
 20
8.8539628852
 30
0.0
 10
13.9268853864
 20
8.8109006481
 30
0.0
 10
13.9231879321
 20
8.7679571059
 30
0.0
 10
13.9190215715
 20
8.7252186296
 30
0.0
 10
13.9143946952
 20
8.6827711765
 30
0.0
 10
13.9093166241
 20
8.6407001165
 30
0.0
 10
13.9037975909
 20
8.5990900602
 30
0.0
 10
13.8978487203
 20
8.5580246865
 30
0.0
 10
13.8914820097
 20
8.5175865724
 30
0.0
 10
13.8847103009
 20
8.4778570256
 30
0.0
 10
13.8775472558
 20
8.438915921
 30
0.0
 10
13.870007329
 20
8.4008415383
 30
0.0
 10
13.8621057393
 20
8.3637104024
 30
0.0
 10
13.8538584394
 20
8.3275971277
 30
0.0
 10
13.8452820836
 20
8.292574263
 30
0.0
 10
13.8363939964
 20
8.2587121385
 30
0.0
 10
13.827212138
 20
8.2260787205
 30
0.0
 10
13.8177550643
 20
8.1947394603
 30
0.0
 10
13.8080418883
 20
8.1647571835
 30
0.0
 10
13.7980922384
 20
8.1361918488
 30
0.0
 10
13.7879262121
 20
8.1091007708
 30
0.0
 10
13.7791829944
 20
8.0875306041
 30
0.0
 10
13.7720839906
 20
8.0710636638
 30
0.0
 10
13.7667867429
 20
8.0592737817
 30
0.0
 10
13.7614508155
 20
8.0478914825
 30
0.0
 10
13.7560789037
 20
8.0369224403
 30
0.0
 10
13.7506736877
 20
8.0263721498
 30
0.0
 10
13.745237869
 20
8.016245887
 30
0.0
 10
13.7397742089
 20
8.0065486915
 30
0.0
 10
13.73428537
 20
7.9972854203
 30
0.0
 10
13.7287741628
 20
7.9884606458
 30
0.0
 10
13.7232432381
 20
7.9800787977
 30
0.0
 10
13.7176954307
 20
7.9721440128
 30
0.0
 10
13.7121334216
 20
7.9646602312
 30
0.0
 10
13.7065598998
 20
7.9576311054
 30
0.0
 10
13.7009774832
 20
7.9510600332
 30
0.0
 10
13.6953891086
 20
7.944950579
 30
0.0
 10
13.6915839484
 20
7.9411091334
 30
0.0
 10
13.6896803172
 20
7.9392703668
 30
0.0
  0
SPLINE
  5
3F6
100
AcDbEntity
  8
0
100
AcDbSpline
 62
7
  6
CONTINUOUS
 70
0
 71
3
 72
23
 73
19
 74
0
 42
0.0000001
 43
0.0000001
 44
0.0000000001
 40
0.0
 40
0.0
 40
0.0
 40
0.0
 40
0.0637771735
 40
0.1273448473
 40
0.1907019822
 40
0.253856143
 40
0.3168131975
 40
0.3795820985
 40
0.4421733906
 40
0.5045993374
 40
0.5668738654
 40
0.62901238
 40
0.6910316489
 40
0.7529496402
 40
0.814785347
 40
0.8765585971
 40
0.938289852
 40
1.0
 40
1.0
 40
1.0
 40
1.0
 10
8.0666063549
 20
7.3095977245
 30
0.0
 10
8.0666063549
 20
7.317188712
 30
0.0
 10
8.0669696909
 20
7.332348324
 30
0.0
 10
8.0686096116
 20
7.3549955294
 30
0.0
 10
8.0713400842
 20
7.377463198
 30
0.0
 10
8.0751545964
 20
7.39969862
 30
0.0
 10
8.0800445986
 20
7.4216509291
 30
0.0
 10
8.085998812
 20
7.4432693837
 30
0.0
 10
8.093003555
 20
7.4645041784
 30
0.0
 10
8.1010427188
 20
7.4853063437
 30
0.0
 10
8.1100978084
 20
7.505627905
 30
0.0
 10
8.1201480018
 20
7.5254219828
 30
0.0
 10
8.1311701634
 20
7.5446429051
 30
0.0
 10
8.1431388919
 20
7.5632463506
 30
0.0
 10
8.1560265619
 20
7.5811893658
 30
0.0
 10
8.1698036199
 20
7.5984306927
 30
0.0
 10
8.1844377549
 20
7.6149300184
 30
0.0
 10
8.1947447162
 20
7.625411415
 30
0.0
 10
8.200027623
 20
7.6305142939
 30
0.0
  0
SPLINE
  5
3F7
100
AcDbEntity
  8
0
100
AcDbSpline
 62
7
  6
CONTINUOUS
 70
0
 71
3
 72
85
 73
81
 74
0
 42
0.0000001
 43
0.0000001
 44
0.0000000001
 40
0.0
 40
0.0
 40
0.0
 40
0.0
 40
0.0040523243
 40
0.0082800677
 40
0.0126871048
 40
0.0172766874
 40
0.0220515212
 40
0.0270136657
 40
0.0321644496
 40
0.0375047249
 40
0.0430348574
 40
0.0487548144
 40
0.054664209
 40
0.0607622539
 40
0.073519334
 40
0.0870147526
 40
0.1012327467
 40
0.1161541856
 40
0.1317569883
 40
0.1480164546
 40
0.1649055313
 40
0.1823950537
 40
0.2004539481
 40
0.2190494063
 40
0.2381470435
 40
0.2577110372
 40
0.2777042638
 40
0.2980884342
 40
0.318824216
 40
0.3398713518
 40
0.3611887728
 40
0.3827347104
 40
0.4263415096
 40
0.4703487206
 40
0.5144084858
 40
0.5581724224
 40
0.5798356861
 40
0.6012958978
 40
0.6225109263
 40
0.6434392703
 40
0.6640401693
 40
0.6842737169
 40
0.7041009772
 40
0.7234841094
 40
0.742386497
 40
0.7607728733
 40
0.7786094587
 40
0.7958641099
 40
0.8125064856
 40
0.8285082407
 40
0.843843233
 40
0.8584877643
 40
0.8724208768
 40
0.8856247162
 40
0.8980849977
 40
0.9040332524
 40
0.9097922075
 40
0.9153613987
 40
0.9207406784
 40
0.9259303725
 40
0.9309312112
 40
0.9357444596
 40
0.9403719648
 40
0.9448161804
 40
0.9490803491
 40
0.9531684867
 40
0.9570855871
 40
0.9608377024
 40
0.9644320671
 40
0.9678773102
 40
0.9711835117
 40
0.9774235374
 40
0.9803901426
 40
0.9832753266
 40
0.9860978125
 40
0.9888777483
 40
0.9916362933
 40
0.9943951484
 40
0.9971760023
 40
1.0
 40
1.0
 40
1.0
 40
1.0
 10
13.6587706882
 20
8.1959354271
 30
0.0
 10
13.6601877566
 20
8.1973042101
 30
0.0
 10
13.6630202575
 20
8.2001668298
 30
0.0
 10
13.6671780268
 20
8.2047252319
 30
0.0
 10
13.6713311729
 20
8.2096352443
 30
0.0
 10
13.6754773511
 20
8.2148940737
 30
0.0
 10
13.6796145546
 20
8.2204990202
 30
0.0
 10
13.6837406518
 20
8.2264472546
 30
0.0
 10
13.6878536028
 20
8.2327356671
 30
0.0
 10
13.6919511846
 20
8.2393610105
 30
0.0
 10
13.6960312932
 20
8.246319806
 30
0.0
 10
13.7000917979
 20
8.2536084203
 30
0.0
 10
13.7041305676
 20
8.26122307
 30
0.0
 10
13.7095657034
 20
8.2719674141
 30
0.0
 10
13.7162765406
 20
8.2861961394
 30
0.0
 10
13.7240931741
 20
8.3042563101
 30
0.0
 10
13.7317734417
 20
8.3235123666
 30
0.0
 10
13.7393010951
 20
8.3439238991
 30
0.0
 10
13.7466601972
 20
8.3654482797
 30
0.0
 10
13.753835146
 20
8.3880403635
 30
0.0
 10
13.7608107356
 20
8.4116527122
 30
0.0
 10
13.7675721789
 20
8.4362356814
 30
0.0
 10
13.774105143
 20
8.4617375489
 30
0.0
 10
13.7803957815
 20
8.48810463
 30
0.0
 10
13.7864307614
 20
8.5152813926
 30
0.0
 10
13.7921972987
 20
8.5432105748
 30
0.0
 10
13.7976831864
 20
8.5718333097
 30
0.0
 10
13.8028768107
 20
8.6010892564
 30
0.0
 10
13.8077671822
 20
8.6309167368
 30
0.0
 10
13.8123439407
 20
8.6612528453
 30
0.0
 10
13.8165974415
 20
8.6920336549
 30
0.0
 10
13.8218463833
 20
8.7337462743
 30
0.0
 10
13.8275293791
 20
8.7865187102
 30
0.0
 10
13.8329102976
 20
8.850315872
 30
0.0
 10
13.8368335791
 20
8.9142957644
 30
0.0
 10
13.8388679312
 20
8.9674933571
 30
0.0
 10
13.839733943
 20
9.0097289009
 30
0.0
 10
13.8400000773
 20
9.0410091551
 30
0.0
 10
13.8398846001
 20
9.0719330022
 30
0.0
 10
13.8393877514
 20
9.1024352751
 30
0.0
 10
13.8385106196
 20
9.1324516343
 30
0.0
 10
13.8372550887
 20
9.161918786
 30
0.0
 10
13.8356238467
 20
9.1907745957
 30
0.0
 10
13.8336203822
 20
9.2189582311
 30
0.0
 10
13.8312489834
 20
9.2464102922
 30
0.0
 10
13.8285147193
 20
9.2730729384
 30
0.0
 10
13.8254234311
 20
9.2988900097
 30
0.0
 10
13.8219817207
 20
9.323807149
 30
0.0
 10
13.8181969344
 20
9.3477719285
 30
0.0
 10
13.8140771599
 20
9.3707339707
 30
0.0
 10
13.8096311984
 20
9.3926450761
 30
0.0
 10
13.8048685388
 20
9.4134592972
 30
0.0
 10
13.7997993346
 20
9.4331331791
 30
0.0
 10
13.7944343532
 20
9.4516254452
 30
0.0
 10
13.7896554722
 20
9.4662370477
 30
0.0
 10
13.7856803218
 20
9.4772948557
 30
0.0
 10
13.7826783011
 20
9.4851403223
 30
0.0
 10
13.7796110702
 20
9.4926626461
 30
0.0
 10
13.7764801179
 20
9.4998578903
 30
0.0
 10
13.7732871622
 20
9.5067223235
 30
0.0
 10
13.7700338087
 20
9.5132523633
 30
0.0
 10
13.7667217413
 20
9.5194446199
 30
0.0
 10
13.7633526973
 20
9.5252959075
 30
0.0
 10
13.759928305
 20
9.5308031663
 30
0.0
 10
13.7564503716
 20
9.5359636006
 30
0.0
 10
13.7529205348
 20
9.5407745141
 30
0.0
 10
13.7493405527
 20
9.5452334266
 30
0.0
 10
13.7457120979
 20
9.5493380637
 30
0.0
 10
13.7420369543
 20
9.5530860939
 30
0.0
 10
13.7383163172
 20
9.5564759199
 30
0.0
 10
13.7333939418
 20
9.560437773
 30
0.0
 10
13.7282840973
 20
9.5637852025
 30
0.0
 10
13.7230183877
 20
9.5664113289
 30
0.0
 10
13.7190985663
 20
9.5679810332
 30
0.0
 10
13.7151450252
 20
9.5691816835
 30
0.0
 10
13.7111601051
 20
9.570012315
 30
0.0
 10
13.7071466013
 20
9.5704719559
 30
0.0
 10
13.7031073027
 20
9.5705601362
 30
0.0
 10
13.6990455096
 20
9.5702770781
 30
0.0
 10
13.6963507702
 20
9.5698452912
 30
0.0
 10
13.6950055166
 20
9.5695706963
 30
0.0
  0
SPLINE
  5
3F8
100
AcDbEntity
  8
0
100
AcDbSpline
 62
7
  6
CONTINUOUS
 70
0
 71
3
 72
31
 73
27
 74
0
 42
0.0000001
 43
0.0000001
 44
0.0000000001
 40
0.0
 40
0.0
 40
0.0
 40
0.0
 40
0.0605355681
 40
0.1196695499
 40
0.1751471955
 40
0.2264359356
 40
0.2738047415
 40
0.317735526
 40
0.3970785943
 40
0.4674276663
 40
0.5307570944
 40
0.5884185272
 40
0.641396718
 40
0.6904765669
 40
0.7363599972
 40
0.779764366
 40
0.8008091742
 40
0.8215648402
 40
0.8421712963
 40
0.8627933802
 40
0.8836204419
 40
0.9048749466
 40
0.9268147916
 40
0.9497401215
 40
0.9739998496
 40
1.0
 40
1.0
 40
1.0
 40
1.0
 10
10.786002968
 20
7.6896151754
 30
0.0
 10
10.7868642566
 20
7.6871913126
 30
0.0
 10
10.7883756897
 20
7.6823298977
 30
0.0
 10
10.7900778807
 20
7.6750792961
 30
0.0
 10
10.7912530607
 20
7.6681239657
 30
0.0
 10
10.7919763884
 20
7.6616112148
 30
0.0
 10
10.7923318669
 20
7.6555599803
 30
0.0
 10
10.792405015
 20
7.648307084
 30
0.0
 10
10.7919348438
 20
7.6400808111
 30
0.0
 10
10.7906163573
 20
7.631113772
 30
0.0
 10
10.7887146018
 20
7.6231970289
 30
0.0
 10
10.7863158574
 20
7.6161922152
 30
0.0
 10
10.7834700054
 20
7.6100166126
 30
0.0
 10
10.7802041925
 20
7.6046272422
 30
0.0
 10
10.7765313542
 20
7.6000137485
 30
0.0
 10
10.77309243
 20
7.5967956185
 30
0.0
 10
10.7701530441
 20
7.5946747161
 30
0.0
 10
10.7678692407
 20
7.5933192919
 30
0.0
 10
10.7654822812
 20
7.5921958845
 30
0.0
 10
10.7629909935
 20
7.5913173249
 30
0.0
 10
10.760393127
 20
7.5907021914
 30
0.0
 10
10.7576872266
 20
7.5903702608
 30
0.0
 10
10.7548714956
 20
7.5903477628
 30
0.0
 10
10.7519446207
 20
7.5906650218
 30
0.0
 10
10.7489062549
 20
7.5913588205
 30
0.0
 10
10.7468880618
 20
7.5920743275
 30
0.0
 10
10.7458685053
 20
7.5924999361
 30
0.0
  0
SPLINE
  5
3F9
100
AcDbEntity
  8
0
100
AcDbSpline
 62
7
  6
CONTINUOUS
 70
0
 71
3
 72
59
 73
55
 74
0
 42
0.0000001
 43
0.0000001
 44
0.0000000001
 40
0.0
 40
0.0
 40
0.0
 40
0.0
 40
0.0083782343
 40
0.0173208535
 40
0.0268349956
 40
0.0369234094
 40
0.0475853465
 40
0.0588169846
 40
0.07061195
 40
0.0829616314
 40
0.0958554136
 40
0.1092809732
 40
0.123224424
 40
0.1376704287
 40
0.1526023967
 40
0.168002566
 40
0.1838520576
 40
0.2001310248
 40
0.2168187108
 40
0.2338934781
 40
0.2513329291
 40
0.2691139563
 40
0.3056043621
 40
0.3431681596
 40
0.3816001581
 40
0.4206888688
 40
0.4602180961
 40
0.4999685072
 40
0.5397192135
 40
0.5792493213
 40
0.6183395005
 40
0.6567735361
 40
0.6943399195
 40
0.7308334647
 40
0.7486162418
 40
0.7660575861
 40
0.7831343628
 40
0.7998241607
 40
0.8161053738
 40
0.8319572164
 40
0.8473598203
 40
0.8622943437
 40
0.8767429948
 40
0.8906891536
 40
0.9041175228
 40
0.9170141875
 40
0.9293667855
 40
0.9411647422
 40
0.9523994171
 40
0.963064392
 40
0.9731558781
 40
0.9826730765
 40
0.9916187469
 40
1.0
 40
1.0
 40
1.0
 40
1.0
 10
13.5370964098
 20
8.2535949586
 30
0.0
 10
13.5393693946
 20
8.2563664055
 30
0.0
 10
13.5438979121
 20
8.2622372508
 30
0.0
 10
13.5504435677
 20
8.2716735773
 30
0.0
 10
13.5569523582
 20
8.2820108116
 30
0.0
 10
13.5634146025
 20
8.2932338051
 30
0.0
 10
13.5698210529
 20
8.3053265005
 30
0.0
 10
13.5761623462
 20
8.3182713213
 30
0.0
 10
13.5824291318
 20
8.3320494245
 30
0.0
 10
13.5886121301
 20
8.3466406479
 30
0.0
 10
13.5947022077
 20
8.3620235613
 30
0.0
 10
13.6006903052
 20
8.3781755403
 30
0.0
 10
13.6065675061
 20
8.3950727874
 30
0.0
 10
13.6123250996
 20
8.4126903566
 30
0.0
 10
13.6179545099
 20
8.4310022285
 30
0.0
 10
13.6234473433
 20
8.4499813395
 30
0.0
 10
13.628795456
 20
8.4695996084
 30
0.0
 10
13.6339908849
 20
8.4898280051
 30
0.0
 10
13.6390258844
 20
8.510636592
 30
0.0
 10
13.643892983
 20
8.5319945433
 30
0.0
 10
13.6485849765
 20
8.5538702511
 30
0.0
 10
13.6546502931
 20
8.583944262
 30
0.0
 10
13.6617292994
 20
8.6225934736
 30
0.0
 10
13.6693510532
 20
8.6701128501
 30
0.0
 10
13.6761256661
 20
8.7188828127
 30
0.0
 10
13.6820127624
 20
8.7686144415
 30
0.0
 10
13.6869772468
 20
8.819013327
 30
0.0
 10
13.6909896283
 20
8.8697809768
 30
0.0
 10
13.6940260887
 20
8.9206167099
 30
0.0
 10
13.6960686732
 20
8.9712194387
 30
0.0
 10
13.6971054239
 20
9.0212894481
 30
0.0
 10
13.6971304103
 20
9.0705302911
 30
0.0
 10
13.6961437045
 20
9.1186502272
 30
0.0
 10
13.6944697456
 20
9.1579099139
 30
0.0
 10
13.6926155751
 20
9.1885362799
 30
0.0
 10
13.6909894732
 20
9.2108527623
 30
0.0
 10
13.6891184493
 20
9.2326807887
 30
0.0
 10
13.6870052625
 20
9.2539880547
 30
0.0
 10
13.6846531064
 20
9.2747429999
 30
0.0
 10
13.6820654826
 20
9.2949148943
 30
0.0
 10
13.6792462491
 20
9.3144738792
 30
0.0
 10
13.6761996495
 20
9.3333910225
 30
0.0
 10
13.6729302282
 20
9.3516383496
 30
0.0
 10
13.6694428558
 20
9.3691888949
 30
0.0
 10
13.6657427758
 20
9.3860167567
 30
0.0
 10
13.6618355069
 20
9.4020971228
 30
0.0
 10
13.6577268558
 20
9.4174063169
 30
0.0
 10
13.6534229755
 20
9.4319218655
 30
0.0
 10
13.6489302549
 20
9.445622509
 30
0.0
 10
13.644255296
 20
9.4584882666
 30
0.0
 10
13.6394050157
 20
9.4705004461
 30
0.0
 10
13.6343863641
 20
9.4816418913
 30
0.0
 10
13.6292067127
 20
9.4918961917
 30
0.0
 10
13.6255325213
 20
9.4983392543
 30
0.0
 10
13.623664124
 20
9.5013996022
 30
0.0
  0
SPLINE
  5
3FA
100
AcDbEntity
  8
0
100
AcDbSpline
 62
7
  6
CONTINUOUS
 70
0
 71
3
 72
43
 73
39
 74
0
 42
0.0000001
 43
0.0000001
 44
0.0000000001
 40
0.0
 40
0.0
 40
0.0
 40
0.0
 40
0.0149672865
 40
0.0299517182
 40
0.04495549
 40
0.059980694
 40
0.0900984567
 40
0.120324286
 40
0.1354840101
 40
0.1506751829
 40
0.1658989737
 40
0.1811564011
 40
0.2117708691
 40
0.2425280664
 40
0.2734301901
 40
0.3044767647
 40
0.3356646878
 40
0.3669883214
 40
0.3984396246
 40
0.430008324
 40
0.4616821164
 40
0.4934468999
 40
0.5252870292
 40
0.5571855907
 40
0.5891246935
 40
0.6210857717
 40
0.6530498944
 40
0.6849980803
 40
0.7169116124
 40
0.7487723502
 40
0.7805630346
 40
0.8122675838
 40
0.8438713716
 40
0.8753614984
 40
0.9067269914
 40
0.9379591703
 40
0.9690513233
 40
1.0
 40
1.0
 40
1.0
 40
1.0
 10
11.580340607
 20
7.4108832788
 30
0.0
 10
11.5755869727
 20
7.4079694176
 30
0.0
 10
11.5659679983
 20
7.4023096965
 30
0.0
 10
11.551234692
 20
7.3943409546
 30
0.0
 10
11.5362047746
 20
7.3868971846
 30
0.0
 10
11.5157792738
 20
7.3776774652
 30
0.0
 10
11.4895826543
 20
7.3675063593
 30
0.0
 10
11.4626827135
 20
7.359205728
 30
0.0
 10
11.4407950059
 20
7.3536982891
 30
0.0
 10
11.4241919701
 20
7.3501349427
 30
0.0
 10
11.4074387554
 20
7.3471475151
 30
0.0
 10
11.3849036204
 20
7.3439333024
 30
0.0
 10
11.3564476915
 20
7.3413751304
 30
0.0
 10
11.3220552825
 20
7.3406526321
 30
0.0
 10
11.2875319939
 20
7.3422762188
 30
0.0
 10
11.2530374917
 20
7.3462383082
 30
0.0
 10
11.2187298734
 20
7.3525203684
 30
0.0
 10
11.1847667012
 20
7.3610933034
 30
0.0
 10
11.1513038146
 20
7.371917515
 30
0.0
 10
11.1184947513
 20
7.3849431115
 30
0.0
 10
11.0864900174
 20
7.4001101334
 30
0.0
 10
11.0554364152
 20
7.4173488334
 30
0.0
 10
11.0254763725
 20
7.4365799901
 30
0.0
 10
10.9967472933
 20
7.4577152686
 30
0.0
 10
10.9693809394
 20
7.4806576328
 30
0.0
 10
10.9435028315
 20
7.5053017867
 30
0.0
 10
10.919231679
 20
7.5315346536
 30
0.0
 10
10.8966788409
 20
7.5592358904
 30
0.0
 10
10.8759478193
 20
7.5882784348
 30
0.0
 10
10.8571337885
 20
7.6185290828
 30
0.0
 10
10.840323159
 20
7.6498490909
 30
0.0
 10
10.8255931759
 20
7.6820948075
 30
0.0
 10
10.813011569
 20
7.7151183144
 30
0.0
 10
10.8026362643
 20
7.7487681571
 30
0.0
 10
10.7945150492
 20
7.7828898153
 30
0.0
 10
10.7886855175
 20
7.8173272046
 30
0.0
 10
10.7851745626
 20
7.8519202336
 30
0.0
 10
10.7843888483
 20
7.8750391759
 30
0.0
 10
10.7843888483
 20
7.8865682064
 30
0.0
  0
SPLINE
  5
3FB
100
AcDbEntity
  8
0
100
AcDbSpline
 62
7
  6
CONTINUOUS
 70
0
 71
3
 72
53
 73
49
 74
0
 42
0.0000001
 43
0.0000001
 44
0.0000000001
 40
0.0
 40
0.0
 40
0.0
 40
0.0
 40
0.0098670915
 40
0.020217269
 40
0.0310468334
 40
0.042350478
 40
0.0541214738
 40
0.0663517444
 40
0.0790321285
 40
0.092152338
 40
0.1057011724
 40
0.1196665371
 40
0.134035496
 40
0.1487944149
 40
0.163928892
 40
0.1794239323
 40
0.2114320343
 40
0.244687814
 40
0.2790518805
 40
0.3143781233
 40
0.3505147552
 40
0.387305302
 40
0.4245895633
 40
0.4622045537
 40
0.4999854347
 40
0.5377664454
 40
0.5753818252
 40
0.6126667358
 40
0.6494581861
 40
0.6855959664
 40
0.7209235968
 40
0.7552892854
 40
0.788546917
 40
0.8205570898
 40
0.8360532264
 40
0.8511888726
 40
0.8659489786
 40
0.880319192
 40
0.8942858434
 40
0.9078359968
 40
0.9209575839
 40
0.9336393465
 40
0.9458710592
 40
0.957643502
 40
0.9689486234
 40
0.9797796952
 40
0.9901313655
 40
1.0
 40
1.0
 40
1.0
 40
1.0
 10
13.5120373234
 20
8.3338249349
 30
0.0
 10
13.5138607541
 20
8.3370029507
 30
0.0
 10
13.5174872851
 20
8.343577933
 30
0.0
 10
13.5227524571
 20
8.3538357172
 30
0.0
 10
13.5279675151
 20
8.3647137551
 30
0.0
 10
13.5331262934
 20
8.3761993177
 30
0.0
 10
13.5382227568
 20
8.3882791449
 30
0.0
 10
13.5432509905
 20
8.4009391815
 30
0.0
 10
13.5482050392
 20
8.4141647185
 30
0.0
 10
13.5530791454
 20
8.4279403397
 30
0.0
 10
13.5578675658
 20
8.4422499902
 30
0.0
 10
13.5625646734
 20
8.457076975
 30
0.0
 10
13.5671649936
 20
8.4724039813
 30
0.0
 10
13.5716630655
 20
8.4882131101
 30
0.0
 10
13.5760536976
 20
8.5044858999
 30
0.0
 10
13.5818199682
 20
8.5270197464
 30
0.0
 10
13.5887068563
 20
8.5562098893
 30
0.0
 10
13.5963777678
 20
8.592403901
 30
0.0
 10
13.6035058179
 20
8.6299634699
 30
0.0
 10
13.6100574428
 20
8.6687129756
 30
0.0
 10
13.6160017762
 20
8.7084714042
 30
0.0
 10
13.6213108484
 20
8.7490528943
 30
0.0
 10
13.625959697
 20
8.790267712
 30
0.0
 10
13.629926485
 20
8.831923124
 30
0.0
 10
13.6331926094
 20
8.8738243162
 30
0.0
 10
13.6357427789
 20
8.9157753147
 30
0.0
 10
13.6375650844
 20
8.9575799108
 30
0.0
 10
13.6386510569
 20
8.9990425864
 30
0.0
 10
13.6389957073
 20
9.0399694346
 30
0.0
 10
13.6385975589
 20
9.0801690851
 30
0.0
 10
13.637458656
 20
9.1194535885
 30
0.0
 10
13.6355845817
 20
9.1576393997
 30
0.0
 10
13.6329843284
 20
9.1945479401
 30
0.0
 10
13.6301936323
 20
9.224411253
 30
0.0
 10
13.6275937781
 20
9.2475270435
 30
0.0
 10
13.6254919787
 20
9.2642514865
 30
0.0
 10
13.6232197127
 20
9.2805315997
 30
0.0
 10
13.6207796553
 20
9.2963483784
 30
0.0
 10
13.6181746902
 20
9.31168334
 30
0.0
 10
13.6154078549
 20
9.326518579
 30
0.0
 10
13.6124824633
 20
9.3408367828
 30
0.0
 10
13.6094018998
 20
9.3546212517
 30
0.0
 10
13.6061698428
 20
9.367855927
 30
0.0
 10
13.6027900702
 20
9.3805254105
 30
0.0
 10
13.5992665447
 20
9.3926149651
 30
0.0
 10
13.5956034307
 20
9.4041106269
 30
0.0
 10
13.5918049936
 20
9.4149989204
 30
0.0
 10
13.5891210798
 20
9.4220128811
 30
0.0
 10
13.5877539206
 20
9.4254128456
 30
0.0
  0
SPLINE
  5
3FC
100
AcDbEntity
  8
0
100
AcDbSpline
 62
7
  6
CONTINUOUS
 70
0
 71
3
 72
18
 73
14
 74
0
 42
0.0000001
 43
0.0000001
 44
0.0000000001
 40
0.0
 40
0.0
 40
0.0
 40
0.0
 40
0.150467608
 40
0.291710008
 40
0.4244359371
 40
0.549562455
 40
0.6682139939
 40
0.7255497488
 40
0.7817912909
 40
0.8371402503
 40
0.8918093826
 40
0.9460201179
 40
1.0
 40
1.0
 40
1.0
 40
1.0
 10
13.6896803172
 20
7.9392703668
 30
0.0
 10
13.6869564154
 20
7.9366392795
 30
0.0
 10
13.6815124794
 20
7.9317026826
 30
0.0
 10
13.6730825885
 20
7.9251238244
 30
0.0
 10
13.664662599
 20
7.9196215992
 30
0.0
 10
13.6562612284
 20
7.9152050383
 30
0.0
 10
13.6491999689
 20
7.9124044401
 30
0.0
 10
13.6435936407
 20
7.9107404923
 30
0.0
 10
13.6394486127
 20
7.9097814163
 30
0.0
 10
13.6353173362
 20
7.9090978583
 30
0.0
 10
13.6312009687
 20
7.9086900602
 30
0.0
 10
13.6271011475
 20
7.9085582341
 30
0.0
 10
13.6243773442
 20
7.9086545719
 30
0.0
 10
13.6230219801
 20
7.9087485609
 30
0.0
  0
SPLINE
  5
3FD
100
AcDbEntity
  8
0
100
AcDbSpline
 62
7
  6
CONTINUOUS
 70
0
 71
3
 72
15
 73
11
 74
0
 42
0.0000001
 43
0.0000001
 44
0.0000000001
 40
0.0
 40
0.0
 40
0.0
 40
0.0
 40
0.0770449349
 40
0.1617951275
 40
0.25667265
 40
0.3647466915
 40
0.489863244
 40
0.6363807409
 40
0.8073923462
 40
1.0
 40
1.0
 40
1.0
 40
1.0
 10
10.761116955
 20
7.7215591861
 30
0.0
 10
10.7621026014
 20
7.7211475799
 30
0.0
 10
10.7641197604
 20
7.7201522867
 30
0.0
 10
10.7671113593
 20
7.718211777
 30
0.0
 10
10.7701987004
 20
7.7156734586
 30
0.0
 10
10.7733857994
 20
7.7124168006
 30
0.0
 10
10.7766639599
 20
7.7082863294
 30
0.0
 10
10.7799857819
 20
7.7031145507
 30
0.0
 10
10.7832226247
 20
7.6968148735
 30
0.0
 10
10.7851088863
 20
7.6921313256
 30
0.0
 10
10.786002968
 20
7.6896151754
 30
0.0
  0
SPLINE
  5
3FE
100
AcDbEntity
  8
0
100
AcDbSpline
 62
7
  6
CONTINUOUS
 70
0
 71
3
 72
25
 73
21
 74
0
 42
0.0000001
 43
0.0000001
 44
0.0000000001
 40
0.0
 40
0.0
 40
0.0
 40
0.0
 40
0.0618726765
 40
0.1239841394
 40
0.1863088313
 40
0.248817326
 40
0.3114768931
 40
0.3742521073
 40
0.4371054933
 40
0.4999981956
 40
0.5628906671
 40
0.6257433643
 40
0.6885174438
 40
0.7198674332
 40
0.7511838842
 40
0.8136904188
 40
0.8760127855
 40
0.9070998962
 40
0.9381302661
 40
1.0
 40
1.0
 40
1.0
 40
1.0
 10
11.5830753911
 20
7.8770348125
 30
0.0
 10
11.5754770689
 20
7.8791812868
 30
0.0
 10
11.5603919207
 20
7.883999683
 30
0.0
 10
11.5382638626
 20
7.8927408841
 30
0.0
 10
11.5166917911
 20
7.9029691525
 30
0.0
 10
11.4957819768
 20
7.914634243
 30
0.0
 10
11.4756357081
 20
7.9276794238
 30
0.0
 10
11.4563510325
 20
7.9420411465
 30
0.0
 10
11.4380216761
 20
7.9576495321
 30
0.0
 10
11.4207367928
 20
7.9744286019
 30
0.0
 10
11.4045803432
 20
7.9922968931
 30
0.0
 10
11.3896312592
 20
8.0111669612
 30
0.0
 10
11.3782340757
 20
8.0276597326
 30
0.0
 10
11.3697902054
 20
8.0412621774
 30
0.0
 10
11.3618140254
 20
8.0551046912
 30
0.0
 10
11.3527217008
 20
8.0728525426
 30
0.0
 10
11.3448336436
 20
8.0911357197
 30
0.0
 10
11.3392779168
 20
8.1060150472
 30
0.0
 10
11.3342405478
 20
8.1210161602
 30
0.0
 10
11.3310326125
 20
8.132441286
 30
0.0
 10
11.3291569101
 20
8.1401105534
 30
0.0
  0
SPLINE
  5
3FF
100
AcDbEntity
  8
0
100
AcDbSpline
 62
7
  6
CONTINUOUS
 70
0
 71
3
 72
92
 73
88
 74
0
 42
0.0000001
 43
0.0000001
 44
0.0000000001
 40
0.0
 40
0.0
 40
0.0
 40
0.0
 40
0.0027164136
 40
0.0054531999
 40
0.0082302488
 40
0.0110665156
 40
0.0139797
 40
0.0169859759
 40
0.0200999097
 40
0.0233343921
 40
0.0267007085
 40
0.030208627
 40
0.0338664962
 40
0.0376814269
 40
0.0416593531
 40
0.0458052407
 40
0.0501231229
 40
0.0546162682
 40
0.0592872359
 40
0.0641379574
 40
0.0691698402
 40
0.0743837612
 40
0.0797802065
 40
0.0853592201
 40
0.0911205286
 40
0.0970635116
 40
0.1031872593
 40
0.1094906055
 40
0.1226297411
 40
0.1364672907
 40
0.1509859854
 40
0.1661657644
 40
0.1819840906
 40
0.1984162077
 40
0.2154353587
 40
0.2330129748
 40
0.2511188396
 40
0.2697212359
 40
0.2887870798
 40
0.3082820459
 40
0.3281706839
 40
0.3484165301
 40
0.3689822167
 40
0.3898295783
 40
0.4109197545
 40
0.4322132911
 40
0.4536702402
 40
0.4752502592
 40
0.4969127091
 40
0.5186167533
 40
0.5403214559
 40
0.56198588
 40
0.5835691848
 40
0.6050307242
 40
0.626330144
 40
0.6474274812
 40
0.6682832628
 40
0.6888586082
 40
0.7091153287
 40
0.729016031
 40
0.7485242218
 40
0.7676044158
 40
0.7862222477
 40
0.8043445896
 40
0.8219396778
 40
0.8389772466
 40
0.8554286739
 40
0.871267144
 40
0.8864678337
 40
0.9010081287
 40
0.9148678812
 40
0.9215371855
 40
0.928030107
 40
0.9343449535
 40
0.9404803007
 40
0.946434946
 40
0.9522079623
 40
0.9577987256
 40
0.9632069066
 40
0.9684325773
 40
0.9734761504
 40
0.9783385002
 40
0.9830209469
 40
0.987525443
 40
0.9918546017
 40
0.9960115601
 40
1.0
 40
1.0
 40
1.0
 40
1.0
 10
13.2066074375
 20
9.3001317388
 30
0.0
 10
13.2084056926
 20
9.3000070371
 30
0.0
 10
13.2120064826
 20
9.2995939539
 30
0.0
 10
13.2173618372
 20
9.2984885374
 30
0.0
 10
13.2226766957
 20
9.2968974257
 30
0.0
 10
13.2279473301
 20
9.2948223126
 30
0.0
 10
13.2331709347
 20
9.2922648606
 30
0.0
 10
13.2383449218
 20
9.2892272444
 30
0.0
 10
13.243466828
 20
9.2857114933
 30
0.0
 10
13.2485344282
 20
9.2817199165
 30
0.0
 10
13.2535455201
 20
9.2772548188
 30
0.0
 10
13.2584979135
 20
9.27231862
 30
0.0
 10
13.2633895141
 20
9.2669139477
 30
0.0
 10
13.2682180561
 20
9.2610434722
 30
0.0
 10
13.2729814598
 20
9.2547101933
 30
0.0
 10
13.2776774242
 20
9.2479171764
 30
0.0
 10
13.282303824
 20
9.2406678135
 30
0.0
 10
13.2868584084
 20
9.2329656462
 30
0.0
 10
13.2913389865
 20
9.2248144751
 30
0.0
 10
13.2957434086
 20
9.216218334
 30
0.0
 10
13.3000694468
 20
9.2071814535
 30
0.0
 10
13.3043150502
 20
9.1977083407
 30
0.0
 10
13.3084780188
 20
9.1878036746
 30
0.0
 10
13.3125563606
 20
9.1774724074
 30
0.0
 10
13.316547979
 20
9.166719673
 30
0.0
 10
13.3204508952
 20
9.1555508507
 30
0.0
 10
13.3242631902
 20
9.1439715042
 30
0.0
 10
13.3292924218
 20
9.127767966
 30
0.0
 10
13.3353208665
 20
9.1065185514
 30
0.0
 10
13.3420677383
 20
9.0798187452
 30
0.0
 10
13.348410101
 20
9.0516305192
 30
0.0
 10
13.3543350852
 20
9.0220103802
 30
0.0
 10
13.359830632
 20
8.9910174814
 30
0.0
 10
13.3648855591
 20
8.9587139115
 30
0.0
 10
13.369489579
 20
8.925164429
 30
0.0
 10
13.3736333204
 20
8.8904363514
 30
0.0
 10
13.3773083488
 20
8.8545993985
 30
0.0
 10
13.3805071823
 20
8.8177255482
 30
0.0
 10
13.383223307
 20
8.7798888849
 30
0.0
 10
13.3854511888
 20
8.7411654471
 30
0.0
 10
13.3871862835
 20
8.7016330718
 30
0.0
 10
13.3884250492
 20
8.661371236
 30
0.0
 10
13.38916495
 20
8.6204608936
 30
0.0
 10
13.3894044595
 20
8.5789843093
 30
0.0
 10
13.3891430635
 20
8.5370248914
 30
0.0
 10
13.3883812607
 20
8.4946670234
 30
0.0
 10
13.3871205612
 20
8.4519958937
 30
0.0
 10
13.385363483
 20
8.4090973237
 30
0.0
 10
13.3831135473
 20
8.366057595
 30
0.0
 10
13.380375274
 20
8.3229632739
 30
0.0
 10
13.3771541695
 20
8.2799010367
 30
0.0
 10
13.3734567152
 20
8.2369574945
 30
0.0
 10
13.3692903546
 20
8.1942190183
 30
0.0
 10
13.3646634783
 20
8.1517715651
 30
0.0
 10
13.3595854072
 20
8.1097005051
 30
0.0
 10
13.354066374
 20
8.0680904488
 30
0.0
 10
13.3481175035
 20
8.0270250752
 30
0.0
 10
13.3417507928
 20
7.986586961
 30
0.0
 10
13.334979084
 20
7.9468574142
 30
0.0
 10
13.3278160389
 20
7.9079163097
 30
0.0
 10
13.3202761121
 20
7.8698419269
 30
0.0
 10
13.3123745224
 20
7.8327107911
 30
0.0
 10
13.3041272226
 20
7.7965975164
 30
0.0
 10
13.2955508667
 20
7.7615746516
 30
0.0
 10
13.2866627795
 20
7.7277125271
 30
0.0
 10
13.2774809211
 20
7.6950791091
 30
0.0
 10
13.2680238474
 20
7.6637398489
 30
0.0
 10
13.2583106714
 20
7.6337575722
 30
0.0
 10
13.2483610215
 20
7.6051922374
 30
0.0
 10
13.2381949952
 20
7.5781011594
 30
0.0
 10
13.2294517775
 20
7.5565309927
 30
0.0
 10
13.2223527738
 20
7.5400640524
 30
0.0
 10
13.217055526
 20
7.5282741703
 30
0.0
 10
13.2117195986
 20
7.5168918712
 30
0.0
 10
13.2063476869
 20
7.5059228289
 30
0.0
 10
13.2009424708
 20
7.4953725385
 30
0.0
 10
13.1955066521
 20
7.4852462756
 30
0.0
 10
13.1900429921
 20
7.4755490802
 30
0.0
 10
13.1845541531
 20
7.4662858089
 30
0.0
 10
13.1790429459
 20
7.4574610344
 30
0.0
 10
13.1735120212
 20
7.4490791864
 30
0.0
 10
13.1679642139
 20
7.4411444015
 30
0.0
 10
13.1624022047
 20
7.4336606198
 30
0.0
 10
13.1568286829
 20
7.4266314941
 30
0.0
 10
13.1512462663
 20
7.4200604218
 30
0.0
 10
13.1456578917
 20
7.4139509677
 30
0.0
 10
13.1418527315
 20
7.410109522
 30
0.0
 10
13.1399491004
 20
7.4082707554
 30
0.0
  0
SPLINE
  5
400
100
AcDbEntity
  8
0
100
AcDbSpline
 62
7
  6
CONTINUOUS
 70
0
 71
3
 72
58
 73
54
 74
0
 42
0.0000001
 43
0.0000001
 44
0.0000000001
 40
0.0
 40
0.0
 40
0.0
 40
0.0
 40
0.0081223305
 40
0.0169168975
 40
0.0264087397
 40
0.0366143893
 40
0.0475415919
 40
0.0591912278
 40
0.0715586516
 40
0.0846347975
 40
0.0984066254
 40
0.112857697
 40
0.1279687991
 40
0.1437179559
 40
0.1600810137
 40
0.1770317001
 40
0.2125802303
 40
0.2501202969
 40
0.2893844218
 40
0.3300865608
 40
0.3719257492
 40
0.4145895607
 40
0.4577574053
 40
0.5011037527
 40
0.5443013266
 40
0.587024304
 40
0.6289515139
 40
0.6697696572
 40
0.7091765902
 40
0.7468847529
 40
0.7826248208
 40
0.7996793841
 40
0.8161512809
 40
0.8320139346
 40
0.8472427441
 40
0.8618153344
 40
0.8757119895
 40
0.8889156785
 40
0.9014127874
 40
0.9131934095
 40
0.9242520347
 40
0.9345886083
 40
0.9442093599
 40
0.953128682
 40
0.9613709503
 40
0.9689732053
 40
0.9759886321
 40
0.9824900189
 40
0.9885734021
 40
0.9914974267
 40
0.9943641369
 40
0.9971919109
 40
1.0
 40
1.0
 40
1.0
 40
1.0
 10
12.9843899765
 20
10.3202920755
 30
0.0
 10
12.9852104168
 20
10.32108456
 30
0.0
 10
12.9869965956
 20
10.3226560018
 30
0.0
 10
12.9899614902
 20
10.3248887293
 30
0.0
 10
12.9933098041
 20
10.3270841007
 30
0.0
 10
12.9970347407
 20
10.3292378877
 30
0.0
 10
13.0011293057
 20
10.3313462265
 30
0.0
 10
13.0055855596
 20
10.3334049011
 30
0.0
 10
13.0103947226
 20
10.3354099046
 30
0.0
 10
13.0155472877
 20
10.3373571835
 30
0.0
 10
13.0210329979
 20
10.3392428045
 30
0.0
 10
13.0268408767
 20
10.3410629763
 30
0.0
 10
13.0329592832
 20
10.3428139498
 30
0.0
 10
13.0393759068
 20
10.3444922021
 30
0.0
 10
13.0460778409
 20
10.3460943224
 30
0.0
 10
13.0555266321
 20
10.3481573038
 30
0.0
 10
13.0679537926
 20
10.3505090401
 30
0.0
 10
13.0835466351
 20
10.3529383135
 30
0.0
 10
13.0999222267
 20
10.3549974305
 30
0.0
 10
13.1169483635
 20
10.3566694494
 30
0.0
 10
13.1344877049
 20
10.3579405652
 30
0.0
 10
13.1523985965
 20
10.3588003127
 30
0.0
 10
13.1705363475
 20
10.3592416126
 30
0.0
 10
13.1887543961
 20
10.3592608302
 30
0.0
 10
13.2069055219
 20
10.3588578041
 30
0.0
 10
13.2248430528
 20
10.358035856
 30
0.0
 10
13.2424220793
 20
10.3568017548
 30
0.0
 10
13.2595006217
 20
10.3551656616
 30
0.0
 10
13.2759409038
 20
10.3531410844
 30
0.0
 10
13.2916101866
 20
10.3507446743
 30
0.0
 10
13.3041085367
 20
10.3484196223
 30
0.0
 10
13.3136198539
 20
10.3463771835
 30
0.0
 10
13.3203722264
 20
10.3447892569
 30
0.0
 10
13.3268417036
 20
10.34312461
 30
0.0
 10
13.3330152662
 20
10.341386594
 30
0.0
 10
13.3388804913
 20
10.3395787288
 30
0.0
 10
13.3444256173
 20
10.3377047374
 30
0.0
 10
13.3496395381
 20
10.3357683679
 30
0.0
 10
13.3545118708
 20
10.333773571
 30
0.0
 10
13.3590329617
 20
10.3317243501
 30
0.0
 10
13.3631939064
 20
10.3296247394
 30
0.0
 10
13.366986632
 20
10.3274788995
 30
0.0
 10
13.3704038254
 20
10.3252908276
 30
0.0
 10
13.3734390301
 20
10.3230645233
 30
0.0
 10
13.3760865478
 20
10.3208036965
 30
0.0
 10
13.3783412418
 20
10.3185117194
 30
0.0
 10
13.3801984443
 20
10.3161914225
 30
0.0
 10
13.381653038
 20
10.3138459026
 30
0.0
 10
13.3825366213
 20
10.3118454352
 30
0.0
 10
13.3830247581
 20
10.3102492448
 30
0.0
 10
13.3832832342
 20
10.3090653089
 30
0.0
 10
13.3834383904
 20
10.3078799538
 30
0.0
 10
13.3834729169
 20
10.307088038
 30
0.0
 10
13.3834729171
 20
10.3066936765
 30
0.0
  0
SPLINE
  5
401
100
AcDbEntity
  8
0
100
AcDbSpline
 62
7
  6
CONTINUOUS
 70
0
 71
3
 72
15
 73
11
 74
0
 42
0.0000001
 43
0.0000001
 44
0.0000000001
 40
0.0
 40
0.0
 40
0.0
 40
0.0
 40
0.1233733694
 40
0.2470523798
 40
0.3711316686
 40
0.4956953092
 40
0.6208147035
 40
0.7465472312
 40
0.8729330667
 40
1.0
 40
1.0
 40
1.0
 40
1.0
 10
10.978841445
 20
8.1919680765
 30
0.0
 10
10.9719725998
 20
8.1828936305
 30
0.0
 10
10.9589692196
 20
8.1641394222
 30
0.0
 10
10.9418420035
 20
8.1344523146
 30
0.0
 10
10.9271708113
 20
8.1033540692
 30
0.0
 10
10.9150464307
 20
8.0710364842
 30
0.0
 10
10.9055416308
 20
8.0376957702
 30
0.0
 10
10.8987138591
 20
8.0035342817
 30
0.0
 10
10.8946038485
 20
7.9687622907
 30
0.0
 10
10.8936945541
 20
7.9453711172
 30
0.0
 10
10.8936945541
 20
7.9336494169
 30
0.0
  0
SPLINE
  5
402
100
AcDbEntity
  8
0
100
AcDbSpline
 62
7
  6
CONTINUOUS
 70
0
 71
3
 72
15
 73
11
 74
0
 42
0.0000001
 43
0.0000001
 44
0.0000000001
 40
0.0
 40
0.0
 40
0.0
 40
0.0
 40
0.1234511986
 40
0.2472467049
 40
0.3714457392
 40
0.4961000834
 40
0.621253035
 40
0.7469393263
 40
0.8731827972
 40
1.0
 40
1.0
 40
1.0
 40
1.0
 10
10.9020538746
 20
8.1701895424
 30
0.0
 10
10.8965817592
 20
8.161117876
 30
0.0
 10
10.886252964
 20
8.1425602462
 30
0.0
 10
10.872708599
 20
8.1136775356
 30
0.0
 10
10.8611484409
 20
8.0838328144
 30
0.0
 10
10.8516231571
 20
8.05315643
 30
0.0
 10
10.8441732177
 20
8.0217802072
 30
0.0
 10
10.8388305945
 20
7.9898389809
 30
0.0
 10
10.8356179077
 20
7.9574720025
 30
0.0
 10
10.8349068078
 20
7.9357479732
 30
0.0
 10
10.8349068078
 20
7.9248648111
 30
0.0
  0
SPLINE
  5
403
100
AcDbEntity
  8
0
100
AcDbSpline
 62
7
  6
CONTINUOUS
 70
0
 71
3
 72
15
 73
11
 74
0
 42
0.0000001
 43
0.0000001
 44
0.0000000001
 40
0.0
 40
0.0
 40
0.0
 40
0.0
 40
0.1233882443
 40
0.2470995725
 40
0.3712161218
 40
0.4958104374
 40
0.6209438343
 40
0.7466654841
 40
0.8730095791
 40
1.0
 40
1.0
 40
1.0
 40
1.0
 10
10.883958876
 20
8.1626671572
 30
0.0
 10
10.8771002134
 20
8.1529291656
 30
0.0
 10
10.8641293423
 20
8.1328763802
 30
0.0
 10
10.8470713866
 20
8.1013230086
 30
0.0
 10
10.8324778138
 20
8.068427413
 30
0.0
 10
10.8204298612
 20
8.0343720604
 30
0.0
 10
10.8109925441
 20
7.9993428843
 30
0.0
 10
10.8042171993
 20
7.9635310926
 30
0.0
 10
10.8001402034
 20
7.9271349388
 30
0.0
 10
10.7992380874
 20
7.9026701041
 30
0.0
 10
10.7992380874
 20
7.8904114708
 30
0.0
  0
SPLINE
  5
404
100
AcDbEntity
  8
0
100
AcDbSpline
 62
7
  6
CONTINUOUS
 70
0
 71
3
 72
15
 73
11
 74
0
 42
0.0000001
 43
0.0000001
 44
0.0000000001
 40
0.0
 40
0.0
 40
0.0
 40
0.0
 40
0.1234572711
 40
0.2472596132
 40
0.371464773
 40
0.4961232102
 40
0.6212770932
 40
0.7469602255
 40
0.8731958544
 40
1.0
 40
1.0
 40
1.0
 40
1.0
 10
10.8408016927
 20
8.1418711527
 30
0.0
 10
10.8351785675
 20
8.1324422437
 30
0.0
 10
10.8245661013
 20
8.113162057
 30
0.0
 10
10.8106523546
 20
8.0831760885
 30
0.0
 10
10.7987787996
 20
8.0522094483
 30
0.0
 10
10.7889965378
 20
8.0203949537
 30
0.0
 10
10.781346387
 20
7.9878668593
 30
0.0
 10
10.775860587
 20
7.9547624334
 30
0.0
 10
10.772561954
 20
7.9212234081
 30
0.0
 10
10.7718318118
 20
7.8987149939
 30
0.0
 10
10.7718318118
 20
7.8874390399
 30
0.0
  0
SPLINE
  5
405
100
AcDbEntity
  8
0
100
AcDbSpline
 62
7
  6
CONTINUOUS
 70
0
 71
3
 72
23
 73
19
 74
0
 42
0.0000001
 43
0.0000001
 44
0.0000000001
 40
0.0
 40
0.0
 40
0.0
 40
0.0
 40
0.0617101454
 40
0.1234413989
 40
0.1852146487
 40
0.247050356
 40
0.3089683484
 40
0.3709876189
 40
0.4331261353
 40
0.495400665
 40
0.5578266135
 40
0.620417907
 40
0.6831868089
 40
0.7461438636
 40
0.809298024
 40
0.8726551577
 40
0.9362228294
 40
1.0
 40
1.0
 40
1.0
 40
1.0
 10
10.7402012712
 20
8.0676635524
 30
0.0
 10
10.7344030022
 20
8.0620628351
 30
0.0
 10
10.723090569
 20
8.0505588733
 30
0.0
 10
10.7070288365
 20
8.0324498824
 30
0.0
 10
10.6919077925
 20
8.0135265092
 30
0.0
 10
10.6777628996
 20
7.9938329992
 30
0.0
 10
10.6646265944
 20
7.9734146351
 30
0.0
 10
10.6525291966
 20
7.9523185604
 30
0.0
 10
10.6414985854
 20
7.9305934198
 30
0.0
 10
10.6315601532
 20
7.9082893407
 30
0.0
 10
10.6227367528
 20
7.8854577756
 30
0.0
 10
10.6150486833
 20
7.8621513788
 30
0.0
 10
10.6085136251
 20
7.8384238967
 30
0.0
 10
10.603146594
 20
7.8143299933
 30
0.0
 10
10.5989599689
 20
7.7899253595
 30
0.0
 10
10.5959631337
 20
7.7652658239
 30
0.0
 10
10.5941632358
 20
7.7404092378
 30
0.0
 10
10.5937644558
 20
7.7237707085
 30
0.0
 10
10.5937644558
 20
7.7154391716
 30
0.0
  0
SPLINE
  5
406
100
AcDbEntity
  8
0
100
AcDbSpline
 62
7
  6
CONTINUOUS
 70
0
 71
3
 72
15
 73
11
 74
0
 42
0.0000001
 43
0.0000001
 44
0.0000000001
 40
0.0
 40
0.0
 40
0.0
 40
0.0
 40
0.1234086468
 40
0.2471513763
 40
0.3713005425
 40
0.4959197682
 40
0.6210625824
 40
0.7467719591
 40
0.8730774627
 40
1.0
 40
1.0
 40
1.0
 40
1.0
 10
10.863330827
 20
8.1533762518
 30
0.0
 10
10.856922051
 20
8.1436973528
 30
0.0
 10
10.8448118998
 20
8.1238222736
 30
0.0
 10
10.8289052226
 20
8.0926941087
 30
0.0
 10
10.8153102047
 20
8.0603637215
 30
0.0
 10
10.8040957163
 20
8.0269944617
 30
0.0
 10
10.795316862
 20
7.9927522157
 30
0.0
 10
10.789017185
 20
7.9578071995
 30
0.0
 10
10.7852274945
 20
7.9223355948
 30
0.0
 10
10.7843888483
 20
7.8985070751
 30
0.0
 10
10.7843888483
 20
7.8865682064
 30
0.0
  0
SPLINE
  5
407
100
AcDbEntity
  8
0
100
AcDbSpline
 62
7
  6
CONTINUOUS
 70
0
 71
3
 72
24
 73
20
 74
0
 42
0.0000001
 43
0.0000001
 44
0.0000000001
 40
0.0
 40
0.0
 40
0.0
 40
0.0
 40
0.0307591877
 40
0.0616050388
 40
0.123531903
 40
0.1857657788
 40
0.248269529
 40
0.3109985503
 40
0.3739020782
 40
0.4369246108
 40
0.5000074449
 40
0.5630902607
 40
0.6261127367
 40
0.6890161691
 40
0.7517450645
 40
0.8142486569
 40
0.8764823518
 40
0.9384089916
 40
1.0
 40
1.0
 40
1.0
 40
1.0
 10
11.6192270813
 20
7.7782049585
 30
0.0
 10
11.6131547083
 20
7.7791052098
 30
0.0
 10
11.6010293997
 20
7.7811668657
 30
0.0
 10
11.5769147663
 20
7.786321708
 30
0.0
 10
11.5470919558
 20
7.794690516
 30
0.0
 10
11.5121435324
 20
7.8077097966
 30
0.0
 10
11.4782367171
 20
7.8236237628
 30
0.0
 10
11.4456242352
 20
7.8423138557
 30
0.0
 10
11.4145469105
 20
7.8636415115
 30
0.0
 10
11.3852347293
 20
7.8874485139
 30
0.0
 10
11.3579045959
 20
7.9135585989
 30
0.0
 10
11.3327587696
 20
7.9417784307
 30
0.0
 10
11.3099833671
 20
7.9718991296
 30
0.0
 10
11.2897472016
 20
8.0036978751
 30
0.0
 10
11.2722002136
 20
8.0369394122
 30
0.0
 10
11.257472679
 20
8.0713775536
 30
0.0
 10
11.2456740567
 20
8.1067584181
 30
0.0
 10
11.2368925449
 20
8.1428165603
 30
0.0
 10
11.2330817514
 20
8.1672062386
 30
0.0
 10
11.2317022531
 20
8.1794205662
 30
0.0
  0
SPLINE
  5
408
100
AcDbEntity
  8
0
100
AcDbSpline
 62
7
  6
CONTINUOUS
 70
0
 71
3
 72
39
 73
35
 74
0
 42
0.0000001
 43
0.0000001
 44
0.0000000001
 40
0.0
 40
0.0
 40
0.0
 40
0.0
 40
0.0304342553
 40
0.0609816151
 40
0.0916428478
 40
0.1224174101
 40
0.1533034672
 40
0.1842979266
 40
0.2153964869
 40
0.2465936983
 40
0.2778830334
 40
0.3092569664
 40
0.3407070623
 40
0.3722240733
 40
0.4037980411
 40
0.435418408
 40
0.4670741306
 40
0.4987537964
 40
0.5304457438
 40
0.5621381826
 40
0.5938193169
 40
0.6254774679
 40
0.6571011971
 40
0.6886794262
 40
0.7202015541
 40
0.7516575704
 40
0.7830381636
 40
0.8143348255
 40
0.8455399566
 40
0.8766469084
 40
0.9076502706
 40
0.9385452477
 40
0.9693295893
 40
1.0
 40
1.0
 40
1.0
 40
1.0
 10
11.6339865485
 20
7.6972047283
 30
0.0
 10
11.6264781814
 20
7.6966179262
 30
0.0
 10
11.6113982826
 20
7.6958528046
 30
0.0
 10
11.588710038
 20
7.6959300893
 30
0.0
 10
11.5659739894
 20
7.6972297276
 30
0.0
 10
11.5432564656
 20
7.6997479618
 30
0.0
 10
11.5206226082
 20
7.7034774635
 30
0.0
 10
11.4981376113
 20
7.7084074356
 30
0.0
 10
11.4758661469
 20
7.7145236158
 30
0.0
 10
11.4538722871
 20
7.7218083427
 30
0.0
 10
11.4322192925
 20
7.7302406017
 30
0.0
 10
11.4109694407
 20
7.7397960875
 30
0.0
 10
11.390183847
 20
7.7504472729
 30
0.0
 10
11.3699222922
 20
7.7621634904
 30
0.0
 10
11.3502430446
 20
7.7749110063
 30
0.0
 10
11.3312026923
 20
7.7886531213
 30
0.0
 10
11.3128559885
 20
7.8033502872
 30
0.0
 10
11.295255694
 20
7.8189602171
 30
0.0
 10
11.2784524274
 20
7.8354380067
 30
0.0
 10
11.2624945206
 20
7.8527362615
 30
0.0
 10
11.2474278835
 20
7.8708052341
 30
0.0
 10
11.2332958573
 20
7.889592954
 30
0.0
 10
11.220139097
 20
7.909045385
 30
0.0
 10
11.2079954612
 20
7.9291065843
 30
0.0
 10
11.196899903
 20
7.9497188605
 30
0.0
 10
11.1868843707
 20
7.9708229381
 30
0.0
 10
11.1779777162
 20
7.9923581254
 30
0.0
 10
11.17020561
 20
8.0142624906
 30
0.0
 10
11.1635904663
 20
8.0364730192
 30
0.0
 10
11.1581513296
 20
8.0589258565
 30
0.0
 10
11.1539039915
 20
8.081556288
 30
0.0
 10
11.150860577
 20
8.1042995817
 30
0.0
 10
11.1490301437
 20
8.1270892536
 30
0.0
 10
11.1486211705
 20
8.1422999326
 30
0.0
 10
11.1486211705
 20
8.1498896341
 30
0.0
  0
SPLINE
  5
409
100
AcDbEntity
  8
0
100
AcDbSpline
 62
7
  6
CONTINUOUS
 70
0
 71
3
 72
39
 73
35
 74
0
 42
0.0000001
 43
0.0000001
 44
0.0000000001
 40
0.0
 40
0.0
 40
0.0
 40
0.0
 40
0.0304133839
 40
0.0609403934
 40
0.0915821277
 40
0.1223383395
 40
0.1532074528
 40
0.1841865967
 40
0.2152716517
 40
0.2464573095
 40
0.2777371424
 40
0.3091036846
 40
0.3405485216
 40
0.3720623892
 40
0.4036352794
 40
0.4352565531
 40
0.4669150558
 40
0.4985992382
 40
0.5302972784
 40
0.561997208
 40
0.5936870375
 40
0.6253548848
 40
0.6569891009
 40
0.6885783942
 40
0.7201119507
 40
0.7515795525
 40
0.7829716895
 40
0.8142796674
 40
0.8454957186
 40
0.8766130438
 40
0.9076261021
 40
0.9385300129
 40
0.9693224006
 40
1.0
 40
1.0
 40
1.0
 40
1.0
 10
11.6364453998
 20
7.6612534967
 30
0.0
 10
11.6283774102
 20
7.6605122505
 30
0.0
 10
11.6121668886
 20
7.6594724097
 30
0.0
 10
11.5877595268
 20
7.6592421278
 30
0.0
 10
11.5632836753
 20
7.6603386993
 30
0.0
 10
11.5388118623
 20
7.6627589353
 30
0.0
 10
11.5144153615
 20
7.6664956478
 30
0.0
 10
11.4901655441
 20
7.6715378352
 30
0.0
 10
11.4661332527
 20
7.6778706824
 30
0.0
 10
11.442388709
 20
7.6854756141
 30
0.0
 10
11.4190012806
 20
7.6943303477
 30
0.0
 10
11.3960392886
 20
7.7044089587
 30
0.0
 10
11.3735698097
 20
7.7156819589
 30
0.0
 10
11.3516584754
 20
7.7281163696
 30
0.0
 10
11.3303692803
 20
7.7416758207
 30
0.0
 10
11.3097644028
 20
7.7563206682
 30
0.0
 10
11.2899040229
 20
7.7720081065
 30
0.0
 10
11.2708461498
 20
7.7886922939
 30
0.0
 10
11.2526464528
 20
7.806324484
 30
0.0
 10
11.2353581019
 20
7.8248531694
 30
0.0
 10
11.2190316069
 20
7.8442242236
 30
0.0
 10
11.203714664
 20
7.8643810565
 30
0.0
 10
11.1894520293
 20
7.8852647898
 30
0.0
 10
11.1762853869
 20
7.9068144253
 30
0.0
 10
11.1642532286
 20
7.928967022
 30
0.0
 10
11.1533907421
 20
7.9516578779
 30
0.0
 10
11.1437297103
 20
7.9748207171
 30
0.0
 10
11.1352984091
 20
7.9983878826
 30
0.0
 10
11.128121533
 20
8.0222905156
 30
0.0
 10
11.1222200707
 20
8.0464588208
 30
0.0
 10
11.1176114212
 20
8.0708220538
 30
0.0
 10
11.1143089585
 20
8.095309424
 30
0.0
 10
11.1123226489
 20
8.1198482415
 30
0.0
 10
11.1118788291
 20
8.1362269007
 30
0.0
 10
11.1118788291
 20
8.1443992554
 30
0.0
  0
SPLINE
  5
40A
100
AcDbEntity
  8
0
100
AcDbSpline
 62
7
  6
CONTINUOUS
 70
0
 71
3
 72
43
 73
39
 74
0
 42
0.0000001
 43
0.0000001
 44
0.0000000001
 40
0.0
 40
0.0
 40
0.0
 40
0.0
 40
0.0149603362
 40
0.0299341758
 40
0.0449239842
 40
0.0599321478
 40
0.0900074729
 40
0.1201822008
 40
0.1353140662
 40
0.1504761479
 40
0.1656699311
 40
0.1808967295
 40
0.2114489514
 40
0.2421448433
 40
0.272988647
 40
0.3039816967
 40
0.3351224349
 40
0.3664064826
 40
0.3978267611
 40
0.4293736583
 40
0.4610352363
 40
0.492797474
 40
0.5246445403
 40
0.5565590917
 40
0.5885225894
 40
0.6205156327
 40
0.6525183021
 40
0.6845105091
 40
0.7164723487
 40
0.7483844487
 40
0.7802283133
 40
0.8119866563
 40
0.8436437149
 40
0.8751855573
 40
0.9066003098
 40
0.937878564
 40
0.9690130545
 40
1.0
 40
1.0
 40
1.0
 40
1.0
 10
11.6232734565
 20
7.5252311374
 30
0.0
 10
11.619116782
 20
7.5223011081
 30
0.0
 10
11.6106896744
 20
7.5165926913
 30
0.0
 10
11.5977337113
 20
7.5085021521
 30
0.0
 10
11.5844722022
 20
7.5008893137
 30
0.0
 10
11.566394311
 20
7.4913829611
 30
0.0
 10
11.5431040298
 20
7.4807378376
 30
0.0
 10
11.5190566717
 20
7.4718151205
 30
0.0
 10
11.4994199226
 20
7.4657255467
 30
0.0
 10
11.4844910637
 20
7.4616832442
 30
0.0
 10
11.4693944488
 20
7.4581758335
 30
0.0
 10
11.4490460089
 20
7.4542137487
 30
0.0
 10
11.4232744372
 20
7.4506213391
 30
0.0
 10
11.3920149326
 20
7.4485083326
 30
0.0
 10
11.3605339079
 20
7.4485973394
 30
0.0
 10
11.32898517
 20
7.4508878365
 30
0.0
 10
11.2975214588
 20
7.4553683536
 30
0.0
 10
11.2662954061
 20
7.4620168978
 30
0.0
 10
11.2354583466
 20
7.4708009727
 30
0.0
 10
11.2051597174
 20
7.4816777699
 30
0.0
 10
11.1755463087
 20
7.4945943696
 30
0.0
 10
11.1467615673
 20
7.5094879992
 30
0.0
 10
11.1189449112
 20
7.5262863461
 30
0.0
 10
11.0922310623
 20
7.5449079061
 30
0.0
 10
11.0667494014
 20
7.565262377
 30
0.0
 10
11.0426233489
 20
7.5872510933
 30
0.0
 10
11.0199697727
 20
7.6107675008
 30
0.0
 10
10.9988984277
 20
7.6356976682
 30
0.0
 10
10.9795114296
 20
7.6619208338
 30
0.0
 10
10.9619027626
 20
7.6893099844
 30
0.0
 10
10.9461578203
 20
7.71773246
 30
0.0
 10
10.9323530041
 20
7.7470505998
 30
0.0
 10
10.9205553454
 20
7.777122384
 30
0.0
 10
10.9108222066
 20
7.8078021727
 30
0.0
 10
10.9032009315
 20
7.8389411924
 30
0.0
 10
10.8977287806
 20
7.8703890265
 30
0.0
 10
10.894432422
 20
7.9019912822
 30
0.0
 10
10.8936945541
 20
7.9231158129
 30
0.0
 10
10.8936945541
 20
7.9336494169
 30
0.0
  0
SPLINE
  5
40B
100
AcDbEntity
  8
0
100
AcDbSpline
 62
7
  6
CONTINUOUS
 70
0
 71
3
 72
45
 73
41
 74
0
 42
0.0000001
 43
0.0000001
 44
0.0000000001
 40
0.0
 40
0.0
 40
0.0
 40
0.0
 40
0.0149755525
 40
0.0299704131
 40
0.044986582
 40
0.0600259577
 40
0.0901767877
 40
0.1204403537
 40
0.1356200884
 40
0.1508318296
 40
0.1660765573
 40
0.1813550954
 40
0.212011778
 40
0.2428097685
 40
0.2737500167
 40
0.3048309604
 40
0.3360485864
 40
0.3673965317
 40
0.3988662209
 40
0.430447036
 40
0.4621265146
 40
0.4938905727
 40
0.5257237482
 40
0.5576094601
 40
0.5895302821
 40
0.6214682246
 40
0.6534050245
 40
0.6853224366
 40
0.7172025258
 40
0.7490279557
 40
0.7807822701
 40
0.8124501655
 40
0.8440177462
 40
0.8597620338
 40
0.8754768051
 40
0.9068088837
 40
0.9380097964
 40
0.9535609286
 40
0.9690773859
 40
1.0
 40
1.0
 40
1.0
 40
1.0
 10
11.5982808446
 20
7.4488929861
 30
0.0
 10
11.5935863144
 20
7.4462835887
 30
0.0
 10
11.5840979417
 20
7.4412272151
 30
0.0
 10
11.5695975754
 20
7.4341447231
 30
0.0
 10
11.5548358137
 20
7.4275671739
 30
0.0
 10
11.5348127624
 20
7.4194741602
 30
0.0
 10
11.509203534
 20
7.410655847
 30
0.0
 10
11.482995908
 20
7.4036229946
 30
0.0
 10
11.461718929
 20
7.3990753793
 30
0.0
 10
11.4456018429
 20
7.3962045935
 30
0.0
 10
11.4293610631
 20
7.3938808501
 30
0.0
 10
11.4075434855
 20
7.3915127771
 30
0.0
 10
11.3800454568
 20
7.3899358607
 30
0.0
 10
11.3468855303
 20
7.3902612354
 30
0.0
 10
11.313668265
 20
7.3927998795
 30
0.0
 10
11.2805416478
 20
7.3975404339
 30
0.0
 10
11.2476519424
 20
7.4044616429
 30
0.0
 10
11.2151446691
 20
7.4135326754
 30
0.0
 10
11.1831635315
 20
7.4247132084
 30
0.0
 10
11.1518499043
 20
7.4379536192
 30
0.0
 10
11.1213421837
 20
7.4531952063
 30
0.0
 10
11.0917751927
 20
7.4703704539
 30
0.0
 10
11.0632795884
 20
7.4894033294
 30
0.0
 10
11.0359812925
 20
7.5102096187
 30
0.0
 10
11.0100009394
 20
7.5326972965
 30
0.0
 10
10.9854533492
 20
7.5567669298
 30
0.0
 10
10.9624470238
 20
7.5823121166
 30
0.0
 10
10.9410836734
 20
7.6092199443
 30
0.0
 10
10.9214577636
 20
7.6373715121
 30
0.0
 10
10.9036561236
 20
7.6666423491
 30
0.0
 10
10.8877574603
 20
7.6969033297
 30
0.0
 10
10.8738324152
 20
7.7280198765
 30
0.0
 10
10.8639146198
 20
7.7545751995
 30
0.0
 10
10.8570273006
 20
7.776108456
 30
0.0
 10
10.8508557115
 20
7.7977698843
 30
0.0
 10
10.8444690532
 20
7.8251183218
 30
0.0
 10
10.8398761598
 20
7.8527653242
 30
0.0
 10
10.8373006337
 20
7.8749526735
 30
0.0
 10
10.835462689
 20
7.8971122153
 30
0.0
 10
10.8349068078
 20
7.913774392
 30
0.0
 10
10.8349068078
 20
7.9248648111
 30
0.0
  0
SPLINE
  5
40C
100
AcDbEntity
  8
0
100
AcDbSpline
 62
7
  6
CONTINUOUS
 70
0
 71
3
 72
41
 73
37
 74
0
 42
0.0000001
 43
0.0000001
 44
0.0000000001
 40
0.0
 40
0.0
 40
0.0
 40
0.0
 40
0.0299370913
 40
0.0599453711
 40
0.0900422682
 40
0.1051313521
 40
0.1202482713
 40
0.1505671305
 40
0.1810148595
 40
0.2116000452
 40
0.2423285872
 40
0.257749995
 40
0.2732081845
 40
0.3042300629
 40
0.3353963844
 40
0.3667020783
 40
0.3981395322
 40
0.4296987619
 40
0.4613676169
 40
0.493132017
 40
0.5249762156
 40
0.5568830858
 40
0.5888344232
 40
0.6208112628
 40
0.6527942051
 40
0.6847637469
 40
0.7167006133
 40
0.7485860866
 40
0.7804023297
 40
0.8121326976
 40
0.8437620347
 40
0.8752769593
 40
0.9066660821
 40
0.9379203815
 40
0.9690328801
 40
1.0
 40
1.0
 40
1.0
 40
1.0
 10
11.5908869723
 20
7.4315297129
 30
0.0
 10
11.5816309854
 20
7.4254641711
 30
0.0
 10
11.5626439177
 20
7.4139943325
 30
0.0
 10
11.532950512
 20
7.3988955658
 30
0.0
 10
11.5073005745
 20
7.38811718
 30
0.0
 10
11.4863096232
 20
7.3806033089
 30
0.0
 10
11.4649840655
 20
7.3738232417
 30
0.0
 10
11.4378089211
 20
7.3667664241
 30
0.0
 10
11.4045773136
 20
7.3606150359
 30
0.0
 10
11.3708451681
 20
7.3567992443
 30
0.0
 10
11.3424811719
 20
7.3555822472
 30
0.0
 10
11.3197045517
 20
7.3557844805
 30
0.0
 10
11.2968399497
 20
7.3567740326
 30
0.0
 10
11.2682420714
 20
7.3594886737
 30
0.0
 10
11.234111435
 20
7.3650821826
 30
0.0
 10
11.2002831834
 20
7.3729890275
 30
0.0
 10
11.1669176713
 20
7.3831716635
 30
0.0
 10
11.1341717279
 20
7.3955819014
 30
0.0
 10
11.1021995891
 20
7.4101610896
 30
0.0
 10
11.071151733
 20
7.4268404056
 30
0.0
 10
11.0411743008
 20
7.4455411762
 30
0.0
 10
11.0124083867
 20
7.4661752503
 30
0.0
 10
10.9849893811
 20
7.4886453997
 30
0.0
 10
10.9590463385
 20
7.5128457796
 30
0.0
 10
10.9347013822
 20
7.538662431
 30
0.0
 10
10.9120691333
 20
7.5659738101
 30
0.0
 10
10.8912561774
 20
7.594651356
 30
0.0
 10
10.8723605658
 20
7.6245600894
 30
0.0
 10
10.855471359
 20
7.6555592408
 30
0.0
 10
10.8406682053
 20
7.6875029075
 30
0.0
 10
10.8280209514
 20
7.7202407133
 30
0.0
 10
10.8175893502
 20
7.7536185784
 30
0.0
 10
10.8094227101
 20
7.7874792128
 30
0.0
 10
10.8035598267
 20
7.8216636637
 30
0.0
 10
10.8000284587
 20
7.8560088501
 30
0.0
 10
10.7992380874
 20
7.8789643677
 30
0.0
 10
10.7992380874
 20
7.8904114708
 30
0.0
  0
SPLINE
  5
40D
100
AcDbEntity
  8
0
100
AcDbSpline
 62
7
  6
CONTINUOUS
 70
0
 71
3
 72
44
 73
40
 74
0
 42
0.0000001
 43
0.0000001
 44
0.0000000001
 40
0.0
 40
0.0
 40
0.0
 40
0.0
 40
0.0299684946
 40
0.0449863569
 40
0.0600276177
 40
0.0901827258
 40
0.1204510577
 40
0.1356332879
 40
0.150847578
 40
0.1660948839
 40
0.1813760098
 40
0.2120378331
 40
0.2428407598
 40
0.2737856002
 40
0.3048706714
 40
0.3360918599
 40
0.3674427239
 40
0.3989146308
 40
0.4304969272
 40
0.4621771364
 40
0.4939411801
 40
0.5257736203
 40
0.5576579169
 40
0.5895766992
 40
0.6215120457
 40
0.6534457714
 40
0.6853597167
 40
0.7172360372
 40
0.7490574893
 40
0.7808077093
 40
0.8124714831
 40
0.8440349987
 40
0.8597772903
 40
0.8754901075
 40
0.9068184517
 40
0.9380158812
 40
0.953565369
 40
0.969080263
 40
1.0
 40
1.0
 40
1.0
 40
1.0
 10
11.567868755
 20
7.3886675942
 30
0.0
 10
11.5580405646
 20
7.3832683987
 30
0.0
 10
11.5429939258
 20
7.375681331
 30
0.0
 10
11.522431275
 20
7.3666357181
 30
0.0
 10
11.501499205
 20
7.3582881896
 30
0.0
 10
11.4747363742
 20
7.3492074636
 30
0.0
 10
11.4473584566
 20
7.3419873031
 30
0.0
 10
11.4251370224
 20
7.3373349478
 30
0.0
 10
11.4083072006
 20
7.3344082213
 30
0.0
 10
11.3913508418
 20
7.3320512332
 30
0.0
 10
11.368575326
 20
7.3296691968
 30
0.0
 10
11.3398761049
 20
7.3281318932
 30
0.0
 10
11.3052765283
 20
7.328595557
 30
0.0
 10
11.2706253185
 20
7.3313626689
 30
0.0
 10
11.2360761718
 20
7.3364209101
 30
0.0
 10
11.2017809628
 20
7.3437477088
 30
0.0
 10
11.1678907647
 20
7.3533105763
 30
0.0
 10
11.1345547375
 20
7.3650671924
 30
0.0
 10
11.1019195986
 20
7.3789656078
 30
0.0
 10
11.0701289536
 20
7.3949444776
 30
0.0
 10
11.0393226798
 20
7.4129333326
 30
0.0
 10
11.0096363155
 20
7.4328528893
 30
0.0
 10
10.9812004706
 20
7.4546153979
 30
0.0
 10
10.9541402574
 20
7.4781250263
 30
0.0
 10
10.9285747456
 20
7.5032782786
 30
0.0
 10
10.9046164426
 20
7.5299644495
 30
0.0
 10
10.8823708047
 20
7.5580660998
 30
0.0
 10
10.8619357683
 20
7.5874595962
 30
0.0
 10
10.8434013464
 20
7.6180155448
 30
0.0
 10
10.8268491281
 20
7.6495997409
 30
0.0
 10
10.8123523374
 20
7.6820723369
 30
0.0
 10
10.8020277542
 20
7.7097817048
 30
0.0
 10
10.7948581153
 20
7.7322492013
 30
0.0
 10
10.7884336238
 20
7.7548495765
 30
0.0
 10
10.7817853954
 20
7.7833819932
 30
0.0
 10
10.7770045104
 20
7.8122243785
 30
0.0
 10
10.7743235863
 20
7.83537055
 30
0.0
 10
10.7724104285
 20
7.8584876028
 30
0.0
 10
10.7718318118
 20
7.8758695129
 30
0.0
 10
10.7718318118
 20
7.8874390399
 30
0.0
  0
SPLINE
  5
40E
100
AcDbEntity
  8
0
100
AcDbSpline
 62
7
  6
CONTINUOUS
 70
0
 71
3
 72
15
 73
11
 74
0
 42
0.0000001
 43
0.0000001
 44
0.0000000001
 40
0.0
 40
0.0
 40
0.0
 40
0.0
 40
0.0868362486
 40
0.1818384209
 40
0.2869162715
 40
0.40345715
 40
0.5324414411
 40
0.6745697339
 40
0.8303233694
 40
1.0
 40
1.0
 40
1.0
 40
1.0
 10
11.0251078312
 20
8.1723545129
 30
0.0
 10
11.0257299146
 20
8.1723112803
 30
0.0
 10
11.0270438364
 20
8.1723549943
 30
0.0
 10
11.0290694162
 20
8.1727707822
 30
0.0
 10
11.0312174066
 20
8.1735349036
 30
0.0
 10
11.0334819735
 20
8.1746452064
 30
0.0
 10
11.0358587927
 20
8.1761008338
 30
0.0
 10
11.0383434304
 20
8.1779004844
 30
0.0
 10
11.0409311915
 20
8.1800428468
 30
0.0
 10
11.0426485346
 20
8.181629486
 30
0.0
 10
11.0435249267
 20
8.1824760158
 30
0.0
  0
SPLINE
  5
40F
100
AcDbEntity
  8
0
100
AcDbSpline
 62
7
  6
CONTINUOUS
 70
0
 71
3
 72
39
 73
35
 74
0
 42
0.0000001
 43
0.0000001
 44
0.0000000001
 40
0.0
 40
0.0
 40
0.0
 40
0.0
 40
0.029942471
 40
0.0599093185
 40
0.0899243251
 40
0.1200101042
 40
0.1501875626
 40
0.1804754144
 40
0.2108897595
 40
0.2414437366
 40
0.2721472604
 40
0.3030068427
 40
0.3340254953
 40
0.365202715
 40
0.3965345496
 40
0.4280137343
 40
0.4596298913
 40
0.491369786
 40
0.5232176335
 40
0.55515545
 40
0.587163434
 40
0.6192203769
 40
0.6513040926
 40
0.6833918636
 40
0.7154608918
 40
0.747488751
 40
0.7794538351
 40
0.8113357952
 40
0.8431159564
 40
0.874777711
 40
0.9063068724
 40
0.937692086
 40
0.9689246467
 40
1.0
 40
1.0
 40
1.0
 40
1.0
 10
11.4905275946
 20
7.2908686283
 30
0.0
 10
11.4815691892
 20
7.2822154429
 30
0.0
 10
11.4629479174
 20
7.2656074597
 30
0.0
 10
11.4331137583
 20
7.2429820065
 30
0.0
 10
11.4015298112
 20
7.2227563397
 30
0.0
 10
11.3683725761
 20
7.2050438886
 30
0.0
 10
11.3338243428
 20
7.1899414228
 30
0.0
 10
11.2980757686
 20
7.1775319835
 30
0.0
 10
11.2613238491
 20
7.1678834807
 30
0.0
 10
11.2237710715
 20
7.1610485579
 30
0.0
 10
11.185624193
 20
7.1570643378
 30
0.0
 10
11.1470931244
 20
7.1559522512
 30
0.0
 10
11.1083897785
 20
7.1577179489
 30
0.0
 10
11.0697269067
 20
7.1623512124
 30
0.0
 10
11.0313169353
 20
7.1698261121
 30
0.0
 10
10.9933708172
 20
7.1801011678
 30
0.0
 10
10.9560968989
 20
7.1931195996
 30
0.0
 10
10.9196997752
 20
7.2088095853
 30
0.0
 10
10.8843791769
 20
7.2270846778
 30
0.0
 10
10.8503289098
 20
7.2478443269
 30
0.0
 10
10.8177358089
 20
7.2709744207
 30
0.0
 10
10.7867787222
 20
7.2963478939
 30
0.0
 10
10.7576274982
 20
7.3238253755
 30
0.0
 10
10.7304421138
 20
7.3532560151
 30
0.0
 10
10.7053718013
 20
7.3844782894
 30
0.0
 10
10.6825542521
 20
7.4173208842
 30
0.0
 10
10.6621148011
 20
7.4516035743
 30
0.0
 10
10.644165783
 20
7.4871382469
 30
0.0
 10
10.6288059377
 20
7.5237299031
 30
0.0
 10
10.6161198853
 20
7.5611777974
 30
0.0
 10
10.6061775793
 20
7.5992761996
 30
0.0
 10
10.5990340377
 20
7.6378166079
 30
0.0
 10
10.5947287362
 20
7.6765846629
 30
0.0
 10
10.5937644558
 20
7.7025127822
 30
0.0
 10
10.5937644558
 20
7.7154391716
 30
0.0
  0
SPLINE
  5
410
100
AcDbEntity
  8
0
100
AcDbSpline
 62
7
  6
CONTINUOUS
 70
0
 71
3
 72
39
 73
35
 74
0
 42
0.0000001
 43
0.0000001
 44
0.0000000001
 40
0.0
 40
0.0
 40
0.0
 40
0.0
 40
0.0299424698
 40
0.0599093171
 40
0.0899243244
 40
0.1200101049
 40
0.1501875654
 40
0.1804754197
 40
0.2108897678
 40
0.2414437479
 40
0.2721472748
 40
0.3030068601
 40
0.3340255156
 40
0.3652027379
 40
0.3965345747
 40
0.4280137612
 40
0.4596299196
 40
0.491369815
 40
0.5232176628
 40
0.555155479
 40
0.5871634623
 40
0.619220404
 40
0.6513041182
 40
0.6833918873
 40
0.7154609133
 40
0.74748877
 40
0.7794538516
 40
0.811335809
 40
0.8431159677
 40
0.8747777197
 40
0.9063068786
 40
0.9376920899
 40
0.9689246486
 40
1.0
 40
1.0
 40
1.0
 40
1.0
 10
8.8836561563
 20
6.9227657627
 30
0.0
 10
8.8754940374
 20
6.9148817878
 30
0.0
 10
8.858527961
 20
6.8997501472
 30
0.0
 10
8.8313456951
 20
6.8791359612
 30
0.0
 10
8.8025691886
 20
6.8607082457
 30
0.0
 10
8.7723592521
 20
6.8445703464
 30
0.0
 10
8.7408819716
 20
6.8308104304
 30
0.0
 10
8.7083110566
 20
6.8195041567
 30
0.0
 10
8.6748259913
 20
6.810713398
 30
0.0
 10
8.6406112637
 20
6.8044861178
 30
0.0
 10
8.6058552517
 20
6.8008561383
 30
0.0
 10
8.5707492068
 20
6.7998429849
 30
0.0
 10
8.5354862042
 20
6.8014518055
 30
0.0
 10
8.5002600835
 20
6.8056732897
 30
0.0
 10
8.4652643877
 20
6.8124838125
 30
0.0
 10
8.4306913175
 20
6.8218455804
 30
0.0
 10
8.396730699
 20
6.8337068605
 30
0.0
 10
8.3635689399
 20
6.8480022149
 30
0.0
 10
8.3313880162
 20
6.8646528806
 30
0.0
 10
8.3003645058
 20
6.8835672453
 30
0.0
 10
8.2706686353
 20
6.9046413407
 30
0.0
 10
8.2424633542
 20
6.9277593963
 30
0.0
 10
8.2159034128
 20
6.9527944299
 30
0.0
 10
8.1911345669
 20
6.9796090007
 30
0.0
 10
8.168292783
 20
7.0080559433
 30
0.0
 10
8.1475035127
 20
7.0379791718
 30
0.0
 10
8.1288809495
 20
7.0692144819
 30
0.0
 10
8.1125274421
 20
7.1015904824
 30
0.0
 10
8.0985329532
 20
7.1349295084
 30
0.0
 10
8.0869745805
 20
7.169048659
 30
0.0
 10
8.0779160592
 20
7.203760492
 30
0.0
 10
8.0714075166
 20
7.2388750398
 30
0.0
 10
8.0674849192
 20
7.274196998
 30
0.0
 10
8.0666063549
 20
7.2978203635
 30
0.0
 10
8.0666063549
 20
7.3095977245
 30
0.0
  0
SPLINE
  5
411
100
AcDbEntity
  8
0
100
AcDbSpline
 62
7
  6
CONTINUOUS
 70
0
 71
3
 72
39
 73
35
 74
0
 42
0.0000001
 43
0.0000001
 44
0.0000000001
 40
0.0
 40
0.0
 40
0.0
 40
0.0
 40
0.0299344856
 40
0.0599008791
 40
0.0899221446
 40
0.1200199451
 40
0.1502141403
 40
0.1805223391
 40
0.2109595162
 40
0.2415377003
 40
0.2722657447
 40
0.3031491757
 40
0.3341901211
 40
0.3653873149
 40
0.3967361732
 40
0.4282289399
 40
0.4598548909
 40
0.4916005905
 40
0.5234501923
 40
0.5553857793
 40
0.5873877359
 40
0.6194351455
 40
0.6515062043
 40
0.6835786481
 40
0.7156301856
 40
0.7476389324
 40
0.7795838391
 40
0.8114451077
 40
0.8432045897
 40
0.8748461639
 40
0.9063560627
 40
0.9377232984
 40
0.9689394068
 40
1.0
 40
1.0
 40
1.0
 40
1.0
 10
8.8835503707
 20
6.922878784
 30
0.0
 10
8.875266209
 20
6.9152966012
 30
0.0
 10
8.8580842405
 20
6.9007701614
 30
0.0
 10
8.8306653386
 20
6.8810602294
 30
0.0
 10
8.801734097
 20
6.8635235721
 30
0.0
 10
8.771448789
 20
6.8482564647
 30
0.0
 10
8.7399723856
 20
6.835340521
 30
0.0
 10
8.7074749184
 20
6.8248452268
 30
0.0
 10
8.6741316687
 20
6.8168267793
 30
0.0
 10
8.6401224482
 20
6.8113279787
 30
0.0
 10
8.6056305392
 20
6.8083780129
 30
0.0
 10
8.5708417256
 20
6.8079923361
 30
0.0
 10
8.5359432907
 20
6.8101726056
 30
0.0
 10
8.5011230215
 20
6.8149066977
 30
0.0
 10
8.4665682002
 20
6.8221687413
 30
0.0
 10
8.4324646088
 20
6.8319193141
 30
0.0
 10
8.3989955475
 20
6.844105671
 30
0.0
 10
8.3663408642
 20
6.8586620304
 30
0.0
 10
8.3346760082
 20
6.8755099377
 30
0.0
 10
8.304171081
 20
6.8945586493
 30
0.0
 10
8.2749899378
 20
6.91570564
 30
0.0
 10
8.2472893309
 20
6.93883717
 30
0.0
 10
8.2212180755
 20
6.9638288842
 30
0.0
 10
8.1969162668
 20
6.9905464785
 30
0.0
 10
8.1745145137
 20
7.018846393
 30
0.0
 10
8.1541332351
 20
7.0485765764
 30
0.0
 10
8.1358820461
 20
7.0795773164
 30
0.0
 10
8.1198591697
 20
7.1116820858
 30
0.0
 10
8.106150914
 20
7.144718406
 30
0.0
 10
8.0948312108
 20
7.1785088283
 30
0.0
 10
8.0859611328
 20
7.2128716043
 30
0.0
 10
8.0795887664
 20
7.2476226246
 30
0.0
 10
8.0757485737
 20
7.2825726631
 30
0.0
 10
8.0748885577
 20
7.3059450749
 30
0.0
 10
8.0748885577
 20
7.3175977186
 30
0.0
  0
SPLINE
  5
412
100
AcDbEntity
  8
0
100
AcDbSpline
 62
7
  6
CONTINUOUS
 70
0
 71
3
 72
39
 73
35
 74
0
 42
0.0000001
 43
0.0000001
 44
0.0000000001
 40
0.0
 40
0.0
 40
0.0
 40
0.0
 40
0.0307265371
 40
0.0612837033
 40
0.0916944264
 40
0.1219869453
 40
0.1521938708
 40
0.1823510218
 40
0.2124960892
 40
0.2426672213
 40
0.2729015833
 40
0.3032339604
 40
0.3336954867
 40
0.3643125335
 40
0.3951058165
 40
0.4260897536
 40
0.4572720648
 40
0.4886536269
 40
0.5202285821
 40
0.5519846492
 40
0.5839036322
 40
0.6159621056
 40
0.6481322245
 40
0.6803826428
 40
0.7126795229
 40
0.7449875922
 40
0.7772712331
 40
0.80949558
 40
0.8416276025
 40
0.8736371462
 40
0.9054979107
 40
0.9371883678
 40
0.9686921241
 40
1.0
 40
1.0
 40
1.0
 40
1.0
 10
8.8435371436
 20
7.2095764557
 30
0.0
 10
8.8418572822
 20
7.2006845005
 30
0.0
 10
8.8376656345
 20
7.1830961681
 30
0.0
 10
8.8289051471
 20
7.1575096004
 30
0.0
 10
8.8177621476
 20
7.1330040773
 30
0.0
 10
8.804332011
 20
7.1097926909
 30
0.0
 10
8.7887290486
 20
7.0880737185
 30
0.0
 10
8.7710867485
 20
7.0680336599
 30
0.0
 10
8.7515561992
 20
7.0498442927
 30
0.0
 10
8.7303047712
 20
7.0336615761
 30
0.0
 10
8.7075147686
 20
7.019623969
 30
0.0
 10
8.6833816763
 20
7.0078513169
 30
0.0
 10
8.658112352
 20
6.9984439615
 30
0.0
 10
8.6319232864
 20
6.9914817025
 30
0.0
 10
8.6050386225
 20
6.9870232313
 30
0.0
 10
8.5776881842
 20
6.9851058743
 30
0.0
 10
8.5501055488
 20
6.9857451346
 30
0.0
 10
8.5225260194
 20
6.9889346544
 30
0.0
 10
8.4951846675
 20
6.9946465249
 30
0.0
 10
8.4683143636
 20
7.0028313795
 30
0.0
 10
8.4421437937
 20
7.0134188277
 30
0.0
 10
8.41689563
 20
7.0263182781
 30
0.0
 10
8.3927846414
 20
7.0414195601
 30
0.0
 10
8.3700158394
 20
7.0585938063
 30
0.0
 10
8.3487828939
 20
7.0776947339
 30
0.0
 10
8.3292664655
 20
7.0985597582
 30
0.0
 10
8.3116325865
 20
7.1210112813
 30
0.0
 10
8.2960314446
 20
7.1448583537
 30
0.0
 10
8.282596073
 20
7.169898162
 30
0.0
 10
8.2714410741
 20
7.1959177533
 30
0.0
 10
8.2626618457
 20
7.2226955768
 30
0.0
 10
8.2563338248
 20
7.2500045429
 30
0.0
 10
8.2525113248
 20
7.2776090919
 30
0.0
 10
8.2516529944
 20
7.2961186106
 30
0.0
 10
8.2516529944
 20
7.3053390633
 30
0.0
  0
SPLINE
  5
413
100
AcDbEntity
  8
0
100
AcDbSpline
 62
7
  6
CONTINUOUS
 70
0
 71
3
 72
50
 73
46
 74
0
 42
0.0000001
 43
0.0000001
 44
0.0000000001
 40
0.0
 40
0.0
 40
0.0
 40
0.0
 40
0.0153294815
 40
0.0306179361
 40
0.0458680001
 40
0.0610826581
 40
0.0762652126
 40
0.0914192482
 40
0.1065486085
 40
0.1216573531
 40
0.1367497311
 40
0.1518301423
 40
0.16690309
 40
0.1819731483
 40
0.1970449201
 40
0.2121229876
 40
0.2272118781
 40
0.2423160232
 40
0.2574397106
 40
0.272587054
 40
0.2877619574
 40
0.3029680712
 40
0.3182087722
 40
0.333487134
 40
0.3641590073
 40
0.3950098595
 40
0.4260511741
 40
0.4572880432
 40
0.4887191186
 40
0.5203367659
 40
0.5521274215
 40
0.584072119
 40
0.616147149
 40
0.6483248383
 40
0.680574429
 40
0.7128630181
 40
0.7451565434
 40
0.7774207971
 40
0.8096224387
 40
0.8417299946
 40
0.8737148117
 40
0.9055519542
 40
0.9372210676
 40
0.9687066173
 40
1.0
 40
1.0
 40
1.0
 40
1.0
 10
8.8462644104
 20
7.2264404245
 30
0.0
 10
8.8452678559
 20
7.2224562591
 30
0.0
 10
8.8430910629
 20
7.2145438414
 30
0.0
 10
8.8392761143
 20
7.2028579897
 30
0.0
 10
8.8349234965
 20
7.1913941361
 30
0.0
 10
8.8300422573
 20
7.1801761713
 30
0.0
 10
8.8246422961
 20
7.1692271057
 30
0.0
 10
8.8187347716
 20
7.1585694413
 30
0.0
 10
8.8123318213
 20
7.1482250716
 30
0.0
 10
8.8054465143
 20
7.1382153205
 30
0.0
 10
8.7980930771
 20
7.1285607152
 30
0.0
 10
8.7902866017
 20
7.1192811133
 30
0.0
 10
8.7820430754
 20
7.1103956469
 30
0.0
 10
8.7733795208
 20
7.1019225127
 30
0.0
 10
8.7643137104
 20
7.0938791609
 30
0.0
 10
8.7548642556
 20
7.0862821628
 30
0.0
 10
8.7450506476
 20
7.0791470518
 30
0.0
 10
8.7348930178
 20
7.0724885476
 30
0.0
 10
8.7244122481
 20
7.06632034
 30
0.0
 10
8.7136299355
 20
7.0606550219
 30
0.0
 10
8.7025681783
 20
7.0555043028
 30
0.0
 10
8.691249824
 20
7.0508787462
 30
0.0
 10
8.6796978176
 20
7.0467877271
 30
0.0
 10
8.6639979773
 20
7.0420516165
 30
0.0
 10
8.6438958571
 20
7.0375102805
 30
0.0
 10
8.6192685475
 20
7.0343177018
 30
0.0
 10
8.5943002458
 20
7.0333982131
 30
0.0
 10
8.5691973922
 20
7.0347591303
 30
0.0
 10
8.5441655765
 20
7.0383885259
 30
0.0
 10
8.5194101138
 20
7.0442559949
 30
0.0
 10
8.4951337735
 20
7.0523128316
 30
0.0
 10
8.4715353549
 20
7.0624925828
 30
0.0
 10
8.4488080235
 20
7.0747114758
 30
0.0
 10
8.4271377384
 20
7.0888690903
 30
0.0
 10
8.4067018274
 20
7.1048493061
 30
0.0
 10
8.3876675626
 20
7.1225211972
 30
0.0
 10
8.3701907087
 20
7.1417399848
 30
0.0
 10
8.3544143697
 20
7.1623483357
 30
0.0
 10
8.340467868
 20
7.1841776286
 30
0.0
 10
8.328465568
 20
7.2070491948
 30
0.0
 10
8.3185060055
 20
7.2307759018
 30
0.0
 10
8.3106711531
 20
7.2551633736
 30
0.0
 10
8.3050257546
 20
7.2800125974
 30
0.0
 10
8.3016164169
 20
7.3051173581
 30
0.0
 10
8.3008510623
 20
7.3219459717
 30
0.0
 10
8.3008510623
 20
7.330329755
 30
0.0
  0
SPLINE
  5
414
100
AcDbEntity
  8
0
100
AcDbSpline
 62
7
  6
CONTINUOUS
 70
0
 71
3
 72
43
 73
39
 74
0
 42
0.0000001
 43
0.0000001
 44
0.0000000001
 40
0.0
 40
0.0
 40
0.0
 40
0.0
 40
0.0149723204
 40
0.0299477006
 40
0.0449291793
 40
0.0599197625
 40
0.0899340837
 40
0.1200191761
 40
0.1350977684
 40
0.1502017219
 40
0.1804888825
 40
0.2109025329
 40
0.2414558125
 40
0.2721586361
 40
0.3030175147
 40
0.3340354591
 40
0.3652119671
 40
0.3965430872
 40
0.4280215545
 40
0.4596369905
 40
0.491376161
 40
0.5232232825
 40
0.5551603712
 40
0.5871676259
 40
0.6192238382
 40
0.6513068229
 40
0.683393863
 40
0.7154621607
 40
0.7474892906
 40
0.7794536471
 40
0.8113348816
 40
0.843114318
 40
0.8747753538
 40
0.9063037992
 40
0.9376882654
 40
0.9533260383
 40
0.9689254782
 40
1.0
 40
1.0
 40
1.0
 40
1.0
 10
8.7626460686
 20
7.136081971
 30
0.0
 10
8.7605348328
 20
7.1340426728
 30
0.0
 10
8.7562303753
 20
7.1300471178
 30
0.0
 10
8.7495398764
 20
7.1243145569
 30
0.0
 10
8.7426240551
 20
7.1188497332
 30
0.0
 10
8.7331127581
 20
7.1119287626
 30
0.0
 10
8.72070181
 20
7.1039808309
 30
0.0
 10
8.7076875028
 20
7.0970288671
 30
0.0
 10
8.696954094
 20
7.0920830966
 30
0.0
 10
8.6859988989
 20
7.0875457519
 30
0.0
 10
8.6719439305
 20
7.0826666942
 30
0.0
 10
8.6546232813
 20
7.0781195647
 30
0.0
 10
8.636924692
 20
7.0748982388
 30
0.0
 10
8.6189462379
 20
7.0730205083
 30
0.0
 10
8.600786681
 20
7.0724963888
 30
0.0
 10
8.5825459403
 20
7.0733285496
 30
0.0
 10
8.5643242714
 20
7.0755121831
 30
0.0
 10
8.5462217949
 20
7.0790350769
 30
0.0
 10
8.5283379323
 20
7.0838776794
 30
0.0
 10
8.5107708728
 20
7.0900132161
 30
0.0
 10
8.4936170405
 20
7.0974078404
 30
0.0
 10
8.4769705727
 20
7.1060208222
 30
0.0
 10
8.4609228109
 20
7.1158047724
 30
0.0
 10
8.4455618058
 20
7.1267059028
 30
0.0
 10
8.4309718405
 20
7.1386643201
 30
0.0
 10
8.4172329735
 20
7.1516143521
 30
0.0
 10
8.4044206044
 20
7.1654849055
 30
0.0
 10
8.3926050645
 20
7.1801998518
 30
0.0
 10
8.3818512342
 20
7.1956784427
 30
0.0
 10
8.3722181905
 20
7.2118357425
 30
0.0
 10
8.3637588841
 20
7.2285831084
 30
0.0
 10
8.3565198548
 20
7.2458286009
 30
0.0
 10
8.3505409545
 20
7.2634777388
 30
0.0
 10
8.3458552223
 20
7.2814330593
 30
0.0
 10
8.3430460144
 20
7.2965892924
 30
0.0
 10
8.3414701373
 20
7.3087671539
 30
0.0
 10
8.3403454718
 20
7.3209333595
 30
0.0
 10
8.3400049316
 20
7.3300883511
 30
0.0
 10
8.3400049316
 20
7.3361804863
 30
0.0
  0
SPLINE
  5
415
100
AcDbEntity
  8
0
100
AcDbSpline
 62
7
  6
CONTINUOUS
 70
0
 71
3
 72
39
 73
35
 74
0
 42
0.0000001
 43
0.0000001
 44
0.0000000001
 40
0.0
 40
0.0
 40
0.0
 40
0.0
 40
0.0300581264
 40
0.0602197521
 40
0.0904948621
 40
0.1208915554
 40
0.151415933
 40
0.1820720245
 40
0.2128617517
 40
0.2437849255
 40
0.2748392749
 40
0.3060205083
 40
0.3373224024
 40
0.3687369174
 40
0.4002543375
 40
0.4318634329
 40
0.4635516367
 40
0.4953052369
 40
0.5271095802
 40
0.5589492862
 40
0.5908084691
 40
0.6226709658
 40
0.6545205681
 40
0.6863412518
 40
0.7181174045
 40
0.7498340501
 40
0.781477064
 40
0.8130333837
 40
0.8444912193
 40
0.8758401705
 40
0.907071671
 40
0.9381782194
 40
0.9691559538
 40
1.0
 40
1.0
 40
1.0
 40
1.0
 10
8.8119777447
 20
7.2071719222
 30
0.0
 10
8.8073129638
 20
7.2053180918
 30
0.0
 10
8.7978416607
 20
7.2019119158
 30
0.0
 10
8.7833065028
 20
7.1977376224
 30
0.0
 10
8.7684748429
 20
7.1945053501
 30
0.0
 10
8.7534058997
 20
7.1922280543
 30
0.0
 10
8.7381587867
 20
7.1909145162
 30
0.0
 10
8.7227935746
 20
7.1905698162
 30
0.0
 10
8.7073707028
 20
7.1911951983
 30
0.0
 10
8.6919508373
 20
7.1927881036
 30
0.0
 10
8.67659461
 20
7.195342174
 30
0.0
 10
8.661362389
 20
7.1988472825
 30
0.0
 10
8.6463140436
 20
7.2032895752
 30
0.0
 10
8.631508711
 20
7.2086515214
 30
0.0
 10
8.6170045594
 20
7.2149119727
 30
0.0
 10
8.6028585676
 20
7.2220462655
 30
0.0
 10
8.5891263023
 20
7.230026316
 30
0.0
 10
8.5758617042
 20
7.2388207302
 30
0.0
 10
8.5631168775
 20
7.2483949267
 30
0.0
 10
8.5509418894
 20
7.2587112717
 30
0.0
 10
8.5393845727
 20
7.2697292229
 30
0.0
 10
8.5284903273
 20
7.2814054773
 30
0.0
 10
8.5183019559
 20
7.2936941567
 30
0.0
 10
8.5088594964
 20
7.306546984
 30
0.0
 10
8.5002000664
 20
7.3199134713
 30
0.0
 10
8.4923577187
 20
7.3337411156
 30
0.0
 10
8.4853633095
 20
7.3479756024
 30
0.0
 10
8.4792443716
 20
7.3625610181
 30
0.0
 10
8.4740250097
 20
7.3774400512
 30
0.0
 10
8.4697257562
 20
7.3925542706
 30
0.0
 10
8.4663636654
 20
7.4078441783
 30
0.0
 10
8.463951866
 20
7.4232500196
 30
0.0
 10
8.4625001621
 20
7.4387102858
 30
0.0
 10
8.4621754423
 20
7.4490372494
 30
0.0
 10
8.4621754423
 20
7.4541881447
 30
0.0
  0
SPLINE
  5
416
100
AcDbEntity
  8
0
100
AcDbSpline
 62
7
  6
CONTINUOUS
 70
0
 71
3
 72
23
 73
19
 74
0
 42
0.0000001
 43
0.0000001
 44
0.0000000001
 40
0.0
 40
0.0
 40
0.0
 40
0.0
 40
0.0616917626
 40
0.1234138647
 40
0.1851856856
 40
0.2470261295
 40
0.3089534427
 40
0.3709850455
 40
0.4331373819
 40
0.4954257624
 40
0.5578642233
 40
0.6204654266
 40
0.68324047
 40
0.7461990158
 40
0.8093490673
 40
0.8726958194
 40
0.9362469603
 40
1.0
 40
1.0
 40
1.0
 40
1.0
 10
8.2001366927
 20
7.6304045498
 30
0.0
 10
8.1951601432
 20
7.6253320539
 30
0.0
 10
8.185455485
 20
7.614934873
 30
0.0
 10
8.1716884366
 20
7.5986304686
 30
0.0
 10
8.1587372051
 20
7.5816485827
 30
0.0
 10
8.1466302259
 20
7.5640263622
 30
0.0
 10
8.1353935066
 20
7.5458017014
 30
0.0
 10
8.1250512727
 20
7.5270140027
 30
0.0
 10
8.1156257988
 20
7.5077038124
 30
0.0
 10
8.1071374114
 20
7.4879128024
 30
0.0
 10
8.0996044187
 20
7.4676836737
 30
0.0
 10
8.0930430038
 20
7.4470600985
 30
0.0
 10
8.087467259
 20
7.4260865782
 30
0.0
 10
8.0828891878
 20
7.4048083256
 30
0.0
 10
8.079318709
 20
7.3832713682
 30
0.0
 10
8.0767632652
 20
7.3615217499
 30
0.0
 10
8.0752286148
 20
7.3396073005
 30
0.0
 10
8.0748885577
 20
7.3249412224
 30
0.0
 10
8.0748885577
 20
7.3175977186
 30
0.0
  0
SPLINE
  5
417
100
AcDbEntity
  8
0
100
AcDbSpline
 62
7
  6
CONTINUOUS
 70
0
 71
3
 72
23
 73
19
 74
0
 42
0.0000001
 43
0.0000001
 44
0.0000000001
 40
0.0
 40
0.0
 40
0.0
 40
0.0
 40
0.0630509504
 40
0.1257810803
 40
0.1882283612
 40
0.2504393919
 40
0.3124680642
 40
0.3743739575
 40
0.43622051
 40
0.4980730344
 40
0.559996654
 40
0.6220542484
 40
0.6843044932
 40
0.7468000664
 40
0.8095860508
 40
0.8726989365
 40
0.9361643539
 40
1.0
 40
1.0
 40
1.0
 40
1.0
 10
8.485273654
 20
7.5804781225
 30
0.0
 10
8.4770936382
 20
7.5792246087
 30
0.0
 10
8.4608742335
 20
7.5760168192
 30
0.0
 10
8.4371215657
 20
7.5691131784
 30
0.0
 10
8.4141719469
 20
7.5601779735
 30
0.0
 10
8.3921920101
 20
7.549275083
 30
0.0
 10
8.3713385142
 20
7.5364820692
 30
0.0
 10
8.3517610108
 20
7.52189027
 30
0.0
 10
8.3335997174
 20
7.5056039766
 30
0.0
 10
8.3169847074
 20
7.4877397587
 30
0.0
 10
8.302034859
 20
7.4684255807
 30
0.0
 10
8.288857033
 20
7.4477998098
 30
0.0
 10
8.2775452819
 20
7.4260102088
 30
0.0
 10
8.2681802079
 20
7.4032127629
 30
0.0
 10
8.2608282938
 20
7.3795707906
 30
0.0
 10
8.2555416508
 20
7.3552528319
 30
0.0
 10
8.2523573372
 20
7.3304348865
 30
0.0
 10
8.2516529944
 20
7.3137175587
 30
0.0
 10
8.2516529944
 20
7.3053390633
 30
0.0
  0
SPLINE
  5
418
100
AcDbEntity
  8
0
100
AcDbSpline
 62
7
  6
CONTINUOUS
 70
0
 71
3
 72
23
 73
19
 74
0
 42
0.0000001
 43
0.0000001
 44
0.0000000001
 40
0.0
 40
0.0
 40
0.0
 40
0.0
 40
0.0628648392
 40
0.1254440758
 40
0.1877775334
 40
0.2499119675
 40
0.3118998097
 40
0.373797708
 40
0.4356649117
 40
0.4975615606
 40
0.5595469404
 40
0.62167777
 40
0.6840065836
 40
0.7465802781
 40
0.809438776
 40
0.8726143768
 40
0.93612957
 40
1.0
 40
1.0
 40
1.0
 40
1.0
 10
8.5022094763
 20
7.5826166572
 30
0.0
 10
8.4950458612
 20
7.5810861381
 30
0.0
 10
8.4808712144
 20
7.5774338177
 30
0.0
 10
8.4601950118
 20
7.5701982599
 30
0.0
 10
8.4402850012
 20
7.561264587
 30
0.0
 10
8.4212739349
 20
7.5506915562
 30
0.0
 10
8.40328623
 20
7.5385482633
 30
0.0
 10
8.3864402493
 20
7.5249143585
 30
0.0
 10
8.3708466653
 20
7.5098793269
 30
0.0
 10
8.3566079257
 20
7.493541938
 30
0.0
 10
8.3438174965
 20
7.4760095627
 30
0.0
 10
8.3325592535
 20
7.4573974368
 30
0.0
 10
8.3229069091
 20
7.4378278935
 30
0.0
 10
8.314923538
 20
7.4174294759
 30
0.0
 10
8.3086611422
 20
7.3963362458
 30
0.0
 10
8.3041604918
 20
7.3746861697
 30
0.0
 10
8.3014505442
 20
7.3526230281
 30
0.0
 10
8.3008510623
 20
7.3377722207
 30
0.0
 10
8.3008510623
 20
7.330329755
 30
0.0
  0
SPLINE
  5
419
100
AcDbEntity
  8
0
100
AcDbSpline
 62
7
  6
CONTINUOUS
 70
0
 71
3
 72
21
 73
17
 74
0
 42
0.0000001
 43
0.0000001
 44
0.0000000001
 40
0.0
 40
0.0
 40
0.0
 40
0.0
 40
0.0617147761
 40
0.1234506677
 40
0.1852285528
 40
0.2470689013
 40
0.30899155
 40
0.3710154761
 40
0.4331586505
 40
0.4954378572
 40
0.5578685131
 40
0.6204644763
 40
0.6832380473
 40
0.746200107
 40
0.8726822618
 40
1.0
 40
1.0
 40
1.0
 40
1.0
 10
8.4090200693
 20
7.5021825231
 30
0.0
 10
8.4062873629
 20
7.49954293
 30
0.0
 10
8.4009558516
 20
7.4941211588
 30
0.0
 10
8.3933860172
 20
7.4855864579
 30
0.0
 10
8.386259539
 20
7.4766679323
 30
0.0
 10
8.3795930755
 20
7.4673864743
 30
0.0
 10
8.3734019971
 20
7.4577633648
 30
0.0
 10
8.367700561
 20
7.4478208516
 30
0.0
 10
8.3625018426
 20
7.4375818897
 30
0.0
 10
8.3578179059
 20
7.4270700575
 30
0.0
 10
8.3536594834
 20
7.4163096085
 30
0.0
 10
8.3500361013
 20
7.4053254513
 30
0.0
 10
8.3469561539
 20
7.3941425766
 30
0.0
 10
8.343578847
 20
7.3789814267
 30
0.0
 10
8.3407531179
 20
7.3596534029
 30
0.0
 10
8.3400049316
 20
7.3440185754
 30
0.0
 10
8.3400049316
 20
7.3361804863
 30
0.0
  0
SPLINE
  5
41A
100
AcDbEntity
  8
0
100
AcDbSpline
 62
7
  6
CONTINUOUS
 70
0
 71
3
 72
13
 73
9
 74
0
 42
0.0000001
 43
0.0000001
 44
0.0000000001
 40
0.0
 40
0.0
 40
0.0
 40
0.0
 40
0.1236916481
 40
0.2477174338
 40
0.3721049965
 40
0.4968789123
 40
0.7475740471
 40
1.0
 40
1.0
 40
1.0
 40
1.0
 10
8.4817772143
 20
7.5490217712
 30
0.0
 10
8.4801639388
 20
7.5453395567
 30
0.0
 10
8.4771275939
 20
7.5378781806
 30
0.0
 10
8.4731625716
 20
7.5264472725
 30
0.0
 10
8.4697905773
 20
7.5147903995
 30
0.0
 10
8.466091516
 20
7.4989648353
 30
0.0
 10
8.4629951285
 20
7.4787558775
 30
0.0
 10
8.4621754423
 20
7.462392276
 30
0.0
 10
8.4621754423
 20
7.4541881447
 30
0.0
  0
SPLINE
  5
41B
100
AcDbEntity
  8
0
100
AcDbSpline
 62
7
  6
CONTINUOUS
 70
0
 71
3
 72
39
 73
35
 74
0
 42
0.0000001
 43
0.0000001
 44
0.0000000001
 40
0.0
 40
0.0
 40
0.0
 40
0.0
 40
0.0300137256
 40
0.0601242954
 40
0.0903436639
 40
0.1206818682
 40
0.1511468752
 40
0.1817444702
 40
0.2124781854
 40
0.2433492713
 40
0.274356705
 40
0.3054972373
 40
0.3367654732
 40
0.3681539839
 40
0.3996534474
 40
0.431252814
 40
0.4629394942
 40
0.4946995643
 40
0.5265179873
 40
0.5583788464
 40
0.5902655876
 40
0.6221612695
 40
0.6540488166
 40
0.6859112746
 40
0.7177320643
 40
0.7494952321
 40
0.7811856943
 40
0.8127894671
 40
0.8442939054
 40
0.8756878445
 40
0.9069620015
 40
0.9381085151
 40
0.9691226623
 40
1.0
 40
1.0
 40
1.0
 40
1.0
 10
8.8184832939
 20
7.2239149531
 30
0.0
 10
8.8140497753
 20
7.2218686173
 30
0.0
 10
8.8050258933
 20
7.2180705228
 30
0.0
 10
8.7911145227
 20
7.2132933849
 30
0.0
 10
8.7768625331
 20
7.2094461959
 30
0.0
 10
8.7623297902
 20
7.2065451776
 30
0.0
 10
8.7475762786
 20
7.2046021304
 30
0.0
 10
8.7326631495
 20
7.2036250157
 30
0.0
 10
8.717652118
 20
7.2036177592
 30
0.0
 10
8.7026053023
 20
7.2045802841
 30
0.0
 10
8.6875849431
 20
7.2065085038
 30
0.0
 10
8.6726531552
 20
7.2093943453
 30
0.0
 10
8.6578716711
 20
7.2132257843
 30
0.0
 10
8.643301589
 20
7.2179868978
 30
0.0
 10
8.6290031229
 20
7.2236579299
 30
0.0
 10
8.615035354
 20
7.2302153707
 30
0.0
 10
8.6014559909
 20
7.2376320603
 30
0.0
 10
8.5883211334
 20
7.2458773001
 30
0.0
 10
8.5756850435
 20
7.2549169798
 30
0.0
 10
8.5635999233
 20
7.2647137172
 30
0.0
 10
8.5521157014
 20
7.2752270124
 30
0.0
 10
8.5412798288
 20
7.2864134136
 30
0.0
 10
8.5311370844
 20
7.2982266954
 30
0.0
 10
8.5217293913
 20
7.3106180481
 30
0.0
 10
8.5130956448
 20
7.3235362771
 30
0.0
 10
8.5052715469
 20
7.3369280109
 30
0.0
 10
8.4982894674
 20
7.3507379226
 30
0.0
 10
8.4921783018
 20
7.3649089582
 30
0.0
 10
8.4869633748
 20
7.3793825606
 30
0.0
 10
8.482666279
 20
7.3940989472
 30
0.0
 10
8.4793049144
 20
7.4089972104
 30
0.0
 10
8.4768931555
 20
7.4240160617
 30
0.0
 10
8.4754412158
 20
7.4390924945
 30
0.0
 10
8.4751163946
 20
7.4491646543
 30
0.0
 10
8.4751163946
 20
7.4541881455
 30
0.0
  0
SPLINE
  5
41C
100
AcDbEntity
  8
0
100
AcDbSpline
 62
4
  6
CONTINUOUS
 70
0
 71
3
 72
346
 73
342
 74
0
 42
0.0000001
 43
0.0000001
 44
0.0000000001
 40
0.0
 40
0.0
 40
0.0
 40
0.0
 40
0.015625
 40
0.03125
 40
0.0390625
 40
0.046875
 40
0.05078125
 40
0.0546875
 40
0.05859375
 40
0.060546875
 40
0.0615234375
 40
0.0625
 40
0.0634765625
 40
0.064453125
 40
0.06640625
 40
0.0703125
 40
0.07421875
 40
0.078125
 40
0.0859375
 40
0.09375
 40
0.1015625
 40
0.109375
 40
0.11328125
 40
0.1171875
 40
0.12109375
 40
0.123046875
 40
0.1240234375
 40
0.125
 40
0.1259765625
 40
0.126953125
 40
0.12890625
 40
0.1328125
 40
0.13671875
 40
0.140625
 40
0.1484375
 40
0.15625
 40
0.1640625
 40
0.171875
 40
0.17578125
 40
0.1796875
 40
0.18359375
 40
0.185546875
 40
0.1865234375
 40
0.1875
 40
0.1884765625
 40
0.189453125
 40
0.19140625
 40
0.1953125
 40
0.19921875
 40
0.203125
 40
0.2109375
 40
0.21875
 40
0.2265625
 40
0.234375
 40
0.23828125
 40
0.2421875
 40
0.244140625
 40
0.24609375
 40
0.248046875
 40
0.2490234375
 40
0.2495117188
 40
0.25
 40
0.2504882812
 40
0.2509765625
 40
0.251953125
 40
0.25390625
 40
0.255859375
 40
0.2578125
 40
0.26171875
 40
0.265625
 40
0.2734375
 40
0.28125
 40
0.2890625
 40
0.296875
 40
0.30078125
 40
0.3046875
 40
0.306640625
 40
0.30859375
 40
0.310546875
 40
0.3115234375
 40
0.3120117188
 40
0.3125
 40
0.3129882812
 40
0.3134765625
 40
0.314453125
 40
0.31640625
 40
0.318359375
 40
0.3203125
 40
0.32421875
 40
0.328125
 40
0.3359375
 40
0.34375
 40
0.3515625
 40
0.35546875
 40
0.359375
 40
0.36328125
 40
0.3671875
 40
0.369140625
 40
0.37109375
 40
0.3720703125
 40
0.373046875
 40
0.3740234375
 40
0.3745117188
 40
0.3747558594
 40
0.375
 40
0.3752441406
 40
0.3754882812
 40
0.3759765625
 40
0.376953125
 40
0.3779296875
 40
0.37890625
 40
0.380859375
 40
0.3828125
 40
0.38671875
 40
0.390625
 40
0.39453125
 40
0.3984375
 40
0.40625
 40
0.4140625
 40
0.41796875
 40
0.421875
 40
0.42578125
 40
0.4296875
 40
0.431640625
 40
0.43359375
 40
0.4345703125
 40
0.435546875
 40
0.4365234375
 40
0.4370117188
 40
0.4372558594
 40
0.4375
 40
0.4377441406
 40
0.4379882812
 40
0.4384765625
 40
0.439453125
 40
0.4404296875
 40
0.44140625
 40
0.443359375
 40
0.4453125
 40
0.44921875
 40
0.453125
 40
0.45703125
 40
0.4609375
 40
0.46875
 40
0.4765625
 40
0.48046875
 40
0.484375
 40
0.48828125
 40
0.4921875
 40
0.494140625
 40
0.49609375
 40
0.4970703125
 40
0.498046875
 40
0.4990234375
 40
0.4995117188
 40
0.4997558594
 40
0.5
 40
0.5002441406
 40
0.5004882812
 40
0.5009765625
 40
0.501953125
 40
0.5029296875
 40
0.50390625
 40
0.505859375
 40
0.5078125
 40
0.51171875
 40
0.515625
 40
0.51953125
 40
0.5234375
 40
0.53125
 40
0.5390625
 40
0.54296875
 40
0.546875
 40
0.55078125
 40
0.5546875
 40
0.556640625
 40
0.55859375
 40
0.5595703125
 40
0.560546875
 40
0.5615234375
 40
0.5620117188
 40
0.5622558594
 40
0.5625
 40
0.5627441406
 40
0.5629882812
 40
0.5634765625
 40
0.564453125
 40
0.5654296875
 40
0.56640625
 40
0.568359375
 40
0.5703125
 40
0.57421875
 40
0.578125
 40
0.58203125
 40
0.5859375
 40
0.59375
 40
0.6015625
 40
0.60546875
 40
0.609375
 40
0.61328125
 40
0.6171875
 40
0.619140625
 40
0.62109375
 40
0.6220703125
 40
0.623046875
 40
0.6240234375
 40
0.6245117188
 40
0.6247558594
 40
0.625
 40
0.6252441406
 40
0.6254882812
 40
0.6259765625
 40
0.626953125
 40
0.6279296875
 40
0.62890625
 40
0.630859375
 40
0.6328125
 40
0.63671875
 40
0.640625
 40
0.64453125
 40
0.6484375
 40
0.65625
 40
0.6640625
 40
0.66796875
 40
0.671875
 40
0.67578125
 40
0.6796875
 40
0.681640625
 40
0.68359375
 40
0.6845703125
 40
0.685546875
 40
0.6865234375
 40
0.6870117188
 40
0.6872558594
 40
0.6875
 40
0.6877441406
 40
0.6879882812
 40
0.6884765625
 40
0.689453125
 40
0.6904296875
 40
0.69140625
 40
0.693359375
 40
0.6953125
 40
0.69921875
 40
0.703125
 40
0.70703125
 40
0.7109375
 40
0.71875
 40
0.7265625
 40
0.73046875
 40
0.734375
 40
0.73828125
 40
0.7421875
 40
0.744140625
 40
0.74609375
 40
0.7470703125
 40
0.748046875
 40
0.7490234375
 40
0.7495117188
 40
0.7497558594
 40
0.75
 40
0.7502441406
 40
0.7504882812
 40
0.7509765625
 40
0.751953125
 40
0.7529296875
 40
0.75390625
 40
0.755859375
 40
0.7578125
 40
0.76171875
 40
0.765625
 40
0.76953125
 40
0.7734375
 40
0.78125
 40
0.7890625
 40
0.79296875
 40
0.796875
 40
0.80078125
 40
0.8046875
 40
0.806640625
 40
0.80859375
 40
0.8095703125
 40
0.810546875
 40
0.8115234375
 40
0.8120117188
 40
0.8125
 40
0.8129882812
 40
0.8134765625
 40
0.814453125
 40
0.8154296875
 40
0.81640625
 40
0.818359375
 40
0.8203125
 40
0.82421875
 40
0.828125
 40
0.83203125
 40
0.8359375
 40
0.84375
 40
0.8515625
 40
0.859375
 40
0.86328125
 40
0.8671875
 40
0.869140625
 40
0.87109375
 40
0.873046875
 40
0.8740234375
 40
0.8745117188
 40
0.875
 40
0.8754882812
 40
0.8759765625
 40
0.876953125
 40
0.87890625
 40
0.880859375
 40
0.8828125
 40
0.88671875
 40
0.890625
 40
0.8984375
 40
0.90625
 40
0.9140625
 40
0.921875
 40
0.92578125
 40
0.9296875
 40
0.931640625
 40
0.93359375
 40
0.935546875
 40
0.9365234375
 40
0.9370117188
 40
0.9375
 40
0.9379882812
 40
0.9384765625
 40
0.939453125
 40
0.94140625
 40
0.943359375
 40
0.9453125
 40
0.94921875
 40
0.953125
 40
0.9609375
 40
0.96875
 40
0.9765625
 40
0.984375
 40
1.0
 40
1.0
 40
1.0
 40
1.0
 10
10.1691854317
 20
10.0264131518
 30
0.0
 10
10.1724009357
 20
10.0262753767
 30
0.0
 10
10.1788319445
 20
10.02599983
 30
0.0
 10
10.1868707011
 20
10.0256553795
 30
0.0
 10
10.1933017156
 20
10.0253798548
 30
0.0
 10
10.1973210789
 20
10.0252075711
 30
0.0
 10
10.200536617
 20
10.0250699291
 30
0.0
 10
10.2029481406
 20
10.0249661912
 30
0.0
 10
10.2049581571
 20
10.0248813539
 30
0.0
 10
10.2063643573
 20
10.0248188064
 30
0.0
 10
10.207169167
 20
10.0247880012
 30
0.0
 10
10.2077692058
 20
10.0247509917
 30
0.0
 10
10.2083828854
 20
10.0247671366
 30
0.0
 10
10.2091963667
 20
10.0247701222
 30
0.0
 10
10.210622176
 20
10.0247839856
 30
0.0
 10
10.2126578873
 20
10.0247992741
 30
0.0
 10
10.2151012371
 20
10.0248195536
 30
0.0
 10
10.2183588635
 20
10.0248459173
 30
0.0
 10
10.2224309552
 20
10.0248791053
 30
0.0
 10
10.2273174434
 20
10.0249188242
 30
0.0
 10
10.2322039251
 20
10.0249585963
 30
0.0
 10
10.2362760329
 20
10.0249916514
 30
0.0
 10
10.2395336271
 20
10.0250182809
 30
0.0
 10
10.2419770752
 20
10.0250377496
 30
0.0
 10
10.2440124786
 20
10.0250555745
 30
0.0
 10
10.2454388377
 20
10.02506491
 30
0.0
 10
10.2462514381
 20
10.0250751505
 30
0.0
 10
10.2468678236
 20
10.0250690107
 30
0.0
 10
10.2474576996
 20
10.0251156987
 30
0.0
 10
10.2482534477
 20
10.0251595224
 30
0.0
 10
10.2496416986
 20
10.0252447994
 30
0.0
 10
10.2516271667
 20
10.025362135
 30
0.0
 10
10.2540087642
 20
10.0255048591
 30
0.0
 10
10.2571845645
 20
10.0256944865
 30
0.0
 10
10.2611541979
 20
10.0259317527
 30
0.0
 10
10.2659178143
 20
10.0262163661
 30
0.0
 10
10.2706813926
 20
10.0265010325
 30
0.0
 10
10.2746511211
 20
10.026738166
 30
0.0
 10
10.2778267313
 20
10.0269280587
 30
0.0
 10
10.2802089087
 20
10.0270699738
 30
0.0
 10
10.2821925625
 20
10.0271898403
 30
0.0
 10
10.2835840522
 20
10.0272705992
 30
0.0
 10
10.284374611
 20
10.027321662
 30
0.0
 10
10.2849804269
 20
10.027346114
 30
0.0
 10
10.2855369447
 20
10.0274234887
 30
0.0
 10
10.2862961641
 20
10.0275081949
 30
0.0
 10
10.2876167863
 20
10.0276650316
 30
0.0
 10
10.2895075781
 20
10.0278845875
 30
0.0
 10
10.2917747354
 20
10.0281499792
 30
0.0
 10
10.2947982381
 20
10.0285031625
 30
0.0
 10
10.2985774012
 20
10.0289448725
 30
0.0
 10
10.3031124906
 20
10.0294748249
 30
0.0
 10
10.3076475496
 20
10.0300048061
 30
0.0
 10
10.311426789
 20
10.0304464443
 30
0.0
 10
10.314450139
 20
10.030799771
 30
0.0
 10
10.3163398247
 20
10.0310205663
 30
0.0
 10
10.3178513631
 20
10.03119728
 30
0.0
 10
10.3189855922
 20
10.031329603
 30
0.0
 10
10.3199289529
 20
10.0314405475
 30
0.0
 10
10.3205928972
 20
10.0315168833
 30
0.0
 10
10.3209666857
 20
10.0315625732
 30
0.0
 10
10.3212628255
 20
10.0315910109
 30
0.0
 10
10.3214985756
 20
10.0316417331
 30
0.0
 10
10.3218339737
 20
10.0317015896
 30
0.0
 10
10.322411106
 20
10.0318099602
 30
0.0
 10
10.3232407117
 20
10.0319628818
 30
0.0
 10
10.3242340423
 20
10.0321471982
 30
0.0
 10
10.3255592503
 20
10.0323926704
 30
0.0
 10
10.3272154976
 20
10.0326996075
 30
0.0
 10
10.3298656401
 20
10.0331906527
 30
0.0
 10
10.3331782674
 20
10.0338044779
 30
0.0
 10
10.3371534436
 20
10.0345410596
 30
0.0
 10
10.3411286075
 20
10.0352776454
 30
0.0
 10
10.3444412656
 20
10.0358914604
 30
0.0
 10
10.3470913466
 20
10.0363825259
 30
0.0
 10
10.3487477502
 20
10.0366894114
 30
0.0
 10
10.3500726373
 20
10.0369349895
 30
0.0
 10
10.3510669484
 20
10.0371189822
 30
0.0
 10
10.3518934865
 20
10.0372729168
 30
0.0
 10
10.3524760949
 20
10.037379479
 30
0.0
 10
10.3528027188
 20
10.0374422329
 30
0.0
 10
10.3530654205
 20
10.0374840554
 30
0.0
 10
10.3532603347
 20
10.037545919
 30
0.0
 10
10.3535438653
 20
10.0376214132
 30
0.0
 10
10.3540290272
 20
10.0377567852
 30
0.0
 10
10.3547278753
 20
10.0379484709
 30
0.0
 10
10.3555640278
 20
10.0381792225
 30
0.0
 10
10.3566797587
 20
10.0384866369
 30
0.0
 10
10.3580741276
 20
10.0388709919
 30
0.0
 10
10.3603052826
 20
10.0394859113
 30
0.0
 10
10.3630941697
 20
10.0402545773
 30
0.0
 10
10.3664408586
 20
10.0411769693
 30
0.0
 10
10.3692297606
 20
10.0419456309
 30
0.0
 10
10.371460883
 20
10.0425605599
 30
0.0
 10
10.3731342256
 20
10.0430217565
 30
0.0
 10
10.3748075644
 20
10.0434829538
 30
0.0
 10
10.3762020255
 20
10.0438672826
 30
0.0
 10
10.3773175672
 20
10.044174751
 30
0.0
 10
10.3780148427
 20
10.0443669064
 30
0.0
 10
10.3785725213
 20
10.044520659
 30
0.0
 10
10.3789911686
 20
10.044635896
 30
0.0
 10
10.3793388058
 20
10.0447321731
 30
0.0
 10
10.3795845766
 20
10.0447990838
 30
0.0
 10
10.379721231
 20
10.0448380731
 30
0.0
 10
10.3798343871
 20
10.0448651893
 30
0.0
 10
10.379906775
 20
10.0449004313
 30
0.0
 10
10.3800175125
 20
10.0449445863
 30
0.0
 10
10.3802046776
 20
10.0450231781
 30
0.0
 10
10.3804755203
 20
10.0451347617
 30
0.0
 10
10.3807990488
 20
10.0452689576
 30
0.0
 10
10.3812309381
 20
10.0454477821
 30
0.0
 10
10.3817706223
 20
10.0456713482
 30
0.0
 10
10.3826342162
 20
10.0460290341
 30
0.0
 10
10.3837136746
 20
10.0464761483
 30
0.0
 10
10.3850090392
 20
10.0470126825
 30
0.0
 10
10.3863043999
 20
10.0475492174
 30
0.0
 10
10.3880315489
 20
10.048264597
 30
0.0
 10
10.3901904846
 20
10.0491588216
 30
0.0
 10
10.3923494206
 20
10.0500530462
 30
0.0
 10
10.394076569
 20
10.0507684259
 30
0.0
 10
10.3953719314
 20
10.0513049605
 30
0.0
 10
10.3966672896
 20
10.0518414958
 30
0.0
 10
10.3977467681
 20
10.0522886064
 30
0.0
 10
10.3986103209
 20
10.0526462996
 30
0.0
 10
10.3991501096
 20
10.0528698471
 30
0.0
 10
10.3995817845
 20
10.0530487098
 30
0.0
 10
10.399905968
 20
10.0531827892
 30
0.0
 10
10.4001747613
 20
10.0532947372
 30
0.0
 10
10.4003655849
 20
10.0533726785
 30
0.0
 10
10.4004704607
 20
10.0534178758
 30
0.0
 10
10.4005608538
 20
10.0534499163
 30
0.0
 10
10.4006063852
 20
10.0534890568
 30
0.0
 10
10.4006827421
 20
10.0535387675
 30
0.0
 10
10.4008090757
 20
10.0536269152
 30
0.0
 10
10.4009933641
 20
10.0537522372
 30
0.0
 10
10.4012128786
 20
10.0539028819
 30
0.0
 10
10.4015061345
 20
10.0541036512
 30
0.0
 10
10.4018725092
 20
10.0543546437
 30
0.0
 10
10.4024588178
 20
10.0547562145
 30
0.0
 10
10.4031916661
 20
10.0552581839
 30
0.0
 10
10.4040711001
 20
10.0558605447
 30
0.0
 10
10.4049505299
 20
10.0564629061
 30
0.0
 10
10.4061231044
 20
10.0572660544
 30
0.0
 10
10.4075888219
 20
10.0582699899
 30
0.0
 10
10.4090545399
 20
10.0592739254
 30
0.0
 10
10.4102271137
 20
10.0600770738
 30
0.0
 10
10.4111065454
 20
10.060679435
 30
0.0
 10
10.4119859721
 20
10.0612817965
 30
0.0
 10
10.4127188432
 20
10.0617837637
 30
0.0
 10
10.4133051054
 20
10.062185339
 30
0.0
 10
10.413671598
 20
10.06243632
 30
0.0
 10
10.4139646119
 20
10.062637113
 30
0.0
 10
10.4141848657
 20
10.0627876853
 30
0.0
 10
10.4143668409
 20
10.0629132336
 30
0.0
 10
10.414497304
 20
10.0630009774
 30
0.0
 10
10.4145670445
 20
10.0630513352
 30
0.0
 10
10.4146328992
 20
10.0630884881
 30
0.0
 10
10.4146469615
 20
10.0631279937
 30
0.0
 10
10.4146837771
 20
10.0631798472
 30
0.0
 10
10.4147397871
 20
10.0632709732
 30
0.0
 10
10.414824202
 20
10.0634009533
 30
0.0
 10
10.4149236163
 20
10.063557015
 30
0.0
 10
10.4150568266
 20
10.0637650674
 30
0.0
 10
10.4152231142
 20
10.064025143
 30
0.0
 10
10.4154893003
 20
10.0644412584
 30
0.0
 10
10.4158219897
 20
10.0649614046
 30
0.0
 10
10.4162212354
 20
10.0655855791
 30
0.0
 10
10.4166204763
 20
10.0662097539
 30
0.0
 10
10.4171527991
 20
10.0670419869
 30
0.0
 10
10.417818202
 20
10.0680822781
 30
0.0
 10
10.4184836054
 20
10.0691225693
 30
0.0
 10
10.4190159275
 20
10.0699548023
 30
0.0
 10
10.4194151704
 20
10.070578977
 30
0.0
 10
10.4198144084
 20
10.0712031518
 30
0.0
 10
10.4201471221
 20
10.0717232972
 30
0.0
 10
10.4204132587
 20
10.0721394141
 30
0.0
 10
10.4205796721
 20
10.0723994859
 30
0.0
 10
10.4207126242
 20
10.0726075463
 30
0.0
 10
10.4208128274
 20
10.0727635833
 30
0.0
 10
10.420894774
 20
10.0728936408
 30
0.0
 10
10.4209551903
 20
10.0729846286
 30
0.0
 10
10.4209849459
 20
10.0730367035
 30
0.0
 10
10.4210206943
 20
10.0730755289
 30
0.0
 10
10.4210050996
 20
10.0731152368
 30
0.0
 10
10.4210022156
 20
10.0731678729
 30
0.0
 10
10.4209888246
 20
10.0732601295
 30
0.0
 10
10.420974057
 20
10.0733918496
 30
0.0
 10
10.4209544686
 20
10.0735499458
 30
0.0
 10
10.420929003
 20
10.0737607296
 30
0.0
 10
10.4208969476
 20
10.0740242131
 30
0.0
 10
10.4208457838
 20
10.0744457846
 30
0.0
 10
10.4207817862
 20
10.0749727498
 30
0.0
 10
10.4207050074
 20
10.0756051076
 30
0.0
 10
10.4206282238
 20
10.0762374655
 30
0.0
 10
10.4205258473
 20
10.0770806094
 30
0.0
 10
10.4203978761
 20
10.0781345393
 30
0.0
 10
10.4202699052
 20
10.0791884691
 30
0.0
 10
10.4201675281
 20
10.080031613
 30
0.0
 10
10.4200907465
 20
10.080663971
 30
0.0
 10
10.42001396
 20
10.0812963287
 30
0.0
 10
10.4199499865
 20
10.0818232941
 30
0.0
 10
10.4198987736
 20
10.0822448652
 30
0.0
 10
10.4198668431
 20
10.0825083498
 30
0.0
 10
10.4198411211
 20
10.0827191314
 30
0.0
 10
10.4198223158
 20
10.082877234
 30
0.0
 10
10.4198050982
 20
10.0830089342
 30
0.0
 10
10.4197960808
 20
10.0831012264
 30
0.0
 10
10.4197861892
 20
10.0831538054
 30
0.0
 10
10.4197921198
 20
10.0831936885
 30
0.0
 10
10.4197470227
 20
10.0832318562
 30
0.0
 10
10.4197046922
 20
10.0832833449
 30
0.0
 10
10.4196223209
 20
10.0833731712
 30
0.0
 10
10.4195089832
 20
10.0835016404
 30
0.0
 10
10.4193711223
 20
10.083655741
 30
0.0
 10
10.4191879559
 20
10.0838612302
 30
0.0
 10
10.418958776
 20
10.0841180842
 30
0.0
 10
10.4185922121
 20
10.0845290549
 30
0.0
 10
10.4181339647
 20
10.0850427668
 30
0.0
 10
10.4175840861
 20
10.0856592217
 30
0.0
 10
10.4170342025
 20
10.0862756765
 30
0.0
 10
10.4163010262
 20
10.0870976162
 30
0.0
 10
10.4153845552
 20
10.0881250408
 30
0.0
 10
10.4144680846
 20
10.0891524654
 30
0.0
 10
10.4137349076
 20
10.0899744051
 30
0.0
 10
10.4131850261
 20
10.09059086
 30
0.0
 10
10.4126351398
 20
10.0912073145
 30
0.0
 10
10.4121769164
 20
10.0917210276
 30
0.0
 10
10.4118103036
 20
10.0921319959
 30
0.0
 10
10.4115812482
 20
10.0923888559
 30
0.0
 10
10.4113978261
 20
10.0925943329
 30
0.0
 10
10.4112607465
 20
10.092748471
 30
0.0
 10
10.4111449642
 20
10.0928768227
 30
0.0
 10
10.411066957
 20
10.0929668587
 30
0.0
 10
10.4110176342
 20
10.0930180115
 30
0.0
 10
10.4109940153
 20
10.0930572107
 30
0.0
 10
10.410919277
 20
10.09309322
 30
0.0
 10
10.410837457
 20
10.0931423451
 30
0.0
 10
10.4106859643
 20
10.0932277955
 30
0.0
 10
10.4104738894
 20
10.0933501387
 30
0.0
 10
10.4102175405
 20
10.0934968344
 30
0.0
 10
10.4098763913
 20
10.0936924693
 30
0.0
 10
10.4094497324
 20
10.093936999
 30
0.0
 10
10.4087672025
 20
10.0943282542
 30
0.0
 10
10.4079139974
 20
10.0948173206
 30
0.0
 10
10.4068901697
 20
10.0954042015
 30
0.0
 10
10.405866337
 20
10.095991082
 30
0.0
 10
10.4045012285
 20
10.0967735895
 30
0.0
 10
10.4027948423
 20
10.0977517238
 30
0.0
 10
10.4010884564
 20
10.0987298582
 30
0.0
 10
10.3997233473
 20
10.0995123656
 30
0.0
 10
10.3986995165
 20
10.1000992463
 30
0.0
 10
10.3976756816
 20
10.1006861263
 30
0.0
 10
10.3968224987
 20
10.1011751953
 30
0.0
 10
10.3961399236
 20
10.1015664453
 30
0.0
 10
10.3957133796
 20
10.1018109884
 30
0.0
 10
10.3953719946
 20
10.1020065957
 30
0.0
 10
10.395116366
 20
10.1021533757
 30
0.0
 10
10.3949020375
 20
10.1022754554
 30
0.0
 10
10.394754568
 20
10.1023613761
 30
0.0
 10
10.3946663017
 20
10.1024097478
 30
0.0
 10
10.3946113644
 20
10.1024480711
 30
0.0
 10
10.3945133765
 20
10.1024785794
 30
0.0
 10
10.3943977425
 20
10.102521983
 30
0.0
 10
10.3941883865
 20
10.1025966694
 30
0.0
 10
10.3938929643
 20
10.1027040282
 30
0.0
 10
10.393536892
 20
10.1028325745
 30
0.0
 10
10.3930626759
 20
10.1030040689
 30
0.0
 10
10.3924697184
 20
10.1032184029
 30
0.0
 10
10.3915210911
 20
10.1035613563
 30
0.0
 10
10.3903352711
 20
10.1039900415
 30
0.0
 10
10.3889123025
 20
10.1045044666
 30
0.0
 10
10.3874893298
 20
10.1050188909
 30
0.0
 10
10.3855920343
 20
10.1057047902
 30
0.0
 10
10.3832204145
 20
10.1065621643
 30
0.0
 10
10.3808487944
 20
10.1074195383
 30
0.0
 10
10.3789514993
 20
10.1081054378
 30
0.0
 10
10.3775285253
 20
10.1086198617
 30
0.0
 10
10.3761055617
 20
10.109134288
 30
0.0
 10
10.3749197261
 20
10.1095629693
 30
0.0
 10
10.3739711306
 20
10.1099059308
 30
0.0
 10
10.3733780924
 20
10.1101202441
 30
0.0
 10
10.3729040419
 20
10.1102917809
 30
0.0
 10
10.3725474633
 20
10.1104201977
 30
0.0
 10
10.3722536254
 20
10.1105279618
 30
0.0
 10
10.3720111293
 20
10.1106124907
 30
0.0
 10
10.3718495479
 20
10.1106804847
 30
0.0
 10
10.3716105167
 20
10.1107309303
 30
0.0
 10
10.3713188627
 20
10.1108043209
 30
0.0
 10
10.370945013
 20
10.1108939561
 30
0.0
 10
10.3705003664
 20
10.1110024185
 30
0.0
 10
10.3699061166
 20
10.1111467207
 30
0.0
 10
10.3691637794
 20
10.1113272061
 30
0.0
 10
10.3679757745
 20
10.1116159224
 30
0.0
 10
10.3664908594
 20
10.1119768386
 30
0.0
 10
10.3647089223
 20
10.1124099291
 30
0.0
 10
10.3629269956
 20
10.112843022
 30
0.0
 10
10.3605510896
 20
10.1134204783
 30
0.0
 10
10.3575812096
 20
10.1141422994
 30
0.0
 10
10.3540173469
 20
10.1150084825
 30
0.0
 10
10.3510474803
 20
10.1157303082
 30
0.0
 10
10.348671545
 20
10.1163077546
 30
0.0
 10
10.3471866808
 20
10.1166686906
 30
0.0
 10
10.345998571
 20
10.116957366
 30
0.0
 10
10.3451080869
 20
10.1171740737
 30
0.0
 10
10.3443641138
 20
10.1173540238
 30
0.0
 10
10.3438470672
 20
10.117481244
 30
0.0
 10
10.3435457807
 20
10.1175519814
 30
0.0
 10
10.3433362427
 20
10.1176105553
 30
0.0
 10
10.343063913
 20
10.117648026
 30
0.0
 10
10.3427227092
 20
10.1177053479
 30
0.0
 10
10.3421153978
 20
10.1178022316
 30
0.0
 10
10.3412531452
 20
10.11794243
 30
0.0
 10
10.3402161585
 20
10.1181099006
 30
0.0
 10
10.3388343072
 20
10.1183334627
 30
0.0
 10
10.3371067199
 20
10.1186128236
 30
0.0
 10
10.334342733
 20
10.1190598523
 30
0.0
 10
10.3308876966
 20
10.1196186205
 30
0.0
 10
10.3267416769
 20
10.1202891505
 30
0.0
 10
10.3225956459
 20
10.1209596762
 30
0.0
 10
10.3191406377
 20
10.121518455
 30
0.0
 10
10.3163765943
 20
10.1219654625
 30
0.0
 10
10.3146491506
 20
10.1222448775
 30
0.0
 10
10.3132670047
 20
10.1224683286
 30
0.0
 10
10.312230918
 20
10.1226361382
 30
0.0
 10
10.3113658496
 20
10.1227752758
 30
0.0
 10
10.3107635649
 20
10.1228740532
 30
0.0
 10
10.3104143071
 20
10.1229283409
 30
0.0
 10
10.3101667167
 20
10.1229751318
 30
0.0
 10
10.3098642619
 20
10.1229987006
 30
0.0
 10
10.3094801262
 20
10.1230382258
 30
0.0
 10
10.3087989723
 20
10.1231036208
 30
0.0
 10
10.3078305569
 20
10.1231990155
 30
0.0
 10
10.3066664631
 20
10.1233126445
 30
0.0
 10
10.3051150349
 20
10.1234644448
 30
0.0
 10
10.3031755111
 20
10.1236540942
 30
0.0
 10
10.3000724064
 20
10.1239575897
 30
0.0
 10
10.2961934797
 20
10.1243369398
 30
0.0
 10
10.2915387873
 20
10.1247921681
 30
0.0
 10
10.2868840896
 20
10.1252473942
 30
0.0
 10
10.2806778279
 20
10.1258543631
 30
0.0
 10
10.2760231312
 20
10.1263095896
 30
0.0
 10
10.2729200001
 20
10.126613074
 30
0.0
  0
SPLINE
  5
41D
100
AcDbEntity
  8
0
100
AcDbSpline
 62
4
  6
CONTINUOUS
 70
0
 71
3
 72
346
 73
342
 74
0
 42
0.0000001
 43
0.0000001
 44
0.0000000001
 40
0.0
 40
0.0
 40
0.0
 40
0.0
 40
0.015625
 40
0.03125
 40
0.0390625
 40
0.046875
 40
0.05078125
 40
0.0546875
 40
0.05859375
 40
0.060546875
 40
0.0615234375
 40
0.0625
 40
0.0634765625
 40
0.064453125
 40
0.06640625
 40
0.0703125
 40
0.07421875
 40
0.078125
 40
0.0859375
 40
0.09375
 40
0.1015625
 40
0.109375
 40
0.11328125
 40
0.1171875
 40
0.12109375
 40
0.123046875
 40
0.1240234375
 40
0.125
 40
0.1259765625
 40
0.126953125
 40
0.12890625
 40
0.1328125
 40
0.13671875
 40
0.140625
 40
0.1484375
 40
0.15625
 40
0.1640625
 40
0.171875
 40
0.17578125
 40
0.1796875
 40
0.18359375
 40
0.185546875
 40
0.1865234375
 40
0.1875
 40
0.1884765625
 40
0.189453125
 40
0.19140625
 40
0.1953125
 40
0.19921875
 40
0.203125
 40
0.2109375
 40
0.21875
 40
0.2265625
 40
0.234375
 40
0.23828125
 40
0.2421875
 40
0.244140625
 40
0.24609375
 40
0.248046875
 40
0.2490234375
 40
0.2495117188
 40
0.25
 40
0.2504882812
 40
0.2509765625
 40
0.251953125
 40
0.25390625
 40
0.255859375
 40
0.2578125
 40
0.26171875
 40
0.265625
 40
0.2734375
 40
0.28125
 40
0.2890625
 40
0.296875
 40
0.30078125
 40
0.3046875
 40
0.306640625
 40
0.30859375
 40
0.310546875
 40
0.3115234375
 40
0.3120117188
 40
0.3125
 40
0.3129882812
 40
0.3134765625
 40
0.314453125
 40
0.31640625
 40
0.318359375
 40
0.3203125
 40
0.32421875
 40
0.328125
 40
0.3359375
 40
0.34375
 40
0.3515625
 40
0.35546875
 40
0.359375
 40
0.36328125
 40
0.3671875
 40
0.369140625
 40
0.37109375
 40
0.3720703125
 40
0.373046875
 40
0.3740234375
 40
0.3745117188
 40
0.3747558594
 40
0.375
 40
0.3752441406
 40
0.3754882812
 40
0.3759765625
 40
0.376953125
 40
0.3779296875
 40
0.37890625
 40
0.380859375
 40
0.3828125
 40
0.38671875
 40
0.390625
 40
0.39453125
 40
0.3984375
 40
0.40625
 40
0.4140625
 40
0.41796875
 40
0.421875
 40
0.42578125
 40
0.4296875
 40
0.431640625
 40
0.43359375
 40
0.4345703125
 40
0.435546875
 40
0.4365234375
 40
0.4370117188
 40
0.4372558594
 40
0.4375
 40
0.4377441406
 40
0.4379882812
 40
0.4384765625
 40
0.439453125
 40
0.4404296875
 40
0.44140625
 40
0.443359375
 40
0.4453125
 40
0.44921875
 40
0.453125
 40
0.45703125
 40
0.4609375
 40
0.46875
 40
0.4765625
 40
0.48046875
 40
0.484375
 40
0.48828125
 40
0.4921875
 40
0.494140625
 40
0.49609375
 40
0.4970703125
 40
0.498046875
 40
0.4990234375
 40
0.4995117188
 40
0.4997558594
 40
0.5
 40
0.5002441406
 40
0.5004882812
 40
0.5009765625
 40
0.501953125
 40
0.5029296875
 40
0.50390625
 40
0.505859375
 40
0.5078125
 40
0.51171875
 40
0.515625
 40
0.51953125
 40
0.5234375
 40
0.53125
 40
0.5390625
 40
0.54296875
 40
0.546875
 40
0.55078125
 40
0.5546875
 40
0.556640625
 40
0.55859375
 40
0.5595703125
 40
0.560546875
 40
0.5615234375
 40
0.5620117188
 40
0.5622558594
 40
0.5625
 40
0.5627441406
 40
0.5629882812
 40
0.5634765625
 40
0.564453125
 40
0.5654296875
 40
0.56640625
 40
0.568359375
 40
0.5703125
 40
0.57421875
 40
0.578125
 40
0.58203125
 40
0.5859375
 40
0.59375
 40
0.6015625
 40
0.60546875
 40
0.609375
 40
0.61328125
 40
0.6171875
 40
0.619140625
 40
0.62109375
 40
0.6220703125
 40
0.623046875
 40
0.6240234375
 40
0.6245117188
 40
0.6247558594
 40
0.625
 40
0.6252441406
 40
0.6254882812
 40
0.6259765625
 40
0.626953125
 40
0.6279296875
 40
0.62890625
 40
0.630859375
 40
0.6328125
 40
0.63671875
 40
0.640625
 40
0.64453125
 40
0.6484375
 40
0.65625
 40
0.6640625
 40
0.66796875
 40
0.671875
 40
0.67578125
 40
0.6796875
 40
0.681640625
 40
0.68359375
 40
0.6845703125
 40
0.685546875
 40
0.6865234375
 40
0.6870117188
 40
0.6872558594
 40
0.6875
 40
0.6877441406
 40
0.6879882812
 40
0.6884765625
 40
0.689453125
 40
0.6904296875
 40
0.69140625
 40
0.693359375
 40
0.6953125
 40
0.69921875
 40
0.703125
 40
0.70703125
 40
0.7109375
 40
0.71875
 40
0.7265625
 40
0.73046875
 40
0.734375
 40
0.73828125
 40
0.7421875
 40
0.744140625
 40
0.74609375
 40
0.7470703125
 40
0.748046875
 40
0.7490234375
 40
0.7495117188
 40
0.7497558594
 40
0.75
 40
0.7502441406
 40
0.7504882812
 40
0.7509765625
 40
0.751953125
 40
0.7529296875
 40
0.75390625
 40
0.755859375
 40
0.7578125
 40
0.76171875
 40
0.765625
 40
0.76953125
 40
0.7734375
 40
0.78125
 40
0.7890625
 40
0.79296875
 40
0.796875
 40
0.80078125
 40
0.8046875
 40
0.806640625
 40
0.80859375
 40
0.8095703125
 40
0.810546875
 40
0.8115234375
 40
0.8120117188
 40
0.8125
 40
0.8129882812
 40
0.8134765625
 40
0.814453125
 40
0.8154296875
 40
0.81640625
 40
0.818359375
 40
0.8203125
 40
0.82421875
 40
0.828125
 40
0.83203125
 40
0.8359375
 40
0.84375
 40
0.8515625
 40
0.859375
 40
0.86328125
 40
0.8671875
 40
0.869140625
 40
0.87109375
 40
0.873046875
 40
0.8740234375
 40
0.8745117188
 40
0.875
 40
0.8754882812
 40
0.8759765625
 40
0.876953125
 40
0.87890625
 40
0.880859375
 40
0.8828125
 40
0.88671875
 40
0.890625
 40
0.8984375
 40
0.90625
 40
0.9140625
 40
0.921875
 40
0.92578125
 40
0.9296875
 40
0.931640625
 40
0.93359375
 40
0.935546875
 40
0.9365234375
 40
0.9370117188
 40
0.9375
 40
0.9379882812
 40
0.9384765625
 40
0.939453125
 40
0.94140625
 40
0.943359375
 40
0.9453125
 40
0.94921875
 40
0.953125
 40
0.9609375
 40
0.96875
 40
0.9765625
 40
0.984375
 40
1.0
 40
1.0
 40
1.0
 40
1.0
 10
10.2729200171
 20
10.1266130728
 30
0.0
 10
10.2697045131
 20
10.1267508479
 30
0.0
 10
10.2632735043
 20
10.1270263947
 30
0.0
 10
10.2552347477
 20
10.1273708452
 30
0.0
 10
10.2488037332
 20
10.1276463698
 30
0.0
 10
10.2447843699
 20
10.1278186535
 30
0.0
 10
10.2415688318
 20
10.1279562955
 30
0.0
 10
10.2391573081
 20
10.1280600334
 30
0.0
 10
10.2371472917
 20
10.1281448707
 30
0.0
 10
10.2357410915
 20
10.1282074183
 30
0.0
 10
10.2349362818
 20
10.1282382234
 30
0.0
 10
10.234336243
 20
10.1282752329
 30
0.0
 10
10.2337225634
 20
10.1282590881
 30
0.0
 10
10.2329090821
 20
10.1282561024
 30
0.0
 10
10.2314832728
 20
10.128242239
 30
0.0
 10
10.2294475614
 20
10.1282269505
 30
0.0
 10
10.2270042117
 20
10.1282066711
 30
0.0
 10
10.2237465853
 20
10.1281803073
 30
0.0
 10
10.2196744936
 20
10.1281471194
 30
0.0
 10
10.2147880054
 20
10.1281074004
 30
0.0
 10
10.2099015237
 20
10.1280676283
 30
0.0
 10
10.2058294158
 20
10.1280345733
 30
0.0
 10
10.2025718217
 20
10.1280079437
 30
0.0
 10
10.2001283735
 20
10.127988475
 30
0.0
 10
10.1980929702
 20
10.1279706501
 30
0.0
 10
10.1966666111
 20
10.1279613146
 30
0.0
 10
10.1958540107
 20
10.1279510741
 30
0.0
 10
10.1952376252
 20
10.1279572139
 30
0.0
 10
10.1946477492
 20
10.1279105259
 30
0.0
 10
10.1938520011
 20
10.1278667022
 30
0.0
 10
10.1924637502
 20
10.1277814252
 30
0.0
 10
10.1904782821
 20
10.1276640896
 30
0.0
 10
10.1880966846
 20
10.1275213655
 30
0.0
 10
10.1849208843
 20
10.1273317381
 30
0.0
 10
10.1809512509
 20
10.1270944719
 30
0.0
 10
10.1761876345
 20
10.1268098586
 30
0.0
 10
10.1714240562
 20
10.1265251921
 30
0.0
 10
10.1674543277
 20
10.1262880586
 30
0.0
 10
10.1642787175
 20
10.1260981659
 30
0.0
 10
10.1618965401
 20
10.1259562508
 30
0.0
 10
10.1599128863
 20
10.1258363843
 30
0.0
 10
10.1585213966
 20
10.1257556254
 30
0.0
 10
10.1577308378
 20
10.1257045627
 30
0.0
 10
10.1571250219
 20
10.1256801106
 30
0.0
 10
10.1565685041
 20
10.1256027359
 30
0.0
 10
10.1558092847
 20
10.1255180297
 30
0.0
 10
10.1544886625
 20
10.125361193
 30
0.0
 10
10.1525978707
 20
10.1251416371
 30
0.0
 10
10.1503307134
 20
10.1248762454
 30
0.0
 10
10.1473072107
 20
10.1245230621
 30
0.0
 10
10.1435280476
 20
10.1240813521
 30
0.0
 10
10.1389929582
 20
10.1235513997
 30
0.0
 10
10.1344578992
 20
10.1230214186
 30
0.0
 10
10.1306786598
 20
10.1225797803
 30
0.0
 10
10.1276553098
 20
10.1222264536
 30
0.0
 10
10.1257656241
 20
10.1220056584
 30
0.0
 10
10.1242540857
 20
10.1218289446
 30
0.0
 10
10.1231198566
 20
10.1216966216
 30
0.0
 10
10.1221764959
 20
10.1215856771
 30
0.0
 10
10.1215125516
 20
10.1215093413
 30
0.0
 10
10.1211387631
 20
10.1214636514
 30
0.0
 10
10.1208426233
 20
10.1214352138
 30
0.0
 10
10.1206068732
 20
10.1213844915
 30
0.0
 10
10.1202714751
 20
10.121324635
 30
0.0
 10
10.1196943428
 20
10.1212162645
 30
0.0
 10
10.1188647371
 20
10.1210633428
 30
0.0
 10
10.1178714065
 20
10.1208790264
 30
0.0
 10
10.1165461985
 20
10.1206335543
 30
0.0
 10
10.1148899512
 20
10.1203266171
 30
0.0
 10
10.1122398087
 20
10.119835572
 30
0.0
 10
10.1089271814
 20
10.1192217468
 30
0.0
 10
10.1049520052
 20
10.118485165
 30
0.0
 10
10.1009768413
 20
10.1177485792
 30
0.0
 10
10.0976641832
 20
10.1171347642
 30
0.0
 10
10.0950141022
 20
10.1166436987
 30
0.0
 10
10.0933576986
 20
10.1163368132
 30
0.0
 10
10.0920328115
 20
10.1160912351
 30
0.0
 10
10.0910385004
 20
10.1159072424
 30
0.0
 10
10.0902119623
 20
10.1157533078
 30
0.0
 10
10.0896293538
 20
10.1156467456
 30
0.0
 10
10.08930273
 20
10.1155839917
 30
0.0
 10
10.0890400283
 20
10.1155421692
 30
0.0
 10
10.0888451141
 20
10.1154803056
 30
0.0
 10
10.0885615835
 20
10.1154048114
 30
0.0
 10
10.0880764215
 20
10.1152694395
 30
0.0
 10
10.0873775734
 20
10.1150777538
 30
0.0
 10
10.086541421
 20
10.1148470021
 30
0.0
 10
10.0854256901
 20
10.1145395878
 30
0.0
 10
10.0840313212
 20
10.1141552327
 30
0.0
 10
10.0818001662
 20
10.1135403133
 30
0.0
 10
10.0790112791
 20
10.1127716473
 30
0.0
 10
10.0756645902
 20
10.1118492554
 30
0.0
 10
10.0728756882
 20
10.1110805938
 30
0.0
 10
10.0706445658
 20
10.1104656648
 30
0.0
 10
10.0689712232
 20
10.1100044682
 30
0.0
 10
10.0672978844
 20
10.1095432708
 30
0.0
 10
10.0659034233
 20
10.1091589421
 30
0.0
 10
10.0647878816
 20
10.1088514737
 30
0.0
 10
10.0640906061
 20
10.1086593183
 30
0.0
 10
10.0635329275
 20
10.1085055657
 30
0.0
 10
10.0631142802
 20
10.1083903286
 30
0.0
 10
10.062766643
 20
10.1082940515
 30
0.0
 10
10.0625208722
 20
10.1082271408
 30
0.0
 10
10.0623842178
 20
10.1081881515
 30
0.0
 10
10.0622710617
 20
10.1081610353
 30
0.0
 10
10.0621986738
 20
10.1081257933
 30
0.0
 10
10.0620879363
 20
10.1080816383
 30
0.0
 10
10.0619007712
 20
10.1080030465
 30
0.0
 10
10.0616299285
 20
10.1078914629
 30
0.0
 10
10.0613064
 20
10.1077572671
 30
0.0
 10
10.0608745107
 20
10.1075784425
 30
0.0
 10
10.0603348265
 20
10.1073548764
 30
0.0
 10
10.0594712326
 20
10.1069971905
 30
0.0
 10
10.0583917742
 20
10.1065500763
 30
0.0
 10
10.0570964096
 20
10.1060135421
 30
0.0
 10
10.0558010489
 20
10.1054770072
 30
0.0
 10
10.0540738999
 20
10.1047616276
 30
0.0
 10
10.0519149642
 20
10.103867403
 30
0.0
 10
10.0497560282
 20
10.1029731784
 30
0.0
 10
10.0480288798
 20
10.1022577987
 30
0.0
 10
10.0467335173
 20
10.1017212641
 30
0.0
 10
10.0454381592
 20
10.1011847288
 30
0.0
 10
10.0443586807
 20
10.1007376182
 30
0.0
 10
10.0434951279
 20
10.100379925
 30
0.0
 10
10.0429553392
 20
10.1001563775
 30
0.0
 10
10.0425236643
 20
10.0999775148
 30
0.0
 10
10.0421994808
 20
10.0998434354
 30
0.0
 10
10.0419306875
 20
10.0997314874
 30
0.0
 10
10.0417398639
 20
10.0996535461
 30
0.0
 10
10.0416349881
 20
10.0996083489
 30
0.0
 10
10.041544595
 20
10.0995763083
 30
0.0
 10
10.0414990636
 20
10.0995371679
 30
0.0
 10
10.0414227067
 20
10.0994874571
 30
0.0
 10
10.0412963731
 20
10.0993993094
 30
0.0
 10
10.0411120847
 20
10.0992739874
 30
0.0
 10
10.0408925702
 20
10.0991233428
 30
0.0
 10
10.0405993143
 20
10.0989225735
 30
0.0
 10
10.0402329396
 20
10.0986715809
 30
0.0
 10
10.039646631
 20
10.0982700101
 30
0.0
 10
10.0389137827
 20
10.0977680407
 30
0.0
 10
10.0380343487
 20
10.09716568
 30
0.0
 10
10.0371549189
 20
10.0965633185
 30
0.0
 10
10.0359823444
 20
10.0957601702
 30
0.0
 10
10.0345166269
 20
10.0947562347
 30
0.0
 10
10.0330509089
 20
10.0937522992
 30
0.0
 10
10.0318783351
 20
10.0929491508
 30
0.0
 10
10.0309989034
 20
10.0923467896
 30
0.0
 10
10.0301194767
 20
10.0917444281
 30
0.0
 10
10.0293866056
 20
10.0912424609
 30
0.0
 10
10.0288003434
 20
10.0908408856
 30
0.0
 10
10.0284338508
 20
10.0905899046
 30
0.0
 10
10.0281408369
 20
10.0903891116
 30
0.0
 10
10.0279205831
 20
10.0902385393
 30
0.0
 10
10.0277386079
 20
10.0901129911
 30
0.0
 10
10.0276081448
 20
10.0900252472
 30
0.0
 10
10.0275384043
 20
10.0899748894
 30
0.0
 10
10.0274725496
 20
10.0899377365
 30
0.0
 10
10.0274584873
 20
10.0898982309
 30
0.0
 10
10.0274216717
 20
10.0898463774
 30
0.0
 10
10.0273656617
 20
10.0897552514
 30
0.0
 10
10.0272812468
 20
10.0896252713
 30
0.0
 10
10.0271818325
 20
10.0894692096
 30
0.0
 10
10.0270486222
 20
10.0892611573
 30
0.0
 10
10.0268823346
 20
10.0890010816
 30
0.0
 10
10.0266161485
 20
10.0885849662
 30
0.0
 10
10.0262834591
 20
10.0880648201
 30
0.0
 10
10.0258842133
 20
10.0874406455
 30
0.0
 10
10.0254849725
 20
10.0868164707
 30
0.0
 10
10.0249526497
 20
10.0859842378
 30
0.0
 10
10.0242872468
 20
10.0849439465
 30
0.0
 10
10.0236218434
 20
10.0839036553
 30
0.0
 10
10.0230895213
 20
10.0830714223
 30
0.0
 10
10.0226902784
 20
10.0824472476
 30
0.0
 10
10.0222910404
 20
10.0818230728
 30
0.0
 10
10.0219583267
 20
10.0813029274
 30
0.0
 10
10.0216921901
 20
10.0808868105
 30
0.0
 10
10.0215257767
 20
10.0806267388
 30
0.0
 10
10.0213928246
 20
10.0804186783
 30
0.0
 10
10.0212926214
 20
10.0802626414
 30
0.0
 10
10.0212106748
 20
10.0801325838
 30
0.0
 10
10.0211502585
 20
10.0800415961
 30
0.0
 10
10.0211205029
 20
10.0799895211
 30
0.0
 10
10.0210847545
 20
10.0799506958
 30
0.0
 10
10.0211003492
 20
10.0799109878
 30
0.0
 10
10.0211032331
 20
10.0798583517
 30
0.0
 10
10.0211166242
 20
10.0797660952
 30
0.0
 10
10.0211313918
 20
10.0796343751
 30
0.0
 10
10.0211509802
 20
10.0794762788
 30
0.0
 10
10.0211764458
 20
10.0792654951
 30
0.0
 10
10.0212085012
 20
10.0790020115
 30
0.0
 10
10.021259665
 20
10.07858044
 30
0.0
 10
10.0213236626
 20
10.0780534749
 30
0.0
 10
10.0214004413
 20
10.077421117
 30
0.0
 10
10.021477225
 20
10.0767887591
 30
0.0
 10
10.0215796015
 20
10.0759456152
 30
0.0
 10
10.0217075727
 20
10.0748916853
 30
0.0
 10
10.0218355435
 20
10.0738377555
 30
0.0
 10
10.0219379207
 20
10.0729946116
 30
0.0
 10
10.0220147023
 20
10.0723622537
 30
0.0
 10
10.0220914888
 20
10.0717298959
 30
0.0
 10
10.0221554623
 20
10.0712029306
 30
0.0
 10
10.0222066752
 20
10.0707813594
 30
0.0
 10
10.0222386057
 20
10.0705178749
 30
0.0
 10
10.0222643277
 20
10.0703070932
 30
0.0
 10
10.022283133
 20
10.0701489906
 30
0.0
 10
10.0223003506
 20
10.0700172904
 30
0.0
 10
10.022309368
 20
10.0699249983
 30
0.0
 10
10.0223192596
 20
10.0698724192
 30
0.0
 10
10.022313329
 20
10.0698325362
 30
0.0
 10
10.0223584261
 20
10.0697943684
 30
0.0
 10
10.0224007566
 20
10.0697428798
 30
0.0
 10
10.0224831279
 20
10.0696530534
 30
0.0
 10
10.0225964656
 20
10.0695245843
 30
0.0
 10
10.0227343265
 20
10.0693704837
 30
0.0
 10
10.0229174929
 20
10.0691649945
 30
0.0
 10
10.0231466728
 20
10.0689081404
 30
0.0
 10
10.0235132367
 20
10.0684971697
 30
0.0
 10
10.0239714841
 20
10.0679834578
 30
0.0
 10
10.0245213627
 20
10.0673670029
 30
0.0
 10
10.0250712463
 20
10.0667505482
 30
0.0
 10
10.0258044226
 20
10.0659286084
 30
0.0
 10
10.0267208936
 20
10.0649011838
 30
0.0
 10
10.0276373642
 20
10.0638737592
 30
0.0
 10
10.0283705412
 20
10.0630518195
 30
0.0
 10
10.0289204226
 20
10.0624353647
 30
0.0
 10
10.029470309
 20
10.0618189101
 30
0.0
 10
10.0299285324
 20
10.0613051971
 30
0.0
 10
10.0302951452
 20
10.0608942287
 30
0.0
 10
10.0305242006
 20
10.0606373687
 30
0.0
 10
10.0307076227
 20
10.0604318917
 30
0.0
 10
10.0308447023
 20
10.0602777537
 30
0.0
 10
10.0309604846
 20
10.0601494019
 30
0.0
 10
10.0310384918
 20
10.060059366
 30
0.0
 10
10.0310878146
 20
10.0600082131
 30
0.0
 10
10.0311114335
 20
10.059969014
 30
0.0
 10
10.0311861718
 20
10.0599330046
 30
0.0
 10
10.0312679918
 20
10.0598838796
 30
0.0
 10
10.0314194845
 20
10.0597984291
 30
0.0
 10
10.0316315594
 20
10.059676086
 30
0.0
 10
10.0318879083
 20
10.0595293902
 30
0.0
 10
10.0322290575
 20
10.0593337554
 30
0.0
 10
10.0326557164
 20
10.0590892257
 30
0.0
 10
10.0333382463
 20
10.0586979704
 30
0.0
 10
10.0341914514
 20
10.058208904
 30
0.0
 10
10.0352152791
 20
10.0576220232
 30
0.0
 10
10.0362391118
 20
10.0570351426
 30
0.0
 10
10.0376042203
 20
10.0562526351
 30
0.0
 10
10.0393106065
 20
10.0552745008
 30
0.0
 10
10.0410169924
 20
10.0542963665
 30
0.0
 10
10.0423821015
 20
10.0535138591
 30
0.0
 10
10.0434059323
 20
10.0529269783
 30
0.0
 10
10.0444297672
 20
10.0523400983
 30
0.0
 10
10.0452829501
 20
10.0518510293
 30
0.0
 10
10.0459655251
 20
10.0514597793
 30
0.0
 10
10.0463920692
 20
10.0512152362
 30
0.0
 10
10.0467334541
 20
10.0510196289
 30
0.0
 10
10.0469890828
 20
10.050872849
 30
0.0
 10
10.0472034113
 20
10.0507507692
 30
0.0
 10
10.0473508808
 20
10.0506648486
 30
0.0
 10
10.0474391471
 20
10.0506164768
 30
0.0
 10
10.0474940844
 20
10.0505781535
 30
0.0
 10
10.0475920723
 20
10.0505476453
 30
0.0
 10
10.0477077063
 20
10.0505042416
 30
0.0
 10
10.0479170623
 20
10.0504295552
 30
0.0
 10
10.0482124845
 20
10.0503221964
 30
0.0
 10
10.0485685568
 20
10.0501936501
 30
0.0
 10
10.0490427729
 20
10.0500221557
 30
0.0
 10
10.0496357304
 20
10.0498078217
 30
0.0
 10
10.0505843577
 20
10.0494648683
 30
0.0
 10
10.0517701776
 20
10.0490361831
 30
0.0
 10
10.0531931463
 20
10.0485217581
 30
0.0
 10
10.054616119
 20
10.0480073338
 30
0.0
 10
10.0565134145
 20
10.0473214344
 30
0.0
 10
10.0588850343
 20
10.0464640603
 30
0.0
 10
10.0612566544
 20
10.0456066863
 30
0.0
 10
10.0631539495
 20
10.0449207869
 30
0.0
 10
10.0645769235
 20
10.0444063629
 30
0.0
 10
10.0659998871
 20
10.0438919366
 30
0.0
 10
10.0671857227
 20
10.0434632553
 30
0.0
 10
10.0681343182
 20
10.0431202938
 30
0.0
 10
10.0687273564
 20
10.0429059805
 30
0.0
 10
10.0692014069
 20
10.0427344437
 30
0.0
 10
10.0695579855
 20
10.0426060269
 30
0.0
 10
10.0698518234
 20
10.0424982628
 30
0.0
 10
10.0700943195
 20
10.042413734
 30
0.0
 10
10.0702559009
 20
10.0423457399
 30
0.0
 10
10.0704949321
 20
10.0422952944
 30
0.0
 10
10.0707865861
 20
10.0422219037
 30
0.0
 10
10.0711604358
 20
10.0421322685
 30
0.0
 10
10.0716050824
 20
10.0420238061
 30
0.0
 10
10.0721993322
 20
10.0418795039
 30
0.0
 10
10.0729416693
 20
10.0416990186
 30
0.0
 10
10.0741296743
 20
10.0414103022
 30
0.0
 10
10.0756145894
 20
10.041049386
 30
0.0
 10
10.0773965265
 20
10.0406162955
 30
0.0
 10
10.0791784532
 20
10.0401832026
 30
0.0
 10
10.0815543592
 20
10.0396057463
 30
0.0
 10
10.0845242392
 20
10.0388839252
 30
0.0
 10
10.0880881019
 20
10.0380177421
 30
0.0
 10
10.0910579685
 20
10.0372959165
 30
0.0
 10
10.0934339038
 20
10.0367184701
 30
0.0
 10
10.094918768
 20
10.036357534
 30
0.0
 10
10.0961068778
 20
10.0360688586
 30
0.0
 10
10.0969973619
 20
10.035852151
 30
0.0
 10
10.097741335
 20
10.0356722009
 30
0.0
 10
10.0982583816
 20
10.0355449806
 30
0.0
 10
10.0985596681
 20
10.0354742432
 30
0.0
 10
10.0987692061
 20
10.0354156693
 30
0.0
 10
10.0990415358
 20
10.0353781986
 30
0.0
 10
10.0993827396
 20
10.0353208767
 30
0.0
 10
10.099990051
 20
10.035223993
 30
0.0
 10
10.1008523036
 20
10.0350837946
 30
0.0
 10
10.1018892903
 20
10.0349163241
 30
0.0
 10
10.1032711416
 20
10.0346927619
 30
0.0
 10
10.1049987289
 20
10.034413401
 30
0.0
 10
10.1077627158
 20
10.0339663723
 30
0.0
 10
10.1112177522
 20
10.0334076041
 30
0.0
 10
10.1153637719
 20
10.0327370741
 30
0.0
 10
10.1195098029
 20
10.0320665484
 30
0.0
 10
10.1229648111
 20
10.0315077696
 30
0.0
 10
10.1257288545
 20
10.0310607621
 30
0.0
 10
10.1274562982
 20
10.0307813472
 30
0.0
 10
10.1288384441
 20
10.030557896
 30
0.0
 10
10.1298745308
 20
10.0303900864
 30
0.0
 10
10.1307395992
 20
10.0302509488
 30
0.0
 10
10.1313418839
 20
10.0301521714
 30
0.0
 10
10.1316911417
 20
10.0300978837
 30
0.0
 10
10.1319387321
 20
10.0300510929
 30
0.0
 10
10.1322411869
 20
10.030027524
 30
0.0
 10
10.1326253226
 20
10.0299879989
 30
0.0
 10
10.1333064765
 20
10.0299226038
 30
0.0
 10
10.1342748919
 20
10.0298272092
 30
0.0
 10
10.1354389857
 20
10.0297135801
 30
0.0
 10
10.1369904139
 20
10.0295617798
 30
0.0
 10
10.1389299377
 20
10.0293721304
 30
0.0
 10
10.1420330424
 20
10.0290686349
 30
0.0
 10
10.1459119691
 20
10.0286892849
 30
0.0
 10
10.1505666615
 20
10.0282340565
 30
0.0
 10
10.1552213592
 20
10.0277788304
 30
0.0
 10
10.1614276209
 20
10.0271718615
 30
0.0
 10
10.1660823176
 20
10.026716635
 30
0.0
 10
10.1691854486
 20
10.0264131506
 30
0.0
  0
ENDSEC
  0
SECTION
  2
OBJECTS
  0
DICTIONARY
  5
C
100
AcDbDictionary
280
0
281
1
  3
ACAD_GROUP
350
D
  3
ACAD_MLINESTYLE
350
17
  3
ACAD_LAYOUT
350
1A
  3
ACAD_PLOTSETTINGS
350
19
  3
ACAD_PLOTSTYLENAME
350
E
  3
ACAD_IMAGE_DICT
350
       41F
  3
ACAD_IMAGE_VARS
350
       420
  3
ACAD_TABLESTYLE
350
       421
  0
IMAGEDEF_REACTOR
  5
41E
100
AcDbRasterImageDefReactor
 90
2
330
28F
  0
DICTIONARY
  5
D
102
{ACAD_REACTORS
330
C
102
}
100
AcDbDictionary
280
0
281
1
  0
ACDBDICTIONARYWDFLT
  5
E
102
{ACAD_REACTORS
330
C
102
}
100
AcDbDictionary
281
1
  3
Normal
350
F
100
AcDbDictionaryWithDefault
340
F
  0
DICTIONARY
  5
41F
330
C
100
AcDbDictionary
281
1
  3
XBM_assy_2_img_1
350
       424
  0
RASTERVARIABLES
  5
420
330
C
100
AcDbRasterVariables
 90
0
 70
0
 71
1
 72
5
  0
DICTIONARY
  5
17
102
{ACAD_REACTORS
330
C
102
}
100
AcDbDictionary
280
0
281
1
  3
Standard
350
18
  0
DICTIONARY
  5
421
330
C
100
AcDbDictionary
281
1
  3
Standard
350
       425
  3
Standard1
350
       426
  0
DICTIONARY
  5
19
102
{ACAD_REACTORS
330
C
102
}
100
AcDbDictionary
281
1
  0
DICTIONARY
  5
1A
102
{ACAD_REACTORS
330
C
102
}
100
AcDbDictionary
281
1
  3
Model
350
422
  3
Layout1
350
423
  0
ACDBPLACEHOLDER
  5
F
102
{ACAD_REACTORS
330
E
102
}
  0
MLINESTYLE
  5
18
102
{ACAD_REACTORS
330
17
102
}
100
AcDbMlineStyle
  2
STANDARD
 70
0
  3

 62
256
 51
90.0
 52
90.0
 71
2
 49
0.5
 62
256
  6
BYLAYER
 49
-0.5
 62
256
  6
BYLAYER
  0
LAYOUT
  5
422
102
{ACAD_REACTORS
330
1A
102
}
100
AcDbPlotSettings
  1

  2
none_device
  4
ANSI_C_(22.00_x_17.00_Inches)
  6

 40
0.0
 41
0.0
 42
0.0
 43
0.0
 44
558.8
 45
431.8
 46
0.0
 47
0.0
 48
0.0
 49
0.0
140
0.0
141
0.0
142
1.0
143
1.0
 70
1024
 72
0
 73
0
 74
0
  7

 75
0
147
1.0
148
0.0
149
0.0
100
AcDbLayout
  1
Model
 70
0
 71
0
 10
0.0
 20
0.0
 11
22.0
 21
17.0
 12
0.0
 22
0.0
 32
0.0
 14
0.0
 24
0.0
 34
0.0
 15
0.0
 25
0.0
 35
0.0
146
0.0
 13
0.0
 23
0.0
 33
0.0
 16
1.0
 26
0.0
 36
0.0
 17
0.0
 27
1.0
 37
0.0
 76
0
330
20C
345
0
346
0
  0
LAYOUT
  5
423
102
{ACAD_REACTORS
330
1A
102
}
100
AcDbPlotSettings
  1

  2
none_device
  4
ANSI_C_(22.00_x_17.00_Inches)
  6

 40
0.0
 41
0.0
 42
0.0
 43
0.0
 44
558.8
 45
431.8
 46
0.0
 47
0.0
 48
0.0
 49
0.0
140
0.0
141
0.0
142
1.0
143
1.0
 70
0
 72
0
 73
0
 74
0
  7

 75
0
147
1.0
148
0.0
149
0.0
100
AcDbLayout
  1
Layout1
 70
0
 71
1
 10
0.0
 20
0.0
 11
22.0
 21
17.0
 12
0.0
 22
0.0
 32
0.0
 14
0.0
 24
0.0
 34
0.0
 15
0.0
 25
0.0
 35
0.0
146
0.0
 13
0.0
 23
0.0
 33
0.0
 16
1.0
 26
0.0
 36
0.0
 17
0.0
 27
1.0
 37
0.0
 76
0
330
20D
345
0
346
0
  0
IMAGEDEF
  5
424
102
{ACAD_REACTORS
330
41F
330
41E
102
}
100
AcDbRasterImageDef
 90
0
  1
XBM_assy_2_img_1.png
 10
369.0
 20
92.0
 11
0.0066666667
 21
0.0066666667
280
1
281
0
  0
TABLESTYLE
  5
425
102
{ACAD_REACTORS
330
421
330
292
330
293
102
}
330
421
100
AcDbTableStyle
  3
Standard
 70
0
 71
0
 40
0.06
 41
0.06
280
1
281
1
  7
Standard
140
0.18
170
1
 62
0
 63
7
283
0
  7
Standard
140
0.18
170
1
 62
0
 63
7
283
0
  7
Standard
140
0.18
170
1
 62
0
 63
7
283
0
  0
TABLESTYLE
  5
426
102
{ACAD_REACTORS
330
421
330
291
102
}
330
421
100
AcDbTableStyle
  3
Standard1
 70
1
 71
0
 40
0.06
 41
0.06
280
1
281
1
  7
Standard
140
0.18
170
1
 62
0
 63
7
283
0
  7
Standard
140
0.18
170
1
 62
0
 63
7
283
0
  7
Standard
140
0.18
170
1
 62
0
 63
7
283
0
  0
ENDSEC
  0
EOF
