999
DXF file: XBL_assy_2.dxf
999
Pro/ENGINEER 2014200 by Parametric Technology Corporation
  0
SECTION
  2
HEADER
  9
$ACADVER
  1
AC1021
  9
$DWGCODEPAGE
  3
ANSI_1252
  9
$EXTMAX
 10
22.0
 20
17.0
 30
0.0
  9
$EXTMIN
 10
0.0
 20
0.0
 30
0.0
  9
$LIMMIN
 10
0.0
 20
0.0
  9
$LIMMAX
 10
22.0
 20
17.0
  9
$VIEWCTR
 10
11.0
 20
8.5
  9
$VIEWSIZE
 40
17.0
  9
$CLAYER
  8
0
  9
$LTSCALE
 40
1.21
  9
$CELTYPE
  6
BYLAYER
  9
$DIMSCALE
 40
1.0
  9
$DIMASZ
 40
0.1875
  9
$DIMEXO
 40
0.0625
  9
$DIMDLI
 40
0.836
  9
$DIMEXE
 40
0.125
  9
$DIMCEN
 40
0.198
  9
$DIMLFAC
 40
1.0
  9
$DIMBLK
  1
_FILLED
  9
$DIMTXT
 40
0.1
  9
$DIMTOL
 70
0
  9
$DIMLIM
 70
0
  9
$DIMTFAC
 40
1.0
  9
$DIMGAP
 40
0.09
  9
$DIMDSEP
 70
46
  9
$AUNITS
 70
0
  9
$PDMODE
 70
3
  9
$PDSIZE
 40
0.3125
  9
$HANDSEED
  5
417
  9
$TILEMODE
 70
1
  9
$MEASUREMENT
 70
0
  9
$INSUNITS
 70
1
  0
ENDSEC
  0
SECTION
  2
CLASSES
  0
CLASS
  1
ACDBDICTIONARYWDFLT
  2
AcDbDictionaryWithDefault
  3
AutoCAD 2000
 90
0
 91
1
280
0
281
0
  0
CLASS
  1
ACDBPLACEHOLDER
  2
AcDbPlaceHolder
  3
AutoCAD 2000
 90
0
 91
1
280
0
281
0
  0
CLASS
  1
LAYOUT
  2
AcDbLayout
  3
AutoCAD 2000
 90
0
 91
0
280
0
281
0
  0
CLASS
  1
RASTERVARIABLES
  2
AcDbRasterVariables
  3
ISM
 90
0
 91
1
280
0
281
0
  0
CLASS
  1
IMAGEDEF
  2
AcDbRasterImageDef
  3
ISM
 90
0
 91
1
280
0
281
0
  0
CLASS
  1
IMAGEDEF_REACTOR
  2
AcDbRasterImageDefReactor
  3
ISM
 90
0
 91
1
280
0
281
0
  0
CLASS
  1
IMAGE
  2
AcDbRasterImage
  3
ISM
 90
127
 91
1
280
0
281
1
  0
CLASS
  1
TABLESTYLE
  2
AcDbTableStyle
  3
ObjectDBX Classes
 90
2047
 91
1
280
0
281
0
  0
CLASS
  1
ACAD_TABLE
  2
AcDbTable
  3
ObjectDBX Classes
 90
1025
 91
3
280
0
281
1
  0
ENDSEC
  0
SECTION
  2
TABLES
  0
TABLE
  2
VPORT
  5
8
100
AcDbSymbolTable
 70
2
  0
VPORT
  5
1F4
100
AcDbSymbolTableRecord
100
AcDbViewportTableRecord
  2
*ACTIVE
 70
0
 10
0.0
 20
0.0
 11
1.0
 21
1.0
 12
11.0
 22
8.5
 13
0.0
 23
0.0
 14
1.0
 24
1.0
 15
0.0
 25
0.0
 16
0.0
 26
0.0
 36
1.0
 17
0.0
 27
0.0
 37
0.0
 40
17.0
 41
1.2941176471
 42
50.0
 43
0.0
 44
0.0
 50
0.0
 51
0.0
 71
0
 72
100
 73
1
 74
1
 75
0
 76
0
 77
0
 78
0
  0
ENDTAB
  0
TABLE
  2
LTYPE
  5
5
100
AcDbSymbolTable
 70
6
  0
LTYPE
  5
14
100
AcDbSymbolTableRecord
100
AcDbLinetypeTableRecord
  2
BYBLOCK
 70
0
  3

 72
65
 73
0
 40
0.0
  0
LTYPE
  5
15
100
AcDbSymbolTableRecord
100
AcDbLinetypeTableRecord
  2
BYLAYER
 70
0
  3

 72
65
 73
0
 40
0.0
  0
LTYPE
  5
16
100
AcDbSymbolTableRecord
100
AcDbLinetypeTableRecord
  2
CONTINUOUS
 70
64
  3
Solid line
 72
65
 73
0
 40
0.0
  0
LTYPE
  5
1F5
100
AcDbSymbolTableRecord
100
AcDbLinetypeTableRecord
  2
CENTER
 70
64
  3
____ _ ____ _ ____ _ ____ _ ____ _ ____ _ ____
 72
65
 73
4
 40
0.6
 49
0.375
 74
0
 49
-0.075
 74
0
 49
0.075
 74
0
 49
-0.075
 74
0
  0
LTYPE
  5
1F6
100
AcDbSymbolTableRecord
100
AcDbLinetypeTableRecord
  2
HIDDEN
 70
64
  3
- - - - - - - - - - - - - - - - - - - -
 72
65
 73
2
 40
0.2
 49
0.1
 74
0
 49
-0.1
 74
0
  0
LTYPE
  5
1F7
100
AcDbSymbolTableRecord
100
AcDbLinetypeTableRecord
  2
PHANTOM
 70
64
  3
_____ _ _ _____ _ _ _____ _ _ _____
 72
65
 73
6
 40
0.8
 49
0.45
 74
0
 49
-0.05
 74
0
 49
0.1
 74
0
 49
-0.05
 74
0
 49
0.1
 74
0
 49
-0.05
 74
0
  0
LTYPE
  5
1F8
100
AcDbSymbolTableRecord
100
AcDbLinetypeTableRecord
  2
DOT
 70
64
  3
. . . . . . . . . . . . . . . . . . . .
 72
65
 73
2
 40
0.2
 49
0.1
 74
0
 49
-0.1
 74
0
  0
LTYPE
  5
1F9
100
AcDbSymbolTableRecord
100
AcDbLinetypeTableRecord
  2
DASHED
 70
64
  3
- - - - - - - - - - - - - - - - - - - -
 72
65
 73
2
 40
0.2
 49
0.1
 74
0
 49
-0.1
 74
0
  0
ENDTAB
  0
TABLE
  2
LAYER
  5
2
100
AcDbSymbolTable
 70
36
  0
LAYER
  5
10
100
AcDbSymbolTableRecord
100
AcDbLayerTableRecord
  2
0
 70
0
 62
7
  6
CONTINUOUS
370
-3
390
F
  0
LAYER
  5
1FA
100
AcDbSymbolTableRecord
100
AcDbLayerTableRecord
  2
DEFAULT_1
 70
0
 62
7
  6
CENTER
370
-3
390
F
  0
LAYER
  5
1FB
100
AcDbSymbolTableRecord
100
AcDbLayerTableRecord
  2
DEFAULT_2
 70
0
 62
8
  6
HIDDEN
370
-3
390
F
  0
LAYER
  5
1FC
100
AcDbSymbolTableRecord
100
AcDbLayerTableRecord
  2
DEFAULT_3
 70
0
 62
7
  6
PHANTOM
370
-3
390
F
  0
LAYER
  5
1FD
100
AcDbSymbolTableRecord
100
AcDbLayerTableRecord
  2
01___PRT_ALL_DTM_PLN
 70
0
 62
7
  6
CONTINUOUS
370
-3
390
F
  0
LAYER
  5
1FE
100
AcDbSymbolTableRecord
100
AcDbLayerTableRecord
  2
01___PRT_DEF_DTM_PLN
 70
0
 62
7
  6
CONTINUOUS
370
-3
390
F
  0
LAYER
  5
1FF
100
AcDbSymbolTableRecord
100
AcDbLayerTableRecord
  2
02___PRT_ALL_AXES
 70
0
 62
7
  6
CONTINUOUS
370
-3
390
F
  0
LAYER
  5
200
100
AcDbSymbolTableRecord
100
AcDbLayerTableRecord
  2
03___PRT_ALL_CURVES
 70
0
 62
7
  6
CONTINUOUS
370
-3
390
F
  0
LAYER
  5
201
100
AcDbSymbolTableRecord
100
AcDbLayerTableRecord
  2
04___PRT_ALL_DTM_PNT
 70
0
 62
7
  6
CONTINUOUS
370
-3
390
F
  0
LAYER
  5
202
100
AcDbSymbolTableRecord
100
AcDbLayerTableRecord
  2
05___PRT_ALL_DTM_CSYS
 70
0
 62
7
  6
CONTINUOUS
370
-3
390
F
  0
LAYER
  5
203
100
AcDbSymbolTableRecord
100
AcDbLayerTableRecord
  2
05___PRT_DEF_DTM_CSYS
 70
0
 62
7
  6
CONTINUOUS
370
-3
390
F
  0
LAYER
  5
204
100
AcDbSymbolTableRecord
100
AcDbLayerTableRecord
  2
06___PRT_ALL_SURFS
 70
0
 62
7
  6
CONTINUOUS
370
-3
390
F
  0
LAYER
  5
205
100
AcDbSymbolTableRecord
100
AcDbLayerTableRecord
  2
DATUM_PLANES
 70
0
 62
7
  6
CONTINUOUS
370
-3
390
F
  0
LAYER
  5
206
100
AcDbSymbolTableRecord
100
AcDbLayerTableRecord
  2
PORT_AREAS
 70
0
 62
7
  6
CONTINUOUS
370
-3
390
F
  0
LAYER
  5
207
100
AcDbSymbolTableRecord
100
AcDbLayerTableRecord
  2
SUNNBOMCOSMETIC
 70
0
 62
7
  6
CONTINUOUS
370
-3
390
F
  0
LAYER
  5
208
100
AcDbSymbolTableRecord
100
AcDbLayerTableRecord
  2
SUNNBOMSTAMPING
 70
0
 62
7
  6
CONTINUOUS
370
-3
390
F
  0
LAYER
  5
209
100
AcDbSymbolTableRecord
100
AcDbLayerTableRecord
  2
THREADS
 70
0
 62
7
  6
CONTINUOUS
370
-3
390
F
  0
ENDTAB
  0
TABLE
  2
STYLE
  5
3
100
AcDbSymbolTable
 70
1
  0
STYLE
  5
11
100
AcDbSymbolTableRecord
100
AcDbTextStyleTableRecord
  2
STANDARD
 70
0
 40
0.0
 41
0.8
 50
0.0
 71
0
 42
0.2
  3
txt
  4

  0
STYLE
  5
20A
100
AcDbSymbolTableRecord
100
AcDbTextStyleTableRecord
  2
TEXTSTYLE_1
 70
0
 40
0.0
 41
0.8
 50
0.0
 71
0
 42
0.2
  3
gdt
  4

  0
ENDTAB
  0
TABLE
  2
VIEW
  5
6
100
AcDbSymbolTable
 70
0
  0
ENDTAB
  0
TABLE
  2
UCS
  5
7
100
AcDbSymbolTable
 70
0
  0
ENDTAB
  0
TABLE
  2
APPID
  5
9
100
AcDbSymbolTable
 70
1
  0
APPID
  5
20B
100
AcDbSymbolTableRecord
100
AcDbRegAppTableRecord
  2
ACAD
 70
0
  0
ENDTAB
  0
TABLE
  2
BLOCK_RECORD
  5
1
100
AcDbSymbolTable
 70
0
  0
BLOCK_RECORD
  5
20C
100
AcDbSymbolTableRecord
100
AcDbBlockTableRecord
  2
*Model_Space
  0
BLOCK_RECORD
  5
20D
100
AcDbSymbolTableRecord
100
AcDbBlockTableRecord
  2
*Paper_Space
  0
BLOCK_RECORD
  5
20E
100
AcDbSymbolTableRecord
100
AcDbBlockTableRecord
  2
SUN_FIRST_THIRD_ANGLE_BL0
  0
BLOCK_RECORD
  5
20F
100
AcDbSymbolTableRecord
100
AcDbBlockTableRecord
  2
*T1
  0
BLOCK_RECORD
  5
210
100
AcDbSymbolTableRecord
100
AcDbBlockTableRecord
  2
*T2
  0
BLOCK_RECORD
  5
211
100
AcDbSymbolTableRecord
100
AcDbBlockTableRecord
  2
*T3
  0
ENDTAB
  0
TABLE
  2
DIMSTYLE
  5
A
100
AcDbSymbolTable
 70
1
100
AcDbDimStyleTable
 71
0
  0
DIMSTYLE
105
212
100
AcDbSymbolTableRecord
100
AcDbDimStyleTableRecord
  2
STANDARD
 70
0
  3

  4

 40
1.0
 41
0.1875
 42
0.0625
 43
0.38
 44
0.125
 45
0.0
 46
0.0
 47
0.001
 48
0.001
140
0.1
141
0.09
142
0.0
143
25.4
144
1.0
145
0.0
146
1.0
147
0.09
 71
0.0
 72
0.0
 73
1
 74
1
 75
0
 76
0
 77
0
 78
4
170
0
171
2
172
0
173
0
174
0
175
0
176
0
177
0
178
0
270
2
271
3
272
3
273
2
274
2
275
0
280
0
281
0
282
0
283
1
284
4
285
0
286
0
287
3
288
0
340
11
278
46
  0
ENDTAB
  0
ENDSEC
  0
SECTION
  2
BLOCKS
  0
BLOCK
  5
20
100
AcDbEntity
  8
0
100
AcDbBlockBegin
  2
*Model_Space
 70
0
 10
0.0
 20
0.0
 30
0.0
  3
*Model_Space
  1

  0
ENDBLK
  5
21
100
AcDbEntity
  8
0
100
AcDbBlockEnd
  0
BLOCK
  5
1C
100
AcDbEntity
  8
0
100
AcDbBlockBegin
  2
*Paper_Space
 70
0
 10
0.0
 20
0.0
 30
0.0
  3
*Paper_Space
  1

  0
ENDBLK
  5
1D
100
AcDbEntity
  8
0
100
AcDbBlockEnd
  0
BLOCK
  5
213
100
AcDbEntity
  8
0
100
AcDbBlockBegin
 62
2
  6
CONTINUOUS
  2
SUN_FIRST_THIRD_ANGLE_BL0
 70
64
 10
20.4816717061
 20
1.2289683772
  3
SUN_FIRST_THIRD_ANGLE_BL0
  1

  0
TEXT
  5
214
100
AcDbEntity
  8
0
100
AcDbText
 62
2
  6
CONTINUOUS
 10
19.4750896608
 20
1.4136269581
  7
STANDARD
 40
0.08
  1
FIRST ANGLE
 41
0.8
 72
0
100
AcDbText
  0
TEXT
  5
215
100
AcDbEntity
  8
0
100
AcDbText
 62
2
  6
CONTINUOUS
 10
20.7842537513
 20
1.4047600029
  7
STANDARD
 40
0.08
  1
THIRD ANGLE
 41
0.8
 72
0
100
AcDbText
  0
LINE
  5
216
100
AcDbEntity
  8
0
100
AcDbLine
 62
7
  6
CONTINUOUS
 10
19.4767170086
 20
1.1727031207
 11
19.6334271527
 21
1.1717972817
  0
LINE
  5
217
100
AcDbEntity
  8
0
100
AcDbLine
 62
7
  6
CONTINUOUS
 10
19.6596964832
 20
1.1717972817
 11
19.6950230232
 21
1.171593082
  0
LINE
  5
218
100
AcDbEntity
  8
0
100
AcDbLine
 62
7
  6
CONTINUOUS
 10
19.7194818561
 20
1.1708914427
 11
19.8852396156
 21
1.1699333054
  0
LINE
  5
219
100
AcDbEntity
  8
0
100
AcDbLine
 62
7
  6
CONTINUOUS
 10
19.4758111696
 20
1.2723454088
 11
19.88525039
 21
1.3511534004
  0
LINE
  5
21A
100
AcDbEntity
  8
0
100
AcDbLine
 62
7
  6
CONTINUOUS
 10
19.88525039
 20
1.3511534004
 11
19.8831348489
 21
0.9851647912
  0
LINE
  5
21B
100
AcDbEntity
  8
0
100
AcDbLine
 62
7
  6
CONTINUOUS
 10
19.8831348489
 20
0.9851647912
 11
19.4767170086
 21
1.0658141206
  0
LINE
  5
21C
100
AcDbEntity
  8
0
100
AcDbLine
 62
7
  6
CONTINUOUS
 10
19.4767170086
 20
1.0658141206
 11
19.4779056764
 21
1.2714536432
  0
CIRCLE
  5
21D
100
AcDbEntity
  8
0
100
AcDbCircle
 62
7
  6
CONTINUOUS
 10
20.2068232291
 20
1.1717972817
 40
0.175742101
  0
CIRCLE
  5
21E
100
AcDbEntity
  8
0
100
AcDbCircle
 62
7
  6
CONTINUOUS
 10
20.2068232291
 20
1.1717972817
 40
0.1005522074
  0
LINE
  5
21F
100
AcDbEntity
  8
0
100
AcDbLine
 62
7
  6
CONTINUOUS
 10
20.2077290681
 20
1.3756110529
 11
20.2071171714
 21
1.2379342989
  0
LINE
  5
220
100
AcDbEntity
  8
0
100
AcDbLine
 62
7
  6
CONTINUOUS
 10
20.2077290681
 20
1.2016899681
 11
20.2074674401
 21
1.1428236749
  0
LINE
  5
221
100
AcDbEntity
  8
0
100
AcDbLine
 62
7
  6
CONTINUOUS
 10
20.208634907
 20
1.101141841
 11
20.2080230104
 21
0.963465087
  0
LINE
  5
222
100
AcDbEntity
  8
0
100
AcDbLine
 62
7
  6
CONTINUOUS
 10
20.0066328138
 20
1.1745147986
 11
20.1443095678
 21
1.1739029019
  0
LINE
  5
223
100
AcDbEntity
  8
0
100
AcDbLine
 62
7
  6
CONTINUOUS
 10
20.1832714155
 20
1.1727031207
 11
20.238153505
 21
1.172335442
  0
LINE
  5
224
100
AcDbEntity
  8
0
100
AcDbLine
 62
7
  6
CONTINUOUS
 10
20.2756669918
 20
1.1717972817
 11
20.407916871
 21
1.1712095044
  0
CIRCLE
  5
225
100
AcDbEntity
  8
0
100
AcDbCircle
 62
7
  6
CONTINUOUS
 10
20.7509457401
 20
1.1693297793
 40
0.1722024983
  0
CIRCLE
  5
226
100
AcDbEntity
  8
0
100
AcDbCircle
 62
7
  6
CONTINUOUS
 10
20.7509457401
 20
1.1693297793
 40
0.0985164967
  0
LINE
  5
227
100
AcDbEntity
  8
0
100
AcDbLine
 62
7
  6
CONTINUOUS
 10
20.7169767782
 20
1.170462078
 11
20.7825395137
 21
1.1682766535
  0
LINE
  5
228
100
AcDbEntity
  8
0
100
AcDbLine
 62
7
  6
CONTINUOUS
 10
20.8177513651
 20
1.1693297793
 11
20.947965719
 21
1.1693297793
  0
LINE
  5
229
100
AcDbEntity
  8
0
100
AcDbLine
 62
7
  6
CONTINUOUS
 10
20.6875370113
 20
1.170462078
 11
20.5573226574
 21
1.170462078
  0
LINE
  5
22A
100
AcDbEntity
  8
0
100
AcDbLine
 62
7
  6
CONTINUOUS
 10
20.7486811426
 20
1.1987695462
 11
20.7486811426
 21
1.1432869085
  0
LINE
  5
22B
100
AcDbEntity
  8
0
100
AcDbLine
 62
7
  6
CONTINUOUS
 10
20.7498134414
 20
1.1059210505
 11
20.7498134414
 21
0.9757066966
  0
LINE
  5
22C
100
AcDbEntity
  8
0
100
AcDbLine
 62
7
  6
CONTINUOUS
 10
20.7486811426
 20
1.2338708068
 11
20.7486811426
 21
1.3640851607
  0
LINE
  5
22D
100
AcDbEntity
  8
0
100
AcDbLine
 62
7
  6
CONTINUOUS
 10
21.0702539817
 20
1.2701043662
 11
21.4790138229
 21
1.3448360823
  0
LINE
  5
22E
100
AcDbEntity
  8
0
100
AcDbLine
 62
7
  6
CONTINUOUS
 10
21.4790138229
 20
1.3448360823
 11
21.4790138229
 21
0.9779712941
  0
LINE
  5
22F
100
AcDbEntity
  8
0
100
AcDbLine
 62
7
  6
CONTINUOUS
 10
21.4790138229
 20
0.9779712941
 11
21.069121683
 21
1.0617614
  0
LINE
  5
230
100
AcDbEntity
  8
0
100
AcDbLine
 62
7
  6
CONTINUOUS
 10
21.0702539817
 20
1.2701043662
 11
21.069121683
 21
1.0617614
  0
LINE
  5
231
100
AcDbEntity
  8
0
100
AcDbLine
 62
7
  6
CONTINUOUS
 10
21.4790138229
 20
1.1693297793
 11
21.3159628059
 21
1.1693297793
  0
LINE
  5
232
100
AcDbEntity
  8
0
100
AcDbLine
 62
7
  6
CONTINUOUS
 10
21.2876553377
 20
1.1693297793
 11
21.2502894796
 21
1.1693297793
  0
LINE
  5
233
100
AcDbEntity
  8
0
100
AcDbLine
 62
7
  6
CONTINUOUS
 10
21.2208497126
 20
1.1659328831
 11
21.0713862804
 21
1.1659328831
  0
LINE
  5
234
100
AcDbEntity
  8
0
100
AcDbLine
 62
7
  6
CONTINUOUS
 10
20.4796138713
 20
1.5284908897
 11
20.4766766948
 21
0.9294458646
  0
ENDBLK
  5
235
100
AcDbEntity
  8
0
  6
BYBLOCK
 62
0
100
AcDbBlockEnd
  0
BLOCK
  5
236
100
AcDbEntity
  8
0
100
AcDbBlockBegin
  2
*T1
 70
1
 10
0.0
 20
0.0
  3
*T1
  1

  0
LINE
  5
237
100
AcDbEntity
  8
0
100
AcDbLine
 62
2
  6
CONTINUOUS
 10
9.275
 20
0.0
 11
-0.0
 21
0.0
  0
LINE
  5
238
100
AcDbEntity
  8
0
100
AcDbLine
 62
2
  6
CONTINUOUS
 10
9.275
 20
0.0
 11
9.275
 21
1.25
  0
LINE
  5
239
100
AcDbEntity
  8
0
100
AcDbLine
 62
2
  6
CONTINUOUS
 10
9.275
 20
0.625
 11
-0.0
 21
0.625
  0
LINE
  5
23A
100
AcDbEntity
  8
0
100
AcDbLine
 62
2
  6
CONTINUOUS
 10
9.275
 20
1.25
 11
-0.0
 21
1.25
  0
LINE
  5
23B
100
AcDbEntity
  8
0
100
AcDbLine
 62
2
  6
CONTINUOUS
 10
6.8
 20
0.0
 11
6.8
 21
1.25
  0
LINE
  5
23C
100
AcDbEntity
  8
0
100
AcDbLine
 62
2
  6
CONTINUOUS
 10
6.4
 20
0.0
 11
6.4
 21
0.625
  0
LINE
  5
23D
100
AcDbEntity
  8
0
100
AcDbLine
 62
2
  6
CONTINUOUS
 10
5.9
 20
0.0
 11
5.9
 21
0.625
  0
LINE
  5
23E
100
AcDbEntity
  8
0
100
AcDbLine
 62
2
  6
CONTINUOUS
 10
5.2
 20
0.0
 11
5.2
 21
0.625
  0
LINE
  5
23F
100
AcDbEntity
  8
0
100
AcDbLine
 62
2
  6
CONTINUOUS
 10
4.1
 20
0.0
 11
4.1
 21
1.25
  0
LINE
  5
240
100
AcDbEntity
  8
0
100
AcDbLine
 62
2
  6
CONTINUOUS
 10
-0.0
 20
0.0
 11
-0.0
 21
1.25
  0
MTEXT
  5
241
100
AcDbEntity
  8
0
100
AcDbMText
 62
2
  6
CONTINUOUS
  7
STANDARD
 71
2
 72
1
 10
6.6
 20
0.325
 30
0.0
 11
1.0
 21
0.0
 31
0.0
 44
0.9
  1
2
 40
0.125
 41
0.2
  0
MTEXT
  5
242
100
AcDbEntity
  8
0
100
AcDbMText
 62
2
  6
CONTINUOUS
  7
STANDARD
 71
2
 72
1
 10
6.15
 20
0.325
 30
0.0
 11
1.0
 21
0.0
 31
0.0
 44
0.9
  1
C
 40
0.125
 41
0.2
  0
MTEXT
  5
243
100
AcDbEntity
  8
0
100
AcDbMText
 62
2
  6
CONTINUOUS
  7
STANDARD
 71
2
 72
1
 10
5.55
 20
0.325
 30
0.0
 11
1.0
 21
0.0
 31
0.0
 44
0.9
  1
1.000
 40
0.125
 41
1.0
  0
MTEXT
  5
244
100
AcDbEntity
  8
0
100
AcDbMText
 62
2
  6
CONTINUOUS
  7
STANDARD
 71
2
 72
1
 10
4.65
 20
0.325
 30
0.0
 11
1.0
 21
0.0
 31
0.0
 44
0.9
  1
Jul-15-21
 40
0.125
 41
1.8
  0
MTEXT
  5
245
100
AcDbEntity
  8
0
100
AcDbMText
 62
2
  6
CONTINUOUS
  7
STANDARD
 71
2
 72
1
 10
2.05
 20
0.4625
 30
0.0
 11
1.0
 21
0.0
 31
0.0
 44
0.9
  1
T-2A Line mount\PCross port with shuttle on port 3s
 40
0.125
 41
6.8
  0
MTEXT
  5
246
100
AcDbEntity
  8
0
100
AcDbMText
 62
2
  6
CONTINUOUS
  7
STANDARD
 71
1
 72
1
 10
6.45
 20
0.5625
 30
0.0
 11
1.0
 21
0.0
 31
0.0
 44
0.9
  1
SHEET
 40
0.06
 41
0.48
  0
MTEXT
  5
247
100
AcDbEntity
  8
0
100
AcDbMText
 62
2
  6
CONTINUOUS
  7
STANDARD
 71
1
 72
1
 10
5.95
 20
0.5625
 30
0.0
 11
1.0
 21
0.0
 31
0.0
 44
0.9
  1
DWG SIZE
 40
0.06
 41
0.768
  0
MTEXT
  5
248
100
AcDbEntity
  8
0
100
AcDbMText
 62
2
  6
CONTINUOUS
  7
STANDARD
 71
1
 72
1
 10
5.25
 20
0.5625
 30
0.0
 11
1.0
 21
0.0
 31
0.0
 44
0.9
  1
SCALE
 40
0.06
 41
0.48
  0
MTEXT
  5
249
100
AcDbEntity
  8
0
100
AcDbMText
 62
2
  6
CONTINUOUS
  7
STANDARD
 71
1
 72
1
 10
4.15
 20
0.5625
 30
0.0
 11
1.0
 21
0.0
 31
0.0
 44
0.9
  1
DATE
 40
0.06
 41
0.384
  0
MTEXT
  5
24A
100
AcDbEntity
  8
0
100
AcDbMText
 62
2
  6
CONTINUOUS
  7
STANDARD
 71
1
 72
1
 10
0.05
 20
0.5625
 30
0.0
 11
1.0
 21
0.0
 31
0.0
 44
0.9
  1
DESCRIPTION
 40
0.06
 41
1.056
  0
MTEXT
  5
24B
100
AcDbEntity
  8
0
100
AcDbMText
 62
2
  6
CONTINUOUS
  7
STANDARD
 71
2
 72
1
 10
5.45
 20
1.0375
 30
0.0
 11
1.0
 21
0.0
 31
0.0
 44
0.9
  1
ALL DIMENSIONS IN INCH\PVIEWS ARE THIRD ANGLE
 40
0.12
 41
4.224
  0
MTEXT
  5
24C
100
AcDbEntity
  8
0
100
AcDbMText
 62
2
  6
CONTINUOUS
  7
STANDARD
 71
2
 72
1
 10
2.05
 20
0.95
 30
0.0
 11
1.0
 21
0.0
 31
0.0
 44
0.9
  1
XBL
 40
0.125
 41
0.6
  0
MTEXT
  5
24D
100
AcDbEntity
  8
0
100
AcDbMText
 62
2
  6
CONTINUOUS
  7
STANDARD
 71
1
 72
1
 10
0.05
 20
1.1875
 30
0.0
 11
1.0
 21
0.0
 31
0.0
 44
0.9
  1
MODEL
 40
0.06
 41
0.48
  0
ENDBLK
  5
24E
100
AcDbEntity
  8
0
  6
BYBLOCK
 62
0
100
AcDbBlockEnd
  0
BLOCK
  5
24F
100
AcDbEntity
  8
0
100
AcDbBlockBegin
  2
*T2
 70
1
 10
0.0
 20
0.0
  3
*T2
  1

  0
LINE
  5
250
100
AcDbEntity
  8
0
100
AcDbLine
 62
2
  6
CONTINUOUS
 10
0.0
 20
0.0
 11
9.055
 21
0.0
  0
LINE
  5
251
100
AcDbEntity
  8
0
100
AcDbLine
 62
2
  6
CONTINUOUS
 10
0.0
 20
0.0
 11
0.0
 21
-2.594
  0
LINE
  5
252
100
AcDbEntity
  8
0
100
AcDbLine
 62
2
  6
CONTINUOUS
 10
0.0
 20
-0.344
 11
9.055
 21
-0.344
  0
LINE
  5
253
100
AcDbEntity
  8
0
100
AcDbLine
 62
2
  6
CONTINUOUS
 10
0.0
 20
-0.594
 11
9.055
 21
-0.594
  0
LINE
  5
254
100
AcDbEntity
  8
0
100
AcDbLine
 62
2
  6
CONTINUOUS
 10
0.0
 20
-0.844
 11
9.055
 21
-0.844
  0
LINE
  5
255
100
AcDbEntity
  8
0
100
AcDbLine
 62
2
  6
CONTINUOUS
 10
0.0
 20
-1.094
 11
9.055
 21
-1.094
  0
LINE
  5
256
100
AcDbEntity
  8
0
100
AcDbLine
 62
2
  6
CONTINUOUS
 10
0.0
 20
-1.344
 11
9.055
 21
-1.344
  0
LINE
  5
257
100
AcDbEntity
  8
0
100
AcDbLine
 62
2
  6
CONTINUOUS
 10
0.0
 20
-1.594
 11
9.055
 21
-1.594
  0
LINE
  5
258
100
AcDbEntity
  8
0
100
AcDbLine
 62
2
  6
CONTINUOUS
 10
0.0
 20
-1.844
 11
9.055
 21
-1.844
  0
LINE
  5
259
100
AcDbEntity
  8
0
100
AcDbLine
 62
2
  6
CONTINUOUS
 10
0.0
 20
-2.094
 11
9.055
 21
-2.094
  0
LINE
  5
25A
100
AcDbEntity
  8
0
100
AcDbLine
 62
2
  6
CONTINUOUS
 10
0.0
 20
-2.344
 11
9.055
 21
-2.344
  0
LINE
  5
25B
100
AcDbEntity
  8
0
100
AcDbLine
 62
2
  6
CONTINUOUS
 10
0.0
 20
-2.594
 11
9.055
 21
-2.594
  0
LINE
  5
25C
100
AcDbEntity
  8
0
100
AcDbLine
 62
2
  6
CONTINUOUS
 10
3.055
 20
0.0
 11
3.055
 21
-2.594
  0
LINE
  5
25D
100
AcDbEntity
  8
0
100
AcDbLine
 62
2
  6
CONTINUOUS
 10
9.055
 20
0.0
 11
9.055
 21
-2.594
  0
MTEXT
  5
25E
100
AcDbEntity
  8
0
100
AcDbMText
 62
2
  6
CONTINUOUS
  7
STANDARD
 71
2
 72
1
 10
1.5275
 20
-0.0995
 30
0.0
 11
1.0
 21
0.0
 31
0.0
 44
0.9
  1
Technical Data
 40
0.145
 41
3.248
  0
MTEXT
  5
25F
100
AcDbEntity
  8
0
100
AcDbMText
 62
2
  6
CONTINUOUS
  7
STANDARD
 71
2
 72
1
 10
4.555
 20
-0.0995
 30
0.0
 11
1.0
 21
0.0
 31
0.0
 44
0.9
  1
U.S. Units
 40
0.145
 41
2.32
  0
MTEXT
  5
260
100
AcDbEntity
  8
0
100
AcDbMText
 62
2
  6
CONTINUOUS
  7
STANDARD
 71
2
 72
1
 10
7.555
 20
-0.0995
 30
0.0
 11
1.0
 21
0.0
 31
0.0
 44
0.9
  1
Metric Units
 40
0.145
 41
2.784
  0
MTEXT
  5
261
100
AcDbEntity
  8
0
100
AcDbMText
 62
2
  6
CONTINUOUS
  7
STANDARD
 71
2
 72
1
 10
1.5275
 20
-0.4065
 30
0.0
 11
1.0
 21
0.0
 31
0.0
 44
0.9
  1
Cavity
 40
0.125
 41
1.2
  0
MTEXT
  5
262
100
AcDbEntity
  8
0
100
AcDbMText
 62
2
  6
CONTINUOUS
  7
STANDARD
 71
2
 72
1
 10
6.055
 20
-0.4065
 30
0.0
 11
1.0
 21
0.0
 31
0.0
 44
0.9
  1
T-2A
 40
0.125
 41
0.8
  0
MTEXT
  5
263
100
AcDbEntity
  8
0
100
AcDbMText
 62
2
  6
CONTINUOUS
  7
STANDARD
 71
2
 72
1
 10
1.5275
 20
-0.6565
 30
0.0
 11
1.0
 21
0.0
 31
0.0
 44
0.9
  1
Body Features
 40
0.125
 41
2.6
  0
MTEXT
  5
264
100
AcDbEntity
  8
0
100
AcDbMText
 62
2
  6
CONTINUOUS
  7
STANDARD
 71
2
 72
1
 10
6.055
 20
-0.6565
 30
0.0
 11
1.0
 21
0.0
 31
0.0
 44
0.9
  1
Cross port with shuttle on port 3s
 40
0.125
 41
6.8
  0
MTEXT
  5
265
100
AcDbEntity
  8
0
100
AcDbMText
 62
2
  6
CONTINUOUS
  7
STANDARD
 71
2
 72
1
 10
1.5275
 20
-0.9065
 30
0.0
 11
1.0
 21
0.0
 31
0.0
 44
0.9
  1
Body Type
 40
0.125
 41
1.8
  0
MTEXT
  5
266
100
AcDbEntity
  8
0
100
AcDbMText
 62
2
  6
CONTINUOUS
  7
STANDARD
 71
2
 72
1
 10
6.055
 20
-0.9065
 30
0.0
 11
1.0
 21
0.0
 31
0.0
 44
0.9
  1
Line mount
 40
0.125
 41
2.0
  0
MTEXT
  5
267
100
AcDbEntity
  8
0
100
AcDbMText
 62
2
  6
CONTINUOUS
  7
STANDARD
 71
2
 72
1
 10
1.5275
 20
-1.1565
 30
0.0
 11
1.0
 21
0.0
 31
0.0
 44
0.9
  1
Interface
 40
0.125
 41
1.8
  0
MTEXT
  5
268
100
AcDbEntity
  8
0
100
AcDbMText
 62
2
  6
CONTINUOUS
  7
STANDARD
 71
2
 72
1
 10
6.055
 20
-1.1565
 30
0.0
 11
1.0
 21
0.0
 31
0.0
 44
0.9
  1
None
 40
0.125
 41
0.8
  0
MTEXT
  5
269
100
AcDbEntity
  8
0
100
AcDbMText
 62
2
  6
CONTINUOUS
  7
STANDARD
 71
2
 72
1
 10
1.5275
 20
-1.4065
 30
0.0
 11
1.0
 21
0.0
 31
0.0
 44
0.9
  1
Open Cavity Quantity
 40
0.125
 41
4.0
  0
MTEXT
  5
26A
100
AcDbEntity
  8
0
100
AcDbMText
 62
2
  6
CONTINUOUS
  7
STANDARD
 71
2
 72
1
 10
6.055
 20
-1.4065
 30
0.0
 11
1.0
 21
0.0
 31
0.0
 44
0.9
  1
2
 40
0.125
 41
0.2
  0
MTEXT
  5
26B
100
AcDbEntity
  8
0
100
AcDbMText
 62
2
  6
CONTINUOUS
  7
STANDARD
 71
2
 72
1
 10
1.5275
 20
-1.6565
 30
0.0
 11
1.0
 21
0.0
 31
0.0
 44
0.9
  1
Weight
 40
0.125
 41
1.2
  0
MTEXT
  5
26C
100
AcDbEntity
  8
0
100
AcDbMText
 62
2
  6
CONTINUOUS
  7
STANDARD
 71
2
 72
1
 10
4.555
 20
-1.6565
 30
0.0
 11
1.0
 21
0.0
 31
0.0
 44
0.9
  1
6.089 lb.
 40
0.125
 41
1.8
  0
MTEXT
  5
26D
100
AcDbEntity
  8
0
100
AcDbMText
 62
2
  6
CONTINUOUS
  7
STANDARD
 71
2
 72
1
 10
7.555
 20
-1.6565
 30
0.0
 11
1.0
 21
0.0
 31
0.0
 44
0.9
  1
2,762 kg.
 40
0.125
 41
1.8
  0
MTEXT
  5
26E
100
AcDbEntity
  8
0
100
AcDbMText
 62
2
  6
CONTINUOUS
  7
STANDARD
 71
2
 72
1
 10
1.5275
 20
-1.9065
 30
0.0
 11
1.0
 21
0.0
 31
0.0
 44
0.9
  1
Mounting Hole Diameter
 40
0.125
 41
4.4
  0
MTEXT
  5
26F
100
AcDbEntity
  8
0
100
AcDbMText
 62
2
  6
CONTINUOUS
  7
STANDARD
 71
2
 72
1
 10
4.555
 20
-1.9065
 30
0.0
 11
1.0
 21
0.0
 31
0.0
 44
0.9
  1
.41 in.
 40
0.125
 41
1.4
  0
MTEXT
  5
270
100
AcDbEntity
  8
0
100
AcDbMText
 62
2
  6
CONTINUOUS
  7
STANDARD
 71
2
 72
1
 10
7.555
 20
-1.9065
 30
0.0
 11
1.0
 21
0.0
 31
0.0
 44
0.9
  1
10,4 mm
 40
0.125
 41
1.4
  0
MTEXT
  5
271
100
AcDbEntity
  8
0
100
AcDbMText
 62
2
  6
CONTINUOUS
  7
STANDARD
 71
2
 72
1
 10
1.5275
 20
-2.1565
 30
0.0
 11
1.0
 21
0.0
 31
0.0
 44
0.9
  1
Mounting Hole Depth
 40
0.125
 41
3.8
  0
MTEXT
  5
272
100
AcDbEntity
  8
0
100
AcDbMText
 62
2
  6
CONTINUOUS
  7
STANDARD
 71
2
 72
1
 10
6.055
 20
-2.1565
 30
0.0
 11
1.0
 21
0.0
 31
0.0
 44
0.9
  1
Through
 40
0.125
 41
1.4
  0
MTEXT
  5
273
100
AcDbEntity
  8
0
100
AcDbMText
 62
2
  6
CONTINUOUS
  7
STANDARD
 71
2
 72
1
 10
1.5275
 20
-2.4065
 30
0.0
 11
1.0
 21
0.0
 31
0.0
 44
0.9
  1
Mounting Hole Quantity
 40
0.125
 41
4.4
  0
MTEXT
  5
274
100
AcDbEntity
  8
0
100
AcDbMText
 62
2
  6
CONTINUOUS
  7
STANDARD
 71
2
 72
1
 10
6.055
 20
-2.4065
 30
0.0
 11
1.0
 21
0.0
 31
0.0
 44
0.9
  1
2
 40
0.125
 41
0.2
  0
ENDBLK
  5
275
100
AcDbEntity
  8
0
  6
BYBLOCK
 62
0
100
AcDbBlockEnd
  0
BLOCK
  5
276
100
AcDbEntity
  8
0
100
AcDbBlockBegin
  2
*T3
 70
1
 10
0.0
 20
0.0
  3
*T3
  1

  0
LINE
  5
277
100
AcDbEntity
  8
0
100
AcDbLine
 62
2
  6
CONTINUOUS
 10
0.0
 20
0.0
 11
4.6
 21
0.0
  0
LINE
  5
278
100
AcDbEntity
  8
0
100
AcDbLine
 62
2
  6
CONTINUOUS
 10
0.0
 20
0.0
 11
0.0
 21
-1.43775
  0
LINE
  5
279
100
AcDbEntity
  8
0
100
AcDbLine
 62
2
  6
CONTINUOUS
 10
0.0
 20
-0.34375
 11
4.6
 21
-0.34375
  0
LINE
  5
27A
100
AcDbEntity
  8
0
100
AcDbLine
 62
2
  6
CONTINUOUS
 10
0.0
 20
-0.68775
 11
4.6
 21
-0.68775
  0
LINE
  5
27B
100
AcDbEntity
  8
0
100
AcDbLine
 62
2
  6
CONTINUOUS
 10
0.0
 20
-0.93775
 11
4.6
 21
-0.93775
  0
LINE
  5
27C
100
AcDbEntity
  8
0
100
AcDbLine
 62
2
  6
CONTINUOUS
 10
0.0
 20
-1.18775
 11
4.6
 21
-1.18775
  0
LINE
  5
27D
100
AcDbEntity
  8
0
100
AcDbLine
 62
2
  6
CONTINUOUS
 10
0.0
 20
-1.43775
 11
4.6
 21
-1.43775
  0
LINE
  5
27E
100
AcDbEntity
  8
0
100
AcDbLine
 62
2
  6
CONTINUOUS
 10
1.3
 20
-0.34375
 11
1.3
 21
-1.43775
  0
LINE
  5
27F
100
AcDbEntity
  8
0
100
AcDbLine
 62
2
  6
CONTINUOUS
 10
3.3
 20
-0.34375
 11
3.3
 21
-1.43775
  0
LINE
  5
280
100
AcDbEntity
  8
0
100
AcDbLine
 62
2
  6
CONTINUOUS
 10
4.6
 20
0.0
 11
4.6
 21
-1.43775
  0
MTEXT
  5
281
100
AcDbEntity
  8
0
100
AcDbMText
 62
2
  6
CONTINUOUS
  7
STANDARD
 71
2
 72
1
 10
2.3
 20
-0.099375
 30
0.0
 11
1.0
 21
0.0
 31
0.0
 44
0.9
  1
Port Headings
 40
0.145
 41
3.016
  0
MTEXT
  5
282
100
AcDbEntity
  8
0
100
AcDbMText
 62
2
  6
CONTINUOUS
  7
STANDARD
 71
2
 72
1
 10
0.65
 20
-0.44325
 30
0.0
 11
1.0
 21
0.0
 31
0.0
 44
0.9
  1
Product
 40
0.145
 41
1.624
  0
MTEXT
  5
283
100
AcDbEntity
  8
0
100
AcDbMText
 62
2
  6
CONTINUOUS
  7
STANDARD
 71
2
 72
1
 10
2.3
 20
-0.44325
 30
0.0
 11
1.0
 21
0.0
 31
0.0
 44
0.9
  1
Port
 40
0.145
 41
0.928
  0
MTEXT
  5
284
100
AcDbEntity
  8
0
100
AcDbMText
 62
2
  6
CONTINUOUS
  7
STANDARD
 71
2
 72
1
 10
3.95
 20
-0.44325
 30
0.0
 11
1.0
 21
0.0
 31
0.0
 44
0.9
  1
Size
 40
0.145
 41
0.928
  0
MTEXT
  5
285
100
AcDbEntity
  8
0
100
AcDbMText
 62
2
  6
CONTINUOUS
  7
STANDARD
 71
2
 72
1
 10
0.65
 20
-0.75025
 30
0.0
 11
1.0
 21
0.0
 31
0.0
 44
0.9
  1
XBL
 40
0.125
 41
0.6
  0
MTEXT
  5
286
100
AcDbEntity
  8
0
100
AcDbMText
 62
2
  6
CONTINUOUS
  7
STANDARD
 71
2
 72
1
 10
2.3
 20
-0.75025
 30
0.0
 11
1.0
 21
0.0
 31
0.0
 44
0.9
  1
Ports 1 &  2
 40
0.125
 41
2.4
  0
MTEXT
  5
287
100
AcDbEntity
  8
0
100
AcDbMText
 62
2
  6
CONTINUOUS
  7
STANDARD
 71
2
 72
1
 10
3.95
 20
-0.75025
 30
0.0
 11
1.0
 21
0.0
 31
0.0
 44
0.9
  1
SAE 12
 40
0.125
 41
1.2
  0
MTEXT
  5
288
100
AcDbEntity
  8
0
100
AcDbMText
 62
2
  6
CONTINUOUS
  7
STANDARD
 71
2
 72
1
 10
0.65
 20
-1.00025
 30
0.0
 11
1.0
 21
0.0
 31
0.0
 44
0.9
  1
XBL
 40
0.125
 41
0.6
  0
MTEXT
  5
289
100
AcDbEntity
  8
0
100
AcDbMText
 62
2
  6
CONTINUOUS
  7
STANDARD
 71
2
 72
1
 10
2.3
 20
-1.00025
 30
0.0
 11
1.0
 21
0.0
 31
0.0
 44
0.9
  1
Port V
 40
0.125
 41
1.2
  0
MTEXT
  5
28A
100
AcDbEntity
  8
0
100
AcDbMText
 62
2
  6
CONTINUOUS
  7
STANDARD
 71
2
 72
1
 10
3.95
 20
-1.00025
 30
0.0
 11
1.0
 21
0.0
 31
0.0
 44
0.9
  1
SAE 6
 40
0.125
 41
1.0
  0
MTEXT
  5
28B
100
AcDbEntity
  8
0
100
AcDbMText
 62
2
  6
CONTINUOUS
  7
STANDARD
 71
2
 72
1
 10
0.65
 20
-1.25025
 30
0.0
 11
1.0
 21
0.0
 31
0.0
 44
0.9
  1
XBL
 40
0.125
 41
0.6
  0
MTEXT
  5
28C
100
AcDbEntity
  8
0
100
AcDbMText
 62
2
  6
CONTINUOUS
  7
STANDARD
 71
2
 72
1
 10
2.3
 20
-1.25025
 30
0.0
 11
1.0
 21
0.0
 31
0.0
 44
0.9
  1
Gage Ports
 40
0.125
 41
2.0
  0
MTEXT
  5
28D
100
AcDbEntity
  8
0
100
AcDbMText
 62
2
  6
CONTINUOUS
  7
STANDARD
 71
2
 72
1
 10
3.95
 20
-1.25025
 30
0.0
 11
1.0
 21
0.0
 31
0.0
 44
0.9
  1
1/4" NPTF
 40
0.125
 41
1.8
  0
ENDBLK
  5
28E
100
AcDbEntity
  8
0
  6
BYBLOCK
 62
0
100
AcDbBlockEnd
  0
ENDSEC
  0
SECTION
  2
ENTITIES
  0
IMAGE
  5
28F
100
AcDbEntity
  8
0
100
AcDbRasterImage
 62
7
  6
CONTINUOUS
 10
19.2297077316
 20
0.3094318264
 30
0.0
 11
0.0066666667
 21
0.0
 31
0.0
 12
0.0
 22
0.0066666667
 32
0.0
 13
369.0
 23
92.0
340
       414
 70
9
280
0
281
50
282
50
283
0
360
       40E
 71
1
 91
2
 14
-0.5
 24
-0.5
 14
368.5
 24
91.5
  0
INSERT
  5
290
100
AcDbEntity
  8
0
100
AcDbBlockReference
 62
2
  6
CONTINUOUS
  2
SUN_FIRST_THIRD_ANGLE_BL0
 10
20.4816717061
 20
1.2289683772
  0
ACAD_TABLE
  5
291
100
AcDbEntity
  8
0
 62
2
  6
CONTINUOUS
100
AcDbBlockReference
  2
*T1
 10
12.42375
 20
0.30125
 30
0.0
100
AcDbTable
342
       416
343
20F
 11
1.0
 21
0.0
 31
0.0
 90
6
 91
4
 92
6
 93
20
 94
0
 95
0
 96
0
 70
1
 41
0.0
141
0.525
141
0.1
141
0.525
141
0.1
142
4.1
142
1.1
142
0.7
142
0.5
142
0.4
142
2.475
171
1
172
0
173
0
174
0
175
1
176
1
 91
33
178
0
145
0.0
301
CELL_VALUE
 90
4
  1
T-2A Line mount\PCross port with shuttle on port 3s
304
ACVALUE_END
170
2
140
0.125
171
1
172
0
173
0
174
0
175
1
176
1
 91
33
178
0
145
0.0
301
CELL_VALUE
 90
4
  1
Jul-15-21
304
ACVALUE_END
170
5
140
0.125
171
1
172
0
173
0
174
0
175
1
176
1
 91
33
178
0
145
0.0
301
CELL_VALUE
 90
4
  1
1.000
304
ACVALUE_END
170
5
140
0.125
171
1
172
0
173
0
174
0
175
1
176
1
 91
33
178
0
145
0.0
301
CELL_VALUE
 90
4
  1
C
304
ACVALUE_END
170
5
140
0.125
171
1
172
0
173
0
174
0
175
1
176
1
 91
33
178
0
145
0.0
301
CELL_VALUE
 90
4
  1
2
304
ACVALUE_END
170
5
140
0.125
171
1
172
0
173
0
174
0
175
1
176
1
 91
33
178
0
145
0.0
301
CELL_VALUE
 90
4
  1
 
304
ACVALUE_END
170
1
140
0.125
171
1
172
0
173
0
174
0
175
1
176
1
 91
33
178
0
145
0.0
301
CELL_VALUE
 90
4
  1
DESCRIPTION
304
ACVALUE_END
170
1
140
0.06
171
1
172
0
173
0
174
0
175
1
176
1
 91
33
178
0
145
0.0
301
CELL_VALUE
 90
4
  1
DATE
304
ACVALUE_END
170
1
140
0.06
171
1
172
0
173
0
174
0
175
1
176
1
 91
33
178
0
145
0.0
301
CELL_VALUE
 90
4
  1
SCALE
304
ACVALUE_END
170
1
140
0.06
171
1
172
0
173
0
174
0
175
1
176
1
 91
33
178
0
145
0.0
301
CELL_VALUE
 90
4
  1
DWG SIZE
304
ACVALUE_END
170
1
140
0.06
171
1
172
0
173
0
174
0
175
1
176
1
 91
33
178
0
145
0.0
301
CELL_VALUE
 90
4
  1
SHEET
304
ACVALUE_END
170
1
140
0.06
171
1
172
0
173
0
174
0
175
1
176
1
 91
33
178
0
145
0.0
301
CELL_VALUE
 90
4
  1
 
304
ACVALUE_END
170
1
140
0.125
171
1
172
0
173
0
174
0
175
1
176
1
 91
33
178
0
145
0.0
301
CELL_VALUE
 90
4
  1
XBL
304
ACVALUE_END
170
5
140
0.125
171
1
172
0
173
0
174
0
175
4
176
1
 91
33
178
0
145
0.0
301
CELL_VALUE
 90
4
  1
ALL DIMENSIONS IN INCH\PVIEWS ARE THIRD ANGLE
304
ACVALUE_END
170
5
140
0.12
171
1
172
0
173
1
174
0
175
1
176
1
 91
1
178
0
145
0.0
170
1
171
1
172
0
173
1
174
0
175
1
176
1
 91
1
178
0
145
0.0
170
1
171
1
172
0
173
1
174
0
175
1
176
1
 91
1
178
0
145
0.0
170
5
171
1
172
0
173
0
174
0
175
1
176
1
 91
33
178
0
145
0.0
301
CELL_VALUE
 90
4
  1
 
304
ACVALUE_END
170
1
140
0.125
171
1
172
0
173
0
174
0
175
1
176
1
 91
33
178
0
145
0.0
301
CELL_VALUE
 90
4
  1
MODEL
304
ACVALUE_END
170
1
140
0.06
171
1
172
0
173
0
174
0
175
1
176
1
 91
33
178
0
145
0.0
301
CELL_VALUE
 90
4
  1
 
304
ACVALUE_END
170
1
140
0.125
171
1
172
0
173
0
174
0
175
1
176
1
 91
33
178
0
145
0.0
301
CELL_VALUE
 90
4
  1
 
304
ACVALUE_END
170
1
140
0.125
171
1
172
0
173
0
174
0
175
1
176
1
 91
33
178
0
145
0.0
301
CELL_VALUE
 90
4
  1
 
304
ACVALUE_END
170
1
140
0.125
171
1
172
0
173
0
174
0
175
1
176
1
 91
33
178
0
145
0.0
301
CELL_VALUE
 90
4
  1
 
304
ACVALUE_END
170
1
140
0.125
171
1
172
0
173
0
174
0
175
1
176
1
 91
33
178
0
145
0.0
301
CELL_VALUE
 90
4
  1
 
304
ACVALUE_END
170
1
140
0.125
  0
ACAD_TABLE
  5
292
100
AcDbEntity
  8
0
 62
2
  6
CONTINUOUS
100
AcDbBlockReference
  2
*T2
 10
12.4237499994
 20
16.47875
 30
0.0
100
AcDbTable
342
       415
343
210
 11
1.0
 21
0.0
 31
0.0
 90
22
 91
10
 92
3
 93
16
 94
0
 95
0
 96
0
 41
0.028
141
0.344
141
0.25
141
0.25
141
0.25
141
0.25
141
0.25
141
0.25
141
0.25
141
0.25
141
0.25
142
3.055
142
3.0
142
3.0
171
1
172
0
173
0
174
0
175
1
176
1
 91
33
178
0
145
0.0
301
CELL_VALUE
 90
4
  1
Technical Data
304
ACVALUE_END
170
5
140
0.145
171
1
172
0
173
0
174
0
175
1
176
1
 91
33
178
0
145
0.0
301
CELL_VALUE
 90
4
  1
U.S. Units
304
ACVALUE_END
170
5
140
0.145
171
1
172
0
173
0
174
0
175
1
176
1
 91
33
178
0
145
0.0
301
CELL_VALUE
 90
4
  1
Metric Units
304
ACVALUE_END
170
5
140
0.145
171
1
172
0
173
0
174
0
175
1
176
1
 91
33
178
0
145
0.0
301
CELL_VALUE
 90
4
  1
Cavity
304
ACVALUE_END
170
5
140
0.125
171
1
172
0
173
0
174
0
175
2
176
1
 91
33
178
0
145
0.0
301
CELL_VALUE
 90
4
  1
T-2A
304
ACVALUE_END
170
5
140
0.125
171
1
172
0
173
1
174
0
175
1
176
1
 91
1
178
0
145
0.0
170
1
171
1
172
0
173
0
174
0
175
1
176
1
 91
33
178
0
145
0.0
301
CELL_VALUE
 90
4
  1
Body Features
304
ACVALUE_END
170
5
140
0.125
171
1
172
0
173
0
174
0
175
2
176
1
 91
33
178
0
145
0.0
301
CELL_VALUE
 90
4
  1
Cross port with shuttle on port 3s
304
ACVALUE_END
170
5
140
0.125
171
1
172
0
173
1
174
0
175
1
176
1
 91
1
178
0
145
0.0
170
1
171
1
172
0
173
0
174
0
175
1
176
1
 91
33
178
0
145
0.0
301
CELL_VALUE
 90
4
  1
Body Type
304
ACVALUE_END
170
5
140
0.125
171
1
172
0
173
0
174
0
175
2
176
1
 91
33
178
0
145
0.0
301
CELL_VALUE
 90
4
  1
Line mount
304
ACVALUE_END
170
5
140
0.125
171
1
172
0
173
1
174
0
175
1
176
1
 91
1
178
0
145
0.0
170
1
171
1
172
0
173
0
174
0
175
1
176
1
 91
33
178
0
145
0.0
301
CELL_VALUE
 90
4
  1
Interface
304
ACVALUE_END
170
5
140
0.125
171
1
172
0
173
0
174
0
175
2
176
1
 91
33
178
0
145
0.0
301
CELL_VALUE
 90
4
  1
None
304
ACVALUE_END
170
5
140
0.125
171
1
172
0
173
1
174
0
175
1
176
1
 91
1
178
0
145
0.0
170
1
171
1
172
0
173
0
174
0
175
1
176
1
 91
33
178
0
145
0.0
301
CELL_VALUE
 90
4
  1
Open Cavity Quantity
304
ACVALUE_END
170
5
140
0.125
171
1
172
0
173
0
174
0
175
2
176
1
 91
33
178
0
145
0.0
301
CELL_VALUE
 90
4
  1
2
304
ACVALUE_END
170
5
140
0.125
171
1
172
0
173
1
174
0
175
1
176
1
 91
1
178
0
145
0.0
170
1
171
1
172
0
173
0
174
0
175
1
176
1
 91
33
178
0
145
0.0
301
CELL_VALUE
 90
4
  1
Weight
304
ACVALUE_END
170
5
140
0.125
171
1
172
0
173
0
174
0
175
1
176
1
 91
33
178
0
145
0.0
301
CELL_VALUE
 90
4
  1
6.089 lb.
304
ACVALUE_END
170
5
140
0.125
171
1
172
0
173
0
174
0
175
1
176
1
 91
33
178
0
145
0.0
301
CELL_VALUE
 90
4
  1
2,762 kg.
304
ACVALUE_END
170
5
140
0.125
171
1
172
0
173
0
174
0
175
1
176
1
 91
33
178
0
145
0.0
301
CELL_VALUE
 90
4
  1
Mounting Hole Diameter
304
ACVALUE_END
170
5
140
0.125
171
1
172
0
173
0
174
0
175
1
176
1
 91
33
178
0
145
0.0
301
CELL_VALUE
 90
4
  1
.41 in.
304
ACVALUE_END
170
5
140
0.125
171
1
172
0
173
0
174
0
175
1
176
1
 91
33
178
0
145
0.0
301
CELL_VALUE
 90
4
  1
10,4 mm
304
ACVALUE_END
170
5
140
0.125
171
1
172
0
173
0
174
0
175
1
176
1
 91
33
178
0
145
0.0
301
CELL_VALUE
 90
4
  1
Mounting Hole Depth
304
ACVALUE_END
170
5
140
0.125
171
1
172
0
173
0
174
0
175
2
176
1
 91
33
178
0
145
0.0
301
CELL_VALUE
 90
4
  1
Through
304
ACVALUE_END
170
5
140
0.125
171
1
172
0
173
1
174
0
175
1
176
1
 91
1
178
0
145
0.0
170
1
171
1
172
0
173
0
174
0
175
1
176
1
 91
33
178
0
145
0.0
301
CELL_VALUE
 90
4
  1
Mounting Hole Quantity
304
ACVALUE_END
170
5
140
0.125
171
1
172
0
173
0
174
0
175
2
176
1
 91
33
178
0
145
0.0
301
CELL_VALUE
 90
4
  1
2
304
ACVALUE_END
170
5
140
0.125
171
1
172
0
173
1
174
0
175
1
176
1
 91
1
178
0
145
0.0
170
1
  0
ACAD_TABLE
  5
293
100
AcDbEntity
  8
0
 62
2
  6
CONTINUOUS
100
AcDbBlockReference
  2
*T3
 10
0.52125
 20
1.959
 30
0.0
100
AcDbTable
342
       415
343
211
 11
1.0
 21
0.0
 31
0.0
 90
22
 91
5
 92
3
 93
16
 94
0
 95
0
 96
0
 41
0.05
141
0.34375
141
0.344
141
0.25
141
0.25
141
0.25
142
1.3
142
2.0
142
1.3
171
1
172
0
173
0
174
0
175
3
176
1
 91
33
178
0
145
0.0
301
CELL_VALUE
 90
4
  1
Port Headings
304
ACVALUE_END
170
5
140
0.145
171
1
172
0
173
1
174
0
175
1
176
1
 91
1
178
0
145
0.0
170
1
171
1
172
0
173
1
174
0
175
1
176
1
 91
1
178
0
145
0.0
170
1
171
1
172
0
173
0
174
0
175
1
176
1
 91
33
178
0
145
0.0
301
CELL_VALUE
 90
4
  1
Product
304
ACVALUE_END
170
5
140
0.145
171
1
172
0
173
0
174
0
175
1
176
1
 91
33
178
0
145
0.0
301
CELL_VALUE
 90
4
  1
Port
304
ACVALUE_END
170
5
140
0.145
171
1
172
0
173
0
174
0
175
1
176
1
 91
33
178
0
145
0.0
301
CELL_VALUE
 90
4
  1
Size
304
ACVALUE_END
170
5
140
0.145
171
1
172
0
173
0
174
0
175
1
176
1
 91
33
178
0
145
0.0
301
CELL_VALUE
 90
4
  1
XBL
304
ACVALUE_END
170
5
140
0.125
171
1
172
0
173
0
174
0
175
1
176
1
 91
33
178
0
145
0.0
301
CELL_VALUE
 90
4
  1
Ports 1 &  2
304
ACVALUE_END
170
5
140
0.125
171
1
172
0
173
0
174
0
175
1
176
1
 91
33
178
0
145
0.0
301
CELL_VALUE
 90
4
  1
SAE 12
304
ACVALUE_END
170
5
140
0.125
171
1
172
0
173
0
174
0
175
1
176
1
 91
33
178
0
145
0.0
301
CELL_VALUE
 90
4
  1
XBL
304
ACVALUE_END
170
5
140
0.125
171
1
172
0
173
0
174
0
175
1
176
1
 91
33
178
0
145
0.0
301
CELL_VALUE
 90
4
  1
Port V
304
ACVALUE_END
170
5
140
0.125
171
1
172
0
173
0
174
0
175
1
176
1
 91
33
178
0
145
0.0
301
CELL_VALUE
 90
4
  1
SAE 6
304
ACVALUE_END
170
5
140
0.125
171
1
172
0
173
0
174
0
175
1
176
1
 91
33
178
0
145
0.0
301
CELL_VALUE
 90
4
  1
XBL
304
ACVALUE_END
170
5
140
0.125
171
1
172
0
173
0
174
0
175
1
176
1
 91
33
178
0
145
0.0
301
CELL_VALUE
 90
4
  1
Gage Ports
304
ACVALUE_END
170
5
140
0.125
171
1
172
0
173
0
174
0
175
1
176
1
 91
33
178
0
145
0.0
301
CELL_VALUE
 90
4
  1
1/4" NPTF
304
ACVALUE_END
170
5
140
0.125
  0
MTEXT
  5
294
100
AcDbEntity
  8
0
100
AcDbMText
 62
2
  6
CONTINUOUS
  7
STANDARD
 71
1
 72
1
 10
0.52125
 20
5.75995
 30
0.0
 11
1.0
 21
0.0
 31
0.0
 44
0.6
  3
Notes\P \P1. Important: Carefully consider\P   the maximum system pressure. The\P   pressure rating of the manifold is\P   dependent on the manifold material,\P   with the port type/size a secondary\P   consideration. Manifolds\P   constructed of alu
  1
minum are not\P   rated for pressures higher than\P   3000 psi (210 bar), regardless of\P   the port type/size specified.
 40
0.1
 41
3.04
  0
LINE
  5
295
100
AcDbEntity
  8
0
100
AcDbLine
 62
7
  6
CONTINUOUS
 10
0.30125
 20
0.30125
 11
0.30125
 21
16.69875
  0
LINE
  5
296
100
AcDbEntity
  8
0
100
AcDbLine
 62
7
  6
CONTINUOUS
 10
0.30125
 20
0.30125
 11
21.69875
 21
0.30125
  0
LINE
  5
297
100
AcDbEntity
  8
0
100
AcDbLine
 62
7
  6
CONTINUOUS
 10
0.30125
 20
16.69875
 11
21.69875
 21
16.69875
  0
LINE
  5
298
100
AcDbEntity
  8
0
100
AcDbLine
 62
7
  6
CONTINUOUS
 10
21.69875
 20
0.30125
 11
21.69875
 21
16.69875
  0
LINE
  5
299
100
AcDbEntity
  8
0
100
AcDbLine
 62
7
  6
CONTINUOUS
 10
7.9381382124
 20
6.6539499901
 11
7.9381382124
 21
9.4309869052
  0
LINE
  5
29A
100
AcDbEntity
  8
0
100
AcDbLine
 62
7
  6
CONTINUOUS
 10
7.9381382124
 20
9.4309869052
 11
9.23223237
 21
10.6809859477
  0
LINE
  5
29B
100
AcDbEntity
  8
0
100
AcDbLine
 62
4
  6
CONTINUOUS
 10
9.1539424514
 20
10.3273637551
 11
9.1487660761
 21
10.3223637602
  0
LINE
  5
29C
100
AcDbEntity
  8
0
100
AcDbLine
 62
4
  6
CONTINUOUS
 10
8.6123546471
 20
9.8022302217
 11
8.581296388
 21
9.7722302454
  0
LINE
  5
29D
100
AcDbEntity
  8
0
100
AcDbLine
 62
4
  6
CONTINUOUS
 10
9.0851140265
 20
10.3133805968
 11
9.0701050177
 21
10.3063830066
  0
LINE
  5
29E
100
AcDbEntity
  8
0
100
AcDbLine
 62
4
  6
CONTINUOUS
 10
8.8871604294
 20
7.7569054245
 11
8.9233826492
 21
7.6384823016
  0
LINE
  5
29F
100
AcDbEntity
  8
0
100
AcDbLine
 62
7
  6
CONTINUOUS
 10
12.76776763
 20
6.3190140523
 11
7.9381382124
 21
6.6539499901
  0
LINE
  5
2A0
100
AcDbEntity
  8
0
100
AcDbLine
 62
4
  6
CONTINUOUS
 10
10.1108034505
 20
10.0910490418
 11
10.1152403444
 21
10.0953347525
  0
LINE
  5
2A1
100
AcDbEntity
  8
0
100
AcDbLine
 62
4
  6
CONTINUOUS
 10
8.9233826492
 20
7.6384823016
 11
8.959604869
 21
7.7518813855
  0
LINE
  5
2A2
100
AcDbEntity
  8
0
100
AcDbLine
 62
4
  6
CONTINUOUS
 10
10.1510114253
 20
10.0698869667
 11
10.1554483197
 21
10.0741726778
  0
LINE
  5
2A3
100
AcDbEntity
  8
0
100
AcDbLine
 62
4
  6
CONTINUOUS
 10
10.2107502462
 20
10.0933045286
 11
10.1841288815
 21
10.0675902633
  0
LINE
  5
2A4
100
AcDbEntity
  8
0
100
AcDbLine
 62
4
  6
CONTINUOUS
 10
10.0571721263
 20
9.9078165764
 11
10.0882303853
 21
9.9378165527
  0
LINE
  5
2A5
100
AcDbEntity
  8
0
100
AcDbLine
 62
4
  6
CONTINUOUS
 10
10.2420844332
 20
10.0635710322
 11
10.2687057979
 21
10.0892852974
  0
LINE
  5
2A6
100
AcDbEntity
  8
0
100
AcDbLine
 62
4
  6
CONTINUOUS
 10
9.9791647564
 20
9.7824673036
 11
9.9688120035
 21
9.7724673116
  0
LINE
  5
2A7
100
AcDbEntity
  8
0
100
AcDbLine
 62
4
  6
CONTINUOUS
 10
10.270764995
 20
10.0569886177
 11
10.3018232541
 21
10.086988594
  0
LINE
  5
2A8
100
AcDbEntity
  8
0
100
AcDbLine
 62
4
  6
CONTINUOUS
 10
10.1417490363
 20
9.9295116114
 11
10.1195645654
 21
9.9080830568
  0
LINE
  5
2A9
100
AcDbEntity
  8
0
100
AcDbLine
 62
4
  6
CONTINUOUS
 10
10.3287205467
 20
10.0529693865
 11
10.3597788058
 21
10.0829693629
  0
LINE
  5
2AA
100
AcDbEntity
  8
0
100
AcDbLine
 62
4
  6
CONTINUOUS
 10
10.0816272135
 20
9.791438445
 11
10.0505689544
 21
9.7614384686
  0
LINE
  5
2AB
100
AcDbEntity
  8
0
100
AcDbLine
 62
4
  6
CONTINUOUS
 10
10.4529110107
 20
10.0443567486
 11
10.4839692698
 21
10.0743567249
  0
LINE
  5
2AC
100
AcDbEntity
  8
0
100
AcDbLine
 62
4
  6
CONTINUOUS
 10
10.2945139091
 20
9.8913568678
 11
10.3255721682
 21
9.9213568442
  0
LINE
  5
2AD
100
AcDbEntity
  8
0
100
AcDbLine
 62
7
  6
CONTINUOUS
 10
9.7881862845
 20
9.6879962238
 11
9.7874872284
 21
9.6873337173
  0
LINE
  5
2AE
100
AcDbEntity
  8
0
100
AcDbLine
 62
4
  6
CONTINUOUS
 10
9.9067203167
 20
9.7874913425
 11
9.9217293255
 21
9.7944889327
  0
LINE
  5
2AF
100
AcDbEntity
  8
0
100
AcDbLine
 62
4
  6
CONTINUOUS
 10
10.1620440707
 20
9.9005436823
 11
10.226219786
 21
9.9282469553
  0
LINE
  5
2B0
100
AcDbEntity
  8
0
100
AcDbLine
 62
4
  6
CONTINUOUS
 10
10.5448685694
 20
10.0303237859
 11
10.6075653066
 21
10.0565984901
  0
LINE
  5
2B1
100
AcDbEntity
  8
0
100
AcDbLine
 62
4
  6
CONTINUOUS
 10
10.5225532253
 20
10.0601973919
 11
10.5025872018
 21
10.040911693
  0
LINE
  5
2B2
100
AcDbEntity
  8
0
100
AcDbLine
 62
4
  6
CONTINUOUS
 10
10.3607488214
 20
9.8867634611
 11
10.3918070805
 21
9.9167634374
  0
LINE
  5
2B3
100
AcDbEntity
  8
0
100
AcDbLine
 62
4
  6
CONTINUOUS
 10
10.6096776142
 20
10.0357816531
 11
10.6274251905
 21
10.0529244964
  0
LINE
  5
2B4
100
AcDbEntity
  8
0
100
AcDbLine
 62
4
  6
CONTINUOUS
 10
10.5242896578
 20
9.9461603882
 11
10.5553479169
 21
9.9761603645
  0
LINE
  5
2B5
100
AcDbEntity
  8
0
100
AcDbLine
 62
4
  6
CONTINUOUS
 10
10.6881935896
 20
10.0601937202
 11
10.6571353305
 21
10.0301937439
  0
LINE
  5
2B6
100
AcDbEntity
  8
0
100
AcDbLine
 62
4
  6
CONTINUOUS
 10
10.6005872072
 20
9.9684295988
 11
10.5939318655
 21
9.9620010319
  0
LINE
  5
2B7
100
AcDbEntity
  8
0
100
AcDbLine
 62
4
  6
CONTINUOUS
 10
10.5933374383
 20
9.952855435
 11
10.586682097
 21
9.9464268686
  0
LINE
  5
2B8
100
AcDbEntity
  8
0
100
AcDbLine
 62
4
  6
CONTINUOUS
 10
10.6902528281
 20
10.0278970376
 11
10.7124372994
 21
10.0493255927
  0
LINE
  5
2B9
100
AcDbEntity
  8
0
100
AcDbLine
 62
4
  6
CONTINUOUS
 10
10.5390523986
 20
9.8789914768
 11
10.5612368694
 21
9.9004200314
  0
LINE
  5
2BA
100
AcDbEntity
  8
0
100
AcDbLine
 62
4
  6
CONTINUOUS
 10
10.6464209317
 20
9.9698444295
 11
10.6153626726
 21
9.9398444532
  0
LINE
  5
2BB
100
AcDbEntity
  8
0
100
AcDbLine
 62
4
  6
CONTINUOUS
 10
10.7488558492
 20
10.0445032516
 11
10.7444189553
 21
10.0402175409
  0
LINE
  5
2BC
100
AcDbEntity
  8
0
100
AcDbLine
 62
4
  6
CONTINUOUS
 10
10.7669855482
 20
10.0248723108
 11
10.7736408897
 21
10.0313008775
  0
LINE
  5
2BD
100
AcDbEntity
  8
0
100
AcDbLine
 62
4
  6
CONTINUOUS
 10
10.6356449479
 20
9.8722927607
 11
10.6578294188
 21
9.8937213153
  0
LINE
  5
2BE
100
AcDbEntity
  8
0
100
AcDbLine
 62
4
  6
CONTINUOUS
 10
10.8144432645
 20
10.0192844016
 11
10.8321908419
 21
10.036427246
  0
LINE
  5
2BF
100
AcDbEntity
  8
0
100
AcDbLine
 62
4
  6
CONTINUOUS
 10
11.0386866776
 20
10.035886942
 11
11.033708452
 21
10.033935477
  0
LINE
  5
2C0
100
AcDbEntity
  8
0
100
AcDbLine
 62
4
  6
CONTINUOUS
 10
9.824108591
 20
7.7305648545
 11
9.8096197031
 21
7.7412289212
  0
LINE
  5
2C1
100
AcDbEntity
  8
0
100
AcDbLine
 62
4
  6
CONTINUOUS
 10
9.9400196944
 20
7.7225263921
 11
9.9255308065
 21
7.7331904588
  0
LINE
  5
2C2
100
AcDbEntity
  8
0
100
AcDbLine
 62
4
  6
CONTINUOUS
 10
9.8096197031
 20
7.7412289212
 11
9.7951308151
 21
7.7615522459
  0
LINE
  5
2C3
100
AcDbEntity
  8
0
100
AcDbLine
 62
4
  6
CONTINUOUS
 10
9.8530863669
 20
7.834807086
 11
9.8603308108
 21
7.8246454189
  0
LINE
  5
2C4
100
AcDbEntity
  8
0
100
AcDbLine
 62
4
  6
CONTINUOUS
 10
9.9255308065
 20
7.7331904588
 11
9.9110419186
 21
7.7535137836
  0
LINE
  5
2C5
100
AcDbEntity
  8
0
100
AcDbLine
 62
4
  6
CONTINUOUS
 10
9.9182863625
 20
7.8109669314
 11
9.9255308065
 21
7.8008052712
  0
LINE
  5
2C6
100
AcDbEntity
  8
0
100
AcDbLine
 62
4
  6
CONTINUOUS
 10
9.9689974703
 20
7.7688130685
 11
9.9762419142
 21
7.7586514083
  0
LINE
  5
2C7
100
AcDbEntity
  8
0
100
AcDbLine
 62
4
  6
CONTINUOUS
 10
9.9762419142
 20
7.8166069566
 11
9.9689974703
 21
7.8267686237
  0
LINE
  5
2C8
100
AcDbEntity
  8
0
100
AcDbLine
 62
4
  6
CONTINUOUS
 10
9.7951308151
 20
7.7615522459
 11
9.7878863712
 21
7.7910324257
  0
LINE
  5
2C9
100
AcDbEntity
  8
0
100
AcDbLine
 62
4
  6
CONTINUOUS
 10
9.9182863625
 20
7.8206261877
 11
9.9182863625
 21
7.8109669314
  0
LINE
  5
2CA
100
AcDbEntity
  8
0
100
AcDbLine
 62
4
  6
CONTINUOUS
 10
9.9762419142
 20
7.7586514083
 11
9.9762419142
 21
7.7393328905
  0
LINE
  5
2CB
100
AcDbEntity
  8
0
100
AcDbLine
 62
4
  6
CONTINUOUS
 10
9.9062001959
 20
9.7794889445
 11
9.9067203167
 21
9.7874913425
  0
LINE
  5
2CC
100
AcDbEntity
  8
0
100
AcDbLine
 62
4
  6
CONTINUOUS
 10
9.7878863712
 20
7.7910324257
 11
9.7951308151
 21
7.8195077976
  0
LINE
  5
2CD
100
AcDbEntity
  8
0
100
AcDbLine
 62
4
  6
CONTINUOUS
 10
10.8697451782
 20
10.0384162542
 11
10.849779154
 21
10.0191305547
  0
LINE
  5
2CE
100
AcDbEntity
  8
0
100
AcDbLine
 62
4
  6
CONTINUOUS
 10
10.7157849705
 20
9.8897020841
 11
10.6936004996
 21
9.8682735295
  0
LINE
  5
2CF
100
AcDbEntity
  8
0
100
AcDbLine
 62
4
  6
CONTINUOUS
 10
10.7222810476
 20
9.861691116
 11
10.7533393067
 21
9.8916910924
  0
LINE
  5
2D0
100
AcDbEntity
  8
0
100
AcDbLine
 62
4
  6
CONTINUOUS
 10
10.8972369256
 20
10.0135426417
 11
10.9194213969
 21
10.0349711968
  0
LINE
  5
2D1
100
AcDbEntity
  8
0
100
AcDbLine
 62
4
  6
CONTINUOUS
 10
10.9325728151
 20
10.0133887948
 11
10.961412627
 21
10.0412459156
  0
LINE
  5
2D2
100
AcDbEntity
  8
0
100
AcDbLine
 62
4
  6
CONTINUOUS
 10
10.8068579645
 20
9.8833861506
 11
10.7846734937
 21
9.861957596
  0
LINE
  5
2D3
100
AcDbEntity
  8
0
100
AcDbLine
 62
4
  6
CONTINUOUS
 10
10.8271530405
 20
9.8544182186
 11
10.8582112995
 21
9.884418195
  0
LINE
  5
2D4
100
AcDbEntity
  8
0
100
AcDbLine
 62
4
  6
CONTINUOUS
 10
11.0048686408
 20
10.0060783569
 11
11.0270531121
 21
10.027506912
  0
LINE
  5
2D5
100
AcDbEntity
  8
0
100
AcDbLine
 62
4
  6
CONTINUOUS
 10
11.033708452
 20
10.033935477
 11
11.0359268999
 21
10.0360783333
  0
LINE
  5
2D6
100
AcDbEntity
  8
0
100
AcDbLine
 62
4
  6
CONTINUOUS
 10
11.0512436962
 20
10.0051589413
 11
11.0689912725
 21
10.0223017846
  0
LINE
  5
2D7
100
AcDbEntity
  8
0
100
AcDbLine
 62
4
  6
CONTINUOUS
 10
11.1368502598
 20
10.0107056324
 11
11.1435056006
 21
10.0171341984
  0
LINE
  5
2D8
100
AcDbEntity
  8
0
100
AcDbLine
 62
4
  6
CONTINUOUS
 10
9.8385974789
 20
7.8454711501
 11
9.8530863669
 21
7.834807086
  0
LINE
  5
2D9
100
AcDbEntity
  8
0
100
AcDbLine
 62
4
  6
CONTINUOUS
 10
9.9255308065
 20
7.8008052712
 11
9.9689974703
 21
7.7688130685
  0
LINE
  5
2DA
100
AcDbEntity
  8
0
100
AcDbLine
 62
4
  6
CONTINUOUS
 10
9.9689974703
 20
7.8267686237
 11
9.9545085824
 21
7.8374326878
  0
LINE
  5
2DB
100
AcDbEntity
  8
0
100
AcDbLine
 62
4
  6
CONTINUOUS
 10
10.2080641211
 20
7.75223374
 11
10.1935752332
 21
7.7725570638
  0
LINE
  5
2DC
100
AcDbEntity
  8
0
100
AcDbLine
 62
4
  6
CONTINUOUS
 10
10.2008196771
 20
7.810691699
 11
10.1935752332
 21
7.8208533592
  0
LINE
  5
2DD
100
AcDbEntity
  8
0
100
AcDbLine
 62
4
  6
CONTINUOUS
 10
10.0631752418
 20
7.8298966294
 11
10.0993974616
 21
7.7114735065
  0
LINE
  5
2DE
100
AcDbEntity
  8
0
100
AcDbLine
 62
4
  6
CONTINUOUS
 10
10.1428641254
 20
7.8243701865
 11
10.1428641254
 21
7.7084590831
  0
LINE
  5
2DF
100
AcDbEntity
  8
0
100
AcDbLine
 62
4
  6
CONTINUOUS
 10
10.2008196771
 20
7.7817139232
 11
10.2008196771
 21
7.810691699
  0
LINE
  5
2E0
100
AcDbEntity
  8
0
100
AcDbLine
 62
4
  6
CONTINUOUS
 10
10.2080641211
 20
7.7232559658
 11
10.2080641211
 21
7.75223374
  0
LINE
  5
2E1
100
AcDbEntity
  8
0
100
AcDbLine
 62
4
  6
CONTINUOUS
 10
11.1754341326
 20
9.9965463053
 11
11.1820894741
 21
10.0029748719
  0
LINE
  5
2E2
100
AcDbEntity
  8
0
100
AcDbLine
 62
4
  6
CONTINUOUS
 10
12.0065444082
 20
9.9687657804
 11
12.0215534169
 21
9.9757633706
  0
LINE
  5
2E3
100
AcDbEntity
  8
0
100
AcDbLine
 62
4
  6
CONTINUOUS
 10
12.1364242788
 20
9.9517201123
 11
12.12141527
 21
9.9447225222
  0
LINE
  5
2E4
100
AcDbEntity
  8
0
100
AcDbLine
 62
4
  6
CONTINUOUS
 10
9.9545085824
 20
7.7215215844
 11
9.9400196944
 21
7.7225263921
  0
LINE
  5
2E5
100
AcDbEntity
  8
0
100
AcDbLine
 62
4
  6
CONTINUOUS
 10
9.8385974789
 20
7.7295600467
 11
9.824108591
 21
7.7305648545
  0
LINE
  5
2E6
100
AcDbEntity
  8
0
100
AcDbLine
 62
4
  6
CONTINUOUS
 10
10.1428641254
 20
7.7084590831
 11
10.1935752332
 21
7.7049422558
  0
LINE
  5
2E7
100
AcDbEntity
  8
0
100
AcDbLine
 62
4
  6
CONTINUOUS
 10
10.0414419099
 20
7.7541297732
 11
10.0849085737
 21
7.7511153499
  0
LINE
  5
2E8
100
AcDbEntity
  8
0
100
AcDbLine
 62
4
  6
CONTINUOUS
 10
10.1428641254
 20
7.7760738911
 11
10.1935752332
 21
7.7725570638
  0
LINE
  5
2E9
100
AcDbEntity
  8
0
100
AcDbLine
 62
4
  6
CONTINUOUS
 10
10.1935752332
 20
7.8208533592
 11
10.1428641254
 21
7.8243701865
  0
LINE
  5
2EA
100
AcDbEntity
  8
0
100
AcDbLine
 62
4
  6
CONTINUOUS
 10
9.9545085824
 20
7.8374326878
 11
9.9400196944
 21
7.8384374956
  0
LINE
  5
2EB
100
AcDbEntity
  8
0
100
AcDbLine
 62
4
  6
CONTINUOUS
 10
9.824108591
 20
7.8464759579
 11
9.8385974789
 21
7.8454711501
  0
LINE
  5
2EC
100
AcDbEntity
  8
0
100
AcDbLine
 62
4
  6
CONTINUOUS
 10
10.226219786
 20
9.9282469553
 11
10.2282789968
 21
9.8959502746
  0
LINE
  5
2ED
100
AcDbEntity
  8
0
100
AcDbLine
 62
4
  6
CONTINUOUS
 10
10.026953022
 20
7.7164975454
 11
10.0631752418
 21
7.8298966294
  0
LINE
  5
2EE
100
AcDbEntity
  8
0
100
AcDbLine
 62
4
  6
CONTINUOUS
 10
9.7951308151
 20
7.8195077976
 11
9.8096197031
 21
7.8378215094
  0
LINE
  5
2EF
100
AcDbEntity
  8
0
100
AcDbLine
 62
4
  6
CONTINUOUS
 10
9.9255308065
 20
7.8297830471
 11
9.9182863625
 21
7.8206261877
  0
LINE
  5
2F0
100
AcDbEntity
  8
0
100
AcDbLine
 62
4
  6
CONTINUOUS
 10
9.8603308108
 20
7.7473713528
 11
9.8530863669
 21
7.7382144978
  0
LINE
  5
2F1
100
AcDbEntity
  8
0
100
AcDbLine
 62
4
  6
CONTINUOUS
 10
9.9762419142
 20
7.7393328905
 11
9.9689974703
 21
7.7301760355
  0
LINE
  5
2F2
100
AcDbEntity
  8
0
100
AcDbLine
 62
4
  6
CONTINUOUS
 10
12.0789888478
 20
9.9637417415
 11
12.068636095
 21
9.9537417495
  0
LINE
  5
2F3
100
AcDbEntity
  8
0
100
AcDbLine
 62
4
  6
CONTINUOUS
 10
13.4337124156
 20
10.0118042742
 11
13.4187034069
 21
10.004806684
  0
LINE
  5
2F4
100
AcDbEntity
  8
0
100
AcDbLine
 62
4
  6
CONTINUOUS
 10
10.5578891431
 20
10.0600435437
 11
10.5605427812
 21
10.0368924599
  0
LINE
  5
2F5
100
AcDbEntity
  8
0
100
AcDbLine
 62
4
  6
CONTINUOUS
 10
10.1935752332
 20
7.7725570638
 11
10.2008196771
 21
7.7817139232
  0
LINE
  5
2F6
100
AcDbEntity
  8
0
100
AcDbLine
 62
4
  6
CONTINUOUS
 10
10.1935752332
 20
7.7049422558
 11
10.2080641211
 21
7.7232559658
  0
LINE
  5
2F7
100
AcDbEntity
  8
0
100
AcDbLine
 62
4
  6
CONTINUOUS
 10
12.2052527037
 20
9.9657032707
 11
12.2000763284
 21
9.9607032758
  0
LINE
  5
2F8
100
AcDbEntity
  8
0
100
AcDbLine
 62
7
  6
CONTINUOUS
 10
9.6029890576
 20
7.3781863621
 11
9.506336702
 21
7.2848273501
  0
LINE
  5
2F9
100
AcDbEntity
  8
0
100
AcDbLine
 62
7
  6
CONTINUOUS
 10
9.9683876739
 20
7.5638088715
 11
9.8717353182
 21
7.4704498595
  0
LINE
  5
2FA
100
AcDbEntity
  8
0
100
AcDbLine
 62
7
  6
CONTINUOUS
 10
10.0255971193
 20
7.559841383
 11
9.9289447637
 21
7.4664823709
  0
LINE
  5
2FB
100
AcDbEntity
  8
0
100
AcDbLine
 62
4
  6
CONTINUOUS
 10
9.8096197031
 20
7.8378215094
 11
9.824108591
 21
7.8464759579
  0
LINE
  5
2FC
100
AcDbEntity
  8
0
100
AcDbLine
 62
4
  6
CONTINUOUS
 10
9.9400196944
 20
7.8384374956
 11
9.9255308065
 21
7.8297830471
  0
LINE
  5
2FD
100
AcDbEntity
  8
0
100
AcDbLine
 62
7
  6
CONTINUOUS
 10
12.7527322102
 20
10.0515278663
 11
12.7520331541
 21
10.0508653598
  0
LINE
  5
2FE
100
AcDbEntity
  8
0
100
AcDbLine
 62
4
  6
CONTINUOUS
 10
9.8530863669
 20
7.7382144978
 11
9.8385974789
 21
7.7295600467
  0
LINE
  5
2FF
100
AcDbEntity
  8
0
100
AcDbLine
 62
4
  6
CONTINUOUS
 10
9.9689974703
 20
7.7301760355
 11
9.9545085824
 21
7.7215215844
  0
LINE
  5
300
100
AcDbEntity
  8
0
100
AcDbLine
 62
7
  6
CONTINUOUS
 10
10.3909957356
 20
7.3235379134
 11
10.2943433799
 21
7.2301789014
  0
LINE
  5
301
100
AcDbEntity
  8
0
100
AcDbLine
 62
7
  6
CONTINUOUS
 10
10.4196004583
 20
7.2720093361
 11
10.3229481026
 21
7.178650324
  0
LINE
  5
302
100
AcDbEntity
  8
0
100
AcDbLine
 62
4
  6
CONTINUOUS
 10
9.9155127074
 20
9.7734841408
 11
9.9062001959
 21
9.7794889445
  0
LINE
  5
303
100
AcDbEntity
  8
0
100
AcDbLine
 62
4
  6
CONTINUOUS
 10
10.3018232541
 20
10.086988594
 11
10.3287205467
 21
10.0529693865
  0
LINE
  5
304
100
AcDbEntity
  8
0
100
AcDbLine
 62
4
  6
CONTINUOUS
 10
12.9512939305
 20
9.5013237604
 11
12.9202356715
 21
9.471323784
  0
LINE
  5
305
100
AcDbEntity
  8
0
100
AcDbLine
 62
4
  6
CONTINUOUS
 10
13.5025408405
 20
10.0257874325
 11
13.4973644652
 21
10.0207874377
  0
LINE
  5
306
100
AcDbEntity
  8
0
100
AcDbLine
 62
7
  6
CONTINUOUS
 10
10.4196004583
 20
6.8500833571
 11
10.3229481026
 21
6.7567243451
  0
LINE
  5
307
100
AcDbEntity
  8
0
100
AcDbLine
 62
7
  6
CONTINUOUS
 10
7.9381382124
 20
9.4309869052
 11
12.76776763
 21
9.0960509675
  0
LINE
  5
308
100
AcDbEntity
  8
0
100
AcDbLine
 62
4
  6
CONTINUOUS
 10
9.1492861969
 20
10.3303661582
 11
9.1539424514
 21
10.3273637551
  0
LINE
  5
309
100
AcDbEntity
  8
0
100
AcDbLine
 62
4
  6
CONTINUOUS
 10
9.9848612543
 20
9.7954696982
 11
9.9895175088
 21
9.7924672951
  0
LINE
  5
30A
100
AcDbEntity
  8
0
100
AcDbLine
 62
4
  6
CONTINUOUS
 10
10.4559955416
 20
9.9830504752
 11
10.4911722017
 21
9.9484570916
  0
LINE
  5
30B
100
AcDbEntity
  8
0
100
AcDbLine
 62
4
  6
CONTINUOUS
 10
12.0060242874
 20
9.9607633825
 11
12.0065444082
 21
9.9687657804
  0
LINE
  5
30C
100
AcDbEntity
  8
0
100
AcDbLine
 62
7
  6
CONTINUOUS
 10
10.3909957356
 20
6.8025222683
 11
10.2943433799
 21
6.7091632563
  0
LINE
  5
30D
100
AcDbEntity
  8
0
100
AcDbLine
 62
7
  6
CONTINUOUS
 10
12.76776763
 20
9.0960509675
 11
14.0618617876
 21
10.3460500099
  0
LINE
  5
30E
100
AcDbEntity
  8
0
100
AcDbLine
 62
4
  6
CONTINUOUS
 10
13.4973644652
 20
10.0207874377
 11
13.4875318318
 21
10.0187898423
  0
LINE
  5
30F
100
AcDbEntity
  8
0
100
AcDbLine
 62
4
  6
CONTINUOUS
 10
13.4533776797
 20
10.0157994622
 11
13.4337124156
 21
10.0118042742
  0
LINE
  5
310
100
AcDbEntity
  8
0
100
AcDbLine
 62
4
  6
CONTINUOUS
 10
13.4445852888
 20
10.0298066637
 11
13.4544179223
 21
10.031804259
  0
LINE
  5
311
100
AcDbEntity
  8
0
100
AcDbLine
 62
4
  6
CONTINUOUS
 10
9.927413407
 20
9.7699793349
 11
9.9155127074
 21
9.7734841408
  0
LINE
  5
312
100
AcDbEntity
  8
0
100
AcDbLine
 62
4
  6
CONTINUOUS
 10
9.972960554
 20
9.7989745034
 11
9.9848612543
 21
9.7954696982
  0
LINE
  5
313
100
AcDbEntity
  8
0
100
AcDbLine
 62
4
  6
CONTINUOUS
 10
10.1296272021
 20
9.9349456737
 11
10.1417490363
 21
9.9295116114
  0
LINE
  5
314
100
AcDbEntity
  8
0
100
AcDbLine
 62
4
  6
CONTINUOUS
 10
10.8321908419
 20
10.036427246
 11
10.8283484029
 21
10.0412871304
  0
LINE
  5
315
100
AcDbEntity
  8
0
100
AcDbLine
 62
4
  6
CONTINUOUS
 10
12.2000763284
 20
9.9607032758
 11
12.190243695
 21
9.9587056805
  0
LINE
  5
316
100
AcDbEntity
  8
0
100
AcDbLine
 62
4
  6
CONTINUOUS
 10
12.1560895429
 20
9.9557153003
 11
12.1364242788
 21
9.9517201123
  0
LINE
  5
317
100
AcDbEntity
  8
0
100
AcDbLine
 62
4
  6
CONTINUOUS
 10
12.147297152
 20
9.9697225018
 11
12.1571297854
 21
9.9717200972
  0
LINE
  5
318
100
AcDbEntity
  8
0
100
AcDbLine
 62
4
  6
CONTINUOUS
 10
12.068636095
 20
9.9537417495
 11
12.0588034627
 21
9.9517441553
  0
LINE
  5
319
100
AcDbEntity
  8
0
100
AcDbLine
 62
4
  6
CONTINUOUS
 10
12.0215534169
 20
9.9757633706
 11
12.041218682
 21
9.9797585595
  0
LINE
  5
31A
100
AcDbEntity
  8
0
100
AcDbLine
 62
4
  6
CONTINUOUS
 10
9.9419022949
 20
9.7689745271
 11
9.927413407
 21
9.7699793349
  0
LINE
  5
31B
100
AcDbEntity
  8
0
100
AcDbLine
 62
4
  6
CONTINUOUS
 10
9.9501869805
 20
9.7844769191
 11
9.9791647564
 21
9.7824673036
  0
LINE
  5
31C
100
AcDbEntity
  8
0
100
AcDbLine
 62
4
  6
CONTINUOUS
 10
9.9584716661
 20
9.7999793112
 11
9.972960554
 21
9.7989745034
  0
LINE
  5
31D
100
AcDbEntity
  8
0
100
AcDbLine
 62
4
  6
CONTINUOUS
 10
10.0042478896
 20
9.9252671165
 11
10.0424886423
 21
9.9164905637
  0
LINE
  5
31E
100
AcDbEntity
  8
0
100
AcDbLine
 62
4
  6
CONTINUOUS
 10
9.1373854967
 20
10.3338709634
 11
9.1492861969
 21
10.3303661582
  0
LINE
  5
31F
100
AcDbEntity
  8
0
100
AcDbLine
 62
4
  6
CONTINUOUS
 10
10.5877258967
 20
9.9731493747
 11
10.6005872072
 21
9.9684295988
  0
LINE
  5
320
100
AcDbEntity
  8
0
100
AcDbLine
 62
4
  6
CONTINUOUS
 10
10.1554483197
 20
10.0741726778
 11
10.1108034505
 21
10.0910490418
  0
LINE
  5
321
100
AcDbEntity
  8
0
100
AcDbLine
 62
4
  6
CONTINUOUS
 10
10.0908374264
 20
10.0717633423
 11
10.0968983441
 21
10.0690463109
  0
LINE
  5
322
100
AcDbEntity
  8
0
100
AcDbLine
 62
4
  6
CONTINUOUS
 10
10.5511742254
 20
9.8735574144
 11
10.5390523986
 21
9.8789914768
  0
LINE
  5
323
100
AcDbEntity
  8
0
100
AcDbLine
 62
4
  6
CONTINUOUS
 10
10.1841288815
 20
10.0675902633
 11
10.1962507152
 21
10.0621562005
  0
LINE
  5
324
100
AcDbEntity
  8
0
100
AcDbLine
 62
4
  6
CONTINUOUS
 10
10.6477667747
 20
9.8668586984
 11
10.6356449479
 21
9.8722927607
  0
LINE
  5
325
100
AcDbEntity
  8
0
100
AcDbLine
 62
4
  6
CONTINUOUS
 10
10.169353426
 20
10.0961754078
 11
10.1754143422
 21
10.0934583757
  0
LINE
  5
326
100
AcDbEntity
  8
0
100
AcDbLine
 62
4
  6
CONTINUOUS
 10
10.7036631432
 20
9.895136146
 11
10.7157849705
 21
9.8897020841
  0
LINE
  5
327
100
AcDbEntity
  8
0
100
AcDbLine
 62
4
  6
CONTINUOUS
 10
10.581215611
 20
9.9582894969
 11
10.5933374383
 21
9.952855435
  0
LINE
  5
328
100
AcDbEntity
  8
0
100
AcDbLine
 62
4
  6
CONTINUOUS
 10
10.7947361373
 20
9.8888202124
 11
10.8068579645
 21
9.8833861506
  0
LINE
  5
329
100
AcDbEntity
  8
0
100
AcDbLine
 62
4
  6
CONTINUOUS
 10
10.5164923126
 20
10.0629144237
 11
10.5225532253
 21
10.0601973919
  0
LINE
  5
32A
100
AcDbEntity
  8
0
100
AcDbLine
 62
4
  6
CONTINUOUS
 10
10.7455547418
 20
10.0470288903
 11
10.7488558492
 21
10.0445032516
  0
LINE
  5
32B
100
AcDbEntity
  8
0
100
AcDbLine
 62
4
  6
CONTINUOUS
 10
9.9688120035
 20
9.7724673116
 11
9.9589793712
 21
9.7704697174
  0
LINE
  5
32C
100
AcDbEntity
  8
0
100
AcDbLine
 62
4
  6
CONTINUOUS
 10
9.9217293255
 20
9.7944889327
 11
9.9413945905
 21
9.7984841216
  0
LINE
  5
32D
100
AcDbEntity
  8
0
100
AcDbLine
 62
4
  6
CONTINUOUS
 10
10.7846734937
 20
9.861957596
 11
10.7636778782
 21
9.8588202361
  0
LINE
  5
32E
100
AcDbEntity
  8
0
100
AcDbLine
 62
4
  6
CONTINUOUS
 10
10.6936004996
 20
9.8682735295
 11
10.6726048841
 21
9.8651361697
  0
LINE
  5
32F
100
AcDbEntity
  8
0
100
AcDbLine
 62
4
  6
CONTINUOUS
 10
10.6578294188
 20
9.8937213153
 11
10.6788250338
 21
9.8968586747
  0
LINE
  5
330
100
AcDbEntity
  8
0
100
AcDbLine
 62
4
  6
CONTINUOUS
 10
10.5612368694
 20
9.9004200314
 11
10.5822324845
 21
9.9035573908
  0
LINE
  5
331
100
AcDbEntity
  8
0
100
AcDbLine
 62
4
  6
CONTINUOUS
 10
11.1649363525
 20
9.9949776234
 11
11.1754341326
 21
9.9965463053
  0
LINE
  5
332
100
AcDbEntity
  8
0
100
AcDbLine
 62
4
  6
CONTINUOUS
 10
11.1435056006
 20
10.0171341984
 11
11.1540033814
 21
10.0187028809
  0
LINE
  5
333
100
AcDbEntity
  8
0
100
AcDbLine
 62
4
  6
CONTINUOUS
 10
10.586682097
 20
9.9464268686
 11
10.5656864815
 21
9.9432895087
  0
LINE
  5
334
100
AcDbEntity
  8
0
100
AcDbLine
 62
4
  6
CONTINUOUS
 10
11.0689912725
 20
10.0223017846
 11
11.0794890533
 21
10.0238704671
  0
LINE
  5
335
100
AcDbEntity
  8
0
100
AcDbLine
 62
4
  6
CONTINUOUS
 10
10.5939318655
 20
9.9620010319
 11
10.5729362504
 21
9.9588636725
  0
LINE
  5
336
100
AcDbEntity
  8
0
100
AcDbLine
 62
4
  6
CONTINUOUS
 10
10.1195645654
 20
9.9080830568
 11
10.098568943
 21
9.9049456974
  0
LINE
  5
337
100
AcDbEntity
  8
0
100
AcDbLine
 62
4
  6
CONTINUOUS
 10
13.4875318318
 20
10.0187898423
 11
13.4533776797
 21
10.0157994622
  0
LINE
  5
338
100
AcDbEntity
  8
0
100
AcDbLine
 62
4
  6
CONTINUOUS
 10
13.4544179223
 20
10.031804259
 11
13.4714949978
 21
10.0332994487
  0
LINE
  5
339
100
AcDbEntity
  8
0
100
AcDbLine
 62
4
  6
CONTINUOUS
 10
12.190243695
 20
9.9587056805
 11
12.1560895429
 21
9.9557153003
  0
LINE
  5
33A
100
AcDbEntity
  8
0
100
AcDbLine
 62
4
  6
CONTINUOUS
 10
12.0588034627
 20
9.9517441553
 11
12.0417263864
 21
9.950248965
  0
LINE
  5
33B
100
AcDbEntity
  8
0
100
AcDbLine
 62
4
  6
CONTINUOUS
 10
9.9589793712
 20
9.7704697174
 11
9.9419022949
 21
9.7689745271
  0
LINE
  5
33C
100
AcDbEntity
  8
0
100
AcDbLine
 62
4
  6
CONTINUOUS
 10
12.1571297854
 20
9.9717200972
 11
12.174206861
 21
9.9732152868
  0
LINE
  5
33D
100
AcDbEntity
  8
0
100
AcDbLine
 62
4
  6
CONTINUOUS
 10
12.041218682
 20
9.9797585595
 11
12.0582957576
 21
9.9812537491
  0
LINE
  5
33E
100
AcDbEntity
  8
0
100
AcDbLine
 62
4
  6
CONTINUOUS
 10
9.9413945905
 20
9.7984841216
 11
9.9584716661
 21
9.7999793112
  0
LINE
  5
33F
100
AcDbEntity
  8
0
100
AcDbLine
 62
4
  6
CONTINUOUS
 10
10.9674139371
 20
9.8584713242
 11
10.9173414699
 21
9.8558193141
  0
LINE
  5
340
100
AcDbEntity
  8
0
100
AcDbLine
 62
4
  6
CONTINUOUS
 10
10.0543203607
 20
9.9279191268
 11
10.0042478896
 21
9.9252671165
  0
LINE
  5
341
100
AcDbEntity
  8
0
100
AcDbLine
 62
4
  6
CONTINUOUS
 10
10.7636778782
 20
9.8588202361
 11
10.7222810476
 21
9.861691116
  0
LINE
  5
342
100
AcDbEntity
  8
0
100
AcDbLine
 62
4
  6
CONTINUOUS
 10
10.6726048841
 20
9.8651361697
 11
10.6477667747
 21
9.8668586984
  0
LINE
  5
343
100
AcDbEntity
  8
0
100
AcDbLine
 62
4
  6
CONTINUOUS
 10
10.5842916677
 20
9.871260712
 11
10.5511742254
 21
9.8735574144
  0
LINE
  5
344
100
AcDbEntity
  8
0
100
AcDbLine
 62
4
  6
CONTINUOUS
 10
10.098568943
 20
9.9049456974
 11
10.0571721263
 21
9.9078165764
  0
LINE
  5
345
100
AcDbEntity
  8
0
100
AcDbLine
 62
4
  6
CONTINUOUS
 10
10.3607488214
 20
9.8867634611
 11
10.4104250126
 21
9.8833184055
  0
LINE
  5
346
100
AcDbEntity
  8
0
100
AcDbLine
 62
4
  6
CONTINUOUS
 10
10.8271530405
 20
9.8544182186
 11
10.876829204
 21
9.850973165
  0
LINE
  5
347
100
AcDbEntity
  8
0
100
AcDbLine
 62
4
  6
CONTINUOUS
 10
10.1819570115
 20
9.9083495367
 11
10.2261136197
 21
9.9052872655
  0
LINE
  5
348
100
AcDbEntity
  8
0
100
AcDbLine
 62
4
  6
CONTINUOUS
 10
10.8780180602
 20
9.8692643606
 11
10.8449006179
 21
9.871561063
  0
LINE
  5
349
100
AcDbEntity
  8
0
100
AcDbLine
 62
4
  6
CONTINUOUS
 10
10.4116138688
 20
9.9016096011
 11
10.3784963989
 21
9.9039063055
  0
LINE
  5
34A
100
AcDbEntity
  8
0
100
AcDbLine
 62
4
  6
CONTINUOUS
 10
10.0882303853
 20
9.9378165527
 11
10.1296272021
 21
9.9349456737
  0
LINE
  5
34B
100
AcDbEntity
  8
0
100
AcDbLine
 62
4
  6
CONTINUOUS
 10
10.2924546983
 20
9.9236535485
 11
10.3586896106
 21
9.9190601418
  0
LINE
  5
34C
100
AcDbEntity
  8
0
100
AcDbLine
 62
4
  6
CONTINUOUS
 10
10.3918070805
 20
9.9167634374
 11
10.4414832717
 21
9.9133183819
  0
LINE
  5
34D
100
AcDbEntity
  8
0
100
AcDbLine
 62
4
  6
CONTINUOUS
 10
10.5822324845
 20
9.9035573908
 11
10.6153499268
 21
9.9012606884
  0
LINE
  5
34E
100
AcDbEntity
  8
0
100
AcDbLine
 62
4
  6
CONTINUOUS
 10
10.6788250338
 20
9.8968586747
 11
10.7036631432
 21
9.895136146
  0
LINE
  5
34F
100
AcDbEntity
  8
0
100
AcDbLine
 62
4
  6
CONTINUOUS
 10
10.7533393067
 20
9.8916910924
 11
10.7947361373
 21
9.8888202124
  0
LINE
  5
350
100
AcDbEntity
  8
0
100
AcDbLine
 62
4
  6
CONTINUOUS
 10
10.8582112995
 20
9.884418195
 11
10.907887463
 21
9.8809731413
  0
LINE
  5
351
100
AcDbEntity
  8
0
100
AcDbLine
 62
4
  6
CONTINUOUS
 10
10.5656864815
 20
9.9432895087
 11
10.5242896578
 21
9.9461603882
  0
LINE
  5
352
100
AcDbEntity
  8
0
100
AcDbLine
 62
4
  6
CONTINUOUS
 10
10.6153626726
 20
9.9398444532
 11
10.6567594893
 21
9.9369735742
  0
LINE
  5
353
100
AcDbEntity
  8
0
100
AcDbLine
 62
4
  6
CONTINUOUS
 10
10.5398187874
 20
9.9611603764
 11
10.581215611
 21
9.9582894969
  0
LINE
  5
354
100
AcDbEntity
  8
0
100
AcDbLine
 62
4
  6
CONTINUOUS
 10
10.5553479169
 20
9.9761603645
 11
10.5801860056
 21
9.9744378372
  0
LINE
  5
355
100
AcDbEntity
  8
0
100
AcDbLine
 62
4
  6
CONTINUOUS
 10
10.5283098482
 20
10.0314721371
 11
10.5448685694
 21
10.0303237859
  0
LINE
  5
356
100
AcDbEntity
  8
0
100
AcDbLine
 62
4
  6
CONTINUOUS
 10
11.0904221349
 20
10.000145202
 11
11.057304582
 21
10.0024419121
  0
LINE
  5
357
100
AcDbEntity
  8
0
100
AcDbLine
 62
4
  6
CONTINUOUS
 10
10.9551924773
 20
10.0095234106
 11
10.9386337562
 21
10.0106717618
  0
LINE
  5
358
100
AcDbEntity
  8
0
100
AcDbLine
 62
4
  6
CONTINUOUS
 10
10.8144432645
 20
10.0192844016
 11
10.7813258222
 21
10.021581104
  0
LINE
  5
359
100
AcDbEntity
  8
0
100
AcDbLine
 62
4
  6
CONTINUOUS
 10
10.6571353305
 20
10.0301937439
 11
10.6240178882
 21
10.0324904463
  0
LINE
  5
35A
100
AcDbEntity
  8
0
100
AcDbLine
 62
4
  6
CONTINUOUS
 10
10.0968983441
 20
10.0690463109
 11
10.1300158029
 21
10.0667496073
  0
LINE
  5
35B
100
AcDbEntity
  8
0
100
AcDbLine
 62
4
  6
CONTINUOUS
 10
10.1962507152
 20
10.0621562005
 11
10.2210888177
 21
10.0604336723
  0
LINE
  5
35C
100
AcDbEntity
  8
0
100
AcDbLine
 62
4
  6
CONTINUOUS
 10
10.8558400951
 20
10.0164135217
 11
10.8972369256
 21
10.0135426417
  0
LINE
  5
35D
100
AcDbEntity
  8
0
100
AcDbLine
 62
4
  6
CONTINUOUS
 10
11.1318189101
 20
9.9972743258
 11
11.1649363525
 21
9.9949776234
  0
LINE
  5
35E
100
AcDbEntity
  8
0
100
AcDbLine
 62
4
  6
CONTINUOUS
 10
10.7924180578
 20
10.0322953816
 11
10.8255355002
 21
10.0299986791
  0
LINE
  5
35F
100
AcDbEntity
  8
0
100
AcDbLine
 62
4
  6
CONTINUOUS
 10
12.0417263864
 20
9.950248965
 11
12.0272374985
 21
9.9512537728
  0
LINE
  5
360
100
AcDbEntity
  8
0
100
AcDbLine
 62
4
  6
CONTINUOUS
 10
12.12141527
 20
9.9447225222
 11
12.1793708217
 21
9.940703291
  0
LINE
  5
361
100
AcDbEntity
  8
0
100
AcDbLine
 62
4
  6
CONTINUOUS
 10
10.8283484029
 20
10.0412871304
 11
10.7869515723
 21
10.0441580103
  0
LINE
  5
362
100
AcDbEntity
  8
0
100
AcDbLine
 62
4
  6
CONTINUOUS
 10
10.475095482
 20
10.0657853036
 11
10.5164923126
 21
10.0629144237
  0
LINE
  5
363
100
AcDbEntity
  8
0
100
AcDbLine
 62
4
  6
CONTINUOUS
 10
10.6462023595
 20
10.0539190014
 11
10.6793198018
 21
10.0516222989
  0
LINE
  5
364
100
AcDbEntity
  8
0
100
AcDbLine
 62
4
  6
CONTINUOUS
 10
10.7124372994
 20
10.0493255927
 11
10.7455547418
 21
10.0470288903
  0
LINE
  5
365
100
AcDbEntity
  8
0
100
AcDbLine
 62
4
  6
CONTINUOUS
 10
11.0794890533
 20
10.0238704671
 11
11.1126066062
 21
10.021573757
  0
LINE
  5
366
100
AcDbEntity
  8
0
100
AcDbLine
 62
4
  6
CONTINUOUS
 10
11.1540033814
 20
10.0187028809
 11
11.1871208238
 21
10.0164061785
  0
LINE
  5
367
100
AcDbEntity
  8
0
100
AcDbLine
 62
4
  6
CONTINUOUS
 10
10.1362359681
 20
10.0984721113
 11
10.169353426
 21
10.0961754078
  0
LINE
  5
368
100
AcDbEntity
  8
0
100
AcDbLine
 62
4
  6
CONTINUOUS
 10
11.0359268999
 20
10.0360783333
 11
11.0386866776
 21
10.035886942
  0
LINE
  5
369
100
AcDbEntity
  8
0
100
AcDbLine
 62
4
  6
CONTINUOUS
 10
12.050011072
 20
9.9657513571
 11
12.0789888478
 21
9.9637417415
  0
LINE
  5
36A
100
AcDbEntity
  8
0
100
AcDbLine
 62
4
  6
CONTINUOUS
 10
11.1752891058
 20
10.0049776158
 11
11.1436506281
 21
10.0087028885
  0
LINE
  5
36B
100
AcDbEntity
  8
0
100
AcDbLine
 62
4
  6
CONTINUOUS
 10
10.5801860056
 20
9.9744378372
 11
10.5877258967
 21
9.9731493747
  0
LINE
  5
36C
100
AcDbEntity
  8
0
100
AcDbLine
 62
4
  6
CONTINUOUS
 10
10.9291731883
 20
9.8672478772
 11
10.9674139371
 21
9.8584713242
  0
LINE
  5
36D
100
AcDbEntity
  8
0
100
AcDbLine
 62
4
  6
CONTINUOUS
 10
10.6240178882
 20
10.0324904463
 11
10.6096776142
 21
10.0357816531
  0
LINE
  5
36E
100
AcDbEntity
  8
0
100
AcDbLine
 62
4
  6
CONTINUOUS
 10
10.7813258222
 20
10.021581104
 11
10.7669855482
 21
10.0248723108
  0
LINE
  5
36F
100
AcDbEntity
  8
0
100
AcDbLine
 62
4
  6
CONTINUOUS
 10
11.1436506281
 20
10.0087028885
 11
11.1368502598
 21
10.0107056324
  0
LINE
  5
370
100
AcDbEntity
  8
0
100
AcDbLine
 62
4
  6
CONTINUOUS
 10
11.1820894741
 20
10.0029748719
 11
11.1752891058
 21
10.0049776158
  0
LINE
  5
371
100
AcDbEntity
  8
0
100
AcDbLine
 62
4
  6
CONTINUOUS
 10
10.849779154
 20
10.0191305547
 11
10.8558400951
 21
10.0164135217
  0
LINE
  5
372
100
AcDbEntity
  8
0
100
AcDbLine
 62
4
  6
CONTINUOUS
 10
10.9386337562
 20
10.0106717618
 11
10.9325728151
 21
10.0133887948
  0
LINE
  5
373
100
AcDbEntity
  8
0
100
AcDbLine
 62
4
  6
CONTINUOUS
 10
11.057304582
 20
10.0024419121
 11
11.0512436962
 21
10.0051589413
  0
LINE
  5
374
100
AcDbEntity
  8
0
100
AcDbLine
 62
4
  6
CONTINUOUS
 10
11.1257580244
 20
9.9999913551
 11
11.1318189101
 21
9.9972743258
  0
LINE
  5
375
100
AcDbEntity
  8
0
100
AcDbLine
 62
4
  6
CONTINUOUS
 10
11.1871208238
 20
10.0164061785
 11
11.1931817088
 21
10.0136891486
  0
LINE
  5
376
100
AcDbEntity
  8
0
100
AcDbLine
 62
7
  6
CONTINUOUS
 10
12.76776763
 20
9.0960509675
 11
12.76776763
 21
6.3190140523
  0
LINE
  5
377
100
AcDbEntity
  8
0
100
AcDbLine
 62
4
  6
CONTINUOUS
 10
10.4249372825
 20
9.9530504988
 11
10.5222304608
 21
9.9784570679
  0
LINE
  5
378
100
AcDbEntity
  8
0
100
AcDbLine
 62
4
  6
CONTINUOUS
 10
10.2210888177
 20
10.0604336723
 11
10.2420844332
 21
10.0635710322
  0
LINE
  5
379
100
AcDbEntity
  8
0
100
AcDbLine
 62
4
  6
CONTINUOUS
 10
10.1300158029
 20
10.0667496073
 11
10.1510114253
 21
10.0698869667
  0
LINE
  5
37A
100
AcDbEntity
  8
0
100
AcDbLine
 62
4
  6
CONTINUOUS
 10
10.1152403444
 20
10.0953347525
 11
10.1362359681
 21
10.0984721113
  0
LINE
  5
37B
100
AcDbEntity
  8
0
100
AcDbLine
 62
4
  6
CONTINUOUS
 10
10.7736408897
 20
10.0313008775
 11
10.7924180578
 21
10.0322953816
  0
LINE
  5
37C
100
AcDbEntity
  8
0
100
AcDbLine
 62
4
  6
CONTINUOUS
 10
10.6274251905
 20
10.0529244964
 11
10.6462023595
 21
10.0539190014
  0
LINE
  5
37D
100
AcDbEntity
  8
0
100
AcDbLine
 62
4
  6
CONTINUOUS
 10
12.0582957576
 20
9.9812537491
 11
12.0727846455
 21
9.9802489414
  0
LINE
  5
37E
100
AcDbEntity
  8
0
100
AcDbLine
 62
4
  6
CONTINUOUS
 10
12.174206861
 20
9.9732152868
 11
12.1886957489
 21
9.972210479
  0
LINE
  5
37F
100
AcDbEntity
  8
0
100
AcDbLine
 62
4
  6
CONTINUOUS
 10
9.0701050177
 20
10.3063830066
 11
9.1280605695
 21
10.3023637754
  0
LINE
  5
380
100
AcDbEntity
  8
0
100
AcDbLine
 62
4
  6
CONTINUOUS
 10
13.4187034069
 20
10.004806684
 11
13.4766589586
 21
10.0007874528
  0
LINE
  5
381
100
AcDbEntity
  8
0
100
AcDbLine
 62
4
  6
CONTINUOUS
 10
9.1228966087
 20
10.3348757712
 11
9.1373854967
 21
10.3338709634
  0
LINE
  5
382
100
AcDbEntity
  8
0
100
AcDbLine
 62
4
  6
CONTINUOUS
 10
13.4714949978
 20
10.0332994487
 11
13.4859838858
 21
10.0322946409
  0
LINE
  5
383
100
AcDbEntity
  8
0
100
AcDbLine
 62
4
  6
CONTINUOUS
 10
12.0272374985
 20
9.9512537728
 11
12.0153367989
 21
9.9547585787
  0
LINE
  5
384
100
AcDbEntity
  8
0
100
AcDbLine
 62
4
  6
CONTINUOUS
 10
12.0727846455
 20
9.9802489414
 11
12.0846853458
 21
9.9767441361
  0
LINE
  5
385
100
AcDbEntity
  8
0
100
AcDbLine
 62
4
  6
CONTINUOUS
 10
12.1886957489
 20
9.972210479
 11
12.2005964492
 21
9.9687056738
  0
LINE
  5
386
100
AcDbEntity
  8
0
100
AcDbLine
 62
4
  6
CONTINUOUS
 10
12.0153367989
 20
9.9547585787
 11
12.0060242874
 21
9.9607633825
  0
LINE
  5
387
100
AcDbEntity
  8
0
100
AcDbLine
 62
4
  6
CONTINUOUS
 10
9.1389334427
 20
10.3203661649
 11
9.1047792906
 21
10.3173757847
  0
LINE
  5
388
100
AcDbEntity
  8
0
100
AcDbLine
 62
4
  6
CONTINUOUS
 10
9.1058195332
 20
10.3333805816
 11
9.1228966087
 21
10.3348757712
  0
LINE
  5
389
100
AcDbEntity
  8
0
100
AcDbLine
 62
4
  6
CONTINUOUS
 10
12.0846853458
 20
9.9767441361
 11
12.0893416003
 21
9.973741733
  0
LINE
  5
38A
100
AcDbEntity
  8
0
100
AcDbLine
 62
4
  6
CONTINUOUS
 10
12.2005964492
 20
9.9687056738
 11
12.2052527037
 21
9.9657032707
  0
LINE
  5
38B
100
AcDbEntity
  8
0
100
AcDbLine
 62
4
  6
CONTINUOUS
 10
9.1487660761
 20
10.3223637602
 11
9.1389334427
 21
10.3203661649
  0
LINE
  5
38C
100
AcDbEntity
  8
0
100
AcDbLine
 62
4
  6
CONTINUOUS
 10
9.1047792906
 20
10.3173757847
 11
9.0851140265
 21
10.3133805968
  0
LINE
  5
38D
100
AcDbEntity
  8
0
100
AcDbLine
 62
4
  6
CONTINUOUS
 10
9.0959868997
 20
10.3313829863
 11
9.1058195332
 21
10.3333805816
  0
LINE
  5
38E
100
AcDbEntity
  8
0
100
AcDbLine
 62
7
  6
CONTINUOUS
 10
9.23223237
 20
10.6809859477
 11
14.0618617876
 21
10.3460500099
  0
LINE
  5
38F
100
AcDbEntity
  8
0
100
AcDbLine
 62
4
  6
CONTINUOUS
 10
13.4859838858
 20
10.0322946409
 11
13.4978845861
 21
10.0287898356
  0
LINE
  5
390
100
AcDbEntity
  8
0
100
AcDbLine
 62
4
  6
CONTINUOUS
 10
13.4978845861
 20
10.0287898356
 11
13.5025408405
 21
10.0257874325
  0
LINE
  5
391
100
AcDbEntity
  8
0
100
AcDbLine
 62
7
  6
CONTINUOUS
 10
12.76776763
 20
6.3190140523
 11
14.0618617876
 21
7.5690130948
  0
LINE
  5
392
100
AcDbEntity
  8
0
100
AcDbLine
 62
7
  6
CONTINUOUS
 10
14.0618617876
 20
10.3460500099
 11
14.0618617876
 21
7.5690130948
  0
ARC
  5
393
100
AcDbEntity
  8
0
100
AcDbCircle
 62
7
  6
CONTINUOUS
 10
9.9545849237
 20
7.0475721635
 40
0.5163443539
100
AcDbArc
 50
25.7640228377
 51
32.3073428428
  0
ARC
  5
394
100
AcDbEntity
  8
0
100
AcDbCircle
 62
7
  6
CONTINUOUS
 10
9.9427475138
 20
7.0397774549
 40
0.5163443539
100
AcDbArc
 50
205.7640228377
 51
212.3073428428
  0
ARC
  5
395
100
AcDbEntity
  8
0
100
AcDbCircle
 62
7
  6
CONTINUOUS
 10
9.8579325681
 20
6.9542131515
 40
0.5163443539
100
AcDbArc
 50
25.7640228377
 51
32.3073428428
  0
ARC
  5
396
100
AcDbEntity
  8
0
100
AcDbCircle
 62
7
  6
CONTINUOUS
 10
9.9637927758
 20
7.0846167379
 40
0.4792267106
100
AcDbArc
 50
82.590107291
 51
86.0275106487
  0
ARC
  5
397
100
AcDbEntity
  8
0
100
AcDbCircle
 62
7
  6
CONTINUOUS
 10
9.9335396617
 20
7.0027328806
 40
0.4792267106
100
AcDbArc
 50
262.590107291
 51
266.0275106487
  0
ARC
  5
398
100
AcDbEntity
  8
0
100
AcDbCircle
 62
7
  6
CONTINUOUS
 10
9.8671404202
 20
6.9912577258
 40
0.4792267106
100
AcDbArc
 50
82.590107291
 51
86.0275106487
  0
ARC
  5
399
100
AcDbEntity
  8
0
100
AcDbCircle
 62
7
  6
CONTINUOUS
 10
9.9330972676
 20
6.9967859973
 40
0.4732634681
100
AcDbArc
 50
266.0310634489
 51
269.4972694561
  0
ARC
  5
39A
100
AcDbEntity
  8
0
100
AcDbCircle
 62
7
  6
CONTINUOUS
 10
9.8675828143
 20
6.9972046091
 40
0.4732634681
100
AcDbArc
 50
86.0310634489
 51
89.4972694561
  0
ARC
  5
39B
100
AcDbEntity
  8
0
100
AcDbCircle
 62
7
  6
CONTINUOUS
 10
9.9642739099
 20
7.0915558711
 40
0.4722709174
100
AcDbArc
 50
86.0274199487
 51
89.5009129563
  0
ARC
  5
39C
100
AcDbEntity
  8
0
100
AcDbCircle
 62
7
  6
CONTINUOUS
 10
11.5585475122
 20
8.144522046
 40
0.4466687
100
AcDbArc
 50
172.7542887723
 51
180.0157507753
  0
ARC
  5
39D
100
AcDbEntity
  8
0
100
AcDbCircle
 62
7
  6
CONTINUOUS
 10
10.0364555698
 20
7.0481362164
 40
0.4313060869
100
AcDbArc
 50
325.2870362755
 51
332.6649360488
  0
ARC
  5
39E
100
AcDbEntity
  8
0
100
AcDbCircle
 62
7
  6
CONTINUOUS
 10
9.8608768677
 20
7.0392134021
 40
0.4313060869
100
AcDbArc
 50
145.2870362755
 51
152.6649360488
  0
ARC
  5
39F
100
AcDbEntity
  8
0
100
AcDbCircle
 62
7
  6
CONTINUOUS
 10
9.9398032142
 20
6.9547772043
 40
0.4313060869
100
AcDbArc
 50
325.2870362755
 51
332.6649360488
  0
ARC
  5
3A0
100
AcDbEntity
  8
0
100
AcDbCircle
 62
7
  6
CONTINUOUS
 10
8.5943569753
 20
7.2388463958
 40
0.4283320577
100
AcDbArc
 50
312.4667075194
 51
313.131538866
  0
ARC
  5
3A1
100
AcDbEntity
  8
0
100
AcDbCircle
 62
7
  6
CONTINUOUS
 10
8.5058786661
 20
7.3304454525
 40
0.4283148542
100
AcDbArc
 50
134.5842866698
 51
135.5470096427
  0
ARC
  5
3A2
100
AcDbEntity
  8
0
100
AcDbCircle
 62
7
  6
CONTINUOUS
 10
11.5672871428
 20
8.1499806242
 40
0.4186659821
100
AcDbArc
 50
173.5480567965
 51
180.0124522951
  0
ARC
  5
3A3
100
AcDbEntity
  8
0
100
AcDbCircle
 62
7
  6
CONTINUOUS
 10
9.9950416776
 20
7.1567576936
 40
0.3815290645
100
AcDbArc
 50
111.990565072
 51
120.9428203508
  0
ARC
  5
3A4
100
AcDbEntity
  8
0
100
AcDbCircle
 62
7
  6
CONTINUOUS
 10
8.5557699273
 20
7.2637677277
 40
0.2928253144
100
AcDbArc
 50
349.3351665064
 51
0.0338997592
  0
SPLINE
  5
3A5
100
AcDbEntity
  8
0
100
AcDbSpline
 62
7
  6
CONTINUOUS
 70
0
 71
3
 72
20
 73
16
 74
0
 42
0.0000001
 43
0.0000001
 44
0.0000000001
 40
0.0
 40
0.0
 40
0.0
 40
0.0
 40
0.1307130444
 40
0.2609290879
 40
0.3256870374
 40
0.3901050986
 40
0.4540966361
 40
0.517574691
 40
0.5804573165
 40
0.6426728974
 40
0.7041645318
 40
0.7648928072
 40
0.8248367025
 40
0.8839927538
 40
1.0
 40
1.0
 40
1.0
 40
1.0
 10
9.4777319793
 20
7.2372662613
 30
0.0
 10
9.4765426941
 20
7.2189051197
 30
0.0
 10
9.4743853683
 20
7.1822381279
 30
0.0
 10
9.472338943
 20
7.1364370521
 30
0.0
 10
9.4711587943
 20
7.0999428188
 30
0.0
 10
9.4705169016
 20
7.0727590961
 30
0.0
 10
9.4701268916
 20
7.0457507535
 30
0.0
 10
9.4699953054
 20
7.0189560257
 30
0.0
 10
9.4701244451
 20
6.9924112671
 30
0.0
 10
9.4705121486
 20
6.9661486715
 30
0.0
 10
9.4711519891
 20
6.940194363
 30
0.0
 10
9.4720338022
 20
6.9145671357
 30
0.0
 10
9.473144506
 20
6.8892778854
 30
0.0
 10
9.4748988982
 20
6.8562295954
 30
0.0
 10
9.4765263034
 20
6.8316252904
 30
0.0
 10
9.4777319793
 20
6.8153402824
 30
0.0
  0
SPLINE
  5
3A6
100
AcDbEntity
  8
0
100
AcDbSpline
 62
7
  6
CONTINUOUS
 70
0
 71
3
 72
21
 73
17
 74
0
 42
0.0000001
 43
0.0000001
 44
0.0000000001
 40
0.0
 40
0.0
 40
0.0
 40
0.0
 40
0.1211316245
 40
0.1823736293
 40
0.2440533566
 40
0.3061457671
 40
0.3686121396
 40
0.431400593
 40
0.4944480865
 40
0.5576838397
 40
0.6210337674
 40
0.6844252162
 40
0.7477912094
 40
0.811073636
 40
0.8742251276
 40
1.0
 40
1.0
 40
1.0
 40
1.0
 10
9.506336702
 20
6.763811705
 30
0.0
 10
9.5201675582
 20
6.752933502
 30
0.0
 10
9.5411440186
 20
6.7367480765
 30
0.0
 10
9.5695527082
 20
6.7155380187
 30
0.0
 10
9.5912687921
 20
6.6997021618
 30
0.0
 10
9.613315686
 20
6.6840212754
 30
0.0
 10
9.6356862991
 20
6.668521097
 30
0.0
 10
9.6583661679
 20
6.6532274305
 30
0.0
 10
9.6813338013
 20
6.6381646166
 30
0.0
 10
9.7045616663
 20
6.6233540264
 30
0.0
 10
9.7280178071
 20
6.6088126874
 30
0.0
 10
9.751667863
 20
6.5945523152
 30
0.0
 10
9.7754771229
 20
6.5805788679
 30
0.0
 10
9.7994124338
 20
6.5668925969
 30
0.0
 10
9.8314093709
 20
6.5490454774
 30
0.0
 10
9.8555753979
 20
6.5360333327
 30
0.0
 10
9.8717353182
 20
6.5275082355
 30
0.0
  0
SPLINE
  5
3A7
100
AcDbEntity
  8
0
100
AcDbSpline
 62
7
  6
CONTINUOUS
 70
0
 71
3
 72
15
 73
11
 74
0
 42
0.0000001
 43
0.0000001
 44
0.0000000001
 40
0.0
 40
0.0
 40
0.0
 40
0.0
 40
0.1128138383
 40
0.2295637229
 40
0.3503753066
 40
0.4750618339
 40
0.60311002
 40
0.73378544
 40
0.8663079068
 40
1.0
 40
1.0
 40
1.0
 40
1.0
 10
9.9289447637
 20
6.5235407469
 30
0.0
 10
9.9429042554
 20
6.5300779402
 30
0.0
 10
9.9712633644
 20
6.5434809077
 30
0.0
 10
10.0143876064
 20
6.5642711142
 30
0.0
 10
10.0587938518
 20
6.5861339818
 30
0.0
 10
10.104392568
 20
6.6090656378
 30
0.0
 10
10.1510000024
 20
6.6329871966
 30
0.0
 10
10.198373085
 20
6.6577581717
 30
0.0
 10
10.2462600439
 20
6.683207735
 30
0.0
 10
10.2782824362
 20
6.700460866
 30
0.0
 10
10.2943433799
 20
6.7091632563
 30
0.0
  0
SPLINE
  5
3A8
100
AcDbEntity
  8
0
100
AcDbSpline
 62
7
  6
CONTINUOUS
 70
0
 71
3
 72
22
 73
18
 74
0
 42
0.0000001
 43
0.0000001
 44
0.0000000001
 40
0.0
 40
0.0
 40
0.0
 40
0.0
 40
0.0662652743
 40
0.1328051367
 40
0.1995364916
 40
0.2663370505
 40
0.3994351903
 40
0.4652808744
 40
0.5303098216
 40
0.594262539
 40
0.6569110682
 40
0.7180810003
 40
0.777662912
 40
0.8356126734
 40
0.8919431812
 40
0.9467104377
 40
1.0
 40
1.0
 40
1.0
 40
1.0
 10
10.4196004583
 20
6.8500833571
 30
0.0
 10
10.4205971121
 20
6.8593740112
 30
0.0
 10
10.4225107216
 20
6.8780029526
 30
0.0
 10
10.425105901
 20
6.9060198101
 30
0.0
 10
10.4273962816
 20
6.9341392122
 30
0.0
 10
10.4299894332
 20
6.9716473609
 30
0.0
 10
10.4318217425
 20
7.0090811296
 30
0.0
 10
10.4327644132
 20
7.046292933
 30
0.0
 10
10.4330041718
 20
7.0737655495
 30
0.0
 10
10.4327722437
 20
7.1007873977
 30
0.0
 10
10.4320749376
 20
7.1272569397
 30
0.0
 10
10.4309311207
 20
7.153094001
 30
0.0
 10
10.429369529
 20
7.1782452975
 30
0.0
 10
10.4274253738
 20
7.2026853089
 30
0.0
 10
10.4251369176
 20
7.2264134071
 30
0.0
 10
10.4225425427
 20
7.2494486604
 30
0.0
 10
10.420608092
 20
7.2645629274
 30
0.0
 10
10.4196004583
 20
7.2720093361
 30
0.0
  0
SPLINE
  5
3A9
100
AcDbEntity
  8
0
100
AcDbSpline
 62
7
  6
CONTINUOUS
 70
0
 71
3
 72
22
 73
18
 74
0
 42
0.0000001
 43
0.0000001
 44
0.0000000001
 40
0.0
 40
0.0
 40
0.0
 40
0.0
 40
0.0578996962
 40
0.1168101933
 40
0.1767600489
 40
0.2377470615
 40
0.2997283629
 40
0.3626113545
 40
0.4262509392
 40
0.4904549087
 40
0.5549987336
 40
0.6196477114
 40
0.6841805087
 40
0.7484081384
 40
0.8121847207
 40
0.8754100196
 40
1.0
 40
1.0
 40
1.0
 40
1.0
 10
10.3909957356
 20
7.3235379134
 30
0.0
 10
10.3847419414
 20
7.3291993591
 30
0.0
 10
10.3720350715
 20
7.340522075
 30
0.0
 10
10.3525193589
 20
7.35732777
 30
0.0
 10
10.3323533803
 20
7.3740614212
 30
0.0
 10
10.311513792
 20
7.3906762835
 30
0.0
 10
10.2899941876
 20
7.4071147677
 30
0.0
 10
10.267810214
 20
7.42330982
 30
0.0
 10
10.245002741
 20
7.439188401
 30
0.0
 10
10.2216377518
 20
7.4546770527
 30
0.0
 10
10.1978023189
 20
7.469708946
 30
0.0
 10
10.173596628
 20
7.4842301477
 30
0.0
 10
10.1491244699
 20
7.4982045842
 30
0.0
 10
10.1244839629
 20
7.5116155563
 30
0.0
 10
10.0997605647
 20
7.5244647463
 30
0.0
 10
10.0669392247
 20
7.5407901091
 30
0.0
 10
10.04214492
 20
7.5523798336
 30
0.0
 10
10.0255971193
 20
7.559841383
 30
0.0
  0
SPLINE
  5
3AA
100
AcDbEntity
  8
0
100
AcDbSpline
 62
7
  6
CONTINUOUS
 70
0
 71
3
 72
15
 73
11
 74
0
 42
0.0000001
 43
0.0000001
 44
0.0000000001
 40
0.0
 40
0.0
 40
0.0
 40
0.0
 40
0.1024613676
 40
0.2125928618
 40
0.3308785969
 40
0.4568383157
 40
0.5888655796
 40
0.7247022368
 40
0.8622377903
 40
1.0
 40
1.0
 40
1.0
 40
1.0
 10
9.9683876739
 20
7.5638088715
 30
0.0
 10
9.9555438926
 20
7.5582273162
 30
0.0
 10
9.9289760069
 20
7.5464585881
 30
0.0
 10
9.8879024022
 20
7.5275300174
 30
0.0
 10
9.8442327938
 20
7.5065742899
 30
0.0
 10
9.7982159482
 20
7.4836070966
 30
0.0
 10
9.7504073825
 20
7.4588714902
 30
0.0
 10
9.7015239773
 20
7.4327810837
 30
0.0
 10
9.6522364113
 20
7.4057910236
 30
0.0
 10
9.6193922447
 20
7.3874311587
 30
0.0
 10
9.6029890576
 20
7.3781863621
 30
0.0
  0
SPLINE
  5
3AB
100
AcDbEntity
  8
0
100
AcDbSpline
 62
7
  6
CONTINUOUS
 70
0
 71
3
 72
71
 73
67
 74
0
 42
0.0000001
 43
0.0000001
 44
0.0000000001
 40
0.0
 40
0.0
 40
0.0
 40
0.0
 40
0.0156216706
 40
0.0311907745
 40
0.0467067129
 40
0.0621710762
 40
0.0775850548
 40
0.0929506339
 40
0.1082702304
 40
0.1235467312
 40
0.1387834665
 40
0.1539841688
 40
0.1691529583
 40
0.18429428
 40
0.1994128679
 40
0.2145137035
 40
0.2296019564
 40
0.2446829193
 40
0.2597619759
 40
0.2748445272
 40
0.2899359312
 40
0.3050414546
 40
0.3201662202
 40
0.3353151335
 40
0.3504928522
 40
0.365703735
 40
0.3809517875
 40
0.3962406261
 40
0.4115734583
 40
0.4269530346
 40
0.4423816308
 40
0.4578610394
 40
0.4733925444
 40
0.4889769098
 40
0.5046143965
 40
0.520304754
 40
0.5360472182
 40
0.5518405387
 40
0.5676829933
 40
0.5835723969
 40
0.5995061365
 40
0.615481204
 40
0.6314942052
 40
0.6475414082
 40
0.6636187847
 40
0.6797220354
 40
0.695846625
 40
0.7119878439
 40
0.7281408301
 40
0.744300616
 40
0.7604621807
 40
0.7766204909
 40
0.7927705277
 40
0.8089073567
 40
0.8250261591
 40
0.8411222663
 40
0.8571912088
 40
0.8732287682
 40
0.8892309912
 40
0.9051942477
 40
0.9211152546
 40
0.9369911073
 40
0.9528193701
 40
0.9685977523
 40
0.9843253342
 40
1.0
 40
1.0
 40
1.0
 40
1.0
 10
9.8915237227
 20
6.5731312633
 30
0.0
 10
9.8983075408
 20
6.572660804
 30
0.0
 10
9.9118776456
 20
6.5720517182
 30
0.0
 10
9.9322167438
 20
6.5721397563
 30
0.0
 10
9.9524587519
 20
6.5732309256
 30
0.0
 10
9.9725540229
 20
6.5753224549
 30
0.0
 10
9.992454498
 20
6.5784095058
 30
0.0
 10
10.0121120847
 20
6.5824846447
 30
0.0
 10
10.0314794318
 20
6.5875380925
 30
0.0
 10
10.0505098429
 20
6.5935577092
 30
0.0
 10
10.0691574308
 20
6.6005290228
 30
0.0
 10
10.0873772187
 20
6.6084352823
 30
0.0
 10
10.1051252529
 20
6.6172574724
 30
0.0
 10
10.1223587301
 20
6.6269743303
 30
0.0
 10
10.1390360801
 20
6.6375624419
 30
0.0
 10
10.1551170696
 20
6.6489962949
 30
0.0
 10
10.1705628941
 20
6.6612483384
 30
0.0
 10
10.1853362814
 20
6.6742890394
 30
0.0
 10
10.1994016076
 20
6.6880869294
 30
0.0
 10
10.2127249537
 20
6.7026087232
 30
0.0
 10
10.2252741874
 20
6.71781939
 30
0.0
 10
10.237019039
 20
6.7336822453
 30
0.0
 10
10.2479311882
 20
6.7501590221
 30
0.0
 10
10.2579843596
 20
6.7672099555
 30
0.0
 10
10.2671543398
 20
6.7847939096
 30
0.0
 10
10.2754190495
 20
6.8028684708
 30
0.0
 10
10.2827585802
 20
6.8213900506
 30
0.0
 10
10.2891552729
 20
6.8403139806
 30
0.0
 10
10.2945937712
 20
6.8595946217
 30
0.0
 10
10.2990610197
 20
6.8791854889
 30
0.0
 10
10.3025462965
 20
6.8990393593
 30
0.0
 10
10.3050412353
 20
6.9191083855
 30
0.0
 10
10.3065398717
 20
6.9393442038
 30
0.0
 10
10.3070386681
 20
6.9596980552
 30
0.0
 10
10.3065364735
 20
6.9801209087
 30
0.0
 10
10.3050345447
 20
7.0005635746
 30
0.0
 10
10.3025365235
 20
7.0209768177
 30
0.0
 10
10.2990484736
 20
7.0413114802
 30
0.0
 10
10.2945788537
 20
7.0615186037
 30
0.0
 10
10.2891384693
 20
7.0815495402
 30
0.0
 10
10.2827404485
 20
7.101356069
 30
0.0
 10
10.2754002092
 20
7.1208905063
 30
0.0
 10
10.267135457
 20
7.1401058323
 30
0.0
 10
10.2579661314
 20
7.1589558031
 30
0.0
 10
10.2479143275
 20
7.1773950527
 30
0.0
 10
10.2370042576
 20
7.1953792009
 30
0.0
 10
10.2252621803
 20
7.2128649521
 30
0.0
 10
10.2127163814
 20
7.2298102256
 30
0.0
 10
10.199397081
 20
7.2461742471
 30
0.0
 10
10.185336347
 20
7.2619176312
 30
0.0
 10
10.1705680213
 20
7.277002481
 30
0.0
 10
10.1551276388
 20
7.2913924691
 30
0.0
 10
10.1390523732
 20
7.305052962
 30
0.0
 10
10.122380924
 20
7.3179510811
 30
0.0
 10
10.1051534145
 20
7.3300557729
 30
0.0
 10
10.087411303
 20
7.3413378805
 30
0.0
 10
10.0691972794
 20
7.3517702116
 30
0.0
 10
10.0505551885
 20
7.3613276441
 30
0.0
 10
10.0315299037
 20
7.3699871627
 30
0.0
 10
10.0121672144
 20
7.3777278903
 30
0.0
 10
9.9925137291
 20
7.384531155
 30
0.0
 10
9.9726167208
 20
7.3903805431
 30
0.0
 10
9.9525242107
 20
7.395261873
 30
0.0
 10
9.9322842234
 20
7.3991635487
 30
0.0
 10
9.9119463446
 20
7.4020758239
 30
0.0
 10
9.8983305544
 20
7.4033554678
 30
0.0
 10
9.8915237227
 20
7.4038275232
 30
0.0
  0
SPLINE
  5
3AC
100
AcDbEntity
  8
0
100
AcDbSpline
 62
7
  6
CONTINUOUS
 70
0
 71
3
 72
71
 73
67
 74
0
 42
0.0000001
 43
0.0000001
 44
0.0000000001
 40
0.0
 40
0.0
 40
0.0
 40
0.0
 40
0.0156216706
 40
0.0311907745
 40
0.0467067129
 40
0.0621710762
 40
0.0775850548
 40
0.0929506339
 40
0.1082702304
 40
0.1235467312
 40
0.1387834665
 40
0.1539841688
 40
0.1691529583
 40
0.18429428
 40
0.1994128679
 40
0.2145137035
 40
0.2296019564
 40
0.2446829193
 40
0.2597619759
 40
0.2748445272
 40
0.2899359312
 40
0.3050414546
 40
0.3201662202
 40
0.3353151335
 40
0.3504928522
 40
0.365703735
 40
0.3809517875
 40
0.3962406261
 40
0.4115734583
 40
0.4269530346
 40
0.4423816308
 40
0.4578610394
 40
0.4733925444
 40
0.4889769098
 40
0.5046143965
 40
0.520304754
 40
0.5360472182
 40
0.5518405387
 40
0.5676829933
 40
0.5835723969
 40
0.5995061365
 40
0.615481204
 40
0.6314942052
 40
0.6475414082
 40
0.6636187847
 40
0.6797220354
 40
0.695846625
 40
0.7119878439
 40
0.7281408301
 40
0.744300616
 40
0.7604621807
 40
0.7766204909
 40
0.7927705277
 40
0.8089073567
 40
0.8250261591
 40
0.8411222663
 40
0.8571912088
 40
0.8732287682
 40
0.8892309912
 40
0.9051942477
 40
0.9211152546
 40
0.9369911073
 40
0.9528193701
 40
0.9685977523
 40
0.9843253342
 40
1.0
 40
1.0
 40
1.0
 40
1.0
 10
9.8915237227
 20
7.4038275232
 30
0.0
 10
9.8847399046
 20
7.4042979825
 30
0.0
 10
9.8711697998
 20
7.4049070683
 30
0.0
 10
9.8508307017
 20
7.4048190302
 30
0.0
 10
9.8305886936
 20
7.4037278609
 30
0.0
 10
9.8104934226
 20
7.4016363316
 30
0.0
 10
9.7905929475
 20
7.3985492807
 30
0.0
 10
9.7709353608
 20
7.3944741418
 30
0.0
 10
9.7515680137
 20
7.389420694
 30
0.0
 10
9.7325376026
 20
7.3834010773
 30
0.0
 10
9.7138900147
 20
7.3764297637
 30
0.0
 10
9.6956702267
 20
7.3685235042
 30
0.0
 10
9.6779221925
 20
7.3597013141
 30
0.0
 10
9.6606887153
 20
7.3499844562
 30
0.0
 10
9.6440113654
 20
7.3393963446
 30
0.0
 10
9.6279303759
 20
7.3279624916
 30
0.0
 10
9.6124845514
 20
7.3157104481
 30
0.0
 10
9.5977111641
 20
7.3026697471
 30
0.0
 10
9.5836458378
 20
7.2888718571
 30
0.0
 10
9.5703224918
 20
7.2743500633
 30
0.0
 10
9.557773258
 20
7.2591393965
 30
0.0
 10
9.5460284065
 20
7.2432765412
 30
0.0
 10
9.5351162573
 20
7.2267997644
 30
0.0
 10
9.5250630859
 20
7.209748831
 30
0.0
 10
9.5158931057
 20
7.1921648769
 30
0.0
 10
9.507628396
 20
7.1740903157
 30
0.0
 10
9.5002888653
 20
7.1555687359
 30
0.0
 10
9.4938921725
 20
7.1366448059
 30
0.0
 10
9.4884536743
 20
7.1173641648
 30
0.0
 10
9.4839864258
 20
7.0977732976
 30
0.0
 10
9.480501149
 20
7.0779194272
 30
0.0
 10
9.4780062102
 20
7.057850401
 30
0.0
 10
9.4765075738
 20
7.0376145827
 30
0.0
 10
9.4760087774
 20
7.0172607313
 30
0.0
 10
9.476510972
 20
6.9968378778
 30
0.0
 10
9.4780129007
 20
6.9763952119
 30
0.0
 10
9.4805109219
 20
6.9559819688
 30
0.0
 10
9.4839989718
 20
6.9356473063
 30
0.0
 10
9.4884685918
 20
6.9154401828
 30
0.0
 10
9.4939089762
 20
6.8954092463
 30
0.0
 10
9.500306997
 20
6.8756027176
 30
0.0
 10
9.5076472363
 20
6.8560682802
 30
0.0
 10
9.5159119884
 20
6.8368529542
 30
0.0
 10
9.525081314
 20
6.8180029834
 30
0.0
 10
9.535133118
 20
6.7995637338
 30
0.0
 10
9.5460431879
 20
6.7815795856
 30
0.0
 10
9.5577852651
 20
6.7640938344
 30
0.0
 10
9.5703310641
 20
6.7471485609
 30
0.0
 10
9.5836503645
 20
6.7307845394
 30
0.0
 10
9.5977110985
 20
6.7150411553
 30
0.0
 10
9.6124794242
 20
6.6999563055
 30
0.0
 10
9.6279198067
 20
6.6855663174
 30
0.0
 10
9.6439950723
 20
6.6719058245
 30
0.0
 10
9.6606665215
 20
6.6590077054
 30
0.0
 10
9.677894031
 20
6.6469030136
 30
0.0
 10
9.6956361425
 20
6.635620906
 30
0.0
 10
9.7138501661
 20
6.6251885749
 30
0.0
 10
9.732492257
 20
6.6156311424
 30
0.0
 10
9.7515175418
 20
6.6069716238
 30
0.0
 10
9.770880231
 20
6.5992308962
 30
0.0
 10
9.7905337164
 20
6.5924276316
 30
0.0
 10
9.8104307246
 20
6.5865782434
 30
0.0
 10
9.8305232347
 20
6.5816969135
 30
0.0
 10
9.8507632221
 20
6.5777952378
 30
0.0
 10
9.8711011009
 20
6.5748829626
 30
0.0
 10
9.8847168911
 20
6.5736033187
 30
0.0
 10
9.8915237227
 20
6.5731312633
 30
0.0
  0
SPLINE
  5
3AD
100
AcDbEntity
  8
0
100
AcDbSpline
 62
7
  6
CONTINUOUS
 70
0
 71
3
 72
20
 73
16
 74
0
 42
0.0000001
 43
0.0000001
 44
0.0000000001
 40
0.0
 40
0.0
 40
0.0
 40
0.0
 40
0.1160072463
 40
0.1751632975
 40
0.2351071928
 40
0.2958354683
 40
0.3573271027
 40
0.4195426835
 40
0.482425309
 40
0.5459033639
 40
0.6098949014
 40
0.6743129626
 40
0.7390709121
 40
0.8692869556
 40
1.0
 40
1.0
 40
1.0
 40
1.0
 10
10.3229481026
 20
6.7567243451
 30
0.0
 10
10.3217424268
 20
6.7730093532
 30
0.0
 10
10.3201150216
 20
6.7976136581
 30
0.0
 10
10.3183606294
 20
6.8306619481
 30
0.0
 10
10.3172499256
 20
6.8559511985
 30
0.0
 10
10.3163681125
 20
6.8815784258
 30
0.0
 10
10.315728272
 20
6.9075327343
 30
0.0
 10
10.3153405685
 20
6.9337953299
 30
0.0
 10
10.3152114288
 20
6.9603400885
 30
0.0
 10
10.3153430149
 20
6.9871348163
 30
0.0
 10
10.315733025
 20
7.0141431588
 30
0.0
 10
10.3163749177
 20
7.0413268816
 30
0.0
 10
10.3175550664
 20
7.0778211148
 30
0.0
 10
10.3196014917
 20
7.1236221906
 30
0.0
 10
10.3217588175
 20
7.1602891824
 30
0.0
 10
10.3229481026
 20
7.178650324
 30
0.0
  0
SPLINE
  5
3AE
100
AcDbEntity
  8
0
100
AcDbSpline
 62
7
  6
CONTINUOUS
 70
0
 71
3
 72
21
 73
17
 74
0
 42
0.0000001
 43
0.0000001
 44
0.0000000001
 40
0.0
 40
0.0
 40
0.0
 40
0.0
 40
0.1257748724
 40
0.188926364
 40
0.2522087907
 40
0.3155747839
 40
0.3789662327
 40
0.4423161603
 40
0.5055519135
 40
0.5685994071
 40
0.6313878604
 40
0.6938542329
 40
0.7559466435
 40
0.8176263707
 40
0.8788683755
 40
1.0
 40
1.0
 40
1.0
 40
1.0
 10
10.2943433799
 20
7.2301789014
 30
0.0
 10
10.2781834596
 20
7.2387039986
 30
0.0
 10
10.2540174326
 20
7.2517161433
 30
0.0
 10
10.2220204955
 20
7.2695632628
 30
0.0
 10
10.1980851846
 20
7.2832495338
 30
0.0
 10
10.1742759247
 20
7.2972229811
 30
0.0
 10
10.1506258688
 20
7.3114833533
 30
0.0
 10
10.127169728
 20
7.3260246923
 30
0.0
 10
10.103941863
 20
7.3408352825
 30
0.0
 10
10.0809742295
 20
7.3558980965
 30
0.0
 10
10.0582943608
 20
7.3711917629
 30
0.0
 10
10.0359237477
 20
7.3866919413
 30
0.0
 10
10.0138768538
 20
7.4023728278
 30
0.0
 10
9.9921607699
 20
7.4182086846
 30
0.0
 10
9.9637520802
 20
7.4394187424
 30
0.0
 10
9.9427756199
 20
7.455604168
 30
0.0
 10
9.9289447637
 20
7.4664823709
 30
0.0
  0
SPLINE
  5
3AF
100
AcDbEntity
  8
0
100
AcDbSpline
 62
7
  6
CONTINUOUS
 70
0
 71
3
 72
15
 73
11
 74
0
 42
0.0000001
 43
0.0000001
 44
0.0000000001
 40
0.0
 40
0.0
 40
0.0
 40
0.0
 40
0.1336920932
 40
0.2662145601
 40
0.39688998
 40
0.5249381662
 40
0.6496246935
 40
0.7704362771
 40
0.8871861617
 40
1.0
 40
1.0
 40
1.0
 40
1.0
 10
9.8717353182
 20
7.4704498595
 30
0.0
 10
9.8556743745
 20
7.4617474692
 30
0.0
 10
9.8236519822
 20
7.4444943381
 30
0.0
 10
9.7757650233
 20
7.4190447748
 30
0.0
 10
9.7283919407
 20
7.3942737997
 30
0.0
 10
9.6817845063
 20
7.3703522409
 30
0.0
 10
9.6361857901
 20
7.3474205849
 30
0.0
 10
9.5917795447
 20
7.3255577174
 30
0.0
 10
9.5486553027
 20
7.3047675109
 30
0.0
 10
9.5202961938
 20
7.2913645433
 30
0.0
 10
9.506336702
 20
7.2848273501
 30
0.0
  0
SPLINE
  5
3B0
100
AcDbEntity
  8
0
100
AcDbSpline
 62
7
  6
CONTINUOUS
 70
0
 71
3
 72
23
 73
19
 74
0
 42
0.0000001
 43
0.0000001
 44
0.0000000001
 40
0.0
 40
0.0
 40
0.0
 40
0.0
 40
0.0637771735
 40
0.1273448473
 40
0.1907019822
 40
0.253856143
 40
0.3168131975
 40
0.3795820985
 40
0.4421733906
 40
0.5045993374
 40
0.5668738654
 40
0.62901238
 40
0.6910316489
 40
0.7529496402
 40
0.814785347
 40
0.8765585971
 40
0.938289852
 40
1.0
 40
1.0
 40
1.0
 40
1.0
 10
9.0170774243
 20
7.243682332
 30
0.0
 10
9.0170774243
 20
7.2360913445
 30
0.0
 10
9.0167140884
 20
7.2209317325
 30
0.0
 10
9.0150741677
 20
7.1982845272
 30
0.0
 10
9.0123436951
 20
7.1758168586
 30
0.0
 10
9.0085291828
 20
7.1535814365
 30
0.0
 10
9.0036391806
 20
7.1316291275
 30
0.0
 10
8.9976849673
 20
7.1100106729
 30
0.0
 10
8.9906802242
 20
7.0887758781
 30
0.0
 10
8.9826410604
 20
7.0679737129
 30
0.0
 10
8.9735859709
 20
7.0476521516
 30
0.0
 10
8.9635357775
 20
7.0278580737
 30
0.0
 10
8.9525136158
 20
7.0086371515
 30
0.0
 10
8.9405448874
 20
6.990033706
 30
0.0
 10
8.9276572174
 20
6.9720906908
 30
0.0
 10
8.9138801593
 20
6.9548493639
 30
0.0
 10
8.8992460244
 20
6.9383500382
 30
0.0
 10
8.8889390631
 20
6.9278686415
 30
0.0
 10
8.8836561563
 20
6.9227657627
 30
0.0
  0
SPLINE
  5
3B1
100
AcDbEntity
  8
0
100
AcDbSpline
 62
7
  6
CONTINUOUS
 70
0
 71
3
 72
58
 73
54
 74
0
 42
0.0000001
 43
0.0000001
 44
0.0000000001
 40
0.0
 40
0.0
 40
0.0
 40
0.0
 40
0.0081223305
 40
0.0169168975
 40
0.0264087397
 40
0.0366143893
 40
0.0475415919
 40
0.0591912278
 40
0.0715586516
 40
0.0846347975
 40
0.0984066254
 40
0.112857697
 40
0.1279687991
 40
0.1437179559
 40
0.1600810137
 40
0.1770317001
 40
0.2125802303
 40
0.2501202969
 40
0.2893844218
 40
0.3300865608
 40
0.3719257492
 40
0.4145895607
 40
0.4577574053
 40
0.5011037527
 40
0.5443013266
 40
0.587024304
 40
0.6289515139
 40
0.6697696572
 40
0.7091765902
 40
0.7468847529
 40
0.7826248208
 40
0.7996793841
 40
0.8161512809
 40
0.8320139346
 40
0.8472427441
 40
0.8618153344
 40
0.8757119895
 40
0.8889156785
 40
0.9014127874
 40
0.9131934095
 40
0.9242520347
 40
0.9345886083
 40
0.9442093599
 40
0.953128682
 40
0.9613709503
 40
0.9689732053
 40
0.9759886321
 40
0.9824900189
 40
0.9885734021
 40
0.9914974267
 40
0.9943641369
 40
0.9971919109
 40
1.0
 40
1.0
 40
1.0
 40
1.0
 10
13.3765558853
 20
10.2930952774
 30
0.0
 10
13.375735445
 20
10.2923027929
 30
0.0
 10
13.3739492662
 20
10.2907313511
 30
0.0
 10
13.3709843716
 20
10.2884986236
 30
0.0
 10
13.3676360577
 20
10.2863032523
 30
0.0
 10
13.3639111211
 20
10.2841494652
 30
0.0
 10
13.3598165561
 20
10.2820411264
 30
0.0
 10
13.3553603022
 20
10.2799824518
 30
0.0
 10
13.3505511392
 20
10.2779774484
 30
0.0
 10
13.3453985741
 20
10.2760301694
 30
0.0
 10
13.3399128639
 20
10.2741445484
 30
0.0
 10
13.3341049851
 20
10.2723243767
 30
0.0
 10
13.3279865786
 20
10.2705734032
 30
0.0
 10
13.321569955
 20
10.2688951508
 30
0.0
 10
13.3148680209
 20
10.2672930305
 30
0.0
 10
13.3054192297
 20
10.2652300491
 30
0.0
 10
13.2929920692
 20
10.2628783128
 30
0.0
 10
13.2773992267
 20
10.2604490395
 30
0.0
 10
13.2610236351
 20
10.2583899225
 30
0.0
 10
13.2439974983
 20
10.2567179036
 30
0.0
 10
13.2264581569
 20
10.2554467877
 30
0.0
 10
13.2085472653
 20
10.2545870402
 30
0.0
 10
13.1904095143
 20
10.2541457403
 30
0.0
 10
13.1721914657
 20
10.2541265227
 30
0.0
 10
13.1540403399
 20
10.2545295488
 30
0.0
 10
13.136102809
 20
10.255351497
 30
0.0
 10
13.1185237825
 20
10.2565855982
 30
0.0
 10
13.1014452401
 20
10.2582216914
 30
0.0
 10
13.085004958
 20
10.2602462685
 30
0.0
 10
13.0693356752
 20
10.2626426787
 30
0.0
 10
13.0568373251
 20
10.2649677306
 30
0.0
 10
13.0473260079
 20
10.2670101694
 30
0.0
 10
13.0405736354
 20
10.268598096
 30
0.0
 10
13.0341041582
 20
10.2702627429
 30
0.0
 10
13.0279305956
 20
10.2720007589
 30
0.0
 10
13.0220653705
 20
10.2738086242
 30
0.0
 10
13.0165202445
 20
10.2756826156
 30
0.0
 10
13.0113063237
 20
10.2776189851
 30
0.0
 10
13.006433991
 20
10.279613782
 30
0.0
 10
13.0019129001
 20
10.2816630028
 30
0.0
 10
12.9977519554
 20
10.2837626136
 30
0.0
 10
12.9939592298
 20
10.2859084535
 30
0.0
 10
12.9905420364
 20
10.2880965254
 30
0.0
 10
12.9875068317
 20
10.2903228296
 30
0.0
 10
12.984859314
 20
10.2925836564
 30
0.0
 10
12.98260462
 20
10.2948756336
 30
0.0
 10
12.9807474175
 20
10.2971959305
 30
0.0
 10
12.9792928238
 20
10.2995414504
 30
0.0
 10
12.9784092405
 20
10.3015419178
 30
0.0
 10
12.9779211037
 20
10.3031381081
 30
0.0
 10
12.9776626276
 20
10.3043220441
 30
0.0
 10
12.9775074714
 20
10.3055073991
 30
0.0
 10
12.9774729449
 20
10.3062993149
 30
0.0
 10
12.9774729447
 20
10.3066936765
 30
0.0
  0
SPLINE
  5
3B2
100
AcDbEntity
  8
0
100
AcDbSpline
 62
7
  6
CONTINUOUS
 70
0
 71
3
 72
58
 73
54
 74
0
 42
0.0000001
 43
0.0000001
 44
0.0000000001
 40
0.0
 40
0.0
 40
0.0
 40
0.0
 40
0.0081223305
 40
0.0169168975
 40
0.0264087397
 40
0.0366143893
 40
0.0475415919
 40
0.0591912278
 40
0.0715586516
 40
0.0846347975
 40
0.0984066254
 40
0.112857697
 40
0.1279687991
 40
0.1437179559
 40
0.1600810137
 40
0.1770317001
 40
0.2125802303
 40
0.2501202969
 40
0.2893844218
 40
0.3300865608
 40
0.3719257492
 40
0.4145895607
 40
0.4577574053
 40
0.5011037527
 40
0.5443013266
 40
0.587024304
 40
0.6289515139
 40
0.6697696572
 40
0.7091765902
 40
0.7468847529
 40
0.7826248208
 40
0.7996793841
 40
0.8161512809
 40
0.8320139346
 40
0.8472427441
 40
0.8618153344
 40
0.8757119895
 40
0.8889156785
 40
0.9014127874
 40
0.9131934095
 40
0.9242520347
 40
0.9345886083
 40
0.9442093599
 40
0.953128682
 40
0.9613709503
 40
0.9689732053
 40
0.9759886321
 40
0.9824900189
 40
0.9885734021
 40
0.9914974267
 40
0.9943641369
 40
0.9971919109
 40
1.0
 40
1.0
 40
1.0
 40
1.0
 10
12.2765758514
 20
9.2305960913
 30
0.0
 10
12.2757554111
 20
9.2298036068
 30
0.0
 10
12.2739692323
 20
9.228232165
 30
0.0
 10
12.2710043377
 20
9.2259994375
 30
0.0
 10
12.2676560238
 20
9.2238040662
 30
0.0
 10
12.2639310872
 20
9.2216502791
 30
0.0
 10
12.2598365222
 20
9.2195419403
 30
0.0
 10
12.2553802683
 20
9.2174832658
 30
0.0
 10
12.2505711053
 20
9.2154782623
 30
0.0
 10
12.2454185402
 20
9.2135309833
 30
0.0
 10
12.23993283
 20
9.2116453623
 30
0.0
 10
12.2341249512
 20
9.2098251906
 30
0.0
 10
12.2280065447
 20
9.2080742171
 30
0.0
 10
12.2215899211
 20
9.2063959647
 30
0.0
 10
12.214887987
 20
9.2047938444
 30
0.0
 10
12.2054391958
 20
9.202730863
 30
0.0
 10
12.1930120353
 20
9.2003791267
 30
0.0
 10
12.1774191928
 20
9.1979498534
 30
0.0
 10
12.1610436012
 20
9.1958907364
 30
0.0
 10
12.1440174644
 20
9.1942187175
 30
0.0
 10
12.126478123
 20
9.1929476016
 30
0.0
 10
12.1085672314
 20
9.1920878541
 30
0.0
 10
12.0904294804
 20
9.1916465542
 30
0.0
 10
12.0722114318
 20
9.1916273366
 30
0.0
 10
12.054060306
 20
9.1920303627
 30
0.0
 10
12.0361227751
 20
9.1928523109
 30
0.0
 10
12.0185437486
 20
9.1940864121
 30
0.0
 10
12.0014652062
 20
9.1957225053
 30
0.0
 10
11.9850249241
 20
9.1977470825
 30
0.0
 10
11.9693556413
 20
9.2001434926
 30
0.0
 10
11.9568572912
 20
9.2024685445
 30
0.0
 10
11.947345974
 20
9.2045109833
 30
0.0
 10
11.9405936015
 20
9.2060989099
 30
0.0
 10
11.9341241243
 20
9.2077635568
 30
0.0
 10
11.9279505617
 20
9.2095015728
 30
0.0
 10
11.9220853366
 20
9.2113094381
 30
0.0
 10
11.9165402106
 20
9.2131834295
 30
0.0
 10
11.9113262898
 20
9.215119799
 30
0.0
 10
11.9064539571
 20
9.2171145959
 30
0.0
 10
11.9019328662
 20
9.2191638167
 30
0.0
 10
11.8977719215
 20
9.2212634275
 30
0.0
 10
11.8939791959
 20
9.2234092674
 30
0.0
 10
11.8905620025
 20
9.2255973393
 30
0.0
 10
11.8875267978
 20
9.2278236435
 30
0.0
 10
11.8848792801
 20
9.2300844703
 30
0.0
 10
11.8826245861
 20
9.2323764475
 30
0.0
 10
11.8807673836
 20
9.2346967444
 30
0.0
 10
11.8793127899
 20
9.2370422643
 30
0.0
 10
11.8784292066
 20
9.2390427317
 30
0.0
 10
11.8779410698
 20
9.240638922
 30
0.0
 10
11.8776825937
 20
9.241822858
 30
0.0
 10
11.8775274375
 20
9.243008213
 30
0.0
 10
11.877492911
 20
9.2438001288
 30
0.0
 10
11.8774929108
 20
9.2441944904
 30
0.0
  0
SPLINE
  5
3B3
100
AcDbEntity
  8
0
100
AcDbSpline
 62
7
  6
CONTINUOUS
 70
0
 71
3
 72
19
 73
15
 74
0
 42
0.0000001
 43
0.0000001
 44
0.0000000001
 40
0.0
 40
0.0
 40
0.0
 40
0.0
 40
0.1504611406
 40
0.2916985742
 40
0.4244193292
 40
0.4878835935
 40
0.5495802133
 40
0.6682271463
 40
0.7255606136
 40
0.7817999183
 40
0.8371467056
 40
0.8918136429
 40
0.9460222308
 40
1.0
 40
1.0
 40
1.0
 40
1.0
 10
13.6896803172
 20
9.6494421435
 30
0.0
 10
13.6919617755
 20
9.6516458631
 30
0.0
 10
13.6965215416
 20
9.6557806642
 30
0.0
 10
13.7035819063
 20
9.661290754
 30
0.0
 10
13.7095454836
 20
9.6651878074
 30
0.0
 10
13.7143010658
 20
9.6678267803
 30
0.0
 10
13.7189163452
 20
9.6700924108
 30
0.0
 10
13.7235856682
 20
9.6719443497
 30
0.0
 10
13.7282812554
 20
9.6733379588
 30
0.0
 10
13.7317530443
 20
9.6741412535
 30
0.0
 10
13.7352132798
 20
9.6747137956
 30
0.0
 10
13.7386610415
 20
9.6750553352
 30
0.0
 10
13.7420949391
 20
9.675165731
 30
0.0
 10
13.7443763237
 20
9.6750850569
 30
0.0
 10
13.7455115402
 20
9.6750063331
 30
0.0
  0
SPLINE
  5
3B4
100
AcDbEntity
  8
0
100
AcDbSpline
 62
7
  6
CONTINUOUS
 70
0
 71
3
 72
19
 73
15
 74
0
 42
0.0000001
 43
0.0000001
 44
0.0000000001
 40
0.0
 40
0.0
 40
0.0
 40
0.0
 40
0.1504611406
 40
0.2916985742
 40
0.4244193292
 40
0.4878835935
 40
0.5495802133
 40
0.6682271463
 40
0.7255606136
 40
0.7817999183
 40
0.8371467056
 40
0.8918136429
 40
0.9460222308
 40
1.0
 40
1.0
 40
1.0
 40
1.0
 10
13.1399491004
 20
9.1184425322
 30
0.0
 10
13.1422305586
 20
9.1206462517
 30
0.0
 10
13.1467903247
 20
9.1247810528
 30
0.0
 10
13.1538506894
 20
9.1302911427
 30
0.0
 10
13.1598142667
 20
9.134188196
 30
0.0
 10
13.1645698489
 20
9.136827169
 30
0.0
 10
13.1691851283
 20
9.1390927994
 30
0.0
 10
13.1738544513
 20
9.1409447383
 30
0.0
 10
13.1785500385
 20
9.1423383474
 30
0.0
 10
13.1820218275
 20
9.1431416422
 30
0.0
 10
13.1854820629
 20
9.1437141843
 30
0.0
 10
13.1889298246
 20
9.1440557239
 30
0.0
 10
13.1923637222
 20
9.1441661196
 30
0.0
 10
13.1946451068
 20
9.1440854455
 30
0.0
 10
13.1957803234
 20
9.1440067217
 30
0.0
  0
SPLINE
  5
3B5
100
AcDbEntity
  8
0
100
AcDbSpline
 62
7
  6
CONTINUOUS
 70
0
 71
3
 72
21
 73
17
 74
0
 42
0.0000001
 43
0.0000001
 44
0.0000000001
 40
0.0
 40
0.0
 40
0.0
 40
0.0
 40
0.1273177382
 40
0.253799893
 40
0.3167619527
 40
0.3795355237
 40
0.4421314869
 40
0.5045621428
 40
0.5668413495
 40
0.6289845239
 40
0.69100845
 40
0.7529310987
 40
0.8147714472
 40
0.8765493323
 40
0.9382852239
 40
1.0
 40
1.0
 40
1.0
 40
1.0
 10
8.8316612063
 20
7.3020840078
 30
0.0
 10
8.8316612063
 20
7.2942459186
 30
0.0
 10
8.83091302
 20
7.2786110912
 30
0.0
 10
8.8280872909
 20
7.2592830673
 30
0.0
 10
8.824709984
 20
7.2441219174
 30
0.0
 10
8.8216300366
 20
7.2329390427
 30
0.0
 10
8.8180066545
 20
7.2219548855
 30
0.0
 10
8.813848232
 20
7.2111944365
 30
0.0
 10
8.8091642953
 20
7.2006826043
 30
0.0
 10
8.8039655769
 20
7.1904436425
 30
0.0
 10
8.7982641408
 20
7.1805011292
 30
0.0
 10
8.7920730624
 20
7.1708780198
 30
0.0
 10
8.7854065989
 20
7.1615965618
 30
0.0
 10
8.7782801207
 20
7.1526780361
 30
0.0
 10
8.7707102863
 20
7.1441433353
 30
0.0
 10
8.765378775
 20
7.1387215641
 30
0.0
 10
8.7626460686
 20
7.136081971
 30
0.0
  0
SPLINE
  5
3B6
100
AcDbEntity
  8
0
100
AcDbSpline
 62
7
  6
CONTINUOUS
 70
0
 71
3
 72
37
 73
33
 74
0
 42
0.0000001
 43
0.0000001
 44
0.0000000001
 40
0.0
 40
0.0
 40
0.0
 40
0.0
 40
0.0307115776
 40
0.0615425493
 40
0.0924882602
 40
0.1235467373
 40
0.1547123949
 40
0.1859791285
 40
0.2173394699
 40
0.2487848566
 40
0.2803057573
 40
0.3118917577
 40
0.3435316965
 40
0.3752137945
 40
0.4386334817
 40
0.5020712226
 40
0.5337756682
 40
0.565446536
 40
0.5970717001
 40
0.6286395532
 40
0.6601391396
 40
0.6915602898
 40
0.7228937461
 40
0.7541312741
 40
0.7852657663
 40
0.8162913356
 40
0.8472034039
 40
0.8779987725
 40
0.9086756734
 40
0.9392338057
 40
0.9696743546
 40
1.0
 40
1.0
 40
1.0
 40
1.0
 10
8.8485951904
 20
7.2639409814
 30
0.0
 10
8.8485951904
 20
7.2695156275
 30
0.0
 10
8.8482820236
 20
7.2806890478
 30
0.0
 10
8.8468808875
 20
7.2974267411
 30
0.0
 10
8.8445516159
 20
7.3141247144
 30
0.0
 10
8.8413018451
 20
7.3307298611
 30
0.0
 10
8.8371415839
 20
7.3471906599
 30
0.0
 10
8.8320839504
 20
7.3634555444
 30
0.0
 10
8.826144791
 20
7.3794737362
 30
0.0
 10
8.8193427244
 20
7.3951951824
 30
0.0
 10
8.8116990165
 20
7.4105708042
 30
0.0
 10
8.8032376661
 20
7.4255524573
 30
0.0
 10
8.7939847486
 20
7.4400937494
 30
0.0
 10
8.7806294035
 20
7.4588367438
 30
0.0
 10
8.7621090265
 20
7.4809354432
 30
0.0
 10
8.7413845415
 20
7.5009874308
 30
0.0
 10
8.7236332014
 20
7.5156554199
 30
0.0
 10
8.7097772835
 20
7.5259343836
 30
0.0
 10
8.6954224401
 20
7.5354587396
 30
0.0
 10
8.6806131127
 20
7.5441991021
 30
0.0
 10
8.6653956538
 20
7.5521280091
 30
0.0
 10
8.6498175803
 20
7.5592206989
 30
0.0
 10
8.6339275679
 20
7.5654549777
 30
0.0
 10
8.6177752542
 20
7.5708113257
 30
0.0
 10
8.6014111023
 20
7.5752729484
 30
0.0
 10
8.58488624
 20
7.5788258251
 30
0.0
 10
8.5682523197
 20
7.5814588105
 30
0.0
 10
8.5515613208
 20
7.5831636249
 30
0.0
 10
8.5348654725
 20
7.5839348838
 30
0.0
 10
8.518216788
 20
7.5837700678
 30
0.0
 10
8.5016680473
 20
7.5826697195
 30
0.0
 10
8.490714732
 20
7.5813119187
 30
0.0
 10
8.485273654
 20
7.5804781225
 30
0.0
  0
SPLINE
  5
3B7
100
AcDbEntity
  8
0
100
AcDbSpline
 62
7
  6
CONTINUOUS
 70
0
 71
3
 72
43
 73
39
 74
0
 42
0.0000001
 43
0.0000001
 44
0.0000000001
 40
0.0
 40
0.0
 40
0.0
 40
0.0
 40
0.0310745218
 40
0.0466739617
 40
0.0623117346
 40
0.0936962008
 40
0.1252246462
 40
0.156885682
 40
0.1886651184
 40
0.2205463529
 40
0.2525107094
 40
0.2845378393
 40
0.316606137
 40
0.3486931771
 40
0.3807761618
 40
0.4128323741
 40
0.4448396288
 40
0.4767767175
 40
0.508623839
 40
0.5403630095
 40
0.5719784455
 40
0.6034569128
 40
0.6347880329
 40
0.6659645409
 40
0.6969824853
 40
0.7278413639
 40
0.7585441875
 40
0.7890974671
 40
0.8195111175
 40
0.8497982781
 40
0.8649022316
 40
0.8799808239
 40
0.9100659163
 40
0.9400802375
 40
0.9550708207
 40
0.9700522994
 40
0.9850276796
 40
1.0
 40
1.0
 40
1.0
 40
1.0
 10
8.8316612063
 20
7.3020840078
 30
0.0
 10
8.8316612063
 20
7.308176143
 30
0.0
 10
8.8313206661
 20
7.3173311346
 30
0.0
 10
8.8301960006
 20
7.3294973401
 30
0.0
 10
8.8286201235
 20
7.3416752016
 30
0.0
 10
8.8258109156
 20
7.3568314348
 30
0.0
 10
8.8211251834
 20
7.3747867553
 30
0.0
 10
8.8151462831
 20
7.3924358932
 30
0.0
 10
8.8079072538
 20
7.4096813857
 30
0.0
 10
8.7994479474
 20
7.4264287516
 30
0.0
 10
8.7898149037
 20
7.4425860514
 30
0.0
 10
8.7790610734
 20
7.4580646422
 30
0.0
 10
8.7672455335
 20
7.4727795886
 30
0.0
 10
8.7544331644
 20
7.486650142
 30
0.0
 10
8.7406942974
 20
7.499600174
 30
0.0
 10
8.7261043321
 20
7.5115585912
 30
0.0
 10
8.710743327
 20
7.5224597217
 30
0.0
 10
8.6946955652
 20
7.5322436719
 30
0.0
 10
8.6780490975
 20
7.5408566537
 30
0.0
 10
8.6608952651
 20
7.548251278
 30
0.0
 10
8.6433282056
 20
7.5543868147
 30
0.0
 10
8.625444343
 20
7.5592294172
 30
0.0
 10
8.6073418665
 20
7.562752311
 30
0.0
 10
8.5891201977
 20
7.5649359445
 30
0.0
 10
8.5708794569
 20
7.5657681052
 30
0.0
 10
8.5527199
 20
7.5652439858
 30
0.0
 10
8.5347414459
 20
7.5633662553
 30
0.0
 10
8.5170428567
 20
7.5601449294
 30
0.0
 10
8.4997222075
 20
7.5555977998
 30
0.0
 10
8.485667239
 20
7.5507187421
 30
0.0
 10
8.4747120439
 20
7.5461813974
 30
0.0
 10
8.4639786351
 20
7.541235627
 30
0.0
 10
8.450964328
 20
7.5342836631
 30
0.0
 10
8.4385533798
 20
7.5263357314
 30
0.0
 10
8.4290420828
 20
7.5194147609
 30
0.0
 10
8.4221262615
 20
7.5139499372
 30
0.0
 10
8.4154357626
 20
7.5082173763
 30
0.0
 10
8.4111313051
 20
7.5042218212
 30
0.0
 10
8.4090200693
 20
7.5021825231
 30
0.0
  0
SPLINE
  5
3B8
100
AcDbEntity
  8
0
100
AcDbSpline
 62
7
  6
CONTINUOUS
 70
0
 71
3
 72
11
 73
7
 74
0
 42
0.0000001
 43
0.0000001
 44
0.0000000001
 40
0.0
 40
0.0
 40
0.0
 40
0.0
 40
0.2517325964
 40
0.5022831652
 40
0.7516878325
 40
1.0
 40
1.0
 40
1.0
 40
1.0
 10
10.4459523059
 20
7.0935163123
 30
0.0
 10
10.4459523059
 20
7.0840941401
 30
0.0
 10
10.4453128735
 20
7.0652876137
 30
0.0
 10
10.4424235238
 20
7.0372794519
 30
0.0
 10
10.4376199778
 20
7.0096651426
 30
0.0
 10
10.4331455577
 20
6.9915625749
 30
0.0
 10
10.4305974329
 20
6.9826245524
 30
0.0
  0
SPLINE
  5
3B9
100
AcDbEntity
  8
0
100
AcDbSpline
 62
7
  6
CONTINUOUS
 70
0
 71
3
 72
11
 73
7
 74
0
 42
0.0000001
 43
0.0000001
 44
0.0000000001
 40
0.0
 40
0.0
 40
0.0
 40
0.0
 40
0.2480506592
 40
0.4974370176
 40
0.7481146859
 40
1.0
 40
1.0
 40
1.0
 40
1.0
 10
10.4459523059
 20
7.0935163123
 30
0.0
 10
10.4459523059
 20
7.1045082021
 30
0.0
 10
10.4450774818
 20
7.1265606815
 30
0.0
 10
10.4411739015
 20
7.1595137554
 30
0.0
 10
10.4347013107
 20
7.1922327335
 30
0.0
 10
10.4287122845
 20
7.2137088325
 30
0.0
 10
10.4253090232
 20
7.2243391631
 30
0.0
  0
SPLINE
  5
3BA
100
AcDbEntity
  8
0
100
AcDbSpline
 62
7
  6
CONTINUOUS
 70
0
 71
3
 72
21
 73
17
 74
0
 42
0.0000001
 43
0.0000001
 44
0.0000000001
 40
0.0
 40
0.0
 40
0.0
 40
0.0
 40
0.0628274178
 40
0.1256996352
 40
0.1885972144
 40
0.2515004974
 40
0.3772122325
 40
0.5027126756
 40
0.565353795
 40
0.627887577
 40
0.6902975697
 40
0.7525684286
 40
0.8146860533
 40
0.876637721
 40
0.9384122277
 40
1.0
 40
1.0
 40
1.0
 40
1.0
 10
10.3634462198
 20
7.3478541734
 30
0.0
 10
10.3593659886
 20
7.3536075954
 30
0.0
 10
10.3509359925
 20
7.3649321141
 30
0.0
 10
10.3375211999
 20
7.381322279
 30
0.0
 10
10.3233616074
 20
7.3970860998
 30
0.0
 10
10.3035431059
 20
7.4172102348
 30
0.0
 10
10.2770894681
 20
7.4406093892
 30
0.0
 10
10.2486206055
 20
7.4614610199
 30
0.0
 10
10.2248117056
 20
7.4764809943
 30
0.0
 10
10.2064918317
 20
7.4868835527
 30
0.0
 10
10.1877451178
 20
7.4964033468
 30
0.0
 10
10.1686164908
 20
7.5050176425
 30
0.0
 10
10.1491523835
 20
7.5127054539
 30
0.0
 10
10.1293996903
 20
7.5194481791
 30
0.0
 10
10.1094068471
 20
7.5252293439
 30
0.0
 10
10.0959279403
 20
7.5284384265
 30
0.0
 10
10.0891651473
 20
7.5298774933
 30
0.0
  0
SPLINE
  5
3BB
100
AcDbEntity
  8
0
100
AcDbSpline
 62
7
  6
CONTINUOUS
 70
0
 71
3
 72
23
 73
19
 74
0
 42
0.0000001
 43
0.0000001
 44
0.0000000001
 40
0.0
 40
0.0
 40
0.0
 40
0.0
 40
0.0637771706
 40
0.1273448423
 40
0.190701976
 40
0.2538561364
 40
0.3168131911
 40
0.379582093
 40
0.4421733865
 40
0.504599335
 40
0.5668738647
 40
0.6290123811
 40
0.6910316516
 40
0.752949644
 40
0.8147853513
 40
0.8765586011
 40
0.9382898546
 40
1.0
 40
1.0
 40
1.0
 40
1.0
 10
11.63696441
 20
7.6430930091
 30
0.0
 10
11.63696441
 20
7.6347614721
 30
0.0
 10
11.6365656299
 20
7.6181229429
 30
0.0
 10
11.634765732
 20
7.5932663568
 30
0.0
 10
11.6317688968
 20
7.5686068212
 30
0.0
 10
11.6275822718
 20
7.5442021874
 30
0.0
 10
11.6222152407
 20
7.520108284
 30
0.0
 10
11.6156801824
 20
7.4963808019
 30
0.0
 10
11.6079921129
 20
7.4730744051
 30
0.0
 10
11.5991687125
 20
7.45024284
 30
0.0
 10
11.5892302803
 20
7.4279387609
 30
0.0
 10
11.5781996691
 20
7.4062136203
 30
0.0
 10
11.5661022713
 20
7.3851175456
 30
0.0
 10
11.5529659661
 20
7.3646991815
 30
0.0
 10
11.5388210732
 20
7.3450056715
 30
0.0
 10
11.5237000292
 20
7.3260822983
 30
0.0
 10
11.5076382967
 20
7.3079733074
 30
0.0
 10
11.4963258635
 20
7.2964693456
 30
0.0
 10
11.4905275946
 20
7.2908686283
 30
0.0
  0
SPLINE
  5
3BC
100
AcDbEntity
  8
0
100
AcDbSpline
 62
7
  6
CONTINUOUS
 70
0
 71
3
 72
32
 73
28
 74
0
 42
0.0000001
 43
0.0000001
 44
0.0000000001
 40
0.0
 40
0.0
 40
0.0
 40
0.0
 40
0.060339443
 40
0.1201626694
 40
0.1776395535
 40
0.2318539985
 40
0.2825689965
 40
0.3298991402
 40
0.374098897
 40
0.4154565425
 40
0.4907005277
 40
0.5575281304
 40
0.6173789933
 40
0.6713698219
 40
0.7204089275
 40
0.7652915975
 40
0.8067845493
 40
0.8265281475
 40
0.845743366
 40
0.8645573787
 40
0.8831129086
 40
0.9015723134
 40
0.920121155
 40
0.9389727313
 40
0.9583727299
 40
0.978604655
 40
1.0
 40
1.0
 40
1.0
 40
1.0
 10
10.7192708889
 20
7.6251569329
 30
0.0
 10
10.7184271768
 20
7.6275313314
 30
0.0
 10
10.7169559461
 20
7.6323364749
 30
0.0
 10
10.7153625337
 20
7.639588912
 30
0.0
 10
10.7143459161
 20
7.6466852057
 30
0.0
 10
10.7138392498
 20
7.6534532368
 30
0.0
 10
10.7137587576
 20
7.6598150565
 30
0.0
 10
10.7140261953
 20
7.665752386
 30
0.0
 10
10.7145765812
 20
7.6712773008
 30
0.0
 10
10.7155876583
 20
7.6779183094
 30
0.0
 10
10.7172905138
 20
7.6854004692
 30
0.0
 10
10.7199511946
 20
7.6934156418
 30
0.0
 10
10.7230187395
 20
7.7003224257
 30
0.0
 10
10.7264028775
 20
7.7062372268
 30
0.0
 10
10.7300461865
 20
7.7112423203
 30
0.0
 10
10.7339116484
 20
7.7153901599
 30
0.0
 10
10.7373598542
 20
7.7182018568
 30
0.0
 10
10.7401994845
 20
7.7200036511
 30
0.0
 10
10.7423397419
 20
7.7211238663
 30
0.0
 10
10.7445252555
 20
7.7220310501
 30
0.0
 10
10.7467565788
 20
7.7227195405
 30
0.0
 10
10.7490347489
 20
7.7231808766
 30
0.0
 10
10.7513611528
 20
7.7234045108
 30
0.0
 10
10.7537377241
 20
7.7233765125
 30
0.0
 10
10.7561669298
 20
7.7230789126
 30
0.0
 10
10.7586516733
 20
7.7224901168
 30
0.0
 10
10.7602924645
 20
7.7219034935
 30
0.0
 10
10.761116955
 20
7.7215591861
 30
0.0
  0
SPLINE
  5
3BD
100
AcDbEntity
  8
0
100
AcDbSpline
 62
7
  6
CONTINUOUS
 70
0
 71
3
 72
39
 73
35
 74
0
 42
0.0000001
 43
0.0000001
 44
0.0000000001
 40
0.0
 40
0.0
 40
0.0
 40
0.0
 40
0.0310753533
 40
0.062307914
 40
0.0936931276
 40
0.125222289
 40
0.1568840436
 40
0.1886642048
 40
0.2205461649
 40
0.252511249
 40
0.2845391082
 40
0.3166081364
 40
0.3486959074
 40
0.3807796231
 40
0.412836566
 40
0.44484455
 40
0.4767823665
 40
0.508630214
 40
0.5403701087
 40
0.5719862657
 40
0.6034654504
 40
0.634797285
 40
0.6659745047
 40
0.6969931573
 40
0.7278527396
 40
0.7585562634
 40
0.7891102405
 40
0.8195245856
 40
0.8498124374
 40
0.8799898958
 40
0.9100756749
 40
0.9400906815
 40
0.970057529
 40
1.0
 40
1.0
 40
1.0
 40
1.0
 10
11.63696441
 20
7.6430930091
 30
0.0
 10
11.63696441
 20
7.6560193985
 30
0.0
 10
11.6360001295
 20
7.6819475178
 30
0.0
 10
11.631694828
 20
7.7207155728
 30
0.0
 10
11.6245512864
 20
7.7592559811
 30
0.0
 10
11.6146089804
 20
7.7973543833
 30
0.0
 10
11.601922928
 20
7.8348022776
 30
0.0
 10
11.5865630827
 20
7.8713939338
 30
0.0
 10
11.5686140646
 20
7.9069286064
 30
0.0
 10
11.5481746136
 20
7.9412112965
 30
0.0
 10
11.5253570645
 20
7.9740538913
 30
0.0
 10
11.5002867519
 20
8.0052761656
 30
0.0
 10
11.4731013675
 20
8.0347068052
 30
0.0
 10
11.4439501435
 20
8.0621842868
 30
0.0
 10
11.4129930568
 20
8.08755776
 30
0.0
 10
11.3803999559
 20
8.1106878538
 30
0.0
 10
11.3463496888
 20
8.1314475029
 30
0.0
 10
11.3110290905
 20
8.1497225954
 30
0.0
 10
11.2746319669
 20
8.1654125811
 30
0.0
 10
11.2373580485
 20
8.1784310129
 30
0.0
 10
11.1994119304
 20
8.1887060685
 30
0.0
 10
11.161001959
 20
8.1961809683
 30
0.0
 10
11.1223390872
 20
8.2008142318
 30
0.0
 10
11.0836357413
 20
8.2025799295
 30
0.0
 10
11.0451046728
 20
8.2014678428
 30
0.0
 10
11.0069577942
 20
8.1974836228
 30
0.0
 10
10.9694050166
 20
8.1906487
 30
0.0
 10
10.9326530971
 20
8.1810001972
 30
0.0
 10
10.8969045229
 20
8.1685907579
 30
0.0
 10
10.8623562896
 20
8.1534882921
 30
0.0
 10
10.8291990545
 20
8.135775841
 30
0.0
 10
10.7976151074
 20
8.1155501742
 30
0.0
 10
10.7677809483
 20
8.092924721
 30
0.0
 10
10.7491596765
 20
8.0763167378
 30
0.0
 10
10.7402012712
 20
8.0676635524
 30
0.0
  0
SPLINE
  5
3BE
100
AcDbEntity
  8
0
100
AcDbSpline
 62
7
  6
CONTINUOUS
 70
0
 71
3
 72
15
 73
11
 74
0
 42
0.0000001
 43
0.0000001
 44
0.0000000001
 40
0.0
 40
0.0
 40
0.0
 40
0.0
 40
0.1098906373
 40
0.2214016819
 40
0.3360757822
 40
0.4553202911
 40
0.5803741285
 40
0.7122942594
 40
0.8519453747
 40
1.0
 40
1.0
 40
1.0
 40
1.0
 10
13.3834729171
 20
10.3066936765
 30
0.0
 10
13.3834729175
 20
10.30611951
 30
0.0
 10
13.3833992058
 20
10.3049614089
 30
0.0
 10
13.3830685576
 20
10.3032325799
 30
0.0
 10
13.382518845
 20
10.3015091882
 30
0.0
 10
13.3817515349
 20
10.2997938207
 30
0.0
 10
13.3807683098
 20
10.2980881197
 30
0.0
 10
13.3795708076
 20
10.2963935765
 30
0.0
 10
13.3781608513
 20
10.2947117861
 30
0.0
 10
13.3771122784
 20
10.293632712
 30
0.0
 10
13.3765558853
 20
10.2930952774
 30
0.0
  0
SPLINE
  5
3BF
100
AcDbEntity
  8
0
100
AcDbSpline
 62
7
  6
CONTINUOUS
 70
0
 71
3
 72
15
 73
11
 74
0
 42
0.0000001
 43
0.0000001
 44
0.0000000001
 40
0.0
 40
0.0
 40
0.0
 40
0.0
 40
0.1098906373
 40
0.2214016819
 40
0.3360757822
 40
0.4553202911
 40
0.5803741285
 40
0.7122942594
 40
0.8519453747
 40
1.0
 40
1.0
 40
1.0
 40
1.0
 10
12.2834928832
 20
9.2441944904
 30
0.0
 10
12.2834928836
 20
9.2436203239
 30
0.0
 10
12.2834191719
 20
9.2424622228
 30
0.0
 10
12.2830885237
 20
9.2407333938
 30
0.0
 10
12.2825388111
 20
9.2390100021
 30
0.0
 10
12.281771501
 20
9.2372946346
 30
0.0
 10
12.2807882759
 20
9.2355889336
 30
0.0
 10
12.2795907737
 20
9.2338943904
 30
0.0
 10
12.2781808175
 20
9.2322126
 30
0.0
 10
12.2771322445
 20
9.2311335259
 30
0.0
 10
12.2765758514
 20
9.2305960913
 30
0.0
  0
SPLINE
  5
3C0
100
AcDbEntity
  8
0
100
AcDbSpline
 62
7
  6
CONTINUOUS
 70
0
 71
3
 72
55
 73
51
 74
0
 42
0.0000001
 43
0.0000001
 44
0.0000000001
 40
0.0
 40
0.0
 40
0.0
 40
0.0
 40
0.0077405257
 40
0.0160544501
 40
0.0249606726
 40
0.0344721687
 40
0.044595521
 40
0.0553324833
 40
0.0666807747
 40
0.0786348526
 40
0.0911862043
 40
0.1043237792
 40
0.1180344224
 40
0.1323028749
 40
0.1471122616
 40
0.162444009
 40
0.1782781527
 40
0.1945934236
 40
0.2285751811
 40
0.2641976254
 40
0.3012529971
 40
0.3395210523
 40
0.3787713176
 40
0.4187652369
 40
0.4592582441
 40
0.5000017836
 40
0.5407453086
 40
0.5812382691
 40
0.6212321052
 40
0.6604822534
 40
0.6987501673
 40
0.7358053802
 40
0.7714276421
 40
0.8054091819
 40
0.8217243075
 40
0.837558339
 40
0.8528899611
 40
0.8676991902
 40
0.8819675391
 40
0.8956779981
 40
0.9088154605
 40
0.9213666419
 40
0.9333205641
 40
0.9446687312
 40
0.9554054953
 40
0.9655287052
 40
0.975040063
 40
0.98394624
 40
0.9922596592
 40
1.0
 40
1.0
 40
1.0
 40
1.0
 10
12.7520332977
 20
10.0508653495
 30
0.0
 10
12.7509800898
 20
10.049885295
 30
0.0
 10
12.7487128234
 20
10.0479405228
 30
0.0
 10
12.7449934981
 20
10.0451629375
 30
0.0
 10
12.7408430582
 20
10.0424272532
 30
0.0
 10
12.7362683472
 20
10.0397378282
 30
0.0
 10
12.731276442
 20
10.0370986219
 30
0.0
 10
12.7258752711
 20
10.034513959
 30
0.0
 10
12.7200735325
 20
10.031987931
 30
0.0
 10
12.7138805812
 20
10.0295246936
 30
0.0
 10
12.7073064682
 20
10.0271282861
 30
0.0
 10
12.7003619104
 20
10.02480263
 30
0.0
 10
12.6930582459
 20
10.0225516211
 30
0.0
 10
12.6854074419
 20
10.0203789216
 30
0.0
 10
12.6774220381
 20
10.0182881844
 30
0.0
 10
12.6691151525
 20
10.0162828463
 30
0.0
 10
12.660500422
 20
10.0143662079
 30
0.0
 10
12.6484587052
 20
10.0118998041
 30
0.0
 10
12.6327388586
 20
10.0090739974
 30
0.0
 10
12.6131328862
 20
10.0061267482
 30
0.0
 10
12.5926656405
 20
10.0035987568
 30
0.0
 10
12.5714718146
 20
10.0015069192
 30
0.0
 10
12.5496907573
 20
9.9998652571
 30
0.0
 10
12.5274658222
 20
9.9986847465
 30
0.0
 10
12.5049433122
 20
9.9979732807
 30
0.0
 10
12.4822715216
 20
9.9977356143
 30
0.0
 10
12.4595997403
 20
9.9979733366
 30
0.0
 10
12.437077259
 20
9.998684862
 30
0.0
 10
12.4148523732
 20
9.999865436
 30
0.0
 10
12.3930713843
 20
10.0015071606
 30
0.0
 10
12.371877642
 20
10.0035990554
 30
0.0
 10
12.3514104926
 20
10.0061270963
 30
0.0
 10
12.331804633
 20
10.0090743961
 30
0.0
 10
12.3160848948
 20
10.0119002344
 30
0.0
 10
12.3040432789
 20
10.0143666908
 30
0.0
 10
12.2954286244
 20
10.0162833424
 30
0.0
 10
12.2871218184
 20
10.0182886987
 30
0.0
 10
12.2791364995
 20
10.0203794759
 30
0.0
 10
12.2714857787
 20
10.0225521656
 30
0.0
 10
12.2641822086
 20
10.0248032281
 30
0.0
 10
12.2572377389
 20
10.0271288738
 30
0.0
 10
12.2506637243
 20
10.0295253142
 30
0.0
 10
12.244470871
 20
10.0319885702
 30
0.0
 10
12.2386692267
 20
10.0345145941
 30
0.0
 10
12.2332681763
 20
10.0370993071
 30
0.0
 10
12.2282763516
 20
10.039738476
 30
0.0
 10
12.2237017503
 20
10.0424279695
 30
0.0
 10
12.2195514532
 20
10.0451636359
 30
0.0
 10
12.2158322608
 20
10.0479411704
 30
0.0
 10
12.2135651269
 20
10.0498859023
 30
0.0
 10
12.2125119737
 20
10.0508659651
 30
0.0
  0
SPLINE
  5
3C1
100
AcDbEntity
  8
0
100
AcDbSpline
 62
7
  6
CONTINUOUS
 70
0
 71
3
 72
55
 73
51
 74
0
 42
0.0000001
 43
0.0000001
 44
0.0000000001
 40
0.0
 40
0.0
 40
0.0
 40
0.0
 40
0.0077405257
 40
0.0160544501
 40
0.0249606726
 40
0.0344721687
 40
0.044595521
 40
0.0553324833
 40
0.0666807747
 40
0.0786348526
 40
0.0911862043
 40
0.1043237792
 40
0.1180344224
 40
0.1323028749
 40
0.1471122616
 40
0.162444009
 40
0.1782781527
 40
0.1945934236
 40
0.2285751811
 40
0.2641976254
 40
0.3012529971
 40
0.3395210523
 40
0.3787713176
 40
0.4187652369
 40
0.4592582441
 40
0.5000017836
 40
0.5407453086
 40
0.5812382691
 40
0.6212321052
 40
0.6604822534
 40
0.6987501673
 40
0.7358053802
 40
0.7714276421
 40
0.8054091819
 40
0.8217243075
 40
0.837558339
 40
0.8528899611
 40
0.8676991902
 40
0.8819675391
 40
0.8956779981
 40
0.9088154605
 40
0.9213666419
 40
0.9333205641
 40
0.9446687312
 40
0.9554054953
 40
0.9655287052
 40
0.975040063
 40
0.98394624
 40
0.9922596592
 40
1.0
 40
1.0
 40
1.0
 40
1.0
 10
9.787487372
 20
9.687333707
 30
0.0
 10
9.7864341642
 20
9.6863536525
 30
0.0
 10
9.7841668978
 20
9.6844088803
 30
0.0
 10
9.7804475724
 20
9.681631295
 30
0.0
 10
9.7762971325
 20
9.6788956107
 30
0.0
 10
9.7717224216
 20
9.6762061857
 30
0.0
 10
9.7667305163
 20
9.6735669794
 30
0.0
 10
9.7613293454
 20
9.6709823165
 30
0.0
 10
9.7555276068
 20
9.6684562885
 30
0.0
 10
9.7493346555
 20
9.6659930511
 30
0.0
 10
9.7427605425
 20
9.6635966436
 30
0.0
 10
9.7358159847
 20
9.6612709875
 30
0.0
 10
9.7285123202
 20
9.6590199786
 30
0.0
 10
9.7208615163
 20
9.6568472791
 30
0.0
 10
9.7128761124
 20
9.6547565419
 30
0.0
 10
9.7045692268
 20
9.6527512038
 30
0.0
 10
9.6959544963
 20
9.6508345654
 30
0.0
 10
9.6839127795
 20
9.6483681616
 30
0.0
 10
9.668192933
 20
9.6455423549
 30
0.0
 10
9.6485869606
 20
9.6425951057
 30
0.0
 10
9.6281197148
 20
9.6400671143
 30
0.0
 10
9.6069258889
 20
9.6379752767
 30
0.0
 10
9.5851448316
 20
9.6363336146
 30
0.0
 10
9.5629198965
 20
9.635153104
 30
0.0
 10
9.5403973865
 20
9.6344416382
 30
0.0
 10
9.5177255959
 20
9.6342039718
 30
0.0
 10
9.4950538146
 20
9.6344416941
 30
0.0
 10
9.4725313333
 20
9.6351532195
 30
0.0
 10
9.4503064475
 20
9.6363337935
 30
0.0
 10
9.4285254586
 20
9.637975518
 30
0.0
 10
9.4073317163
 20
9.6400674129
 30
0.0
 10
9.3868645669
 20
9.6425954538
 30
0.0
 10
9.3672587073
 20
9.6455427536
 30
0.0
 10
9.3515389691
 20
9.6483685919
 30
0.0
 10
9.3394973532
 20
9.6508350483
 30
0.0
 10
9.3308826987
 20
9.6527516999
 30
0.0
 10
9.3225758927
 20
9.6547570562
 30
0.0
 10
9.3145905739
 20
9.6568478333
 30
0.0
 10
9.306939853
 20
9.6590205231
 30
0.0
 10
9.2996362829
 20
9.6612715856
 30
0.0
 10
9.2926918133
 20
9.6635972313
 30
0.0
 10
9.2861177986
 20
9.6659936717
 30
0.0
 10
9.2799249453
 20
9.6684569277
 30
0.0
 10
9.2741233011
 20
9.6709829516
 30
0.0
 10
9.2687222506
 20
9.6735676646
 30
0.0
 10
9.2637304259
 20
9.6762068335
 30
0.0
 10
9.2591558246
 20
9.678896327
 30
0.0
 10
9.2550055275
 20
9.6816319934
 30
0.0
 10
9.2512863351
 20
9.6844095279
 30
0.0
 10
9.2490192012
 20
9.6863542598
 30
0.0
 10
9.247966048
 20
9.6873343226
 30
0.0
  0
SPLINE
  5
3C2
100
AcDbEntity
  8
0
100
AcDbSpline
 62
7
  6
CONTINUOUS
 70
0
 71
3
 72
88
 73
84
 74
0
 42
0.0000001
 43
0.0000001
 44
0.0000000001
 40
0.0
 40
0.0
 40
0.0
 40
0.0
 40
0.0027164206
 40
0.0054532135
 40
0.00823027
 40
0.0110665466
 40
0.0139797362
 40
0.0169860264
 40
0.0200999638
 40
0.0233344621
 40
0.0267007864
 40
0.030208716
 40
0.033866602
 40
0.0376815365
 40
0.0416594862
 40
0.0458053757
 40
0.0501232805
 40
0.0546164357
 40
0.0592874172
 40
0.0641381604
 40
0.0691700473
 40
0.0743839976
 40
0.0797804461
 40
0.085359486
 40
0.0911208072
 40
0.097063806
 40
0.1031875785
 40
0.1094909314
 40
0.1226301057
 40
0.1364676988
 40
0.1509864378
 40
0.1661662591
 40
0.1819846247
 40
0.1984167804
 40
0.2154359739
 40
0.2330136371
 40
0.2511195505
 40
0.2697219952
 40
0.2887878869
 40
0.3082829001
 40
0.3281715858
 40
0.3484174815
 40
0.3689832185
 40
0.3898306305
 40
0.410920857
 40
0.4322144439
 40
0.4536714439
 40
0.4969133241
 40
0.5403214886
 40
0.5835686279
 40
0.6050302166
 40
0.6263296837
 40
0.6474270673
 40
0.6682828961
 40
0.6888582896
 40
0.7091150586
 40
0.7290158075
 40
0.7485240405
 40
0.7676042737
 40
0.7862221443
 40
0.8043445271
 40
0.8219396585
 40
0.8389772699
 40
0.8554287349
 40
0.8712672375
 40
0.8864679574
 40
0.9010082824
 40
0.9148680665
 40
0.9280299429
 40
0.9343448017
 40
0.9404801679
 40
0.9464348204
 40
0.9522078552
 40
0.9577986253
 40
0.9632068219
 40
0.9684325067
 40
0.9734760906
 40
0.9783384494
 40
0.9830208978
 40
0.9875254123
 40
0.9918545974
 40
0.9960115688
 40
1.0
 40
1.0
 40
1.0
 40
1.0
 10
13.6338490943
 20
8.064873578
 30
0.0
 10
13.6323429274
 20
8.064978026
 30
0.0
 10
13.6293270124
 20
8.065324043
 30
0.0
 10
13.6248415194
 20
8.0662498973
 30
0.0
 10
13.6203899463
 20
8.0675825782
 30
0.0
 10
13.6159754262
 20
8.0693206628
 30
0.0
 10
13.611600266
 20
8.0714626845
 30
0.0
 10
13.6072667124
 20
8.0740069556
 30
0.0
 10
13.6029767211
 20
8.0769516143
 30
0.0
 10
13.598732273
 20
8.0802948854
 30
0.0
 10
13.5945351128
 20
8.0840347148
 30
0.0
 10
13.5903871307
 20
8.0881691432
 30
0.0
 10
13.5862900874
 20
8.0926959631
 30
0.0
 10
13.5822458066
 20
8.09761289
 30
0.0
 10
13.5782561604
 20
8.1029174957
 30
0.0
 10
13.5743229147
 20
8.1086071151
 30
0.0
 10
13.57044801
 20
8.1146789982
 30
0.0
 10
13.5666332055
 20
8.1211301113
 30
0.0
 10
13.562880402
 20
8.127957306
 30
0.0
 10
13.5591914064
 20
8.1351572004
 30
0.0
 10
13.5555680085
 20
8.142726228
 30
0.0
 10
13.5520120557
 20
8.1506606536
 30
0.0
 10
13.5485252354
 20
8.1589565133
 30
0.0
 10
13.5451093647
 20
8.1676096995
 30
0.0
 10
13.5417660871
 20
8.1766158836
 30
0.0
 10
13.5384971163
 20
8.1859705746
 30
0.0
 10
13.5353040652
 20
8.1956691099
 30
0.0
 10
13.5310917022
 20
8.2092407258
 30
0.0
 10
13.5260424677
 20
8.2270386354
 30
0.0
 10
13.5203914846
 20
8.2494016415
 30
0.0
 10
13.5150793116
 20
8.2730113059
 30
0.0
 10
13.5101167196
 20
8.2978202934
 30
0.0
 10
13.5055138092
 20
8.3237790587
 30
0.0
 10
13.5012799469
 20
8.3508356016
 30
0.0
 10
13.497423754
 20
8.3789356874
 30
0.0
 10
13.4939530804
 20
8.4080229342
 30
0.0
 10
13.4908749878
 20
8.4380389442
 30
0.0
 10
13.4881957416
 20
8.468923428
 30
0.0
 10
13.4859207972
 20
8.5006143335
 30
0.0
 10
13.4840547895
 20
8.5330479735
 30
0.0
 10
13.4826015251
 20
8.5661591556
 30
0.0
 10
13.4815639739
 20
8.5998813135
 30
0.0
 10
13.4809442583
 20
8.6341466412
 30
0.0
 10
13.4807436539
 20
8.6688862393
 30
0.0
 10
13.4809625994
 20
8.7040302316
 30
0.0
 10
13.4816006449
 20
8.7395080006
 30
0.0
 10
13.4830122336
 20
8.7872825515
 30
0.0
 10
13.4858150526
 20
8.84730858
 30
0.0
 10
13.4907973705
 20
8.9193389014
 30
0.0
 10
13.4962860065
 20
8.9791846389
 30
0.0
 10
13.5014659886
 20
9.0267073041
 30
0.0
 10
13.5057192653
 20
9.0619448425
 30
0.0
 10
13.5103418457
 20
9.0967962142
 30
0.0
 10
13.5153244508
 20
9.1311913886
 30
0.0
 10
13.5206570227
 20
9.165061188
 30
0.0
 10
13.5263288094
 20
9.1983375136
 30
0.0
 10
13.5323283692
 20
9.2309534604
 30
0.0
 10
13.5386435982
 20
9.2628434615
 30
0.0
 10
13.5452617463
 20
9.2939434233
 30
0.0
 10
13.5521694501
 20
9.324190855
 30
0.0
 10
13.559352759
 20
9.3535249958
 30
0.0
 10
13.5667971627
 20
9.3818869385
 30
0.0
 10
13.5744876202
 20
9.409219754
 30
0.0
 10
13.5824085933
 20
9.435468611
 30
0.0
 10
13.5905440724
 20
9.4605809078
 30
0.0
 10
13.5988776146
 20
9.4845063583
 30
0.0
 10
13.6073923877
 20
9.5071972072
 30
0.0
 10
13.6160712024
 20
9.5286079783
 30
0.0
 10
13.6235248959
 20
9.5455745043
 30
0.0
 10
13.6295674034
 20
9.5584642253
 30
0.0
 10
13.6340667698
 20
9.5676515879
 30
0.0
 10
13.6385940349
 20
9.5764881992
 30
0.0
 10
13.6431469044
 20
9.5849696698
 30
0.0
 10
13.647723121
 20
9.5930917554
 30
0.0
 10
13.6523204075
 20
9.6008504079
 30
0.0
 10
13.6569364392
 20
9.6082417855
 30
0.0
 10
13.6615689867
 20
9.6152621763
 30
0.0
 10
13.6662156578
 20
9.6219081239
 30
0.0
 10
13.6708742413
 20
9.6281763179
 30
0.0
 10
13.6755424636
 20
9.6340637211
 30
0.0
 10
13.6802181511
 20
9.6395674685
 30
0.0
 10
13.6848988128
 20
9.6446845723
 30
0.0
 10
13.6880858978
 20
9.6479020525
 30
0.0
 10
13.6896803172
 20
9.6494421435
 30
0.0
  0
SPLINE
  5
3C3
100
AcDbEntity
  8
0
100
AcDbSpline
 62
7
  6
CONTINUOUS
 70
0
 71
3
 72
74
 73
70
 74
0
 42
0.0000001
 43
0.0000001
 44
0.0000000001
 40
0.0
 40
0.0
 40
0.0
 40
0.0
 40
0.0027966546
 40
0.0056682183
 40
0.0116913545
 40
0.0148721981
 40
0.0181793217
 40
0.0216219649
 40
0.0252080308
 40
0.028944272
 40
0.0328364138
 40
0.036889186
 40
0.0411065363
 40
0.0454916585
 40
0.0500470582
 40
0.0547747194
 40
0.059676056
 40
0.0700025141
 40
0.0810302932
 40
0.0927569712
 40
0.1051756126
 40
0.1182754822
 40
0.1320426197
 40
0.1464602546
 40
0.1615091005
 40
0.1771676493
 40
0.193412418
 40
0.2102181257
 40
0.2275578249
 40
0.2454030779
 40
0.2637240969
 40
0.2824898479
 40
0.301668142
 40
0.3212257705
 40
0.3411286057
 40
0.3818285434
 40
0.4234806754
 40
0.4657880425
 40
0.508447634
 40
0.5511532257
 40
0.5935981755
 40
0.6354782143
 40
0.6764942703
 40
0.696587341
 40
0.7163560828
 40
0.7357658452
 40
0.7547828439
 40
0.7733742819
 40
0.7915084296
 40
0.8091547208
 40
0.8262838838
 40
0.8428680843
 40
0.8588810294
 40
0.874298112
 40
0.8890966136
 40
0.9032559139
 40
0.9167576967
 40
0.9295862426
 40
0.9417288371
 40
0.9531762129
 40
0.9639231508
 40
0.9690339726
 40
0.9739700079
 40
0.9787320973
 40
0.9833215957
 40
0.9877404596
 40
0.991991133
 40
0.9960764972
 40
1.0
 40
1.0
 40
1.0
 40
1.0
 10
13.6091633441
 20
8.3005239665
 30
0.0
 10
13.6081280272
 20
8.3008900131
 30
0.0
 10
13.6060594261
 20
8.3017191231
 30
0.0
 10
13.6019411177
 20
8.3037553949
 30
0.0
 10
13.5979373769
 20
8.3063292038
 30
0.0
 10
13.5940726588
 20
8.3093647606
 30
0.0
 10
13.5911525278
 20
8.311952455
 30
0.0
 10
13.5882659901
 20
8.3148078411
 30
0.0
 10
13.5854137828
 20
8.3179296858
 30
0.0
 10
13.582597238
 20
8.3213164199
 30
0.0
 10
13.5798175931
 20
8.3249664877
 30
0.0
 10
13.5770760089
 20
8.3288781126
 30
0.0
 10
13.5743737576
 20
8.333049492
 30
0.0
 10
13.5717120701
 20
8.3374786683
 30
0.0
 10
13.5690921254
 20
8.3421635348
 30
0.0
 10
13.566515167
 20
8.3471019303
 30
0.0
 10
13.5630782106
 20
8.3541444193
 30
0.0
 10
13.5589115792
 20
8.3635789228
 30
0.0
 10
13.5541852917
 20
8.375681638
 30
0.0
 10
13.5496582114
 20
8.3887327344
 30
0.0
 10
13.5453389623
 20
8.4027075118
 30
0.0
 10
13.5412357944
 20
8.4175797574
 30
0.0
 10
13.5373566149
 20
8.4333213299
 30
0.0
 10
13.5337089321
 20
8.4499023797
 30
0.0
 10
13.5302997934
 20
8.467291363
 30
0.0
 10
13.5271357914
 20
8.4854551398
 30
0.0
 10
13.5242230591
 20
8.5043590585
 30
0.0
 10
13.5215672548
 20
8.523967022
 30
0.0
 10
13.5191735111
 20
8.5442415519
 30
0.0
 10
13.5170464609
 20
8.5651438746
 30
0.0
 10
13.5151902319
 20
8.5866340083
 30
0.0
 10
13.5136084312
 20
8.6086708351
 30
0.0
 10
13.5123041205
 20
8.6312121625
 30
0.0
 10
13.5112797936
 20
8.6542148714
 30
0.0
 10
13.5102827682
 20
8.6856752067
 30
0.0
 10
13.5097619266
 20
8.7258270629
 30
0.0
 10
13.5102740626
 20
8.774776747
 30
0.0
 10
13.5119156473
 20
8.82447146
 30
0.0
 10
13.5146742448
 20
8.8745308291
 30
0.0
 10
13.518528906
 20
8.924571917
 30
0.0
 10
13.5234500431
 20
8.9742119331
 30
0.0
 10
13.5293998824
 20
9.0230709305
 30
0.0
 10
13.5352159978
 20
9.0630939828
 30
0.0
 10
13.5403595854
 20
9.0944325042
 30
0.0
 10
13.5444173386
 20
9.1173500082
 30
0.0
 10
13.5486935922
 20
9.1397977722
 30
0.0
 10
13.5531801749
 20
9.1617328508
 30
0.0
 10
13.5578684402
 20
9.1831132562
 30
0.0
 10
13.5627493739
 20
9.20389808
 30
0.0
 10
13.567813596
 20
9.2240475536
 30
0.0
 10
13.5730513724
 20
9.2435231418
 30
0.0
 10
13.5784526121
 20
9.2622876271
 30
0.0
 10
13.5840069202
 20
9.2803051692
 30
0.0
 10
13.5897036196
 20
9.2975413731
 30
0.0
 10
13.5955317522
 20
9.3139633814
 30
0.0
 10
13.6014800972
 20
9.3295399468
 30
0.0
 10
13.6075372276
 20
9.3442414933
 30
0.0
 10
13.6136915407
 20
9.3580401479
 30
0.0
 10
13.6199312886
 20
9.3709099655
 30
0.0
 10
13.6262445494
 20
9.3828265614
 30
0.0
 10
13.6316437485
 20
9.3920936885
 30
0.0
 10
13.6359995479
 20
9.3990003724
 30
0.0
 10
13.6392224278
 20
9.4038411012
 30
0.0
 10
13.6424546567
 20
9.4084273789
 30
0.0
 10
13.6456948011
 20
9.4127570598
 30
0.0
 10
13.6489413396
 20
9.4168281762
 30
0.0
 10
13.652192858
 20
9.420638776
 30
0.0
 10
13.6554476064
 20
9.4241868904
 30
0.0
 10
13.6576626156
 20
9.4264206126
 30
0.0
 10
13.6587706882
 20
9.4274909286
 30
0.0
  0
SPLINE
  5
3C4
100
AcDbEntity
  8
0
100
AcDbSpline
 62
7
  6
CONTINUOUS
 70
0
 71
3
 72
15
 73
11
 74
0
 42
0.0000001
 43
0.0000001
 44
0.0000000001
 40
0.0
 40
0.0
 40
0.0
 40
0.0
 40
0.1084411279
 40
0.2203204234
 40
0.3363917976
 40
0.4573220227
 40
0.5836916406
 40
0.7159994405
 40
0.8546588732
 40
1.0
 40
1.0
 40
1.0
 40
1.0
 10
13.6885345763
 20
9.4450193285
 30
0.0
 10
13.6872951454
 20
9.4447663264
 30
0.0
 10
13.6848001716
 20
9.4441319141
 30
0.0
 10
13.681093869
 20
9.4428290012
 30
0.0
 10
13.6773755296
 20
9.4411638161
 30
0.0
 10
13.6736478292
 20
9.4391380025
 30
0.0
 10
13.6699126221
 20
9.436753297
 30
0.0
 10
13.6661719375
 20
9.4340114258
 30
0.0
 10
13.662428052
 20
9.4309145185
 30
0.0
 10
13.6599901385
 20
9.4286688272
 30
0.0
 10
13.6587706882
 20
9.4274909286
 30
0.0
  0
SPLINE
  5
3C5
100
AcDbEntity
  8
0
100
AcDbSpline
 62
7
  6
CONTINUOUS
 70
0
 71
3
 72
88
 73
84
 74
0
 42
0.0000001
 43
0.0000001
 44
0.0000000001
 40
0.0
 40
0.0
 40
0.0
 40
0.0
 40
0.0027164206
 40
0.0054532135
 40
0.00823027
 40
0.0110665466
 40
0.0139797362
 40
0.0169860264
 40
0.0200999638
 40
0.0233344621
 40
0.0267007864
 40
0.030208716
 40
0.033866602
 40
0.0376815365
 40
0.0416594862
 40
0.0458053757
 40
0.0501232805
 40
0.0546164357
 40
0.0592874172
 40
0.0641381604
 40
0.0691700473
 40
0.0743839976
 40
0.0797804461
 40
0.085359486
 40
0.0911208072
 40
0.097063806
 40
0.1031875785
 40
0.1094909314
 40
0.1226301057
 40
0.1364676988
 40
0.1509864378
 40
0.1661662591
 40
0.1819846247
 40
0.1984167804
 40
0.2154359739
 40
0.2330136371
 40
0.2511195505
 40
0.2697219952
 40
0.2887878869
 40
0.3082829001
 40
0.3281715858
 40
0.3484174815
 40
0.3689832185
 40
0.3898306305
 40
0.410920857
 40
0.4322144439
 40
0.4536714439
 40
0.4969133241
 40
0.5403214886
 40
0.5835686279
 40
0.6050302166
 40
0.6263296837
 40
0.6474270673
 40
0.6682828961
 40
0.6888582896
 40
0.7091150586
 40
0.7290158075
 40
0.7485240405
 40
0.7676042737
 40
0.7862221443
 40
0.8043445271
 40
0.8219396585
 40
0.8389772699
 40
0.8554287349
 40
0.8712672375
 40
0.8864679574
 40
0.9010082824
 40
0.9148680665
 40
0.9280299429
 40
0.9343448017
 40
0.9404801679
 40
0.9464348204
 40
0.9522078552
 40
0.9577986253
 40
0.9632068219
 40
0.9684325067
 40
0.9734760906
 40
0.9783384494
 40
0.9830208978
 40
0.9875254123
 40
0.9918545974
 40
0.9960115688
 40
1.0
 40
1.0
 40
1.0
 40
1.0
 10
13.0841178774
 20
7.5338739666
 30
0.0
 10
13.0826117105
 20
7.5339784147
 30
0.0
 10
13.0795957955
 20
7.5343244317
 30
0.0
 10
13.0751103026
 20
7.5352502859
 30
0.0
 10
13.0706587294
 20
7.5365829669
 30
0.0
 10
13.0662442093
 20
7.5383210515
 30
0.0
 10
13.0618690491
 20
7.5404630732
 30
0.0
 10
13.0575354955
 20
7.5430073443
 30
0.0
 10
13.0532455042
 20
7.545952003
 30
0.0
 10
13.0490010561
 20
7.5492952741
 30
0.0
 10
13.0448038959
 20
7.5530351034
 30
0.0
 10
13.0406559138
 20
7.5571695319
 30
0.0
 10
13.0365588705
 20
7.5616963518
 30
0.0
 10
13.0325145898
 20
7.5666132787
 30
0.0
 10
13.0285249435
 20
7.5719178843
 30
0.0
 10
13.0245916979
 20
7.5776075037
 30
0.0
 10
13.0207167931
 20
7.5836793868
 30
0.0
 10
13.0169019887
 20
7.5901305
 30
0.0
 10
13.0131491851
 20
7.5969576946
 30
0.0
 10
13.0094601895
 20
7.604157589
 30
0.0
 10
13.0058367916
 20
7.6117266166
 30
0.0
 10
13.0022808388
 20
7.6196610422
 30
0.0
 10
12.9987940185
 20
7.6279569019
 30
0.0
 10
12.9953781478
 20
7.6366100882
 30
0.0
 10
12.9920348702
 20
7.6456162723
 30
0.0
 10
12.9887658994
 20
7.6549709632
 30
0.0
 10
12.9855728483
 20
7.6646694985
 30
0.0
 10
12.9813604853
 20
7.6782411144
 30
0.0
 10
12.9763112509
 20
7.696039024
 30
0.0
 10
12.9706602677
 20
7.7184020302
 30
0.0
 10
12.9653480947
 20
7.7420116945
 30
0.0
 10
12.9603855027
 20
7.766820682
 30
0.0
 10
12.9557825924
 20
7.7927794473
 30
0.0
 10
12.95154873
 20
7.8198359902
 30
0.0
 10
12.9476925371
 20
7.847936076
 30
0.0
 10
12.9442218635
 20
7.8770233229
 30
0.0
 10
12.9411437709
 20
7.9070393329
 30
0.0
 10
12.9384645247
 20
7.9379238167
 30
0.0
 10
12.9361895803
 20
7.9696147221
 30
0.0
 10
12.9343235726
 20
8.0020483622
 30
0.0
 10
12.9328703083
 20
8.0351595443
 30
0.0
 10
12.931832757
 20
8.0688817021
 30
0.0
 10
12.9312130415
 20
8.1031470298
 30
0.0
 10
12.931012437
 20
8.137886628
 30
0.0
 10
12.9312313825
 20
8.1730306203
 30
0.0
 10
12.931869428
 20
8.2085083892
 30
0.0
 10
12.9332810167
 20
8.2562829402
 30
0.0
 10
12.9360838357
 20
8.3163089686
 30
0.0
 10
12.9410661536
 20
8.38833929
 30
0.0
 10
12.9465547896
 20
8.4481850275
 30
0.0
 10
12.9517347717
 20
8.4957076928
 30
0.0
 10
12.9559880484
 20
8.5309452311
 30
0.0
 10
12.9606106289
 20
8.5657966028
 30
0.0
 10
12.965593234
 20
8.6001917772
 30
0.0
 10
12.9709258058
 20
8.6340615767
 30
0.0
 10
12.9765975925
 20
8.6673379022
 30
0.0
 10
12.9825971524
 20
8.699953849
 30
0.0
 10
12.9889123813
 20
8.7318438502
 30
0.0
 10
12.9955305294
 20
8.7629438119
 30
0.0
 10
13.0024382333
 20
8.7931912437
 30
0.0
 10
13.0096215421
 20
8.8225253844
 30
0.0
 10
13.0170659458
 20
8.8508873272
 30
0.0
 10
13.0247564033
 20
8.8782201426
 30
0.0
 10
13.0326773764
 20
8.9044689997
 30
0.0
 10
13.0408128555
 20
8.9295812965
 30
0.0
 10
13.0491463977
 20
8.9535067469
 30
0.0
 10
13.0576611708
 20
8.9761975958
 30
0.0
 10
13.0663399856
 20
8.9976083669
 30
0.0
 10
13.073793679
 20
9.014574893
 30
0.0
 10
13.0798361865
 20
9.0274646139
 30
0.0
 10
13.0843355529
 20
9.0366519766
 30
0.0
 10
13.088862818
 20
9.0454885878
 30
0.0
 10
13.0934156875
 20
9.0539700584
 30
0.0
 10
13.0979919041
 20
9.062092144
 30
0.0
 10
13.1025891906
 20
9.0698507966
 30
0.0
 10
13.1072052223
 20
9.0772421742
 30
0.0
 10
13.1118377698
 20
9.0842625649
 30
0.0
 10
13.116484441
 20
9.0909085125
 30
0.0
 10
13.1211430244
 20
9.0971767065
 30
0.0
 10
13.1258112467
 20
9.1030641097
 30
0.0
 10
13.1304869342
 20
9.1085678572
 30
0.0
 10
13.1351675959
 20
9.1136849609
 30
0.0
 10
13.1383546809
 20
9.1169024412
 30
0.0
 10
13.1399491004
 20
9.1184425322
 30
0.0
  0
SPLINE
  5
3C6
100
AcDbEntity
  8
0
100
AcDbSpline
 62
7
  6
CONTINUOUS
 70
0
 71
3
 72
74
 73
70
 74
0
 42
0.0000001
 43
0.0000001
 44
0.0000000001
 40
0.0
 40
0.0
 40
0.0
 40
0.0
 40
0.0027966546
 40
0.0056682183
 40
0.0116913545
 40
0.0148721981
 40
0.0181793217
 40
0.0216219649
 40
0.0252080308
 40
0.028944272
 40
0.0328364138
 40
0.036889186
 40
0.0411065363
 40
0.0454916585
 40
0.0500470582
 40
0.0547747194
 40
0.059676056
 40
0.0700025141
 40
0.0810302932
 40
0.0927569712
 40
0.1051756126
 40
0.1182754822
 40
0.1320426197
 40
0.1464602546
 40
0.1615091005
 40
0.1771676493
 40
0.193412418
 40
0.2102181257
 40
0.2275578249
 40
0.2454030779
 40
0.2637240969
 40
0.2824898479
 40
0.301668142
 40
0.3212257705
 40
0.3411286057
 40
0.3818285434
 40
0.4234806754
 40
0.4657880425
 40
0.508447634
 40
0.5511532257
 40
0.5935981755
 40
0.6354782143
 40
0.6764942703
 40
0.696587341
 40
0.7163560828
 40
0.7357658452
 40
0.7547828439
 40
0.7733742819
 40
0.7915084296
 40
0.8091547208
 40
0.8262838838
 40
0.8428680843
 40
0.8588810294
 40
0.874298112
 40
0.8890966136
 40
0.9032559139
 40
0.9167576967
 40
0.9295862426
 40
0.9417288371
 40
0.9531762129
 40
0.9639231508
 40
0.9690339726
 40
0.9739700079
 40
0.9787320973
 40
0.9833215957
 40
0.9877404596
 40
0.991991133
 40
0.9960764972
 40
1.0
 40
1.0
 40
1.0
 40
1.0
 10
13.0594321272
 20
7.7695243551
 30
0.0
 10
13.0583968103
 20
7.7698904017
 30
0.0
 10
13.0563282092
 20
7.7707195118
 30
0.0
 10
13.0522099008
 20
7.7727557835
 30
0.0
 10
13.0482061601
 20
7.7753295924
 30
0.0
 10
13.0443414419
 20
7.7783651493
 30
0.0
 10
13.041421311
 20
7.7809528437
 30
0.0
 10
13.0385347733
 20
7.7838082297
 30
0.0
 10
13.0356825659
 20
7.7869300745
 30
0.0
 10
13.0328660212
 20
7.7903168086
 30
0.0
 10
13.0300863763
 20
7.7939668763
 30
0.0
 10
13.027344792
 20
7.7978785013
 30
0.0
 10
13.0246425407
 20
7.8020498807
 30
0.0
 10
13.0219808532
 20
7.806479057
 30
0.0
 10
13.0193609085
 20
7.8111639235
 30
0.0
 10
13.0167839501
 20
7.8161023189
 30
0.0
 10
13.0133469938
 20
7.8231448079
 30
0.0
 10
13.0091803623
 20
7.8325793114
 30
0.0
 10
13.0044540748
 20
7.8446820266
 30
0.0
 10
12.9999269945
 20
7.857733123
 30
0.0
 10
12.9956077454
 20
7.8717079004
 30
0.0
 10
12.9915045776
 20
7.886580146
 30
0.0
 10
12.987625398
 20
7.9023217185
 30
0.0
 10
12.9839777152
 20
7.9189027683
 30
0.0
 10
12.9805685765
 20
7.9362917517
 30
0.0
 10
12.9774045745
 20
7.9544555284
 30
0.0
 10
12.9744918423
 20
7.9733594471
 30
0.0
 10
12.971836038
 20
7.9929674107
 30
0.0
 10
12.9694422942
 20
8.0132419405
 30
0.0
 10
12.967315244
 20
8.0341442632
 30
0.0
 10
12.9654590151
 20
8.055634397
 30
0.0
 10
12.9638772143
 20
8.0776712238
 30
0.0
 10
12.9625729036
 20
8.1002125512
 30
0.0
 10
12.9615485768
 20
8.1232152601
 30
0.0
 10
12.9605515513
 20
8.1546755953
 30
0.0
 10
12.9600307097
 20
8.1948274515
 30
0.0
 10
12.9605428457
 20
8.2437771357
 30
0.0
 10
12.9621844304
 20
8.2934718486
 30
0.0
 10
12.9649430279
 20
8.3435312177
 30
0.0
 10
12.9687976892
 20
8.3935723056
 30
0.0
 10
12.9737188262
 20
8.4432123217
 30
0.0
 10
12.9796686655
 20
8.4920713191
 30
0.0
 10
12.9854847809
 20
8.5320943715
 30
0.0
 10
12.9906283685
 20
8.5634328929
 30
0.0
 10
12.9946861218
 20
8.5863503968
 30
0.0
 10
12.9989623753
 20
8.6087981609
 30
0.0
 10
13.003448958
 20
8.6307332395
 30
0.0
 10
13.0081372234
 20
8.6521136448
 30
0.0
 10
13.013018157
 20
8.6728984687
 30
0.0
 10
13.0180823792
 20
8.6930479423
 30
0.0
 10
13.0233201556
 20
8.7125235304
 30
0.0
 10
13.0287213953
 20
8.7312880157
 30
0.0
 10
13.0342757033
 20
8.7493055578
 30
0.0
 10
13.0399724028
 20
8.7665417617
 30
0.0
 10
13.0458005353
 20
8.7829637701
 30
0.0
 10
13.0517488803
 20
8.7985403354
 30
0.0
 10
13.0578060107
 20
8.8132418819
 30
0.0
 10
13.0639603238
 20
8.8270405366
 30
0.0
 10
13.0702000717
 20
8.8399103542
 30
0.0
 10
13.0765133325
 20
8.85182695
 30
0.0
 10
13.0819125316
 20
8.8610940772
 30
0.0
 10
13.086268331
 20
8.8680007611
 30
0.0
 10
13.089491211
 20
8.8728414898
 30
0.0
 10
13.0927234398
 20
8.8774277675
 30
0.0
 10
13.0959635842
 20
8.8817574484
 30
0.0
 10
13.0992101227
 20
8.8858285649
 30
0.0
 10
13.1024616411
 20
8.8896391646
 30
0.0
 10
13.1057163895
 20
8.893187279
 30
0.0
 10
13.1079313987
 20
8.8954210012
 30
0.0
 10
13.1090394714
 20
8.8964913173
 30
0.0
  0
SPLINE
  5
3C7
100
AcDbEntity
  8
0
100
AcDbSpline
 62
7
  6
CONTINUOUS
 70
0
 71
3
 72
15
 73
11
 74
0
 42
0.0000001
 43
0.0000001
 44
0.0000000001
 40
0.0
 40
0.0
 40
0.0
 40
0.0
 40
0.0836370061
 40
0.1755291364
 40
0.2775893666
 40
0.3919536032
 40
0.5207813835
 40
0.6656820662
 40
0.8265288182
 40
1.0
 40
1.0
 40
1.0
 40
1.0
 10
10.7458685053
 20
7.5924999361
 30
0.0
 10
10.7447549606
 20
7.5929647795
 30
0.0
 10
10.7424748684
 20
7.5940816048
 30
0.0
 10
10.7390926627
 20
7.5962409595
 30
0.0
 10
10.7356219243
 20
7.5990373297
 30
0.0
 10
10.7320931931
 20
7.6025660466
 30
0.0
 10
10.7285621064
 20
7.6069242276
 30
0.0
 10
10.7251247929
 20
7.6121806128
 30
0.0
 10
10.7219252195
 20
7.6183214784
 30
0.0
 10
10.7201088795
 20
7.622798636
 30
0.0
 10
10.7192708889
 20
7.6251569329
 30
0.0
  0
SPLINE
  5
3C8
100
AcDbEntity
  8
0
100
AcDbSpline
 62
7
  6
CONTINUOUS
 70
0
 71
3
 72
15
 73
11
 74
0
 42
0.0000001
 43
0.0000001
 44
0.0000000001
 40
0.0
 40
0.0
 40
0.0
 40
0.0
 40
0.1084411279
 40
0.2203204234
 40
0.3363917976
 40
0.4573220227
 40
0.5836916406
 40
0.7159994405
 40
0.8546588732
 40
1.0
 40
1.0
 40
1.0
 40
1.0
 10
13.1388033594
 20
8.9140197171
 30
0.0
 10
13.1375639286
 20
8.9137667151
 30
0.0
 10
13.1350689548
 20
8.9131323027
 30
0.0
 10
13.1313626522
 20
8.9118293898
 30
0.0
 10
13.1276443127
 20
8.9101642047
 30
0.0
 10
13.1239166123
 20
8.9081383911
 30
0.0
 10
13.1201814052
 20
8.9057536856
 30
0.0
 10
13.1164407206
 20
8.9030118144
 30
0.0
 10
13.1126968351
 20
8.8999149071
 30
0.0
 10
13.1102589217
 20
8.8976692159
 30
0.0
 10
13.1090394714
 20
8.8964913173
 30
0.0
  0
SPLINE
  5
3C9
100
AcDbEntity
  8
0
100
AcDbSpline
 62
7
  6
CONTINUOUS
 70
0
 71
3
 72
24
 73
20
 74
0
 42
0.0000001
 43
0.0000001
 44
0.0000000001
 40
0.0
 40
0.0
 40
0.0
 40
0.0
 40
0.0982352545
 40
0.1906313754
 40
0.2772421391
 40
0.3581487601
 40
0.4334672892
 40
0.5033638728
 40
0.5680530668
 40
0.6278259878
 40
0.6830584491
 40
0.7091293541
 40
0.7342585173
 40
0.7819982367
 40
0.8270605668
 40
0.8703545305
 40
0.9128995244
 40
0.9557656574
 40
1.0
 40
1.0
 40
1.0
 40
1.0
 10
11.0170678123
 20
8.1981254981
 30
0.0
 10
11.0168875704
 20
8.1971545494
 30
0.0
 10
11.0165756225
 20
8.1952630311
 30
0.0
 10
11.0162457727
 20
8.1924945831
 30
0.0
 10
11.01606385
 20
8.1898869182
 30
0.0
 10
11.0160252736
 20
8.1874447465
 30
0.0
 10
11.0161254653
 20
8.1851722883
 30
0.0
 10
11.0163596576
 20
8.1830734249
 30
0.0
 10
11.0167233062
 20
8.1811515234
 30
0.0
 10
11.0172118354
 20
8.1794098639
 30
0.0
 10
11.0177291756
 20
8.1780861783
 30
0.0
 10
11.0182040667
 20
8.1771267195
 30
0.0
 10
11.0186989848
 20
8.1762634208
 30
0.0
 10
11.0193866046
 20
8.1752927573
 30
0.0
 10
11.0203356374
 20
8.1742998924
 30
0.0
 10
11.0213902546
 20
8.1735027808
 30
0.0
 10
11.0225451074
 20
8.1729053429
 30
0.0
 10
11.0237933404
 20
8.1725104065
 30
0.0
 10
11.0246642234
 20
8.1723853421
 30
0.0
 10
11.0251078312
 20
8.1723545129
 30
0.0
  0
SPLINE
  5
3CA
100
AcDbEntity
  8
0
100
AcDbSpline
 62
7
  6
CONTINUOUS
 70
0
 71
3
 72
39
 73
35
 74
0
 42
0.0000001
 43
0.0000001
 44
0.0000000001
 40
0.0
 40
0.0
 40
0.0
 40
0.0
 40
0.0299424698
 40
0.0599093171
 40
0.0899243244
 40
0.1200101049
 40
0.1501875654
 40
0.1804754197
 40
0.2108897678
 40
0.2414437479
 40
0.2721472748
 40
0.3030068601
 40
0.3340255156
 40
0.3652027379
 40
0.3965345747
 40
0.4280137612
 40
0.4596299196
 40
0.491369815
 40
0.5232176628
 40
0.555155479
 40
0.5871634623
 40
0.619220404
 40
0.6513041182
 40
0.6833918873
 40
0.7154609133
 40
0.74748877
 40
0.7794538516
 40
0.811335809
 40
0.8431159677
 40
0.8747777197
 40
0.9063068786
 40
0.9376920899
 40
0.9689246486
 40
1.0
 40
1.0
 40
1.0
 40
1.0
 10
8.200027623
 20
7.6305142939
 30
0.0
 10
8.2081897419
 20
7.6383982687
 30
0.0
 10
8.2251558183
 20
7.6535299094
 30
0.0
 10
8.2523380841
 20
7.6741440954
 30
0.0
 10
8.2811145907
 20
7.6925718109
 30
0.0
 10
8.3113245271
 20
7.7087097102
 30
0.0
 10
8.3428018076
 20
7.7224696261
 30
0.0
 10
8.3753727227
 20
7.7337758998
 30
0.0
 10
8.4088577879
 20
7.7425666585
 30
0.0
 10
8.4430725156
 20
7.7487939387
 30
0.0
 10
8.4778285276
 20
7.7524239182
 30
0.0
 10
8.5129345725
 20
7.7534370717
 30
0.0
 10
8.5481975751
 20
7.751828251
 30
0.0
 10
8.5834236958
 20
7.7476067668
 30
0.0
 10
8.6184193916
 20
7.7407962441
 30
0.0
 10
8.6529924617
 20
7.7314344762
 30
0.0
 10
8.6869530803
 20
7.719573196
 30
0.0
 10
8.7201148394
 20
7.7052778417
 30
0.0
 10
8.7522957631
 20
7.6886271759
 30
0.0
 10
8.7833192734
 20
7.6697128112
 30
0.0
 10
8.8130151439
 20
7.6486387158
 30
0.0
 10
8.841220425
 20
7.6255206602
 30
0.0
 10
8.8677803665
 20
7.6004856266
 30
0.0
 10
8.8925492124
 20
7.5736710558
 30
0.0
 10
8.9153909963
 20
7.5452241133
 30
0.0
 10
8.9361802665
 20
7.5153008847
 30
0.0
 10
8.9548028298
 20
7.4840655746
 30
0.0
 10
8.9711563371
 20
7.4516895741
 30
0.0
 10
8.9851508261
 20
7.4183505481
 30
0.0
 10
8.9967091988
 20
7.3842313975
 30
0.0
 10
9.00576772
 20
7.3495195645
 30
0.0
 10
9.0122762627
 20
7.3144050167
 30
0.0
 10
9.0161988601
 20
7.2790830586
 30
0.0
 10
9.0170774243
 20
7.2554596931
 30
0.0
 10
9.0170774243
 20
7.243682332
 30
0.0
  0
SPLINE
  5
3CB
100
AcDbEntity
  8
0
100
AcDbSpline
 62
7
  6
CONTINUOUS
 70
0
 71
3
 72
83
 73
79
 74
0
 42
0.0000001
 43
0.0000001
 44
0.0000000001
 40
0.0
 40
0.0
 40
0.0
 40
0.0
 40
0.0039165592
 40
0.0079941979
 40
0.0122363565
 40
0.0166459536
 40
0.021225456
 40
0.0259767935
 40
0.0309012651
 40
0.0359997511
 40
0.0412727228
 40
0.0467202923
 40
0.0523422802
 40
0.05813815
 40
0.0702477787
 40
0.0830405432
 40
0.0965038762
 40
0.1106222528
 40
0.1253775538
 40
0.1407493462
 40
0.1567151289
 40
0.1732505407
 40
0.1903295314
 40
0.2079245108
 40
0.2260064752
 40
0.2445451324
 40
0.2635090221
 40
0.282865621
 40
0.3025814425
 40
0.3226221294
 40
0.3429525474
 40
0.3635368837
 40
0.3843387359
 40
0.4053211994
 40
0.4476776997
 40
0.4903050708
 40
0.5328988711
 40
0.5751549576
 40
0.596062417
 40
0.6167729485
 40
0.637249854
 40
0.6574569801
 40
0.677358806
 40
0.6969205316
 40
0.7161081686
 40
0.7348886361
 40
0.7532298666
 40
0.7711009074
 40
0.7884720245
 40
0.8053148183
 40
0.8216023502
 40
0.8373092937
 40
0.8524120925
 40
0.8668891367
 40
0.880720978
 40
0.8938905896
 40
0.9063836966
 40
0.9181891814
 40
0.9238318507
 40
0.9293001502
 40
0.934593855
 40
0.939713037
 40
0.9446581228
 40
0.9494299699
 40
0.9540298281
 40
0.9584594935
 40
0.9627212867
 40
0.9668181558
 40
0.9707537812
 40
0.9745325932
 40
0.9781599654
 40
0.981642245
 40
0.9849869068
 40
0.9882026824
 40
0.9912996186
 40
0.9942892381
 40
0.9971845335
 40
1.0
 40
1.0
 40
1.0
 40
1.0
 10
13.1090394714
 20
7.5615817462
 30
0.0
 10
13.1105904181
 20
7.5630798458
 30
0.0
 10
13.1136907115
 20
7.5662059562
 30
0.0
 10
13.118246526
 20
7.5711708673
 30
0.0
 10
13.1227977826
 20
7.5765022068
 30
0.0
 10
13.1273421378
 20
7.5821972294
 30
0.0
 10
13.131877605
 20
7.5882532799
 30
0.0
 10
13.1364020682
 20
7.5946676017
 30
0.0
 10
13.1409135075
 20
7.6014371637
 30
0.0
 10
13.1454097338
 20
7.6085588015
 30
0.0
 10
13.1498886379
 20
7.6160291443
 30
0.0
 10
13.1543481309
 20
7.6238446558
 30
0.0
 10
13.1587860827
 20
7.6320016819
 30
0.0
 10
13.1647593211
 20
7.6434964164
 30
0.0
 10
13.1721432143
 20
7.6587035895
 30
0.0
 10
13.1807602544
 20
7.6779922353
 30
0.0
 10
13.1892419964
 20
7.6985422934
 30
0.0
 10
13.1975722434
 20
7.7203148141
 30
0.0
 10
13.2057350785
 20
7.7432687464
 30
0.0
 10
13.2137148898
 20
7.7673606128
 30
0.0
 10
13.221496411
 20
7.7925447327
 30
0.0
 10
13.229064748
 20
7.8187732957
 30
0.0
 10
13.2364054149
 20
7.8459964741
 30
0.0
 10
13.2435043584
 20
7.8741625168
 30
0.0
 10
13.2503479965
 20
7.9032178479
 30
0.0
 10
13.256923243
 20
7.9331071748
 30
0.0
 10
13.2632175236
 20
7.9637736041
 30
0.0
 10
13.2692188034
 20
7.9951587547
 30
0.0
 10
13.2749156066
 20
8.0272028674
 30
0.0
 10
13.2802970441
 20
8.0598449153
 30
0.0
 10
13.2853528421
 20
8.0930227262
 30
0.0
 10
13.2900733346
 20
8.1266730882
 30
0.0
 10
13.2944495437
 20
8.1607319474
 30
0.0
 10
13.2998307861
 20
8.2067442495
 30
0.0
 10
13.3056329771
 20
8.264801722
 30
0.0
 10
13.3110871909
 20
8.3348350588
 30
0.0
 10
13.3150125897
 20
8.4049153369
 30
0.0
 10
13.3169921425
 20
8.4631133452
 30
0.0
 10
13.3177805021
 20
8.5092856769
 30
0.0
 10
13.3179724928
 20
8.543473284
 30
0.0
 10
13.317767043
 20
8.5772752114
 30
0.0
 10
13.3171645411
 20
8.6106271183
 30
0.0
 10
13.3161661752
 20
8.643465462
 30
0.0
 10
13.314773879
 20
8.6757276998
 30
0.0
 10
13.3129903428
 20
8.7073523847
 30
0.0
 10
13.3108190028
 20
8.7382792929
 30
0.0
 10
13.3082640496
 20
8.7684495431
 30
0.0
 10
13.305330413
 20
8.7978057114
 30
0.0
 10
13.3020237475
 20
8.8262919387
 30
0.0
 10
13.2983504246
 20
8.8538540372
 30
0.0
 10
13.2943175169
 20
8.880439602
 30
0.0
 10
13.2899327968
 20
8.905998125
 30
0.0
 10
13.2852047184
 20
8.9304810973
 30
0.0
 10
13.280142389
 20
8.9538421161
 30
0.0
 10
13.2747555514
 20
8.9760369461
 30
0.0
 10
13.2690545503
 20
8.9970237552
 30
0.0
 10
13.2630503113
 20
9.0167627801
 30
0.0
 10
13.2577264953
 20
9.0323681916
 30
0.0
 10
13.2533115276
 20
9.0441883137
 30
0.0
 10
13.2499815712
 20
9.0525846136
 30
0.0
 10
13.2465845854
 20
9.0606421682
 30
0.0
 10
13.2431221246
 20
9.0683571898
 30
0.0
 10
13.2395957943
 20
9.075726029
 30
0.0
 10
13.2360073134
 20
9.0827452484
 30
0.0
 10
13.2323582712
 20
9.089411524
 30
0.0
 10
13.228650421
 20
9.0957217612
 30
0.0
 10
13.2248854394
 20
9.1016730046
 30
0.0
 10
13.2210650042
 20
9.1072624576
 30
0.0
 10
13.2171908974
 20
9.1124875537
 30
0.0
 10
13.2132647346
 20
9.1173457895
 30
0.0
 10
13.2092882937
 20
9.1218349249
 30
0.0
 10
13.2052632302
 20
9.1259527952
 30
0.0
 10
13.2011912098
 20
9.1296973583
 30
0.0
 10
13.1970739706
 20
9.133066784
 30
0.0
 10
13.1929131536
 20
9.1360591523
 30
0.0
 10
13.1887104666
 20
9.138672863
 30
0.0
 10
13.184468082
 20
9.140906067
 30
0.0
 10
13.1815787169
 20
9.1421556183
 30
0.0
 10
13.1801321397
 20
9.1427125982
 30
0.0
  0
SPLINE
  5
3CC
100
AcDbEntity
  8
0
100
AcDbSpline
 62
7
  6
CONTINUOUS
 70
0
 71
3
 72
15
 73
11
 74
0
 42
0.0000001
 43
0.0000001
 44
0.0000000001
 40
0.0
 40
0.0
 40
0.0
 40
0.0
 40
0.1446698433
 40
0.2829326539
 40
0.415089484
 40
0.5415163818
 40
0.6626622854
 40
0.7790476727
 40
0.8912685909
 40
1.0
 40
1.0
 40
1.0
 40
1.0
 10
13.1090394714
 20
7.5615817462
 30
0.0
 10
13.1073912677
 20
7.5599897036
 30
0.0
 10
13.1040961365
 20
7.5569490563
 30
0.0
 10
13.0990404043
 20
7.5527408449
 30
0.0
 10
13.0939887754
 20
7.5489938471
 30
0.0
 10
13.0889441363
 20
7.5457106548
 30
0.0
 10
13.0839089992
 20
7.542893471
 30
0.0
 10
13.0788857653
 20
7.5405443582
 30
0.0
 10
13.0738776995
 20
7.5386654699
 30
0.0
 10
13.070504075
 20
7.5377145987
 30
0.0
 10
13.0688269811
 20
7.5373226489
 30
0.0
  0
SPLINE
  5
3CD
100
AcDbEntity
  8
0
100
AcDbSpline
 62
7
  6
CONTINUOUS
 70
0
 71
3
 72
20
 73
16
 74
0
 42
0.0000001
 43
0.0000001
 44
0.0000000001
 40
0.0
 40
0.0
 40
0.0
 40
0.0
 40
0.0781502921
 40
0.1532587879
 40
0.2948058952
 40
0.4259483122
 40
0.5483879941
 40
0.6070387028
 40
0.6643559781
 40
0.7206745217
 40
0.7763485982
 40
0.8317461923
 40
0.8872411145
 40
0.9432051823
 40
1.0
 40
1.0
 40
1.0
 40
1.0
 10
13.1090394714
 20
7.7856765512
 30
0.0
 10
13.1080066164
 20
7.7846788899
 30
0.0
 10
13.1059414293
 20
7.7827626926
 30
0.0
 10
13.1018100807
 20
7.7792570766
 30
0.0
 10
13.0966483287
 20
7.7754681646
 30
0.0
 10
13.0903372261
 20
7.7718450746
 30
0.0
 10
13.085013354
 20
7.7696516136
 30
0.0
 10
13.0807975936
 20
7.7684469895
 30
0.0
 10
13.0776919744
 20
7.7678155122
 30
0.0
 10
13.0745996574
 20
7.7674439818
 30
0.0
 10
13.0715222235
 20
7.7673328681
 30
0.0
 10
13.0684615305
 20
7.7674822986
 30
0.0
 10
13.06541932
 20
7.7678922148
 30
0.0
 10
13.0623976449
 20
7.768562314
 30
0.0
 10
13.0604160424
 20
7.7691764821
 30
0.0
 10
13.0594321272
 20
7.7695243551
 30
0.0
  0
SPLINE
  5
3CE
100
AcDbEntity
  8
0
100
AcDbSpline
 62
7
  6
CONTINUOUS
 70
0
 71
3
 72
81
 73
77
 74
0
 42
0.0000001
 43
0.0000001
 44
0.0000000001
 40
0.0
 40
0.0
 40
0.0
 40
0.0
 40
0.0040523
 40
0.0082800607
 40
0.0126871453
 40
0.0172767676
 40
0.0220516095
 40
0.0270137572
 40
0.0321645622
 40
0.0375048519
 40
0.043035017
 40
0.0487549916
 40
0.0607619183
 40
0.0735190437
 40
0.087014504
 40
0.1012325497
 40
0.1161540562
 40
0.1317569258
 40
0.1480164485
 40
0.1649055806
 40
0.1823951717
 40
0.200454143
 40
0.2190496755
 40
0.2381473809
 40
0.2577114442
 40
0.2777047486
 40
0.2980889978
 40
0.3188248566
 40
0.3398720686
 40
0.3827347929
 40
0.4263417459
 40
0.4703491099
 40
0.514409022
 40
0.5581731
 40
0.6012959281
 40
0.6225110233
 40
0.6434394292
 40
0.6640403808
 40
0.6842739777
 40
0.7041012903
 40
0.7234844759
 40
0.7423869065
 40
0.7607733182
 40
0.7786099377
 40
0.7958646234
 40
0.8125070285
 40
0.8285088054
 40
0.8438438177
 40
0.8584883682
 40
0.8724214924
 40
0.8856253318
 40
0.8980856159
 40
0.9097922254
 40
0.9153614065
 40
0.9207407001
 40
0.9259303755
 40
0.9309312202
 40
0.9357444643
 40
0.9403719534
 40
0.9448161817
 40
0.949080328
 40
0.9531684682
 40
0.9570855643
 40
0.9608376623
 40
0.9644320366
 40
0.967877261
 40
0.9711834636
 40
0.9774234772
 40
0.9803900893
 40
0.9832752684
 40
0.9860977592
 40
0.9888777013
 40
0.991636254
 40
0.9943951185
 40
0.9971759862
 40
1.0
 40
1.0
 40
1.0
 40
1.0
 10
13.1090394714
 20
7.7856765512
 30
0.0
 10
13.1102034821
 20
7.7868008993
 30
0.0
 10
13.1125301692
 20
7.7891523319
 30
0.0
 10
13.1159454799
 20
7.7928967389
 30
0.0
 10
13.119357022
 20
7.7969299769
 30
0.0
 10
13.1227628211
 20
7.801249754
 30
0.0
 10
13.1261612456
 20
7.8058538201
 30
0.0
 10
13.1295505361
 20
7.8107398707
 30
0.0
 10
13.1329290208
 20
7.8159053613
 30
0.0
 10
13.1362949105
 20
7.821347606
 30
0.0
 10
13.1396464395
 20
7.8270637803
 30
0.0
 10
13.1441669668
 20
7.8351783113
 30
0.0
 10
13.1497571576
 20
7.8459971308
 30
0.0
 10
13.1562764578
 20
7.8598192594
 30
0.0
 10
13.1626972844
 20
7.8746545779
 30
0.0
 10
13.1690060809
 20
7.8904720278
 30
0.0
 10
13.1751895097
 20
7.9072386922
 30
0.0
 10
13.1812344867
 20
7.9249194631
 30
0.0
 10
13.1871282022
 20
7.9434772713
 30
0.0
 10
13.1928581609
 20
7.9628731511
 30
0.0
 10
13.1984122055
 20
7.9830663357
 30
0.0
 10
13.2037785665
 20
8.0040143367
 30
0.0
 10
13.2089458762
 20
8.0256730462
 30
0.0
 10
13.2139031859
 20
8.0479968458
 30
0.0
 10
13.2186399894
 20
8.0709387038
 30
0.0
 10
13.223146253
 20
8.0944502723
 30
0.0
 10
13.2274124356
 20
8.1184819737
 30
0.0
 10
13.2314295487
 20
8.1429831742
 30
0.0
 10
13.236472556
 20
8.1764104457
 30
0.0
 10
13.2420828735
 20
8.2189857848
 30
0.0
 10
13.2476627857
 20
8.2707990937
 30
0.0
 10
13.2520827502
 20
8.3232040971
 30
0.0
 10
13.2553055089
 20
8.3757591781
 30
0.0
 10
13.2573038759
 20
8.4280214556
 30
0.0
 10
13.257938694
 20
8.4711937671
 30
0.0
 10
13.2578116225
 20
8.5052468682
 30
0.0
 10
13.2574034675
 20
8.5303023441
 30
0.0
 10
13.2566829533
 20
8.5549586392
 30
0.0
 10
13.2556516063
 20
8.5791638046
 30
0.0
 10
13.2543116466
 20
8.6028667957
 30
0.0
 10
13.2526659363
 20
8.626017643
 30
0.0
 10
13.2507179854
 20
8.6485675479
 30
0.0
 10
13.2484719646
 20
8.6704689982
 30
0.0
 10
13.2459326759
 20
8.6916758671
 30
0.0
 10
13.2431055436
 20
8.7121435055
 30
0.0
 10
13.2399965975
 20
8.7318288443
 30
0.0
 10
13.2366124786
 20
8.7506905025
 30
0.0
 10
13.2329604226
 20
8.7686888834
 30
0.0
 10
13.2290482244
 20
8.7857862691
 30
0.0
 10
13.2248842194
 20
8.8019468748
 30
0.0
 10
13.2204772513
 20
8.817137087
 30
0.0
 10
13.2158366606
 20
8.8313251265
 30
0.0
 10
13.2117172966
 20
8.8424673191
 30
0.0
 10
13.2083009443
 20
8.8508459729
 30
0.0
 10
13.2057290929
 20
8.8567563455
 30
0.0
 10
13.2031062736
 20
8.8623949515
 30
0.0
 10
13.2004338851
 20
8.8677588944
 30
0.0
 10
13.1977132543
 20
8.8728453672
 30
0.0
 10
13.1949457898
 20
8.8776517423
 30
0.0
 10
13.1921329302
 20
8.8821755565
 30
0.0
 10
13.1892760094
 20
8.8864144353
 30
0.0
 10
13.1863765129
 20
8.8903662387
 30
0.0
 10
13.183435813
 20
8.8940288943
 30
0.0
 10
13.1804552566
 20
8.897400503
 30
0.0
 10
13.1774364261
 20
8.9004792508
 30
0.0
 10
13.1743801409
 20
8.903263679
 30
0.0
 10
13.1703367832
 20
8.9065180482
 30
0.0
 10
13.1661393653
 20
8.9092676244
 30
0.0
 10
13.1618139861
 20
8.9114248162
 30
0.0
 10
13.1585941043
 20
8.9127141334
 30
0.0
 10
13.1553465556
 20
8.9137003645
 30
0.0
 10
13.1520732223
 20
8.9143826504
 30
0.0
 10
13.1487764057
 20
8.9147601271
 30
0.0
 10
13.1454584065
 20
8.9148325753
 30
0.0
 10
13.1421219296
 20
8.9145999855
 30
0.0
 10
13.1399083914
 20
8.9142452847
 30
0.0
 10
13.1388033594
 20
8.9140197171
 30
0.0
  0
SPLINE
  5
3CF
100
AcDbEntity
  8
0
100
AcDbSpline
 62
7
  6
CONTINUOUS
 70
0
 71
3
 72
53
 73
49
 74
0
 42
0.0000001
 43
0.0000001
 44
0.0000000001
 40
0.0
 40
0.0
 40
0.0
 40
0.0
 40
0.0094764718
 40
0.0194607499
 40
0.0299510104
 40
0.0409432183
 40
0.0524316016
 40
0.0644087203
 40
0.0768657297
 40
0.0897925242
 40
0.1031777744
 40
0.1170091765
 40
0.1312733751
 40
0.1459561776
 40
0.1610425491
 40
0.1765166667
 40
0.2085608588
 40
0.2419497287
 40
0.276534402
 40
0.3121582059
 40
0.3486578834
 40
0.3858647468
 40
0.4236057919
 40
0.4617047902
 40
0.4999833742
 40
0.5382621086
 40
0.5763615573
 40
0.6141033495
 40
0.6513112526
 40
0.6878122569
 40
0.7234376663
 40
0.7580242134
 40
0.7914152128
 40
0.8234617748
 40
0.8389371651
 40
0.8540248599
 40
0.8687090423
 40
0.8829746649
 40
0.8968075405
 40
0.9101943061
 40
0.9231226538
 40
0.935581257
 40
0.9475599959
 40
0.959050032
 40
0.9700439094
 40
0.9805358597
 40
0.9905218441
 40
1.0
 40
1.0
 40
1.0
 40
1.0
 10
12.9990784312
 20
7.8605293104
 30
0.0
 10
13.0007413336
 20
7.8631905151
 30
0.0
 10
13.0040497418
 20
7.8687226083
 30
0.0
 10
13.0088475121
 20
7.8774047344
 30
0.0
 10
13.0136042173
 20
7.8866772529
 30
0.0
 10
13.0183139436
 20
7.8965285621
 30
0.0
 10
13.022970788
 20
7.9069465757
 30
0.0
 10
13.0275689663
 20
7.9179183712
 30
0.0
 10
13.032102729
 20
7.9294303439
 30
0.0
 10
13.0365663639
 20
7.9414681945
 30
0.0
 10
13.0409543334
 20
7.9540169347
 30
0.0
 10
13.0452610729
 20
7.9670609448
 30
0.0
 10
13.0494812348
 20
7.980583958
 30
0.0
 10
13.0536094909
 20
7.9945691062
 30
0.0
 10
13.0576406956
 20
8.008998953
 30
0.0
 10
13.0629411674
 20
8.02904134
 30
0.0
 10
13.0692722978
 20
8.05507735
 30
0.0
 10
13.0763205565
 20
8.0874414189
 30
0.0
 10
13.0828697506
 20
8.1211183858
 30
0.0
 10
13.0888869162
 20
8.1559400437
 30
0.0
 10
13.0943417427
 20
8.1917326373
 30
0.0
 10
13.0992067924
 20
8.2283174183
 30
0.0
 10
13.1034576132
 20
8.2655116503
 30
0.0
 10
13.1070728721
 20
8.3031295103
 30
0.0
 10
13.1100344485
 20
8.3409830386
 30
0.0
 10
13.1123275254
 20
8.3788830869
 30
0.0
 10
13.1139406626
 20
8.4166402718
 30
0.0
 10
13.1148658553
 20
8.4540659295
 30
0.0
 10
13.1150985773
 20
8.4909730675
 30
0.0
 10
13.1146378172
 20
8.5271773189
 30
0.0
 10
13.1134860698
 20
8.5624978523
 30
0.0
 10
13.1116493644
 20
8.5967583831
 30
0.0
 10
13.1091371255
 20
8.6297877539
 30
0.0
 10
13.1064614529
 20
8.6564504656
 30
0.0
 10
13.1039790427
 20
8.6770343938
 30
0.0
 10
13.1019788037
 20
8.6918839587
 30
0.0
 10
13.0998210561
 20
8.70630654
 30
0.0
 10
13.0975084743
 20
8.7202841559
 30
0.0
 10
13.0950440188
 20
8.7337993624
 30
0.0
 10
13.0924307332
 20
8.7468353081
 30
0.0
 10
13.0896719709
 20
8.7593757527
 30
0.0
 10
13.0867711569
 20
8.7714050858
 30
0.0
 10
13.0837319579
 20
8.7829083526
 30
0.0
 10
13.080558208
 20
8.793871284
 30
0.0
 10
13.0772538379
 20
8.8042802795
 30
0.0
 10
13.0738230293
 20
8.8141225529
 30
0.0
 10
13.0702700419
 20
8.8233857898
 30
0.0
 10
13.067757213
 20
8.8293229417
 30
0.0
 10
13.0664777138
 20
8.832188886
 30
0.0
  0
SPLINE
  5
3D0
100
AcDbEntity
  8
0
100
AcDbSpline
 62
7
  6
CONTINUOUS
 70
0
 71
3
 72
71
 73
67
 74
0
 42
0.0000001
 43
0.0000001
 44
0.0000000001
 40
0.0
 40
0.0
 40
0.0
 40
0.0
 40
0.0155842357
 40
0.031115943
 40
0.0465952487
 40
0.0620238831
 40
0.0774034484
 40
0.0927362827
 40
0.1080251234
 40
0.1232731737
 40
0.1384840555
 40
0.1536617759
 40
0.1688106894
 40
0.1839354528
 40
0.1990409785
 40
0.2141323826
 40
0.2292149324
 40
0.2442939897
 40
0.2593749538
 40
0.2744632037
 40
0.2895640404
 40
0.3046826304
 40
0.3198239511
 40
0.3349927396
 40
0.3501934435
 40
0.3654301766
 40
0.3807066777
 40
0.3960262752
 40
0.4113918557
 40
0.4268058391
 40
0.4422701589
 40
0.4577862478
 40
0.4733550285
 40
0.4889769092
 40
0.5046517848
 40
0.5203790431
 40
0.5361575763
 40
0.5519857963
 40
0.5678616538
 40
0.5837826609
 40
0.5997459179
 40
0.6157481418
 40
0.6317856999
 40
0.6478546445
 40
0.6639507499
 40
0.6800695506
 40
0.6962063818
 40
0.7123564201
 40
0.7285147273
 40
0.7446762933
 40
0.7608360799
 40
0.7769890645
 40
0.7931302835
 40
0.8092548753
 40
0.8253581239
 40
0.8414355006
 40
0.8574827053
 40
0.873495705
 40
0.8894707706
 40
0.9054045132
 40
0.921293919
 40
0.9371363616
 40
0.9529297193
 40
0.9686720808
 40
0.9843626423
 40
1.0
 40
1.0
 40
1.0
 40
1.0
 10
10.5557973918
 20
7.7097657837
 30
0.0
 10
10.5557973918
 20
7.7187740605
 30
0.0
 10
10.5562382452
 20
7.7367634449
 30
0.0
 10
10.558228257
 20
7.7636341845
 30
0.0
 10
10.5615413713
 20
7.7902841965
 30
0.0
 10
10.5661694362
 20
7.816648216
 30
0.0
 10
10.5721015313
 20
7.8426630917
 30
0.0
 10
10.5793233445
 20
7.8682659839
 30
0.0
 10
10.587817576
 20
7.8933951978
 30
0.0
 10
10.5975637948
 20
7.9179901288
 30
0.0
 10
10.6085385506
 20
7.9419914674
 30
0.0
 10
10.6207154279
 20
7.9653413244
 30
0.0
 10
10.6340651063
 20
7.9879833758
 30
0.0
 10
10.6485554318
 20
8.0098629976
 30
0.0
 10
10.6641514934
 20
8.0309273992
 30
0.0
 10
10.6808157021
 20
8.051125755
 30
0.0
 10
10.6985078689
 20
8.0704093426
 30
0.0
 10
10.7171853234
 20
8.0887316466
 30
0.0
 10
10.7368030146
 20
8.1060484739
 30
0.0
 10
10.7573136212
 20
8.1223180601
 30
0.0
 10
10.7786676655
 20
8.1375011719
 30
0.0
 10
10.8008136363
 20
8.1515611988
 30
0.0
 10
10.8236981007
 20
8.1644642638
 30
0.0
 10
10.8472658475
 20
8.1761792918
 30
0.0
 10
10.871460025
 20
8.1866780777
 30
0.0
 10
10.8962222782
 20
8.1959353547
 30
0.0
 10
10.9214928905
 20
8.203928854
 30
0.0
 10
10.9472109285
 20
8.2106393542
 30
0.0
 10
10.9733143856
 20
8.2160507391
 30
0.0
 10
10.9997403337
 20
8.2201500425
 30
0.0
 10
11.0264250807
 20
8.2229274562
 30
0.0
 10
11.0533043226
 20
8.2243763566
 30
0.0
 10
11.0803132974
 20
8.2244933176
 30
0.0
 10
11.1073869401
 20
8.2232781172
 30
0.0
 10
11.1344600372
 20
8.2207337373
 30
0.0
 10
11.1614673868
 20
8.2168663788
 30
0.0
 10
11.1883439545
 20
8.2116854215
 30
0.0
 10
11.2150250287
 20
8.2052034002
 30
0.0
 10
11.2414463745
 20
8.1974359743
 30
0.0
 10
11.2675443869
 20
8.18840189
 30
0.0
 10
11.2932562398
 20
8.1781229318
 30
0.0
 10
11.3185200444
 20
8.1666238889
 30
0.0
 10
11.3432749972
 20
8.1539324882
 30
0.0
 10
11.36746152
 20
8.1400793154
 30
0.0
 10
11.3910214029
 20
8.1250977441
 30
0.0
 10
11.413897943
 20
8.1090238561
 30
0.0
 10
11.436036078
 20
8.091896354
 30
0.0
 10
11.4573825211
 20
8.0737564737
 30
0.0
 10
11.4778859013
 20
8.0546478976
 30
0.0
 10
11.4974968713
 20
8.0346166298
 30
0.0
 10
11.5161682277
 20
8.0137108894
 30
0.0
 10
11.5338550222
 20
7.9919809944
 30
0.0
 10
11.5505146698
 20
7.9694792432
 30
0.0
 10
11.5661070477
 20
7.9462597875
 30
0.0
 10
11.5805946118
 20
7.9223785162
 30
0.0
 10
11.5939424743
 20
7.8978929099
 30
0.0
 10
11.6061184823
 20
7.8728619009
 30
0.0
 10
11.6170932949
 20
7.8473457334
 30
0.0
 10
11.6268404545
 20
7.8214058212
 30
0.0
 10
11.635336449
 20
7.7951045971
 30
0.0
 10
11.6425607672
 20
7.7685053827
 30
0.0
 10
11.6484960112
 20
7.7416721768
 30
0.0
 10
11.6531277593
 20
7.7146697125
 30
0.0
 10
11.6564449655
 20
7.6875626087
 30
0.0
 10
11.6584393506
 20
7.6604171999
 30
0.0
 10
11.6588847158
 20
7.6423054013
 30
0.0
 10
11.6588847158
 20
7.6332664179
 30
0.0
  0
SPLINE
  5
3D1
100
AcDbEntity
  8
0
100
AcDbSpline
 62
7
  6
CONTINUOUS
 70
0
 71
3
 72
39
 73
35
 74
0
 42
0.0000001
 43
0.0000001
 44
0.0000000001
 40
0.0
 40
0.0
 40
0.0
 40
0.0
 40
0.0234885163
 40
0.0483834406
 40
0.0746242899
 40
0.102142903
 40
0.1308643872
 40
0.1607079035
 40
0.1915873416
 40
0.2234119189
 40
0.2560867264
 40
0.2895132402
 40
0.3235898056
 40
0.3582121061
 40
0.3932736189
 40
0.428666064
 40
0.4642798468
 40
0.5000044978
 40
0.5357291108
 40
0.5713427794
 40
0.6067350341
 40
0.6417962806
 40
0.6764182396
 40
0.7104943897
 40
0.7439204157
 40
0.7765946655
 40
0.8084186173
 40
0.8392973654
 40
0.8691401307
 40
0.8978608066
 40
0.9253785589
 40
0.9516184998
 40
0.976512473
 40
1.0
 40
1.0
 40
1.0
 40
1.0
 10
12.9768439374
 20
7.9588038927
 30
0.0
 10
12.9791780193
 20
7.9645306354
 30
0.0
 10
12.9837715399
 20
7.9764151727
 30
0.0
 10
12.9902801295
 20
7.9949559184
 30
0.0
 10
12.9965909249
 20
8.0146819045
 30
0.0
 10
13.0026827581
 20
8.0355279838
 30
0.0
 10
13.0085353405
 20
8.0574256081
 30
0.0
 10
13.0141291432
 20
8.0803025327
 30
0.0
 10
13.0194455217
 20
8.1040832389
 30
0.0
 10
13.0244667621
 20
8.1286891558
 30
0.0
 10
13.0291761441
 20
8.1540389451
 30
0.0
 10
13.0335579942
 20
8.1800487762
 30
0.0
 10
13.0375977367
 20
8.2066326117
 30
0.0
 10
13.0412819411
 20
8.2337024967
 30
0.0
 10
13.0445983655
 20
8.2611688546
 30
0.0
 10
13.0475359965
 20
8.2889407864
 30
0.0
 10
13.0500850849
 20
8.3169263748
 30
0.0
 10
13.0522371779
 20
8.3450329901
 30
0.0
 10
13.053985147
 20
8.3731675993
 30
0.0
 10
13.0553232109
 20
8.401237076
 30
0.0
 10
13.0562469562
 20
8.4291485105
 30
0.0
 10
13.0567533517
 20
8.4568095196
 30
0.0
 10
13.056840759
 20
8.4841285547
 30
0.0
 10
13.0565089391
 20
8.5110152076
 30
0.0
 10
13.0557590541
 20
8.5373805126
 30
0.0
 10
13.0545936649
 20
8.5631372454
 30
0.0
 10
13.0530167243
 20
8.5882002159
 30
0.0
 10
13.0510335661
 20
8.6124865587
 30
0.0
 10
13.0486508898
 20
8.6359160118
 30
0.0
 10
13.0458767385
 20
8.6584112086
 30
0.0
 10
13.0427204815
 20
8.6798979027
 30
0.0
 10
13.0391927556
 20
8.7003054054
 30
0.0
 10
13.0353055227
 20
8.7195662707
 30
0.0
 10
13.0323963258
 20
8.7319705534
 30
0.0
 10
13.0308749945
 20
8.7379643711
 30
0.0
  0
SPLINE
  5
3D2
100
AcDbEntity
  8
0
100
AcDbSpline
 62
7
  6
CONTINUOUS
 70
0
 71
3
 72
70
 73
66
 74
0
 42
0.0000001
 43
0.0000001
 44
0.0000000001
 40
0.0
 40
0.0
 40
0.0
 40
0.0
 40
0.0085742128
 40
0.0179225174
 40
0.0280750681
 40
0.0390499684
 40
0.0508538305
 40
0.0634848013
 40
0.0769342559
 40
0.0911878009
 40
0.1062261691
 40
0.1220260053
 40
0.138560371
 40
0.1557990732
 40
0.1737091024
 40
0.1922549504
 40
0.211398781
 40
0.2311006759
 40
0.2513188999
 40
0.2720100432
 40
0.3146288917
 40
0.3585841998
 40
0.4034855347
 40
0.4489313437
 40
0.4945137112
 40
0.5398231418
 40
0.5844533008
 40
0.6280058207
 40
0.6492573827
 40
0.6700962428
 40
0.6904770235
 40
0.7103557569
 40
0.7296901326
 40
0.7484396302
 40
0.7665656785
 40
0.7840319485
 40
0.8008045956
 40
0.8168524592
 40
0.8321474327
 40
0.8466649349
 40
0.8603842961
 40
0.8732893758
 40
0.8853694933
 40
0.896620431
 40
0.9070458371
 40
0.9166593113
 40
0.9254871329
 40
0.9296201465
 40
0.9335744016
 40
0.9373585101
 40
0.940982832
 40
0.9477983657
 40
0.9510242667
 40
0.954151261
 40
0.9571997333
 40
0.9601919004
 40
0.9631513546
 40
0.9661025682
 40
0.9690702375
 40
0.9720786223
 40
0.9751509051
 40
0.9783086733
 40
0.9849529369
 40
0.9921503643
 40
1.0
 40
1.0
 40
1.0
 40
1.0
 10
12.2118137155
 20
10.0890406913
 30
0.0
 10
12.2130527631
 20
10.0902375195
 30
0.0
 10
12.2157710033
 20
10.0926080948
 30
0.0
 10
12.220314465
 20
10.0959589448
 30
0.0
 10
12.2254846685
 20
10.0992471635
 30
0.0
 10
12.2312693528
 20
10.1024652902
 30
0.0
 10
12.2376556766
 20
10.1056063028
 30
0.0
 10
12.2446288291
 20
10.1086628719
 30
0.0
 10
12.2521725518
 20
10.1116277731
 30
0.0
 10
12.2602690801
 20
10.1144938866
 30
0.0
 10
12.268899207
 20
10.11725433
 30
0.0
 10
12.2780423852
 20
10.1199024201
 30
0.0
 10
12.2876767843
 20
10.1224317166
 30
0.0
 10
12.2977793345
 20
10.1248361015
 30
0.0
 10
12.3083258113
 20
10.127109745
 30
0.0
 10
12.3192909068
 20
10.1292471108
 30
0.0
 10
12.3306482809
 20
10.1312430168
 30
0.0
 10
12.3423706225
 20
10.1330926273
 30
0.0
 10
12.3544297682
 20
10.1347914808
 30
0.0
 10
12.3710831033
 20
10.1368704267
 30
0.0
 10
12.3925268888
 20
10.1390522968
 30
0.0
 10
12.4188741727
 20
10.1409902974
 30
0.0
 10
12.4458309656
 20
10.1422539418
 30
0.0
 10
12.4731380202
 20
10.1428308436
 30
0.0
 10
12.5005328922
 20
10.1427153342
 30
0.0
 10
12.5277522654
 20
10.1419085726
 30
0.0
 10
12.5545343413
 20
10.140418397
 30
0.0
 10
12.5764494911
 20
10.1386049998
 30
0.0
 10
12.5935635593
 20
10.1368149684
 30
0.0
 10
12.6060264997
 20
10.1353235138
 30
0.0
 10
12.618191486
 20
10.1336758939
 30
0.0
 10
12.6300292711
 20
10.131876057
 30
0.0
 10
12.6415113816
 20
10.1299283907
 30
0.0
 10
12.6526102172
 20
10.1278376243
 30
0.0
 10
12.6632991034
 20
10.1256088142
 30
0.0
 10
12.673552377
 20
10.123247372
 30
0.0
 10
12.6833454518
 20
10.120759045
 30
0.0
 10
12.6926548667
 20
10.1181498628
 30
0.0
 10
12.7014583615
 20
10.115426137
 30
0.0
 10
12.7097349586
 20
10.1125944847
 30
0.0
 10
12.717465007
 20
10.1096617432
 30
0.0
 10
12.7246302371
 20
10.1066349301
 30
0.0
 10
12.7312138833
 20
10.1035212519
 30
0.0
 10
12.7372006697
 20
10.100328023
 30
0.0
 10
12.7425770535
 20
10.0970623969
 30
0.0
 10
12.7473305602
 20
10.0937316568
 30
0.0
 10
12.7508381142
 20
10.0908466468
 30
0.0
 10
12.7533050243
 20
10.0885073291
 30
0.0
 10
12.7549514849
 20
10.0867801545
 30
0.0
 10
12.7564341576
 20
10.0850423364
 30
0.0
 10
12.7581556698
 20
10.0827599502
 30
0.0
 10
12.7595965223
 20
10.0804096648
 30
0.0
 10
12.7607074069
 20
10.0780057848
 30
0.0
 10
12.7613573839
 20
10.0762297997
 30
0.0
 10
12.7618384086
 20
10.0744493054
 30
0.0
 10
12.7621500403
 20
10.0726654918
 30
0.0
 10
12.7622917858
 20
10.0708797319
 30
0.0
 10
12.7622634102
 20
10.0690934813
 30
0.0
 10
12.7620650417
 20
10.0673082037
 30
0.0
 10
12.7616968882
 20
10.065525352
 30
0.0
 10
12.7611594092
 20
10.0637462035
 30
0.0
 10
12.7602020778
 20
10.0613403593
 30
0.0
 10
12.7585537577
 20
10.058332565
 30
0.0
 10
12.7559454635
 20
10.0548277696
 30
0.0
 10
12.7538665502
 20
10.0526235547
 30
0.0
 10
12.7527322102
 20
10.0515278663
 30
0.0
  0
SPLINE
  5
3D3
100
AcDbEntity
  8
0
100
AcDbSpline
 62
7
  6
CONTINUOUS
 70
0
 71
3
 72
12
 73
8
 74
0
 42
0.0000001
 43
0.0000001
 44
0.0000000001
 40
0.0
 40
0.0
 40
0.0
 40
0.0
 40
0.1054700756
 40
0.2165109935
 40
0.4553322604
 40
0.716517282
 40
1.0
 40
1.0
 40
1.0
 40
1.0
 10
11.0435249267
 20
8.1824760158
 30
0.0
 10
11.0441539566
 20
8.1830836121
 30
0.0
 10
11.0454253334
 20
8.1843516358
 30
0.0
 10
11.0480231605
 20
8.1870919735
 30
0.0
 10
11.0513657307
 20
8.1909025224
 30
0.0
 10
11.0554469972
 20
8.1959589622
 30
0.0
 10
11.0581637968
 20
8.1995678885
 30
0.0
 10
11.059552433
 20
8.2014645155
 30
0.0
  0
SPLINE
  5
3D4
100
AcDbEntity
  8
0
100
AcDbSpline
 62
7
  6
CONTINUOUS
 70
0
 71
3
 72
23
 73
19
 74
0
 42
0.0000001
 43
0.0000001
 44
0.0000000001
 40
0.0
 40
0.0
 40
0.0
 40
0.0
 40
0.0637771735
 40
0.1273448473
 40
0.1907019822
 40
0.253856143
 40
0.3168131975
 40
0.3795820985
 40
0.4421733906
 40
0.5045993374
 40
0.5668738654
 40
0.62901238
 40
0.6910316489
 40
0.7529496402
 40
0.814785347
 40
0.8765585971
 40
0.938289852
 40
1.0
 40
1.0
 40
1.0
 40
1.0
 10
8.0666063549
 20
7.3095977245
 30
0.0
 10
8.0666063549
 20
7.317188712
 30
0.0
 10
8.0669696909
 20
7.332348324
 30
0.0
 10
8.0686096116
 20
7.3549955294
 30
0.0
 10
8.0713400842
 20
7.377463198
 30
0.0
 10
8.0751545964
 20
7.39969862
 30
0.0
 10
8.0800445986
 20
7.4216509291
 30
0.0
 10
8.085998812
 20
7.4432693837
 30
0.0
 10
8.093003555
 20
7.4645041784
 30
0.0
 10
8.1010427188
 20
7.4853063437
 30
0.0
 10
8.1100978084
 20
7.505627905
 30
0.0
 10
8.1201480018
 20
7.5254219828
 30
0.0
 10
8.1311701634
 20
7.5446429051
 30
0.0
 10
8.1431388919
 20
7.5632463506
 30
0.0
 10
8.1560265619
 20
7.5811893658
 30
0.0
 10
8.1698036199
 20
7.5984306927
 30
0.0
 10
8.1844377549
 20
7.6149300184
 30
0.0
 10
8.1947447162
 20
7.625411415
 30
0.0
 10
8.200027623
 20
7.6305142939
 30
0.0
  0
SPLINE
  5
3D5
100
AcDbEntity
  8
0
100
AcDbSpline
 62
7
  6
CONTINUOUS
 70
0
 71
3
 72
58
 73
54
 74
0
 42
0.0000001
 43
0.0000001
 44
0.0000000001
 40
0.0
 40
0.0
 40
0.0
 40
0.0
 40
0.0081223305
 40
0.0169168975
 40
0.0264087397
 40
0.0366143893
 40
0.0475415919
 40
0.0591912278
 40
0.0715586516
 40
0.0846347975
 40
0.0984066254
 40
0.112857697
 40
0.1279687991
 40
0.1437179559
 40
0.1600810137
 40
0.1770317001
 40
0.2125802303
 40
0.2501202969
 40
0.2893844218
 40
0.3300865608
 40
0.3719257492
 40
0.4145895607
 40
0.4577574053
 40
0.5011037527
 40
0.5443013266
 40
0.587024304
 40
0.6289515139
 40
0.6697696572
 40
0.7091765902
 40
0.7468847529
 40
0.7826248208
 40
0.7996793841
 40
0.8161512809
 40
0.8320139346
 40
0.8472427441
 40
0.8618153344
 40
0.8757119895
 40
0.8889156785
 40
0.9014127874
 40
0.9131934095
 40
0.9242520347
 40
0.9345886083
 40
0.9442093599
 40
0.953128682
 40
0.9613709503
 40
0.9689732053
 40
0.9759886321
 40
0.9824900189
 40
0.9885734021
 40
0.9914974267
 40
0.9943641369
 40
0.9971919109
 40
1.0
 40
1.0
 40
1.0
 40
1.0
 10
12.9843899765
 20
10.3202920755
 30
0.0
 10
12.9852104168
 20
10.32108456
 30
0.0
 10
12.9869965956
 20
10.3226560018
 30
0.0
 10
12.9899614902
 20
10.3248887293
 30
0.0
 10
12.9933098041
 20
10.3270841007
 30
0.0
 10
12.9970347407
 20
10.3292378877
 30
0.0
 10
13.0011293057
 20
10.3313462265
 30
0.0
 10
13.0055855596
 20
10.3334049011
 30
0.0
 10
13.0103947226
 20
10.3354099046
 30
0.0
 10
13.0155472877
 20
10.3373571835
 30
0.0
 10
13.0210329979
 20
10.3392428045
 30
0.0
 10
13.0268408767
 20
10.3410629763
 30
0.0
 10
13.0329592832
 20
10.3428139498
 30
0.0
 10
13.0393759068
 20
10.3444922021
 30
0.0
 10
13.0460778409
 20
10.3460943224
 30
0.0
 10
13.0555266321
 20
10.3481573038
 30
0.0
 10
13.0679537926
 20
10.3505090401
 30
0.0
 10
13.0835466351
 20
10.3529383135
 30
0.0
 10
13.0999222267
 20
10.3549974305
 30
0.0
 10
13.1169483635
 20
10.3566694494
 30
0.0
 10
13.1344877049
 20
10.3579405652
 30
0.0
 10
13.1523985965
 20
10.3588003127
 30
0.0
 10
13.1705363475
 20
10.3592416126
 30
0.0
 10
13.1887543961
 20
10.3592608302
 30
0.0
 10
13.2069055219
 20
10.3588578041
 30
0.0
 10
13.2248430528
 20
10.358035856
 30
0.0
 10
13.2424220793
 20
10.3568017548
 30
0.0
 10
13.2595006217
 20
10.3551656616
 30
0.0
 10
13.2759409038
 20
10.3531410844
 30
0.0
 10
13.2916101866
 20
10.3507446743
 30
0.0
 10
13.3041085367
 20
10.3484196223
 30
0.0
 10
13.3136198539
 20
10.3463771835
 30
0.0
 10
13.3203722264
 20
10.3447892569
 30
0.0
 10
13.3268417036
 20
10.34312461
 30
0.0
 10
13.3330152662
 20
10.341386594
 30
0.0
 10
13.3388804913
 20
10.3395787288
 30
0.0
 10
13.3444256173
 20
10.3377047374
 30
0.0
 10
13.3496395381
 20
10.3357683679
 30
0.0
 10
13.3545118708
 20
10.333773571
 30
0.0
 10
13.3590329617
 20
10.3317243501
 30
0.0
 10
13.3631939064
 20
10.3296247394
 30
0.0
 10
13.366986632
 20
10.3274788995
 30
0.0
 10
13.3704038254
 20
10.3252908276
 30
0.0
 10
13.3734390301
 20
10.3230645233
 30
0.0
 10
13.3760865478
 20
10.3208036965
 30
0.0
 10
13.3783412418
 20
10.3185117194
 30
0.0
 10
13.3801984443
 20
10.3161914225
 30
0.0
 10
13.381653038
 20
10.3138459026
 30
0.0
 10
13.3825366213
 20
10.3118454352
 30
0.0
 10
13.3830247581
 20
10.3102492448
 30
0.0
 10
13.3832832342
 20
10.3090653089
 30
0.0
 10
13.3834383904
 20
10.3078799538
 30
0.0
 10
13.3834729169
 20
10.307088038
 30
0.0
 10
13.3834729171
 20
10.3066936765
 30
0.0
  0
SPLINE
  5
3D6
100
AcDbEntity
  8
0
100
AcDbSpline
 62
7
  6
CONTINUOUS
 70
0
 71
3
 72
58
 73
54
 74
0
 42
0.0000001
 43
0.0000001
 44
0.0000000001
 40
0.0
 40
0.0
 40
0.0
 40
0.0
 40
0.0081223305
 40
0.0169168975
 40
0.0264087397
 40
0.0366143893
 40
0.0475415919
 40
0.0591912278
 40
0.0715586516
 40
0.0846347975
 40
0.0984066254
 40
0.112857697
 40
0.1279687991
 40
0.1437179559
 40
0.1600810137
 40
0.1770317001
 40
0.2125802303
 40
0.2501202969
 40
0.2893844218
 40
0.3300865608
 40
0.3719257492
 40
0.4145895607
 40
0.4577574053
 40
0.5011037527
 40
0.5443013266
 40
0.587024304
 40
0.6289515139
 40
0.6697696572
 40
0.7091765902
 40
0.7468847529
 40
0.7826248208
 40
0.7996793841
 40
0.8161512809
 40
0.8320139346
 40
0.8472427441
 40
0.8618153344
 40
0.8757119895
 40
0.8889156785
 40
0.9014127874
 40
0.9131934095
 40
0.9242520347
 40
0.9345886083
 40
0.9442093599
 40
0.953128682
 40
0.9613709503
 40
0.9689732053
 40
0.9759886321
 40
0.9824900189
 40
0.9885734021
 40
0.9914974267
 40
0.9943641369
 40
0.9971919109
 40
1.0
 40
1.0
 40
1.0
 40
1.0
 10
11.8844099427
 20
9.2577928895
 30
0.0
 10
11.8852303829
 20
9.2585853739
 30
0.0
 10
11.8870165617
 20
9.2601568157
 30
0.0
 10
11.8899814563
 20
9.2623895432
 30
0.0
 10
11.8933297702
 20
9.2645849146
 30
0.0
 10
11.8970547068
 20
9.2667387016
 30
0.0
 10
11.9011492718
 20
9.2688470405
 30
0.0
 10
11.9056055257
 20
9.270905715
 30
0.0
 10
11.9104146887
 20
9.2729107185
 30
0.0
 10
11.9155672538
 20
9.2748579974
 30
0.0
 10
11.921052964
 20
9.2767436185
 30
0.0
 10
11.9268608428
 20
9.2785637902
 30
0.0
 10
11.9329792493
 20
9.2803147637
 30
0.0
 10
11.9393958729
 20
9.281993016
 30
0.0
 10
11.946097807
 20
9.2835951363
 30
0.0
 10
11.9555465982
 20
9.2856581177
 30
0.0
 10
11.9679737587
 20
9.288009854
 30
0.0
 10
11.9835666012
 20
9.2904391274
 30
0.0
 10
11.9999421928
 20
9.2924982444
 30
0.0
 10
12.0169683297
 20
9.2941702633
 30
0.0
 10
12.034507671
 20
9.2954413791
 30
0.0
 10
12.0524185626
 20
9.2963011267
 30
0.0
 10
12.0705563136
 20
9.2967424265
 30
0.0
 10
12.0887743622
 20
9.2967616441
 30
0.0
 10
12.106925488
 20
9.296358618
 30
0.0
 10
12.1248630189
 20
9.2955366699
 30
0.0
 10
12.1424420454
 20
9.2943025687
 30
0.0
 10
12.1595205879
 20
9.2926664755
 30
0.0
 10
12.1759608699
 20
9.2906418983
 30
0.0
 10
12.1916301527
 20
9.2882454882
 30
0.0
 10
12.2041285028
 20
9.2859204362
 30
0.0
 10
12.21363982
 20
9.2838779974
 30
0.0
 10
12.2203921925
 20
9.2822900708
 30
0.0
 10
12.2268616697
 20
9.2806254239
 30
0.0
 10
12.2330352323
 20
9.2788874079
 30
0.0
 10
12.2389004574
 20
9.2770795427
 30
0.0
 10
12.2444455834
 20
9.2752055513
 30
0.0
 10
12.2496595043
 20
9.2732691818
 30
0.0
 10
12.2545318369
 20
9.2712743849
 30
0.0
 10
12.2590529278
 20
9.269225164
 30
0.0
 10
12.2632138725
 20
9.2671255533
 30
0.0
 10
12.2670065981
 20
9.2649797134
 30
0.0
 10
12.2704237915
 20
9.2627916415
 30
0.0
 10
12.2734589962
 20
9.2605653372
 30
0.0
 10
12.2761065139
 20
9.2583045104
 30
0.0
 10
12.2783612079
 20
9.2560125333
 30
0.0
 10
12.2802184104
 20
9.2536922364
 30
0.0
 10
12.2816730041
 20
9.2513467165
 30
0.0
 10
12.2825565874
 20
9.2493462491
 30
0.0
 10
12.2830447242
 20
9.2477500587
 30
0.0
 10
12.2833032003
 20
9.2465661228
 30
0.0
 10
12.2834583565
 20
9.2453807677
 30
0.0
 10
12.283492883
 20
9.2445888519
 30
0.0
 10
12.2834928832
 20
9.2441944904
 30
0.0
  0
SPLINE
  5
3D7
100
AcDbEntity
  8
0
100
AcDbSpline
 62
7
  6
CONTINUOUS
 70
0
 71
3
 72
70
 73
66
 74
0
 42
0.0000001
 43
0.0000001
 44
0.0000000001
 40
0.0
 40
0.0
 40
0.0
 40
0.0
 40
0.0085742128
 40
0.0179225174
 40
0.0280750681
 40
0.0390499684
 40
0.0508538305
 40
0.0634848013
 40
0.0769342559
 40
0.0911878009
 40
0.1062261691
 40
0.1220260053
 40
0.138560371
 40
0.1557990732
 40
0.1737091024
 40
0.1922549504
 40
0.211398781
 40
0.2311006759
 40
0.2513188999
 40
0.2720100432
 40
0.3146288917
 40
0.3585841998
 40
0.4034855347
 40
0.4489313437
 40
0.4945137112
 40
0.5398231418
 40
0.5844533008
 40
0.6280058207
 40
0.6492573827
 40
0.6700962428
 40
0.6904770235
 40
0.7103557569
 40
0.7296901326
 40
0.7484396302
 40
0.7665656785
 40
0.7840319485
 40
0.8008045956
 40
0.8168524592
 40
0.8321474327
 40
0.8466649349
 40
0.8603842961
 40
0.8732893758
 40
0.8853694933
 40
0.896620431
 40
0.9070458371
 40
0.9166593113
 40
0.9254871329
 40
0.9296201465
 40
0.9335744016
 40
0.9373585101
 40
0.940982832
 40
0.9477983657
 40
0.9510242667
 40
0.954151261
 40
0.9571997333
 40
0.9601919004
 40
0.9631513546
 40
0.9661025682
 40
0.9690702375
 40
0.9720786223
 40
0.9751509051
 40
0.9783086733
 40
0.9849529369
 40
0.9921503643
 40
1.0
 40
1.0
 40
1.0
 40
1.0
 10
9.2472677898
 20
9.7255090488
 30
0.0
 10
9.2485068374
 20
9.726705877
 30
0.0
 10
9.2512250776
 20
9.7290764523
 30
0.0
 10
9.2557685393
 20
9.7324273023
 30
0.0
 10
9.2609387428
 20
9.735715521
 30
0.0
 10
9.2667234272
 20
9.7389336477
 30
0.0
 10
9.2731097509
 20
9.7420746603
 30
0.0
 10
9.2800829035
 20
9.7451312294
 30
0.0
 10
9.2876266261
 20
9.7480961306
 30
0.0
 10
9.2957231545
 20
9.7509622441
 30
0.0
 10
9.3043532813
 20
9.7537226875
 30
0.0
 10
9.3134964595
 20
9.7563707775
 30
0.0
 10
9.3231308587
 20
9.7589000741
 30
0.0
 10
9.3332334088
 20
9.761304459
 30
0.0
 10
9.3437798857
 20
9.7635781025
 30
0.0
 10
9.3547449811
 20
9.7657154683
 30
0.0
 10
9.3661023552
 20
9.7677113743
 30
0.0
 10
9.3778246969
 20
9.7695609848
 30
0.0
 10
9.3898838425
 20
9.7712598383
 30
0.0
 10
9.4065371776
 20
9.7733387842
 30
0.0
 10
9.4279809631
 20
9.7755206543
 30
0.0
 10
9.454328247
 20
9.7774586549
 30
0.0
 10
9.4812850399
 20
9.7787222993
 30
0.0
 10
9.5085920946
 20
9.7792992011
 30
0.0
 10
9.5359869666
 20
9.7791836917
 30
0.0
 10
9.5632063397
 20
9.7783769301
 30
0.0
 10
9.5899884156
 20
9.7768867545
 30
0.0
 10
9.6119035654
 20
9.7750733573
 30
0.0
 10
9.6290176337
 20
9.7732833259
 30
0.0
 10
9.641480574
 20
9.7717918713
 30
0.0
 10
9.6536455603
 20
9.7701442514
 30
0.0
 10
9.6654833455
 20
9.7683444145
 30
0.0
 10
9.6769654559
 20
9.7663967482
 30
0.0
 10
9.6880642915
 20
9.7643059818
 30
0.0
 10
9.6987531777
 20
9.7620771717
 30
0.0
 10
9.7090064514
 20
9.7597157295
 30
0.0
 10
9.7187995261
 20
9.7572274025
 30
0.0
 10
9.728108941
 20
9.7546182203
 30
0.0
 10
9.7369124358
 20
9.7518944945
 30
0.0
 10
9.745189033
 20
9.7490628421
 30
0.0
 10
9.7529190813
 20
9.7461301007
 30
0.0
 10
9.7600843114
 20
9.7431032876
 30
0.0
 10
9.7666679576
 20
9.7399896094
 30
0.0
 10
9.772654744
 20
9.7367963805
 30
0.0
 10
9.7780311278
 20
9.7335307544
 30
0.0
 10
9.7827846345
 20
9.7302000143
 30
0.0
 10
9.7862921886
 20
9.7273150043
 30
0.0
 10
9.7887590987
 20
9.7249756865
 30
0.0
 10
9.7904055592
 20
9.723248512
 30
0.0
 10
9.7918882319
 20
9.7215106939
 30
0.0
 10
9.7936097441
 20
9.7192283077
 30
0.0
 10
9.7950505967
 20
9.7168780223
 30
0.0
 10
9.7961614812
 20
9.7144741423
 30
0.0
 10
9.7968114582
 20
9.7126981572
 30
0.0
 10
9.7972924829
 20
9.7109176629
 30
0.0
 10
9.7976041146
 20
9.7091338492
 30
0.0
 10
9.7977458601
 20
9.7073480894
 30
0.0
 10
9.7977174845
 20
9.7055618388
 30
0.0
 10
9.7975191161
 20
9.7037765612
 30
0.0
 10
9.7971509625
 20
9.7019937095
 30
0.0
 10
9.7966134835
 20
9.700214561
 30
0.0
 10
9.7956561521
 20
9.6978087168
 30
0.0
 10
9.794007832
 20
9.6948009225
 30
0.0
 10
9.7913995378
 20
9.6912961271
 30
0.0
 10
9.7893206246
 20
9.6890919122
 30
0.0
 10
9.7881862845
 20
9.6879962238
 30
0.0
  0
SPLINE
  5
3D8
100
AcDbEntity
  8
0
100
AcDbSpline
 62
7
  6
CONTINUOUS
 70
0
 71
3
 72
17
 73
13
 74
0
 42
0.0000001
 43
0.0000001
 44
0.0000000001
 40
0.0
 40
0.0
 40
0.0
 40
0.0
 40
0.1266551999
 40
0.2527984266
 40
0.3784389846
 40
0.4410836491
 40
0.5036099077
 40
0.6283069613
 40
0.7525758922
 40
0.8145686273
 40
0.8764689156
 40
1.0
 40
1.0
 40
1.0
 40
1.0
 10
10.4717617298
 20
7.0819462795
 30
0.0
 10
10.4717617298
 20
7.073140499
 30
0.0
 10
10.4712467577
 20
7.0555599663
 30
0.0
 10
10.4689211152
 20
7.0293373295
 30
0.0
 10
10.465692982
 20
7.007701585
 30
0.0
 10
10.4623436556
 20
6.9905861391
 30
0.0
 10
10.4584941072
 20
6.9736434259
 30
0.0
 10
10.4527386894
 20
6.9527508238
 30
0.0
 10
10.4457317346
 20
6.9322830606
 30
0.0
 10
10.4393962934
 20
6.9162320232
 30
0.0
 10
10.4325901682
 20
6.9004313214
 30
0.0
 10
10.4269424435
 20
6.8888299018
 30
0.0
 10
10.4229449345
 20
6.8812283537
 30
0.0
  0
SPLINE
  5
3D9
100
AcDbEntity
  8
0
100
AcDbSpline
 62
7
  6
CONTINUOUS
 70
0
 71
3
 72
15
 73
11
 74
0
 42
0.0000001
 43
0.0000001
 44
0.0000000001
 40
0.0
 40
0.0
 40
0.0
 40
0.0
 40
0.1266094262
 40
0.2527292962
 40
0.3783581966
 40
0.5035195312
 40
0.6282328991
 40
0.7525272242
 40
0.8764365072
 40
1.0
 40
1.0
 40
1.0
 40
1.0
 10
8.4751163946
 20
7.4541881455
 30
0.0
 10
8.4751163946
 20
7.458597387
 30
0.0
 10
8.4753655944
 20
7.4674009126
 30
0.0
 10
8.4764907644
 20
7.480536227
 30
0.0
 10
8.4783632677
 20
7.4935355603
 30
0.0
 10
8.4809768857
 20
7.506356367
 30
0.0
 10
8.4843234314
 20
7.5189576631
 30
0.0
 10
8.4883922098
 20
7.5312989372
 30
0.0
 10
8.4931699097
 20
7.5433399462
 30
0.0
 10
8.4968227638
 20
7.5511526157
 30
0.0
 10
8.4987614812
 20
7.5549943088
 30
0.0
  0
SPLINE
  5
3DA
100
AcDbEntity
  8
0
100
AcDbSpline
 62
7
  6
CONTINUOUS
 70
0
 71
3
 72
19
 73
15
 74
0
 42
0.0000001
 43
0.0000001
 44
0.0000000001
 40
0.0
 40
0.0
 40
0.0
 40
0.0
 40
0.1504611406
 40
0.2916985742
 40
0.4244193292
 40
0.4878835935
 40
0.5495802133
 40
0.6682271463
 40
0.7255606136
 40
0.7817999183
 40
0.8371467056
 40
0.8918136429
 40
0.9460222308
 40
1.0
 40
1.0
 40
1.0
 40
1.0
 10
13.6896803172
 20
8.0904377675
 30
0.0
 10
13.687398859
 20
8.088234048
 30
0.0
 10
13.6828390929
 20
8.0840992469
 30
0.0
 10
13.6757787282
 20
8.078589157
 30
0.0
 10
13.6698151509
 20
8.0746921037
 30
0.0
 10
13.6650595687
 20
8.0720531307
 30
0.0
 10
13.6604442893
 20
8.0697875003
 30
0.0
 10
13.6557749663
 20
8.0679355614
 30
0.0
 10
13.6510793791
 20
8.0665419523
 30
0.0
 10
13.6476075901
 20
8.0657386575
 30
0.0
 10
13.6441473547
 20
8.0651661154
 30
0.0
 10
13.640699593
 20
8.0648245759
 30
0.0
 10
13.6372656954
 20
8.0647141801
 30
0.0
 10
13.6349843108
 20
8.0647948542
 30
0.0
 10
13.6338490943
 20
8.064873578
 30
0.0
  0
SPLINE
  5
3DB
100
AcDbEntity
  8
0
100
AcDbSpline
 62
7
  6
CONTINUOUS
 70
0
 71
3
 72
15
 73
11
 74
0
 42
0.0000001
 43
0.0000001
 44
0.0000000001
 40
0.0
 40
0.0
 40
0.0
 40
0.0
 40
0.1098906373
 40
0.2214016819
 40
0.3360757822
 40
0.4553202911
 40
0.5803741285
 40
0.7122942594
 40
0.8519453747
 40
1.0
 40
1.0
 40
1.0
 40
1.0
 10
12.9774729447
 20
10.3066936765
 30
0.0
 10
12.9774729443
 20
10.307267843
 30
0.0
 10
12.977546656
 20
10.3084259441
 30
0.0
 10
12.9778773042
 20
10.310154773
 30
0.0
 10
12.9784270168
 20
10.3118781647
 30
0.0
 10
12.9791943269
 20
10.3135935322
 30
0.0
 10
12.980177552
 20
10.3152992333
 30
0.0
 10
12.9813750542
 20
10.3169937764
 30
0.0
 10
12.9827850105
 20
10.3186755669
 30
0.0
 10
12.9838335834
 20
10.319754641
 30
0.0
 10
12.9843899765
 20
10.3202920755
 30
0.0
  0
SPLINE
  5
3DC
100
AcDbEntity
  8
0
100
AcDbSpline
 62
7
  6
CONTINUOUS
 70
0
 71
3
 72
19
 73
15
 74
0
 42
0.0000001
 43
0.0000001
 44
0.0000000001
 40
0.0
 40
0.0
 40
0.0
 40
0.0
 40
0.1504611406
 40
0.2916985742
 40
0.4244193292
 40
0.4878835935
 40
0.5495802133
 40
0.6682271463
 40
0.7255606136
 40
0.7817999183
 40
0.8371467056
 40
0.8918136429
 40
0.9460222308
 40
1.0
 40
1.0
 40
1.0
 40
1.0
 10
13.1399491004
 20
7.5594381562
 30
0.0
 10
13.1376676421
 20
7.5572344366
 30
0.0
 10
13.133107876
 20
7.5530996355
 30
0.0
 10
13.1260475113
 20
7.5475895457
 30
0.0
 10
13.120083934
 20
7.5436924923
 30
0.0
 10
13.1153283518
 20
7.5410535194
 30
0.0
 10
13.1107130724
 20
7.5387878889
 30
0.0
 10
13.1060437494
 20
7.53693595
 30
0.0
 10
13.1013481622
 20
7.535542341
 30
0.0
 10
13.0978763733
 20
7.5347390462
 30
0.0
 10
13.0944161378
 20
7.5341665041
 30
0.0
 10
13.0909683761
 20
7.5338249645
 30
0.0
 10
13.0875344785
 20
7.5337145687
 30
0.0
 10
13.0852530939
 20
7.5337952428
 30
0.0
 10
13.0841178774
 20
7.5338739666
 30
0.0
  0
SPLINE
  5
3DD
100
AcDbEntity
  8
0
100
AcDbSpline
 62
7
  6
CONTINUOUS
 70
0
 71
3
 72
83
 73
79
 74
0
 42
0.0000001
 43
0.0000001
 44
0.0000000001
 40
0.0
 40
0.0
 40
0.0
 40
0.0
 40
0.0039165592
 40
0.0079941979
 40
0.0122363565
 40
0.0166459536
 40
0.021225456
 40
0.0259767935
 40
0.0309012651
 40
0.0359997511
 40
0.0412727228
 40
0.0467202923
 40
0.0523422802
 40
0.05813815
 40
0.0702477787
 40
0.0830405432
 40
0.0965038762
 40
0.1106222528
 40
0.1253775538
 40
0.1407493462
 40
0.1567151289
 40
0.1732505407
 40
0.1903295314
 40
0.2079245108
 40
0.2260064752
 40
0.2445451324
 40
0.2635090221
 40
0.282865621
 40
0.3025814425
 40
0.3226221294
 40
0.3429525474
 40
0.3635368837
 40
0.3843387359
 40
0.4053211994
 40
0.4476776997
 40
0.4903050708
 40
0.5328988711
 40
0.5751549576
 40
0.596062417
 40
0.6167729485
 40
0.637249854
 40
0.6574569801
 40
0.677358806
 40
0.6969205316
 40
0.7161081686
 40
0.7348886361
 40
0.7532298666
 40
0.7711009074
 40
0.7884720245
 40
0.8053148183
 40
0.8216023502
 40
0.8373092937
 40
0.8524120925
 40
0.8668891367
 40
0.880720978
 40
0.8938905896
 40
0.9063836966
 40
0.9181891814
 40
0.9238318507
 40
0.9293001502
 40
0.934593855
 40
0.939713037
 40
0.9446581228
 40
0.9494299699
 40
0.9540298281
 40
0.9584594935
 40
0.9627212867
 40
0.9668181558
 40
0.9707537812
 40
0.9745325932
 40
0.9781599654
 40
0.981642245
 40
0.9849869068
 40
0.9882026824
 40
0.9912996186
 40
0.9942892381
 40
0.9971845335
 40
1.0
 40
1.0
 40
1.0
 40
1.0
 10
13.6587706882
 20
8.0925813576
 30
0.0
 10
13.6603216349
 20
8.0940794572
 30
0.0
 10
13.6634219284
 20
8.0972055675
 30
0.0
 10
13.6679777429
 20
8.1021704787
 30
0.0
 10
13.6725289994
 20
8.1075018181
 30
0.0
 10
13.6770733547
 20
8.1131968408
 30
0.0
 10
13.6816088219
 20
8.1192528913
 30
0.0
 10
13.6861332851
 20
8.125667213
 30
0.0
 10
13.6906447244
 20
8.1324367751
 30
0.0
 10
13.6951409507
 20
8.1395584129
 30
0.0
 10
13.6996198548
 20
8.1470287556
 30
0.0
 10
13.7040793477
 20
8.1548442671
 30
0.0
 10
13.7085172996
 20
8.1630012932
 30
0.0
 10
13.714490538
 20
8.1744960278
 30
0.0
 10
13.7218744312
 20
8.1897032009
 30
0.0
 10
13.7304914712
 20
8.2089918467
 30
0.0
 10
13.7389732132
 20
8.2295419047
 30
0.0
 10
13.7473034603
 20
8.2513144255
 30
0.0
 10
13.7554662954
 20
8.2742683578
 30
0.0
 10
13.7634461067
 20
8.2983602242
 30
0.0
 10
13.7712276279
 20
8.323544344
 30
0.0
 10
13.7787959649
 20
8.3497729071
 30
0.0
 10
13.7861366318
 20
8.3769960855
 30
0.0
 10
13.7932355753
 20
8.4051621282
 30
0.0
 10
13.8000792134
 20
8.4342174593
 30
0.0
 10
13.8066544599
 20
8.4641067861
 30
0.0
 10
13.8129487405
 20
8.4947732155
 30
0.0
 10
13.8189500203
 20
8.526158366
 30
0.0
 10
13.8246468235
 20
8.5582024788
 30
0.0
 10
13.830028261
 20
8.5908445266
 30
0.0
 10
13.835084059
 20
8.6240223376
 30
0.0
 10
13.8398045515
 20
8.6576726996
 30
0.0
 10
13.8441807606
 20
8.6917315588
 30
0.0
 10
13.849562003
 20
8.7377438609
 30
0.0
 10
13.855364194
 20
8.7958013334
 30
0.0
 10
13.8608184077
 20
8.8658346702
 30
0.0
 10
13.8647438066
 20
8.9359149483
 30
0.0
 10
13.8667233593
 20
8.9941129566
 30
0.0
 10
13.867511719
 20
9.0402852882
 30
0.0
 10
13.8677037097
 20
9.0744728954
 30
0.0
 10
13.8674982598
 20
9.1082748228
 30
0.0
 10
13.866895758
 20
9.1416267296
 30
0.0
 10
13.8658973921
 20
9.1744650734
 30
0.0
 10
13.8645050959
 20
9.2067273112
 30
0.0
 10
13.8627215597
 20
9.2383519961
 30
0.0
 10
13.8605502197
 20
9.2692789043
 30
0.0
 10
13.8579952665
 20
9.2994491544
 30
0.0
 10
13.8550616299
 20
9.3288053228
 30
0.0
 10
13.8517549644
 20
9.3572915501
 30
0.0
 10
13.8480816415
 20
9.3848536486
 30
0.0
 10
13.8440487337
 20
9.4114392134
 30
0.0
 10
13.8396640137
 20
9.4369977364
 30
0.0
 10
13.8349359353
 20
9.4614807086
 30
0.0
 10
13.8298736059
 20
9.4848417274
 30
0.0
 10
13.8244867682
 20
9.5070365575
 30
0.0
 10
13.8187857671
 20
9.5280233666
 30
0.0
 10
13.8127815281
 20
9.5477623915
 30
0.0
 10
13.8074577122
 20
9.563367803
 30
0.0
 10
13.8030427445
 20
9.5751879251
 30
0.0
 10
13.799712788
 20
9.583584225
 30
0.0
 10
13.7963158023
 20
9.5916417796
 30
0.0
 10
13.7928533415
 20
9.5993568011
 30
0.0
 10
13.7893270112
 20
9.6067256403
 30
0.0
 10
13.7857385303
 20
9.6137448597
 30
0.0
 10
13.7820894881
 20
9.6204111354
 30
0.0
 10
13.7783816379
 20
9.6267213725
 30
0.0
 10
13.7746166562
 20
9.632672616
 30
0.0
 10
13.7707962211
 20
9.6382620689
 30
0.0
 10
13.7669221143
 20
9.643487165
 30
0.0
 10
13.7629959515
 20
9.6483454008
 30
0.0
 10
13.7590195105
 20
9.6528345362
 30
0.0
 10
13.754994447
 20
9.6569524065
 30
0.0
 10
13.7509224266
 20
9.6606969697
 30
0.0
 10
13.7468051875
 20
9.6640663954
 30
0.0
 10
13.7426443705
 20
9.6670587637
 30
0.0
 10
13.7384416835
 20
9.6696724744
 30
0.0
 10
13.7341992989
 20
9.6719056784
 30
0.0
 10
13.7313099338
 20
9.6731552297
 30
0.0
 10
13.7298633566
 20
9.6737122095
 30
0.0
  0
SPLINE
  5
3DE
100
AcDbEntity
  8
0
100
AcDbSpline
 62
7
  6
CONTINUOUS
 70
0
 71
3
 72
23
 73
19
 74
0
 42
0.0000001
 43
0.0000001
 44
0.0000000001
 40
0.0
 40
0.0
 40
0.0
 40
0.0
 40
0.0619809895
 40
0.1239305841
 40
0.1858719731
 40
0.247828436
 40
0.3098230829
 40
0.3718785977
 40
0.4340169849
 40
0.4962593255
 40
0.5586255455
 40
0.6211342018
 40
0.6838022902
 40
0.7466450747
 40
0.8096759356
 40
0.8729062411
 40
0.9363452431
 40
1.0
 40
1.0
 40
1.0
 40
1.0
 10
9.661504112
 20
7.411041846
 30
0.0
 10
9.6660769974
 20
7.4167431164
 30
0.0
 10
9.6755290179
 20
7.4278992046
 30
0.0
 10
9.6905840669
 20
7.4438416976
 30
0.0
 10
9.7064746469
 20
7.4589482888
 30
0.0
 10
9.7231600045
 20
7.4731800658
 30
0.0
 10
9.7405980107
 20
7.4865011829
 30
0.0
 10
9.7587444566
 20
7.4988778845
 30
0.0
 10
9.7775533919
 20
7.5102788679
 30
0.0
 10
9.7969771799
 20
7.5206752885
 30
0.0
 10
9.816966637
 20
7.5300408453
 30
0.0
 10
9.8374711412
 20
7.5383518726
 30
0.0
 10
9.8584387639
 20
7.5455873953
 30
0.0
 10
9.8798164365
 20
7.551729157
 30
0.0
 10
9.9015499946
 20
7.5567616677
 30
0.0
 10
9.9235846402
 20
7.5606722489
 30
0.0
 10
9.9458638583
 20
7.5634510264
 30
0.0
 10
9.9608182739
 20
7.5645425643
 30
0.0
 10
9.9683157906
 20
7.5648987901
 30
0.0
  0
SPLINE
  5
3DF
100
AcDbEntity
  8
0
100
AcDbSpline
 62
7
  6
CONTINUOUS
 70
0
 71
3
 72
39
 73
35
 74
0
 42
0.0000001
 43
0.0000001
 44
0.0000000001
 40
0.0
 40
0.0
 40
0.0
 40
0.0
 40
0.0304819347
 40
0.0610755097
 40
0.091780788
 40
0.1225965973
 40
0.1535205565
 40
0.1845491126
 40
0.215677593
 40
0.2469002656
 40
0.2782104089
 40
0.3096003897
 40
0.3410617489
 40
0.3725852938
 40
0.4041611964
 40
0.4357790977
 40
0.4674282148
 40
0.4990974509
 40
0.5307755068
 40
0.5624509941
 40
0.5941125495
 40
0.6257489496
 40
0.6573492248
 40
0.6889027705
 40
0.7203994554
 40
0.7518297268
 40
0.7831847101
 40
0.8144563057
 40
0.8456372868
 40
0.8767213351
 40
0.9077033141
 40
0.9385786729
 40
0.9693452754
 40
1.0
 40
1.0
 40
1.0
 40
1.0
 10
9.9683157906
 20
7.5648987901
 30
0.0
 10
9.9762031653
 20
7.565273539
 30
0.0
 10
9.9920300319
 20
7.5656022678
 30
0.0
 10
10.0158037914
 20
7.5648371972
 30
0.0
 10
10.039591312
 20
7.5628171822
 30
0.0
 10
10.0633256183
 20
7.5595478705
 30
0.0
 10
10.086941021
 20
7.5550384145
 30
0.0
 10
10.1103718675
 20
7.5493014087
 30
0.0
 10
10.1335531093
 20
7.5423528566
 30
0.0
 10
10.1564203763
 20
7.534212115
 30
0.0
 10
10.1789101814
 20
7.5249018423
 30
0.0
 10
10.2009600873
 20
7.5144479347
 30
0.0
 10
10.2225088804
 20
7.5028794552
 30
0.0
 10
10.2434967365
 20
7.4902285513
 30
0.0
 10
10.2638653969
 20
7.4765303822
 30
0.0
 10
10.2835583235
 20
7.4618230086
 30
0.0
 10
10.3025208518
 20
7.4461472834
 30
0.0
 10
10.3207003424
 20
7.4295467398
 30
0.0
 10
10.3380463245
 20
7.4120674717
 30
0.0
 10
10.3545106359
 20
7.3937580072
 30
0.0
 10
10.3700475539
 20
7.3746691734
 30
0.0
 10
10.3846139372
 20
7.3548539686
 30
0.0
 10
10.3981693344
 20
7.3343674042
 30
0.0
 10
10.4106760927
 20
7.3132663512
 30
0.0
 10
10.4220994627
 20
7.2916093846
 30
0.0
 10
10.4324076937
 20
7.2694566223
 30
0.0
 10
10.441572121
 20
7.2468695605
 30
0.0
 10
10.4495672491
 20
7.2239109018
 30
0.0
 10
10.4563708222
 20
7.200644401
 30
0.0
 10
10.461963933
 20
7.1771346264
 30
0.0
 10
10.4663309081
 20
7.1534469854
 30
0.0
 10
10.4694597122
 20
7.1296468835
 30
0.0
 10
10.4713413622
 20
7.1058014752
 30
0.0
 10
10.4717617298
 20
7.0898873127
 30
0.0
 10
10.4717617298
 20
7.0819462795
 30
0.0
  0
SPLINE
  5
3E0
100
AcDbEntity
  8
0
100
AcDbSpline
 62
7
  6
CONTINUOUS
 70
0
 71
3
 72
15
 73
11
 74
0
 42
0.0000001
 43
0.0000001
 44
0.0000000001
 40
0.0
 40
0.0
 40
0.0
 40
0.0
 40
0.1098906373
 40
0.2214016819
 40
0.3360757822
 40
0.4553202911
 40
0.5803741285
 40
0.7122942594
 40
0.8519453747
 40
1.0
 40
1.0
 40
1.0
 40
1.0
 10
11.8774929108
 20
9.2441944904
 30
0.0
 10
11.8774929104
 20
9.2447686569
 30
0.0
 10
11.8775666221
 20
9.245926758
 30
0.0
 10
11.8778972703
 20
9.2476555869
 30
0.0
 10
11.8784469829
 20
9.2493789786
 30
0.0
 10
11.879214293
 20
9.2510943461
 30
0.0
 10
11.8801975181
 20
9.2528000472
 30
0.0
 10
11.8813950203
 20
9.2544945903
 30
0.0
 10
11.8828049766
 20
9.2561763808
 30
0.0
 10
11.8838535495
 20
9.2572554549
 30
0.0
 10
11.8844099427
 20
9.2577928895
 30
0.0
  0
SPLINE
  5
3E1
100
AcDbEntity
  8
0
100
AcDbSpline
 62
7
  6
CONTINUOUS
 70
0
 71
3
 72
15
 73
11
 74
0
 42
0.0000001
 43
0.0000001
 44
0.0000000001
 40
0.0
 40
0.0
 40
0.0
 40
0.0
 40
0.1446698433
 40
0.2829326539
 40
0.415089484
 40
0.5415163818
 40
0.6626622854
 40
0.7790476727
 40
0.8912685909
 40
1.0
 40
1.0
 40
1.0
 40
1.0
 10
13.6587706882
 20
8.0925813576
 30
0.0
 10
13.6571224846
 20
8.090989315
 30
0.0
 10
13.6538273534
 20
8.0879486676
 30
0.0
 10
13.6487716212
 20
8.0837404563
 30
0.0
 10
13.6437199923
 20
8.0799934585
 30
0.0
 10
13.6386753531
 20
8.0767102662
 30
0.0
 10
13.6336402161
 20
8.0738930824
 30
0.0
 10
13.6286169822
 20
8.0715439695
 30
0.0
 10
13.6236089163
 20
8.0696650813
 30
0.0
 10
13.6202352919
 20
8.0687142101
 30
0.0
 10
13.618558198
 20
8.0683222602
 30
0.0
  0
SPLINE
  5
3E2
100
AcDbEntity
  8
0
100
AcDbSpline
 62
7
  6
CONTINUOUS
 70
0
 71
3
 72
20
 73
16
 74
0
 42
0.0000001
 43
0.0000001
 44
0.0000000001
 40
0.0
 40
0.0
 40
0.0
 40
0.0
 40
0.0781502921
 40
0.1532587879
 40
0.2948058952
 40
0.4259483122
 40
0.5483879941
 40
0.6070387028
 40
0.6643559781
 40
0.7206745217
 40
0.7763485982
 40
0.8317461923
 40
0.8872411145
 40
0.9432051823
 40
1.0
 40
1.0
 40
1.0
 40
1.0
 10
13.6587706882
 20
8.3166761626
 30
0.0
 10
13.6577378333
 20
8.3156785013
 30
0.0
 10
13.6556726461
 20
8.3137623039
 30
0.0
 10
13.6515412975
 20
8.3102566879
 30
0.0
 10
13.6463795456
 20
8.3064677759
 30
0.0
 10
13.640068443
 20
8.302844686
 30
0.0
 10
13.6347445709
 20
8.3006512249
 30
0.0
 10
13.6305288104
 20
8.2994466009
 30
0.0
 10
13.6274231913
 20
8.2988151236
 30
0.0
 10
13.6243308743
 20
8.2984435931
 30
0.0
 10
13.6212534404
 20
8.2983324794
 30
0.0
 10
13.6181927474
 20
8.29848191
 30
0.0
 10
13.6151505369
 20
8.2988918262
 30
0.0
 10
13.6121288617
 20
8.2995619254
 30
0.0
 10
13.6101472592
 20
8.3001760935
 30
0.0
 10
13.6091633441
 20
8.3005239665
 30
0.0
  0
SPLINE
  5
3E3
100
AcDbEntity
  8
0
100
AcDbSpline
 62
7
  6
CONTINUOUS
 70
0
 71
3
 72
23
 73
19
 74
0
 42
0.0000001
 43
0.0000001
 44
0.0000000001
 40
0.0
 40
0.0
 40
0.0
 40
0.0
 40
0.0749628755
 40
0.1455692105
 40
0.2121610308
 40
0.2751643503
 40
0.3350995418
 40
0.3925846725
 40
0.4483308921
 40
0.5031250774
 40
0.5577995457
 40
0.6131926739
 40
0.670107897
 40
0.7292790073
 40
0.7913522907
 40
0.8568786303
 40
0.9263109639
 40
1.0
 40
1.0
 40
1.0
 40
1.0
 10
12.2125119737
 20
10.0508659651
 30
0.0
 10
12.2117034229
 20
10.0516184013
 30
0.0
 10
12.2101781254
 20
10.0531290176
 30
0.0
 10
12.2081200365
 20
10.0554858045
 30
0.0
 10
12.206365026
 20
10.0578612556
 30
0.0
 10
12.2049157079
 20
10.06025331
 30
0.0
 10
12.2037745142
 20
10.0626598591
 30
0.0
 10
12.2029439802
 20
10.0650784295
 30
0.0
 10
12.202426486
 20
10.0675059209
 30
0.0
 10
12.202223805
 20
10.0699384772
 30
0.0
 10
12.2023368127
 20
10.0723716833
 30
0.0
 10
12.2027649748
 20
10.0748010477
 30
0.0
 10
12.2035068164
 20
10.0772224838
 30
0.0
 10
12.2045599248
 20
10.0796327261
 30
0.0
 10
12.2059219509
 20
10.0820291132
 30
0.0
 10
12.2075903785
 20
10.0844095766
 30
0.0
 10
12.2095626329
 20
10.0867717966
 30
0.0
 10
12.2110328001
 20
10.0882863849
 30
0.0
 10
12.2118137155
 20
10.0890406913
 30
0.0
  0
SPLINE
  5
3E4
100
AcDbEntity
  8
0
100
AcDbSpline
 62
7
  6
CONTINUOUS
 70
0
 71
3
 72
51
 73
47
 74
0
 42
0.0000001
 43
0.0000001
 44
0.0000000001
 40
0.0
 40
0.0
 40
0.0
 40
0.0
 40
0.008080737
 40
0.0167285458
 40
0.0259565579
 40
0.0357724608
 40
0.0461790531
 40
0.0571755041
 40
0.0687574553
 40
0.0809180121
 40
0.0936475916
 40
0.1069347421
 40
0.1207658721
 40
0.1351259397
 40
0.1653632844
 40
0.1974988173
 40
0.2313644
 40
0.2667761596
 40
0.3035369359
 40
0.3414384526
 40
0.3802633205
 40
0.419786939
 40
0.4597793374
 40
0.5000069804
 40
0.5402345547
 40
0.5802267476
 40
0.6197500249
 40
0.6585744183
 40
0.6964753307
 40
0.7332353773
 40
0.7686462878
 40
0.8025109088
 40
0.8346453759
 40
0.8648815607
 40
0.8792409939
 40
0.8930715156
 40
0.9063579986
 40
0.9190869379
 40
0.9312468049
 40
0.942828077
 40
0.9538238292
 40
0.9642297725
 40
0.9740449679
 40
0.9832721482
 40
0.9919193669
 40
1.0
 40
1.0
 40
1.0
 40
1.0
 10
12.6836355529
 20
10.0199514525
 30
0.0
 10
12.6827738527
 20
10.0206638266
 30
0.0
 10
12.6809378131
 20
10.0220761632
 30
0.0
 10
12.6779654088
 20
10.0240946561
 30
0.0
 10
12.6746873596
 20
10.0260810229
 30
0.0
 10
12.6711087153
 20
10.0280320992
 30
0.0
 10
12.6672348689
 20
10.0299451007
 30
0.0
 10
12.6630717077
 20
10.0318169834
 30
0.0
 10
12.6586256435
 20
10.033644958
 30
0.0
 10
12.6539035133
 20
10.0354260734
 30
0.0
 10
12.6489126475
 20
10.0371576408
 30
0.0
 10
12.643660786
 20
10.0388368402
 30
0.0
 10
12.6381561071
 20
10.0404611498
 30
0.0
 10
12.6303560006
 20
10.0425867905
 30
0.0
 10
12.6200324877
 20
10.0450754274
 30
0.0
 10
12.6069875663
 20
10.0477562021
 30
0.0
 10
12.5931622762
 20
10.0501632788
 30
0.0
 10
12.5786430254
 20
10.0522813396
 30
0.0
 10
12.5635204485
 20
10.0540968616
 30
0.0
 10
12.5478891267
 20
10.0555982833
 30
0.0
 10
12.5318468715
 20
10.0567760484
 30
0.0
 10
12.5154941181
 20
10.0576226676
 30
0.0
 10
12.4989332741
 20
10.05813276
 30
0.0
 10
12.4822680691
 20
10.058303085
 30
0.0
 10
12.4656028946
 20
10.0581325608
 30
0.0
 10
12.449042142
 20
10.0576222704
 30
0.0
 10
12.4326895401
 20
10.0567754556
 30
0.0
 10
12.4166474959
 20
10.0555974986
 30
0.0
 10
12.4010164435
 20
10.0540958897
 30
0.0
 10
12.3858941923
 20
10.0522801867
 30
0.0
 10
12.3713753221
 20
10.0501619519
 30
0.0
 10
12.3575504644
 20
10.0477547106
 30
0.0
 10
12.3445060258
 20
10.0450737771
 30
0.0
 10
12.3341829477
 20
10.0425850227
 30
0.0
 10
12.3263832164
 20
10.0404592696
 30
0.0
 10
12.3208788279
 20
10.0388349093
 30
0.0
 10
12.3156272696
 20
10.037155632
 30
0.0
 10
12.3106367123
 20
10.0354240183
 30
0.0
 10
12.3059149052
 20
10.0336428336
 30
0.0
 10
12.3014691667
 20
10.0318148189
 30
0.0
 10
12.2973063393
 20
10.0299428771
 30
0.0
 10
12.2934328337
 20
10.0280298271
 30
0.0
 10
12.2898545558
 20
10.0260787112
 30
0.0
 10
12.2865768598
 20
10.0240923298
 30
0.0
 10
12.2836047621
 20
10.022073759
 30
0.0
 10
12.281768918
 20
10.0206613245
 30
0.0
 10
12.2809072924
 20
10.0199488827
 30
0.0
  0
SPLINE
  5
3E5
100
AcDbEntity
  8
0
100
AcDbSpline
 62
7
  6
CONTINUOUS
 70
0
 71
3
 72
23
 73
19
 74
0
 42
0.0000001
 43
0.0000001
 44
0.0000000001
 40
0.0
 40
0.0
 40
0.0
 40
0.0
 40
0.0749628755
 40
0.1455692105
 40
0.2121610308
 40
0.2751643503
 40
0.3350995418
 40
0.3925846725
 40
0.4483308921
 40
0.5031250774
 40
0.5577995457
 40
0.6131926739
 40
0.670107897
 40
0.7292790073
 40
0.7913522907
 40
0.8568786303
 40
0.9263109639
 40
1.0
 40
1.0
 40
1.0
 40
1.0
 10
9.247966048
 20
9.6873343226
 30
0.0
 10
9.2471574972
 20
9.6880867588
 30
0.0
 10
9.2456321997
 20
9.6895973751
 30
0.0
 10
9.2435741108
 20
9.691954162
 30
0.0
 10
9.2418191003
 20
9.6943296131
 30
0.0
 10
9.2403697822
 20
9.6967216675
 30
0.0
 10
9.2392285885
 20
9.6991282166
 30
0.0
 10
9.2383980546
 20
9.701546787
 30
0.0
 10
9.2378805603
 20
9.7039742784
 30
0.0
 10
9.2376778793
 20
9.7064068347
 30
0.0
 10
9.237790887
 20
9.7088400407
 30
0.0
 10
9.2382190491
 20
9.7112694051
 30
0.0
 10
9.2389608908
 20
9.7136908413
 30
0.0
 10
9.2400139991
 20
9.7161010836
 30
0.0
 10
9.2413760252
 20
9.7184974707
 30
0.0
 10
9.2430444528
 20
9.7208779341
 30
0.0
 10
9.2450167072
 20
9.7232401541
 30
0.0
 10
9.2464868744
 20
9.7247547424
 30
0.0
 10
9.2472677898
 20
9.7255090488
 30
0.0
  0
SPLINE
  5
3E6
100
AcDbEntity
  8
0
100
AcDbSpline
 62
7
  6
CONTINUOUS
 70
0
 71
3
 72
51
 73
47
 74
0
 42
0.0000001
 43
0.0000001
 44
0.0000000001
 40
0.0
 40
0.0
 40
0.0
 40
0.0
 40
0.008080737
 40
0.0167285458
 40
0.0259565579
 40
0.0357724608
 40
0.0461790531
 40
0.0571755041
 40
0.0687574553
 40
0.0809180121
 40
0.0936475916
 40
0.1069347421
 40
0.1207658721
 40
0.1351259397
 40
0.1653632844
 40
0.1974988173
 40
0.2313644
 40
0.2667761596
 40
0.3035369359
 40
0.3414384526
 40
0.3802633205
 40
0.419786939
 40
0.4597793374
 40
0.5000069804
 40
0.5402345547
 40
0.5802267476
 40
0.6197500249
 40
0.6585744183
 40
0.6964753307
 40
0.7332353773
 40
0.7686462878
 40
0.8025109088
 40
0.8346453759
 40
0.8648815607
 40
0.8792409939
 40
0.8930715156
 40
0.9063579986
 40
0.9190869379
 40
0.9312468049
 40
0.942828077
 40
0.9538238292
 40
0.9642297725
 40
0.9740449679
 40
0.9832721482
 40
0.9919193669
 40
1.0
 40
1.0
 40
1.0
 40
1.0
 10
9.7190896272
 20
9.65641981
 30
0.0
 10
9.718227927
 20
9.6571321841
 30
0.0
 10
9.7163918875
 20
9.6585445207
 30
0.0
 10
9.7134194831
 20
9.6605630136
 30
0.0
 10
9.710141434
 20
9.6625493804
 30
0.0
 10
9.7065627896
 20
9.6645004567
 30
0.0
 10
9.7026889432
 20
9.6664134582
 30
0.0
 10
9.698525782
 20
9.6682853408
 30
0.0
 10
9.6940797179
 20
9.6701133155
 30
0.0
 10
9.6893575876
 20
9.6718944309
 30
0.0
 10
9.6843667218
 20
9.6736259983
 30
0.0
 10
9.6791148603
 20
9.6753051977
 30
0.0
 10
9.6736101814
 20
9.6769295073
 30
0.0
 10
9.6658100749
 20
9.679055148
 30
0.0
 10
9.655486562
 20
9.6815437849
 30
0.0
 10
9.6424416406
 20
9.6842245596
 30
0.0
 10
9.6286163506
 20
9.6866316363
 30
0.0
 10
9.6140970998
 20
9.6887496971
 30
0.0
 10
9.5989745228
 20
9.6905652191
 30
0.0
 10
9.583343201
 20
9.6920666408
 30
0.0
 10
9.5673009458
 20
9.6932444059
 30
0.0
 10
9.5509481924
 20
9.6940910251
 30
0.0
 10
9.5343873484
 20
9.6946011175
 30
0.0
 10
9.5177221435
 20
9.6947714425
 30
0.0
 10
9.501056969
 20
9.6946009183
 30
0.0
 10
9.4844962163
 20
9.6940906279
 30
0.0
 10
9.4681436145
 20
9.6932438131
 30
0.0
 10
9.4521015703
 20
9.6920658561
 30
0.0
 10
9.4364705178
 20
9.6905642472
 30
0.0
 10
9.4213482666
 20
9.6887485442
 30
0.0
 10
9.4068293964
 20
9.6866303094
 30
0.0
 10
9.3930045387
 20
9.6842230681
 30
0.0
 10
9.3799601001
 20
9.6815421346
 30
0.0
 10
9.369637022
 20
9.6790533802
 30
0.0
 10
9.3618372907
 20
9.6769276271
 30
0.0
 10
9.3563329023
 20
9.6753032668
 30
0.0
 10
9.3510813439
 20
9.6736239895
 30
0.0
 10
9.3460907866
 20
9.6718923758
 30
0.0
 10
9.3413689795
 20
9.6701111911
 30
0.0
 10
9.336923241
 20
9.6682831764
 30
0.0
 10
9.3327604136
 20
9.6664112346
 30
0.0
 10
9.328886908
 20
9.6644981846
 30
0.0
 10
9.3253086301
 20
9.6625470687
 30
0.0
 10
9.3220309341
 20
9.6605606873
 30
0.0
 10
9.3190588364
 20
9.6585421165
 30
0.0
 10
9.3172229923
 20
9.657129682
 30
0.0
 10
9.3163613668
 20
9.6564172401
 30
0.0
  0
SPLINE
  5
3E7
100
AcDbEntity
  8
0
100
AcDbSpline
 62
7
  6
CONTINUOUS
 70
0
 71
3
 72
88
 73
84
 74
0
 42
0.0000001
 43
0.0000001
 44
0.0000000001
 40
0.0
 40
0.0
 40
0.0
 40
0.0
 40
0.0027164206
 40
0.0054532135
 40
0.00823027
 40
0.0110665466
 40
0.0139797362
 40
0.0169860264
 40
0.0200999638
 40
0.0233344621
 40
0.0267007864
 40
0.030208716
 40
0.033866602
 40
0.0376815365
 40
0.0416594862
 40
0.0458053757
 40
0.0501232805
 40
0.0546164357
 40
0.0592874172
 40
0.0641381604
 40
0.0691700473
 40
0.0743839976
 40
0.0797804461
 40
0.085359486
 40
0.0911208072
 40
0.097063806
 40
0.1031875785
 40
0.1094909314
 40
0.1226301057
 40
0.1364676988
 40
0.1509864378
 40
0.1661662591
 40
0.1819846247
 40
0.1984167804
 40
0.2154359739
 40
0.2330136371
 40
0.2511195505
 40
0.2697219952
 40
0.2887878869
 40
0.3082829001
 40
0.3281715858
 40
0.3484174815
 40
0.3689832185
 40
0.3898306305
 40
0.410920857
 40
0.4322144439
 40
0.4536714439
 40
0.4969133241
 40
0.5403214886
 40
0.5835686279
 40
0.6050302166
 40
0.6263296837
 40
0.6474270673
 40
0.6682828961
 40
0.6888582896
 40
0.7091150586
 40
0.7290158075
 40
0.7485240405
 40
0.7676042737
 40
0.7862221443
 40
0.8043445271
 40
0.8219396585
 40
0.8389772699
 40
0.8554287349
 40
0.8712672375
 40
0.8864679574
 40
0.9010082824
 40
0.9148680665
 40
0.9280299429
 40
0.9343448017
 40
0.9404801679
 40
0.9464348204
 40
0.9522078552
 40
0.9577986253
 40
0.9632068219
 40
0.9684325067
 40
0.9734760906
 40
0.9783384494
 40
0.9830208978
 40
0.9875254123
 40
0.9918545974
 40
0.9960115688
 40
1.0
 40
1.0
 40
1.0
 40
1.0
 10
13.7455115402
 20
9.6750063331
 30
0.0
 10
13.7470177071
 20
9.6749018851
 30
0.0
 10
13.7500336221
 20
9.6745558681
 30
0.0
 10
13.754519115
 20
9.6736300138
 30
0.0
 10
13.7589706882
 20
9.6722973328
 30
0.0
 10
13.7633852083
 20
9.6705592482
 30
0.0
 10
13.7677603685
 20
9.6684172265
 30
0.0
 10
13.7720939221
 20
9.6658729554
 30
0.0
 10
13.7763839134
 20
9.6629282967
 30
0.0
 10
13.7806283615
 20
9.6595850256
 30
0.0
 10
13.7848255217
 20
9.6558451963
 30
0.0
 10
13.7889735038
 20
9.6517107678
 30
0.0
 10
13.7930705471
 20
9.6471839479
 30
0.0
 10
13.7971148279
 20
9.642267021
 30
0.0
 10
13.8011044741
 20
9.6369624154
 30
0.0
 10
13.8050377197
 20
9.631272796
 30
0.0
 10
13.8089126245
 20
9.6252009129
 30
0.0
 10
13.8127274289
 20
9.6187497997
 30
0.0
 10
13.8164802325
 20
9.6119226051
 30
0.0
 10
13.8201692281
 20
9.6047227107
 30
0.0
 10
13.823792626
 20
9.5971536831
 30
0.0
 10
13.8273485788
 20
9.5892192575
 30
0.0
 10
13.8308353991
 20
9.5809233978
 30
0.0
 10
13.8342512698
 20
9.5722702115
 30
0.0
 10
13.8375945474
 20
9.5632640274
 30
0.0
 10
13.8408635182
 20
9.5539093365
 30
0.0
 10
13.8440565693
 20
9.5442108012
 30
0.0
 10
13.8482689323
 20
9.5306391853
 30
0.0
 10
13.8533181668
 20
9.5128412757
 30
0.0
 10
13.8589691499
 20
9.4904782695
 30
0.0
 10
13.8642813229
 20
9.4668686052
 30
0.0
 10
13.8692439149
 20
9.4420596177
 30
0.0
 10
13.8738468253
 20
9.4161008524
 30
0.0
 10
13.8780806876
 20
9.3890443095
 30
0.0
 10
13.8819368805
 20
9.3609442237
 30
0.0
 10
13.8854075541
 20
9.3318569769
 30
0.0
 10
13.8884856467
 20
9.3018409668
 30
0.0
 10
13.8911648929
 20
9.270956483
 30
0.0
 10
13.8934398373
 20
9.2392655776
 30
0.0
 10
13.895305845
 20
9.2068319375
 30
0.0
 10
13.8967591094
 20
9.1737207555
 30
0.0
 10
13.8977966606
 20
9.1399985976
 30
0.0
 10
13.8984163761
 20
9.1057332699
 30
0.0
 10
13.8986169806
 20
9.0709936717
 30
0.0
 10
13.8983980351
 20
9.0358496794
 30
0.0
 10
13.8977599896
 20
9.0003719105
 30
0.0
 10
13.8963484009
 20
8.9525973595
 30
0.0
 10
13.8935455819
 20
8.8925713311
 30
0.0
 10
13.888563264
 20
8.8205410097
 30
0.0
 10
13.883074628
 20
8.7606952722
 30
0.0
 10
13.8778946459
 20
8.713172607
 30
0.0
 10
13.8736413692
 20
8.6779350686
 30
0.0
 10
13.8690187887
 20
8.6430836969
 30
0.0
 10
13.8640361837
 20
8.6086885225
 30
0.0
 10
13.8587036118
 20
8.574818723
 30
0.0
 10
13.8530318251
 20
8.5415423975
 30
0.0
 10
13.8470322653
 20
8.5089264507
 30
0.0
 10
13.8407170363
 20
8.4770364495
 30
0.0
 10
13.8340988882
 20
8.4459364878
 30
0.0
 10
13.8271911844
 20
8.415689056
 30
0.0
 10
13.8200078755
 20
8.3863549153
 30
0.0
 10
13.8125634718
 20
8.3579929725
 30
0.0
 10
13.8048730143
 20
8.3306601571
 30
0.0
 10
13.7969520412
 20
8.3044113
 30
0.0
 10
13.7888165621
 20
8.2792990032
 30
0.0
 10
13.7804830199
 20
8.2553735528
 30
0.0
 10
13.7719682468
 20
8.2326827039
 30
0.0
 10
13.7632894321
 20
8.2112719328
 30
0.0
 10
13.7558357386
 20
8.1943054067
 30
0.0
 10
13.7497932311
 20
8.1814156858
 30
0.0
 10
13.7452938647
 20
8.1722283231
 30
0.0
 10
13.7407665996
 20
8.1633917119
 30
0.0
 10
13.7362137301
 20
8.1549102413
 30
0.0
 10
13.7316375135
 20
8.1467881557
 30
0.0
 10
13.727040227
 20
8.1390295032
 30
0.0
 10
13.7224241953
 20
8.1316381255
 30
0.0
 10
13.7177916478
 20
8.1246177348
 30
0.0
 10
13.7131449767
 20
8.1179717872
 30
0.0
 10
13.7084863932
 20
8.1117035932
 30
0.0
 10
13.7038181709
 20
8.10581619
 30
0.0
 10
13.6991424834
 20
8.1003124425
 30
0.0
 10
13.6944618217
 20
8.0951953388
 30
0.0
 10
13.6912747367
 20
8.0919778585
 30
0.0
 10
13.6896803172
 20
8.0904377675
 30
0.0
  0
SPLINE
  5
3E8
100
AcDbEntity
  8
0
100
AcDbSpline
 62
7
  6
CONTINUOUS
 70
0
 71
3
 72
81
 73
77
 74
0
 42
0.0000001
 43
0.0000001
 44
0.0000000001
 40
0.0
 40
0.0
 40
0.0
 40
0.0
 40
0.0040523
 40
0.0082800607
 40
0.0126871453
 40
0.0172767676
 40
0.0220516095
 40
0.0270137572
 40
0.0321645622
 40
0.0375048519
 40
0.043035017
 40
0.0487549916
 40
0.0607619183
 40
0.0735190437
 40
0.087014504
 40
0.1012325497
 40
0.1161540562
 40
0.1317569258
 40
0.1480164485
 40
0.1649055806
 40
0.1823951717
 40
0.200454143
 40
0.2190496755
 40
0.2381473809
 40
0.2577114442
 40
0.2777047486
 40
0.2980889978
 40
0.3188248566
 40
0.3398720686
 40
0.3827347929
 40
0.4263417459
 40
0.4703491099
 40
0.514409022
 40
0.5581731
 40
0.6012959281
 40
0.6225110233
 40
0.6434394292
 40
0.6640403808
 40
0.6842739777
 40
0.7041012903
 40
0.7234844759
 40
0.7423869065
 40
0.7607733182
 40
0.7786099377
 40
0.7958646234
 40
0.8125070285
 40
0.8285088054
 40
0.8438438177
 40
0.8584883682
 40
0.8724214924
 40
0.8856253318
 40
0.8980856159
 40
0.9097922254
 40
0.9153614065
 40
0.9207407001
 40
0.9259303755
 40
0.9309312202
 40
0.9357444643
 40
0.9403719534
 40
0.9448161817
 40
0.949080328
 40
0.9531684682
 40
0.9570855643
 40
0.9608376623
 40
0.9644320366
 40
0.967877261
 40
0.9711834636
 40
0.9774234772
 40
0.9803900893
 40
0.9832752684
 40
0.9860977592
 40
0.9888777013
 40
0.991636254
 40
0.9943951185
 40
0.9971759862
 40
1.0
 40
1.0
 40
1.0
 40
1.0
 10
13.6587706882
 20
8.3166761626
 30
0.0
 10
13.6599346989
 20
8.3178005106
 30
0.0
 10
13.6622613861
 20
8.3201519433
 30
0.0
 10
13.6656766968
 20
8.3238963502
 30
0.0
 10
13.6690882389
 20
8.3279295883
 30
0.0
 10
13.672494038
 20
8.3322493653
 30
0.0
 10
13.6758924625
 20
8.3368534314
 30
0.0
 10
13.679281753
 20
8.3417394821
 30
0.0
 10
13.6826602376
 20
8.3469049727
 30
0.0
 10
13.6860261274
 20
8.3523472174
 30
0.0
 10
13.6893776564
 20
8.3580633917
 30
0.0
 10
13.6938981837
 20
8.3661779227
 30
0.0
 10
13.6994883745
 20
8.3769967422
 30
0.0
 10
13.7060076746
 20
8.3908188708
 30
0.0
 10
13.7124285013
 20
8.4056541892
 30
0.0
 10
13.7187372978
 20
8.4214716391
 30
0.0
 10
13.7249207266
 20
8.4382383036
 30
0.0
 10
13.7309657035
 20
8.4559190744
 30
0.0
 10
13.7368594191
 20
8.4744768826
 30
0.0
 10
13.7425893778
 20
8.4938727625
 30
0.0
 10
13.7481434224
 20
8.5140659471
 30
0.0
 10
13.7535097833
 20
8.5350139481
 30
0.0
 10
13.758677093
 20
8.5566726576
 30
0.0
 10
13.7636344028
 20
8.5789964572
 30
0.0
 10
13.7683712062
 20
8.6019383152
 30
0.0
 10
13.7728774699
 20
8.6254498836
 30
0.0
 10
13.7771436525
 20
8.649481585
 30
0.0
 10
13.7811607656
 20
8.6739827855
 30
0.0
 10
13.7862037729
 20
8.707410057
 30
0.0
 10
13.7918140904
 20
8.7499853961
 30
0.0
 10
13.7973940025
 20
8.801798705
 30
0.0
 10
13.8018139671
 20
8.8542037085
 30
0.0
 10
13.8050367258
 20
8.9067587894
 30
0.0
 10
13.8070350927
 20
8.9590210669
 30
0.0
 10
13.8076699109
 20
9.0021933785
 30
0.0
 10
13.8075428394
 20
9.0362464795
 30
0.0
 10
13.8071346844
 20
9.0613019555
 30
0.0
 10
13.8064141702
 20
9.0859582505
 30
0.0
 10
13.8053828232
 20
9.1101634159
 30
0.0
 10
13.8040428634
 20
9.133866407
 30
0.0
 10
13.8023971532
 20
9.1570172543
 30
0.0
 10
13.8004492022
 20
9.1795671593
 30
0.0
 10
13.7982031815
 20
9.2014686096
 30
0.0
 10
13.7956638928
 20
9.2226754784
 30
0.0
 10
13.7928367605
 20
9.2431431169
 30
0.0
 10
13.7897278143
 20
9.2628284557
 30
0.0
 10
13.7863436955
 20
9.2816901139
 30
0.0
 10
13.7826916394
 20
9.2996884947
 30
0.0
 10
13.7787794413
 20
9.3167858805
 30
0.0
 10
13.7746154362
 20
9.3329464862
 30
0.0
 10
13.7702084682
 20
9.3481366984
 30
0.0
 10
13.7655678774
 20
9.3623247378
 30
0.0
 10
13.7614485135
 20
9.3734669305
 30
0.0
 10
13.7580321611
 20
9.3818455842
 30
0.0
 10
13.7554603097
 20
9.3877559569
 30
0.0
 10
13.7528374905
 20
9.3933945629
 30
0.0
 10
13.750165102
 20
9.3987585058
 30
0.0
 10
13.7474444711
 20
9.4038449786
 30
0.0
 10
13.7446770067
 20
9.4086513536
 30
0.0
 10
13.7418641471
 20
9.4131751679
 30
0.0
 10
13.7390072262
 20
9.4174140467
 30
0.0
 10
13.7361077298
 20
9.4213658501
 30
0.0
 10
13.7331670299
 20
9.4250285057
 30
0.0
 10
13.7301864735
 20
9.4284001144
 30
0.0
 10
13.7271676429
 20
9.4314788621
 30
0.0
 10
13.7241113577
 20
9.4342632904
 30
0.0
 10
13.7200680001
 20
9.4375176596
 30
0.0
 10
13.7158705822
 20
9.4402672357
 30
0.0
 10
13.7115452029
 20
9.4424244276
 30
0.0
 10
13.7083253212
 20
9.4437137448
 30
0.0
 10
13.7050777725
 20
9.4446999759
 30
0.0
 10
13.7018044392
 20
9.4453822618
 30
0.0
 10
13.6985076225
 20
9.4457597385
 30
0.0
 10
13.6951896233
 20
9.4458321866
 30
0.0
 10
13.6918531465
 20
9.4455995969
 30
0.0
 10
13.6896396083
 20
9.4452448961
 30
0.0
 10
13.6885345763
 20
9.4450193285
 30
0.0
  0
SPLINE
  5
3E9
100
AcDbEntity
  8
0
100
AcDbSpline
 62
7
  6
CONTINUOUS
 70
0
 71
3
 72
31
 73
27
 74
0
 42
0.0000001
 43
0.0000001
 44
0.0000000001
 40
0.0
 40
0.0
 40
0.0
 40
0.0
 40
0.0605355681
 40
0.1196695499
 40
0.1751471955
 40
0.2264359356
 40
0.2738047415
 40
0.317735526
 40
0.3970785943
 40
0.4674276663
 40
0.5307570944
 40
0.5884185272
 40
0.641396718
 40
0.6904765669
 40
0.7363599972
 40
0.779764366
 40
0.8008091742
 40
0.8215648402
 40
0.8421712963
 40
0.8627933802
 40
0.8836204419
 40
0.9048749466
 40
0.9268147916
 40
0.9497401215
 40
0.9739998496
 40
1.0
 40
1.0
 40
1.0
 40
1.0
 10
10.786002968
 20
7.6896151754
 30
0.0
 10
10.7868642566
 20
7.6871913126
 30
0.0
 10
10.7883756897
 20
7.6823298977
 30
0.0
 10
10.7900778807
 20
7.6750792961
 30
0.0
 10
10.7912530607
 20
7.6681239657
 30
0.0
 10
10.7919763884
 20
7.6616112148
 30
0.0
 10
10.7923318669
 20
7.6555599803
 30
0.0
 10
10.792405015
 20
7.648307084
 30
0.0
 10
10.7919348438
 20
7.6400808111
 30
0.0
 10
10.7906163573
 20
7.631113772
 30
0.0
 10
10.7887146018
 20
7.6231970289
 30
0.0
 10
10.7863158574
 20
7.6161922152
 30
0.0
 10
10.7834700054
 20
7.6100166126
 30
0.0
 10
10.7802041925
 20
7.6046272422
 30
0.0
 10
10.7765313542
 20
7.6000137485
 30
0.0
 10
10.77309243
 20
7.5967956185
 30
0.0
 10
10.7701530441
 20
7.5946747161
 30
0.0
 10
10.7678692407
 20
7.5933192919
 30
0.0
 10
10.7654822812
 20
7.5921958845
 30
0.0
 10
10.7629909935
 20
7.5913173249
 30
0.0
 10
10.760393127
 20
7.5907021914
 30
0.0
 10
10.7576872266
 20
7.5903702608
 30
0.0
 10
10.7548714956
 20
7.5903477628
 30
0.0
 10
10.7519446207
 20
7.5906650218
 30
0.0
 10
10.7489062549
 20
7.5913588205
 30
0.0
 10
10.7468880618
 20
7.5920743275
 30
0.0
 10
10.7458685053
 20
7.5924999361
 30
0.0
  0
SPLINE
  5
3EA
100
AcDbEntity
  8
0
100
AcDbSpline
 62
7
  6
CONTINUOUS
 70
0
 71
3
 72
53
 73
49
 74
0
 42
0.0000001
 43
0.0000001
 44
0.0000000001
 40
0.0
 40
0.0
 40
0.0
 40
0.0
 40
0.0094764718
 40
0.0194607499
 40
0.0299510104
 40
0.0409432183
 40
0.0524316016
 40
0.0644087203
 40
0.0768657297
 40
0.0897925242
 40
0.1031777744
 40
0.1170091765
 40
0.1312733751
 40
0.1459561776
 40
0.1610425491
 40
0.1765166667
 40
0.2085608588
 40
0.2419497287
 40
0.276534402
 40
0.3121582059
 40
0.3486578834
 40
0.3858647468
 40
0.4236057919
 40
0.4617047902
 40
0.4999833742
 40
0.5382621086
 40
0.5763615573
 40
0.6141033495
 40
0.6513112526
 40
0.6878122569
 40
0.7234376663
 40
0.7580242134
 40
0.7914152128
 40
0.8234617748
 40
0.8389371651
 40
0.8540248599
 40
0.8687090423
 40
0.8829746649
 40
0.8968075405
 40
0.9101943061
 40
0.9231226538
 40
0.935581257
 40
0.9475599959
 40
0.959050032
 40
0.9700439094
 40
0.9805358597
 40
0.9905218441
 40
1.0
 40
1.0
 40
1.0
 40
1.0
 10
13.5488096481
 20
8.3915289218
 30
0.0
 10
13.5504725504
 20
8.3941901265
 30
0.0
 10
13.5537809587
 20
8.3997222196
 30
0.0
 10
13.5585787289
 20
8.4084043458
 30
0.0
 10
13.5633354342
 20
8.4176768643
 30
0.0
 10
13.5680451605
 20
8.4275281734
 30
0.0
 10
13.5727020049
 20
8.4379461871
 30
0.0
 10
13.5773001832
 20
8.4489179825
 30
0.0
 10
13.5818339458
 20
8.4604299553
 30
0.0
 10
13.5862975808
 20
8.4724678059
 30
0.0
 10
13.5906855502
 20
8.4850165461
 30
0.0
 10
13.5949922897
 20
8.4980605562
 30
0.0
 10
13.5992124517
 20
8.5115835693
 30
0.0
 10
13.6033407078
 20
8.5255687176
 30
0.0
 10
13.6073719124
 20
8.5399985643
 30
0.0
 10
13.6126723843
 20
8.5600409514
 30
0.0
 10
13.6190035147
 20
8.5860769613
 30
0.0
 10
13.6260517734
 20
8.6184410302
 30
0.0
 10
13.6326009675
 20
8.6521179972
 30
0.0
 10
13.6386181331
 20
8.6869396551
 30
0.0
 10
13.6440729596
 20
8.7227322487
 30
0.0
 10
13.6489380093
 20
8.7593170296
 30
0.0
 10
13.6531888301
 20
8.7965112617
 30
0.0
 10
13.656804089
 20
8.8341291217
 30
0.0
 10
13.6597656654
 20
8.87198265
 30
0.0
 10
13.6620587423
 20
8.9098826983
 30
0.0
 10
13.6636718795
 20
8.9476398832
 30
0.0
 10
13.6645970722
 20
8.9850655408
 30
0.0
 10
13.6648297942
 20
9.0219726789
 30
0.0
 10
13.6643690341
 20
9.0581769303
 30
0.0
 10
13.6632172866
 20
9.0934974636
 30
0.0
 10
13.6613805812
 20
9.1277579945
 30
0.0
 10
13.6588683423
 20
9.1607873653
 30
0.0
 10
13.6561926698
 20
9.187450077
 30
0.0
 10
13.6537102595
 20
9.2080340051
 30
0.0
 10
13.6517100206
 20
9.2228835701
 30
0.0
 10
13.649552273
 20
9.2373061513
 30
0.0
 10
13.6472396911
 20
9.2512837673
 30
0.0
 10
13.6447752357
 20
9.2647989738
 30
0.0
 10
13.6421619501
 20
9.2778349195
 30
0.0
 10
13.6394031878
 20
9.2903753641
 30
0.0
 10
13.6365023738
 20
9.3024046972
 30
0.0
 10
13.6334631748
 20
9.313907964
 30
0.0
 10
13.6302894248
 20
9.3248708953
 30
0.0
 10
13.6269850547
 20
9.3352798909
 30
0.0
 10
13.6235542462
 20
9.3451221643
 30
0.0
 10
13.6200012588
 20
9.3543854011
 30
0.0
 10
13.6174884299
 20
9.360322553
 30
0.0
 10
13.6162089307
 20
9.3631884973
 30
0.0
  0
SPLINE
  5
3EB
100
AcDbEntity
  8
0
100
AcDbSpline
 62
7
  6
CONTINUOUS
 70
0
 71
3
 72
43
 73
39
 74
0
 42
0.0000001
 43
0.0000001
 44
0.0000000001
 40
0.0
 40
0.0
 40
0.0
 40
0.0
 40
0.0149672865
 40
0.0299517182
 40
0.04495549
 40
0.059980694
 40
0.0900984567
 40
0.120324286
 40
0.1354840101
 40
0.1506751829
 40
0.1658989737
 40
0.1811564011
 40
0.2117708691
 40
0.2425280664
 40
0.2734301901
 40
0.3044767647
 40
0.3356646878
 40
0.3669883214
 40
0.3984396246
 40
0.430008324
 40
0.4616821164
 40
0.4934468999
 40
0.5252870292
 40
0.5571855907
 40
0.5891246935
 40
0.6210857717
 40
0.6530498944
 40
0.6849980803
 40
0.7169116124
 40
0.7487723502
 40
0.7805630346
 40
0.8122675838
 40
0.8438713716
 40
0.8753614984
 40
0.9067269914
 40
0.9379591703
 40
0.9690513233
 40
1.0
 40
1.0
 40
1.0
 40
1.0
 10
11.580340607
 20
7.4108832788
 30
0.0
 10
11.5755869727
 20
7.4079694176
 30
0.0
 10
11.5659679983
 20
7.4023096965
 30
0.0
 10
11.551234692
 20
7.3943409546
 30
0.0
 10
11.5362047746
 20
7.3868971846
 30
0.0
 10
11.5157792738
 20
7.3776774652
 30
0.0
 10
11.4895826543
 20
7.3675063593
 30
0.0
 10
11.4626827135
 20
7.359205728
 30
0.0
 10
11.4407950059
 20
7.3536982891
 30
0.0
 10
11.4241919701
 20
7.3501349427
 30
0.0
 10
11.4074387554
 20
7.3471475151
 30
0.0
 10
11.3849036204
 20
7.3439333024
 30
0.0
 10
11.3564476915
 20
7.3413751304
 30
0.0
 10
11.3220552825
 20
7.3406526321
 30
0.0
 10
11.2875319939
 20
7.3422762188
 30
0.0
 10
11.2530374917
 20
7.3462383082
 30
0.0
 10
11.2187298734
 20
7.3525203684
 30
0.0
 10
11.1847667012
 20
7.3610933034
 30
0.0
 10
11.1513038146
 20
7.371917515
 30
0.0
 10
11.1184947513
 20
7.3849431115
 30
0.0
 10
11.0864900174
 20
7.4001101334
 30
0.0
 10
11.0554364152
 20
7.4173488334
 30
0.0
 10
11.0254763725
 20
7.4365799901
 30
0.0
 10
10.9967472933
 20
7.4577152686
 30
0.0
 10
10.9693809394
 20
7.4806576328
 30
0.0
 10
10.9435028315
 20
7.5053017867
 30
0.0
 10
10.919231679
 20
7.5315346536
 30
0.0
 10
10.8966788409
 20
7.5592358904
 30
0.0
 10
10.8759478193
 20
7.5882784348
 30
0.0
 10
10.8571337885
 20
7.6185290828
 30
0.0
 10
10.840323159
 20
7.6498490909
 30
0.0
 10
10.8255931759
 20
7.6820948075
 30
0.0
 10
10.813011569
 20
7.7151183144
 30
0.0
 10
10.8026362643
 20
7.7487681571
 30
0.0
 10
10.7945150492
 20
7.7828898153
 30
0.0
 10
10.7886855175
 20
7.8173272046
 30
0.0
 10
10.7851745626
 20
7.8519202336
 30
0.0
 10
10.7843888483
 20
7.8750391759
 30
0.0
 10
10.7843888483
 20
7.8865682064
 30
0.0
  0
SPLINE
  5
3EC
100
AcDbEntity
  8
0
100
AcDbSpline
 62
7
  6
CONTINUOUS
 70
0
 71
3
 72
39
 73
35
 74
0
 42
0.0000001
 43
0.0000001
 44
0.0000000001
 40
0.0
 40
0.0
 40
0.0
 40
0.0
 40
0.0234885163
 40
0.0483834406
 40
0.0746242899
 40
0.102142903
 40
0.1308643872
 40
0.1607079035
 40
0.1915873416
 40
0.2234119189
 40
0.2560867264
 40
0.2895132402
 40
0.3235898056
 40
0.3582121061
 40
0.3932736189
 40
0.428666064
 40
0.4642798468
 40
0.5000044978
 40
0.5357291108
 40
0.5713427794
 40
0.6067350341
 40
0.6417962806
 40
0.6764182396
 40
0.7104943897
 40
0.7439204157
 40
0.7765946655
 40
0.8084186173
 40
0.8392973654
 40
0.8691401307
 40
0.8978608066
 40
0.9253785589
 40
0.9516184998
 40
0.976512473
 40
1.0
 40
1.0
 40
1.0
 40
1.0
 10
13.5265751543
 20
8.489803504
 30
0.0
 10
13.5289092362
 20
8.4955302468
 30
0.0
 10
13.5335027568
 20
8.507414784
 30
0.0
 10
13.5400113464
 20
8.5259555298
 30
0.0
 10
13.5463221417
 20
8.5456815159
 30
0.0
 10
13.552413975
 20
8.5665275951
 30
0.0
 10
13.5582665574
 20
8.5884252194
 30
0.0
 10
13.5638603601
 20
8.611302144
 30
0.0
 10
13.5691767386
 20
8.6350828503
 30
0.0
 10
13.574197979
 20
8.6596887672
 30
0.0
 10
13.578907361
 20
8.6850385565
 30
0.0
 10
13.5832892111
 20
8.7110483876
 30
0.0
 10
13.5873289536
 20
8.7376322231
 30
0.0
 10
13.591013158
 20
8.7647021081
 30
0.0
 10
13.5943295824
 20
8.7921684659
 30
0.0
 10
13.5972672133
 20
8.8199403978
 30
0.0
 10
13.5998163017
 20
8.8479259861
 30
0.0
 10
13.6019683948
 20
8.8760326014
 30
0.0
 10
13.6037163638
 20
8.9041672107
 30
0.0
 10
13.6050544278
 20
8.9322366874
 30
0.0
 10
13.6059781731
 20
8.9601481218
 30
0.0
 10
13.6064845685
 20
8.9878091309
 30
0.0
 10
13.6065719758
 20
9.015128166
 30
0.0
 10
13.606240156
 20
9.0420148189
 30
0.0
 10
13.605490271
 20
9.068380124
 30
0.0
 10
13.6043248818
 20
9.0941368567
 30
0.0
 10
13.6027479412
 20
9.1191998273
 30
0.0
 10
13.600764783
 20
9.14348617
 30
0.0
 10
13.5983821067
 20
9.1669156231
 30
0.0
 10
13.5956079553
 20
9.18941082
 30
0.0
 10
13.5924516983
 20
9.2108975141
 30
0.0
 10
13.5889239725
 20
9.2313050168
 30
0.0
 10
13.5850367396
 20
9.2505658821
 30
0.0
 10
13.5821275427
 20
9.2629701648
 30
0.0
 10
13.5806062113
 20
9.2689639824
 30
0.0
  0
SPLINE
  5
3ED
100
AcDbEntity
  8
0
100
AcDbSpline
 62
7
  6
CONTINUOUS
 70
0
 71
3
 72
71
 73
67
 74
0
 42
0.0000001
 43
0.0000001
 44
0.0000000001
 40
0.0
 40
0.0
 40
0.0
 40
0.0
 40
0.0155842357
 40
0.031115943
 40
0.0465952487
 40
0.0620238831
 40
0.0774034484
 40
0.0927362827
 40
0.1080251234
 40
0.1232731737
 40
0.1384840555
 40
0.1536617759
 40
0.1688106894
 40
0.1839354528
 40
0.1990409785
 40
0.2141323826
 40
0.2292149324
 40
0.2442939897
 40
0.2593749538
 40
0.2744632037
 40
0.2895640404
 40
0.3046826304
 40
0.3198239511
 40
0.3349927396
 40
0.3501934435
 40
0.3654301766
 40
0.3807066777
 40
0.3960262752
 40
0.4113918557
 40
0.4268058391
 40
0.4422701589
 40
0.4577862478
 40
0.4733550285
 40
0.4889769092
 40
0.5046517848
 40
0.5203790431
 40
0.5361575763
 40
0.5519857963
 40
0.5678616538
 40
0.5837826609
 40
0.5997459179
 40
0.6157481418
 40
0.6317856999
 40
0.6478546445
 40
0.6639507499
 40
0.6800695506
 40
0.6962063818
 40
0.7123564201
 40
0.7285147273
 40
0.7446762933
 40
0.7608360799
 40
0.7769890645
 40
0.7931302835
 40
0.8092548753
 40
0.8253581239
 40
0.8414355006
 40
0.8574827053
 40
0.873495705
 40
0.8894707706
 40
0.9054045132
 40
0.921293919
 40
0.9371363616
 40
0.9529297193
 40
0.9686720808
 40
0.9843626423
 40
1.0
 40
1.0
 40
1.0
 40
1.0
 10
11.6588847158
 20
7.6332664179
 30
0.0
 10
11.6588847158
 20
7.6242581411
 30
0.0
 10
11.6584438624
 20
7.6062687567
 30
0.0
 10
11.6564538505
 20
7.5793980171
 30
0.0
 10
11.6531407362
 20
7.5527480051
 30
0.0
 10
11.6485126714
 20
7.5263839856
 30
0.0
 10
11.6425805763
 20
7.50036911
 30
0.0
 10
11.635358763
 20
7.4747662178
 30
0.0
 10
11.6268645315
 20
7.4496370038
 30
0.0
 10
11.6171183128
 20
7.4250420728
 30
0.0
 10
11.6061435569
 20
7.4010407343
 30
0.0
 10
11.5939666797
 20
7.3776908772
 30
0.0
 10
11.5806170013
 20
7.3550488259
 30
0.0
 10
11.5661266758
 20
7.333169204
 30
0.0
 10
11.5505306142
 20
7.3121048024
 30
0.0
 10
11.5338664054
 20
7.2919064466
 30
0.0
 10
11.5161742387
 20
7.272622859
 30
0.0
 10
11.4974967841
 20
7.254300555
 30
0.0
 10
11.4778790929
 20
7.2369837277
 30
0.0
 10
11.4573684864
 20
7.2207141415
 30
0.0
 10
11.436014442
 20
7.2055310298
 30
0.0
 10
11.4138684712
 20
7.1914710029
 30
0.0
 10
11.3909840068
 20
7.1785679378
 30
0.0
 10
11.36741626
 20
7.1668529098
 30
0.0
 10
11.3432220826
 20
7.1563541239
 30
0.0
 10
11.3184598293
 20
7.1470968469
 30
0.0
 10
11.293189217
 20
7.1391033476
 30
0.0
 10
11.267471179
 20
7.1323928474
 30
0.0
 10
11.2413677219
 20
7.1269814625
 30
0.0
 10
11.2149417739
 20
7.1228821592
 30
0.0
 10
11.1882570268
 20
7.1201047455
 30
0.0
 10
11.1613777849
 20
7.118655845
 30
0.0
 10
11.1343688101
 20
7.118538884
 30
0.0
 10
11.1072951675
 20
7.1197540844
 30
0.0
 10
11.0802220704
 20
7.1222984643
 30
0.0
 10
11.0532147208
 20
7.1261658228
 30
0.0
 10
11.0263381531
 20
7.1313467802
 30
0.0
 10
10.9996570789
 20
7.1378288014
 30
0.0
 10
10.973235733
 20
7.1455962273
 30
0.0
 10
10.9471377207
 20
7.1546303116
 30
0.0
 10
10.9214258678
 20
7.1649092698
 30
0.0
 10
10.8961620631
 20
7.1764083128
 30
0.0
 10
10.8714071103
 20
7.1890997134
 30
0.0
 10
10.8472205876
 20
7.2029528862
 30
0.0
 10
10.8236607046
 20
7.2179344575
 30
0.0
 10
10.8007841645
 20
7.2340083455
 30
0.0
 10
10.7786460296
 20
7.2511358477
 30
0.0
 10
10.7572995864
 20
7.2692757279
 30
0.0
 10
10.7367962063
 20
7.288384304
 30
0.0
 10
10.7171852363
 20
7.3084155718
 30
0.0
 10
10.6985138799
 20
7.3293213123
 30
0.0
 10
10.6808270854
 20
7.3510512072
 30
0.0
 10
10.6641674377
 20
7.3735529584
 30
0.0
 10
10.6485750599
 20
7.3967724141
 30
0.0
 10
10.6340874958
 20
7.4206536854
 30
0.0
 10
10.6207396333
 20
7.4451392917
 30
0.0
 10
10.6085636252
 20
7.4701703007
 30
0.0
 10
10.5975888126
 20
7.4956864682
 30
0.0
 10
10.587841653
 20
7.5216263805
 30
0.0
 10
10.5793456585
 20
7.5479276045
 30
0.0
 10
10.5721213404
 20
7.574526819
 30
0.0
 10
10.5661860964
 20
7.6013600249
 30
0.0
 10
10.5615543483
 20
7.6283624891
 30
0.0
 10
10.5582371421
 20
7.655469593
 30
0.0
 10
10.556242757
 20
7.6826150017
 30
0.0
 10
10.5557973918
 20
7.7007268003
 30
0.0
 10
10.5557973918
 20
7.7097657837
 30
0.0
  0
SPLINE
  5
3EE
100
AcDbEntity
  8
0
100
AcDbSpline
 62
7
  6
CONTINUOUS
 70
0
 71
3
 72
15
 73
11
 74
0
 42
0.0000001
 43
0.0000001
 44
0.0000000001
 40
0.0
 40
0.0
 40
0.0
 40
0.0
 40
0.0770449349
 40
0.1617951275
 40
0.25667265
 40
0.3647466915
 40
0.489863244
 40
0.6363807409
 40
0.8073923462
 40
1.0
 40
1.0
 40
1.0
 40
1.0
 10
10.761116955
 20
7.7215591861
 30
0.0
 10
10.7621026014
 20
7.7211475799
 30
0.0
 10
10.7641197604
 20
7.7201522867
 30
0.0
 10
10.7671113593
 20
7.718211777
 30
0.0
 10
10.7701987004
 20
7.7156734586
 30
0.0
 10
10.7733857994
 20
7.7124168006
 30
0.0
 10
10.7766639599
 20
7.7082863294
 30
0.0
 10
10.7799857819
 20
7.7031145507
 30
0.0
 10
10.7832226247
 20
7.6968148735
 30
0.0
 10
10.7851088863
 20
7.6921313256
 30
0.0
 10
10.786002968
 20
7.6896151754
 30
0.0
  0
SPLINE
  5
3EF
100
AcDbEntity
  8
0
100
AcDbSpline
 62
7
  6
CONTINUOUS
 70
0
 71
3
 72
25
 73
21
 74
0
 42
0.0000001
 43
0.0000001
 44
0.0000000001
 40
0.0
 40
0.0
 40
0.0
 40
0.0
 40
0.0618726765
 40
0.1239841394
 40
0.1863088313
 40
0.248817326
 40
0.3114768931
 40
0.3742521073
 40
0.4371054933
 40
0.4999981956
 40
0.5628906671
 40
0.6257433643
 40
0.6885174438
 40
0.7198674332
 40
0.7511838842
 40
0.8136904188
 40
0.8760127855
 40
0.9070998962
 40
0.9381302661
 40
1.0
 40
1.0
 40
1.0
 40
1.0
 10
11.5830753911
 20
7.8770348125
 30
0.0
 10
11.5754770689
 20
7.8791812868
 30
0.0
 10
11.5603919207
 20
7.883999683
 30
0.0
 10
11.5382638626
 20
7.8927408841
 30
0.0
 10
11.5166917911
 20
7.9029691525
 30
0.0
 10
11.4957819768
 20
7.914634243
 30
0.0
 10
11.4756357081
 20
7.9276794238
 30
0.0
 10
11.4563510325
 20
7.9420411465
 30
0.0
 10
11.4380216761
 20
7.9576495321
 30
0.0
 10
11.4207367928
 20
7.9744286019
 30
0.0
 10
11.4045803432
 20
7.9922968931
 30
0.0
 10
11.3896312592
 20
8.0111669612
 30
0.0
 10
11.3782340757
 20
8.0276597326
 30
0.0
 10
11.3697902054
 20
8.0412621774
 30
0.0
 10
11.3618140254
 20
8.0551046912
 30
0.0
 10
11.3527217008
 20
8.0728525426
 30
0.0
 10
11.3448336436
 20
8.0911357197
 30
0.0
 10
11.3392779168
 20
8.1060150472
 30
0.0
 10
11.3342405478
 20
8.1210161602
 30
0.0
 10
11.3310326125
 20
8.132441286
 30
0.0
 10
11.3291569101
 20
8.1401105534
 30
0.0
  0
SPLINE
  5
3F0
100
AcDbEntity
  8
0
100
AcDbSpline
 62
7
  6
CONTINUOUS
 70
0
 71
3
 72
88
 73
84
 74
0
 42
0.0000001
 43
0.0000001
 44
0.0000000001
 40
0.0
 40
0.0
 40
0.0
 40
0.0
 40
0.0027164206
 40
0.0054532135
 40
0.00823027
 40
0.0110665466
 40
0.0139797362
 40
0.0169860264
 40
0.0200999638
 40
0.0233344621
 40
0.0267007864
 40
0.030208716
 40
0.033866602
 40
0.0376815365
 40
0.0416594862
 40
0.0458053757
 40
0.0501232805
 40
0.0546164357
 40
0.0592874172
 40
0.0641381604
 40
0.0691700473
 40
0.0743839976
 40
0.0797804461
 40
0.085359486
 40
0.0911208072
 40
0.097063806
 40
0.1031875785
 40
0.1094909314
 40
0.1226301057
 40
0.1364676988
 40
0.1509864378
 40
0.1661662591
 40
0.1819846247
 40
0.1984167804
 40
0.2154359739
 40
0.2330136371
 40
0.2511195505
 40
0.2697219952
 40
0.2887878869
 40
0.3082829001
 40
0.3281715858
 40
0.3484174815
 40
0.3689832185
 40
0.3898306305
 40
0.410920857
 40
0.4322144439
 40
0.4536714439
 40
0.4969133241
 40
0.5403214886
 40
0.5835686279
 40
0.6050302166
 40
0.6263296837
 40
0.6474270673
 40
0.6682828961
 40
0.6888582896
 40
0.7091150586
 40
0.7290158075
 40
0.7485240405
 40
0.7676042737
 40
0.7862221443
 40
0.8043445271
 40
0.8219396585
 40
0.8389772699
 40
0.8554287349
 40
0.8712672375
 40
0.8864679574
 40
0.9010082824
 40
0.9148680665
 40
0.9280299429
 40
0.9343448017
 40
0.9404801679
 40
0.9464348204
 40
0.9522078552
 40
0.9577986253
 40
0.9632068219
 40
0.9684325067
 40
0.9734760906
 40
0.9783384494
 40
0.9830208978
 40
0.9875254123
 40
0.9918545974
 40
0.9960115688
 40
1.0
 40
1.0
 40
1.0
 40
1.0
 10
13.1957803234
 20
9.1440067217
 30
0.0
 10
13.1972864903
 20
9.1439022737
 30
0.0
 10
13.2003024052
 20
9.1435562567
 30
0.0
 10
13.2047878982
 20
9.1426304025
 30
0.0
 10
13.2092394714
 20
9.1412977215
 30
0.0
 10
13.2136539914
 20
9.1395596369
 30
0.0
 10
13.2180291516
 20
9.1374176152
 30
0.0
 10
13.2223627052
 20
9.1348733441
 30
0.0
 10
13.2266526965
 20
9.1319286854
 30
0.0
 10
13.2308971446
 20
9.1285854143
 30
0.0
 10
13.2350943048
 20
9.1248455849
 30
0.0
 10
13.2392422869
 20
9.1207111565
 30
0.0
 10
13.2433393302
 20
9.1161843366
 30
0.0
 10
13.247383611
 20
9.1112674097
 30
0.0
 10
13.2513732572
 20
9.105962804
 30
0.0
 10
13.2553065029
 20
9.1002731846
 30
0.0
 10
13.2591814076
 20
9.0942013015
 30
0.0
 10
13.2629962121
 20
9.0877501884
 30
0.0
 10
13.2667490157
 20
9.0809229938
 30
0.0
 10
13.2704380112
 20
9.0737230993
 30
0.0
 10
13.2740614091
 20
9.0661540717
 30
0.0
 10
13.2776173619
 20
9.0582196461
 30
0.0
 10
13.2811041822
 20
9.0499237864
 30
0.0
 10
13.2845200529
 20
9.0412706002
 30
0.0
 10
13.2878633305
 20
9.0322644161
 30
0.0
 10
13.2911323013
 20
9.0229097251
 30
0.0
 10
13.2943253525
 20
9.0132111898
 30
0.0
 10
13.2985377154
 20
8.9996395739
 30
0.0
 10
13.3035869499
 20
8.9818416644
 30
0.0
 10
13.309237933
 20
8.9594786582
 30
0.0
 10
13.314550106
 20
8.9358689938
 30
0.0
 10
13.319512698
 20
8.9110600064
 30
0.0
 10
13.3241156084
 20
8.885101241
 30
0.0
 10
13.3283494707
 20
8.8580446981
 30
0.0
 10
13.3322056636
 20
8.8299446124
 30
0.0
 10
13.3356763372
 20
8.8008573655
 30
0.0
 10
13.3387544298
 20
8.7708413555
 30
0.0
 10
13.341433676
 20
8.7399568717
 30
0.0
 10
13.3437086205
 20
8.7082659662
 30
0.0
 10
13.3455746281
 20
8.6758323262
 30
0.0
 10
13.3470278925
 20
8.6427211441
 30
0.0
 10
13.3480654438
 20
8.6089989863
 30
0.0
 10
13.3486851593
 20
8.5747336585
 30
0.0
 10
13.3488857637
 20
8.5399940604
 30
0.0
 10
13.3486668182
 20
8.5048500681
 30
0.0
 10
13.3480287727
 20
8.4693722992
 30
0.0
 10
13.346617184
 20
8.4215977482
 30
0.0
 10
13.343814365
 20
8.3615717197
 30
0.0
 10
13.3388320471
 20
8.2895413983
 30
0.0
 10
13.3333434111
 20
8.2296956608
 30
0.0
 10
13.328163429
 20
8.1821729956
 30
0.0
 10
13.3239101523
 20
8.1469354572
 30
0.0
 10
13.3192875719
 20
8.1120840855
 30
0.0
 10
13.3143049668
 20
8.0776889111
 30
0.0
 10
13.3089723949
 20
8.0438191117
 30
0.0
 10
13.3033006082
 20
8.0105427861
 30
0.0
 10
13.2973010484
 20
7.9779268393
 30
0.0
 10
13.2909858194
 20
7.9460368382
 30
0.0
 10
13.2843676713
 20
7.9149368764
 30
0.0
 10
13.2774599675
 20
7.8846894447
 30
0.0
 10
13.2702766586
 20
7.8553553039
 30
0.0
 10
13.262832255
 20
7.8269933612
 30
0.0
 10
13.2551417974
 20
7.7996605457
 30
0.0
 10
13.2472208243
 20
7.7734116887
 30
0.0
 10
13.2390853452
 20
7.7482993919
 30
0.0
 10
13.230751803
 20
7.7243739414
 30
0.0
 10
13.2222370299
 20
7.7016830925
 30
0.0
 10
13.2135582152
 20
7.6802723215
 30
0.0
 10
13.2061045217
 20
7.6633057954
 30
0.0
 10
13.2000620142
 20
7.6504160744
 30
0.0
 10
13.1955626478
 20
7.6412287118
 30
0.0
 10
13.1910353827
 20
7.6323921005
 30
0.0
 10
13.1864825132
 20
7.62391063
 30
0.0
 10
13.1819062966
 20
7.6157885443
 30
0.0
 10
13.1773090101
 20
7.6080298918
 30
0.0
 10
13.1726929784
 20
7.6006385142
 30
0.0
 10
13.1680604309
 20
7.5936181235
 30
0.0
 10
13.1634137598
 20
7.5869721758
 30
0.0
 10
13.1587551763
 20
7.5807039819
 30
0.0
 10
13.154086954
 20
7.5748165786
 30
0.0
 10
13.1494112666
 20
7.5693128312
 30
0.0
 10
13.1447306048
 20
7.5641957274
 30
0.0
 10
13.1415435198
 20
7.5609782472
 30
0.0
 10
13.1399491004
 20
7.5594381562
 30
0.0
  0
SPLINE
  5
3F1
100
AcDbEntity
  8
0
100
AcDbSpline
 62
7
  6
CONTINUOUS
 70
0
 71
3
 72
15
 73
11
 74
0
 42
0.0000001
 43
0.0000001
 44
0.0000000001
 40
0.0
 40
0.0
 40
0.0
 40
0.0
 40
0.1233733694
 40
0.2470523798
 40
0.3711316686
 40
0.4956953092
 40
0.6208147035
 40
0.7465472312
 40
0.8729330667
 40
1.0
 40
1.0
 40
1.0
 40
1.0
 10
10.978841445
 20
8.1919680765
 30
0.0
 10
10.9719725998
 20
8.1828936305
 30
0.0
 10
10.9589692196
 20
8.1641394222
 30
0.0
 10
10.9418420035
 20
8.1344523146
 30
0.0
 10
10.9271708113
 20
8.1033540692
 30
0.0
 10
10.9150464307
 20
8.0710364842
 30
0.0
 10
10.9055416308
 20
8.0376957702
 30
0.0
 10
10.8987138591
 20
8.0035342817
 30
0.0
 10
10.8946038485
 20
7.9687622907
 30
0.0
 10
10.8936945541
 20
7.9453711172
 30
0.0
 10
10.8936945541
 20
7.9336494169
 30
0.0
  0
SPLINE
  5
3F2
100
AcDbEntity
  8
0
100
AcDbSpline
 62
7
  6
CONTINUOUS
 70
0
 71
3
 72
15
 73
11
 74
0
 42
0.0000001
 43
0.0000001
 44
0.0000000001
 40
0.0
 40
0.0
 40
0.0
 40
0.0
 40
0.1234511986
 40
0.2472467049
 40
0.3714457392
 40
0.4961000834
 40
0.621253035
 40
0.7469393263
 40
0.8731827972
 40
1.0
 40
1.0
 40
1.0
 40
1.0
 10
10.9020538746
 20
8.1701895424
 30
0.0
 10
10.8965817592
 20
8.161117876
 30
0.0
 10
10.886252964
 20
8.1425602462
 30
0.0
 10
10.872708599
 20
8.1136775356
 30
0.0
 10
10.8611484409
 20
8.0838328144
 30
0.0
 10
10.8516231571
 20
8.05315643
 30
0.0
 10
10.8441732177
 20
8.0217802072
 30
0.0
 10
10.8388305945
 20
7.9898389809
 30
0.0
 10
10.8356179077
 20
7.9574720025
 30
0.0
 10
10.8349068078
 20
7.9357479732
 30
0.0
 10
10.8349068078
 20
7.9248648111
 30
0.0
  0
SPLINE
  5
3F3
100
AcDbEntity
  8
0
100
AcDbSpline
 62
7
  6
CONTINUOUS
 70
0
 71
3
 72
15
 73
11
 74
0
 42
0.0000001
 43
0.0000001
 44
0.0000000001
 40
0.0
 40
0.0
 40
0.0
 40
0.0
 40
0.1233882443
 40
0.2470995725
 40
0.3712161218
 40
0.4958104374
 40
0.6209438343
 40
0.7466654841
 40
0.8730095791
 40
1.0
 40
1.0
 40
1.0
 40
1.0
 10
10.883958876
 20
8.1626671572
 30
0.0
 10
10.8771002134
 20
8.1529291656
 30
0.0
 10
10.8641293423
 20
8.1328763802
 30
0.0
 10
10.8470713866
 20
8.1013230086
 30
0.0
 10
10.8324778138
 20
8.068427413
 30
0.0
 10
10.8204298612
 20
8.0343720604
 30
0.0
 10
10.8109925441
 20
7.9993428843
 30
0.0
 10
10.8042171993
 20
7.9635310926
 30
0.0
 10
10.8001402034
 20
7.9271349388
 30
0.0
 10
10.7992380874
 20
7.9026701041
 30
0.0
 10
10.7992380874
 20
7.8904114708
 30
0.0
  0
SPLINE
  5
3F4
100
AcDbEntity
  8
0
100
AcDbSpline
 62
7
  6
CONTINUOUS
 70
0
 71
3
 72
15
 73
11
 74
0
 42
0.0000001
 43
0.0000001
 44
0.0000000001
 40
0.0
 40
0.0
 40
0.0
 40
0.0
 40
0.1234086468
 40
0.2471513763
 40
0.3713005425
 40
0.4959197682
 40
0.6210625824
 40
0.7467719591
 40
0.8730774627
 40
1.0
 40
1.0
 40
1.0
 40
1.0
 10
10.863330827
 20
8.1533762518
 30
0.0
 10
10.856922051
 20
8.1436973528
 30
0.0
 10
10.8448118998
 20
8.1238222736
 30
0.0
 10
10.8289052226
 20
8.0926941087
 30
0.0
 10
10.8153102047
 20
8.0603637215
 30
0.0
 10
10.8040957163
 20
8.0269944617
 30
0.0
 10
10.795316862
 20
7.9927522157
 30
0.0
 10
10.789017185
 20
7.9578071995
 30
0.0
 10
10.7852274945
 20
7.9223355948
 30
0.0
 10
10.7843888483
 20
7.8985070751
 30
0.0
 10
10.7843888483
 20
7.8865682064
 30
0.0
  0
SPLINE
  5
3F5
100
AcDbEntity
  8
0
100
AcDbSpline
 62
7
  6
CONTINUOUS
 70
0
 71
3
 72
15
 73
11
 74
0
 42
0.0000001
 43
0.0000001
 44
0.0000000001
 40
0.0
 40
0.0
 40
0.0
 40
0.0
 40
0.1234572711
 40
0.2472596132
 40
0.371464773
 40
0.4961232102
 40
0.6212770932
 40
0.7469602255
 40
0.8731958544
 40
1.0
 40
1.0
 40
1.0
 40
1.0
 10
10.8408016927
 20
8.1418711527
 30
0.0
 10
10.8351785675
 20
8.1324422437
 30
0.0
 10
10.8245661013
 20
8.113162057
 30
0.0
 10
10.8106523546
 20
8.0831760885
 30
0.0
 10
10.7987787996
 20
8.0522094483
 30
0.0
 10
10.7889965378
 20
8.0203949537
 30
0.0
 10
10.781346387
 20
7.9878668593
 30
0.0
 10
10.775860587
 20
7.9547624334
 30
0.0
 10
10.772561954
 20
7.9212234081
 30
0.0
 10
10.7718318118
 20
7.8987149939
 30
0.0
 10
10.7718318118
 20
7.8874390399
 30
0.0
  0
SPLINE
  5
3F6
100
AcDbEntity
  8
0
100
AcDbSpline
 62
7
  6
CONTINUOUS
 70
0
 71
3
 72
23
 73
19
 74
0
 42
0.0000001
 43
0.0000001
 44
0.0000000001
 40
0.0
 40
0.0
 40
0.0
 40
0.0
 40
0.0617101454
 40
0.1234413989
 40
0.1852146487
 40
0.247050356
 40
0.3089683484
 40
0.3709876189
 40
0.4331261353
 40
0.495400665
 40
0.5578266135
 40
0.620417907
 40
0.6831868089
 40
0.7461438636
 40
0.809298024
 40
0.8726551577
 40
0.9362228294
 40
1.0
 40
1.0
 40
1.0
 40
1.0
 10
10.7402012712
 20
8.0676635524
 30
0.0
 10
10.7344030022
 20
8.0620628351
 30
0.0
 10
10.723090569
 20
8.0505588733
 30
0.0
 10
10.7070288365
 20
8.0324498824
 30
0.0
 10
10.6919077925
 20
8.0135265092
 30
0.0
 10
10.6777628996
 20
7.9938329992
 30
0.0
 10
10.6646265944
 20
7.9734146351
 30
0.0
 10
10.6525291966
 20
7.9523185604
 30
0.0
 10
10.6414985854
 20
7.9305934198
 30
0.0
 10
10.6315601532
 20
7.9082893407
 30
0.0
 10
10.6227367528
 20
7.8854577756
 30
0.0
 10
10.6150486833
 20
7.8621513788
 30
0.0
 10
10.6085136251
 20
7.8384238967
 30
0.0
 10
10.603146594
 20
7.8143299933
 30
0.0
 10
10.5989599689
 20
7.7899253595
 30
0.0
 10
10.5959631337
 20
7.7652658239
 30
0.0
 10
10.5941632358
 20
7.7404092378
 30
0.0
 10
10.5937644558
 20
7.7237707085
 30
0.0
 10
10.5937644558
 20
7.7154391716
 30
0.0
  0
SPLINE
  5
3F7
100
AcDbEntity
  8
0
100
AcDbSpline
 62
7
  6
CONTINUOUS
 70
0
 71
3
 72
24
 73
20
 74
0
 42
0.0000001
 43
0.0000001
 44
0.0000000001
 40
0.0
 40
0.0
 40
0.0
 40
0.0
 40
0.0307591877
 40
0.0616050388
 40
0.123531903
 40
0.1857657788
 40
0.248269529
 40
0.3109985503
 40
0.3739020782
 40
0.4369246108
 40
0.5000074449
 40
0.5630902607
 40
0.6261127367
 40
0.6890161691
 40
0.7517450645
 40
0.8142486569
 40
0.8764823518
 40
0.9384089916
 40
1.0
 40
1.0
 40
1.0
 40
1.0
 10
11.6192270813
 20
7.7782049585
 30
0.0
 10
11.6131547083
 20
7.7791052098
 30
0.0
 10
11.6010293997
 20
7.7811668657
 30
0.0
 10
11.5769147663
 20
7.786321708
 30
0.0
 10
11.5470919558
 20
7.794690516
 30
0.0
 10
11.5121435324
 20
7.8077097966
 30
0.0
 10
11.4782367171
 20
7.8236237628
 30
0.0
 10
11.4456242352
 20
7.8423138557
 30
0.0
 10
11.4145469105
 20
7.8636415115
 30
0.0
 10
11.3852347293
 20
7.8874485139
 30
0.0
 10
11.3579045959
 20
7.9135585989
 30
0.0
 10
11.3327587696
 20
7.9417784307
 30
0.0
 10
11.3099833671
 20
7.9718991296
 30
0.0
 10
11.2897472016
 20
8.0036978751
 30
0.0
 10
11.2722002136
 20
8.0369394122
 30
0.0
 10
11.257472679
 20
8.0713775536
 30
0.0
 10
11.2456740567
 20
8.1067584181
 30
0.0
 10
11.2368925449
 20
8.1428165603
 30
0.0
 10
11.2330817514
 20
8.1672062386
 30
0.0
 10
11.2317022531
 20
8.1794205662
 30
0.0
  0
SPLINE
  5
3F8
100
AcDbEntity
  8
0
100
AcDbSpline
 62
7
  6
CONTINUOUS
 70
0
 71
3
 72
39
 73
35
 74
0
 42
0.0000001
 43
0.0000001
 44
0.0000000001
 40
0.0
 40
0.0
 40
0.0
 40
0.0
 40
0.0304342553
 40
0.0609816151
 40
0.0916428478
 40
0.1224174101
 40
0.1533034672
 40
0.1842979266
 40
0.2153964869
 40
0.2465936983
 40
0.2778830334
 40
0.3092569664
 40
0.3407070623
 40
0.3722240733
 40
0.4037980411
 40
0.435418408
 40
0.4670741306
 40
0.4987537964
 40
0.5304457438
 40
0.5621381826
 40
0.5938193169
 40
0.6254774679
 40
0.6571011971
 40
0.6886794262
 40
0.7202015541
 40
0.7516575704
 40
0.7830381636
 40
0.8143348255
 40
0.8455399566
 40
0.8766469084
 40
0.9076502706
 40
0.9385452477
 40
0.9693295893
 40
1.0
 40
1.0
 40
1.0
 40
1.0
 10
11.6339865485
 20
7.6972047283
 30
0.0
 10
11.6264781814
 20
7.6966179262
 30
0.0
 10
11.6113982826
 20
7.6958528046
 30
0.0
 10
11.588710038
 20
7.6959300893
 30
0.0
 10
11.5659739894
 20
7.6972297276
 30
0.0
 10
11.5432564656
 20
7.6997479618
 30
0.0
 10
11.5206226082
 20
7.7034774635
 30
0.0
 10
11.4981376113
 20
7.7084074356
 30
0.0
 10
11.4758661469
 20
7.7145236158
 30
0.0
 10
11.4538722871
 20
7.7218083427
 30
0.0
 10
11.4322192925
 20
7.7302406017
 30
0.0
 10
11.4109694407
 20
7.7397960875
 30
0.0
 10
11.390183847
 20
7.7504472729
 30
0.0
 10
11.3699222922
 20
7.7621634904
 30
0.0
 10
11.3502430446
 20
7.7749110063
 30
0.0
 10
11.3312026923
 20
7.7886531213
 30
0.0
 10
11.3128559885
 20
7.8033502872
 30
0.0
 10
11.295255694
 20
7.8189602171
 30
0.0
 10
11.2784524274
 20
7.8354380067
 30
0.0
 10
11.2624945206
 20
7.8527362615
 30
0.0
 10
11.2474278835
 20
7.8708052341
 30
0.0
 10
11.2332958573
 20
7.889592954
 30
0.0
 10
11.220139097
 20
7.909045385
 30
0.0
 10
11.2079954612
 20
7.9291065843
 30
0.0
 10
11.196899903
 20
7.9497188605
 30
0.0
 10
11.1868843707
 20
7.9708229381
 30
0.0
 10
11.1779777162
 20
7.9923581254
 30
0.0
 10
11.17020561
 20
8.0142624906
 30
0.0
 10
11.1635904663
 20
8.0364730192
 30
0.0
 10
11.1581513296
 20
8.0589258565
 30
0.0
 10
11.1539039915
 20
8.081556288
 30
0.0
 10
11.150860577
 20
8.1042995817
 30
0.0
 10
11.1490301437
 20
8.1270892536
 30
0.0
 10
11.1486211705
 20
8.1422999326
 30
0.0
 10
11.1486211705
 20
8.1498896341
 30
0.0
  0
SPLINE
  5
3F9
100
AcDbEntity
  8
0
100
AcDbSpline
 62
7
  6
CONTINUOUS
 70
0
 71
3
 72
39
 73
35
 74
0
 42
0.0000001
 43
0.0000001
 44
0.0000000001
 40
0.0
 40
0.0
 40
0.0
 40
0.0
 40
0.0304133839
 40
0.0609403934
 40
0.0915821277
 40
0.1223383395
 40
0.1532074528
 40
0.1841865967
 40
0.2152716517
 40
0.2464573095
 40
0.2777371424
 40
0.3091036846
 40
0.3405485216
 40
0.3720623892
 40
0.4036352794
 40
0.4352565531
 40
0.4669150558
 40
0.4985992382
 40
0.5302972784
 40
0.561997208
 40
0.5936870375
 40
0.6253548848
 40
0.6569891009
 40
0.6885783942
 40
0.7201119507
 40
0.7515795525
 40
0.7829716895
 40
0.8142796674
 40
0.8454957186
 40
0.8766130438
 40
0.9076261021
 40
0.9385300129
 40
0.9693224006
 40
1.0
 40
1.0
 40
1.0
 40
1.0
 10
11.6364453998
 20
7.6612534967
 30
0.0
 10
11.6283774102
 20
7.6605122505
 30
0.0
 10
11.6121668886
 20
7.6594724097
 30
0.0
 10
11.5877595268
 20
7.6592421278
 30
0.0
 10
11.5632836753
 20
7.6603386993
 30
0.0
 10
11.5388118623
 20
7.6627589353
 30
0.0
 10
11.5144153615
 20
7.6664956478
 30
0.0
 10
11.4901655441
 20
7.6715378352
 30
0.0
 10
11.4661332527
 20
7.6778706824
 30
0.0
 10
11.442388709
 20
7.6854756141
 30
0.0
 10
11.4190012806
 20
7.6943303477
 30
0.0
 10
11.3960392886
 20
7.7044089587
 30
0.0
 10
11.3735698097
 20
7.7156819589
 30
0.0
 10
11.3516584754
 20
7.7281163696
 30
0.0
 10
11.3303692803
 20
7.7416758207
 30
0.0
 10
11.3097644028
 20
7.7563206682
 30
0.0
 10
11.2899040229
 20
7.7720081065
 30
0.0
 10
11.2708461498
 20
7.7886922939
 30
0.0
 10
11.2526464528
 20
7.806324484
 30
0.0
 10
11.2353581019
 20
7.8248531694
 30
0.0
 10
11.2190316069
 20
7.8442242236
 30
0.0
 10
11.203714664
 20
7.8643810565
 30
0.0
 10
11.1894520293
 20
7.8852647898
 30
0.0
 10
11.1762853869
 20
7.9068144253
 30
0.0
 10
11.1642532286
 20
7.928967022
 30
0.0
 10
11.1533907421
 20
7.9516578779
 30
0.0
 10
11.1437297103
 20
7.9748207171
 30
0.0
 10
11.1352984091
 20
7.9983878826
 30
0.0
 10
11.128121533
 20
8.0222905156
 30
0.0
 10
11.1222200707
 20
8.0464588208
 30
0.0
 10
11.1176114212
 20
8.0708220538
 30
0.0
 10
11.1143089585
 20
8.095309424
 30
0.0
 10
11.1123226489
 20
8.1198482415
 30
0.0
 10
11.1118788291
 20
8.1362269007
 30
0.0
 10
11.1118788291
 20
8.1443992554
 30
0.0
  0
SPLINE
  5
3FA
100
AcDbEntity
  8
0
100
AcDbSpline
 62
7
  6
CONTINUOUS
 70
0
 71
3
 72
43
 73
39
 74
0
 42
0.0000001
 43
0.0000001
 44
0.0000000001
 40
0.0
 40
0.0
 40
0.0
 40
0.0
 40
0.0149603362
 40
0.0299341758
 40
0.0449239842
 40
0.0599321478
 40
0.0900074729
 40
0.1201822008
 40
0.1353140662
 40
0.1504761479
 40
0.1656699311
 40
0.1808967295
 40
0.2114489514
 40
0.2421448433
 40
0.272988647
 40
0.3039816967
 40
0.3351224349
 40
0.3664064826
 40
0.3978267611
 40
0.4293736583
 40
0.4610352363
 40
0.492797474
 40
0.5246445403
 40
0.5565590917
 40
0.5885225894
 40
0.6205156327
 40
0.6525183021
 40
0.6845105091
 40
0.7164723487
 40
0.7483844487
 40
0.7802283133
 40
0.8119866563
 40
0.8436437149
 40
0.8751855573
 40
0.9066003098
 40
0.937878564
 40
0.9690130545
 40
1.0
 40
1.0
 40
1.0
 40
1.0
 10
11.6232734565
 20
7.5252311374
 30
0.0
 10
11.619116782
 20
7.5223011081
 30
0.0
 10
11.6106896744
 20
7.5165926913
 30
0.0
 10
11.5977337113
 20
7.5085021521
 30
0.0
 10
11.5844722022
 20
7.5008893137
 30
0.0
 10
11.566394311
 20
7.4913829611
 30
0.0
 10
11.5431040298
 20
7.4807378376
 30
0.0
 10
11.5190566717
 20
7.4718151205
 30
0.0
 10
11.4994199226
 20
7.4657255467
 30
0.0
 10
11.4844910637
 20
7.4616832442
 30
0.0
 10
11.4693944488
 20
7.4581758335
 30
0.0
 10
11.4490460089
 20
7.4542137487
 30
0.0
 10
11.4232744372
 20
7.4506213391
 30
0.0
 10
11.3920149326
 20
7.4485083326
 30
0.0
 10
11.3605339079
 20
7.4485973394
 30
0.0
 10
11.32898517
 20
7.4508878365
 30
0.0
 10
11.2975214588
 20
7.4553683536
 30
0.0
 10
11.2662954061
 20
7.4620168978
 30
0.0
 10
11.2354583466
 20
7.4708009727
 30
0.0
 10
11.2051597174
 20
7.4816777699
 30
0.0
 10
11.1755463087
 20
7.4945943696
 30
0.0
 10
11.1467615673
 20
7.5094879992
 30
0.0
 10
11.1189449112
 20
7.5262863461
 30
0.0
 10
11.0922310623
 20
7.5449079061
 30
0.0
 10
11.0667494014
 20
7.565262377
 30
0.0
 10
11.0426233489
 20
7.5872510933
 30
0.0
 10
11.0199697727
 20
7.6107675008
 30
0.0
 10
10.9988984277
 20
7.6356976682
 30
0.0
 10
10.9795114296
 20
7.6619208338
 30
0.0
 10
10.9619027626
 20
7.6893099844
 30
0.0
 10
10.9461578203
 20
7.71773246
 30
0.0
 10
10.9323530041
 20
7.7470505998
 30
0.0
 10
10.9205553454
 20
7.777122384
 30
0.0
 10
10.9108222066
 20
7.8078021727
 30
0.0
 10
10.9032009315
 20
7.8389411924
 30
0.0
 10
10.8977287806
 20
7.8703890265
 30
0.0
 10
10.894432422
 20
7.9019912822
 30
0.0
 10
10.8936945541
 20
7.9231158129
 30
0.0
 10
10.8936945541
 20
7.9336494169
 30
0.0
  0
SPLINE
  5
3FB
100
AcDbEntity
  8
0
100
AcDbSpline
 62
7
  6
CONTINUOUS
 70
0
 71
3
 72
45
 73
41
 74
0
 42
0.0000001
 43
0.0000001
 44
0.0000000001
 40
0.0
 40
0.0
 40
0.0
 40
0.0
 40
0.0149755525
 40
0.0299704131
 40
0.044986582
 40
0.0600259577
 40
0.0901767877
 40
0.1204403537
 40
0.1356200884
 40
0.1508318296
 40
0.1660765573
 40
0.1813550954
 40
0.212011778
 40
0.2428097685
 40
0.2737500167
 40
0.3048309604
 40
0.3360485864
 40
0.3673965317
 40
0.3988662209
 40
0.430447036
 40
0.4621265146
 40
0.4938905727
 40
0.5257237482
 40
0.5576094601
 40
0.5895302821
 40
0.6214682246
 40
0.6534050245
 40
0.6853224366
 40
0.7172025258
 40
0.7490279557
 40
0.7807822701
 40
0.8124501655
 40
0.8440177462
 40
0.8597620338
 40
0.8754768051
 40
0.9068088837
 40
0.9380097964
 40
0.9535609286
 40
0.9690773859
 40
1.0
 40
1.0
 40
1.0
 40
1.0
 10
11.5982808446
 20
7.4488929861
 30
0.0
 10
11.5935863144
 20
7.4462835887
 30
0.0
 10
11.5840979417
 20
7.4412272151
 30
0.0
 10
11.5695975754
 20
7.4341447231
 30
0.0
 10
11.5548358137
 20
7.4275671739
 30
0.0
 10
11.5348127624
 20
7.4194741602
 30
0.0
 10
11.509203534
 20
7.410655847
 30
0.0
 10
11.482995908
 20
7.4036229946
 30
0.0
 10
11.461718929
 20
7.3990753793
 30
0.0
 10
11.4456018429
 20
7.3962045935
 30
0.0
 10
11.4293610631
 20
7.3938808501
 30
0.0
 10
11.4075434855
 20
7.3915127771
 30
0.0
 10
11.3800454568
 20
7.3899358607
 30
0.0
 10
11.3468855303
 20
7.3902612354
 30
0.0
 10
11.313668265
 20
7.3927998795
 30
0.0
 10
11.2805416478
 20
7.3975404339
 30
0.0
 10
11.2476519424
 20
7.4044616429
 30
0.0
 10
11.2151446691
 20
7.4135326754
 30
0.0
 10
11.1831635315
 20
7.4247132084
 30
0.0
 10
11.1518499043
 20
7.4379536192
 30
0.0
 10
11.1213421837
 20
7.4531952063
 30
0.0
 10
11.0917751927
 20
7.4703704539
 30
0.0
 10
11.0632795884
 20
7.4894033294
 30
0.0
 10
11.0359812925
 20
7.5102096187
 30
0.0
 10
11.0100009394
 20
7.5326972965
 30
0.0
 10
10.9854533492
 20
7.5567669298
 30
0.0
 10
10.9624470238
 20
7.5823121166
 30
0.0
 10
10.9410836734
 20
7.6092199443
 30
0.0
 10
10.9214577636
 20
7.6373715121
 30
0.0
 10
10.9036561236
 20
7.6666423491
 30
0.0
 10
10.8877574603
 20
7.6969033297
 30
0.0
 10
10.8738324152
 20
7.7280198765
 30
0.0
 10
10.8639146198
 20
7.7545751995
 30
0.0
 10
10.8570273006
 20
7.776108456
 30
0.0
 10
10.8508557115
 20
7.7977698843
 30
0.0
 10
10.8444690532
 20
7.8251183218
 30
0.0
 10
10.8398761598
 20
7.8527653242
 30
0.0
 10
10.8373006337
 20
7.8749526735
 30
0.0
 10
10.835462689
 20
7.8971122153
 30
0.0
 10
10.8349068078
 20
7.913774392
 30
0.0
 10
10.8349068078
 20
7.9248648111
 30
0.0
  0
SPLINE
  5
3FC
100
AcDbEntity
  8
0
100
AcDbSpline
 62
7
  6
CONTINUOUS
 70
0
 71
3
 72
15
 73
11
 74
0
 42
0.0000001
 43
0.0000001
 44
0.0000000001
 40
0.0
 40
0.0
 40
0.0
 40
0.0
 40
0.0868362486
 40
0.1818384209
 40
0.2869162715
 40
0.40345715
 40
0.5324414411
 40
0.6745697339
 40
0.8303233694
 40
1.0
 40
1.0
 40
1.0
 40
1.0
 10
11.0251078312
 20
8.1723545129
 30
0.0
 10
11.0257299146
 20
8.1723112803
 30
0.0
 10
11.0270438364
 20
8.1723549943
 30
0.0
 10
11.0290694162
 20
8.1727707822
 30
0.0
 10
11.0312174066
 20
8.1735349036
 30
0.0
 10
11.0334819735
 20
8.1746452064
 30
0.0
 10
11.0358587927
 20
8.1761008338
 30
0.0
 10
11.0383434304
 20
8.1779004844
 30
0.0
 10
11.0409311915
 20
8.1800428468
 30
0.0
 10
11.0426485346
 20
8.181629486
 30
0.0
 10
11.0435249267
 20
8.1824760158
 30
0.0
  0
SPLINE
  5
3FD
100
AcDbEntity
  8
0
100
AcDbSpline
 62
7
  6
CONTINUOUS
 70
0
 71
3
 72
41
 73
37
 74
0
 42
0.0000001
 43
0.0000001
 44
0.0000000001
 40
0.0
 40
0.0
 40
0.0
 40
0.0
 40
0.0299370913
 40
0.0599453711
 40
0.0900422682
 40
0.1051313521
 40
0.1202482713
 40
0.1505671305
 40
0.1810148595
 40
0.2116000452
 40
0.2423285872
 40
0.257749995
 40
0.2732081845
 40
0.3042300629
 40
0.3353963844
 40
0.3667020783
 40
0.3981395322
 40
0.4296987619
 40
0.4613676169
 40
0.493132017
 40
0.5249762156
 40
0.5568830858
 40
0.5888344232
 40
0.6208112628
 40
0.6527942051
 40
0.6847637469
 40
0.7167006133
 40
0.7485860866
 40
0.7804023297
 40
0.8121326976
 40
0.8437620347
 40
0.8752769593
 40
0.9066660821
 40
0.9379203815
 40
0.9690328801
 40
1.0
 40
1.0
 40
1.0
 40
1.0
 10
11.5908869723
 20
7.4315297129
 30
0.0
 10
11.5816309854
 20
7.4254641711
 30
0.0
 10
11.5626439177
 20
7.4139943325
 30
0.0
 10
11.532950512
 20
7.3988955658
 30
0.0
 10
11.5073005745
 20
7.38811718
 30
0.0
 10
11.4863096232
 20
7.3806033089
 30
0.0
 10
11.4649840655
 20
7.3738232417
 30
0.0
 10
11.4378089211
 20
7.3667664241
 30
0.0
 10
11.4045773136
 20
7.3606150359
 30
0.0
 10
11.3708451681
 20
7.3567992443
 30
0.0
 10
11.3424811719
 20
7.3555822472
 30
0.0
 10
11.3197045517
 20
7.3557844805
 30
0.0
 10
11.2968399497
 20
7.3567740326
 30
0.0
 10
11.2682420714
 20
7.3594886737
 30
0.0
 10
11.234111435
 20
7.3650821826
 30
0.0
 10
11.2002831834
 20
7.3729890275
 30
0.0
 10
11.1669176713
 20
7.3831716635
 30
0.0
 10
11.1341717279
 20
7.3955819014
 30
0.0
 10
11.1021995891
 20
7.4101610896
 30
0.0
 10
11.071151733
 20
7.4268404056
 30
0.0
 10
11.0411743008
 20
7.4455411762
 30
0.0
 10
11.0124083867
 20
7.4661752503
 30
0.0
 10
10.9849893811
 20
7.4886453997
 30
0.0
 10
10.9590463385
 20
7.5128457796
 30
0.0
 10
10.9347013822
 20
7.538662431
 30
0.0
 10
10.9120691333
 20
7.5659738101
 30
0.0
 10
10.8912561774
 20
7.594651356
 30
0.0
 10
10.8723605658
 20
7.6245600894
 30
0.0
 10
10.855471359
 20
7.6555592408
 30
0.0
 10
10.8406682053
 20
7.6875029075
 30
0.0
 10
10.8280209514
 20
7.7202407133
 30
0.0
 10
10.8175893502
 20
7.7536185784
 30
0.0
 10
10.8094227101
 20
7.7874792128
 30
0.0
 10
10.8035598267
 20
7.8216636637
 30
0.0
 10
10.8000284587
 20
7.8560088501
 30
0.0
 10
10.7992380874
 20
7.8789643677
 30
0.0
 10
10.7992380874
 20
7.8904114708
 30
0.0
  0
SPLINE
  5
3FE
100
AcDbEntity
  8
0
100
AcDbSpline
 62
7
  6
CONTINUOUS
 70
0
 71
3
 72
44
 73
40
 74
0
 42
0.0000001
 43
0.0000001
 44
0.0000000001
 40
0.0
 40
0.0
 40
0.0
 40
0.0
 40
0.0299684946
 40
0.0449863569
 40
0.0600276177
 40
0.0901827258
 40
0.1204510577
 40
0.1356332879
 40
0.150847578
 40
0.1660948839
 40
0.1813760098
 40
0.2120378331
 40
0.2428407598
 40
0.2737856002
 40
0.3048706714
 40
0.3360918599
 40
0.3674427239
 40
0.3989146308
 40
0.4304969272
 40
0.4621771364
 40
0.4939411801
 40
0.5257736203
 40
0.5576579169
 40
0.5895766992
 40
0.6215120457
 40
0.6534457714
 40
0.6853597167
 40
0.7172360372
 40
0.7490574893
 40
0.7808077093
 40
0.8124714831
 40
0.8440349987
 40
0.8597772903
 40
0.8754901075
 40
0.9068184517
 40
0.9380158812
 40
0.953565369
 40
0.969080263
 40
1.0
 40
1.0
 40
1.0
 40
1.0
 10
11.567868755
 20
7.3886675942
 30
0.0
 10
11.5580405646
 20
7.3832683987
 30
0.0
 10
11.5429939258
 20
7.375681331
 30
0.0
 10
11.522431275
 20
7.3666357181
 30
0.0
 10
11.501499205
 20
7.3582881896
 30
0.0
 10
11.4747363742
 20
7.3492074636
 30
0.0
 10
11.4473584566
 20
7.3419873031
 30
0.0
 10
11.4251370224
 20
7.3373349478
 30
0.0
 10
11.4083072006
 20
7.3344082213
 30
0.0
 10
11.3913508418
 20
7.3320512332
 30
0.0
 10
11.368575326
 20
7.3296691968
 30
0.0
 10
11.3398761049
 20
7.3281318932
 30
0.0
 10
11.3052765283
 20
7.328595557
 30
0.0
 10
11.2706253185
 20
7.3313626689
 30
0.0
 10
11.2360761718
 20
7.3364209101
 30
0.0
 10
11.2017809628
 20
7.3437477088
 30
0.0
 10
11.1678907647
 20
7.3533105763
 30
0.0
 10
11.1345547375
 20
7.3650671924
 30
0.0
 10
11.1019195986
 20
7.3789656078
 30
0.0
 10
11.0701289536
 20
7.3949444776
 30
0.0
 10
11.0393226798
 20
7.4129333326
 30
0.0
 10
11.0096363155
 20
7.4328528893
 30
0.0
 10
10.9812004706
 20
7.4546153979
 30
0.0
 10
10.9541402574
 20
7.4781250263
 30
0.0
 10
10.9285747456
 20
7.5032782786
 30
0.0
 10
10.9046164426
 20
7.5299644495
 30
0.0
 10
10.8823708047
 20
7.5580660998
 30
0.0
 10
10.8619357683
 20
7.5874595962
 30
0.0
 10
10.8434013464
 20
7.6180155448
 30
0.0
 10
10.8268491281
 20
7.6495997409
 30
0.0
 10
10.8123523374
 20
7.6820723369
 30
0.0
 10
10.8020277542
 20
7.7097817048
 30
0.0
 10
10.7948581153
 20
7.7322492013
 30
0.0
 10
10.7884336238
 20
7.7548495765
 30
0.0
 10
10.7817853954
 20
7.7833819932
 30
0.0
 10
10.7770045104
 20
7.8122243785
 30
0.0
 10
10.7743235863
 20
7.83537055
 30
0.0
 10
10.7724104285
 20
7.8584876028
 30
0.0
 10
10.7718318118
 20
7.8758695129
 30
0.0
 10
10.7718318118
 20
7.8874390399
 30
0.0
  0
SPLINE
  5
3FF
100
AcDbEntity
  8
0
100
AcDbSpline
 62
7
  6
CONTINUOUS
 70
0
 71
3
 72
39
 73
35
 74
0
 42
0.0000001
 43
0.0000001
 44
0.0000000001
 40
0.0
 40
0.0
 40
0.0
 40
0.0
 40
0.029942471
 40
0.0599093185
 40
0.0899243251
 40
0.1200101042
 40
0.1501875626
 40
0.1804754144
 40
0.2108897595
 40
0.2414437366
 40
0.2721472604
 40
0.3030068427
 40
0.3340254953
 40
0.365202715
 40
0.3965345496
 40
0.4280137343
 40
0.4596298913
 40
0.491369786
 40
0.5232176335
 40
0.55515545
 40
0.587163434
 40
0.6192203769
 40
0.6513040926
 40
0.6833918636
 40
0.7154608918
 40
0.747488751
 40
0.7794538351
 40
0.8113357952
 40
0.8431159564
 40
0.874777711
 40
0.9063068724
 40
0.937692086
 40
0.9689246467
 40
1.0
 40
1.0
 40
1.0
 40
1.0
 10
11.4905275946
 20
7.2908686283
 30
0.0
 10
11.4815691892
 20
7.2822154429
 30
0.0
 10
11.4629479174
 20
7.2656074597
 30
0.0
 10
11.4331137583
 20
7.2429820065
 30
0.0
 10
11.4015298112
 20
7.2227563397
 30
0.0
 10
11.3683725761
 20
7.2050438886
 30
0.0
 10
11.3338243428
 20
7.1899414228
 30
0.0
 10
11.2980757686
 20
7.1775319835
 30
0.0
 10
11.2613238491
 20
7.1678834807
 30
0.0
 10
11.2237710715
 20
7.1610485579
 30
0.0
 10
11.185624193
 20
7.1570643378
 30
0.0
 10
11.1470931244
 20
7.1559522512
 30
0.0
 10
11.1083897785
 20
7.1577179489
 30
0.0
 10
11.0697269067
 20
7.1623512124
 30
0.0
 10
11.0313169353
 20
7.1698261121
 30
0.0
 10
10.9933708172
 20
7.1801011678
 30
0.0
 10
10.9560968989
 20
7.1931195996
 30
0.0
 10
10.9196997752
 20
7.2088095853
 30
0.0
 10
10.8843791769
 20
7.2270846778
 30
0.0
 10
10.8503289098
 20
7.2478443269
 30
0.0
 10
10.8177358089
 20
7.2709744207
 30
0.0
 10
10.7867787222
 20
7.2963478939
 30
0.0
 10
10.7576274982
 20
7.3238253755
 30
0.0
 10
10.7304421138
 20
7.3532560151
 30
0.0
 10
10.7053718013
 20
7.3844782894
 30
0.0
 10
10.6825542521
 20
7.4173208842
 30
0.0
 10
10.6621148011
 20
7.4516035743
 30
0.0
 10
10.644165783
 20
7.4871382469
 30
0.0
 10
10.6288059377
 20
7.5237299031
 30
0.0
 10
10.6161198853
 20
7.5611777974
 30
0.0
 10
10.6061775793
 20
7.5992761996
 30
0.0
 10
10.5990340377
 20
7.6378166079
 30
0.0
 10
10.5947287362
 20
7.6765846629
 30
0.0
 10
10.5937644558
 20
7.7025127822
 30
0.0
 10
10.5937644558
 20
7.7154391716
 30
0.0
  0
SPLINE
  5
400
100
AcDbEntity
  8
0
100
AcDbSpline
 62
7
  6
CONTINUOUS
 70
0
 71
3
 72
39
 73
35
 74
0
 42
0.0000001
 43
0.0000001
 44
0.0000000001
 40
0.0
 40
0.0
 40
0.0
 40
0.0
 40
0.0299424698
 40
0.0599093171
 40
0.0899243244
 40
0.1200101049
 40
0.1501875654
 40
0.1804754197
 40
0.2108897678
 40
0.2414437479
 40
0.2721472748
 40
0.3030068601
 40
0.3340255156
 40
0.3652027379
 40
0.3965345747
 40
0.4280137612
 40
0.4596299196
 40
0.491369815
 40
0.5232176628
 40
0.555155479
 40
0.5871634623
 40
0.619220404
 40
0.6513041182
 40
0.6833918873
 40
0.7154609133
 40
0.74748877
 40
0.7794538516
 40
0.811335809
 40
0.8431159677
 40
0.8747777197
 40
0.9063068786
 40
0.9376920899
 40
0.9689246486
 40
1.0
 40
1.0
 40
1.0
 40
1.0
 10
8.8836561563
 20
6.9227657627
 30
0.0
 10
8.8754940374
 20
6.9148817878
 30
0.0
 10
8.858527961
 20
6.8997501472
 30
0.0
 10
8.8313456951
 20
6.8791359612
 30
0.0
 10
8.8025691886
 20
6.8607082457
 30
0.0
 10
8.7723592521
 20
6.8445703464
 30
0.0
 10
8.7408819716
 20
6.8308104304
 30
0.0
 10
8.7083110566
 20
6.8195041567
 30
0.0
 10
8.6748259913
 20
6.810713398
 30
0.0
 10
8.6406112637
 20
6.8044861178
 30
0.0
 10
8.6058552517
 20
6.8008561383
 30
0.0
 10
8.5707492068
 20
6.7998429849
 30
0.0
 10
8.5354862042
 20
6.8014518055
 30
0.0
 10
8.5002600835
 20
6.8056732897
 30
0.0
 10
8.4652643877
 20
6.8124838125
 30
0.0
 10
8.4306913175
 20
6.8218455804
 30
0.0
 10
8.396730699
 20
6.8337068605
 30
0.0
 10
8.3635689399
 20
6.8480022149
 30
0.0
 10
8.3313880162
 20
6.8646528806
 30
0.0
 10
8.3003645058
 20
6.8835672453
 30
0.0
 10
8.2706686353
 20
6.9046413407
 30
0.0
 10
8.2424633542
 20
6.9277593963
 30
0.0
 10
8.2159034128
 20
6.9527944299
 30
0.0
 10
8.1911345669
 20
6.9796090007
 30
0.0
 10
8.168292783
 20
7.0080559433
 30
0.0
 10
8.1475035127
 20
7.0379791718
 30
0.0
 10
8.1288809495
 20
7.0692144819
 30
0.0
 10
8.1125274421
 20
7.1015904824
 30
0.0
 10
8.0985329532
 20
7.1349295084
 30
0.0
 10
8.0869745805
 20
7.169048659
 30
0.0
 10
8.0779160592
 20
7.203760492
 30
0.0
 10
8.0714075166
 20
7.2388750398
 30
0.0
 10
8.0674849192
 20
7.274196998
 30
0.0
 10
8.0666063549
 20
7.2978203635
 30
0.0
 10
8.0666063549
 20
7.3095977245
 30
0.0
  0
SPLINE
  5
401
100
AcDbEntity
  8
0
100
AcDbSpline
 62
7
  6
CONTINUOUS
 70
0
 71
3
 72
39
 73
35
 74
0
 42
0.0000001
 43
0.0000001
 44
0.0000000001
 40
0.0
 40
0.0
 40
0.0
 40
0.0
 40
0.0299344856
 40
0.0599008791
 40
0.0899221446
 40
0.1200199451
 40
0.1502141403
 40
0.1805223391
 40
0.2109595162
 40
0.2415377003
 40
0.2722657447
 40
0.3031491757
 40
0.3341901211
 40
0.3653873149
 40
0.3967361732
 40
0.4282289399
 40
0.4598548909
 40
0.4916005905
 40
0.5234501923
 40
0.5553857793
 40
0.5873877359
 40
0.6194351455
 40
0.6515062043
 40
0.6835786481
 40
0.7156301856
 40
0.7476389324
 40
0.7795838391
 40
0.8114451077
 40
0.8432045897
 40
0.8748461639
 40
0.9063560627
 40
0.9377232984
 40
0.9689394068
 40
1.0
 40
1.0
 40
1.0
 40
1.0
 10
8.8835503707
 20
6.922878784
 30
0.0
 10
8.875266209
 20
6.9152966012
 30
0.0
 10
8.8580842405
 20
6.9007701614
 30
0.0
 10
8.8306653386
 20
6.8810602294
 30
0.0
 10
8.801734097
 20
6.8635235721
 30
0.0
 10
8.771448789
 20
6.8482564647
 30
0.0
 10
8.7399723856
 20
6.835340521
 30
0.0
 10
8.7074749184
 20
6.8248452268
 30
0.0
 10
8.6741316687
 20
6.8168267793
 30
0.0
 10
8.6401224482
 20
6.8113279787
 30
0.0
 10
8.6056305392
 20
6.8083780129
 30
0.0
 10
8.5708417256
 20
6.8079923361
 30
0.0
 10
8.5359432907
 20
6.8101726056
 30
0.0
 10
8.5011230215
 20
6.8149066977
 30
0.0
 10
8.4665682002
 20
6.8221687413
 30
0.0
 10
8.4324646088
 20
6.8319193141
 30
0.0
 10
8.3989955475
 20
6.844105671
 30
0.0
 10
8.3663408642
 20
6.8586620304
 30
0.0
 10
8.3346760082
 20
6.8755099377
 30
0.0
 10
8.304171081
 20
6.8945586493
 30
0.0
 10
8.2749899378
 20
6.91570564
 30
0.0
 10
8.2472893309
 20
6.93883717
 30
0.0
 10
8.2212180755
 20
6.9638288842
 30
0.0
 10
8.1969162668
 20
6.9905464785
 30
0.0
 10
8.1745145137
 20
7.018846393
 30
0.0
 10
8.1541332351
 20
7.0485765764
 30
0.0
 10
8.1358820461
 20
7.0795773164
 30
0.0
 10
8.1198591697
 20
7.1116820858
 30
0.0
 10
8.106150914
 20
7.144718406
 30
0.0
 10
8.0948312108
 20
7.1785088283
 30
0.0
 10
8.0859611328
 20
7.2128716043
 30
0.0
 10
8.0795887664
 20
7.2476226246
 30
0.0
 10
8.0757485737
 20
7.2825726631
 30
0.0
 10
8.0748885577
 20
7.3059450749
 30
0.0
 10
8.0748885577
 20
7.3175977186
 30
0.0
  0
SPLINE
  5
402
100
AcDbEntity
  8
0
100
AcDbSpline
 62
7
  6
CONTINUOUS
 70
0
 71
3
 72
39
 73
35
 74
0
 42
0.0000001
 43
0.0000001
 44
0.0000000001
 40
0.0
 40
0.0
 40
0.0
 40
0.0
 40
0.0307265371
 40
0.0612837033
 40
0.0916944264
 40
0.1219869453
 40
0.1521938708
 40
0.1823510218
 40
0.2124960892
 40
0.2426672213
 40
0.2729015833
 40
0.3032339604
 40
0.3336954867
 40
0.3643125335
 40
0.3951058165
 40
0.4260897536
 40
0.4572720648
 40
0.4886536269
 40
0.5202285821
 40
0.5519846492
 40
0.5839036322
 40
0.6159621056
 40
0.6481322245
 40
0.6803826428
 40
0.7126795229
 40
0.7449875922
 40
0.7772712331
 40
0.80949558
 40
0.8416276025
 40
0.8736371462
 40
0.9054979107
 40
0.9371883678
 40
0.9686921241
 40
1.0
 40
1.0
 40
1.0
 40
1.0
 10
8.8435371436
 20
7.2095764557
 30
0.0
 10
8.8418572822
 20
7.2006845005
 30
0.0
 10
8.8376656345
 20
7.1830961681
 30
0.0
 10
8.8289051471
 20
7.1575096004
 30
0.0
 10
8.8177621476
 20
7.1330040773
 30
0.0
 10
8.804332011
 20
7.1097926909
 30
0.0
 10
8.7887290486
 20
7.0880737185
 30
0.0
 10
8.7710867485
 20
7.0680336599
 30
0.0
 10
8.7515561992
 20
7.0498442927
 30
0.0
 10
8.7303047712
 20
7.0336615761
 30
0.0
 10
8.7075147686
 20
7.019623969
 30
0.0
 10
8.6833816763
 20
7.0078513169
 30
0.0
 10
8.658112352
 20
6.9984439615
 30
0.0
 10
8.6319232864
 20
6.9914817025
 30
0.0
 10
8.6050386225
 20
6.9870232313
 30
0.0
 10
8.5776881842
 20
6.9851058743
 30
0.0
 10
8.5501055488
 20
6.9857451346
 30
0.0
 10
8.5225260194
 20
6.9889346544
 30
0.0
 10
8.4951846675
 20
6.9946465249
 30
0.0
 10
8.4683143636
 20
7.0028313795
 30
0.0
 10
8.4421437937
 20
7.0134188277
 30
0.0
 10
8.41689563
 20
7.0263182781
 30
0.0
 10
8.3927846414
 20
7.0414195601
 30
0.0
 10
8.3700158394
 20
7.0585938063
 30
0.0
 10
8.3487828939
 20
7.0776947339
 30
0.0
 10
8.3292664655
 20
7.0985597582
 30
0.0
 10
8.3116325865
 20
7.1210112813
 30
0.0
 10
8.2960314446
 20
7.1448583537
 30
0.0
 10
8.282596073
 20
7.169898162
 30
0.0
 10
8.2714410741
 20
7.1959177533
 30
0.0
 10
8.2626618457
 20
7.2226955768
 30
0.0
 10
8.2563338248
 20
7.2500045429
 30
0.0
 10
8.2525113248
 20
7.2776090919
 30
0.0
 10
8.2516529944
 20
7.2961186106
 30
0.0
 10
8.2516529944
 20
7.3053390633
 30
0.0
  0
SPLINE
  5
403
100
AcDbEntity
  8
0
100
AcDbSpline
 62
7
  6
CONTINUOUS
 70
0
 71
3
 72
50
 73
46
 74
0
 42
0.0000001
 43
0.0000001
 44
0.0000000001
 40
0.0
 40
0.0
 40
0.0
 40
0.0
 40
0.0153294815
 40
0.0306179361
 40
0.0458680001
 40
0.0610826581
 40
0.0762652126
 40
0.0914192482
 40
0.1065486085
 40
0.1216573531
 40
0.1367497311
 40
0.1518301423
 40
0.16690309
 40
0.1819731483
 40
0.1970449201
 40
0.2121229876
 40
0.2272118781
 40
0.2423160232
 40
0.2574397106
 40
0.272587054
 40
0.2877619574
 40
0.3029680712
 40
0.3182087722
 40
0.333487134
 40
0.3641590073
 40
0.3950098595
 40
0.4260511741
 40
0.4572880432
 40
0.4887191186
 40
0.5203367659
 40
0.5521274215
 40
0.584072119
 40
0.616147149
 40
0.6483248383
 40
0.680574429
 40
0.7128630181
 40
0.7451565434
 40
0.7774207971
 40
0.8096224387
 40
0.8417299946
 40
0.8737148117
 40
0.9055519542
 40
0.9372210676
 40
0.9687066173
 40
1.0
 40
1.0
 40
1.0
 40
1.0
 10
8.8462644104
 20
7.2264404245
 30
0.0
 10
8.8452678559
 20
7.2224562591
 30
0.0
 10
8.8430910629
 20
7.2145438414
 30
0.0
 10
8.8392761143
 20
7.2028579897
 30
0.0
 10
8.8349234965
 20
7.1913941361
 30
0.0
 10
8.8300422573
 20
7.1801761713
 30
0.0
 10
8.8246422961
 20
7.1692271057
 30
0.0
 10
8.8187347716
 20
7.1585694413
 30
0.0
 10
8.8123318213
 20
7.1482250716
 30
0.0
 10
8.8054465143
 20
7.1382153205
 30
0.0
 10
8.7980930771
 20
7.1285607152
 30
0.0
 10
8.7902866017
 20
7.1192811133
 30
0.0
 10
8.7820430754
 20
7.1103956469
 30
0.0
 10
8.7733795208
 20
7.1019225127
 30
0.0
 10
8.7643137104
 20
7.0938791609
 30
0.0
 10
8.7548642556
 20
7.0862821628
 30
0.0
 10
8.7450506476
 20
7.0791470518
 30
0.0
 10
8.7348930178
 20
7.0724885476
 30
0.0
 10
8.7244122481
 20
7.06632034
 30
0.0
 10
8.7136299355
 20
7.0606550219
 30
0.0
 10
8.7025681783
 20
7.0555043028
 30
0.0
 10
8.691249824
 20
7.0508787462
 30
0.0
 10
8.6796978176
 20
7.0467877271
 30
0.0
 10
8.6639979773
 20
7.0420516165
 30
0.0
 10
8.6438958571
 20
7.0375102805
 30
0.0
 10
8.6192685475
 20
7.0343177018
 30
0.0
 10
8.5943002458
 20
7.0333982131
 30
0.0
 10
8.5691973922
 20
7.0347591303
 30
0.0
 10
8.5441655765
 20
7.0383885259
 30
0.0
 10
8.5194101138
 20
7.0442559949
 30
0.0
 10
8.4951337735
 20
7.0523128316
 30
0.0
 10
8.4715353549
 20
7.0624925828
 30
0.0
 10
8.4488080235
 20
7.0747114758
 30
0.0
 10
8.4271377384
 20
7.0888690903
 30
0.0
 10
8.4067018274
 20
7.1048493061
 30
0.0
 10
8.3876675626
 20
7.1225211972
 30
0.0
 10
8.3701907087
 20
7.1417399848
 30
0.0
 10
8.3544143697
 20
7.1623483357
 30
0.0
 10
8.340467868
 20
7.1841776286
 30
0.0
 10
8.328465568
 20
7.2070491948
 30
0.0
 10
8.3185060055
 20
7.2307759018
 30
0.0
 10
8.3106711531
 20
7.2551633736
 30
0.0
 10
8.3050257546
 20
7.2800125974
 30
0.0
 10
8.3016164169
 20
7.3051173581
 30
0.0
 10
8.3008510623
 20
7.3219459717
 30
0.0
 10
8.3008510623
 20
7.330329755
 30
0.0
  0
SPLINE
  5
404
100
AcDbEntity
  8
0
100
AcDbSpline
 62
7
  6
CONTINUOUS
 70
0
 71
3
 72
43
 73
39
 74
0
 42
0.0000001
 43
0.0000001
 44
0.0000000001
 40
0.0
 40
0.0
 40
0.0
 40
0.0
 40
0.0149723204
 40
0.0299477006
 40
0.0449291793
 40
0.0599197625
 40
0.0899340837
 40
0.1200191761
 40
0.1350977684
 40
0.1502017219
 40
0.1804888825
 40
0.2109025329
 40
0.2414558125
 40
0.2721586361
 40
0.3030175147
 40
0.3340354591
 40
0.3652119671
 40
0.3965430872
 40
0.4280215545
 40
0.4596369905
 40
0.491376161
 40
0.5232232825
 40
0.5551603712
 40
0.5871676259
 40
0.6192238382
 40
0.6513068229
 40
0.683393863
 40
0.7154621607
 40
0.7474892906
 40
0.7794536471
 40
0.8113348816
 40
0.843114318
 40
0.8747753538
 40
0.9063037992
 40
0.9376882654
 40
0.9533260383
 40
0.9689254782
 40
1.0
 40
1.0
 40
1.0
 40
1.0
 10
8.7626460686
 20
7.136081971
 30
0.0
 10
8.7605348328
 20
7.1340426728
 30
0.0
 10
8.7562303753
 20
7.1300471178
 30
0.0
 10
8.7495398764
 20
7.1243145569
 30
0.0
 10
8.7426240551
 20
7.1188497332
 30
0.0
 10
8.7331127581
 20
7.1119287626
 30
0.0
 10
8.72070181
 20
7.1039808309
 30
0.0
 10
8.7076875028
 20
7.0970288671
 30
0.0
 10
8.696954094
 20
7.0920830966
 30
0.0
 10
8.6859988989
 20
7.0875457519
 30
0.0
 10
8.6719439305
 20
7.0826666942
 30
0.0
 10
8.6546232813
 20
7.0781195647
 30
0.0
 10
8.636924692
 20
7.0748982388
 30
0.0
 10
8.6189462379
 20
7.0730205083
 30
0.0
 10
8.600786681
 20
7.0724963888
 30
0.0
 10
8.5825459403
 20
7.0733285496
 30
0.0
 10
8.5643242714
 20
7.0755121831
 30
0.0
 10
8.5462217949
 20
7.0790350769
 30
0.0
 10
8.5283379323
 20
7.0838776794
 30
0.0
 10
8.5107708728
 20
7.0900132161
 30
0.0
 10
8.4936170405
 20
7.0974078404
 30
0.0
 10
8.4769705727
 20
7.1060208222
 30
0.0
 10
8.4609228109
 20
7.1158047724
 30
0.0
 10
8.4455618058
 20
7.1267059028
 30
0.0
 10
8.4309718405
 20
7.1386643201
 30
0.0
 10
8.4172329735
 20
7.1516143521
 30
0.0
 10
8.4044206044
 20
7.1654849055
 30
0.0
 10
8.3926050645
 20
7.1801998518
 30
0.0
 10
8.3818512342
 20
7.1956784427
 30
0.0
 10
8.3722181905
 20
7.2118357425
 30
0.0
 10
8.3637588841
 20
7.2285831084
 30
0.0
 10
8.3565198548
 20
7.2458286009
 30
0.0
 10
8.3505409545
 20
7.2634777388
 30
0.0
 10
8.3458552223
 20
7.2814330593
 30
0.0
 10
8.3430460144
 20
7.2965892924
 30
0.0
 10
8.3414701373
 20
7.3087671539
 30
0.0
 10
8.3403454718
 20
7.3209333595
 30
0.0
 10
8.3400049316
 20
7.3300883511
 30
0.0
 10
8.3400049316
 20
7.3361804863
 30
0.0
  0
SPLINE
  5
405
100
AcDbEntity
  8
0
100
AcDbSpline
 62
7
  6
CONTINUOUS
 70
0
 71
3
 72
39
 73
35
 74
0
 42
0.0000001
 43
0.0000001
 44
0.0000000001
 40
0.0
 40
0.0
 40
0.0
 40
0.0
 40
0.0300581264
 40
0.0602197521
 40
0.0904948621
 40
0.1208915554
 40
0.151415933
 40
0.1820720245
 40
0.2128617517
 40
0.2437849255
 40
0.2748392749
 40
0.3060205083
 40
0.3373224024
 40
0.3687369174
 40
0.4002543375
 40
0.4318634329
 40
0.4635516367
 40
0.4953052369
 40
0.5271095802
 40
0.5589492862
 40
0.5908084691
 40
0.6226709658
 40
0.6545205681
 40
0.6863412518
 40
0.7181174045
 40
0.7498340501
 40
0.781477064
 40
0.8130333837
 40
0.8444912193
 40
0.8758401705
 40
0.907071671
 40
0.9381782194
 40
0.9691559538
 40
1.0
 40
1.0
 40
1.0
 40
1.0
 10
8.8119777447
 20
7.2071719222
 30
0.0
 10
8.8073129638
 20
7.2053180918
 30
0.0
 10
8.7978416607
 20
7.2019119158
 30
0.0
 10
8.7833065028
 20
7.1977376224
 30
0.0
 10
8.7684748429
 20
7.1945053501
 30
0.0
 10
8.7534058997
 20
7.1922280543
 30
0.0
 10
8.7381587867
 20
7.1909145162
 30
0.0
 10
8.7227935746
 20
7.1905698162
 30
0.0
 10
8.7073707028
 20
7.1911951983
 30
0.0
 10
8.6919508373
 20
7.1927881036
 30
0.0
 10
8.67659461
 20
7.195342174
 30
0.0
 10
8.661362389
 20
7.1988472825
 30
0.0
 10
8.6463140436
 20
7.2032895752
 30
0.0
 10
8.631508711
 20
7.2086515214
 30
0.0
 10
8.6170045594
 20
7.2149119727
 30
0.0
 10
8.6028585676
 20
7.2220462655
 30
0.0
 10
8.5891263023
 20
7.230026316
 30
0.0
 10
8.5758617042
 20
7.2388207302
 30
0.0
 10
8.5631168775
 20
7.2483949267
 30
0.0
 10
8.5509418894
 20
7.2587112717
 30
0.0
 10
8.5393845727
 20
7.2697292229
 30
0.0
 10
8.5284903273
 20
7.2814054773
 30
0.0
 10
8.5183019559
 20
7.2936941567
 30
0.0
 10
8.5088594964
 20
7.306546984
 30
0.0
 10
8.5002000664
 20
7.3199134713
 30
0.0
 10
8.4923577187
 20
7.3337411156
 30
0.0
 10
8.4853633095
 20
7.3479756024
 30
0.0
 10
8.4792443716
 20
7.3625610181
 30
0.0
 10
8.4740250097
 20
7.3774400512
 30
0.0
 10
8.4697257562
 20
7.3925542706
 30
0.0
 10
8.4663636654
 20
7.4078441783
 30
0.0
 10
8.463951866
 20
7.4232500196
 30
0.0
 10
8.4625001621
 20
7.4387102858
 30
0.0
 10
8.4621754423
 20
7.4490372494
 30
0.0
 10
8.4621754423
 20
7.4541881447
 30
0.0
  0
SPLINE
  5
406
100
AcDbEntity
  8
0
100
AcDbSpline
 62
7
  6
CONTINUOUS
 70
0
 71
3
 72
23
 73
19
 74
0
 42
0.0000001
 43
0.0000001
 44
0.0000000001
 40
0.0
 40
0.0
 40
0.0
 40
0.0
 40
0.0616917626
 40
0.1234138647
 40
0.1851856856
 40
0.2470261295
 40
0.3089534427
 40
0.3709850455
 40
0.4331373819
 40
0.4954257624
 40
0.5578642233
 40
0.6204654266
 40
0.68324047
 40
0.7461990158
 40
0.8093490673
 40
0.8726958194
 40
0.9362469603
 40
1.0
 40
1.0
 40
1.0
 40
1.0
 10
8.2001366927
 20
7.6304045498
 30
0.0
 10
8.1951601432
 20
7.6253320539
 30
0.0
 10
8.185455485
 20
7.614934873
 30
0.0
 10
8.1716884366
 20
7.5986304686
 30
0.0
 10
8.1587372051
 20
7.5816485827
 30
0.0
 10
8.1466302259
 20
7.5640263622
 30
0.0
 10
8.1353935066
 20
7.5458017014
 30
0.0
 10
8.1250512727
 20
7.5270140027
 30
0.0
 10
8.1156257988
 20
7.5077038124
 30
0.0
 10
8.1071374114
 20
7.4879128024
 30
0.0
 10
8.0996044187
 20
7.4676836737
 30
0.0
 10
8.0930430038
 20
7.4470600985
 30
0.0
 10
8.087467259
 20
7.4260865782
 30
0.0
 10
8.0828891878
 20
7.4048083256
 30
0.0
 10
8.079318709
 20
7.3832713682
 30
0.0
 10
8.0767632652
 20
7.3615217499
 30
0.0
 10
8.0752286148
 20
7.3396073005
 30
0.0
 10
8.0748885577
 20
7.3249412224
 30
0.0
 10
8.0748885577
 20
7.3175977186
 30
0.0
  0
SPLINE
  5
407
100
AcDbEntity
  8
0
100
AcDbSpline
 62
7
  6
CONTINUOUS
 70
0
 71
3
 72
23
 73
19
 74
0
 42
0.0000001
 43
0.0000001
 44
0.0000000001
 40
0.0
 40
0.0
 40
0.0
 40
0.0
 40
0.0630509504
 40
0.1257810803
 40
0.1882283612
 40
0.2504393919
 40
0.3124680642
 40
0.3743739575
 40
0.43622051
 40
0.4980730344
 40
0.559996654
 40
0.6220542484
 40
0.6843044932
 40
0.7468000664
 40
0.8095860508
 40
0.8726989365
 40
0.9361643539
 40
1.0
 40
1.0
 40
1.0
 40
1.0
 10
8.485273654
 20
7.5804781225
 30
0.0
 10
8.4770936382
 20
7.5792246087
 30
0.0
 10
8.4608742335
 20
7.5760168192
 30
0.0
 10
8.4371215657
 20
7.5691131784
 30
0.0
 10
8.4141719469
 20
7.5601779735
 30
0.0
 10
8.3921920101
 20
7.549275083
 30
0.0
 10
8.3713385142
 20
7.5364820692
 30
0.0
 10
8.3517610108
 20
7.52189027
 30
0.0
 10
8.3335997174
 20
7.5056039766
 30
0.0
 10
8.3169847074
 20
7.4877397587
 30
0.0
 10
8.302034859
 20
7.4684255807
 30
0.0
 10
8.288857033
 20
7.4477998098
 30
0.0
 10
8.2775452819
 20
7.4260102088
 30
0.0
 10
8.2681802079
 20
7.4032127629
 30
0.0
 10
8.2608282938
 20
7.3795707906
 30
0.0
 10
8.2555416508
 20
7.3552528319
 30
0.0
 10
8.2523573372
 20
7.3304348865
 30
0.0
 10
8.2516529944
 20
7.3137175587
 30
0.0
 10
8.2516529944
 20
7.3053390633
 30
0.0
  0
SPLINE
  5
408
100
AcDbEntity
  8
0
100
AcDbSpline
 62
7
  6
CONTINUOUS
 70
0
 71
3
 72
23
 73
19
 74
0
 42
0.0000001
 43
0.0000001
 44
0.0000000001
 40
0.0
 40
0.0
 40
0.0
 40
0.0
 40
0.0628648392
 40
0.1254440758
 40
0.1877775334
 40
0.2499119675
 40
0.3118998097
 40
0.373797708
 40
0.4356649117
 40
0.4975615606
 40
0.5595469404
 40
0.62167777
 40
0.6840065836
 40
0.7465802781
 40
0.809438776
 40
0.8726143768
 40
0.93612957
 40
1.0
 40
1.0
 40
1.0
 40
1.0
 10
8.5022094763
 20
7.5826166572
 30
0.0
 10
8.4950458612
 20
7.5810861381
 30
0.0
 10
8.4808712144
 20
7.5774338177
 30
0.0
 10
8.4601950118
 20
7.5701982599
 30
0.0
 10
8.4402850012
 20
7.561264587
 30
0.0
 10
8.4212739349
 20
7.5506915562
 30
0.0
 10
8.40328623
 20
7.5385482633
 30
0.0
 10
8.3864402493
 20
7.5249143585
 30
0.0
 10
8.3708466653
 20
7.5098793269
 30
0.0
 10
8.3566079257
 20
7.493541938
 30
0.0
 10
8.3438174965
 20
7.4760095627
 30
0.0
 10
8.3325592535
 20
7.4573974368
 30
0.0
 10
8.3229069091
 20
7.4378278935
 30
0.0
 10
8.314923538
 20
7.4174294759
 30
0.0
 10
8.3086611422
 20
7.3963362458
 30
0.0
 10
8.3041604918
 20
7.3746861697
 30
0.0
 10
8.3014505442
 20
7.3526230281
 30
0.0
 10
8.3008510623
 20
7.3377722207
 30
0.0
 10
8.3008510623
 20
7.330329755
 30
0.0
  0
SPLINE
  5
409
100
AcDbEntity
  8
0
100
AcDbSpline
 62
7
  6
CONTINUOUS
 70
0
 71
3
 72
21
 73
17
 74
0
 42
0.0000001
 43
0.0000001
 44
0.0000000001
 40
0.0
 40
0.0
 40
0.0
 40
0.0
 40
0.0617147761
 40
0.1234506677
 40
0.1852285528
 40
0.2470689013
 40
0.30899155
 40
0.3710154761
 40
0.4331586505
 40
0.4954378572
 40
0.5578685131
 40
0.6204644763
 40
0.6832380473
 40
0.746200107
 40
0.8726822618
 40
1.0
 40
1.0
 40
1.0
 40
1.0
 10
8.4090200693
 20
7.5021825231
 30
0.0
 10
8.4062873629
 20
7.49954293
 30
0.0
 10
8.4009558516
 20
7.4941211588
 30
0.0
 10
8.3933860172
 20
7.4855864579
 30
0.0
 10
8.386259539
 20
7.4766679323
 30
0.0
 10
8.3795930755
 20
7.4673864743
 30
0.0
 10
8.3734019971
 20
7.4577633648
 30
0.0
 10
8.367700561
 20
7.4478208516
 30
0.0
 10
8.3625018426
 20
7.4375818897
 30
0.0
 10
8.3578179059
 20
7.4270700575
 30
0.0
 10
8.3536594834
 20
7.4163096085
 30
0.0
 10
8.3500361013
 20
7.4053254513
 30
0.0
 10
8.3469561539
 20
7.3941425766
 30
0.0
 10
8.343578847
 20
7.3789814267
 30
0.0
 10
8.3407531179
 20
7.3596534029
 30
0.0
 10
8.3400049316
 20
7.3440185754
 30
0.0
 10
8.3400049316
 20
7.3361804863
 30
0.0
  0
SPLINE
  5
40A
100
AcDbEntity
  8
0
100
AcDbSpline
 62
7
  6
CONTINUOUS
 70
0
 71
3
 72
13
 73
9
 74
0
 42
0.0000001
 43
0.0000001
 44
0.0000000001
 40
0.0
 40
0.0
 40
0.0
 40
0.0
 40
0.1236916481
 40
0.2477174338
 40
0.3721049965
 40
0.4968789123
 40
0.7475740471
 40
1.0
 40
1.0
 40
1.0
 40
1.0
 10
8.4817772143
 20
7.5490217712
 30
0.0
 10
8.4801639388
 20
7.5453395567
 30
0.0
 10
8.4771275939
 20
7.5378781806
 30
0.0
 10
8.4731625716
 20
7.5264472725
 30
0.0
 10
8.4697905773
 20
7.5147903995
 30
0.0
 10
8.466091516
 20
7.4989648353
 30
0.0
 10
8.4629951285
 20
7.4787558775
 30
0.0
 10
8.4621754423
 20
7.462392276
 30
0.0
 10
8.4621754423
 20
7.4541881447
 30
0.0
  0
SPLINE
  5
40B
100
AcDbEntity
  8
0
100
AcDbSpline
 62
7
  6
CONTINUOUS
 70
0
 71
3
 72
39
 73
35
 74
0
 42
0.0000001
 43
0.0000001
 44
0.0000000001
 40
0.0
 40
0.0
 40
0.0
 40
0.0
 40
0.0300137256
 40
0.0601242954
 40
0.0903436639
 40
0.1206818682
 40
0.1511468752
 40
0.1817444702
 40
0.2124781854
 40
0.2433492713
 40
0.274356705
 40
0.3054972373
 40
0.3367654732
 40
0.3681539839
 40
0.3996534474
 40
0.431252814
 40
0.4629394942
 40
0.4946995643
 40
0.5265179873
 40
0.5583788464
 40
0.5902655876
 40
0.6221612695
 40
0.6540488166
 40
0.6859112746
 40
0.7177320643
 40
0.7494952321
 40
0.7811856943
 40
0.8127894671
 40
0.8442939054
 40
0.8756878445
 40
0.9069620015
 40
0.9381085151
 40
0.9691226623
 40
1.0
 40
1.0
 40
1.0
 40
1.0
 10
8.8184832939
 20
7.2239149531
 30
0.0
 10
8.8140497753
 20
7.2218686173
 30
0.0
 10
8.8050258933
 20
7.2180705228
 30
0.0
 10
8.7911145227
 20
7.2132933849
 30
0.0
 10
8.7768625331
 20
7.2094461959
 30
0.0
 10
8.7623297902
 20
7.2065451776
 30
0.0
 10
8.7475762786
 20
7.2046021304
 30
0.0
 10
8.7326631495
 20
7.2036250157
 30
0.0
 10
8.717652118
 20
7.2036177592
 30
0.0
 10
8.7026053023
 20
7.2045802841
 30
0.0
 10
8.6875849431
 20
7.2065085038
 30
0.0
 10
8.6726531552
 20
7.2093943453
 30
0.0
 10
8.6578716711
 20
7.2132257843
 30
0.0
 10
8.643301589
 20
7.2179868978
 30
0.0
 10
8.6290031229
 20
7.2236579299
 30
0.0
 10
8.615035354
 20
7.2302153707
 30
0.0
 10
8.6014559909
 20
7.2376320603
 30
0.0
 10
8.5883211334
 20
7.2458773001
 30
0.0
 10
8.5756850435
 20
7.2549169798
 30
0.0
 10
8.5635999233
 20
7.2647137172
 30
0.0
 10
8.5521157014
 20
7.2752270124
 30
0.0
 10
8.5412798288
 20
7.2864134136
 30
0.0
 10
8.5311370844
 20
7.2982266954
 30
0.0
 10
8.5217293913
 20
7.3106180481
 30
0.0
 10
8.5130956448
 20
7.3235362771
 30
0.0
 10
8.5052715469
 20
7.3369280109
 30
0.0
 10
8.4982894674
 20
7.3507379226
 30
0.0
 10
8.4921783018
 20
7.3649089582
 30
0.0
 10
8.4869633748
 20
7.3793825606
 30
0.0
 10
8.482666279
 20
7.3940989472
 30
0.0
 10
8.4793049144
 20
7.4089972104
 30
0.0
 10
8.4768931555
 20
7.4240160617
 30
0.0
 10
8.4754412158
 20
7.4390924945
 30
0.0
 10
8.4751163946
 20
7.4491646543
 30
0.0
 10
8.4751163946
 20
7.4541881455
 30
0.0
  0
SPLINE
  5
40C
100
AcDbEntity
  8
0
100
AcDbSpline
 62
4
  6
CONTINUOUS
 70
0
 71
3
 72
346
 73
342
 74
0
 42
0.0000001
 43
0.0000001
 44
0.0000000001
 40
0.0
 40
0.0
 40
0.0
 40
0.0
 40
0.015625
 40
0.03125
 40
0.0390625
 40
0.046875
 40
0.05078125
 40
0.0546875
 40
0.05859375
 40
0.060546875
 40
0.0615234375
 40
0.0625
 40
0.0634765625
 40
0.064453125
 40
0.06640625
 40
0.0703125
 40
0.07421875
 40
0.078125
 40
0.0859375
 40
0.09375
 40
0.1015625
 40
0.109375
 40
0.11328125
 40
0.1171875
 40
0.12109375
 40
0.123046875
 40
0.1240234375
 40
0.125
 40
0.1259765625
 40
0.126953125
 40
0.12890625
 40
0.1328125
 40
0.13671875
 40
0.140625
 40
0.1484375
 40
0.15625
 40
0.1640625
 40
0.171875
 40
0.17578125
 40
0.1796875
 40
0.18359375
 40
0.185546875
 40
0.1865234375
 40
0.1875
 40
0.1884765625
 40
0.189453125
 40
0.19140625
 40
0.1953125
 40
0.19921875
 40
0.203125
 40
0.2109375
 40
0.21875
 40
0.2265625
 40
0.234375
 40
0.23828125
 40
0.2421875
 40
0.244140625
 40
0.24609375
 40
0.248046875
 40
0.2490234375
 40
0.2495117188
 40
0.25
 40
0.2504882812
 40
0.2509765625
 40
0.251953125
 40
0.25390625
 40
0.255859375
 40
0.2578125
 40
0.26171875
 40
0.265625
 40
0.2734375
 40
0.28125
 40
0.2890625
 40
0.296875
 40
0.30078125
 40
0.3046875
 40
0.306640625
 40
0.30859375
 40
0.310546875
 40
0.3115234375
 40
0.3120117188
 40
0.3125
 40
0.3129882812
 40
0.3134765625
 40
0.314453125
 40
0.31640625
 40
0.318359375
 40
0.3203125
 40
0.32421875
 40
0.328125
 40
0.3359375
 40
0.34375
 40
0.3515625
 40
0.35546875
 40
0.359375
 40
0.36328125
 40
0.3671875
 40
0.369140625
 40
0.37109375
 40
0.3720703125
 40
0.373046875
 40
0.3740234375
 40
0.3745117188
 40
0.3747558594
 40
0.375
 40
0.3752441406
 40
0.3754882812
 40
0.3759765625
 40
0.376953125
 40
0.3779296875
 40
0.37890625
 40
0.380859375
 40
0.3828125
 40
0.38671875
 40
0.390625
 40
0.39453125
 40
0.3984375
 40
0.40625
 40
0.4140625
 40
0.41796875
 40
0.421875
 40
0.42578125
 40
0.4296875
 40
0.431640625
 40
0.43359375
 40
0.4345703125
 40
0.435546875
 40
0.4365234375
 40
0.4370117188
 40
0.4372558594
 40
0.4375
 40
0.4377441406
 40
0.4379882812
 40
0.4384765625
 40
0.439453125
 40
0.4404296875
 40
0.44140625
 40
0.443359375
 40
0.4453125
 40
0.44921875
 40
0.453125
 40
0.45703125
 40
0.4609375
 40
0.46875
 40
0.4765625
 40
0.48046875
 40
0.484375
 40
0.48828125
 40
0.4921875
 40
0.494140625
 40
0.49609375
 40
0.4970703125
 40
0.498046875
 40
0.4990234375
 40
0.4995117188
 40
0.4997558594
 40
0.5
 40
0.5002441406
 40
0.5004882812
 40
0.5009765625
 40
0.501953125
 40
0.5029296875
 40
0.50390625
 40
0.505859375
 40
0.5078125
 40
0.51171875
 40
0.515625
 40
0.51953125
 40
0.5234375
 40
0.53125
 40
0.5390625
 40
0.54296875
 40
0.546875
 40
0.55078125
 40
0.5546875
 40
0.556640625
 40
0.55859375
 40
0.5595703125
 40
0.560546875
 40
0.5615234375
 40
0.5620117188
 40
0.5622558594
 40
0.5625
 40
0.5627441406
 40
0.5629882812
 40
0.5634765625
 40
0.564453125
 40
0.5654296875
 40
0.56640625
 40
0.568359375
 40
0.5703125
 40
0.57421875
 40
0.578125
 40
0.58203125
 40
0.5859375
 40
0.59375
 40
0.6015625
 40
0.60546875
 40
0.609375
 40
0.61328125
 40
0.6171875
 40
0.619140625
 40
0.62109375
 40
0.6220703125
 40
0.623046875
 40
0.6240234375
 40
0.6245117188
 40
0.6247558594
 40
0.625
 40
0.6252441406
 40
0.6254882812
 40
0.6259765625
 40
0.626953125
 40
0.6279296875
 40
0.62890625
 40
0.630859375
 40
0.6328125
 40
0.63671875
 40
0.640625
 40
0.64453125
 40
0.6484375
 40
0.65625
 40
0.6640625
 40
0.66796875
 40
0.671875
 40
0.67578125
 40
0.6796875
 40
0.681640625
 40
0.68359375
 40
0.6845703125
 40
0.685546875
 40
0.6865234375
 40
0.6870117188
 40
0.6872558594
 40
0.6875
 40
0.6877441406
 40
0.6879882812
 40
0.6884765625
 40
0.689453125
 40
0.6904296875
 40
0.69140625
 40
0.693359375
 40
0.6953125
 40
0.69921875
 40
0.703125
 40
0.70703125
 40
0.7109375
 40
0.71875
 40
0.7265625
 40
0.73046875
 40
0.734375
 40
0.73828125
 40
0.7421875
 40
0.744140625
 40
0.74609375
 40
0.7470703125
 40
0.748046875
 40
0.7490234375
 40
0.7495117188
 40
0.7497558594
 40
0.75
 40
0.7502441406
 40
0.7504882812
 40
0.7509765625
 40
0.751953125
 40
0.7529296875
 40
0.75390625
 40
0.755859375
 40
0.7578125
 40
0.76171875
 40
0.765625
 40
0.76953125
 40
0.7734375
 40
0.78125
 40
0.7890625
 40
0.79296875
 40
0.796875
 40
0.80078125
 40
0.8046875
 40
0.806640625
 40
0.80859375
 40
0.8095703125
 40
0.810546875
 40
0.8115234375
 40
0.8120117188
 40
0.8125
 40
0.8129882812
 40
0.8134765625
 40
0.814453125
 40
0.8154296875
 40
0.81640625
 40
0.818359375
 40
0.8203125
 40
0.82421875
 40
0.828125
 40
0.83203125
 40
0.8359375
 40
0.84375
 40
0.8515625
 40
0.859375
 40
0.86328125
 40
0.8671875
 40
0.869140625
 40
0.87109375
 40
0.873046875
 40
0.8740234375
 40
0.8745117188
 40
0.875
 40
0.8754882812
 40
0.8759765625
 40
0.876953125
 40
0.87890625
 40
0.880859375
 40
0.8828125
 40
0.88671875
 40
0.890625
 40
0.8984375
 40
0.90625
 40
0.9140625
 40
0.921875
 40
0.92578125
 40
0.9296875
 40
0.931640625
 40
0.93359375
 40
0.935546875
 40
0.9365234375
 40
0.9370117188
 40
0.9375
 40
0.9379882812
 40
0.9384765625
 40
0.939453125
 40
0.94140625
 40
0.943359375
 40
0.9453125
 40
0.94921875
 40
0.953125
 40
0.9609375
 40
0.96875
 40
0.9765625
 40
0.984375
 40
1.0
 40
1.0
 40
1.0
 40
1.0
 10
10.1691854317
 20
10.0264131518
 30
0.0
 10
10.1724009357
 20
10.0262753767
 30
0.0
 10
10.1788319445
 20
10.02599983
 30
0.0
 10
10.1868707011
 20
10.0256553795
 30
0.0
 10
10.1933017156
 20
10.0253798548
 30
0.0
 10
10.1973210789
 20
10.0252075711
 30
0.0
 10
10.200536617
 20
10.0250699291
 30
0.0
 10
10.2029481406
 20
10.0249661912
 30
0.0
 10
10.2049581571
 20
10.0248813539
 30
0.0
 10
10.2063643573
 20
10.0248188064
 30
0.0
 10
10.207169167
 20
10.0247880012
 30
0.0
 10
10.2077692058
 20
10.0247509917
 30
0.0
 10
10.2083828854
 20
10.0247671366
 30
0.0
 10
10.2091963667
 20
10.0247701222
 30
0.0
 10
10.210622176
 20
10.0247839856
 30
0.0
 10
10.2126578873
 20
10.0247992741
 30
0.0
 10
10.2151012371
 20
10.0248195536
 30
0.0
 10
10.2183588635
 20
10.0248459173
 30
0.0
 10
10.2224309552
 20
10.0248791053
 30
0.0
 10
10.2273174434
 20
10.0249188242
 30
0.0
 10
10.2322039251
 20
10.0249585963
 30
0.0
 10
10.2362760329
 20
10.0249916514
 30
0.0
 10
10.2395336271
 20
10.0250182809
 30
0.0
 10
10.2419770752
 20
10.0250377496
 30
0.0
 10
10.2440124786
 20
10.0250555745
 30
0.0
 10
10.2454388377
 20
10.02506491
 30
0.0
 10
10.2462514381
 20
10.0250751505
 30
0.0
 10
10.2468678236
 20
10.0250690107
 30
0.0
 10
10.2474576996
 20
10.0251156987
 30
0.0
 10
10.2482534477
 20
10.0251595224
 30
0.0
 10
10.2496416986
 20
10.0252447994
 30
0.0
 10
10.2516271667
 20
10.025362135
 30
0.0
 10
10.2540087642
 20
10.0255048591
 30
0.0
 10
10.2571845645
 20
10.0256944865
 30
0.0
 10
10.2611541979
 20
10.0259317527
 30
0.0
 10
10.2659178143
 20
10.0262163661
 30
0.0
 10
10.2706813926
 20
10.0265010325
 30
0.0
 10
10.2746511211
 20
10.026738166
 30
0.0
 10
10.2778267313
 20
10.0269280587
 30
0.0
 10
10.2802089087
 20
10.0270699738
 30
0.0
 10
10.2821925625
 20
10.0271898403
 30
0.0
 10
10.2835840522
 20
10.0272705992
 30
0.0
 10
10.284374611
 20
10.027321662
 30
0.0
 10
10.2849804269
 20
10.027346114
 30
0.0
 10
10.2855369447
 20
10.0274234887
 30
0.0
 10
10.2862961641
 20
10.0275081949
 30
0.0
 10
10.2876167863
 20
10.0276650316
 30
0.0
 10
10.2895075781
 20
10.0278845875
 30
0.0
 10
10.2917747354
 20
10.0281499792
 30
0.0
 10
10.2947982381
 20
10.0285031625
 30
0.0
 10
10.2985774012
 20
10.0289448725
 30
0.0
 10
10.3031124906
 20
10.0294748249
 30
0.0
 10
10.3076475496
 20
10.0300048061
 30
0.0
 10
10.311426789
 20
10.0304464443
 30
0.0
 10
10.314450139
 20
10.030799771
 30
0.0
 10
10.3163398247
 20
10.0310205663
 30
0.0
 10
10.3178513631
 20
10.03119728
 30
0.0
 10
10.3189855922
 20
10.031329603
 30
0.0
 10
10.3199289529
 20
10.0314405475
 30
0.0
 10
10.3205928972
 20
10.0315168833
 30
0.0
 10
10.3209666857
 20
10.0315625732
 30
0.0
 10
10.3212628255
 20
10.0315910109
 30
0.0
 10
10.3214985756
 20
10.0316417331
 30
0.0
 10
10.3218339737
 20
10.0317015896
 30
0.0
 10
10.322411106
 20
10.0318099602
 30
0.0
 10
10.3232407117
 20
10.0319628818
 30
0.0
 10
10.3242340423
 20
10.0321471982
 30
0.0
 10
10.3255592503
 20
10.0323926704
 30
0.0
 10
10.3272154976
 20
10.0326996075
 30
0.0
 10
10.3298656401
 20
10.0331906527
 30
0.0
 10
10.3331782674
 20
10.0338044779
 30
0.0
 10
10.3371534436
 20
10.0345410596
 30
0.0
 10
10.3411286075
 20
10.0352776454
 30
0.0
 10
10.3444412656
 20
10.0358914604
 30
0.0
 10
10.3470913466
 20
10.0363825259
 30
0.0
 10
10.3487477502
 20
10.0366894114
 30
0.0
 10
10.3500726373
 20
10.0369349895
 30
0.0
 10
10.3510669484
 20
10.0371189822
 30
0.0
 10
10.3518934865
 20
10.0372729168
 30
0.0
 10
10.3524760949
 20
10.037379479
 30
0.0
 10
10.3528027188
 20
10.0374422329
 30
0.0
 10
10.3530654205
 20
10.0374840554
 30
0.0
 10
10.3532603347
 20
10.037545919
 30
0.0
 10
10.3535438653
 20
10.0376214132
 30
0.0
 10
10.3540290272
 20
10.0377567852
 30
0.0
 10
10.3547278753
 20
10.0379484709
 30
0.0
 10
10.3555640278
 20
10.0381792225
 30
0.0
 10
10.3566797587
 20
10.0384866369
 30
0.0
 10
10.3580741276
 20
10.0388709919
 30
0.0
 10
10.3603052826
 20
10.0394859113
 30
0.0
 10
10.3630941697
 20
10.0402545773
 30
0.0
 10
10.3664408586
 20
10.0411769693
 30
0.0
 10
10.3692297606
 20
10.0419456309
 30
0.0
 10
10.371460883
 20
10.0425605599
 30
0.0
 10
10.3731342256
 20
10.0430217565
 30
0.0
 10
10.3748075644
 20
10.0434829538
 30
0.0
 10
10.3762020255
 20
10.0438672826
 30
0.0
 10
10.3773175672
 20
10.044174751
 30
0.0
 10
10.3780148427
 20
10.0443669064
 30
0.0
 10
10.3785725213
 20
10.044520659
 30
0.0
 10
10.3789911686
 20
10.044635896
 30
0.0
 10
10.3793388058
 20
10.0447321731
 30
0.0
 10
10.3795845766
 20
10.0447990838
 30
0.0
 10
10.379721231
 20
10.0448380731
 30
0.0
 10
10.3798343871
 20
10.0448651893
 30
0.0
 10
10.379906775
 20
10.0449004313
 30
0.0
 10
10.3800175125
 20
10.0449445863
 30
0.0
 10
10.3802046776
 20
10.0450231781
 30
0.0
 10
10.3804755203
 20
10.0451347617
 30
0.0
 10
10.3807990488
 20
10.0452689576
 30
0.0
 10
10.3812309381
 20
10.0454477821
 30
0.0
 10
10.3817706223
 20
10.0456713482
 30
0.0
 10
10.3826342162
 20
10.0460290341
 30
0.0
 10
10.3837136746
 20
10.0464761483
 30
0.0
 10
10.3850090392
 20
10.0470126825
 30
0.0
 10
10.3863043999
 20
10.0475492174
 30
0.0
 10
10.3880315489
 20
10.048264597
 30
0.0
 10
10.3901904846
 20
10.0491588216
 30
0.0
 10
10.3923494206
 20
10.0500530462
 30
0.0
 10
10.394076569
 20
10.0507684259
 30
0.0
 10
10.3953719314
 20
10.0513049605
 30
0.0
 10
10.3966672896
 20
10.0518414958
 30
0.0
 10
10.3977467681
 20
10.0522886064
 30
0.0
 10
10.3986103209
 20
10.0526462996
 30
0.0
 10
10.3991501096
 20
10.0528698471
 30
0.0
 10
10.3995817845
 20
10.0530487098
 30
0.0
 10
10.399905968
 20
10.0531827892
 30
0.0
 10
10.4001747613
 20
10.0532947372
 30
0.0
 10
10.4003655849
 20
10.0533726785
 30
0.0
 10
10.4004704607
 20
10.0534178758
 30
0.0
 10
10.4005608538
 20
10.0534499163
 30
0.0
 10
10.4006063852
 20
10.0534890568
 30
0.0
 10
10.4006827421
 20
10.0535387675
 30
0.0
 10
10.4008090757
 20
10.0536269152
 30
0.0
 10
10.4009933641
 20
10.0537522372
 30
0.0
 10
10.4012128786
 20
10.0539028819
 30
0.0
 10
10.4015061345
 20
10.0541036512
 30
0.0
 10
10.4018725092
 20
10.0543546437
 30
0.0
 10
10.4024588178
 20
10.0547562145
 30
0.0
 10
10.4031916661
 20
10.0552581839
 30
0.0
 10
10.4040711001
 20
10.0558605447
 30
0.0
 10
10.4049505299
 20
10.0564629061
 30
0.0
 10
10.4061231044
 20
10.0572660544
 30
0.0
 10
10.4075888219
 20
10.0582699899
 30
0.0
 10
10.4090545399
 20
10.0592739254
 30
0.0
 10
10.4102271137
 20
10.0600770738
 30
0.0
 10
10.4111065454
 20
10.060679435
 30
0.0
 10
10.4119859721
 20
10.0612817965
 30
0.0
 10
10.4127188432
 20
10.0617837637
 30
0.0
 10
10.4133051054
 20
10.062185339
 30
0.0
 10
10.413671598
 20
10.06243632
 30
0.0
 10
10.4139646119
 20
10.062637113
 30
0.0
 10
10.4141848657
 20
10.0627876853
 30
0.0
 10
10.4143668409
 20
10.0629132336
 30
0.0
 10
10.414497304
 20
10.0630009774
 30
0.0
 10
10.4145670445
 20
10.0630513352
 30
0.0
 10
10.4146328992
 20
10.0630884881
 30
0.0
 10
10.4146469615
 20
10.0631279937
 30
0.0
 10
10.4146837771
 20
10.0631798472
 30
0.0
 10
10.4147397871
 20
10.0632709732
 30
0.0
 10
10.414824202
 20
10.0634009533
 30
0.0
 10
10.4149236163
 20
10.063557015
 30
0.0
 10
10.4150568266
 20
10.0637650674
 30
0.0
 10
10.4152231142
 20
10.064025143
 30
0.0
 10
10.4154893003
 20
10.0644412584
 30
0.0
 10
10.4158219897
 20
10.0649614046
 30
0.0
 10
10.4162212354
 20
10.0655855791
 30
0.0
 10
10.4166204763
 20
10.0662097539
 30
0.0
 10
10.4171527991
 20
10.0670419869
 30
0.0
 10
10.417818202
 20
10.0680822781
 30
0.0
 10
10.4184836054
 20
10.0691225693
 30
0.0
 10
10.4190159275
 20
10.0699548023
 30
0.0
 10
10.4194151704
 20
10.070578977
 30
0.0
 10
10.4198144084
 20
10.0712031518
 30
0.0
 10
10.4201471221
 20
10.0717232972
 30
0.0
 10
10.4204132587
 20
10.0721394141
 30
0.0
 10
10.4205796721
 20
10.0723994859
 30
0.0
 10
10.4207126242
 20
10.0726075463
 30
0.0
 10
10.4208128274
 20
10.0727635833
 30
0.0
 10
10.420894774
 20
10.0728936408
 30
0.0
 10
10.4209551903
 20
10.0729846286
 30
0.0
 10
10.4209849459
 20
10.0730367035
 30
0.0
 10
10.4210206943
 20
10.0730755289
 30
0.0
 10
10.4210050996
 20
10.0731152368
 30
0.0
 10
10.4210022156
 20
10.0731678729
 30
0.0
 10
10.4209888246
 20
10.0732601295
 30
0.0
 10
10.420974057
 20
10.0733918496
 30
0.0
 10
10.4209544686
 20
10.0735499458
 30
0.0
 10
10.420929003
 20
10.0737607296
 30
0.0
 10
10.4208969476
 20
10.0740242131
 30
0.0
 10
10.4208457838
 20
10.0744457846
 30
0.0
 10
10.4207817862
 20
10.0749727498
 30
0.0
 10
10.4207050074
 20
10.0756051076
 30
0.0
 10
10.4206282238
 20
10.0762374655
 30
0.0
 10
10.4205258473
 20
10.0770806094
 30
0.0
 10
10.4203978761
 20
10.0781345393
 30
0.0
 10
10.4202699052
 20
10.0791884691
 30
0.0
 10
10.4201675281
 20
10.080031613
 30
0.0
 10
10.4200907465
 20
10.080663971
 30
0.0
 10
10.42001396
 20
10.0812963287
 30
0.0
 10
10.4199499865
 20
10.0818232941
 30
0.0
 10
10.4198987736
 20
10.0822448652
 30
0.0
 10
10.4198668431
 20
10.0825083498
 30
0.0
 10
10.4198411211
 20
10.0827191314
 30
0.0
 10
10.4198223158
 20
10.082877234
 30
0.0
 10
10.4198050982
 20
10.0830089342
 30
0.0
 10
10.4197960808
 20
10.0831012264
 30
0.0
 10
10.4197861892
 20
10.0831538054
 30
0.0
 10
10.4197921198
 20
10.0831936885
 30
0.0
 10
10.4197470227
 20
10.0832318562
 30
0.0
 10
10.4197046922
 20
10.0832833449
 30
0.0
 10
10.4196223209
 20
10.0833731712
 30
0.0
 10
10.4195089832
 20
10.0835016404
 30
0.0
 10
10.4193711223
 20
10.083655741
 30
0.0
 10
10.4191879559
 20
10.0838612302
 30
0.0
 10
10.418958776
 20
10.0841180842
 30
0.0
 10
10.4185922121
 20
10.0845290549
 30
0.0
 10
10.4181339647
 20
10.0850427668
 30
0.0
 10
10.4175840861
 20
10.0856592217
 30
0.0
 10
10.4170342025
 20
10.0862756765
 30
0.0
 10
10.4163010262
 20
10.0870976162
 30
0.0
 10
10.4153845552
 20
10.0881250408
 30
0.0
 10
10.4144680846
 20
10.0891524654
 30
0.0
 10
10.4137349076
 20
10.0899744051
 30
0.0
 10
10.4131850261
 20
10.09059086
 30
0.0
 10
10.4126351398
 20
10.0912073145
 30
0.0
 10
10.4121769164
 20
10.0917210276
 30
0.0
 10
10.4118103036
 20
10.0921319959
 30
0.0
 10
10.4115812482
 20
10.0923888559
 30
0.0
 10
10.4113978261
 20
10.0925943329
 30
0.0
 10
10.4112607465
 20
10.092748471
 30
0.0
 10
10.4111449642
 20
10.0928768227
 30
0.0
 10
10.411066957
 20
10.0929668587
 30
0.0
 10
10.4110176342
 20
10.0930180115
 30
0.0
 10
10.4109940153
 20
10.0930572107
 30
0.0
 10
10.410919277
 20
10.09309322
 30
0.0
 10
10.410837457
 20
10.0931423451
 30
0.0
 10
10.4106859643
 20
10.0932277955
 30
0.0
 10
10.4104738894
 20
10.0933501387
 30
0.0
 10
10.4102175405
 20
10.0934968344
 30
0.0
 10
10.4098763913
 20
10.0936924693
 30
0.0
 10
10.4094497324
 20
10.093936999
 30
0.0
 10
10.4087672025
 20
10.0943282542
 30
0.0
 10
10.4079139974
 20
10.0948173206
 30
0.0
 10
10.4068901697
 20
10.0954042015
 30
0.0
 10
10.405866337
 20
10.095991082
 30
0.0
 10
10.4045012285
 20
10.0967735895
 30
0.0
 10
10.4027948423
 20
10.0977517238
 30
0.0
 10
10.4010884564
 20
10.0987298582
 30
0.0
 10
10.3997233473
 20
10.0995123656
 30
0.0
 10
10.3986995165
 20
10.1000992463
 30
0.0
 10
10.3976756816
 20
10.1006861263
 30
0.0
 10
10.3968224987
 20
10.1011751953
 30
0.0
 10
10.3961399236
 20
10.1015664453
 30
0.0
 10
10.3957133796
 20
10.1018109884
 30
0.0
 10
10.3953719946
 20
10.1020065957
 30
0.0
 10
10.395116366
 20
10.1021533757
 30
0.0
 10
10.3949020375
 20
10.1022754554
 30
0.0
 10
10.394754568
 20
10.1023613761
 30
0.0
 10
10.3946663017
 20
10.1024097478
 30
0.0
 10
10.3946113644
 20
10.1024480711
 30
0.0
 10
10.3945133765
 20
10.1024785794
 30
0.0
 10
10.3943977425
 20
10.102521983
 30
0.0
 10
10.3941883865
 20
10.1025966694
 30
0.0
 10
10.3938929643
 20
10.1027040282
 30
0.0
 10
10.393536892
 20
10.1028325745
 30
0.0
 10
10.3930626759
 20
10.1030040689
 30
0.0
 10
10.3924697184
 20
10.1032184029
 30
0.0
 10
10.3915210911
 20
10.1035613563
 30
0.0
 10
10.3903352711
 20
10.1039900415
 30
0.0
 10
10.3889123025
 20
10.1045044666
 30
0.0
 10
10.3874893298
 20
10.1050188909
 30
0.0
 10
10.3855920343
 20
10.1057047902
 30
0.0
 10
10.3832204145
 20
10.1065621643
 30
0.0
 10
10.3808487944
 20
10.1074195383
 30
0.0
 10
10.3789514993
 20
10.1081054378
 30
0.0
 10
10.3775285253
 20
10.1086198617
 30
0.0
 10
10.3761055617
 20
10.109134288
 30
0.0
 10
10.3749197261
 20
10.1095629693
 30
0.0
 10
10.3739711306
 20
10.1099059308
 30
0.0
 10
10.3733780924
 20
10.1101202441
 30
0.0
 10
10.3729040419
 20
10.1102917809
 30
0.0
 10
10.3725474633
 20
10.1104201977
 30
0.0
 10
10.3722536254
 20
10.1105279618
 30
0.0
 10
10.3720111293
 20
10.1106124907
 30
0.0
 10
10.3718495479
 20
10.1106804847
 30
0.0
 10
10.3716105167
 20
10.1107309303
 30
0.0
 10
10.3713188627
 20
10.1108043209
 30
0.0
 10
10.370945013
 20
10.1108939561
 30
0.0
 10
10.3705003664
 20
10.1110024185
 30
0.0
 10
10.3699061166
 20
10.1111467207
 30
0.0
 10
10.3691637794
 20
10.1113272061
 30
0.0
 10
10.3679757745
 20
10.1116159224
 30
0.0
 10
10.3664908594
 20
10.1119768386
 30
0.0
 10
10.3647089223
 20
10.1124099291
 30
0.0
 10
10.3629269956
 20
10.112843022
 30
0.0
 10
10.3605510896
 20
10.1134204783
 30
0.0
 10
10.3575812096
 20
10.1141422994
 30
0.0
 10
10.3540173469
 20
10.1150084825
 30
0.0
 10
10.3510474803
 20
10.1157303082
 30
0.0
 10
10.348671545
 20
10.1163077546
 30
0.0
 10
10.3471866808
 20
10.1166686906
 30
0.0
 10
10.345998571
 20
10.116957366
 30
0.0
 10
10.3451080869
 20
10.1171740737
 30
0.0
 10
10.3443641138
 20
10.1173540238
 30
0.0
 10
10.3438470672
 20
10.117481244
 30
0.0
 10
10.3435457807
 20
10.1175519814
 30
0.0
 10
10.3433362427
 20
10.1176105553
 30
0.0
 10
10.343063913
 20
10.117648026
 30
0.0
 10
10.3427227092
 20
10.1177053479
 30
0.0
 10
10.3421153978
 20
10.1178022316
 30
0.0
 10
10.3412531452
 20
10.11794243
 30
0.0
 10
10.3402161585
 20
10.1181099006
 30
0.0
 10
10.3388343072
 20
10.1183334627
 30
0.0
 10
10.3371067199
 20
10.1186128236
 30
0.0
 10
10.334342733
 20
10.1190598523
 30
0.0
 10
10.3308876966
 20
10.1196186205
 30
0.0
 10
10.3267416769
 20
10.1202891505
 30
0.0
 10
10.3225956459
 20
10.1209596762
 30
0.0
 10
10.3191406377
 20
10.121518455
 30
0.0
 10
10.3163765943
 20
10.1219654625
 30
0.0
 10
10.3146491506
 20
10.1222448775
 30
0.0
 10
10.3132670047
 20
10.1224683286
 30
0.0
 10
10.312230918
 20
10.1226361382
 30
0.0
 10
10.3113658496
 20
10.1227752758
 30
0.0
 10
10.3107635649
 20
10.1228740532
 30
0.0
 10
10.3104143071
 20
10.1229283409
 30
0.0
 10
10.3101667167
 20
10.1229751318
 30
0.0
 10
10.3098642619
 20
10.1229987006
 30
0.0
 10
10.3094801262
 20
10.1230382258
 30
0.0
 10
10.3087989723
 20
10.1231036208
 30
0.0
 10
10.3078305569
 20
10.1231990155
 30
0.0
 10
10.3066664631
 20
10.1233126445
 30
0.0
 10
10.3051150349
 20
10.1234644448
 30
0.0
 10
10.3031755111
 20
10.1236540942
 30
0.0
 10
10.3000724064
 20
10.1239575897
 30
0.0
 10
10.2961934797
 20
10.1243369398
 30
0.0
 10
10.2915387873
 20
10.1247921681
 30
0.0
 10
10.2868840896
 20
10.1252473942
 30
0.0
 10
10.2806778279
 20
10.1258543631
 30
0.0
 10
10.2760231312
 20
10.1263095896
 30
0.0
 10
10.2729200001
 20
10.126613074
 30
0.0
  0
SPLINE
  5
40D
100
AcDbEntity
  8
0
100
AcDbSpline
 62
4
  6
CONTINUOUS
 70
0
 71
3
 72
346
 73
342
 74
0
 42
0.0000001
 43
0.0000001
 44
0.0000000001
 40
0.0
 40
0.0
 40
0.0
 40
0.0
 40
0.015625
 40
0.03125
 40
0.0390625
 40
0.046875
 40
0.05078125
 40
0.0546875
 40
0.05859375
 40
0.060546875
 40
0.0615234375
 40
0.0625
 40
0.0634765625
 40
0.064453125
 40
0.06640625
 40
0.0703125
 40
0.07421875
 40
0.078125
 40
0.0859375
 40
0.09375
 40
0.1015625
 40
0.109375
 40
0.11328125
 40
0.1171875
 40
0.12109375
 40
0.123046875
 40
0.1240234375
 40
0.125
 40
0.1259765625
 40
0.126953125
 40
0.12890625
 40
0.1328125
 40
0.13671875
 40
0.140625
 40
0.1484375
 40
0.15625
 40
0.1640625
 40
0.171875
 40
0.17578125
 40
0.1796875
 40
0.18359375
 40
0.185546875
 40
0.1865234375
 40
0.1875
 40
0.1884765625
 40
0.189453125
 40
0.19140625
 40
0.1953125
 40
0.19921875
 40
0.203125
 40
0.2109375
 40
0.21875
 40
0.2265625
 40
0.234375
 40
0.23828125
 40
0.2421875
 40
0.244140625
 40
0.24609375
 40
0.248046875
 40
0.2490234375
 40
0.2495117188
 40
0.25
 40
0.2504882812
 40
0.2509765625
 40
0.251953125
 40
0.25390625
 40
0.255859375
 40
0.2578125
 40
0.26171875
 40
0.265625
 40
0.2734375
 40
0.28125
 40
0.2890625
 40
0.296875
 40
0.30078125
 40
0.3046875
 40
0.306640625
 40
0.30859375
 40
0.310546875
 40
0.3115234375
 40
0.3120117188
 40
0.3125
 40
0.3129882812
 40
0.3134765625
 40
0.314453125
 40
0.31640625
 40
0.318359375
 40
0.3203125
 40
0.32421875
 40
0.328125
 40
0.3359375
 40
0.34375
 40
0.3515625
 40
0.35546875
 40
0.359375
 40
0.36328125
 40
0.3671875
 40
0.369140625
 40
0.37109375
 40
0.3720703125
 40
0.373046875
 40
0.3740234375
 40
0.3745117188
 40
0.3747558594
 40
0.375
 40
0.3752441406
 40
0.3754882812
 40
0.3759765625
 40
0.376953125
 40
0.3779296875
 40
0.37890625
 40
0.380859375
 40
0.3828125
 40
0.38671875
 40
0.390625
 40
0.39453125
 40
0.3984375
 40
0.40625
 40
0.4140625
 40
0.41796875
 40
0.421875
 40
0.42578125
 40
0.4296875
 40
0.431640625
 40
0.43359375
 40
0.4345703125
 40
0.435546875
 40
0.4365234375
 40
0.4370117188
 40
0.4372558594
 40
0.4375
 40
0.4377441406
 40
0.4379882812
 40
0.4384765625
 40
0.439453125
 40
0.4404296875
 40
0.44140625
 40
0.443359375
 40
0.4453125
 40
0.44921875
 40
0.453125
 40
0.45703125
 40
0.4609375
 40
0.46875
 40
0.4765625
 40
0.48046875
 40
0.484375
 40
0.48828125
 40
0.4921875
 40
0.494140625
 40
0.49609375
 40
0.4970703125
 40
0.498046875
 40
0.4990234375
 40
0.4995117188
 40
0.4997558594
 40
0.5
 40
0.5002441406
 40
0.5004882812
 40
0.5009765625
 40
0.501953125
 40
0.5029296875
 40
0.50390625
 40
0.505859375
 40
0.5078125
 40
0.51171875
 40
0.515625
 40
0.51953125
 40
0.5234375
 40
0.53125
 40
0.5390625
 40
0.54296875
 40
0.546875
 40
0.55078125
 40
0.5546875
 40
0.556640625
 40
0.55859375
 40
0.5595703125
 40
0.560546875
 40
0.5615234375
 40
0.5620117188
 40
0.5622558594
 40
0.5625
 40
0.5627441406
 40
0.5629882812
 40
0.5634765625
 40
0.564453125
 40
0.5654296875
 40
0.56640625
 40
0.568359375
 40
0.5703125
 40
0.57421875
 40
0.578125
 40
0.58203125
 40
0.5859375
 40
0.59375
 40
0.6015625
 40
0.60546875
 40
0.609375
 40
0.61328125
 40
0.6171875
 40
0.619140625
 40
0.62109375
 40
0.6220703125
 40
0.623046875
 40
0.6240234375
 40
0.6245117188
 40
0.6247558594
 40
0.625
 40
0.6252441406
 40
0.6254882812
 40
0.6259765625
 40
0.626953125
 40
0.6279296875
 40
0.62890625
 40
0.630859375
 40
0.6328125
 40
0.63671875
 40
0.640625
 40
0.64453125
 40
0.6484375
 40
0.65625
 40
0.6640625
 40
0.66796875
 40
0.671875
 40
0.67578125
 40
0.6796875
 40
0.681640625
 40
0.68359375
 40
0.6845703125
 40
0.685546875
 40
0.6865234375
 40
0.6870117188
 40
0.6872558594
 40
0.6875
 40
0.6877441406
 40
0.6879882812
 40
0.6884765625
 40
0.689453125
 40
0.6904296875
 40
0.69140625
 40
0.693359375
 40
0.6953125
 40
0.69921875
 40
0.703125
 40
0.70703125
 40
0.7109375
 40
0.71875
 40
0.7265625
 40
0.73046875
 40
0.734375
 40
0.73828125
 40
0.7421875
 40
0.744140625
 40
0.74609375
 40
0.7470703125
 40
0.748046875
 40
0.7490234375
 40
0.7495117188
 40
0.7497558594
 40
0.75
 40
0.7502441406
 40
0.7504882812
 40
0.7509765625
 40
0.751953125
 40
0.7529296875
 40
0.75390625
 40
0.755859375
 40
0.7578125
 40
0.76171875
 40
0.765625
 40
0.76953125
 40
0.7734375
 40
0.78125
 40
0.7890625
 40
0.79296875
 40
0.796875
 40
0.80078125
 40
0.8046875
 40
0.806640625
 40
0.80859375
 40
0.8095703125
 40
0.810546875
 40
0.8115234375
 40
0.8120117188
 40
0.8125
 40
0.8129882812
 40
0.8134765625
 40
0.814453125
 40
0.8154296875
 40
0.81640625
 40
0.818359375
 40
0.8203125
 40
0.82421875
 40
0.828125
 40
0.83203125
 40
0.8359375
 40
0.84375
 40
0.8515625
 40
0.859375
 40
0.86328125
 40
0.8671875
 40
0.869140625
 40
0.87109375
 40
0.873046875
 40
0.8740234375
 40
0.8745117188
 40
0.875
 40
0.8754882812
 40
0.8759765625
 40
0.876953125
 40
0.87890625
 40
0.880859375
 40
0.8828125
 40
0.88671875
 40
0.890625
 40
0.8984375
 40
0.90625
 40
0.9140625
 40
0.921875
 40
0.92578125
 40
0.9296875
 40
0.931640625
 40
0.93359375
 40
0.935546875
 40
0.9365234375
 40
0.9370117188
 40
0.9375
 40
0.9379882812
 40
0.9384765625
 40
0.939453125
 40
0.94140625
 40
0.943359375
 40
0.9453125
 40
0.94921875
 40
0.953125
 40
0.9609375
 40
0.96875
 40
0.9765625
 40
0.984375
 40
1.0
 40
1.0
 40
1.0
 40
1.0
 10
10.2729200171
 20
10.1266130728
 30
0.0
 10
10.2697045131
 20
10.1267508479
 30
0.0
 10
10.2632735043
 20
10.1270263947
 30
0.0
 10
10.2552347477
 20
10.1273708452
 30
0.0
 10
10.2488037332
 20
10.1276463698
 30
0.0
 10
10.2447843699
 20
10.1278186535
 30
0.0
 10
10.2415688318
 20
10.1279562955
 30
0.0
 10
10.2391573081
 20
10.1280600334
 30
0.0
 10
10.2371472917
 20
10.1281448707
 30
0.0
 10
10.2357410915
 20
10.1282074183
 30
0.0
 10
10.2349362818
 20
10.1282382234
 30
0.0
 10
10.234336243
 20
10.1282752329
 30
0.0
 10
10.2337225634
 20
10.1282590881
 30
0.0
 10
10.2329090821
 20
10.1282561024
 30
0.0
 10
10.2314832728
 20
10.128242239
 30
0.0
 10
10.2294475614
 20
10.1282269505
 30
0.0
 10
10.2270042117
 20
10.1282066711
 30
0.0
 10
10.2237465853
 20
10.1281803073
 30
0.0
 10
10.2196744936
 20
10.1281471194
 30
0.0
 10
10.2147880054
 20
10.1281074004
 30
0.0
 10
10.2099015237
 20
10.1280676283
 30
0.0
 10
10.2058294158
 20
10.1280345733
 30
0.0
 10
10.2025718217
 20
10.1280079437
 30
0.0
 10
10.2001283735
 20
10.127988475
 30
0.0
 10
10.1980929702
 20
10.1279706501
 30
0.0
 10
10.1966666111
 20
10.1279613146
 30
0.0
 10
10.1958540107
 20
10.1279510741
 30
0.0
 10
10.1952376252
 20
10.1279572139
 30
0.0
 10
10.1946477492
 20
10.1279105259
 30
0.0
 10
10.1938520011
 20
10.1278667022
 30
0.0
 10
10.1924637502
 20
10.1277814252
 30
0.0
 10
10.1904782821
 20
10.1276640896
 30
0.0
 10
10.1880966846
 20
10.1275213655
 30
0.0
 10
10.1849208843
 20
10.1273317381
 30
0.0
 10
10.1809512509
 20
10.1270944719
 30
0.0
 10
10.1761876345
 20
10.1268098586
 30
0.0
 10
10.1714240562
 20
10.1265251921
 30
0.0
 10
10.1674543277
 20
10.1262880586
 30
0.0
 10
10.1642787175
 20
10.1260981659
 30
0.0
 10
10.1618965401
 20
10.1259562508
 30
0.0
 10
10.1599128863
 20
10.1258363843
 30
0.0
 10
10.1585213966
 20
10.1257556254
 30
0.0
 10
10.1577308378
 20
10.1257045627
 30
0.0
 10
10.1571250219
 20
10.1256801106
 30
0.0
 10
10.1565685041
 20
10.1256027359
 30
0.0
 10
10.1558092847
 20
10.1255180297
 30
0.0
 10
10.1544886625
 20
10.125361193
 30
0.0
 10
10.1525978707
 20
10.1251416371
 30
0.0
 10
10.1503307134
 20
10.1248762454
 30
0.0
 10
10.1473072107
 20
10.1245230621
 30
0.0
 10
10.1435280476
 20
10.1240813521
 30
0.0
 10
10.1389929582
 20
10.1235513997
 30
0.0
 10
10.1344578992
 20
10.1230214186
 30
0.0
 10
10.1306786598
 20
10.1225797803
 30
0.0
 10
10.1276553098
 20
10.1222264536
 30
0.0
 10
10.1257656241
 20
10.1220056584
 30
0.0
 10
10.1242540857
 20
10.1218289446
 30
0.0
 10
10.1231198566
 20
10.1216966216
 30
0.0
 10
10.1221764959
 20
10.1215856771
 30
0.0
 10
10.1215125516
 20
10.1215093413
 30
0.0
 10
10.1211387631
 20
10.1214636514
 30
0.0
 10
10.1208426233
 20
10.1214352138
 30
0.0
 10
10.1206068732
 20
10.1213844915
 30
0.0
 10
10.1202714751
 20
10.121324635
 30
0.0
 10
10.1196943428
 20
10.1212162645
 30
0.0
 10
10.1188647371
 20
10.1210633428
 30
0.0
 10
10.1178714065
 20
10.1208790264
 30
0.0
 10
10.1165461985
 20
10.1206335543
 30
0.0
 10
10.1148899512
 20
10.1203266171
 30
0.0
 10
10.1122398087
 20
10.119835572
 30
0.0
 10
10.1089271814
 20
10.1192217468
 30
0.0
 10
10.1049520052
 20
10.118485165
 30
0.0
 10
10.1009768413
 20
10.1177485792
 30
0.0
 10
10.0976641832
 20
10.1171347642
 30
0.0
 10
10.0950141022
 20
10.1166436987
 30
0.0
 10
10.0933576986
 20
10.1163368132
 30
0.0
 10
10.0920328115
 20
10.1160912351
 30
0.0
 10
10.0910385004
 20
10.1159072424
 30
0.0
 10
10.0902119623
 20
10.1157533078
 30
0.0
 10
10.0896293538
 20
10.1156467456
 30
0.0
 10
10.08930273
 20
10.1155839917
 30
0.0
 10
10.0890400283
 20
10.1155421692
 30
0.0
 10
10.0888451141
 20
10.1154803056
 30
0.0
 10
10.0885615835
 20
10.1154048114
 30
0.0
 10
10.0880764215
 20
10.1152694395
 30
0.0
 10
10.0873775734
 20
10.1150777538
 30
0.0
 10
10.086541421
 20
10.1148470021
 30
0.0
 10
10.0854256901
 20
10.1145395878
 30
0.0
 10
10.0840313212
 20
10.1141552327
 30
0.0
 10
10.0818001662
 20
10.1135403133
 30
0.0
 10
10.0790112791
 20
10.1127716473
 30
0.0
 10
10.0756645902
 20
10.1118492554
 30
0.0
 10
10.0728756882
 20
10.1110805938
 30
0.0
 10
10.0706445658
 20
10.1104656648
 30
0.0
 10
10.0689712232
 20
10.1100044682
 30
0.0
 10
10.0672978844
 20
10.1095432708
 30
0.0
 10
10.0659034233
 20
10.1091589421
 30
0.0
 10
10.0647878816
 20
10.1088514737
 30
0.0
 10
10.0640906061
 20
10.1086593183
 30
0.0
 10
10.0635329275
 20
10.1085055657
 30
0.0
 10
10.0631142802
 20
10.1083903286
 30
0.0
 10
10.062766643
 20
10.1082940515
 30
0.0
 10
10.0625208722
 20
10.1082271408
 30
0.0
 10
10.0623842178
 20
10.1081881515
 30
0.0
 10
10.0622710617
 20
10.1081610353
 30
0.0
 10
10.0621986738
 20
10.1081257933
 30
0.0
 10
10.0620879363
 20
10.1080816383
 30
0.0
 10
10.0619007712
 20
10.1080030465
 30
0.0
 10
10.0616299285
 20
10.1078914629
 30
0.0
 10
10.0613064
 20
10.1077572671
 30
0.0
 10
10.0608745107
 20
10.1075784425
 30
0.0
 10
10.0603348265
 20
10.1073548764
 30
0.0
 10
10.0594712326
 20
10.1069971905
 30
0.0
 10
10.0583917742
 20
10.1065500763
 30
0.0
 10
10.0570964096
 20
10.1060135421
 30
0.0
 10
10.0558010489
 20
10.1054770072
 30
0.0
 10
10.0540738999
 20
10.1047616276
 30
0.0
 10
10.0519149642
 20
10.103867403
 30
0.0
 10
10.0497560282
 20
10.1029731784
 30
0.0
 10
10.0480288798
 20
10.1022577987
 30
0.0
 10
10.0467335173
 20
10.1017212641
 30
0.0
 10
10.0454381592
 20
10.1011847288
 30
0.0
 10
10.0443586807
 20
10.1007376182
 30
0.0
 10
10.0434951279
 20
10.100379925
 30
0.0
 10
10.0429553392
 20
10.1001563775
 30
0.0
 10
10.0425236643
 20
10.0999775148
 30
0.0
 10
10.0421994808
 20
10.0998434354
 30
0.0
 10
10.0419306875
 20
10.0997314874
 30
0.0
 10
10.0417398639
 20
10.0996535461
 30
0.0
 10
10.0416349881
 20
10.0996083489
 30
0.0
 10
10.041544595
 20
10.0995763083
 30
0.0
 10
10.0414990636
 20
10.0995371679
 30
0.0
 10
10.0414227067
 20
10.0994874571
 30
0.0
 10
10.0412963731
 20
10.0993993094
 30
0.0
 10
10.0411120847
 20
10.0992739874
 30
0.0
 10
10.0408925702
 20
10.0991233428
 30
0.0
 10
10.0405993143
 20
10.0989225735
 30
0.0
 10
10.0402329396
 20
10.0986715809
 30
0.0
 10
10.039646631
 20
10.0982700101
 30
0.0
 10
10.0389137827
 20
10.0977680407
 30
0.0
 10
10.0380343487
 20
10.09716568
 30
0.0
 10
10.0371549189
 20
10.0965633185
 30
0.0
 10
10.0359823444
 20
10.0957601702
 30
0.0
 10
10.0345166269
 20
10.0947562347
 30
0.0
 10
10.0330509089
 20
10.0937522992
 30
0.0
 10
10.0318783351
 20
10.0929491508
 30
0.0
 10
10.0309989034
 20
10.0923467896
 30
0.0
 10
10.0301194767
 20
10.0917444281
 30
0.0
 10
10.0293866056
 20
10.0912424609
 30
0.0
 10
10.0288003434
 20
10.0908408856
 30
0.0
 10
10.0284338508
 20
10.0905899046
 30
0.0
 10
10.0281408369
 20
10.0903891116
 30
0.0
 10
10.0279205831
 20
10.0902385393
 30
0.0
 10
10.0277386079
 20
10.0901129911
 30
0.0
 10
10.0276081448
 20
10.0900252472
 30
0.0
 10
10.0275384043
 20
10.0899748894
 30
0.0
 10
10.0274725496
 20
10.0899377365
 30
0.0
 10
10.0274584873
 20
10.0898982309
 30
0.0
 10
10.0274216717
 20
10.0898463774
 30
0.0
 10
10.0273656617
 20
10.0897552514
 30
0.0
 10
10.0272812468
 20
10.0896252713
 30
0.0
 10
10.0271818325
 20
10.0894692096
 30
0.0
 10
10.0270486222
 20
10.0892611573
 30
0.0
 10
10.0268823346
 20
10.0890010816
 30
0.0
 10
10.0266161485
 20
10.0885849662
 30
0.0
 10
10.0262834591
 20
10.0880648201
 30
0.0
 10
10.0258842133
 20
10.0874406455
 30
0.0
 10
10.0254849725
 20
10.0868164707
 30
0.0
 10
10.0249526497
 20
10.0859842378
 30
0.0
 10
10.0242872468
 20
10.0849439465
 30
0.0
 10
10.0236218434
 20
10.0839036553
 30
0.0
 10
10.0230895213
 20
10.0830714223
 30
0.0
 10
10.0226902784
 20
10.0824472476
 30
0.0
 10
10.0222910404
 20
10.0818230728
 30
0.0
 10
10.0219583267
 20
10.0813029274
 30
0.0
 10
10.0216921901
 20
10.0808868105
 30
0.0
 10
10.0215257767
 20
10.0806267388
 30
0.0
 10
10.0213928246
 20
10.0804186783
 30
0.0
 10
10.0212926214
 20
10.0802626414
 30
0.0
 10
10.0212106748
 20
10.0801325838
 30
0.0
 10
10.0211502585
 20
10.0800415961
 30
0.0
 10
10.0211205029
 20
10.0799895211
 30
0.0
 10
10.0210847545
 20
10.0799506958
 30
0.0
 10
10.0211003492
 20
10.0799109878
 30
0.0
 10
10.0211032331
 20
10.0798583517
 30
0.0
 10
10.0211166242
 20
10.0797660952
 30
0.0
 10
10.0211313918
 20
10.0796343751
 30
0.0
 10
10.0211509802
 20
10.0794762788
 30
0.0
 10
10.0211764458
 20
10.0792654951
 30
0.0
 10
10.0212085012
 20
10.0790020115
 30
0.0
 10
10.021259665
 20
10.07858044
 30
0.0
 10
10.0213236626
 20
10.0780534749
 30
0.0
 10
10.0214004413
 20
10.077421117
 30
0.0
 10
10.021477225
 20
10.0767887591
 30
0.0
 10
10.0215796015
 20
10.0759456152
 30
0.0
 10
10.0217075727
 20
10.0748916853
 30
0.0
 10
10.0218355435
 20
10.0738377555
 30
0.0
 10
10.0219379207
 20
10.0729946116
 30
0.0
 10
10.0220147023
 20
10.0723622537
 30
0.0
 10
10.0220914888
 20
10.0717298959
 30
0.0
 10
10.0221554623
 20
10.0712029306
 30
0.0
 10
10.0222066752
 20
10.0707813594
 30
0.0
 10
10.0222386057
 20
10.0705178749
 30
0.0
 10
10.0222643277
 20
10.0703070932
 30
0.0
 10
10.022283133
 20
10.0701489906
 30
0.0
 10
10.0223003506
 20
10.0700172904
 30
0.0
 10
10.022309368
 20
10.0699249983
 30
0.0
 10
10.0223192596
 20
10.0698724192
 30
0.0
 10
10.022313329
 20
10.0698325362
 30
0.0
 10
10.0223584261
 20
10.0697943684
 30
0.0
 10
10.0224007566
 20
10.0697428798
 30
0.0
 10
10.0224831279
 20
10.0696530534
 30
0.0
 10
10.0225964656
 20
10.0695245843
 30
0.0
 10
10.0227343265
 20
10.0693704837
 30
0.0
 10
10.0229174929
 20
10.0691649945
 30
0.0
 10
10.0231466728
 20
10.0689081404
 30
0.0
 10
10.0235132367
 20
10.0684971697
 30
0.0
 10
10.0239714841
 20
10.0679834578
 30
0.0
 10
10.0245213627
 20
10.0673670029
 30
0.0
 10
10.0250712463
 20
10.0667505482
 30
0.0
 10
10.0258044226
 20
10.0659286084
 30
0.0
 10
10.0267208936
 20
10.0649011838
 30
0.0
 10
10.0276373642
 20
10.0638737592
 30
0.0
 10
10.0283705412
 20
10.0630518195
 30
0.0
 10
10.0289204226
 20
10.0624353647
 30
0.0
 10
10.029470309
 20
10.0618189101
 30
0.0
 10
10.0299285324
 20
10.0613051971
 30
0.0
 10
10.0302951452
 20
10.0608942287
 30
0.0
 10
10.0305242006
 20
10.0606373687
 30
0.0
 10
10.0307076227
 20
10.0604318917
 30
0.0
 10
10.0308447023
 20
10.0602777537
 30
0.0
 10
10.0309604846
 20
10.0601494019
 30
0.0
 10
10.0310384918
 20
10.060059366
 30
0.0
 10
10.0310878146
 20
10.0600082131
 30
0.0
 10
10.0311114335
 20
10.059969014
 30
0.0
 10
10.0311861718
 20
10.0599330046
 30
0.0
 10
10.0312679918
 20
10.0598838796
 30
0.0
 10
10.0314194845
 20
10.0597984291
 30
0.0
 10
10.0316315594
 20
10.059676086
 30
0.0
 10
10.0318879083
 20
10.0595293902
 30
0.0
 10
10.0322290575
 20
10.0593337554
 30
0.0
 10
10.0326557164
 20
10.0590892257
 30
0.0
 10
10.0333382463
 20
10.0586979704
 30
0.0
 10
10.0341914514
 20
10.058208904
 30
0.0
 10
10.0352152791
 20
10.0576220232
 30
0.0
 10
10.0362391118
 20
10.0570351426
 30
0.0
 10
10.0376042203
 20
10.0562526351
 30
0.0
 10
10.0393106065
 20
10.0552745008
 30
0.0
 10
10.0410169924
 20
10.0542963665
 30
0.0
 10
10.0423821015
 20
10.0535138591
 30
0.0
 10
10.0434059323
 20
10.0529269783
 30
0.0
 10
10.0444297672
 20
10.0523400983
 30
0.0
 10
10.0452829501
 20
10.0518510293
 30
0.0
 10
10.0459655251
 20
10.0514597793
 30
0.0
 10
10.0463920692
 20
10.0512152362
 30
0.0
 10
10.0467334541
 20
10.0510196289
 30
0.0
 10
10.0469890828
 20
10.050872849
 30
0.0
 10
10.0472034113
 20
10.0507507692
 30
0.0
 10
10.0473508808
 20
10.0506648486
 30
0.0
 10
10.0474391471
 20
10.0506164768
 30
0.0
 10
10.0474940844
 20
10.0505781535
 30
0.0
 10
10.0475920723
 20
10.0505476453
 30
0.0
 10
10.0477077063
 20
10.0505042416
 30
0.0
 10
10.0479170623
 20
10.0504295552
 30
0.0
 10
10.0482124845
 20
10.0503221964
 30
0.0
 10
10.0485685568
 20
10.0501936501
 30
0.0
 10
10.0490427729
 20
10.0500221557
 30
0.0
 10
10.0496357304
 20
10.0498078217
 30
0.0
 10
10.0505843577
 20
10.0494648683
 30
0.0
 10
10.0517701776
 20
10.0490361831
 30
0.0
 10
10.0531931463
 20
10.0485217581
 30
0.0
 10
10.054616119
 20
10.0480073338
 30
0.0
 10
10.0565134145
 20
10.0473214344
 30
0.0
 10
10.0588850343
 20
10.0464640603
 30
0.0
 10
10.0612566544
 20
10.0456066863
 30
0.0
 10
10.0631539495
 20
10.0449207869
 30
0.0
 10
10.0645769235
 20
10.0444063629
 30
0.0
 10
10.0659998871
 20
10.0438919366
 30
0.0
 10
10.0671857227
 20
10.0434632553
 30
0.0
 10
10.0681343182
 20
10.0431202938
 30
0.0
 10
10.0687273564
 20
10.0429059805
 30
0.0
 10
10.0692014069
 20
10.0427344437
 30
0.0
 10
10.0695579855
 20
10.0426060269
 30
0.0
 10
10.0698518234
 20
10.0424982628
 30
0.0
 10
10.0700943195
 20
10.042413734
 30
0.0
 10
10.0702559009
 20
10.0423457399
 30
0.0
 10
10.0704949321
 20
10.0422952944
 30
0.0
 10
10.0707865861
 20
10.0422219037
 30
0.0
 10
10.0711604358
 20
10.0421322685
 30
0.0
 10
10.0716050824
 20
10.0420238061
 30
0.0
 10
10.0721993322
 20
10.0418795039
 30
0.0
 10
10.0729416693
 20
10.0416990186
 30
0.0
 10
10.0741296743
 20
10.0414103022
 30
0.0
 10
10.0756145894
 20
10.041049386
 30
0.0
 10
10.0773965265
 20
10.0406162955
 30
0.0
 10
10.0791784532
 20
10.0401832026
 30
0.0
 10
10.0815543592
 20
10.0396057463
 30
0.0
 10
10.0845242392
 20
10.0388839252
 30
0.0
 10
10.0880881019
 20
10.0380177421
 30
0.0
 10
10.0910579685
 20
10.0372959165
 30
0.0
 10
10.0934339038
 20
10.0367184701
 30
0.0
 10
10.094918768
 20
10.036357534
 30
0.0
 10
10.0961068778
 20
10.0360688586
 30
0.0
 10
10.0969973619
 20
10.035852151
 30
0.0
 10
10.097741335
 20
10.0356722009
 30
0.0
 10
10.0982583816
 20
10.0355449806
 30
0.0
 10
10.0985596681
 20
10.0354742432
 30
0.0
 10
10.0987692061
 20
10.0354156693
 30
0.0
 10
10.0990415358
 20
10.0353781986
 30
0.0
 10
10.0993827396
 20
10.0353208767
 30
0.0
 10
10.099990051
 20
10.035223993
 30
0.0
 10
10.1008523036
 20
10.0350837946
 30
0.0
 10
10.1018892903
 20
10.0349163241
 30
0.0
 10
10.1032711416
 20
10.0346927619
 30
0.0
 10
10.1049987289
 20
10.034413401
 30
0.0
 10
10.1077627158
 20
10.0339663723
 30
0.0
 10
10.1112177522
 20
10.0334076041
 30
0.0
 10
10.1153637719
 20
10.0327370741
 30
0.0
 10
10.1195098029
 20
10.0320665484
 30
0.0
 10
10.1229648111
 20
10.0315077696
 30
0.0
 10
10.1257288545
 20
10.0310607621
 30
0.0
 10
10.1274562982
 20
10.0307813472
 30
0.0
 10
10.1288384441
 20
10.030557896
 30
0.0
 10
10.1298745308
 20
10.0303900864
 30
0.0
 10
10.1307395992
 20
10.0302509488
 30
0.0
 10
10.1313418839
 20
10.0301521714
 30
0.0
 10
10.1316911417
 20
10.0300978837
 30
0.0
 10
10.1319387321
 20
10.0300510929
 30
0.0
 10
10.1322411869
 20
10.030027524
 30
0.0
 10
10.1326253226
 20
10.0299879989
 30
0.0
 10
10.1333064765
 20
10.0299226038
 30
0.0
 10
10.1342748919
 20
10.0298272092
 30
0.0
 10
10.1354389857
 20
10.0297135801
 30
0.0
 10
10.1369904139
 20
10.0295617798
 30
0.0
 10
10.1389299377
 20
10.0293721304
 30
0.0
 10
10.1420330424
 20
10.0290686349
 30
0.0
 10
10.1459119691
 20
10.0286892849
 30
0.0
 10
10.1505666615
 20
10.0282340565
 30
0.0
 10
10.1552213592
 20
10.0277788304
 30
0.0
 10
10.1614276209
 20
10.0271718615
 30
0.0
 10
10.1660823176
 20
10.026716635
 30
0.0
 10
10.1691854486
 20
10.0264131506
 30
0.0
  0
ENDSEC
  0
SECTION
  2
OBJECTS
  0
DICTIONARY
  5
C
100
AcDbDictionary
280
0
281
1
  3
ACAD_GROUP
350
D
  3
ACAD_MLINESTYLE
350
17
  3
ACAD_LAYOUT
350
1A
  3
ACAD_PLOTSETTINGS
350
19
  3
ACAD_PLOTSTYLENAME
350
E
  3
ACAD_IMAGE_DICT
350
       40F
  3
ACAD_IMAGE_VARS
350
       410
  3
ACAD_TABLESTYLE
350
       411
  0
IMAGEDEF_REACTOR
  5
40E
100
AcDbRasterImageDefReactor
 90
2
330
28F
  0
DICTIONARY
  5
D
102
{ACAD_REACTORS
330
C
102
}
100
AcDbDictionary
280
0
281
1
  0
ACDBDICTIONARYWDFLT
  5
E
102
{ACAD_REACTORS
330
C
102
}
100
AcDbDictionary
281
1
  3
Normal
350
F
100
AcDbDictionaryWithDefault
340
F
  0
DICTIONARY
  5
40F
330
C
100
AcDbDictionary
281
1
  3
XBL_assy_2_img_1
350
       414
  0
RASTERVARIABLES
  5
410
330
C
100
AcDbRasterVariables
 90
0
 70
0
 71
1
 72
5
  0
DICTIONARY
  5
17
102
{ACAD_REACTORS
330
C
102
}
100
AcDbDictionary
280
0
281
1
  3
Standard
350
18
  0
DICTIONARY
  5
411
330
C
100
AcDbDictionary
281
1
  3
Standard
350
       415
  3
Standard1
350
       416
  0
DICTIONARY
  5
19
102
{ACAD_REACTORS
330
C
102
}
100
AcDbDictionary
281
1
  0
DICTIONARY
  5
1A
102
{ACAD_REACTORS
330
C
102
}
100
AcDbDictionary
281
1
  3
Model
350
412
  3
Layout1
350
413
  0
ACDBPLACEHOLDER
  5
F
102
{ACAD_REACTORS
330
E
102
}
  0
MLINESTYLE
  5
18
102
{ACAD_REACTORS
330
17
102
}
100
AcDbMlineStyle
  2
STANDARD
 70
0
  3

 62
256
 51
90.0
 52
90.0
 71
2
 49
0.5
 62
256
  6
BYLAYER
 49
-0.5
 62
256
  6
BYLAYER
  0
LAYOUT
  5
412
102
{ACAD_REACTORS
330
1A
102
}
100
AcDbPlotSettings
  1

  2
none_device
  4
ANSI_C_(22.00_x_17.00_Inches)
  6

 40
0.0
 41
0.0
 42
0.0
 43
0.0
 44
558.8
 45
431.8
 46
0.0
 47
0.0
 48
0.0
 49
0.0
140
0.0
141
0.0
142
1.0
143
1.0
 70
1024
 72
0
 73
0
 74
0
  7

 75
0
147
1.0
148
0.0
149
0.0
100
AcDbLayout
  1
Model
 70
0
 71
0
 10
0.0
 20
0.0
 11
22.0
 21
17.0
 12
0.0
 22
0.0
 32
0.0
 14
0.0
 24
0.0
 34
0.0
 15
0.0
 25
0.0
 35
0.0
146
0.0
 13
0.0
 23
0.0
 33
0.0
 16
1.0
 26
0.0
 36
0.0
 17
0.0
 27
1.0
 37
0.0
 76
0
330
20C
345
0
346
0
  0
LAYOUT
  5
413
102
{ACAD_REACTORS
330
1A
102
}
100
AcDbPlotSettings
  1

  2
none_device
  4
ANSI_C_(22.00_x_17.00_Inches)
  6

 40
0.0
 41
0.0
 42
0.0
 43
0.0
 44
558.8
 45
431.8
 46
0.0
 47
0.0
 48
0.0
 49
0.0
140
0.0
141
0.0
142
1.0
143
1.0
 70
0
 72
0
 73
0
 74
0
  7

 75
0
147
1.0
148
0.0
149
0.0
100
AcDbLayout
  1
Layout1
 70
0
 71
1
 10
0.0
 20
0.0
 11
22.0
 21
17.0
 12
0.0
 22
0.0
 32
0.0
 14
0.0
 24
0.0
 34
0.0
 15
0.0
 25
0.0
 35
0.0
146
0.0
 13
0.0
 23
0.0
 33
0.0
 16
1.0
 26
0.0
 36
0.0
 17
0.0
 27
1.0
 37
0.0
 76
0
330
20D
345
0
346
0
  0
IMAGEDEF
  5
414
102
{ACAD_REACTORS
330
40F
330
40E
102
}
100
AcDbRasterImageDef
 90
0
  1
XBL_assy_2_img_1.png
 10
369.0
 20
92.0
 11
0.0066666667
 21
0.0066666667
280
1
281
0
  0
TABLESTYLE
  5
415
102
{ACAD_REACTORS
330
411
330
292
330
293
102
}
330
411
100
AcDbTableStyle
  3
Standard
 70
0
 71
0
 40
0.06
 41
0.06
280
1
281
1
  7
Standard
140
0.18
170
1
 62
0
 63
7
283
0
  7
Standard
140
0.18
170
1
 62
0
 63
7
283
0
  7
Standard
140
0.18
170
1
 62
0
 63
7
283
0
  0
TABLESTYLE
  5
416
102
{ACAD_REACTORS
330
411
330
291
102
}
330
411
100
AcDbTableStyle
  3
Standard1
 70
1
 71
0
 40
0.06
 41
0.06
280
1
281
1
  7
Standard
140
0.18
170
1
 62
0
 63
7
283
0
  7
Standard
140
0.18
170
1
 62
0
 63
7
283
0
  7
Standard
140
0.18
170
1
 62
0
 63
7
283
0
  0
ENDSEC
  0
EOF
