999
DXF file: XBK_assy_2.dxf
999
Pro/ENGINEER 2014200 by Parametric Technology Corporation
  0
SECTION
  2
HEADER
  9
$ACADVER
  1
AC1021
  9
$DWGCODEPAGE
  3
ANSI_1252
  9
$EXTMAX
 10
22.0
 20
17.0
 30
0.0
  9
$EXTMIN
 10
0.0
 20
0.0
 30
0.0
  9
$LIMMIN
 10
0.0
 20
0.0
  9
$LIMMAX
 10
22.0
 20
17.0
  9
$VIEWCTR
 10
11.0
 20
8.5
  9
$VIEWSIZE
 40
17.0
  9
$CLAYER
  8
0
  9
$LTSCALE
 40
1.21
  9
$CELTYPE
  6
BYLAYER
  9
$DIMSCALE
 40
1.0
  9
$DIMASZ
 40
0.1875
  9
$DIMEXO
 40
0.0625
  9
$DIMDLI
 40
0.836
  9
$DIMEXE
 40
0.125
  9
$DIMCEN
 40
0.198
  9
$DIMLFAC
 40
1.0
  9
$DIMBLK
  1
_FILLED
  9
$DIMTXT
 40
0.1
  9
$DIMTOL
 70
0
  9
$DIMLIM
 70
0
  9
$DIMTFAC
 40
1.0
  9
$DIMGAP
 40
0.09
  9
$DIMDSEP
 70
46
  9
$AUNITS
 70
0
  9
$PDMODE
 70
3
  9
$PDSIZE
 40
0.3125
  9
$HANDSEED
  5
41B
  9
$TILEMODE
 70
1
  9
$MEASUREMENT
 70
0
  9
$INSUNITS
 70
1
  0
ENDSEC
  0
SECTION
  2
CLASSES
  0
CLASS
  1
ACDBDICTIONARYWDFLT
  2
AcDbDictionaryWithDefault
  3
AutoCAD 2000
 90
0
 91
1
280
0
281
0
  0
CLASS
  1
ACDBPLACEHOLDER
  2
AcDbPlaceHolder
  3
AutoCAD 2000
 90
0
 91
1
280
0
281
0
  0
CLASS
  1
LAYOUT
  2
AcDbLayout
  3
AutoCAD 2000
 90
0
 91
0
280
0
281
0
  0
CLASS
  1
RASTERVARIABLES
  2
AcDbRasterVariables
  3
ISM
 90
0
 91
1
280
0
281
0
  0
CLASS
  1
IMAGEDEF
  2
AcDbRasterImageDef
  3
ISM
 90
0
 91
1
280
0
281
0
  0
CLASS
  1
IMAGEDEF_REACTOR
  2
AcDbRasterImageDefReactor
  3
ISM
 90
0
 91
1
280
0
281
0
  0
CLASS
  1
IMAGE
  2
AcDbRasterImage
  3
ISM
 90
127
 91
1
280
0
281
1
  0
CLASS
  1
TABLESTYLE
  2
AcDbTableStyle
  3
ObjectDBX Classes
 90
2047
 91
1
280
0
281
0
  0
CLASS
  1
ACAD_TABLE
  2
AcDbTable
  3
ObjectDBX Classes
 90
1025
 91
3
280
0
281
1
  0
ENDSEC
  0
SECTION
  2
TABLES
  0
TABLE
  2
VPORT
  5
8
100
AcDbSymbolTable
 70
2
  0
VPORT
  5
1F4
100
AcDbSymbolTableRecord
100
AcDbViewportTableRecord
  2
*ACTIVE
 70
0
 10
0.0
 20
0.0
 11
1.0
 21
1.0
 12
11.0
 22
8.5
 13
0.0
 23
0.0
 14
1.0
 24
1.0
 15
0.0
 25
0.0
 16
0.0
 26
0.0
 36
1.0
 17
0.0
 27
0.0
 37
0.0
 40
17.0
 41
1.2941176471
 42
50.0
 43
0.0
 44
0.0
 50
0.0
 51
0.0
 71
0
 72
100
 73
1
 74
1
 75
0
 76
0
 77
0
 78
0
  0
ENDTAB
  0
TABLE
  2
LTYPE
  5
5
100
AcDbSymbolTable
 70
6
  0
LTYPE
  5
14
100
AcDbSymbolTableRecord
100
AcDbLinetypeTableRecord
  2
BYBLOCK
 70
0
  3

 72
65
 73
0
 40
0.0
  0
LTYPE
  5
15
100
AcDbSymbolTableRecord
100
AcDbLinetypeTableRecord
  2
BYLAYER
 70
0
  3

 72
65
 73
0
 40
0.0
  0
LTYPE
  5
16
100
AcDbSymbolTableRecord
100
AcDbLinetypeTableRecord
  2
CONTINUOUS
 70
64
  3
Solid line
 72
65
 73
0
 40
0.0
  0
LTYPE
  5
1F5
100
AcDbSymbolTableRecord
100
AcDbLinetypeTableRecord
  2
CENTER
 70
64
  3
____ _ ____ _ ____ _ ____ _ ____ _ ____ _ ____
 72
65
 73
4
 40
0.6
 49
0.375
 74
0
 49
-0.075
 74
0
 49
0.075
 74
0
 49
-0.075
 74
0
  0
LTYPE
  5
1F6
100
AcDbSymbolTableRecord
100
AcDbLinetypeTableRecord
  2
HIDDEN
 70
64
  3
- - - - - - - - - - - - - - - - - - - -
 72
65
 73
2
 40
0.2
 49
0.1
 74
0
 49
-0.1
 74
0
  0
LTYPE
  5
1F7
100
AcDbSymbolTableRecord
100
AcDbLinetypeTableRecord
  2
PHANTOM
 70
64
  3
_____ _ _ _____ _ _ _____ _ _ _____
 72
65
 73
6
 40
0.8
 49
0.45
 74
0
 49
-0.05
 74
0
 49
0.1
 74
0
 49
-0.05
 74
0
 49
0.1
 74
0
 49
-0.05
 74
0
  0
LTYPE
  5
1F8
100
AcDbSymbolTableRecord
100
AcDbLinetypeTableRecord
  2
DOT
 70
64
  3
. . . . . . . . . . . . . . . . . . . .
 72
65
 73
2
 40
0.2
 49
0.1
 74
0
 49
-0.1
 74
0
  0
LTYPE
  5
1F9
100
AcDbSymbolTableRecord
100
AcDbLinetypeTableRecord
  2
DASHED
 70
64
  3
- - - - - - - - - - - - - - - - - - - -
 72
65
 73
2
 40
0.2
 49
0.1
 74
0
 49
-0.1
 74
0
  0
ENDTAB
  0
TABLE
  2
LAYER
  5
2
100
AcDbSymbolTable
 70
36
  0
LAYER
  5
10
100
AcDbSymbolTableRecord
100
AcDbLayerTableRecord
  2
0
 70
0
 62
7
  6
CONTINUOUS
370
-3
390
F
  0
LAYER
  5
1FA
100
AcDbSymbolTableRecord
100
AcDbLayerTableRecord
  2
DEFAULT_1
 70
0
 62
7
  6
CENTER
370
-3
390
F
  0
LAYER
  5
1FB
100
AcDbSymbolTableRecord
100
AcDbLayerTableRecord
  2
DEFAULT_2
 70
0
 62
8
  6
HIDDEN
370
-3
390
F
  0
LAYER
  5
1FC
100
AcDbSymbolTableRecord
100
AcDbLayerTableRecord
  2
DEFAULT_3
 70
0
 62
7
  6
PHANTOM
370
-3
390
F
  0
LAYER
  5
1FD
100
AcDbSymbolTableRecord
100
AcDbLayerTableRecord
  2
01___PRT_ALL_DTM_PLN
 70
0
 62
7
  6
CONTINUOUS
370
-3
390
F
  0
LAYER
  5
1FE
100
AcDbSymbolTableRecord
100
AcDbLayerTableRecord
  2
01___PRT_DEF_DTM_PLN
 70
0
 62
7
  6
CONTINUOUS
370
-3
390
F
  0
LAYER
  5
1FF
100
AcDbSymbolTableRecord
100
AcDbLayerTableRecord
  2
02___PRT_ALL_AXES
 70
0
 62
7
  6
CONTINUOUS
370
-3
390
F
  0
LAYER
  5
200
100
AcDbSymbolTableRecord
100
AcDbLayerTableRecord
  2
03___PRT_ALL_CURVES
 70
0
 62
7
  6
CONTINUOUS
370
-3
390
F
  0
LAYER
  5
201
100
AcDbSymbolTableRecord
100
AcDbLayerTableRecord
  2
04___PRT_ALL_DTM_PNT
 70
0
 62
7
  6
CONTINUOUS
370
-3
390
F
  0
LAYER
  5
202
100
AcDbSymbolTableRecord
100
AcDbLayerTableRecord
  2
05___PRT_ALL_DTM_CSYS
 70
0
 62
7
  6
CONTINUOUS
370
-3
390
F
  0
LAYER
  5
203
100
AcDbSymbolTableRecord
100
AcDbLayerTableRecord
  2
05___PRT_DEF_DTM_CSYS
 70
0
 62
7
  6
CONTINUOUS
370
-3
390
F
  0
LAYER
  5
204
100
AcDbSymbolTableRecord
100
AcDbLayerTableRecord
  2
06___PRT_ALL_SURFS
 70
0
 62
7
  6
CONTINUOUS
370
-3
390
F
  0
LAYER
  5
205
100
AcDbSymbolTableRecord
100
AcDbLayerTableRecord
  2
DATUM_PLANES
 70
0
 62
7
  6
CONTINUOUS
370
-3
390
F
  0
LAYER
  5
206
100
AcDbSymbolTableRecord
100
AcDbLayerTableRecord
  2
PORT_AREAS
 70
0
 62
7
  6
CONTINUOUS
370
-3
390
F
  0
LAYER
  5
207
100
AcDbSymbolTableRecord
100
AcDbLayerTableRecord
  2
SUNNBOMCOSMETIC
 70
0
 62
7
  6
CONTINUOUS
370
-3
390
F
  0
LAYER
  5
208
100
AcDbSymbolTableRecord
100
AcDbLayerTableRecord
  2
SUNNBOMSTAMPING
 70
0
 62
7
  6
CONTINUOUS
370
-3
390
F
  0
LAYER
  5
209
100
AcDbSymbolTableRecord
100
AcDbLayerTableRecord
  2
THREADS
 70
0
 62
7
  6
CONTINUOUS
370
-3
390
F
  0
ENDTAB
  0
TABLE
  2
STYLE
  5
3
100
AcDbSymbolTable
 70
1
  0
STYLE
  5
11
100
AcDbSymbolTableRecord
100
AcDbTextStyleTableRecord
  2
STANDARD
 70
0
 40
0.0
 41
0.8
 50
0.0
 71
0
 42
0.2
  3
txt
  4

  0
STYLE
  5
20A
100
AcDbSymbolTableRecord
100
AcDbTextStyleTableRecord
  2
TEXTSTYLE_1
 70
0
 40
0.0
 41
0.8
 50
0.0
 71
0
 42
0.2
  3
gdt
  4

  0
ENDTAB
  0
TABLE
  2
VIEW
  5
6
100
AcDbSymbolTable
 70
0
  0
ENDTAB
  0
TABLE
  2
UCS
  5
7
100
AcDbSymbolTable
 70
0
  0
ENDTAB
  0
TABLE
  2
APPID
  5
9
100
AcDbSymbolTable
 70
1
  0
APPID
  5
20B
100
AcDbSymbolTableRecord
100
AcDbRegAppTableRecord
  2
ACAD
 70
0
  0
ENDTAB
  0
TABLE
  2
BLOCK_RECORD
  5
1
100
AcDbSymbolTable
 70
0
  0
BLOCK_RECORD
  5
20C
100
AcDbSymbolTableRecord
100
AcDbBlockTableRecord
  2
*Model_Space
  0
BLOCK_RECORD
  5
20D
100
AcDbSymbolTableRecord
100
AcDbBlockTableRecord
  2
*Paper_Space
  0
BLOCK_RECORD
  5
20E
100
AcDbSymbolTableRecord
100
AcDbBlockTableRecord
  2
SUN_FIRST_THIRD_ANGLE_BL0
  0
BLOCK_RECORD
  5
20F
100
AcDbSymbolTableRecord
100
AcDbBlockTableRecord
  2
*T1
  0
BLOCK_RECORD
  5
210
100
AcDbSymbolTableRecord
100
AcDbBlockTableRecord
  2
*T2
  0
BLOCK_RECORD
  5
211
100
AcDbSymbolTableRecord
100
AcDbBlockTableRecord
  2
*T3
  0
ENDTAB
  0
TABLE
  2
DIMSTYLE
  5
A
100
AcDbSymbolTable
 70
1
100
AcDbDimStyleTable
 71
0
  0
DIMSTYLE
105
212
100
AcDbSymbolTableRecord
100
AcDbDimStyleTableRecord
  2
STANDARD
 70
0
  3

  4

 40
1.0
 41
0.1875
 42
0.0625
 43
0.38
 44
0.125
 45
0.0
 46
0.0
 47
0.001
 48
0.001
140
0.1
141
0.09
142
0.0
143
25.4
144
1.0
145
0.0
146
1.0
147
0.09
 71
0.0
 72
0.0
 73
1
 74
1
 75
0
 76
0
 77
0
 78
4
170
0
171
2
172
0
173
0
174
0
175
0
176
0
177
0
178
0
270
2
271
3
272
3
273
2
274
2
275
0
280
0
281
0
282
0
283
1
284
4
285
0
286
0
287
3
288
0
340
11
278
46
  0
ENDTAB
  0
ENDSEC
  0
SECTION
  2
BLOCKS
  0
BLOCK
  5
20
100
AcDbEntity
  8
0
100
AcDbBlockBegin
  2
*Model_Space
 70
0
 10
0.0
 20
0.0
 30
0.0
  3
*Model_Space
  1

  0
ENDBLK
  5
21
100
AcDbEntity
  8
0
100
AcDbBlockEnd
  0
BLOCK
  5
1C
100
AcDbEntity
  8
0
100
AcDbBlockBegin
  2
*Paper_Space
 70
0
 10
0.0
 20
0.0
 30
0.0
  3
*Paper_Space
  1

  0
ENDBLK
  5
1D
100
AcDbEntity
  8
0
100
AcDbBlockEnd
  0
BLOCK
  5
213
100
AcDbEntity
  8
0
100
AcDbBlockBegin
 62
2
  6
CONTINUOUS
  2
SUN_FIRST_THIRD_ANGLE_BL0
 70
64
 10
20.4816717061
 20
1.2289683772
  3
SUN_FIRST_THIRD_ANGLE_BL0
  1

  0
TEXT
  5
214
100
AcDbEntity
  8
0
100
AcDbText
 62
2
  6
CONTINUOUS
 10
19.4750896608
 20
1.4136269581
  7
STANDARD
 40
0.08
  1
FIRST ANGLE
 41
0.8
 72
0
100
AcDbText
  0
TEXT
  5
215
100
AcDbEntity
  8
0
100
AcDbText
 62
2
  6
CONTINUOUS
 10
20.7842537513
 20
1.4047600029
  7
STANDARD
 40
0.08
  1
THIRD ANGLE
 41
0.8
 72
0
100
AcDbText
  0
LINE
  5
216
100
AcDbEntity
  8
0
100
AcDbLine
 62
7
  6
CONTINUOUS
 10
19.4767170086
 20
1.1727031207
 11
19.6334271527
 21
1.1717972817
  0
LINE
  5
217
100
AcDbEntity
  8
0
100
AcDbLine
 62
7
  6
CONTINUOUS
 10
19.6596964832
 20
1.1717972817
 11
19.6950230232
 21
1.171593082
  0
LINE
  5
218
100
AcDbEntity
  8
0
100
AcDbLine
 62
7
  6
CONTINUOUS
 10
19.7194818561
 20
1.1708914427
 11
19.8852396156
 21
1.1699333054
  0
LINE
  5
219
100
AcDbEntity
  8
0
100
AcDbLine
 62
7
  6
CONTINUOUS
 10
19.4758111696
 20
1.2723454088
 11
19.88525039
 21
1.3511534004
  0
LINE
  5
21A
100
AcDbEntity
  8
0
100
AcDbLine
 62
7
  6
CONTINUOUS
 10
19.88525039
 20
1.3511534004
 11
19.8831348489
 21
0.9851647912
  0
LINE
  5
21B
100
AcDbEntity
  8
0
100
AcDbLine
 62
7
  6
CONTINUOUS
 10
19.8831348489
 20
0.9851647912
 11
19.4767170086
 21
1.0658141206
  0
LINE
  5
21C
100
AcDbEntity
  8
0
100
AcDbLine
 62
7
  6
CONTINUOUS
 10
19.4767170086
 20
1.0658141206
 11
19.4779056764
 21
1.2714536432
  0
CIRCLE
  5
21D
100
AcDbEntity
  8
0
100
AcDbCircle
 62
7
  6
CONTINUOUS
 10
20.2068232291
 20
1.1717972817
 40
0.175742101
  0
CIRCLE
  5
21E
100
AcDbEntity
  8
0
100
AcDbCircle
 62
7
  6
CONTINUOUS
 10
20.2068232291
 20
1.1717972817
 40
0.1005522074
  0
LINE
  5
21F
100
AcDbEntity
  8
0
100
AcDbLine
 62
7
  6
CONTINUOUS
 10
20.2077290681
 20
1.3756110529
 11
20.2071171714
 21
1.2379342989
  0
LINE
  5
220
100
AcDbEntity
  8
0
100
AcDbLine
 62
7
  6
CONTINUOUS
 10
20.2077290681
 20
1.2016899681
 11
20.2074674401
 21
1.1428236749
  0
LINE
  5
221
100
AcDbEntity
  8
0
100
AcDbLine
 62
7
  6
CONTINUOUS
 10
20.208634907
 20
1.101141841
 11
20.2080230104
 21
0.963465087
  0
LINE
  5
222
100
AcDbEntity
  8
0
100
AcDbLine
 62
7
  6
CONTINUOUS
 10
20.0066328138
 20
1.1745147986
 11
20.1443095678
 21
1.1739029019
  0
LINE
  5
223
100
AcDbEntity
  8
0
100
AcDbLine
 62
7
  6
CONTINUOUS
 10
20.1832714155
 20
1.1727031207
 11
20.238153505
 21
1.172335442
  0
LINE
  5
224
100
AcDbEntity
  8
0
100
AcDbLine
 62
7
  6
CONTINUOUS
 10
20.2756669918
 20
1.1717972817
 11
20.407916871
 21
1.1712095044
  0
CIRCLE
  5
225
100
AcDbEntity
  8
0
100
AcDbCircle
 62
7
  6
CONTINUOUS
 10
20.7509457401
 20
1.1693297793
 40
0.1722024983
  0
CIRCLE
  5
226
100
AcDbEntity
  8
0
100
AcDbCircle
 62
7
  6
CONTINUOUS
 10
20.7509457401
 20
1.1693297793
 40
0.0985164967
  0
LINE
  5
227
100
AcDbEntity
  8
0
100
AcDbLine
 62
7
  6
CONTINUOUS
 10
20.7169767782
 20
1.170462078
 11
20.7825395137
 21
1.1682766535
  0
LINE
  5
228
100
AcDbEntity
  8
0
100
AcDbLine
 62
7
  6
CONTINUOUS
 10
20.8177513651
 20
1.1693297793
 11
20.947965719
 21
1.1693297793
  0
LINE
  5
229
100
AcDbEntity
  8
0
100
AcDbLine
 62
7
  6
CONTINUOUS
 10
20.6875370113
 20
1.170462078
 11
20.5573226574
 21
1.170462078
  0
LINE
  5
22A
100
AcDbEntity
  8
0
100
AcDbLine
 62
7
  6
CONTINUOUS
 10
20.7486811426
 20
1.1987695462
 11
20.7486811426
 21
1.1432869085
  0
LINE
  5
22B
100
AcDbEntity
  8
0
100
AcDbLine
 62
7
  6
CONTINUOUS
 10
20.7498134414
 20
1.1059210505
 11
20.7498134414
 21
0.9757066966
  0
LINE
  5
22C
100
AcDbEntity
  8
0
100
AcDbLine
 62
7
  6
CONTINUOUS
 10
20.7486811426
 20
1.2338708068
 11
20.7486811426
 21
1.3640851607
  0
LINE
  5
22D
100
AcDbEntity
  8
0
100
AcDbLine
 62
7
  6
CONTINUOUS
 10
21.0702539817
 20
1.2701043662
 11
21.4790138229
 21
1.3448360823
  0
LINE
  5
22E
100
AcDbEntity
  8
0
100
AcDbLine
 62
7
  6
CONTINUOUS
 10
21.4790138229
 20
1.3448360823
 11
21.4790138229
 21
0.9779712941
  0
LINE
  5
22F
100
AcDbEntity
  8
0
100
AcDbLine
 62
7
  6
CONTINUOUS
 10
21.4790138229
 20
0.9779712941
 11
21.069121683
 21
1.0617614
  0
LINE
  5
230
100
AcDbEntity
  8
0
100
AcDbLine
 62
7
  6
CONTINUOUS
 10
21.0702539817
 20
1.2701043662
 11
21.069121683
 21
1.0617614
  0
LINE
  5
231
100
AcDbEntity
  8
0
100
AcDbLine
 62
7
  6
CONTINUOUS
 10
21.4790138229
 20
1.1693297793
 11
21.3159628059
 21
1.1693297793
  0
LINE
  5
232
100
AcDbEntity
  8
0
100
AcDbLine
 62
7
  6
CONTINUOUS
 10
21.2876553377
 20
1.1693297793
 11
21.2502894796
 21
1.1693297793
  0
LINE
  5
233
100
AcDbEntity
  8
0
100
AcDbLine
 62
7
  6
CONTINUOUS
 10
21.2208497126
 20
1.1659328831
 11
21.0713862804
 21
1.1659328831
  0
LINE
  5
234
100
AcDbEntity
  8
0
100
AcDbLine
 62
7
  6
CONTINUOUS
 10
20.4796138713
 20
1.5284908897
 11
20.4766766948
 21
0.9294458646
  0
ENDBLK
  5
235
100
AcDbEntity
  8
0
  6
BYBLOCK
 62
0
100
AcDbBlockEnd
  0
BLOCK
  5
236
100
AcDbEntity
  8
0
100
AcDbBlockBegin
  2
*T1
 70
1
 10
0.0
 20
0.0
  3
*T1
  1

  0
LINE
  5
237
100
AcDbEntity
  8
0
100
AcDbLine
 62
2
  6
CONTINUOUS
 10
9.275
 20
0.0
 11
-0.0
 21
0.0
  0
LINE
  5
238
100
AcDbEntity
  8
0
100
AcDbLine
 62
2
  6
CONTINUOUS
 10
9.275
 20
0.0
 11
9.275
 21
1.25
  0
LINE
  5
239
100
AcDbEntity
  8
0
100
AcDbLine
 62
2
  6
CONTINUOUS
 10
9.275
 20
0.625
 11
-0.0
 21
0.625
  0
LINE
  5
23A
100
AcDbEntity
  8
0
100
AcDbLine
 62
2
  6
CONTINUOUS
 10
9.275
 20
1.25
 11
-0.0
 21
1.25
  0
LINE
  5
23B
100
AcDbEntity
  8
0
100
AcDbLine
 62
2
  6
CONTINUOUS
 10
6.8
 20
0.0
 11
6.8
 21
1.25
  0
LINE
  5
23C
100
AcDbEntity
  8
0
100
AcDbLine
 62
2
  6
CONTINUOUS
 10
6.4
 20
0.0
 11
6.4
 21
0.625
  0
LINE
  5
23D
100
AcDbEntity
  8
0
100
AcDbLine
 62
2
  6
CONTINUOUS
 10
5.9
 20
0.0
 11
5.9
 21
0.625
  0
LINE
  5
23E
100
AcDbEntity
  8
0
100
AcDbLine
 62
2
  6
CONTINUOUS
 10
5.2
 20
0.0
 11
5.2
 21
0.625
  0
LINE
  5
23F
100
AcDbEntity
  8
0
100
AcDbLine
 62
2
  6
CONTINUOUS
 10
4.1
 20
0.0
 11
4.1
 21
1.25
  0
LINE
  5
240
100
AcDbEntity
  8
0
100
AcDbLine
 62
2
  6
CONTINUOUS
 10
-0.0
 20
0.0
 11
-0.0
 21
1.25
  0
MTEXT
  5
241
100
AcDbEntity
  8
0
100
AcDbMText
 62
2
  6
CONTINUOUS
  7
STANDARD
 71
2
 72
1
 10
6.6
 20
0.325
 30
0.0
 11
1.0
 21
0.0
 31
0.0
 44
0.9
  1
2
 40
0.125
 41
0.2
  0
MTEXT
  5
242
100
AcDbEntity
  8
0
100
AcDbMText
 62
2
  6
CONTINUOUS
  7
STANDARD
 71
2
 72
1
 10
6.15
 20
0.325
 30
0.0
 11
1.0
 21
0.0
 31
0.0
 44
0.9
  1
C
 40
0.125
 41
0.2
  0
MTEXT
  5
243
100
AcDbEntity
  8
0
100
AcDbMText
 62
2
  6
CONTINUOUS
  7
STANDARD
 71
2
 72
1
 10
5.55
 20
0.325
 30
0.0
 11
1.0
 21
0.0
 31
0.0
 44
0.9
  1
1.000
 40
0.125
 41
1.0
  0
MTEXT
  5
244
100
AcDbEntity
  8
0
100
AcDbMText
 62
2
  6
CONTINUOUS
  7
STANDARD
 71
2
 72
1
 10
4.65
 20
0.325
 30
0.0
 11
1.0
 21
0.0
 31
0.0
 44
0.9
  1
Oct-25-21
 40
0.125
 41
1.8
  0
MTEXT
  5
245
100
AcDbEntity
  8
0
100
AcDbMText
 62
2
  6
CONTINUOUS
  7
STANDARD
 71
2
 72
1
 10
2.05
 20
0.4625
 30
0.0
 11
1.0
 21
0.0
 31
0.0
 44
0.9
  1
T-2A Line mount\PCross port with shuttle on port 3s
 40
0.125
 41
6.8
  0
MTEXT
  5
246
100
AcDbEntity
  8
0
100
AcDbMText
 62
2
  6
CONTINUOUS
  7
STANDARD
 71
1
 72
1
 10
6.45
 20
0.5625
 30
0.0
 11
1.0
 21
0.0
 31
0.0
 44
0.9
  1
SHEET
 40
0.06
 41
0.48
  0
MTEXT
  5
247
100
AcDbEntity
  8
0
100
AcDbMText
 62
2
  6
CONTINUOUS
  7
STANDARD
 71
1
 72
1
 10
5.95
 20
0.5625
 30
0.0
 11
1.0
 21
0.0
 31
0.0
 44
0.9
  1
DWG SIZE
 40
0.06
 41
0.768
  0
MTEXT
  5
248
100
AcDbEntity
  8
0
100
AcDbMText
 62
2
  6
CONTINUOUS
  7
STANDARD
 71
1
 72
1
 10
5.25
 20
0.5625
 30
0.0
 11
1.0
 21
0.0
 31
0.0
 44
0.9
  1
SCALE
 40
0.06
 41
0.48
  0
MTEXT
  5
249
100
AcDbEntity
  8
0
100
AcDbMText
 62
2
  6
CONTINUOUS
  7
STANDARD
 71
1
 72
1
 10
4.15
 20
0.5625
 30
0.0
 11
1.0
 21
0.0
 31
0.0
 44
0.9
  1
DATE
 40
0.06
 41
0.384
  0
MTEXT
  5
24A
100
AcDbEntity
  8
0
100
AcDbMText
 62
2
  6
CONTINUOUS
  7
STANDARD
 71
1
 72
1
 10
0.05
 20
0.5625
 30
0.0
 11
1.0
 21
0.0
 31
0.0
 44
0.9
  1
DESCRIPTION
 40
0.06
 41
1.056
  0
MTEXT
  5
24B
100
AcDbEntity
  8
0
100
AcDbMText
 62
2
  6
CONTINUOUS
  7
STANDARD
 71
2
 72
1
 10
5.45
 20
1.0375
 30
0.0
 11
1.0
 21
0.0
 31
0.0
 44
0.9
  1
ALL DIMENSIONS IN INCH\PVIEWS ARE THIRD ANGLE
 40
0.12
 41
4.224
  0
MTEXT
  5
24C
100
AcDbEntity
  8
0
100
AcDbMText
 62
2
  6
CONTINUOUS
  7
STANDARD
 71
2
 72
1
 10
2.05
 20
0.95
 30
0.0
 11
1.0
 21
0.0
 31
0.0
 44
0.9
  1
XBK
 40
0.125
 41
0.6
  0
MTEXT
  5
24D
100
AcDbEntity
  8
0
100
AcDbMText
 62
2
  6
CONTINUOUS
  7
STANDARD
 71
1
 72
1
 10
0.05
 20
1.1875
 30
0.0
 11
1.0
 21
0.0
 31
0.0
 44
0.9
  1
MODEL
 40
0.06
 41
0.48
  0
ENDBLK
  5
24E
100
AcDbEntity
  8
0
  6
BYBLOCK
 62
0
100
AcDbBlockEnd
  0
BLOCK
  5
24F
100
AcDbEntity
  8
0
100
AcDbBlockBegin
  2
*T2
 70
1
 10
0.0
 20
0.0
  3
*T2
  1

  0
LINE
  5
250
100
AcDbEntity
  8
0
100
AcDbLine
 62
2
  6
CONTINUOUS
 10
0.0
 20
0.0
 11
9.055
 21
0.0
  0
LINE
  5
251
100
AcDbEntity
  8
0
100
AcDbLine
 62
2
  6
CONTINUOUS
 10
0.0
 20
0.0
 11
0.0
 21
-2.844
  0
LINE
  5
252
100
AcDbEntity
  8
0
100
AcDbLine
 62
2
  6
CONTINUOUS
 10
0.0
 20
-0.344
 11
9.055
 21
-0.344
  0
LINE
  5
253
100
AcDbEntity
  8
0
100
AcDbLine
 62
2
  6
CONTINUOUS
 10
0.0
 20
-0.594
 11
9.055
 21
-0.594
  0
LINE
  5
254
100
AcDbEntity
  8
0
100
AcDbLine
 62
2
  6
CONTINUOUS
 10
0.0
 20
-0.844
 11
9.055
 21
-0.844
  0
LINE
  5
255
100
AcDbEntity
  8
0
100
AcDbLine
 62
2
  6
CONTINUOUS
 10
0.0
 20
-1.094
 11
9.055
 21
-1.094
  0
LINE
  5
256
100
AcDbEntity
  8
0
100
AcDbLine
 62
2
  6
CONTINUOUS
 10
0.0
 20
-1.344
 11
9.055
 21
-1.344
  0
LINE
  5
257
100
AcDbEntity
  8
0
100
AcDbLine
 62
2
  6
CONTINUOUS
 10
0.0
 20
-1.594
 11
9.055
 21
-1.594
  0
LINE
  5
258
100
AcDbEntity
  8
0
100
AcDbLine
 62
2
  6
CONTINUOUS
 10
0.0
 20
-1.844
 11
9.055
 21
-1.844
  0
LINE
  5
259
100
AcDbEntity
  8
0
100
AcDbLine
 62
2
  6
CONTINUOUS
 10
0.0
 20
-2.094
 11
9.055
 21
-2.094
  0
LINE
  5
25A
100
AcDbEntity
  8
0
100
AcDbLine
 62
2
  6
CONTINUOUS
 10
0.0
 20
-2.344
 11
9.055
 21
-2.344
  0
LINE
  5
25B
100
AcDbEntity
  8
0
100
AcDbLine
 62
2
  6
CONTINUOUS
 10
0.0
 20
-2.594
 11
9.055
 21
-2.594
  0
LINE
  5
25C
100
AcDbEntity
  8
0
100
AcDbLine
 62
2
  6
CONTINUOUS
 10
0.0
 20
-2.844
 11
9.055
 21
-2.844
  0
LINE
  5
25D
100
AcDbEntity
  8
0
100
AcDbLine
 62
2
  6
CONTINUOUS
 10
3.055
 20
0.0
 11
3.055
 21
-2.844
  0
LINE
  5
25E
100
AcDbEntity
  8
0
100
AcDbLine
 62
2
  6
CONTINUOUS
 10
9.055
 20
0.0
 11
9.055
 21
-2.844
  0
MTEXT
  5
25F
100
AcDbEntity
  8
0
100
AcDbMText
 62
2
  6
CONTINUOUS
  7
STANDARD
 71
2
 72
1
 10
1.5275
 20
-0.0995
 30
0.0
 11
1.0
 21
0.0
 31
0.0
 44
0.9
  1
Technical Data
 40
0.145
 41
3.248
  0
MTEXT
  5
260
100
AcDbEntity
  8
0
100
AcDbMText
 62
2
  6
CONTINUOUS
  7
STANDARD
 71
2
 72
1
 10
4.555
 20
-0.0995
 30
0.0
 11
1.0
 21
0.0
 31
0.0
 44
0.9
  1
U.S. Units
 40
0.145
 41
2.32
  0
MTEXT
  5
261
100
AcDbEntity
  8
0
100
AcDbMText
 62
2
  6
CONTINUOUS
  7
STANDARD
 71
2
 72
1
 10
7.555
 20
-0.0995
 30
0.0
 11
1.0
 21
0.0
 31
0.0
 44
0.9
  1
Metric Units
 40
0.145
 41
2.784
  0
MTEXT
  5
262
100
AcDbEntity
  8
0
100
AcDbMText
 62
2
  6
CONTINUOUS
  7
STANDARD
 71
2
 72
1
 10
1.5275
 20
-0.4065
 30
0.0
 11
1.0
 21
0.0
 31
0.0
 44
0.9
  1
Cavity
 40
0.125
 41
1.2
  0
MTEXT
  5
263
100
AcDbEntity
  8
0
100
AcDbMText
 62
2
  6
CONTINUOUS
  7
STANDARD
 71
2
 72
1
 10
6.055
 20
-0.4065
 30
0.0
 11
1.0
 21
0.0
 31
0.0
 44
0.9
  1
T-2A
 40
0.125
 41
0.8
  0
MTEXT
  5
264
100
AcDbEntity
  8
0
100
AcDbMText
 62
2
  6
CONTINUOUS
  7
STANDARD
 71
2
 72
1
 10
1.5275
 20
-0.6565
 30
0.0
 11
1.0
 21
0.0
 31
0.0
 44
0.9
  1
Body Features
 40
0.125
 41
2.6
  0
MTEXT
  5
265
100
AcDbEntity
  8
0
100
AcDbMText
 62
2
  6
CONTINUOUS
  7
STANDARD
 71
2
 72
1
 10
6.055
 20
-0.6565
 30
0.0
 11
1.0
 21
0.0
 31
0.0
 44
0.9
  1
Cross port with shuttle on port 3s
 40
0.125
 41
6.8
  0
MTEXT
  5
266
100
AcDbEntity
  8
0
100
AcDbMText
 62
2
  6
CONTINUOUS
  7
STANDARD
 71
2
 72
1
 10
1.5275
 20
-0.9065
 30
0.0
 11
1.0
 21
0.0
 31
0.0
 44
0.9
  1
Body Type
 40
0.125
 41
1.8
  0
MTEXT
  5
267
100
AcDbEntity
  8
0
100
AcDbMText
 62
2
  6
CONTINUOUS
  7
STANDARD
 71
2
 72
1
 10
6.055
 20
-0.9065
 30
0.0
 11
1.0
 21
0.0
 31
0.0
 44
0.9
  1
Line mount
 40
0.125
 41
2.0
  0
MTEXT
  5
268
100
AcDbEntity
  8
0
100
AcDbMText
 62
2
  6
CONTINUOUS
  7
STANDARD
 71
2
 72
1
 10
1.5275
 20
-1.1565
 30
0.0
 11
1.0
 21
0.0
 31
0.0
 44
0.9
  1
Interface
 40
0.125
 41
1.8
  0
MTEXT
  5
269
100
AcDbEntity
  8
0
100
AcDbMText
 62
2
  6
CONTINUOUS
  7
STANDARD
 71
2
 72
1
 10
6.055
 20
-1.1565
 30
0.0
 11
1.0
 21
0.0
 31
0.0
 44
0.9
  1
None
 40
0.125
 41
0.8
  0
MTEXT
  5
26A
100
AcDbEntity
  8
0
100
AcDbMText
 62
2
  6
CONTINUOUS
  7
STANDARD
 71
2
 72
1
 10
1.5275
 20
-1.4065
 30
0.0
 11
1.0
 21
0.0
 31
0.0
 44
0.9
  1
Open Cavity Quantity
 40
0.125
 41
4.0
  0
MTEXT
  5
26B
100
AcDbEntity
  8
0
100
AcDbMText
 62
2
  6
CONTINUOUS
  7
STANDARD
 71
2
 72
1
 10
6.055
 20
-1.4065
 30
0.0
 11
1.0
 21
0.0
 31
0.0
 44
0.9
  1
2
 40
0.125
 41
0.2
  0
MTEXT
  5
26C
100
AcDbEntity
  8
0
100
AcDbMText
 62
2
  6
CONTINUOUS
  7
STANDARD
 71
2
 72
1
 10
1.5275
 20
-1.6565
 30
0.0
 11
1.0
 21
0.0
 31
0.0
 44
0.9
  1
Weight
 40
0.125
 41
1.2
  0
MTEXT
  5
26D
100
AcDbEntity
  8
0
100
AcDbMText
 62
2
  6
CONTINUOUS
  7
STANDARD
 71
2
 72
1
 10
4.555
 20
-1.6565
 30
0.0
 11
1.0
 21
0.0
 31
0.0
 44
0.9
  1
6.198 lb.
 40
0.125
 41
1.8
  0
MTEXT
  5
26E
100
AcDbEntity
  8
0
100
AcDbMText
 62
2
  6
CONTINUOUS
  7
STANDARD
 71
2
 72
1
 10
7.555
 20
-1.6565
 30
0.0
 11
1.0
 21
0.0
 31
0.0
 44
0.9
  1
2,811 kg.
 40
0.125
 41
1.8
  0
MTEXT
  5
26F
100
AcDbEntity
  8
0
100
AcDbMText
 62
2
  6
CONTINUOUS
  7
STANDARD
 71
2
 72
1
 10
1.5275
 20
-1.9065
 30
0.0
 11
1.0
 21
0.0
 31
0.0
 44
0.9
  1
Mounting Hole Diameter
 40
0.125
 41
4.4
  0
MTEXT
  5
270
100
AcDbEntity
  8
0
100
AcDbMText
 62
2
  6
CONTINUOUS
  7
STANDARD
 71
2
 72
1
 10
4.555
 20
-1.9065
 30
0.0
 11
1.0
 21
0.0
 31
0.0
 44
0.9
  1
.41 in.
 40
0.125
 41
1.4
  0
MTEXT
  5
271
100
AcDbEntity
  8
0
100
AcDbMText
 62
2
  6
CONTINUOUS
  7
STANDARD
 71
2
 72
1
 10
7.555
 20
-1.9065
 30
0.0
 11
1.0
 21
0.0
 31
0.0
 44
0.9
  1
10,4 mm
 40
0.125
 41
1.4
  0
MTEXT
  5
272
100
AcDbEntity
  8
0
100
AcDbMText
 62
2
  6
CONTINUOUS
  7
STANDARD
 71
2
 72
1
 10
1.5275
 20
-2.1565
 30
0.0
 11
1.0
 21
0.0
 31
0.0
 44
0.9
  1
Mounting Hole Depth
 40
0.125
 41
3.8
  0
MTEXT
  5
273
100
AcDbEntity
  8
0
100
AcDbMText
 62
2
  6
CONTINUOUS
  7
STANDARD
 71
2
 72
1
 10
6.055
 20
-2.1565
 30
0.0
 11
1.0
 21
0.0
 31
0.0
 44
0.9
  1
Through
 40
0.125
 41
1.4
  0
MTEXT
  5
274
100
AcDbEntity
  8
0
100
AcDbMText
 62
2
  6
CONTINUOUS
  7
STANDARD
 71
2
 72
1
 10
1.5275
 20
-2.4065
 30
0.0
 11
1.0
 21
0.0
 31
0.0
 44
0.9
  1
Mounting Hole Quantity
 40
0.125
 41
4.4
  0
MTEXT
  5
275
100
AcDbEntity
  8
0
100
AcDbMText
 62
2
  6
CONTINUOUS
  7
STANDARD
 71
2
 72
1
 10
6.055
 20
-2.4065
 30
0.0
 11
1.0
 21
0.0
 31
0.0
 44
0.9
  1
2
 40
0.125
 41
0.2
  0
MTEXT
  5
276
100
AcDbEntity
  8
0
100
AcDbMText
 62
2
  6
CONTINUOUS
  7
STANDARD
 71
2
 72
1
 10
1.5275
 20
-2.6565
 30
0.0
 11
1.0
 21
0.0
 31
0.0
 44
0.9
  1
Includes integral cartridge(s)
 40
0.125
 41
6.0
  0
MTEXT
  5
277
100
AcDbEntity
  8
0
100
AcDbMText
 62
2
  6
CONTINUOUS
  7
STANDARD
 71
2
 72
1
 10
6.055
 20
-2.6565
 30
0.0
 11
1.0
 21
0.0
 31
0.0
 44
0.9
  1
Yes (see Included Components)
 40
0.125
 41
5.8
  0
ENDBLK
  5
278
100
AcDbEntity
  8
0
  6
BYBLOCK
 62
0
100
AcDbBlockEnd
  0
BLOCK
  5
279
100
AcDbEntity
  8
0
100
AcDbBlockBegin
  2
*T3
 70
1
 10
0.0
 20
0.0
  3
*T3
  1

  0
LINE
  5
27A
100
AcDbEntity
  8
0
100
AcDbLine
 62
2
  6
CONTINUOUS
 10
0.0
 20
0.0
 11
4.6
 21
0.0
  0
LINE
  5
27B
100
AcDbEntity
  8
0
100
AcDbLine
 62
2
  6
CONTINUOUS
 10
0.0
 20
0.0
 11
0.0
 21
-1.43775
  0
LINE
  5
27C
100
AcDbEntity
  8
0
100
AcDbLine
 62
2
  6
CONTINUOUS
 10
0.0
 20
-0.34375
 11
4.6
 21
-0.34375
  0
LINE
  5
27D
100
AcDbEntity
  8
0
100
AcDbLine
 62
2
  6
CONTINUOUS
 10
0.0
 20
-0.68775
 11
4.6
 21
-0.68775
  0
LINE
  5
27E
100
AcDbEntity
  8
0
100
AcDbLine
 62
2
  6
CONTINUOUS
 10
0.0
 20
-0.93775
 11
4.6
 21
-0.93775
  0
LINE
  5
27F
100
AcDbEntity
  8
0
100
AcDbLine
 62
2
  6
CONTINUOUS
 10
0.0
 20
-1.18775
 11
4.6
 21
-1.18775
  0
LINE
  5
280
100
AcDbEntity
  8
0
100
AcDbLine
 62
2
  6
CONTINUOUS
 10
0.0
 20
-1.43775
 11
4.6
 21
-1.43775
  0
LINE
  5
281
100
AcDbEntity
  8
0
100
AcDbLine
 62
2
  6
CONTINUOUS
 10
1.3
 20
-0.34375
 11
1.3
 21
-1.43775
  0
LINE
  5
282
100
AcDbEntity
  8
0
100
AcDbLine
 62
2
  6
CONTINUOUS
 10
3.3
 20
-0.34375
 11
3.3
 21
-1.43775
  0
LINE
  5
283
100
AcDbEntity
  8
0
100
AcDbLine
 62
2
  6
CONTINUOUS
 10
4.6
 20
0.0
 11
4.6
 21
-1.43775
  0
MTEXT
  5
284
100
AcDbEntity
  8
0
100
AcDbMText
 62
2
  6
CONTINUOUS
  7
STANDARD
 71
2
 72
1
 10
2.3
 20
-0.099375
 30
0.0
 11
1.0
 21
0.0
 31
0.0
 44
0.9
  1
Port Headings
 40
0.145
 41
3.016
  0
MTEXT
  5
285
100
AcDbEntity
  8
0
100
AcDbMText
 62
2
  6
CONTINUOUS
  7
STANDARD
 71
2
 72
1
 10
0.65
 20
-0.44325
 30
0.0
 11
1.0
 21
0.0
 31
0.0
 44
0.9
  1
Product
 40
0.145
 41
1.624
  0
MTEXT
  5
286
100
AcDbEntity
  8
0
100
AcDbMText
 62
2
  6
CONTINUOUS
  7
STANDARD
 71
2
 72
1
 10
2.3
 20
-0.44325
 30
0.0
 11
1.0
 21
0.0
 31
0.0
 44
0.9
  1
Port
 40
0.145
 41
0.928
  0
MTEXT
  5
287
100
AcDbEntity
  8
0
100
AcDbMText
 62
2
  6
CONTINUOUS
  7
STANDARD
 71
2
 72
1
 10
3.95
 20
-0.44325
 30
0.0
 11
1.0
 21
0.0
 31
0.0
 44
0.9
  1
Size
 40
0.145
 41
0.928
  0
MTEXT
  5
288
100
AcDbEntity
  8
0
100
AcDbMText
 62
2
  6
CONTINUOUS
  7
STANDARD
 71
2
 72
1
 10
0.65
 20
-0.75025
 30
0.0
 11
1.0
 21
0.0
 31
0.0
 44
0.9
  1
XBK
 40
0.125
 41
0.6
  0
MTEXT
  5
289
100
AcDbEntity
  8
0
100
AcDbMText
 62
2
  6
CONTINUOUS
  7
STANDARD
 71
2
 72
1
 10
2.3
 20
-0.75025
 30
0.0
 11
1.0
 21
0.0
 31
0.0
 44
0.9
  1
Ports 1 &  2
 40
0.125
 41
2.4
  0
MTEXT
  5
28A
100
AcDbEntity
  8
0
100
AcDbMText
 62
2
  6
CONTINUOUS
  7
STANDARD
 71
2
 72
1
 10
3.95
 20
-0.75025
 30
0.0
 11
1.0
 21
0.0
 31
0.0
 44
0.9
  1
SAE 10
 40
0.125
 41
1.2
  0
MTEXT
  5
28B
100
AcDbEntity
  8
0
100
AcDbMText
 62
2
  6
CONTINUOUS
  7
STANDARD
 71
2
 72
1
 10
0.65
 20
-1.00025
 30
0.0
 11
1.0
 21
0.0
 31
0.0
 44
0.9
  1
XBK
 40
0.125
 41
0.6
  0
MTEXT
  5
28C
100
AcDbEntity
  8
0
100
AcDbMText
 62
2
  6
CONTINUOUS
  7
STANDARD
 71
2
 72
1
 10
2.3
 20
-1.00025
 30
0.0
 11
1.0
 21
0.0
 31
0.0
 44
0.9
  1
Port V
 40
0.125
 41
1.2
  0
MTEXT
  5
28D
100
AcDbEntity
  8
0
100
AcDbMText
 62
2
  6
CONTINUOUS
  7
STANDARD
 71
2
 72
1
 10
3.95
 20
-1.00025
 30
0.0
 11
1.0
 21
0.0
 31
0.0
 44
0.9
  1
SAE 6
 40
0.125
 41
1.0
  0
MTEXT
  5
28E
100
AcDbEntity
  8
0
100
AcDbMText
 62
2
  6
CONTINUOUS
  7
STANDARD
 71
2
 72
1
 10
0.65
 20
-1.25025
 30
0.0
 11
1.0
 21
0.0
 31
0.0
 44
0.9
  1
XBK
 40
0.125
 41
0.6
  0
MTEXT
  5
28F
100
AcDbEntity
  8
0
100
AcDbMText
 62
2
  6
CONTINUOUS
  7
STANDARD
 71
2
 72
1
 10
2.3
 20
-1.25025
 30
0.0
 11
1.0
 21
0.0
 31
0.0
 44
0.9
  1
Gage Ports
 40
0.125
 41
2.0
  0
MTEXT
  5
290
100
AcDbEntity
  8
0
100
AcDbMText
 62
2
  6
CONTINUOUS
  7
STANDARD
 71
2
 72
1
 10
3.95
 20
-1.25025
 30
0.0
 11
1.0
 21
0.0
 31
0.0
 44
0.9
  1
1/4" NPTF
 40
0.125
 41
1.8
  0
ENDBLK
  5
291
100
AcDbEntity
  8
0
  6
BYBLOCK
 62
0
100
AcDbBlockEnd
  0
ENDSEC
  0
SECTION
  2
ENTITIES
  0
IMAGE
  5
292
100
AcDbEntity
  8
0
100
AcDbRasterImage
 62
7
  6
CONTINUOUS
 10
19.2297077316
 20
0.3094318264
 30
0.0
 11
0.0066666667
 21
0.0
 31
0.0
 12
0.0
 22
0.0066666667
 32
0.0
 13
369.0
 23
92.0
340
       418
 70
9
280
0
281
50
282
50
283
0
360
       412
 71
1
 91
2
 14
-0.5
 24
-0.5
 14
368.5
 24
91.5
  0
INSERT
  5
293
100
AcDbEntity
  8
0
100
AcDbBlockReference
 62
2
  6
CONTINUOUS
  2
SUN_FIRST_THIRD_ANGLE_BL0
 10
20.4816717061
 20
1.2289683772
  0
ACAD_TABLE
  5
294
100
AcDbEntity
  8
0
 62
2
  6
CONTINUOUS
100
AcDbBlockReference
  2
*T1
 10
12.42375
 20
0.30125
 30
0.0
100
AcDbTable
342
       41A
343
20F
 11
1.0
 21
0.0
 31
0.0
 90
6
 91
4
 92
6
 93
20
 94
0
 95
0
 96
0
 70
1
 41
0.0
141
0.525
141
0.1
141
0.525
141
0.1
142
4.1
142
1.1
142
0.7
142
0.5
142
0.4
142
2.475
171
1
172
0
173
0
174
0
175
1
176
1
 91
33
178
0
145
0.0
301
CELL_VALUE
 90
4
  1
T-2A Line mount\PCross port with shuttle on port 3s
304
ACVALUE_END
170
2
140
0.125
171
1
172
0
173
0
174
0
175
1
176
1
 91
33
178
0
145
0.0
301
CELL_VALUE
 90
4
  1
Oct-25-21
304
ACVALUE_END
170
5
140
0.125
171
1
172
0
173
0
174
0
175
1
176
1
 91
33
178
0
145
0.0
301
CELL_VALUE
 90
4
  1
1.000
304
ACVALUE_END
170
5
140
0.125
171
1
172
0
173
0
174
0
175
1
176
1
 91
33
178
0
145
0.0
301
CELL_VALUE
 90
4
  1
C
304
ACVALUE_END
170
5
140
0.125
171
1
172
0
173
0
174
0
175
1
176
1
 91
33
178
0
145
0.0
301
CELL_VALUE
 90
4
  1
2
304
ACVALUE_END
170
5
140
0.125
171
1
172
0
173
0
174
0
175
1
176
1
 91
33
178
0
145
0.0
301
CELL_VALUE
 90
4
  1
 
304
ACVALUE_END
170
1
140
0.125
171
1
172
0
173
0
174
0
175
1
176
1
 91
33
178
0
145
0.0
301
CELL_VALUE
 90
4
  1
DESCRIPTION
304
ACVALUE_END
170
1
140
0.06
171
1
172
0
173
0
174
0
175
1
176
1
 91
33
178
0
145
0.0
301
CELL_VALUE
 90
4
  1
DATE
304
ACVALUE_END
170
1
140
0.06
171
1
172
0
173
0
174
0
175
1
176
1
 91
33
178
0
145
0.0
301
CELL_VALUE
 90
4
  1
SCALE
304
ACVALUE_END
170
1
140
0.06
171
1
172
0
173
0
174
0
175
1
176
1
 91
33
178
0
145
0.0
301
CELL_VALUE
 90
4
  1
DWG SIZE
304
ACVALUE_END
170
1
140
0.06
171
1
172
0
173
0
174
0
175
1
176
1
 91
33
178
0
145
0.0
301
CELL_VALUE
 90
4
  1
SHEET
304
ACVALUE_END
170
1
140
0.06
171
1
172
0
173
0
174
0
175
1
176
1
 91
33
178
0
145
0.0
301
CELL_VALUE
 90
4
  1
 
304
ACVALUE_END
170
1
140
0.125
171
1
172
0
173
0
174
0
175
1
176
1
 91
33
178
0
145
0.0
301
CELL_VALUE
 90
4
  1
XBK
304
ACVALUE_END
170
5
140
0.125
171
1
172
0
173
0
174
0
175
4
176
1
 91
33
178
0
145
0.0
301
CELL_VALUE
 90
4
  1
ALL DIMENSIONS IN INCH\PVIEWS ARE THIRD ANGLE
304
ACVALUE_END
170
5
140
0.12
171
1
172
0
173
1
174
0
175
1
176
1
 91
1
178
0
145
0.0
170
1
171
1
172
0
173
1
174
0
175
1
176
1
 91
1
178
0
145
0.0
170
1
171
1
172
0
173
1
174
0
175
1
176
1
 91
1
178
0
145
0.0
170
5
171
1
172
0
173
0
174
0
175
1
176
1
 91
33
178
0
145
0.0
301
CELL_VALUE
 90
4
  1
 
304
ACVALUE_END
170
1
140
0.125
171
1
172
0
173
0
174
0
175
1
176
1
 91
33
178
0
145
0.0
301
CELL_VALUE
 90
4
  1
MODEL
304
ACVALUE_END
170
1
140
0.06
171
1
172
0
173
0
174
0
175
1
176
1
 91
33
178
0
145
0.0
301
CELL_VALUE
 90
4
  1
 
304
ACVALUE_END
170
1
140
0.125
171
1
172
0
173
0
174
0
175
1
176
1
 91
33
178
0
145
0.0
301
CELL_VALUE
 90
4
  1
 
304
ACVALUE_END
170
1
140
0.125
171
1
172
0
173
0
174
0
175
1
176
1
 91
33
178
0
145
0.0
301
CELL_VALUE
 90
4
  1
 
304
ACVALUE_END
170
1
140
0.125
171
1
172
0
173
0
174
0
175
1
176
1
 91
33
178
0
145
0.0
301
CELL_VALUE
 90
4
  1
 
304
ACVALUE_END
170
1
140
0.125
171
1
172
0
173
0
174
0
175
1
176
1
 91
33
178
0
145
0.0
301
CELL_VALUE
 90
4
  1
 
304
ACVALUE_END
170
1
140
0.125
  0
ACAD_TABLE
  5
295
100
AcDbEntity
  8
0
 62
2
  6
CONTINUOUS
100
AcDbBlockReference
  2
*T2
 10
12.4237499994
 20
16.47875
 30
0.0
100
AcDbTable
342
       419
343
210
 11
1.0
 21
0.0
 31
0.0
 90
22
 91
11
 92
3
 93
16
 94
0
 95
0
 96
0
 41
0.028
141
0.344
141
0.25
141
0.25
141
0.25
141
0.25
141
0.25
141
0.25
141
0.25
141
0.25
141
0.25
141
0.25
142
3.055
142
3.0
142
3.0
171
1
172
0
173
0
174
0
175
1
176
1
 91
33
178
0
145
0.0
301
CELL_VALUE
 90
4
  1
Technical Data
304
ACVALUE_END
170
5
140
0.145
171
1
172
0
173
0
174
0
175
1
176
1
 91
33
178
0
145
0.0
301
CELL_VALUE
 90
4
  1
U.S. Units
304
ACVALUE_END
170
5
140
0.145
171
1
172
0
173
0
174
0
175
1
176
1
 91
33
178
0
145
0.0
301
CELL_VALUE
 90
4
  1
Metric Units
304
ACVALUE_END
170
5
140
0.145
171
1
172
0
173
0
174
0
175
1
176
1
 91
33
178
0
145
0.0
301
CELL_VALUE
 90
4
  1
Cavity
304
ACVALUE_END
170
5
140
0.125
171
1
172
0
173
0
174
0
175
2
176
1
 91
33
178
0
145
0.0
301
CELL_VALUE
 90
4
  1
T-2A
304
ACVALUE_END
170
5
140
0.125
171
1
172
0
173
1
174
0
175
1
176
1
 91
1
178
0
145
0.0
170
1
171
1
172
0
173
0
174
0
175
1
176
1
 91
33
178
0
145
0.0
301
CELL_VALUE
 90
4
  1
Body Features
304
ACVALUE_END
170
5
140
0.125
171
1
172
0
173
0
174
0
175
2
176
1
 91
33
178
0
145
0.0
301
CELL_VALUE
 90
4
  1
Cross port with shuttle on port 3s
304
ACVALUE_END
170
5
140
0.125
171
1
172
0
173
1
174
0
175
1
176
1
 91
1
178
0
145
0.0
170
1
171
1
172
0
173
0
174
0
175
1
176
1
 91
33
178
0
145
0.0
301
CELL_VALUE
 90
4
  1
Body Type
304
ACVALUE_END
170
5
140
0.125
171
1
172
0
173
0
174
0
175
2
176
1
 91
33
178
0
145
0.0
301
CELL_VALUE
 90
4
  1
Line mount
304
ACVALUE_END
170
5
140
0.125
171
1
172
0
173
1
174
0
175
1
176
1
 91
1
178
0
145
0.0
170
1
171
1
172
0
173
0
174
0
175
1
176
1
 91
33
178
0
145
0.0
301
CELL_VALUE
 90
4
  1
Interface
304
ACVALUE_END
170
5
140
0.125
171
1
172
0
173
0
174
0
175
2
176
1
 91
33
178
0
145
0.0
301
CELL_VALUE
 90
4
  1
None
304
ACVALUE_END
170
5
140
0.125
171
1
172
0
173
1
174
0
175
1
176
1
 91
1
178
0
145
0.0
170
1
171
1
172
0
173
0
174
0
175
1
176
1
 91
33
178
0
145
0.0
301
CELL_VALUE
 90
4
  1
Open Cavity Quantity
304
ACVALUE_END
170
5
140
0.125
171
1
172
0
173
0
174
0
175
2
176
1
 91
33
178
0
145
0.0
301
CELL_VALUE
 90
4
  1
2
304
ACVALUE_END
170
5
140
0.125
171
1
172
0
173
1
174
0
175
1
176
1
 91
1
178
0
145
0.0
170
1
171
1
172
0
173
0
174
0
175
1
176
1
 91
33
178
0
145
0.0
301
CELL_VALUE
 90
4
  1
Weight
304
ACVALUE_END
170
5
140
0.125
171
1
172
0
173
0
174
0
175
1
176
1
 91
33
178
0
145
0.0
301
CELL_VALUE
 90
4
  1
6.198 lb.
304
ACVALUE_END
170
5
140
0.125
171
1
172
0
173
0
174
0
175
1
176
1
 91
33
178
0
145
0.0
301
CELL_VALUE
 90
4
  1
2,811 kg.
304
ACVALUE_END
170
5
140
0.125
171
1
172
0
173
0
174
0
175
1
176
1
 91
33
178
0
145
0.0
301
CELL_VALUE
 90
4
  1
Mounting Hole Diameter
304
ACVALUE_END
170
5
140
0.125
171
1
172
0
173
0
174
0
175
1
176
1
 91
33
178
0
145
0.0
301
CELL_VALUE
 90
4
  1
.41 in.
304
ACVALUE_END
170
5
140
0.125
171
1
172
0
173
0
174
0
175
1
176
1
 91
33
178
0
145
0.0
301
CELL_VALUE
 90
4
  1
10,4 mm
304
ACVALUE_END
170
5
140
0.125
171
1
172
0
173
0
174
0
175
1
176
1
 91
33
178
0
145
0.0
301
CELL_VALUE
 90
4
  1
Mounting Hole Depth
304
ACVALUE_END
170
5
140
0.125
171
1
172
0
173
0
174
0
175
2
176
1
 91
33
178
0
145
0.0
301
CELL_VALUE
 90
4
  1
Through
304
ACVALUE_END
170
5
140
0.125
171
1
172
0
173
1
174
0
175
1
176
1
 91
1
178
0
145
0.0
170
1
171
1
172
0
173
0
174
0
175
1
176
1
 91
33
178
0
145
0.0
301
CELL_VALUE
 90
4
  1
Mounting Hole Quantity
304
ACVALUE_END
170
5
140
0.125
171
1
172
0
173
0
174
0
175
2
176
1
 91
33
178
0
145
0.0
301
CELL_VALUE
 90
4
  1
2
304
ACVALUE_END
170
5
140
0.125
171
1
172
0
173
1
174
0
175
1
176
1
 91
1
178
0
145
0.0
170
1
171
1
172
0
173
0
174
0
175
1
176
1
 91
33
178
0
145
0.0
301
CELL_VALUE
 90
4
  1
Includes integral cartridge(s)
304
ACVALUE_END
170
5
140
0.125
171
1
172
0
173
0
174
0
175
2
176
1
 91
33
178
0
145
0.0
301
CELL_VALUE
 90
4
  1
Yes (see Included Components)
304
ACVALUE_END
170
5
140
0.125
171
1
172
0
173
1
174
0
175
1
176
1
 91
1
178
0
145
0.0
170
1
  0
ACAD_TABLE
  5
296
100
AcDbEntity
  8
0
 62
2
  6
CONTINUOUS
100
AcDbBlockReference
  2
*T3
 10
0.52125
 20
1.959
 30
0.0
100
AcDbTable
342
       419
343
211
 11
1.0
 21
0.0
 31
0.0
 90
22
 91
5
 92
3
 93
16
 94
0
 95
0
 96
0
 41
0.05
141
0.34375
141
0.344
141
0.25
141
0.25
141
0.25
142
1.3
142
2.0
142
1.3
171
1
172
0
173
0
174
0
175
3
176
1
 91
33
178
0
145
0.0
301
CELL_VALUE
 90
4
  1
Port Headings
304
ACVALUE_END
170
5
140
0.145
171
1
172
0
173
1
174
0
175
1
176
1
 91
1
178
0
145
0.0
170
1
171
1
172
0
173
1
174
0
175
1
176
1
 91
1
178
0
145
0.0
170
1
171
1
172
0
173
0
174
0
175
1
176
1
 91
33
178
0
145
0.0
301
CELL_VALUE
 90
4
  1
Product
304
ACVALUE_END
170
5
140
0.145
171
1
172
0
173
0
174
0
175
1
176
1
 91
33
178
0
145
0.0
301
CELL_VALUE
 90
4
  1
Port
304
ACVALUE_END
170
5
140
0.145
171
1
172
0
173
0
174
0
175
1
176
1
 91
33
178
0
145
0.0
301
CELL_VALUE
 90
4
  1
Size
304
ACVALUE_END
170
5
140
0.145
171
1
172
0
173
0
174
0
175
1
176
1
 91
33
178
0
145
0.0
301
CELL_VALUE
 90
4
  1
XBK
304
ACVALUE_END
170
5
140
0.125
171
1
172
0
173
0
174
0
175
1
176
1
 91
33
178
0
145
0.0
301
CELL_VALUE
 90
4
  1
Ports 1 &  2
304
ACVALUE_END
170
5
140
0.125
171
1
172
0
173
0
174
0
175
1
176
1
 91
33
178
0
145
0.0
301
CELL_VALUE
 90
4
  1
SAE 10
304
ACVALUE_END
170
5
140
0.125
171
1
172
0
173
0
174
0
175
1
176
1
 91
33
178
0
145
0.0
301
CELL_VALUE
 90
4
  1
XBK
304
ACVALUE_END
170
5
140
0.125
171
1
172
0
173
0
174
0
175
1
176
1
 91
33
178
0
145
0.0
301
CELL_VALUE
 90
4
  1
Port V
304
ACVALUE_END
170
5
140
0.125
171
1
172
0
173
0
174
0
175
1
176
1
 91
33
178
0
145
0.0
301
CELL_VALUE
 90
4
  1
SAE 6
304
ACVALUE_END
170
5
140
0.125
171
1
172
0
173
0
174
0
175
1
176
1
 91
33
178
0
145
0.0
301
CELL_VALUE
 90
4
  1
XBK
304
ACVALUE_END
170
5
140
0.125
171
1
172
0
173
0
174
0
175
1
176
1
 91
33
178
0
145
0.0
301
CELL_VALUE
 90
4
  1
Gage Ports
304
ACVALUE_END
170
5
140
0.125
171
1
172
0
173
0
174
0
175
1
176
1
 91
33
178
0
145
0.0
301
CELL_VALUE
 90
4
  1
1/4" NPTF
304
ACVALUE_END
170
5
140
0.125
  0
MTEXT
  5
297
100
AcDbEntity
  8
0
100
AcDbMText
 62
2
  6
CONTINUOUS
  7
STANDARD
 71
1
 72
1
 10
0.52125
 20
5.75995
 30
0.0
 11
1.0
 21
0.0
 31
0.0
 44
0.6
  3
Notes\P \P1. Important: Carefully consider\P   the maximum system pressure. The\P   pressure rating of the manifold is\P   dependent on the manifold material,\P   with the port type/size a secondary\P   consideration. Manifolds\P   constructed of alu
  1
minum are not\P   rated for pressures higher than\P   3000 psi (210 bar), regardless of\P   the port type/size specified.
 40
0.1
 41
3.04
  0
LINE
  5
298
100
AcDbEntity
  8
0
100
AcDbLine
 62
7
  6
CONTINUOUS
 10
0.30125
 20
0.30125
 11
0.30125
 21
16.69875
  0
LINE
  5
299
100
AcDbEntity
  8
0
100
AcDbLine
 62
7
  6
CONTINUOUS
 10
0.30125
 20
0.30125
 11
21.69875
 21
0.30125
  0
LINE
  5
29A
100
AcDbEntity
  8
0
100
AcDbLine
 62
7
  6
CONTINUOUS
 10
0.30125
 20
16.69875
 11
21.69875
 21
16.69875
  0
LINE
  5
29B
100
AcDbEntity
  8
0
100
AcDbLine
 62
7
  6
CONTINUOUS
 10
21.69875
 20
0.30125
 11
21.69875
 21
16.69875
  0
LINE
  5
29C
100
AcDbEntity
  8
0
100
AcDbLine
 62
7
  6
CONTINUOUS
 10
7.9381382124
 20
6.6539499901
 11
7.9381382124
 21
9.4309869052
  0
LINE
  5
29D
100
AcDbEntity
  8
0
100
AcDbLine
 62
7
  6
CONTINUOUS
 10
7.9381382124
 20
9.4309869052
 11
9.23223237
 21
10.6809859477
  0
LINE
  5
29E
100
AcDbEntity
  8
0
100
AcDbLine
 62
4
  6
CONTINUOUS
 10
9.1539424514
 20
10.3273637551
 11
9.1487660761
 21
10.3223637602
  0
LINE
  5
29F
100
AcDbEntity
  8
0
100
AcDbLine
 62
4
  6
CONTINUOUS
 10
8.6123546471
 20
9.8022302217
 11
8.581296388
 21
9.7722302454
  0
LINE
  5
2A0
100
AcDbEntity
  8
0
100
AcDbLine
 62
4
  6
CONTINUOUS
 10
9.0851140265
 20
10.3133805968
 11
9.0701050177
 21
10.3063830066
  0
LINE
  5
2A1
100
AcDbEntity
  8
0
100
AcDbLine
 62
7
  6
CONTINUOUS
 10
12.76776763
 20
6.3190140523
 11
7.9381382124
 21
6.6539499901
  0
LINE
  5
2A2
100
AcDbEntity
  8
0
100
AcDbLine
 62
4
  6
CONTINUOUS
 10
8.8871604294
 20
7.8148609222
 11
8.9233826492
 21
7.6964377993
  0
LINE
  5
2A3
100
AcDbEntity
  8
0
100
AcDbLine
 62
4
  6
CONTINUOUS
 10
8.9233826492
 20
7.6964377993
 11
8.959604869
 21
7.8098368833
  0
LINE
  5
2A4
100
AcDbEntity
  8
0
100
AcDbLine
 62
4
  6
CONTINUOUS
 10
10.1755081584
 20
10.1535489939
 11
10.1799450523
 21
10.1578347046
  0
LINE
  5
2A5
100
AcDbEntity
  8
0
100
AcDbLine
 62
4
  6
CONTINUOUS
 10
10.2157161332
 20
10.1323869188
 11
10.2201530275
 21
10.1366726299
  0
LINE
  5
2A6
100
AcDbEntity
  8
0
100
AcDbLine
 62
4
  6
CONTINUOUS
 10
10.2754549541
 20
10.1558044807
 11
10.2488335893
 21
10.1300902154
  0
LINE
  5
2A7
100
AcDbEntity
  8
0
100
AcDbLine
 62
4
  6
CONTINUOUS
 10
10.1218768341
 20
9.9703165285
 11
10.1529350932
 21
10.0003165049
  0
LINE
  5
2A8
100
AcDbEntity
  8
0
100
AcDbLine
 62
4
  6
CONTINUOUS
 10
10.3067891411
 20
10.1260709843
 11
10.3334105058
 21
10.1517852495
  0
LINE
  5
2A9
100
AcDbEntity
  8
0
100
AcDbLine
 62
4
  6
CONTINUOUS
 10
9.9791647564
 20
9.7824673036
 11
9.9688120035
 21
9.7724673116
  0
LINE
  5
2AA
100
AcDbEntity
  8
0
100
AcDbLine
 62
4
  6
CONTINUOUS
 10
10.3354697029
 20
10.1194885698
 11
10.3665279619
 21
10.1494885461
  0
LINE
  5
2AB
100
AcDbEntity
  8
0
100
AcDbLine
 62
4
  6
CONTINUOUS
 10
10.2064537441
 20
9.9920115635
 11
10.1842692733
 21
9.9705830089
  0
LINE
  5
2AC
100
AcDbEntity
  8
0
100
AcDbLine
 62
4
  6
CONTINUOUS
 10
10.3934252546
 20
10.1154693386
 11
10.4244835137
 21
10.145469315
  0
LINE
  5
2AD
100
AcDbEntity
  8
0
100
AcDbLine
 62
4
  6
CONTINUOUS
 10
10.0816272135
 20
9.791438445
 11
10.0505689544
 21
9.7614384686
  0
LINE
  5
2AE
100
AcDbEntity
  8
0
100
AcDbLine
 62
4
  6
CONTINUOUS
 10
10.5176157186
 20
10.1068567007
 11
10.5486739777
 21
10.1368566771
  0
LINE
  5
2AF
100
AcDbEntity
  8
0
100
AcDbLine
 62
4
  6
CONTINUOUS
 10
10.359218617
 20
9.95385682
 11
10.3902768761
 21
9.9838567963
  0
LINE
  5
2B0
100
AcDbEntity
  8
0
100
AcDbLine
 62
7
  6
CONTINUOUS
 10
9.7881862845
 20
9.6879962238
 11
9.7874872284
 21
9.6873337173
  0
LINE
  5
2B1
100
AcDbEntity
  8
0
100
AcDbLine
 62
4
  6
CONTINUOUS
 10
9.9067203167
 20
9.7874913425
 11
9.9217293255
 21
9.7944889327
  0
LINE
  5
2B2
100
AcDbEntity
  8
0
100
AcDbLine
 62
4
  6
CONTINUOUS
 10
10.2267487786
 20
9.9630436345
 11
10.2909244938
 21
9.9907469074
  0
LINE
  5
2B3
100
AcDbEntity
  8
0
100
AcDbLine
 62
4
  6
CONTINUOUS
 10
10.6095732772
 20
10.0928237381
 11
10.6722700145
 21
10.1190984422
  0
LINE
  5
2B4
100
AcDbEntity
  8
0
100
AcDbLine
 62
4
  6
CONTINUOUS
 10
10.5872579331
 20
10.122697344
 11
10.5672919097
 21
10.1034116451
  0
LINE
  5
2B5
100
AcDbEntity
  8
0
100
AcDbLine
 62
4
  6
CONTINUOUS
 10
10.4254535293
 20
9.9492634132
 11
10.4565117884
 21
9.9792633895
  0
LINE
  5
2B6
100
AcDbEntity
  8
0
100
AcDbLine
 62
4
  6
CONTINUOUS
 10
10.5807150418
 20
10.0092345134
 11
10.6117733009
 21
10.0392344897
  0
LINE
  5
2B7
100
AcDbEntity
  8
0
100
AcDbLine
 62
4
  6
CONTINUOUS
 10
10.6743823221
 20
10.0982816052
 11
10.6921298983
 21
10.1154244485
  0
LINE
  5
2B8
100
AcDbEntity
  8
0
100
AcDbLine
 62
4
  6
CONTINUOUS
 10
10.6570125912
 20
10.031503724
 11
10.6503572494
 21
10.0250751571
  0
LINE
  5
2B9
100
AcDbEntity
  8
0
100
AcDbLine
 62
4
  6
CONTINUOUS
 10
10.7528982975
 20
10.1226936724
 11
10.7218400384
 21
10.092693696
  0
LINE
  5
2BA
100
AcDbEntity
  8
0
100
AcDbLine
 62
4
  6
CONTINUOUS
 10
10.6497628222
 20
10.0159295602
 11
10.6431074809
 21
10.0095009938
  0
LINE
  5
2BB
100
AcDbEntity
  8
0
100
AcDbLine
 62
4
  6
CONTINUOUS
 10
10.754957536
 20
10.0903969898
 11
10.7771420073
 21
10.1118255448
  0
LINE
  5
2BC
100
AcDbEntity
  8
0
100
AcDbLine
 62
4
  6
CONTINUOUS
 10
10.6037571065
 20
9.9414914289
 11
10.6259415773
 21
9.9629199835
  0
LINE
  5
2BD
100
AcDbEntity
  8
0
100
AcDbLine
 62
4
  6
CONTINUOUS
 10
10.6717880566
 20
10.0029185783
 11
10.7028463156
 21
10.0329185547
  0
LINE
  5
2BE
100
AcDbEntity
  8
0
100
AcDbLine
 62
4
  6
CONTINUOUS
 10
10.8135605571
 20
10.1070032037
 11
10.8091236632
 21
10.102717493
  0
LINE
  5
2BF
100
AcDbEntity
  8
0
100
AcDbLine
 62
4
  6
CONTINUOUS
 10
10.8316902561
 20
10.0873722629
 11
10.8383455976
 21
10.0938008296
  0
LINE
  5
2C0
100
AcDbEntity
  8
0
100
AcDbLine
 62
4
  6
CONTINUOUS
 10
10.7003496558
 20
9.9347927128
 11
10.7225341266
 21
9.9562212674
  0
LINE
  5
2C1
100
AcDbEntity
  8
0
100
AcDbLine
 62
4
  6
CONTINUOUS
 10
10.8791479724
 20
10.0817843537
 11
10.8968955498
 21
10.0989271981
  0
LINE
  5
2C2
100
AcDbEntity
  8
0
100
AcDbLine
 62
4
  6
CONTINUOUS
 10
11.1033913854
 20
10.0983868942
 11
11.0984131599
 21
10.0964354292
  0
LINE
  5
2C3
100
AcDbEntity
  8
0
100
AcDbLine
 62
4
  6
CONTINUOUS
 10
9.824108591
 20
7.7305648545
 11
9.8096197031
 21
7.7412289212
  0
LINE
  5
2C4
100
AcDbEntity
  8
0
100
AcDbLine
 62
4
  6
CONTINUOUS
 10
9.9400196944
 20
7.7225263921
 11
9.9255308065
 21
7.7331904588
  0
LINE
  5
2C5
100
AcDbEntity
  8
0
100
AcDbLine
 62
4
  6
CONTINUOUS
 10
9.8096197031
 20
7.7412289212
 11
9.7951308151
 21
7.7615522459
  0
LINE
  5
2C6
100
AcDbEntity
  8
0
100
AcDbLine
 62
4
  6
CONTINUOUS
 10
9.8530863669
 20
7.834807086
 11
9.8603308108
 21
7.8246454189
  0
LINE
  5
2C7
100
AcDbEntity
  8
0
100
AcDbLine
 62
4
  6
CONTINUOUS
 10
9.9255308065
 20
7.7331904588
 11
9.9110419186
 21
7.7535137836
  0
LINE
  5
2C8
100
AcDbEntity
  8
0
100
AcDbLine
 62
4
  6
CONTINUOUS
 10
9.9182863625
 20
7.8109669314
 11
9.9255308065
 21
7.8008052712
  0
LINE
  5
2C9
100
AcDbEntity
  8
0
100
AcDbLine
 62
4
  6
CONTINUOUS
 10
9.9689974703
 20
7.7688130685
 11
9.9762419142
 21
7.7586514083
  0
LINE
  5
2CA
100
AcDbEntity
  8
0
100
AcDbLine
 62
4
  6
CONTINUOUS
 10
9.9762419142
 20
7.8166069566
 11
9.9689974703
 21
7.8267686237
  0
LINE
  5
2CB
100
AcDbEntity
  8
0
100
AcDbLine
 62
4
  6
CONTINUOUS
 10
9.7951308151
 20
7.7615522459
 11
9.7878863712
 21
7.7910324257
  0
LINE
  5
2CC
100
AcDbEntity
  8
0
100
AcDbLine
 62
4
  6
CONTINUOUS
 10
9.9182863625
 20
7.8206261877
 11
9.9182863625
 21
7.8109669314
  0
LINE
  5
2CD
100
AcDbEntity
  8
0
100
AcDbLine
 62
4
  6
CONTINUOUS
 10
9.9762419142
 20
7.7586514083
 11
9.9762419142
 21
7.7393328905
  0
LINE
  5
2CE
100
AcDbEntity
  8
0
100
AcDbLine
 62
4
  6
CONTINUOUS
 10
9.9062001959
 20
9.7794889445
 11
9.9067203167
 21
9.7874913425
  0
LINE
  5
2CF
100
AcDbEntity
  8
0
100
AcDbLine
 62
4
  6
CONTINUOUS
 10
9.7878863712
 20
7.7910324257
 11
9.7951308151
 21
7.8195077976
  0
LINE
  5
2D0
100
AcDbEntity
  8
0
100
AcDbLine
 62
4
  6
CONTINUOUS
 10
10.934449886
 20
10.1009162064
 11
10.9144838619
 21
10.0816305069
  0
LINE
  5
2D1
100
AcDbEntity
  8
0
100
AcDbLine
 62
4
  6
CONTINUOUS
 10
10.7804896784
 20
9.9522020363
 11
10.7583052075
 21
9.9307734817
  0
LINE
  5
2D2
100
AcDbEntity
  8
0
100
AcDbLine
 62
4
  6
CONTINUOUS
 10
10.7869857555
 20
9.9241910681
 11
10.8180440146
 21
9.9541910445
  0
LINE
  5
2D3
100
AcDbEntity
  8
0
100
AcDbLine
 62
4
  6
CONTINUOUS
 10
10.9619416335
 20
10.0760425938
 11
10.9841261048
 21
10.0974711489
  0
LINE
  5
2D4
100
AcDbEntity
  8
0
100
AcDbLine
 62
4
  6
CONTINUOUS
 10
10.997277523
 20
10.075888747
 11
11.0261173349
 21
10.1037458678
  0
LINE
  5
2D5
100
AcDbEntity
  8
0
100
AcDbLine
 62
4
  6
CONTINUOUS
 10
10.8715626724
 20
9.9458861027
 11
10.8493782016
 21
9.9244575481
  0
LINE
  5
2D6
100
AcDbEntity
  8
0
100
AcDbLine
 62
4
  6
CONTINUOUS
 10
10.8918577483
 20
9.9169181707
 11
10.9229160074
 21
9.9469181471
  0
LINE
  5
2D7
100
AcDbEntity
  8
0
100
AcDbLine
 62
4
  6
CONTINUOUS
 10
11.0695733487
 20
10.068578309
 11
11.09175782
 21
10.0900068641
  0
LINE
  5
2D8
100
AcDbEntity
  8
0
100
AcDbLine
 62
4
  6
CONTINUOUS
 10
11.0984131599
 20
10.0964354292
 11
11.1006316078
 21
10.0985782854
  0
LINE
  5
2D9
100
AcDbEntity
  8
0
100
AcDbLine
 62
4
  6
CONTINUOUS
 10
11.1159484041
 20
10.0676588934
 11
11.1336959803
 21
10.0848017367
  0
LINE
  5
2DA
100
AcDbEntity
  8
0
100
AcDbLine
 62
4
  6
CONTINUOUS
 10
11.2015549677
 20
10.0732055845
 11
11.2082103085
 21
10.0796341505
  0
LINE
  5
2DB
100
AcDbEntity
  8
0
100
AcDbLine
 62
4
  6
CONTINUOUS
 10
9.8385974789
 20
7.8454711501
 11
9.8530863669
 21
7.834807086
  0
LINE
  5
2DC
100
AcDbEntity
  8
0
100
AcDbLine
 62
4
  6
CONTINUOUS
 10
9.9255308065
 20
7.8008052712
 11
9.9689974703
 21
7.7688130685
  0
LINE
  5
2DD
100
AcDbEntity
  8
0
100
AcDbLine
 62
4
  6
CONTINUOUS
 10
9.9689974703
 20
7.8267686237
 11
9.9545085824
 21
7.8374326878
  0
LINE
  5
2DE
100
AcDbEntity
  8
0
100
AcDbLine
 62
4
  6
CONTINUOUS
 10
10.2080641211
 20
7.75223374
 11
10.1935752332
 21
7.7725570638
  0
LINE
  5
2DF
100
AcDbEntity
  8
0
100
AcDbLine
 62
4
  6
CONTINUOUS
 10
10.2008196771
 20
7.810691699
 11
10.1935752332
 21
7.8208533592
  0
LINE
  5
2E0
100
AcDbEntity
  8
0
100
AcDbLine
 62
4
  6
CONTINUOUS
 10
10.0631752418
 20
7.8298966294
 11
10.0993974616
 21
7.7114735065
  0
LINE
  5
2E1
100
AcDbEntity
  8
0
100
AcDbLine
 62
4
  6
CONTINUOUS
 10
10.1428641254
 20
7.8243701865
 11
10.1428641254
 21
7.7084590831
  0
LINE
  5
2E2
100
AcDbEntity
  8
0
100
AcDbLine
 62
4
  6
CONTINUOUS
 10
10.2008196771
 20
7.7817139232
 11
10.2008196771
 21
7.810691699
  0
LINE
  5
2E3
100
AcDbEntity
  8
0
100
AcDbLine
 62
4
  6
CONTINUOUS
 10
10.2080641211
 20
7.7232559658
 11
10.2080641211
 21
7.75223374
  0
LINE
  5
2E4
100
AcDbEntity
  8
0
100
AcDbLine
 62
4
  6
CONTINUOUS
 10
11.2401388405
 20
10.0590462574
 11
11.246794182
 21
10.065474824
  0
LINE
  5
2E5
100
AcDbEntity
  8
0
100
AcDbLine
 62
4
  6
CONTINUOUS
 10
12.0168971516
 20
9.9787657632
 11
12.0319061603
 21
9.9857633534
  0
LINE
  5
2E6
100
AcDbEntity
  8
0
100
AcDbLine
 62
4
  6
CONTINUOUS
 10
12.1467770221
 20
9.9617200951
 11
12.1317680134
 21
9.954722505
  0
LINE
  5
2E7
100
AcDbEntity
  8
0
100
AcDbLine
 62
4
  6
CONTINUOUS
 10
9.9545085824
 20
7.7215215844
 11
9.9400196944
 21
7.7225263921
  0
LINE
  5
2E8
100
AcDbEntity
  8
0
100
AcDbLine
 62
4
  6
CONTINUOUS
 10
9.8385974789
 20
7.7295600467
 11
9.824108591
 21
7.7305648545
  0
LINE
  5
2E9
100
AcDbEntity
  8
0
100
AcDbLine
 62
4
  6
CONTINUOUS
 10
10.1428641254
 20
7.7084590831
 11
10.1935752332
 21
7.7049422558
  0
LINE
  5
2EA
100
AcDbEntity
  8
0
100
AcDbLine
 62
4
  6
CONTINUOUS
 10
10.0414419099
 20
7.7541297732
 11
10.0849085737
 21
7.7511153499
  0
LINE
  5
2EB
100
AcDbEntity
  8
0
100
AcDbLine
 62
4
  6
CONTINUOUS
 10
10.1428641254
 20
7.7760738911
 11
10.1935752332
 21
7.7725570638
  0
LINE
  5
2EC
100
AcDbEntity
  8
0
100
AcDbLine
 62
4
  6
CONTINUOUS
 10
10.1935752332
 20
7.8208533592
 11
10.1428641254
 21
7.8243701865
  0
LINE
  5
2ED
100
AcDbEntity
  8
0
100
AcDbLine
 62
4
  6
CONTINUOUS
 10
9.9545085824
 20
7.8374326878
 11
9.9400196944
 21
7.8384374956
  0
LINE
  5
2EE
100
AcDbEntity
  8
0
100
AcDbLine
 62
4
  6
CONTINUOUS
 10
9.824108591
 20
7.8464759579
 11
9.8385974789
 21
7.8454711501
  0
LINE
  5
2EF
100
AcDbEntity
  8
0
100
AcDbLine
 62
4
  6
CONTINUOUS
 10
10.2909244938
 20
9.9907469074
 11
10.2929837047
 21
9.9584502267
  0
LINE
  5
2F0
100
AcDbEntity
  8
0
100
AcDbLine
 62
4
  6
CONTINUOUS
 10
10.026953022
 20
7.7164975454
 11
10.0631752418
 21
7.8298966294
  0
LINE
  5
2F1
100
AcDbEntity
  8
0
100
AcDbLine
 62
4
  6
CONTINUOUS
 10
9.7951308151
 20
7.8195077976
 11
9.8096197031
 21
7.8378215094
  0
LINE
  5
2F2
100
AcDbEntity
  8
0
100
AcDbLine
 62
4
  6
CONTINUOUS
 10
9.9255308065
 20
7.8297830471
 11
9.9182863625
 21
7.8206261877
  0
LINE
  5
2F3
100
AcDbEntity
  8
0
100
AcDbLine
 62
4
  6
CONTINUOUS
 10
9.8603308108
 20
7.7473713528
 11
9.8530863669
 21
7.7382144978
  0
LINE
  5
2F4
100
AcDbEntity
  8
0
100
AcDbLine
 62
4
  6
CONTINUOUS
 10
9.9762419142
 20
7.7393328905
 11
9.9689974703
 21
7.7301760355
  0
LINE
  5
2F5
100
AcDbEntity
  8
0
100
AcDbLine
 62
4
  6
CONTINUOUS
 10
12.0893415912
 20
9.9737417243
 11
12.0789888384
 21
9.9637417323
  0
LINE
  5
2F6
100
AcDbEntity
  8
0
100
AcDbLine
 62
4
  6
CONTINUOUS
 10
13.4337124156
 20
10.0118042742
 11
13.4187034069
 21
10.004806684
  0
LINE
  5
2F7
100
AcDbEntity
  8
0
100
AcDbLine
 62
4
  6
CONTINUOUS
 10
10.1935752332
 20
7.7725570638
 11
10.2008196771
 21
7.7817139232
  0
LINE
  5
2F8
100
AcDbEntity
  8
0
100
AcDbLine
 62
4
  6
CONTINUOUS
 10
10.1935752332
 20
7.7049422558
 11
10.2080641211
 21
7.7232559658
  0
LINE
  5
2F9
100
AcDbEntity
  8
0
100
AcDbLine
 62
4
  6
CONTINUOUS
 10
12.2156054471
 20
9.9757032535
 11
12.2104290718
 21
9.9707032586
  0
LINE
  5
2FA
100
AcDbEntity
  8
0
100
AcDbLine
 62
7
  6
CONTINUOUS
 10
9.6029890576
 20
7.3781863621
 11
9.506336702
 21
7.2848273501
  0
LINE
  5
2FB
100
AcDbEntity
  8
0
100
AcDbLine
 62
7
  6
CONTINUOUS
 10
9.9683876739
 20
7.5638088715
 11
9.8717353182
 21
7.4704498595
  0
LINE
  5
2FC
100
AcDbEntity
  8
0
100
AcDbLine
 62
7
  6
CONTINUOUS
 10
10.0255971193
 20
7.559841383
 11
9.9289447637
 21
7.4664823709
  0
LINE
  5
2FD
100
AcDbEntity
  8
0
100
AcDbLine
 62
4
  6
CONTINUOUS
 10
9.8096197031
 20
7.8378215094
 11
9.824108591
 21
7.8464759579
  0
LINE
  5
2FE
100
AcDbEntity
  8
0
100
AcDbLine
 62
4
  6
CONTINUOUS
 10
9.9400196944
 20
7.8384374956
 11
9.9255308065
 21
7.8297830471
  0
LINE
  5
2FF
100
AcDbEntity
  8
0
100
AcDbLine
 62
4
  6
CONTINUOUS
 10
10.622593851
 20
10.1225434959
 11
10.6252474891
 21
10.0993924121
  0
LINE
  5
300
100
AcDbEntity
  8
0
100
AcDbLine
 62
7
  6
CONTINUOUS
 10
12.7527322102
 20
10.0515278663
 11
12.7520331541
 21
10.0508653598
  0
LINE
  5
301
100
AcDbEntity
  8
0
100
AcDbLine
 62
4
  6
CONTINUOUS
 10
9.8530863669
 20
7.7382144978
 11
9.8385974789
 21
7.7295600467
  0
LINE
  5
302
100
AcDbEntity
  8
0
100
AcDbLine
 62
4
  6
CONTINUOUS
 10
9.9689974703
 20
7.7301760355
 11
9.9545085824
 21
7.7215215844
  0
LINE
  5
303
100
AcDbEntity
  8
0
100
AcDbLine
 62
7
  6
CONTINUOUS
 10
10.3909957356
 20
7.3235379134
 11
10.2943433799
 21
7.2301789014
  0
LINE
  5
304
100
AcDbEntity
  8
0
100
AcDbLine
 62
7
  6
CONTINUOUS
 10
10.4196004583
 20
7.2720093361
 11
10.3229481026
 21
7.178650324
  0
LINE
  5
305
100
AcDbEntity
  8
0
100
AcDbLine
 62
4
  6
CONTINUOUS
 10
9.9155127074
 20
9.7734841408
 11
9.9062001959
 21
9.7794889445
  0
LINE
  5
306
100
AcDbEntity
  8
0
100
AcDbLine
 62
4
  6
CONTINUOUS
 10
10.3665279619
 20
10.1494885461
 11
10.3934252546
 21
10.1154693386
  0
LINE
  5
307
100
AcDbEntity
  8
0
100
AcDbLine
 62
4
  6
CONTINUOUS
 10
12.9512939305
 20
9.5013237604
 11
12.9202356715
 21
9.471323784
  0
LINE
  5
308
100
AcDbEntity
  8
0
100
AcDbLine
 62
4
  6
CONTINUOUS
 10
13.5025408405
 20
10.0257874325
 11
13.4973644652
 21
10.0207874377
  0
LINE
  5
309
100
AcDbEntity
  8
0
100
AcDbLine
 62
7
  6
CONTINUOUS
 10
10.4196004583
 20
6.8500833571
 11
10.3229481026
 21
6.7567243451
  0
LINE
  5
30A
100
AcDbEntity
  8
0
100
AcDbLine
 62
7
  6
CONTINUOUS
 10
7.9381382124
 20
9.4309869052
 11
12.76776763
 21
9.0960509675
  0
LINE
  5
30B
100
AcDbEntity
  8
0
100
AcDbLine
 62
4
  6
CONTINUOUS
 10
9.1492861969
 20
10.3303661582
 11
9.1539424514
 21
10.3273637551
  0
LINE
  5
30C
100
AcDbEntity
  8
0
100
AcDbLine
 62
4
  6
CONTINUOUS
 10
9.9848612543
 20
9.7954696982
 11
9.9895175088
 21
9.7924672951
  0
LINE
  5
30D
100
AcDbEntity
  8
0
100
AcDbLine
 62
4
  6
CONTINUOUS
 10
10.5124209255
 20
10.0461246004
 11
10.5475975856
 21
10.0115312168
  0
LINE
  5
30E
100
AcDbEntity
  8
0
100
AcDbLine
 62
4
  6
CONTINUOUS
 10
10.7143737157
 20
10.0183388959
 11
10.7297435945
 21
9.9988993481
  0
LINE
  5
30F
100
AcDbEntity
  8
0
100
AcDbLine
 62
4
  6
CONTINUOUS
 10
12.0163770308
 20
9.9707633653
 11
12.0168971516
 21
9.9787657632
  0
LINE
  5
310
100
AcDbEntity
  8
0
100
AcDbLine
 62
7
  6
CONTINUOUS
 10
10.3909957356
 20
6.8025222683
 11
10.2943433799
 21
6.7091632563
  0
LINE
  5
311
100
AcDbEntity
  8
0
100
AcDbLine
 62
7
  6
CONTINUOUS
 10
12.76776763
 20
9.0960509675
 11
14.0618617876
 21
10.3460500099
  0
LINE
  5
312
100
AcDbEntity
  8
0
100
AcDbLine
 62
4
  6
CONTINUOUS
 10
13.4973644652
 20
10.0207874377
 11
13.4875318318
 21
10.0187898423
  0
LINE
  5
313
100
AcDbEntity
  8
0
100
AcDbLine
 62
4
  6
CONTINUOUS
 10
13.4533776797
 20
10.0157994622
 11
13.4337124156
 21
10.0118042742
  0
LINE
  5
314
100
AcDbEntity
  8
0
100
AcDbLine
 62
4
  6
CONTINUOUS
 10
13.4445852888
 20
10.0298066637
 11
13.4544179223
 21
10.031804259
  0
LINE
  5
315
100
AcDbEntity
  8
0
100
AcDbLine
 62
4
  6
CONTINUOUS
 10
9.927413407
 20
9.7699793349
 11
9.9155127074
 21
9.7734841408
  0
LINE
  5
316
100
AcDbEntity
  8
0
100
AcDbLine
 62
4
  6
CONTINUOUS
 10
9.972960554
 20
9.7989745034
 11
9.9848612543
 21
9.7954696982
  0
LINE
  5
317
100
AcDbEntity
  8
0
100
AcDbLine
 62
4
  6
CONTINUOUS
 10
10.8968955498
 20
10.0989271981
 11
10.8930531108
 21
10.1037870825
  0
LINE
  5
318
100
AcDbEntity
  8
0
100
AcDbLine
 62
4
  6
CONTINUOUS
 10
12.2104290718
 20
9.9707032586
 11
12.2005964383
 21
9.9687056633
  0
LINE
  5
319
100
AcDbEntity
  8
0
100
AcDbLine
 62
4
  6
CONTINUOUS
 10
12.1664422863
 20
9.9657152831
 11
12.1467770221
 21
9.9617200951
  0
LINE
  5
31A
100
AcDbEntity
  8
0
100
AcDbLine
 62
4
  6
CONTINUOUS
 10
12.1576498954
 20
9.9797224847
 11
12.1674825288
 21
9.98172008
  0
LINE
  5
31B
100
AcDbEntity
  8
0
100
AcDbLine
 62
4
  6
CONTINUOUS
 10
12.0789888384
 20
9.9637417323
 11
12.0691562061
 21
9.9617441381
  0
LINE
  5
31C
100
AcDbEntity
  8
0
100
AcDbLine
 62
4
  6
CONTINUOUS
 10
12.0319061603
 20
9.9857633534
 11
12.0515714254
 21
9.9897585423
  0
LINE
  5
31D
100
AcDbEntity
  8
0
100
AcDbLine
 62
4
  6
CONTINUOUS
 10
9.9419022949
 20
9.7689745271
 11
9.927413407
 21
9.7699793349
  0
LINE
  5
31E
100
AcDbEntity
  8
0
100
AcDbLine
 62
4
  6
CONTINUOUS
 10
9.9501869805
 20
9.7844769191
 11
9.9791647564
 21
9.7824673036
  0
LINE
  5
31F
100
AcDbEntity
  8
0
100
AcDbLine
 62
4
  6
CONTINUOUS
 10
9.9584716661
 20
9.7999793112
 11
9.972960554
 21
9.7989745034
  0
LINE
  5
320
100
AcDbEntity
  8
0
100
AcDbLine
 62
4
  6
CONTINUOUS
 10
10.0689525975
 20
9.9877670686
 11
10.1071933502
 21
9.9789905159
  0
LINE
  5
321
100
AcDbEntity
  8
0
100
AcDbLine
 62
4
  6
CONTINUOUS
 10
9.1373854967
 20
10.3338709634
 11
9.1492861969
 21
10.3303661582
  0
LINE
  5
322
100
AcDbEntity
  8
0
100
AcDbLine
 62
4
  6
CONTINUOUS
 10
10.2201530275
 20
10.1366726299
 11
10.1755081584
 21
10.1535489939
  0
LINE
  5
323
100
AcDbEntity
  8
0
100
AcDbLine
 62
4
  6
CONTINUOUS
 10
10.19433191
 20
9.9974456259
 11
10.2064537441
 21
9.9920115635
  0
LINE
  5
324
100
AcDbEntity
  8
0
100
AcDbLine
 62
4
  6
CONTINUOUS
 10
10.1555421343
 20
10.1342632944
 11
10.161603052
 21
10.131546263
  0
LINE
  5
325
100
AcDbEntity
  8
0
100
AcDbLine
 62
4
  6
CONTINUOUS
 10
10.6158789333
 20
9.9360573666
 11
10.6037571065
 21
9.9414914289
  0
LINE
  5
326
100
AcDbEntity
  8
0
100
AcDbLine
 62
4
  6
CONTINUOUS
 10
10.2488335893
 20
10.1300902154
 11
10.2609554231
 21
10.1246561527
  0
LINE
  5
327
100
AcDbEntity
  8
0
100
AcDbLine
 62
4
  6
CONTINUOUS
 10
10.7124714826
 20
9.9293586505
 11
10.7003496558
 21
9.9347927128
  0
LINE
  5
328
100
AcDbEntity
  8
0
100
AcDbLine
 62
4
  6
CONTINUOUS
 10
10.2340581339
 20
10.1586753599
 11
10.2401190501
 21
10.1559583279
  0
LINE
  5
329
100
AcDbEntity
  8
0
100
AcDbLine
 62
4
  6
CONTINUOUS
 10
10.7683678511
 20
9.9576360981
 11
10.7804896784
 21
9.9522020363
  0
LINE
  5
32A
100
AcDbEntity
  8
0
100
AcDbLine
 62
4
  6
CONTINUOUS
 10
10.637640995
 20
10.0213636221
 11
10.6497628222
 21
10.0159295602
  0
LINE
  5
32B
100
AcDbEntity
  8
0
100
AcDbLine
 62
4
  6
CONTINUOUS
 10
10.8594408451
 20
9.9513201645
 11
10.8715626724
 21
9.9458861027
  0
LINE
  5
32C
100
AcDbEntity
  8
0
100
AcDbLine
 62
4
  6
CONTINUOUS
 10
10.8102594497
 20
10.1095288424
 11
10.8135605571
 21
10.1070032037
  0
LINE
  5
32D
100
AcDbEntity
  8
0
100
AcDbLine
 62
4
  6
CONTINUOUS
 10
9.9688120035
 20
9.7724673116
 11
9.9589793712
 21
9.7704697174
  0
LINE
  5
32E
100
AcDbEntity
  8
0
100
AcDbLine
 62
4
  6
CONTINUOUS
 10
9.9217293255
 20
9.7944889327
 11
9.9413945905
 21
9.7984841216
  0
LINE
  5
32F
100
AcDbEntity
  8
0
100
AcDbLine
 62
4
  6
CONTINUOUS
 10
10.8493782016
 20
9.9244575481
 11
10.828382586
 21
9.9213201882
  0
LINE
  5
330
100
AcDbEntity
  8
0
100
AcDbLine
 62
4
  6
CONTINUOUS
 10
10.7583052075
 20
9.9307734817
 11
10.737309592
 21
9.9276361218
  0
LINE
  5
331
100
AcDbEntity
  8
0
100
AcDbLine
 62
4
  6
CONTINUOUS
 10
10.7225341266
 20
9.9562212674
 11
10.7435297417
 21
9.9593586269
  0
LINE
  5
332
100
AcDbEntity
  8
0
100
AcDbLine
 62
4
  6
CONTINUOUS
 10
10.6259415773
 20
9.9629199835
 11
10.6469371924
 21
9.9660573429
  0
LINE
  5
333
100
AcDbEntity
  8
0
100
AcDbLine
 62
4
  6
CONTINUOUS
 10
11.2296410603
 20
10.0574775755
 11
11.2401388405
 21
10.0590462574
  0
LINE
  5
334
100
AcDbEntity
  8
0
100
AcDbLine
 62
4
  6
CONTINUOUS
 10
11.2082103085
 20
10.0796341505
 11
11.2187080893
 21
10.081202833
  0
LINE
  5
335
100
AcDbEntity
  8
0
100
AcDbLine
 62
4
  6
CONTINUOUS
 10
13.4875318318
 20
10.0187898423
 11
13.4533776797
 21
10.0157994622
  0
LINE
  5
336
100
AcDbEntity
  8
0
100
AcDbLine
 62
4
  6
CONTINUOUS
 10
13.4544179223
 20
10.031804259
 11
13.4714949978
 21
10.0332994487
  0
LINE
  5
337
100
AcDbEntity
  8
0
100
AcDbLine
 62
4
  6
CONTINUOUS
 10
9.9589793712
 20
9.7704697174
 11
9.9419022949
 21
9.7689745271
  0
LINE
  5
338
100
AcDbEntity
  8
0
100
AcDbLine
 62
4
  6
CONTINUOUS
 10
12.2005964383
 20
9.9687056633
 11
12.1664422863
 21
9.9657152831
  0
LINE
  5
339
100
AcDbEntity
  8
0
100
AcDbLine
 62
4
  6
CONTINUOUS
 10
12.0691562061
 20
9.9617441381
 11
12.0520791298
 21
9.9602489478
  0
LINE
  5
33A
100
AcDbEntity
  8
0
100
AcDbLine
 62
4
  6
CONTINUOUS
 10
12.1674825288
 20
9.98172008
 11
12.1845596044
 21
9.9832152696
  0
LINE
  5
33B
100
AcDbEntity
  8
0
100
AcDbLine
 62
4
  6
CONTINUOUS
 10
9.9413945905
 20
9.7984841216
 11
9.9584716661
 21
9.7999793112
  0
LINE
  5
33C
100
AcDbEntity
  8
0
100
AcDbLine
 62
4
  6
CONTINUOUS
 10
12.0515714254
 20
9.9897585423
 11
12.068648501
 21
9.9912537319
  0
LINE
  5
33D
100
AcDbEntity
  8
0
100
AcDbLine
 62
4
  6
CONTINUOUS
 10
11.032118645
 20
9.9209712763
 11
10.9820461778
 21
9.9183192662
  0
LINE
  5
33E
100
AcDbEntity
  8
0
100
AcDbLine
 62
4
  6
CONTINUOUS
 10
10.1190250686
 20
9.9904190789
 11
10.0689525975
 21
9.9877670686
  0
LINE
  5
33F
100
AcDbEntity
  8
0
100
AcDbLine
 62
4
  6
CONTINUOUS
 10
10.828382586
 20
9.9213201882
 11
10.7869857555
 21
9.9241910681
  0
LINE
  5
340
100
AcDbEntity
  8
0
100
AcDbLine
 62
4
  6
CONTINUOUS
 10
10.737309592
 20
9.9276361218
 11
10.7124714826
 21
9.9293586505
  0
LINE
  5
341
100
AcDbEntity
  8
0
100
AcDbLine
 62
4
  6
CONTINUOUS
 10
10.6489963756
 20
9.9337606641
 11
10.6158789333
 21
9.9360573666
  0
LINE
  5
342
100
AcDbEntity
  8
0
100
AcDbLine
 62
4
  6
CONTINUOUS
 10
10.1632736509
 20
9.9674456495
 11
10.1218768341
 21
9.9703165285
  0
LINE
  5
343
100
AcDbEntity
  8
0
100
AcDbLine
 62
4
  6
CONTINUOUS
 10
10.4254535293
 20
9.9492634132
 11
10.4751297205
 21
9.9458183576
  0
LINE
  5
344
100
AcDbEntity
  8
0
100
AcDbLine
 62
4
  6
CONTINUOUS
 10
10.8918577483
 20
9.9169181707
 11
10.9415339118
 21
9.9134731171
  0
LINE
  5
345
100
AcDbEntity
  8
0
100
AcDbLine
 62
4
  6
CONTINUOUS
 10
10.2466617194
 20
9.9708494889
 11
10.2908183276
 21
9.9677872177
  0
LINE
  5
346
100
AcDbEntity
  8
0
100
AcDbLine
 62
4
  6
CONTINUOUS
 10
10.9427227681
 20
9.9317643127
 11
10.9096053257
 21
9.9340610151
  0
LINE
  5
347
100
AcDbEntity
  8
0
100
AcDbLine
 62
4
  6
CONTINUOUS
 10
10.4763185767
 20
9.9641095532
 11
10.4432011067
 21
9.9664062576
  0
LINE
  5
348
100
AcDbEntity
  8
0
100
AcDbLine
 62
4
  6
CONTINUOUS
 10
10.1529350932
 20
10.0003165049
 11
10.19433191
 21
9.9974456259
  0
LINE
  5
349
100
AcDbEntity
  8
0
100
AcDbLine
 62
4
  6
CONTINUOUS
 10
10.3571594061
 20
9.9861535006
 11
10.4233943184
 21
9.9815600939
  0
LINE
  5
34A
100
AcDbEntity
  8
0
100
AcDbLine
 62
4
  6
CONTINUOUS
 10
10.4565117884
 20
9.9792633895
 11
10.5061879795
 21
9.975818334
  0
LINE
  5
34B
100
AcDbEntity
  8
0
100
AcDbLine
 62
4
  6
CONTINUOUS
 10
10.6469371924
 20
9.9660573429
 11
10.6800546347
 21
9.9637606405
  0
LINE
  5
34C
100
AcDbEntity
  8
0
100
AcDbLine
 62
4
  6
CONTINUOUS
 10
10.7435297417
 20
9.9593586269
 11
10.7683678511
 21
9.9576360981
  0
LINE
  5
34D
100
AcDbEntity
  8
0
100
AcDbLine
 62
4
  6
CONTINUOUS
 10
10.8180440146
 20
9.9541910445
 11
10.8594408451
 21
9.9513201645
  0
LINE
  5
34E
100
AcDbEntity
  8
0
100
AcDbLine
 62
4
  6
CONTINUOUS
 10
10.9229160074
 20
9.9469181471
 11
10.9725921709
 21
9.9434730934
  0
LINE
  5
34F
100
AcDbEntity
  8
0
100
AcDbLine
 62
4
  6
CONTINUOUS
 10
10.6221118654
 20
10.0063636339
 11
10.5807150418
 21
10.0092345134
  0
LINE
  5
350
100
AcDbEntity
  8
0
100
AcDbLine
 62
4
  6
CONTINUOUS
 10
10.5962441713
 20
10.0242345015
 11
10.637640995
 21
10.0213636221
  0
LINE
  5
351
100
AcDbEntity
  8
0
100
AcDbLine
 62
4
  6
CONTINUOUS
 10
10.6117733009
 20
10.0392344897
 11
10.6366113895
 21
10.0375119624
  0
LINE
  5
352
100
AcDbEntity
  8
0
100
AcDbLine
 62
4
  6
CONTINUOUS
 10
12.0520791298
 20
9.9602489478
 11
12.0375902419
 21
9.9612537556
  0
LINE
  5
353
100
AcDbEntity
  8
0
100
AcDbLine
 62
4
  6
CONTINUOUS
 10
12.1317680134
 20
9.954722505
 11
12.1897235651
 21
9.9507032738
  0
LINE
  5
354
100
AcDbEntity
  8
0
100
AcDbLine
 62
4
  6
CONTINUOUS
 10
10.6366113895
 20
10.0375119624
 11
10.6441512807
 21
10.0362234999
  0
LINE
  5
355
100
AcDbEntity
  8
0
100
AcDbLine
 62
4
  6
CONTINUOUS
 10
10.9938778962
 20
9.9297478293
 11
11.032118645
 21
9.9209712763
  0
LINE
  5
356
100
AcDbEntity
  8
0
100
AcDbLine
 62
4
  6
CONTINUOUS
 10
10.6887225961
 20
10.0949903984
 11
10.6743823221
 21
10.0982816052
  0
LINE
  5
357
100
AcDbEntity
  8
0
100
AcDbLine
 62
4
  6
CONTINUOUS
 10
10.8460305301
 20
10.0840810562
 11
10.8316902561
 21
10.0873722629
  0
LINE
  5
358
100
AcDbEntity
  8
0
100
AcDbLine
 62
4
  6
CONTINUOUS
 10
10.6441512807
 20
10.0362234999
 11
10.6570125912
 21
10.031503724
  0
LINE
  5
359
100
AcDbEntity
  8
0
100
AcDbLine
 62
4
  6
CONTINUOUS
 10
10.5811970204
 20
10.1254143758
 11
10.5872579331
 21
10.122697344
  0
LINE
  5
35A
100
AcDbEntity
  8
0
100
AcDbLine
 62
4
  6
CONTINUOUS
 10
10.9144838619
 20
10.0816305069
 11
10.9205448029
 21
10.0789134738
  0
LINE
  5
35B
100
AcDbEntity
  8
0
100
AcDbLine
 62
4
  6
CONTINUOUS
 10
11.003338464
 20
10.0731717139
 11
10.997277523
 21
10.075888747
  0
LINE
  5
35C
100
AcDbEntity
  8
0
100
AcDbLine
 62
4
  6
CONTINUOUS
 10
11.1220092899
 20
10.0649418642
 11
11.1159484041
 21
10.0676588934
  0
LINE
  5
35D
100
AcDbEntity
  8
0
100
AcDbLine
 62
4
  6
CONTINUOUS
 10
11.1904627322
 20
10.0624913072
 11
11.196523618
 21
10.059774278
  0
LINE
  5
35E
100
AcDbEntity
  8
0
100
AcDbLine
 62
7
  6
CONTINUOUS
 10
12.76776763
 20
9.0960509675
 11
12.76776763
 21
6.3190140523
  0
LINE
  5
35F
100
AcDbEntity
  8
0
100
AcDbLine
 62
4
  6
CONTINUOUS
 10
10.4813626664
 20
10.016124624
 11
10.5786558447
 21
10.0415311931
  0
LINE
  5
360
100
AcDbEntity
  8
0
100
AcDbLine
 62
4
  6
CONTINUOUS
 10
10.6821408099
 20
10.0129185708
 11
10.7608018535
 21
10.0288993245
  0
LINE
  5
361
100
AcDbEntity
  8
0
100
AcDbLine
 62
4
  6
CONTINUOUS
 10
10.6431074809
 20
10.0095009938
 11
10.6221118654
 21
10.0063636339
  0
LINE
  5
362
100
AcDbEntity
  8
0
100
AcDbLine
 62
4
  6
CONTINUOUS
 10
11.1336959803
 20
10.0848017367
 11
11.1441937612
 21
10.0863704192
  0
LINE
  5
363
100
AcDbEntity
  8
0
100
AcDbLine
 62
4
  6
CONTINUOUS
 10
10.6503572494
 20
10.0250751571
 11
10.6293616344
 21
10.0219377977
  0
LINE
  5
364
100
AcDbEntity
  8
0
100
AcDbLine
 62
4
  6
CONTINUOUS
 10
10.1842692733
 20
9.9705830089
 11
10.1632736509
 21
9.9674456495
  0
LINE
  5
365
100
AcDbEntity
  8
0
100
AcDbLine
 62
4
  6
CONTINUOUS
 10
10.2857935255
 20
10.1229336244
 11
10.3067891411
 21
10.1260709843
  0
LINE
  5
366
100
AcDbEntity
  8
0
100
AcDbLine
 62
4
  6
CONTINUOUS
 10
10.1947205108
 20
10.1292495594
 11
10.2157161332
 21
10.1323869188
  0
LINE
  5
367
100
AcDbEntity
  8
0
100
AcDbLine
 62
4
  6
CONTINUOUS
 10
10.1799450523
 20
10.1578347046
 11
10.200940676
 21
10.1609720634
  0
LINE
  5
368
100
AcDbEntity
  8
0
100
AcDbLine
 62
4
  6
CONTINUOUS
 10
10.8383455976
 20
10.0938008296
 11
10.8571227657
 21
10.0947953337
  0
LINE
  5
369
100
AcDbEntity
  8
0
100
AcDbLine
 62
4
  6
CONTINUOUS
 10
10.6921298983
 20
10.1154244485
 11
10.7109070674
 21
10.1164189535
  0
LINE
  5
36A
100
AcDbEntity
  8
0
100
AcDbLine
 62
4
  6
CONTINUOUS
 10
12.0603638154
 20
9.9757513399
 11
12.0893415912
 21
9.9737417243
  0
LINE
  5
36B
100
AcDbEntity
  8
0
100
AcDbLine
 62
4
  6
CONTINUOUS
 10
12.068648501
 20
9.9912537319
 11
12.0831373889
 21
9.9902489242
  0
LINE
  5
36C
100
AcDbEntity
  8
0
100
AcDbLine
 62
4
  6
CONTINUOUS
 10
12.1845596044
 20
9.9832152696
 11
12.1990484923
 21
9.9822104618
  0
LINE
  5
36D
100
AcDbEntity
  8
0
100
AcDbLine
 62
4
  6
CONTINUOUS
 10
10.5930145561
 20
10.0939720893
 11
10.6095732772
 21
10.0928237381
  0
LINE
  5
36E
100
AcDbEntity
  8
0
100
AcDbLine
 62
4
  6
CONTINUOUS
 10
11.1551268427
 20
10.0626451541
 11
11.1220092899
 21
10.0649418642
  0
LINE
  5
36F
100
AcDbEntity
  8
0
100
AcDbLine
 62
4
  6
CONTINUOUS
 10
11.0198971852
 20
10.0720233627
 11
11.003338464
 21
10.0731717139
  0
LINE
  5
370
100
AcDbEntity
  8
0
100
AcDbLine
 62
4
  6
CONTINUOUS
 10
10.8791479724
 20
10.0817843537
 11
10.8460305301
 21
10.0840810562
  0
LINE
  5
371
100
AcDbEntity
  8
0
100
AcDbLine
 62
4
  6
CONTINUOUS
 10
10.7218400384
 20
10.092693696
 11
10.6887225961
 21
10.0949903984
  0
LINE
  5
372
100
AcDbEntity
  8
0
100
AcDbLine
 62
4
  6
CONTINUOUS
 10
10.161603052
 20
10.131546263
 11
10.1947205108
 21
10.1292495594
  0
LINE
  5
373
100
AcDbEntity
  8
0
100
AcDbLine
 62
4
  6
CONTINUOUS
 10
10.2609554231
 20
10.1246561527
 11
10.2857935255
 21
10.1229336244
  0
LINE
  5
374
100
AcDbEntity
  8
0
100
AcDbLine
 62
4
  6
CONTINUOUS
 10
10.9205448029
 20
10.0789134738
 11
10.9619416335
 21
10.0760425938
  0
LINE
  5
375
100
AcDbEntity
  8
0
100
AcDbLine
 62
4
  6
CONTINUOUS
 10
11.196523618
 20
10.059774278
 11
11.2296410603
 21
10.0574775755
  0
LINE
  5
376
100
AcDbEntity
  8
0
100
AcDbLine
 62
4
  6
CONTINUOUS
 10
10.8571227657
 20
10.0947953337
 11
10.890240208
 21
10.0924986313
  0
LINE
  5
377
100
AcDbEntity
  8
0
100
AcDbLine
 62
4
  6
CONTINUOUS
 10
10.8930531108
 20
10.1037870825
 11
10.8516562802
 21
10.1066579624
  0
LINE
  5
378
100
AcDbEntity
  8
0
100
AcDbLine
 62
4
  6
CONTINUOUS
 10
10.5398001899
 20
10.1282852557
 11
10.5811970204
 21
10.1254143758
  0
LINE
  5
379
100
AcDbEntity
  8
0
100
AcDbLine
 62
4
  6
CONTINUOUS
 10
10.7109070674
 20
10.1164189535
 11
10.7440245097
 21
10.1141222511
  0
LINE
  5
37A
100
AcDbEntity
  8
0
100
AcDbLine
 62
4
  6
CONTINUOUS
 10
10.7771420073
 20
10.1118255448
 11
10.8102594497
 21
10.1095288424
  0
LINE
  5
37B
100
AcDbEntity
  8
0
100
AcDbLine
 62
4
  6
CONTINUOUS
 10
11.1441937612
 20
10.0863704192
 11
11.177311314
 21
10.0840737091
  0
LINE
  5
37C
100
AcDbEntity
  8
0
100
AcDbLine
 62
4
  6
CONTINUOUS
 10
11.2187080893
 20
10.081202833
 11
11.2518255316
 21
10.0789061306
  0
LINE
  5
37D
100
AcDbEntity
  8
0
100
AcDbLine
 62
4
  6
CONTINUOUS
 10
10.200940676
 20
10.1609720634
 11
10.2340581339
 21
10.1586753599
  0
LINE
  5
37E
100
AcDbEntity
  8
0
100
AcDbLine
 62
4
  6
CONTINUOUS
 10
11.1006316078
 20
10.0985782854
 11
11.1033913854
 21
10.0983868942
  0
LINE
  5
37F
100
AcDbEntity
  8
0
100
AcDbLine
 62
4
  6
CONTINUOUS
 10
9.0701050177
 20
10.3063830066
 11
9.1280605695
 21
10.3023637754
  0
LINE
  5
380
100
AcDbEntity
  8
0
100
AcDbLine
 62
4
  6
CONTINUOUS
 10
13.4187034069
 20
10.004806684
 11
13.4766589586
 21
10.0007874528
  0
LINE
  5
381
100
AcDbEntity
  8
0
100
AcDbLine
 62
4
  6
CONTINUOUS
 10
9.1228966087
 20
10.3348757712
 11
9.1373854967
 21
10.3338709634
  0
LINE
  5
382
100
AcDbEntity
  8
0
100
AcDbLine
 62
4
  6
CONTINUOUS
 10
13.4714949978
 20
10.0332994487
 11
13.4859838858
 21
10.0322946409
  0
LINE
  5
383
100
AcDbEntity
  8
0
100
AcDbLine
 62
4
  6
CONTINUOUS
 10
11.2399938137
 20
10.067477568
 11
11.208355336
 21
10.0712028406
  0
LINE
  5
384
100
AcDbEntity
  8
0
100
AcDbLine
 62
4
  6
CONTINUOUS
 10
11.208355336
 20
10.0712028406
 11
11.2015549677
 21
10.0732055845
  0
LINE
  5
385
100
AcDbEntity
  8
0
100
AcDbLine
 62
4
  6
CONTINUOUS
 10
11.246794182
 20
10.065474824
 11
11.2399938137
 21
10.067477568
  0
LINE
  5
386
100
AcDbEntity
  8
0
100
AcDbLine
 62
4
  6
CONTINUOUS
 10
12.0375902419
 20
9.9612537556
 11
12.0256895423
 21
9.9647585615
  0
LINE
  5
387
100
AcDbEntity
  8
0
100
AcDbLine
 62
4
  6
CONTINUOUS
 10
12.0831373889
 20
9.9902489242
 11
12.0950380892
 21
9.9867441189
  0
LINE
  5
388
100
AcDbEntity
  8
0
100
AcDbLine
 62
4
  6
CONTINUOUS
 10
12.1990484923
 20
9.9822104618
 11
12.2109491926
 21
9.9787056566
  0
LINE
  5
389
100
AcDbEntity
  8
0
100
AcDbLine
 62
4
  6
CONTINUOUS
 10
11.2518255316
 20
10.0789061306
 11
11.2578864167
 21
10.0761891007
  0
LINE
  5
38A
100
AcDbEntity
  8
0
100
AcDbLine
 62
4
  6
CONTINUOUS
 10
12.0256895423
 20
9.9647585615
 11
12.0163770308
 21
9.9707633653
  0
LINE
  5
38B
100
AcDbEntity
  8
0
100
AcDbLine
 62
4
  6
CONTINUOUS
 10
9.1389334427
 20
10.3203661649
 11
9.1047792906
 21
10.3173757847
  0
LINE
  5
38C
100
AcDbEntity
  8
0
100
AcDbLine
 62
4
  6
CONTINUOUS
 10
9.1058195332
 20
10.3333805816
 11
9.1228966087
 21
10.3348757712
  0
LINE
  5
38D
100
AcDbEntity
  8
0
100
AcDbLine
 62
4
  6
CONTINUOUS
 10
12.0950380892
 20
9.9867441189
 11
12.0996943436
 21
9.9837417158
  0
LINE
  5
38E
100
AcDbEntity
  8
0
100
AcDbLine
 62
4
  6
CONTINUOUS
 10
12.2109491926
 20
9.9787056566
 11
12.2156054471
 21
9.9757032535
  0
LINE
  5
38F
100
AcDbEntity
  8
0
100
AcDbLine
 62
4
  6
CONTINUOUS
 10
9.1487660761
 20
10.3223637602
 11
9.1389334427
 21
10.3203661649
  0
LINE
  5
390
100
AcDbEntity
  8
0
100
AcDbLine
 62
4
  6
CONTINUOUS
 10
9.1047792906
 20
10.3173757847
 11
9.0851140265
 21
10.3133805968
  0
LINE
  5
391
100
AcDbEntity
  8
0
100
AcDbLine
 62
4
  6
CONTINUOUS
 10
9.0959868997
 20
10.3313829863
 11
9.1058195332
 21
10.3333805816
  0
LINE
  5
392
100
AcDbEntity
  8
0
100
AcDbLine
 62
7
  6
CONTINUOUS
 10
9.23223237
 20
10.6809859477
 11
14.0618617876
 21
10.3460500099
  0
LINE
  5
393
100
AcDbEntity
  8
0
100
AcDbLine
 62
4
  6
CONTINUOUS
 10
13.4859838858
 20
10.0322946409
 11
13.4978845861
 21
10.0287898356
  0
LINE
  5
394
100
AcDbEntity
  8
0
100
AcDbLine
 62
4
  6
CONTINUOUS
 10
13.4978845861
 20
10.0287898356
 11
13.5025408405
 21
10.0257874325
  0
LINE
  5
395
100
AcDbEntity
  8
0
100
AcDbLine
 62
7
  6
CONTINUOUS
 10
12.76776763
 20
6.3190140523
 11
14.0618617876
 21
7.5690130948
  0
LINE
  5
396
100
AcDbEntity
  8
0
100
AcDbLine
 62
7
  6
CONTINUOUS
 10
14.0618617876
 20
10.3460500099
 11
14.0618617876
 21
7.5690130948
  0
ARC
  5
397
100
AcDbEntity
  8
0
100
AcDbCircle
 62
7
  6
CONTINUOUS
 10
9.9545849237
 20
7.0475721635
 40
0.5163443539
100
AcDbArc
 50
25.7640228377
 51
32.3073428428
  0
ARC
  5
398
100
AcDbEntity
  8
0
100
AcDbCircle
 62
7
  6
CONTINUOUS
 10
9.9427475138
 20
7.0397774549
 40
0.5163443539
100
AcDbArc
 50
205.7640228377
 51
212.3073428428
  0
ARC
  5
399
100
AcDbEntity
  8
0
100
AcDbCircle
 62
7
  6
CONTINUOUS
 10
9.8579325681
 20
6.9542131515
 40
0.5163443539
100
AcDbArc
 50
25.7640228377
 51
32.3073428428
  0
ARC
  5
39A
100
AcDbEntity
  8
0
100
AcDbCircle
 62
7
  6
CONTINUOUS
 10
9.9637927758
 20
7.0846167379
 40
0.4792267106
100
AcDbArc
 50
82.590107291
 51
86.0275106487
  0
ARC
  5
39B
100
AcDbEntity
  8
0
100
AcDbCircle
 62
7
  6
CONTINUOUS
 10
9.9335396617
 20
7.0027328806
 40
0.4792267106
100
AcDbArc
 50
262.590107291
 51
266.0275106487
  0
ARC
  5
39C
100
AcDbEntity
  8
0
100
AcDbCircle
 62
7
  6
CONTINUOUS
 10
9.8671404202
 20
6.9912577258
 40
0.4792267106
100
AcDbArc
 50
82.590107291
 51
86.0275106487
  0
ARC
  5
39D
100
AcDbEntity
  8
0
100
AcDbCircle
 62
7
  6
CONTINUOUS
 10
9.9330972676
 20
6.9967859973
 40
0.4732634681
100
AcDbArc
 50
266.0310634489
 51
269.4972694561
  0
ARC
  5
39E
100
AcDbEntity
  8
0
100
AcDbCircle
 62
7
  6
CONTINUOUS
 10
9.8675828143
 20
6.9972046091
 40
0.4732634681
100
AcDbArc
 50
86.0310634489
 51
89.4972694561
  0
ARC
  5
39F
100
AcDbEntity
  8
0
100
AcDbCircle
 62
7
  6
CONTINUOUS
 10
9.9642739099
 20
7.0915558711
 40
0.4722709174
100
AcDbArc
 50
86.0274199487
 51
89.5009129563
  0
ARC
  5
3A0
100
AcDbEntity
  8
0
100
AcDbCircle
 62
7
  6
CONTINUOUS
 10
11.5585475122
 20
8.144522046
 40
0.4466687
100
AcDbArc
 50
172.7542887723
 51
180.0157507753
  0
ARC
  5
3A1
100
AcDbEntity
  8
0
100
AcDbCircle
 62
7
  6
CONTINUOUS
 10
10.0364555698
 20
7.0481362164
 40
0.4313060869
100
AcDbArc
 50
325.2870362755
 51
332.6649360488
  0
ARC
  5
3A2
100
AcDbEntity
  8
0
100
AcDbCircle
 62
7
  6
CONTINUOUS
 10
9.8608768677
 20
7.0392134021
 40
0.4313060869
100
AcDbArc
 50
145.2870362755
 51
152.6649360488
  0
ARC
  5
3A3
100
AcDbEntity
  8
0
100
AcDbCircle
 62
7
  6
CONTINUOUS
 10
9.9398032142
 20
6.9547772043
 40
0.4313060869
100
AcDbArc
 50
325.2870362755
 51
332.6649360488
  0
ARC
  5
3A4
100
AcDbEntity
  8
0
100
AcDbCircle
 62
7
  6
CONTINUOUS
 10
8.5943569753
 20
7.2388463958
 40
0.4283320577
100
AcDbArc
 50
312.4667075194
 51
313.131538866
  0
ARC
  5
3A5
100
AcDbEntity
  8
0
100
AcDbCircle
 62
7
  6
CONTINUOUS
 10
8.5058786661
 20
7.3304454525
 40
0.4283148542
100
AcDbArc
 50
134.5842866698
 51
135.5470096427
  0
ARC
  5
3A6
100
AcDbEntity
  8
0
100
AcDbCircle
 62
7
  6
CONTINUOUS
 10
11.5672871428
 20
8.1499806242
 40
0.4186659821
100
AcDbArc
 50
173.5480567965
 51
180.0124522951
  0
ARC
  5
3A7
100
AcDbEntity
  8
0
100
AcDbCircle
 62
7
  6
CONTINUOUS
 10
9.9950416776
 20
7.1567576936
 40
0.3815290645
100
AcDbArc
 50
111.990565072
 51
120.9428203508
  0
ARC
  5
3A8
100
AcDbEntity
  8
0
100
AcDbCircle
 62
7
  6
CONTINUOUS
 10
8.5557699273
 20
7.2637677277
 40
0.2928253144
100
AcDbArc
 50
349.3351665064
 51
0.0338997592
  0
SPLINE
  5
3A9
100
AcDbEntity
  8
0
100
AcDbSpline
 62
7
  6
CONTINUOUS
 70
0
 71
3
 72
20
 73
16
 74
0
 42
0.0000001
 43
0.0000001
 44
0.0000000001
 40
0.0
 40
0.0
 40
0.0
 40
0.0
 40
0.1307130444
 40
0.2609290879
 40
0.3256870374
 40
0.3901050986
 40
0.4540966361
 40
0.517574691
 40
0.5804573165
 40
0.6426728974
 40
0.7041645318
 40
0.7648928072
 40
0.8248367025
 40
0.8839927538
 40
1.0
 40
1.0
 40
1.0
 40
1.0
 10
9.4777319793
 20
7.2372662613
 30
0.0
 10
9.4765426941
 20
7.2189051197
 30
0.0
 10
9.4743853683
 20
7.1822381279
 30
0.0
 10
9.472338943
 20
7.1364370521
 30
0.0
 10
9.4711587943
 20
7.0999428188
 30
0.0
 10
9.4705169016
 20
7.0727590961
 30
0.0
 10
9.4701268916
 20
7.0457507535
 30
0.0
 10
9.4699953054
 20
7.0189560257
 30
0.0
 10
9.4701244451
 20
6.9924112671
 30
0.0
 10
9.4705121486
 20
6.9661486715
 30
0.0
 10
9.4711519891
 20
6.940194363
 30
0.0
 10
9.4720338022
 20
6.9145671357
 30
0.0
 10
9.473144506
 20
6.8892778854
 30
0.0
 10
9.4748988982
 20
6.8562295954
 30
0.0
 10
9.4765263034
 20
6.8316252904
 30
0.0
 10
9.4777319793
 20
6.8153402824
 30
0.0
  0
SPLINE
  5
3AA
100
AcDbEntity
  8
0
100
AcDbSpline
 62
7
  6
CONTINUOUS
 70
0
 71
3
 72
21
 73
17
 74
0
 42
0.0000001
 43
0.0000001
 44
0.0000000001
 40
0.0
 40
0.0
 40
0.0
 40
0.0
 40
0.1211316245
 40
0.1823736293
 40
0.2440533566
 40
0.3061457671
 40
0.3686121396
 40
0.431400593
 40
0.4944480865
 40
0.5576838397
 40
0.6210337674
 40
0.6844252162
 40
0.7477912094
 40
0.811073636
 40
0.8742251276
 40
1.0
 40
1.0
 40
1.0
 40
1.0
 10
9.506336702
 20
6.763811705
 30
0.0
 10
9.5201675582
 20
6.752933502
 30
0.0
 10
9.5411440186
 20
6.7367480765
 30
0.0
 10
9.5695527082
 20
6.7155380187
 30
0.0
 10
9.5912687921
 20
6.6997021618
 30
0.0
 10
9.613315686
 20
6.6840212754
 30
0.0
 10
9.6356862991
 20
6.668521097
 30
0.0
 10
9.6583661679
 20
6.6532274305
 30
0.0
 10
9.6813338013
 20
6.6381646166
 30
0.0
 10
9.7045616663
 20
6.6233540264
 30
0.0
 10
9.7280178071
 20
6.6088126874
 30
0.0
 10
9.751667863
 20
6.5945523152
 30
0.0
 10
9.7754771229
 20
6.5805788679
 30
0.0
 10
9.7994124338
 20
6.5668925969
 30
0.0
 10
9.8314093709
 20
6.5490454774
 30
0.0
 10
9.8555753979
 20
6.5360333327
 30
0.0
 10
9.8717353182
 20
6.5275082355
 30
0.0
  0
SPLINE
  5
3AB
100
AcDbEntity
  8
0
100
AcDbSpline
 62
7
  6
CONTINUOUS
 70
0
 71
3
 72
15
 73
11
 74
0
 42
0.0000001
 43
0.0000001
 44
0.0000000001
 40
0.0
 40
0.0
 40
0.0
 40
0.0
 40
0.1128138383
 40
0.2295637229
 40
0.3503753066
 40
0.4750618339
 40
0.60311002
 40
0.73378544
 40
0.8663079068
 40
1.0
 40
1.0
 40
1.0
 40
1.0
 10
9.9289447637
 20
6.5235407469
 30
0.0
 10
9.9429042554
 20
6.5300779402
 30
0.0
 10
9.9712633644
 20
6.5434809077
 30
0.0
 10
10.0143876064
 20
6.5642711142
 30
0.0
 10
10.0587938518
 20
6.5861339818
 30
0.0
 10
10.104392568
 20
6.6090656378
 30
0.0
 10
10.1510000024
 20
6.6329871966
 30
0.0
 10
10.198373085
 20
6.6577581717
 30
0.0
 10
10.2462600439
 20
6.683207735
 30
0.0
 10
10.2782824362
 20
6.700460866
 30
0.0
 10
10.2943433799
 20
6.7091632563
 30
0.0
  0
SPLINE
  5
3AC
100
AcDbEntity
  8
0
100
AcDbSpline
 62
7
  6
CONTINUOUS
 70
0
 71
3
 72
22
 73
18
 74
0
 42
0.0000001
 43
0.0000001
 44
0.0000000001
 40
0.0
 40
0.0
 40
0.0
 40
0.0
 40
0.0662652743
 40
0.1328051367
 40
0.1995364916
 40
0.2663370505
 40
0.3994351903
 40
0.4652808744
 40
0.5303098216
 40
0.594262539
 40
0.6569110682
 40
0.7180810003
 40
0.777662912
 40
0.8356126734
 40
0.8919431812
 40
0.9467104377
 40
1.0
 40
1.0
 40
1.0
 40
1.0
 10
10.4196004583
 20
6.8500833571
 30
0.0
 10
10.4205971121
 20
6.8593740112
 30
0.0
 10
10.4225107216
 20
6.8780029526
 30
0.0
 10
10.425105901
 20
6.9060198101
 30
0.0
 10
10.4273962816
 20
6.9341392122
 30
0.0
 10
10.4299894332
 20
6.9716473609
 30
0.0
 10
10.4318217425
 20
7.0090811296
 30
0.0
 10
10.4327644132
 20
7.046292933
 30
0.0
 10
10.4330041718
 20
7.0737655495
 30
0.0
 10
10.4327722437
 20
7.1007873977
 30
0.0
 10
10.4320749376
 20
7.1272569397
 30
0.0
 10
10.4309311207
 20
7.153094001
 30
0.0
 10
10.429369529
 20
7.1782452975
 30
0.0
 10
10.4274253738
 20
7.2026853089
 30
0.0
 10
10.4251369176
 20
7.2264134071
 30
0.0
 10
10.4225425427
 20
7.2494486604
 30
0.0
 10
10.420608092
 20
7.2645629274
 30
0.0
 10
10.4196004583
 20
7.2720093361
 30
0.0
  0
SPLINE
  5
3AD
100
AcDbEntity
  8
0
100
AcDbSpline
 62
7
  6
CONTINUOUS
 70
0
 71
3
 72
22
 73
18
 74
0
 42
0.0000001
 43
0.0000001
 44
0.0000000001
 40
0.0
 40
0.0
 40
0.0
 40
0.0
 40
0.0578996962
 40
0.1168101933
 40
0.1767600489
 40
0.2377470615
 40
0.2997283629
 40
0.3626113545
 40
0.4262509392
 40
0.4904549087
 40
0.5549987336
 40
0.6196477114
 40
0.6841805087
 40
0.7484081384
 40
0.8121847207
 40
0.8754100196
 40
1.0
 40
1.0
 40
1.0
 40
1.0
 10
10.3909957356
 20
7.3235379134
 30
0.0
 10
10.3847419414
 20
7.3291993591
 30
0.0
 10
10.3720350715
 20
7.340522075
 30
0.0
 10
10.3525193589
 20
7.35732777
 30
0.0
 10
10.3323533803
 20
7.3740614212
 30
0.0
 10
10.311513792
 20
7.3906762835
 30
0.0
 10
10.2899941876
 20
7.4071147677
 30
0.0
 10
10.267810214
 20
7.42330982
 30
0.0
 10
10.245002741
 20
7.439188401
 30
0.0
 10
10.2216377518
 20
7.4546770527
 30
0.0
 10
10.1978023189
 20
7.469708946
 30
0.0
 10
10.173596628
 20
7.4842301477
 30
0.0
 10
10.1491244699
 20
7.4982045842
 30
0.0
 10
10.1244839629
 20
7.5116155563
 30
0.0
 10
10.0997605647
 20
7.5244647463
 30
0.0
 10
10.0669392247
 20
7.5407901091
 30
0.0
 10
10.04214492
 20
7.5523798336
 30
0.0
 10
10.0255971193
 20
7.559841383
 30
0.0
  0
SPLINE
  5
3AE
100
AcDbEntity
  8
0
100
AcDbSpline
 62
7
  6
CONTINUOUS
 70
0
 71
3
 72
15
 73
11
 74
0
 42
0.0000001
 43
0.0000001
 44
0.0000000001
 40
0.0
 40
0.0
 40
0.0
 40
0.0
 40
0.1024613676
 40
0.2125928618
 40
0.3308785969
 40
0.4568383157
 40
0.5888655796
 40
0.7247022368
 40
0.8622377903
 40
1.0
 40
1.0
 40
1.0
 40
1.0
 10
9.9683876739
 20
7.5638088715
 30
0.0
 10
9.9555438926
 20
7.5582273162
 30
0.0
 10
9.9289760069
 20
7.5464585881
 30
0.0
 10
9.8879024022
 20
7.5275300174
 30
0.0
 10
9.8442327938
 20
7.5065742899
 30
0.0
 10
9.7982159482
 20
7.4836070966
 30
0.0
 10
9.7504073825
 20
7.4588714902
 30
0.0
 10
9.7015239773
 20
7.4327810837
 30
0.0
 10
9.6522364113
 20
7.4057910236
 30
0.0
 10
9.6193922447
 20
7.3874311587
 30
0.0
 10
9.6029890576
 20
7.3781863621
 30
0.0
  0
SPLINE
  5
3AF
100
AcDbEntity
  8
0
100
AcDbSpline
 62
7
  6
CONTINUOUS
 70
0
 71
3
 72
71
 73
67
 74
0
 42
0.0000001
 43
0.0000001
 44
0.0000000001
 40
0.0
 40
0.0
 40
0.0
 40
0.0
 40
0.0156216706
 40
0.0311907745
 40
0.0467067129
 40
0.0621710762
 40
0.0775850548
 40
0.0929506339
 40
0.1082702304
 40
0.1235467312
 40
0.1387834665
 40
0.1539841688
 40
0.1691529583
 40
0.18429428
 40
0.1994128679
 40
0.2145137035
 40
0.2296019564
 40
0.2446829193
 40
0.2597619759
 40
0.2748445272
 40
0.2899359312
 40
0.3050414546
 40
0.3201662202
 40
0.3353151335
 40
0.3504928522
 40
0.365703735
 40
0.3809517875
 40
0.3962406261
 40
0.4115734583
 40
0.4269530346
 40
0.4423816308
 40
0.4578610394
 40
0.4733925444
 40
0.4889769098
 40
0.5046143965
 40
0.520304754
 40
0.5360472182
 40
0.5518405387
 40
0.5676829933
 40
0.5835723969
 40
0.5995061365
 40
0.615481204
 40
0.6314942052
 40
0.6475414082
 40
0.6636187847
 40
0.6797220354
 40
0.695846625
 40
0.7119878439
 40
0.7281408301
 40
0.744300616
 40
0.7604621807
 40
0.7766204909
 40
0.7927705277
 40
0.8089073567
 40
0.8250261591
 40
0.8411222663
 40
0.8571912088
 40
0.8732287682
 40
0.8892309912
 40
0.9051942477
 40
0.9211152546
 40
0.9369911073
 40
0.9528193701
 40
0.9685977523
 40
0.9843253342
 40
1.0
 40
1.0
 40
1.0
 40
1.0
 10
9.8915237227
 20
6.5731312633
 30
0.0
 10
9.8983075408
 20
6.572660804
 30
0.0
 10
9.9118776456
 20
6.5720517182
 30
0.0
 10
9.9322167438
 20
6.5721397563
 30
0.0
 10
9.9524587519
 20
6.5732309256
 30
0.0
 10
9.9725540229
 20
6.5753224549
 30
0.0
 10
9.992454498
 20
6.5784095058
 30
0.0
 10
10.0121120847
 20
6.5824846447
 30
0.0
 10
10.0314794318
 20
6.5875380925
 30
0.0
 10
10.0505098429
 20
6.5935577092
 30
0.0
 10
10.0691574308
 20
6.6005290228
 30
0.0
 10
10.0873772187
 20
6.6084352823
 30
0.0
 10
10.1051252529
 20
6.6172574724
 30
0.0
 10
10.1223587301
 20
6.6269743303
 30
0.0
 10
10.1390360801
 20
6.6375624419
 30
0.0
 10
10.1551170696
 20
6.6489962949
 30
0.0
 10
10.1705628941
 20
6.6612483384
 30
0.0
 10
10.1853362814
 20
6.6742890394
 30
0.0
 10
10.1994016076
 20
6.6880869294
 30
0.0
 10
10.2127249537
 20
6.7026087232
 30
0.0
 10
10.2252741874
 20
6.71781939
 30
0.0
 10
10.237019039
 20
6.7336822453
 30
0.0
 10
10.2479311882
 20
6.7501590221
 30
0.0
 10
10.2579843596
 20
6.7672099555
 30
0.0
 10
10.2671543398
 20
6.7847939096
 30
0.0
 10
10.2754190495
 20
6.8028684708
 30
0.0
 10
10.2827585802
 20
6.8213900506
 30
0.0
 10
10.2891552729
 20
6.8403139806
 30
0.0
 10
10.2945937712
 20
6.8595946217
 30
0.0
 10
10.2990610197
 20
6.8791854889
 30
0.0
 10
10.3025462965
 20
6.8990393593
 30
0.0
 10
10.3050412353
 20
6.9191083855
 30
0.0
 10
10.3065398717
 20
6.9393442038
 30
0.0
 10
10.3070386681
 20
6.9596980552
 30
0.0
 10
10.3065364735
 20
6.9801209087
 30
0.0
 10
10.3050345447
 20
7.0005635746
 30
0.0
 10
10.3025365235
 20
7.0209768177
 30
0.0
 10
10.2990484736
 20
7.0413114802
 30
0.0
 10
10.2945788537
 20
7.0615186037
 30
0.0
 10
10.2891384693
 20
7.0815495402
 30
0.0
 10
10.2827404485
 20
7.101356069
 30
0.0
 10
10.2754002092
 20
7.1208905063
 30
0.0
 10
10.267135457
 20
7.1401058323
 30
0.0
 10
10.2579661314
 20
7.1589558031
 30
0.0
 10
10.2479143275
 20
7.1773950527
 30
0.0
 10
10.2370042576
 20
7.1953792009
 30
0.0
 10
10.2252621803
 20
7.2128649521
 30
0.0
 10
10.2127163814
 20
7.2298102256
 30
0.0
 10
10.199397081
 20
7.2461742471
 30
0.0
 10
10.185336347
 20
7.2619176312
 30
0.0
 10
10.1705680213
 20
7.277002481
 30
0.0
 10
10.1551276388
 20
7.2913924691
 30
0.0
 10
10.1390523732
 20
7.305052962
 30
0.0
 10
10.122380924
 20
7.3179510811
 30
0.0
 10
10.1051534145
 20
7.3300557729
 30
0.0
 10
10.087411303
 20
7.3413378805
 30
0.0
 10
10.0691972794
 20
7.3517702116
 30
0.0
 10
10.0505551885
 20
7.3613276441
 30
0.0
 10
10.0315299037
 20
7.3699871627
 30
0.0
 10
10.0121672144
 20
7.3777278903
 30
0.0
 10
9.9925137291
 20
7.384531155
 30
0.0
 10
9.9726167208
 20
7.3903805431
 30
0.0
 10
9.9525242107
 20
7.395261873
 30
0.0
 10
9.9322842234
 20
7.3991635487
 30
0.0
 10
9.9119463446
 20
7.4020758239
 30
0.0
 10
9.8983305544
 20
7.4033554678
 30
0.0
 10
9.8915237227
 20
7.4038275232
 30
0.0
  0
SPLINE
  5
3B0
100
AcDbEntity
  8
0
100
AcDbSpline
 62
7
  6
CONTINUOUS
 70
0
 71
3
 72
71
 73
67
 74
0
 42
0.0000001
 43
0.0000001
 44
0.0000000001
 40
0.0
 40
0.0
 40
0.0
 40
0.0
 40
0.0156216706
 40
0.0311907745
 40
0.0467067129
 40
0.0621710762
 40
0.0775850548
 40
0.0929506339
 40
0.1082702304
 40
0.1235467312
 40
0.1387834665
 40
0.1539841688
 40
0.1691529583
 40
0.18429428
 40
0.1994128679
 40
0.2145137035
 40
0.2296019564
 40
0.2446829193
 40
0.2597619759
 40
0.2748445272
 40
0.2899359312
 40
0.3050414546
 40
0.3201662202
 40
0.3353151335
 40
0.3504928522
 40
0.365703735
 40
0.3809517875
 40
0.3962406261
 40
0.4115734583
 40
0.4269530346
 40
0.4423816308
 40
0.4578610394
 40
0.4733925444
 40
0.4889769098
 40
0.5046143965
 40
0.520304754
 40
0.5360472182
 40
0.5518405387
 40
0.5676829933
 40
0.5835723969
 40
0.5995061365
 40
0.615481204
 40
0.6314942052
 40
0.6475414082
 40
0.6636187847
 40
0.6797220354
 40
0.695846625
 40
0.7119878439
 40
0.7281408301
 40
0.744300616
 40
0.7604621807
 40
0.7766204909
 40
0.7927705277
 40
0.8089073567
 40
0.8250261591
 40
0.8411222663
 40
0.8571912088
 40
0.8732287682
 40
0.8892309912
 40
0.9051942477
 40
0.9211152546
 40
0.9369911073
 40
0.9528193701
 40
0.9685977523
 40
0.9843253342
 40
1.0
 40
1.0
 40
1.0
 40
1.0
 10
9.8915237227
 20
7.4038275232
 30
0.0
 10
9.8847399046
 20
7.4042979825
 30
0.0
 10
9.8711697998
 20
7.4049070683
 30
0.0
 10
9.8508307017
 20
7.4048190302
 30
0.0
 10
9.8305886936
 20
7.4037278609
 30
0.0
 10
9.8104934226
 20
7.4016363316
 30
0.0
 10
9.7905929475
 20
7.3985492807
 30
0.0
 10
9.7709353608
 20
7.3944741418
 30
0.0
 10
9.7515680137
 20
7.389420694
 30
0.0
 10
9.7325376026
 20
7.3834010773
 30
0.0
 10
9.7138900147
 20
7.3764297637
 30
0.0
 10
9.6956702267
 20
7.3685235042
 30
0.0
 10
9.6779221925
 20
7.3597013141
 30
0.0
 10
9.6606887153
 20
7.3499844562
 30
0.0
 10
9.6440113654
 20
7.3393963446
 30
0.0
 10
9.6279303759
 20
7.3279624916
 30
0.0
 10
9.6124845514
 20
7.3157104481
 30
0.0
 10
9.5977111641
 20
7.3026697471
 30
0.0
 10
9.5836458378
 20
7.2888718571
 30
0.0
 10
9.5703224918
 20
7.2743500633
 30
0.0
 10
9.557773258
 20
7.2591393965
 30
0.0
 10
9.5460284065
 20
7.2432765412
 30
0.0
 10
9.5351162573
 20
7.2267997644
 30
0.0
 10
9.5250630859
 20
7.209748831
 30
0.0
 10
9.5158931057
 20
7.1921648769
 30
0.0
 10
9.507628396
 20
7.1740903157
 30
0.0
 10
9.5002888653
 20
7.1555687359
 30
0.0
 10
9.4938921725
 20
7.1366448059
 30
0.0
 10
9.4884536743
 20
7.1173641648
 30
0.0
 10
9.4839864258
 20
7.0977732976
 30
0.0
 10
9.480501149
 20
7.0779194272
 30
0.0
 10
9.4780062102
 20
7.057850401
 30
0.0
 10
9.4765075738
 20
7.0376145827
 30
0.0
 10
9.4760087774
 20
7.0172607313
 30
0.0
 10
9.476510972
 20
6.9968378778
 30
0.0
 10
9.4780129007
 20
6.9763952119
 30
0.0
 10
9.4805109219
 20
6.9559819688
 30
0.0
 10
9.4839989718
 20
6.9356473063
 30
0.0
 10
9.4884685918
 20
6.9154401828
 30
0.0
 10
9.4939089762
 20
6.8954092463
 30
0.0
 10
9.500306997
 20
6.8756027176
 30
0.0
 10
9.5076472363
 20
6.8560682802
 30
0.0
 10
9.5159119884
 20
6.8368529542
 30
0.0
 10
9.525081314
 20
6.8180029834
 30
0.0
 10
9.535133118
 20
6.7995637338
 30
0.0
 10
9.5460431879
 20
6.7815795856
 30
0.0
 10
9.5577852651
 20
6.7640938344
 30
0.0
 10
9.5703310641
 20
6.7471485609
 30
0.0
 10
9.5836503645
 20
6.7307845394
 30
0.0
 10
9.5977110985
 20
6.7150411553
 30
0.0
 10
9.6124794242
 20
6.6999563055
 30
0.0
 10
9.6279198067
 20
6.6855663174
 30
0.0
 10
9.6439950723
 20
6.6719058245
 30
0.0
 10
9.6606665215
 20
6.6590077054
 30
0.0
 10
9.677894031
 20
6.6469030136
 30
0.0
 10
9.6956361425
 20
6.635620906
 30
0.0
 10
9.7138501661
 20
6.6251885749
 30
0.0
 10
9.732492257
 20
6.6156311424
 30
0.0
 10
9.7515175418
 20
6.6069716238
 30
0.0
 10
9.770880231
 20
6.5992308962
 30
0.0
 10
9.7905337164
 20
6.5924276316
 30
0.0
 10
9.8104307246
 20
6.5865782434
 30
0.0
 10
9.8305232347
 20
6.5816969135
 30
0.0
 10
9.8507632221
 20
6.5777952378
 30
0.0
 10
9.8711011009
 20
6.5748829626
 30
0.0
 10
9.8847168911
 20
6.5736033187
 30
0.0
 10
9.8915237227
 20
6.5731312633
 30
0.0
  0
SPLINE
  5
3B1
100
AcDbEntity
  8
0
100
AcDbSpline
 62
7
  6
CONTINUOUS
 70
0
 71
3
 72
20
 73
16
 74
0
 42
0.0000001
 43
0.0000001
 44
0.0000000001
 40
0.0
 40
0.0
 40
0.0
 40
0.0
 40
0.1160072463
 40
0.1751632975
 40
0.2351071928
 40
0.2958354683
 40
0.3573271027
 40
0.4195426835
 40
0.482425309
 40
0.5459033639
 40
0.6098949014
 40
0.6743129626
 40
0.7390709121
 40
0.8692869556
 40
1.0
 40
1.0
 40
1.0
 40
1.0
 10
10.3229481026
 20
6.7567243451
 30
0.0
 10
10.3217424268
 20
6.7730093532
 30
0.0
 10
10.3201150216
 20
6.7976136581
 30
0.0
 10
10.3183606294
 20
6.8306619481
 30
0.0
 10
10.3172499256
 20
6.8559511985
 30
0.0
 10
10.3163681125
 20
6.8815784258
 30
0.0
 10
10.315728272
 20
6.9075327343
 30
0.0
 10
10.3153405685
 20
6.9337953299
 30
0.0
 10
10.3152114288
 20
6.9603400885
 30
0.0
 10
10.3153430149
 20
6.9871348163
 30
0.0
 10
10.315733025
 20
7.0141431588
 30
0.0
 10
10.3163749177
 20
7.0413268816
 30
0.0
 10
10.3175550664
 20
7.0778211148
 30
0.0
 10
10.3196014917
 20
7.1236221906
 30
0.0
 10
10.3217588175
 20
7.1602891824
 30
0.0
 10
10.3229481026
 20
7.178650324
 30
0.0
  0
SPLINE
  5
3B2
100
AcDbEntity
  8
0
100
AcDbSpline
 62
7
  6
CONTINUOUS
 70
0
 71
3
 72
21
 73
17
 74
0
 42
0.0000001
 43
0.0000001
 44
0.0000000001
 40
0.0
 40
0.0
 40
0.0
 40
0.0
 40
0.1257748724
 40
0.188926364
 40
0.2522087907
 40
0.3155747839
 40
0.3789662327
 40
0.4423161603
 40
0.5055519135
 40
0.5685994071
 40
0.6313878604
 40
0.6938542329
 40
0.7559466435
 40
0.8176263707
 40
0.8788683755
 40
1.0
 40
1.0
 40
1.0
 40
1.0
 10
10.2943433799
 20
7.2301789014
 30
0.0
 10
10.2781834596
 20
7.2387039986
 30
0.0
 10
10.2540174326
 20
7.2517161433
 30
0.0
 10
10.2220204955
 20
7.2695632628
 30
0.0
 10
10.1980851846
 20
7.2832495338
 30
0.0
 10
10.1742759247
 20
7.2972229811
 30
0.0
 10
10.1506258688
 20
7.3114833533
 30
0.0
 10
10.127169728
 20
7.3260246923
 30
0.0
 10
10.103941863
 20
7.3408352825
 30
0.0
 10
10.0809742295
 20
7.3558980965
 30
0.0
 10
10.0582943608
 20
7.3711917629
 30
0.0
 10
10.0359237477
 20
7.3866919413
 30
0.0
 10
10.0138768538
 20
7.4023728278
 30
0.0
 10
9.9921607699
 20
7.4182086846
 30
0.0
 10
9.9637520802
 20
7.4394187424
 30
0.0
 10
9.9427756199
 20
7.455604168
 30
0.0
 10
9.9289447637
 20
7.4664823709
 30
0.0
  0
SPLINE
  5
3B3
100
AcDbEntity
  8
0
100
AcDbSpline
 62
7
  6
CONTINUOUS
 70
0
 71
3
 72
15
 73
11
 74
0
 42
0.0000001
 43
0.0000001
 44
0.0000000001
 40
0.0
 40
0.0
 40
0.0
 40
0.0
 40
0.1336920932
 40
0.2662145601
 40
0.39688998
 40
0.5249381662
 40
0.6496246935
 40
0.7704362771
 40
0.8871861617
 40
1.0
 40
1.0
 40
1.0
 40
1.0
 10
9.8717353182
 20
7.4704498595
 30
0.0
 10
9.8556743745
 20
7.4617474692
 30
0.0
 10
9.8236519822
 20
7.4444943381
 30
0.0
 10
9.7757650233
 20
7.4190447748
 30
0.0
 10
9.7283919407
 20
7.3942737997
 30
0.0
 10
9.6817845063
 20
7.3703522409
 30
0.0
 10
9.6361857901
 20
7.3474205849
 30
0.0
 10
9.5917795447
 20
7.3255577174
 30
0.0
 10
9.5486553027
 20
7.3047675109
 30
0.0
 10
9.5202961938
 20
7.2913645433
 30
0.0
 10
9.506336702
 20
7.2848273501
 30
0.0
  0
SPLINE
  5
3B4
100
AcDbEntity
  8
0
100
AcDbSpline
 62
7
  6
CONTINUOUS
 70
0
 71
3
 72
23
 73
19
 74
0
 42
0.0000001
 43
0.0000001
 44
0.0000000001
 40
0.0
 40
0.0
 40
0.0
 40
0.0
 40
0.0637771735
 40
0.1273448473
 40
0.1907019822
 40
0.253856143
 40
0.3168131975
 40
0.3795820985
 40
0.4421733906
 40
0.5045993374
 40
0.5668738654
 40
0.62901238
 40
0.6910316489
 40
0.7529496402
 40
0.814785347
 40
0.8765585971
 40
0.938289852
 40
1.0
 40
1.0
 40
1.0
 40
1.0
 10
9.0170774243
 20
7.243682332
 30
0.0
 10
9.0170774243
 20
7.2360913445
 30
0.0
 10
9.0167140884
 20
7.2209317325
 30
0.0
 10
9.0150741677
 20
7.1982845272
 30
0.0
 10
9.0123436951
 20
7.1758168586
 30
0.0
 10
9.0085291828
 20
7.1535814365
 30
0.0
 10
9.0036391806
 20
7.1316291275
 30
0.0
 10
8.9976849673
 20
7.1100106729
 30
0.0
 10
8.9906802242
 20
7.0887758781
 30
0.0
 10
8.9826410604
 20
7.0679737129
 30
0.0
 10
8.9735859709
 20
7.0476521516
 30
0.0
 10
8.9635357775
 20
7.0278580737
 30
0.0
 10
8.9525136158
 20
7.0086371515
 30
0.0
 10
8.9405448874
 20
6.990033706
 30
0.0
 10
8.9276572174
 20
6.9720906908
 30
0.0
 10
8.9138801593
 20
6.9548493639
 30
0.0
 10
8.8992460244
 20
6.9383500382
 30
0.0
 10
8.8889390631
 20
6.9278686415
 30
0.0
 10
8.8836561563
 20
6.9227657627
 30
0.0
  0
SPLINE
  5
3B5
100
AcDbEntity
  8
0
100
AcDbSpline
 62
7
  6
CONTINUOUS
 70
0
 71
3
 72
58
 73
54
 74
0
 42
0.0000001
 43
0.0000001
 44
0.0000000001
 40
0.0
 40
0.0
 40
0.0
 40
0.0
 40
0.0081223305
 40
0.0169168975
 40
0.0264087397
 40
0.0366143893
 40
0.0475415919
 40
0.0591912278
 40
0.0715586516
 40
0.0846347975
 40
0.0984066254
 40
0.112857697
 40
0.1279687991
 40
0.1437179559
 40
0.1600810137
 40
0.1770317001
 40
0.2125802303
 40
0.2501202969
 40
0.2893844218
 40
0.3300865608
 40
0.3719257492
 40
0.4145895607
 40
0.4577574053
 40
0.5011037527
 40
0.5443013266
 40
0.587024304
 40
0.6289515139
 40
0.6697696572
 40
0.7091765902
 40
0.7468847529
 40
0.7826248208
 40
0.7996793841
 40
0.8161512809
 40
0.8320139346
 40
0.8472427441
 40
0.8618153344
 40
0.8757119895
 40
0.8889156785
 40
0.9014127874
 40
0.9131934095
 40
0.9242520347
 40
0.9345886083
 40
0.9442093599
 40
0.953128682
 40
0.9613709503
 40
0.9689732053
 40
0.9759886321
 40
0.9824900189
 40
0.9885734021
 40
0.9914974267
 40
0.9943641369
 40
0.9971919109
 40
1.0
 40
1.0
 40
1.0
 40
1.0
 10
13.3765558853
 20
10.2930952774
 30
0.0
 10
13.375735445
 20
10.2923027929
 30
0.0
 10
13.3739492662
 20
10.2907313511
 30
0.0
 10
13.3709843716
 20
10.2884986236
 30
0.0
 10
13.3676360577
 20
10.2863032523
 30
0.0
 10
13.3639111211
 20
10.2841494652
 30
0.0
 10
13.3598165561
 20
10.2820411264
 30
0.0
 10
13.3553603022
 20
10.2799824518
 30
0.0
 10
13.3505511392
 20
10.2779774484
 30
0.0
 10
13.3453985741
 20
10.2760301694
 30
0.0
 10
13.3399128639
 20
10.2741445484
 30
0.0
 10
13.3341049851
 20
10.2723243767
 30
0.0
 10
13.3279865786
 20
10.2705734032
 30
0.0
 10
13.321569955
 20
10.2688951508
 30
0.0
 10
13.3148680209
 20
10.2672930305
 30
0.0
 10
13.3054192297
 20
10.2652300491
 30
0.0
 10
13.2929920692
 20
10.2628783128
 30
0.0
 10
13.2773992267
 20
10.2604490395
 30
0.0
 10
13.2610236351
 20
10.2583899225
 30
0.0
 10
13.2439974983
 20
10.2567179036
 30
0.0
 10
13.2264581569
 20
10.2554467877
 30
0.0
 10
13.2085472653
 20
10.2545870402
 30
0.0
 10
13.1904095143
 20
10.2541457403
 30
0.0
 10
13.1721914657
 20
10.2541265227
 30
0.0
 10
13.1540403399
 20
10.2545295488
 30
0.0
 10
13.136102809
 20
10.255351497
 30
0.0
 10
13.1185237825
 20
10.2565855982
 30
0.0
 10
13.1014452401
 20
10.2582216914
 30
0.0
 10
13.085004958
 20
10.2602462685
 30
0.0
 10
13.0693356752
 20
10.2626426787
 30
0.0
 10
13.0568373251
 20
10.2649677306
 30
0.0
 10
13.0473260079
 20
10.2670101694
 30
0.0
 10
13.0405736354
 20
10.268598096
 30
0.0
 10
13.0341041582
 20
10.2702627429
 30
0.0
 10
13.0279305956
 20
10.2720007589
 30
0.0
 10
13.0220653705
 20
10.2738086242
 30
0.0
 10
13.0165202445
 20
10.2756826156
 30
0.0
 10
13.0113063237
 20
10.2776189851
 30
0.0
 10
13.006433991
 20
10.279613782
 30
0.0
 10
13.0019129001
 20
10.2816630028
 30
0.0
 10
12.9977519554
 20
10.2837626136
 30
0.0
 10
12.9939592298
 20
10.2859084535
 30
0.0
 10
12.9905420364
 20
10.2880965254
 30
0.0
 10
12.9875068317
 20
10.2903228296
 30
0.0
 10
12.984859314
 20
10.2925836564
 30
0.0
 10
12.98260462
 20
10.2948756336
 30
0.0
 10
12.9807474175
 20
10.2971959305
 30
0.0
 10
12.9792928238
 20
10.2995414504
 30
0.0
 10
12.9784092405
 20
10.3015419178
 30
0.0
 10
12.9779211037
 20
10.3031381081
 30
0.0
 10
12.9776626276
 20
10.3043220441
 30
0.0
 10
12.9775074714
 20
10.3055073991
 30
0.0
 10
12.9774729449
 20
10.3062993149
 30
0.0
 10
12.9774729447
 20
10.3066936765
 30
0.0
  0
SPLINE
  5
3B6
100
AcDbEntity
  8
0
100
AcDbSpline
 62
7
  6
CONTINUOUS
 70
0
 71
3
 72
58
 73
54
 74
0
 42
0.0000001
 43
0.0000001
 44
0.0000000001
 40
0.0
 40
0.0
 40
0.0
 40
0.0
 40
0.0081223305
 40
0.0169168975
 40
0.0264087397
 40
0.0366143893
 40
0.0475415919
 40
0.0591912278
 40
0.0715586516
 40
0.0846347975
 40
0.0984066254
 40
0.112857697
 40
0.1279687991
 40
0.1437179559
 40
0.1600810137
 40
0.1770317001
 40
0.2125802303
 40
0.2501202969
 40
0.2893844218
 40
0.3300865608
 40
0.3719257492
 40
0.4145895607
 40
0.4577574053
 40
0.5011037527
 40
0.5443013266
 40
0.587024304
 40
0.6289515139
 40
0.6697696572
 40
0.7091765902
 40
0.7468847529
 40
0.7826248208
 40
0.7996793841
 40
0.8161512809
 40
0.8320139346
 40
0.8472427441
 40
0.8618153344
 40
0.8757119895
 40
0.8889156785
 40
0.9014127874
 40
0.9131934095
 40
0.9242520347
 40
0.9345886083
 40
0.9442093599
 40
0.953128682
 40
0.9613709503
 40
0.9689732053
 40
0.9759886321
 40
0.9824900189
 40
0.9885734021
 40
0.9914974267
 40
0.9943641369
 40
0.9971919109
 40
1.0
 40
1.0
 40
1.0
 40
1.0
 10
12.2765758514
 20
9.2305960913
 30
0.0
 10
12.2757554111
 20
9.2298036068
 30
0.0
 10
12.2739692323
 20
9.228232165
 30
0.0
 10
12.2710043377
 20
9.2259994375
 30
0.0
 10
12.2676560238
 20
9.2238040662
 30
0.0
 10
12.2639310872
 20
9.2216502791
 30
0.0
 10
12.2598365222
 20
9.2195419403
 30
0.0
 10
12.2553802683
 20
9.2174832658
 30
0.0
 10
12.2505711053
 20
9.2154782623
 30
0.0
 10
12.2454185402
 20
9.2135309833
 30
0.0
 10
12.23993283
 20
9.2116453623
 30
0.0
 10
12.2341249512
 20
9.2098251906
 30
0.0
 10
12.2280065447
 20
9.2080742171
 30
0.0
 10
12.2215899211
 20
9.2063959647
 30
0.0
 10
12.214887987
 20
9.2047938444
 30
0.0
 10
12.2054391958
 20
9.202730863
 30
0.0
 10
12.1930120353
 20
9.2003791267
 30
0.0
 10
12.1774191928
 20
9.1979498534
 30
0.0
 10
12.1610436012
 20
9.1958907364
 30
0.0
 10
12.1440174644
 20
9.1942187175
 30
0.0
 10
12.126478123
 20
9.1929476016
 30
0.0
 10
12.1085672314
 20
9.1920878541
 30
0.0
 10
12.0904294804
 20
9.1916465542
 30
0.0
 10
12.0722114318
 20
9.1916273366
 30
0.0
 10
12.054060306
 20
9.1920303627
 30
0.0
 10
12.0361227751
 20
9.1928523109
 30
0.0
 10
12.0185437486
 20
9.1940864121
 30
0.0
 10
12.0014652062
 20
9.1957225053
 30
0.0
 10
11.9850249241
 20
9.1977470825
 30
0.0
 10
11.9693556413
 20
9.2001434926
 30
0.0
 10
11.9568572912
 20
9.2024685445
 30
0.0
 10
11.947345974
 20
9.2045109833
 30
0.0
 10
11.9405936015
 20
9.2060989099
 30
0.0
 10
11.9341241243
 20
9.2077635568
 30
0.0
 10
11.9279505617
 20
9.2095015728
 30
0.0
 10
11.9220853366
 20
9.2113094381
 30
0.0
 10
11.9165402106
 20
9.2131834295
 30
0.0
 10
11.9113262898
 20
9.215119799
 30
0.0
 10
11.9064539571
 20
9.2171145959
 30
0.0
 10
11.9019328662
 20
9.2191638167
 30
0.0
 10
11.8977719215
 20
9.2212634275
 30
0.0
 10
11.8939791959
 20
9.2234092674
 30
0.0
 10
11.8905620025
 20
9.2255973393
 30
0.0
 10
11.8875267978
 20
9.2278236435
 30
0.0
 10
11.8848792801
 20
9.2300844703
 30
0.0
 10
11.8826245861
 20
9.2323764475
 30
0.0
 10
11.8807673836
 20
9.2346967444
 30
0.0
 10
11.8793127899
 20
9.2370422643
 30
0.0
 10
11.8784292066
 20
9.2390427317
 30
0.0
 10
11.8779410698
 20
9.240638922
 30
0.0
 10
11.8776825937
 20
9.241822858
 30
0.0
 10
11.8775274375
 20
9.243008213
 30
0.0
 10
11.877492911
 20
9.2438001288
 30
0.0
 10
11.8774929108
 20
9.2441944904
 30
0.0
  0
SPLINE
  5
3B7
100
AcDbEntity
  8
0
100
AcDbSpline
 62
7
  6
CONTINUOUS
 70
0
 71
3
 72
18
 73
14
 74
0
 42
0.0000001
 43
0.0000001
 44
0.0000000001
 40
0.0
 40
0.0
 40
0.0
 40
0.0
 40
0.1504683897
 40
0.2917144302
 40
0.4244424337
 40
0.4879098403
 40
0.5496094316
 40
0.6682625858
 40
0.7817882724
 40
0.8371379912
 40
0.8918078094
 40
0.9460192717
 40
1.0
 40
1.0
 40
1.0
 40
1.0
 10
13.6896803172
 20
9.5166273346
 30
0.0
 10
13.6915730683
 20
9.5184555918
 30
0.0
 10
13.6953559924
 20
9.5218859301
 30
0.0
 10
13.7012134555
 20
9.5264572632
 30
0.0
 10
13.706161072
 20
9.529690353
 30
0.0
 10
13.7101063666
 20
9.5318796961
 30
0.0
 10
13.713935592
 20
9.5337593208
 30
0.0
 10
13.7187233384
 20
9.535658611
 30
0.0
 10
13.7235962499
 20
9.5369546909
 30
0.0
 10
13.7274557396
 20
9.5375931579
 30
0.0
 10
13.7303161568
 20
9.5378765054
 30
0.0
 10
13.7331650011
 20
9.5379680135
 30
0.0
 10
13.7350577034
 20
9.5379010559
 30
0.0
 10
13.7359995113
 20
9.5378357363
 30
0.0
  0
SPLINE
  5
3B8
100
AcDbEntity
  8
0
100
AcDbSpline
 62
7
  6
CONTINUOUS
 70
0
 71
3
 72
18
 73
14
 74
0
 42
0.0000001
 43
0.0000001
 44
0.0000000001
 40
0.0
 40
0.0
 40
0.0
 40
0.0
 40
0.1504683897
 40
0.2917144302
 40
0.4244424337
 40
0.4879098403
 40
0.5496094316
 40
0.6682625858
 40
0.7817882724
 40
0.8371379912
 40
0.8918078094
 40
0.9460192717
 40
1.0
 40
1.0
 40
1.0
 40
1.0
 10
13.1399491004
 20
8.9856277232
 30
0.0
 10
13.1418418514
 20
8.9874559804
 30
0.0
 10
13.1456247755
 20
8.9908863188
 30
0.0
 10
13.1514822386
 20
8.9954576518
 30
0.0
 10
13.1564298552
 20
8.9986907416
 30
0.0
 10
13.1603751497
 20
9.0008800847
 30
0.0
 10
13.1642043752
 20
9.0027597094
 30
0.0
 10
13.1689921215
 20
9.0046589997
 30
0.0
 10
13.173865033
 20
9.0059550796
 30
0.0
 10
13.1777245227
 20
9.0065935465
 30
0.0
 10
13.1805849399
 20
9.006876894
 30
0.0
 10
13.1834337843
 20
9.0069684022
 30
0.0
 10
13.1853264866
 20
9.0069014445
 30
0.0
 10
13.1862682944
 20
9.0068361249
 30
0.0
  0
SPLINE
  5
3B9
100
AcDbEntity
  8
0
100
AcDbSpline
 62
7
  6
CONTINUOUS
 70
0
 71
3
 72
21
 73
17
 74
0
 42
0.0000001
 43
0.0000001
 44
0.0000000001
 40
0.0
 40
0.0
 40
0.0
 40
0.0
 40
0.1273177382
 40
0.253799893
 40
0.3167619527
 40
0.3795355237
 40
0.4421314869
 40
0.5045621428
 40
0.5668413495
 40
0.6289845239
 40
0.69100845
 40
0.7529310987
 40
0.8147714472
 40
0.8765493323
 40
0.9382852239
 40
1.0
 40
1.0
 40
1.0
 40
1.0
 10
8.8316612063
 20
7.3020840078
 30
0.0
 10
8.8316612063
 20
7.2942459186
 30
0.0
 10
8.83091302
 20
7.2786110912
 30
0.0
 10
8.8280872909
 20
7.2592830673
 30
0.0
 10
8.824709984
 20
7.2441219174
 30
0.0
 10
8.8216300366
 20
7.2329390427
 30
0.0
 10
8.8180066545
 20
7.2219548855
 30
0.0
 10
8.813848232
 20
7.2111944365
 30
0.0
 10
8.8091642953
 20
7.2006826043
 30
0.0
 10
8.8039655769
 20
7.1904436425
 30
0.0
 10
8.7982641408
 20
7.1805011292
 30
0.0
 10
8.7920730624
 20
7.1708780198
 30
0.0
 10
8.7854065989
 20
7.1615965618
 30
0.0
 10
8.7782801207
 20
7.1526780361
 30
0.0
 10
8.7707102863
 20
7.1441433353
 30
0.0
 10
8.765378775
 20
7.1387215641
 30
0.0
 10
8.7626460686
 20
7.136081971
 30
0.0
  0
SPLINE
  5
3BA
100
AcDbEntity
  8
0
100
AcDbSpline
 62
7
  6
CONTINUOUS
 70
0
 71
3
 72
37
 73
33
 74
0
 42
0.0000001
 43
0.0000001
 44
0.0000000001
 40
0.0
 40
0.0
 40
0.0
 40
0.0
 40
0.0307115776
 40
0.0615425493
 40
0.0924882602
 40
0.1235467373
 40
0.1547123949
 40
0.1859791285
 40
0.2173394699
 40
0.2487848566
 40
0.2803057573
 40
0.3118917577
 40
0.3435316965
 40
0.3752137945
 40
0.4386334817
 40
0.5020712226
 40
0.5337756682
 40
0.565446536
 40
0.5970717001
 40
0.6286395532
 40
0.6601391396
 40
0.6915602898
 40
0.7228937461
 40
0.7541312741
 40
0.7852657663
 40
0.8162913356
 40
0.8472034039
 40
0.8779987725
 40
0.9086756734
 40
0.9392338057
 40
0.9696743546
 40
1.0
 40
1.0
 40
1.0
 40
1.0
 10
8.8485951904
 20
7.2639409814
 30
0.0
 10
8.8485951904
 20
7.2695156275
 30
0.0
 10
8.8482820236
 20
7.2806890478
 30
0.0
 10
8.8468808875
 20
7.2974267411
 30
0.0
 10
8.8445516159
 20
7.3141247144
 30
0.0
 10
8.8413018451
 20
7.3307298611
 30
0.0
 10
8.8371415839
 20
7.3471906599
 30
0.0
 10
8.8320839504
 20
7.3634555444
 30
0.0
 10
8.826144791
 20
7.3794737362
 30
0.0
 10
8.8193427244
 20
7.3951951824
 30
0.0
 10
8.8116990165
 20
7.4105708042
 30
0.0
 10
8.8032376661
 20
7.4255524573
 30
0.0
 10
8.7939847486
 20
7.4400937494
 30
0.0
 10
8.7806294035
 20
7.4588367438
 30
0.0
 10
8.7621090265
 20
7.4809354432
 30
0.0
 10
8.7413845415
 20
7.5009874308
 30
0.0
 10
8.7236332014
 20
7.5156554199
 30
0.0
 10
8.7097772835
 20
7.5259343836
 30
0.0
 10
8.6954224401
 20
7.5354587396
 30
0.0
 10
8.6806131127
 20
7.5441991021
 30
0.0
 10
8.6653956538
 20
7.5521280091
 30
0.0
 10
8.6498175803
 20
7.5592206989
 30
0.0
 10
8.6339275679
 20
7.5654549777
 30
0.0
 10
8.6177752542
 20
7.5708113257
 30
0.0
 10
8.6014111023
 20
7.5752729484
 30
0.0
 10
8.58488624
 20
7.5788258251
 30
0.0
 10
8.5682523197
 20
7.5814588105
 30
0.0
 10
8.5515613208
 20
7.5831636249
 30
0.0
 10
8.5348654725
 20
7.5839348838
 30
0.0
 10
8.518216788
 20
7.5837700678
 30
0.0
 10
8.5016680473
 20
7.5826697195
 30
0.0
 10
8.490714732
 20
7.5813119187
 30
0.0
 10
8.485273654
 20
7.5804781225
 30
0.0
  0
SPLINE
  5
3BB
100
AcDbEntity
  8
0
100
AcDbSpline
 62
7
  6
CONTINUOUS
 70
0
 71
3
 72
43
 73
39
 74
0
 42
0.0000001
 43
0.0000001
 44
0.0000000001
 40
0.0
 40
0.0
 40
0.0
 40
0.0
 40
0.0310745218
 40
0.0466739617
 40
0.0623117346
 40
0.0936962008
 40
0.1252246462
 40
0.156885682
 40
0.1886651184
 40
0.2205463529
 40
0.2525107094
 40
0.2845378393
 40
0.316606137
 40
0.3486931771
 40
0.3807761618
 40
0.4128323741
 40
0.4448396288
 40
0.4767767175
 40
0.508623839
 40
0.5403630095
 40
0.5719784455
 40
0.6034569128
 40
0.6347880329
 40
0.6659645409
 40
0.6969824853
 40
0.7278413639
 40
0.7585441875
 40
0.7890974671
 40
0.8195111175
 40
0.8497982781
 40
0.8649022316
 40
0.8799808239
 40
0.9100659163
 40
0.9400802375
 40
0.9550708207
 40
0.9700522994
 40
0.9850276796
 40
1.0
 40
1.0
 40
1.0
 40
1.0
 10
8.8316612063
 20
7.3020840078
 30
0.0
 10
8.8316612063
 20
7.308176143
 30
0.0
 10
8.8313206661
 20
7.3173311346
 30
0.0
 10
8.8301960006
 20
7.3294973401
 30
0.0
 10
8.8286201235
 20
7.3416752016
 30
0.0
 10
8.8258109156
 20
7.3568314348
 30
0.0
 10
8.8211251834
 20
7.3747867553
 30
0.0
 10
8.8151462831
 20
7.3924358932
 30
0.0
 10
8.8079072538
 20
7.4096813857
 30
0.0
 10
8.7994479474
 20
7.4264287516
 30
0.0
 10
8.7898149037
 20
7.4425860514
 30
0.0
 10
8.7790610734
 20
7.4580646422
 30
0.0
 10
8.7672455335
 20
7.4727795886
 30
0.0
 10
8.7544331644
 20
7.486650142
 30
0.0
 10
8.7406942974
 20
7.499600174
 30
0.0
 10
8.7261043321
 20
7.5115585912
 30
0.0
 10
8.710743327
 20
7.5224597217
 30
0.0
 10
8.6946955652
 20
7.5322436719
 30
0.0
 10
8.6780490975
 20
7.5408566537
 30
0.0
 10
8.6608952651
 20
7.548251278
 30
0.0
 10
8.6433282056
 20
7.5543868147
 30
0.0
 10
8.625444343
 20
7.5592294172
 30
0.0
 10
8.6073418665
 20
7.562752311
 30
0.0
 10
8.5891201977
 20
7.5649359445
 30
0.0
 10
8.5708794569
 20
7.5657681052
 30
0.0
 10
8.5527199
 20
7.5652439858
 30
0.0
 10
8.5347414459
 20
7.5633662553
 30
0.0
 10
8.5170428567
 20
7.5601449294
 30
0.0
 10
8.4997222075
 20
7.5555977998
 30
0.0
 10
8.485667239
 20
7.5507187421
 30
0.0
 10
8.4747120439
 20
7.5461813974
 30
0.0
 10
8.4639786351
 20
7.541235627
 30
0.0
 10
8.450964328
 20
7.5342836631
 30
0.0
 10
8.4385533798
 20
7.5263357314
 30
0.0
 10
8.4290420828
 20
7.5194147609
 30
0.0
 10
8.4221262615
 20
7.5139499372
 30
0.0
 10
8.4154357626
 20
7.5082173763
 30
0.0
 10
8.4111313051
 20
7.5042218212
 30
0.0
 10
8.4090200693
 20
7.5021825231
 30
0.0
  0
SPLINE
  5
3BC
100
AcDbEntity
  8
0
100
AcDbSpline
 62
7
  6
CONTINUOUS
 70
0
 71
3
 72
11
 73
7
 74
0
 42
0.0000001
 43
0.0000001
 44
0.0000000001
 40
0.0
 40
0.0
 40
0.0
 40
0.0
 40
0.2517325964
 40
0.5022831652
 40
0.7516878325
 40
1.0
 40
1.0
 40
1.0
 40
1.0
 10
10.4459523059
 20
7.0935163123
 30
0.0
 10
10.4459523059
 20
7.0840941401
 30
0.0
 10
10.4453128735
 20
7.0652876137
 30
0.0
 10
10.4424235238
 20
7.0372794519
 30
0.0
 10
10.4376199778
 20
7.0096651426
 30
0.0
 10
10.4331455577
 20
6.9915625749
 30
0.0
 10
10.4305974329
 20
6.9826245524
 30
0.0
  0
SPLINE
  5
3BD
100
AcDbEntity
  8
0
100
AcDbSpline
 62
7
  6
CONTINUOUS
 70
0
 71
3
 72
11
 73
7
 74
0
 42
0.0000001
 43
0.0000001
 44
0.0000000001
 40
0.0
 40
0.0
 40
0.0
 40
0.0
 40
0.2480506592
 40
0.4974370176
 40
0.7481146859
 40
1.0
 40
1.0
 40
1.0
 40
1.0
 10
10.4459523059
 20
7.0935163123
 30
0.0
 10
10.4459523059
 20
7.1045082021
 30
0.0
 10
10.4450774818
 20
7.1265606815
 30
0.0
 10
10.4411739015
 20
7.1595137554
 30
0.0
 10
10.4347013107
 20
7.1922327335
 30
0.0
 10
10.4287122845
 20
7.2137088325
 30
0.0
 10
10.4253090232
 20
7.2243391631
 30
0.0
  0
SPLINE
  5
3BE
100
AcDbEntity
  8
0
100
AcDbSpline
 62
7
  6
CONTINUOUS
 70
0
 71
3
 72
21
 73
17
 74
0
 42
0.0000001
 43
0.0000001
 44
0.0000000001
 40
0.0
 40
0.0
 40
0.0
 40
0.0
 40
0.0628274178
 40
0.1256996352
 40
0.1885972144
 40
0.2515004974
 40
0.3772122325
 40
0.5027126756
 40
0.565353795
 40
0.627887577
 40
0.6902975697
 40
0.7525684286
 40
0.8146860533
 40
0.876637721
 40
0.9384122277
 40
1.0
 40
1.0
 40
1.0
 40
1.0
 10
10.3634462198
 20
7.3478541734
 30
0.0
 10
10.3593659886
 20
7.3536075954
 30
0.0
 10
10.3509359925
 20
7.3649321141
 30
0.0
 10
10.3375211999
 20
7.381322279
 30
0.0
 10
10.3233616074
 20
7.3970860998
 30
0.0
 10
10.3035431059
 20
7.4172102348
 30
0.0
 10
10.2770894681
 20
7.4406093892
 30
0.0
 10
10.2486206055
 20
7.4614610199
 30
0.0
 10
10.2248117056
 20
7.4764809943
 30
0.0
 10
10.2064918317
 20
7.4868835527
 30
0.0
 10
10.1877451178
 20
7.4964033468
 30
0.0
 10
10.1686164908
 20
7.5050176425
 30
0.0
 10
10.1491523835
 20
7.5127054539
 30
0.0
 10
10.1293996903
 20
7.5194481791
 30
0.0
 10
10.1094068471
 20
7.5252293439
 30
0.0
 10
10.0959279403
 20
7.5284384265
 30
0.0
 10
10.0891651473
 20
7.5298774933
 30
0.0
  0
SPLINE
  5
3BF
100
AcDbEntity
  8
0
100
AcDbSpline
 62
7
  6
CONTINUOUS
 70
0
 71
3
 72
23
 73
19
 74
0
 42
0.0000001
 43
0.0000001
 44
0.0000000001
 40
0.0
 40
0.0
 40
0.0
 40
0.0
 40
0.0637771706
 40
0.1273448423
 40
0.190701976
 40
0.2538561364
 40
0.3168131911
 40
0.379582093
 40
0.4421733865
 40
0.504599335
 40
0.5668738647
 40
0.6290123811
 40
0.6910316516
 40
0.752949644
 40
0.8147853513
 40
0.8765586011
 40
0.9382898546
 40
1.0
 40
1.0
 40
1.0
 40
1.0
 10
11.63696441
 20
7.6430930091
 30
0.0
 10
11.63696441
 20
7.6347614721
 30
0.0
 10
11.6365656299
 20
7.6181229429
 30
0.0
 10
11.634765732
 20
7.5932663568
 30
0.0
 10
11.6317688968
 20
7.5686068212
 30
0.0
 10
11.6275822718
 20
7.5442021874
 30
0.0
 10
11.6222152407
 20
7.520108284
 30
0.0
 10
11.6156801824
 20
7.4963808019
 30
0.0
 10
11.6079921129
 20
7.4730744051
 30
0.0
 10
11.5991687125
 20
7.45024284
 30
0.0
 10
11.5892302803
 20
7.4279387609
 30
0.0
 10
11.5781996691
 20
7.4062136203
 30
0.0
 10
11.5661022713
 20
7.3851175456
 30
0.0
 10
11.5529659661
 20
7.3646991815
 30
0.0
 10
11.5388210732
 20
7.3450056715
 30
0.0
 10
11.5237000292
 20
7.3260822983
 30
0.0
 10
11.5076382967
 20
7.3079733074
 30
0.0
 10
11.4963258635
 20
7.2964693456
 30
0.0
 10
11.4905275946
 20
7.2908686283
 30
0.0
  0
SPLINE
  5
3C0
100
AcDbEntity
  8
0
100
AcDbSpline
 62
7
  6
CONTINUOUS
 70
0
 71
3
 72
32
 73
28
 74
0
 42
0.0000001
 43
0.0000001
 44
0.0000000001
 40
0.0
 40
0.0
 40
0.0
 40
0.0
 40
0.060339443
 40
0.1201626694
 40
0.1776395535
 40
0.2318539985
 40
0.2825689965
 40
0.3298991402
 40
0.374098897
 40
0.4154565425
 40
0.4907005277
 40
0.5575281304
 40
0.6173789933
 40
0.6713698219
 40
0.7204089275
 40
0.7652915975
 40
0.8067845493
 40
0.8265281475
 40
0.845743366
 40
0.8645573787
 40
0.8831129086
 40
0.9015723134
 40
0.920121155
 40
0.9389727313
 40
0.9583727299
 40
0.978604655
 40
1.0
 40
1.0
 40
1.0
 40
1.0
 10
10.7192708889
 20
7.6251569329
 30
0.0
 10
10.7184271768
 20
7.6275313314
 30
0.0
 10
10.7169559461
 20
7.6323364749
 30
0.0
 10
10.7153625337
 20
7.639588912
 30
0.0
 10
10.7143459161
 20
7.6466852057
 30
0.0
 10
10.7138392498
 20
7.6534532368
 30
0.0
 10
10.7137587576
 20
7.6598150565
 30
0.0
 10
10.7140261953
 20
7.665752386
 30
0.0
 10
10.7145765812
 20
7.6712773008
 30
0.0
 10
10.7155876583
 20
7.6779183094
 30
0.0
 10
10.7172905138
 20
7.6854004692
 30
0.0
 10
10.7199511946
 20
7.6934156418
 30
0.0
 10
10.7230187395
 20
7.7003224257
 30
0.0
 10
10.7264028775
 20
7.7062372268
 30
0.0
 10
10.7300461865
 20
7.7112423203
 30
0.0
 10
10.7339116484
 20
7.7153901599
 30
0.0
 10
10.7373598542
 20
7.7182018568
 30
0.0
 10
10.7401994845
 20
7.7200036511
 30
0.0
 10
10.7423397419
 20
7.7211238663
 30
0.0
 10
10.7445252555
 20
7.7220310501
 30
0.0
 10
10.7467565788
 20
7.7227195405
 30
0.0
 10
10.7490347489
 20
7.7231808766
 30
0.0
 10
10.7513611528
 20
7.7234045108
 30
0.0
 10
10.7537377241
 20
7.7233765125
 30
0.0
 10
10.7561669298
 20
7.7230789126
 30
0.0
 10
10.7586516733
 20
7.7224901168
 30
0.0
 10
10.7602924645
 20
7.7219034935
 30
0.0
 10
10.761116955
 20
7.7215591861
 30
0.0
  0
SPLINE
  5
3C1
100
AcDbEntity
  8
0
100
AcDbSpline
 62
7
  6
CONTINUOUS
 70
0
 71
3
 72
39
 73
35
 74
0
 42
0.0000001
 43
0.0000001
 44
0.0000000001
 40
0.0
 40
0.0
 40
0.0
 40
0.0
 40
0.0310753533
 40
0.062307914
 40
0.0936931276
 40
0.125222289
 40
0.1568840436
 40
0.1886642048
 40
0.2205461649
 40
0.252511249
 40
0.2845391082
 40
0.3166081364
 40
0.3486959074
 40
0.3807796231
 40
0.412836566
 40
0.44484455
 40
0.4767823665
 40
0.508630214
 40
0.5403701087
 40
0.5719862657
 40
0.6034654504
 40
0.634797285
 40
0.6659745047
 40
0.6969931573
 40
0.7278527396
 40
0.7585562634
 40
0.7891102405
 40
0.8195245856
 40
0.8498124374
 40
0.8799898958
 40
0.9100756749
 40
0.9400906815
 40
0.970057529
 40
1.0
 40
1.0
 40
1.0
 40
1.0
 10
11.63696441
 20
7.6430930091
 30
0.0
 10
11.63696441
 20
7.6560193985
 30
0.0
 10
11.6360001295
 20
7.6819475178
 30
0.0
 10
11.631694828
 20
7.7207155728
 30
0.0
 10
11.6245512864
 20
7.7592559811
 30
0.0
 10
11.6146089804
 20
7.7973543833
 30
0.0
 10
11.601922928
 20
7.8348022776
 30
0.0
 10
11.5865630827
 20
7.8713939338
 30
0.0
 10
11.5686140646
 20
7.9069286064
 30
0.0
 10
11.5481746136
 20
7.9412112965
 30
0.0
 10
11.5253570645
 20
7.9740538913
 30
0.0
 10
11.5002867519
 20
8.0052761656
 30
0.0
 10
11.4731013675
 20
8.0347068052
 30
0.0
 10
11.4439501435
 20
8.0621842868
 30
0.0
 10
11.4129930568
 20
8.08755776
 30
0.0
 10
11.3803999559
 20
8.1106878538
 30
0.0
 10
11.3463496888
 20
8.1314475029
 30
0.0
 10
11.3110290905
 20
8.1497225954
 30
0.0
 10
11.2746319669
 20
8.1654125811
 30
0.0
 10
11.2373580485
 20
8.1784310129
 30
0.0
 10
11.1994119304
 20
8.1887060685
 30
0.0
 10
11.161001959
 20
8.1961809683
 30
0.0
 10
11.1223390872
 20
8.2008142318
 30
0.0
 10
11.0836357413
 20
8.2025799295
 30
0.0
 10
11.0451046728
 20
8.2014678428
 30
0.0
 10
11.0069577942
 20
8.1974836228
 30
0.0
 10
10.9694050166
 20
8.1906487
 30
0.0
 10
10.9326530971
 20
8.1810001972
 30
0.0
 10
10.8969045229
 20
8.1685907579
 30
0.0
 10
10.8623562896
 20
8.1534882921
 30
0.0
 10
10.8291990545
 20
8.135775841
 30
0.0
 10
10.7976151074
 20
8.1155501742
 30
0.0
 10
10.7677809483
 20
8.092924721
 30
0.0
 10
10.7491596765
 20
8.0763167378
 30
0.0
 10
10.7402012712
 20
8.0676635524
 30
0.0
  0
SPLINE
  5
3C2
100
AcDbEntity
  8
0
100
AcDbSpline
 62
7
  6
CONTINUOUS
 70
0
 71
3
 72
15
 73
11
 74
0
 42
0.0000001
 43
0.0000001
 44
0.0000000001
 40
0.0
 40
0.0
 40
0.0
 40
0.0
 40
0.1098906373
 40
0.2214016819
 40
0.3360757822
 40
0.4553202911
 40
0.5803741285
 40
0.7122942594
 40
0.8519453747
 40
1.0
 40
1.0
 40
1.0
 40
1.0
 10
13.3834729171
 20
10.3066936765
 30
0.0
 10
13.3834729175
 20
10.30611951
 30
0.0
 10
13.3833992058
 20
10.3049614089
 30
0.0
 10
13.3830685576
 20
10.3032325799
 30
0.0
 10
13.382518845
 20
10.3015091882
 30
0.0
 10
13.3817515349
 20
10.2997938207
 30
0.0
 10
13.3807683098
 20
10.2980881197
 30
0.0
 10
13.3795708076
 20
10.2963935765
 30
0.0
 10
13.3781608513
 20
10.2947117861
 30
0.0
 10
13.3771122784
 20
10.293632712
 30
0.0
 10
13.3765558853
 20
10.2930952774
 30
0.0
  0
SPLINE
  5
3C3
100
AcDbEntity
  8
0
100
AcDbSpline
 62
7
  6
CONTINUOUS
 70
0
 71
3
 72
15
 73
11
 74
0
 42
0.0000001
 43
0.0000001
 44
0.0000000001
 40
0.0
 40
0.0
 40
0.0
 40
0.0
 40
0.1098906373
 40
0.2214016819
 40
0.3360757822
 40
0.4553202911
 40
0.5803741285
 40
0.7122942594
 40
0.8519453747
 40
1.0
 40
1.0
 40
1.0
 40
1.0
 10
12.2834928832
 20
9.2441944904
 30
0.0
 10
12.2834928836
 20
9.2436203239
 30
0.0
 10
12.2834191719
 20
9.2424622228
 30
0.0
 10
12.2830885237
 20
9.2407333938
 30
0.0
 10
12.2825388111
 20
9.2390100021
 30
0.0
 10
12.281771501
 20
9.2372946346
 30
0.0
 10
12.2807882759
 20
9.2355889336
 30
0.0
 10
12.2795907737
 20
9.2338943904
 30
0.0
 10
12.2781808175
 20
9.2322126
 30
0.0
 10
12.2771322445
 20
9.2311335259
 30
0.0
 10
12.2765758514
 20
9.2305960913
 30
0.0
  0
SPLINE
  5
3C4
100
AcDbEntity
  8
0
100
AcDbSpline
 62
7
  6
CONTINUOUS
 70
0
 71
3
 72
55
 73
51
 74
0
 42
0.0000001
 43
0.0000001
 44
0.0000000001
 40
0.0
 40
0.0
 40
0.0
 40
0.0
 40
0.0077405257
 40
0.0160544501
 40
0.0249606726
 40
0.0344721687
 40
0.044595521
 40
0.0553324833
 40
0.0666807747
 40
0.0786348526
 40
0.0911862043
 40
0.1043237792
 40
0.1180344224
 40
0.1323028749
 40
0.1471122616
 40
0.162444009
 40
0.1782781527
 40
0.1945934236
 40
0.2285751811
 40
0.2641976254
 40
0.3012529971
 40
0.3395210523
 40
0.3787713176
 40
0.4187652369
 40
0.4592582441
 40
0.5000017836
 40
0.5407453086
 40
0.5812382691
 40
0.6212321052
 40
0.6604822534
 40
0.6987501673
 40
0.7358053802
 40
0.7714276421
 40
0.8054091819
 40
0.8217243075
 40
0.837558339
 40
0.8528899611
 40
0.8676991902
 40
0.8819675391
 40
0.8956779981
 40
0.9088154605
 40
0.9213666419
 40
0.9333205641
 40
0.9446687312
 40
0.9554054953
 40
0.9655287052
 40
0.975040063
 40
0.98394624
 40
0.9922596592
 40
1.0
 40
1.0
 40
1.0
 40
1.0
 10
12.7520332977
 20
10.0508653495
 30
0.0
 10
12.7509800898
 20
10.049885295
 30
0.0
 10
12.7487128234
 20
10.0479405228
 30
0.0
 10
12.7449934981
 20
10.0451629375
 30
0.0
 10
12.7408430582
 20
10.0424272532
 30
0.0
 10
12.7362683472
 20
10.0397378282
 30
0.0
 10
12.731276442
 20
10.0370986219
 30
0.0
 10
12.7258752711
 20
10.034513959
 30
0.0
 10
12.7200735325
 20
10.031987931
 30
0.0
 10
12.7138805812
 20
10.0295246936
 30
0.0
 10
12.7073064682
 20
10.0271282861
 30
0.0
 10
12.7003619104
 20
10.02480263
 30
0.0
 10
12.6930582459
 20
10.0225516211
 30
0.0
 10
12.6854074419
 20
10.0203789216
 30
0.0
 10
12.6774220381
 20
10.0182881844
 30
0.0
 10
12.6691151525
 20
10.0162828463
 30
0.0
 10
12.660500422
 20
10.0143662079
 30
0.0
 10
12.6484587052
 20
10.0118998041
 30
0.0
 10
12.6327388586
 20
10.0090739974
 30
0.0
 10
12.6131328862
 20
10.0061267482
 30
0.0
 10
12.5926656405
 20
10.0035987568
 30
0.0
 10
12.5714718146
 20
10.0015069192
 30
0.0
 10
12.5496907573
 20
9.9998652571
 30
0.0
 10
12.5274658222
 20
9.9986847465
 30
0.0
 10
12.5049433122
 20
9.9979732807
 30
0.0
 10
12.4822715216
 20
9.9977356143
 30
0.0
 10
12.4595997403
 20
9.9979733366
 30
0.0
 10
12.437077259
 20
9.998684862
 30
0.0
 10
12.4148523732
 20
9.999865436
 30
0.0
 10
12.3930713843
 20
10.0015071606
 30
0.0
 10
12.371877642
 20
10.0035990554
 30
0.0
 10
12.3514104926
 20
10.0061270963
 30
0.0
 10
12.331804633
 20
10.0090743961
 30
0.0
 10
12.3160848948
 20
10.0119002344
 30
0.0
 10
12.3040432789
 20
10.0143666908
 30
0.0
 10
12.2954286244
 20
10.0162833424
 30
0.0
 10
12.2871218184
 20
10.0182886987
 30
0.0
 10
12.2791364995
 20
10.0203794759
 30
0.0
 10
12.2714857787
 20
10.0225521656
 30
0.0
 10
12.2641822086
 20
10.0248032281
 30
0.0
 10
12.2572377389
 20
10.0271288738
 30
0.0
 10
12.2506637243
 20
10.0295253142
 30
0.0
 10
12.244470871
 20
10.0319885702
 30
0.0
 10
12.2386692267
 20
10.0345145941
 30
0.0
 10
12.2332681763
 20
10.0370993071
 30
0.0
 10
12.2282763516
 20
10.039738476
 30
0.0
 10
12.2237017503
 20
10.0424279695
 30
0.0
 10
12.2195514532
 20
10.0451636359
 30
0.0
 10
12.2158322608
 20
10.0479411704
 30
0.0
 10
12.2135651269
 20
10.0498859023
 30
0.0
 10
12.2125119737
 20
10.0508659651
 30
0.0
  0
SPLINE
  5
3C5
100
AcDbEntity
  8
0
100
AcDbSpline
 62
7
  6
CONTINUOUS
 70
0
 71
3
 72
55
 73
51
 74
0
 42
0.0000001
 43
0.0000001
 44
0.0000000001
 40
0.0
 40
0.0
 40
0.0
 40
0.0
 40
0.0077405257
 40
0.0160544501
 40
0.0249606726
 40
0.0344721687
 40
0.044595521
 40
0.0553324833
 40
0.0666807747
 40
0.0786348526
 40
0.0911862043
 40
0.1043237792
 40
0.1180344224
 40
0.1323028749
 40
0.1471122616
 40
0.162444009
 40
0.1782781527
 40
0.1945934236
 40
0.2285751811
 40
0.2641976254
 40
0.3012529971
 40
0.3395210523
 40
0.3787713176
 40
0.4187652369
 40
0.4592582441
 40
0.5000017836
 40
0.5407453086
 40
0.5812382691
 40
0.6212321052
 40
0.6604822534
 40
0.6987501673
 40
0.7358053802
 40
0.7714276421
 40
0.8054091819
 40
0.8217243075
 40
0.837558339
 40
0.8528899611
 40
0.8676991902
 40
0.8819675391
 40
0.8956779981
 40
0.9088154605
 40
0.9213666419
 40
0.9333205641
 40
0.9446687312
 40
0.9554054953
 40
0.9655287052
 40
0.975040063
 40
0.98394624
 40
0.9922596592
 40
1.0
 40
1.0
 40
1.0
 40
1.0
 10
9.787487372
 20
9.687333707
 30
0.0
 10
9.7864341642
 20
9.6863536525
 30
0.0
 10
9.7841668978
 20
9.6844088803
 30
0.0
 10
9.7804475724
 20
9.681631295
 30
0.0
 10
9.7762971325
 20
9.6788956107
 30
0.0
 10
9.7717224216
 20
9.6762061857
 30
0.0
 10
9.7667305163
 20
9.6735669794
 30
0.0
 10
9.7613293454
 20
9.6709823165
 30
0.0
 10
9.7555276068
 20
9.6684562885
 30
0.0
 10
9.7493346555
 20
9.6659930511
 30
0.0
 10
9.7427605425
 20
9.6635966436
 30
0.0
 10
9.7358159847
 20
9.6612709875
 30
0.0
 10
9.7285123202
 20
9.6590199786
 30
0.0
 10
9.7208615163
 20
9.6568472791
 30
0.0
 10
9.7128761124
 20
9.6547565419
 30
0.0
 10
9.7045692268
 20
9.6527512038
 30
0.0
 10
9.6959544963
 20
9.6508345654
 30
0.0
 10
9.6839127795
 20
9.6483681616
 30
0.0
 10
9.668192933
 20
9.6455423549
 30
0.0
 10
9.6485869606
 20
9.6425951057
 30
0.0
 10
9.6281197148
 20
9.6400671143
 30
0.0
 10
9.6069258889
 20
9.6379752767
 30
0.0
 10
9.5851448316
 20
9.6363336146
 30
0.0
 10
9.5629198965
 20
9.635153104
 30
0.0
 10
9.5403973865
 20
9.6344416382
 30
0.0
 10
9.5177255959
 20
9.6342039718
 30
0.0
 10
9.4950538146
 20
9.6344416941
 30
0.0
 10
9.4725313333
 20
9.6351532195
 30
0.0
 10
9.4503064475
 20
9.6363337935
 30
0.0
 10
9.4285254586
 20
9.637975518
 30
0.0
 10
9.4073317163
 20
9.6400674129
 30
0.0
 10
9.3868645669
 20
9.6425954538
 30
0.0
 10
9.3672587073
 20
9.6455427536
 30
0.0
 10
9.3515389691
 20
9.6483685919
 30
0.0
 10
9.3394973532
 20
9.6508350483
 30
0.0
 10
9.3308826987
 20
9.6527516999
 30
0.0
 10
9.3225758927
 20
9.6547570562
 30
0.0
 10
9.3145905739
 20
9.6568478333
 30
0.0
 10
9.306939853
 20
9.6590205231
 30
0.0
 10
9.2996362829
 20
9.6612715856
 30
0.0
 10
9.2926918133
 20
9.6635972313
 30
0.0
 10
9.2861177986
 20
9.6659936717
 30
0.0
 10
9.2799249453
 20
9.6684569277
 30
0.0
 10
9.2741233011
 20
9.6709829516
 30
0.0
 10
9.2687222506
 20
9.6735676646
 30
0.0
 10
9.2637304259
 20
9.6762068335
 30
0.0
 10
9.2591558246
 20
9.678896327
 30
0.0
 10
9.2550055275
 20
9.6816319934
 30
0.0
 10
9.2512863351
 20
9.6844095279
 30
0.0
 10
9.2490192012
 20
9.6863542598
 30
0.0
 10
9.247966048
 20
9.6873343226
 30
0.0
  0
SPLINE
  5
3C6
100
AcDbEntity
  8
0
100
AcDbSpline
 62
7
  6
CONTINUOUS
 70
0
 71
3
 72
83
 73
79
 74
0
 42
0.0000001
 43
0.0000001
 44
0.0000000001
 40
0.0
 40
0.0
 40
0.0
 40
0.0
 40
0.0027164276
 40
0.0054532334
 40
0.0082303009
 40
0.0110665998
 40
0.0139798088
 40
0.0169861218
 40
0.0201000928
 40
0.0233346095
 40
0.026700976
 40
0.0302089312
 40
0.0338668524
 40
0.0376818289
 40
0.0416598023
 40
0.0458057443
 40
0.0501236753
 40
0.0546168743
 40
0.0592878974
 40
0.0641386698
 40
0.0691706105
 40
0.0743845883
 40
0.0797810847
 40
0.0853601631
 40
0.0970640219
 40
0.1094907699
 40
0.1226300177
 40
0.1364676887
 40
0.150986507
 40
0.1661664045
 40
0.1819848426
 40
0.1984170703
 40
0.2154363375
 40
0.2330140708
 40
0.2511200494
 40
0.2697225561
 40
0.2887885105
 40
0.3082835895
 40
0.3281723378
 40
0.3484182894
 40
0.3689840785
 40
0.3898315425
 40
0.4109218226
 40
0.453671794
 40
0.496913762
 40
0.5403220095
 40
0.5835692233
 40
0.6263296343
 40
0.6474270493
 40
0.6682829087
 40
0.6888583326
 40
0.7091151299
 40
0.7290159025
 40
0.7485241591
 40
0.7676044182
 40
0.7862223163
 40
0.8043447241
 40
0.821939872
 40
0.8389774975
 40
0.8554289822
 40
0.8712675108
 40
0.8864682552
 40
0.9010085951
 40
0.9148683895
 40
0.9280302787
 40
0.9404800721
 40
0.9464347343
 40
0.9522077813
 40
0.9577985496
 40
0.9632067643
 40
0.968432455
 40
0.973476048
 40
0.978338406
 40
0.9830208506
 40
0.98752539
 40
0.9918546103
 40
0.9960115929
 40
1.0
 40
1.0
 40
1.0
 40
1.0
 10
13.6433611232
 20
8.2020441748
 30
0.0
 10
13.642111585
 20
8.2021308372
 30
0.0
 10
13.6396095354
 20
8.2024179321
 30
0.0
 10
13.6358883225
 20
8.2031861457
 30
0.0
 10
13.6321952194
 20
8.2042917624
 30
0.0
 10
13.6285328933
 20
8.205733814
 30
0.0
 10
13.6249031946
 20
8.2075109077
 30
0.0
 10
13.6213080132
 20
8.2096217261
 30
0.0
 10
13.6177490081
 20
8.212064752
 30
0.0
 10
13.6142277185
 20
8.2148383929
 30
0.0
 10
13.6107457409
 20
8.2179411111
 30
0.0
 10
13.6073044947
 20
8.2213711258
 30
0.0
 10
13.6039055403
 20
8.2251267058
 30
0.0
 10
13.6005503732
 20
8.2292059287
 30
0.0
 10
13.5972404746
 20
8.2336067402
 30
0.0
 10
13.5939774487
 20
8.2383270119
 30
0.0
 10
13.5907627442
 20
8.2433643705
 30
0.0
 10
13.5875979523
 20
8.2487163701
 30
0.0
 10
13.5844845853
 20
8.2543803637
 30
0.0
 10
13.581424126
 20
8.2603535441
 30
0.0
 10
13.5784181436
 20
8.2666329827
 30
0.0
 10
13.575468057
 20
8.2732155363
 30
0.0
 10
13.5725753473
 20
8.2800979649
 30
0.0
 10
13.5687354475
 20
8.289825656
 30
0.0
 10
13.5641042764
 20
8.3027222112
 30
0.0
 10
13.5588830604
 20
8.3190982257
 30
0.0
 10
13.5539233856
 20
8.3365801137
 30
0.0
 10
13.5492352805
 20
8.355132964
 30
0.0
 10
13.544828244
 20
8.3747199352
 30
0.0
 10
13.5407112276
 20
8.3953019124
 30
0.0
 10
13.5368926057
 20
8.4168377457
 30
0.0
 10
13.5333801518
 20
8.439284311
 30
0.0
 10
13.5301810222
 20
8.4625966111
 30
0.0
 10
13.5273017229
 20
8.4867278693
 30
0.0
 10
13.5247481121
 20
8.5116296353
 30
0.0
 10
13.5225253882
 20
8.5372518947
 30
0.0
 10
13.5206380798
 20
8.563543172
 30
0.0
 10
13.5190900376
 20
8.5904506322
 30
0.0
 10
13.5178844127
 20
8.6179201859
 30
0.0
 10
13.517023662
 20
8.6458966085
 30
0.0
 10
13.5165095565
 20
8.6743236379
 30
0.0
 10
13.5163431284
 20
8.7031441611
 30
0.0
 10
13.516586528
 20
8.7421935241
 30
0.0
 10
13.5177674412
 20
8.7915596456
 30
0.0
 10
13.5205504943
 20
8.8511657919
 30
0.0
 10
13.5246839598
 20
8.9109235488
 30
0.0
 10
13.5301345696
 20
8.9703524299
 30
0.0
 10
13.5357623786
 20
9.019421516
 30
0.0
 10
13.5408983996
 20
9.0581444881
 30
0.0
 10
13.5450320733
 20
9.0866792378
 30
0.0
 10
13.5494560549
 20
9.1147780976
 30
0.0
 10
13.5541614609
 20
9.1423846084
 30
0.0
 10
13.5591387946
 20
9.1694432541
 30
0.0
 10
13.5643780093
 20
9.1958996456
 30
0.0
 10
13.5698685266
 20
9.2217006121
 30
0.0
 10
13.5755992614
 20
9.2467943096
 30
0.0
 10
13.5815586421
 20
9.2711303244
 30
0.0
 10
13.5877346366
 20
9.2946597831
 30
0.0
 10
13.5941147608
 20
9.3173354611
 30
0.0
 10
13.600686119
 20
9.33911188
 30
0.0
 10
13.6074354302
 20
9.3599453954
 30
0.0
 10
13.6143490573
 20
9.3797943012
 30
0.0
 10
13.6214130406
 20
9.3986189002
 30
0.0
 10
13.6286131231
 20
9.4163817145
 30
0.0
 10
13.635934783
 20
9.4330472075
 30
0.0
 10
13.6422149287
 20
9.4461813143
 30
0.0
 10
13.6472983773
 20
9.4561036991
 30
0.0
 10
13.6510755125
 20
9.4631400549
 30
0.0
 10
13.6548720217
 20
9.4698782427
 30
0.0
 10
13.6586859821
 20
9.4763149398
 30
0.0
 10
13.6625155268
 20
9.4824469255
 30
0.0
 10
13.6663587483
 20
9.488271141
 30
0.0
 10
13.6702136831
 20
9.4937847114
 30
0.0
 10
13.6740785177
 20
9.4989848887
 30
0.0
 10
13.6779513469
 20
9.5038691795
 30
0.0
 10
13.6818303897
 20
9.5084351765
 30
0.0
 10
13.6857135333
 20
9.512680401
 30
0.0
 10
13.6883575741
 20
9.5153496627
 30
0.0
 10
13.6896803172
 20
9.5166273346
 30
0.0
  0
SPLINE
  5
3C7
100
AcDbEntity
  8
0
100
AcDbSpline
 62
7
  6
CONTINUOUS
 70
0
 71
3
 72
68
 73
64
 74
0
 42
0.0000001
 43
0.0000001
 44
0.0000000001
 40
0.0
 40
0.0
 40
0.0
 40
0.0
 40
0.002796663
 40
0.0056682324
 40
0.0116913836
 40
0.0148722352
 40
0.0181793745
 40
0.0216220081
 40
0.0252080899
 40
0.028944343
 40
0.0328364748
 40
0.0368892721
 40
0.0411066266
 40
0.0454917473
 40
0.0500471784
 40
0.0596753103
 40
0.0700017947
 40
0.0810296288
 40
0.0927563455
 40
0.1051750163
 40
0.1182749484
 40
0.1320421585
 40
0.1464598466
 40
0.1615087558
 40
0.1771673941
 40
0.1934122489
 40
0.2102180325
 40
0.2275578283
 40
0.2454031873
 40
0.2637243074
 40
0.2824901626
 40
0.301668574
 40
0.3212263213
 40
0.3411292757
 40
0.3818294691
 40
0.4234818686
 40
0.4657895122
 40
0.5084493897
 40
0.5511552723
 40
0.5936005121
 40
0.6354808477
 40
0.6764971877
 40
0.7163584987
 40
0.7357683917
 40
0.754785535
 40
0.7733771129
 40
0.7915113792
 40
0.8091577948
 40
0.8262870959
 40
0.8428714129
 40
0.8588844611
 40
0.8743016615
 40
0.8891002805
 40
0.9032596728
 40
0.916761546
 40
0.9295901962
 40
0.941732877
 40
0.9531803244
 40
0.9639273456
 40
0.9739735021
 40
0.9833241884
 40
0.9919926297
 40
1.0
 40
1.0
 40
1.0
 40
1.0
 10
13.6180067205
 20
8.4024105665
 30
0.0
 10
13.6171559609
 20
8.4027113559
 30
0.0
 10
13.6154561041
 20
8.403392635
 30
0.0
 10
13.6120719196
 20
8.4050658747
 30
0.0
 10
13.6087818848
 20
8.4071808428
 30
0.0
 10
13.6056060806
 20
8.4096752445
 30
0.0
 10
13.6032065111
 20
8.411801651
 30
0.0
 10
13.6008344924
 20
8.4141479778
 30
0.0
 10
13.5984907355
 20
8.4167133144
 30
0.0
 10
13.5961762725
 20
8.4194963073
 30
0.0
 10
13.5938920941
 20
8.4224956677
 30
0.0
 10
13.5916392496
 20
8.4257100006
 30
0.0
 10
13.5894186939
 20
8.4291377567
 30
0.0
 10
13.5872314357
 20
8.4327773601
 30
0.0
 10
13.5843067934
 20
8.438007315
 30
0.0
 10
13.5807529914
 20
8.4450770232
 30
0.0
 10
13.5767127846
 20
8.4542247021
 30
0.0
 10
13.5728289855
 20
8.4641701616
 30
0.0
 10
13.5691088988
 20
8.4748946644
 30
0.0
 10
13.5655595728
 20
8.486378267
 30
0.0
 10
13.5621878353
 20
8.4985993464
 30
0.0
 10
13.5590001586
 20
8.5115347968
 30
0.0
 10
13.5560026924
 20
8.5251600692
 30
0.0
 10
13.5532012515
 20
8.5394492564
 30
0.0
 10
13.5506012645
 20
8.5543751319
 30
0.0
 10
13.5482077492
 20
8.5699092108
 30
0.0
 10
13.5460253478
 20
8.5860218284
 30
0.0
 10
13.5440583065
 20
8.6026821954
 30
0.0
 10
13.54231042
 20
8.61985845
 30
0.0
 10
13.5407850706
 20
8.6375177311
 30
0.0
 10
13.5394852273
 20
8.6556262526
 30
0.0
 10
13.538413418
 20
8.6741493461
 30
0.0
 10
13.5375716795
 20
8.6930515776
 30
0.0
 10
13.5367523677
 20
8.7189037762
 30
0.0
 10
13.5363243597
 20
8.7518981451
 30
0.0
 10
13.5367451862
 20
8.7921220427
 30
0.0
 10
13.5380941219
 20
8.8329581673
 30
0.0
 10
13.5403609669
 20
8.8740939454
 30
0.0
 10
13.5435284676
 20
8.9152147213
 30
0.0
 10
13.547572375
 20
8.95600587
 30
0.0
 10
13.5524615353
 20
8.9961554251
 30
0.0
 10
13.5581583562
 20
9.0353561172
 30
0.0
 10
13.5635888753
 20
9.0672596265
 30
0.0
 10
13.5683159513
 20
9.0920744347
 30
0.0
 10
13.5720027658
 20
9.110099392
 30
0.0
 10
13.5758552874
 20
9.1276685321
 30
0.0
 10
13.5798661545
 20
9.1447482568
 30
0.0
 10
13.5840276277
 20
9.1613058919
 30
0.0
 10
13.588331704
 20
9.1773097754
 30
0.0
 10
13.5927701202
 20
9.1927293097
 30
0.0
 10
13.5973343242
 20
9.2075350461
 30
0.0
 10
13.6020155237
 20
9.2216987344
 30
0.0
 10
13.6068047243
 20
9.2351933671
 30
0.0
 10
13.6116927239
 20
9.2479932562
 30
0.0
 10
13.6166701134
 20
9.2600741039
 30
0.0
 10
13.6217273499
 20
9.2714130329
 30
0.0
 10
13.6268547947
 20
9.2819886438
 30
0.0
 10
13.63204268
 20
9.2917811172
 30
0.0
 10
13.6372812605
 20
9.3007722518
 30
0.0
 10
13.6425607861
 20
9.3089453915
 30
0.0
 10
13.6478719424
 20
9.3162859835
 30
0.0
 10
13.6532049469
 20
9.3227800717
 30
0.0
 10
13.656912389
 20
9.3266885462
 30
0.0
 10
13.6587706882
 20
9.3284835256
 30
0.0
  0
SPLINE
  5
3C8
100
AcDbEntity
  8
0
100
AcDbSpline
 62
7
  6
CONTINUOUS
 70
0
 71
3
 72
15
 73
11
 74
0
 42
0.0000001
 43
0.0000001
 44
0.0000000001
 40
0.0
 40
0.0
 40
0.0
 40
0.0
 40
0.1084413994
 40
0.2203207431
 40
0.3363918
 40
0.4573219028
 40
0.5836918599
 40
0.7160007178
 40
0.8546601937
 40
1.0
 40
1.0
 40
1.0
 40
1.0
 10
13.6832286207
 20
9.342887256
 30
0.0
 10
13.6822101381
 20
9.3426793513
 30
0.0
 10
13.6801599407
 20
9.3421580036
 30
0.0
 10
13.677114355
 20
9.3410873483
 30
0.0
 10
13.6740588771
 20
9.3397190116
 30
0.0
 10
13.6709957146
 20
9.3380543163
 30
0.0
 10
13.667926362
 20
9.3360947198
 30
0.0
 10
13.6648525183
 20
9.3338416116
 30
0.0
 10
13.6617760471
 20
9.331296783
 30
0.0
 10
13.6597727414
 20
9.3294514346
 30
0.0
 10
13.6587706882
 20
9.3284835256
 30
0.0
  0
SPLINE
  5
3C9
100
AcDbEntity
  8
0
100
AcDbSpline
 62
7
  6
CONTINUOUS
 70
0
 71
3
 72
83
 73
79
 74
0
 42
0.0000001
 43
0.0000001
 44
0.0000000001
 40
0.0
 40
0.0
 40
0.0
 40
0.0
 40
0.0027164276
 40
0.0054532334
 40
0.0082303009
 40
0.0110665998
 40
0.0139798088
 40
0.0169861218
 40
0.0201000928
 40
0.0233346095
 40
0.026700976
 40
0.0302089312
 40
0.0338668524
 40
0.0376818289
 40
0.0416598023
 40
0.0458057443
 40
0.0501236753
 40
0.0546168743
 40
0.0592878974
 40
0.0641386698
 40
0.0691706105
 40
0.0743845883
 40
0.0797810847
 40
0.0853601631
 40
0.0970640219
 40
0.1094907699
 40
0.1226300177
 40
0.1364676887
 40
0.150986507
 40
0.1661664045
 40
0.1819848426
 40
0.1984170703
 40
0.2154363375
 40
0.2330140708
 40
0.2511200494
 40
0.2697225561
 40
0.2887885105
 40
0.3082835895
 40
0.3281723378
 40
0.3484182894
 40
0.3689840785
 40
0.3898315425
 40
0.4109218226
 40
0.453671794
 40
0.496913762
 40
0.5403220095
 40
0.5835692233
 40
0.6263296343
 40
0.6474270493
 40
0.6682829087
 40
0.6888583326
 40
0.7091151299
 40
0.7290159025
 40
0.7485241591
 40
0.7676044182
 40
0.7862223163
 40
0.8043447241
 40
0.821939872
 40
0.8389774975
 40
0.8554289822
 40
0.8712675108
 40
0.8864682552
 40
0.9010085951
 40
0.9148683895
 40
0.9280302787
 40
0.9404800721
 40
0.9464347343
 40
0.9522077813
 40
0.9577985496
 40
0.9632067643
 40
0.968432455
 40
0.973476048
 40
0.978338406
 40
0.9830208506
 40
0.98752539
 40
0.9918546103
 40
0.9960115929
 40
1.0
 40
1.0
 40
1.0
 40
1.0
 10
13.0936299063
 20
7.6710445634
 30
0.0
 10
13.0923803682
 20
7.6711312258
 30
0.0
 10
13.0898783185
 20
7.6714183207
 30
0.0
 10
13.0861571056
 20
7.6721865343
 30
0.0
 10
13.0824640025
 20
7.673292151
 30
0.0
 10
13.0788016764
 20
7.6747342027
 30
0.0
 10
13.0751719777
 20
7.6765112963
 30
0.0
 10
13.0715767964
 20
7.6786221148
 30
0.0
 10
13.0680177912
 20
7.6810651407
 30
0.0
 10
13.0644965016
 20
7.6838387815
 30
0.0
 10
13.0610145241
 20
7.6869414998
 30
0.0
 10
13.0575732779
 20
7.6903715145
 30
0.0
 10
13.0541743235
 20
7.6941270945
 30
0.0
 10
13.0508191563
 20
7.6982063173
 30
0.0
 10
13.0475092577
 20
7.7026071288
 30
0.0
 10
13.0442462319
 20
7.7073274006
 30
0.0
 10
13.0410315273
 20
7.7123647591
 30
0.0
 10
13.0378667354
 20
7.7177167588
 30
0.0
 10
13.0347533685
 20
7.7233807524
 30
0.0
 10
13.0316929091
 20
7.7293539327
 30
0.0
 10
13.0286869268
 20
7.7356333713
 30
0.0
 10
13.0257368401
 20
7.7422159249
 30
0.0
 10
13.0228441305
 20
7.7490983535
 30
0.0
 10
13.0190042306
 20
7.7588260446
 30
0.0
 10
13.0143730595
 20
7.7717225998
 30
0.0
 10
13.0091518435
 20
7.7880986143
 30
0.0
 10
13.0041921687
 20
7.8055805023
 30
0.0
 10
12.9995040637
 20
7.8241333526
 30
0.0
 10
12.9950970271
 20
7.8437203238
 30
0.0
 10
12.9909800107
 20
7.864302301
 30
0.0
 10
12.9871613888
 20
7.8858381344
 30
0.0
 10
12.9836489349
 20
7.9082846996
 30
0.0
 10
12.9804498054
 20
7.9315969998
 30
0.0
 10
12.9775705061
 20
7.9557282579
 30
0.0
 10
12.9750168952
 20
7.980630024
 30
0.0
 10
12.9727941713
 20
8.0062522833
 30
0.0
 10
12.9709068629
 20
8.0325435607
 30
0.0
 10
12.9693588207
 20
8.0594510208
 30
0.0
 10
12.9681531959
 20
8.0869205745
 30
0.0
 10
12.9672924451
 20
8.1148969972
 30
0.0
 10
12.9667783396
 20
8.1433240265
 30
0.0
 10
12.9666119116
 20
8.1721445498
 30
0.0
 10
12.9668553111
 20
8.2111939128
 30
0.0
 10
12.9680362243
 20
8.2605600343
 30
0.0
 10
12.9708192775
 20
8.3201661806
 30
0.0
 10
12.9749527429
 20
8.3799239374
 30
0.0
 10
12.9804033527
 20
8.4393528185
 30
0.0
 10
12.9860311617
 20
8.4884219046
 30
0.0
 10
12.9911671827
 20
8.5271448768
 30
0.0
 10
12.9953008564
 20
8.5556796264
 30
0.0
 10
12.999724838
 20
8.5837784862
 30
0.0
 10
13.0044302441
 20
8.6113849971
 30
0.0
 10
13.0094075777
 20
8.6384436428
 30
0.0
 10
13.0146467924
 20
8.6649000342
 30
0.0
 10
13.0201373097
 20
8.6907010007
 30
0.0
 10
13.0258680445
 20
8.7157946983
 30
0.0
 10
13.0318274253
 20
8.7401307131
 30
0.0
 10
13.0380034198
 20
8.7636601717
 30
0.0
 10
13.0443835439
 20
8.7863358497
 30
0.0
 10
13.0509549021
 20
8.8081122686
 30
0.0
 10
13.0577042133
 20
8.8289457841
 30
0.0
 10
13.0646178404
 20
8.8487946898
 30
0.0
 10
13.0716818237
 20
8.8676192888
 30
0.0
 10
13.0788819062
 20
8.8853821031
 30
0.0
 10
13.0862035661
 20
8.9020475961
 30
0.0
 10
13.0924837118
 20
8.9151817029
 30
0.0
 10
13.0975671605
 20
8.9251040878
 30
0.0
 10
13.1013442957
 20
8.9321404435
 30
0.0
 10
13.1051408048
 20
8.9388786313
 30
0.0
 10
13.1089547653
 20
8.9453153285
 30
0.0
 10
13.11278431
 20
8.9514473141
 30
0.0
 10
13.1166275314
 20
8.9572715296
 30
0.0
 10
13.1204824662
 20
8.9627851
 30
0.0
 10
13.1243473008
 20
8.9679852774
 30
0.0
 10
13.12822013
 20
8.9728695681
 30
0.0
 10
13.1320991729
 20
8.9774355651
 30
0.0
 10
13.1359823164
 20
8.9816807896
 30
0.0
 10
13.1386263572
 20
8.9843500513
 30
0.0
 10
13.1399491004
 20
8.9856277232
 30
0.0
  0
SPLINE
  5
3CA
100
AcDbEntity
  8
0
100
AcDbSpline
 62
7
  6
CONTINUOUS
 70
0
 71
3
 72
68
 73
64
 74
0
 42
0.0000001
 43
0.0000001
 44
0.0000000001
 40
0.0
 40
0.0
 40
0.0
 40
0.0
 40
0.002796663
 40
0.0056682324
 40
0.0116913836
 40
0.0148722352
 40
0.0181793745
 40
0.0216220081
 40
0.0252080899
 40
0.028944343
 40
0.0328364748
 40
0.0368892721
 40
0.0411066266
 40
0.0454917473
 40
0.0500471784
 40
0.0596753103
 40
0.0700017947
 40
0.0810296288
 40
0.0927563455
 40
0.1051750163
 40
0.1182749484
 40
0.1320421585
 40
0.1464598466
 40
0.1615087558
 40
0.1771673941
 40
0.1934122489
 40
0.2102180325
 40
0.2275578283
 40
0.2454031873
 40
0.2637243074
 40
0.2824901626
 40
0.301668574
 40
0.3212263213
 40
0.3411292757
 40
0.3818294691
 40
0.4234818686
 40
0.4657895122
 40
0.5084493897
 40
0.5511552723
 40
0.5936005121
 40
0.6354808477
 40
0.6764971877
 40
0.7163584987
 40
0.7357683917
 40
0.754785535
 40
0.7733771129
 40
0.7915113792
 40
0.8091577948
 40
0.8262870959
 40
0.8428714129
 40
0.8588844611
 40
0.8743016615
 40
0.8891002805
 40
0.9032596728
 40
0.916761546
 40
0.9295901962
 40
0.941732877
 40
0.9531803244
 40
0.9639273456
 40
0.9739735021
 40
0.9833241884
 40
0.9919926297
 40
1.0
 40
1.0
 40
1.0
 40
1.0
 10
13.0682755037
 20
7.8714109551
 30
0.0
 10
13.067424744
 20
7.8717117446
 30
0.0
 10
13.0657248872
 20
7.8723930237
 30
0.0
 10
13.0623407027
 20
7.8740662633
 30
0.0
 10
13.059050668
 20
7.8761812314
 30
0.0
 10
13.0558748637
 20
7.8786756332
 30
0.0
 10
13.0534752942
 20
7.8808020396
 30
0.0
 10
13.0511032756
 20
7.8831483665
 30
0.0
 10
13.0487595186
 20
7.8857137031
 30
0.0
 10
13.0464450556
 20
7.8884966959
 30
0.0
 10
13.0441608772
 20
7.8914960563
 30
0.0
 10
13.0419080328
 20
7.8947103893
 30
0.0
 10
13.039687477
 20
7.8981381453
 30
0.0
 10
13.0375002189
 20
7.9017777487
 30
0.0
 10
13.0345755766
 20
7.9070077036
 30
0.0
 10
13.0310217745
 20
7.9140774118
 30
0.0
 10
13.0269815677
 20
7.9232250908
 30
0.0
 10
13.0230977686
 20
7.9331705502
 30
0.0
 10
13.0193776819
 20
7.943895053
 30
0.0
 10
13.0158283559
 20
7.9553786557
 30
0.0
 10
13.0124566184
 20
7.9675997351
 30
0.0
 10
13.0092689417
 20
7.9805351855
 30
0.0
 10
13.0062714755
 20
7.9941604578
 30
0.0
 10
13.0034700347
 20
8.008449645
 30
0.0
 10
13.0008700476
 20
8.0233755205
 30
0.0
 10
12.9984765323
 20
8.0389095994
 30
0.0
 10
12.9962941309
 20
8.0550222171
 30
0.0
 10
12.9943270897
 20
8.071682584
 30
0.0
 10
12.9925792031
 20
8.0888588386
 30
0.0
 10
12.9910538538
 20
8.1065181198
 30
0.0
 10
12.9897540105
 20
8.1246266412
 30
0.0
 10
12.9886822012
 20
8.1431497348
 30
0.0
 10
12.9878404627
 20
8.1620519662
 30
0.0
 10
12.9870211508
 20
8.1879041648
 30
0.0
 10
12.9865931428
 20
8.2208985338
 30
0.0
 10
12.9870139693
 20
8.2611224313
 30
0.0
 10
12.988362905
 20
8.3019585559
 30
0.0
 10
12.99062975
 20
8.343094334
 30
0.0
 10
12.9937972507
 20
8.38421511
 30
0.0
 10
12.9978411581
 20
8.4250062586
 30
0.0
 10
13.0027303184
 20
8.4651558137
 30
0.0
 10
13.0084271394
 20
8.5043565058
 30
0.0
 10
13.0138576584
 20
8.5362600152
 30
0.0
 10
13.0185847345
 20
8.5610748233
 30
0.0
 10
13.0222715489
 20
8.5790997806
 30
0.0
 10
13.0261240705
 20
8.5966689208
 30
0.0
 10
13.0301349376
 20
8.6137486454
 30
0.0
 10
13.0342964108
 20
8.6303062806
 30
0.0
 10
13.0386004871
 20
8.6463101641
 30
0.0
 10
13.0430389033
 20
8.6617296983
 30
0.0
 10
13.0476031073
 20
8.6765354347
 30
0.0
 10
13.0522843068
 20
8.690699123
 30
0.0
 10
13.0570735074
 20
8.7041937557
 30
0.0
 10
13.061961507
 20
8.7169936448
 30
0.0
 10
13.0669388965
 20
8.7290744926
 30
0.0
 10
13.071996133
 20
8.7404134215
 30
0.0
 10
13.0771235779
 20
8.7509890324
 30
0.0
 10
13.0823114631
 20
8.7607815059
 30
0.0
 10
13.0875500436
 20
8.7697726405
 30
0.0
 10
13.0928295692
 20
8.7779457801
 30
0.0
 10
13.0981407255
 20
8.7852863722
 30
0.0
 10
13.1034737301
 20
8.7917804604
 30
0.0
 10
13.1071811721
 20
8.7956889349
 30
0.0
 10
13.1090394714
 20
8.7974839142
 30
0.0
  0
SPLINE
  5
3CB
100
AcDbEntity
  8
0
100
AcDbSpline
 62
7
  6
CONTINUOUS
 70
0
 71
3
 72
15
 73
11
 74
0
 42
0.0000001
 43
0.0000001
 44
0.0000000001
 40
0.0
 40
0.0
 40
0.0
 40
0.0
 40
0.1084413994
 40
0.2203207431
 40
0.3363918
 40
0.4573219028
 40
0.5836918599
 40
0.7160007178
 40
0.8546601937
 40
1.0
 40
1.0
 40
1.0
 40
1.0
 10
13.1334974038
 20
8.8118876446
 30
0.0
 10
13.1324789212
 20
8.81167974
 30
0.0
 10
13.1304287239
 20
8.8111583922
 30
0.0
 10
13.1273831381
 20
8.8100877369
 30
0.0
 10
13.1243276602
 20
8.8087194003
 30
0.0
 10
13.1212644977
 20
8.8070547049
 30
0.0
 10
13.1181951451
 20
8.8050951084
 30
0.0
 10
13.1151213015
 20
8.8028420002
 30
0.0
 10
13.1120448302
 20
8.8002971716
 30
0.0
 10
13.1100415245
 20
8.7984518233
 30
0.0
 10
13.1090394714
 20
8.7974839142
 30
0.0
  0
SPLINE
  5
3CC
100
AcDbEntity
  8
0
100
AcDbSpline
 62
7
  6
CONTINUOUS
 70
0
 71
3
 72
15
 73
11
 74
0
 42
0.0000001
 43
0.0000001
 44
0.0000000001
 40
0.0
 40
0.0
 40
0.0
 40
0.0
 40
0.0836370061
 40
0.1755291364
 40
0.2775893666
 40
0.3919536032
 40
0.5207813835
 40
0.6656820662
 40
0.8265288182
 40
1.0
 40
1.0
 40
1.0
 40
1.0
 10
10.7458685053
 20
7.5924999361
 30
0.0
 10
10.7447549606
 20
7.5929647795
 30
0.0
 10
10.7424748684
 20
7.5940816048
 30
0.0
 10
10.7390926627
 20
7.5962409595
 30
0.0
 10
10.7356219243
 20
7.5990373297
 30
0.0
 10
10.7320931931
 20
7.6025660466
 30
0.0
 10
10.7285621064
 20
7.6069242276
 30
0.0
 10
10.7251247929
 20
7.6121806128
 30
0.0
 10
10.7219252195
 20
7.6183214784
 30
0.0
 10
10.7201088795
 20
7.622798636
 30
0.0
 10
10.7192708889
 20
7.6251569329
 30
0.0
  0
SPLINE
  5
3CD
100
AcDbEntity
  8
0
100
AcDbSpline
 62
7
  6
CONTINUOUS
 70
0
 71
3
 72
39
 73
35
 74
0
 42
0.0000001
 43
0.0000001
 44
0.0000000001
 40
0.0
 40
0.0
 40
0.0
 40
0.0
 40
0.0299424698
 40
0.0599093171
 40
0.0899243244
 40
0.1200101049
 40
0.1501875654
 40
0.1804754197
 40
0.2108897678
 40
0.2414437479
 40
0.2721472748
 40
0.3030068601
 40
0.3340255156
 40
0.3652027379
 40
0.3965345747
 40
0.4280137612
 40
0.4596299196
 40
0.491369815
 40
0.5232176628
 40
0.555155479
 40
0.5871634623
 40
0.619220404
 40
0.6513041182
 40
0.6833918873
 40
0.7154609133
 40
0.74748877
 40
0.7794538516
 40
0.811335809
 40
0.8431159677
 40
0.8747777197
 40
0.9063068786
 40
0.9376920899
 40
0.9689246486
 40
1.0
 40
1.0
 40
1.0
 40
1.0
 10
8.200027623
 20
7.6305142939
 30
0.0
 10
8.2081897419
 20
7.6383982687
 30
0.0
 10
8.2251558183
 20
7.6535299094
 30
0.0
 10
8.2523380841
 20
7.6741440954
 30
0.0
 10
8.2811145907
 20
7.6925718109
 30
0.0
 10
8.3113245271
 20
7.7087097102
 30
0.0
 10
8.3428018076
 20
7.7224696261
 30
0.0
 10
8.3753727227
 20
7.7337758998
 30
0.0
 10
8.4088577879
 20
7.7425666585
 30
0.0
 10
8.4430725156
 20
7.7487939387
 30
0.0
 10
8.4778285276
 20
7.7524239182
 30
0.0
 10
8.5129345725
 20
7.7534370717
 30
0.0
 10
8.5481975751
 20
7.751828251
 30
0.0
 10
8.5834236958
 20
7.7476067668
 30
0.0
 10
8.6184193916
 20
7.7407962441
 30
0.0
 10
8.6529924617
 20
7.7314344762
 30
0.0
 10
8.6869530803
 20
7.719573196
 30
0.0
 10
8.7201148394
 20
7.7052778417
 30
0.0
 10
8.7522957631
 20
7.6886271759
 30
0.0
 10
8.7833192734
 20
7.6697128112
 30
0.0
 10
8.8130151439
 20
7.6486387158
 30
0.0
 10
8.841220425
 20
7.6255206602
 30
0.0
 10
8.8677803665
 20
7.6004856266
 30
0.0
 10
8.8925492124
 20
7.5736710558
 30
0.0
 10
8.9153909963
 20
7.5452241133
 30
0.0
 10
8.9361802665
 20
7.5153008847
 30
0.0
 10
8.9548028298
 20
7.4840655746
 30
0.0
 10
8.9711563371
 20
7.4516895741
 30
0.0
 10
8.9851508261
 20
7.4183505481
 30
0.0
 10
8.9967091988
 20
7.3842313975
 30
0.0
 10
9.00576772
 20
7.3495195645
 30
0.0
 10
9.0122762627
 20
7.3144050167
 30
0.0
 10
9.0161988601
 20
7.2790830586
 30
0.0
 10
9.0170774243
 20
7.2554596931
 30
0.0
 10
9.0170774243
 20
7.243682332
 30
0.0
  0
SPLINE
  5
3CE
100
AcDbEntity
  8
0
100
AcDbSpline
 62
7
  6
CONTINUOUS
 70
0
 71
3
 72
24
 73
20
 74
0
 42
0.0000001
 43
0.0000001
 44
0.0000000001
 40
0.0
 40
0.0
 40
0.0
 40
0.0
 40
0.0982352545
 40
0.1906313754
 40
0.2772421391
 40
0.3581487601
 40
0.4334672892
 40
0.5033638728
 40
0.5680530668
 40
0.6278259878
 40
0.6830584491
 40
0.7091293541
 40
0.7342585173
 40
0.7819982367
 40
0.8270605668
 40
0.8703545305
 40
0.9128995244
 40
0.9557656574
 40
1.0
 40
1.0
 40
1.0
 40
1.0
 10
11.0170678123
 20
8.1981254981
 30
0.0
 10
11.0168875704
 20
8.1971545494
 30
0.0
 10
11.0165756225
 20
8.1952630311
 30
0.0
 10
11.0162457727
 20
8.1924945831
 30
0.0
 10
11.01606385
 20
8.1898869182
 30
0.0
 10
11.0160252736
 20
8.1874447465
 30
0.0
 10
11.0161254653
 20
8.1851722883
 30
0.0
 10
11.0163596576
 20
8.1830734249
 30
0.0
 10
11.0167233062
 20
8.1811515234
 30
0.0
 10
11.0172118354
 20
8.1794098639
 30
0.0
 10
11.0177291756
 20
8.1780861783
 30
0.0
 10
11.0182040667
 20
8.1771267195
 30
0.0
 10
11.0186989848
 20
8.1762634208
 30
0.0
 10
11.0193866046
 20
8.1752927573
 30
0.0
 10
11.0203356374
 20
8.1742998924
 30
0.0
 10
11.0213902546
 20
8.1735027808
 30
0.0
 10
11.0225451074
 20
8.1729053429
 30
0.0
 10
11.0237933404
 20
8.1725104065
 30
0.0
 10
11.0246642234
 20
8.1723853421
 30
0.0
 10
11.0251078312
 20
8.1723545129
 30
0.0
  0
SPLINE
  5
3CF
100
AcDbEntity
  8
0
100
AcDbSpline
 62
7
  6
CONTINUOUS
 70
0
 71
3
 72
78
 73
74
 74
0
 42
0.0000001
 43
0.0000001
 44
0.0000000001
 40
0.0
 40
0.0
 40
0.0
 40
0.0
 40
0.0039024891
 40
0.0079646438
 40
0.012189852
 40
0.0165809639
 40
0.0211404007
 40
0.025870095
 40
0.0307713706
 40
0.035845085
 40
0.0410917394
 40
0.0465114374
 40
0.0578684756
 40
0.0699118895
 40
0.0826327895
 40
0.0960189284
 40
0.1100551192
 40
0.1247236079
 40
0.1400043793
 40
0.1558753896
 40
0.1723127428
 40
0.1892908627
 40
0.2067826618
 40
0.2247596705
 40
0.2431921427
 40
0.2620491624
 40
0.2812987672
 40
0.3009080458
 40
0.320843223
 40
0.3410697456
 40
0.3615523869
 40
0.4031416014
 40
0.4453194978
 40
0.4877886718
 40
0.5302490992
 40
0.5724008391
 40
0.6139467162
 40
0.6344013712
 40
0.6545957692
 40
0.6744947569
 40
0.6940638783
 40
0.7132694531
 40
0.7320786646
 40
0.750459664
 40
0.768381682
 40
0.7858151165
 40
0.8027316387
 40
0.8191043227
 40
0.8349077989
 40
0.8501183835
 40
0.8647142425
 40
0.8786755988
 40
0.8919850007
 40
0.904627595
 40
0.916591483
 40
0.927868191
 40
0.9384533053
 40
0.94348681
 40
0.9483480262
 40
0.9530379658
 40
0.9575580622
 40
0.9619102435
 40
0.9660970551
 40
0.9701216278
 40
0.9739878494
 40
0.9777004245
 40
0.9812649336
 40
0.9846880342
 40
0.9879774862
 40
0.9911423044
 40
0.9941928847
 40
0.9971410186
 40
1.0
 40
1.0
 40
1.0
 40
1.0
 10
13.1090394714
 20
7.6943965552
 30
0.0
 10
13.1103190443
 20
7.6956325278
 30
0.0
 10
13.1128768958
 20
7.6982110741
 30
0.0
 10
13.1166360429
 20
7.7023052306
 30
0.0
 10
13.1203915021
 20
7.7067001349
 30
0.0
 10
13.1241413102
 20
7.7113935501
 30
0.0
 10
13.1278838565
 20
7.716383278
 30
0.0
 10
13.1316174137
 20
7.7216670865
 30
0.0
 10
13.1353403256
 20
7.7272425231
 30
0.0
 10
13.1390508524
 20
7.7331069861
 30
0.0
 10
13.1427472364
 20
7.7392577656
 30
0.0
 10
13.1477325456
 20
7.7479731095
 30
0.0
 10
13.1539044385
 20
7.7595754287
 30
0.0
 10
13.1611160736
 20
7.7743821714
 30
0.0
 10
13.1682306331
 20
7.7902549516
 30
0.0
 10
13.1752346996
 20
7.8071640751
 30
0.0
 10
13.1821150768
 20
7.8250781079
 30
0.0
 10
13.1888587661
 20
7.8439635456
 30
0.0
 10
13.1954530091
 20
7.863785031
 30
0.0
 10
13.2018853137
 20
7.8845053951
 30
0.0
 10
13.2081435023
 20
7.9060857301
 30
0.0
 10
13.2142157364
 20
7.9284854702
 30
0.0
 10
13.2200905209
 20
7.9516624899
 30
0.0
 10
13.2257567301
 20
7.9755731872
 30
0.0
 10
13.2312036382
 20
8.0001725571
 30
0.0
 10
13.2364209518
 20
8.0254142772
 30
0.0
 10
13.241398803
 20
8.0512508083
 30
0.0
 10
13.2461277773
 20
8.0776334919
 30
0.0
 10
13.2505989182
 20
8.1045126189
 30
0.0
 10
13.2548038208
 20
8.1318375799
 30
0.0
 10
13.2600712023
 20
8.1689840344
 30
0.0
 10
13.2659246862
 20
8.21615098
 30
0.0
 10
13.2717404471
 20
8.2734081707
 30
0.0
 10
13.2763386451
 20
8.3311744758
 30
0.0
 10
13.2796846421
 20
8.3890148792
 30
0.0
 10
13.2817532679
 20
8.446493801
 30
0.0
 10
13.28240341
 20
8.4939736975
 30
0.0
 10
13.2822631225
 20
8.5314443337
 30
0.0
 10
13.2818323917
 20
8.5590436793
 30
0.0
 10
13.2810765512
 20
8.58623219
 30
0.0
 10
13.279997031
 20
8.612958682
 30
0.0
 10
13.2785959045
 20
8.6391727926
 30
0.0
 10
13.2768758384
 20
8.6648251395
 30
0.0
 10
13.2748401091
 20
8.6898674054
 30
0.0
 10
13.2724926095
 20
8.7142524389
 30
0.0
 10
13.2698378163
 20
8.7379343378
 30
0.0
 10
13.2668807854
 20
8.7608685313
 30
0.0
 10
13.2636271431
 20
8.7830118778
 30
0.0
 10
13.2600831029
 20
8.804322758
 30
0.0
 10
13.256255422
 20
8.8247611514
 30
0.0
 10
13.2521513912
 20
8.8442887102
 30
0.0
 10
13.2477788111
 20
8.8628688477
 30
0.0
 10
13.2431460079
 20
8.8804668477
 30
0.0
 10
13.238261779
 20
8.8970498959
 30
0.0
 10
13.2331353437
 20
8.9125873032
 30
0.0
 10
13.227776339
 20
8.9270500755
 30
0.0
 10
13.2230489232
 20
8.9383675514
 30
0.0
 10
13.2191463265
 20
8.9468497912
 30
0.0
 10
13.2162166664
 20
8.9528190863
 30
0.0
 10
13.2132365419
 20
8.958500392
 30
0.0
 10
13.210207276
 20
8.963891086
 30
0.0
 10
13.2071302151
 20
8.9689886459
 30
0.0
 10
13.2040068213
 20
8.9737907549
 30
0.0
 10
13.2008384276
 20
8.9782951632
 30
0.0
 10
13.1976264481
 20
8.9824997953
 30
0.0
 10
13.1943723151
 20
8.9864027311
 30
0.0
 10
13.1910773372
 20
8.9900020832
 30
0.0
 10
13.1877429698
 20
8.9932961952
 30
0.0
 10
13.1843705503
 20
8.9962834397
 30
0.0
 10
13.1809614528
 20
8.9989622425
 30
0.0
 10
13.1775170549
 20
9.0013312693
 30
0.0
 10
13.1740390263
 20
9.0033889107
 30
0.0
 10
13.1716658317
 20
9.0045686432
 30
0.0
 10
13.170476968
 20
9.0051027347
 30
0.0
  0
SPLINE
  5
3D0
100
AcDbEntity
  8
0
100
AcDbSpline
 62
7
  6
CONTINUOUS
 70
0
 71
3
 72
15
 73
11
 74
0
 42
0.0000001
 43
0.0000001
 44
0.0000000001
 40
0.0
 40
0.0
 40
0.0
 40
0.0
 40
0.1430865384
 40
0.2803908248
 40
0.4121522697
 40
0.5386623615
 40
0.6602715695
 40
0.7773825046
 40
0.8904535016
 40
1.0
 40
1.0
 40
1.0
 40
1.0
 10
13.1090394714
 20
7.6943965552
 30
0.0
 10
13.1077912129
 20
7.69319083
 30
0.0
 10
13.1052954888
 20
7.6908786927
 30
0.0
 10
13.1014740239
 20
7.6876530645
 30
0.0
 10
13.0976552492
 20
7.6847447807
 30
0.0
 10
13.0938410033
 20
7.6821556048
 30
0.0
 10
13.0900330028
 20
7.6798868381
 30
0.0
 10
13.0862327017
 20
7.6779398174
 30
0.0
 10
13.0824421323
 20
7.6763158039
 30
0.0
 10
13.0798858973
 20
7.6754366354
 30
0.0
 10
13.0786133434
 20
7.6750545268
 30
0.0
  0
SPLINE
  5
3D1
100
AcDbEntity
  8
0
100
AcDbSpline
 62
7
  6
CONTINUOUS
 70
0
 71
3
 72
19
 73
15
 74
0
 42
0.0000001
 43
0.0000001
 44
0.0000000001
 40
0.0
 40
0.0
 40
0.0
 40
0.0
 40
0.1532259837
 40
0.2947794198
 40
0.4259268468
 40
0.5483710024
 40
0.6070241419
 40
0.664343639
 40
0.7206643342
 40
0.776340523
 40
0.8317401594
 40
0.887237108
 40
0.9432031319
 40
1.0
 40
1.0
 40
1.0
 40
1.0
 10
13.1090394714
 20
7.8846839543
 30
0.0
 10
13.1073754634
 20
7.8830766459
 30
0.0
 10
13.104050691
 20
7.8801076556
 30
0.0
 10
13.0988574606
 20
7.8762954983
 30
0.0
 10
13.0936711885
 20
7.8733181124
 30
0.0
 10
13.0892964335
 20
7.8715157189
 30
0.0
 10
13.0858322107
 20
7.8705257871
 30
0.0
 10
13.0832802181
 20
7.8700068771
 30
0.0
 10
13.0807391603
 20
7.8697015693
 30
0.0
 10
13.0782103334
 20
7.8696102152
 30
0.0
 10
13.0756952623
 20
7.8697330105
 30
0.0
 10
13.0731953806
 20
7.8700698284
 30
0.0
 10
13.0707123632
 20
7.8706204172
 30
0.0
 10
13.0690840192
 20
7.8711251012
 30
0.0
 10
13.0682755037
 20
7.8714109551
 30
0.0
  0
SPLINE
  5
3D2
100
AcDbEntity
  8
0
100
AcDbSpline
 62
7
  6
CONTINUOUS
 70
0
 71
3
 72
78
 73
74
 74
0
 42
0.0000001
 43
0.0000001
 44
0.0000000001
 40
0.0
 40
0.0
 40
0.0
 40
0.0
 40
0.004052281
 40
0.0082800531
 40
0.0126871731
 40
0.0172768288
 40
0.0220516835
 40
0.0270138289
 40
0.0321646494
 40
0.0375049507
 40
0.0487544505
 40
0.0607614066
 40
0.0735185611
 40
0.0870140614
 40
0.101232161
 40
0.1161537085
 40
0.1317566127
 40
0.1480161825
 40
0.1649053777
 40
0.1823950201
 40
0.2004540329
 40
0.2190496177
 40
0.2381473895
 40
0.257711512
 40
0.2777048652
 40
0.2980891706
 40
0.3188250952
 40
0.3398723694
 40
0.3827352076
 40
0.4263422843
 40
0.4703497656
 40
0.5144097933
 40
0.5581739837
 40
0.6012969171
 40
0.6434396852
 40
0.6640406826
 40
0.6842743261
 40
0.7041016837
 40
0.7234849044
 40
0.7423873699
 40
0.7607738222
 40
0.77861048
 40
0.7958651867
 40
0.8125076116
 40
0.8285094211
 40
0.8438444648
 40
0.8584890236
 40
0.8724221505
 40
0.8856260118
 40
0.8980863196
 40
0.9097929274
 40
0.9207406491
 40
0.9259303479
 40
0.9309311778
 40
0.9357444229
 40
0.9403719262
 40
0.9448161324
 40
0.9490802928
 40
0.9531684298
 40
0.9570855145
 40
0.9608376266
 40
0.9644319859
 40
0.9678772131
 40
0.9711834213
 40
0.9774234328
 40
0.9803900437
 40
0.983275223
 40
0.9860977208
 40
0.9888776659
 40
0.9916362253
 40
0.9943950968
 40
0.9971759754
 40
1.0
 40
1.0
 40
1.0
 40
1.0
 10
13.1090394714
 20
7.8846839543
 30
0.0
 10
13.109995978
 20
7.8856078688
 30
0.0
 10
13.1119079008
 20
7.887540129
 30
0.0
 10
13.1147143936
 20
7.8906170569
 30
0.0
 10
13.1175178093
 20
7.8939313341
 30
0.0
 10
13.1203164961
 20
7.8974810795
 30
0.0
 10
13.1231091179
 20
7.9012644252
 30
0.0
 10
13.1258942273
 20
7.9052794808
 30
0.0
 10
13.1286704702
 20
7.909524173
 30
0.0
 10
13.132423623
 20
7.9155927295
 30
0.0
 10
13.1370719293
 20
7.9237493637
 30
0.0
 10
13.1424987908
 20
7.9342516508
 30
0.0
 10
13.1478559819
 20
7.9456100047
 30
0.0
 10
13.1531322249
 20
7.9578007309
 30
0.0
 10
13.158316405
 20
7.9707985821
 30
0.0
 10
13.163397575
 20
7.9845764138
 30
0.0
 10
13.1683649772
 20
7.9991054031
 30
0.0
 10
13.1732080778
 20
8.0143550945
 30
0.0
 10
13.1779166014
 20
8.0302934703
 30
0.0
 10
13.182480579
 20
8.0468870164
 30
0.0
 10
13.1868903363
 20
8.0641008182
 30
0.0
 10
13.1911365203
 20
8.0818986424
 30
0.0
 10
13.1952101282
 20
8.1002430044
 30
0.0
 10
13.1991025426
 20
8.1190952457
 30
0.0
 10
13.2028055235
 20
8.1384156342
 30
0.0
 10
13.2063112156
 20
8.1581634387
 30
0.0
 10
13.2096122273
 20
8.1782970543
 30
0.0
 10
13.2137562573
 20
8.2057655753
 30
0.0
 10
13.2183664883
 20
8.2407514233
 30
0.0
 10
13.2229516974
 20
8.2833284757
 30
0.0
 10
13.226583768
 20
8.3263917572
 30
0.0
 10
13.2292320012
 20
8.3695783089
 30
0.0
 10
13.230874193
 20
8.4125244424
 30
0.0
 10
13.2314966132
 20
8.4548681876
 30
0.0
 10
13.231159244
 20
8.4896134093
 30
0.0
 10
13.2303638951
 20
8.5168335938
 30
0.0
 10
13.2295163725
 20
8.5367239497
 30
0.0
 10
13.2284152766
 20
8.5562016216
 30
0.0
 10
13.2270629188
 20
8.5752255782
 30
0.0
 10
13.2254622029
 20
8.5937557148
 30
0.0
 10
13.2236165558
 20
8.6117529937
 30
0.0
 10
13.2215299205
 20
8.6291795045
 30
0.0
 10
13.2192067408
 20
8.6459985534
 30
0.0
 10
13.2166519857
 20
8.6621747553
 30
0.0
 10
13.2138711202
 20
8.6776741124
 30
0.0
 10
13.2108700822
 20
8.6924640804
 30
0.0
 10
13.2076552613
 20
8.7065136478
 30
0.0
 10
13.2042335181
 20
8.7197934432
 30
0.0
 10
13.200612139
 20
8.7322757703
 30
0.0
 10
13.1967987822
 20
8.7439348082
 30
0.0
 10
13.1928014649
 20
8.7547462418
 30
0.0
 10
13.1892636724
 20
8.7631753326
 30
0.0
 10
13.186337732
 20
8.7694658981
 30
0.0
 10
13.1841416775
 20
8.773873644
 30
0.0
 10
13.1819060288
 20
8.7780533822
 30
0.0
 10
13.179631916
 20
8.7820029692
 30
0.0
 10
13.1773204382
 20
8.7857203305
 30
0.0
 10
13.1749728178
 20
8.7892035835
 30
0.0
 10
13.1725901814
 20
8.7924509208
 30
0.0
 10
13.1701736679
 20
8.7954606365
 30
0.0
 10
13.1677244582
 20
8.798231231
 30
0.0
 10
13.165243734
 20
8.8007611176
 30
0.0
 10
13.1627322715
 20
8.8030491838
 30
0.0
 10
13.1594096892
 20
8.8057234204
 30
0.0
 10
13.1559604953
 20
8.8079828242
 30
0.0
 10
13.1524061577
 20
8.809755446
 30
0.0
 10
13.1497602455
 20
8.8108148916
 30
0.0
 10
13.147091615
 20
8.8116253346
 30
0.0
 10
13.1444017763
 20
8.8121859378
 30
0.0
 10
13.1416926547
 20
8.812496124
 30
0.0
 10
13.1389661206
 20
8.8125556505
 30
0.0
 10
13.1362244069
 20
8.8123644754
 30
0.0
 10
13.1344054528
 20
8.8120730063
 30
0.0
 10
13.1334974038
 20
8.8118876446
 30
0.0
  0
SPLINE
  5
3D3
100
AcDbEntity
  8
0
100
AcDbSpline
 62
7
  6
CONTINUOUS
 70
0
 71
3
 72
53
 73
49
 74
0
 42
0.0000001
 43
0.0000001
 44
0.0000000001
 40
0.0
 40
0.0
 40
0.0
 40
0.0
 40
0.0090726979
 40
0.0186767242
 40
0.0288126585
 40
0.0394784327
 40
0.050669581
 40
0.0623796967
 40
0.0746004968
 40
0.0873222243
 40
0.1005336486
 40
0.1142222806
 40
0.1283745094
 40
0.1429755895
 40
0.1580098932
 40
0.173460807
 40
0.2055414123
 40
0.2390700491
 40
0.2738879263
 40
0.309827205
 40
0.3467124206
 40
0.3843618233
 40
0.4225886741
 40
0.4612025164
 40
0.5000104239
 40
0.5388182369
 40
0.5774317945
 40
0.6156581689
 40
0.653306908
 40
0.690191283
 40
0.7261295515
 40
0.760946252
 40
0.794473547
 40
0.8265526489
 40
0.842002764
 40
0.8570362198
 40
0.8716364561
 40
0.885787765
 40
0.8994754951
 40
0.9126859578
 40
0.9254067116
 40
0.9376265326
 40
0.9493356129
 40
0.9605257637
 40
0.9711904804
 40
0.9813253907
 40
0.9909283495
 40
1.0
 40
1.0
 40
1.0
 40
1.0
 10
13.0216641448
 20
7.9373954792
 30
0.0
 10
13.0230936762
 20
7.9394791699
 30
0.0
 10
13.0259390283
 20
7.9438359915
 30
0.0
 10
13.0300602094
 20
7.9507238064
 30
0.0
 10
13.0341504269
 20
7.9581409667
 30
0.0
 10
13.0382041773
 20
7.9660776026
 30
0.0
 10
13.0422161875
 20
7.9745233533
 30
0.0
 10
13.0461810451
 20
7.9834671053
 30
0.0
 10
13.0500935387
 20
7.9928970313
 30
0.0
 10
13.0539483902
 20
8.0028006602
 30
0.0
 10
13.0577404707
 20
8.0131648535
 30
0.0
 10
13.0614647132
 20
8.0239758469
 30
0.0
 10
13.0651160988
 20
8.0352192752
 30
0.0
 10
13.068689784
 20
8.0468801688
 30
0.0
 10
13.0721809611
 20
8.058943024
 30
0.0
 10
13.0767771967
 20
8.0757522761
 30
0.0
 10
13.0822678579
 20
8.0976543346
 30
0.0
 10
13.0883774391
 20
8.1249525392
 30
0.0
 10
13.0940545505
 20
8.1534404832
 30
0.0
 10
13.099268675
 20
8.1829663382
 30
0.0
 10
13.1039917579
 20
8.2133728976
 30
0.0
 10
13.1081984298
 20
8.2444981114
 30
0.0
 10
13.1118661209
 20
8.2761760642
 30
0.0
 10
13.1149751764
 20
8.308237853
 30
0.0
 10
13.1175089588
 20
8.3405125082
 30
0.0
 10
13.1194539358
 20
8.3728279125
 30
0.0
 10
13.1207997519
 20
8.4050117276
 30
0.0
 10
13.121539286
 20
8.4368923243
 30
0.0
 10
13.121668698
 20
8.468299706
 30
0.0
 10
13.121187448
 20
8.499066436
 30
0.0
 10
13.1200982959
 20
8.5290285187
 30
0.0
 10
13.1184073266
 20
8.5580263821
 30
0.0
 10
13.1161238108
 20
8.5859054401
 30
0.0
 10
13.1137085092
 20
8.6083546722
 30
0.0
 10
13.1114761954
 20
8.6256365282
 30
0.0
 10
13.1096832659
 20
8.638065075
 30
0.0
 10
13.1077531807
 20
8.6501068647
 30
0.0
 10
13.1056884626
 20
8.6617458804
 30
0.0
 10
13.1034919547
 20
8.6729666284
 30
0.0
 10
13.1011665484
 20
8.6837541874
 30
0.0
 10
13.0987154173
 20
8.6940942284
 30
0.0
 10
13.0961418329
 20
8.7039730336
 30
0.0
 10
13.0934492339
 20
8.7133775161
 30
0.0
 10
13.0906412689
 20
8.7222952611
 30
0.0
 10
13.0877216194
 20
8.7307144923
 30
0.0
 10
13.0846942105
 20
8.7386242387
 30
0.0
 10
13.0815630508
 20
8.7460139574
 30
0.0
 10
13.0793462091
 20
8.7507211239
 30
0.0
 10
13.0782179098
 20
8.7529818302
 30
0.0
  0
SPLINE
  5
3D4
100
AcDbEntity
  8
0
100
AcDbSpline
 62
7
  6
CONTINUOUS
 70
0
 71
3
 72
39
 73
35
 74
0
 42
0.0000001
 43
0.0000001
 44
0.0000000001
 40
0.0
 40
0.0
 40
0.0
 40
0.0
 40
0.0228259193
 40
0.0471669039
 40
0.0729622736
 40
0.1001418567
 40
0.1286272555
 40
0.1583328674
 40
0.1891667418
 40
0.2210313266
 40
0.2538241395
 40
0.2874383873
 40
0.3217635501
 40
0.3566859418
 40
0.3920892545
 40
0.4278550923
 40
0.4638634981
 40
0.4999934758
 40
0.5361235103
 40
0.5721320864
 40
0.6078982066
 40
0.643301912
 40
0.6782248039
 40
0.7125505715
 40
0.7461655259
 40
0.7789591445
 40
0.8108246308
 40
0.8416594995
 40
0.8713661949
 40
0.8998527621
 40
0.9270335925
 40
0.9528302809
 40
0.9771726466
 40
1.0
 40
1.0
 40
1.0
 40
1.0
 10
13.0018971327
 20
8.0179156091
 30
0.0
 10
13.0039285525
 20
8.0225734211
 30
0.0
 10
13.0079272425
 20
8.032285765
 30
0.0
 10
13.0135834583
 20
8.0475149019
 30
0.0
 10
13.0190747556
 20
8.0638302254
 30
0.0
 10
13.0243811566
 20
8.0811734426
 30
0.0
 10
13.0294835087
 20
8.0994828859
 30
0.0
 10
13.0343633511
 20
8.1186931764
 30
0.0
 10
13.0390030497
 20
8.1387356618
 30
0.0
 10
13.0433858443
 20
8.1595386349
 30
0.0
 10
13.0474959132
 20
8.1810276198
 30
0.0
 10
13.0513184283
 20
8.2031256464
 30
0.0
 10
13.0548396074
 20
8.2257535357
 30
0.0
 10
13.0580467623
 20
8.2488301896
 30
0.0
 10
13.0609283432
 20
8.2722728863
 30
0.0
 10
13.0634739798
 20
8.2959975806
 30
0.0
 10
13.0656745171
 20
8.3199192086
 30
0.0
 10
13.0675220487
 20
8.3439519948
 30
0.0
 10
13.0690099442
 20
8.3680097624
 30
0.0
 10
13.0701328735
 20
8.392006244
 30
0.0
 10
13.0708868257
 20
8.4158553933
 30
0.0
 10
13.0712691248
 20
8.4394716957
 30
0.0
 10
13.071278439
 20
8.4627704778
 30
0.0
 10
13.0709147877
 20
8.4856682136
 30
0.0
 10
13.0701795422
 20
8.5080828283
 30
0.0
 10
13.0690754224
 20
8.5299339968
 30
0.0
 10
13.0676064887
 20
8.5511434376
 30
0.0
 10
13.0657781299
 20
8.5716352022
 30
0.0
 10
13.0635970467
 20
8.5913359543
 30
0.0
 10
13.0610712272
 20
8.6101752631
 30
0.0
 10
13.0582099282
 20
8.6280858239
 30
0.0
 10
13.0550236091
 20
8.6450039132
 30
0.0
 10
13.051523995
 20
8.6608690309
 30
0.0
 10
13.0489044585
 20
8.6710410679
 30
0.0
 10
13.0475355175
 20
8.6759350564
 30
0.0
  0
SPLINE
  5
3D5
100
AcDbEntity
  8
0
100
AcDbSpline
 62
7
  6
CONTINUOUS
 70
0
 71
3
 72
12
 73
8
 74
0
 42
0.0000001
 43
0.0000001
 44
0.0000000001
 40
0.0
 40
0.0
 40
0.0
 40
0.0
 40
0.1054700756
 40
0.2165109935
 40
0.4553322604
 40
0.716517282
 40
1.0
 40
1.0
 40
1.0
 40
1.0
 10
11.0435249267
 20
8.1824760158
 30
0.0
 10
11.0441539566
 20
8.1830836121
 30
0.0
 10
11.0454253334
 20
8.1843516358
 30
0.0
 10
11.0480231605
 20
8.1870919735
 30
0.0
 10
11.0513657307
 20
8.1909025224
 30
0.0
 10
11.0554469972
 20
8.1959589622
 30
0.0
 10
11.0581637968
 20
8.1995678885
 30
0.0
 10
11.059552433
 20
8.2014645155
 30
0.0
  0
SPLINE
  5
3D6
100
AcDbEntity
  8
0
100
AcDbSpline
 62
7
  6
CONTINUOUS
 70
0
 71
3
 72
71
 73
67
 74
0
 42
0.0000001
 43
0.0000001
 44
0.0000000001
 40
0.0
 40
0.0
 40
0.0
 40
0.0
 40
0.0155842357
 40
0.031115943
 40
0.0465952487
 40
0.0620238831
 40
0.0774034484
 40
0.0927362827
 40
0.1080251234
 40
0.1232731737
 40
0.1384840555
 40
0.1536617759
 40
0.1688106894
 40
0.1839354528
 40
0.1990409785
 40
0.2141323826
 40
0.2292149324
 40
0.2442939897
 40
0.2593749538
 40
0.2744632037
 40
0.2895640404
 40
0.3046826304
 40
0.3198239511
 40
0.3349927396
 40
0.3501934435
 40
0.3654301766
 40
0.3807066777
 40
0.3960262752
 40
0.4113918557
 40
0.4268058391
 40
0.4422701589
 40
0.4577862478
 40
0.4733550285
 40
0.4889769092
 40
0.5046517848
 40
0.5203790431
 40
0.5361575763
 40
0.5519857963
 40
0.5678616538
 40
0.5837826609
 40
0.5997459179
 40
0.6157481418
 40
0.6317856999
 40
0.6478546445
 40
0.6639507499
 40
0.6800695506
 40
0.6962063818
 40
0.7123564201
 40
0.7285147273
 40
0.7446762933
 40
0.7608360799
 40
0.7769890645
 40
0.7931302835
 40
0.8092548753
 40
0.8253581239
 40
0.8414355006
 40
0.8574827053
 40
0.873495705
 40
0.8894707706
 40
0.9054045132
 40
0.921293919
 40
0.9371363616
 40
0.9529297193
 40
0.9686720808
 40
0.9843626423
 40
1.0
 40
1.0
 40
1.0
 40
1.0
 10
10.5557973918
 20
7.7097657837
 30
0.0
 10
10.5557973918
 20
7.7187740605
 30
0.0
 10
10.5562382452
 20
7.7367634449
 30
0.0
 10
10.558228257
 20
7.7636341845
 30
0.0
 10
10.5615413713
 20
7.7902841965
 30
0.0
 10
10.5661694362
 20
7.816648216
 30
0.0
 10
10.5721015313
 20
7.8426630917
 30
0.0
 10
10.5793233445
 20
7.8682659839
 30
0.0
 10
10.587817576
 20
7.8933951978
 30
0.0
 10
10.5975637948
 20
7.9179901288
 30
0.0
 10
10.6085385506
 20
7.9419914674
 30
0.0
 10
10.6207154279
 20
7.9653413244
 30
0.0
 10
10.6340651063
 20
7.9879833758
 30
0.0
 10
10.6485554318
 20
8.0098629976
 30
0.0
 10
10.6641514934
 20
8.0309273992
 30
0.0
 10
10.6808157021
 20
8.051125755
 30
0.0
 10
10.6985078689
 20
8.0704093426
 30
0.0
 10
10.7171853234
 20
8.0887316466
 30
0.0
 10
10.7368030146
 20
8.1060484739
 30
0.0
 10
10.7573136212
 20
8.1223180601
 30
0.0
 10
10.7786676655
 20
8.1375011719
 30
0.0
 10
10.8008136363
 20
8.1515611988
 30
0.0
 10
10.8236981007
 20
8.1644642638
 30
0.0
 10
10.8472658475
 20
8.1761792918
 30
0.0
 10
10.871460025
 20
8.1866780777
 30
0.0
 10
10.8962222782
 20
8.1959353547
 30
0.0
 10
10.9214928905
 20
8.203928854
 30
0.0
 10
10.9472109285
 20
8.2106393542
 30
0.0
 10
10.9733143856
 20
8.2160507391
 30
0.0
 10
10.9997403337
 20
8.2201500425
 30
0.0
 10
11.0264250807
 20
8.2229274562
 30
0.0
 10
11.0533043226
 20
8.2243763566
 30
0.0
 10
11.0803132974
 20
8.2244933176
 30
0.0
 10
11.1073869401
 20
8.2232781172
 30
0.0
 10
11.1344600372
 20
8.2207337373
 30
0.0
 10
11.1614673868
 20
8.2168663788
 30
0.0
 10
11.1883439545
 20
8.2116854215
 30
0.0
 10
11.2150250287
 20
8.2052034002
 30
0.0
 10
11.2414463745
 20
8.1974359743
 30
0.0
 10
11.2675443869
 20
8.18840189
 30
0.0
 10
11.2932562398
 20
8.1781229318
 30
0.0
 10
11.3185200444
 20
8.1666238889
 30
0.0
 10
11.3432749972
 20
8.1539324882
 30
0.0
 10
11.36746152
 20
8.1400793154
 30
0.0
 10
11.3910214029
 20
8.1250977441
 30
0.0
 10
11.413897943
 20
8.1090238561
 30
0.0
 10
11.436036078
 20
8.091896354
 30
0.0
 10
11.4573825211
 20
8.0737564737
 30
0.0
 10
11.4778859013
 20
8.0546478976
 30
0.0
 10
11.4974968713
 20
8.0346166298
 30
0.0
 10
11.5161682277
 20
8.0137108894
 30
0.0
 10
11.5338550222
 20
7.9919809944
 30
0.0
 10
11.5505146698
 20
7.9694792432
 30
0.0
 10
11.5661070477
 20
7.9462597875
 30
0.0
 10
11.5805946118
 20
7.9223785162
 30
0.0
 10
11.5939424743
 20
7.8978929099
 30
0.0
 10
11.6061184823
 20
7.8728619009
 30
0.0
 10
11.6170932949
 20
7.8473457334
 30
0.0
 10
11.6268404545
 20
7.8214058212
 30
0.0
 10
11.635336449
 20
7.7951045971
 30
0.0
 10
11.6425607672
 20
7.7685053827
 30
0.0
 10
11.6484960112
 20
7.7416721768
 30
0.0
 10
11.6531277593
 20
7.7146697125
 30
0.0
 10
11.6564449655
 20
7.6875626087
 30
0.0
 10
11.6584393506
 20
7.6604171999
 30
0.0
 10
11.6588847158
 20
7.6423054013
 30
0.0
 10
11.6588847158
 20
7.6332664179
 30
0.0
  0
SPLINE
  5
3D7
100
AcDbEntity
  8
0
100
AcDbSpline
 62
7
  6
CONTINUOUS
 70
0
 71
3
 72
70
 73
66
 74
0
 42
0.0000001
 43
0.0000001
 44
0.0000000001
 40
0.0
 40
0.0
 40
0.0
 40
0.0
 40
0.0085742128
 40
0.0179225174
 40
0.0280750681
 40
0.0390499684
 40
0.0508538305
 40
0.0634848013
 40
0.0769342559
 40
0.0911878009
 40
0.1062261691
 40
0.1220260053
 40
0.138560371
 40
0.1557990732
 40
0.1737091024
 40
0.1922549504
 40
0.211398781
 40
0.2311006759
 40
0.2513188999
 40
0.2720100432
 40
0.3146288917
 40
0.3585841998
 40
0.4034855347
 40
0.4489313437
 40
0.4945137112
 40
0.5398231418
 40
0.5844533008
 40
0.6280058207
 40
0.6492573827
 40
0.6700962428
 40
0.6904770235
 40
0.7103557569
 40
0.7296901326
 40
0.7484396302
 40
0.7665656785
 40
0.7840319485
 40
0.8008045956
 40
0.8168524592
 40
0.8321474327
 40
0.8466649349
 40
0.8603842961
 40
0.8732893758
 40
0.8853694933
 40
0.896620431
 40
0.9070458371
 40
0.9166593113
 40
0.9254871329
 40
0.9296201465
 40
0.9335744016
 40
0.9373585101
 40
0.940982832
 40
0.9477983657
 40
0.9510242667
 40
0.954151261
 40
0.9571997333
 40
0.9601919004
 40
0.9631513546
 40
0.9661025682
 40
0.9690702375
 40
0.9720786223
 40
0.9751509051
 40
0.9783086733
 40
0.9849529369
 40
0.9921503643
 40
1.0
 40
1.0
 40
1.0
 40
1.0
 10
12.2118137155
 20
10.0890406913
 30
0.0
 10
12.2130527631
 20
10.0902375195
 30
0.0
 10
12.2157710033
 20
10.0926080948
 30
0.0
 10
12.220314465
 20
10.0959589448
 30
0.0
 10
12.2254846685
 20
10.0992471635
 30
0.0
 10
12.2312693528
 20
10.1024652902
 30
0.0
 10
12.2376556766
 20
10.1056063028
 30
0.0
 10
12.2446288291
 20
10.1086628719
 30
0.0
 10
12.2521725518
 20
10.1116277731
 30
0.0
 10
12.2602690801
 20
10.1144938866
 30
0.0
 10
12.268899207
 20
10.11725433
 30
0.0
 10
12.2780423852
 20
10.1199024201
 30
0.0
 10
12.2876767843
 20
10.1224317166
 30
0.0
 10
12.2977793345
 20
10.1248361015
 30
0.0
 10
12.3083258113
 20
10.127109745
 30
0.0
 10
12.3192909068
 20
10.1292471108
 30
0.0
 10
12.3306482809
 20
10.1312430168
 30
0.0
 10
12.3423706225
 20
10.1330926273
 30
0.0
 10
12.3544297682
 20
10.1347914808
 30
0.0
 10
12.3710831033
 20
10.1368704267
 30
0.0
 10
12.3925268888
 20
10.1390522968
 30
0.0
 10
12.4188741727
 20
10.1409902974
 30
0.0
 10
12.4458309656
 20
10.1422539418
 30
0.0
 10
12.4731380202
 20
10.1428308436
 30
0.0
 10
12.5005328922
 20
10.1427153342
 30
0.0
 10
12.5277522654
 20
10.1419085726
 30
0.0
 10
12.5545343413
 20
10.140418397
 30
0.0
 10
12.5764494911
 20
10.1386049998
 30
0.0
 10
12.5935635593
 20
10.1368149684
 30
0.0
 10
12.6060264997
 20
10.1353235138
 30
0.0
 10
12.618191486
 20
10.1336758939
 30
0.0
 10
12.6300292711
 20
10.131876057
 30
0.0
 10
12.6415113816
 20
10.1299283907
 30
0.0
 10
12.6526102172
 20
10.1278376243
 30
0.0
 10
12.6632991034
 20
10.1256088142
 30
0.0
 10
12.673552377
 20
10.123247372
 30
0.0
 10
12.6833454518
 20
10.120759045
 30
0.0
 10
12.6926548667
 20
10.1181498628
 30
0.0
 10
12.7014583615
 20
10.115426137
 30
0.0
 10
12.7097349586
 20
10.1125944847
 30
0.0
 10
12.717465007
 20
10.1096617432
 30
0.0
 10
12.7246302371
 20
10.1066349301
 30
0.0
 10
12.7312138833
 20
10.1035212519
 30
0.0
 10
12.7372006697
 20
10.100328023
 30
0.0
 10
12.7425770535
 20
10.0970623969
 30
0.0
 10
12.7473305602
 20
10.0937316568
 30
0.0
 10
12.7508381142
 20
10.0908466468
 30
0.0
 10
12.7533050243
 20
10.0885073291
 30
0.0
 10
12.7549514849
 20
10.0867801545
 30
0.0
 10
12.7564341576
 20
10.0850423364
 30
0.0
 10
12.7581556698
 20
10.0827599502
 30
0.0
 10
12.7595965223
 20
10.0804096648
 30
0.0
 10
12.7607074069
 20
10.0780057848
 30
0.0
 10
12.7613573839
 20
10.0762297997
 30
0.0
 10
12.7618384086
 20
10.0744493054
 30
0.0
 10
12.7621500403
 20
10.0726654918
 30
0.0
 10
12.7622917858
 20
10.0708797319
 30
0.0
 10
12.7622634102
 20
10.0690934813
 30
0.0
 10
12.7620650417
 20
10.0673082037
 30
0.0
 10
12.7616968882
 20
10.065525352
 30
0.0
 10
12.7611594092
 20
10.0637462035
 30
0.0
 10
12.7602020778
 20
10.0613403593
 30
0.0
 10
12.7585537577
 20
10.058332565
 30
0.0
 10
12.7559454635
 20
10.0548277696
 30
0.0
 10
12.7538665502
 20
10.0526235547
 30
0.0
 10
12.7527322102
 20
10.0515278663
 30
0.0
  0
SPLINE
  5
3D8
100
AcDbEntity
  8
0
100
AcDbSpline
 62
7
  6
CONTINUOUS
 70
0
 71
3
 72
23
 73
19
 74
0
 42
0.0000001
 43
0.0000001
 44
0.0000000001
 40
0.0
 40
0.0
 40
0.0
 40
0.0
 40
0.0637771735
 40
0.1273448473
 40
0.1907019822
 40
0.253856143
 40
0.3168131975
 40
0.3795820985
 40
0.4421733906
 40
0.5045993374
 40
0.5668738654
 40
0.62901238
 40
0.6910316489
 40
0.7529496402
 40
0.814785347
 40
0.8765585971
 40
0.938289852
 40
1.0
 40
1.0
 40
1.0
 40
1.0
 10
8.0666063549
 20
7.3095977245
 30
0.0
 10
8.0666063549
 20
7.317188712
 30
0.0
 10
8.0669696909
 20
7.332348324
 30
0.0
 10
8.0686096116
 20
7.3549955294
 30
0.0
 10
8.0713400842
 20
7.377463198
 30
0.0
 10
8.0751545964
 20
7.39969862
 30
0.0
 10
8.0800445986
 20
7.4216509291
 30
0.0
 10
8.085998812
 20
7.4432693837
 30
0.0
 10
8.093003555
 20
7.4645041784
 30
0.0
 10
8.1010427188
 20
7.4853063437
 30
0.0
 10
8.1100978084
 20
7.505627905
 30
0.0
 10
8.1201480018
 20
7.5254219828
 30
0.0
 10
8.1311701634
 20
7.5446429051
 30
0.0
 10
8.1431388919
 20
7.5632463506
 30
0.0
 10
8.1560265619
 20
7.5811893658
 30
0.0
 10
8.1698036199
 20
7.5984306927
 30
0.0
 10
8.1844377549
 20
7.6149300184
 30
0.0
 10
8.1947447162
 20
7.625411415
 30
0.0
 10
8.200027623
 20
7.6305142939
 30
0.0
  0
SPLINE
  5
3D9
100
AcDbEntity
  8
0
100
AcDbSpline
 62
7
  6
CONTINUOUS
 70
0
 71
3
 72
58
 73
54
 74
0
 42
0.0000001
 43
0.0000001
 44
0.0000000001
 40
0.0
 40
0.0
 40
0.0
 40
0.0
 40
0.0081223305
 40
0.0169168975
 40
0.0264087397
 40
0.0366143893
 40
0.0475415919
 40
0.0591912278
 40
0.0715586516
 40
0.0846347975
 40
0.0984066254
 40
0.112857697
 40
0.1279687991
 40
0.1437179559
 40
0.1600810137
 40
0.1770317001
 40
0.2125802303
 40
0.2501202969
 40
0.2893844218
 40
0.3300865608
 40
0.3719257492
 40
0.4145895607
 40
0.4577574053
 40
0.5011037527
 40
0.5443013266
 40
0.587024304
 40
0.6289515139
 40
0.6697696572
 40
0.7091765902
 40
0.7468847529
 40
0.7826248208
 40
0.7996793841
 40
0.8161512809
 40
0.8320139346
 40
0.8472427441
 40
0.8618153344
 40
0.8757119895
 40
0.8889156785
 40
0.9014127874
 40
0.9131934095
 40
0.9242520347
 40
0.9345886083
 40
0.9442093599
 40
0.953128682
 40
0.9613709503
 40
0.9689732053
 40
0.9759886321
 40
0.9824900189
 40
0.9885734021
 40
0.9914974267
 40
0.9943641369
 40
0.9971919109
 40
1.0
 40
1.0
 40
1.0
 40
1.0
 10
12.9843899765
 20
10.3202920755
 30
0.0
 10
12.9852104168
 20
10.32108456
 30
0.0
 10
12.9869965956
 20
10.3226560018
 30
0.0
 10
12.9899614902
 20
10.3248887293
 30
0.0
 10
12.9933098041
 20
10.3270841007
 30
0.0
 10
12.9970347407
 20
10.3292378877
 30
0.0
 10
13.0011293057
 20
10.3313462265
 30
0.0
 10
13.0055855596
 20
10.3334049011
 30
0.0
 10
13.0103947226
 20
10.3354099046
 30
0.0
 10
13.0155472877
 20
10.3373571835
 30
0.0
 10
13.0210329979
 20
10.3392428045
 30
0.0
 10
13.0268408767
 20
10.3410629763
 30
0.0
 10
13.0329592832
 20
10.3428139498
 30
0.0
 10
13.0393759068
 20
10.3444922021
 30
0.0
 10
13.0460778409
 20
10.3460943224
 30
0.0
 10
13.0555266321
 20
10.3481573038
 30
0.0
 10
13.0679537926
 20
10.3505090401
 30
0.0
 10
13.0835466351
 20
10.3529383135
 30
0.0
 10
13.0999222267
 20
10.3549974305
 30
0.0
 10
13.1169483635
 20
10.3566694494
 30
0.0
 10
13.1344877049
 20
10.3579405652
 30
0.0
 10
13.1523985965
 20
10.3588003127
 30
0.0
 10
13.1705363475
 20
10.3592416126
 30
0.0
 10
13.1887543961
 20
10.3592608302
 30
0.0
 10
13.2069055219
 20
10.3588578041
 30
0.0
 10
13.2248430528
 20
10.358035856
 30
0.0
 10
13.2424220793
 20
10.3568017548
 30
0.0
 10
13.2595006217
 20
10.3551656616
 30
0.0
 10
13.2759409038
 20
10.3531410844
 30
0.0
 10
13.2916101866
 20
10.3507446743
 30
0.0
 10
13.3041085367
 20
10.3484196223
 30
0.0
 10
13.3136198539
 20
10.3463771835
 30
0.0
 10
13.3203722264
 20
10.3447892569
 30
0.0
 10
13.3268417036
 20
10.34312461
 30
0.0
 10
13.3330152662
 20
10.341386594
 30
0.0
 10
13.3388804913
 20
10.3395787288
 30
0.0
 10
13.3444256173
 20
10.3377047374
 30
0.0
 10
13.3496395381
 20
10.3357683679
 30
0.0
 10
13.3545118708
 20
10.333773571
 30
0.0
 10
13.3590329617
 20
10.3317243501
 30
0.0
 10
13.3631939064
 20
10.3296247394
 30
0.0
 10
13.366986632
 20
10.3274788995
 30
0.0
 10
13.3704038254
 20
10.3252908276
 30
0.0
 10
13.3734390301
 20
10.3230645233
 30
0.0
 10
13.3760865478
 20
10.3208036965
 30
0.0
 10
13.3783412418
 20
10.3185117194
 30
0.0
 10
13.3801984443
 20
10.3161914225
 30
0.0
 10
13.381653038
 20
10.3138459026
 30
0.0
 10
13.3825366213
 20
10.3118454352
 30
0.0
 10
13.3830247581
 20
10.3102492448
 30
0.0
 10
13.3832832342
 20
10.3090653089
 30
0.0
 10
13.3834383904
 20
10.3078799538
 30
0.0
 10
13.3834729169
 20
10.307088038
 30
0.0
 10
13.3834729171
 20
10.3066936765
 30
0.0
  0
SPLINE
  5
3DA
100
AcDbEntity
  8
0
100
AcDbSpline
 62
7
  6
CONTINUOUS
 70
0
 71
3
 72
70
 73
66
 74
0
 42
0.0000001
 43
0.0000001
 44
0.0000000001
 40
0.0
 40
0.0
 40
0.0
 40
0.0
 40
0.0085742128
 40
0.0179225174
 40
0.0280750681
 40
0.0390499684
 40
0.0508538305
 40
0.0634848013
 40
0.0769342559
 40
0.0911878009
 40
0.1062261691
 40
0.1220260053
 40
0.138560371
 40
0.1557990732
 40
0.1737091024
 40
0.1922549504
 40
0.211398781
 40
0.2311006759
 40
0.2513188999
 40
0.2720100432
 40
0.3146288917
 40
0.3585841998
 40
0.4034855347
 40
0.4489313437
 40
0.4945137112
 40
0.5398231418
 40
0.5844533008
 40
0.6280058207
 40
0.6492573827
 40
0.6700962428
 40
0.6904770235
 40
0.7103557569
 40
0.7296901326
 40
0.7484396302
 40
0.7665656785
 40
0.7840319485
 40
0.8008045956
 40
0.8168524592
 40
0.8321474327
 40
0.8466649349
 40
0.8603842961
 40
0.8732893758
 40
0.8853694933
 40
0.896620431
 40
0.9070458371
 40
0.9166593113
 40
0.9254871329
 40
0.9296201465
 40
0.9335744016
 40
0.9373585101
 40
0.940982832
 40
0.9477983657
 40
0.9510242667
 40
0.954151261
 40
0.9571997333
 40
0.9601919004
 40
0.9631513546
 40
0.9661025682
 40
0.9690702375
 40
0.9720786223
 40
0.9751509051
 40
0.9783086733
 40
0.9849529369
 40
0.9921503643
 40
1.0
 40
1.0
 40
1.0
 40
1.0
 10
9.2472677898
 20
9.7255090488
 30
0.0
 10
9.2485068374
 20
9.726705877
 30
0.0
 10
9.2512250776
 20
9.7290764523
 30
0.0
 10
9.2557685393
 20
9.7324273023
 30
0.0
 10
9.2609387428
 20
9.735715521
 30
0.0
 10
9.2667234272
 20
9.7389336477
 30
0.0
 10
9.2731097509
 20
9.7420746603
 30
0.0
 10
9.2800829035
 20
9.7451312294
 30
0.0
 10
9.2876266261
 20
9.7480961306
 30
0.0
 10
9.2957231545
 20
9.7509622441
 30
0.0
 10
9.3043532813
 20
9.7537226875
 30
0.0
 10
9.3134964595
 20
9.7563707775
 30
0.0
 10
9.3231308587
 20
9.7589000741
 30
0.0
 10
9.3332334088
 20
9.761304459
 30
0.0
 10
9.3437798857
 20
9.7635781025
 30
0.0
 10
9.3547449811
 20
9.7657154683
 30
0.0
 10
9.3661023552
 20
9.7677113743
 30
0.0
 10
9.3778246969
 20
9.7695609848
 30
0.0
 10
9.3898838425
 20
9.7712598383
 30
0.0
 10
9.4065371776
 20
9.7733387842
 30
0.0
 10
9.4279809631
 20
9.7755206543
 30
0.0
 10
9.454328247
 20
9.7774586549
 30
0.0
 10
9.4812850399
 20
9.7787222993
 30
0.0
 10
9.5085920946
 20
9.7792992011
 30
0.0
 10
9.5359869666
 20
9.7791836917
 30
0.0
 10
9.5632063397
 20
9.7783769301
 30
0.0
 10
9.5899884156
 20
9.7768867545
 30
0.0
 10
9.6119035654
 20
9.7750733573
 30
0.0
 10
9.6290176337
 20
9.7732833259
 30
0.0
 10
9.641480574
 20
9.7717918713
 30
0.0
 10
9.6536455603
 20
9.7701442514
 30
0.0
 10
9.6654833455
 20
9.7683444145
 30
0.0
 10
9.6769654559
 20
9.7663967482
 30
0.0
 10
9.6880642915
 20
9.7643059818
 30
0.0
 10
9.6987531777
 20
9.7620771717
 30
0.0
 10
9.7090064514
 20
9.7597157295
 30
0.0
 10
9.7187995261
 20
9.7572274025
 30
0.0
 10
9.728108941
 20
9.7546182203
 30
0.0
 10
9.7369124358
 20
9.7518944945
 30
0.0
 10
9.745189033
 20
9.7490628421
 30
0.0
 10
9.7529190813
 20
9.7461301007
 30
0.0
 10
9.7600843114
 20
9.7431032876
 30
0.0
 10
9.7666679576
 20
9.7399896094
 30
0.0
 10
9.772654744
 20
9.7367963805
 30
0.0
 10
9.7780311278
 20
9.7335307544
 30
0.0
 10
9.7827846345
 20
9.7302000143
 30
0.0
 10
9.7862921886
 20
9.7273150043
 30
0.0
 10
9.7887590987
 20
9.7249756865
 30
0.0
 10
9.7904055592
 20
9.723248512
 30
0.0
 10
9.7918882319
 20
9.7215106939
 30
0.0
 10
9.7936097441
 20
9.7192283077
 30
0.0
 10
9.7950505967
 20
9.7168780223
 30
0.0
 10
9.7961614812
 20
9.7144741423
 30
0.0
 10
9.7968114582
 20
9.7126981572
 30
0.0
 10
9.7972924829
 20
9.7109176629
 30
0.0
 10
9.7976041146
 20
9.7091338492
 30
0.0
 10
9.7977458601
 20
9.7073480894
 30
0.0
 10
9.7977174845
 20
9.7055618388
 30
0.0
 10
9.7975191161
 20
9.7037765612
 30
0.0
 10
9.7971509625
 20
9.7019937095
 30
0.0
 10
9.7966134835
 20
9.700214561
 30
0.0
 10
9.7956561521
 20
9.6978087168
 30
0.0
 10
9.794007832
 20
9.6948009225
 30
0.0
 10
9.7913995378
 20
9.6912961271
 30
0.0
 10
9.7893206246
 20
9.6890919122
 30
0.0
 10
9.7881862845
 20
9.6879962238
 30
0.0
  0
SPLINE
  5
3DB
100
AcDbEntity
  8
0
100
AcDbSpline
 62
7
  6
CONTINUOUS
 70
0
 71
3
 72
15
 73
11
 74
0
 42
0.0000001
 43
0.0000001
 44
0.0000000001
 40
0.0
 40
0.0
 40
0.0
 40
0.0
 40
0.1266094262
 40
0.2527292962
 40
0.3783581966
 40
0.5035195312
 40
0.6282328991
 40
0.7525272242
 40
0.8764365072
 40
1.0
 40
1.0
 40
1.0
 40
1.0
 10
8.4751163946
 20
7.4541881455
 30
0.0
 10
8.4751163946
 20
7.458597387
 30
0.0
 10
8.4753655944
 20
7.4674009126
 30
0.0
 10
8.4764907644
 20
7.480536227
 30
0.0
 10
8.4783632677
 20
7.4935355603
 30
0.0
 10
8.4809768857
 20
7.506356367
 30
0.0
 10
8.4843234314
 20
7.5189576631
 30
0.0
 10
8.4883922098
 20
7.5312989372
 30
0.0
 10
8.4931699097
 20
7.5433399462
 30
0.0
 10
8.4968227638
 20
7.5511526157
 30
0.0
 10
8.4987614812
 20
7.5549943088
 30
0.0
  0
SPLINE
  5
3DC
100
AcDbEntity
  8
0
100
AcDbSpline
 62
7
  6
CONTINUOUS
 70
0
 71
3
 72
58
 73
54
 74
0
 42
0.0000001
 43
0.0000001
 44
0.0000000001
 40
0.0
 40
0.0
 40
0.0
 40
0.0
 40
0.0081223305
 40
0.0169168975
 40
0.0264087397
 40
0.0366143893
 40
0.0475415919
 40
0.0591912278
 40
0.0715586516
 40
0.0846347975
 40
0.0984066254
 40
0.112857697
 40
0.1279687991
 40
0.1437179559
 40
0.1600810137
 40
0.1770317001
 40
0.2125802303
 40
0.2501202969
 40
0.2893844218
 40
0.3300865608
 40
0.3719257492
 40
0.4145895607
 40
0.4577574053
 40
0.5011037527
 40
0.5443013266
 40
0.587024304
 40
0.6289515139
 40
0.6697696572
 40
0.7091765902
 40
0.7468847529
 40
0.7826248208
 40
0.7996793841
 40
0.8161512809
 40
0.8320139346
 40
0.8472427441
 40
0.8618153344
 40
0.8757119895
 40
0.8889156785
 40
0.9014127874
 40
0.9131934095
 40
0.9242520347
 40
0.9345886083
 40
0.9442093599
 40
0.953128682
 40
0.9613709503
 40
0.9689732053
 40
0.9759886321
 40
0.9824900189
 40
0.9885734021
 40
0.9914974267
 40
0.9943641369
 40
0.9971919109
 40
1.0
 40
1.0
 40
1.0
 40
1.0
 10
11.8844099427
 20
9.2577928895
 30
0.0
 10
11.8852303829
 20
9.2585853739
 30
0.0
 10
11.8870165617
 20
9.2601568157
 30
0.0
 10
11.8899814563
 20
9.2623895432
 30
0.0
 10
11.8933297702
 20
9.2645849146
 30
0.0
 10
11.8970547068
 20
9.2667387016
 30
0.0
 10
11.9011492718
 20
9.2688470405
 30
0.0
 10
11.9056055257
 20
9.270905715
 30
0.0
 10
11.9104146887
 20
9.2729107185
 30
0.0
 10
11.9155672538
 20
9.2748579974
 30
0.0
 10
11.921052964
 20
9.2767436185
 30
0.0
 10
11.9268608428
 20
9.2785637902
 30
0.0
 10
11.9329792493
 20
9.2803147637
 30
0.0
 10
11.9393958729
 20
9.281993016
 30
0.0
 10
11.946097807
 20
9.2835951363
 30
0.0
 10
11.9555465982
 20
9.2856581177
 30
0.0
 10
11.9679737587
 20
9.288009854
 30
0.0
 10
11.9835666012
 20
9.2904391274
 30
0.0
 10
11.9999421928
 20
9.2924982444
 30
0.0
 10
12.0169683297
 20
9.2941702633
 30
0.0
 10
12.034507671
 20
9.2954413791
 30
0.0
 10
12.0524185626
 20
9.2963011267
 30
0.0
 10
12.0705563136
 20
9.2967424265
 30
0.0
 10
12.0887743622
 20
9.2967616441
 30
0.0
 10
12.106925488
 20
9.296358618
 30
0.0
 10
12.1248630189
 20
9.2955366699
 30
0.0
 10
12.1424420454
 20
9.2943025687
 30
0.0
 10
12.1595205879
 20
9.2926664755
 30
0.0
 10
12.1759608699
 20
9.2906418983
 30
0.0
 10
12.1916301527
 20
9.2882454882
 30
0.0
 10
12.2041285028
 20
9.2859204362
 30
0.0
 10
12.21363982
 20
9.2838779974
 30
0.0
 10
12.2203921925
 20
9.2822900708
 30
0.0
 10
12.2268616697
 20
9.2806254239
 30
0.0
 10
12.2330352323
 20
9.2788874079
 30
0.0
 10
12.2389004574
 20
9.2770795427
 30
0.0
 10
12.2444455834
 20
9.2752055513
 30
0.0
 10
12.2496595043
 20
9.2732691818
 30
0.0
 10
12.2545318369
 20
9.2712743849
 30
0.0
 10
12.2590529278
 20
9.269225164
 30
0.0
 10
12.2632138725
 20
9.2671255533
 30
0.0
 10
12.2670065981
 20
9.2649797134
 30
0.0
 10
12.2704237915
 20
9.2627916415
 30
0.0
 10
12.2734589962
 20
9.2605653372
 30
0.0
 10
12.2761065139
 20
9.2583045104
 30
0.0
 10
12.2783612079
 20
9.2560125333
 30
0.0
 10
12.2802184104
 20
9.2536922364
 30
0.0
 10
12.2816730041
 20
9.2513467165
 30
0.0
 10
12.2825565874
 20
9.2493462491
 30
0.0
 10
12.2830447242
 20
9.2477500587
 30
0.0
 10
12.2833032003
 20
9.2465661228
 30
0.0
 10
12.2834583565
 20
9.2453807677
 30
0.0
 10
12.283492883
 20
9.2445888519
 30
0.0
 10
12.2834928832
 20
9.2441944904
 30
0.0
  0
SPLINE
  5
3DD
100
AcDbEntity
  8
0
100
AcDbSpline
 62
7
  6
CONTINUOUS
 70
0
 71
3
 72
17
 73
13
 74
0
 42
0.0000001
 43
0.0000001
 44
0.0000000001
 40
0.0
 40
0.0
 40
0.0
 40
0.0
 40
0.1266551999
 40
0.2527984266
 40
0.3784389846
 40
0.4410836491
 40
0.5036099077
 40
0.6283069613
 40
0.7525758922
 40
0.8145686273
 40
0.8764689156
 40
1.0
 40
1.0
 40
1.0
 40
1.0
 10
10.4717617298
 20
7.0819462795
 30
0.0
 10
10.4717617298
 20
7.073140499
 30
0.0
 10
10.4712467577
 20
7.0555599663
 30
0.0
 10
10.4689211152
 20
7.0293373295
 30
0.0
 10
10.465692982
 20
7.007701585
 30
0.0
 10
10.4623436556
 20
6.9905861391
 30
0.0
 10
10.4584941072
 20
6.9736434259
 30
0.0
 10
10.4527386894
 20
6.9527508238
 30
0.0
 10
10.4457317346
 20
6.9322830606
 30
0.0
 10
10.4393962934
 20
6.9162320232
 30
0.0
 10
10.4325901682
 20
6.9004313214
 30
0.0
 10
10.4269424435
 20
6.8888299018
 30
0.0
 10
10.4229449345
 20
6.8812283537
 30
0.0
  0
SPLINE
  5
3DE
100
AcDbEntity
  8
0
100
AcDbSpline
 62
7
  6
CONTINUOUS
 70
0
 71
3
 72
18
 73
14
 74
0
 42
0.0000001
 43
0.0000001
 44
0.0000000001
 40
0.0
 40
0.0
 40
0.0
 40
0.0
 40
0.1504683897
 40
0.2917144302
 40
0.4244424337
 40
0.4879098403
 40
0.5496094316
 40
0.6682625858
 40
0.7817882724
 40
0.8371379912
 40
0.8918078094
 40
0.9460192717
 40
1.0
 40
1.0
 40
1.0
 40
1.0
 10
13.6896803172
 20
8.2232525765
 30
0.0
 10
13.6877875662
 20
8.2214243193
 30
0.0
 10
13.6840046421
 20
8.2179939809
 30
0.0
 10
13.678147179
 20
8.2134226479
 30
0.0
 10
13.6731995624
 20
8.2101895581
 30
0.0
 10
13.6692542679
 20
8.208000215
 30
0.0
 10
13.6654250424
 20
8.2061205903
 30
0.0
 10
13.6606372961
 20
8.2042213001
 30
0.0
 10
13.6557643846
 20
8.2029252201
 30
0.0
 10
13.6519048949
 20
8.2022867532
 30
0.0
 10
13.6490444777
 20
8.2020034057
 30
0.0
 10
13.6461956334
 20
8.2019118975
 30
0.0
 10
13.6443029311
 20
8.2019788552
 30
0.0
 10
13.6433611232
 20
8.2020441748
 30
0.0
  0
SPLINE
  5
3DF
100
AcDbEntity
  8
0
100
AcDbSpline
 62
7
  6
CONTINUOUS
 70
0
 71
3
 72
78
 73
74
 74
0
 42
0.0000001
 43
0.0000001
 44
0.0000000001
 40
0.0
 40
0.0
 40
0.0
 40
0.0
 40
0.0039024891
 40
0.0079646438
 40
0.012189852
 40
0.0165809639
 40
0.0211404007
 40
0.025870095
 40
0.0307713706
 40
0.035845085
 40
0.0410917394
 40
0.0465114374
 40
0.0578684756
 40
0.0699118895
 40
0.0826327895
 40
0.0960189284
 40
0.1100551192
 40
0.1247236079
 40
0.1400043793
 40
0.1558753896
 40
0.1723127428
 40
0.1892908627
 40
0.2067826618
 40
0.2247596705
 40
0.2431921427
 40
0.2620491624
 40
0.2812987672
 40
0.3009080458
 40
0.320843223
 40
0.3410697456
 40
0.3615523869
 40
0.4031416014
 40
0.4453194978
 40
0.4877886718
 40
0.5302490992
 40
0.5724008391
 40
0.6139467162
 40
0.6344013712
 40
0.6545957692
 40
0.6744947569
 40
0.6940638783
 40
0.7132694531
 40
0.7320786646
 40
0.750459664
 40
0.768381682
 40
0.7858151165
 40
0.8027316387
 40
0.8191043227
 40
0.8349077989
 40
0.8501183835
 40
0.8647142425
 40
0.8786755988
 40
0.8919850007
 40
0.904627595
 40
0.916591483
 40
0.927868191
 40
0.9384533053
 40
0.94348681
 40
0.9483480262
 40
0.9530379658
 40
0.9575580622
 40
0.9619102435
 40
0.9660970551
 40
0.9701216278
 40
0.9739878494
 40
0.9777004245
 40
0.9812649336
 40
0.9846880342
 40
0.9879774862
 40
0.9911423044
 40
0.9941928847
 40
0.9971410186
 40
1.0
 40
1.0
 40
1.0
 40
1.0
 10
13.6587706882
 20
8.2253961666
 30
0.0
 10
13.6600502612
 20
8.2266321392
 30
0.0
 10
13.6626081127
 20
8.2292106855
 30
0.0
 10
13.6663672597
 20
8.233304842
 30
0.0
 10
13.6701227189
 20
8.2376997462
 30
0.0
 10
13.6738725271
 20
8.2423931615
 30
0.0
 10
13.6776150734
 20
8.2473828894
 30
0.0
 10
13.6813486306
 20
8.2526666979
 30
0.0
 10
13.6850715425
 20
8.2582421345
 30
0.0
 10
13.6887820693
 20
8.2641065975
 30
0.0
 10
13.6924784532
 20
8.2702573769
 30
0.0
 10
13.6974637625
 20
8.2789727208
 30
0.0
 10
13.7036356554
 20
8.2905750401
 30
0.0
 10
13.7108472904
 20
8.3053817828
 30
0.0
 10
13.71796185
 20
8.321254563
 30
0.0
 10
13.7249659165
 20
8.3381636865
 30
0.0
 10
13.7318462937
 20
8.3560777193
 30
0.0
 10
13.738589983
 20
8.374963157
 30
0.0
 10
13.745184226
 20
8.3947846424
 30
0.0
 10
13.7516165305
 20
8.4155050064
 30
0.0
 10
13.7578747192
 20
8.4370853415
 30
0.0
 10
13.7639469533
 20
8.4594850816
 30
0.0
 10
13.7698217378
 20
8.4826621013
 30
0.0
 10
13.775487947
 20
8.5065727986
 30
0.0
 10
13.7809348551
 20
8.5311721684
 30
0.0
 10
13.7861521687
 20
8.5564138885
 30
0.0
 10
13.7911300199
 20
8.5822504196
 30
0.0
 10
13.7958589941
 20
8.6086331033
 30
0.0
 10
13.8003301351
 20
8.6355122302
 30
0.0
 10
13.8045350377
 20
8.6628371912
 30
0.0
 10
13.8098024192
 20
8.6999836458
 30
0.0
 10
13.8156559031
 20
8.7471505913
 30
0.0
 10
13.821471664
 20
8.804407782
 30
0.0
 10
13.826069862
 20
8.8621740872
 30
0.0
 10
13.829415859
 20
8.9200144906
 30
0.0
 10
13.8314844848
 20
8.9774934124
 30
0.0
 10
13.8321346269
 20
9.0249733089
 30
0.0
 10
13.8319943394
 20
9.062443945
 30
0.0
 10
13.8315636086
 20
9.0900432907
 30
0.0
 10
13.8308077681
 20
9.1172318014
 30
0.0
 10
13.8297282479
 20
9.1439582934
 30
0.0
 10
13.8283271214
 20
9.170172404
 30
0.0
 10
13.8266070553
 20
9.1958247508
 30
0.0
 10
13.824571326
 20
9.2208670167
 30
0.0
 10
13.8222238264
 20
9.2452520502
 30
0.0
 10
13.8195690332
 20
9.2689339491
 30
0.0
 10
13.8166120023
 20
9.2918681427
 30
0.0
 10
13.8133583599
 20
9.3140114892
 30
0.0
 10
13.8098143198
 20
9.3353223693
 30
0.0
 10
13.8059866389
 20
9.3557607627
 30
0.0
 10
13.801882608
 20
9.3752883216
 30
0.0
 10
13.797510028
 20
9.3938684591
 30
0.0
 10
13.7928772248
 20
9.4114664591
 30
0.0
 10
13.7879929959
 20
9.4280495073
 30
0.0
 10
13.7828665606
 20
9.4435869146
 30
0.0
 10
13.7775075559
 20
9.4580496869
 30
0.0
 10
13.7727801401
 20
9.4693671627
 30
0.0
 10
13.7688775434
 20
9.4778494025
 30
0.0
 10
13.7659478832
 20
9.4838186976
 30
0.0
 10
13.7629677588
 20
9.4895000034
 30
0.0
 10
13.7599384929
 20
9.4948906974
 30
0.0
 10
13.756861432
 20
9.4999882573
 30
0.0
 10
13.7537380382
 20
9.5047903663
 30
0.0
 10
13.7505696445
 20
9.5092947745
 30
0.0
 10
13.747357665
 20
9.5134994067
 30
0.0
 10
13.744103532
 20
9.5174023424
 30
0.0
 10
13.7408085541
 20
9.5210016945
 30
0.0
 10
13.7374741867
 20
9.5242958066
 30
0.0
 10
13.7341017672
 20
9.527283051
 30
0.0
 10
13.7306926697
 20
9.5299618539
 30
0.0
 10
13.7272482718
 20
9.5323308806
 30
0.0
 10
13.7237702431
 20
9.534388522
 30
0.0
 10
13.7213970486
 20
9.5355682546
 30
0.0
 10
13.7202081849
 20
9.536102346
 30
0.0
  0
SPLINE
  5
3E0
100
AcDbEntity
  8
0
100
AcDbSpline
 62
7
  6
CONTINUOUS
 70
0
 71
3
 72
15
 73
11
 74
0
 42
0.0000001
 43
0.0000001
 44
0.0000000001
 40
0.0
 40
0.0
 40
0.0
 40
0.0
 40
0.1098906373
 40
0.2214016819
 40
0.3360757822
 40
0.4553202911
 40
0.5803741285
 40
0.7122942594
 40
0.8519453747
 40
1.0
 40
1.0
 40
1.0
 40
1.0
 10
12.9774729447
 20
10.3066936765
 30
0.0
 10
12.9774729443
 20
10.307267843
 30
0.0
 10
12.977546656
 20
10.3084259441
 30
0.0
 10
12.9778773042
 20
10.310154773
 30
0.0
 10
12.9784270168
 20
10.3118781647
 30
0.0
 10
12.9791943269
 20
10.3135935322
 30
0.0
 10
12.980177552
 20
10.3152992333
 30
0.0
 10
12.9813750542
 20
10.3169937764
 30
0.0
 10
12.9827850105
 20
10.3186755669
 30
0.0
 10
12.9838335834
 20
10.319754641
 30
0.0
 10
12.9843899765
 20
10.3202920755
 30
0.0
  0
SPLINE
  5
3E1
100
AcDbEntity
  8
0
100
AcDbSpline
 62
7
  6
CONTINUOUS
 70
0
 71
3
 72
15
 73
11
 74
0
 42
0.0000001
 43
0.0000001
 44
0.0000000001
 40
0.0
 40
0.0
 40
0.0
 40
0.0
 40
0.1430865384
 40
0.2803908248
 40
0.4121522697
 40
0.5386623615
 40
0.6602715695
 40
0.7773825046
 40
0.8904535016
 40
1.0
 40
1.0
 40
1.0
 40
1.0
 10
13.6587706882
 20
8.2253961666
 30
0.0
 10
13.6575224297
 20
8.2241904414
 30
0.0
 10
13.6550267057
 20
8.221878304
 30
0.0
 10
13.6512052408
 20
8.2186526759
 30
0.0
 10
13.6473864661
 20
8.215744392
 30
0.0
 10
13.6435722202
 20
8.2131552162
 30
0.0
 10
13.6397642197
 20
8.2108864494
 30
0.0
 10
13.6359639185
 20
8.2089394288
 30
0.0
 10
13.6321733491
 20
8.2073154152
 30
0.0
 10
13.6296171142
 20
8.2064362468
 30
0.0
 10
13.6283445602
 20
8.2060541382
 30
0.0
  0
SPLINE
  5
3E2
100
AcDbEntity
  8
0
100
AcDbSpline
 62
7
  6
CONTINUOUS
 70
0
 71
3
 72
19
 73
15
 74
0
 42
0.0000001
 43
0.0000001
 44
0.0000000001
 40
0.0
 40
0.0
 40
0.0
 40
0.0
 40
0.1532259837
 40
0.2947794198
 40
0.4259268468
 40
0.5483710024
 40
0.6070241419
 40
0.664343639
 40
0.7206643342
 40
0.776340523
 40
0.8317401594
 40
0.887237108
 40
0.9432031319
 40
1.0
 40
1.0
 40
1.0
 40
1.0
 10
13.6587706882
 20
8.4156835656
 30
0.0
 10
13.6571066803
 20
8.4140762573
 30
0.0
 10
13.6537819079
 20
8.411107267
 30
0.0
 10
13.6485886775
 20
8.4072951097
 30
0.0
 10
13.6434024054
 20
8.4043177238
 30
0.0
 10
13.6390276504
 20
8.4025153303
 30
0.0
 10
13.6355634276
 20
8.4015253985
 30
0.0
 10
13.633011435
 20
8.4010064885
 30
0.0
 10
13.6304703771
 20
8.4007011806
 30
0.0
 10
13.6279415502
 20
8.4006098266
 30
0.0
 10
13.6254264792
 20
8.4007326218
 30
0.0
 10
13.6229265975
 20
8.4010694398
 30
0.0
 10
13.6204435801
 20
8.4016200286
 30
0.0
 10
13.6188152361
 20
8.4021247126
 30
0.0
 10
13.6180067205
 20
8.4024105665
 30
0.0
  0
SPLINE
  5
3E3
100
AcDbEntity
  8
0
100
AcDbSpline
 62
7
  6
CONTINUOUS
 70
0
 71
3
 72
15
 73
11
 74
0
 42
0.0000001
 43
0.0000001
 44
0.0000000001
 40
0.0
 40
0.0
 40
0.0
 40
0.0
 40
0.1098906373
 40
0.2214016819
 40
0.3360757822
 40
0.4553202911
 40
0.5803741285
 40
0.7122942594
 40
0.8519453747
 40
1.0
 40
1.0
 40
1.0
 40
1.0
 10
11.8774929108
 20
9.2441944904
 30
0.0
 10
11.8774929104
 20
9.2447686569
 30
0.0
 10
11.8775666221
 20
9.245926758
 30
0.0
 10
11.8778972703
 20
9.2476555869
 30
0.0
 10
11.8784469829
 20
9.2493789786
 30
0.0
 10
11.879214293
 20
9.2510943461
 30
0.0
 10
11.8801975181
 20
9.2528000472
 30
0.0
 10
11.8813950203
 20
9.2544945903
 30
0.0
 10
11.8828049766
 20
9.2561763808
 30
0.0
 10
11.8838535495
 20
9.2572554549
 30
0.0
 10
11.8844099427
 20
9.2577928895
 30
0.0
  0
SPLINE
  5
3E4
100
AcDbEntity
  8
0
100
AcDbSpline
 62
7
  6
CONTINUOUS
 70
0
 71
3
 72
23
 73
19
 74
0
 42
0.0000001
 43
0.0000001
 44
0.0000000001
 40
0.0
 40
0.0
 40
0.0
 40
0.0
 40
0.0619809895
 40
0.1239305841
 40
0.1858719731
 40
0.247828436
 40
0.3098230829
 40
0.3718785977
 40
0.4340169849
 40
0.4962593255
 40
0.5586255455
 40
0.6211342018
 40
0.6838022902
 40
0.7466450747
 40
0.8096759356
 40
0.8729062411
 40
0.9363452431
 40
1.0
 40
1.0
 40
1.0
 40
1.0
 10
9.661504112
 20
7.411041846
 30
0.0
 10
9.6660769974
 20
7.4167431164
 30
0.0
 10
9.6755290179
 20
7.4278992046
 30
0.0
 10
9.6905840669
 20
7.4438416976
 30
0.0
 10
9.7064746469
 20
7.4589482888
 30
0.0
 10
9.7231600045
 20
7.4731800658
 30
0.0
 10
9.7405980107
 20
7.4865011829
 30
0.0
 10
9.7587444566
 20
7.4988778845
 30
0.0
 10
9.7775533919
 20
7.5102788679
 30
0.0
 10
9.7969771799
 20
7.5206752885
 30
0.0
 10
9.816966637
 20
7.5300408453
 30
0.0
 10
9.8374711412
 20
7.5383518726
 30
0.0
 10
9.8584387639
 20
7.5455873953
 30
0.0
 10
9.8798164365
 20
7.551729157
 30
0.0
 10
9.9015499946
 20
7.5567616677
 30
0.0
 10
9.9235846402
 20
7.5606722489
 30
0.0
 10
9.9458638583
 20
7.5634510264
 30
0.0
 10
9.9608182739
 20
7.5645425643
 30
0.0
 10
9.9683157906
 20
7.5648987901
 30
0.0
  0
SPLINE
  5
3E5
100
AcDbEntity
  8
0
100
AcDbSpline
 62
7
  6
CONTINUOUS
 70
0
 71
3
 72
39
 73
35
 74
0
 42
0.0000001
 43
0.0000001
 44
0.0000000001
 40
0.0
 40
0.0
 40
0.0
 40
0.0
 40
0.0304819347
 40
0.0610755097
 40
0.091780788
 40
0.1225965973
 40
0.1535205565
 40
0.1845491126
 40
0.215677593
 40
0.2469002656
 40
0.2782104089
 40
0.3096003897
 40
0.3410617489
 40
0.3725852938
 40
0.4041611964
 40
0.4357790977
 40
0.4674282148
 40
0.4990974509
 40
0.5307755068
 40
0.5624509941
 40
0.5941125495
 40
0.6257489496
 40
0.6573492248
 40
0.6889027705
 40
0.7203994554
 40
0.7518297268
 40
0.7831847101
 40
0.8144563057
 40
0.8456372868
 40
0.8767213351
 40
0.9077033141
 40
0.9385786729
 40
0.9693452754
 40
1.0
 40
1.0
 40
1.0
 40
1.0
 10
9.9683157906
 20
7.5648987901
 30
0.0
 10
9.9762031653
 20
7.565273539
 30
0.0
 10
9.9920300319
 20
7.5656022678
 30
0.0
 10
10.0158037914
 20
7.5648371972
 30
0.0
 10
10.039591312
 20
7.5628171822
 30
0.0
 10
10.0633256183
 20
7.5595478705
 30
0.0
 10
10.086941021
 20
7.5550384145
 30
0.0
 10
10.1103718675
 20
7.5493014087
 30
0.0
 10
10.1335531093
 20
7.5423528566
 30
0.0
 10
10.1564203763
 20
7.534212115
 30
0.0
 10
10.1789101814
 20
7.5249018423
 30
0.0
 10
10.2009600873
 20
7.5144479347
 30
0.0
 10
10.2225088804
 20
7.5028794552
 30
0.0
 10
10.2434967365
 20
7.4902285513
 30
0.0
 10
10.2638653969
 20
7.4765303822
 30
0.0
 10
10.2835583235
 20
7.4618230086
 30
0.0
 10
10.3025208518
 20
7.4461472834
 30
0.0
 10
10.3207003424
 20
7.4295467398
 30
0.0
 10
10.3380463245
 20
7.4120674717
 30
0.0
 10
10.3545106359
 20
7.3937580072
 30
0.0
 10
10.3700475539
 20
7.3746691734
 30
0.0
 10
10.3846139372
 20
7.3548539686
 30
0.0
 10
10.3981693344
 20
7.3343674042
 30
0.0
 10
10.4106760927
 20
7.3132663512
 30
0.0
 10
10.4220994627
 20
7.2916093846
 30
0.0
 10
10.4324076937
 20
7.2694566223
 30
0.0
 10
10.441572121
 20
7.2468695605
 30
0.0
 10
10.4495672491
 20
7.2239109018
 30
0.0
 10
10.4563708222
 20
7.200644401
 30
0.0
 10
10.461963933
 20
7.1771346264
 30
0.0
 10
10.4663309081
 20
7.1534469854
 30
0.0
 10
10.4694597122
 20
7.1296468835
 30
0.0
 10
10.4713413622
 20
7.1058014752
 30
0.0
 10
10.4717617298
 20
7.0898873127
 30
0.0
 10
10.4717617298
 20
7.0819462795
 30
0.0
  0
SPLINE
  5
3E6
100
AcDbEntity
  8
0
100
AcDbSpline
 62
7
  6
CONTINUOUS
 70
0
 71
3
 72
23
 73
19
 74
0
 42
0.0000001
 43
0.0000001
 44
0.0000000001
 40
0.0
 40
0.0
 40
0.0
 40
0.0
 40
0.0749628755
 40
0.1455692105
 40
0.2121610308
 40
0.2751643503
 40
0.3350995418
 40
0.3925846725
 40
0.4483308921
 40
0.5031250774
 40
0.5577995457
 40
0.6131926739
 40
0.670107897
 40
0.7292790073
 40
0.7913522907
 40
0.8568786303
 40
0.9263109639
 40
1.0
 40
1.0
 40
1.0
 40
1.0
 10
12.2125119737
 20
10.0508659651
 30
0.0
 10
12.2117034229
 20
10.0516184013
 30
0.0
 10
12.2101781254
 20
10.0531290176
 30
0.0
 10
12.2081200365
 20
10.0554858045
 30
0.0
 10
12.206365026
 20
10.0578612556
 30
0.0
 10
12.2049157079
 20
10.06025331
 30
0.0
 10
12.2037745142
 20
10.0626598591
 30
0.0
 10
12.2029439802
 20
10.0650784295
 30
0.0
 10
12.202426486
 20
10.0675059209
 30
0.0
 10
12.202223805
 20
10.0699384772
 30
0.0
 10
12.2023368127
 20
10.0723716833
 30
0.0
 10
12.2027649748
 20
10.0748010477
 30
0.0
 10
12.2035068164
 20
10.0772224838
 30
0.0
 10
12.2045599248
 20
10.0796327261
 30
0.0
 10
12.2059219509
 20
10.0820291132
 30
0.0
 10
12.2075903785
 20
10.0844095766
 30
0.0
 10
12.2095626329
 20
10.0867717966
 30
0.0
 10
12.2110328001
 20
10.0882863849
 30
0.0
 10
12.2118137155
 20
10.0890406913
 30
0.0
  0
SPLINE
  5
3E7
100
AcDbEntity
  8
0
100
AcDbSpline
 62
7
  6
CONTINUOUS
 70
0
 71
3
 72
51
 73
47
 74
0
 42
0.0000001
 43
0.0000001
 44
0.0000000001
 40
0.0
 40
0.0
 40
0.0
 40
0.0
 40
0.008080737
 40
0.0167285458
 40
0.0259565579
 40
0.0357724608
 40
0.0461790531
 40
0.0571755041
 40
0.0687574553
 40
0.0809180121
 40
0.0936475916
 40
0.1069347421
 40
0.1207658721
 40
0.1351259397
 40
0.1653632844
 40
0.1974988173
 40
0.2313644
 40
0.2667761596
 40
0.3035369359
 40
0.3414384526
 40
0.3802633205
 40
0.419786939
 40
0.4597793374
 40
0.5000069804
 40
0.5402345547
 40
0.5802267476
 40
0.6197500249
 40
0.6585744183
 40
0.6964753307
 40
0.7332353773
 40
0.7686462878
 40
0.8025109088
 40
0.8346453759
 40
0.8648815607
 40
0.8792409939
 40
0.8930715156
 40
0.9063579986
 40
0.9190869379
 40
0.9312468049
 40
0.942828077
 40
0.9538238292
 40
0.9642297725
 40
0.9740449679
 40
0.9832721482
 40
0.9919193669
 40
1.0
 40
1.0
 40
1.0
 40
1.0
 10
12.6836355529
 20
10.0199514525
 30
0.0
 10
12.6827738527
 20
10.0206638266
 30
0.0
 10
12.6809378131
 20
10.0220761632
 30
0.0
 10
12.6779654088
 20
10.0240946561
 30
0.0
 10
12.6746873596
 20
10.0260810229
 30
0.0
 10
12.6711087153
 20
10.0280320992
 30
0.0
 10
12.6672348689
 20
10.0299451007
 30
0.0
 10
12.6630717077
 20
10.0318169834
 30
0.0
 10
12.6586256435
 20
10.033644958
 30
0.0
 10
12.6539035133
 20
10.0354260734
 30
0.0
 10
12.6489126475
 20
10.0371576408
 30
0.0
 10
12.643660786
 20
10.0388368402
 30
0.0
 10
12.6381561071
 20
10.0404611498
 30
0.0
 10
12.6303560006
 20
10.0425867905
 30
0.0
 10
12.6200324877
 20
10.0450754274
 30
0.0
 10
12.6069875663
 20
10.0477562021
 30
0.0
 10
12.5931622762
 20
10.0501632788
 30
0.0
 10
12.5786430254
 20
10.0522813396
 30
0.0
 10
12.5635204485
 20
10.0540968616
 30
0.0
 10
12.5478891267
 20
10.0555982833
 30
0.0
 10
12.5318468715
 20
10.0567760484
 30
0.0
 10
12.5154941181
 20
10.0576226676
 30
0.0
 10
12.4989332741
 20
10.05813276
 30
0.0
 10
12.4822680691
 20
10.058303085
 30
0.0
 10
12.4656028946
 20
10.0581325608
 30
0.0
 10
12.449042142
 20
10.0576222704
 30
0.0
 10
12.4326895401
 20
10.0567754556
 30
0.0
 10
12.4166474959
 20
10.0555974986
 30
0.0
 10
12.4010164435
 20
10.0540958897
 30
0.0
 10
12.3858941923
 20
10.0522801867
 30
0.0
 10
12.3713753221
 20
10.0501619519
 30
0.0
 10
12.3575504644
 20
10.0477547106
 30
0.0
 10
12.3445060258
 20
10.0450737771
 30
0.0
 10
12.3341829477
 20
10.0425850227
 30
0.0
 10
12.3263832164
 20
10.0404592696
 30
0.0
 10
12.3208788279
 20
10.0388349093
 30
0.0
 10
12.3156272696
 20
10.037155632
 30
0.0
 10
12.3106367123
 20
10.0354240183
 30
0.0
 10
12.3059149052
 20
10.0336428336
 30
0.0
 10
12.3014691667
 20
10.0318148189
 30
0.0
 10
12.2973063393
 20
10.0299428771
 30
0.0
 10
12.2934328337
 20
10.0280298271
 30
0.0
 10
12.2898545558
 20
10.0260787112
 30
0.0
 10
12.2865768598
 20
10.0240923298
 30
0.0
 10
12.2836047621
 20
10.022073759
 30
0.0
 10
12.281768918
 20
10.0206613245
 30
0.0
 10
12.2809072924
 20
10.0199488827
 30
0.0
  0
SPLINE
  5
3E8
100
AcDbEntity
  8
0
100
AcDbSpline
 62
7
  6
CONTINUOUS
 70
0
 71
3
 72
23
 73
19
 74
0
 42
0.0000001
 43
0.0000001
 44
0.0000000001
 40
0.0
 40
0.0
 40
0.0
 40
0.0
 40
0.0749628755
 40
0.1455692105
 40
0.2121610308
 40
0.2751643503
 40
0.3350995418
 40
0.3925846725
 40
0.4483308921
 40
0.5031250774
 40
0.5577995457
 40
0.6131926739
 40
0.670107897
 40
0.7292790073
 40
0.7913522907
 40
0.8568786303
 40
0.9263109639
 40
1.0
 40
1.0
 40
1.0
 40
1.0
 10
9.247966048
 20
9.6873343226
 30
0.0
 10
9.2471574972
 20
9.6880867588
 30
0.0
 10
9.2456321997
 20
9.6895973751
 30
0.0
 10
9.2435741108
 20
9.691954162
 30
0.0
 10
9.2418191003
 20
9.6943296131
 30
0.0
 10
9.2403697822
 20
9.6967216675
 30
0.0
 10
9.2392285885
 20
9.6991282166
 30
0.0
 10
9.2383980546
 20
9.701546787
 30
0.0
 10
9.2378805603
 20
9.7039742784
 30
0.0
 10
9.2376778793
 20
9.7064068347
 30
0.0
 10
9.237790887
 20
9.7088400407
 30
0.0
 10
9.2382190491
 20
9.7112694051
 30
0.0
 10
9.2389608908
 20
9.7136908413
 30
0.0
 10
9.2400139991
 20
9.7161010836
 30
0.0
 10
9.2413760252
 20
9.7184974707
 30
0.0
 10
9.2430444528
 20
9.7208779341
 30
0.0
 10
9.2450167072
 20
9.7232401541
 30
0.0
 10
9.2464868744
 20
9.7247547424
 30
0.0
 10
9.2472677898
 20
9.7255090488
 30
0.0
  0
SPLINE
  5
3E9
100
AcDbEntity
  8
0
100
AcDbSpline
 62
7
  6
CONTINUOUS
 70
0
 71
3
 72
51
 73
47
 74
0
 42
0.0000001
 43
0.0000001
 44
0.0000000001
 40
0.0
 40
0.0
 40
0.0
 40
0.0
 40
0.008080737
 40
0.0167285458
 40
0.0259565579
 40
0.0357724608
 40
0.0461790531
 40
0.0571755041
 40
0.0687574553
 40
0.0809180121
 40
0.0936475916
 40
0.1069347421
 40
0.1207658721
 40
0.1351259397
 40
0.1653632844
 40
0.1974988173
 40
0.2313644
 40
0.2667761596
 40
0.3035369359
 40
0.3414384526
 40
0.3802633205
 40
0.419786939
 40
0.4597793374
 40
0.5000069804
 40
0.5402345547
 40
0.5802267476
 40
0.6197500249
 40
0.6585744183
 40
0.6964753307
 40
0.7332353773
 40
0.7686462878
 40
0.8025109088
 40
0.8346453759
 40
0.8648815607
 40
0.8792409939
 40
0.8930715156
 40
0.9063579986
 40
0.9190869379
 40
0.9312468049
 40
0.942828077
 40
0.9538238292
 40
0.9642297725
 40
0.9740449679
 40
0.9832721482
 40
0.9919193669
 40
1.0
 40
1.0
 40
1.0
 40
1.0
 10
9.7190896272
 20
9.65641981
 30
0.0
 10
9.718227927
 20
9.6571321841
 30
0.0
 10
9.7163918875
 20
9.6585445207
 30
0.0
 10
9.7134194831
 20
9.6605630136
 30
0.0
 10
9.710141434
 20
9.6625493804
 30
0.0
 10
9.7065627896
 20
9.6645004567
 30
0.0
 10
9.7026889432
 20
9.6664134582
 30
0.0
 10
9.698525782
 20
9.6682853408
 30
0.0
 10
9.6940797179
 20
9.6701133155
 30
0.0
 10
9.6893575876
 20
9.6718944309
 30
0.0
 10
9.6843667218
 20
9.6736259983
 30
0.0
 10
9.6791148603
 20
9.6753051977
 30
0.0
 10
9.6736101814
 20
9.6769295073
 30
0.0
 10
9.6658100749
 20
9.679055148
 30
0.0
 10
9.655486562
 20
9.6815437849
 30
0.0
 10
9.6424416406
 20
9.6842245596
 30
0.0
 10
9.6286163506
 20
9.6866316363
 30
0.0
 10
9.6140970998
 20
9.6887496971
 30
0.0
 10
9.5989745228
 20
9.6905652191
 30
0.0
 10
9.583343201
 20
9.6920666408
 30
0.0
 10
9.5673009458
 20
9.6932444059
 30
0.0
 10
9.5509481924
 20
9.6940910251
 30
0.0
 10
9.5343873484
 20
9.6946011175
 30
0.0
 10
9.5177221435
 20
9.6947714425
 30
0.0
 10
9.501056969
 20
9.6946009183
 30
0.0
 10
9.4844962163
 20
9.6940906279
 30
0.0
 10
9.4681436145
 20
9.6932438131
 30
0.0
 10
9.4521015703
 20
9.6920658561
 30
0.0
 10
9.4364705178
 20
9.6905642472
 30
0.0
 10
9.4213482666
 20
9.6887485442
 30
0.0
 10
9.4068293964
 20
9.6866303094
 30
0.0
 10
9.3930045387
 20
9.6842230681
 30
0.0
 10
9.3799601001
 20
9.6815421346
 30
0.0
 10
9.369637022
 20
9.6790533802
 30
0.0
 10
9.3618372907
 20
9.6769276271
 30
0.0
 10
9.3563329023
 20
9.6753032668
 30
0.0
 10
9.3510813439
 20
9.6736239895
 30
0.0
 10
9.3460907866
 20
9.6718923758
 30
0.0
 10
9.3413689795
 20
9.6701111911
 30
0.0
 10
9.336923241
 20
9.6682831764
 30
0.0
 10
9.3327604136
 20
9.6664112346
 30
0.0
 10
9.328886908
 20
9.6644981846
 30
0.0
 10
9.3253086301
 20
9.6625470687
 30
0.0
 10
9.3220309341
 20
9.6605606873
 30
0.0
 10
9.3190588364
 20
9.6585421165
 30
0.0
 10
9.3172229923
 20
9.657129682
 30
0.0
 10
9.3163613668
 20
9.6564172401
 30
0.0
  0
SPLINE
  5
3EA
100
AcDbEntity
  8
0
100
AcDbSpline
 62
7
  6
CONTINUOUS
 70
0
 71
3
 72
78
 73
74
 74
0
 42
0.0000001
 43
0.0000001
 44
0.0000000001
 40
0.0
 40
0.0
 40
0.0
 40
0.0
 40
0.004052281
 40
0.0082800531
 40
0.0126871731
 40
0.0172768288
 40
0.0220516835
 40
0.0270138289
 40
0.0321646494
 40
0.0375049507
 40
0.0487544505
 40
0.0607614066
 40
0.0735185611
 40
0.0870140614
 40
0.101232161
 40
0.1161537085
 40
0.1317566127
 40
0.1480161825
 40
0.1649053777
 40
0.1823950201
 40
0.2004540329
 40
0.2190496177
 40
0.2381473895
 40
0.257711512
 40
0.2777048652
 40
0.2980891706
 40
0.3188250952
 40
0.3398723694
 40
0.3827352076
 40
0.4263422843
 40
0.4703497656
 40
0.5144097933
 40
0.5581739837
 40
0.6012969171
 40
0.6434396852
 40
0.6640406826
 40
0.6842743261
 40
0.7041016837
 40
0.7234849044
 40
0.7423873699
 40
0.7607738222
 40
0.77861048
 40
0.7958651867
 40
0.8125076116
 40
0.8285094211
 40
0.8438444648
 40
0.8584890236
 40
0.8724221505
 40
0.8856260118
 40
0.8980863196
 40
0.9097929274
 40
0.9207406491
 40
0.9259303479
 40
0.9309311778
 40
0.9357444229
 40
0.9403719262
 40
0.9448161324
 40
0.9490802928
 40
0.9531684298
 40
0.9570855145
 40
0.9608376266
 40
0.9644319859
 40
0.9678772131
 40
0.9711834213
 40
0.9774234328
 40
0.9803900437
 40
0.983275223
 40
0.9860977208
 40
0.9888776659
 40
0.9916362253
 40
0.9943950968
 40
0.9971759754
 40
1.0
 40
1.0
 40
1.0
 40
1.0
 10
13.6587706882
 20
8.4156835656
 30
0.0
 10
13.6597271949
 20
8.4166074802
 30
0.0
 10
13.6616391177
 20
8.4185397403
 30
0.0
 10
13.6644456104
 20
8.4216166682
 30
0.0
 10
13.6672490262
 20
8.4249309455
 30
0.0
 10
13.670047713
 20
8.4284806909
 30
0.0
 10
13.6728403347
 20
8.4322640366
 30
0.0
 10
13.6756254442
 20
8.4362790922
 30
0.0
 10
13.6784016871
 20
8.4405237843
 30
0.0
 10
13.6821548398
 20
8.4465923409
 30
0.0
 10
13.6868031462
 20
8.454748975
 30
0.0
 10
13.6922300077
 20
8.4652512622
 30
0.0
 10
13.6975871988
 20
8.4766096161
 30
0.0
 10
13.7028634418
 20
8.4888003423
 30
0.0
 10
13.7080476219
 20
8.5017981935
 30
0.0
 10
13.7131287919
 20
8.5155760252
 30
0.0
 10
13.718096194
 20
8.5301050145
 30
0.0
 10
13.7229392947
 20
8.5453547059
 30
0.0
 10
13.7276478183
 20
8.5612930817
 30
0.0
 10
13.7322117959
 20
8.5778866278
 30
0.0
 10
13.7366215532
 20
8.5951004296
 30
0.0
 10
13.7408677371
 20
8.6128982538
 30
0.0
 10
13.7449413451
 20
8.6312426158
 30
0.0
 10
13.7488337595
 20
8.6500948571
 30
0.0
 10
13.7525367404
 20
8.6694152456
 30
0.0
 10
13.7560424325
 20
8.68916305
 30
0.0
 10
13.7593434441
 20
8.7092966657
 30
0.0
 10
13.7634874742
 20
8.7367651866
 30
0.0
 10
13.7680977052
 20
8.7717510346
 30
0.0
 10
13.7726829143
 20
8.814328087
 30
0.0
 10
13.7763149848
 20
8.8573913686
 30
0.0
 10
13.778963218
 20
8.9005779203
 30
0.0
 10
13.7806054099
 20
8.9435240537
 30
0.0
 10
13.7812278301
 20
8.985867799
 30
0.0
 10
13.7808904609
 20
9.0206130206
 30
0.0
 10
13.780095112
 20
9.0478332052
 30
0.0
 10
13.7792475894
 20
9.0677235611
 30
0.0
 10
13.7781464935
 20
9.087201233
 30
0.0
 10
13.7767941357
 20
9.1062251896
 30
0.0
 10
13.7751934198
 20
9.1247553262
 30
0.0
 10
13.7733477727
 20
9.1427526051
 30
0.0
 10
13.7712611374
 20
9.1601791158
 30
0.0
 10
13.7689379577
 20
9.1769981647
 30
0.0
 10
13.7663832026
 20
9.1931743667
 30
0.0
 10
13.763602337
 20
9.2086737238
 30
0.0
 10
13.760601299
 20
9.2234636917
 30
0.0
 10
13.7573864781
 20
9.2375132592
 30
0.0
 10
13.753964735
 20
9.2507930545
 30
0.0
 10
13.7503433559
 20
9.2632753817
 30
0.0
 10
13.7465299991
 20
9.2749344195
 30
0.0
 10
13.7425326818
 20
9.2857458532
 30
0.0
 10
13.7389948893
 20
9.2941749439
 30
0.0
 10
13.7360689489
 20
9.3004655095
 30
0.0
 10
13.7338728943
 20
9.3048732554
 30
0.0
 10
13.7316372457
 20
9.3090529936
 30
0.0
 10
13.7293631328
 20
9.3130025805
 30
0.0
 10
13.7270516551
 20
9.3167199418
 30
0.0
 10
13.7247040347
 20
9.3202031948
 30
0.0
 10
13.7223213982
 20
9.3234505322
 30
0.0
 10
13.7199048848
 20
9.3264602479
 30
0.0
 10
13.717455675
 20
9.3292308424
 30
0.0
 10
13.7149749509
 20
9.331760729
 30
0.0
 10
13.7124634884
 20
9.3340487951
 30
0.0
 10
13.7091409061
 20
9.3367230318
 30
0.0
 10
13.7056917122
 20
9.3389824355
 30
0.0
 10
13.7021373746
 20
9.3407550574
 30
0.0
 10
13.6994914624
 20
9.341814503
 30
0.0
 10
13.6968228318
 20
9.342624946
 30
0.0
 10
13.6941329931
 20
9.3431855492
 30
0.0
 10
13.6914238716
 20
9.3434957354
 30
0.0
 10
13.6886973375
 20
9.3435552618
 30
0.0
 10
13.6859556237
 20
9.3433640868
 30
0.0
 10
13.6841366697
 20
9.3430726176
 30
0.0
 10
13.6832286207
 20
9.342887256
 30
0.0
  0
SPLINE
  5
3EB
100
AcDbEntity
  8
0
100
AcDbSpline
 62
7
  6
CONTINUOUS
 70
0
 71
3
 72
83
 73
79
 74
0
 42
0.0000001
 43
0.0000001
 44
0.0000000001
 40
0.0
 40
0.0
 40
0.0
 40
0.0
 40
0.0027164276
 40
0.0054532334
 40
0.0082303009
 40
0.0110665998
 40
0.0139798088
 40
0.0169861218
 40
0.0201000928
 40
0.0233346095
 40
0.026700976
 40
0.0302089312
 40
0.0338668524
 40
0.0376818289
 40
0.0416598023
 40
0.0458057443
 40
0.0501236753
 40
0.0546168743
 40
0.0592878974
 40
0.0641386698
 40
0.0691706105
 40
0.0743845883
 40
0.0797810847
 40
0.0853601631
 40
0.0970640219
 40
0.1094907699
 40
0.1226300177
 40
0.1364676887
 40
0.150986507
 40
0.1661664045
 40
0.1819848426
 40
0.1984170703
 40
0.2154363375
 40
0.2330140708
 40
0.2511200494
 40
0.2697225561
 40
0.2887885105
 40
0.3082835895
 40
0.3281723378
 40
0.3484182894
 40
0.3689840785
 40
0.3898315425
 40
0.4109218226
 40
0.453671794
 40
0.496913762
 40
0.5403220095
 40
0.5835692233
 40
0.6263296343
 40
0.6474270493
 40
0.6682829087
 40
0.6888583326
 40
0.7091151299
 40
0.7290159025
 40
0.7485241591
 40
0.7676044182
 40
0.7862223163
 40
0.8043447241
 40
0.821939872
 40
0.8389774975
 40
0.8554289822
 40
0.8712675108
 40
0.8864682552
 40
0.9010085951
 40
0.9148683895
 40
0.9280302787
 40
0.9404800721
 40
0.9464347343
 40
0.9522077813
 40
0.9577985496
 40
0.9632067643
 40
0.968432455
 40
0.973476048
 40
0.978338406
 40
0.9830208506
 40
0.98752539
 40
0.9918546103
 40
0.9960115929
 40
1.0
 40
1.0
 40
1.0
 40
1.0
 10
13.7359995113
 20
9.5378357363
 30
0.0
 10
13.7372490495
 20
9.5377490739
 30
0.0
 10
13.7397510991
 20
9.537461979
 30
0.0
 10
13.743472312
 20
9.5366937654
 30
0.0
 10
13.7471654151
 20
9.5355881487
 30
0.0
 10
13.7508277412
 20
9.534146097
 30
0.0
 10
13.7544574399
 20
9.5323690034
 30
0.0
 10
13.7580526213
 20
9.5302581849
 30
0.0
 10
13.7616116264
 20
9.527815159
 30
0.0
 10
13.765132916
 20
9.5250415182
 30
0.0
 10
13.7686148935
 20
9.5219388
 30
0.0
 10
13.7720561398
 20
9.5185087852
 30
0.0
 10
13.7754550942
 20
9.5147532053
 30
0.0
 10
13.7788102613
 20
9.5106739824
 30
0.0
 10
13.7821201599
 20
9.5062731709
 30
0.0
 10
13.7853831858
 20
9.5015528991
 30
0.0
 10
13.7885978903
 20
9.4965155406
 30
0.0
 10
13.7917626822
 20
9.491163541
 30
0.0
 10
13.7948760491
 20
9.4854995473
 30
0.0
 10
13.7979365085
 20
9.479526367
 30
0.0
 10
13.8009424908
 20
9.4732469284
 30
0.0
 10
13.8038925775
 20
9.4666643748
 30
0.0
 10
13.8067852872
 20
9.4597819462
 30
0.0
 10
13.810625187
 20
9.4500542551
 30
0.0
 10
13.8152563581
 20
9.4371576999
 30
0.0
 10
13.8204775741
 20
9.4207816854
 30
0.0
 10
13.8254372489
 20
9.4032997974
 30
0.0
 10
13.8301253539
 20
9.3847469471
 30
0.0
 10
13.8345323905
 20
9.3651599759
 30
0.0
 10
13.8386494069
 20
9.3445779987
 30
0.0
 10
13.8424680288
 20
9.3230421653
 30
0.0
 10
13.8459804827
 20
9.3005956001
 30
0.0
 10
13.8491796122
 20
9.2772833
 30
0.0
 10
13.8520589115
 20
9.2531520418
 30
0.0
 10
13.8546125224
 20
9.2282502757
 30
0.0
 10
13.8568352463
 20
9.2026280164
 30
0.0
 10
13.8587225547
 20
9.176336739
 30
0.0
 10
13.8602705969
 20
9.1494292789
 30
0.0
 10
13.8614762217
 20
9.1219597252
 30
0.0
 10
13.8623369725
 20
9.0939833026
 30
0.0
 10
13.862851078
 20
9.0655562732
 30
0.0
 10
13.863017506
 20
9.0367357499
 30
0.0
 10
13.8627741065
 20
8.9976863869
 30
0.0
 10
13.8615931933
 20
8.9483202655
 30
0.0
 10
13.8588101401
 20
8.8887141191
 30
0.0
 10
13.8546766747
 20
8.8289563623
 30
0.0
 10
13.8492260649
 20
8.7695274812
 30
0.0
 10
13.8435982559
 20
8.7204583951
 30
0.0
 10
13.8384622349
 20
8.6817354229
 30
0.0
 10
13.8343285612
 20
8.6532006733
 30
0.0
 10
13.8299045796
 20
8.6251018135
 30
0.0
 10
13.8251991736
 20
8.5974953026
 30
0.0
 10
13.8202218399
 20
8.570436657
 30
0.0
 10
13.8149826252
 20
8.5439802655
 30
0.0
 10
13.8094921079
 20
8.518179299
 30
0.0
 10
13.8037613731
 20
8.4930856014
 30
0.0
 10
13.7978019924
 20
8.4687495866
 30
0.0
 10
13.7916259979
 20
8.445220128
 30
0.0
 10
13.7852458737
 20
8.42254445
 30
0.0
 10
13.7786745155
 20
8.4007680311
 30
0.0
 10
13.7719252043
 20
8.3799345156
 30
0.0
 10
13.7650115772
 20
8.3600856099
 30
0.0
 10
13.7579475939
 20
8.3412610109
 30
0.0
 10
13.7507475114
 20
8.3234981966
 30
0.0
 10
13.7434258515
 20
8.3068327036
 30
0.0
 10
13.7371457058
 20
8.2936985968
 30
0.0
 10
13.7320622571
 20
8.2837762119
 30
0.0
 10
13.7282851219
 20
8.2767398562
 30
0.0
 10
13.7244886128
 20
8.2700016684
 30
0.0
 10
13.7206746524
 20
8.2635649712
 30
0.0
 10
13.7168451077
 20
8.2574329856
 30
0.0
 10
13.7130018862
 20
8.2516087701
 30
0.0
 10
13.7091469514
 20
8.2460951997
 30
0.0
 10
13.7052821168
 20
8.2408950224
 30
0.0
 10
13.7014092876
 20
8.2360107316
 30
0.0
 10
13.6975302447
 20
8.2314447346
 30
0.0
 10
13.6936471012
 20
8.2271995101
 30
0.0
 10
13.6910030604
 20
8.2245302484
 30
0.0
 10
13.6896803172
 20
8.2232525765
 30
0.0
  0
SPLINE
  5
3EC
100
AcDbEntity
  8
0
100
AcDbSpline
 62
7
  6
CONTINUOUS
 70
0
 71
3
 72
53
 73
49
 74
0
 42
0.0000001
 43
0.0000001
 44
0.0000000001
 40
0.0
 40
0.0
 40
0.0
 40
0.0
 40
0.0090726979
 40
0.0186767242
 40
0.0288126585
 40
0.0394784327
 40
0.050669581
 40
0.0623796967
 40
0.0746004968
 40
0.0873222243
 40
0.1005336486
 40
0.1142222806
 40
0.1283745094
 40
0.1429755895
 40
0.1580098932
 40
0.173460807
 40
0.2055414123
 40
0.2390700491
 40
0.2738879263
 40
0.309827205
 40
0.3467124206
 40
0.3843618233
 40
0.4225886741
 40
0.4612025164
 40
0.5000104239
 40
0.5388182369
 40
0.5774317945
 40
0.6156581689
 40
0.653306908
 40
0.690191283
 40
0.7261295515
 40
0.760946252
 40
0.794473547
 40
0.8265526489
 40
0.842002764
 40
0.8570362198
 40
0.8716364561
 40
0.885787765
 40
0.8994754951
 40
0.9126859578
 40
0.9254067116
 40
0.9376265326
 40
0.9493356129
 40
0.9605257637
 40
0.9711904804
 40
0.9813253907
 40
0.9909283495
 40
1.0
 40
1.0
 40
1.0
 40
1.0
 10
13.5713953616
 20
8.4683950906
 30
0.0
 10
13.572824893
 20
8.4704787813
 30
0.0
 10
13.5756702452
 20
8.4748356028
 30
0.0
 10
13.5797914263
 20
8.4817234177
 30
0.0
 10
13.5838816438
 20
8.489140578
 30
0.0
 10
13.5879353942
 20
8.497077214
 30
0.0
 10
13.5919474044
 20
8.5055229647
 30
0.0
 10
13.595912262
 20
8.5144667166
 30
0.0
 10
13.5998247555
 20
8.5238966426
 30
0.0
 10
13.6036796071
 20
8.5338002716
 30
0.0
 10
13.6074716875
 20
8.5441644649
 30
0.0
 10
13.6111959301
 20
8.5549754582
 30
0.0
 10
13.6148473157
 20
8.5662188866
 30
0.0
 10
13.6184210009
 20
8.5778797801
 30
0.0
 10
13.621912178
 20
8.5899426354
 30
0.0
 10
13.6265084136
 20
8.6067518875
 30
0.0
 10
13.6319990747
 20
8.6286539459
 30
0.0
 10
13.638108656
 20
8.6559521506
 30
0.0
 10
13.6437857674
 20
8.6844400945
 30
0.0
 10
13.6489998919
 20
8.7139659495
 30
0.0
 10
13.6537229747
 20
8.744372509
 30
0.0
 10
13.6579296466
 20
8.7754977227
 30
0.0
 10
13.6615973378
 20
8.8071756755
 30
0.0
 10
13.6647063933
 20
8.8392374644
 30
0.0
 10
13.6672401757
 20
8.8715121196
 30
0.0
 10
13.6691851527
 20
8.9038275238
 30
0.0
 10
13.6705309688
 20
8.936011339
 30
0.0
 10
13.6712705029
 20
8.9678919356
 30
0.0
 10
13.6713999149
 20
8.9992993173
 30
0.0
 10
13.6709186648
 20
9.0300660473
 30
0.0
 10
13.6698295127
 20
9.0600281301
 30
0.0
 10
13.6681385435
 20
9.0890259935
 30
0.0
 10
13.6658550276
 20
9.1169050514
 30
0.0
 10
13.6634397261
 20
9.1393542836
 30
0.0
 10
13.6612074123
 20
9.1566361396
 30
0.0
 10
13.6594144828
 20
9.1690646863
 30
0.0
 10
13.6574843976
 20
9.181106476
 30
0.0
 10
13.6554196795
 20
9.1927454918
 30
0.0
 10
13.6532231716
 20
9.2039662397
 30
0.0
 10
13.6508977653
 20
9.2147537987
 30
0.0
 10
13.6484466341
 20
9.2250938397
 30
0.0
 10
13.6458730498
 20
9.2349726449
 30
0.0
 10
13.6431804508
 20
9.2443771275
 30
0.0
 10
13.6403724858
 20
9.2532948725
 30
0.0
 10
13.6374528363
 20
9.2617141036
 30
0.0
 10
13.6344254274
 20
9.2696238501
 30
0.0
 10
13.6312942677
 20
9.2770135687
 30
0.0
 10
13.629077426
 20
9.2817207352
 30
0.0
 10
13.6279491267
 20
9.2839814416
 30
0.0
  0
SPLINE
  5
3ED
100
AcDbEntity
  8
0
100
AcDbSpline
 62
7
  6
CONTINUOUS
 70
0
 71
3
 72
39
 73
35
 74
0
 42
0.0000001
 43
0.0000001
 44
0.0000000001
 40
0.0
 40
0.0
 40
0.0
 40
0.0
 40
0.0228259193
 40
0.0471669039
 40
0.0729622736
 40
0.1001418567
 40
0.1286272555
 40
0.1583328674
 40
0.1891667418
 40
0.2210313266
 40
0.2538241395
 40
0.2874383873
 40
0.3217635501
 40
0.3566859418
 40
0.3920892545
 40
0.4278550923
 40
0.4638634981
 40
0.4999934758
 40
0.5361235103
 40
0.5721320864
 40
0.6078982066
 40
0.643301912
 40
0.6782248039
 40
0.7125505715
 40
0.7461655259
 40
0.7789591445
 40
0.8108246308
 40
0.8416594995
 40
0.8713661949
 40
0.8998527621
 40
0.9270335925
 40
0.9528302809
 40
0.9771726466
 40
1.0
 40
1.0
 40
1.0
 40
1.0
 10
13.5516283496
 20
8.5489152205
 30
0.0
 10
13.5536597694
 20
8.5535730324
 30
0.0
 10
13.5576584594
 20
8.5632853763
 30
0.0
 10
13.5633146751
 20
8.5785145132
 30
0.0
 10
13.5688059725
 20
8.5948298367
 30
0.0
 10
13.5741123735
 20
8.6121730539
 30
0.0
 10
13.5792147256
 20
8.6304824973
 30
0.0
 10
13.5840945679
 20
8.6496927878
 30
0.0
 10
13.5887342666
 20
8.6697352732
 30
0.0
 10
13.5931170611
 20
8.6905382463
 30
0.0
 10
13.59722713
 20
8.7120272311
 30
0.0
 10
13.6010496452
 20
8.7341252577
 30
0.0
 10
13.6045708243
 20
8.7567531471
 30
0.0
 10
13.6077779792
 20
8.779829801
 30
0.0
 10
13.6106595601
 20
8.8032724977
 30
0.0
 10
13.6132051966
 20
8.826997192
 30
0.0
 10
13.615405734
 20
8.8509188199
 30
0.0
 10
13.6172532656
 20
8.8749516061
 30
0.0
 10
13.6187411611
 20
8.8990093737
 30
0.0
 10
13.6198640903
 20
8.9230058553
 30
0.0
 10
13.6206180426
 20
8.9468550046
 30
0.0
 10
13.6210003417
 20
8.9704713071
 30
0.0
 10
13.6210096559
 20
8.9937700891
 30
0.0
 10
13.6206460046
 20
9.0166678249
 30
0.0
 10
13.6199107591
 20
9.0390824397
 30
0.0
 10
13.6188066392
 20
9.0609336082
 30
0.0
 10
13.6173377055
 20
9.0821430489
 30
0.0
 10
13.6155093468
 20
9.1026348135
 30
0.0
 10
13.6133282636
 20
9.1223355657
 30
0.0
 10
13.6108024441
 20
9.1411748745
 30
0.0
 10
13.607941145
 20
9.1590854352
 30
0.0
 10
13.604754826
 20
9.1760035245
 30
0.0
 10
13.6012552119
 20
9.1918686422
 30
0.0
 10
13.5986356754
 20
9.2020406793
 30
0.0
 10
13.5972667344
 20
9.2069346678
 30
0.0
  0
SPLINE
  5
3EE
100
AcDbEntity
  8
0
100
AcDbSpline
 62
7
  6
CONTINUOUS
 70
0
 71
3
 72
31
 73
27
 74
0
 42
0.0000001
 43
0.0000001
 44
0.0000000001
 40
0.0
 40
0.0
 40
0.0
 40
0.0
 40
0.0605355681
 40
0.1196695499
 40
0.1751471955
 40
0.2264359356
 40
0.2738047415
 40
0.317735526
 40
0.3970785943
 40
0.4674276663
 40
0.5307570944
 40
0.5884185272
 40
0.641396718
 40
0.6904765669
 40
0.7363599972
 40
0.779764366
 40
0.8008091742
 40
0.8215648402
 40
0.8421712963
 40
0.8627933802
 40
0.8836204419
 40
0.9048749466
 40
0.9268147916
 40
0.9497401215
 40
0.9739998496
 40
1.0
 40
1.0
 40
1.0
 40
1.0
 10
10.786002968
 20
7.6896151754
 30
0.0
 10
10.7868642566
 20
7.6871913126
 30
0.0
 10
10.7883756897
 20
7.6823298977
 30
0.0
 10
10.7900778807
 20
7.6750792961
 30
0.0
 10
10.7912530607
 20
7.6681239657
 30
0.0
 10
10.7919763884
 20
7.6616112148
 30
0.0
 10
10.7923318669
 20
7.6555599803
 30
0.0
 10
10.792405015
 20
7.648307084
 30
0.0
 10
10.7919348438
 20
7.6400808111
 30
0.0
 10
10.7906163573
 20
7.631113772
 30
0.0
 10
10.7887146018
 20
7.6231970289
 30
0.0
 10
10.7863158574
 20
7.6161922152
 30
0.0
 10
10.7834700054
 20
7.6100166126
 30
0.0
 10
10.7802041925
 20
7.6046272422
 30
0.0
 10
10.7765313542
 20
7.6000137485
 30
0.0
 10
10.77309243
 20
7.5967956185
 30
0.0
 10
10.7701530441
 20
7.5946747161
 30
0.0
 10
10.7678692407
 20
7.5933192919
 30
0.0
 10
10.7654822812
 20
7.5921958845
 30
0.0
 10
10.7629909935
 20
7.5913173249
 30
0.0
 10
10.760393127
 20
7.5907021914
 30
0.0
 10
10.7576872266
 20
7.5903702608
 30
0.0
 10
10.7548714956
 20
7.5903477628
 30
0.0
 10
10.7519446207
 20
7.5906650218
 30
0.0
 10
10.7489062549
 20
7.5913588205
 30
0.0
 10
10.7468880618
 20
7.5920743275
 30
0.0
 10
10.7458685053
 20
7.5924999361
 30
0.0
  0
SPLINE
  5
3EF
100
AcDbEntity
  8
0
100
AcDbSpline
 62
7
  6
CONTINUOUS
 70
0
 71
3
 72
43
 73
39
 74
0
 42
0.0000001
 43
0.0000001
 44
0.0000000001
 40
0.0
 40
0.0
 40
0.0
 40
0.0
 40
0.0149672865
 40
0.0299517182
 40
0.04495549
 40
0.059980694
 40
0.0900984567
 40
0.120324286
 40
0.1354840101
 40
0.1506751829
 40
0.1658989737
 40
0.1811564011
 40
0.2117708691
 40
0.2425280664
 40
0.2734301901
 40
0.3044767647
 40
0.3356646878
 40
0.3669883214
 40
0.3984396246
 40
0.430008324
 40
0.4616821164
 40
0.4934468999
 40
0.5252870292
 40
0.5571855907
 40
0.5891246935
 40
0.6210857717
 40
0.6530498944
 40
0.6849980803
 40
0.7169116124
 40
0.7487723502
 40
0.7805630346
 40
0.8122675838
 40
0.8438713716
 40
0.8753614984
 40
0.9067269914
 40
0.9379591703
 40
0.9690513233
 40
1.0
 40
1.0
 40
1.0
 40
1.0
 10
11.580340607
 20
7.4108832788
 30
0.0
 10
11.5755869727
 20
7.4079694176
 30
0.0
 10
11.5659679983
 20
7.4023096965
 30
0.0
 10
11.551234692
 20
7.3943409546
 30
0.0
 10
11.5362047746
 20
7.3868971846
 30
0.0
 10
11.5157792738
 20
7.3776774652
 30
0.0
 10
11.4895826543
 20
7.3675063593
 30
0.0
 10
11.4626827135
 20
7.359205728
 30
0.0
 10
11.4407950059
 20
7.3536982891
 30
0.0
 10
11.4241919701
 20
7.3501349427
 30
0.0
 10
11.4074387554
 20
7.3471475151
 30
0.0
 10
11.3849036204
 20
7.3439333024
 30
0.0
 10
11.3564476915
 20
7.3413751304
 30
0.0
 10
11.3220552825
 20
7.3406526321
 30
0.0
 10
11.2875319939
 20
7.3422762188
 30
0.0
 10
11.2530374917
 20
7.3462383082
 30
0.0
 10
11.2187298734
 20
7.3525203684
 30
0.0
 10
11.1847667012
 20
7.3610933034
 30
0.0
 10
11.1513038146
 20
7.371917515
 30
0.0
 10
11.1184947513
 20
7.3849431115
 30
0.0
 10
11.0864900174
 20
7.4001101334
 30
0.0
 10
11.0554364152
 20
7.4173488334
 30
0.0
 10
11.0254763725
 20
7.4365799901
 30
0.0
 10
10.9967472933
 20
7.4577152686
 30
0.0
 10
10.9693809394
 20
7.4806576328
 30
0.0
 10
10.9435028315
 20
7.5053017867
 30
0.0
 10
10.919231679
 20
7.5315346536
 30
0.0
 10
10.8966788409
 20
7.5592358904
 30
0.0
 10
10.8759478193
 20
7.5882784348
 30
0.0
 10
10.8571337885
 20
7.6185290828
 30
0.0
 10
10.840323159
 20
7.6498490909
 30
0.0
 10
10.8255931759
 20
7.6820948075
 30
0.0
 10
10.813011569
 20
7.7151183144
 30
0.0
 10
10.8026362643
 20
7.7487681571
 30
0.0
 10
10.7945150492
 20
7.7828898153
 30
0.0
 10
10.7886855175
 20
7.8173272046
 30
0.0
 10
10.7851745626
 20
7.8519202336
 30
0.0
 10
10.7843888483
 20
7.8750391759
 30
0.0
 10
10.7843888483
 20
7.8865682064
 30
0.0
  0
SPLINE
  5
3F0
100
AcDbEntity
  8
0
100
AcDbSpline
 62
7
  6
CONTINUOUS
 70
0
 71
3
 72
18
 73
14
 74
0
 42
0.0000001
 43
0.0000001
 44
0.0000000001
 40
0.0
 40
0.0
 40
0.0
 40
0.0
 40
0.1504683897
 40
0.2917144302
 40
0.4244424337
 40
0.4879098403
 40
0.5496094316
 40
0.6682625858
 40
0.7817882724
 40
0.8371379912
 40
0.8918078094
 40
0.9460192717
 40
1.0
 40
1.0
 40
1.0
 40
1.0
 10
13.1399491004
 20
7.6922529652
 30
0.0
 10
13.1380563493
 20
7.6904247079
 30
0.0
 10
13.1342734252
 20
7.6869943696
 30
0.0
 10
13.1284159621
 20
7.6824230365
 30
0.0
 10
13.1234683456
 20
7.6791899467
 30
0.0
 10
13.119523051
 20
7.6770006036
 30
0.0
 10
13.1156938256
 20
7.6751209789
 30
0.0
 10
13.1109060792
 20
7.6732216887
 30
0.0
 10
13.1060331677
 20
7.6719256088
 30
0.0
 10
13.102173678
 20
7.6712871419
 30
0.0
 10
13.0993132608
 20
7.6710037943
 30
0.0
 10
13.0964644165
 20
7.6709122862
 30
0.0
 10
13.0945717142
 20
7.6709792439
 30
0.0
 10
13.0936299063
 20
7.6710445634
 30
0.0
  0
SPLINE
  5
3F1
100
AcDbEntity
  8
0
100
AcDbSpline
 62
7
  6
CONTINUOUS
 70
0
 71
3
 72
15
 73
11
 74
0
 42
0.0000001
 43
0.0000001
 44
0.0000000001
 40
0.0
 40
0.0
 40
0.0
 40
0.0
 40
0.1234086468
 40
0.2471513763
 40
0.3713005425
 40
0.4959197682
 40
0.6210625824
 40
0.7467719591
 40
0.8730774627
 40
1.0
 40
1.0
 40
1.0
 40
1.0
 10
10.863330827
 20
8.1533762518
 30
0.0
 10
10.856922051
 20
8.1436973528
 30
0.0
 10
10.8448118998
 20
8.1238222736
 30
0.0
 10
10.8289052226
 20
8.0926941087
 30
0.0
 10
10.8153102047
 20
8.0603637215
 30
0.0
 10
10.8040957163
 20
8.0269944617
 30
0.0
 10
10.795316862
 20
7.9927522157
 30
0.0
 10
10.789017185
 20
7.9578071995
 30
0.0
 10
10.7852274945
 20
7.9223355948
 30
0.0
 10
10.7843888483
 20
7.8985070751
 30
0.0
 10
10.7843888483
 20
7.8865682064
 30
0.0
  0
SPLINE
  5
3F2
100
AcDbEntity
  8
0
100
AcDbSpline
 62
7
  6
CONTINUOUS
 70
0
 71
3
 72
83
 73
79
 74
0
 42
0.0000001
 43
0.0000001
 44
0.0000000001
 40
0.0
 40
0.0
 40
0.0
 40
0.0
 40
0.0027164276
 40
0.0054532334
 40
0.0082303009
 40
0.0110665998
 40
0.0139798088
 40
0.0169861218
 40
0.0201000928
 40
0.0233346095
 40
0.026700976
 40
0.0302089312
 40
0.0338668524
 40
0.0376818289
 40
0.0416598023
 40
0.0458057443
 40
0.0501236753
 40
0.0546168743
 40
0.0592878974
 40
0.0641386698
 40
0.0691706105
 40
0.0743845883
 40
0.0797810847
 40
0.0853601631
 40
0.0970640219
 40
0.1094907699
 40
0.1226300177
 40
0.1364676887
 40
0.150986507
 40
0.1661664045
 40
0.1819848426
 40
0.1984170703
 40
0.2154363375
 40
0.2330140708
 40
0.2511200494
 40
0.2697225561
 40
0.2887885105
 40
0.3082835895
 40
0.3281723378
 40
0.3484182894
 40
0.3689840785
 40
0.3898315425
 40
0.4109218226
 40
0.453671794
 40
0.496913762
 40
0.5403220095
 40
0.5835692233
 40
0.6263296343
 40
0.6474270493
 40
0.6682829087
 40
0.6888583326
 40
0.7091151299
 40
0.7290159025
 40
0.7485241591
 40
0.7676044182
 40
0.7862223163
 40
0.8043447241
 40
0.821939872
 40
0.8389774975
 40
0.8554289822
 40
0.8712675108
 40
0.8864682552
 40
0.9010085951
 40
0.9148683895
 40
0.9280302787
 40
0.9404800721
 40
0.9464347343
 40
0.9522077813
 40
0.9577985496
 40
0.9632067643
 40
0.968432455
 40
0.973476048
 40
0.978338406
 40
0.9830208506
 40
0.98752539
 40
0.9918546103
 40
0.9960115929
 40
1.0
 40
1.0
 40
1.0
 40
1.0
 10
13.1862682944
 20
9.0068361249
 30
0.0
 10
13.1875178326
 20
9.0067494625
 30
0.0
 10
13.1900198822
 20
9.0064623676
 30
0.0
 10
13.1937410951
 20
9.005694154
 30
0.0
 10
13.1974341983
 20
9.0045885373
 30
0.0
 10
13.2010965244
 20
9.0031464857
 30
0.0
 10
13.204726223
 20
9.001369392
 30
0.0
 10
13.2083214044
 20
8.9992585736
 30
0.0
 10
13.2118804095
 20
8.9968155477
 30
0.0
 10
13.2154016991
 20
8.9940419069
 30
0.0
 10
13.2188836767
 20
8.9909391886
 30
0.0
 10
13.2223249229
 20
8.9875091739
 30
0.0
 10
13.2257238773
 20
8.9837535939
 30
0.0
 10
13.2290790444
 20
8.979674371
 30
0.0
 10
13.232388943
 20
8.9752735595
 30
0.0
 10
13.2356519689
 20
8.9705532878
 30
0.0
 10
13.2388666734
 20
8.9655159292
 30
0.0
 10
13.2420314653
 20
8.9601639296
 30
0.0
 10
13.2451448323
 20
8.954499936
 30
0.0
 10
13.2482052916
 20
8.9485267557
 30
0.0
 10
13.251211274
 20
8.942247317
 30
0.0
 10
13.2541613606
 20
8.9356647634
 30
0.0
 10
13.2570540703
 20
8.9287823348
 30
0.0
 10
13.2608939701
 20
8.9190546437
 30
0.0
 10
13.2655251412
 20
8.9061580886
 30
0.0
 10
13.2707463572
 20
8.889782074
 30
0.0
 10
13.275706032
 20
8.8723001861
 30
0.0
 10
13.2803941371
 20
8.8537473357
 30
0.0
 10
13.2848011736
 20
8.8341603646
 30
0.0
 10
13.28891819
 20
8.8135783873
 30
0.0
 10
13.2927368119
 20
8.792042554
 30
0.0
 10
13.2962492658
 20
8.7695959887
 30
0.0
 10
13.2994483954
 20
8.7462836886
 30
0.0
 10
13.3023276947
 20
8.7221524304
 30
0.0
 10
13.3048813055
 20
8.6972506644
 30
0.0
 10
13.3071040294
 20
8.671628405
 30
0.0
 10
13.3089913378
 20
8.6453371277
 30
0.0
 10
13.31053938
 20
8.6184296675
 30
0.0
 10
13.3117450049
 20
8.5909601138
 30
0.0
 10
13.3126057557
 20
8.5629836912
 30
0.0
 10
13.3131198611
 20
8.5345566618
 30
0.0
 10
13.3132862892
 20
8.5057361386
 30
0.0
 10
13.3130428896
 20
8.4666867756
 30
0.0
 10
13.3118619764
 20
8.4173206541
 30
0.0
 10
13.3090789233
 20
8.3577145078
 30
0.0
 10
13.3049454579
 20
8.2979567509
 30
0.0
 10
13.299494848
 20
8.2385278698
 30
0.0
 10
13.2938670391
 20
8.1894587837
 30
0.0
 10
13.288731018
 20
8.1507358116
 30
0.0
 10
13.2845973443
 20
8.122201062
 30
0.0
 10
13.2801733628
 20
8.0941022021
 30
0.0
 10
13.2754679567
 20
8.0664956913
 30
0.0
 10
13.270490623
 20
8.0394370456
 30
0.0
 10
13.2652514083
 20
8.0129806542
 30
0.0
 10
13.259760891
 20
7.9871796876
 30
0.0
 10
13.2540301562
 20
7.9620859901
 30
0.0
 10
13.2480707755
 20
7.9377499753
 30
0.0
 10
13.241894781
 20
7.9142205166
 30
0.0
 10
13.2355146568
 20
7.8915448386
 30
0.0
 10
13.2289432987
 20
7.8697684197
 30
0.0
 10
13.2221939874
 20
7.8489349043
 30
0.0
 10
13.2152803603
 20
7.8290859985
 30
0.0
 10
13.208216377
 20
7.8102613995
 30
0.0
 10
13.2010162946
 20
7.7924985852
 30
0.0
 10
13.1936946346
 20
7.7758330922
 30
0.0
 10
13.1874144889
 20
7.7626989855
 30
0.0
 10
13.1823310403
 20
7.7527766006
 30
0.0
 10
13.1785539051
 20
7.7457402448
 30
0.0
 10
13.1747573959
 20
7.739002057
 30
0.0
 10
13.1709434355
 20
7.7325653599
 30
0.0
 10
13.1671138908
 20
7.7264333742
 30
0.0
 10
13.1632706693
 20
7.7206091587
 30
0.0
 10
13.1594157345
 20
7.7150955883
 30
0.0
 10
13.1555508999
 20
7.709895411
 30
0.0
 10
13.1516780707
 20
7.7050111202
 30
0.0
 10
13.1477990279
 20
7.7004451232
 30
0.0
 10
13.1439158843
 20
7.6961998987
 30
0.0
 10
13.1412718435
 20
7.693530637
 30
0.0
 10
13.1399491004
 20
7.6922529652
 30
0.0
  0
SPLINE
  5
3F3
100
AcDbEntity
  8
0
100
AcDbSpline
 62
7
  6
CONTINUOUS
 70
0
 71
3
 72
71
 73
67
 74
0
 42
0.0000001
 43
0.0000001
 44
0.0000000001
 40
0.0
 40
0.0
 40
0.0
 40
0.0
 40
0.0155842357
 40
0.031115943
 40
0.0465952487
 40
0.0620238831
 40
0.0774034484
 40
0.0927362827
 40
0.1080251234
 40
0.1232731737
 40
0.1384840555
 40
0.1536617759
 40
0.1688106894
 40
0.1839354528
 40
0.1990409785
 40
0.2141323826
 40
0.2292149324
 40
0.2442939897
 40
0.2593749538
 40
0.2744632037
 40
0.2895640404
 40
0.3046826304
 40
0.3198239511
 40
0.3349927396
 40
0.3501934435
 40
0.3654301766
 40
0.3807066777
 40
0.3960262752
 40
0.4113918557
 40
0.4268058391
 40
0.4422701589
 40
0.4577862478
 40
0.4733550285
 40
0.4889769092
 40
0.5046517848
 40
0.5203790431
 40
0.5361575763
 40
0.5519857963
 40
0.5678616538
 40
0.5837826609
 40
0.5997459179
 40
0.6157481418
 40
0.6317856999
 40
0.6478546445
 40
0.6639507499
 40
0.6800695506
 40
0.6962063818
 40
0.7123564201
 40
0.7285147273
 40
0.7446762933
 40
0.7608360799
 40
0.7769890645
 40
0.7931302835
 40
0.8092548753
 40
0.8253581239
 40
0.8414355006
 40
0.8574827053
 40
0.873495705
 40
0.8894707706
 40
0.9054045132
 40
0.921293919
 40
0.9371363616
 40
0.9529297193
 40
0.9686720808
 40
0.9843626423
 40
1.0
 40
1.0
 40
1.0
 40
1.0
 10
11.6588847158
 20
7.6332664179
 30
0.0
 10
11.6588847158
 20
7.6242581411
 30
0.0
 10
11.6584438624
 20
7.6062687567
 30
0.0
 10
11.6564538505
 20
7.5793980171
 30
0.0
 10
11.6531407362
 20
7.5527480051
 30
0.0
 10
11.6485126714
 20
7.5263839856
 30
0.0
 10
11.6425805763
 20
7.50036911
 30
0.0
 10
11.635358763
 20
7.4747662178
 30
0.0
 10
11.6268645315
 20
7.4496370038
 30
0.0
 10
11.6171183128
 20
7.4250420728
 30
0.0
 10
11.6061435569
 20
7.4010407343
 30
0.0
 10
11.5939666797
 20
7.3776908772
 30
0.0
 10
11.5806170013
 20
7.3550488259
 30
0.0
 10
11.5661266758
 20
7.333169204
 30
0.0
 10
11.5505306142
 20
7.3121048024
 30
0.0
 10
11.5338664054
 20
7.2919064466
 30
0.0
 10
11.5161742387
 20
7.272622859
 30
0.0
 10
11.4974967841
 20
7.254300555
 30
0.0
 10
11.4778790929
 20
7.2369837277
 30
0.0
 10
11.4573684864
 20
7.2207141415
 30
0.0
 10
11.436014442
 20
7.2055310298
 30
0.0
 10
11.4138684712
 20
7.1914710029
 30
0.0
 10
11.3909840068
 20
7.1785679378
 30
0.0
 10
11.36741626
 20
7.1668529098
 30
0.0
 10
11.3432220826
 20
7.1563541239
 30
0.0
 10
11.3184598293
 20
7.1470968469
 30
0.0
 10
11.293189217
 20
7.1391033476
 30
0.0
 10
11.267471179
 20
7.1323928474
 30
0.0
 10
11.2413677219
 20
7.1269814625
 30
0.0
 10
11.2149417739
 20
7.1228821592
 30
0.0
 10
11.1882570268
 20
7.1201047455
 30
0.0
 10
11.1613777849
 20
7.118655845
 30
0.0
 10
11.1343688101
 20
7.118538884
 30
0.0
 10
11.1072951675
 20
7.1197540844
 30
0.0
 10
11.0802220704
 20
7.1222984643
 30
0.0
 10
11.0532147208
 20
7.1261658228
 30
0.0
 10
11.0263381531
 20
7.1313467802
 30
0.0
 10
10.9996570789
 20
7.1378288014
 30
0.0
 10
10.973235733
 20
7.1455962273
 30
0.0
 10
10.9471377207
 20
7.1546303116
 30
0.0
 10
10.9214258678
 20
7.1649092698
 30
0.0
 10
10.8961620631
 20
7.1764083128
 30
0.0
 10
10.8714071103
 20
7.1890997134
 30
0.0
 10
10.8472205876
 20
7.2029528862
 30
0.0
 10
10.8236607046
 20
7.2179344575
 30
0.0
 10
10.8007841645
 20
7.2340083455
 30
0.0
 10
10.7786460296
 20
7.2511358477
 30
0.0
 10
10.7572995864
 20
7.2692757279
 30
0.0
 10
10.7367962063
 20
7.288384304
 30
0.0
 10
10.7171852363
 20
7.3084155718
 30
0.0
 10
10.6985138799
 20
7.3293213123
 30
0.0
 10
10.6808270854
 20
7.3510512072
 30
0.0
 10
10.6641674377
 20
7.3735529584
 30
0.0
 10
10.6485750599
 20
7.3967724141
 30
0.0
 10
10.6340874958
 20
7.4206536854
 30
0.0
 10
10.6207396333
 20
7.4451392917
 30
0.0
 10
10.6085636252
 20
7.4701703007
 30
0.0
 10
10.5975888126
 20
7.4956864682
 30
0.0
 10
10.587841653
 20
7.5216263805
 30
0.0
 10
10.5793456585
 20
7.5479276045
 30
0.0
 10
10.5721213404
 20
7.574526819
 30
0.0
 10
10.5661860964
 20
7.6013600249
 30
0.0
 10
10.5615543483
 20
7.6283624891
 30
0.0
 10
10.5582371421
 20
7.655469593
 30
0.0
 10
10.556242757
 20
7.6826150017
 30
0.0
 10
10.5557973918
 20
7.7007268003
 30
0.0
 10
10.5557973918
 20
7.7097657837
 30
0.0
  0
SPLINE
  5
3F4
100
AcDbEntity
  8
0
100
AcDbSpline
 62
7
  6
CONTINUOUS
 70
0
 71
3
 72
15
 73
11
 74
0
 42
0.0000001
 43
0.0000001
 44
0.0000000001
 40
0.0
 40
0.0
 40
0.0
 40
0.0
 40
0.0770449349
 40
0.1617951275
 40
0.25667265
 40
0.3647466915
 40
0.489863244
 40
0.6363807409
 40
0.8073923462
 40
1.0
 40
1.0
 40
1.0
 40
1.0
 10
10.761116955
 20
7.7215591861
 30
0.0
 10
10.7621026014
 20
7.7211475799
 30
0.0
 10
10.7641197604
 20
7.7201522867
 30
0.0
 10
10.7671113593
 20
7.718211777
 30
0.0
 10
10.7701987004
 20
7.7156734586
 30
0.0
 10
10.7733857994
 20
7.7124168006
 30
0.0
 10
10.7766639599
 20
7.7082863294
 30
0.0
 10
10.7799857819
 20
7.7031145507
 30
0.0
 10
10.7832226247
 20
7.6968148735
 30
0.0
 10
10.7851088863
 20
7.6921313256
 30
0.0
 10
10.786002968
 20
7.6896151754
 30
0.0
  0
SPLINE
  5
3F5
100
AcDbEntity
  8
0
100
AcDbSpline
 62
7
  6
CONTINUOUS
 70
0
 71
3
 72
15
 73
11
 74
0
 42
0.0000001
 43
0.0000001
 44
0.0000000001
 40
0.0
 40
0.0
 40
0.0
 40
0.0
 40
0.0868362486
 40
0.1818384209
 40
0.2869162715
 40
0.40345715
 40
0.5324414411
 40
0.6745697339
 40
0.8303233694
 40
1.0
 40
1.0
 40
1.0
 40
1.0
 10
11.0251078312
 20
8.1723545129
 30
0.0
 10
11.0257299146
 20
8.1723112803
 30
0.0
 10
11.0270438364
 20
8.1723549943
 30
0.0
 10
11.0290694162
 20
8.1727707822
 30
0.0
 10
11.0312174066
 20
8.1735349036
 30
0.0
 10
11.0334819735
 20
8.1746452064
 30
0.0
 10
11.0358587927
 20
8.1761008338
 30
0.0
 10
11.0383434304
 20
8.1779004844
 30
0.0
 10
11.0409311915
 20
8.1800428468
 30
0.0
 10
11.0426485346
 20
8.181629486
 30
0.0
 10
11.0435249267
 20
8.1824760158
 30
0.0
  0
SPLINE
  5
3F6
100
AcDbEntity
  8
0
100
AcDbSpline
 62
7
  6
CONTINUOUS
 70
0
 71
3
 72
25
 73
21
 74
0
 42
0.0000001
 43
0.0000001
 44
0.0000000001
 40
0.0
 40
0.0
 40
0.0
 40
0.0
 40
0.0618726765
 40
0.1239841394
 40
0.1863088313
 40
0.248817326
 40
0.3114768931
 40
0.3742521073
 40
0.4371054933
 40
0.4999981956
 40
0.5628906671
 40
0.6257433643
 40
0.6885174438
 40
0.7198674332
 40
0.7511838842
 40
0.8136904188
 40
0.8760127855
 40
0.9070998962
 40
0.9381302661
 40
1.0
 40
1.0
 40
1.0
 40
1.0
 10
11.5830753911
 20
7.8770348125
 30
0.0
 10
11.5754770689
 20
7.8791812868
 30
0.0
 10
11.5603919207
 20
7.883999683
 30
0.0
 10
11.5382638626
 20
7.8927408841
 30
0.0
 10
11.5166917911
 20
7.9029691525
 30
0.0
 10
11.4957819768
 20
7.914634243
 30
0.0
 10
11.4756357081
 20
7.9276794238
 30
0.0
 10
11.4563510325
 20
7.9420411465
 30
0.0
 10
11.4380216761
 20
7.9576495321
 30
0.0
 10
11.4207367928
 20
7.9744286019
 30
0.0
 10
11.4045803432
 20
7.9922968931
 30
0.0
 10
11.3896312592
 20
8.0111669612
 30
0.0
 10
11.3782340757
 20
8.0276597326
 30
0.0
 10
11.3697902054
 20
8.0412621774
 30
0.0
 10
11.3618140254
 20
8.0551046912
 30
0.0
 10
11.3527217008
 20
8.0728525426
 30
0.0
 10
11.3448336436
 20
8.0911357197
 30
0.0
 10
11.3392779168
 20
8.1060150472
 30
0.0
 10
11.3342405478
 20
8.1210161602
 30
0.0
 10
11.3310326125
 20
8.132441286
 30
0.0
 10
11.3291569101
 20
8.1401105534
 30
0.0
  0
SPLINE
  5
3F7
100
AcDbEntity
  8
0
100
AcDbSpline
 62
7
  6
CONTINUOUS
 70
0
 71
3
 72
39
 73
35
 74
0
 42
0.0000001
 43
0.0000001
 44
0.0000000001
 40
0.0
 40
0.0
 40
0.0
 40
0.0
 40
0.0299424698
 40
0.0599093171
 40
0.0899243244
 40
0.1200101049
 40
0.1501875654
 40
0.1804754197
 40
0.2108897678
 40
0.2414437479
 40
0.2721472748
 40
0.3030068601
 40
0.3340255156
 40
0.3652027379
 40
0.3965345747
 40
0.4280137612
 40
0.4596299196
 40
0.491369815
 40
0.5232176628
 40
0.555155479
 40
0.5871634623
 40
0.619220404
 40
0.6513041182
 40
0.6833918873
 40
0.7154609133
 40
0.74748877
 40
0.7794538516
 40
0.811335809
 40
0.8431159677
 40
0.8747777197
 40
0.9063068786
 40
0.9376920899
 40
0.9689246486
 40
1.0
 40
1.0
 40
1.0
 40
1.0
 10
8.8836561563
 20
6.9227657627
 30
0.0
 10
8.8754940374
 20
6.9148817878
 30
0.0
 10
8.858527961
 20
6.8997501472
 30
0.0
 10
8.8313456951
 20
6.8791359612
 30
0.0
 10
8.8025691886
 20
6.8607082457
 30
0.0
 10
8.7723592521
 20
6.8445703464
 30
0.0
 10
8.7408819716
 20
6.8308104304
 30
0.0
 10
8.7083110566
 20
6.8195041567
 30
0.0
 10
8.6748259913
 20
6.810713398
 30
0.0
 10
8.6406112637
 20
6.8044861178
 30
0.0
 10
8.6058552517
 20
6.8008561383
 30
0.0
 10
8.5707492068
 20
6.7998429849
 30
0.0
 10
8.5354862042
 20
6.8014518055
 30
0.0
 10
8.5002600835
 20
6.8056732897
 30
0.0
 10
8.4652643877
 20
6.8124838125
 30
0.0
 10
8.4306913175
 20
6.8218455804
 30
0.0
 10
8.396730699
 20
6.8337068605
 30
0.0
 10
8.3635689399
 20
6.8480022149
 30
0.0
 10
8.3313880162
 20
6.8646528806
 30
0.0
 10
8.3003645058
 20
6.8835672453
 30
0.0
 10
8.2706686353
 20
6.9046413407
 30
0.0
 10
8.2424633542
 20
6.9277593963
 30
0.0
 10
8.2159034128
 20
6.9527944299
 30
0.0
 10
8.1911345669
 20
6.9796090007
 30
0.0
 10
8.168292783
 20
7.0080559433
 30
0.0
 10
8.1475035127
 20
7.0379791718
 30
0.0
 10
8.1288809495
 20
7.0692144819
 30
0.0
 10
8.1125274421
 20
7.1015904824
 30
0.0
 10
8.0985329532
 20
7.1349295084
 30
0.0
 10
8.0869745805
 20
7.169048659
 30
0.0
 10
8.0779160592
 20
7.203760492
 30
0.0
 10
8.0714075166
 20
7.2388750398
 30
0.0
 10
8.0674849192
 20
7.274196998
 30
0.0
 10
8.0666063549
 20
7.2978203635
 30
0.0
 10
8.0666063549
 20
7.3095977245
 30
0.0
  0
SPLINE
  5
3F8
100
AcDbEntity
  8
0
100
AcDbSpline
 62
7
  6
CONTINUOUS
 70
0
 71
3
 72
39
 73
35
 74
0
 42
0.0000001
 43
0.0000001
 44
0.0000000001
 40
0.0
 40
0.0
 40
0.0
 40
0.0
 40
0.0299344856
 40
0.0599008791
 40
0.0899221446
 40
0.1200199451
 40
0.1502141403
 40
0.1805223391
 40
0.2109595162
 40
0.2415377003
 40
0.2722657447
 40
0.3031491757
 40
0.3341901211
 40
0.3653873149
 40
0.3967361732
 40
0.4282289399
 40
0.4598548909
 40
0.4916005905
 40
0.5234501923
 40
0.5553857793
 40
0.5873877359
 40
0.6194351455
 40
0.6515062043
 40
0.6835786481
 40
0.7156301856
 40
0.7476389324
 40
0.7795838391
 40
0.8114451077
 40
0.8432045897
 40
0.8748461639
 40
0.9063560627
 40
0.9377232984
 40
0.9689394068
 40
1.0
 40
1.0
 40
1.0
 40
1.0
 10
8.8835503707
 20
6.922878784
 30
0.0
 10
8.875266209
 20
6.9152966012
 30
0.0
 10
8.8580842405
 20
6.9007701614
 30
0.0
 10
8.8306653386
 20
6.8810602294
 30
0.0
 10
8.801734097
 20
6.8635235721
 30
0.0
 10
8.771448789
 20
6.8482564647
 30
0.0
 10
8.7399723856
 20
6.835340521
 30
0.0
 10
8.7074749184
 20
6.8248452268
 30
0.0
 10
8.6741316687
 20
6.8168267793
 30
0.0
 10
8.6401224482
 20
6.8113279787
 30
0.0
 10
8.6056305392
 20
6.8083780129
 30
0.0
 10
8.5708417256
 20
6.8079923361
 30
0.0
 10
8.5359432907
 20
6.8101726056
 30
0.0
 10
8.5011230215
 20
6.8149066977
 30
0.0
 10
8.4665682002
 20
6.8221687413
 30
0.0
 10
8.4324646088
 20
6.8319193141
 30
0.0
 10
8.3989955475
 20
6.844105671
 30
0.0
 10
8.3663408642
 20
6.8586620304
 30
0.0
 10
8.3346760082
 20
6.8755099377
 30
0.0
 10
8.304171081
 20
6.8945586493
 30
0.0
 10
8.2749899378
 20
6.91570564
 30
0.0
 10
8.2472893309
 20
6.93883717
 30
0.0
 10
8.2212180755
 20
6.9638288842
 30
0.0
 10
8.1969162668
 20
6.9905464785
 30
0.0
 10
8.1745145137
 20
7.018846393
 30
0.0
 10
8.1541332351
 20
7.0485765764
 30
0.0
 10
8.1358820461
 20
7.0795773164
 30
0.0
 10
8.1198591697
 20
7.1116820858
 30
0.0
 10
8.106150914
 20
7.144718406
 30
0.0
 10
8.0948312108
 20
7.1785088283
 30
0.0
 10
8.0859611328
 20
7.2128716043
 30
0.0
 10
8.0795887664
 20
7.2476226246
 30
0.0
 10
8.0757485737
 20
7.2825726631
 30
0.0
 10
8.0748885577
 20
7.3059450749
 30
0.0
 10
8.0748885577
 20
7.3175977186
 30
0.0
  0
SPLINE
  5
3F9
100
AcDbEntity
  8
0
100
AcDbSpline
 62
7
  6
CONTINUOUS
 70
0
 71
3
 72
39
 73
35
 74
0
 42
0.0000001
 43
0.0000001
 44
0.0000000001
 40
0.0
 40
0.0
 40
0.0
 40
0.0
 40
0.0307265371
 40
0.0612837033
 40
0.0916944264
 40
0.1219869453
 40
0.1521938708
 40
0.1823510218
 40
0.2124960892
 40
0.2426672213
 40
0.2729015833
 40
0.3032339604
 40
0.3336954867
 40
0.3643125335
 40
0.3951058165
 40
0.4260897536
 40
0.4572720648
 40
0.4886536269
 40
0.5202285821
 40
0.5519846492
 40
0.5839036322
 40
0.6159621056
 40
0.6481322245
 40
0.6803826428
 40
0.7126795229
 40
0.7449875922
 40
0.7772712331
 40
0.80949558
 40
0.8416276025
 40
0.8736371462
 40
0.9054979107
 40
0.9371883678
 40
0.9686921241
 40
1.0
 40
1.0
 40
1.0
 40
1.0
 10
8.8435371436
 20
7.2095764557
 30
0.0
 10
8.8418572822
 20
7.2006845005
 30
0.0
 10
8.8376656345
 20
7.1830961681
 30
0.0
 10
8.8289051471
 20
7.1575096004
 30
0.0
 10
8.8177621476
 20
7.1330040773
 30
0.0
 10
8.804332011
 20
7.1097926909
 30
0.0
 10
8.7887290486
 20
7.0880737185
 30
0.0
 10
8.7710867485
 20
7.0680336599
 30
0.0
 10
8.7515561992
 20
7.0498442927
 30
0.0
 10
8.7303047712
 20
7.0336615761
 30
0.0
 10
8.7075147686
 20
7.019623969
 30
0.0
 10
8.6833816763
 20
7.0078513169
 30
0.0
 10
8.658112352
 20
6.9984439615
 30
0.0
 10
8.6319232864
 20
6.9914817025
 30
0.0
 10
8.6050386225
 20
6.9870232313
 30
0.0
 10
8.5776881842
 20
6.9851058743
 30
0.0
 10
8.5501055488
 20
6.9857451346
 30
0.0
 10
8.5225260194
 20
6.9889346544
 30
0.0
 10
8.4951846675
 20
6.9946465249
 30
0.0
 10
8.4683143636
 20
7.0028313795
 30
0.0
 10
8.4421437937
 20
7.0134188277
 30
0.0
 10
8.41689563
 20
7.0263182781
 30
0.0
 10
8.3927846414
 20
7.0414195601
 30
0.0
 10
8.3700158394
 20
7.0585938063
 30
0.0
 10
8.3487828939
 20
7.0776947339
 30
0.0
 10
8.3292664655
 20
7.0985597582
 30
0.0
 10
8.3116325865
 20
7.1210112813
 30
0.0
 10
8.2960314446
 20
7.1448583537
 30
0.0
 10
8.282596073
 20
7.169898162
 30
0.0
 10
8.2714410741
 20
7.1959177533
 30
0.0
 10
8.2626618457
 20
7.2226955768
 30
0.0
 10
8.2563338248
 20
7.2500045429
 30
0.0
 10
8.2525113248
 20
7.2776090919
 30
0.0
 10
8.2516529944
 20
7.2961186106
 30
0.0
 10
8.2516529944
 20
7.3053390633
 30
0.0
  0
SPLINE
  5
3FA
100
AcDbEntity
  8
0
100
AcDbSpline
 62
7
  6
CONTINUOUS
 70
0
 71
3
 72
50
 73
46
 74
0
 42
0.0000001
 43
0.0000001
 44
0.0000000001
 40
0.0
 40
0.0
 40
0.0
 40
0.0
 40
0.0153294815
 40
0.0306179361
 40
0.0458680001
 40
0.0610826581
 40
0.0762652126
 40
0.0914192482
 40
0.1065486085
 40
0.1216573531
 40
0.1367497311
 40
0.1518301423
 40
0.16690309
 40
0.1819731483
 40
0.1970449201
 40
0.2121229876
 40
0.2272118781
 40
0.2423160232
 40
0.2574397106
 40
0.272587054
 40
0.2877619574
 40
0.3029680712
 40
0.3182087722
 40
0.333487134
 40
0.3641590073
 40
0.3950098595
 40
0.4260511741
 40
0.4572880432
 40
0.4887191186
 40
0.5203367659
 40
0.5521274215
 40
0.584072119
 40
0.616147149
 40
0.6483248383
 40
0.680574429
 40
0.7128630181
 40
0.7451565434
 40
0.7774207971
 40
0.8096224387
 40
0.8417299946
 40
0.8737148117
 40
0.9055519542
 40
0.9372210676
 40
0.9687066173
 40
1.0
 40
1.0
 40
1.0
 40
1.0
 10
8.8462644104
 20
7.2264404245
 30
0.0
 10
8.8452678559
 20
7.2224562591
 30
0.0
 10
8.8430910629
 20
7.2145438414
 30
0.0
 10
8.8392761143
 20
7.2028579897
 30
0.0
 10
8.8349234965
 20
7.1913941361
 30
0.0
 10
8.8300422573
 20
7.1801761713
 30
0.0
 10
8.8246422961
 20
7.1692271057
 30
0.0
 10
8.8187347716
 20
7.1585694413
 30
0.0
 10
8.8123318213
 20
7.1482250716
 30
0.0
 10
8.8054465143
 20
7.1382153205
 30
0.0
 10
8.7980930771
 20
7.1285607152
 30
0.0
 10
8.7902866017
 20
7.1192811133
 30
0.0
 10
8.7820430754
 20
7.1103956469
 30
0.0
 10
8.7733795208
 20
7.1019225127
 30
0.0
 10
8.7643137104
 20
7.0938791609
 30
0.0
 10
8.7548642556
 20
7.0862821628
 30
0.0
 10
8.7450506476
 20
7.0791470518
 30
0.0
 10
8.7348930178
 20
7.0724885476
 30
0.0
 10
8.7244122481
 20
7.06632034
 30
0.0
 10
8.7136299355
 20
7.0606550219
 30
0.0
 10
8.7025681783
 20
7.0555043028
 30
0.0
 10
8.691249824
 20
7.0508787462
 30
0.0
 10
8.6796978176
 20
7.0467877271
 30
0.0
 10
8.6639979773
 20
7.0420516165
 30
0.0
 10
8.6438958571
 20
7.0375102805
 30
0.0
 10
8.6192685475
 20
7.0343177018
 30
0.0
 10
8.5943002458
 20
7.0333982131
 30
0.0
 10
8.5691973922
 20
7.0347591303
 30
0.0
 10
8.5441655765
 20
7.0383885259
 30
0.0
 10
8.5194101138
 20
7.0442559949
 30
0.0
 10
8.4951337735
 20
7.0523128316
 30
0.0
 10
8.4715353549
 20
7.0624925828
 30
0.0
 10
8.4488080235
 20
7.0747114758
 30
0.0
 10
8.4271377384
 20
7.0888690903
 30
0.0
 10
8.4067018274
 20
7.1048493061
 30
0.0
 10
8.3876675626
 20
7.1225211972
 30
0.0
 10
8.3701907087
 20
7.1417399848
 30
0.0
 10
8.3544143697
 20
7.1623483357
 30
0.0
 10
8.340467868
 20
7.1841776286
 30
0.0
 10
8.328465568
 20
7.2070491948
 30
0.0
 10
8.3185060055
 20
7.2307759018
 30
0.0
 10
8.3106711531
 20
7.2551633736
 30
0.0
 10
8.3050257546
 20
7.2800125974
 30
0.0
 10
8.3016164169
 20
7.3051173581
 30
0.0
 10
8.3008510623
 20
7.3219459717
 30
0.0
 10
8.3008510623
 20
7.330329755
 30
0.0
  0
SPLINE
  5
3FB
100
AcDbEntity
  8
0
100
AcDbSpline
 62
7
  6
CONTINUOUS
 70
0
 71
3
 72
43
 73
39
 74
0
 42
0.0000001
 43
0.0000001
 44
0.0000000001
 40
0.0
 40
0.0
 40
0.0
 40
0.0
 40
0.0149723204
 40
0.0299477006
 40
0.0449291793
 40
0.0599197625
 40
0.0899340837
 40
0.1200191761
 40
0.1350977684
 40
0.1502017219
 40
0.1804888825
 40
0.2109025329
 40
0.2414558125
 40
0.2721586361
 40
0.3030175147
 40
0.3340354591
 40
0.3652119671
 40
0.3965430872
 40
0.4280215545
 40
0.4596369905
 40
0.491376161
 40
0.5232232825
 40
0.5551603712
 40
0.5871676259
 40
0.6192238382
 40
0.6513068229
 40
0.683393863
 40
0.7154621607
 40
0.7474892906
 40
0.7794536471
 40
0.8113348816
 40
0.843114318
 40
0.8747753538
 40
0.9063037992
 40
0.9376882654
 40
0.9533260383
 40
0.9689254782
 40
1.0
 40
1.0
 40
1.0
 40
1.0
 10
8.7626460686
 20
7.136081971
 30
0.0
 10
8.7605348328
 20
7.1340426728
 30
0.0
 10
8.7562303753
 20
7.1300471178
 30
0.0
 10
8.7495398764
 20
7.1243145569
 30
0.0
 10
8.7426240551
 20
7.1188497332
 30
0.0
 10
8.7331127581
 20
7.1119287626
 30
0.0
 10
8.72070181
 20
7.1039808309
 30
0.0
 10
8.7076875028
 20
7.0970288671
 30
0.0
 10
8.696954094
 20
7.0920830966
 30
0.0
 10
8.6859988989
 20
7.0875457519
 30
0.0
 10
8.6719439305
 20
7.0826666942
 30
0.0
 10
8.6546232813
 20
7.0781195647
 30
0.0
 10
8.636924692
 20
7.0748982388
 30
0.0
 10
8.6189462379
 20
7.0730205083
 30
0.0
 10
8.600786681
 20
7.0724963888
 30
0.0
 10
8.5825459403
 20
7.0733285496
 30
0.0
 10
8.5643242714
 20
7.0755121831
 30
0.0
 10
8.5462217949
 20
7.0790350769
 30
0.0
 10
8.5283379323
 20
7.0838776794
 30
0.0
 10
8.5107708728
 20
7.0900132161
 30
0.0
 10
8.4936170405
 20
7.0974078404
 30
0.0
 10
8.4769705727
 20
7.1060208222
 30
0.0
 10
8.4609228109
 20
7.1158047724
 30
0.0
 10
8.4455618058
 20
7.1267059028
 30
0.0
 10
8.4309718405
 20
7.1386643201
 30
0.0
 10
8.4172329735
 20
7.1516143521
 30
0.0
 10
8.4044206044
 20
7.1654849055
 30
0.0
 10
8.3926050645
 20
7.1801998518
 30
0.0
 10
8.3818512342
 20
7.1956784427
 30
0.0
 10
8.3722181905
 20
7.2118357425
 30
0.0
 10
8.3637588841
 20
7.2285831084
 30
0.0
 10
8.3565198548
 20
7.2458286009
 30
0.0
 10
8.3505409545
 20
7.2634777388
 30
0.0
 10
8.3458552223
 20
7.2814330593
 30
0.0
 10
8.3430460144
 20
7.2965892924
 30
0.0
 10
8.3414701373
 20
7.3087671539
 30
0.0
 10
8.3403454718
 20
7.3209333595
 30
0.0
 10
8.3400049316
 20
7.3300883511
 30
0.0
 10
8.3400049316
 20
7.3361804863
 30
0.0
  0
SPLINE
  5
3FC
100
AcDbEntity
  8
0
100
AcDbSpline
 62
7
  6
CONTINUOUS
 70
0
 71
3
 72
39
 73
35
 74
0
 42
0.0000001
 43
0.0000001
 44
0.0000000001
 40
0.0
 40
0.0
 40
0.0
 40
0.0
 40
0.0300581264
 40
0.0602197521
 40
0.0904948621
 40
0.1208915554
 40
0.151415933
 40
0.1820720245
 40
0.2128617517
 40
0.2437849255
 40
0.2748392749
 40
0.3060205083
 40
0.3373224024
 40
0.3687369174
 40
0.4002543375
 40
0.4318634329
 40
0.4635516367
 40
0.4953052369
 40
0.5271095802
 40
0.5589492862
 40
0.5908084691
 40
0.6226709658
 40
0.6545205681
 40
0.6863412518
 40
0.7181174045
 40
0.7498340501
 40
0.781477064
 40
0.8130333837
 40
0.8444912193
 40
0.8758401705
 40
0.907071671
 40
0.9381782194
 40
0.9691559538
 40
1.0
 40
1.0
 40
1.0
 40
1.0
 10
8.8119777447
 20
7.2071719222
 30
0.0
 10
8.8073129638
 20
7.2053180918
 30
0.0
 10
8.7978416607
 20
7.2019119158
 30
0.0
 10
8.7833065028
 20
7.1977376224
 30
0.0
 10
8.7684748429
 20
7.1945053501
 30
0.0
 10
8.7534058997
 20
7.1922280543
 30
0.0
 10
8.7381587867
 20
7.1909145162
 30
0.0
 10
8.7227935746
 20
7.1905698162
 30
0.0
 10
8.7073707028
 20
7.1911951983
 30
0.0
 10
8.6919508373
 20
7.1927881036
 30
0.0
 10
8.67659461
 20
7.195342174
 30
0.0
 10
8.661362389
 20
7.1988472825
 30
0.0
 10
8.6463140436
 20
7.2032895752
 30
0.0
 10
8.631508711
 20
7.2086515214
 30
0.0
 10
8.6170045594
 20
7.2149119727
 30
0.0
 10
8.6028585676
 20
7.2220462655
 30
0.0
 10
8.5891263023
 20
7.230026316
 30
0.0
 10
8.5758617042
 20
7.2388207302
 30
0.0
 10
8.5631168775
 20
7.2483949267
 30
0.0
 10
8.5509418894
 20
7.2587112717
 30
0.0
 10
8.5393845727
 20
7.2697292229
 30
0.0
 10
8.5284903273
 20
7.2814054773
 30
0.0
 10
8.5183019559
 20
7.2936941567
 30
0.0
 10
8.5088594964
 20
7.306546984
 30
0.0
 10
8.5002000664
 20
7.3199134713
 30
0.0
 10
8.4923577187
 20
7.3337411156
 30
0.0
 10
8.4853633095
 20
7.3479756024
 30
0.0
 10
8.4792443716
 20
7.3625610181
 30
0.0
 10
8.4740250097
 20
7.3774400512
 30
0.0
 10
8.4697257562
 20
7.3925542706
 30
0.0
 10
8.4663636654
 20
7.4078441783
 30
0.0
 10
8.463951866
 20
7.4232500196
 30
0.0
 10
8.4625001621
 20
7.4387102858
 30
0.0
 10
8.4621754423
 20
7.4490372494
 30
0.0
 10
8.4621754423
 20
7.4541881447
 30
0.0
  0
SPLINE
  5
3FD
100
AcDbEntity
  8
0
100
AcDbSpline
 62
7
  6
CONTINUOUS
 70
0
 71
3
 72
23
 73
19
 74
0
 42
0.0000001
 43
0.0000001
 44
0.0000000001
 40
0.0
 40
0.0
 40
0.0
 40
0.0
 40
0.0616917626
 40
0.1234138647
 40
0.1851856856
 40
0.2470261295
 40
0.3089534427
 40
0.3709850455
 40
0.4331373819
 40
0.4954257624
 40
0.5578642233
 40
0.6204654266
 40
0.68324047
 40
0.7461990158
 40
0.8093490673
 40
0.8726958194
 40
0.9362469603
 40
1.0
 40
1.0
 40
1.0
 40
1.0
 10
8.2001366927
 20
7.6304045498
 30
0.0
 10
8.1951601432
 20
7.6253320539
 30
0.0
 10
8.185455485
 20
7.614934873
 30
0.0
 10
8.1716884366
 20
7.5986304686
 30
0.0
 10
8.1587372051
 20
7.5816485827
 30
0.0
 10
8.1466302259
 20
7.5640263622
 30
0.0
 10
8.1353935066
 20
7.5458017014
 30
0.0
 10
8.1250512727
 20
7.5270140027
 30
0.0
 10
8.1156257988
 20
7.5077038124
 30
0.0
 10
8.1071374114
 20
7.4879128024
 30
0.0
 10
8.0996044187
 20
7.4676836737
 30
0.0
 10
8.0930430038
 20
7.4470600985
 30
0.0
 10
8.087467259
 20
7.4260865782
 30
0.0
 10
8.0828891878
 20
7.4048083256
 30
0.0
 10
8.079318709
 20
7.3832713682
 30
0.0
 10
8.0767632652
 20
7.3615217499
 30
0.0
 10
8.0752286148
 20
7.3396073005
 30
0.0
 10
8.0748885577
 20
7.3249412224
 30
0.0
 10
8.0748885577
 20
7.3175977186
 30
0.0
  0
SPLINE
  5
3FE
100
AcDbEntity
  8
0
100
AcDbSpline
 62
7
  6
CONTINUOUS
 70
0
 71
3
 72
23
 73
19
 74
0
 42
0.0000001
 43
0.0000001
 44
0.0000000001
 40
0.0
 40
0.0
 40
0.0
 40
0.0
 40
0.0630509504
 40
0.1257810803
 40
0.1882283612
 40
0.2504393919
 40
0.3124680642
 40
0.3743739575
 40
0.43622051
 40
0.4980730344
 40
0.559996654
 40
0.6220542484
 40
0.6843044932
 40
0.7468000664
 40
0.8095860508
 40
0.8726989365
 40
0.9361643539
 40
1.0
 40
1.0
 40
1.0
 40
1.0
 10
8.485273654
 20
7.5804781225
 30
0.0
 10
8.4770936382
 20
7.5792246087
 30
0.0
 10
8.4608742335
 20
7.5760168192
 30
0.0
 10
8.4371215657
 20
7.5691131784
 30
0.0
 10
8.4141719469
 20
7.5601779735
 30
0.0
 10
8.3921920101
 20
7.549275083
 30
0.0
 10
8.3713385142
 20
7.5364820692
 30
0.0
 10
8.3517610108
 20
7.52189027
 30
0.0
 10
8.3335997174
 20
7.5056039766
 30
0.0
 10
8.3169847074
 20
7.4877397587
 30
0.0
 10
8.302034859
 20
7.4684255807
 30
0.0
 10
8.288857033
 20
7.4477998098
 30
0.0
 10
8.2775452819
 20
7.4260102088
 30
0.0
 10
8.2681802079
 20
7.4032127629
 30
0.0
 10
8.2608282938
 20
7.3795707906
 30
0.0
 10
8.2555416508
 20
7.3552528319
 30
0.0
 10
8.2523573372
 20
7.3304348865
 30
0.0
 10
8.2516529944
 20
7.3137175587
 30
0.0
 10
8.2516529944
 20
7.3053390633
 30
0.0
  0
SPLINE
  5
3FF
100
AcDbEntity
  8
0
100
AcDbSpline
 62
7
  6
CONTINUOUS
 70
0
 71
3
 72
23
 73
19
 74
0
 42
0.0000001
 43
0.0000001
 44
0.0000000001
 40
0.0
 40
0.0
 40
0.0
 40
0.0
 40
0.0628648392
 40
0.1254440758
 40
0.1877775334
 40
0.2499119675
 40
0.3118998097
 40
0.373797708
 40
0.4356649117
 40
0.4975615606
 40
0.5595469404
 40
0.62167777
 40
0.6840065836
 40
0.7465802781
 40
0.809438776
 40
0.8726143768
 40
0.93612957
 40
1.0
 40
1.0
 40
1.0
 40
1.0
 10
8.5022094763
 20
7.5826166572
 30
0.0
 10
8.4950458612
 20
7.5810861381
 30
0.0
 10
8.4808712144
 20
7.5774338177
 30
0.0
 10
8.4601950118
 20
7.5701982599
 30
0.0
 10
8.4402850012
 20
7.561264587
 30
0.0
 10
8.4212739349
 20
7.5506915562
 30
0.0
 10
8.40328623
 20
7.5385482633
 30
0.0
 10
8.3864402493
 20
7.5249143585
 30
0.0
 10
8.3708466653
 20
7.5098793269
 30
0.0
 10
8.3566079257
 20
7.493541938
 30
0.0
 10
8.3438174965
 20
7.4760095627
 30
0.0
 10
8.3325592535
 20
7.4573974368
 30
0.0
 10
8.3229069091
 20
7.4378278935
 30
0.0
 10
8.314923538
 20
7.4174294759
 30
0.0
 10
8.3086611422
 20
7.3963362458
 30
0.0
 10
8.3041604918
 20
7.3746861697
 30
0.0
 10
8.3014505442
 20
7.3526230281
 30
0.0
 10
8.3008510623
 20
7.3377722207
 30
0.0
 10
8.3008510623
 20
7.330329755
 30
0.0
  0
SPLINE
  5
400
100
AcDbEntity
  8
0
100
AcDbSpline
 62
7
  6
CONTINUOUS
 70
0
 71
3
 72
15
 73
11
 74
0
 42
0.0000001
 43
0.0000001
 44
0.0000000001
 40
0.0
 40
0.0
 40
0.0
 40
0.0
 40
0.1233733694
 40
0.2470523798
 40
0.3711316686
 40
0.4956953092
 40
0.6208147035
 40
0.7465472312
 40
0.8729330667
 40
1.0
 40
1.0
 40
1.0
 40
1.0
 10
10.978841445
 20
8.1919680765
 30
0.0
 10
10.9719725998
 20
8.1828936305
 30
0.0
 10
10.9589692196
 20
8.1641394222
 30
0.0
 10
10.9418420035
 20
8.1344523146
 30
0.0
 10
10.9271708113
 20
8.1033540692
 30
0.0
 10
10.9150464307
 20
8.0710364842
 30
0.0
 10
10.9055416308
 20
8.0376957702
 30
0.0
 10
10.8987138591
 20
8.0035342817
 30
0.0
 10
10.8946038485
 20
7.9687622907
 30
0.0
 10
10.8936945541
 20
7.9453711172
 30
0.0
 10
10.8936945541
 20
7.9336494169
 30
0.0
  0
SPLINE
  5
401
100
AcDbEntity
  8
0
100
AcDbSpline
 62
7
  6
CONTINUOUS
 70
0
 71
3
 72
21
 73
17
 74
0
 42
0.0000001
 43
0.0000001
 44
0.0000000001
 40
0.0
 40
0.0
 40
0.0
 40
0.0
 40
0.0617147761
 40
0.1234506677
 40
0.1852285528
 40
0.2470689013
 40
0.30899155
 40
0.3710154761
 40
0.4331586505
 40
0.4954378572
 40
0.5578685131
 40
0.6204644763
 40
0.6832380473
 40
0.746200107
 40
0.8726822618
 40
1.0
 40
1.0
 40
1.0
 40
1.0
 10
8.4090200693
 20
7.5021825231
 30
0.0
 10
8.4062873629
 20
7.49954293
 30
0.0
 10
8.4009558516
 20
7.4941211588
 30
0.0
 10
8.3933860172
 20
7.4855864579
 30
0.0
 10
8.386259539
 20
7.4766679323
 30
0.0
 10
8.3795930755
 20
7.4673864743
 30
0.0
 10
8.3734019971
 20
7.4577633648
 30
0.0
 10
8.367700561
 20
7.4478208516
 30
0.0
 10
8.3625018426
 20
7.4375818897
 30
0.0
 10
8.3578179059
 20
7.4270700575
 30
0.0
 10
8.3536594834
 20
7.4163096085
 30
0.0
 10
8.3500361013
 20
7.4053254513
 30
0.0
 10
8.3469561539
 20
7.3941425766
 30
0.0
 10
8.343578847
 20
7.3789814267
 30
0.0
 10
8.3407531179
 20
7.3596534029
 30
0.0
 10
8.3400049316
 20
7.3440185754
 30
0.0
 10
8.3400049316
 20
7.3361804863
 30
0.0
  0
SPLINE
  5
402
100
AcDbEntity
  8
0
100
AcDbSpline
 62
7
  6
CONTINUOUS
 70
0
 71
3
 72
13
 73
9
 74
0
 42
0.0000001
 43
0.0000001
 44
0.0000000001
 40
0.0
 40
0.0
 40
0.0
 40
0.0
 40
0.1236916481
 40
0.2477174338
 40
0.3721049965
 40
0.4968789123
 40
0.7475740471
 40
1.0
 40
1.0
 40
1.0
 40
1.0
 10
8.4817772143
 20
7.5490217712
 30
0.0
 10
8.4801639388
 20
7.5453395567
 30
0.0
 10
8.4771275939
 20
7.5378781806
 30
0.0
 10
8.4731625716
 20
7.5264472725
 30
0.0
 10
8.4697905773
 20
7.5147903995
 30
0.0
 10
8.466091516
 20
7.4989648353
 30
0.0
 10
8.4629951285
 20
7.4787558775
 30
0.0
 10
8.4621754423
 20
7.462392276
 30
0.0
 10
8.4621754423
 20
7.4541881447
 30
0.0
  0
SPLINE
  5
403
100
AcDbEntity
  8
0
100
AcDbSpline
 62
7
  6
CONTINUOUS
 70
0
 71
3
 72
15
 73
11
 74
0
 42
0.0000001
 43
0.0000001
 44
0.0000000001
 40
0.0
 40
0.0
 40
0.0
 40
0.0
 40
0.1234511986
 40
0.2472467049
 40
0.3714457392
 40
0.4961000834
 40
0.621253035
 40
0.7469393263
 40
0.8731827972
 40
1.0
 40
1.0
 40
1.0
 40
1.0
 10
10.9020538746
 20
8.1701895424
 30
0.0
 10
10.8965817592
 20
8.161117876
 30
0.0
 10
10.886252964
 20
8.1425602462
 30
0.0
 10
10.872708599
 20
8.1136775356
 30
0.0
 10
10.8611484409
 20
8.0838328144
 30
0.0
 10
10.8516231571
 20
8.05315643
 30
0.0
 10
10.8441732177
 20
8.0217802072
 30
0.0
 10
10.8388305945
 20
7.9898389809
 30
0.0
 10
10.8356179077
 20
7.9574720025
 30
0.0
 10
10.8349068078
 20
7.9357479732
 30
0.0
 10
10.8349068078
 20
7.9248648111
 30
0.0
  0
SPLINE
  5
404
100
AcDbEntity
  8
0
100
AcDbSpline
 62
7
  6
CONTINUOUS
 70
0
 71
3
 72
39
 73
35
 74
0
 42
0.0000001
 43
0.0000001
 44
0.0000000001
 40
0.0
 40
0.0
 40
0.0
 40
0.0
 40
0.0300137256
 40
0.0601242954
 40
0.0903436639
 40
0.1206818682
 40
0.1511468752
 40
0.1817444702
 40
0.2124781854
 40
0.2433492713
 40
0.274356705
 40
0.3054972373
 40
0.3367654732
 40
0.3681539839
 40
0.3996534474
 40
0.431252814
 40
0.4629394942
 40
0.4946995643
 40
0.5265179873
 40
0.5583788464
 40
0.5902655876
 40
0.6221612695
 40
0.6540488166
 40
0.6859112746
 40
0.7177320643
 40
0.7494952321
 40
0.7811856943
 40
0.8127894671
 40
0.8442939054
 40
0.8756878445
 40
0.9069620015
 40
0.9381085151
 40
0.9691226623
 40
1.0
 40
1.0
 40
1.0
 40
1.0
 10
8.8184832939
 20
7.2239149531
 30
0.0
 10
8.8140497753
 20
7.2218686173
 30
0.0
 10
8.8050258933
 20
7.2180705228
 30
0.0
 10
8.7911145227
 20
7.2132933849
 30
0.0
 10
8.7768625331
 20
7.2094461959
 30
0.0
 10
8.7623297902
 20
7.2065451776
 30
0.0
 10
8.7475762786
 20
7.2046021304
 30
0.0
 10
8.7326631495
 20
7.2036250157
 30
0.0
 10
8.717652118
 20
7.2036177592
 30
0.0
 10
8.7026053023
 20
7.2045802841
 30
0.0
 10
8.6875849431
 20
7.2065085038
 30
0.0
 10
8.6726531552
 20
7.2093943453
 30
0.0
 10
8.6578716711
 20
7.2132257843
 30
0.0
 10
8.643301589
 20
7.2179868978
 30
0.0
 10
8.6290031229
 20
7.2236579299
 30
0.0
 10
8.615035354
 20
7.2302153707
 30
0.0
 10
8.6014559909
 20
7.2376320603
 30
0.0
 10
8.5883211334
 20
7.2458773001
 30
0.0
 10
8.5756850435
 20
7.2549169798
 30
0.0
 10
8.5635999233
 20
7.2647137172
 30
0.0
 10
8.5521157014
 20
7.2752270124
 30
0.0
 10
8.5412798288
 20
7.2864134136
 30
0.0
 10
8.5311370844
 20
7.2982266954
 30
0.0
 10
8.5217293913
 20
7.3106180481
 30
0.0
 10
8.5130956448
 20
7.3235362771
 30
0.0
 10
8.5052715469
 20
7.3369280109
 30
0.0
 10
8.4982894674
 20
7.3507379226
 30
0.0
 10
8.4921783018
 20
7.3649089582
 30
0.0
 10
8.4869633748
 20
7.3793825606
 30
0.0
 10
8.482666279
 20
7.3940989472
 30
0.0
 10
8.4793049144
 20
7.4089972104
 30
0.0
 10
8.4768931555
 20
7.4240160617
 30
0.0
 10
8.4754412158
 20
7.4390924945
 30
0.0
 10
8.4751163946
 20
7.4491646543
 30
0.0
 10
8.4751163946
 20
7.4541881455
 30
0.0
  0
SPLINE
  5
405
100
AcDbEntity
  8
0
100
AcDbSpline
 62
7
  6
CONTINUOUS
 70
0
 71
3
 72
15
 73
11
 74
0
 42
0.0000001
 43
0.0000001
 44
0.0000000001
 40
0.0
 40
0.0
 40
0.0
 40
0.0
 40
0.1233882443
 40
0.2470995725
 40
0.3712161218
 40
0.4958104374
 40
0.6209438343
 40
0.7466654841
 40
0.8730095791
 40
1.0
 40
1.0
 40
1.0
 40
1.0
 10
10.883958876
 20
8.1626671572
 30
0.0
 10
10.8771002134
 20
8.1529291656
 30
0.0
 10
10.8641293423
 20
8.1328763802
 30
0.0
 10
10.8470713866
 20
8.1013230086
 30
0.0
 10
10.8324778138
 20
8.068427413
 30
0.0
 10
10.8204298612
 20
8.0343720604
 30
0.0
 10
10.8109925441
 20
7.9993428843
 30
0.0
 10
10.8042171993
 20
7.9635310926
 30
0.0
 10
10.8001402034
 20
7.9271349388
 30
0.0
 10
10.7992380874
 20
7.9026701041
 30
0.0
 10
10.7992380874
 20
7.8904114708
 30
0.0
  0
SPLINE
  5
406
100
AcDbEntity
  8
0
100
AcDbSpline
 62
7
  6
CONTINUOUS
 70
0
 71
3
 72
15
 73
11
 74
0
 42
0.0000001
 43
0.0000001
 44
0.0000000001
 40
0.0
 40
0.0
 40
0.0
 40
0.0
 40
0.1234572711
 40
0.2472596132
 40
0.371464773
 40
0.4961232102
 40
0.6212770932
 40
0.7469602255
 40
0.8731958544
 40
1.0
 40
1.0
 40
1.0
 40
1.0
 10
10.8408016927
 20
8.1418711527
 30
0.0
 10
10.8351785675
 20
8.1324422437
 30
0.0
 10
10.8245661013
 20
8.113162057
 30
0.0
 10
10.8106523546
 20
8.0831760885
 30
0.0
 10
10.7987787996
 20
8.0522094483
 30
0.0
 10
10.7889965378
 20
8.0203949537
 30
0.0
 10
10.781346387
 20
7.9878668593
 30
0.0
 10
10.775860587
 20
7.9547624334
 30
0.0
 10
10.772561954
 20
7.9212234081
 30
0.0
 10
10.7718318118
 20
7.8987149939
 30
0.0
 10
10.7718318118
 20
7.8874390399
 30
0.0
  0
SPLINE
  5
407
100
AcDbEntity
  8
0
100
AcDbSpline
 62
7
  6
CONTINUOUS
 70
0
 71
3
 72
23
 73
19
 74
0
 42
0.0000001
 43
0.0000001
 44
0.0000000001
 40
0.0
 40
0.0
 40
0.0
 40
0.0
 40
0.0617101454
 40
0.1234413989
 40
0.1852146487
 40
0.247050356
 40
0.3089683484
 40
0.3709876189
 40
0.4331261353
 40
0.495400665
 40
0.5578266135
 40
0.620417907
 40
0.6831868089
 40
0.7461438636
 40
0.809298024
 40
0.8726551577
 40
0.9362228294
 40
1.0
 40
1.0
 40
1.0
 40
1.0
 10
10.7402012712
 20
8.0676635524
 30
0.0
 10
10.7344030022
 20
8.0620628351
 30
0.0
 10
10.723090569
 20
8.0505588733
 30
0.0
 10
10.7070288365
 20
8.0324498824
 30
0.0
 10
10.6919077925
 20
8.0135265092
 30
0.0
 10
10.6777628996
 20
7.9938329992
 30
0.0
 10
10.6646265944
 20
7.9734146351
 30
0.0
 10
10.6525291966
 20
7.9523185604
 30
0.0
 10
10.6414985854
 20
7.9305934198
 30
0.0
 10
10.6315601532
 20
7.9082893407
 30
0.0
 10
10.6227367528
 20
7.8854577756
 30
0.0
 10
10.6150486833
 20
7.8621513788
 30
0.0
 10
10.6085136251
 20
7.8384238967
 30
0.0
 10
10.603146594
 20
7.8143299933
 30
0.0
 10
10.5989599689
 20
7.7899253595
 30
0.0
 10
10.5959631337
 20
7.7652658239
 30
0.0
 10
10.5941632358
 20
7.7404092378
 30
0.0
 10
10.5937644558
 20
7.7237707085
 30
0.0
 10
10.5937644558
 20
7.7154391716
 30
0.0
  0
SPLINE
  5
408
100
AcDbEntity
  8
0
100
AcDbSpline
 62
7
  6
CONTINUOUS
 70
0
 71
3
 72
24
 73
20
 74
0
 42
0.0000001
 43
0.0000001
 44
0.0000000001
 40
0.0
 40
0.0
 40
0.0
 40
0.0
 40
0.0307591877
 40
0.0616050388
 40
0.123531903
 40
0.1857657788
 40
0.248269529
 40
0.3109985503
 40
0.3739020782
 40
0.4369246108
 40
0.5000074449
 40
0.5630902607
 40
0.6261127367
 40
0.6890161691
 40
0.7517450645
 40
0.8142486569
 40
0.8764823518
 40
0.9384089916
 40
1.0
 40
1.0
 40
1.0
 40
1.0
 10
11.6192270813
 20
7.7782049585
 30
0.0
 10
11.6131547083
 20
7.7791052098
 30
0.0
 10
11.6010293997
 20
7.7811668657
 30
0.0
 10
11.5769147663
 20
7.786321708
 30
0.0
 10
11.5470919558
 20
7.794690516
 30
0.0
 10
11.5121435324
 20
7.8077097966
 30
0.0
 10
11.4782367171
 20
7.8236237628
 30
0.0
 10
11.4456242352
 20
7.8423138557
 30
0.0
 10
11.4145469105
 20
7.8636415115
 30
0.0
 10
11.3852347293
 20
7.8874485139
 30
0.0
 10
11.3579045959
 20
7.9135585989
 30
0.0
 10
11.3327587696
 20
7.9417784307
 30
0.0
 10
11.3099833671
 20
7.9718991296
 30
0.0
 10
11.2897472016
 20
8.0036978751
 30
0.0
 10
11.2722002136
 20
8.0369394122
 30
0.0
 10
11.257472679
 20
8.0713775536
 30
0.0
 10
11.2456740567
 20
8.1067584181
 30
0.0
 10
11.2368925449
 20
8.1428165603
 30
0.0
 10
11.2330817514
 20
8.1672062386
 30
0.0
 10
11.2317022531
 20
8.1794205662
 30
0.0
  0
SPLINE
  5
409
100
AcDbEntity
  8
0
100
AcDbSpline
 62
7
  6
CONTINUOUS
 70
0
 71
3
 72
39
 73
35
 74
0
 42
0.0000001
 43
0.0000001
 44
0.0000000001
 40
0.0
 40
0.0
 40
0.0
 40
0.0
 40
0.0304342553
 40
0.0609816151
 40
0.0916428478
 40
0.1224174101
 40
0.1533034672
 40
0.1842979266
 40
0.2153964869
 40
0.2465936983
 40
0.2778830334
 40
0.3092569664
 40
0.3407070623
 40
0.3722240733
 40
0.4037980411
 40
0.435418408
 40
0.4670741306
 40
0.4987537964
 40
0.5304457438
 40
0.5621381826
 40
0.5938193169
 40
0.6254774679
 40
0.6571011971
 40
0.6886794262
 40
0.7202015541
 40
0.7516575704
 40
0.7830381636
 40
0.8143348255
 40
0.8455399566
 40
0.8766469084
 40
0.9076502706
 40
0.9385452477
 40
0.9693295893
 40
1.0
 40
1.0
 40
1.0
 40
1.0
 10
11.6339865485
 20
7.6972047283
 30
0.0
 10
11.6264781814
 20
7.6966179262
 30
0.0
 10
11.6113982826
 20
7.6958528046
 30
0.0
 10
11.588710038
 20
7.6959300893
 30
0.0
 10
11.5659739894
 20
7.6972297276
 30
0.0
 10
11.5432564656
 20
7.6997479618
 30
0.0
 10
11.5206226082
 20
7.7034774635
 30
0.0
 10
11.4981376113
 20
7.7084074356
 30
0.0
 10
11.4758661469
 20
7.7145236158
 30
0.0
 10
11.4538722871
 20
7.7218083427
 30
0.0
 10
11.4322192925
 20
7.7302406017
 30
0.0
 10
11.4109694407
 20
7.7397960875
 30
0.0
 10
11.390183847
 20
7.7504472729
 30
0.0
 10
11.3699222922
 20
7.7621634904
 30
0.0
 10
11.3502430446
 20
7.7749110063
 30
0.0
 10
11.3312026923
 20
7.7886531213
 30
0.0
 10
11.3128559885
 20
7.8033502872
 30
0.0
 10
11.295255694
 20
7.8189602171
 30
0.0
 10
11.2784524274
 20
7.8354380067
 30
0.0
 10
11.2624945206
 20
7.8527362615
 30
0.0
 10
11.2474278835
 20
7.8708052341
 30
0.0
 10
11.2332958573
 20
7.889592954
 30
0.0
 10
11.220139097
 20
7.909045385
 30
0.0
 10
11.2079954612
 20
7.9291065843
 30
0.0
 10
11.196899903
 20
7.9497188605
 30
0.0
 10
11.1868843707
 20
7.9708229381
 30
0.0
 10
11.1779777162
 20
7.9923581254
 30
0.0
 10
11.17020561
 20
8.0142624906
 30
0.0
 10
11.1635904663
 20
8.0364730192
 30
0.0
 10
11.1581513296
 20
8.0589258565
 30
0.0
 10
11.1539039915
 20
8.081556288
 30
0.0
 10
11.150860577
 20
8.1042995817
 30
0.0
 10
11.1490301437
 20
8.1270892536
 30
0.0
 10
11.1486211705
 20
8.1422999326
 30
0.0
 10
11.1486211705
 20
8.1498896341
 30
0.0
  0
SPLINE
  5
40A
100
AcDbEntity
  8
0
100
AcDbSpline
 62
7
  6
CONTINUOUS
 70
0
 71
3
 72
39
 73
35
 74
0
 42
0.0000001
 43
0.0000001
 44
0.0000000001
 40
0.0
 40
0.0
 40
0.0
 40
0.0
 40
0.0304133839
 40
0.0609403934
 40
0.0915821277
 40
0.1223383395
 40
0.1532074528
 40
0.1841865967
 40
0.2152716517
 40
0.2464573095
 40
0.2777371424
 40
0.3091036846
 40
0.3405485216
 40
0.3720623892
 40
0.4036352794
 40
0.4352565531
 40
0.4669150558
 40
0.4985992382
 40
0.5302972784
 40
0.561997208
 40
0.5936870375
 40
0.6253548848
 40
0.6569891009
 40
0.6885783942
 40
0.7201119507
 40
0.7515795525
 40
0.7829716895
 40
0.8142796674
 40
0.8454957186
 40
0.8766130438
 40
0.9076261021
 40
0.9385300129
 40
0.9693224006
 40
1.0
 40
1.0
 40
1.0
 40
1.0
 10
11.6364453998
 20
7.6612534967
 30
0.0
 10
11.6283774102
 20
7.6605122505
 30
0.0
 10
11.6121668886
 20
7.6594724097
 30
0.0
 10
11.5877595268
 20
7.6592421278
 30
0.0
 10
11.5632836753
 20
7.6603386993
 30
0.0
 10
11.5388118623
 20
7.6627589353
 30
0.0
 10
11.5144153615
 20
7.6664956478
 30
0.0
 10
11.4901655441
 20
7.6715378352
 30
0.0
 10
11.4661332527
 20
7.6778706824
 30
0.0
 10
11.442388709
 20
7.6854756141
 30
0.0
 10
11.4190012806
 20
7.6943303477
 30
0.0
 10
11.3960392886
 20
7.7044089587
 30
0.0
 10
11.3735698097
 20
7.7156819589
 30
0.0
 10
11.3516584754
 20
7.7281163696
 30
0.0
 10
11.3303692803
 20
7.7416758207
 30
0.0
 10
11.3097644028
 20
7.7563206682
 30
0.0
 10
11.2899040229
 20
7.7720081065
 30
0.0
 10
11.2708461498
 20
7.7886922939
 30
0.0
 10
11.2526464528
 20
7.806324484
 30
0.0
 10
11.2353581019
 20
7.8248531694
 30
0.0
 10
11.2190316069
 20
7.8442242236
 30
0.0
 10
11.203714664
 20
7.8643810565
 30
0.0
 10
11.1894520293
 20
7.8852647898
 30
0.0
 10
11.1762853869
 20
7.9068144253
 30
0.0
 10
11.1642532286
 20
7.928967022
 30
0.0
 10
11.1533907421
 20
7.9516578779
 30
0.0
 10
11.1437297103
 20
7.9748207171
 30
0.0
 10
11.1352984091
 20
7.9983878826
 30
0.0
 10
11.128121533
 20
8.0222905156
 30
0.0
 10
11.1222200707
 20
8.0464588208
 30
0.0
 10
11.1176114212
 20
8.0708220538
 30
0.0
 10
11.1143089585
 20
8.095309424
 30
0.0
 10
11.1123226489
 20
8.1198482415
 30
0.0
 10
11.1118788291
 20
8.1362269007
 30
0.0
 10
11.1118788291
 20
8.1443992554
 30
0.0
  0
SPLINE
  5
40B
100
AcDbEntity
  8
0
100
AcDbSpline
 62
7
  6
CONTINUOUS
 70
0
 71
3
 72
43
 73
39
 74
0
 42
0.0000001
 43
0.0000001
 44
0.0000000001
 40
0.0
 40
0.0
 40
0.0
 40
0.0
 40
0.0149603362
 40
0.0299341758
 40
0.0449239842
 40
0.0599321478
 40
0.0900074729
 40
0.1201822008
 40
0.1353140662
 40
0.1504761479
 40
0.1656699311
 40
0.1808967295
 40
0.2114489514
 40
0.2421448433
 40
0.272988647
 40
0.3039816967
 40
0.3351224349
 40
0.3664064826
 40
0.3978267611
 40
0.4293736583
 40
0.4610352363
 40
0.492797474
 40
0.5246445403
 40
0.5565590917
 40
0.5885225894
 40
0.6205156327
 40
0.6525183021
 40
0.6845105091
 40
0.7164723487
 40
0.7483844487
 40
0.7802283133
 40
0.8119866563
 40
0.8436437149
 40
0.8751855573
 40
0.9066003098
 40
0.937878564
 40
0.9690130545
 40
1.0
 40
1.0
 40
1.0
 40
1.0
 10
11.6232734565
 20
7.5252311374
 30
0.0
 10
11.619116782
 20
7.5223011081
 30
0.0
 10
11.6106896744
 20
7.5165926913
 30
0.0
 10
11.5977337113
 20
7.5085021521
 30
0.0
 10
11.5844722022
 20
7.5008893137
 30
0.0
 10
11.566394311
 20
7.4913829611
 30
0.0
 10
11.5431040298
 20
7.4807378376
 30
0.0
 10
11.5190566717
 20
7.4718151205
 30
0.0
 10
11.4994199226
 20
7.4657255467
 30
0.0
 10
11.4844910637
 20
7.4616832442
 30
0.0
 10
11.4693944488
 20
7.4581758335
 30
0.0
 10
11.4490460089
 20
7.4542137487
 30
0.0
 10
11.4232744372
 20
7.4506213391
 30
0.0
 10
11.3920149326
 20
7.4485083326
 30
0.0
 10
11.3605339079
 20
7.4485973394
 30
0.0
 10
11.32898517
 20
7.4508878365
 30
0.0
 10
11.2975214588
 20
7.4553683536
 30
0.0
 10
11.2662954061
 20
7.4620168978
 30
0.0
 10
11.2354583466
 20
7.4708009727
 30
0.0
 10
11.2051597174
 20
7.4816777699
 30
0.0
 10
11.1755463087
 20
7.4945943696
 30
0.0
 10
11.1467615673
 20
7.5094879992
 30
0.0
 10
11.1189449112
 20
7.5262863461
 30
0.0
 10
11.0922310623
 20
7.5449079061
 30
0.0
 10
11.0667494014
 20
7.565262377
 30
0.0
 10
11.0426233489
 20
7.5872510933
 30
0.0
 10
11.0199697727
 20
7.6107675008
 30
0.0
 10
10.9988984277
 20
7.6356976682
 30
0.0
 10
10.9795114296
 20
7.6619208338
 30
0.0
 10
10.9619027626
 20
7.6893099844
 30
0.0
 10
10.9461578203
 20
7.71773246
 30
0.0
 10
10.9323530041
 20
7.7470505998
 30
0.0
 10
10.9205553454
 20
7.777122384
 30
0.0
 10
10.9108222066
 20
7.8078021727
 30
0.0
 10
10.9032009315
 20
7.8389411924
 30
0.0
 10
10.8977287806
 20
7.8703890265
 30
0.0
 10
10.894432422
 20
7.9019912822
 30
0.0
 10
10.8936945541
 20
7.9231158129
 30
0.0
 10
10.8936945541
 20
7.9336494169
 30
0.0
  0
SPLINE
  5
40C
100
AcDbEntity
  8
0
100
AcDbSpline
 62
7
  6
CONTINUOUS
 70
0
 71
3
 72
45
 73
41
 74
0
 42
0.0000001
 43
0.0000001
 44
0.0000000001
 40
0.0
 40
0.0
 40
0.0
 40
0.0
 40
0.0149755525
 40
0.0299704131
 40
0.044986582
 40
0.0600259577
 40
0.0901767877
 40
0.1204403537
 40
0.1356200884
 40
0.1508318296
 40
0.1660765573
 40
0.1813550954
 40
0.212011778
 40
0.2428097685
 40
0.2737500167
 40
0.3048309604
 40
0.3360485864
 40
0.3673965317
 40
0.3988662209
 40
0.430447036
 40
0.4621265146
 40
0.4938905727
 40
0.5257237482
 40
0.5576094601
 40
0.5895302821
 40
0.6214682246
 40
0.6534050245
 40
0.6853224366
 40
0.7172025258
 40
0.7490279557
 40
0.7807822701
 40
0.8124501655
 40
0.8440177462
 40
0.8597620338
 40
0.8754768051
 40
0.9068088837
 40
0.9380097964
 40
0.9535609286
 40
0.9690773859
 40
1.0
 40
1.0
 40
1.0
 40
1.0
 10
11.5982808446
 20
7.4488929861
 30
0.0
 10
11.5935863144
 20
7.4462835887
 30
0.0
 10
11.5840979417
 20
7.4412272151
 30
0.0
 10
11.5695975754
 20
7.4341447231
 30
0.0
 10
11.5548358137
 20
7.4275671739
 30
0.0
 10
11.5348127624
 20
7.4194741602
 30
0.0
 10
11.509203534
 20
7.410655847
 30
0.0
 10
11.482995908
 20
7.4036229946
 30
0.0
 10
11.461718929
 20
7.3990753793
 30
0.0
 10
11.4456018429
 20
7.3962045935
 30
0.0
 10
11.4293610631
 20
7.3938808501
 30
0.0
 10
11.4075434855
 20
7.3915127771
 30
0.0
 10
11.3800454568
 20
7.3899358607
 30
0.0
 10
11.3468855303
 20
7.3902612354
 30
0.0
 10
11.313668265
 20
7.3927998795
 30
0.0
 10
11.2805416478
 20
7.3975404339
 30
0.0
 10
11.2476519424
 20
7.4044616429
 30
0.0
 10
11.2151446691
 20
7.4135326754
 30
0.0
 10
11.1831635315
 20
7.4247132084
 30
0.0
 10
11.1518499043
 20
7.4379536192
 30
0.0
 10
11.1213421837
 20
7.4531952063
 30
0.0
 10
11.0917751927
 20
7.4703704539
 30
0.0
 10
11.0632795884
 20
7.4894033294
 30
0.0
 10
11.0359812925
 20
7.5102096187
 30
0.0
 10
11.0100009394
 20
7.5326972965
 30
0.0
 10
10.9854533492
 20
7.5567669298
 30
0.0
 10
10.9624470238
 20
7.5823121166
 30
0.0
 10
10.9410836734
 20
7.6092199443
 30
0.0
 10
10.9214577636
 20
7.6373715121
 30
0.0
 10
10.9036561236
 20
7.6666423491
 30
0.0
 10
10.8877574603
 20
7.6969033297
 30
0.0
 10
10.8738324152
 20
7.7280198765
 30
0.0
 10
10.8639146198
 20
7.7545751995
 30
0.0
 10
10.8570273006
 20
7.776108456
 30
0.0
 10
10.8508557115
 20
7.7977698843
 30
0.0
 10
10.8444690532
 20
7.8251183218
 30
0.0
 10
10.8398761598
 20
7.8527653242
 30
0.0
 10
10.8373006337
 20
7.8749526735
 30
0.0
 10
10.835462689
 20
7.8971122153
 30
0.0
 10
10.8349068078
 20
7.913774392
 30
0.0
 10
10.8349068078
 20
7.9248648111
 30
0.0
  0
SPLINE
  5
40D
100
AcDbEntity
  8
0
100
AcDbSpline
 62
7
  6
CONTINUOUS
 70
0
 71
3
 72
41
 73
37
 74
0
 42
0.0000001
 43
0.0000001
 44
0.0000000001
 40
0.0
 40
0.0
 40
0.0
 40
0.0
 40
0.0299370913
 40
0.0599453711
 40
0.0900422682
 40
0.1051313521
 40
0.1202482713
 40
0.1505671305
 40
0.1810148595
 40
0.2116000452
 40
0.2423285872
 40
0.257749995
 40
0.2732081845
 40
0.3042300629
 40
0.3353963844
 40
0.3667020783
 40
0.3981395322
 40
0.4296987619
 40
0.4613676169
 40
0.493132017
 40
0.5249762156
 40
0.5568830858
 40
0.5888344232
 40
0.6208112628
 40
0.6527942051
 40
0.6847637469
 40
0.7167006133
 40
0.7485860866
 40
0.7804023297
 40
0.8121326976
 40
0.8437620347
 40
0.8752769593
 40
0.9066660821
 40
0.9379203815
 40
0.9690328801
 40
1.0
 40
1.0
 40
1.0
 40
1.0
 10
11.5908869723
 20
7.4315297129
 30
0.0
 10
11.5816309854
 20
7.4254641711
 30
0.0
 10
11.5626439177
 20
7.4139943325
 30
0.0
 10
11.532950512
 20
7.3988955658
 30
0.0
 10
11.5073005745
 20
7.38811718
 30
0.0
 10
11.4863096232
 20
7.3806033089
 30
0.0
 10
11.4649840655
 20
7.3738232417
 30
0.0
 10
11.4378089211
 20
7.3667664241
 30
0.0
 10
11.4045773136
 20
7.3606150359
 30
0.0
 10
11.3708451681
 20
7.3567992443
 30
0.0
 10
11.3424811719
 20
7.3555822472
 30
0.0
 10
11.3197045517
 20
7.3557844805
 30
0.0
 10
11.2968399497
 20
7.3567740326
 30
0.0
 10
11.2682420714
 20
7.3594886737
 30
0.0
 10
11.234111435
 20
7.3650821826
 30
0.0
 10
11.2002831834
 20
7.3729890275
 30
0.0
 10
11.1669176713
 20
7.3831716635
 30
0.0
 10
11.1341717279
 20
7.3955819014
 30
0.0
 10
11.1021995891
 20
7.4101610896
 30
0.0
 10
11.071151733
 20
7.4268404056
 30
0.0
 10
11.0411743008
 20
7.4455411762
 30
0.0
 10
11.0124083867
 20
7.4661752503
 30
0.0
 10
10.9849893811
 20
7.4886453997
 30
0.0
 10
10.9590463385
 20
7.5128457796
 30
0.0
 10
10.9347013822
 20
7.538662431
 30
0.0
 10
10.9120691333
 20
7.5659738101
 30
0.0
 10
10.8912561774
 20
7.594651356
 30
0.0
 10
10.8723605658
 20
7.6245600894
 30
0.0
 10
10.855471359
 20
7.6555592408
 30
0.0
 10
10.8406682053
 20
7.6875029075
 30
0.0
 10
10.8280209514
 20
7.7202407133
 30
0.0
 10
10.8175893502
 20
7.7536185784
 30
0.0
 10
10.8094227101
 20
7.7874792128
 30
0.0
 10
10.8035598267
 20
7.8216636637
 30
0.0
 10
10.8000284587
 20
7.8560088501
 30
0.0
 10
10.7992380874
 20
7.8789643677
 30
0.0
 10
10.7992380874
 20
7.8904114708
 30
0.0
  0
SPLINE
  5
40E
100
AcDbEntity
  8
0
100
AcDbSpline
 62
7
  6
CONTINUOUS
 70
0
 71
3
 72
44
 73
40
 74
0
 42
0.0000001
 43
0.0000001
 44
0.0000000001
 40
0.0
 40
0.0
 40
0.0
 40
0.0
 40
0.0299684946
 40
0.0449863569
 40
0.0600276177
 40
0.0901827258
 40
0.1204510577
 40
0.1356332879
 40
0.150847578
 40
0.1660948839
 40
0.1813760098
 40
0.2120378331
 40
0.2428407598
 40
0.2737856002
 40
0.3048706714
 40
0.3360918599
 40
0.3674427239
 40
0.3989146308
 40
0.4304969272
 40
0.4621771364
 40
0.4939411801
 40
0.5257736203
 40
0.5576579169
 40
0.5895766992
 40
0.6215120457
 40
0.6534457714
 40
0.6853597167
 40
0.7172360372
 40
0.7490574893
 40
0.7808077093
 40
0.8124714831
 40
0.8440349987
 40
0.8597772903
 40
0.8754901075
 40
0.9068184517
 40
0.9380158812
 40
0.953565369
 40
0.969080263
 40
1.0
 40
1.0
 40
1.0
 40
1.0
 10
11.567868755
 20
7.3886675942
 30
0.0
 10
11.5580405646
 20
7.3832683987
 30
0.0
 10
11.5429939258
 20
7.375681331
 30
0.0
 10
11.522431275
 20
7.3666357181
 30
0.0
 10
11.501499205
 20
7.3582881896
 30
0.0
 10
11.4747363742
 20
7.3492074636
 30
0.0
 10
11.4473584566
 20
7.3419873031
 30
0.0
 10
11.4251370224
 20
7.3373349478
 30
0.0
 10
11.4083072006
 20
7.3344082213
 30
0.0
 10
11.3913508418
 20
7.3320512332
 30
0.0
 10
11.368575326
 20
7.3296691968
 30
0.0
 10
11.3398761049
 20
7.3281318932
 30
0.0
 10
11.3052765283
 20
7.328595557
 30
0.0
 10
11.2706253185
 20
7.3313626689
 30
0.0
 10
11.2360761718
 20
7.3364209101
 30
0.0
 10
11.2017809628
 20
7.3437477088
 30
0.0
 10
11.1678907647
 20
7.3533105763
 30
0.0
 10
11.1345547375
 20
7.3650671924
 30
0.0
 10
11.1019195986
 20
7.3789656078
 30
0.0
 10
11.0701289536
 20
7.3949444776
 30
0.0
 10
11.0393226798
 20
7.4129333326
 30
0.0
 10
11.0096363155
 20
7.4328528893
 30
0.0
 10
10.9812004706
 20
7.4546153979
 30
0.0
 10
10.9541402574
 20
7.4781250263
 30
0.0
 10
10.9285747456
 20
7.5032782786
 30
0.0
 10
10.9046164426
 20
7.5299644495
 30
0.0
 10
10.8823708047
 20
7.5580660998
 30
0.0
 10
10.8619357683
 20
7.5874595962
 30
0.0
 10
10.8434013464
 20
7.6180155448
 30
0.0
 10
10.8268491281
 20
7.6495997409
 30
0.0
 10
10.8123523374
 20
7.6820723369
 30
0.0
 10
10.8020277542
 20
7.7097817048
 30
0.0
 10
10.7948581153
 20
7.7322492013
 30
0.0
 10
10.7884336238
 20
7.7548495765
 30
0.0
 10
10.7817853954
 20
7.7833819932
 30
0.0
 10
10.7770045104
 20
7.8122243785
 30
0.0
 10
10.7743235863
 20
7.83537055
 30
0.0
 10
10.7724104285
 20
7.8584876028
 30
0.0
 10
10.7718318118
 20
7.8758695129
 30
0.0
 10
10.7718318118
 20
7.8874390399
 30
0.0
  0
SPLINE
  5
40F
100
AcDbEntity
  8
0
100
AcDbSpline
 62
7
  6
CONTINUOUS
 70
0
 71
3
 72
39
 73
35
 74
0
 42
0.0000001
 43
0.0000001
 44
0.0000000001
 40
0.0
 40
0.0
 40
0.0
 40
0.0
 40
0.029942471
 40
0.0599093185
 40
0.0899243251
 40
0.1200101042
 40
0.1501875626
 40
0.1804754144
 40
0.2108897595
 40
0.2414437366
 40
0.2721472604
 40
0.3030068427
 40
0.3340254953
 40
0.365202715
 40
0.3965345496
 40
0.4280137343
 40
0.4596298913
 40
0.491369786
 40
0.5232176335
 40
0.55515545
 40
0.587163434
 40
0.6192203769
 40
0.6513040926
 40
0.6833918636
 40
0.7154608918
 40
0.747488751
 40
0.7794538351
 40
0.8113357952
 40
0.8431159564
 40
0.874777711
 40
0.9063068724
 40
0.937692086
 40
0.9689246467
 40
1.0
 40
1.0
 40
1.0
 40
1.0
 10
11.4905275946
 20
7.2908686283
 30
0.0
 10
11.4815691892
 20
7.2822154429
 30
0.0
 10
11.4629479174
 20
7.2656074597
 30
0.0
 10
11.4331137583
 20
7.2429820065
 30
0.0
 10
11.4015298112
 20
7.2227563397
 30
0.0
 10
11.3683725761
 20
7.2050438886
 30
0.0
 10
11.3338243428
 20
7.1899414228
 30
0.0
 10
11.2980757686
 20
7.1775319835
 30
0.0
 10
11.2613238491
 20
7.1678834807
 30
0.0
 10
11.2237710715
 20
7.1610485579
 30
0.0
 10
11.185624193
 20
7.1570643378
 30
0.0
 10
11.1470931244
 20
7.1559522512
 30
0.0
 10
11.1083897785
 20
7.1577179489
 30
0.0
 10
11.0697269067
 20
7.1623512124
 30
0.0
 10
11.0313169353
 20
7.1698261121
 30
0.0
 10
10.9933708172
 20
7.1801011678
 30
0.0
 10
10.9560968989
 20
7.1931195996
 30
0.0
 10
10.9196997752
 20
7.2088095853
 30
0.0
 10
10.8843791769
 20
7.2270846778
 30
0.0
 10
10.8503289098
 20
7.2478443269
 30
0.0
 10
10.8177358089
 20
7.2709744207
 30
0.0
 10
10.7867787222
 20
7.2963478939
 30
0.0
 10
10.7576274982
 20
7.3238253755
 30
0.0
 10
10.7304421138
 20
7.3532560151
 30
0.0
 10
10.7053718013
 20
7.3844782894
 30
0.0
 10
10.6825542521
 20
7.4173208842
 30
0.0
 10
10.6621148011
 20
7.4516035743
 30
0.0
 10
10.644165783
 20
7.4871382469
 30
0.0
 10
10.6288059377
 20
7.5237299031
 30
0.0
 10
10.6161198853
 20
7.5611777974
 30
0.0
 10
10.6061775793
 20
7.5992761996
 30
0.0
 10
10.5990340377
 20
7.6378166079
 30
0.0
 10
10.5947287362
 20
7.6765846629
 30
0.0
 10
10.5937644558
 20
7.7025127822
 30
0.0
 10
10.5937644558
 20
7.7154391716
 30
0.0
  0
SPLINE
  5
410
100
AcDbEntity
  8
0
100
AcDbSpline
 62
4
  6
CONTINUOUS
 70
0
 71
3
 72
346
 73
342
 74
0
 42
0.0000001
 43
0.0000001
 44
0.0000000001
 40
0.0
 40
0.0
 40
0.0
 40
0.0
 40
0.015625
 40
0.03125
 40
0.0390625
 40
0.046875
 40
0.05078125
 40
0.0546875
 40
0.05859375
 40
0.060546875
 40
0.0615234375
 40
0.0625
 40
0.0634765625
 40
0.064453125
 40
0.06640625
 40
0.0703125
 40
0.07421875
 40
0.078125
 40
0.0859375
 40
0.09375
 40
0.1015625
 40
0.109375
 40
0.11328125
 40
0.1171875
 40
0.12109375
 40
0.123046875
 40
0.1240234375
 40
0.125
 40
0.1259765625
 40
0.126953125
 40
0.12890625
 40
0.1328125
 40
0.13671875
 40
0.140625
 40
0.1484375
 40
0.15625
 40
0.1640625
 40
0.171875
 40
0.17578125
 40
0.1796875
 40
0.18359375
 40
0.185546875
 40
0.1865234375
 40
0.1875
 40
0.1884765625
 40
0.189453125
 40
0.19140625
 40
0.1953125
 40
0.19921875
 40
0.203125
 40
0.2109375
 40
0.21875
 40
0.2265625
 40
0.234375
 40
0.23828125
 40
0.2421875
 40
0.244140625
 40
0.24609375
 40
0.248046875
 40
0.2490234375
 40
0.2495117188
 40
0.25
 40
0.2504882812
 40
0.2509765625
 40
0.251953125
 40
0.25390625
 40
0.255859375
 40
0.2578125
 40
0.26171875
 40
0.265625
 40
0.2734375
 40
0.28125
 40
0.2890625
 40
0.296875
 40
0.30078125
 40
0.3046875
 40
0.306640625
 40
0.30859375
 40
0.310546875
 40
0.3115234375
 40
0.3120117188
 40
0.3125
 40
0.3129882812
 40
0.3134765625
 40
0.314453125
 40
0.31640625
 40
0.318359375
 40
0.3203125
 40
0.32421875
 40
0.328125
 40
0.3359375
 40
0.34375
 40
0.3515625
 40
0.35546875
 40
0.359375
 40
0.36328125
 40
0.3671875
 40
0.369140625
 40
0.37109375
 40
0.3720703125
 40
0.373046875
 40
0.3740234375
 40
0.3745117188
 40
0.3747558594
 40
0.375
 40
0.3752441406
 40
0.3754882812
 40
0.3759765625
 40
0.376953125
 40
0.3779296875
 40
0.37890625
 40
0.380859375
 40
0.3828125
 40
0.38671875
 40
0.390625
 40
0.39453125
 40
0.3984375
 40
0.40625
 40
0.4140625
 40
0.41796875
 40
0.421875
 40
0.42578125
 40
0.4296875
 40
0.431640625
 40
0.43359375
 40
0.4345703125
 40
0.435546875
 40
0.4365234375
 40
0.4370117188
 40
0.4372558594
 40
0.4375
 40
0.4377441406
 40
0.4379882812
 40
0.4384765625
 40
0.439453125
 40
0.4404296875
 40
0.44140625
 40
0.443359375
 40
0.4453125
 40
0.44921875
 40
0.453125
 40
0.45703125
 40
0.4609375
 40
0.46875
 40
0.4765625
 40
0.48046875
 40
0.484375
 40
0.48828125
 40
0.4921875
 40
0.494140625
 40
0.49609375
 40
0.4970703125
 40
0.498046875
 40
0.4990234375
 40
0.4995117188
 40
0.4997558594
 40
0.5
 40
0.5002441406
 40
0.5004882812
 40
0.5009765625
 40
0.501953125
 40
0.5029296875
 40
0.50390625
 40
0.505859375
 40
0.5078125
 40
0.51171875
 40
0.515625
 40
0.51953125
 40
0.5234375
 40
0.53125
 40
0.5390625
 40
0.54296875
 40
0.546875
 40
0.55078125
 40
0.5546875
 40
0.556640625
 40
0.55859375
 40
0.5595703125
 40
0.560546875
 40
0.5615234375
 40
0.5620117188
 40
0.5622558594
 40
0.5625
 40
0.5627441406
 40
0.5629882812
 40
0.5634765625
 40
0.564453125
 40
0.5654296875
 40
0.56640625
 40
0.568359375
 40
0.5703125
 40
0.57421875
 40
0.578125
 40
0.58203125
 40
0.5859375
 40
0.59375
 40
0.6015625
 40
0.60546875
 40
0.609375
 40
0.61328125
 40
0.6171875
 40
0.619140625
 40
0.62109375
 40
0.6220703125
 40
0.623046875
 40
0.6240234375
 40
0.6245117188
 40
0.6247558594
 40
0.625
 40
0.6252441406
 40
0.6254882812
 40
0.6259765625
 40
0.626953125
 40
0.6279296875
 40
0.62890625
 40
0.630859375
 40
0.6328125
 40
0.63671875
 40
0.640625
 40
0.64453125
 40
0.6484375
 40
0.65625
 40
0.6640625
 40
0.66796875
 40
0.671875
 40
0.67578125
 40
0.6796875
 40
0.681640625
 40
0.68359375
 40
0.6845703125
 40
0.685546875
 40
0.6865234375
 40
0.6870117188
 40
0.6872558594
 40
0.6875
 40
0.6877441406
 40
0.6879882812
 40
0.6884765625
 40
0.689453125
 40
0.6904296875
 40
0.69140625
 40
0.693359375
 40
0.6953125
 40
0.69921875
 40
0.703125
 40
0.70703125
 40
0.7109375
 40
0.71875
 40
0.7265625
 40
0.73046875
 40
0.734375
 40
0.73828125
 40
0.7421875
 40
0.744140625
 40
0.74609375
 40
0.7470703125
 40
0.748046875
 40
0.7490234375
 40
0.7495117188
 40
0.7497558594
 40
0.75
 40
0.7502441406
 40
0.7504882812
 40
0.7509765625
 40
0.751953125
 40
0.7529296875
 40
0.75390625
 40
0.755859375
 40
0.7578125
 40
0.76171875
 40
0.765625
 40
0.76953125
 40
0.7734375
 40
0.78125
 40
0.7890625
 40
0.79296875
 40
0.796875
 40
0.80078125
 40
0.8046875
 40
0.806640625
 40
0.80859375
 40
0.8095703125
 40
0.810546875
 40
0.8115234375
 40
0.8120117188
 40
0.8125
 40
0.8129882812
 40
0.8134765625
 40
0.814453125
 40
0.8154296875
 40
0.81640625
 40
0.818359375
 40
0.8203125
 40
0.82421875
 40
0.828125
 40
0.83203125
 40
0.8359375
 40
0.84375
 40
0.8515625
 40
0.859375
 40
0.86328125
 40
0.8671875
 40
0.869140625
 40
0.87109375
 40
0.873046875
 40
0.8740234375
 40
0.8745117188
 40
0.875
 40
0.8754882812
 40
0.8759765625
 40
0.876953125
 40
0.87890625
 40
0.880859375
 40
0.8828125
 40
0.88671875
 40
0.890625
 40
0.8984375
 40
0.90625
 40
0.9140625
 40
0.921875
 40
0.92578125
 40
0.9296875
 40
0.931640625
 40
0.93359375
 40
0.935546875
 40
0.9365234375
 40
0.9370117188
 40
0.9375
 40
0.9379882812
 40
0.9384765625
 40
0.939453125
 40
0.94140625
 40
0.943359375
 40
0.9453125
 40
0.94921875
 40
0.953125
 40
0.9609375
 40
0.96875
 40
0.9765625
 40
0.984375
 40
1.0
 40
1.0
 40
1.0
 40
1.0
 10
10.2338901396
 20
10.0889131039
 30
0.0
 10
10.2371056436
 20
10.0887753288
 30
0.0
 10
10.2435366524
 20
10.0884997821
 30
0.0
 10
10.251575409
 20
10.0881553316
 30
0.0
 10
10.2580064235
 20
10.0878798069
 30
0.0
 10
10.2620257868
 20
10.0877075232
 30
0.0
 10
10.2652413249
 20
10.0875698812
 30
0.0
 10
10.2676528485
 20
10.0874661433
 30
0.0
 10
10.269662865
 20
10.087381306
 30
0.0
 10
10.2710690652
 20
10.0873187585
 30
0.0
 10
10.2718738749
 20
10.0872879533
 30
0.0
 10
10.2724739137
 20
10.0872509438
 30
0.0
 10
10.2730875932
 20
10.0872670887
 30
0.0
 10
10.2739010746
 20
10.0872700743
 30
0.0
 10
10.2753268839
 20
10.0872839377
 30
0.0
 10
10.2773625952
 20
10.0872992263
 30
0.0
 10
10.2798059449
 20
10.0873195057
 30
0.0
 10
10.2830635714
 20
10.0873458694
 30
0.0
 10
10.2871356631
 20
10.0873790574
 30
0.0
 10
10.2920221512
 20
10.0874187763
 30
0.0
 10
10.296908633
 20
10.0874585484
 30
0.0
 10
10.3009807408
 20
10.0874916035
 30
0.0
 10
10.304238335
 20
10.0875182331
 30
0.0
 10
10.3066817831
 20
10.0875377017
 30
0.0
 10
10.3087171865
 20
10.0875555267
 30
0.0
 10
10.3101435455
 20
10.0875648621
 30
0.0
 10
10.310956146
 20
10.0875751027
 30
0.0
 10
10.3115725314
 20
10.0875689629
 30
0.0
 10
10.3121624074
 20
10.0876156509
 30
0.0
 10
10.3129581555
 20
10.0876594746
 30
0.0
 10
10.3143464065
 20
10.0877447515
 30
0.0
 10
10.3163318745
 20
10.0878620872
 30
0.0
 10
10.3187134721
 20
10.0880048112
 30
0.0
 10
10.3218892724
 20
10.0881944387
 30
0.0
 10
10.3258589058
 20
10.0884317048
 30
0.0
 10
10.3306225221
 20
10.0887163182
 30
0.0
 10
10.3353861005
 20
10.0890009846
 30
0.0
 10
10.339355829
 20
10.0892381182
 30
0.0
 10
10.3425314391
 20
10.0894280108
 30
0.0
 10
10.3449136166
 20
10.0895699259
 30
0.0
 10
10.3468972704
 20
10.0896897924
 30
0.0
 10
10.3482887601
 20
10.0897705514
 30
0.0
 10
10.3490793189
 20
10.0898216141
 30
0.0
 10
10.3496851348
 20
10.0898460662
 30
0.0
 10
10.3502416526
 20
10.0899234408
 30
0.0
 10
10.351000872
 20
10.090008147
 30
0.0
 10
10.3523214942
 20
10.0901649838
 30
0.0
 10
10.354212286
 20
10.0903845396
 30
0.0
 10
10.3564794433
 20
10.0906499314
 30
0.0
 10
10.3595029459
 20
10.0910031146
 30
0.0
 10
10.363282109
 20
10.0914448246
 30
0.0
 10
10.3678171985
 20
10.0919747771
 30
0.0
 10
10.3723522574
 20
10.0925047582
 30
0.0
 10
10.3761314969
 20
10.0929463964
 30
0.0
 10
10.3791548469
 20
10.0932997232
 30
0.0
 10
10.3810445326
 20
10.0935205184
 30
0.0
 10
10.382556071
 20
10.0936972321
 30
0.0
 10
10.3836903001
 20
10.0938295551
 30
0.0
 10
10.3846336608
 20
10.0939404996
 30
0.0
 10
10.385297605
 20
10.0940168354
 30
0.0
 10
10.3856713935
 20
10.0940625254
 30
0.0
 10
10.3859675334
 20
10.094090963
 30
0.0
 10
10.3862032835
 20
10.0941416852
 30
0.0
 10
10.3865386816
 20
10.0942015417
 30
0.0
 10
10.3871158138
 20
10.0943099123
 30
0.0
 10
10.3879454196
 20
10.0944628339
 30
0.0
 10
10.3889387502
 20
10.0946471503
 30
0.0
 10
10.3902639582
 20
10.0948926225
 30
0.0
 10
10.3919202054
 20
10.0951995596
 30
0.0
 10
10.3945703479
 20
10.0956906048
 30
0.0
 10
10.3978829753
 20
10.09630443
 30
0.0
 10
10.4018581515
 20
10.0970410117
 30
0.0
 10
10.4058333154
 20
10.0977775975
 30
0.0
 10
10.4091459735
 20
10.0983914125
 30
0.0
 10
10.4117960545
 20
10.0988824781
 30
0.0
 10
10.4134524581
 20
10.0991893635
 30
0.0
 10
10.4147773451
 20
10.0994349417
 30
0.0
 10
10.4157716562
 20
10.0996189343
 30
0.0
 10
10.4165981944
 20
10.0997728689
 30
0.0
 10
10.4171808028
 20
10.0998794312
 30
0.0
 10
10.4175074267
 20
10.099942185
 30
0.0
 10
10.4177701284
 20
10.0999840075
 30
0.0
 10
10.4179650426
 20
10.1000458711
 30
0.0
 10
10.4182485732
 20
10.1001213654
 30
0.0
 10
10.4187337351
 20
10.1002567373
 30
0.0
 10
10.4194325832
 20
10.100448423
 30
0.0
 10
10.4202687356
 20
10.1006791747
 30
0.0
 10
10.4213844666
 20
10.100986589
 30
0.0
 10
10.4227788355
 20
10.101370944
 30
0.0
 10
10.4250099904
 20
10.1019858634
 30
0.0
 10
10.4277988776
 20
10.1027545294
 30
0.0
 10
10.4311455665
 20
10.1036769214
 30
0.0
 10
10.4339344684
 20
10.104445583
 30
0.0
 10
10.4361655908
 20
10.105060512
 30
0.0
 10
10.4378389335
 20
10.1055217086
 30
0.0
 10
10.4395122723
 20
10.105982906
 30
0.0
 10
10.4409067334
 20
10.1063672347
 30
0.0
 10
10.4420222751
 20
10.1066747031
 30
0.0
 10
10.4427195506
 20
10.1068668585
 30
0.0
 10
10.4432772292
 20
10.1070206111
 30
0.0
 10
10.4436958765
 20
10.1071358481
 30
0.0
 10
10.4440435137
 20
10.1072321252
 30
0.0
 10
10.4442892845
 20
10.1072990359
 30
0.0
 10
10.4444259389
 20
10.1073380252
 30
0.0
 10
10.444539095
 20
10.1073651414
 30
0.0
 10
10.4446114828
 20
10.1074003835
 30
0.0
 10
10.4447222204
 20
10.1074445384
 30
0.0
 10
10.4449093855
 20
10.1075231303
 30
0.0
 10
10.4451802282
 20
10.1076347139
 30
0.0
 10
10.4455037567
 20
10.1077689097
 30
0.0
 10
10.445935646
 20
10.1079477343
 30
0.0
 10
10.4464753302
 20
10.1081713003
 30
0.0
 10
10.4473389241
 20
10.1085289863
 30
0.0
 10
10.4484183824
 20
10.1089761005
 30
0.0
 10
10.449713747
 20
10.1095126346
 30
0.0
 10
10.4510091078
 20
10.1100491695
 30
0.0
 10
10.4527362567
 20
10.1107645491
 30
0.0
 10
10.4548951924
 20
10.1116587738
 30
0.0
 10
10.4570541285
 20
10.1125529983
 30
0.0
 10
10.4587812769
 20
10.113268378
 30
0.0
 10
10.4600766393
 20
10.1138049126
 30
0.0
 10
10.4613719975
 20
10.1143414479
 30
0.0
 10
10.4624514759
 20
10.1147885585
 30
0.0
 10
10.4633150288
 20
10.1151462518
 30
0.0
 10
10.4638548175
 20
10.1153697993
 30
0.0
 10
10.4642864923
 20
10.115548662
 30
0.0
 10
10.4646106759
 20
10.1156827413
 30
0.0
 10
10.4648794692
 20
10.1157946893
 30
0.0
 10
10.4650702927
 20
10.1158726306
 30
0.0
 10
10.4651751686
 20
10.1159178279
 30
0.0
 10
10.4652655617
 20
10.1159498684
 30
0.0
 10
10.4653110931
 20
10.1159890089
 30
0.0
 10
10.4653874499
 20
10.1160387196
 30
0.0
 10
10.4655137836
 20
10.1161268673
 30
0.0
 10
10.465698072
 20
10.1162521893
 30
0.0
 10
10.4659175865
 20
10.116402834
 30
0.0
 10
10.4662108423
 20
10.1166036033
 30
0.0
 10
10.466577217
 20
10.1168545958
 30
0.0
 10
10.4671635256
 20
10.1172561666
 30
0.0
 10
10.467896374
 20
10.117758136
 30
0.0
 10
10.468775808
 20
10.1183604968
 30
0.0
 10
10.4696552377
 20
10.1189628582
 30
0.0
 10
10.4708278122
 20
10.1197660065
 30
0.0
 10
10.4722935298
 20
10.1207699421
 30
0.0
 10
10.4737592477
 20
10.1217738775
 30
0.0
 10
10.4749318216
 20
10.1225770259
 30
0.0
 10
10.4758112533
 20
10.1231793872
 30
0.0
 10
10.47669068
 20
10.1237817486
 30
0.0
 10
10.477423551
 20
10.1242837158
 30
0.0
 10
10.4780098133
 20
10.1246852911
 30
0.0
 10
10.4783763059
 20
10.1249362721
 30
0.0
 10
10.4786693198
 20
10.1251370651
 30
0.0
 10
10.4788895736
 20
10.1252876374
 30
0.0
 10
10.4790715488
 20
10.1254131857
 30
0.0
 10
10.4792020119
 20
10.1255009295
 30
0.0
 10
10.4792717524
 20
10.1255512874
 30
0.0
 10
10.4793376071
 20
10.1255884402
 30
0.0
 10
10.4793516694
 20
10.1256279459
 30
0.0
 10
10.4793884849
 20
10.1256797994
 30
0.0
 10
10.479444495
 20
10.1257709254
 30
0.0
 10
10.4795289099
 20
10.1259009055
 30
0.0
 10
10.4796283242
 20
10.1260569671
 30
0.0
 10
10.4797615345
 20
10.1262650195
 30
0.0
 10
10.4799278221
 20
10.1265250952
 30
0.0
 10
10.4801940082
 20
10.1269412105
 30
0.0
 10
10.4805266975
 20
10.1274613567
 30
0.0
 10
10.4809259433
 20
10.1280855313
 30
0.0
 10
10.4813251842
 20
10.128709706
 30
0.0
 10
10.481857507
 20
10.129541939
 30
0.0
 10
10.4825229099
 20
10.1305822302
 30
0.0
 10
10.4831883132
 20
10.1316225214
 30
0.0
 10
10.4837206354
 20
10.1324547544
 30
0.0
 10
10.4841198783
 20
10.1330789291
 30
0.0
 10
10.4845191163
 20
10.1337031039
 30
0.0
 10
10.4848518299
 20
10.1342232493
 30
0.0
 10
10.4851179666
 20
10.1346393663
 30
0.0
 10
10.48528438
 20
10.134899438
 30
0.0
 10
10.4854173321
 20
10.1351074984
 30
0.0
 10
10.4855175353
 20
10.1352635354
 30
0.0
 10
10.4855994819
 20
10.1353935929
 30
0.0
 10
10.4856598982
 20
10.1354845807
 30
0.0
 10
10.4856896537
 20
10.1355366557
 30
0.0
 10
10.4857254022
 20
10.135575481
 30
0.0
 10
10.4857098074
 20
10.1356151889
 30
0.0
 10
10.4857069235
 20
10.135667825
 30
0.0
 10
10.4856935325
 20
10.1357600816
 30
0.0
 10
10.4856787649
 20
10.1358918017
 30
0.0
 10
10.4856591765
 20
10.1360498979
 30
0.0
 10
10.4856337108
 20
10.1362606817
 30
0.0
 10
10.4856016555
 20
10.1365241652
 30
0.0
 10
10.4855504916
 20
10.1369457368
 30
0.0
 10
10.4854864941
 20
10.1374727019
 30
0.0
 10
10.4854097153
 20
10.1381050597
 30
0.0
 10
10.4853329317
 20
10.1387374177
 30
0.0
 10
10.4852305552
 20
10.1395805615
 30
0.0
 10
10.4851025839
 20
10.1406344914
 30
0.0
 10
10.4849746131
 20
10.1416884213
 30
0.0
 10
10.484872236
 20
10.1425315651
 30
0.0
 10
10.4847954544
 20
10.1431639231
 30
0.0
 10
10.4847186679
 20
10.1437962809
 30
0.0
 10
10.4846546944
 20
10.1443232462
 30
0.0
 10
10.4846034815
 20
10.1447448173
 30
0.0
 10
10.484571551
 20
10.1450083019
 30
0.0
 10
10.484545829
 20
10.1452190836
 30
0.0
 10
10.4845270237
 20
10.1453771862
 30
0.0
 10
10.4845098061
 20
10.1455088863
 30
0.0
 10
10.4845007887
 20
10.1456011785
 30
0.0
 10
10.4844908971
 20
10.1456537576
 30
0.0
 10
10.4844968277
 20
10.1456936406
 30
0.0
 10
10.4844517305
 20
10.1457318083
 30
0.0
 10
10.4844094
 20
10.145783297
 30
0.0
 10
10.4843270287
 20
10.1458731234
 30
0.0
 10
10.4842136911
 20
10.1460015925
 30
0.0
 10
10.4840758302
 20
10.1461556931
 30
0.0
 10
10.4838926638
 20
10.1463611823
 30
0.0
 10
10.4836634838
 20
10.1466180364
 30
0.0
 10
10.48329692
 20
10.147029007
 30
0.0
 10
10.4828386726
 20
10.1475427189
 30
0.0
 10
10.4822887939
 20
10.1481591739
 30
0.0
 10
10.4817389104
 20
10.1487756286
 30
0.0
 10
10.4810057341
 20
10.1495975683
 30
0.0
 10
10.4800892631
 20
10.1506249929
 30
0.0
 10
10.4791727925
 20
10.1516524176
 30
0.0
 10
10.4784396155
 20
10.1524743573
 30
0.0
 10
10.477889734
 20
10.1530908121
 30
0.0
 10
10.4773398477
 20
10.1537072666
 30
0.0
 10
10.4768816243
 20
10.1542209797
 30
0.0
 10
10.4765150115
 20
10.154631948
 30
0.0
 10
10.4762859561
 20
10.1548888081
 30
0.0
 10
10.476102534
 20
10.155094285
 30
0.0
 10
10.4759654544
 20
10.1552484231
 30
0.0
 10
10.4758496721
 20
10.1553767748
 30
0.0
 10
10.4757716649
 20
10.1554668108
 30
0.0
 10
10.475722342
 20
10.1555179637
 30
0.0
 10
10.4756987232
 20
10.1555571628
 30
0.0
 10
10.4756239849
 20
10.1555931721
 30
0.0
 10
10.4755421649
 20
10.1556422972
 30
0.0
 10
10.4753906721
 20
10.1557277477
 30
0.0
 10
10.4751785973
 20
10.1558500908
 30
0.0
 10
10.4749222484
 20
10.1559967865
 30
0.0
 10
10.4745810991
 20
10.1561924214
 30
0.0
 10
10.4741544403
 20
10.1564369511
 30
0.0
 10
10.4734719104
 20
10.1568282063
 30
0.0
 10
10.4726187053
 20
10.1573172728
 30
0.0
 10
10.4715948775
 20
10.1579041536
 30
0.0
 10
10.4705710449
 20
10.1584910341
 30
0.0
 10
10.4692059364
 20
10.1592735416
 30
0.0
 10
10.4674995501
 20
10.1602516759
 30
0.0
 10
10.4657931643
 20
10.1612298103
 30
0.0
 10
10.4644280551
 20
10.1620123177
 30
0.0
 10
10.4634042244
 20
10.1625991984
 30
0.0
 10
10.4623803895
 20
10.1631860785
 30
0.0
 10
10.4615272066
 20
10.1636751475
 30
0.0
 10
10.4608446315
 20
10.1640663974
 30
0.0
 10
10.4604180875
 20
10.1643109406
 30
0.0
 10
10.4600767025
 20
10.1645065479
 30
0.0
 10
10.4598210739
 20
10.1646533278
 30
0.0
 10
10.4596067454
 20
10.1647754075
 30
0.0
 10
10.4594592758
 20
10.1648613282
 30
0.0
 10
10.4593710096
 20
10.1649096999
 30
0.0
 10
10.4593160723
 20
10.1649480232
 30
0.0
 10
10.4592180843
 20
10.1649785315
 30
0.0
 10
10.4591024503
 20
10.1650219352
 30
0.0
 10
10.4588930943
 20
10.1650966215
 30
0.0
 10
10.4585976722
 20
10.1652039803
 30
0.0
 10
10.4582415999
 20
10.1653325266
 30
0.0
 10
10.4577673837
 20
10.165504021
 30
0.0
 10
10.4571744263
 20
10.165718355
 30
0.0
 10
10.456225799
 20
10.1660613084
 30
0.0
 10
10.455039979
 20
10.1664899936
 30
0.0
 10
10.4536170104
 20
10.1670044187
 30
0.0
 10
10.4521940377
 20
10.167518843
 30
0.0
 10
10.4502967422
 20
10.1682047423
 30
0.0
 10
10.4479251224
 20
10.1690621164
 30
0.0
 10
10.4455535023
 20
10.1699194904
 30
0.0
 10
10.4436562072
 20
10.1706053899
 30
0.0
 10
10.4422332331
 20
10.1711198138
 30
0.0
 10
10.4408102695
 20
10.1716342402
 30
0.0
 10
10.439624434
 20
10.1720629214
 30
0.0
 10
10.4386758384
 20
10.1724058829
 30
0.0
 10
10.4380828002
 20
10.1726201962
 30
0.0
 10
10.4376087498
 20
10.172791733
 30
0.0
 10
10.4372521712
 20
10.1729201498
 30
0.0
 10
10.4369583333
 20
10.173027914
 30
0.0
 10
10.4367158372
 20
10.1731124428
 30
0.0
 10
10.4365542558
 20
10.1731804368
 30
0.0
 10
10.4363152246
 20
10.1732308824
 30
0.0
 10
10.4360235705
 20
10.173304273
 30
0.0
 10
10.4356497208
 20
10.1733939082
 30
0.0
 10
10.4352050743
 20
10.1735023707
 30
0.0
 10
10.4346108244
 20
10.1736466728
 30
0.0
 10
10.4338684873
 20
10.1738271582
 30
0.0
 10
10.4326804824
 20
10.1741158746
 30
0.0
 10
10.4311955673
 20
10.1744767907
 30
0.0
 10
10.4294136302
 20
10.1749098812
 30
0.0
 10
10.4276317035
 20
10.1753429741
 30
0.0
 10
10.4252557975
 20
10.1759204304
 30
0.0
 10
10.4222859175
 20
10.1766422515
 30
0.0
 10
10.4187220548
 20
10.1775084347
 30
0.0
 10
10.4157521881
 20
10.1782302603
 30
0.0
 10
10.4133762529
 20
10.1788077067
 30
0.0
 10
10.4118913887
 20
10.1791686427
 30
0.0
 10
10.4107032789
 20
10.1794573182
 30
0.0
 10
10.4098127948
 20
10.1796740258
 30
0.0
 10
10.4090688216
 20
10.1798539759
 30
0.0
 10
10.4085517751
 20
10.1799811961
 30
0.0
 10
10.4082504886
 20
10.1800519336
 30
0.0
 10
10.4080409505
 20
10.1801105075
 30
0.0
 10
10.4077686209
 20
10.1801479781
 30
0.0
 10
10.4074274171
 20
10.1802053
 30
0.0
 10
10.4068201057
 20
10.1803021838
 30
0.0
 10
10.4059578531
 20
10.1804423821
 30
0.0
 10
10.4049208664
 20
10.1806098527
 30
0.0
 10
10.4035390151
 20
10.1808334148
 30
0.0
 10
10.4018114278
 20
10.1811127757
 30
0.0
 10
10.3990474409
 20
10.1815598044
 30
0.0
 10
10.3955924045
 20
10.1821185726
 30
0.0
 10
10.3914463848
 20
10.1827891026
 30
0.0
 10
10.3873003537
 20
10.1834596283
 30
0.0
 10
10.3838453456
 20
10.1840184072
 30
0.0
 10
10.3810813022
 20
10.1844654146
 30
0.0
 10
10.3793538585
 20
10.1847448296
 30
0.0
 10
10.3779717126
 20
10.1849682808
 30
0.0
 10
10.3769356258
 20
10.1851360904
 30
0.0
 10
10.3760705575
 20
10.1852752279
 30
0.0
 10
10.3754682727
 20
10.1853740054
 30
0.0
 10
10.3751190149
 20
10.1854282931
 30
0.0
 10
10.3748714246
 20
10.1854750839
 30
0.0
 10
10.3745689698
 20
10.1854986527
 30
0.0
 10
10.3741848341
 20
10.1855381779
 30
0.0
 10
10.3735036802
 20
10.185603573
 30
0.0
 10
10.3725352648
 20
10.1856989676
 30
0.0
 10
10.371371171
 20
10.1858125966
 30
0.0
 10
10.3698197428
 20
10.1859643969
 30
0.0
 10
10.367880219
 20
10.1861540464
 30
0.0
 10
10.3647771142
 20
10.1864575419
 30
0.0
 10
10.3608981875
 20
10.1868368919
 30
0.0
 10
10.3562434951
 20
10.1872921202
 30
0.0
 10
10.3515887975
 20
10.1877473463
 30
0.0
 10
10.3453825358
 20
10.1883543152
 30
0.0
 10
10.3407278391
 20
10.1888095417
 30
0.0
 10
10.337624708
 20
10.1891130261
 30
0.0
  0
SPLINE
  5
411
100
AcDbEntity
  8
0
100
AcDbSpline
 62
4
  6
CONTINUOUS
 70
0
 71
3
 72
346
 73
342
 74
0
 42
0.0000001
 43
0.0000001
 44
0.0000000001
 40
0.0
 40
0.0
 40
0.0
 40
0.0
 40
0.015625
 40
0.03125
 40
0.0390625
 40
0.046875
 40
0.05078125
 40
0.0546875
 40
0.05859375
 40
0.060546875
 40
0.0615234375
 40
0.0625
 40
0.0634765625
 40
0.064453125
 40
0.06640625
 40
0.0703125
 40
0.07421875
 40
0.078125
 40
0.0859375
 40
0.09375
 40
0.1015625
 40
0.109375
 40
0.11328125
 40
0.1171875
 40
0.12109375
 40
0.123046875
 40
0.1240234375
 40
0.125
 40
0.1259765625
 40
0.126953125
 40
0.12890625
 40
0.1328125
 40
0.13671875
 40
0.140625
 40
0.1484375
 40
0.15625
 40
0.1640625
 40
0.171875
 40
0.17578125
 40
0.1796875
 40
0.18359375
 40
0.185546875
 40
0.1865234375
 40
0.1875
 40
0.1884765625
 40
0.189453125
 40
0.19140625
 40
0.1953125
 40
0.19921875
 40
0.203125
 40
0.2109375
 40
0.21875
 40
0.2265625
 40
0.234375
 40
0.23828125
 40
0.2421875
 40
0.244140625
 40
0.24609375
 40
0.248046875
 40
0.2490234375
 40
0.2495117188
 40
0.25
 40
0.2504882812
 40
0.2509765625
 40
0.251953125
 40
0.25390625
 40
0.255859375
 40
0.2578125
 40
0.26171875
 40
0.265625
 40
0.2734375
 40
0.28125
 40
0.2890625
 40
0.296875
 40
0.30078125
 40
0.3046875
 40
0.306640625
 40
0.30859375
 40
0.310546875
 40
0.3115234375
 40
0.3120117188
 40
0.3125
 40
0.3129882812
 40
0.3134765625
 40
0.314453125
 40
0.31640625
 40
0.318359375
 40
0.3203125
 40
0.32421875
 40
0.328125
 40
0.3359375
 40
0.34375
 40
0.3515625
 40
0.35546875
 40
0.359375
 40
0.36328125
 40
0.3671875
 40
0.369140625
 40
0.37109375
 40
0.3720703125
 40
0.373046875
 40
0.3740234375
 40
0.3745117188
 40
0.3747558594
 40
0.375
 40
0.3752441406
 40
0.3754882812
 40
0.3759765625
 40
0.376953125
 40
0.3779296875
 40
0.37890625
 40
0.380859375
 40
0.3828125
 40
0.38671875
 40
0.390625
 40
0.39453125
 40
0.3984375
 40
0.40625
 40
0.4140625
 40
0.41796875
 40
0.421875
 40
0.42578125
 40
0.4296875
 40
0.431640625
 40
0.43359375
 40
0.4345703125
 40
0.435546875
 40
0.4365234375
 40
0.4370117188
 40
0.4372558594
 40
0.4375
 40
0.4377441406
 40
0.4379882812
 40
0.4384765625
 40
0.439453125
 40
0.4404296875
 40
0.44140625
 40
0.443359375
 40
0.4453125
 40
0.44921875
 40
0.453125
 40
0.45703125
 40
0.4609375
 40
0.46875
 40
0.4765625
 40
0.48046875
 40
0.484375
 40
0.48828125
 40
0.4921875
 40
0.494140625
 40
0.49609375
 40
0.4970703125
 40
0.498046875
 40
0.4990234375
 40
0.4995117188
 40
0.4997558594
 40
0.5
 40
0.5002441406
 40
0.5004882812
 40
0.5009765625
 40
0.501953125
 40
0.5029296875
 40
0.50390625
 40
0.505859375
 40
0.5078125
 40
0.51171875
 40
0.515625
 40
0.51953125
 40
0.5234375
 40
0.53125
 40
0.5390625
 40
0.54296875
 40
0.546875
 40
0.55078125
 40
0.5546875
 40
0.556640625
 40
0.55859375
 40
0.5595703125
 40
0.560546875
 40
0.5615234375
 40
0.5620117188
 40
0.5622558594
 40
0.5625
 40
0.5627441406
 40
0.5629882812
 40
0.5634765625
 40
0.564453125
 40
0.5654296875
 40
0.56640625
 40
0.568359375
 40
0.5703125
 40
0.57421875
 40
0.578125
 40
0.58203125
 40
0.5859375
 40
0.59375
 40
0.6015625
 40
0.60546875
 40
0.609375
 40
0.61328125
 40
0.6171875
 40
0.619140625
 40
0.62109375
 40
0.6220703125
 40
0.623046875
 40
0.6240234375
 40
0.6245117188
 40
0.6247558594
 40
0.625
 40
0.6252441406
 40
0.6254882812
 40
0.6259765625
 40
0.626953125
 40
0.6279296875
 40
0.62890625
 40
0.630859375
 40
0.6328125
 40
0.63671875
 40
0.640625
 40
0.64453125
 40
0.6484375
 40
0.65625
 40
0.6640625
 40
0.66796875
 40
0.671875
 40
0.67578125
 40
0.6796875
 40
0.681640625
 40
0.68359375
 40
0.6845703125
 40
0.685546875
 40
0.6865234375
 40
0.6870117188
 40
0.6872558594
 40
0.6875
 40
0.6877441406
 40
0.6879882812
 40
0.6884765625
 40
0.689453125
 40
0.6904296875
 40
0.69140625
 40
0.693359375
 40
0.6953125
 40
0.69921875
 40
0.703125
 40
0.70703125
 40
0.7109375
 40
0.71875
 40
0.7265625
 40
0.73046875
 40
0.734375
 40
0.73828125
 40
0.7421875
 40
0.744140625
 40
0.74609375
 40
0.7470703125
 40
0.748046875
 40
0.7490234375
 40
0.7495117188
 40
0.7497558594
 40
0.75
 40
0.7502441406
 40
0.7504882812
 40
0.7509765625
 40
0.751953125
 40
0.7529296875
 40
0.75390625
 40
0.755859375
 40
0.7578125
 40
0.76171875
 40
0.765625
 40
0.76953125
 40
0.7734375
 40
0.78125
 40
0.7890625
 40
0.79296875
 40
0.796875
 40
0.80078125
 40
0.8046875
 40
0.806640625
 40
0.80859375
 40
0.8095703125
 40
0.810546875
 40
0.8115234375
 40
0.8120117188
 40
0.8125
 40
0.8129882812
 40
0.8134765625
 40
0.814453125
 40
0.8154296875
 40
0.81640625
 40
0.818359375
 40
0.8203125
 40
0.82421875
 40
0.828125
 40
0.83203125
 40
0.8359375
 40
0.84375
 40
0.8515625
 40
0.859375
 40
0.86328125
 40
0.8671875
 40
0.869140625
 40
0.87109375
 40
0.873046875
 40
0.8740234375
 40
0.8745117188
 40
0.875
 40
0.8754882812
 40
0.8759765625
 40
0.876953125
 40
0.87890625
 40
0.880859375
 40
0.8828125
 40
0.88671875
 40
0.890625
 40
0.8984375
 40
0.90625
 40
0.9140625
 40
0.921875
 40
0.92578125
 40
0.9296875
 40
0.931640625
 40
0.93359375
 40
0.935546875
 40
0.9365234375
 40
0.9370117188
 40
0.9375
 40
0.9379882812
 40
0.9384765625
 40
0.939453125
 40
0.94140625
 40
0.943359375
 40
0.9453125
 40
0.94921875
 40
0.953125
 40
0.9609375
 40
0.96875
 40
0.9765625
 40
0.984375
 40
1.0
 40
1.0
 40
1.0
 40
1.0
 10
10.3376247249
 20
10.1891130249
 30
0.0
 10
10.334409221
 20
10.1892508
 30
0.0
 10
10.3279782122
 20
10.1895263468
 30
0.0
 10
10.3199394556
 20
10.1898707973
 30
0.0
 10
10.3135084411
 20
10.1901463219
 30
0.0
 10
10.3094890778
 20
10.1903186056
 30
0.0
 10
10.3062735397
 20
10.1904562476
 30
0.0
 10
10.303862016
 20
10.1905599855
 30
0.0
 10
10.3018519996
 20
10.1906448229
 30
0.0
 10
10.3004457994
 20
10.1907073704
 30
0.0
 10
10.2996409896
 20
10.1907381756
 30
0.0
 10
10.2990409509
 20
10.190775185
 30
0.0
 10
10.2984272713
 20
10.1907590402
 30
0.0
 10
10.2976137899
 20
10.1907560545
 30
0.0
 10
10.2961879807
 20
10.1907421911
 30
0.0
 10
10.2941522693
 20
10.1907269026
 30
0.0
 10
10.2917089196
 20
10.1907066232
 30
0.0
 10
10.2884512932
 20
10.1906802595
 30
0.0
 10
10.2843792015
 20
10.1906470715
 30
0.0
 10
10.2794927133
 20
10.1906073525
 30
0.0
 10
10.2746062316
 20
10.1905675804
 30
0.0
 10
10.2705341237
 20
10.1905345254
 30
0.0
 10
10.2672765296
 20
10.1905078958
 30
0.0
 10
10.2648330814
 20
10.1904884272
 30
0.0
 10
10.262797678
 20
10.1904706022
 30
0.0
 10
10.261371319
 20
10.1904612667
 30
0.0
 10
10.2605587185
 20
10.1904510262
 30
0.0
 10
10.2599423331
 20
10.190457166
 30
0.0
 10
10.2593524571
 20
10.190410478
 30
0.0
 10
10.258556709
 20
10.1903666543
 30
0.0
 10
10.2571684581
 20
10.1902813774
 30
0.0
 10
10.25518299
 20
10.1901640417
 30
0.0
 10
10.2528013925
 20
10.1900213176
 30
0.0
 10
10.2496255922
 20
10.1898316902
 30
0.0
 10
10.2456559588
 20
10.189594424
 30
0.0
 10
10.2408923424
 20
10.1893098107
 30
0.0
 10
10.236128764
 20
10.1890251443
 30
0.0
 10
10.2321590356
 20
10.1887880107
 30
0.0
 10
10.2289834254
 20
10.188598118
 30
0.0
 10
10.226601248
 20
10.188456203
 30
0.0
 10
10.2246175942
 20
10.1883363364
 30
0.0
 10
10.2232261045
 20
10.1882555775
 30
0.0
 10
10.2224355457
 20
10.1882045148
 30
0.0
 10
10.2218297298
 20
10.1881800627
 30
0.0
 10
10.221273212
 20
10.1881026881
 30
0.0
 10
10.2205139926
 20
10.1880179818
 30
0.0
 10
10.2191933704
 20
10.1878611451
 30
0.0
 10
10.2173025786
 20
10.1876415893
 30
0.0
 10
10.2150354213
 20
10.1873761975
 30
0.0
 10
10.2120119186
 20
10.1870230142
 30
0.0
 10
10.2082327555
 20
10.1865813043
 30
0.0
 10
10.203697666
 20
10.1860513518
 30
0.0
 10
10.1991626071
 20
10.1855213707
 30
0.0
 10
10.1953833677
 20
10.1850797324
 30
0.0
 10
10.1923600176
 20
10.1847264057
 30
0.0
 10
10.190470332
 20
10.1845056105
 30
0.0
 10
10.1889587936
 20
10.1843288968
 30
0.0
 10
10.1878245645
 20
10.1841965738
 30
0.0
 10
10.1868812038
 20
10.1840856292
 30
0.0
 10
10.1862172595
 20
10.1840092935
 30
0.0
 10
10.185843471
 20
10.1839636035
 30
0.0
 10
10.1855473312
 20
10.1839351659
 30
0.0
 10
10.1853115811
 20
10.1838844437
 30
0.0
 10
10.184976183
 20
10.1838245871
 30
0.0
 10
10.1843990507
 20
10.1837162166
 30
0.0
 10
10.183569445
 20
10.1835632949
 30
0.0
 10
10.1825761143
 20
10.1833789785
 30
0.0
 10
10.1812509064
 20
10.1831335064
 30
0.0
 10
10.1795946591
 20
10.1828265693
 30
0.0
 10
10.1769445166
 20
10.1823355241
 30
0.0
 10
10.1736318893
 20
10.1817216989
 30
0.0
 10
10.1696567131
 20
10.1809851172
 30
0.0
 10
10.1656815492
 20
10.1802485314
 30
0.0
 10
10.162368891
 20
10.1796347163
 30
0.0
 10
10.1597188101
 20
10.1791436508
 30
0.0
 10
10.1580624064
 20
10.1788367653
 30
0.0
 10
10.1567375194
 20
10.1785911872
 30
0.0
 10
10.1557432083
 20
10.1784071946
 30
0.0
 10
10.1549166702
 20
10.17825326
 30
0.0
 10
10.1543340617
 20
10.1781466977
 30
0.0
 10
10.1540074378
 20
10.1780839438
 30
0.0
 10
10.1537447362
 20
10.1780421214
 30
0.0
 10
10.153549822
 20
10.1779802578
 30
0.0
 10
10.1532662913
 20
10.1779047635
 30
0.0
 10
10.1527811294
 20
10.1777693916
 30
0.0
 10
10.1520822813
 20
10.1775777059
 30
0.0
 10
10.1512461289
 20
10.1773469542
 30
0.0
 10
10.1501303979
 20
10.1770395399
 30
0.0
 10
10.1487360291
 20
10.1766551848
 30
0.0
 10
10.1465048741
 20
10.1760402654
 30
0.0
 10
10.1437159869
 20
10.1752715995
 30
0.0
 10
10.1403692981
 20
10.1743492075
 30
0.0
 10
10.1375803961
 20
10.1735805459
 30
0.0
 10
10.1353492737
 20
10.1729656169
 30
0.0
 10
10.1336759311
 20
10.1725044203
 30
0.0
 10
10.1320025923
 20
10.1720432229
 30
0.0
 10
10.1306081311
 20
10.1716588942
 30
0.0
 10
10.1294925894
 20
10.1713514258
 30
0.0
 10
10.1287953139
 20
10.1711592704
 30
0.0
 10
10.1282376354
 20
10.1710055178
 30
0.0
 10
10.1278189881
 20
10.1708902808
 30
0.0
 10
10.1274713509
 20
10.1707940036
 30
0.0
 10
10.1272255801
 20
10.1707270929
 30
0.0
 10
10.1270889257
 20
10.1706881036
 30
0.0
 10
10.1269757695
 20
10.1706609874
 30
0.0
 10
10.1269033817
 20
10.1706257454
 30
0.0
 10
10.1267926442
 20
10.1705815904
 30
0.0
 10
10.1266054791
 20
10.1705029986
 30
0.0
 10
10.1263346364
 20
10.170391415
 30
0.0
 10
10.1260111078
 20
10.1702572192
 30
0.0
 10
10.1255792186
 20
10.1700783946
 30
0.0
 10
10.1250395344
 20
10.1698548285
 30
0.0
 10
10.1241759405
 20
10.1694971426
 30
0.0
 10
10.1230964821
 20
10.1690500284
 30
0.0
 10
10.1218011175
 20
10.1685134943
 30
0.0
 10
10.1205057568
 20
10.1679769594
 30
0.0
 10
10.1187786078
 20
10.1672615797
 30
0.0
 10
10.1166196721
 20
10.1663673551
 30
0.0
 10
10.1144607361
 20
10.1654731306
 30
0.0
 10
10.1127335877
 20
10.1647577509
 30
0.0
 10
10.1114382252
 20
10.1642212163
 30
0.0
 10
10.1101428671
 20
10.163684681
 30
0.0
 10
10.1090633886
 20
10.1632375703
 30
0.0
 10
10.1081998358
 20
10.1628798771
 30
0.0
 10
10.1076600471
 20
10.1626563296
 30
0.0
 10
10.1072283722
 20
10.1624774669
 30
0.0
 10
10.1069041887
 20
10.1623433875
 30
0.0
 10
10.1066353953
 20
10.1622314396
 30
0.0
 10
10.1064445718
 20
10.1621534982
 30
0.0
 10
10.106339696
 20
10.162108301
 30
0.0
 10
10.1062493029
 20
10.1620762605
 30
0.0
 10
10.1062037714
 20
10.16203712
 30
0.0
 10
10.1061274146
 20
10.1619874092
 30
0.0
 10
10.106001081
 20
10.1618992615
 30
0.0
 10
10.1058167926
 20
10.1617739395
 30
0.0
 10
10.1055972781
 20
10.1616232949
 30
0.0
 10
10.1053040222
 20
10.1614225256
 30
0.0
 10
10.1049376475
 20
10.161171533
 30
0.0
 10
10.1043513389
 20
10.1607699623
 30
0.0
 10
10.1036184906
 20
10.1602679928
 30
0.0
 10
10.1027390565
 20
10.1596656321
 30
0.0
 10
10.1018596268
 20
10.1590632707
 30
0.0
 10
10.1006870523
 20
10.1582601223
 30
0.0
 10
10.0992213348
 20
10.1572561868
 30
0.0
 10
10.0977556168
 20
10.1562522514
 30
0.0
 10
10.096583043
 20
10.155449103
 30
0.0
 10
10.0957036113
 20
10.1548467417
 30
0.0
 10
10.0948241846
 20
10.1542443802
 30
0.0
 10
10.0940913135
 20
10.1537424131
 30
0.0
 10
10.0935050512
 20
10.1533408377
 30
0.0
 10
10.0931385586
 20
10.1530898567
 30
0.0
 10
10.0928455448
 20
10.1528890638
 30
0.0
 10
10.0926252909
 20
10.1527384914
 30
0.0
 10
10.0924433157
 20
10.1526129432
 30
0.0
 10
10.0923128527
 20
10.1525251993
 30
0.0
 10
10.0922431122
 20
10.1524748415
 30
0.0
 10
10.0921772575
 20
10.1524376886
 30
0.0
 10
10.0921631951
 20
10.152398183
 30
0.0
 10
10.0921263796
 20
10.1523463295
 30
0.0
 10
10.0920703696
 20
10.1522552035
 30
0.0
 10
10.0919859547
 20
10.1521252234
 30
0.0
 10
10.0918865404
 20
10.1519691617
 30
0.0
 10
10.0917533301
 20
10.1517611094
 30
0.0
 10
10.0915870425
 20
10.1515010337
 30
0.0
 10
10.0913208564
 20
10.1510849183
 30
0.0
 10
10.090988167
 20
10.1505647722
 30
0.0
 10
10.0905889212
 20
10.1499405976
 30
0.0
 10
10.0901896804
 20
10.1493164228
 30
0.0
 10
10.0896573575
 20
10.1484841899
 30
0.0
 10
10.0889919546
 20
10.1474438986
 30
0.0
 10
10.0883265513
 20
10.1464036074
 30
0.0
 10
10.0877942291
 20
10.1455713744
 30
0.0
 10
10.0873949862
 20
10.1449471997
 30
0.0
 10
10.0869957482
 20
10.1443230249
 30
0.0
 10
10.0866630346
 20
10.1438028795
 30
0.0
 10
10.086396898
 20
10.1433867626
 30
0.0
 10
10.0862304846
 20
10.1431266909
 30
0.0
 10
10.0860975325
 20
10.1429186304
 30
0.0
 10
10.0859973293
 20
10.1427625935
 30
0.0
 10
10.0859153827
 20
10.142632536
 30
0.0
 10
10.0858549663
 20
10.1425415482
 30
0.0
 10
10.0858252108
 20
10.1424894732
 30
0.0
 10
10.0857894624
 20
10.1424506479
 30
0.0
 10
10.0858050571
 20
10.1424109399
 30
0.0
 10
10.085807941
 20
10.1423583039
 30
0.0
 10
10.0858213321
 20
10.1422660473
 30
0.0
 10
10.0858360997
 20
10.1421343272
 30
0.0
 10
10.085855688
 20
10.1419762309
 30
0.0
 10
10.0858811537
 20
10.1417654472
 30
0.0
 10
10.0859132091
 20
10.1415019636
 30
0.0
 10
10.0859643729
 20
10.1410803921
 30
0.0
 10
10.0860283705
 20
10.140553427
 30
0.0
 10
10.0861051492
 20
10.1399210691
 30
0.0
 10
10.0861819329
 20
10.1392887112
 30
0.0
 10
10.0862843094
 20
10.1384455673
 30
0.0
 10
10.0864122806
 20
10.1373916375
 30
0.0
 10
10.0865402514
 20
10.1363377076
 30
0.0
 10
10.0866426286
 20
10.1354945637
 30
0.0
 10
10.0867194102
 20
10.1348622058
 30
0.0
 10
10.0867961967
 20
10.134229848
 30
0.0
 10
10.0868601702
 20
10.1337028827
 30
0.0
 10
10.0869113831
 20
10.1332813116
 30
0.0
 10
10.0869433136
 20
10.133017827
 30
0.0
 10
10.0869690355
 20
10.1328070453
 30
0.0
 10
10.0869878409
 20
10.1326489427
 30
0.0
 10
10.0870050585
 20
10.1325172425
 30
0.0
 10
10.0870140759
 20
10.1324249504
 30
0.0
 10
10.0870239674
 20
10.1323723713
 30
0.0
 10
10.0870180369
 20
10.1323324883
 30
0.0
 10
10.087063134
 20
10.1322943205
 30
0.0
 10
10.0871054645
 20
10.1322428319
 30
0.0
 10
10.0871878358
 20
10.1321530055
 30
0.0
 10
10.0873011734
 20
10.1320245364
 30
0.0
 10
10.0874390344
 20
10.1318704358
 30
0.0
 10
10.0876222008
 20
10.1316649466
 30
0.0
 10
10.0878513807
 20
10.1314080925
 30
0.0
 10
10.0882179446
 20
10.1309971218
 30
0.0
 10
10.088676192
 20
10.1304834099
 30
0.0
 10
10.0892260706
 20
10.129866955
 30
0.0
 10
10.0897759541
 20
10.1292505003
 30
0.0
 10
10.0905091304
 20
10.1284285606
 30
0.0
 10
10.0914256015
 20
10.1274011359
 30
0.0
 10
10.0923420721
 20
10.1263737113
 30
0.0
 10
10.0930752491
 20
10.1255517716
 30
0.0
 10
10.0936251305
 20
10.1249353168
 30
0.0
 10
10.0941750169
 20
10.1243188622
 30
0.0
 10
10.0946332403
 20
10.1238051492
 30
0.0
 10
10.0949998531
 20
10.1233941809
 30
0.0
 10
10.0952289084
 20
10.1231373208
 30
0.0
 10
10.0954123306
 20
10.1229318439
 30
0.0
 10
10.0955494102
 20
10.1227777058
 30
0.0
 10
10.0956651925
 20
10.122649354
 30
0.0
 10
10.0957431997
 20
10.1225593181
 30
0.0
 10
10.0957925225
 20
10.1225081652
 30
0.0
 10
10.0958161414
 20
10.1224689661
 30
0.0
 10
10.0958908796
 20
10.1224329568
 30
0.0
 10
10.0959726996
 20
10.1223838317
 30
0.0
 10
10.0961241924
 20
10.1222983812
 30
0.0
 10
10.0963362672
 20
10.1221760381
 30
0.0
 10
10.0965926162
 20
10.1220293423
 30
0.0
 10
10.0969337654
 20
10.1218337075
 30
0.0
 10
10.0973604243
 20
10.1215891778
 30
0.0
 10
10.0980429542
 20
10.1211979225
 30
0.0
 10
10.0988961592
 20
10.1207088561
 30
0.0
 10
10.099919987
 20
10.1201219753
 30
0.0
 10
10.1009438197
 20
10.1195350947
 30
0.0
 10
10.1023089282
 20
10.1187525873
 30
0.0
 10
10.1040153144
 20
10.117774453
 30
0.0
 10
10.1057217003
 20
10.1167963186
 30
0.0
 10
10.1070868094
 20
10.1160138112
 30
0.0
 10
10.1081106402
 20
10.1154269304
 30
0.0
 10
10.1091344751
 20
10.1148400504
 30
0.0
 10
10.109987658
 20
10.1143509814
 30
0.0
 10
10.110670233
 20
10.1139597314
 30
0.0
 10
10.111096777
 20
10.1137151883
 30
0.0
 10
10.111438162
 20
10.113519581
 30
0.0
 10
10.1116937906
 20
10.1133728011
 30
0.0
 10
10.1119081192
 20
10.1132507213
 30
0.0
 10
10.1120555887
 20
10.1131648007
 30
0.0
 10
10.112143855
 20
10.113116429
 30
0.0
 10
10.1121987923
 20
10.1130781057
 30
0.0
 10
10.1122967802
 20
10.1130475974
 30
0.0
 10
10.1124124142
 20
10.1130041937
 30
0.0
 10
10.1126217702
 20
10.1129295074
 30
0.0
 10
10.1129171924
 20
10.1128221486
 30
0.0
 10
10.1132732646
 20
10.1126936022
 30
0.0
 10
10.1137474808
 20
10.1125221078
 30
0.0
 10
10.1143404383
 20
10.1123077739
 30
0.0
 10
10.1152890655
 20
10.1119648205
 30
0.0
 10
10.1164748855
 20
10.1115361353
 30
0.0
 10
10.1178978541
 20
10.1110217102
 30
0.0
 10
10.1193208268
 20
10.1105072859
 30
0.0
 10
10.1212181224
 20
10.1098213866
 30
0.0
 10
10.1235897422
 20
10.1089640125
 30
0.0
 10
10.1259613623
 20
10.1081066384
 30
0.0
 10
10.1278586574
 20
10.107420739
 30
0.0
 10
10.1292816314
 20
10.106906315
 30
0.0
 10
10.130704595
 20
10.1063918887
 30
0.0
 10
10.1318904306
 20
10.1059632075
 30
0.0
 10
10.1328390261
 20
10.105620246
 30
0.0
 10
10.1334320643
 20
10.1054059326
 30
0.0
 10
10.1339061147
 20
10.1052343958
 30
0.0
 10
10.1342626933
 20
10.1051059791
 30
0.0
 10
10.1345565313
 20
10.1049982149
 30
0.0
 10
10.1347990274
 20
10.1049136861
 30
0.0
 10
10.1349606088
 20
10.1048456921
 30
0.0
 10
10.13519964
 20
10.1047952465
 30
0.0
 10
10.135491294
 20
10.1047218558
 30
0.0
 10
10.1358651437
 20
10.1046322206
 30
0.0
 10
10.1363097903
 20
10.1045237582
 30
0.0
 10
10.1369040401
 20
10.1043794561
 30
0.0
 10
10.1376463772
 20
10.1041989707
 30
0.0
 10
10.1388343822
 20
10.1039102543
 30
0.0
 10
10.1403192972
 20
10.1035493382
 30
0.0
 10
10.1421012344
 20
10.1031162477
 30
0.0
 10
10.143883161
 20
10.1026831548
 30
0.0
 10
10.1462590671
 20
10.1021056985
 30
0.0
 10
10.1492289471
 20
10.1013838773
 30
0.0
 10
10.1527928097
 20
10.1005176942
 30
0.0
 10
10.1557626764
 20
10.0997958686
 30
0.0
 10
10.1581386117
 20
10.0992184222
 30
0.0
 10
10.1596234758
 20
10.0988574861
 30
0.0
 10
10.1608115856
 20
10.0985688107
 30
0.0
 10
10.1617020698
 20
10.0983521031
 30
0.0
 10
10.1624460429
 20
10.098172153
 30
0.0
 10
10.1629630895
 20
10.0980449328
 30
0.0
 10
10.163264376
 20
10.0979741953
 30
0.0
 10
10.163473914
 20
10.0979156214
 30
0.0
 10
10.1637462437
 20
10.0978781508
 30
0.0
 10
10.1640874475
 20
10.0978208288
 30
0.0
 10
10.1646947589
 20
10.0977239451
 30
0.0
 10
10.1655570115
 20
10.0975837468
 30
0.0
 10
10.1665939982
 20
10.0974162762
 30
0.0
 10
10.1679758495
 20
10.0971927141
 30
0.0
 10
10.1697034368
 20
10.0969133532
 30
0.0
 10
10.1724674237
 20
10.0964663244
 30
0.0
 10
10.17592246
 20
10.0959075562
 30
0.0
 10
10.1800684798
 20
10.0952370263
 30
0.0
 10
10.1842145108
 20
10.0945665005
 30
0.0
 10
10.1876695189
 20
10.0940077217
 30
0.0
 10
10.1904335623
 20
10.0935607142
 30
0.0
 10
10.1921610061
 20
10.0932812993
 30
0.0
 10
10.193543152
 20
10.0930578481
 30
0.0
 10
10.1945792387
 20
10.0928900385
 30
0.0
 10
10.1954443071
 20
10.092750901
 30
0.0
 10
10.1960465918
 20
10.0926521235
 30
0.0
 10
10.1963958496
 20
10.0925978358
 30
0.0
 10
10.19664344
 20
10.092551045
 30
0.0
 10
10.1969458947
 20
10.0925274762
 30
0.0
 10
10.1973300305
 20
10.092487951
 30
0.0
 10
10.1980111844
 20
10.0924225559
 30
0.0
 10
10.1989795998
 20
10.0923271613
 30
0.0
 10
10.2001436936
 20
10.0922135323
 30
0.0
 10
10.2016951217
 20
10.0920617319
 30
0.0
 10
10.2036346456
 20
10.0918720825
 30
0.0
 10
10.2067377503
 20
10.091568587
 30
0.0
 10
10.210616677
 20
10.091189237
 30
0.0
 10
10.2152713694
 20
10.0907340087
 30
0.0
 10
10.2199260671
 20
10.0902787826
 30
0.0
 10
10.2261323288
 20
10.0896718137
 30
0.0
 10
10.2307870255
 20
10.0892165871
 30
0.0
 10
10.2338901565
 20
10.0889131028
 30
0.0
  0
ENDSEC
  0
SECTION
  2
OBJECTS
  0
DICTIONARY
  5
C
100
AcDbDictionary
280
0
281
1
  3
ACAD_GROUP
350
D
  3
ACAD_MLINESTYLE
350
17
  3
ACAD_LAYOUT
350
1A
  3
ACAD_PLOTSETTINGS
350
19
  3
ACAD_PLOTSTYLENAME
350
E
  3
ACAD_IMAGE_DICT
350
       413
  3
ACAD_IMAGE_VARS
350
       414
  3
ACAD_TABLESTYLE
350
       415
  0
IMAGEDEF_REACTOR
  5
412
100
AcDbRasterImageDefReactor
 90
2
330
292
  0
DICTIONARY
  5
D
102
{ACAD_REACTORS
330
C
102
}
100
AcDbDictionary
280
0
281
1
  0
ACDBDICTIONARYWDFLT
  5
E
102
{ACAD_REACTORS
330
C
102
}
100
AcDbDictionary
281
1
  3
Normal
350
F
100
AcDbDictionaryWithDefault
340
F
  0
DICTIONARY
  5
413
330
C
100
AcDbDictionary
281
1
  3
XBK_assy_2_img_1
350
       418
  0
RASTERVARIABLES
  5
414
330
C
100
AcDbRasterVariables
 90
0
 70
0
 71
1
 72
5
  0
DICTIONARY
  5
17
102
{ACAD_REACTORS
330
C
102
}
100
AcDbDictionary
280
0
281
1
  3
Standard
350
18
  0
DICTIONARY
  5
415
330
C
100
AcDbDictionary
281
1
  3
Standard
350
       419
  3
Standard1
350
       41A
  0
DICTIONARY
  5
19
102
{ACAD_REACTORS
330
C
102
}
100
AcDbDictionary
281
1
  0
DICTIONARY
  5
1A
102
{ACAD_REACTORS
330
C
102
}
100
AcDbDictionary
281
1
  3
Model
350
416
  3
Layout1
350
417
  0
ACDBPLACEHOLDER
  5
F
102
{ACAD_REACTORS
330
E
102
}
  0
MLINESTYLE
  5
18
102
{ACAD_REACTORS
330
17
102
}
100
AcDbMlineStyle
  2
STANDARD
 70
0
  3

 62
256
 51
90.0
 52
90.0
 71
2
 49
0.5
 62
256
  6
BYLAYER
 49
-0.5
 62
256
  6
BYLAYER
  0
LAYOUT
  5
416
102
{ACAD_REACTORS
330
1A
102
}
100
AcDbPlotSettings
  1

  2
none_device
  4
ANSI_C_(22.00_x_17.00_Inches)
  6

 40
0.0
 41
0.0
 42
0.0
 43
0.0
 44
558.8
 45
431.8
 46
0.0
 47
0.0
 48
0.0
 49
0.0
140
0.0
141
0.0
142
1.0
143
1.0
 70
1024
 72
0
 73
0
 74
0
  7

 75
0
147
1.0
148
0.0
149
0.0
100
AcDbLayout
  1
Model
 70
0
 71
0
 10
0.0
 20
0.0
 11
22.0
 21
17.0
 12
0.0
 22
0.0
 32
0.0
 14
0.0
 24
0.0
 34
0.0
 15
0.0
 25
0.0
 35
0.0
146
0.0
 13
0.0
 23
0.0
 33
0.0
 16
1.0
 26
0.0
 36
0.0
 17
0.0
 27
1.0
 37
0.0
 76
0
330
20C
345
0
346
0
  0
LAYOUT
  5
417
102
{ACAD_REACTORS
330
1A
102
}
100
AcDbPlotSettings
  1

  2
none_device
  4
ANSI_C_(22.00_x_17.00_Inches)
  6

 40
0.0
 41
0.0
 42
0.0
 43
0.0
 44
558.8
 45
431.8
 46
0.0
 47
0.0
 48
0.0
 49
0.0
140
0.0
141
0.0
142
1.0
143
1.0
 70
0
 72
0
 73
0
 74
0
  7

 75
0
147
1.0
148
0.0
149
0.0
100
AcDbLayout
  1
Layout1
 70
0
 71
1
 10
0.0
 20
0.0
 11
22.0
 21
17.0
 12
0.0
 22
0.0
 32
0.0
 14
0.0
 24
0.0
 34
0.0
 15
0.0
 25
0.0
 35
0.0
146
0.0
 13
0.0
 23
0.0
 33
0.0
 16
1.0
 26
0.0
 36
0.0
 17
0.0
 27
1.0
 37
0.0
 76
0
330
20D
345
0
346
0
  0
IMAGEDEF
  5
418
102
{ACAD_REACTORS
330
413
330
412
102
}
100
AcDbRasterImageDef
 90
0
  1
XBK_assy_2_img_1.png
 10
369.0
 20
92.0
 11
0.0066666667
 21
0.0066666667
280
1
281
0
  0
TABLESTYLE
  5
419
102
{ACAD_REACTORS
330
415
330
295
330
296
102
}
330
415
100
AcDbTableStyle
  3
Standard
 70
0
 71
0
 40
0.06
 41
0.06
280
1
281
1
  7
Standard
140
0.18
170
1
 62
0
 63
7
283
0
  7
Standard
140
0.18
170
1
 62
0
 63
7
283
0
  7
Standard
140
0.18
170
1
 62
0
 63
7
283
0
  0
TABLESTYLE
  5
41A
102
{ACAD_REACTORS
330
415
330
294
102
}
330
415
100
AcDbTableStyle
  3
Standard1
 70
1
 71
0
 40
0.06
 41
0.06
280
1
281
1
  7
Standard
140
0.18
170
1
 62
0
 63
7
283
0
  7
Standard
140
0.18
170
1
 62
0
 63
7
283
0
  7
Standard
140
0.18
170
1
 62
0
 63
7
283
0
  0
ENDSEC
  0
EOF
